  0
SECTION
  2
HEADER
  9
$ACADVER
  1
AC1015
  9
$DWGCODEPAGE
  3
ANSI_932
  9
$LTSCALE
 40
20.0
  9
$FILLMODE
 70
     1
  9
$CLAYER
  8
0
  9
$PDMODE
 70
     0
  9
$SPLFRAME
 70
     0
  9
$SPLINETYPE
 70
     6
  9
$SPLINESEGS
 70
     8
  9
$DIMASZ
 40
2.000000
  9
$DIMEXE
 40
1.500000
  9
$DIMEXO
 40
0.800000
  9
$DIMTAD
 70
     1
  9
$DIMTIH
 70
     0
  9
$DIMTOH
 70
     0
  9
$DIMTVP
 40
0.500000
  9
$DIMTXT
 40
3.100000
  9
$EXTMIN
 10
0.000000
 20
0.000000
 30
0.000000
  9
$EXTMAX
 10
297.000000
 20
420.000000
 30
0.000000
  9
$MEASUREMENT
 70
  1
  9
$LIMMIN
 10
0.000000
 20
0.000000
  9
$LIMMAX
 10
297.000000
 20
420.000000
  9
$HANDSEED
  5
171
  9
$LWDISPLAY
290
     0
  9
$DIMBLK
  1
_OPEN
  9
$DIMDEC
 70
     2
  9
$DIMADEC
 70
     2
  9
$DIMAUNIT
 70
     0
  9
$DIMZIN
 70
     8
  9
$DIMAZIN
 70
     2
  9
$DIMTOFL
 70
     1
  0
ENDSEC
  0
SECTION
  2
CLASSES
  0
ENDSEC
  0
SECTION
  2
TABLES
  0
TABLE
  2
VPORT
  5
13D
100
AcDbSymbolTable
 70
     1
  0
VPORT
  5
13E
100
AcDbSymbolTableRecord
100
AcDbViewportTableRecord
  2
*ACTIVE
 70
     0
 12
135.055255
 22
88.534707
 40
141.069413
 41
1.772961
  0
ENDTAB
  0
TABLE
  2
LTYPE
  5
13F
100
AcDbSymbolTable
 70
     3
  0
LTYPE
  5
140
100
AcDbSymbolTableRecord
100
AcDbLinetypeTableRecord
  2
BYBLOCK
 70
     0
  3

 72
    65
 73
     0
 40
0.0
  0
LTYPE
  5
141
100
AcDbSymbolTableRecord
100
AcDbLinetypeTableRecord
  2
BYLAYER
 70
     0
  3

 72
    65
 73
     0
 40
0.0
  0
LTYPE
  5
142
100
AcDbSymbolTableRecord
100
AcDbLinetypeTableRecord
  2
CONTINUOUS
 70
     0
  3
Solid line (NEC CAE2D for Win R15.2 : 2020.06.04)
 72
    65
 73
     0
 40
0.0
  0
LTYPE
  5
143
100
AcDbSymbolTableRecord
100
AcDbLinetypeTableRecord
  2
DASHED
 70
     0
  3
__ __ __ __ __ __ __ __ __ __ __ __ __ _
 72
    65
 73
     2
 40
0.75
 49
0.5
 74
     0
 49
-0.25
 74
     0
  0
LTYPE
  5
144
100
AcDbSymbolTableRecord
100
AcDbLinetypeTableRecord
  2
CENTER
 70
     0
  3
____ _ ____ _ ____ _ ____ _ ____ _ ____
 72
    65
 73
     4
 40
2.0
 49
1.25
 74
     0
 49
-0.25
 74
     0
 49
0.25
 74
     0
 49
-0.25
 74
     0
  0
ENDTAB
  0
TABLE
  2
LAYER
  5
145
100
AcDbSymbolTable
 70
    13
  0
LAYER
  5
146
100
AcDbSymbolTableRecord
100
AcDbLayerTableRecord
  2
0
 70
     0
 62
     7
  6
CONTINUOUS
370
    -3
390

  0
LAYER
  5
147
100
AcDbSymbolTableRecord
100
AcDbLayerTableRecord
  2
A0
 70
     0
 62
     9
  6
CONTINUOUS
370
    -3
390

  0
LAYER
  5
148
100
AcDbSymbolTableRecord
100
AcDbLayerTableRecord
  2
A4
 70
     0
 62
     9
  6
CONTINUOUS
370
    -3
390

  0
LAYER
  5
149
100
AcDbSymbolTableRecord
100
AcDbLayerTableRecord
  2
A5
 70
     0
 62
     8
  6
CONTINUOUS
370
    -3
390

  0
LAYER
  5
14A
100
AcDbSymbolTableRecord
100
AcDbLayerTableRecord
  2
A6
 70
     0
 62
    12
  6
CONTINUOUS
370
    -3
390

  0
LAYER
  5
14B
100
AcDbSymbolTableRecord
100
AcDbLayerTableRecord
  2
A8
 70
     0
 62
    10
  6
CONTINUOUS
370
    -3
390

  0
LAYER
  5
14C
100
AcDbSymbolTableRecord
100
AcDbLayerTableRecord
  2
A9
 70
     0
 62
     9
  6
CONTINUOUS
370
    -3
390

  0
LAYER
  5
14D
100
AcDbSymbolTableRecord
100
AcDbLayerTableRecord
  2
A10
 70
     0
 62
     6
  6
CONTINUOUS
370
    -3
390

  0
LAYER
  5
14E
100
AcDbSymbolTableRecord
100
AcDbLayerTableRecord
  2
A20
 70
     0
 62
     1
  6
CONTINUOUS
370
    -3
390

  0
LAYER
  5
14F
100
AcDbSymbolTableRecord
100
AcDbLayerTableRecord
  2
A30
 70
     0
 62
     1
  6
CONTINUOUS
370
    -3
390

  0
LAYER
  5
150
100
AcDbSymbolTableRecord
100
AcDbLayerTableRecord
  2
A40
 70
     0
 62
     9
  6
CONTINUOUS
370
    -3
390

  0
LAYER
  5
151
100
AcDbSymbolTableRecord
100
AcDbLayerTableRecord
  2
A50
 70
     0
 62
    12
  6
CONTINUOUS
370
    -3
390

  0
LAYER
  5
152
100
AcDbSymbolTableRecord
100
AcDbLayerTableRecord
  2
A1023
 70
     0
 62
    16
  6
CONTINUOUS
370
    -3
390

  0
ENDTAB
  0
TABLE
  2
STYLE
  5
153
100
AcDbSymbolTable
 70
     4
  0
STYLE
  5
154
100
AcDbSymbolTableRecord
100
AcDbTextStyleTableRecord
  2
STANDARD
 70
    64
 40
0.0
 41
1.0
 50
0.0
 71
     0
 42
3.000000000000000
  3
TXT
  4

  0
STYLE
  5
155
100
AcDbSymbolTableRecord
100
AcDbTextStyleTableRecord
  2
ANKTATE
 70
    68
 40
0.0
 41
1.0
 50
0.0
 71
     0
 42
3.000000000000000
  3
TXT
  4

  0
STYLE
  5
156
100
AcDbSymbolTableRecord
100
AcDbTextStyleTableRecord
  2
KNJYOKO
 70
    64
 40
0.0
 41
1.0
 50
0.0
 71
     0
 42
3.000000000000000
  3
TXT
  4
BIGFONT
  0
STYLE
  5
157
100
AcDbSymbolTableRecord
100
AcDbTextStyleTableRecord
  2
KNJTATE
 70
    68
 40
0.0
 41
1.0
 50
0.0
 71
     0
 42
3.000000000000000
  3
TXT
  4
BIGFONT
  0
ENDTAB
  0
TABLE
  2
VIEW
  5
158
100
AcDbSymbolTable
 70
     0
  0
ENDTAB
  0
TABLE
  2
UCS
  5
159
100
AcDbSymbolTable
 70
     0
  0
ENDTAB
  0
TABLE
  2
APPID
  5
15A
100
AcDbSymbolTable
 70
     1
  0
APPID
  5
15B
100
AcDbSymbolTableRecord
100
AcDbRegAppTableRecord
  2
ACAD
 70
     0
  0
ENDTAB
  0
TABLE
  2
DIMSTYLE
  5
15C
100
AcDbSymbolTable
 70
     2
100
AcDbDimStyleTable
  0
DIMSTYLE
105
15D
100
AcDbSymbolTableRecord
100
AcDbDimStyleTableRecord
  2
STANDARD
 70
     0
 41
2.000000
 44
1.500000
 42
0.800000
145
0.661290
140
3.100000
144
1.000000
146
0.645161
340
154
  0
DIMSTYLE
105
15E
100
AcDbSymbolTableRecord
100
AcDbDimStyleTableRecord
  2
A001
 70
     0
 41
2.000000
 44
1.500000
 42
0.800000
145
0.661290
140
3.100000
144
1.000000
146
0.645161
 77
     1
 73
     0
 74
     0
271
     2
179
     2
275
     0
 78
     8
 79
     2
172
     1
340
154
  0
ENDTAB
  0
TABLE
  2
BLOCK_RECORD
  5
15F
100
AcDbSymbolTable
 70
    12
  0
BLOCK_RECORD
  5
160
100
AcDbSymbolTableRecord
100
AcDbBlockTableRecord
  2
*MODEL_SPACE
  0
BLOCK_RECORD
  5
161
100
AcDbSymbolTableRecord
100
AcDbBlockTableRecord
  2
*PAPER_SPACE
  0
BLOCK_RECORD
  5
162
100
AcDbSymbolTableRecord
100
AcDbBlockTableRecord
  2
*PAPER_SPACE0
  0
BLOCK_RECORD
  5
1
100
AcDbSymbolTableRecord
100
AcDbBlockTableRecord
  2
_NONE
  0
BLOCK_RECORD
  5
4
100
AcDbSymbolTableRecord
100
AcDbBlockTableRecord
  2
_CLOSED
  0
BLOCK_RECORD
  5
B
100
AcDbSymbolTableRecord
100
AcDbBlockTableRecord
  2
_DOT
  0
BLOCK_RECORD
  5
13
100
AcDbSymbolTableRecord
100
AcDbBlockTableRecord
  2
_OPEN
  0
BLOCK_RECORD
  5
19
100
AcDbSymbolTableRecord
100
AcDbBlockTableRecord
  2
_ORIGIN
  0
BLOCK_RECORD
  5
1E
100
AcDbSymbolTableRecord
100
AcDbBlockTableRecord
  2
_OPEN30
  0
BLOCK_RECORD
  5
24
100
AcDbSymbolTableRecord
100
AcDbBlockTableRecord
  2
_BOXFILLED
  0
BLOCK_RECORD
  5
29
100
AcDbSymbolTableRecord
100
AcDbBlockTableRecord
  2
_BOXBLANK
  0
BLOCK_RECORD
  5
31
100
AcDbSymbolTableRecord
100
AcDbBlockTableRecord
  2
_OBLIQUE
  0
BLOCK_RECORD
  5
35
100
AcDbSymbolTableRecord
100
AcDbBlockTableRecord
  2
_OPEN90
  0
BLOCK_RECORD
  5
3B
100
AcDbSymbolTableRecord
100
AcDbBlockTableRecord
  2
_CLOSEDBLANK
  0
BLOCK_RECORD
  5
41
100
AcDbSymbolTableRecord
100
AcDbBlockTableRecord
  2
_DOTBLANK
  0
ENDTAB
  0
ENDSEC
  0
SECTION
  2
BLOCKS
  0
BLOCK
  5
163
100
AcDbEntity
  8
0
100
AcDbBlockBegin
  2
*MODEL_SPACE
 70
     0
 10
0.0
 20
0.0
 30
0.0
  3
*MODEL_SPACE
  1

  0
ENDBLK
  5
164
100
AcDbEntity
  8
0
100
AcDbBlockEnd
  0
BLOCK
  5
165
100
AcDbEntity
  8
0
100
AcDbBlockBegin
  2
*PAPER_SPACE
 70
     0
 10
0.0
 20
0.0
 30
0.0
  3
*PAPER_SPACE
  1

  0
ENDBLK
  5
166
100
AcDbEntity
  8
0
100
AcDbBlockEnd
  0
BLOCK
  5
167
100
AcDbEntity
  8
0
100
AcDbBlockBegin
  2
*PAPER_SPACE0
 70
     0
 10
0.0
 20
0.0
 30
0.0
  3
*PAPER_SPACE0
  1

  0
ENDBLK
  5
168
100
AcDbEntity
  8
0
100
AcDbBlockEnd
  0
BLOCK
  5
2
330
1
100
AcDbEntity
  8
0
100
AcDbBlockBegin
  2
_NONE
 70
     0
 10
0.0
 20
0.0
 30
0.0
  3
_NONE
  1

  0
ENDBLK
  5
3
330
1
100
AcDbEntity
  8
0
100
AcDbBlockEnd
  0
BLOCK
  5
5
330
4
100
AcDbEntity
  8
0
100
AcDbBlockBegin
  2
_CLOSED
 70
     0
 10
0.0
 20
0.0
 30
0.0
  3
_CLOSED
  1

  0
LINE
  5
6
330
4
100
AcDbEntity
  8
0
  6
BYBLOCK
 62
     0
370
    -2
100
AcDbLine
 10
-1.0
 20
0.166667
 30
0.0
 11
0.0
 21
0.0
 31
0.0
  0
LINE
  5
7
330
4
100
AcDbEntity
  8
0
  6
BYBLOCK
 62
     0
370
    -2
100
AcDbLine
 10
0.0
 20
0.0
 30
0.0
 11
-1.0
 21
-0.166667
 31
0.0
  0
LINE
  5
8
330
4
100
AcDbEntity
  8
0
  6
BYBLOCK
 62
     0
370
    -2
100
AcDbLine
 10
-1.0
 20
0.166667
 30
0.0
 11
-1.0
 21
-0.166667
 31
0.0
  0
LINE
  5
9
330
4
100
AcDbEntity
  8
0
  6
BYBLOCK
 62
     0
370
    -2
100
AcDbLine
 10
0.0
 20
0.0
 30
0.0
 11
-1.0
 21
0.0
 31
0.0
  0
ENDBLK
  5
A
330
4
100
AcDbEntity
  8
0
100
AcDbBlockEnd
  0
BLOCK
  5
C
330
B
100
AcDbEntity
  8
0
100
AcDbBlockBegin
  2
_DOT
 70
     0
 10
0.0
 20
0.0
 30
0.0
  3
_DOT
  1

  0
POLYLINE
  5
D
330
B
100
AcDbEntity
  8
0
  6
BYBLOCK
 62
     0
370
    -2
100
AcDb2dPolyline
 66
     1
 10
0.0
 20
0.0
 30
0.0
 70
     1
 40
0.5
 41
0.5
  0
VERTEX
  5
E
330
B
100
AcDbEntity
  8
0
  6
BYBLOCK
 62
     0
370
    -2
100
AcDbVertex
100
AcDb2dVertex
 10
-0.25
 20
0.0
 30
0.0
 42
1.0
  0
VERTEX
  5
F
330
B
100
AcDbEntity
  8
0
  6
BYBLOCK
 62
     0
370
    -2
100
AcDbVertex
100
AcDb2dVertex
 10
0.25
 20
0.0
 30
0.0
 42
1.0
  0
SEQEND
  5
10
330
B
100
AcDbEntity
  8
0
  6
BYBLOCK
 62
     0
370
    -2
  0
LINE
  5
11
330
B
100
AcDbEntity
  8
0
  6
BYBLOCK
 62
     0
370
    -2
100
AcDbLine
 10
-0.5
 20
0.0
 30
0.0
 11
-1.0
 21
0.0
 31
0.0
  0
ENDBLK
  5
12
330
B
100
AcDbEntity
  8
0
100
AcDbBlockEnd
  0
BLOCK
  5
14
330
13
100
AcDbEntity
  8
0
100
AcDbBlockBegin
  2
_OPEN
 70
     0
 10
0.0
 20
0.0
 30
0.0
  3
_OPEN
  1

  0
LINE
  5
15
330
13
100
AcDbEntity
  8
0
  6
BYBLOCK
 62
     0
370
    -2
100
AcDbLine
 10
-1.0
 20
0.166667
 30
0.0
 11
0.0
 21
0.0
 31
0.0
  0
LINE
  5
16
330
13
100
AcDbEntity
  8
0
  6
BYBLOCK
 62
     0
370
    -2
100
AcDbLine
 10
0.0
 20
0.0
 30
0.0
 11
-1.0
 21
-0.166667
 31
0.0
  0
LINE
  5
17
330
13
100
AcDbEntity
  8
0
  6
BYBLOCK
 62
     0
370
    -2
100
AcDbLine
 10
0.0
 20
0.0
 30
0.0
 11
-1.0
 21
0.0
 31
0.0
  0
ENDBLK
  5
18
330
13
100
AcDbEntity
  8
0
100
AcDbBlockEnd
  0
BLOCK
  5
1A
330
19
100
AcDbEntity
  8
0
100
AcDbBlockBegin
  2
_ORIGIN
 70
     0
 10
0.0
 20
0.0
 30
0.0
  3
_ORIGIN
  1

  0
CIRCLE
  5
1B
330
19
100
AcDbEntity
  8
0
  6
BYBLOCK
 62
     0
370
    -2
100
AcDbCircle
 10
0.0
 20
0.0
 30
0.0
 40
0.5
  0
LINE
  5
1C
330
19
100
AcDbEntity
  8
0
  6
BYBLOCK
 62
     0
370
    -2
100
AcDbLine
 10
0.0
 20
0.0
 30
0.0
 11
-1.0
 21
0.0
 31
0.0
  0
ENDBLK
  5
1D
330
19
100
AcDbEntity
  8
0
100
AcDbBlockEnd
  0
BLOCK
  5
1F
330
1E
100
AcDbEntity
  8
0
100
AcDbBlockBegin
  2
_OPEN30
 70
     0
 10
0.0
 20
0.0
 30
0.0
  3
_OPEN30
  1

  0
LINE
  5
20
330
1E
100
AcDbEntity
  8
0
  6
BYBLOCK
 62
     0
370
    -2
100
AcDbLine
 10
-1.0
 20
0.267949
 30
0.0
 11
0.0
 21
0.0
 31
0.0
  0
LINE
  5
21
330
1E
100
AcDbEntity
  8
0
  6
BYBLOCK
 62
     0
370
    -2
100
AcDbLine
 10
0.0
 20
0.0
 30
0.0
 11
-1.0
 21
-0.267949
 31
0.0
  0
LINE
  5
22
330
1E
100
AcDbEntity
  8
0
  6
BYBLOCK
 62
     0
370
    -2
100
AcDbLine
 10
0.0
 20
0.0
 30
0.0
 11
-1.0
 21
0.0
 31
0.0
  0
ENDBLK
  5
23
330
1E
100
AcDbEntity
  8
0
100
AcDbBlockEnd
  0
BLOCK
  5
25
330
24
100
AcDbEntity
  8
0
100
AcDbBlockBegin
  2
_BOXFILLED
 70
     0
 10
0.0
 20
0.0
 30
0.0
  3
_BOXFILLED
  1

  0
SOLID
  5
26
330
24
100
AcDbEntity
  8
0
  6
BYBLOCK
 62
     0
370
    -2
100
AcDbTrace
 10
-0.5
 20
0.5
 30
0.0
 11
0.5
 21
0.5
 31
0.0
 12
-0.5
 22
-0.5
 32
0.0
 13
0.5
 23
-0.5
 33
0.0
  0
LINE
  5
27
330
24
100
AcDbEntity
  8
0
  6
BYBLOCK
 62
     0
370
    -2
100
AcDbLine
 10
-0.5
 20
0.0
 30
0.0
 11
-1.0
 21
0.0
 31
0.0
  0
ENDBLK
  5
28
330
24
100
AcDbEntity
  8
0
100
AcDbBlockEnd
  0
BLOCK
  5
2A
330
29
100
AcDbEntity
  8
0
100
AcDbBlockBegin
  2
_BOXBLANK
 70
     0
 10
0.0
 20
0.0
 30
0.0
  3
_BOXBLANK
  1

  0
LINE
  5
2B
330
29
100
AcDbEntity
  8
0
  6
BYBLOCK
 62
     0
370
    -2
100
AcDbLine
 10
-0.5
 20
-0.5
 30
0.0
 11
0.5
 21
-0.5
 31
0.0
  0
LINE
  5
2C
330
29
100
AcDbEntity
  8
0
  6
BYBLOCK
 62
     0
370
    -2
100
AcDbLine
 10
0.5
 20
-0.5
 30
0.0
 11
0.5
 21
0.5
 31
0.0
  0
LINE
  5
2D
330
29
100
AcDbEntity
  8
0
  6
BYBLOCK
 62
     0
370
    -2
100
AcDbLine
 10
0.5
 20
0.5
 30
0.0
 11
-0.5
 21
0.5
 31
0.0
  0
LINE
  5
2E
330
29
100
AcDbEntity
  8
0
  6
BYBLOCK
 62
     0
370
    -2
100
AcDbLine
 10
-0.5
 20
0.5
 30
0.0
 11
-0.5
 21
-0.5
 31
0.0
  0
LINE
  5
2F
330
29
100
AcDbEntity
  8
0
  6
BYBLOCK
 62
     0
370
    -2
100
AcDbLine
 10
-0.5
 20
0.0
 30
0.0
 11
-1.0
 21
0.0
 31
0.0
  0
ENDBLK
  5
30
330
29
100
AcDbEntity
  8
0
100
AcDbBlockEnd
  0
BLOCK
  5
32
330
31
100
AcDbEntity
  8
0
100
AcDbBlockBegin
  2
_OBLIQUE
 70
     0
 10
0.0
 20
0.0
 30
0.0
  3
_OBLIQUE
  1

  0
LINE
  5
33
330
31
100
AcDbEntity
  8
0
  6
BYBLOCK
 62
     0
370
    -2
100
AcDbLine
 10
-0.5
 20
-0.5
 30
0.0
 11
0.5
 21
0.5
 31
0.0
  0
ENDBLK
  5
34
330
31
100
AcDbEntity
  8
0
100
AcDbBlockEnd
  0
BLOCK
  5
36
330
35
100
AcDbEntity
  8
0
100
AcDbBlockBegin
  2
_OPEN90
 70
     0
 10
0.0
 20
0.0
 30
0.0
  3
_OPEN90
  1

  0
LINE
  5
37
330
35
100
AcDbEntity
  8
0
  6
BYBLOCK
 62
     0
370
    -2
100
AcDbLine
 10
-0.5
 20
0.5
 30
0.0
 11
0.0
 21
0.0
 31
0.0
  0
LINE
  5
38
330
35
100
AcDbEntity
  8
0
  6
BYBLOCK
 62
     0
370
    -2
100
AcDbLine
 10
0.0
 20
0.0
 30
0.0
 11
-0.5
 21
-0.5
 31
0.0
  0
LINE
  5
39
330
35
100
AcDbEntity
  8
0
  6
BYBLOCK
 62
     0
370
    -2
100
AcDbLine
 10
0.0
 20
0.0
 30
0.0
 11
-1.0
 21
0.0
 31
0.0
  0
ENDBLK
  5
3A
330
35
100
AcDbEntity
  8
0
100
AcDbBlockEnd
  0
BLOCK
  5
3C
330
3B
100
AcDbEntity
  8
0
100
AcDbBlockBegin
  2
_CLOSEDBLANK
 70
     0
 10
0.0
 20
0.0
 30
0.0
  3
_CLOSEDBLANK
  1

  0
LINE
  5
3D
330
3B
100
AcDbEntity
  8
0
  6
BYBLOCK
 62
     0
370
    -2
100
AcDbLine
 10
-1.0
 20
0.1666666666666666
 30
0.0
 11
0.0
 21
0.0
 31
0.0
  0
LINE
  5
3E
330
3B
100
AcDbEntity
  8
0
  6
BYBLOCK
 62
     0
370
    -2
100
AcDbLine
 10
0.0
 20
0.0
 30
0.0
 11
-1.0
 21
-0.1666666666666666
 31
0.0
  0
LINE
  5
3F
330
3B
100
AcDbEntity
  8
0
  6
BYBLOCK
 62
     0
370
    -2
100
AcDbLine
 10
-1.0
 20
0.1666666666666666
 30
0.0
 11
-1.0
 21
-0.1666666666666666
 31
0.0
  0
ENDBLK
  5
40
330
3B
100
AcDbEntity
  8
0
100
AcDbBlockEnd
  0
BLOCK
  5
42
330
41
100
AcDbEntity
  8
0
100
AcDbBlockBegin
  2
_DOTBLANK
 70
     0
 10
0.0
 20
0.0
 30
0.0
  3
_DOTBLANK
  1

  0
CIRCLE
  5
43
330
41
100
AcDbEntity
  8
0
  6
BYBLOCK
 62
     0
370
    -2
100
AcDbCircle
 10
0.0
 20
0.0
 30
0.0
 40
0.5
  0
LINE
  5
44
330
41
100
AcDbEntity
  8
0
  6
BYBLOCK
 62
     0
370
    -2
100
AcDbLine
 10
-0.5
 20
0.0
 30
0.0
 11
-1.0
 21
0.0
 31
0.0
  0
ENDBLK
  5
45
330
41
100
AcDbEntity
  8
0
100
AcDbBlockEnd
  0
ENDSEC
  0
SECTION
  2
ENTITIES
  0
MTEXT
  5
46
100
AcDbEntity
  8
A8
  6
CONTINUOUS
 62
7
100
AcDbMText
 10
9.999997526638502
 20
18.00000076076889
 30
0.0000000000000000
 40
3.000000000000000
 41
0.0000000000000000
 44
0.6739999771118164
 71
     7
 72
     1
  1
{\H0.93x;{TYPE No.LD-0040\P}
 11
1.000000000000000
 21
0.0000000000000000
 31
0.0000000000000000
  7
STANDARD
  0
POINT
  5
47
100
AcDbEntity
  8
A0
  6
CONTINUOUS
 62
5
100
AcDbPoint
 10
9.999997526638502
 20
18.00000076076889
 30
0.0000000000000000
  0
POINT
  5
48
100
AcDbEntity
  8
A10
  6
CONTINUOUS
 62
5
100
AcDbPoint
 10
50.00000000000000
 20
50.00000000000000
 30
0.0000000000000000
  0
LINE
  5
49
100
AcDbEntity
  8
A10
  6
CONTINUOUS
 62
7
100
AcDbLine
 10
129.1749425651800
 20
60.56667666669786
 30
0.0000000000000000
 11
129.1642609897951
 21
60.56402852613368
 31
0.0000000000000000
  0
LINE
  5
4A
100
AcDbEntity
  8
A10
  6
CONTINUOUS
 62
7
100
AcDbLine
 10
218.2560872557066
 20
85.95000000001023
 30
0.0000000000000000
 11
218.2560872556811
 21
73.75000000001019
 31
0.0000000000000000
  0
LINE
  5
4B
100
AcDbEntity
  8
A10
  6
CONTINUOUS
 62
7
100
AcDbLine
 10
192.7560872557942
 20
85.95000000004983
 30
0.0000000000000000
 11
192.7560872557926
 21
84.90000000003919
 31
0.0000000000000000
  0
LINE
  5
4C
100
AcDbEntity
  8
A10
  6
CENTER
 62
1
100
AcDbLine
 10
94.62817445183411
 20
76.35000000002802
 30
0.0000000000000000
 11
231.2281940347858
 21
76.35000000002802
 31
0.0000000000000000
  0
LINE
  5
4D
100
AcDbEntity
  8
A10
  6
CENTER
 62
1
100
AcDbLine
 10
222.5060872557049
 20
80.09999999998854
 30
0.0000000000000000
 11
222.5060872557049
 21
72.59999999998857
 31
0.0000000000000000
  0
LINE
  5
4E
100
AcDbEntity
  8
A10
  6
CONTINUOUS
 62
7
100
AcDbLine
 10
206.2560872557701
 20
73.85000000001024
 30
0.0000000000000000
 11
206.2560872557690
 21
74.75000000001022
 31
0.0000000000000000
  0
LINE
  5
4F
100
AcDbEntity
  8
A10
  6
CONTINUOUS
 62
7
100
AcDbLine
 10
197.7560872557876
 20
73.85000000004986
 30
0.0000000000000000
 11
197.7560872557874
 21
74.75000000004978
 31
0.0000000000000000
  0
LINE
  5
50
100
AcDbEntity
  8
A10
  6
CONTINUOUS
 62
7
100
AcDbLine
 10
211.2560872558261
 20
85.95000000001029
 30
0.0000000000000000
 11
211.2560872558269
 21
84.95000000001041
 31
0.0000000000000000
  0
LINE
  5
51
100
AcDbEntity
  8
A10
  6
CONTINUOUS
 62
7
100
AcDbLine
 10
202.7560872558166
 20
84.95000000004976
 30
0.0000000000000000
 11
197.7560872557877
 21
84.95000000004976
 31
0.0000000000000000
  0
LINE
  5
52
100
AcDbEntity
  8
A10
  6
CONTINUOUS
 62
7
100
AcDbLine
 10
197.7560872557878
 20
84.95000000004988
 30
0.0000000000000000
 11
197.7560872557844
 21
85.95000000004988
 31
0.0000000000000000
  0
LINE
  5
53
100
AcDbEntity
  8
A10
  6
CONTINUOUS
 62
7
100
AcDbLine
 10
202.7560872558166
 20
84.95000000004994
 30
0.0000000000000000
 11
202.7560872558133
 21
85.95000000004983
 31
0.0000000000000000
  0
LINE
  5
54
100
AcDbEntity
  8
A10
  6
CONTINUOUS
 62
7
100
AcDbLine
 10
211.2560872558295
 20
84.95000000001028
 30
0.0000000000000000
 11
206.2560872558004
 21
84.95000000001028
 31
0.0000000000000000
  0
LINE
  5
55
100
AcDbEntity
  8
A10
  6
CONTINUOUS
 62
7
100
AcDbLine
 10
206.2560872558006
 20
85.85000000001003
 30
0.0000000000000000
 11
206.2560872558005
 21
84.95000000001028
 31
0.0000000000000000
  0
LINE
  5
56
100
AcDbEntity
  8
A10
  6
CONTINUOUS
 62
7
100
AcDbLine
 10
202.7560872558166
 20
74.75000000004971
 30
0.0000000000000000
 11
197.7560872557877
 21
74.75000000004971
 31
0.0000000000000000
  0
LINE
  5
57
100
AcDbEntity
  8
A10
  6
CONTINUOUS
 62
7
100
AcDbLine
 10
202.7560872558166
 20
74.75000000004958
 30
0.0000000000000000
 11
202.7560872558133
 21
73.75000000004970
 31
0.0000000000000000
  0
LINE
  5
58
100
AcDbEntity
  8
A10
  6
CONTINUOUS
 62
7
100
AcDbLine
 10
211.2560872558295
 20
74.75000000001023
 30
0.0000000000000000
 11
206.2560872558004
 21
74.75000000001023
 31
0.0000000000000000
  0
LINE
  5
59
100
AcDbEntity
  8
A10
  6
CONTINUOUS
 62
7
100
AcDbLine
 10
211.2560872558293
 20
74.75000000001010
 30
0.0000000000000000
 11
211.2560872558260
 21
73.75000000001022
 31
0.0000000000000000
  0
CIRCLE
  5
5A
100
AcDbEntity
  8
A10
  6
CONTINUOUS
 62
7
100
AcDbCircle
 10
169.2560872558124
 20
79.85000000004973
 30
0.0000000000000000
 40
2.000000000000000
  0
LINE
  5
5B
100
AcDbEntity
  8
A10
  6
CENTER
 62
1
100
AcDbLine
 10
169.2560872558124
 20
83.35000000004973
 30
0.0000000000000000
 11
169.2560872558124
 21
76.35000000004973
 31
0.0000000000000000
  0
LINE
  5
5C
100
AcDbEntity
  8
A10
  6
CONTINUOUS
 62
7
100
AcDbLine
 10
197.7560872557843
 20
85.95000000004976
 30
0.0000000000000000
 11
192.7560872557925
 21
85.95000000004976
 31
0.0000000000000000
  0
LINE
  5
5D
100
AcDbEntity
  8
A10
  6
CONTINUOUS
 62
7
100
AcDbLine
 10
197.7560872557842
 20
73.75000000004971
 30
0.0000000000000000
 11
192.7560872556935
 21
73.75000000004971
 31
0.0000000000000000
  0
LINE
  5
5E
100
AcDbEntity
  8
A10
  6
CONTINUOUS
 62
7
100
AcDbLine
 10
218.2560872556813
 20
73.75000000001023
 30
0.0000000000000000
 11
211.2560872558259
 21
73.75000000001023
 31
0.0000000000000000
  0
LINE
  5
5F
100
AcDbEntity
  8
A10
  6
CONTINUOUS
 62
7
100
AcDbLine
 10
206.2560872557700
 20
73.75000000004971
 30
0.0000000000000000
 11
202.7560872558133
 21
73.75000000004971
 31
0.0000000000000000
  0
LINE
  5
60
100
AcDbEntity
  8
A10
  6
CONTINUOUS
 62
7
100
AcDbLine
 10
218.2560872557067
 20
85.95000000001028
 30
0.0000000000000000
 11
211.2560872558261
 21
85.95000000001028
 31
0.0000000000000000
  0
LINE
  5
61
100
AcDbEntity
  8
A10
  6
CONTINUOUS
 62
7
100
AcDbLine
 10
206.2560872558007
 20
85.95000000004976
 30
0.0000000000000000
 11
202.7560872558134
 21
85.95000000004976
 31
0.0000000000000000
  0
LINE
  5
62
100
AcDbEntity
  8
A10
  6
CONTINUOUS
 62
7
100
AcDbLine
 10
192.7560872557748
 20
73.75000000004964
 30
0.0000000000000000
 11
192.7560872557925
 21
85.85000000004972
 31
0.0000000000000000
  0
ARC
  5
63
100
AcDbEntity
  8
A10
  6
CONTINUOUS
 62
7
100
AcDbCircle
 10
169.2560872558124
 20
79.85000000004973
 30
0.0000000000000000
 40
2.250000000000000
100
AcDbArc
 50
90.00000000000000
 51
270.0000000000000
  0
ARC
  5
64
100
AcDbEntity
  8
A10
  6
CONTINUOUS
 62
7
100
AcDbCircle
 10
172.2560872558124
 20
79.85000000004973
 30
0.0000000000000000
 40
2.250000000000000
100
AcDbArc
 50
270.0000000000000
 51
450.0000000000000
  0
LINE
  5
65
100
AcDbEntity
  8
A10
  6
CONTINUOUS
 62
7
100
AcDbLine
 10
172.2560872558124
 20
82.10000000004973
 30
0.0000000000000000
 11
169.2560872558124
 21
82.10000000004973
 31
0.0000000000000000
  0
LINE
  5
66
100
AcDbEntity
  8
A10
  6
CONTINUOUS
 62
7
100
AcDbLine
 10
169.2560872558124
 20
77.60000000004973
 30
0.0000000000000000
 11
172.2560872558124
 21
77.60000000004973
 31
0.0000000000000000
  0
LINE
  5
67
100
AcDbEntity
  8
A10
  6
CENTER
 62
1
100
AcDbLine
 10
231.2281940347858
 20
79.85000000004973
 30
0.0000000000000000
 11
113.8984752971451
 21
79.85000000004973
 31
0.0000000000000000
  0
LINE
  5
68
100
AcDbEntity
  8
A10
  6
CONTINUOUS
 62
7
100
AcDbLine
 10
153.2988476349879
 20
63.74999999849260
 30
0.0000000000000000
 11
225.2560872557632
 21
63.74999999866475
 31
0.0000000000000000
  0
LINE
  5
69
100
AcDbEntity
  8
A10
  6
CONTINUOUS
 62
7
100
AcDbLine
 10
228.3560872572481
 20
66.85000000018269
 30
0.0000000000000000
 11
228.3560872571904
 21
85.85000000018263
 31
0.0000000000000000
  0
ARC
  5
6A
100
AcDbEntity
  8
A10
  6
CONTINUOUS
 62
7
100
AcDbCircle
 10
225.2560872557559
 20
66.85000000017320
 30
0.0000000000000000
 40
3.100000001490116
100
AcDbArc
 50
270.0000000000000
 51
360.0000000000000
  0
ARC
  5
6B
100
AcDbEntity
  8
A10
  6
CONTINUOUS
 62
7
100
AcDbCircle
 10
225.2560872557002
 20
85.85000000017317
 30
0.0000000000000000
 40
3.100000001490116
100
AcDbArc
 50
0.0000000000000000
 51
90.00000000000000
  0
LINE
  5
6C
100
AcDbEntity
  8
A10
  6
CONTINUOUS
 62
7
100
AcDbLine
 10
225.2560872556927
 20
88.95000000164509
 30
0.0000000000000000
 11
172.8370455775114
 21
88.95000000151973
 31
0.0000000000000000
  0
LINE
  5
6D
100
AcDbEntity
  8
A10
  6
CONTINUOUS
 62
7
100
AcDbLine
 10
133.0060872558169
 20
102.6999999998912
 30
0.0000000000000000
 11
124.2560872556509
 21
102.6999999998575
 31
0.0000000000000000
  0
LINE
  5
6E
100
AcDbEntity
  8
A10
  6
CONTINUOUS
 62
7
100
AcDbLine
 10
124.2560872556509
 20
49.99999999989967
 30
0.0000000000000000
 11
124.2560872556509
 21
102.6999999998531
 31
0.0000000000000000
  0
LINE
  5
6F
100
AcDbEntity
  8
A10
  6
CONTINUOUS
 62
7
100
AcDbLine
 10
133.0060872559146
 20
49.99999999988161
 30
0.0000000000000000
 11
124.2560872556509
 21
49.99999999989767
 31
0.0000000000000000
  0
LINE
  5
70
100
AcDbEntity
  8
A10
  6
CENTER
 62
1
100
AcDbLine
 10
129.2560872558548
 20
54.85000000003816
 30
0.0000000000000000
 11
136.7560872558548
 21
54.85000000003816
 31
0.0000000000000000
  0
LINE
  5
71
100
AcDbEntity
  8
A10
  6
CENTER
 62
1
100
AcDbLine
 10
133.0060872558548
 20
58.60000000003816
 30
0.0000000000000000
 11
133.0060872558548
 21
51.10000000003816
 31
0.0000000000000000
  0
LINE
  5
72
100
AcDbEntity
  8
A10
  6
CENTER
 62
1
100
AcDbLine
 10
129.2560872558599
 20
97.85000000004371
 30
0.0000000000000000
 11
136.7560872558599
 21
97.85000000004371
 31
0.0000000000000000
  0
LINE
  5
73
100
AcDbEntity
  8
A10
  6
CENTER
 62
1
100
AcDbLine
 10
133.0060872558599
 20
101.6000000000437
 30
0.0000000000000000
 11
133.0060872558599
 21
94.10000000004371
 31
0.0000000000000000
  0
LINE
  5
74
100
AcDbEntity
  8
A10
  6
CONTINUOUS
 62
7
100
AcDbLine
 10
173.1757844718338
 20
88.95000000152039
 30
0.0000000000000000
 11
134.6060751659168
 21
102.4284865061464
 31
0.0000000000000000
  0
ARC
  5
75
100
AcDbEntity
  8
A10
  6
CONTINUOUS
 62
7
100
AcDbCircle
 10
133.0060872558168
 20
97.84999999993798
 30
0.0000000000000000
 40
4.849999999953070
100
AcDbArc
 50
72.68011855064904
 51
90.00000000000000
  0
LINE
  5
76
100
AcDbEntity
  8
A10
  6
CONTINUOUS
 62
7
100
AcDbLine
 10
153.3336122698989
 20
63.74999999849271
 30
0.0000000000000000
 11
135.8752926671964
 21
50.93973654226566
 31
0.0000000000000000
  0
ARC
  5
77
100
AcDbEntity
  8
A10
  6
CONTINUOUS
 62
7
100
AcDbCircle
 10
133.0060872559146
 20
54.84999999993244
 30
0.0000000000000000
 40
4.850000000050818
100
AcDbArc
 50
270.0000000000000
 51
306.2698315735722
  0
LINE
  5
78
100
AcDbEntity
  8
A10
  6
CONTINUOUS
 62
7
100
AcDbLine
 10
117.0060872558403
 20
79.85000000002753
 30
0.0000000000000000
 11
114.1172746766494
 21
79.85000000002228
 31
0.0000000000000000
  0
LINE
  5
79
100
AcDbEntity
  8
A10
  6
CONTINUOUS
 62
7
100
AcDbLine
 10
112.2560872558456
 20
84.85000000004973
 30
0.0000000000000000
 11
124.2560872556509
 21
84.85000000004973
 31
0.0000000000000000
  0
LINE
  5
7A
100
AcDbEntity
  8
A10
  6
DASHED
 62
4
100
AcDbLine
 10
107.2560872558456
 20
79.85000000004803
 30
0.0000000000000000
 11
107.2560872558456
 21
70.35000000003902
 31
0.0000000000000000
  0
ARC
  5
7B
100
AcDbEntity
  8
A10
  6
CONTINUOUS
 62
7
100
AcDbCircle
 10
112.2560872558456
 20
79.85000000004803
 30
0.0000000000000000
 40
5.000000000000000
100
AcDbArc
 50
90.00000000000000
 51
180.0000000000000
  0
LINE
  5
7C
100
AcDbEntity
  8
A10
  6
DASHED
 62
4
100
AcDbLine
 10
111.3254935454489
 20
69.85000000003075
 30
0.0000000000000000
 11
107.7560872558528
 21
69.85000000001858
 31
0.0000000000000000
  0
ARC
  5
7D
100
AcDbEntity
  8
A10
  6
DASHED
 62
4
100
AcDbCircle
 10
107.7560872558456
 20
70.35000000003902
 30
0.0000000000000000
 40
0.5000000000000000
100
AcDbArc
 50
180.0000000000000
 51
270.0000000000000
  0
ARC
  5
7E
100
AcDbEntity
  8
A10
  6
DASHED
 62
4
100
AcDbCircle
 10
111.3254935454416
 20
70.35000000004914
 30
0.0000000000000000
 40
0.5000000000000000
100
AcDbArc
 50
270.0000000000000
 51
351.4692343900409
  0
LINE
  5
7F
100
AcDbEntity
  8
A10
  6
DASHED
 62
4
100
AcDbLine
 10
113.1283383237834
 20
78.99834045293542
 30
0.0000000000000000
 11
111.8199617218813
 21
70.27582977356596
 31
0.0000000000000000
  0
ARC
  5
80
100
AcDbEntity
  8
A10
  6
DASHED
 62
4
100
AcDbCircle
 10
114.1172746766512
 20
78.85000000002222
 30
0.0000000000000000
 40
1.000000000000000
100
AcDbArc
 50
90.00000000000000
 51
171.4692343900401
  0
ARC
  5
81
100
AcDbEntity
  8
A10
  6
CONTINUOUS
 62
7
100
AcDbCircle
 10
119.2628847130036
 20
55.79229334164074
 30
0.0000000000000000
 40
1.000000000000000
100
AcDbArc
 50
172.4545539211051
 51
307.4545539210629
  0
LINE
  5
82
100
AcDbEntity
  8
A10
  6
CONTINUOUS
 62
7
100
AcDbLine
 10
119.8710166756352
 20
54.99845739131729
 30
0.0000000000000000
 11
124.2560872556509
 21
58.35771767300761
 31
0.0000000000000000
  0
ARC
  5
83
100
AcDbEntity
  8
A10
  6
CONTINUOUS
 62
7
100
AcDbCircle
 10
122.8640947882193
 20
82.97954460112425
 30
0.0000000000000000
 40
1.000000000000000
100
AcDbArc
 50
92.45455392110533
 51
172.4545539211073
  0
LINE
  5
84
100
AcDbEntity
  8
A10
  6
CENTER
 62
1
100
AcDbLine
 10
170.7560872558124
 20
79.85000000004973
 30
0.0000000000000000
 11
176.0060872558124
 21
79.85000000004973
 31
0.0000000000000000
  0
LINE
  5
85
100
AcDbEntity
  8
A10
  6
CENTER
 62
1
100
AcDbLine
 10
172.2560872558124
 20
83.60000000004973
 30
0.0000000000000000
 11
172.2560872558124
 21
76.10000000004973
 31
0.0000000000000000
  0
LINE
  5
86
100
AcDbEntity
  8
A10
  6
CONTINUOUS
 62
7
100
AcDbLine
 10
102.5060872556467
 20
88.09999999988139
 30
0.0000000000000000
 11
100.5060872558796
 21
88.09999999988139
 31
0.0000000000000000
  0
LINE
  5
87
100
AcDbEntity
  8
A10
  6
CONTINUOUS
 62
7
100
AcDbLine
 10
102.5060872557842
 20
59.59999999988204
 30
0.0000000000000000
 11
100.5060872558105
 21
59.59999999988204
 31
0.0000000000000000
  0
LINE
  5
88
100
AcDbEntity
  8
A10
  6
CONTINUOUS
 62
7
100
AcDbLine
 10
100.5060872558105
 20
59.59999999988203
 30
0.0000000000000000
 11
100.5060872558796
 21
88.09999999983852
 31
0.0000000000000000
  0
LINE
  5
89
100
AcDbEntity
  8
A10
  6
CONTINUOUS
 62
7
100
AcDbLine
 10
116.5060872558801
 20
79.85000000001885
 30
0.0000000000000000
 11
100.5060872558656
 21
79.85000000009610
 31
0.0000000000000000
  0
LINE
  5
8A
100
AcDbEntity
  8
A10
  6
CONTINUOUS
 62
7
100
AcDbLine
 10
116.4945844472965
 20
67.85000000001899
 30
0.0000000000000000
 11
100.5060872558366
 21
67.85000000009602
 31
0.0000000000000000
  0
CIRCLE
  5
8B
100
AcDbEntity
  8
A10
  6
DASHED
 62
4
100
AcDbCircle
 10
116.5060872558512
 20
73.85000000003336
 30
0.0000000000000000
 40
4.000000000000000
  0
LINE
  5
8C
100
AcDbEntity
  8
A10
  6
CENTER
 62
1
100
AcDbLine
 10
116.5060872558512
 20
79.35000000003336
 30
0.0000000000000000
 11
116.5060872558512
 21
68.35000000003333
 31
0.0000000000000000
  0
LINE
  5
8D
100
AcDbEntity
  8
A10
  6
CENTER
 62
1
100
AcDbLine
 10
104.9870261152647
 20
83.84999999988133
 30
0.0000000000000000
 11
99.53490985829453
 21
83.84999999988133
 31
0.0000000000000000
  0
LINE
  5
8E
100
AcDbEntity
  8
A10
  6
CENTER
 62
1
100
AcDbLine
 10
104.4870261152647
 20
63.84999999988204
 30
0.0000000000000000
 11
99.03490985829453
 21
63.84999999988204
 31
0.0000000000000000
  0
CIRCLE
  5
8F
100
AcDbEntity
  8
A10
  6
DASHED
 62
4
100
AcDbCircle
 10
116.5060872558512
 20
73.85000000003336
 30
0.0000000000000000
 40
3.500000000000000
  0
ARC
  5
90
100
AcDbEntity
  8
A10
  6
CONTINUOUS
 62
7
100
AcDbCircle
 10
116.5060872558512
 20
73.85000000003336
 30
0.0000000000000000
 40
5.999999999922579
100
AcDbArc
 50
270.0000000000000
 51
450.0000000000000
  0
LINE
  5
91
100
AcDbEntity
  8
A10
  6
CONTINUOUS
 62
7
100
AcDbLine
 10
122.9091069041203
 20
83.97853104218444
 30
0.0000000000000000
 11
124.2560872556509
 21
83.91783909161572
 31
0.0000000000000000
  0
LINE
  5
92
100
AcDbEntity
  8
A10
  6
CENTER
 62
1
100
AcDbLine
 10
124.4945844472271
 20
73.85000000003336
 30
0.0000000000000000
 11
99.73691663916378
 21
73.85000000003336
 31
0.0000000000000000
  0
LINE
  5
93
100
AcDbEntity
  8
A10
  6
CONTINUOUS
 62
7
100
AcDbLine
 10
121.1494044170140
 20
77.64994812335323
 30
0.0000000000000000
 11
121.8727537699655
 21
83.11085715013365
 31
0.0000000000000000
  0
LINE
  5
94
100
AcDbEntity
  8
A10
  6
CONTINUOUS
 62
7
100
AcDbLine
 10
118.2715436947474
 20
55.92360589063090
 30
0.0000000000000000
 11
119.9999547001945
 21
68.97220436261388
 31
0.0000000000000000
  0
LINE
  5
95
100
AcDbEntity
  8
A10
  6
DASHED
 62
4
100
AcDbLine
 10
119.9999547001945
 20
68.97220436261381
 30
0.0000000000000000
 11
121.1494044170140
 21
77.64994812335331
 31
0.0000000000000000
  0
LINE
  5
96
100
AcDbEntity
  8
A10
  6
CONTINUOUS
 62
7
100
AcDbLine
 10
102.5060872557843
 20
59.59999999988202
 30
0.0000000000000000
 11
102.5060872557445
 21
67.85000000008640
 31
0.0000000000000000
  0
LINE
  5
97
100
AcDbEntity
  8
A10
  6
CONTINUOUS
 62
7
100
AcDbLine
 10
102.5060872556865
 20
79.85000000008642
 30
0.0000000000000000
 11
102.5060872556467
 21
88.09999999995503
 31
0.0000000000000000
  0
LINE
  5
98
100
AcDbEntity
  8
A10
  6
CENTER
 62
1
100
AcDbLine
 10
232.1051363814925
 20
152.5694137108183
 30
0.0000000000000000
 11
105.2212537768505
 21
152.5694137108183
 31
0.0000000000000000
  0
LINE
  5
99
100
AcDbEntity
  8
A10
  6
CONTINUOUS
 62
7
100
AcDbLine
 10
108.2560872556724
 20
153.0694137108127
 30
0.0000000000000000
 11
108.2560872556665
 21
151.0694137108127
 31
0.0000000000000000
  0
LINE
  5
9A
100
AcDbEntity
  8
A10
  6
CONTINUOUS
 62
7
100
AcDbLine
 10
122.2560872558208
 20
153.0694137108127
 30
0.0000000000000000
 11
122.2560872558208
 21
151.0694137108127
 31
0.0000000000000000
  0
LINE
  5
9B
100
AcDbEntity
  8
A10
  6
CONTINUOUS
 62
7
100
AcDbLine
 10
114.7393824723493
 20
153.0694137108127
 30
0.0000000000000000
 11
114.7393824723514
 21
151.0694137108127
 31
0.0000000000000000
  0
LINE
  5
9C
100
AcDbEntity
  8
A10
  6
CONTINUOUS
 62
7
100
AcDbLine
 10
124.2560872556762
 20
151.0694137108127
 30
0.0000000000000000
 11
108.2560872556666
 21
151.0694137108127
 31
0.0000000000000000
  0
LINE
  5
9D
100
AcDbEntity
  8
A10
  6
CONTINUOUS
 62
7
100
AcDbLine
 10
124.2560872556755
 20
153.0694137108127
 30
0.0000000000000000
 11
108.2560872556725
 21
153.0694137108127
 31
0.0000000000000000
  0
LINE
  5
9E
100
AcDbEntity
  8
A4
  6
CONTINUOUS
 62
7
100
AcDbLine
 10
227.3560872573161
 20
147.5694137108124
 30
0.0000000000000000
 11
125.2560872556753
 21
147.5694137108124
 31
0.0000000000000000
  0
LINE
  5
9F
100
AcDbEntity
  8
A10
  6
CENTER
 62
1
100
AcDbLine
 10
143.2560872557794
 20
153.8940870903827
 30
0.0000000000000000
 11
143.2560872557794
 21
146.1392797110295
 31
0.0000000000000000
  0
LINE
  5
A0
100
AcDbEntity
  8
A10
  6
CONTINUOUS
 62
7
100
AcDbLine
 10
124.2560872556752
 20
148.5694137108127
 30
0.0000000000000000
 11
124.2560872556785
 21
157.5694137110360
 31
0.0000000000000000
  0
LINE
  5
A1
100
AcDbEntity
  8
A10
  6
CONTINUOUS
 62
7
100
AcDbLine
 10
228.3560872573161
 20
148.5694137108123
 30
0.0000000000000000
 11
228.3560872573161
 21
157.0694137107729
 31
0.0000000000000000
  0
ARC
  5
A2
100
AcDbEntity
  8
A4
  6
CONTINUOUS
 62
7
100
AcDbCircle
 10
125.2560872556753
 20
148.5694137108124
 30
0.0000000000000000
 40
1.000000000000000
100
AcDbArc
 50
180.0000000000000
 51
270.0000000000000
  0
ARC
  5
A3
100
AcDbEntity
  8
A4
  6
CONTINUOUS
 62
7
100
AcDbCircle
 10
227.3560872573161
 20
148.5694137108123
 30
0.0000000000000000
 40
1.000000000000000
100
AcDbArc
 50
270.0000000000000
 51
360.0000000000000
  0
LINE
  5
A4
100
AcDbEntity
  8
A10
  6
CONTINUOUS
 62
7
100
AcDbLine
 10
227.2560872556742
 20
157.5694137108124
 30
0.0000000000000000
 11
124.2560872556785
 21
157.5694137108123
 31
0.0000000000000000
  0
LINE
  5
A5
100
AcDbEntity
  8
A10
  6
CONTINUOUS
 62
7
100
AcDbLine
 10
117.2545802657591
 20
153.0694137108127
 30
0.0000000000000000
 11
117.2545802657591
 21
154.0694137108126
 31
0.0000000000000000
  0
LINE
  5
A6
100
AcDbEntity
  8
A10
  6
CONTINUOUS
 62
7
100
AcDbLine
 10
124.2560872556755
 20
154.0694137108127
 30
0.0000000000000000
 11
117.2545802657591
 21
154.0694137108127
 31
0.0000000000000000
  0
LINE
  5
A7
100
AcDbEntity
  8
A10
  6
CONTINUOUS
 62
7
100
AcDbLine
 10
228.3560872573162
 20
157.0694137107729
 30
0.0000000000000000
 11
124.2560872557449
 21
157.0694137107728
 31
0.0000000000000000
  0
LINE
  5
A8
100
AcDbEntity
  8
A10
  6
CONTINUOUS
 62
7
100
AcDbLine
 10
227.2560872556742
 20
157.5694137108124
 30
0.0000000000000000
 11
227.2560872556755
 21
157.0694137107691
 31
0.0000000000000000
  0
LINE
  5
A9
100
AcDbEntity
  8
A10
  6
CONTINUOUS
 62
7
100
AcDbLine
 10
220.5060872558394
 20
151.7694137108098
 30
0.0000000000000000
 11
220.5060872558394
 21
147.5694137108124
 31
0.0000000000000000
  0
LINE
  5
AA
100
AcDbEntity
  8
A10
  6
CONTINUOUS
 62
7
100
AcDbLine
 10
220.2560872556023
 20
149.5694137108355
 30
0.0000000000000000
 11
220.2560872556020
 21
151.5694137108355
 31
0.0000000000000000
  0
LINE
  5
AB
100
AcDbEntity
  8
A10
  6
CONTINUOUS
 62
7
100
AcDbLine
 10
216.2560872556023
 20
149.5694137108337
 30
0.0000000000000000
 11
220.2560872556023
 21
149.5694137108344
 31
0.0000000000000000
  0
LINE
  5
AC
100
AcDbEntity
  8
A10
  6
CONTINUOUS
 62
7
100
AcDbLine
 10
220.5060872558394
 20
151.7694137108098
 30
0.0000000000000000
 11
216.0060872558394
 21
151.7694137108098
 31
0.0000000000000000
  0
LINE
  5
AD
100
AcDbEntity
  8
A10
  6
CONTINUOUS
 62
7
100
AcDbLine
 10
216.2560872556023
 20
149.5694137108337
 30
0.0000000000000000
 11
216.2560872556020
 21
151.5694137108338
 31
0.0000000000000000
  0
LINE
  5
AE
100
AcDbEntity
  8
A10
  6
CONTINUOUS
 62
7
100
AcDbLine
 10
216.0060872558394
 20
151.7694137108098
 30
0.0000000000000000
 11
216.0060872558394
 21
147.5694137108124
 31
0.0000000000000000
  0
LINE
  5
AF
100
AcDbEntity
  8
A10
  6
CENTER
 62
1
100
AcDbLine
 10
218.2560872558394
 20
153.0694137108098
 30
0.0000000000000000
 11
218.2560872558394
 21
146.0694137108124
 31
0.0000000000000000
  0
LINE
  5
B0
100
AcDbEntity
  8
A10
  6
CONTINUOUS
 62
7
100
AcDbLine
 10
190.5060872556551
 20
151.7694137108014
 30
0.0000000000000000
 11
190.5060872556551
 21
147.5694137108040
 31
0.0000000000000000
  0
LINE
  5
B1
100
AcDbEntity
  8
A10
  6
CONTINUOUS
 62
7
100
AcDbLine
 10
190.2560872553740
 20
149.5694137108203
 30
0.0000000000000000
 11
190.2560872553736
 21
151.5694137108203
 31
0.0000000000000000
  0
LINE
  5
B2
100
AcDbEntity
  8
A10
  6
CONTINUOUS
 62
7
100
AcDbLine
 10
186.2560872553740
 20
149.5694137108185
 30
0.0000000000000000
 11
190.2560872553740
 21
149.5694137108192
 31
0.0000000000000000
  0
LINE
  5
B3
100
AcDbEntity
  8
A10
  6
CENTER
 62
1
100
AcDbLine
 10
188.2560872556551
 20
153.0694137108014
 30
0.0000000000000000
 11
188.2560872556551
 21
146.0694137108040
 31
0.0000000000000000
  0
LINE
  5
B4
100
AcDbEntity
  8
A10
  6
CONTINUOUS
 62
7
100
AcDbLine
 10
190.5060872556551
 20
151.7694137108014
 30
0.0000000000000000
 11
186.0060872556551
 21
151.7694137108014
 31
0.0000000000000000
  0
LINE
  5
B5
100
AcDbEntity
  8
A10
  6
CONTINUOUS
 62
7
100
AcDbLine
 10
186.2560872553740
 20
149.5694137108185
 30
0.0000000000000000
 11
186.2560872553736
 21
151.5694137108186
 31
0.0000000000000000
  0
LINE
  5
B6
100
AcDbEntity
  8
A10
  6
CONTINUOUS
 62
7
100
AcDbLine
 10
186.0060872556551
 20
151.7694137108014
 30
0.0000000000000000
 11
186.0060872556551
 21
147.5694137108040
 31
0.0000000000000000
  0
LINE
  5
B7
100
AcDbEntity
  8
A10
  6
CONTINUOUS
 62
7
100
AcDbLine
 10
190.5060872556550
 20
148.5694137108124
 30
0.0000000000000000
 11
186.0060872556551
 21
148.5694137108124
 31
0.0000000000000000
  0
LINE
  5
B8
100
AcDbEntity
  8
A10
  6
CONTINUOUS
 62
7
100
AcDbLine
 10
220.5060872558394
 20
148.5694137108124
 30
0.0000000000000000
 11
216.0060872558393
 21
148.5694137108124
 31
0.0000000000000000
  0
LINE
  5
B9
100
AcDbEntity
  8
A10
  6
CONTINUOUS
 62
7
100
AcDbLine
 10
216.2560872556020
 20
151.5694137108338
 30
0.0000000000000000
 11
220.2560872556020
 21
151.5694137108338
 31
0.0000000000000000
  0
LINE
  5
BA
100
AcDbEntity
  8
A10
  6
CONTINUOUS
 62
7
100
AcDbLine
 10
186.2560872553736
 20
151.5694137108185
 30
0.0000000000000000
 11
190.2560872553736
 21
151.5694137108185
 31
0.0000000000000000
  0
LINE
  5
BB
100
AcDbEntity
  8
A10
  6
CONTINUOUS
 62
7
100
AcDbLine
 10
132.5060872539673
 20
151.7694137108014
 30
0.0000000000000000
 11
132.5060872539673
 21
147.5694137108040
 31
0.0000000000000000
  0
LINE
  5
BC
100
AcDbEntity
  8
A10
  6
CONTINUOUS
 62
7
100
AcDbLine
 10
132.2560872536862
 20
149.5694137108204
 30
0.0000000000000000
 11
132.2560872536858
 21
151.5694137108204
 31
0.0000000000000000
  0
LINE
  5
BD
100
AcDbEntity
  8
A10
  6
CONTINUOUS
 62
7
100
AcDbLine
 10
128.2560872536862
 20
149.5694137108185
 30
0.0000000000000000
 11
132.2560872536862
 21
149.5694137108193
 31
0.0000000000000000
  0
LINE
  5
BE
100
AcDbEntity
  8
A10
  6
CENTER
 62
1
100
AcDbLine
 10
130.2560872539673
 20
153.0694137108014
 30
0.0000000000000000
 11
130.2560872539673
 21
146.0694137108040
 31
0.0000000000000000
  0
LINE
  5
BF
100
AcDbEntity
  8
A10
  6
CONTINUOUS
 62
7
100
AcDbLine
 10
132.5060872539673
 20
151.7694137108014
 30
0.0000000000000000
 11
128.0060872539673
 21
151.7694137108014
 31
0.0000000000000000
  0
LINE
  5
C0
100
AcDbEntity
  8
A10
  6
CONTINUOUS
 62
7
100
AcDbLine
 10
128.2560872536862
 20
149.5694137108185
 30
0.0000000000000000
 11
128.2560872536858
 21
151.5694137108185
 31
0.0000000000000000
  0
LINE
  5
C1
100
AcDbEntity
  8
A10
  6
CONTINUOUS
 62
7
100
AcDbLine
 10
128.0060872539673
 20
151.7694137108014
 30
0.0000000000000000
 11
128.0060872539673
 21
147.5694137108040
 31
0.0000000000000000
  0
LINE
  5
C2
100
AcDbEntity
  8
A10
  6
CONTINUOUS
 62
7
100
AcDbLine
 10
132.5060872539673
 20
148.5694137108124
 30
0.0000000000000000
 11
128.0060872539673
 21
148.5694137108124
 31
0.0000000000000000
  0
LINE
  5
C3
100
AcDbEntity
  8
A10
  6
CONTINUOUS
 62
7
100
AcDbLine
 10
128.2560872536858
 20
151.5694137108185
 30
0.0000000000000000
 11
132.2560872536858
 21
151.5694137108185
 31
0.0000000000000000
  0
CIRCLE
  5
C4
100
AcDbEntity
  8
A10
  6
CONTINUOUS
 62
7
100
AcDbCircle
 10
175.2560872559689
 20
152.5694137108184
 30
0.0000000000000000
 40
2.000000000000000
  0
LINE
  5
C5
100
AcDbEntity
  8
A10
  6
CENTER
 62
1
100
AcDbLine
 10
175.2560872559689
 20
156.0694137108184
 30
0.0000000000000000
 11
175.2560872559689
 21
149.0694137108184
 31
0.0000000000000000
  0
ARC
  5
C6
100
AcDbEntity
  8
A10
  6
CONTINUOUS
 62
7
100
AcDbCircle
 10
174.2560872559689
 20
152.5694137108183
 30
0.0000000000000000
 40
2.250000000000000
100
AcDbArc
 50
90.00000000000000
 51
270.0000000000000
  0
ARC
  5
C7
100
AcDbEntity
  8
A10
  6
CONTINUOUS
 62
7
100
AcDbCircle
 10
178.2560872559689
 20
152.5694137108183
 30
0.0000000000000000
 40
2.250000000000000
100
AcDbArc
 50
270.0000000000000
 51
450.0000000000000
  0
LINE
  5
C8
100
AcDbEntity
  8
A10
  6
CONTINUOUS
 62
7
100
AcDbLine
 10
174.2560872559689
 20
154.8194137108183
 30
0.0000000000000000
 11
178.2560872559689
 21
154.8194137108183
 31
0.0000000000000000
  0
LINE
  5
C9
100
AcDbEntity
  8
A10
  6
CONTINUOUS
 62
7
100
AcDbLine
 10
178.2560872559689
 20
150.3194137108183
 30
0.0000000000000000
 11
174.2560872559689
 21
150.3194137108183
 31
0.0000000000000000
  0
LINE
  5
CA
100
AcDbEntity
  8
A10
  6
DASHED
 62
4
100
AcDbLine
 10
121.3043885581286
 20
78.08282024555936
 30
0.0000000000000000
 11
122.0198282405300
 21
57.59530829166429
 31
0.0000000000000000
  0
LINE
  5
CB
100
AcDbEntity
  8
A10
  6
CONTINUOUS
 62
7
100
AcDbLine
 10
123.0541185642533
 20
56.63081696134781
 30
0.0000000000000000
 11
124.2560872556509
 21
56.67279063295864
 31
0.0000000000000000
  0
LINE
  5
CC
100
AcDbEntity
  8
A10
  6
CONTINUOUS
 62
7
100
AcDbLine
 10
251.1050321511161
 20
155.0694137107729
 30
0.0000000000000000
 11
228.3560872573161
 21
155.0694137107729
 31
0.0000000000000000
  0
LINE
  5
CD
100
AcDbEntity
  8
A10
  6
CONTINUOUS
 62
7
100
AcDbLine
 10
251.1050321511161
 20
156.0694137107729
 30
0.0000000000000000
 11
228.3560872573161
 21
156.0694137107729
 31
0.0000000000000000
  0
LINE
  5
CE
100
AcDbEntity
  8
A10
  6
CONTINUOUS
 62
7
100
AcDbLine
 10
251.1050321511161
 20
154.5694137107729
 30
0.0000000000000000
 11
251.1050321511161
 21
156.5694137107729
 31
0.0000000000000000
  0
LINE
  5
CF
100
AcDbEntity
  8
A10
  6
CONTINUOUS
 62
7
100
AcDbLine
 10
254.1050321511161
 20
154.5694137107729
 30
0.0000000000000000
 11
254.1050321511161
 21
156.5694137107729
 31
0.0000000000000000
  0
LINE
  5
D0
100
AcDbEntity
  8
A10
  6
CONTINUOUS
 62
7
100
AcDbLine
 10
251.1050321511161
 20
154.5694137107729
 30
0.0000000000000000
 11
254.1050321511161
 21
154.5694137107729
 31
0.0000000000000000
  0
LINE
  5
D1
100
AcDbEntity
  8
A10
  6
CONTINUOUS
 62
7
100
AcDbLine
 10
251.1050321511161
 20
156.5694137107729
 30
0.0000000000000000
 11
254.1050321511161
 21
156.5694137107729
 31
0.0000000000000000
  0
LINE
  5
D2
100
AcDbEntity
  8
A10
  6
CENTER
 62
1
100
AcDbLine
 10
116.5060872558748
 20
155.7819485715543
 30
0.0000000000000000
 11
116.5060872558837
 21
140.8938030800668
 31
0.0000000000000000
  0
LINE
  5
D3
100
AcDbEntity
  8
A10
  6
CONTINUOUS
 62
7
100
AcDbLine
 10
120.0060872558807
 20
147.2694137110360
 30
0.0000000000000000
 11
113.0060872558808
 21
147.2694137110360
 31
0.0000000000000000
  0
LINE
  5
D4
100
AcDbEntity
  8
A10
  6
CONTINUOUS
 62
7
100
AcDbLine
 10
120.2560872558767
 20
156.2694137110580
 30
0.0000000000000000
 11
112.7560872558767
 21
156.2694137110580
 31
0.0000000000000000
  0
LINE
  5
D5
100
AcDbEntity
  8
A10
  6
CONTINUOUS
 62
7
100
AcDbLine
 10
122.5060872558809
 20
147.0694137110359
 30
0.0000000000000000
 11
102.5060872558796
 21
147.0694137110359
 31
0.0000000000000000
  0
LINE
  5
D6
100
AcDbEntity
  8
A10
  6
CONTINUOUS
 62
7
100
AcDbLine
 10
122.5060872558821
 20
145.0694137110359
 30
0.0000000000000000
 11
102.5060872558796
 21
145.0694137110359
 31
0.0000000000000000
  0
LINE
  5
D7
100
AcDbEntity
  8
A10
  6
CONTINUOUS
 62
7
100
AcDbLine
 10
122.5060872558809
 20
147.0694137110359
 30
0.0000000000000000
 11
122.5060872558820
 21
145.0694137110359
 31
0.0000000000000000
  0
LINE
  5
D8
100
AcDbEntity
  8
A10
  6
CONTINUOUS
 62
7
100
AcDbLine
 10
102.5060872558796
 20
147.0694137110359
 30
0.0000000000000000
 11
102.5060872558796
 21
157.5694137110349
 31
0.0000000000000000
  0
ARC
  5
D9
100
AcDbEntity
  8
A10
  6
CONTINUOUS
 62
7
100
AcDbCircle
 10
102.5060872558796
 20
147.0694137110359
 30
0.0000000000000000
 40
2.000000000000000
100
AcDbArc
 50
180.0000000000000
 51
270.0000000000000
  0
LINE
  5
DA
100
AcDbEntity
  8
A10
  6
CONTINUOUS
 62
7
100
AcDbLine
 10
102.5060872558796
 20
157.5694137110348
 30
0.0000000000000000
 11
100.5060872558684
 21
157.5694137110389
 31
0.0000000000000000
  0
LINE
  5
DB
100
AcDbEntity
  8
A10
  6
CONTINUOUS
 62
7
100
AcDbLine
 10
100.5060872558796
 20
147.0694137110359
 30
0.0000000000000000
 11
100.5060872558796
 21
157.5694137110390
 31
0.0000000000000000
  0
LINE
  5
DC
100
AcDbEntity
  8
A10
  6
CONTINUOUS
 62
7
100
AcDbLine
 10
114.0060872558813
 20
147.2694137110360
 30
0.0000000000000000
 11
114.0060872558814
 21
147.0694137110360
 31
0.0000000000000000
  0
LINE
  5
DD
100
AcDbEntity
  8
A10
  6
CONTINUOUS
 62
7
100
AcDbLine
 10
119.0060872558813
 20
147.2694137110361
 30
0.0000000000000000
 11
119.0060872558814
 21
147.0694137110360
 31
0.0000000000000000
  0
ARC
  5
DE
100
AcDbEntity
  8
A10
  6
CONTINUOUS
 62
7
100
AcDbCircle
 10
120.0060872558807
 20
147.7694137110361
 30
0.0000000000000000
 40
0.5000000000000000
100
AcDbArc
 50
270.0000000000000
 51
360.0000000000000
  0
ARC
  5
DF
100
AcDbEntity
  8
A10
  6
CONTINUOUS
 62
7
100
AcDbCircle
 10
120.0060872558775
 20
155.7694137110580
 30
0.0000000000000000
 40
0.5000000000000000
100
AcDbArc
 50
0.0000000000000000
 51
90.00000000000000
  0
ARC
  5
E0
100
AcDbEntity
  8
A10
  6
CONTINUOUS
 62
7
100
AcDbCircle
 10
113.0060872558773
 20
155.7694137110580
 30
0.0000000000000000
 40
0.5000000000000000
100
AcDbArc
 50
90.00000000000000
 51
180.0000000000000
  0
ARC
  5
E1
100
AcDbEntity
  8
A10
  6
CONTINUOUS
 62
7
100
AcDbCircle
 10
113.0060872558807
 20
147.7694137110360
 30
0.0000000000000000
 40
0.5000000000000000
100
AcDbArc
 50
180.0000000000000
 51
270.0000000000000
  0
LINE
  5
E2
100
AcDbEntity
  8
A10
  6
CONTINUOUS
 62
7
100
AcDbLine
 10
120.2560872558767
 20
157.0694137110581
 30
0.0000000000000000
 11
112.7560872558767
 21
157.0694137110581
 31
0.0000000000000000
  0
LINE
  5
E3
100
AcDbEntity
  8
A10
  6
CONTINUOUS
 62
7
100
AcDbLine
 10
120.2560872558743
 20
157.0694137110579
 30
0.0000000000000000
 11
120.2560872558748
 21
156.2694137110578
 31
0.0000000000000000
  0
LINE
  5
E4
100
AcDbEntity
  8
A10
  6
CONTINUOUS
 62
7
100
AcDbLine
 10
112.7560872558770
 20
157.0694137110579
 30
0.0000000000000000
 11
112.7560872558775
 21
156.2694137110578
 31
0.0000000000000000
  0
LINE
  5
E5
100
AcDbEntity
  8
A10
  6
CENTER
 62
1
100
AcDbLine
 10
103.9146859730396
 20
152.5694137110359
 30
0.0000000000000000
 11
98.56009652041283
 21
152.5694137110359
 31
0.0000000000000000
  0
POINT
  5
E6
100
AcDbEntity
  8
A10
  6
CONTINUOUS
 62
5
100
AcDbPoint
 10
122.3437983409382
 20
56.89277518665696
 30
0.0000000000000000
  0
ARC
  5
E7
100
AcDbEntity
  8
A10
  6
DASHED
 62
4
100
AcDbCircle
 10
123.0192190675490
 20
57.63020778836679
 30
0.0000000000000000
 40
1.000000000000000
100
AcDbArc
 50
182.0000000000000
 51
227.5131694321563
  0
ARC
  5
E8
100
AcDbEntity
  8
A10
  6
CONTINUOUS
 62
7
100
AcDbCircle
 10
123.0192190675490
 20
57.63020778836679
 30
0.0000000000000000
 40
1.000000000000000
100
AcDbArc
 50
227.5131694321563
 51
272.0000000000000
  0
LINE
  5
E9
100
AcDbEntity
  8
A10
  6
CONTINUOUS
 62
7
100
AcDbLine
 10
216.0060872558118
 20
87.95000000136140
 30
0.0000000000000000
 11
220.5060872558118
 21
87.95000000135066
 31
0.0000000000000000
  0
LINE
  5
EA
100
AcDbEntity
  8
A10
  6
CONTINUOUS
 62
7
100
AcDbLine
 10
220.5060872558117
 20
88.93990291243404
 30
0.0000000000000000
 11
220.5060872558117
 21
87.95000000135076
 31
0.0000000000000000
  0
LINE
  5
EB
100
AcDbEntity
  8
A10
  6
CONTINUOUS
 62
7
100
AcDbLine
 10
216.0060872558117
 20
88.95000000136156
 30
0.0000000000000000
 11
216.0060872558117
 21
87.95000000136156
 31
0.0000000000000000
  0
LINE
  5
EC
100
AcDbEntity
  8
A10
  6
CONTINUOUS
 62
7
100
AcDbLine
 10
190.5060872556274
 20
88.95000000145097
 30
0.0000000000000000
 11
190.5060872556274
 21
87.95000000162219
 31
0.0000000000000000
  0
LINE
  5
ED
100
AcDbEntity
  8
A10
  6
CONTINUOUS
 62
7
100
AcDbLine
 10
190.5060872556273
 20
87.95000000162219
 30
0.0000000000000000
 11
186.0060872556173
 21
87.95000000164987
 31
0.0000000000000000
  0
LINE
  5
EE
100
AcDbEntity
  8
A10
  6
CONTINUOUS
 62
7
100
AcDbLine
 10
186.0060872556274
 20
88.95000000146177
 30
0.0000000000000000
 11
186.0060872556274
 21
87.95000000164993
 31
0.0000000000000000
  0
LINE
  5
EF
100
AcDbEntity
  8
A10
  6
CONTINUOUS
 62
7
100
AcDbLine
 10
190.5060872556273
 20
64.74999999839396
 30
0.0000000000000000
 11
186.0060872556174
 21
64.74999999836625
 31
0.0000000000000000
  0
LINE
  5
F0
100
AcDbEntity
  8
A10
  6
CONTINUOUS
 62
7
100
AcDbLine
 10
190.5060872556274
 20
63.74999999856524
 30
0.0000000000000000
 11
190.5060872556274
 21
64.74999999839397
 31
0.0000000000000000
  0
LINE
  5
F1
100
AcDbEntity
  8
A10
  6
CONTINUOUS
 62
7
100
AcDbLine
 10
186.0060872556274
 20
63.74999999855450
 30
0.0000000000000000
 11
186.0060872556274
 21
64.74999999836629
 31
0.0000000000000000
  0
LINE
  5
F2
100
AcDbEntity
  8
A10
  6
CONTINUOUS
 62
7
100
AcDbLine
 10
216.0060872558116
 20
64.74999999869347
 30
0.0000000000000000
 11
220.5060872558116
 21
64.74999999870424
 31
0.0000000000000000
  0
LINE
  5
F3
100
AcDbEntity
  8
A10
  6
CONTINUOUS
 62
7
100
AcDbLine
 10
216.0060872558117
 20
63.74999999869348
 30
0.0000000000000000
 11
216.0060872558117
 21
64.74999999869348
 31
0.0000000000000000
  0
LINE
  5
F4
100
AcDbEntity
  8
A10
  6
CONTINUOUS
 62
7
100
AcDbLine
 10
220.5060872558117
 20
63.76009708762098
 30
0.0000000000000000
 11
220.5060872558117
 21
64.74999999870423
 31
0.0000000000000000
  0
LINE
  5
F5
100
AcDbEntity
  8
A10
  6
CONTINUOUS
 62
7
100
AcDbLine
 10
132.5060872539395
 20
51.00000000004571
 30
0.0000000000000000
 11
128.0060872539295
 21
51.00000000001803
 31
0.0000000000000000
  0
LINE
  5
F6
100
AcDbEntity
  8
A10
  6
CONTINUOUS
 62
7
100
AcDbLine
 10
128.0060872539397
 20
50.00000000020611
 30
0.0000000000000000
 11
128.0060872539397
 21
51.00000000001796
 31
0.0000000000000000
  0
LINE
  5
F7
100
AcDbEntity
  8
A10
  6
CONTINUOUS
 62
7
100
AcDbLine
 10
132.5060872539397
 20
50.00000000021691
 30
0.0000000000000000
 11
132.5060872539397
 21
51.00000000004570
 31
0.0000000000000000
  0
LINE
  5
F8
100
AcDbEntity
  8
A10
  6
CONTINUOUS
 62
7
100
AcDbLine
 10
132.5060872539395
 20
101.7000000000105
 30
0.0000000000000000
 11
128.0060872539295
 21
101.7000000000382
 31
0.0000000000000000
  0
LINE
  5
F9
100
AcDbEntity
  8
A10
  6
CONTINUOUS
 62
7
100
AcDbLine
 10
132.5060872539397
 20
102.6999999998393
 30
0.0000000000000000
 11
132.5060872539397
 21
101.7000000000105
 31
0.0000000000000000
  0
LINE
  5
FA
100
AcDbEntity
  8
A10
  6
CONTINUOUS
 62
7
100
AcDbLine
 10
128.0060872539397
 20
102.6999999998501
 30
0.0000000000000000
 11
128.0060872539397
 21
101.7000000000382
 31
0.0000000000000000
  0
SPLINE
  5
FB
100
AcDbEntity
  8
A10
  6
CONTINUOUS
 62
7
100
AcDbSpline
210
0.0000000000000000
220
0.0000000000000000
230
1.000000000000000
 70
     8
 71
     3
 72
    14
 73
    10
 74
     0
 42
1.000000000000000e-07
 43
1.000000000000000e-07
 12
0.0000000000000000
 22
1.456559044584026
 32
0.0000000000000000
 13
0.0000000000000000
 23
-0.9334246792726901
 33
0.0000000000000000
 40
0.0000000000000000
 40
0.0000000000000000
 40
0.0000000000000000
 40
0.0000000000000000
 40
2.108241864277388
 40
2.566461713616534
 40
2.919821956518684
 40
3.217260191139996
 40
3.374574713568657
 40
3.496894464806954
 40
7.292586965536334
 40
7.292586965536334
 40
7.292586965536334
 40
7.292586965536334
 10
143.2560872558420
 20
76.35000000002799
 30
0.0000000000000000
 10
143.2560872558420
 20
77.37359291855597
 30
0.0000000000000000
 10
142.4393609244364
 20
78.08733057001075
 30
0.0000000000000000
 10
142.1498885930118
 20
78.44253642535097
 30
0.0000000000000000
 10
141.8917817308343
 20
78.68387500279096
 30
0.0000000000000000
 10
142.1604438356082
 20
78.81150798000732
 30
0.0000000000000000
 10
142.3009417365143
 20
78.74073935130826
 30
0.0000000000000000
 10
142.4100972649842
 20
78.68553797317821
 30
0.0000000000000000
 10
144.7560865450815
 20
77.53099768506502
 30
0.0000000000000000
 10
144.7560865450815
 20
76.35000000002799
 30
0.0000000000000000
  0
SPLINE
  5
FC
100
AcDbEntity
  8
A10
  6
CONTINUOUS
 62
7
100
AcDbSpline
210
0.0000000000000000
220
0.0000000000000000
230
1.000000000000000
 70
     8
 71
     3
 72
    14
 73
    10
 74
     0
 42
1.000000000000000e-07
 43
1.000000000000000e-07
 12
0.0000000000000000
 22
-1.456559044583969
 32
0.0000000000000000
 13
0.0000000000000000
 23
0.9334246792727399
 33
0.0000000000000000
 40
0.0000000000000000
 40
0.0000000000000000
 40
0.0000000000000000
 40
0.0000000000000000
 40
2.108241864277388
 40
2.566461713616534
 40
2.919821956518684
 40
3.217260191139996
 40
3.374574713568657
 40
3.496894464806954
 40
7.292586965536334
 40
7.292586965536334
 40
7.292586965536334
 40
7.292586965536334
 10
143.2560872558419
 20
76.35000000002799
 30
0.0000000000000000
 10
143.2560872558419
 20
75.32640708150007
 30
0.0000000000000000
 10
144.0728135872475
 20
74.61266943004523
 30
0.0000000000000000
 10
144.3622859186721
 20
74.25746357470501
 30
0.0000000000000000
 10
144.6203927808496
 20
74.01612499726502
 30
0.0000000000000000
 10
144.3517306760757
 20
73.88849202004866
 30
0.0000000000000000
 10
144.2112327751695
 20
73.95926064874772
 30
0.0000000000000000
 10
144.1020772466997
 20
74.01446202687782
 30
0.0000000000000000
 10
141.7560879666023
 20
75.16900231499091
 30
0.0000000000000000
 10
141.7560879666023
 20
76.35000000002799
 30
0.0000000000000000
  0
SPLINE
  5
FD
100
AcDbEntity
  8
A10
  6
CONTINUOUS
 62
7
100
AcDbSpline
210
0.0000000000000000
220
0.0000000000000000
230
1.000000000000000
 70
     8
 71
     3
 72
    14
 73
    10
 74
     0
 42
1.000000000000000e-07
 43
1.000000000000000e-07
 12
-0.2260908134916235
 22
-0.2845285746715689
 32
0.0000000000000000
 13
0.9119237481485811
 23
0.6005371901415231
 33
0.0000000000000000
 40
0.0000000000000000
 40
0.0000000000000000
 40
0.0000000000000000
 40
0.0000000000000000
 40
2.108241864277388
 40
2.566461713616534
 40
2.919821956518684
 40
3.217260191139996
 40
3.374574713568657
 40
3.496894464806954
 40
5.025423549265306
 40
5.025423549265306
 40
5.025423549265306
 40
5.025423549265306
 10
142.7209474534193
 20
74.89584657394454
 30
0.0000000000000000
 10
142.5620627473754
 20
74.69589488970928
 30
0.0000000000000000
 10
142.3078583611425
 20
74.45130519794623
 30
0.0000000000000000
 10
142.1498885930118
 20
74.25746357470501
 30
0.0000000000000000
 10
141.8917817308343
 20
74.01612499726502
 30
0.0000000000000000
 10
142.1604438356082
 20
73.88849202004866
 30
0.0000000000000000
 10
142.3009417365143
 20
73.95926064874772
 30
0.0000000000000000
 10
142.3493724606849
 20
73.98375269926987
 30
0.0000000000000000
 10
142.7914530670664
 20
74.20166289278814
 30
0.0000000000000000
 10
143.2560870576842
 20
74.50764241326488
 30
0.0000000000000000
  0
SPLINE
  5
FE
100
AcDbEntity
  8
A10
  6
CONTINUOUS
 62
7
100
AcDbSpline
210
0.0000000000000000
220
0.0000000000000000
230
1.000000000000000
 70
     8
 71
     3
 72
     8
 73
     4
 74
     0
 42
1.000000000000000e-07
 43
1.000000000000000e-07
 12
0.2117043438920447
 22
0.1708214841251454
 32
0.0000000000000000
 13
0.0000000000000000
 23
0.2162384259157228
 33
0.0000000000000000
 40
0.0000000000000000
 40
0.0000000000000000
 40
0.0000000000000000
 40
0.0000000000000000
 40
7.292586965536334
 40
7.292586965536334
 40
7.292586965536334
 40
7.292586965536334
 10
143.7912270414799
 20
74.89584655782483
 30
0.0000000000000000
 10
144.3058511544181
 20
75.31109006734636
 30
0.0000000000000000
 10
144.7560865450815
 20
75.82435415793429
 30
0.0000000000000000
 10
144.7560865450815
 20
76.35000000002799
 30
0.0000000000000000
  0
SPLINE
  5
FF
100
AcDbEntity
  8
A10
  6
CONTINUOUS
 62
7
100
AcDbSpline
210
0.0000000000000000
220
0.0000000000000000
230
1.000000000000000
 70
     8
 71
     3
 72
    14
 73
    10
 74
     0
 42
1.000000000000000e-07
 43
1.000000000000000e-07
 12
0.2260908134917088
 22
0.2845285746717394
 32
0.0000000000000000
 13
-0.9119237481486380
 23
-0.6005371901415231
 33
0.0000000000000000
 40
0.0000000000000000
 40
0.0000000000000000
 40
0.0000000000000000
 40
0.0000000000000000
 40
2.108241864277388
 40
2.566461713616534
 40
2.919821956518684
 40
3.217260191139996
 40
3.374574713568657
 40
3.496894464806954
 40
5.025423549265308
 40
5.025423549265308
 40
5.025423549265308
 40
5.025423549265308
 10
143.7912270582646
 20
77.80415342611138
 30
0.0000000000000000
 10
143.9501117643085
 20
78.00410511034676
 30
0.0000000000000000
 10
144.2043161505414
 20
78.24869480210975
 30
0.0000000000000000
 10
144.3622859186721
 20
78.44253642535097
 30
0.0000000000000000
 10
144.6203927808496
 20
78.68387500279096
 30
0.0000000000000000
 10
144.3517306760757
 20
78.81150798000732
 30
0.0000000000000000
 10
144.2112327751695
 20
78.74073935130826
 30
0.0000000000000000
 10
144.1628020509989
 20
78.71624730078616
 30
0.0000000000000000
 10
143.7207214446174
 20
78.49833710726784
 30
0.0000000000000000
 10
143.2560874539996
 20
78.19235758679110
 30
0.0000000000000000
  0
SPLINE
  5
100
100
AcDbEntity
  8
A10
  6
CONTINUOUS
 62
7
100
AcDbSpline
210
0.0000000000000000
220
0.0000000000000000
230
1.000000000000000
 70
     8
 71
     3
 72
     8
 73
     4
 74
     0
 42
1.000000000000000e-07
 43
1.000000000000000e-07
 12
-0.2117043438920660
 22
-0.1708214841251241
 32
0.0000000000000000
 13
0.0000000000000000
 23
-0.2162384259157193
 33
0.0000000000000000
 40
0.0000000000000000
 40
0.0000000000000000
 40
0.0000000000000000
 40
0.0000000000000000
 40
7.292586965536334
 40
7.292586965536334
 40
7.292586965536334
 40
7.292586965536334
 10
142.7209474702040
 20
77.80415344223115
 30
0.0000000000000000
 10
142.2063233572658
 20
77.38890993270968
 30
0.0000000000000000
 10
141.7560879666023
 20
76.87564584212168
 30
0.0000000000000000
 10
141.7560879666023
 20
76.35000000002799
 30
0.0000000000000000
  0
LINE
  5
101
100
AcDbEntity
  8
A10
  6
CENTER
 62
1
100
AcDbLine
 10
133.0060872559068
 20
148.0694137108123
 30
0.0000000000000000
 11
133.0060872559068
 21
159.0694137107312
 31
0.0000000000000000
  0
LINE
  5
102
100
AcDbEntity
  8
A10
  6
CONTINUOUS
 62
7
100
AcDbLine
 10
120.5060872558818
 20
147.7694137110360
 30
0.0000000000000000
 11
120.5060872558800
 21
151.0694137108127
 31
0.0000000000000000
  0
LINE
  5
103
100
AcDbEntity
  8
A10
  6
CONTINUOUS
 62
7
100
AcDbLine
 10
120.5060872558785
 20
154.0694137108127
 30
0.0000000000000000
 11
120.5060872558776
 21
155.7694137110580
 31
0.0000000000000000
  0
LINE
  5
104
100
AcDbEntity
  8
A10
  6
CONTINUOUS
 62
7
100
AcDbLine
 10
112.5060872558822
 20
147.7694137110362
 30
0.0000000000000000
 11
112.5060872558802
 21
151.0694137108127
 31
0.0000000000000000
  0
LINE
  5
105
100
AcDbEntity
  8
A10
  6
CONTINUOUS
 62
7
100
AcDbLine
 10
112.5060872558790
 20
153.0694137108127
 30
0.0000000000000000
 11
112.5060872558774
 21
155.7694137110579
 31
0.0000000000000000
  0
CIRCLE
  5
106
100
AcDbEntity
  8
A10
  6
CONTINUOUS
 62
7
100
AcDbCircle
 10
222.5060872557050
 20
76.35000000002802
 30
0.0000000000000000
 40
2.050000000000000
  0
CIRCLE
  5
107
100
AcDbEntity
  8
A10
  6
CONTINUOUS
 62
7
100
AcDbCircle
 10
133.0060872558599
 20
97.85000000004385
 30
0.0000000000000000
 40
2.050000000000000
  0
CIRCLE
  5
108
100
AcDbEntity
  8
A10
  6
CONTINUOUS
 62
7
100
AcDbCircle
 10
133.0060872559146
 20
54.84999999993241
 30
0.0000000000000000
 40
2.050000000000000
  0
LINE
  5
109
100
AcDbEntity
  8
A10
  6
CONTINUOUS
 62
7
100
AcDbLine
 10
257.1105124108024
 20
78.85000000002697
 30
0.0000000000000000
 11
260.1105124108024
 21
78.85000000002697
 31
0.0000000000000000
  0
LINE
  5
10A
100
AcDbEntity
  8
A10
  6
CONTINUOUS
 62
7
100
AcDbLine
 10
260.1105124108024
 20
73.85000000002435
 30
0.0000000000000000
 11
260.1105124108024
 21
78.85000000002697
 31
0.0000000000000000
  0
LINE
  5
10B
100
AcDbEntity
  8
A10
  6
CONTINUOUS
 62
7
100
AcDbLine
 10
257.1105124108024
 20
73.85000000002435
 30
0.0000000000000000
 11
260.1105124108024
 21
73.85000000002435
 31
0.0000000000000000
  0
SPLINE
  5
10C
100
AcDbEntity
  8
A10
  6
CONTINUOUS
 62
1
100
AcDbSpline
210
0.0000000000000000
220
0.0000000000000000
230
1.000000000000000
 70
     8
 71
     3
 72
    10
 73
     6
 74
     0
 42
1.000000000000000e-07
 43
1.000000000000000e-07
 12
-1.158103953105865
 22
-0.7664313943258776
 32
0.0000000000000000
 13
-0.6625891231733476
 23
-1.060720341866613
 33
0.0000000000000000
 40
0.0000000000000000
 40
0.0000000000000000
 40
0.0000000000000000
 40
0.0000000000000000
 40
0.4283033225587553
 40
0.9454690759825146
 40
1.367538727956564
 40
1.367538727956564
 40
1.367538727956564
 40
1.367538727956564
 10
241.8311085900353
 20
77.35000000002697
 30
0.0000000000000000
 10
241.6657686663741
 20
77.24057829579260
 30
0.0000000000000000
 10
241.3007848415623
 20
76.99903256839349
 30
0.0000000000000000
 10
242.1317705648139
 20
76.83132132197369
 30
0.0000000000000000
 10
241.9243281769085
 20
76.49923262187144
 30
0.0000000000000000
 10
241.8311085900353
 20
76.35000000002697
 30
0.0000000000000000
  0
SPLINE
  5
10D
100
AcDbEntity
  8
A10
  6
CONTINUOUS
 62
1
100
AcDbSpline
210
0.0000000000000000
220
0.0000000000000000
230
1.000000000000000
 70
     8
 71
     3
 72
    10
 73
     6
 74
     0
 42
1.000000000000000e-07
 43
1.000000000000000e-07
 12
-1.158103953106092
 22
-0.7664313943258776
 32
0.0000000000000000
 13
-0.6625891231735750
 23
-1.060720341866613
 33
0.0000000000000000
 40
0.0000000000000000
 40
0.0000000000000000
 40
0.0000000000000000
 40
0.0000000000000000
 40
0.4283033225587553
 40
0.9454690759825146
 40
1.367538727956564
 40
1.367538727956564
 40
1.367538727956564
 40
1.367538727956564
 10
242.4330119071032
 20
77.35000000002697
 30
0.0000000000000000
 10
242.2676719834419
 20
77.24057829579260
 30
0.0000000000000000
 10
241.9026881586301
 20
76.99903256839349
 30
0.0000000000000000
 10
242.7336738818817
 20
76.83132132197369
 30
0.0000000000000000
 10
242.5262314939764
 20
76.49923262187144
 30
0.0000000000000000
 10
242.4330119071032
 20
76.35000000002697
 30
0.0000000000000000
  0
LINE
  5
10E
100
AcDbEntity
  8
A10
  6
CONTINUOUS
 62
7
100
AcDbLine
 10
257.1105124108024
 20
73.85000000002435
 30
0.0000000000000000
 11
257.1105124108024
 21
78.85000000002697
 31
0.0000000000000000
  0
SPLINE
  5
10F
100
AcDbEntity
  8
A10
  6
CONTINUOUS
 62
1
100
AcDbSpline
210
0.0000000000000000
220
0.0000000000000000
230
1.000000000000000
 70
     8
 71
     3
 72
    10
 73
     6
 74
     0
 42
1.000000000000000e-07
 43
1.000000000000000e-07
 12
-1.158103953106092
 22
-0.7664313943258776
 32
0.0000000000000000
 13
-0.6625891231735750
 23
-1.060720341866613
 33
0.0000000000000000
 40
0.0000000000000000
 40
0.0000000000000000
 40
0.0000000000000000
 40
0.0000000000000000
 40
0.4283033225587553
 40
0.9454690759825146
 40
1.367538727956564
 40
1.367538727956564
 40
1.367538727956564
 40
1.367538727956564
 10
242.4330119071037
 20
76.35000000002697
 30
0.0000000000000000
 10
242.2676719834424
 20
76.24057829579260
 30
0.0000000000000000
 10
241.9026881586306
 20
75.99903256839349
 30
0.0000000000000000
 10
242.7336738818822
 20
75.83132132197369
 30
0.0000000000000000
 10
242.5262314939769
 20
75.49923262187144
 30
0.0000000000000000
 10
242.4330119071037
 20
75.35000000002697
 30
0.0000000000000000
  0
SPLINE
  5
110
100
AcDbEntity
  8
A10
  6
CONTINUOUS
 62
1
100
AcDbSpline
210
0.0000000000000000
220
0.0000000000000000
230
1.000000000000000
 70
     8
 71
     3
 72
    10
 73
     6
 74
     0
 42
1.000000000000000e-07
 43
1.000000000000000e-07
 12
-1.158103953105865
 22
-0.7664313943258776
 32
0.0000000000000000
 13
-0.6625891231733476
 23
-1.060720341866613
 33
0.0000000000000000
 40
0.0000000000000000
 40
0.0000000000000000
 40
0.0000000000000000
 40
0.0000000000000000
 40
0.4283033225587553
 40
0.9454690759825146
 40
1.367538727956564
 40
1.367538727956564
 40
1.367538727956564
 40
1.367538727956564
 10
241.8311085900358
 20
76.35000000002697
 30
0.0000000000000000
 10
241.6657686663746
 20
76.24057829579260
 30
0.0000000000000000
 10
241.3007848415627
 20
75.99903256839349
 30
0.0000000000000000
 10
242.1317705648144
 20
75.83132132197369
 30
0.0000000000000000
 10
241.9243281769090
 20
75.49923262187144
 30
0.0000000000000000
 10
241.8311085900358
 20
75.35000000002697
 30
0.0000000000000000
  0
LINE
  5
111
100
AcDbEntity
  8
A10
  6
CONTINUOUS
 62
7
100
AcDbLine
 10
242.4330119071032
 20
77.35000000002697
 30
0.0000000000000000
 11
257.1105124108024
 21
77.35000000002697
 31
0.0000000000000000
  0
LINE
  5
112
100
AcDbEntity
  8
A10
  6
CONTINUOUS
 62
7
100
AcDbLine
 10
231.7418758673928
 20
71.47500000002779
 30
0.0000000000000000
 11
239.3381458417358
 21
76.19917649979837
 31
0.0000000000000000
  0
LINE
  5
113
100
AcDbEntity
  8
A10
  6
CONTINUOUS
 62
7
100
AcDbLine
 10
232.2699850154257
 20
70.62582350025639
 30
0.0000000000000000
 11
239.8662549897686
 21
75.35000000002694
 31
0.0000000000000000
  0
ARC
  5
114
100
AcDbEntity
  8
A10
  6
CONTINUOUS
 62
7
100
AcDbCircle
 10
239.8662549897686
 20
75.35000000002697
 30
0.0000000000000000
 40
1.000000000000000
100
AcDbArc
 50
90.00000000000000
 51
121.8777863817946
  0
ARC
  5
115
100
AcDbEntity
  8
A10
  6
CONTINUOUS
 62
7
100
AcDbCircle
 10
231.7418758673929
 20
71.47500000002782
 30
0.0000000000000000
 40
1.000000000000000
100
AcDbArc
 50
270.0000000000000
 51
301.8777863817938
  0
LINE
  5
116
100
AcDbEntity
  8
A10
  6
CONTINUOUS
 62
7
100
AcDbLine
 10
230.6620285864631
 20
83.07417649979952
 30
0.0000000000000000
 11
239.8662549897687
 21
77.35000000002665
 31
0.0000000000000000
  0
LINE
  5
117
100
AcDbEntity
  8
A10
  6
CONTINUOUS
 62
7
100
AcDbLine
 10
230.1339194384301
 20
82.22500000002823
 30
0.0000000000000000
 11
239.3381458417359
 21
76.50082350025531
 31
0.0000000000000000
  0
ARC
  5
118
100
AcDbEntity
  8
A10
  6
CONTINUOUS
 62
7
100
AcDbCircle
 10
239.8662549897686
 20
77.35000000002674
 30
0.0000000000000000
 40
1.000000000000000
100
AcDbArc
 50
238.1222136182054
 51
270.0000000000000
  0
LINE
  5
119
100
AcDbEntity
  8
A10
  6
CONTINUOUS
 62
7
100
AcDbLine
 10
239.8662549897687
 20
77.35000000002674
 30
0.0000000000000000
 11
241.8311085900353
 21
77.35000000002674
 31
0.0000000000000000
  0
ARC
  5
11A
100
AcDbEntity
  8
A10
  6
CONTINUOUS
 62
7
100
AcDbCircle
 10
230.1339194384303
 20
82.22500000002816
 30
0.0000000000000000
 40
1.000000000000000
100
AcDbArc
 50
58.12221361820581
 51
90.00000000000000
  0
LINE
  5
11B
100
AcDbEntity
  8
A10
  6
CONTINUOUS
 62
7
100
AcDbLine
 10
239.8662549897686
 20
76.35000000002697
 30
0.0000000000000000
 11
241.8311085900365
 21
76.35000000002697
 31
0.0000000000000000
  0
LINE
  5
11C
100
AcDbEntity
  8
A10
  6
CONTINUOUS
 62
7
100
AcDbLine
 10
242.4330119071043
 20
76.35000000002697
 30
0.0000000000000000
 11
257.1105124108024
 21
76.35000000002697
 31
0.0000000000000000
  0
LINE
  5
11D
100
AcDbEntity
  8
A10
  6
CONTINUOUS
 62
7
100
AcDbLine
 10
239.8662549897687
 20
75.35000000002697
 30
0.0000000000000000
 11
241.8311085900385
 21
75.35000000002697
 31
0.0000000000000000
  0
LINE
  5
11E
100
AcDbEntity
  8
A10
  6
CONTINUOUS
 62
7
100
AcDbLine
 10
242.4330119071064
 20
75.35000000002697
 30
0.0000000000000000
 11
257.1105124108024
 21
75.35000000002697
 31
0.0000000000000000
  0
LINE
  5
11F
100
AcDbEntity
  8
A10
  6
CONTINUOUS
 62
7
100
AcDbLine
 10
230.1339194384304
 20
83.22500000002817
 30
0.0000000000000000
 11
228.3560872571963
 21
83.22500000003068
 31
0.0000000000000000
  0
LINE
  5
120
100
AcDbEntity
  8
A10
  6
CONTINUOUS
 62
7
100
AcDbLine
 10
230.1339194384301
 20
82.22500000002816
 30
0.0000000000000000
 11
228.3560872571962
 21
82.22500000002339
 31
0.0000000000000000
  0
LINE
  5
121
100
AcDbEntity
  8
A10
  6
CONTINUOUS
 62
7
100
AcDbLine
 10
231.7418758673928
 20
71.47500000002779
 30
0.0000000000000000
 11
228.3560872572253
 21
71.47500000002339
 31
0.0000000000000000
  0
LINE
  5
122
100
AcDbEntity
  8
A10
  6
CONTINUOUS
 62
7
100
AcDbLine
 10
231.7418758673929
 20
70.47500000002783
 30
0.0000000000000000
 11
228.3560872572254
 21
70.47500000002340
 31
0.0000000000000000
  0
LINE
  5
123
100
AcDbEntity
  8
A10
  6
CONTINUOUS
 62
7
100
AcDbLine
 10
62.50000000000000
 20
67.84999999987423
 30
0.0000000000000000
 11
62.50000000000000
 21
79.84999999987355
 31
0.0000000000000000
  0
LINE
  5
124
100
AcDbEntity
  8
A10
  6
CONTINUOUS
 62
7
100
AcDbLine
 10
62.50000000000000
 20
79.84999999987355
 30
0.0000000000000000
 11
60.00000000000102
 21
79.84999999987355
 31
0.0000000000000000
  0
LINE
  5
125
100
AcDbEntity
  8
A10
  6
CONTINUOUS
 62
7
100
AcDbLine
 10
62.50000000000000
 20
67.84999999987423
 30
0.0000000000000000
 11
60.00000000000102
 21
67.84999999987423
 31
0.0000000000000000
  0
LINE
  5
126
100
AcDbEntity
  8
A10
  6
CENTER
 62
1
100
AcDbLine
 10
49.25000000000102
 20
83.84999999987355
 30
0.0000000000000000
 11
60.75000000000102
 21
83.84999999987355
 31
0.0000000000000000
  0
LINE
  5
127
100
AcDbEntity
  8
A10
  6
CENTER
 62
1
100
AcDbLine
 10
49.25000000000102
 20
63.84999999987423
 30
0.0000000000000000
 11
60.75000000000102
 21
63.84999999987423
 31
0.0000000000000000
  0
LINE
  5
128
100
AcDbEntity
  8
A10
  6
CENTER
 62
1
100
AcDbLine
 10
55.00000000000102
 20
58.09999999987423
 30
0.0000000000000000
 11
55.00000000000102
 21
89.59999999987355
 31
0.0000000000000000
  0
LINE
  5
129
100
AcDbEntity
  8
A10
  6
DASHED
 62
4
100
AcDbLine
 10
60.49999999999999
 20
79.84999999987360
 30
0.0000000000000000
 11
60.49999999999999
 21
67.84999999987429
 31
0.0000000000000000
  0
CIRCLE
  5
12A
100
AcDbEntity
  8
A10
  6
DASHED
 62
4
100
AcDbCircle
 10
55.00000000000102
 20
83.84999999987355
 30
0.0000000000000000
 40
4.000000000000000
  0
CIRCLE
  5
12B
100
AcDbEntity
  8
A10
  6
DASHED
 62
4
100
AcDbCircle
 10
55.00000000000102
 20
63.84999999987343
 30
0.0000000000000000
 40
4.000000000000000
  0
CIRCLE
  5
12C
100
AcDbEntity
  8
A10
  6
CONTINUOUS
 62
7
100
AcDbCircle
 10
55.00000000000102
 20
83.84999999987355
 30
0.0000000000000000
 40
2.600000000000000
  0
CIRCLE
  5
12D
100
AcDbEntity
  8
A10
  6
CONTINUOUS
 62
7
100
AcDbCircle
 10
55.00000000000102
 20
63.84999999987423
 30
0.0000000000000000
 40
2.600000000000000
  0
ARC
  5
12E
100
AcDbEntity
  8
A10
  6
CONTINUOUS
 62
7
100
AcDbCircle
 10
55.00000000000102
 20
83.84999999987355
 30
0.0000000000000000
 40
5.000000000000000
100
AcDbArc
 50
0.0000000000000000
 51
180.0000000000000
  0
ARC
  5
12F
100
AcDbEntity
  8
A10
  6
CONTINUOUS
 62
7
100
AcDbCircle
 10
55.00000000000102
 20
63.84999999987423
 30
0.0000000000000000
 40
5.000000000000000
100
AcDbArc
 50
180.0000000000000
 51
360.0000000000000
  0
LINE
  5
130
100
AcDbEntity
  8
A10
  6
CONTINUOUS
 62
7
100
AcDbLine
 10
60.00000000000102
 20
63.84999999987423
 30
0.0000000000000000
 11
60.00000000000102
 21
67.84999999987423
 31
0.0000000000000000
  0
LINE
  5
131
100
AcDbEntity
  8
A10
  6
CONTINUOUS
 62
7
100
AcDbLine
 10
60.00000000000102
 20
79.84999999987355
 30
0.0000000000000000
 11
60.00000000000102
 21
83.84999999987355
 31
0.0000000000000000
  0
LINE
  5
132
100
AcDbEntity
  8
A10
  6
CENTER
 62
1
100
AcDbLine
 10
63.72781091607817
 20
73.84999999987355
 30
0.0000000000000000
 11
48.56314042519415
 21
73.84999999987355
 31
0.0000000000000000
  0
LINE
  5
133
100
AcDbEntity
  8
A10
  6
CONTINUOUS
 62
7
100
AcDbLine
 10
49.99999999999999
 20
101.6999999996285
 30
0.0000000000000000
 11
49.99999999999999
 21
51.00000000041200
 31
0.0000000000000000
  0
LINE
  5
134
100
AcDbEntity
  8
A10
  6
CONTINUOUS
 62
7
100
AcDbLine
 10
59.99999999999999
 20
63.84999999987423
 30
0.0000000000000000
 11
59.99999999999999
 21
50.00000000000000
 31
0.0000000000000000
  0
LINE
  5
135
100
AcDbEntity
  8
A10
  6
CONTINUOUS
 62
7
100
AcDbLine
 10
59.99999999999999
 20
102.6999999996185
 30
0.0000000000000000
 11
59.99999999999999
 21
83.84999999987355
 31
0.0000000000000000
  0
LINE
  5
136
100
AcDbEntity
  8
A10
  6
CONTINUOUS
 62
7
100
AcDbLine
 10
50.49999999999999
 20
61.67055052810608
 30
0.0000000000000000
 11
50.49999999999999
 21
50.00000000000000
 31
0.0000000000000000
  0
LINE
  5
137
100
AcDbEntity
  8
A10
  6
CONTINUOUS
 62
7
100
AcDbLine
 10
50.49999999999999
 20
102.6999999996185
 30
0.0000000000000000
 11
50.49999999999999
 21
86.02944947164175
 31
0.0000000000000000
  0
LINE
  5
138
100
AcDbEntity
  8
A10
  6
CONTINUOUS
 62
7
100
AcDbLine
 10
50.49999999999999
 20
50.00000000000124
 30
0.0000000000000000
 11
59.99999999999451
 21
50.00000000002435
 31
0.0000000000000000
  0
LINE
  5
139
100
AcDbEntity
  8
A10
  6
CONTINUOUS
 62
7
100
AcDbLine
 10
59.99999999999999
 20
102.6999999996185
 30
0.0000000000000000
 11
50.49999999999999
 21
102.6999999996280
 31
0.0000000000000000
  0
LINE
  5
13A
100
AcDbEntity
  8
A10
  6
CONTINUOUS
 62
7
100
AcDbLine
 10
50.49999999999999
 20
101.6999999996280
 30
0.0000000000000000
 11
50.00000000000806
 21
101.6999999996285
 31
0.0000000000000000
  0
LINE
  5
13B
100
AcDbEntity
  8
A10
  6
CONTINUOUS
 62
7
100
AcDbLine
 10
50.50000000000000
 20
51.00000000041251
 30
0.0000000000000000
 11
50.00000000000807
 21
51.00000000041200
 31
0.0000000000000000
  0
POINT
  5
13C
100
AcDbEntity
  8
A10
  6
CONTINUOUS
 62
5
100
AcDbPoint
 10
50.00000000000000
 20
50.00000000000000
 30
0.0000000000000000
  0
ENDSEC
  0
SECTION
  2
OBJECTS
  0
DICTIONARY
  5
169
100
AcDbDictionary
  3
ACAD_GROUP
350
16A
  3
ACAD_LAYOUT
350
16B
  3
ACAD_MLINESTYLE
350
16C
  0
DICTIONARY
  5
16A
102
{ACAD_REACTORS
330
169
102
}
330
169
100
AcDbDictionary
  0
DICTIONARY
  5
16B
102
{ACAD_REACTORS
330
169
102
}
330
169
100
AcDbDictionary
  3
Model
350
16D
  3
ﾚｲｱｳﾄ1
350
16E
  3
ﾚｲｱｳﾄ2
350
16F
  0
DICTIONARY
  5
16C
102
{ACAD_REACTORS
330
169
102
}
330
169
100
AcDbDictionary
  3
STANDARD
350
170
  0
LAYOUT
  5
16D
102
{ACAD_REACTORS
330
16B
102
}
330
16B
100
AcDbPlotSettings
 70
11952
  4
A3
 44
297.000000
 45
420.000000
 73
  1
 72
  1
100
AcDbLayout
  1
Model
 71
0
330
160
  0
LAYOUT
  5
16E
102
{ACAD_REACTORS
330
16B
102
}
330
16B
100
AcDbPlotSettings
100
AcDbLayout
  1
ﾚｲｱｳﾄ1
 71
1
330
161
  0
LAYOUT
  5
16F
102
{ACAD_REACTORS
330
16B
102
}
330
16B
100
AcDbPlotSettings
100
AcDbLayout
  1
ﾚｲｱｳﾄ2
 71
2
330
162
  0
MLINESTYLE
  5
170
102
{ACAD_REACTORS
330
16C
102
}
330
16C
100
AcDbMlineStyle
  2
STANDARD
 70
     0
  3

 62
   256
 51
90.00
 52
90.00
 71
     2
 49
0.50
 62
   256
  6
BYLAYER
 49
-0.50
 62
   256
  6
BYLAYER
  0
ENDSEC
  0
EOF
