  0
SECTION
  2
HEADER
  9
$ACADVER
  1
AC1015
  9
$ACADMAINTVER
 70
    20
  9
$DWGCODEPAGE
  3
ANSI_932
  9
$INSBASE
 10
0.0
 20
0.0
 30
0.0
  9
$EXTMIN
 10
10.0
 20
9.999999999999998
 30
0.0
  9
$EXTMAX
 10
376.807587
 20
257.234523
 30
0.0
  9
$LIMMIN
 10
0.0
 20
0.0
  9
$LIMMAX
 10
396.0
 20
273.0
  9
$ORTHOMODE
 70
     1
  9
$REGENMODE
 70
     1
  9
$FILLMODE
 70
     1
  9
$QTEXTMODE
 70
     0
  9
$MIRRTEXT
 70
     1
  9
$LTSCALE
 40
20.0
  9
$ATTMODE
 70
     1
  9
$TEXTSIZE
 40
5.0
  9
$TRACEWID
 40
1.0
  9
$TEXTSTYLE
  7
STANDARD
  9
$CLAYER
  8
0
  9
$CELTYPE
  6
BYLAYER
  9
$CECOLOR
 62
   256
  9
$CELTSCALE
 40
1.0
  9
$DISPSILH
 70
     0
  9
$DIMSCALE
 40
1.0
  9
$DIMASZ
 40
3.0
  9
$DIMEXO
 40
1.0
  9
$DIMDLI
 40
10.0
  9
$DIMRND
 40
0.0
  9
$DIMDLE
 40
0.0
  9
$DIMEXE
 40
1.0
  9
$DIMTP
 40
0.0
  9
$DIMTM
 40
0.0
  9
$DIMTXT
 40
3.2
  9
$DIMCEN
 40
0.0
  9
$DIMTSZ
 40
0.0
  9
$DIMTOL
 70
     0
  9
$DIMLIM
 70
     0
  9
$DIMTIH
 70
     0
  9
$DIMTOH
 70
     0
  9
$DIMSE1
 70
     0
  9
$DIMSE2
 70
     0
  9
$DIMTAD
 70
     3
  9
$DIMZIN
 70
     8
  9
$DIMBLK
  1

  9
$DIMASO
 70
     1
  9
$DIMSHO
 70
     1
  9
$DIMPOST
  1

  9
$DIMAPOST
  1

  9
$DIMALT
 70
     0
  9
$DIMALTD
 70
     2
  9
$DIMALTF
 40
25.4
  9
$DIMLFAC
 40
1.0
  9
$DIMTOFL
 70
     1
  9
$DIMTVP
 40
0.0
  9
$DIMTIX
 70
     0
  9
$DIMSOXD
 70
     0
  9
$DIMSAH
 70
     1
  9
$DIMBLK1
  1
OPEN
  9
$DIMBLK2
  1
OPEN
  9
$DIMSTYLE
  2
STANDARD
  9
$DIMCLRD
 70
     0
  9
$DIMCLRE
 70
     0
  9
$DIMCLRT
 70
     0
  9
$DIMTFAC
 40
1.0
  9
$DIMGAP
 40
1.0
  9
$DIMJUST
 70
     0
  9
$DIMSD1
 70
     0
  9
$DIMSD2
 70
     0
  9
$DIMTOLJ
 70
     1
  9
$DIMTZIN
 70
     0
  9
$DIMALTZ
 70
     0
  9
$DIMALTTZ
 70
     0
  9
$DIMUPT
 70
     0
  9
$DIMDEC
 70
     4
  9
$DIMTDEC
 70
     4
  9
$DIMALTU
 70
     2
  9
$DIMALTTD
 70
     2
  9
$DIMTXSTY
  7
STANDARD
  9
$DIMAUNIT
 70
     0
  9
$DIMADEC
 70
     0
  9
$DIMALTRND
 40
0.0
  9
$DIMAZIN
 70
     0
  9
$DIMDSEP
 70
    46
  9
$DIMATFIT
 70
     3
  9
$DIMFRAC
 70
     0
  9
$DIMLDRBLK
  1
OPEN
  9
$DIMLUNIT
 70
     2
  9
$DIMLWD
 70
    -2
  9
$DIMLWE
 70
    -2
  9
$DIMTMOVE
 70
     0
  9
$LUNITS
 70
     2
  9
$LUPREC
 70
     4
  9
$SKETCHINC
 40
1.0
  9
$FILLETRAD
 40
4.0
  9
$AUNITS
 70
     0
  9
$AUPREC
 70
     2
  9
$MENU
  1
.
  9
$ELEVATION
 40
0.0
  9
$PELEVATION
 40
0.0
  9
$THICKNESS
 40
0.0
  9
$LIMCHECK
 70
     0
  9
$CHAMFERA
 40
10.0
  9
$CHAMFERB
 40
10.0
  9
$CHAMFERC
 40
0.0
  9
$CHAMFERD
 40
0.0
  9
$SKPOLY
 70
     0
  9
$TDCREATE
 40
2449980.970532755
  9
$TDUCREATE
 40
2449980.595532755
  9
$TDUPDATE
 40
2457192.686433125
  9
$TDUUPDATE
 40
2457192.311433125
  9
$TDINDWG
 40
2.1908743634
  9
$TDUSRTIMER
 40
2.1908740625
  9
$USRTIMER
 70
     1
  9
$ANGBASE
 50
0.0
  9
$ANGDIR
 70
     0
  9
$PDMODE
 70
     0
  9
$PDSIZE
 40
0.0
  9
$PLINEWID
 40
0.0
  9
$SPLFRAME
 70
     0
  9
$SPLINETYPE
 70
     6
  9
$SPLINESEGS
 70
     8
  9
$HANDSEED
  5
9E65
  9
$SURFTAB1
 70
     6
  9
$SURFTAB2
 70
     6
  9
$SURFTYPE
 70
     6
  9
$SURFU
 70
     6
  9
$SURFV
 70
     6
  9
$UCSBASE
  2

  9
$UCSNAME
  2

  9
$UCSORG
 10
0.0
 20
0.0
 30
0.0
  9
$UCSXDIR
 10
1.0
 20
0.0
 30
0.0
  9
$UCSYDIR
 10
0.0
 20
1.0
 30
0.0
  9
$UCSORTHOREF
  2

  9
$UCSORTHOVIEW
 70
     0
  9
$UCSORGTOP
 10
0.0
 20
0.0
 30
0.0
  9
$UCSORGBOTTOM
 10
0.0
 20
0.0
 30
0.0
  9
$UCSORGLEFT
 10
0.0
 20
0.0
 30
0.0
  9
$UCSORGRIGHT
 10
0.0
 20
0.0
 30
0.0
  9
$UCSORGFRONT
 10
0.0
 20
0.0
 30
0.0
  9
$UCSORGBACK
 10
0.0
 20
0.0
 30
0.0
  9
$PUCSBASE
  2

  9
$PUCSNAME
  2

  9
$PUCSORG
 10
0.0
 20
0.0
 30
0.0
  9
$PUCSXDIR
 10
1.0
 20
0.0
 30
0.0
  9
$PUCSYDIR
 10
0.0
 20
1.0
 30
0.0
  9
$PUCSORTHOREF
  2

  9
$PUCSORTHOVIEW
 70
     0
  9
$PUCSORGTOP
 10
0.0
 20
0.0
 30
0.0
  9
$PUCSORGBOTTOM
 10
0.0
 20
0.0
 30
0.0
  9
$PUCSORGLEFT
 10
0.0
 20
0.0
 30
0.0
  9
$PUCSORGRIGHT
 10
0.0
 20
0.0
 30
0.0
  9
$PUCSORGFRONT
 10
0.0
 20
0.0
 30
0.0
  9
$PUCSORGBACK
 10
0.0
 20
0.0
 30
0.0
  9
$USERI1
 70
     0
  9
$USERI2
 70
     0
  9
$USERI3
 70
     0
  9
$USERI4
 70
     0
  9
$USERI5
 70
     0
  9
$USERR1
 40
0.0
  9
$USERR2
 40
0.0
  9
$USERR3
 40
0.0
  9
$USERR4
 40
0.0
  9
$USERR5
 40
0.0
  9
$WORLDVIEW
 70
     1
  9
$SHADEDGE
 70
     3
  9
$SHADEDIF
 70
    70
  9
$TILEMODE
 70
     1
  9
$MAXACTVP
 70
    16
  9
$PINSBASE
 10
0.0
 20
0.0
 30
0.0
  9
$PLIMCHECK
 70
     0
  9
$PEXTMIN
 10
1.000000000000000E+20
 20
1.000000000000000E+20
 30
1.000000000000000E+20
  9
$PEXTMAX
 10
-1.000000000000000E+20
 20
-1.000000000000000E+20
 30
-1.000000000000000E+20
  9
$PLIMMIN
 10
0.0
 20
0.0
  9
$PLIMMAX
 10
420.0
 20
297.0
  9
$UNITMODE
 70
     0
  9
$VISRETAIN
 70
     0
  9
$PLINEGEN
 70
     0
  9
$PSLTSCALE
 70
     0
  9
$TREEDEPTH
 70
  3020
  9
$CMLSTYLE
  2
STANDARD
  9
$CMLJUST
 70
     0
  9
$CMLSCALE
 40
1.0
  9
$PROXYGRAPHICS
 70
     1
  9
$MEASUREMENT
 70
     0
  9
$CELWEIGHT
370
    -1
  9
$ENDCAPS
280
     0
  9
$JOINSTYLE
280
     0
  9
$LWDISPLAY
290
     0
  9
$INSUNITS
 70
     0
  9
$HYPERLINKBASE
  1

  9
$STYLESHEET
  1

  9
$XEDIT
290
     1
  9
$CEPSNTYPE
380
     0
  9
$PSTYLEMODE
290
     1
  9
$FINGERPRINTGUID
  2
{9262B507-896C-4965-BA63-284E64E22E26}
  9
$VERSIONGUID
  2
{846AF306-4351-456A-8EC4-3B4179836355}
  9
$EXTNAMES
290
     1
  9
$PSVPSCALE
 40
0.0
  9
$OLESTARTUP
290
     0
  0
ENDSEC
  0
SECTION
  2
CLASSES
  0
CLASS
  1
ACDBDICTIONARYWDFLT
  2
AcDbDictionaryWithDefault
  3
ObjectDBX Classes
 90
        0
280
     0
281
     0
  0
CLASS
  1
ACDBPLACEHOLDER
  2
AcDbPlaceHolder
  3
ObjectDBX Classes
 90
        0
280
     0
281
     0
  0
CLASS
  1
LAYOUT
  2
AcDbLayout
  3
ObjectDBX Classes
 90
        0
280
     0
281
     0
  0
CLASS
  1
DICTIONARYVAR
  2
AcDbDictionaryVar
  3
ObjectDBX Classes
 90
        0
280
     0
281
     0
  0
CLASS
  1
MATERIAL
  2
AcDbMaterial
  3
ObjectDBX Classes
 90
     1153
280
     0
281
     0
  0
CLASS
  1
VISUALSTYLE
  2
AcDbVisualStyle
  3
ObjectDBX Classes
 90
     4095
280
     0
281
     0
  0
CLASS
  1
TABLESTYLE
  2
AcDbTableStyle
  3
ObjectDBX Classes
 90
     4095
280
     0
281
     0
  0
CLASS
  1
SCALE
  2
AcDbScale
  3
ObjectDBX Classes
 90
     1153
280
     0
281
     0
  0
CLASS
  1
MLEADERSTYLE
  2
AcDbMLeaderStyle
  3
ACDB_MLEADERSTYLE_CLASS
 90
     4095
280
     0
281
     0
  0
CLASS
  1
ACDBSECTIONVIEWSTYLE
  2
AcDbSectionViewStyle
  3
ObjectDBX Classes
 90
     1025
280
     0
281
     0
  0
CLASS
  1
ACDBDETAILVIEWSTYLE
  2
AcDbDetailViewStyle
  3
ObjectDBX Classes
 90
     1025
280
     0
281
     0
  0
CLASS
  1
CELLSTYLEMAP
  2
AcDbCellStyleMap
  3
ObjectDBX Classes
 90
     1152
280
     0
281
     0
  0
ENDSEC
  0
SECTION
  2
TABLES
  0
TABLE
  2
VPORT
  5
9B1F
330
0
100
AcDbSymbolTable
 70
     1
  0
VPORT
  5
9DAE
330
9B1F
100
AcDbSymbolTableRecord
100
AcDbViewportTableRecord
  2
*ACTIVE
 70
     0
 10
0.0
 20
0.0
 11
1.0
 21
1.0
 12
268.2959217258899
 22
133.615288413031
 13
0.0
 23
0.0
 14
10.0
 24
10.0
 15
10.0
 25
10.0
 16
0.0
 26
0.0
 36
1.0
 17
0.0
 27
0.0
 37
0.0
 40
249.9841885764201
 41
2.35006605019815
 42
50.0
 43
0.0
 44
0.0
 50
0.0
 51
0.0
 71
     0
 72
   100
 73
     1
 74
     0
 75
     0
 76
     0
 77
     0
 78
     0
281
     0
 65
     1
110
0.0
120
0.0
130
0.0
111
1.0
121
0.0
131
0.0
112
0.0
122
1.0
132
0.0
 79
     0
146
0.0
1001
ACAD_NAV_VCDISPLAY
1070
     3
  0
ENDTAB
  0
TABLE
  2
LTYPE
  5
9B1C
330
0
100
AcDbSymbolTable
 70
     4
  0
LTYPE
  5
9B2A
330
9B1C
100
AcDbSymbolTableRecord
100
AcDbLinetypeTableRecord
  2
BYBLOCK
 70
     0
  3

 72
    65
 73
     0
 40
0.0
  0
LTYPE
  5
9B2B
330
9B1C
100
AcDbSymbolTableRecord
100
AcDbLinetypeTableRecord
  2
BYLAYER
 70
     0
  3

 72
    65
 73
     0
 40
0.0
  0
LTYPE
  5
9B2C
330
9B1C
100
AcDbSymbolTableRecord
100
AcDbLinetypeTableRecord
  2
CONTINUOUS
 70
     0
  3
Solid line
 72
    65
 73
     0
 40
0.0
  0
LTYPE
  5
9B3A
330
9B1C
100
AcDbSymbolTableRecord
100
AcDbLinetypeTableRecord
  2
DASHED
 70
     0
  3
__ __ __ __ __ __ __ __ __ __ __ __ __ __ __ __
 72
    65
 73
     2
 40
0.75
 49
0.5
 74
     0
 49
-0.25
 74
     0
  0
LTYPE
  5
9B3B
330
9B1C
100
AcDbSymbolTableRecord
100
AcDbLinetypeTableRecord
  2
CENTER
 70
     0
  3
____ _ ____ _ ____ _ ____ _ ____ _ ____ _ ____ 
 72
    65
 73
     4
 40
2.0
 49
1.25
 74
     0
 49
-0.25
 74
     0
 49
0.25
 74
     0
 49
-0.25
 74
     0
  0
LTYPE
  5
9B3C
330
9B1C
100
AcDbSymbolTableRecord
100
AcDbLinetypeTableRecord
  2
PHANTOM
 70
     0
  3
______  __  __  ______  __  __  ______  __  __ 
 72
    65
 73
     6
 40
2.5
 49
1.25
 74
     0
 49
-0.25
 74
     0
 49
0.25
 74
     0
 49
-0.25
 74
     0
 49
0.25
 74
     0
 49
-0.25
 74
     0
  0
ENDTAB
  0
TABLE
  2
LAYER
  5
9B19
330
0
100
AcDbSymbolTable
 70
     8
  0
LAYER
  5
9B27
102
{ACAD_XDICTIONARY
360
9E09
102
}
330
9B19
100
AcDbSymbolTableRecord
100
AcDbLayerTableRecord
  2
0
 70
     0
 62
     7
  6
CONTINUOUS
370
    -3
390
9DB7
  0
LAYER
  5
9B3D
102
{ACAD_XDICTIONARY
360
9E0B
102
}
330
9B19
100
AcDbSymbolTableRecord
100
AcDbLayerTableRecord
  2
4
 70
     0
 62
     1
  6
CENTER
370
    -3
390
9DB7
  0
LAYER
  5
9B3E
102
{ACAD_XDICTIONARY
360
9E0D
102
}
330
9B19
100
AcDbSymbolTableRecord
100
AcDbLayerTableRecord
  2
5
 70
     0
 62
     6
  6
PHANTOM
370
    -3
390
9DB7
  0
LAYER
  5
9B3F
102
{ACAD_XDICTIONARY
360
9E0F
102
}
330
9B19
100
AcDbSymbolTableRecord
100
AcDbLayerTableRecord
  2
1
 70
     0
 62
     7
  6
CONTINUOUS
370
    -3
390
9DB7
  0
LAYER
  5
9B40
102
{ACAD_XDICTIONARY
360
9E11
102
}
330
9B19
100
AcDbSymbolTableRecord
100
AcDbLayerTableRecord
  2
2
 70
     0
 62
     4
  6
CONTINUOUS
370
    -3
390
9DB7
  0
LAYER
  5
9B41
102
{ACAD_XDICTIONARY
360
9E13
102
}
330
9B19
100
AcDbSymbolTableRecord
100
AcDbLayerTableRecord
  2
3
 70
     0
 62
     2
  6
DASHED
370
    -3
390
9DB7
  0
LAYER
  5
9B42
102
{ACAD_XDICTIONARY
360
9E15
102
}
330
9B19
100
AcDbSymbolTableRecord
100
AcDbLayerTableRecord
  2
6
 70
     0
 62
     5
  6
CONTINUOUS
370
    -3
390
9DB7
  0
LAYER
  5
9B43
102
{ACAD_XDICTIONARY
360
9E17
102
}
330
9B19
100
AcDbSymbolTableRecord
100
AcDbLayerTableRecord
  2
7
 70
     0
 62
     3
  6
CONTINUOUS
370
    -3
390
9DB7
  0
ENDTAB
  0
TABLE
  2
STYLE
  5
9B1A
330
0
100
AcDbSymbolTable
 70
     1
  0
STYLE
  5
9B28
330
9B1A
100
AcDbSymbolTableRecord
100
AcDbTextStyleTableRecord
  2
STANDARD
 70
     0
 40
0.0
 41
1.0
 50
0.0
 71
     0
 42
5.0
  3
txt
  4

  0
ENDTAB
  0
TABLE
  2
VIEW
  5
9B1D
330
0
100
AcDbSymbolTable
 70
     0
  0
ENDTAB
  0
TABLE
  2
UCS
  5
9B1E
330
0
100
AcDbSymbolTable
 70
     0
  0
ENDTAB
  0
TABLE
  2
APPID
  5
9B20
330
0
100
AcDbSymbolTable
 70
     3
  0
APPID
  5
9B29
330
9B20
100
AcDbSymbolTableRecord
100
AcDbRegAppTableRecord
  2
ACAD
 70
     0
  0
APPID
  5
9E23
330
9B20
100
AcDbSymbolTableRecord
100
AcDbRegAppTableRecord
  2
ACAD_NAV_VCDISPLAY
 70
     0
  0
APPID
  5
9E5C
330
9B20
100
AcDbSymbolTableRecord
100
AcDbRegAppTableRecord
  2
ACAD_MLEADERVER
 70
     0
  0
ENDTAB
  0
TABLE
  2
DIMSTYLE
  5
9B21
330
0
100
AcDbSymbolTable
 70
     1
100
AcDbDimStyleTable
 71
     0
  0
DIMSTYLE
105
9B45
330
9B21
100
AcDbSymbolTableRecord
100
AcDbDimStyleTableRecord
  2
STANDARD
 70
     0
 41
3.0
 42
1.0
 43
10.0
 44
1.0
 73
     0
 74
     0
 77
     3
 78
     8
140
3.2
141
0.0
147
1.0
172
     1
173
     1
284
     8
285
     8
286
     8
340
9B28
  0
ENDTAB
  0
TABLE
  2
BLOCK_RECORD
  5
9B18
330
0
100
AcDbSymbolTable
 70
     1
  0
BLOCK_RECORD
  5
9B35
102
{ACAD_XDICTIONARY
360
9DB1
102
}
330
9B18
100
AcDbSymbolTableRecord
100
AcDbBlockTableRecord
  2
*MODEL_SPACE
340
9E05
  0
BLOCK_RECORD
  5
9B31
102
{ACAD_XDICTIONARY
360
9DAF
102
}
330
9B18
100
AcDbSymbolTableRecord
100
AcDbBlockTableRecord
  2
*PAPER_SPACE
340
9E06
  0
BLOCK_RECORD
  5
9B4D
330
9B18
100
AcDbSymbolTableRecord
100
AcDbBlockTableRecord
  2
_OPEN
340
0
  0
ENDTAB
  0
ENDSEC
  0
SECTION
  2
BLOCKS
  0
BLOCK
  5
9B36
330
9B35
100
AcDbEntity
  8
0
100
AcDbBlockBegin
  2
*MODEL_SPACE
 70
     0
 10
0.0
 20
0.0
 30
0.0
  3
*MODEL_SPACE
  1

  0
ENDBLK
  5
9B37
330
9B35
100
AcDbEntity
  8
0
100
AcDbBlockEnd
  0
BLOCK
  5
9B32
330
9B31
100
AcDbEntity
 67
     1
  8
0
100
AcDbBlockBegin
  2
*PAPER_SPACE
 70
     0
 10
0.0
 20
0.0
 30
0.0
  3
*PAPER_SPACE
  1

  0
ENDBLK
  5
9B33
330
9B31
100
AcDbEntity
 67
     1
  8
0
100
AcDbBlockEnd
  0
BLOCK
  5
9B4E
330
9B4D
100
AcDbEntity
  8
0
100
AcDbBlockBegin
  2
_OPEN
 70
     0
 10
0.0
 20
0.0
 30
0.0
  3
_OPEN
  1

  0
LINE
  5
9B4F
330
9B4D
100
AcDbEntity
  8
0
  6
ByBlock
 62
     0
100
AcDbLine
 10
-1.0
 20
0.166667
 30
0.0
 11
0.0
 21
0.0
 31
0.0
  0
LINE
  5
9B50
330
9B4D
100
AcDbEntity
  8
0
  6
ByBlock
 62
     0
100
AcDbLine
 10
0.0
 20
0.0
 30
0.0
 11
-1.0
 21
-0.166667
 31
0.0
  0
LINE
  5
9B51
330
9B4D
100
AcDbEntity
  8
0
  6
ByBlock
 62
     0
100
AcDbLine
 10
0.0
 20
0.0
 30
0.0
 11
-1.0
 21
0.0
 31
0.0
  0
ENDBLK
  5
9B52
330
9B4D
100
AcDbEntity
  8
0
100
AcDbBlockEnd
  0
ENDSEC
  0
SECTION
  2
ENTITIES
  0
TEXT
  5
9B53
330
9B35
100
AcDbEntity
  8
7
  6
Continuous
100
AcDbText
 10
10.0
 20
18.0
 30
0.0
 40
3.0
  1
TYPE No.102
100
AcDbText
  0
TEXT
  5
9B54
330
9B35
100
AcDbEntity
  8
7
  6
Continuous
100
AcDbText
 10
10.0
 20
26.0
 30
0.0
 40
3.0
  1
CODE No.9002
100
AcDbText
  0
TEXT
  5
9B55
330
9B35
100
AcDbEntity
  8
1
  6
Continuous
100
AcDbText
 10
10.0
 20
10.0
 30
0.0
 40
1.399999999999999
  1
LAYER
100
AcDbText
  0
TEXT
  5
9B56
330
9B35
100
AcDbEntity
  8
1
  6
Continuous
100
AcDbText
 10
17.97951099999998
 20
10.04873699999998
 30
0.0
 40
1.399999999999999
  1
1
100
AcDbText
  0
TEXT
  5
9B57
330
9B35
100
AcDbEntity
  8
7
  6
Continuous
100
AcDbText
 10
29.97951099999999
 20
10.04873699999998
 30
0.0
 40
1.399999999999999
  1
7
100
AcDbText
  0
TEXT
  5
9B58
330
9B35
100
AcDbEntity
  8
4
  6
CENTER
100
AcDbText
 10
23.97951099999999
 20
10.04873699999998
 30
0.0
 40
1.399999999999999
  1
4
100
AcDbText
  0
TEXT
  5
9B59
330
9B35
100
AcDbEntity
  8
3
  6
DASHED
100
AcDbText
 10
21.979511
 20
10.04873699999998
 30
0.0
 40
1.399999999999999
  1
3
100
AcDbText
  0
TEXT
  5
9B5A
330
9B35
100
AcDbEntity
  8
2
  6
Continuous
100
AcDbText
 10
19.97951099999999
 20
10.04873699999998
 30
0.0
 40
1.399999999999999
  1
2
100
AcDbText
  0
TEXT
  5
9B5B
330
9B35
100
AcDbEntity
  8
6
  6
Continuous
100
AcDbText
 10
27.979511
 20
10.04873699999998
 30
0.0
 40
1.399999999999999
  1
6
100
AcDbText
  0
TEXT
  5
9B5C
330
9B35
100
AcDbEntity
  8
5
  6
PHANTOM
100
AcDbText
 10
25.97951099999999
 20
10.04873699999998
 30
0.0
 40
1.399999999999999
  1
5
100
AcDbText
  0
LINE
  5
9B5D
330
9B35
100
AcDbEntity
  8
4
  6
CENTER
100
AcDbLine
 10
146.3897609999999
 20
141.379624
 30
0.0
 11
100.3897609999998
 21
141.379624
 31
0.0
  0
LINE
  5
9B5E
330
9B35
100
AcDbEntity
  8
1
  6
Continuous
100
AcDbLine
 10
122.389311
 20
174.209802
 30
0.0
 11
128.9655939999998
 21
174.209802
 31
0.0
  0
LINE
  5
9B5F
330
9B35
100
AcDbEntity
  8
1
  6
Continuous
100
AcDbLine
 10
124.621729
 20
165.884078
 30
0.0
 11
121.426409
 21
165.8058889999998
 31
0.0
  0
LINE
  5
9B60
330
9B35
100
AcDbEntity
  8
1
  6
Continuous
100
AcDbLine
 10
122.6142639999999
 20
163.916532
 30
0.0
 11
120.8674169999998
 21
163.8893149999999
 31
0.0
  0
ARC
  5
9B61
330
9B35
100
AcDbEntity
  8
1
  6
Continuous
100
AcDbCircle
 10
122.639761
 20
140.6096239999999
 30
0.0
 40
7.0
100
AcDbArc
 50
163.200454
 51
297.4158479999999
  0
ARC
  5
9B62
330
9B35
100
AcDbEntity
  8
1
  6
Continuous
100
AcDbCircle
 10
123.3897609999999
 20
141.379624
 30
0.0
 40
8.5
100
AcDbArc
 50
134.360001
 51
346.2696789999998
  0
ARC
  5
9B63
330
9B35
100
AcDbEntity
  8
1
  6
Continuous
100
AcDbCircle
 10
123.3897609999999
 20
141.379624
 30
0.0
 40
13.5
100
AcDbArc
 50
106.312717
 51
15.276205
  0
ARC
  5
9B64
330
9B35
100
AcDbEntity
  8
1
  6
Continuous
100
AcDbCircle
 10
123.3897609999999
 20
141.379624
 30
0.0
 40
20.0
100
AcDbArc
 50
94.616828
 51
28.49641599999999
  0
LINE
  5
9B65
330
9B35
100
AcDbEntity
  8
1
  6
Continuous
100
AcDbLine
 10
115.389761
 20
174.3798229999999
 30
0.0
 11
126.496907
 21
174.3798229999999
 31
0.0
  0
ARC
  5
9B66
330
9B35
100
AcDbEntity
  8
1
  6
Continuous
100
AcDbCircle
 10
134.2027929999999
 20
190.2867569999999
 30
0.0
 40
20.0
100
AcDbArc
 50
234.007872
 51
242.0997419999999
  0
LINE
  5
9B67
330
9B35
100
AcDbEntity
  8
1
  6
Continuous
100
AcDbLine
 10
115.389761
 20
176.3798229999999
 30
0.0
 11
126.496907
 21
176.3798229999999
 31
0.0
  0
LINE
  5
9B68
330
9B35
100
AcDbEntity
  8
4
  6
CENTER
100
AcDbLine
 10
123.3897609999999
 20
118.3796239999998
 30
0.0
 11
123.3897609999999
 21
164.379624
 31
0.0
  0
LINE
  5
9B69
330
9B35
100
AcDbEntity
  8
4
  6
CENTER
100
AcDbLine
 10
142.389761
 20
181.3798229999999
 30
0.0
 11
142.389761
 21
149.571809
 31
0.0
  0
LINE
  5
9B6A
330
9B35
100
AcDbEntity
  8
1
  6
Continuous
100
AcDbLine
 10
130.3067149999999
 20
160.235704
 30
0.0
 11
130.3067149999999
 21
143.9688539999998
 31
0.0
  0
ARC
  5
9B6B
330
9B35
100
AcDbEntity
  8
1
  6
Continuous
100
AcDbCircle
 10
226.561743
 20
82.551573
 30
0.0
 40
109.54901
100
AcDbArc
 50
135.068663
 51
142.550598
  0
ARC
  5
9B6C
330
9B35
100
AcDbEntity
  8
1
  6
Continuous
100
AcDbCircle
 10
312.067422
 20
17.060648
 30
0.0
 40
217.2536169999999
100
AcDbArc
 50
138.822846
 51
143.585047
  0
ARC
  5
9B6D
330
9B35
100
AcDbEntity
  8
1
  6
Continuous
100
AcDbCircle
 10
80.801327
 20
187.6578969999999
 30
0.0
 40
70.12666800000001
100
AcDbArc
 50
312.857186
 51
323.5850469999999
  0
LINE
  5
9B6E
330
9B35
100
AcDbEntity
  8
1
  6
Continuous
100
AcDbLine
 10
158.3899409999999
 20
171.264135
 30
0.0
 11
126.389581
 21
171.264135
 31
0.0
  0
LINE
  5
9B6F
330
9B35
100
AcDbEntity
  8
1
  6
Continuous
100
AcDbLine
 10
158.339761
 20
162.4236379999999
 30
0.0
 11
154.215926
 21
162.4343969999999
 31
0.0
  0
LINE
  5
9B70
330
9B35
100
AcDbEntity
  8
1
  6
Continuous
100
AcDbLine
 10
126.1397609999999
 20
168.846553
 30
0.0
 11
158.6397609999999
 21
168.846553
 31
0.0
  0
LINE
  5
9B71
330
9B35
100
AcDbEntity
  8
1
  6
Continuous
100
AcDbLine
 10
157.882261
 20
162.489397
 30
0.0
 11
153.814256
 21
162.489397
 31
0.0
  0
ARC
  5
9B72
330
9B35
100
AcDbEntity
  8
1
  6
Continuous
100
AcDbCircle
 10
158.2826149999999
 20
156.3722469999999
 30
0.0
 40
18.007576
100
AcDbArc
 50
90.0
 51
105.636933
  0
ARC
  5
9B73
330
9B35
100
AcDbEntity
  8
1
  6
Continuous
100
AcDbCircle
 10
158.2826149999999
 20
156.3722469999999
 30
0.0
 40
20.007576
100
AcDbArc
 50
90.0
 51
105.636933
  0
LINE
  5
9B74
330
9B35
100
AcDbEntity
  8
1
  6
Continuous
100
AcDbLine
 10
155.616806
 20
168.846553
 30
0.0
 11
157.420076
 21
170.0698229999999
 31
0.0
  0
LINE
  5
9B75
330
9B35
100
AcDbEntity
  8
1
  6
Continuous
100
AcDbLine
 10
157.420076
 20
168.846553
 30
0.0
 11
155.616806
 21
170.0698229999999
 31
0.0
  0
LINE
  5
9B76
330
9B35
100
AcDbEntity
  8
1
  6
Continuous
100
AcDbLine
 10
157.7381259999999
 20
170.0698229999999
 30
0.0
 11
158.6397609999999
 21
169.1681879999999
 31
0.0
  0
LINE
  5
9B77
330
9B35
100
AcDbEntity
  8
1
  6
Continuous
100
AcDbLine
 10
158.6397609999999
 20
170.0698229999999
 30
0.0
 11
158.6397609999999
 21
168.846553
 31
0.0
  0
ARC
  5
9B78
330
9B35
100
AcDbEntity
  8
1
  6
Continuous
100
AcDbCircle
 10
171.835372
 20
164.452619
 30
0.0
 40
12.165422
100
AcDbArc
 50
175.4450339999999
 51
183.2702319999999
  0
LINE
  5
9B79
330
9B35
100
AcDbEntity
  8
1
  6
Continuous
100
AcDbLine
 10
158.339761
 20
162.4236379999999
 30
0.0
 11
159.689761
 21
162.589622
 31
0.0
  0
LINE
  5
9B7A
330
9B35
100
AcDbEntity
  8
1
  6
Continuous
100
AcDbLine
 10
159.689761
 20
162.589622
 30
0.0
 11
159.689761
 21
163.7586379999999
 31
0.0
  0
LINE
  5
9B7B
330
9B35
100
AcDbEntity
  8
1
  6
Continuous
100
AcDbLine
 10
157.882261
 20
162.489397
 30
0.0
 11
158.339761
 21
162.4236379999999
 31
0.0
  0
ARC
  5
9B7C
330
9B35
100
AcDbEntity
  8
1
  6
Continuous
100
AcDbCircle
 10
156.073895
 20
165.516661
 30
0.0
 40
3.635797999999998
100
AcDbArc
 50
358.456726
 51
35.58992999999999
  0
LINE
  5
9B7D
330
9B35
100
AcDbEntity
  8
1
  6
Continuous
100
AcDbLine
 10
157.7381259999999
 20
168.846553
 30
0.0
 11
158.6397609999999
 21
169.1681879999999
 31
0.0
  0
ARC
  5
9B7E
330
9B35
100
AcDbEntity
  8
1
  6
Continuous
100
AcDbCircle
 10
156.6689949999999
 20
165.942553
 30
0.0
 40
2.903999999999999
100
AcDbArc
 50
35.58992999999999
 51
90.0
  0
LINE
  5
9B7F
330
9B35
100
AcDbEntity
  8
1
  6
Continuous
100
AcDbLine
 10
169.389761
 20
174.3798229999999
 30
0.0
 11
158.2826149999999
 21
174.3798229999999
 31
0.0
  0
LINE
  5
9B80
330
9B35
100
AcDbEntity
  8
1
  6
Continuous
100
AcDbLine
 10
169.389761
 20
176.3798229999999
 30
0.0
 11
158.2826149999999
 21
176.3798229999999
 31
0.0
  0
LINE
  5
9B81
330
9B35
100
AcDbEntity
  8
1
  6
Continuous
100
AcDbLine
 10
164.1135229999999
 20
174.3077839999999
 30
0.0
 11
163.060211
 21
174.209802
 31
0.0
  0
LINE
  5
9B82
330
9B35
100
AcDbEntity
  8
1
  6
Continuous
100
AcDbLine
 10
168.1141989999999
 20
174.3762419999999
 30
0.0
 11
164.1381419999999
 21
174.3100739999999
 31
0.0
  0
ARC
  5
9B83
330
9B35
100
AcDbEntity
  8
1
  6
Continuous
100
AcDbCircle
 10
168.042168
 20
178.7046419999998
 30
0.0
 40
4.328999999999997
100
AcDbArc
 50
270.9533969999999
 51
272.518366
  0
LINE
  5
9B84
330
9B35
100
AcDbEntity
  8
1
  6
Continuous
100
AcDbLine
 10
162.3902109999999
 20
174.209802
 30
0.0
 11
155.8139279999998
 21
174.209802
 31
0.0
  0
ARC
  5
9B85
330
9B35
100
AcDbEntity
  8
1
  6
Continuous
100
AcDbCircle
 10
158.4372109999999
 20
175.441052
 30
0.0
 40
3.201722
100
AcDbArc
 50
268.994238
 51
297.9002579999999
  0
ARC
  5
9B86
330
9B35
100
AcDbEntity
  8
1
  6
Continuous
100
AcDbCircle
 10
150.576729
 20
190.2867569999999
 30
0.0
 40
20.0
100
AcDbArc
 50
297.9002579999999
 51
305.9921279999999
  0
LINE
  5
9B87
330
9B35
100
AcDbEntity
  8
1
  6
Continuous
100
AcDbLine
 10
162.3902109999999
 20
174.209802
 30
0.0
 11
162.330211
 21
174.104802
 31
0.0
  0
LINE
  5
9B88
330
9B35
100
AcDbEntity
  8
1
  6
Continuous
100
AcDbLine
 10
162.3902109999999
 20
174.209802
 30
0.0
 11
163.060211
 21
174.209802
 31
0.0
  0
ARC
  5
9B89
330
9B35
100
AcDbEntity
  8
1
  6
Continuous
100
AcDbCircle
 10
157.35943
 20
170.8828109999998
 30
0.0
 40
1.098799999999998
100
AcDbArc
 50
20.306161
 51
60.57047500000001
  0
LINE
  5
9B8A
330
9B35
100
AcDbEntity
  8
1
  6
Continuous
100
AcDbLine
 10
157.179199
 20
171.839823
 30
0.0
 11
156.9035889999998
 21
172.239823
 31
0.0
  0
ARC
  5
9B8B
330
9B35
100
AcDbEntity
  8
1
  6
Continuous
100
AcDbCircle
 10
156.0415659999998
 20
171.595022
 30
0.0
 40
2.371570999999998
100
AcDbArc
 50
319.959594
 51
351.9797889999999
  0
LINE
  5
9B8C
330
9B35
100
AcDbEntity
  8
1
  6
Continuous
100
AcDbLine
 10
138.6462429999999
 20
168.846553
 30
0.0
 11
140.4495129999999
 21
170.0698229999999
 31
0.0
  0
LINE
  5
9B8D
330
9B35
100
AcDbEntity
  8
1
  6
Continuous
100
AcDbLine
 10
140.4495129999999
 20
168.846553
 30
0.0
 11
138.6462429999999
 21
170.0698229999999
 31
0.0
  0
LINE
  5
9B8E
330
9B35
100
AcDbEntity
  8
1
  6
Continuous
100
AcDbLine
 10
146.394435
 20
174.239823
 30
0.0
 11
138.389761
 21
174.239823
 31
0.0
  0
LINE
  5
9B8F
330
9B35
100
AcDbEntity
  8
1
  6
Continuous
100
AcDbLine
 10
126.1397609999999
 20
170.0698229999999
 30
0.0
 11
158.6397609999999
 21
170.0698229999999
 31
0.0
  0
LINE
  5
9B90
330
9B35
100
AcDbEntity
  8
1
  6
Continuous
100
AcDbLine
 10
131.889761
 20
175.639323
 30
0.0
 11
152.889761
 21
175.639323
 31
0.0
  0
LINE
  5
9B91
330
9B35
100
AcDbEntity
  8
1
  6
Continuous
100
AcDbLine
 10
126.8801939999999
 20
171.839823
 30
0.0
 11
157.8993269999998
 21
171.839823
 31
0.0
  0
LINE
  5
9B92
330
9B35
100
AcDbEntity
  8
1
  6
Continuous
100
AcDbLine
 10
133.6900809999999
 20
175.989823
 30
0.0
 11
151.0894409999998
 21
175.989823
 31
0.0
  0
LINE
  5
9B93
330
9B35
100
AcDbEntity
  8
1
  6
Continuous
100
AcDbLine
 10
126.286111
 20
172.239823
 30
0.0
 11
158.3810259999999
 21
172.239823
 31
0.0
  0
LINE
  5
9B94
330
9B35
100
AcDbEntity
  8
1
  6
Continuous
100
AcDbLine
 10
140.7675629999999
 20
168.846553
 30
0.0
 11
142.5708329999999
 21
170.0698229999999
 31
0.0
  0
LINE
  5
9B95
330
9B35
100
AcDbEntity
  8
1
  6
Continuous
100
AcDbLine
 10
142.8888839999999
 20
168.846553
 30
0.0
 11
144.6921539999999
 21
170.0698229999999
 31
0.0
  0
LINE
  5
9B96
330
9B35
100
AcDbEntity
  8
1
  6
Continuous
100
AcDbLine
 10
145.0102039999999
 20
168.846553
 30
0.0
 11
146.8134739999999
 21
170.0698229999999
 31
0.0
  0
LINE
  5
9B97
330
9B35
100
AcDbEntity
  8
1
  6
Continuous
100
AcDbLine
 10
147.131524
 20
168.846553
 30
0.0
 11
148.9347939999998
 21
170.0698229999999
 31
0.0
  0
LINE
  5
9B98
330
9B35
100
AcDbEntity
  8
1
  6
Continuous
100
AcDbLine
 10
149.252845
 20
168.846553
 30
0.0
 11
151.0561149999998
 21
170.0698229999999
 31
0.0
  0
LINE
  5
9B99
330
9B35
100
AcDbEntity
  8
1
  6
Continuous
100
AcDbLine
 10
151.3741649999998
 20
168.846553
 30
0.0
 11
153.177435
 21
170.0698229999999
 31
0.0
  0
LINE
  5
9B9A
330
9B35
100
AcDbEntity
  8
1
  6
Continuous
100
AcDbLine
 10
153.495485
 20
168.846553
 30
0.0
 11
155.298755
 21
170.0698229999999
 31
0.0
  0
LINE
  5
9B9B
330
9B35
100
AcDbEntity
  8
1
  6
Continuous
100
AcDbLine
 10
142.5708329999999
 20
168.846553
 30
0.0
 11
140.7675629999999
 21
170.0698229999999
 31
0.0
  0
LINE
  5
9B9C
330
9B35
100
AcDbEntity
  8
1
  6
Continuous
100
AcDbLine
 10
144.6921539999999
 20
168.846553
 30
0.0
 11
142.8888839999999
 21
170.0698229999999
 31
0.0
  0
LINE
  5
9B9D
330
9B35
100
AcDbEntity
  8
1
  6
Continuous
100
AcDbLine
 10
146.8134739999999
 20
168.846553
 30
0.0
 11
145.0102039999999
 21
170.0698229999999
 31
0.0
  0
LINE
  5
9B9E
330
9B35
100
AcDbEntity
  8
1
  6
Continuous
100
AcDbLine
 10
148.9347939999998
 20
168.846553
 30
0.0
 11
147.131524
 21
170.0698229999999
 31
0.0
  0
LINE
  5
9B9F
330
9B35
100
AcDbEntity
  8
1
  6
Continuous
100
AcDbLine
 10
151.0561149999998
 20
168.846553
 30
0.0
 11
149.252845
 21
170.0698229999999
 31
0.0
  0
LINE
  5
9BA0
330
9B35
100
AcDbEntity
  8
1
  6
Continuous
100
AcDbLine
 10
153.177435
 20
168.846553
 30
0.0
 11
151.3741649999998
 21
170.0698229999999
 31
0.0
  0
LINE
  5
9BA1
330
9B35
100
AcDbEntity
  8
1
  6
Continuous
100
AcDbLine
 10
155.298755
 20
168.846553
 30
0.0
 11
153.495485
 21
170.0698229999999
 31
0.0
  0
ARC
  5
9BA2
330
9B35
100
AcDbEntity
  8
1
  6
Continuous
100
AcDbCircle
 10
155.1949999999999
 20
153.747468
 30
0.0
 40
8.741928999999997
100
AcDbArc
 50
90.0
 51
135.068663
  0
ARC
  5
9BA3
330
9B35
100
AcDbEntity
  8
1
  6
Continuous
100
AcDbCircle
 10
153.814256
 20
155.489397
 30
0.0
 40
7.0
100
AcDbArc
 50
90.0
 51
138.822846
  0
ARC
  5
9BA4
330
9B35
100
AcDbEntity
  8
1
  6
Continuous
100
AcDbCircle
 10
146.3897609999999
 20
185.163903
 30
0.0
 40
12.924081
100
AcDbArc
 50
270.0
 51
285.636933
  0
ARC
  5
9BA5
330
9B35
100
AcDbEntity
  8
1
  6
Continuous
100
AcDbCircle
 10
146.3897609999999
 20
185.163903
 30
0.0
 40
10.92408099999999
100
AcDbArc
 50
270.0
 51
285.636933
  0
LINE
  5
9BA6
330
9B35
100
AcDbEntity
  8
1
  6
Continuous
100
AcDbLine
 10
149.3342449999999
 20
174.644134
 30
0.0
 11
152.889761
 21
175.639323
 31
0.0
  0
LINE
  5
9BA7
330
9B35
100
AcDbEntity
  8
1
  6
Continuous
100
AcDbLine
 10
153.428842
 20
173.7133449999998
 30
0.0
 11
149.8733259999999
 21
172.718155
 31
0.0
  0
LINE
  5
9BA8
330
9B35
100
AcDbEntity
  8
1
  6
Continuous
100
AcDbLine
 10
151.0894409999998
 20
175.639323
 30
0.0
 11
151.0894409999998
 21
175.989823
 31
0.0
  0
LINE
  5
9BA9
330
9B35
100
AcDbEntity
  8
1
  6
Continuous
100
AcDbLine
 10
126.1397609999999
 20
169.0679929999998
 30
0.0
 11
127.721591
 21
170.0698229999999
 31
0.0
  0
LINE
  5
9BAA
330
9B35
100
AcDbEntity
  8
1
  6
Continuous
100
AcDbLine
 10
128.0396409999999
 20
168.846553
 30
0.0
 11
129.8429109999999
 21
170.0698229999999
 31
0.0
  0
LINE
  5
9BAB
330
9B35
100
AcDbEntity
  8
1
  6
Continuous
100
AcDbLine
 10
130.160962
 20
168.846553
 30
0.0
 11
131.964232
 21
170.0698229999999
 31
0.0
  0
LINE
  5
9BAC
330
9B35
100
AcDbEntity
  8
1
  6
Continuous
100
AcDbLine
 10
132.282282
 20
168.846553
 30
0.0
 11
134.085552
 21
170.0698229999999
 31
0.0
  0
LINE
  5
9BAD
330
9B35
100
AcDbEntity
  8
1
  6
Continuous
100
AcDbLine
 10
134.403602
 20
168.846553
 30
0.0
 11
136.206872
 21
170.0698229999999
 31
0.0
  0
LINE
  5
9BAE
330
9B35
100
AcDbEntity
  8
1
  6
Continuous
100
AcDbLine
 10
136.524923
 20
168.846553
 30
0.0
 11
138.328193
 21
170.0698229999999
 31
0.0
  0
LINE
  5
9BAF
330
9B35
100
AcDbEntity
  8
1
  6
Continuous
100
AcDbLine
 10
127.721591
 20
168.846553
 30
0.0
 11
126.1397609999999
 21
169.8483819999999
 31
0.0
  0
LINE
  5
9BB0
330
9B35
100
AcDbEntity
  8
1
  6
Continuous
100
AcDbLine
 10
129.8429109999999
 20
168.846553
 30
0.0
 11
128.0396409999999
 21
170.0698229999999
 31
0.0
  0
LINE
  5
9BB1
330
9B35
100
AcDbEntity
  8
1
  6
Continuous
100
AcDbLine
 10
131.964232
 20
168.846553
 30
0.0
 11
130.160962
 21
170.0698229999999
 31
0.0
  0
LINE
  5
9BB2
330
9B35
100
AcDbEntity
  8
1
  6
Continuous
100
AcDbLine
 10
134.085552
 20
168.846553
 30
0.0
 11
132.282282
 21
170.0698229999999
 31
0.0
  0
LINE
  5
9BB3
330
9B35
100
AcDbEntity
  8
1
  6
Continuous
100
AcDbLine
 10
136.206872
 20
168.846553
 30
0.0
 11
134.403602
 21
170.0698229999999
 31
0.0
  0
LINE
  5
9BB4
330
9B35
100
AcDbEntity
  8
1
  6
Continuous
100
AcDbLine
 10
138.328193
 20
168.846553
 30
0.0
 11
136.524923
 21
170.0698229999999
 31
0.0
  0
LINE
  5
9BB5
330
9B35
100
AcDbEntity
  8
1
  6
Continuous
100
AcDbLine
 10
126.1397609999999
 20
170.0698229999999
 30
0.0
 11
126.1397609999999
 21
168.846553
 31
0.0
  0
LINE
  5
9BB6
330
9B35
100
AcDbEntity
  8
1
  6
Continuous
100
AcDbLine
 10
127.484196
 20
165.9541219999999
 30
0.0
 11
124.621729
 21
165.884078
 31
0.0
  0
ARC
  5
9BB7
330
9B35
100
AcDbEntity
  8
1
  6
Continuous
100
AcDbCircle
 10
127.5129519999999
 20
167.346542
 30
0.0
 40
1.5
100
AcDbArc
 50
90.0
 51
181.970851
  0
ARC
  5
9BB8
330
9B35
100
AcDbEntity
  8
1
  6
Continuous
100
AcDbCircle
 10
127.4134179999998
 20
168.846553
 30
0.0
 40
2.893297
100
AcDbArc
 50
271.4017379999999
 51
344.468255
  0
ARC
  5
9BB9
330
9B35
100
AcDbEntity
  8
1
  6
Continuous
100
AcDbCircle
 10
124.8145499999999
 20
167.2536859999999
 30
0.0
 40
1.199999999999999
100
AcDbArc
 50
333.5657219999998
 51
1.970850999999999
  0
ARC
  5
9BBA
330
9B35
100
AcDbEntity
  8
1
  6
Continuous
100
AcDbCircle
 10
124.536975
 20
167.391683
 30
0.0
 40
1.509986
100
AcDbArc
 50
271.4017379999999
 51
333.5657219999998
  0
ARC
  5
9BBB
330
9B35
100
AcDbEntity
  8
1
  6
Continuous
100
AcDbCircle
 10
126.496907
 20
156.3722469999999
 30
0.0
 40
18.007576
100
AcDbArc
 50
74.36306700000002
 51
90.0
  0
ARC
  5
9BBC
330
9B35
100
AcDbEntity
  8
1
  6
Continuous
100
AcDbCircle
 10
126.496907
 20
156.3722469999999
 30
0.0
 40
20.007576
100
AcDbArc
 50
74.36306700000002
 51
90.0
  0
LINE
  5
9BBD
330
9B35
100
AcDbEntity
  8
1
  6
Continuous
100
AcDbLine
 10
135.4452769999997
 20
174.644134
 30
0.0
 11
131.889761
 21
175.639323
 31
0.0
  0
LINE
  5
9BBE
330
9B35
100
AcDbEntity
  8
1
  6
Continuous
100
AcDbLine
 10
131.35068
 20
173.7133449999998
 30
0.0
 11
134.906196
 21
172.718155
 31
0.0
  0
ARC
  5
9BBF
330
9B35
100
AcDbEntity
  8
1
  6
Continuous
100
AcDbCircle
 10
138.389761
 20
185.163903
 30
0.0
 40
12.924081
100
AcDbArc
 50
254.363067
 51
270.0
  0
ARC
  5
9BC0
330
9B35
100
AcDbEntity
  8
1
  6
Continuous
100
AcDbCircle
 10
138.389761
 20
185.163903
 30
0.0
 40
10.92408099999999
100
AcDbArc
 50
254.363067
 51
270.0
  0
LINE
  5
9BC1
330
9B35
100
AcDbEntity
  8
1
  6
Continuous
100
AcDbLine
 10
133.6900809999999
 20
175.639323
 30
0.0
 11
133.6900809999999
 21
175.989823
 31
0.0
  0
ARC
  5
9BC2
330
9B35
100
AcDbEntity
  8
1
  6
Continuous
100
AcDbCircle
 10
127.4200919999999
 20
170.8828109999998
 30
0.0
 40
1.098799999999998
100
AcDbArc
 50
119.429525
 51
159.693839
  0
ARC
  5
9BC3
330
9B35
100
AcDbEntity
  8
1
  6
Continuous
100
AcDbCircle
 10
128.7379559999999
 20
171.595022
 30
0.0
 40
2.371570999999998
100
AcDbArc
 50
188.020211
 51
220.040406
  0
LINE
  5
9BC4
330
9B35
100
AcDbEntity
  8
1
  6
Continuous
100
AcDbLine
 10
127.600323
 20
171.839823
 30
0.0
 11
127.8759329999999
 21
172.239823
 31
0.0
  0
ARC
  5
9BC5
330
9B35
100
AcDbEntity
  8
1
  6
Continuous
100
AcDbCircle
 10
126.342311
 20
175.441052
 30
0.0
 40
3.201722
100
AcDbArc
 50
242.0997419999999
 51
271.005762
  0
ARC
  5
9BC6
330
9B35
100
AcDbEntity
  8
1
  6
Continuous
100
AcDbCircle
 10
118.481709
 20
163.7428209999999
 30
0.0
 40
2.390200999999998
100
AcDbArc
 50
3.513819999999998
 51
22.028666
  0
LINE
  5
9BC7
330
9B35
100
AcDbEntity
  8
1
  6
Continuous
100
AcDbLine
 10
120.6974169999998
 20
164.6393149999999
 30
0.0
 11
120.6974169999998
 21
165.5285659999998
 31
0.0
  0
ARC
  5
9BC8
330
9B35
100
AcDbEntity
  8
1
  6
Continuous
100
AcDbCircle
 10
121.48836
 20
164.541043
 30
0.0
 40
1.265223999999999
100
AcDbArc
 50
91.40173799999999
 51
128.692501
  0
LINE
  5
9BC9
330
9B35
100
AcDbEntity
  8
1
  6
Continuous
100
AcDbLine
 10
116.665323
 20
174.3762419999999
 30
0.0
 11
120.6413799999999
 21
174.3100739999999
 31
0.0
  0
LINE
  5
9BCA
330
9B35
100
AcDbEntity
  8
1
  6
Continuous
100
AcDbLine
 10
122.389311
 20
174.209802
 30
0.0
 11
122.449311
 21
174.104802
 31
0.0
  0
LINE
  5
9BCB
330
9B35
100
AcDbEntity
  8
1
  6
Continuous
100
AcDbLine
 10
120.665999
 20
174.3077839999999
 30
0.0
 11
121.7193109999999
 21
174.209802
 31
0.0
  0
LINE
  5
9BCC
330
9B35
100
AcDbEntity
  8
1
  6
Continuous
100
AcDbLine
 10
122.389311
 20
174.209802
 30
0.0
 11
121.7193109999999
 21
174.209802
 31
0.0
  0
ARC
  5
9BCD
330
9B35
100
AcDbEntity
  8
1
  6
Continuous
100
AcDbCircle
 10
116.737354
 20
178.7046419999998
 30
0.0
 40
4.328999999999997
100
AcDbArc
 50
267.481634
 51
269.046603
  0
LINE
  5
9BCE
330
9B35
100
AcDbEntity
  8
4
  6
CENTER
100
AcDbLine
 10
125.1397609999999
 20
246.7345229999998
 30
0.0
 11
114.6397609999999
 21
246.7345229999998
 31
0.0
  0
LINE
  5
9BCF
330
9B35
100
AcDbEntity
  8
4
  6
CENTER
100
AcDbLine
 10
125.1397609999999
 20
220.734523
 30
0.0
 11
114.6397609999999
 21
220.734523
 31
0.0
  0
LINE
  5
9BD0
330
9B35
100
AcDbEntity
  8
4
  6
CENTER
100
AcDbLine
 10
174.1397609999999
 20
233.7345229999999
 30
0.0
 11
98.13976099999999
 21
233.7345229999999
 31
0.0
  0
LINE
  5
9BD1
330
9B35
100
AcDbEntity
  8
1
  6
Continuous
100
AcDbLine
 10
165.389761
 20
215.2345229999998
 30
0.0
 11
119.389761
 21
215.2345229999998
 31
0.0
  0
LINE
  5
9BD2
330
9B35
100
AcDbEntity
  8
1
  6
Continuous
100
AcDbLine
 10
165.389761
 20
252.2345229999999
 30
0.0
 11
119.389761
 21
252.2345229999999
 31
0.0
  0
LINE
  5
9BD3
330
9B35
100
AcDbEntity
  8
4
  6
CENTER
100
AcDbLine
 10
142.389761
 20
210.234523
 30
0.0
 11
142.389761
 21
257.234523
 31
0.0
  0
CIRCLE
  5
9BD4
330
9B35
100
AcDbEntity
  8
1
  6
Continuous
100
AcDbCircle
 10
142.389761
 20
233.7345229999999
 30
0.0
 40
8.699999999999997
  0
LINE
  5
9BD5
330
9B35
100
AcDbEntity
  8
1
  6
Continuous
100
AcDbLine
 10
169.389761
 20
248.2345229999999
 30
0.0
 11
169.389761
 21
219.2345229999999
 31
0.0
  0
CIRCLE
  5
9BD6
330
9B35
100
AcDbEntity
  8
1
  6
Continuous
100
AcDbCircle
 10
142.389761
 20
233.7345229999999
 30
0.0
 40
16.89999999999999
  0
CIRCLE
  5
9BD7
330
9B35
100
AcDbEntity
  8
1
  6
Continuous
100
AcDbCircle
 10
142.389761
 20
233.7345229999999
 30
0.0
 40
15.25
  0
ARC
  5
9BD8
330
9B35
100
AcDbEntity
  8
1
  6
Continuous
100
AcDbCircle
 10
165.389761
 20
219.2345229999999
 30
0.0
 40
4.0
100
AcDbArc
 50
270.0
 51
0.0
  0
LINE
  5
9BD9
330
9B35
100
AcDbEntity
  8
4
  6
CENTER
100
AcDbLine
 10
170.1397609999999
 20
220.734523
 30
0.0
 11
159.6397609999999
 21
220.734523
 31
0.0
  0
CIRCLE
  5
9BDA
330
9B35
100
AcDbEntity
  8
1
  6
Continuous
100
AcDbCircle
 10
164.8897609999999
 20
220.734523
 30
0.0
 40
2.25
  0
LINE
  5
9BDB
330
9B35
100
AcDbEntity
  8
4
  6
CENTER
100
AcDbLine
 10
164.8897609999999
 20
215.4845229999998
 30
0.0
 11
164.8897609999999
 21
225.9845229999999
 31
0.0
  0
LINE
  5
9BDC
330
9B35
100
AcDbEntity
  8
4
  6
CENTER
100
AcDbLine
 10
164.8897609999999
 20
241.484523
 30
0.0
 11
164.8897609999999
 21
251.984523
 31
0.0
  0
ARC
  5
9BDD
330
9B35
100
AcDbEntity
  8
1
  6
Continuous
100
AcDbCircle
 10
165.389761
 20
248.2345229999999
 30
0.0
 40
4.0
100
AcDbArc
 50
0.0
 51
90.0
  0
LINE
  5
9BDE
330
9B35
100
AcDbEntity
  8
4
  6
CENTER
100
AcDbLine
 10
170.1397609999999
 20
246.7345229999998
 30
0.0
 11
159.6397609999999
 21
246.7345229999998
 31
0.0
  0
CIRCLE
  5
9BDF
330
9B35
100
AcDbEntity
  8
1
  6
Continuous
100
AcDbCircle
 10
164.8897609999999
 20
246.7345229999998
 30
0.0
 40
2.25
  0
ARC
  5
9BE0
330
9B35
100
AcDbEntity
  8
1
  6
Continuous
100
AcDbCircle
 10
133.3897609999999
 20
233.7345229999999
 30
0.0
 40
30.0
100
AcDbArc
 50
165.781876
 51
194.218124
  0
LINE
  5
9BE1
330
9B35
100
AcDbEntity
  8
1
  6
Continuous
100
AcDbLine
 10
115.389761
 20
248.2345229999999
 30
0.0
 11
115.389761
 21
219.2345229999999
 31
0.0
  0
LINE
  5
9BE2
330
9B35
100
AcDbEntity
  8
1
  6
Continuous
100
AcDbLine
 10
115.389761
 20
225.2345229999999
 30
0.0
 11
105.762781
 21
225.2345229999999
 31
0.0
  0
ARC
  5
9BE3
330
9B35
100
AcDbEntity
  8
1
  6
Continuous
100
AcDbCircle
 10
119.389761
 20
219.2345229999999
 30
0.0
 40
4.0
100
AcDbArc
 50
180.0
 51
270.0
  0
LINE
  5
9BE4
330
9B35
100
AcDbEntity
  8
4
  6
CENTER
100
AcDbLine
 10
119.8897609999999
 20
215.4845229999998
 30
0.0
 11
119.8897609999999
 21
225.9845229999999
 31
0.0
  0
CIRCLE
  5
9BE5
330
9B35
100
AcDbEntity
  8
1
  6
Continuous
100
AcDbCircle
 10
119.8897609999999
 20
220.734523
 30
0.0
 40
2.25
  0
ARC
  5
9BE6
330
9B35
100
AcDbEntity
  8
1
  6
Continuous
100
AcDbCircle
 10
105.762781
 20
226.734523
 30
0.0
 40
1.5
100
AcDbArc
 50
194.218124
 51
270.0
  0
LINE
  5
9BE7
330
9B35
100
AcDbEntity
  8
4
  6
CENTER
100
AcDbLine
 10
119.8897609999999
 20
241.484523
 30
0.0
 11
119.8897609999999
 21
251.984523
 31
0.0
  0
ARC
  5
9BE8
330
9B35
100
AcDbEntity
  8
1
  6
Continuous
100
AcDbCircle
 10
119.389761
 20
248.2345229999999
 30
0.0
 40
4.0
100
AcDbArc
 50
90.0
 51
180.0
  0
LINE
  5
9BE9
330
9B35
100
AcDbEntity
  8
1
  6
Continuous
100
AcDbLine
 10
115.389761
 20
242.2345229999999
 30
0.0
 11
105.762781
 21
242.2345229999999
 31
0.0
  0
CIRCLE
  5
9BEA
330
9B35
100
AcDbEntity
  8
1
  6
Continuous
100
AcDbCircle
 10
119.8897609999999
 20
246.7345229999998
 30
0.0
 40
2.25
  0
ARC
  5
9BEB
330
9B35
100
AcDbEntity
  8
1
  6
Continuous
100
AcDbCircle
 10
105.762781
 20
240.734523
 30
0.0
 40
1.5
100
AcDbArc
 50
90.0
 51
165.781876
  0
LINE
  5
9BEC
330
9B35
100
AcDbEntity
  8
4
  6
CENTER
100
AcDbLine
 10
46.18084699999999
 20
181.379908
 30
0.0
 11
46.18084699999999
 21
118.3931429999999
 31
0.0
  0
LINE
  5
9BED
330
9B35
100
AcDbEntity
  8
1
  6
Continuous
100
AcDbLine
 10
54.680847
 20
159.0066179999998
 30
0.0
 11
54.680847
 21
123.7526589999999
 31
0.0
  0
LINE
  5
9BEE
330
9B35
100
AcDbEntity
  8
1
  6
Continuous
100
AcDbLine
 10
37.680847
 20
159.0066179999998
 30
0.0
 11
37.680847
 21
123.7526589999999
 31
0.0
  0
LINE
  5
9BEF
330
9B35
100
AcDbEntity
  8
1
  6
Continuous
100
AcDbLine
 10
63.480885
 20
165.846632
 30
0.0
 11
63.480851
 21
149.605764
 31
0.0
  0
LINE
  5
9BF0
330
9B35
100
AcDbEntity
  8
1
  6
Continuous
100
AcDbLine
 10
28.880886
 20
165.846642
 30
0.0
 11
28.880867
 21
149.599073
 31
0.0
  0
LINE
  5
9BF1
330
9B35
100
AcDbEntity
  8
1
  6
Continuous
100
AcDbLine
 10
58.18100600000001
 20
164.02866
 30
0.0
 11
58.18096999999998
 21
133.6096379999998
 31
0.0
  0
LINE
  5
9BF2
330
9B35
100
AcDbEntity
  8
1
  6
Continuous
100
AcDbLine
 10
34.180689
 20
164.02866
 30
0.0
 11
34.18072399999999
 21
133.612176
 31
0.0
  0
LINE
  5
9BF3
330
9B35
100
AcDbEntity
  8
1
  6
Continuous
100
AcDbLine
 10
56.29086
 20
163.38941
 30
0.0
 11
56.290826
 21
133.598227
 31
0.0
  0
LINE
  5
9BF4
330
9B35
100
AcDbEntity
  8
1
  6
Continuous
100
AcDbLine
 10
36.070834
 20
163.38941
 30
0.0
 11
36.070869
 21
133.6096379999998
 31
0.0
  0
LINE
  5
9BF5
330
9B35
100
AcDbEntity
  8
4
  6
CENTER
100
AcDbLine
 10
26.54394299999999
 20
141.3796379999998
 30
0.0
 11
65.76781700000001
 21
141.3796379999998
 31
0.0
  0
ARC
  5
9BF6
330
9B35
100
AcDbEntity
  8
1
  6
Continuous
100
AcDbCircle
 10
46.18084699999999
 20
151.379638
 30
0.0
 40
30.0
100
AcDbArc
 50
255.7818759999999
 51
284.218124
  0
ARC
  5
9BF7
330
9B35
100
AcDbEntity
  8
1
  6
Continuous
100
AcDbCircle
 10
20.584791
 20
133.6096379999998
 30
0.0
 40
13.60117699999998
100
AcDbArc
 50
1.591154999999999
 51
14.998938
  0
LINE
  5
9BF8
330
9B35
100
AcDbEntity
  8
1
  6
Continuous
100
AcDbLine
 10
36.680847
 20
148.379638
 30
0.0
 11
36.680847
 21
134.379638
 31
0.0
  0
ARC
  5
9BF9
330
9B35
100
AcDbEntity
  8
1
  6
Continuous
100
AcDbCircle
 10
39.18084699999999
 20
123.7526589999999
 30
0.0
 40
1.5
100
AcDbArc
 50
180.0
 51
255.7818759999999
  0
LINE
  5
9BFA
330
9B35
100
AcDbEntity
  8
1
  6
Continuous
100
AcDbLine
 10
36.680847
 20
134.379638
 30
0.0
 11
37.680847
 21
133.379638
 31
0.0
  0
LINE
  5
9BFB
330
9B35
100
AcDbEntity
  8
1
  6
Continuous
100
AcDbLine
 10
34.18072399999999
 20
133.6096379999998
 30
0.0
 11
36.070869
 21
133.6096379999998
 31
0.0
  0
ARC
  5
9BFC
330
9B35
100
AcDbEntity
  8
1
  6
Continuous
100
AcDbCircle
 10
41.18068899999999
 20
141.3796379999998
 30
0.0
 40
9.0
100
AcDbArc
 50
151.821357
 51
208.178643
  0
ARC
  5
9BFD
330
9B35
100
AcDbEntity
  8
1
  6
Continuous
100
AcDbCircle
 10
43.08145099999999
 20
149.949779
 30
0.0
 40
14.204913
100
AcDbArc
 50
181.414727
 51
216.5579559999999
  0
ARC
  5
9BFE
330
9B35
100
AcDbEntity
  8
1
  6
Continuous
100
AcDbCircle
 10
20.57954099999999
 20
133.6096379999998
 30
0.0
 40
13.60117699999998
100
AcDbArc
 50
31.23398400000001
 51
35.40147000000001
  0
LINE
  5
9BFF
330
9B35
100
AcDbEntity
  8
1
  6
Continuous
100
AcDbLine
 10
33.24737299999998
 20
145.6296379999998
 30
0.0
 11
33.24737299999998
 21
137.1296379999998
 31
0.0
  0
LINE
  5
9C00
330
9B35
100
AcDbEntity
  8
1
  6
Continuous
100
AcDbLine
 10
36.070834
 20
138.3796379999998
 30
0.0
 11
36.680847
 21
138.3796379999998
 31
0.0
  0
LINE
  5
9C01
330
9B35
100
AcDbEntity
  8
1
  6
Continuous
100
AcDbLine
 10
33.24737299999998
 20
137.1296379999998
 30
0.0
 11
34.180689
 21
137.1296379999998
 31
0.0
  0
LINE
  5
9C02
330
9B35
100
AcDbEntity
  8
1
  6
Continuous
100
AcDbLine
 10
36.070834
 20
144.379638
 30
0.0
 11
36.680847
 21
144.379638
 31
0.0
  0
LINE
  5
9C03
330
9B35
100
AcDbEntity
  8
1
  6
Continuous
100
AcDbLine
 10
33.24737299999998
 20
145.6296379999998
 30
0.0
 11
34.180689
 21
145.6296379999998
 31
0.0
  0
LINE
  5
9C04
330
9B35
100
AcDbEntity
  8
1
  6
Continuous
100
AcDbLine
 10
36.680847
 20
148.379638
 30
0.0
 11
37.680847
 21
149.379638
 31
0.0
  0
ARC
  5
9C05
330
9B35
100
AcDbEntity
  8
1
  6
Continuous
100
AcDbCircle
 10
71.848263
 20
133.6096379999998
 30
0.0
 40
13.667293
100
AcDbArc
 50
163.98786
 51
180.0
  0
LINE
  5
9C06
330
9B35
100
AcDbEntity
  8
1
  6
Continuous
100
AcDbLine
 10
55.68084699999999
 20
148.379638
 30
0.0
 11
55.68084699999999
 21
134.379638
 31
0.0
  0
ARC
  5
9C07
330
9B35
100
AcDbEntity
  8
1
  6
Continuous
100
AcDbCircle
 10
53.18084699999999
 20
123.7526589999999
 30
0.0
 40
1.5
100
AcDbArc
 50
284.218124
 51
0.0
  0
LINE
  5
9C08
330
9B35
100
AcDbEntity
  8
1
  6
Continuous
100
AcDbLine
 10
56.290826
 20
133.6096379999998
 30
0.0
 11
58.18096999999998
 21
133.6096379999998
 31
0.0
  0
LINE
  5
9C09
330
9B35
100
AcDbEntity
  8
1
  6
Continuous
100
AcDbLine
 10
55.68084699999999
 20
134.379638
 30
0.0
 11
54.680847
 21
133.379638
 31
0.0
  0
ARC
  5
9C0A
330
9B35
100
AcDbEntity
  8
1
  6
Continuous
100
AcDbCircle
 10
49.280229
 20
149.9572249999999
 30
0.0
 40
14.20497099999999
100
AcDbArc
 50
323.5188219999999
 51
358.5822329999999
  0
LINE
  5
9C0B
330
9B35
100
AcDbEntity
  8
1
  6
Continuous
100
AcDbLine
 10
55.68084699999999
 20
138.3796379999998
 30
0.0
 11
56.29086
 21
138.3796379999998
 31
0.0
  0
LINE
  5
9C0C
330
9B35
100
AcDbEntity
  8
1
  6
Continuous
100
AcDbLine
 10
55.68084699999999
 20
144.379638
 30
0.0
 11
56.29086
 21
144.379638
 31
0.0
  0
ARC
  5
9C0D
330
9B35
100
AcDbEntity
  8
1
  6
Continuous
100
AcDbCircle
 10
71.85321999999998
 20
133.6096379999998
 30
0.0
 40
13.667293
100
AcDbArc
 50
144.678686
 51
156.5128089999998
  0
ARC
  5
9C0E
330
9B35
100
AcDbEntity
  8
1
  6
Continuous
100
AcDbCircle
 10
49.181413
 20
141.3796379999998
 30
0.0
 40
10.399624
100
AcDbArc
 50
337.379272
 51
22.62072799999998
  0
LINE
  5
9C0F
330
9B35
100
AcDbEntity
  8
1
  6
Continuous
100
AcDbLine
 10
58.78100599999999
 20
145.3796379999998
 30
0.0
 11
58.78100599999999
 21
137.3796379999998
 31
0.0
  0
LINE
  5
9C10
330
9B35
100
AcDbEntity
  8
1
  6
Continuous
100
AcDbLine
 10
58.18100600000001
 20
137.3796379999998
 30
0.0
 11
58.78100599999999
 21
137.3796379999998
 31
0.0
  0
LINE
  5
9C11
330
9B35
100
AcDbEntity
  8
1
  6
Continuous
100
AcDbLine
 10
58.18100600000001
 20
145.3796379999998
 30
0.0
 11
58.78100599999999
 21
145.3796379999998
 31
0.0
  0
LINE
  5
9C12
330
9B35
100
AcDbEntity
  8
1
  6
Continuous
100
AcDbLine
 10
55.68084699999999
 20
148.379638
 30
0.0
 11
54.680847
 21
149.379638
 31
0.0
  0
LINE
  5
9C13
330
9B35
100
AcDbEntity
  8
1
  6
Continuous
100
AcDbLine
 10
49.924365
 20
168.8466379999999
 30
0.0
 11
48.121095
 21
170.0699079999999
 31
0.0
  0
LINE
  5
9C14
330
9B35
100
AcDbEntity
  8
1
  6
Continuous
100
AcDbLine
 10
48.121095
 20
168.8466379999999
 30
0.0
 11
49.924365
 21
170.0699079999999
 31
0.0
  0
LINE
  5
9C15
330
9B35
100
AcDbEntity
  8
1
  6
Continuous
100
AcDbLine
 10
27.68084699999999
 20
174.209908
 30
0.0
 11
64.680847
 21
174.209908
 31
0.0
  0
LINE
  5
9C16
330
9B35
100
AcDbEntity
  8
1
  6
Continuous
100
AcDbLine
 10
30.180667
 20
171.2642199999999
 30
0.0
 11
62.181027
 21
171.2642199999999
 31
0.0
  0
LINE
  5
9C17
330
9B35
100
AcDbEntity
  8
1
  6
Continuous
100
AcDbLine
 10
40.03084699999997
 20
161.559908
 30
0.0
 11
52.330847
 21
161.559908
 31
0.0
  0
LINE
  5
9C18
330
9B35
100
AcDbEntity
  8
1
  6
Continuous
100
AcDbLine
 10
36.070834
 20
163.3599079999999
 30
0.0
 11
56.29086
 21
163.3599079999999
 31
0.0
  0
ARC
  5
9C19
330
9B35
100
AcDbEntity
  8
1
  6
Continuous
100
AcDbCircle
 10
46.18084699999999
 20
131.379638
 30
0.0
 40
30.0
100
AcDbArc
 50
75.78187599999998
 51
104.218124
  0
LINE
  5
9C1A
330
9B35
100
AcDbEntity
  8
1
  6
Continuous
100
AcDbLine
 10
29.93084699999998
 20
168.8466379999999
 30
0.0
 11
62.430847
 21
168.8466379999999
 31
0.0
  0
LINE
  5
9C1B
330
9B35
100
AcDbEntity
  8
1
  6
Continuous
100
AcDbLine
 10
36.57083399999999
 20
163.889411
 30
0.0
 11
55.79086
 21
163.889411
 31
0.0
  0
LINE
  5
9C1C
330
9B35
100
AcDbEntity
  8
1
  6
Continuous
100
AcDbLine
 10
35.680689
 20
165.528662
 30
0.0
 11
56.68100599999998
 21
165.528662
 31
0.0
  0
LINE
  5
9C1D
330
9B35
100
AcDbEntity
  8
1
  6
Continuous
100
AcDbLine
 10
27.68084699999999
 20
174.379908
 30
0.0
 11
64.680847
 21
174.379908
 31
0.0
  0
LINE
  5
9C1E
330
9B35
100
AcDbEntity
  8
1
  6
Continuous
100
AcDbLine
 10
29.93084699999998
 20
170.0699079999999
 30
0.0
 11
62.430847
 21
170.0699079999999
 31
0.0
  0
LINE
  5
9C1F
330
9B35
100
AcDbEntity
  8
1
  6
Continuous
100
AcDbLine
 10
30.67128
 20
171.839908
 30
0.0
 11
61.69041599999999
 21
171.839908
 31
0.0
  0
LINE
  5
9C20
330
9B35
100
AcDbEntity
  8
1
  6
Continuous
100
AcDbLine
 10
27.68084699999999
 20
172.239908
 30
0.0
 11
64.680847
 21
172.239908
 31
0.0
  0
LINE
  5
9C21
330
9B35
100
AcDbEntity
  8
1
  6
Continuous
100
AcDbLine
 10
27.68084699999999
 20
176.379908
 30
0.0
 11
64.680847
 21
176.379908
 31
0.0
  0
LINE
  5
9C22
330
9B35
100
AcDbEntity
  8
1
  6
Continuous
100
AcDbLine
 10
32.953803
 20
168.8466379999999
 30
0.0
 11
31.150533
 21
170.0699079999999
 31
0.0
  0
LINE
  5
9C23
330
9B35
100
AcDbEntity
  8
1
  6
Continuous
100
AcDbLine
 10
31.150533
 20
168.8466379999999
 30
0.0
 11
32.953803
 21
170.0699079999999
 31
0.0
  0
LINE
  5
9C24
330
9B35
100
AcDbEntity
  8
1
  6
Continuous
100
AcDbLine
 10
30.83248199999999
 20
170.0699079999999
 30
0.0
 11
29.93084699999998
 21
169.748273
 31
0.0
  0
LINE
  5
9C25
330
9B35
100
AcDbEntity
  8
1
  6
Continuous
100
AcDbLine
 10
29.93084699999998
 20
170.0699079999999
 30
0.0
 11
29.93084699999998
 21
168.8466379999999
 31
0.0
  0
ARC
  5
9C26
330
9B35
100
AcDbEntity
  8
1
  6
Continuous
100
AcDbCircle
 10
32.05451899999999
 20
165.6660389999998
 30
0.0
 40
3.180724999999998
100
AcDbArc
 50
89.48899500000001
 51
176.1191839999999
  0
LINE
  5
9C27
330
9B35
100
AcDbEntity
  8
1
  6
Continuous
100
AcDbLine
 10
30.83248199999999
 20
168.8466379999999
 30
0.0
 11
29.93084699999998
 21
169.748273
 31
0.0
  0
LINE
  5
9C28
330
9B35
100
AcDbEntity
  8
1
  6
Continuous
100
AcDbLine
 10
27.68084699999999
 20
176.379908
 30
0.0
 11
27.68084699999999
 21
172.239908
 31
0.0
  0
ARC
  5
9C29
330
9B35
100
AcDbEntity
  8
1
  6
Continuous
100
AcDbCircle
 10
31.211178
 20
170.8828969999999
 30
0.0
 40
1.098799999999998
100
AcDbArc
 50
119.429525
 51
159.693839
  0
LINE
  5
9C2A
330
9B35
100
AcDbEntity
  8
1
  6
Continuous
100
AcDbLine
 10
31.39140900000001
 20
171.839908
 30
0.0
 11
31.667019
 21
172.239908
 31
0.0
  0
ARC
  5
9C2B
330
9B35
100
AcDbEntity
  8
1
  6
Continuous
100
AcDbCircle
 10
32.52904199999999
 20
171.595108
 30
0.0
 40
2.371570999999998
100
AcDbArc
 50
188.020211
 51
220.040406
  0
LINE
  5
9C2C
330
9B35
100
AcDbEntity
  8
1
  6
Continuous
100
AcDbLine
 10
47.80304499999998
 20
168.8466379999999
 30
0.0
 11
45.999775
 21
170.0699079999999
 31
0.0
  0
LINE
  5
9C2D
330
9B35
100
AcDbEntity
  8
1
  6
Continuous
100
AcDbLine
 10
45.681725
 20
168.8466379999999
 30
0.0
 11
43.878455
 21
170.0699079999999
 31
0.0
  0
LINE
  5
9C2E
330
9B35
100
AcDbEntity
  8
1
  6
Continuous
100
AcDbLine
 10
43.560404
 20
168.8466379999999
 30
0.0
 11
41.757134
 21
170.0699079999999
 31
0.0
  0
LINE
  5
9C2F
330
9B35
100
AcDbEntity
  8
1
  6
Continuous
100
AcDbLine
 10
41.43908399999999
 20
168.8466379999999
 30
0.0
 11
39.63581400000001
 21
170.0699079999999
 31
0.0
  0
LINE
  5
9C30
330
9B35
100
AcDbEntity
  8
1
  6
Continuous
100
AcDbLine
 10
39.317764
 20
168.8466379999999
 30
0.0
 11
37.514494
 21
170.0699079999999
 31
0.0
  0
LINE
  5
9C31
330
9B35
100
AcDbEntity
  8
1
  6
Continuous
100
AcDbLine
 10
37.19644300000001
 20
168.8466379999999
 30
0.0
 11
35.39317299999999
 21
170.0699079999999
 31
0.0
  0
LINE
  5
9C32
330
9B35
100
AcDbEntity
  8
1
  6
Continuous
100
AcDbLine
 10
35.075123
 20
168.8466379999999
 30
0.0
 11
33.271853
 21
170.0699079999999
 31
0.0
  0
LINE
  5
9C33
330
9B35
100
AcDbEntity
  8
1
  6
Continuous
100
AcDbLine
 10
45.999775
 20
168.8466379999999
 30
0.0
 11
47.80304499999998
 21
170.0699079999999
 31
0.0
  0
LINE
  5
9C34
330
9B35
100
AcDbEntity
  8
1
  6
Continuous
100
AcDbLine
 10
43.878455
 20
168.8466379999999
 30
0.0
 11
45.681725
 21
170.0699079999999
 31
0.0
  0
LINE
  5
9C35
330
9B35
100
AcDbEntity
  8
1
  6
Continuous
100
AcDbLine
 10
41.757134
 20
168.8466379999999
 30
0.0
 11
43.560404
 21
170.0699079999999
 31
0.0
  0
LINE
  5
9C36
330
9B35
100
AcDbEntity
  8
1
  6
Continuous
100
AcDbLine
 10
39.63581400000001
 20
168.8466379999999
 30
0.0
 11
41.43908399999999
 21
170.0699079999999
 31
0.0
  0
LINE
  5
9C37
330
9B35
100
AcDbEntity
  8
1
  6
Continuous
100
AcDbLine
 10
37.514494
 20
168.8466379999999
 30
0.0
 11
39.317764
 21
170.0699079999999
 31
0.0
  0
LINE
  5
9C38
330
9B35
100
AcDbEntity
  8
1
  6
Continuous
100
AcDbLine
 10
35.39317299999999
 20
168.8466379999999
 30
0.0
 11
37.19644300000001
 21
170.0699079999999
 31
0.0
  0
LINE
  5
9C39
330
9B35
100
AcDbEntity
  8
1
  6
Continuous
100
AcDbLine
 10
33.271853
 20
168.8466379999999
 30
0.0
 11
35.075123
 21
170.0699079999999
 31
0.0
  0
LINE
  5
9C3A
330
9B35
100
AcDbEntity
  8
1
  6
Continuous
100
AcDbLine
 10
42.43084699999999
 20
161.559908
 30
0.0
 11
40.68085599999998
 21
162.559908
 31
0.0
  0
ARC
  5
9C3B
330
9B35
100
AcDbEntity
  8
1
  6
Continuous
100
AcDbCircle
 10
35.680689
 20
164.0286619999999
 30
0.0
 40
1.5
100
AcDbArc
 50
90.0
 51
179.1070109999998
  0
LINE
  5
9C3C
330
9B35
100
AcDbEntity
  8
1
  6
Continuous
100
AcDbLine
 10
36.07083499999998
 20
162.434503
 30
0.0
 11
40.10373
 21
162.434503
 31
0.0
  0
ARC
  5
9C3D
330
9B35
100
AcDbEntity
  8
1
  6
Continuous
100
AcDbCircle
 10
36.57083399999999
 20
163.389411
 30
0.0
 40
0.5
100
AcDbArc
 50
90.0
 51
179.1070109999998
  0
LINE
  5
9C3E
330
9B35
100
AcDbEntity
  8
1
  6
Continuous
100
AcDbLine
 10
40.68085599999998
 20
162.559908
 30
0.0
 11
40.03084699999997
 21
161.559908
 31
0.0
  0
LINE
  5
9C3F
330
9B35
100
AcDbEntity
  8
1
  6
Continuous
100
AcDbLine
 10
40.03084699999997
 20
161.559908
 30
0.0
 11
40.180847
 21
163.3599079999999
 31
0.0
  0
ARC
  5
9C40
330
9B35
100
AcDbEntity
  8
1
  6
Continuous
100
AcDbCircle
 10
39.18084699999999
 20
159.0066179999998
 30
0.0
 40
1.5
100
AcDbArc
 50
104.218124
 51
180.0
  0
LINE
  5
9C41
330
9B35
100
AcDbEntity
  8
1
  6
Continuous
100
AcDbLine
 10
44.43084699999999
 20
161.559908
 30
0.0
 11
46.18084699999999
 21
162.559908
 31
0.0
  0
LINE
  5
9C42
330
9B35
100
AcDbEntity
  8
1
  6
Continuous
100
AcDbLine
 10
47.930847
 20
161.559908
 30
0.0
 11
46.18084699999999
 21
162.559908
 31
0.0
  0
LINE
  5
9C43
330
9B35
100
AcDbEntity
  8
1
  6
Continuous
100
AcDbLine
 10
62.430847
 20
169.068078
 30
0.0
 11
60.849017
 21
170.0699079999999
 31
0.0
  0
LINE
  5
9C44
330
9B35
100
AcDbEntity
  8
1
  6
Continuous
100
AcDbLine
 10
60.53096700000001
 20
168.8466379999999
 30
0.0
 11
58.727697
 21
170.0699079999999
 31
0.0
  0
LINE
  5
9C45
330
9B35
100
AcDbEntity
  8
1
  6
Continuous
100
AcDbLine
 10
58.409647
 20
168.8466379999999
 30
0.0
 11
56.606377
 21
170.0699079999999
 31
0.0
  0
LINE
  5
9C46
330
9B35
100
AcDbEntity
  8
1
  6
Continuous
100
AcDbLine
 10
56.28832599999999
 20
168.8466379999999
 30
0.0
 11
54.485056
 21
170.0699079999999
 31
0.0
  0
LINE
  5
9C47
330
9B35
100
AcDbEntity
  8
1
  6
Continuous
100
AcDbLine
 10
54.16700600000001
 20
168.8466379999999
 30
0.0
 11
52.363736
 21
170.0699079999999
 31
0.0
  0
LINE
  5
9C48
330
9B35
100
AcDbEntity
  8
1
  6
Continuous
100
AcDbLine
 10
52.04568599999999
 20
168.8466379999999
 30
0.0
 11
50.24241599999999
 21
170.0699079999999
 31
0.0
  0
LINE
  5
9C49
330
9B35
100
AcDbEntity
  8
1
  6
Continuous
100
AcDbLine
 10
60.849017
 20
168.8466379999999
 30
0.0
 11
62.430847
 21
169.8484679999999
 31
0.0
  0
LINE
  5
9C4A
330
9B35
100
AcDbEntity
  8
1
  6
Continuous
100
AcDbLine
 10
58.727697
 20
168.8466379999999
 30
0.0
 11
60.53096700000001
 21
170.0699079999999
 31
0.0
  0
LINE
  5
9C4B
330
9B35
100
AcDbEntity
  8
1
  6
Continuous
100
AcDbLine
 10
56.606377
 20
168.8466379999999
 30
0.0
 11
58.409647
 21
170.0699079999999
 31
0.0
  0
LINE
  5
9C4C
330
9B35
100
AcDbEntity
  8
1
  6
Continuous
100
AcDbLine
 10
54.485056
 20
168.8466379999999
 30
0.0
 11
56.28832599999999
 21
170.0699079999999
 31
0.0
  0
LINE
  5
9C4D
330
9B35
100
AcDbEntity
  8
1
  6
Continuous
100
AcDbLine
 10
52.363736
 20
168.8466379999999
 30
0.0
 11
54.16700600000001
 21
170.0699079999999
 31
0.0
  0
LINE
  5
9C4E
330
9B35
100
AcDbEntity
  8
1
  6
Continuous
100
AcDbLine
 10
50.24241599999999
 20
168.8466379999999
 30
0.0
 11
52.04568599999999
 21
170.0699079999999
 31
0.0
  0
LINE
  5
9C4F
330
9B35
100
AcDbEntity
  8
1
  6
Continuous
100
AcDbLine
 10
62.430847
 20
170.0699079999999
 30
0.0
 11
62.430847
 21
168.8466379999999
 31
0.0
  0
ARC
  5
9C50
330
9B35
100
AcDbEntity
  8
1
  6
Continuous
100
AcDbCircle
 10
56.68100599999998
 20
164.0286619999999
 30
0.0
 40
1.5
100
AcDbArc
 50
0.8929889999999998
 51
90.0
  0
LINE
  5
9C51
330
9B35
100
AcDbEntity
  8
1
  6
Continuous
100
AcDbLine
 10
52.257964
 20
162.434503
 30
0.0
 11
56.29085899999999
 21
162.434503
 31
0.0
  0
ARC
  5
9C52
330
9B35
100
AcDbEntity
  8
1
  6
Continuous
100
AcDbCircle
 10
53.18084699999999
 20
159.0066179999998
 30
0.0
 40
1.5
100
AcDbArc
 50
0.0
 51
75.78187599999998
  0
LINE
  5
9C53
330
9B35
100
AcDbEntity
  8
1
  6
Continuous
100
AcDbLine
 10
51.680839
 20
162.559908
 30
0.0
 11
52.330847
 21
161.559908
 31
0.0
  0
LINE
  5
9C54
330
9B35
100
AcDbEntity
  8
1
  6
Continuous
100
AcDbLine
 10
49.930847
 20
161.559908
 30
0.0
 11
51.680839
 21
162.559908
 31
0.0
  0
LINE
  5
9C55
330
9B35
100
AcDbEntity
  8
1
  6
Continuous
100
AcDbLine
 10
52.330847
 20
161.559908
 30
0.0
 11
52.180847
 21
163.3599079999999
 31
0.0
  0
ARC
  5
9C56
330
9B35
100
AcDbEntity
  8
1
  6
Continuous
100
AcDbCircle
 10
55.79086
 20
163.389411
 30
0.0
 40
0.5
100
AcDbArc
 50
0.8929889999999998
 51
90.0
  0
ARC
  5
9C57
330
9B35
100
AcDbEntity
  8
1
  6
Continuous
100
AcDbCircle
 10
60.30723100000001
 20
165.6659029999999
 30
0.0
 40
3.180861
100
AcDbArc
 50
3.916798
 51
90.51059299999998
  0
LINE
  5
9C58
330
9B35
100
AcDbEntity
  8
1
  6
Continuous
100
AcDbLine
 10
64.680847
 20
176.379908
 30
0.0
 11
64.680847
 21
172.239908
 31
0.0
  0
ARC
  5
9C59
330
9B35
100
AcDbEntity
  8
1
  6
Continuous
100
AcDbCircle
 10
61.15051600000001
 20
170.8828969999999
 30
0.0
 40
1.098799999999998
100
AcDbArc
 50
20.306161
 51
60.57047500000001
  0
ARC
  5
9C5A
330
9B35
100
AcDbEntity
  8
1
  6
Continuous
100
AcDbCircle
 10
59.832653
 20
171.595108
 30
0.0
 40
2.371570999999998
100
AcDbArc
 50
319.959594
 51
351.9797889999999
  0
LINE
  5
9C5B
330
9B35
100
AcDbEntity
  8
1
  6
Continuous
100
AcDbLine
 10
60.970285
 20
171.839908
 30
0.0
 11
60.694676
 21
172.239908
 31
0.0
  0
LINE
  5
9C5C
330
9B35
100
AcDbEntity
  8
4
  6
CENTER
100
AcDbLine
 10
119.8897609999999
 20
181.3798229999999
 30
0.0
 11
119.8897609999999
 21
169.3798229999998
 31
0.0
  0
LINE
  5
9C5D
330
9B35
100
AcDbEntity
  8
4
  6
CENTER
100
AcDbLine
 10
164.8897609999999
 20
181.3798229999999
 30
0.0
 11
164.8897609999999
 21
169.3798229999998
 31
0.0
  0
LINE
  5
9C5E
330
9B35
100
AcDbEntity
  8
1
  6
Continuous
100
AcDbLine
 10
115.389761
 20
176.3798229999999
 30
0.0
 11
115.389761
 21
174.3798229999999
 31
0.0
  0
LINE
  5
9C5F
330
9B35
100
AcDbEntity
  8
1
  6
Continuous
100
AcDbLine
 10
169.389761
 20
176.3798229999999
 30
0.0
 11
169.389761
 21
174.3798229999999
 31
0.0
  0
LINE
  5
9C60
330
9B35
100
AcDbEntity
  8
1
  6
Continuous
100
AcDbLine
 10
120.6413799999999
 20
174.3100739999999
 30
0.0
 11
120.665999
 21
174.3077839999999
 31
0.0
  0
LINE
  5
9C61
330
9B35
100
AcDbEntity
  8
1
  6
Continuous
100
AcDbLine
 10
164.1135229999999
 20
174.3077839999999
 30
0.0
 11
164.1381419999999
 21
174.3100739999999
 31
0.0
  0
LINE
  5
9C62
330
9B35
100
AcDbEntity
  8
1
  6
Continuous
100
AcDbLine
 10
123.1977639999999
 20
165.849233
 30
0.0
 11
115.938508
 21
142.632793
 31
0.0
  0
ARC
  5
9C63
330
9B35
100
AcDbEntity
  8
1
  6
Continuous
100
AcDbCircle
 10
120.337534
 20
145.0480639999998
 30
0.0
 40
12.0
100
AcDbArc
 50
297.4158479999999
 51
312.857186
  0
LINE
  5
9C64
330
9B35
100
AcDbEntity
  8
4
  6
CENTER
100
AcDbLine
 10
33.18084699999999
 20
181.379908
 30
0.0
 11
33.18084699999999
 21
167.8199079999999
 31
0.0
  0
LINE
  5
9C65
330
9B35
100
AcDbEntity
  8
4
  6
CENTER
100
AcDbLine
 10
59.180847
 20
181.379908
 30
0.0
 11
59.180847
 21
167.8199079999999
 31
0.0
  0
LINE
  5
9C66
330
9B35
100
AcDbEntity
  8
1
  6
Continuous
100
AcDbLine
 10
165.389761
 20
82.52512299999997
 30
0.0
 11
119.389761
 21
82.52512299999997
 31
0.0
  0
LINE
  5
9C67
330
9B35
100
AcDbEntity
  8
1
  6
Continuous
100
AcDbLine
 10
165.389761
 20
45.525123
 30
0.0
 11
119.389761
 21
45.525123
 31
0.0
  0
LINE
  5
9C68
330
9B35
100
AcDbEntity
  8
4
  6
CENTER
100
AcDbLine
 10
174.3897609999999
 20
64.02512299999999
 30
0.0
 11
98.13976099999999
 21
64.02512299999999
 31
0.0
  0
LINE
  5
9C69
330
9B35
100
AcDbEntity
  8
1
  6
Continuous
100
AcDbLine
 10
115.389761
 20
49.525123
 30
0.0
 11
115.389761
 21
55.525123
 31
0.0
  0
ARC
  5
9C6A
330
9B35
100
AcDbEntity
  8
1
  6
Continuous
100
AcDbCircle
 10
119.389761
 20
78.52512299999998
 30
0.0
 40
4.0
100
AcDbArc
 50
90.0
 51
180.0
  0
ARC
  5
9C6B
330
9B35
100
AcDbEntity
  8
1
  6
Continuous
100
AcDbCircle
 10
119.8897609999999
 20
77.02512299999998
 30
0.0
 40
2.25
100
AcDbArc
 50
8.226986
 51
206.384304
  0
LINE
  5
9C6C
330
9B35
100
AcDbEntity
  8
4
  6
CENTER
100
AcDbLine
 10
125.1397609999999
 20
77.02512299999998
 30
0.0
 11
114.6397609999999
 21
77.02512299999998
 31
0.0
  0
LINE
  5
9C6D
330
9B35
100
AcDbEntity
  8
4
  6
CENTER
100
AcDbLine
 10
119.8897609999999
 20
82.27512299999999
 30
0.0
 11
119.8897609999999
 21
71.775123
 31
0.0
  0
ARC
  5
9C6E
330
9B35
100
AcDbEntity
  8
1
  6
Continuous
100
AcDbCircle
 10
119.389761
 20
49.525123
 30
0.0
 40
4.0
100
AcDbArc
 50
180.0
 51
270.0
  0
LINE
  5
9C6F
330
9B35
100
AcDbEntity
  8
4
  6
CENTER
100
AcDbLine
 10
119.8897609999999
 20
56.275123
 30
0.0
 11
119.8897609999999
 21
45.775123
 31
0.0
  0
ARC
  5
9C70
330
9B35
100
AcDbEntity
  8
1
  6
Continuous
100
AcDbCircle
 10
119.8897609999999
 20
51.025123
 30
0.0
 40
2.25
100
AcDbArc
 50
153.6156959999999
 51
336.8221919999998
  0
LINE
  5
9C71
330
9B35
100
AcDbEntity
  8
4
  6
CENTER
100
AcDbLine
 10
125.1397609999999
 20
51.025123
 30
0.0
 11
114.6397609999999
 21
51.025123
 31
0.0
  0
LINE
  5
9C72
330
9B35
100
AcDbEntity
  8
4
  6
CENTER
100
AcDbLine
 10
142.389761
 20
87.52512299999997
 30
0.0
 11
142.389761
 21
40.525123
 31
0.0
  0
LINE
  5
9C73
330
9B35
100
AcDbEntity
  8
1
  6
Continuous
100
AcDbLine
 10
169.389761
 20
49.525123
 30
0.0
 11
169.389761
 21
78.52512299999998
 31
0.0
  0
ARC
  5
9C74
330
9B35
100
AcDbEntity
  8
1
  6
Continuous
100
AcDbCircle
 10
165.389761
 20
78.52512299999998
 30
0.0
 40
4.0
100
AcDbArc
 50
0.0
 51
90.0
  0
CIRCLE
  5
9C75
330
9B35
100
AcDbEntity
  8
1
  6
Continuous
100
AcDbCircle
 10
164.8897609999999
 20
77.02512299999998
 30
0.0
 40
2.25
  0
LINE
  5
9C76
330
9B35
100
AcDbEntity
  8
4
  6
CENTER
100
AcDbLine
 10
164.8897609999999
 20
82.27512299999999
 30
0.0
 11
164.8897609999999
 21
71.775123
 31
0.0
  0
LINE
  5
9C77
330
9B35
100
AcDbEntity
  8
4
  6
CENTER
100
AcDbLine
 10
170.1397609999999
 20
77.02512299999998
 30
0.0
 11
159.6397609999999
 21
77.02512299999998
 31
0.0
  0
ARC
  5
9C78
330
9B35
100
AcDbEntity
  8
1
  6
Continuous
100
AcDbCircle
 10
165.389761
 20
49.525123
 30
0.0
 40
4.0
100
AcDbArc
 50
270.0
 51
0.0
  0
LINE
  5
9C79
330
9B35
100
AcDbEntity
  8
4
  6
CENTER
100
AcDbLine
 10
164.8897609999999
 20
56.275123
 30
0.0
 11
164.8897609999999
 21
45.775123
 31
0.0
  0
CIRCLE
  5
9C7A
330
9B35
100
AcDbEntity
  8
1
  6
Continuous
100
AcDbCircle
 10
164.8897609999999
 20
51.025123
 30
0.0
 40
2.25
  0
LINE
  5
9C7B
330
9B35
100
AcDbEntity
  8
4
  6
CENTER
100
AcDbLine
 10
170.1397609999999
 20
51.025123
 30
0.0
 11
159.6397609999999
 21
51.025123
 31
0.0
  0
LINE
  5
9C7C
330
9B35
100
AcDbEntity
  8
1
  6
Continuous
100
AcDbLine
 10
224.0252049999998
 20
162.589622
 30
0.0
 11
253.1721419999998
 21
162.589622
 31
0.0
  0
LINE
  5
9C7D
330
9B35
100
AcDbEntity
  8
1
  6
Continuous
100
AcDbLine
 10
220.0986739999999
 20
176.379908
 30
0.0
 11
220.0986739999999
 21
172.239908
 31
0.0
  0
LINE
  5
9C7E
330
9B35
100
AcDbEntity
  8
4
  6
CENTER
100
AcDbLine
 10
225.5986739999999
 20
181.379908
 30
0.0
 11
225.5986739999999
 21
167.8199079999999
 31
0.0
  0
LINE
  5
9C7F
330
9B35
100
AcDbEntity
  8
4
  6
CENTER
100
AcDbLine
 10
251.5986739999999
 20
181.379908
 30
0.0
 11
251.5986739999999
 21
167.8199079999999
 31
0.0
  0
LINE
  5
9C80
330
9B35
100
AcDbEntity
  8
1
  6
Continuous
100
AcDbLine
 10
257.098674
 20
176.379908
 30
0.0
 11
257.098674
 21
172.239908
 31
0.0
  0
LINE
  5
9C81
330
9B35
100
AcDbEntity
  8
4
  6
CENTER
100
AcDbLine
 10
238.5986739999999
 20
181.379908
 30
0.0
 11
238.5986739999999
 21
118.3931429999999
 31
0.0
  0
LINE
  5
9C82
330
9B35
100
AcDbEntity
  8
1
  6
Continuous
100
AcDbLine
 10
257.098674
 20
174.379908
 30
0.0
 11
220.0986739999999
 21
174.379908
 31
0.0
  0
LINE
  5
9C83
330
9B35
100
AcDbEntity
  8
1
  6
Continuous
100
AcDbLine
 10
257.098674
 20
172.239908
 30
0.0
 11
220.0986739999999
 21
172.239908
 31
0.0
  0
LINE
  5
9C84
330
9B35
100
AcDbEntity
  8
1
  6
Continuous
100
AcDbLine
 10
257.098674
 20
174.209908
 30
0.0
 11
220.0986739999999
 21
174.209908
 31
0.0
  0
LINE
  5
9C85
330
9B35
100
AcDbEntity
  8
4
  6
CENTER
100
AcDbLine
 10
258.2355779999999
 20
141.3796379999998
 30
0.0
 11
219.011704
 21
141.3796379999998
 31
0.0
  0
LINE
  5
9C86
330
9B35
100
AcDbEntity
  8
1
  6
Continuous
100
AcDbLine
 10
247.0986739999999
 20
159.0066179999998
 30
0.0
 11
247.0986739999999
 21
123.7526589999999
 31
0.0
  0
LINE
  5
9C87
330
9B35
100
AcDbEntity
  8
1
  6
Continuous
100
AcDbLine
 10
230.0986739999999
 20
159.0066179999998
 30
0.0
 11
230.0986739999999
 21
123.7526589999999
 31
0.0
  0
ARC
  5
9C88
330
9B35
100
AcDbEntity
  8
1
  6
Continuous
100
AcDbCircle
 10
238.5986739999999
 20
151.379638
 30
0.0
 40
30.0
100
AcDbArc
 50
255.7818759999999
 51
284.218124
  0
ARC
  5
9C89
330
9B35
100
AcDbEntity
  8
1
  6
Continuous
100
AcDbCircle
 10
245.5986739999999
 20
123.7526589999999
 30
0.0
 40
1.5
100
AcDbArc
 50
284.218124
 51
0.0
  0
ARC
  5
9C8A
330
9B35
100
AcDbEntity
  8
1
  6
Continuous
100
AcDbCircle
 10
231.598674
 20
123.7526589999999
 30
0.0
 40
1.5
100
AcDbArc
 50
180.0
 51
255.7818759999999
  0
LINE
  5
9C8B
330
9B35
100
AcDbEntity
  8
1
  6
Continuous
100
AcDbLine
 10
253.6289879999999
 20
168.8466379999999
 30
0.0
 11
251.8257179999999
 21
170.0699079999999
 31
0.0
  0
LINE
  5
9C8C
330
9B35
100
AcDbEntity
  8
1
  6
Continuous
100
AcDbLine
 10
251.8257179999999
 20
168.8466379999999
 30
0.0
 11
253.6289879999999
 21
170.0699079999999
 31
0.0
  0
LINE
  5
9C8D
330
9B35
100
AcDbEntity
  8
1
  6
Continuous
100
AcDbLine
 10
254.8486739999999
 20
168.8466379999999
 30
0.0
 11
222.3486739999999
 21
168.8466379999999
 31
0.0
  0
LINE
  5
9C8E
330
9B35
100
AcDbEntity
  8
1
  6
Continuous
100
AcDbLine
 10
254.8486739999999
 20
170.0699079999999
 30
0.0
 11
222.3486739999999
 21
170.0699079999999
 31
0.0
  0
LINE
  5
9C8F
330
9B35
100
AcDbEntity
  8
1
  6
Continuous
100
AcDbLine
 10
254.108241
 20
171.839908
 30
0.0
 11
223.0891049999999
 21
171.839908
 31
0.0
  0
LINE
  5
9C90
330
9B35
100
AcDbEntity
  8
1
  6
Continuous
100
AcDbLine
 10
254.5988539999999
 20
171.2642199999999
 30
0.0
 11
222.598494
 21
171.2642199999999
 31
0.0
  0
LINE
  5
9C91
330
9B35
100
AcDbEntity
  8
1
  6
Continuous
100
AcDbLine
 10
255.898635
 20
165.665641
 30
0.0
 11
255.8986529999998
 21
150.3096889999999
 31
0.0
  0
LINE
  5
9C92
330
9B35
100
AcDbEntity
  8
1
  6
Continuous
100
AcDbLine
 10
253.9470389999999
 20
168.8466379999999
 30
0.0
 11
254.8486739999999
 21
169.748273
 31
0.0
  0
LINE
  5
9C93
330
9B35
100
AcDbEntity
  8
1
  6
Continuous
100
AcDbLine
 10
254.8486739999999
 20
170.0699079999999
 30
0.0
 11
254.8486739999999
 21
168.8466379999999
 31
0.0
  0
LINE
  5
9C94
330
9B35
100
AcDbEntity
  8
1
  6
Continuous
100
AcDbLine
 10
253.9470389999999
 20
170.0699079999999
 30
0.0
 11
254.8486739999999
 21
169.748273
 31
0.0
  0
ARC
  5
9C95
330
9B35
100
AcDbEntity
  8
1
  6
Continuous
100
AcDbCircle
 10
253.568343
 20
170.8828969999999
 30
0.0
 40
1.098799999999998
100
AcDbArc
 50
20.306161
 51
60.57047500000001
  0
LINE
  5
9C96
330
9B35
100
AcDbEntity
  8
1
  6
Continuous
100
AcDbLine
 10
253.388112
 20
171.839908
 30
0.0
 11
253.112502
 21
172.239908
 31
0.0
  0
ARC
  5
9C97
330
9B35
100
AcDbEntity
  8
1
  6
Continuous
100
AcDbCircle
 10
252.250479
 20
171.595108
 30
0.0
 40
2.371570999999998
100
AcDbArc
 50
319.959594
 51
351.9797889999999
  0
LINE
  5
9C98
330
9B35
100
AcDbEntity
  8
1
  6
Continuous
100
AcDbLine
 10
226.5985509999999
 20
133.6096539999998
 30
0.0
 11
226.5985509999999
 21
133.6096379999998
 31
0.0
  0
LINE
  5
9C99
330
9B35
100
AcDbEntity
  8
1
  6
Continuous
100
AcDbLine
 10
248.708686
 20
162.589622
 30
0.0
 11
248.708652
 21
133.6096379999998
 31
0.0
  0
LINE
  5
9C9A
330
9B35
100
AcDbEntity
  8
1
  6
Continuous
100
AcDbLine
 10
228.4886939999999
 20
133.855186
 30
0.0
 11
228.488695
 21
133.6096379999998
 31
0.0
  0
LINE
  5
9C9B
330
9B35
100
AcDbEntity
  8
1
  6
Continuous
100
AcDbLine
 10
248.098674
 20
148.379638
 30
0.0
 11
247.0986739999999
 21
149.379638
 31
0.0
  0
LINE
  5
9C9C
330
9B35
100
AcDbEntity
  8
1
  6
Continuous
100
AcDbLine
 10
248.708687
 20
144.379638
 30
0.0
 11
248.098674
 21
144.379638
 31
0.0
  0
LINE
  5
9C9D
330
9B35
100
AcDbEntity
  8
1
  6
Continuous
100
AcDbLine
 10
251.532148
 20
137.1296379999998
 30
0.0
 11
251.0569359999998
 21
137.1296379999998
 31
0.0
  0
LINE
  5
9C9E
330
9B35
100
AcDbEntity
  8
1
  6
Continuous
100
AcDbLine
 10
248.708687
 20
138.3796379999998
 30
0.0
 11
248.098674
 21
138.3796379999998
 31
0.0
  0
LINE
  5
9C9F
330
9B35
100
AcDbEntity
  8
1
  6
Continuous
100
AcDbLine
 10
250.598797
 20
133.6096379999998
 30
0.0
 11
248.708652
 21
133.6096379999998
 31
0.0
  0
LINE
  5
9CA0
330
9B35
100
AcDbEntity
  8
1
  6
Continuous
100
AcDbLine
 10
248.098674
 20
134.379638
 30
0.0
 11
247.0986739999999
 21
133.379638
 31
0.0
  0
LINE
  5
9CA1
330
9B35
100
AcDbEntity
  8
1
  6
Continuous
100
AcDbLine
 10
251.532148
 20
138.559928
 30
0.0
 11
251.532148
 21
137.1296379999998
 31
0.0
  0
ARC
  5
9CA2
330
9B35
100
AcDbEntity
  8
1
  6
Continuous
100
AcDbCircle
 10
243.5988319999999
 20
141.3796379999998
 30
0.0
 40
9.0
100
AcDbArc
 50
331.82136
 51
355.5015839999999
  0
LINE
  5
9CA3
330
9B35
100
AcDbEntity
  8
1
  6
Continuous
100
AcDbLine
 10
248.098674
 20
148.379638
 30
0.0
 11
248.098674
 21
134.379638
 31
0.0
  0
LINE
  5
9CA4
330
9B35
100
AcDbEntity
  8
1
  6
Continuous
100
AcDbLine
 10
229.098674
 20
148.379638
 30
0.0
 11
230.0986739999999
 21
149.379638
 31
0.0
  0
LINE
  5
9CA5
330
9B35
100
AcDbEntity
  8
1
  6
Continuous
100
AcDbLine
 10
229.098674
 20
144.379638
 30
0.0
 11
228.488661
 21
144.379638
 31
0.0
  0
LINE
  5
9CA6
330
9B35
100
AcDbEntity
  8
1
  6
Continuous
100
AcDbLine
 10
226.0683039999999
 20
137.3796379999998
 30
0.0
 11
225.9985149999998
 21
137.3796379999998
 31
0.0
  0
LINE
  5
9CA7
330
9B35
100
AcDbEntity
  8
1
  6
Continuous
100
AcDbLine
 10
229.098674
 20
138.3796379999998
 30
0.0
 11
228.488661
 21
138.3796379999998
 31
0.0
  0
LINE
  5
9CA8
330
9B35
100
AcDbEntity
  8
1
  6
Continuous
100
AcDbLine
 10
229.098674
 20
134.379638
 30
0.0
 11
230.0986739999999
 21
133.379638
 31
0.0
  0
LINE
  5
9CA9
330
9B35
100
AcDbEntity
  8
1
  6
Continuous
100
AcDbLine
 10
228.488696
 20
133.6096379999998
 30
0.0
 11
226.5985509999999
 21
133.6096379999998
 31
0.0
  0
LINE
  5
9CAA
330
9B35
100
AcDbEntity
  8
1
  6
Continuous
100
AcDbLine
 10
225.9985149999998
 20
137.614846
 30
0.0
 11
225.9985149999998
 21
137.3796379999998
 31
0.0
  0
LINE
  5
9CAB
330
9B35
100
AcDbEntity
  8
1
  6
Continuous
100
AcDbLine
 10
229.098674
 20
148.379638
 30
0.0
 11
229.098674
 21
134.379638
 31
0.0
  0
LINE
  5
9CAC
330
9B35
100
AcDbEntity
  8
1
  6
Continuous
100
AcDbLine
 10
236.8486739999999
 20
161.559908
 30
0.0
 11
238.5986739999999
 21
162.559908
 31
0.0
  0
ARC
  5
9CAD
330
9B35
100
AcDbEntity
  8
1
  6
Continuous
100
AcDbCircle
 10
238.5986739999999
 20
131.379638
 30
0.0
 40
30.0
100
AcDbArc
 50
75.78187599999998
 51
104.218124
  0
LINE
  5
9CAE
330
9B35
100
AcDbEntity
  8
1
  6
Continuous
100
AcDbLine
 10
244.7486739999999
 20
161.559908
 30
0.0
 11
232.448674
 21
161.559908
 31
0.0
  0
LINE
  5
9CAF
330
9B35
100
AcDbEntity
  8
1
  6
Continuous
100
AcDbLine
 10
251.507668
 20
168.8466379999999
 30
0.0
 11
249.7043979999999
 21
170.0699079999999
 31
0.0
  0
LINE
  5
9CB0
330
9B35
100
AcDbEntity
  8
1
  6
Continuous
100
AcDbLine
 10
249.3863479999999
 20
168.8466379999999
 30
0.0
 11
247.5830779999999
 21
170.0699079999999
 31
0.0
  0
LINE
  5
9CB1
330
9B35
100
AcDbEntity
  8
1
  6
Continuous
100
AcDbLine
 10
247.2650269999999
 20
168.8466379999999
 30
0.0
 11
245.4617569999999
 21
170.0699079999999
 31
0.0
  0
LINE
  5
9CB2
330
9B35
100
AcDbEntity
  8
1
  6
Continuous
100
AcDbLine
 10
245.1437069999998
 20
168.8466379999999
 30
0.0
 11
243.340437
 21
170.0699079999999
 31
0.0
  0
LINE
  5
9CB3
330
9B35
100
AcDbEntity
  8
1
  6
Continuous
100
AcDbLine
 10
243.022387
 20
168.8466379999999
 30
0.0
 11
241.2191169999999
 21
170.0699079999999
 31
0.0
  0
LINE
  5
9CB4
330
9B35
100
AcDbEntity
  8
1
  6
Continuous
100
AcDbLine
 10
240.9010659999999
 20
168.8466379999999
 30
0.0
 11
239.0977959999999
 21
170.0699079999999
 31
0.0
  0
LINE
  5
9CB5
330
9B35
100
AcDbEntity
  8
1
  6
Continuous
100
AcDbLine
 10
238.7797459999999
 20
168.8466379999999
 30
0.0
 11
236.9764759999999
 21
170.0699079999999
 31
0.0
  0
LINE
  5
9CB6
330
9B35
100
AcDbEntity
  8
1
  6
Continuous
100
AcDbLine
 10
249.7043979999999
 20
168.8466379999999
 30
0.0
 11
251.507668
 21
170.0699079999999
 31
0.0
  0
LINE
  5
9CB7
330
9B35
100
AcDbEntity
  8
1
  6
Continuous
100
AcDbLine
 10
247.5830779999999
 20
168.8466379999999
 30
0.0
 11
249.3863479999999
 21
170.0699079999999
 31
0.0
  0
LINE
  5
9CB8
330
9B35
100
AcDbEntity
  8
1
  6
Continuous
100
AcDbLine
 10
245.4617569999999
 20
168.8466379999999
 30
0.0
 11
247.2650269999999
 21
170.0699079999999
 31
0.0
  0
LINE
  5
9CB9
330
9B35
100
AcDbEntity
  8
1
  6
Continuous
100
AcDbLine
 10
243.340437
 20
168.8466379999999
 30
0.0
 11
245.1437069999998
 21
170.0699079999999
 31
0.0
  0
LINE
  5
9CBA
330
9B35
100
AcDbEntity
  8
1
  6
Continuous
100
AcDbLine
 10
241.2191169999999
 20
168.8466379999999
 30
0.0
 11
243.022387
 21
170.0699079999999
 31
0.0
  0
LINE
  5
9CBB
330
9B35
100
AcDbEntity
  8
1
  6
Continuous
100
AcDbLine
 10
239.0977959999999
 20
168.8466379999999
 30
0.0
 11
240.9010659999999
 21
170.0699079999999
 31
0.0
  0
LINE
  5
9CBC
330
9B35
100
AcDbEntity
  8
1
  6
Continuous
100
AcDbLine
 10
236.9764759999999
 20
168.8466379999999
 30
0.0
 11
238.7797459999999
 21
170.0699079999999
 31
0.0
  0
LINE
  5
9CBD
330
9B35
100
AcDbEntity
  8
1
  6
Continuous
100
AcDbLine
 10
240.3486739999999
 20
161.559908
 30
0.0
 11
238.5986739999999
 21
162.559908
 31
0.0
  0
ARC
  5
9CBE
330
9B35
100
AcDbEntity
  8
1
  6
Continuous
100
AcDbCircle
 10
245.5986739999999
 20
159.0066179999998
 30
0.0
 40
1.5
100
AcDbArc
 50
0.0
 51
75.78187599999998
  0
LINE
  5
9CBF
330
9B35
100
AcDbEntity
  8
1
  6
Continuous
100
AcDbLine
 10
244.7486739999999
 20
161.559908
 30
0.0
 11
244.662864
 21
162.589622
 31
0.0
  0
LINE
  5
9CC0
330
9B35
100
AcDbEntity
  8
1
  6
Continuous
100
AcDbLine
 10
244.0986649999999
 20
162.559908
 30
0.0
 11
244.7486739999999
 21
161.559908
 31
0.0
  0
LINE
  5
9CC1
330
9B35
100
AcDbEntity
  8
1
  6
Continuous
100
AcDbLine
 10
248.708686
 20
162.434503
 30
0.0
 11
244.675791
 21
162.434503
 31
0.0
  0
LINE
  5
9CC2
330
9B35
100
AcDbEntity
  8
1
  6
Continuous
100
AcDbLine
 10
242.3486739999999
 20
161.559908
 30
0.0
 11
244.0986649999999
 21
162.559908
 31
0.0
  0
LINE
  5
9CC3
330
9B35
100
AcDbEntity
  8
1
  6
Continuous
100
AcDbLine
 10
222.3486739999999
 20
170.0699079999999
 30
0.0
 11
222.3486739999999
 21
168.8466379999999
 31
0.0
  0
LINE
  5
9CC4
330
9B35
100
AcDbEntity
  8
1
  6
Continuous
100
AcDbLine
 10
234.5371049999999
 20
168.8466379999999
 30
0.0
 11
232.733835
 21
170.0699079999999
 31
0.0
  0
LINE
  5
9CC5
330
9B35
100
AcDbEntity
  8
1
  6
Continuous
100
AcDbLine
 10
232.415785
 20
168.8466379999999
 30
0.0
 11
230.612515
 21
170.0699079999999
 31
0.0
  0
LINE
  5
9CC6
330
9B35
100
AcDbEntity
  8
1
  6
Continuous
100
AcDbLine
 10
230.294465
 20
168.8466379999999
 30
0.0
 11
228.491195
 21
170.0699079999999
 31
0.0
  0
LINE
  5
9CC7
330
9B35
100
AcDbEntity
  8
1
  6
Continuous
100
AcDbLine
 10
228.173144
 20
168.8466379999999
 30
0.0
 11
226.369874
 21
170.0699079999999
 31
0.0
  0
LINE
  5
9CC8
330
9B35
100
AcDbEntity
  8
1
  6
Continuous
100
AcDbLine
 10
226.051824
 20
168.8466379999999
 30
0.0
 11
224.248554
 21
170.0699079999999
 31
0.0
  0
LINE
  5
9CC9
330
9B35
100
AcDbEntity
  8
1
  6
Continuous
100
AcDbLine
 10
223.930504
 20
168.8466379999999
 30
0.0
 11
222.3486739999999
 21
169.8484679999999
 31
0.0
  0
LINE
  5
9CCA
330
9B35
100
AcDbEntity
  8
1
  6
Continuous
100
AcDbLine
 10
232.733835
 20
168.8466379999999
 30
0.0
 11
234.5371049999999
 21
170.0699079999999
 31
0.0
  0
LINE
  5
9CCB
330
9B35
100
AcDbEntity
  8
1
  6
Continuous
100
AcDbLine
 10
230.612515
 20
168.8466379999999
 30
0.0
 11
232.415785
 21
170.0699079999999
 31
0.0
  0
LINE
  5
9CCC
330
9B35
100
AcDbEntity
  8
1
  6
Continuous
100
AcDbLine
 10
228.491195
 20
168.8466379999999
 30
0.0
 11
230.294465
 21
170.0699079999999
 31
0.0
  0
LINE
  5
9CCD
330
9B35
100
AcDbEntity
  8
1
  6
Continuous
100
AcDbLine
 10
226.369874
 20
168.8466379999999
 30
0.0
 11
228.173144
 21
170.0699079999999
 31
0.0
  0
LINE
  5
9CCE
330
9B35
100
AcDbEntity
  8
1
  6
Continuous
100
AcDbLine
 10
224.248554
 20
168.8466379999999
 30
0.0
 11
226.051824
 21
170.0699079999999
 31
0.0
  0
LINE
  5
9CCF
330
9B35
100
AcDbEntity
  8
1
  6
Continuous
100
AcDbLine
 10
222.3486739999999
 20
169.068078
 30
0.0
 11
223.930504
 21
170.0699079999999
 31
0.0
  0
LINE
  5
9CD0
330
9B35
100
AcDbEntity
  8
1
  6
Continuous
100
AcDbLine
 10
236.6584259999999
 20
168.8466379999999
 30
0.0
 11
234.855156
 21
170.0699079999999
 31
0.0
  0
LINE
  5
9CD1
330
9B35
100
AcDbEntity
  8
1
  6
Continuous
100
AcDbLine
 10
234.855156
 20
168.8466379999999
 30
0.0
 11
236.6584259999999
 21
170.0699079999999
 31
0.0
  0
ARC
  5
9CD2
330
9B35
100
AcDbEntity
  8
1
  6
Continuous
100
AcDbCircle
 10
223.629005
 20
170.8828969999999
 30
0.0
 40
1.098799999999998
100
AcDbArc
 50
119.429525
 51
159.693839
  0
ARC
  5
9CD3
330
9B35
100
AcDbEntity
  8
1
  6
Continuous
100
AcDbCircle
 10
224.946868
 20
171.595108
 30
0.0
 40
2.371570999999998
100
AcDbArc
 50
188.020211
 51
220.040406
  0
LINE
  5
9CD4
330
9B35
100
AcDbEntity
  8
1
  6
Continuous
100
AcDbLine
 10
223.809236
 20
171.839908
 30
0.0
 11
224.084845
 21
172.239908
 31
0.0
  0
LINE
  5
9CD5
330
9B35
100
AcDbEntity
  8
1
  6
Continuous
100
AcDbLine
 10
232.448674
 20
161.559908
 30
0.0
 11
232.534483
 21
162.589622
 31
0.0
  0
LINE
  5
9CD6
330
9B35
100
AcDbEntity
  8
1
  6
Continuous
100
AcDbLine
 10
234.8486739999999
 20
161.559908
 30
0.0
 11
233.098682
 21
162.559908
 31
0.0
  0
LINE
  5
9CD7
330
9B35
100
AcDbEntity
  8
1
  6
Continuous
100
AcDbLine
 10
233.098682
 20
162.559908
 30
0.0
 11
232.448674
 21
161.559908
 31
0.0
  0
ARC
  5
9CD8
330
9B35
100
AcDbEntity
  8
1
  6
Continuous
100
AcDbCircle
 10
231.598674
 20
159.0066179999998
 30
0.0
 40
1.5
100
AcDbArc
 50
104.218124
 51
180.0
  0
LINE
  5
9CD9
330
9B35
100
AcDbEntity
  8
1
  6
Continuous
100
AcDbLine
 10
232.5215569999998
 20
162.434503
 30
0.0
 11
228.4886619999999
 21
162.434503
 31
0.0
  0
LINE
  5
9CDA
330
9B35
100
AcDbEntity
  8
1
  6
Continuous
100
AcDbLine
 10
257.098674
 20
176.379908
 30
0.0
 11
220.0986739999999
 21
176.379908
 31
0.0
  0
ARC
  5
9CDB
330
9B35
100
AcDbEntity
  8
1
  6
Continuous
100
AcDbCircle
 10
253.1721419999998
 20
161.5896219999999
 30
0.0
 40
1.0
100
AcDbArc
 50
21.900952
 51
90.0
  0
ARC
  5
9CDC
330
9B35
100
AcDbEntity
  8
1
  6
Continuous
100
AcDbCircle
 10
224.0252049999998
 20
161.5896219999999
 30
0.0
 40
1.0
100
AcDbArc
 50
90.0
 51
158.099048
  0
ARC
  5
9CDD
330
9B35
100
AcDbEntity
  8
1
  6
Continuous
100
AcDbCircle
 10
224.479712
 20
165.665638
 30
0.0
 40
3.181
100
AcDbArc
 50
90.0
 51
179.999933
  0
ARC
  5
9CDE
330
9B35
100
AcDbEntity
  8
1
  6
Continuous
100
AcDbCircle
 10
252.7176349999999
 20
165.665638
 30
0.0
 40
3.181
100
AcDbArc
 50
0.000067
 51
90.0
  0
LINE
  5
9CDF
330
9B35
100
AcDbEntity
  8
1
  6
Continuous
100
AcDbLine
 10
228.4886619999999
 20
162.589622
 30
0.0
 11
228.488696
 21
133.6096379999998
 31
0.0
  0
LINE
  5
9CE0
330
9B35
100
AcDbEntity
  8
1
  6
Continuous
100
AcDbLine
 10
307.807587
 20
176.3798229999999
 30
0.0
 11
307.807587
 21
174.3798229999999
 31
0.0
  0
LINE
  5
9CE1
330
9B35
100
AcDbEntity
  8
4
  6
CENTER
100
AcDbLine
 10
312.307587
 20
181.3798229999999
 30
0.0
 11
312.307587
 21
169.3798229999998
 31
0.0
  0
ARC
  5
9CE2
330
9B35
100
AcDbEntity
  8
1
  6
Continuous
100
AcDbCircle
 10
318.914733
 20
156.3722469999999
 30
0.0
 40
20.007576
100
AcDbArc
 50
74.36306700000002
 51
90.0
  0
LINE
  5
9CE3
330
9B35
100
AcDbEntity
  8
4
  6
CENTER
100
AcDbLine
 10
334.807587
 20
181.3798229999999
 30
0.0
 11
334.807587
 21
149.571809
 31
0.0
  0
LINE
  5
9CE4
330
9B35
100
AcDbEntity
  8
1
  6
Continuous
100
AcDbLine
 10
361.807587
 20
176.3798229999999
 30
0.0
 11
361.807587
 21
174.3798229999999
 31
0.0
  0
LINE
  5
9CE5
330
9B35
100
AcDbEntity
  8
4
  6
CENTER
100
AcDbLine
 10
357.307587
 20
181.3798229999999
 30
0.0
 11
357.307587
 21
169.3798229999998
 31
0.0
  0
ARC
  5
9CE6
330
9B35
100
AcDbEntity
  8
1
  6
Continuous
100
AcDbCircle
 10
350.700441
 20
156.3722469999999
 30
0.0
 40
20.007576
100
AcDbArc
 50
90.0
 51
105.636933
  0
ARC
  5
9CE7
330
9B35
100
AcDbEntity
  8
1
  6
Continuous
100
AcDbCircle
 10
349.7839299999998
 20
168.846553
 30
0.0
 40
2.893297
100
AcDbArc
 50
195.531745
 51
268.5982619999999
  0
LINE
  5
9CE8
330
9B35
100
AcDbEntity
  8
1
  6
Continuous
100
AcDbLine
 10
351.057587
 20
168.846553
 30
0.0
 11
318.557587
 21
168.846553
 31
0.0
  0
LINE
  5
9CE9
330
9B35
100
AcDbEntity
  8
1
  6
Continuous
100
AcDbLine
 10
351.057587
 20
170.0698229999999
 30
0.0
 11
318.557587
 21
170.0698229999999
 31
0.0
  0
LINE
  5
9CEA
330
9B35
100
AcDbEntity
  8
1
  6
Continuous
100
AcDbLine
 10
350.317154
 20
171.839823
 30
0.0
 11
319.29802
 21
171.839823
 31
0.0
  0
LINE
  5
9CEB
330
9B35
100
AcDbEntity
  8
1
  6
Continuous
100
AcDbLine
 10
350.911237
 20
172.239823
 30
0.0
 11
318.816321
 21
172.239823
 31
0.0
  0
LINE
  5
9CEC
330
9B35
100
AcDbEntity
  8
1
  6
Continuous
100
AcDbLine
 10
354.808037
 20
174.209802
 30
0.0
 11
348.231754
 21
174.209802
 31
0.0
  0
LINE
  5
9CED
330
9B35
100
AcDbEntity
  8
1
  6
Continuous
100
AcDbLine
 10
318.8074069999998
 20
171.264135
 30
0.0
 11
350.807767
 21
171.264135
 31
0.0
  0
ARC
  5
9CEE
330
9B35
100
AcDbEntity
  8
1
  6
Continuous
100
AcDbCircle
 10
350.700441
 20
156.3722469999999
 30
0.0
 40
18.007576
100
AcDbArc
 50
90.0
 51
105.636933
  0
LINE
  5
9CEF
330
9B35
100
AcDbEntity
  8
1
  6
Continuous
100
AcDbLine
 10
349.4757569999999
 20
168.846553
 30
0.0
 11
351.057587
 21
169.8483819999999
 31
0.0
  0
LINE
  5
9CF0
330
9B35
100
AcDbEntity
  8
1
  6
Continuous
100
AcDbLine
 10
351.057587
 20
169.0679929999998
 30
0.0
 11
349.4757569999999
 21
170.0698229999999
 31
0.0
  0
LINE
  5
9CF1
330
9B35
100
AcDbEntity
  8
1
  6
Continuous
100
AcDbLine
 10
349.5970249999999
 20
171.839823
 30
0.0
 11
349.321415
 21
172.239823
 31
0.0
  0
LINE
  5
9CF2
330
9B35
100
AcDbEntity
  8
4
  6
CENTER
100
AcDbLine
 10
330.807587
 20
141.379624
 30
0.0
 11
376.807587
 21
141.379624
 31
0.0
  0
ARC
  5
9CF3
330
9B35
100
AcDbEntity
  8
1
  6
Continuous
100
AcDbCircle
 10
356.8598129999998
 20
145.0480639999998
 30
0.0
 40
12.0
100
AcDbArc
 50
227.1428139999999
 51
242.584152
  0
ARC
  5
9CF4
330
9B35
100
AcDbEntity
  8
1
  6
Continuous
100
AcDbCircle
 10
353.807587
 20
141.379624
 30
0.0
 40
13.5
100
AcDbArc
 50
164.723795
 51
73.68728299999998
  0
ARC
  5
9CF5
330
9B35
100
AcDbEntity
  8
1
  6
Continuous
100
AcDbCircle
 10
353.807587
 20
141.379624
 30
0.0
 40
8.5
100
AcDbArc
 50
193.7303209999999
 51
45.63999899999998
  0
ARC
  5
9CF6
330
9B35
100
AcDbEntity
  8
1
  6
Continuous
100
AcDbCircle
 10
353.807587
 20
141.379624
 30
0.0
 40
20.0
100
AcDbArc
 50
151.5035839999999
 51
85.38317199999999
  0
ARC
  5
9CF7
330
9B35
100
AcDbEntity
  8
1
  6
Continuous
100
AcDbCircle
 10
354.557587
 20
140.6096239999999
 30
0.0
 40
7.0
100
AcDbArc
 50
242.584152
 51
16.799546
  0
LINE
  5
9CF8
330
9B35
100
AcDbEntity
  8
4
  6
CENTER
100
AcDbLine
 10
353.807587
 20
118.3796239999998
 30
0.0
 11
353.807587
 21
164.379624
 31
0.0
  0
LINE
  5
9CF9
330
9B35
100
AcDbEntity
  8
1
  6
Continuous
100
AcDbLine
 10
353.9995839999999
 20
165.849233
 30
0.0
 11
361.258839
 21
142.632793
 31
0.0
  0
CIRCLE
  5
9CFA
330
9B35
100
AcDbEntity
  8
1
  6
Continuous
100
AcDbCircle
 10
353.807587
 20
141.379624
 30
0.0
 40
4.25
  0
ARC
  5
9CFB
330
9B35
100
AcDbEntity
  8
1
  6
Continuous
100
AcDbCircle
 10
352.382798
 20
167.2536859999999
 30
0.0
 40
1.199999999999999
100
AcDbArc
 50
178.0291489999999
 51
206.434278
  0
ARC
  5
9CFC
330
9B35
100
AcDbEntity
  8
1
  6
Continuous
100
AcDbCircle
 10
349.684396
 20
167.346542
 30
0.0
 40
1.5
100
AcDbArc
 50
358.029149
 51
90.0
  0
LINE
  5
9CFD
330
9B35
100
AcDbEntity
  8
1
  6
Continuous
100
AcDbLine
 10
351.057587
 20
170.0698229999999
 30
0.0
 11
351.057587
 21
168.846553
 31
0.0
  0
LINE
  5
9CFE
330
9B35
100
AcDbEntity
  8
1
  6
Continuous
100
AcDbLine
 10
349.7131519999999
 20
165.9541219999999
 30
0.0
 11
352.575619
 21
165.884078
 31
0.0
  0
LINE
  5
9CFF
330
9B35
100
AcDbEntity
  8
1
  6
Continuous
100
AcDbLine
 10
352.575619
 20
165.884078
 30
0.0
 11
355.7709389999998
 21
165.8058889999998
 31
0.0
  0
LINE
  5
9D00
330
9B35
100
AcDbEntity
  8
1
  6
Continuous
100
AcDbLine
 10
356.555968
 20
174.3100739999999
 30
0.0
 11
356.5313489999998
 21
174.3077839999999
 31
0.0
  0
ARC
  5
9D01
330
9B35
100
AcDbEntity
  8
1
  6
Continuous
100
AcDbCircle
 10
360.4599939999998
 20
178.7046419999998
 30
0.0
 40
4.328999999999997
100
AcDbArc
 50
270.9533969999999
 51
272.518366
  0
LINE
  5
9D02
330
9B35
100
AcDbEntity
  8
1
  6
Continuous
100
AcDbLine
 10
361.807587
 20
174.3798229999999
 30
0.0
 11
350.700441
 21
174.3798229999999
 31
0.0
  0
ARC
  5
9D03
330
9B35
100
AcDbEntity
  8
1
  6
Continuous
100
AcDbCircle
 10
342.9945549999998
 20
190.2867569999999
 30
0.0
 40
20.0
100
AcDbArc
 50
297.9002579999999
 51
305.9921279999999
  0
ARC
  5
9D04
330
9B35
100
AcDbEntity
  8
1
  6
Continuous
100
AcDbCircle
 10
349.777256
 20
170.8828109999998
 30
0.0
 40
1.098799999999998
100
AcDbArc
 50
20.306161
 51
60.57047500000001
  0
ARC
  5
9D05
330
9B35
100
AcDbEntity
  8
1
  6
Continuous
100
AcDbCircle
 10
348.459392
 20
171.595022
 30
0.0
 40
2.371570999999998
100
AcDbArc
 50
319.959594
 51
351.9797889999999
  0
ARC
  5
9D06
330
9B35
100
AcDbEntity
  8
1
  6
Continuous
100
AcDbCircle
 10
350.855037
 20
175.441052
 30
0.0
 40
3.201722
100
AcDbArc
 50
268.994238
 51
297.9002579999999
  0
LINE
  5
9D07
330
9B35
100
AcDbEntity
  8
1
  6
Continuous
100
AcDbLine
 10
360.5320249999999
 20
174.3762419999999
 30
0.0
 11
356.555968
 21
174.3100739999999
 31
0.0
  0
LINE
  5
9D08
330
9B35
100
AcDbEntity
  8
1
  6
Continuous
100
AcDbLine
 10
354.808037
 20
174.209802
 30
0.0
 11
354.748037
 21
174.104802
 31
0.0
  0
LINE
  5
9D09
330
9B35
100
AcDbEntity
  8
1
  6
Continuous
100
AcDbLine
 10
356.5313489999998
 20
174.3077839999999
 30
0.0
 11
355.4780369999999
 21
174.209802
 31
0.0
  0
LINE
  5
9D0A
330
9B35
100
AcDbEntity
  8
1
  6
Continuous
100
AcDbLine
 10
354.808037
 20
174.209802
 30
0.0
 11
355.4780369999999
 21
174.209802
 31
0.0
  0
LINE
  5
9D0B
330
9B35
100
AcDbEntity
  8
1
  6
Continuous
100
AcDbLine
 10
356.499931
 20
164.6393149999999
 30
0.0
 11
356.499931
 21
165.5285659999998
 31
0.0
  0
ARC
  5
9D0C
330
9B35
100
AcDbEntity
  8
1
  6
Continuous
100
AcDbCircle
 10
358.715639
 20
163.7428209999999
 30
0.0
 40
2.390200999999998
100
AcDbArc
 50
157.971334
 51
176.48618
  0
LINE
  5
9D0D
330
9B35
100
AcDbEntity
  8
1
  6
Continuous
100
AcDbLine
 10
354.5830839999999
 20
163.916532
 30
0.0
 11
356.329931
 21
163.8893149999999
 31
0.0
  0
ARC
  5
9D0E
330
9B35
100
AcDbEntity
  8
1
  6
Continuous
100
AcDbCircle
 10
355.7089879999999
 20
164.541043
 30
0.0
 40
1.265223999999999
100
AcDbArc
 50
51.30749900000001
 51
88.598262
  0
ARC
  5
9D0F
330
9B35
100
AcDbEntity
  8
1
  6
Continuous
100
AcDbCircle
 10
352.660373
 20
167.391683
 30
0.0
 40
1.509986
100
AcDbArc
 50
206.434278
 51
268.5982619999999
  0
LINE
  5
9D10
330
9B35
100
AcDbEntity
  8
1
  6
Continuous
100
AcDbLine
 10
318.857587
 20
162.4236379999999
 30
0.0
 11
317.507587
 21
162.589622
 31
0.0
  0
ARC
  5
9D11
330
9B35
100
AcDbEntity
  8
1
  6
Continuous
100
AcDbCircle
 10
321.123453
 20
165.516661
 30
0.0
 40
3.635797999999998
100
AcDbArc
 50
144.4100699999999
 51
181.543274
  0
LINE
  5
9D12
330
9B35
100
AcDbEntity
  8
1
  6
Continuous
100
AcDbLine
 10
307.807587
 20
174.3798229999999
 30
0.0
 11
318.914733
 21
174.3798229999999
 31
0.0
  0
LINE
  5
9D13
330
9B35
100
AcDbEntity
  8
1
  6
Continuous
100
AcDbLine
 10
314.807137
 20
174.209802
 30
0.0
 11
321.3834199999999
 21
174.209802
 31
0.0
  0
ARC
  5
9D14
330
9B35
100
AcDbEntity
  8
1
  6
Continuous
100
AcDbCircle
 10
318.7601369999998
 20
175.441052
 30
0.0
 40
3.201722
100
AcDbArc
 50
242.0997419999999
 51
271.005762
  0
LINE
  5
9D15
330
9B35
100
AcDbEntity
  8
1
  6
Continuous
100
AcDbLine
 10
346.8906329999999
 20
160.235704
 30
0.0
 11
346.8906329999999
 21
143.9688539999998
 31
0.0
  0
ARC
  5
9D16
330
9B35
100
AcDbEntity
  8
1
  6
Continuous
100
AcDbCircle
 10
165.129926
 20
17.060648
 30
0.0
 40
217.2536169999999
100
AcDbArc
 50
36.41495299999999
 51
41.17715399999997
  0
ARC
  5
9D17
330
9B35
100
AcDbEntity
  8
1
  6
Continuous
100
AcDbCircle
 10
250.6356049999999
 20
82.551573
 30
0.0
 40
109.54901
100
AcDbArc
 50
37.449402
 51
44.931337
  0
ARC
  5
9D18
330
9B35
100
AcDbEntity
  8
1
  6
Continuous
100
AcDbCircle
 10
396.396021
 20
187.6578969999999
 30
0.0
 40
70.12666800000001
100
AcDbArc
 50
216.4149529999999
 51
227.1428139999999
  0
LINE
  5
9D19
330
9B35
100
AcDbEntity
  8
1
  6
Continuous
100
AcDbLine
 10
332.505194
 20
168.846553
 30
0.0
 11
334.308464
 21
170.0698229999999
 31
0.0
  0
LINE
  5
9D1A
330
9B35
100
AcDbEntity
  8
1
  6
Continuous
100
AcDbLine
 10
334.308464
 20
168.846553
 30
0.0
 11
332.505194
 21
170.0698229999999
 31
0.0
  0
LINE
  5
9D1B
330
9B35
100
AcDbEntity
  8
1
  6
Continuous
100
AcDbLine
 10
330.802912
 20
174.239823
 30
0.0
 11
338.807587
 21
174.239823
 31
0.0
  0
LINE
  5
9D1C
330
9B35
100
AcDbEntity
  8
1
  6
Continuous
100
AcDbLine
 10
343.507267
 20
175.989823
 30
0.0
 11
326.107907
 21
175.989823
 31
0.0
  0
LINE
  5
9D1D
330
9B35
100
AcDbEntity
  8
1
  6
Continuous
100
AcDbLine
 10
345.307587
 20
175.639323
 30
0.0
 11
324.307587
 21
175.639323
 31
0.0
  0
LINE
  5
9D1E
330
9B35
100
AcDbEntity
  8
1
  6
Continuous
100
AcDbLine
 10
338.8691549999998
 20
168.846553
 30
0.0
 11
340.6724249999999
 21
170.0698229999999
 31
0.0
  0
LINE
  5
9D1F
330
9B35
100
AcDbEntity
  8
1
  6
Continuous
100
AcDbLine
 10
340.9904759999998
 20
168.846553
 30
0.0
 11
342.7937459999998
 21
170.0698229999999
 31
0.0
  0
LINE
  5
9D20
330
9B35
100
AcDbEntity
  8
1
  6
Continuous
100
AcDbLine
 10
343.1117959999999
 20
168.846553
 30
0.0
 11
344.915066
 21
170.0698229999999
 31
0.0
  0
LINE
  5
9D21
330
9B35
100
AcDbEntity
  8
1
  6
Continuous
100
AcDbLine
 10
345.2331159999998
 20
168.846553
 30
0.0
 11
347.0363859999998
 21
170.0698229999999
 31
0.0
  0
LINE
  5
9D22
330
9B35
100
AcDbEntity
  8
1
  6
Continuous
100
AcDbLine
 10
347.354437
 20
168.846553
 30
0.0
 11
349.1577069999999
 21
170.0698229999999
 31
0.0
  0
LINE
  5
9D23
330
9B35
100
AcDbEntity
  8
1
  6
Continuous
100
AcDbLine
 10
340.6724249999999
 20
168.846553
 30
0.0
 11
338.8691549999998
 21
170.0698229999999
 31
0.0
  0
LINE
  5
9D24
330
9B35
100
AcDbEntity
  8
1
  6
Continuous
100
AcDbLine
 10
342.7937459999998
 20
168.846553
 30
0.0
 11
340.9904759999998
 21
170.0698229999999
 31
0.0
  0
LINE
  5
9D25
330
9B35
100
AcDbEntity
  8
1
  6
Continuous
100
AcDbLine
 10
344.915066
 20
168.846553
 30
0.0
 11
343.1117959999999
 21
170.0698229999999
 31
0.0
  0
LINE
  5
9D26
330
9B35
100
AcDbEntity
  8
1
  6
Continuous
100
AcDbLine
 10
347.0363859999998
 20
168.846553
 30
0.0
 11
345.2331159999998
 21
170.0698229999999
 31
0.0
  0
LINE
  5
9D27
330
9B35
100
AcDbEntity
  8
1
  6
Continuous
100
AcDbLine
 10
349.1577069999999
 20
168.846553
 30
0.0
 11
347.354437
 21
170.0698229999999
 31
0.0
  0
LINE
  5
9D28
330
9B35
100
AcDbEntity
  8
1
  6
Continuous
100
AcDbLine
 10
334.6265149999999
 20
168.846553
 30
0.0
 11
336.4297849999999
 21
170.0698229999999
 31
0.0
  0
LINE
  5
9D29
330
9B35
100
AcDbEntity
  8
1
  6
Continuous
100
AcDbLine
 10
336.4297849999999
 20
168.846553
 30
0.0
 11
334.6265149999999
 21
170.0698229999999
 31
0.0
  0
LINE
  5
9D2A
330
9B35
100
AcDbEntity
  8
1
  6
Continuous
100
AcDbLine
 10
336.747835
 20
168.846553
 30
0.0
 11
338.551105
 21
170.0698229999999
 31
0.0
  0
LINE
  5
9D2B
330
9B35
100
AcDbEntity
  8
1
  6
Continuous
100
AcDbLine
 10
338.551105
 20
168.846553
 30
0.0
 11
336.747835
 21
170.0698229999999
 31
0.0
  0
LINE
  5
9D2C
330
9B35
100
AcDbEntity
  8
1
  6
Continuous
100
AcDbLine
 10
341.752071
 20
174.644134
 30
0.0
 11
345.307587
 21
175.639323
 31
0.0
  0
LINE
  5
9D2D
330
9B35
100
AcDbEntity
  8
1
  6
Continuous
100
AcDbLine
 10
345.846668
 20
173.7133449999998
 30
0.0
 11
342.2911519999999
 21
172.718155
 31
0.0
  0
ARC
  5
9D2E
330
9B35
100
AcDbEntity
  8
1
  6
Continuous
100
AcDbCircle
 10
338.807587
 20
185.163903
 30
0.0
 40
12.924081
100
AcDbArc
 50
270.0
 51
285.636933
  0
ARC
  5
9D2F
330
9B35
100
AcDbEntity
  8
1
  6
Continuous
100
AcDbCircle
 10
338.807587
 20
185.163903
 30
0.0
 40
10.92408099999999
100
AcDbArc
 50
270.0
 51
285.636933
  0
LINE
  5
9D30
330
9B35
100
AcDbEntity
  8
1
  6
Continuous
100
AcDbLine
 10
343.507267
 20
175.639323
 30
0.0
 11
343.507267
 21
175.989823
 31
0.0
  0
LINE
  5
9D31
330
9B35
100
AcDbEntity
  8
1
  6
Continuous
100
AcDbLine
 10
318.857587
 20
162.4236379999999
 30
0.0
 11
322.981422
 21
162.4343969999999
 31
0.0
  0
LINE
  5
9D32
330
9B35
100
AcDbEntity
  8
1
  6
Continuous
100
AcDbLine
 10
319.315087
 20
162.489397
 30
0.0
 11
318.857587
 21
162.4236379999999
 31
0.0
  0
LINE
  5
9D33
330
9B35
100
AcDbEntity
  8
1
  6
Continuous
100
AcDbLine
 10
321.898593
 20
168.846553
 30
0.0
 11
323.701863
 21
170.0698229999999
 31
0.0
  0
LINE
  5
9D34
330
9B35
100
AcDbEntity
  8
1
  6
Continuous
100
AcDbLine
 10
324.0199129999999
 20
168.846553
 30
0.0
 11
325.8231829999999
 21
170.0698229999999
 31
0.0
  0
LINE
  5
9D35
330
9B35
100
AcDbEntity
  8
1
  6
Continuous
100
AcDbLine
 10
326.141233
 20
168.846553
 30
0.0
 11
327.944503
 21
170.0698229999999
 31
0.0
  0
LINE
  5
9D36
330
9B35
100
AcDbEntity
  8
1
  6
Continuous
100
AcDbLine
 10
328.262554
 20
168.846553
 30
0.0
 11
330.065824
 21
170.0698229999999
 31
0.0
  0
LINE
  5
9D37
330
9B35
100
AcDbEntity
  8
1
  6
Continuous
100
AcDbLine
 10
330.3838739999999
 20
168.846553
 30
0.0
 11
332.1871439999998
 21
170.0698229999999
 31
0.0
  0
LINE
  5
9D38
330
9B35
100
AcDbEntity
  8
1
  6
Continuous
100
AcDbLine
 10
323.701863
 20
168.846553
 30
0.0
 11
321.898593
 21
170.0698229999999
 31
0.0
  0
LINE
  5
9D39
330
9B35
100
AcDbEntity
  8
1
  6
Continuous
100
AcDbLine
 10
325.8231829999999
 20
168.846553
 30
0.0
 11
324.0199129999999
 21
170.0698229999999
 31
0.0
  0
LINE
  5
9D3A
330
9B35
100
AcDbEntity
  8
1
  6
Continuous
100
AcDbLine
 10
327.944503
 20
168.846553
 30
0.0
 11
326.141233
 21
170.0698229999999
 31
0.0
  0
LINE
  5
9D3B
330
9B35
100
AcDbEntity
  8
1
  6
Continuous
100
AcDbLine
 10
330.065824
 20
168.846553
 30
0.0
 11
328.262554
 21
170.0698229999999
 31
0.0
  0
LINE
  5
9D3C
330
9B35
100
AcDbEntity
  8
1
  6
Continuous
100
AcDbLine
 10
332.1871439999998
 20
168.846553
 30
0.0
 11
330.3838739999999
 21
170.0698229999999
 31
0.0
  0
ARC
  5
9D3D
330
9B35
100
AcDbEntity
  8
1
  6
Continuous
100
AcDbCircle
 10
320.5283529999999
 20
165.942553
 30
0.0
 40
2.903999999999999
100
AcDbArc
 50
90.0
 51
144.4100699999999
  0
LINE
  5
9D3E
330
9B35
100
AcDbEntity
  8
1
  6
Continuous
100
AcDbLine
 10
319.459222
 20
168.846553
 30
0.0
 11
318.557587
 21
169.1681879999999
 31
0.0
  0
LINE
  5
9D3F
330
9B35
100
AcDbEntity
  8
1
  6
Continuous
100
AcDbLine
 10
318.557587
 20
170.0698229999999
 30
0.0
 11
318.557587
 21
168.846553
 31
0.0
  0
LINE
  5
9D40
330
9B35
100
AcDbEntity
  8
1
  6
Continuous
100
AcDbLine
 10
319.7772719999999
 20
168.846553
 30
0.0
 11
321.5805419999999
 21
170.0698229999999
 31
0.0
  0
LINE
  5
9D41
330
9B35
100
AcDbEntity
  8
1
  6
Continuous
100
AcDbLine
 10
321.5805419999999
 20
168.846553
 30
0.0
 11
319.7772719999999
 21
170.0698229999999
 31
0.0
  0
ARC
  5
9D42
330
9B35
100
AcDbEntity
  8
1
  6
Continuous
100
AcDbCircle
 10
318.914733
 20
156.3722469999999
 30
0.0
 40
18.007576
100
AcDbArc
 50
74.36306700000002
 51
90.0
  0
LINE
  5
9D43
330
9B35
100
AcDbEntity
  8
1
  6
Continuous
100
AcDbLine
 10
319.459222
 20
170.0698229999999
 30
0.0
 11
318.557587
 21
169.1681879999999
 31
0.0
  0
ARC
  5
9D44
330
9B35
100
AcDbEntity
  8
1
  6
Continuous
100
AcDbCircle
 10
319.8379179999998
 20
170.8828109999998
 30
0.0
 40
1.098799999999998
100
AcDbArc
 50
119.429525
 51
159.693839
  0
LINE
  5
9D45
330
9B35
100
AcDbEntity
  8
1
  6
Continuous
100
AcDbLine
 10
320.0181489999998
 20
171.839823
 30
0.0
 11
320.2937589999999
 21
172.239823
 31
0.0
  0
ARC
  5
9D46
330
9B35
100
AcDbEntity
  8
1
  6
Continuous
100
AcDbCircle
 10
321.1557819999999
 20
171.595022
 30
0.0
 40
2.371570999999998
100
AcDbArc
 50
188.020211
 51
220.040406
  0
ARC
  5
9D47
330
9B35
100
AcDbEntity
  8
1
  6
Continuous
100
AcDbCircle
 10
330.807587
 20
185.163903
 30
0.0
 40
12.924081
100
AcDbArc
 50
254.363067
 51
270.0
  0
ARC
  5
9D48
330
9B35
100
AcDbEntity
  8
1
  6
Continuous
100
AcDbCircle
 10
330.807587
 20
185.163903
 30
0.0
 40
10.92408099999999
100
AcDbArc
 50
254.363067
 51
270.0
  0
LINE
  5
9D49
330
9B35
100
AcDbEntity
  8
1
  6
Continuous
100
AcDbLine
 10
327.8631029999999
 20
174.644134
 30
0.0
 11
324.307587
 21
175.639323
 31
0.0
  0
LINE
  5
9D4A
330
9B35
100
AcDbEntity
  8
1
  6
Continuous
100
AcDbLine
 10
323.768506
 20
173.7133449999998
 30
0.0
 11
327.324022
 21
172.718155
 31
0.0
  0
LINE
  5
9D4B
330
9B35
100
AcDbEntity
  8
1
  6
Continuous
100
AcDbLine
 10
326.107907
 20
175.639323
 30
0.0
 11
326.107907
 21
175.989823
 31
0.0
  0
ARC
  5
9D4C
330
9B35
100
AcDbEntity
  8
1
  6
Continuous
100
AcDbCircle
 10
323.3830919999999
 20
155.489397
 30
0.0
 40
7.0
100
AcDbArc
 50
41.17715399999997
 51
90.0
  0
ARC
  5
9D4D
330
9B35
100
AcDbEntity
  8
1
  6
Continuous
100
AcDbCircle
 10
322.002348
 20
153.747468
 30
0.0
 40
8.741928999999997
100
AcDbArc
 50
44.931337
 51
90.0
  0
LINE
  5
9D4E
330
9B35
100
AcDbEntity
  8
1
  6
Continuous
100
AcDbLine
 10
319.315087
 20
162.489397
 30
0.0
 11
323.3830919999999
 21
162.489397
 31
0.0
  0
ARC
  5
9D4F
330
9B35
100
AcDbEntity
  8
1
  6
Continuous
100
AcDbCircle
 10
305.3619749999999
 20
164.452619
 30
0.0
 40
12.165422
100
AcDbArc
 50
356.7297679999999
 51
4.554966
  0
LINE
  5
9D50
330
9B35
100
AcDbEntity
  8
1
  6
Continuous
100
AcDbLine
 10
317.507587
 20
162.589622
 30
0.0
 11
317.507587
 21
163.7586379999999
 31
0.0
  0
LINE
  5
9D51
330
9B35
100
AcDbEntity
  8
1
  6
Continuous
100
AcDbLine
 10
313.083825
 20
174.3077839999999
 30
0.0
 11
313.059206
 21
174.3100739999999
 31
0.0
  0
ARC
  5
9D52
330
9B35
100
AcDbEntity
  8
1
  6
Continuous
100
AcDbCircle
 10
309.1551799999999
 20
178.7046419999998
 30
0.0
 40
4.328999999999997
100
AcDbArc
 50
267.481634
 51
269.046603
  0
LINE
  5
9D53
330
9B35
100
AcDbEntity
  8
1
  6
Continuous
100
AcDbLine
 10
313.083825
 20
174.3077839999999
 30
0.0
 11
314.1371369999998
 21
174.209802
 31
0.0
  0
LINE
  5
9D54
330
9B35
100
AcDbEntity
  8
1
  6
Continuous
100
AcDbLine
 10
309.0831489999999
 20
174.3762419999999
 30
0.0
 11
313.059206
 21
174.3100739999999
 31
0.0
  0
ARC
  5
9D55
330
9B35
100
AcDbEntity
  8
1
  6
Continuous
100
AcDbCircle
 10
326.6206189999999
 20
190.2867569999999
 30
0.0
 40
20.0
100
AcDbArc
 50
234.007872
 51
242.0997419999999
  0
LINE
  5
9D56
330
9B35
100
AcDbEntity
  8
1
  6
Continuous
100
AcDbLine
 10
314.807137
 20
174.209802
 30
0.0
 11
314.867137
 21
174.104802
 31
0.0
  0
LINE
  5
9D57
330
9B35
100
AcDbEntity
  8
1
  6
Continuous
100
AcDbLine
 10
314.807137
 20
174.209802
 30
0.0
 11
314.1371369999998
 21
174.209802
 31
0.0
  0
LINE
  5
9D58
330
9B35
100
AcDbEntity
  8
1
  6
Continuous
100
AcDbLine
 10
361.807587
 20
176.3798229999999
 30
0.0
 11
350.700441
 21
176.3798229999999
 31
0.0
  0
LINE
  5
9D59
330
9B35
100
AcDbEntity
  8
1
  6
Continuous
100
AcDbLine
 10
307.807587
 20
176.3798229999999
 30
0.0
 11
318.914733
 21
176.3798229999999
 31
0.0
  0
CIRCLE
  5
9D5A
330
9B35
100
AcDbEntity
  8
1
  6
Continuous
100
AcDbCircle
 10
123.3897609999999
 20
141.379624
 30
0.0
 40
4.0
  0
LINE
  5
9D5B
330
9B35
100
AcDbEntity
  8
4
  6
CENTER
100
AcDbLine
 10
123.3897609999999
 20
87.52512299999997
 30
0.0
 11
123.3897609999999
 21
40.525123
 31
0.0
  0
ARC
  5
9D5C
330
9B35
100
AcDbEntity
  8
1
  6
Continuous
100
AcDbCircle
 10
123.3897609999999
 20
67.025689
 30
0.0
 40
10.399624
100
AcDbArc
 50
67.379272
 51
112.620728
  0
LINE
  5
9D5D
330
9B35
100
AcDbEntity
  8
1
  6
Continuous
100
AcDbLine
 10
119.389761
 20
76.625282
 30
0.0
 11
127.3897609999999
 21
76.625282
 31
0.0
  0
LINE
  5
9D5E
330
9B35
100
AcDbEntity
  8
1
  6
Continuous
100
AcDbLine
 10
116.389761
 20
73.52512299999998
 30
0.0
 11
130.3897609999999
 21
73.52512299999998
 31
0.0
  0
LINE
  5
9D5F
330
9B35
100
AcDbEntity
  8
1
  6
Continuous
100
AcDbLine
 10
119.1397609999999
 20
51.09164899999999
 30
0.0
 11
127.6397609999999
 21
51.09164899999999
 31
0.0
  0
ARC
  5
9D60
330
9B35
100
AcDbEntity
  8
1
  6
Continuous
100
AcDbCircle
 10
123.3897609999999
 20
59.024965
 30
0.0
 40
9.0
100
AcDbArc
 50
241.8213569999999
 51
298.178643
  0
LINE
  5
9D61
330
9B35
100
AcDbEntity
  8
1
  6
Continuous
100
AcDbLine
 10
116.389761
 20
54.525123
 30
0.0
 11
130.3897609999999
 21
54.525123
 31
0.0
  0
LINE
  5
9D62
330
9B35
100
AcDbEntity
  8
1
  6
Continuous
100
AcDbLine
 10
105.762781
 20
55.525123
 30
0.0
 11
141.0167399999999
 21
55.525123
 31
0.0
  0
LINE
  5
9D63
330
9B35
100
AcDbEntity
  8
1
  6
Continuous
100
AcDbLine
 10
105.762781
 20
72.52512299999998
 30
0.0
 11
141.0167399999999
 21
72.52512299999998
 31
0.0
  0
LINE
  5
9D64
330
9B35
100
AcDbEntity
  8
1
  6
Continuous
100
AcDbLine
 10
116.389761
 20
54.525123
 30
0.0
 11
115.389761
 21
55.525123
 31
0.0
  0
LINE
  5
9D65
330
9B35
100
AcDbEntity
  8
1
  6
Continuous
100
AcDbLine
 10
119.1397609999999
 20
51.09164899999999
 30
0.0
 11
119.1397609999999
 21
52.024965
 31
0.0
  0
LINE
  5
9D66
330
9B35
100
AcDbEntity
  8
1
  6
Continuous
100
AcDbLine
 10
120.389761
 20
53.91511
 30
0.0
 11
120.389761
 21
54.525123
 31
0.0
  0
ARC
  5
9D67
330
9B35
100
AcDbEntity
  8
1
  6
Continuous
100
AcDbCircle
 10
105.762781
 20
71.02512299999998
 30
0.0
 40
1.5
100
AcDbArc
 50
90.0
 51
165.781876
  0
ARC
  5
9D68
330
9B35
100
AcDbEntity
  8
1
  6
Continuous
100
AcDbCircle
 10
105.762781
 20
57.025123
 30
0.0
 40
1.5
100
AcDbArc
 50
194.218124
 51
270.0
  0
ARC
  5
9D69
330
9B35
100
AcDbEntity
  8
1
  6
Continuous
100
AcDbCircle
 10
133.3897609999999
 20
64.02512299999999
 30
0.0
 40
30.0
100
AcDbArc
 50
165.781876
 51
194.218124
  0
LINE
  5
9D6A
330
9B35
100
AcDbEntity
  8
1
  6
Continuous
100
AcDbLine
 10
116.389761
 20
73.52512299999998
 30
0.0
 11
115.389761
 21
72.52512299999998
 31
0.0
  0
LINE
  5
9D6B
330
9B35
100
AcDbEntity
  8
1
  6
Continuous
100
AcDbLine
 10
119.389761
 20
76.02528199999998
 30
0.0
 11
119.389761
 21
76.625282
 31
0.0
  0
LINE
  5
9D6C
330
9B35
100
AcDbEntity
  8
1
  6
Continuous
100
AcDbLine
 10
120.389761
 20
73.52512299999998
 30
0.0
 11
120.389761
 21
74.135136
 31
0.0
  0
LINE
  5
9D6D
330
9B35
100
AcDbEntity
  8
1
  6
Continuous
100
AcDbLine
 10
130.3897609999999
 20
54.525123
 30
0.0
 11
131.3897609999999
 21
55.525123
 31
0.0
  0
LINE
  5
9D6E
330
9B35
100
AcDbEntity
  8
1
  6
Continuous
100
AcDbLine
 10
127.6397609999999
 20
51.09164899999999
 30
0.0
 11
127.6397609999999
 21
52.024965
 31
0.0
  0
LINE
  5
9D6F
330
9B35
100
AcDbEntity
  8
1
  6
Continuous
100
AcDbLine
 10
126.3897609999999
 20
53.91511
 30
0.0
 11
126.3897609999999
 21
54.525123
 31
0.0
  0
LINE
  5
9D70
330
9B35
100
AcDbEntity
  8
1
  6
Continuous
100
AcDbLine
 10
127.3897609999999
 20
76.02528199999998
 30
0.0
 11
127.3897609999999
 21
76.625282
 31
0.0
  0
LINE
  5
9D71
330
9B35
100
AcDbEntity
  8
1
  6
Continuous
100
AcDbLine
 10
126.3897609999999
 20
73.52512299999998
 30
0.0
 11
126.3897609999999
 21
74.135136
 31
0.0
  0
LINE
  5
9D72
330
9B35
100
AcDbEntity
  8
1
  6
Continuous
100
AcDbLine
 10
130.3897609999999
 20
73.52512299999998
 30
0.0
 11
131.3897609999999
 21
72.52512299999998
 31
0.0
  0
ARC
  5
9D73
330
9B35
100
AcDbEntity
  8
1
  6
Continuous
100
AcDbCircle
 10
141.0167399999999
 20
71.02512299999998
 30
0.0
 40
1.5
100
AcDbArc
 50
14.218124
 51
90.0
  0
ARC
  5
9D74
330
9B35
100
AcDbEntity
  8
1
  6
Continuous
100
AcDbCircle
 10
141.0167399999999
 20
57.025123
 30
0.0
 40
1.5
100
AcDbArc
 50
270.0
 51
345.7818759999998
  0
ARC
  5
9D75
330
9B35
100
AcDbEntity
  8
1
  6
Continuous
100
AcDbCircle
 10
113.389761
 20
64.02512299999999
 30
0.0
 40
30.0
100
AcDbArc
 50
345.7818759999998
 51
14.218124
  0
LINE
  5
9D76
330
9B35
100
AcDbEntity
  8
1
  6
Continuous
100
AcDbLine
 10
115.389761
 20
72.52512299999998
 30
0.0
 11
115.389761
 21
78.52512299999998
 31
0.0
  0
LINE
  5
9D77
330
9B35
100
AcDbEntity
  8
1
  6
Continuous
100
AcDbLine
 10
128.288256
 20
53.91514499999999
 30
0.0
 11
115.6397609999999
 21
53.91514499999999
 31
0.0
  0
LINE
  5
9D78
330
9B35
100
AcDbEntity
  8
1
  6
Continuous
100
AcDbLine
 10
128.3296729999999
 20
52.025
 30
0.0
 11
115.6397609999999
 21
52.025
 31
0.0
  0
LINE
  5
9D79
330
9B35
100
AcDbEntity
  8
1
  6
Continuous
100
AcDbLine
 10
128.3296729999999
 20
76.02524599999998
 30
0.0
 11
115.6397609999999
 21
76.02524599999998
 31
0.0
  0
LINE
  5
9D7A
330
9B35
100
AcDbEntity
  8
1
  6
Continuous
100
AcDbLine
 10
128.288256
 20
74.135101
 30
0.0
 11
115.6397609999999
 21
74.135101
 31
0.0
  0
ARC
  5
9D7B
330
9B35
100
AcDbEntity
  8
1
  6
Continuous
100
AcDbCircle
 10
142.389761
 20
64.02512299999999
 30
0.0
 40
17.3
100
AcDbArc
 50
228.692652
 51
131.3073479999999
  0
LINE
  5
9D7C
330
9B35
100
AcDbEntity
  8
1
  6
Continuous
100
AcDbLine
 10
115.6397609999999
 20
76.02524599999998
 30
0.0
 11
115.6397609999999
 21
74.135101
 31
0.0
  0
LINE
  5
9D7D
330
9B35
100
AcDbEntity
  8
1
  6
Continuous
100
AcDbLine
 10
115.6397609999999
 20
53.91514499999999
 30
0.0
 11
115.6397609999999
 21
52.025
 31
0.0
  0
ARC
  5
9D7E
330
9B35
100
AcDbEntity
  8
1
  6
Continuous
100
AcDbCircle
 10
142.389761
 20
64.02512299999999
 30
0.0
 40
15.4099
100
AcDbArc
 50
228.8034539999999
 51
131.1965459999999
  0
ARC
  5
9D7F
330
9B35
100
AcDbEntity
  8
1
  6
Continuous
100
AcDbCircle
 10
128.3296729999999
 20
80.02524599999999
 30
0.0
 40
4.0
100
AcDbArc
 50
270.0
 51
311.307348
  0
ARC
  5
9D80
330
9B35
100
AcDbEntity
  8
1
  6
Continuous
100
AcDbCircle
 10
128.288256
 20
80.13510100000003
 30
0.0
 40
6.0
100
AcDbArc
 50
270.0
 51
311.196546
  0
ARC
  5
9D81
330
9B35
100
AcDbEntity
  8
1
  6
Continuous
100
AcDbCircle
 10
128.288256
 20
47.915145
 30
0.0
 40
6.0
100
AcDbArc
 50
48.80345399999999
 51
90.0
  0
ARC
  5
9D82
330
9B35
100
AcDbEntity
  8
1
  6
Continuous
100
AcDbCircle
 10
128.3296729999999
 20
48.025
 30
0.0
 40
4.0
100
AcDbArc
 50
48.692652
 51
90.0
  0
ARC
  5
9D83
330
9B35
100
AcDbEntity
  8
1
  6
Continuous
100
AcDbCircle
 10
142.389761
 20
64.02512299999999
 30
0.0
 40
19.94044999999999
100
AcDbArc
 50
221.01216
 51
248.0886609999999
  0
ARC
  5
9D84
330
9B35
100
AcDbEntity
  8
1
  6
Continuous
100
AcDbCircle
 10
142.389761
 20
64.02512299999999
 30
0.0
 40
19.94044999999999
100
AcDbArc
 50
111.9113389999998
 51
140.3046559999999
  0
ARC
  5
9D85
330
9B35
100
AcDbEntity
  8
1
  6
Continuous
100
AcDbCircle
 10
142.389761
 20
64.02512299999999
 30
0.0
 40
19.94044999999999
100
AcDbArc
 50
291.911339
 51
68.088661
  0
ARC
  5
9D86
330
9B35
100
AcDbEntity
  8
1
  6
Continuous
100
AcDbCircle
 10
142.389761
 20
64.02512299999999
 30
0.0
 40
12.4099
100
AcDbArc
 50
223.230655
 51
136.7693449999999
  0
ARC
  5
9D87
330
9B35
100
AcDbEntity
  8
1
  6
Continuous
100
AcDbCircle
 10
142.389761
 20
64.02512299999999
 30
0.0
 40
5.75
100
AcDbArc
 50
274.4606039999998
 51
85.53939599999997
  0
LINE
  5
9D88
330
9B35
100
AcDbEntity
  8
1
  6
Continuous
100
AcDbLine
 10
145.2647609999999
 20
69.004769
 30
0.0
 11
143.3441799999999
 21
65.67822599999999
 31
0.0
  0
LINE
  5
9D89
330
9B35
100
AcDbEntity
  8
1
  6
Continuous
100
AcDbLine
 10
145.2647609999999
 20
59.04547700000001
 30
0.0
 11
143.3441799999999
 21
62.37201999999999
 31
0.0
  0
LINE
  5
9D8A
330
9B35
100
AcDbEntity
  8
1
  6
Continuous
100
AcDbLine
 10
148.1397609999999
 20
64.02512299999999
 30
0.0
 11
144.2985999999999
 21
64.02512299999999
 31
0.0
  0
ARC
  5
9D8B
330
9B35
100
AcDbEntity
  8
1
  6
Continuous
100
AcDbCircle
 10
142.389761
 20
64.02512299999999
 30
0.0
 40
13.9099
100
AcDbArc
 50
217.698709
 51
142.3012909999999
  0
LINE
  5
9D8C
330
9B35
100
AcDbEntity
  8
1
  6
Continuous
100
AcDbLine
 10
121.905386
 20
221.7344
 30
0.0
 11
117.874135
 21
221.7344
 31
0.0
  0
LINE
  5
9D8D
330
9B35
100
AcDbEntity
  8
1
  6
Continuous
100
AcDbLine
 10
119.389761
 20
221.734364
 30
0.0
 11
119.389761
 21
221.1343639999999
 31
0.0
  0
LINE
  5
9D8E
330
9B35
100
AcDbEntity
  8
1
  6
Continuous
100
AcDbLine
 10
119.389761
 20
221.1343639999999
 30
0.0
 11
122.1039479999999
 21
221.1343639999999
 31
0.0
  0
ARC
  5
9D8F
330
9B35
100
AcDbEntity
  8
1
  6
Continuous
100
AcDbCircle
 10
123.3897609999999
 20
230.7339569999999
 30
0.0
 40
10.399624
100
AcDbArc
 50
247.379272
 51
262.968029
  0
LINE
  5
9D90
330
9B35
100
AcDbEntity
  8
1
  6
Continuous
100
AcDbLine
 10
121.905386
 20
245.734646
 30
0.0
 11
117.874135
 21
245.734646
 31
0.0
  0
LINE
  5
9D91
330
9B35
100
AcDbEntity
  8
1
  6
Continuous
100
AcDbLine
 10
119.1397609999999
 20
246.667997
 30
0.0
 11
119.1397609999999
 21
245.734681
 31
0.0
  0
ARC
  5
9D92
330
9B35
100
AcDbEntity
  8
1
  6
Continuous
100
AcDbCircle
 10
123.3897609999999
 20
238.7346809999999
 30
0.0
 40
9.0
100
AcDbArc
 50
99.15274100000001
 51
118.178643
  0
LINE
  5
9D93
330
9B35
100
AcDbEntity
  8
1
  6
Continuous
100
AcDbLine
 10
119.1397609999999
 20
246.667997
 30
0.0
 11
122.1387769999999
 21
246.667997
 31
0.0
  0
ARC
  5
9D94
330
9B35
100
AcDbEntity
  8
1
  6
Continuous
100
AcDbCircle
 10
241.6980549999999
 20
149.9572249999999
 30
0.0
 40
14.20497099999999
100
AcDbArc
 50
324.686006
 51
1.421809
  0
ARC
  5
9D95
330
9B35
100
AcDbEntity
  8
1
  6
Continuous
100
AcDbCircle
 10
230.9755339999999
 20
152.6662149999999
 30
0.0
 40
24.92314
100
AcDbArc
 50
359.921241
 51
21.900952
  0
ARC
  5
9D96
330
9B35
100
AcDbEntity
  8
1
  6
Continuous
100
AcDbCircle
 10
264.306893
 20
133.5897129999999
 30
0.0
 40
13.708111
100
AcDbArc
 50
143.4878669999999
 51
179.916722
  0
ARC
  5
9D97
330
9B35
100
AcDbEntity
  8
1
  6
Continuous
100
AcDbCircle
 10
230.9755339999999
 20
152.6662149999999
 30
0.0
 40
23.03304
100
AcDbArc
 50
359.921241
 51
25.520474
  0
ARC
  5
9D98
330
9B35
100
AcDbEntity
  8
1
  6
Continuous
100
AcDbCircle
 10
241.6980549999999
 20
149.9572249999999
 30
0.0
 40
12.314871
100
AcDbArc
 50
359.1110269999999
 51
1.421809
  0
LINE
  5
9D99
330
9B35
100
AcDbEntity
  8
1
  6
Continuous
100
AcDbLine
 10
254.0085499999999
 20
152.699205
 30
0.0
 11
254.0085529999998
 21
150.309687
 31
0.0
  0
ARC
  5
9D9A
330
9B35
100
AcDbEntity
  8
1
  6
Continuous
100
AcDbCircle
 10
262.416748
 20
133.5897129999999
 30
0.0
 40
13.708111
100
AcDbArc
 50
143.4878669999999
 51
179.916722
  0
ARC
  5
9D9B
330
9B35
100
AcDbEntity
  8
1
  6
Continuous
100
AcDbCircle
 10
239.7227619999999
 20
149.987875
 30
0.0
 40
14.290402
100
AcDbArc
 50
324.148974
 51
359.1110269999999
  0
ARC
  5
9D9C
330
9B35
100
AcDbEntity
  8
1
  6
Continuous
100
AcDbCircle
 10
246.221813
 20
152.6662149999999
 30
0.0
 40
23.03304
100
AcDbArc
 50
154.4795259999999
 51
180.0787589999999
  0
ARC
  5
9D9D
330
9B35
100
AcDbEntity
  8
1
  6
Continuous
100
AcDbCircle
 10
224.0252049999998
 20
161.5896219999999
 30
0.0
 40
1.0
100
AcDbArc
 50
90.0
 51
158.099048
  0
ARC
  5
9D9E
330
9B35
100
AcDbEntity
  8
1
  6
Continuous
100
AcDbCircle
 10
246.221813
 20
152.6662149999999
 30
0.0
 40
24.92314
100
AcDbArc
 50
158.099048
 51
180.0787589999999
  0
ARC
  5
9D9F
330
9B35
100
AcDbEntity
  8
1
  6
Continuous
100
AcDbCircle
 10
235.4992919999999
 20
149.9572249999999
 30
0.0
 40
14.20497099999999
100
AcDbArc
 50
178.578191
 51
215.3139939999999
  0
ARC
  5
9DA0
330
9B35
100
AcDbEntity
  8
1
  6
Continuous
100
AcDbCircle
 10
235.4992919999999
 20
149.9572249999999
 30
0.0
 40
12.314871
100
AcDbArc
 50
178.578191
 51
180.8889729999999
  0
ARC
  5
9DA1
330
9B35
100
AcDbEntity
  8
1
  6
Continuous
100
AcDbCircle
 10
237.474585
 20
149.987875
 30
0.0
 40
14.290402
100
AcDbArc
 50
180.8889729999999
 51
215.851026
  0
LINE
  5
9DA2
330
9B35
100
AcDbEntity
  8
1
  6
Continuous
100
AcDbLine
 10
223.1887969999999
 20
152.699205
 30
0.0
 11
223.188794
 21
150.309687
 31
0.0
  0
LINE
  5
9DA3
330
9B35
100
AcDbEntity
  8
1
  6
Continuous
100
AcDbLine
 10
221.298712
 20
165.665641
 30
0.0
 11
221.2986939999999
 21
150.3096889999999
 31
0.0
  0
ARC
  5
9DA4
330
9B35
100
AcDbEntity
  8
1
  6
Continuous
100
AcDbCircle
 10
214.7806
 20
133.5897129999999
 30
0.0
 40
13.708111
100
AcDbArc
 50
0.083278
 51
36.512133
  0
ARC
  5
9DA5
330
9B35
100
AcDbEntity
  8
1
  6
Continuous
100
AcDbCircle
 10
212.8904549999998
 20
133.5897129999999
 30
0.0
 40
13.708111
100
AcDbArc
 50
0.083278
 51
36.512133
  0
LINE
  5
9DA6
330
9B35
100
AcDbEntity
  8
4
  6
CENTER
100
AcDbLine
 10
123.3897609999999
 20
210.234523
 30
0.0
 11
123.3897609999999
 21
257.234523
 31
0.0
  0
ENDSEC
  0
SECTION
  2
OBJECTS
  0
DICTIONARY
  5
9B23
330
0
100
AcDbDictionary
281
     1
  3
ACAD_CIP_PREVIOUS_PRODUCT_INFO
350
9E08
  3
ACAD_COLOR
350
9DEA
  3
ACAD_DETAILVIEWSTYLE
350
9E03
  3
ACAD_GROUP
350
9B24
  3
ACAD_LAYOUT
350
9B30
  3
ACAD_MATERIAL
350
9DB8
  3
ACAD_MLEADERSTYLE
350
9DFF
  3
ACAD_MLINESTYLE
350
9B2D
  3
ACAD_PLOTSETTINGS
350
9B2F
  3
ACAD_PLOTSTYLENAME
350
9DB6
  3
ACAD_SCALELIST
350
9DED
  3
ACAD_SECTIONVIEWSTYLE
350
9E01
  3
ACAD_TABLESTYLE
350
9DEB
  3
ACAD_VISUALSTYLE
350
9DD1
  3
ACDB_RECOMPOSE_DATA
350
9E26
  3
AcDbVariableDictionary
350
9E19
  3
DWGPROPS
350
9E27
  0
DICTIONARY
  5
9E09
330
9B27
100
AcDbDictionary
280
     1
281
     1
  3
ADSK_XREC_LAYER_RECONCILED
360
9E0A
  0
DICTIONARY
  5
9E0B
330
9B3D
100
AcDbDictionary
280
     1
281
     1
  3
ADSK_XREC_LAYER_RECONCILED
360
9E0C
  0
DICTIONARY
  5
9E0D
330
9B3E
100
AcDbDictionary
280
     1
281
     1
  3
ADSK_XREC_LAYER_RECONCILED
360
9E0E
  0
DICTIONARY
  5
9E0F
330
9B3F
100
AcDbDictionary
280
     1
281
     1
  3
ADSK_XREC_LAYER_RECONCILED
360
9E10
  0
DICTIONARY
  5
9E11
330
9B40
100
AcDbDictionary
280
     1
281
     1
  3
ADSK_XREC_LAYER_RECONCILED
360
9E12
  0
DICTIONARY
  5
9E13
330
9B41
100
AcDbDictionary
280
     1
281
     1
  3
ADSK_XREC_LAYER_RECONCILED
360
9E14
  0
DICTIONARY
  5
9E15
330
9B42
100
AcDbDictionary
280
     1
281
     1
  3
ADSK_XREC_LAYER_RECONCILED
360
9E16
  0
DICTIONARY
  5
9E17
330
9B43
100
AcDbDictionary
280
     1
281
     1
  3
ADSK_XREC_LAYER_RECONCILED
360
9E18
  0
DICTIONARY
  5
9DB1
330
9B35
100
AcDbDictionary
281
     1
  3
ACAD_LAYOUTSELFREF
350
9DB2
  0
DICTIONARY
  5
9DAF
330
9B31
100
AcDbDictionary
281
     1
  3
ACAD_LAYOUTSELFREF
350
9DB0
  0
XRECORD
  5
9E08
102
{ACAD_REACTORS
330
9B23
102
}
330
9B23
100
AcDbXrecord
280
     1
300
ACDLT
300
2014
300
ACDLT_F_S
  0
DICTIONARY
  5
9DEA
102
{ACAD_REACTORS
330
9B23
102
}
330
9B23
100
AcDbDictionary
281
     1
  0
DICTIONARY
  5
9E03
102
{ACAD_REACTORS
330
9B23
102
}
330
9B23
100
AcDbDictionary
281
     1
  3
Imperial24
350
9E04
  0
DICTIONARY
  5
9B24
102
{ACAD_REACTORS
330
9B23
102
}
330
9B23
100
AcDbDictionary
281
     1
  0
DICTIONARY
  5
9B30
102
{ACAD_REACTORS
330
9B23
102
}
330
9B23
100
AcDbDictionary
281
     1
  3
Model
350
9E05
  3
レイアウト1
350
9E06
  0
DICTIONARY
  5
9DB8
102
{ACAD_REACTORS
330
9B23
102
}
330
9B23
100
AcDbDictionary
281
     1
  3
ByBlock
350
9DC1
  3
ByLayer
350
9DB9
  3
Global
350
9DC9
  0
DICTIONARY
  5
9DFF
102
{ACAD_REACTORS
330
9B23
102
}
330
9B23
100
AcDbDictionary
281
     1
  3
Standard
350
9E00
  0
DICTIONARY
  5
9B2D
102
{ACAD_REACTORS
330
9B23
102
}
330
9B23
100
AcDbDictionary
281
     1
  3
STANDARD
350
9B2E
  0
DICTIONARY
  5
9B2F
102
{ACAD_REACTORS
330
9B23
102
}
330
9B23
100
AcDbDictionary
281
     1
  0
ACDBDICTIONARYWDFLT
  5
9DB6
102
{ACAD_REACTORS
330
9B23
102
}
330
9B23
100
AcDbDictionary
281
     1
  3
Normal
350
9DB7
100
AcDbDictionaryWithDefault
340
9DB7
  0
DICTIONARY
  5
9DED
102
{ACAD_REACTORS
330
9B23
102
}
330
9B23
100
AcDbDictionary
281
     1
  3
A0
350
9DEE
  3
A1
350
9DEF
  3
A2
350
9DF0
  3
A3
350
9DF1
  3
A4
350
9DF2
  3
A5
350
9DF3
  3
A6
350
9DF4
  3
A7
350
9DF5
  3
A8
350
9DF6
  3
A9
350
9DF7
  3
B0
350
9DF8
  3
B1
350
9DF9
  3
B2
350
9DFA
  3
B3
350
9DFB
  3
B4
350
9DFC
  3
B5
350
9DFD
  3
B6
350
9DFE
  0
DICTIONARY
  5
9E01
102
{ACAD_REACTORS
330
9B23
102
}
330
9B23
100
AcDbDictionary
281
     1
  3
Imperial24
350
9E02
  0
DICTIONARY
  5
9DEB
102
{ACAD_REACTORS
330
9B23
102
}
330
9B23
100
AcDbDictionary
281
     1
  3
Standard
350
9DEC
  0
DICTIONARY
  5
9DD1
102
{ACAD_REACTORS
330
9B23
102
}
330
9B23
100
AcDbDictionary
281
     1
  3
2dWireframe
350
9DD7
  3
Basic
350
9DD6
  3
Brighten
350
9DDD
  3
ColorChange
350
9DE1
  3
Conceptual
350
9DDA
  3
Dim
350
9DDC
  3
EdgeColorOff
350
9DE9
  3
Facepattern
350
9DE0
  3
Flat
350
9DD2
  3
FlatWithEdges
350
9DD3
  3
Gouraud
350
9DD4
  3
GouraudWithEdges
350
9DD5
  3
Hidden
350
9DD9
  3
JitterOff
350
9DE7
  3
Linepattern
350
9DDF
  3
OverhangOff
350
9DE8
  3
Realistic
350
9DDB
  3
Shaded
350
9DE6
  3
Shaded with edges
350
9DE5
  3
Shades of Gray
350
9DE2
  3
Sketchy
350
9DE3
  3
Thicken
350
9DDE
  3
Wireframe
350
9DD8
  3
X-Ray
350
9DE4
  0
XRECORD
  5
9E26
102
{ACAD_REACTORS
330
9B23
102
}
330
9B23
100
AcDbXrecord
280
     1
 90
        1
330
9DEC
  0
DICTIONARY
  5
9E19
102
{ACAD_REACTORS
330
9B23
102
}
330
9B23
100
AcDbDictionary
281
     1
  3
CANNOSCALE
350
9E1E
  3
CMLEADERSTYLE
350
9E1B
  3
CTABLESTYLE
350
9E1A
  3
CVIEWDETAILSTYLE
350
9E1C
  3
CVIEWSECTIONSTYLE
350
9E1D
  3
DIMASSOC
350
9E21
  3
INDEXCTL
350
9E20
  3
SORTENTS
350
9E1F
  3
XCLIPFRAME
350
9E22
  0
XRECORD
  5
9E27
102
{ACAD_REACTORS
330
9B23
102
}
330
9B23
100
AcDbXrecord
280
     1
  1
DWGPROPS COOKIE
  2

  3

  4

  6

  7

  8
Yoshitsune
  9

300
=
301
=
302
=
303
=
304
=
305
=
306
=
307
=
308
=
309
=
 40
2.190873680555555
 41
2449980.970532755
 42
2457192.686433125
  1

 90
        0
  0
XRECORD
  5
9E0A
102
{ACAD_REACTORS
330
9E09
102
}
330
9E09
100
AcDbXrecord
280
     1
290
     1
  0
XRECORD
  5
9E0C
102
{ACAD_REACTORS
330
9E0B
102
}
330
9E0B
100
AcDbXrecord
280
     1
290
     1
  0
XRECORD
  5
9E0E
102
{ACAD_REACTORS
330
9E0D
102
}
330
9E0D
100
AcDbXrecord
280
     1
290
     1
  0
XRECORD
  5
9E10
102
{ACAD_REACTORS
330
9E0F
102
}
330
9E0F
100
AcDbXrecord
280
     1
290
     1
  0
XRECORD
  5
9E12
102
{ACAD_REACTORS
330
9E11
102
}
330
9E11
100
AcDbXrecord
280
     1
290
     1
  0
XRECORD
  5
9E14
102
{ACAD_REACTORS
330
9E13
102
}
330
9E13
100
AcDbXrecord
280
     1
290
     1
  0
XRECORD
  5
9E16
102
{ACAD_REACTORS
330
9E15
102
}
330
9E15
100
AcDbXrecord
280
     1
290
     1
  0
XRECORD
  5
9E18
102
{ACAD_REACTORS
330
9E17
102
}
330
9E17
100
AcDbXrecord
280
     1
290
     1
  0
XRECORD
  5
9DB2
102
{ACAD_REACTORS
330
9DB1
102
}
330
9DB1
100
AcDbXrecord
280
     1
340
9B35
  0
XRECORD
  5
9DB0
102
{ACAD_REACTORS
330
9DAF
102
}
330
9DAF
100
AcDbXrecord
280
     1
340
9B31
  0
ACDBDETAILVIEWSTYLE
  5
9E04
102
{ACAD_XDICTIONARY
360
9E5F
102
}
102
{ACAD_REACTORS
330
9E03
102
}
330
9E03
100
AcDbModelDocViewStyle
 70
     0
  3
Imperial24
290
     0
100
AcDbDetailViewStyle
 70
     0
 71
     0
 90
        3
 71
     1
340
9B28
 40
0.24
340
0
 40
0.24
300

 40
0.36
280
     3
 71
     2
340
9B2C
 90
       25
 71
     3
340
9B28
 40
0.24
 90
        1
 40
0.75
 90
        1
300
%<\AcVar ViewType \f "%tc1">% %<\AcVar ViewDetailId>%\PSCALE %<\AcVar ViewScale \f "%sn">%
 71
     4
340
9B2C
 90
       25
340
9B2C
 90
       25
280
     0
  0
LAYOUT
  5
9E05
102
{ACAD_XDICTIONARY
360
9E61
102
}
102
{ACAD_REACTORS
330
9B30
102
}
330
9B30
100
AcDbPlotSettings
  1

  2
Canon LBP9100C
  4

  6

 40
0.0
 41
0.0
 42
0.0
 43
0.0
 44
0.0
 45
0.0
 46
0.0
 47
0.0
 48
0.0
 49
0.0
140
0.0
141
0.0
142
1.0
143
1.0
 70
  1712
 72
     0
 73
     0
 74
     0
  7

 75
     0
147
1.0
148
0.0
149
0.0
100
AcDbLayout
  1
Model
 70
     1
 71
     0
 10
0.0
 20
0.0
 11
12.0
 21
9.0
 12
0.0
 22
0.0
 32
0.0
 14
0.0
 24
0.0
 34
0.0
 15
0.0
 25
0.0
 35
0.0
146
0.0
 13
0.0
 23
0.0
 33
0.0
 16
1.0
 26
0.0
 36
0.0
 17
0.0
 27
1.0
 37
0.0
 76
     0
330
9B35
331
9DAE
  0
LAYOUT
  5
9E06
102
{ACAD_XDICTIONARY
360
9E63
102
}
102
{ACAD_REACTORS
330
9B30
102
}
330
9B30
100
AcDbPlotSettings
  1

  2
Canon LBP9100C
  4

  6

 40
0.0
 41
0.0
 42
0.0
 43
0.0
 44
0.0
 45
0.0
 46
0.0
 47
0.0
 48
0.0
 49
0.0
140
0.0
141
0.0
142
1.0
143
1.0
 70
   688
 72
     0
 73
     0
 74
     5
  7

 75
    16
147
1.0
148
0.0
149
0.0
100
AcDbLayout
  1
レイアウト1
 70
     0
 71
     1
 10
0.0
 20
0.0
 11
420.0
 21
297.0
 12
0.0
 22
0.0
 32
0.0
 14
1.000000000000000E+20
 24
1.000000000000000E+20
 34
1.000000000000000E+20
 15
-1.000000000000000E+20
 25
-1.000000000000000E+20
 35
-1.000000000000000E+20
146
0.0
 13
0.0
 23
0.0
 33
0.0
 16
1.0
 26
0.0
 36
0.0
 17
0.0
 27
1.0
 37
0.0
 76
     0
330
9B31
  0
MATERIAL
  5
9DC1
102
{ACAD_XDICTIONARY
360
9DC2
102
}
102
{ACAD_REACTORS
330
9DB8
102
}
330
9DB8
100
AcDbMaterial
  1
ByBlock
 72
     0
 43
0.0208333333333333
 43
0.0
 43
0.0
 43
0.0
 43
0.0
 43
0.0208333333333333
 43
0.0
 43
0.0
 43
0.0
 43
0.0
 43
1.0
 43
0.0
 43
0.0
 43
0.0
 43
0.0
 43
1.0
 77
     0
 47
0.0208333333333333
 47
0.0
 47
0.0
 47
0.0
 47
0.0
 47
0.0208333333333333
 47
0.0
 47
0.0
 47
0.0
 47
0.0
 47
1.0
 47
0.0
 47
0.0
 47
0.0
 47
0.0
 47
1.0
171
     0
 49
0.0208333333333333
 49
0.0
 49
0.0
 49
0.0
 49
0.0
 49
0.0208333333333333
 49
0.0
 49
0.0
 49
0.0
 49
0.0
 49
1.0
 49
0.0
 49
0.0
 49
0.0
 49
0.0
 49
1.0
175
     0
142
0.0208333333333333
142
0.0
142
0.0
142
0.0
142
0.0
142
0.0208333333333333
142
0.0
142
0.0
142
0.0
142
0.0
142
1.0
142
0.0
142
0.0
142
0.0
142
0.0
142
1.0
179
     0
144
0.0208333333333333
144
0.0
144
0.0
144
0.0
144
0.0
144
0.0208333333333333
144
0.0
144
0.0
144
0.0
144
0.0
144
1.0
144
0.0
144
0.0
144
0.0
144
0.0
144
1.0
147
0.0208333333333333
147
0.0
147
0.0
147
0.0
147
0.0
147
0.0208333333333333
147
0.0
147
0.0
147
0.0
147
0.0
147
1.0
147
0.0
147
0.0
147
0.0
147
0.0
147
1.0
  0
MATERIAL
  5
9DB9
102
{ACAD_XDICTIONARY
360
9DBA
102
}
102
{ACAD_REACTORS
330
9DB8
102
}
330
9DB8
100
AcDbMaterial
  1
ByLayer
 72
     0
 43
0.0208333333333333
 43
0.0
 43
0.0
 43
0.0
 43
0.0
 43
0.0208333333333333
 43
0.0
 43
0.0
 43
0.0
 43
0.0
 43
1.0
 43
0.0
 43
0.0
 43
0.0
 43
0.0
 43
1.0
 77
     0
 47
0.0208333333333333
 47
0.0
 47
0.0
 47
0.0
 47
0.0
 47
0.0208333333333333
 47
0.0
 47
0.0
 47
0.0
 47
0.0
 47
1.0
 47
0.0
 47
0.0
 47
0.0
 47
0.0
 47
1.0
171
     0
 49
0.0208333333333333
 49
0.0
 49
0.0
 49
0.0
 49
0.0
 49
0.0208333333333333
 49
0.0
 49
0.0
 49
0.0
 49
0.0
 49
1.0
 49
0.0
 49
0.0
 49
0.0
 49
0.0
 49
1.0
175
     0
142
0.0208333333333333
142
0.0
142
0.0
142
0.0
142
0.0
142
0.0208333333333333
142
0.0
142
0.0
142
0.0
142
0.0
142
1.0
142
0.0
142
0.0
142
0.0
142
0.0
142
1.0
179
     0
144
0.0208333333333333
144
0.0
144
0.0
144
0.0
144
0.0
144
0.0208333333333333
144
0.0
144
0.0
144
0.0
144
0.0
144
1.0
144
0.0
144
0.0
144
0.0
144
0.0
144
1.0
147
0.0208333333333333
147
0.0
147
0.0
147
0.0
147
0.0
147
0.0208333333333333
147
0.0
147
0.0
147
0.0
147
0.0
147
1.0
147
0.0
147
0.0
147
0.0
147
0.0
147
1.0
  0
MATERIAL
  5
9DC9
102
{ACAD_XDICTIONARY
360
9DCA
102
}
102
{ACAD_REACTORS
330
9DB8
102
}
330
9DB8
100
AcDbMaterial
  1
Global
 72
     0
 43
0.0208333333333333
 43
0.0
 43
0.0
 43
0.0
 43
0.0
 43
0.0208333333333333
 43
0.0
 43
0.0
 43
0.0
 43
0.0
 43
1.0
 43
0.0
 43
0.0
 43
0.0
 43
0.0
 43
1.0
 77
     0
 47
0.0208333333333333
 47
0.0
 47
0.0
 47
0.0
 47
0.0
 47
0.0208333333333333
 47
0.0
 47
0.0
 47
0.0
 47
0.0
 47
1.0
 47
0.0
 47
0.0
 47
0.0
 47
0.0
 47
1.0
171
     0
 49
0.0208333333333333
 49
0.0
 49
0.0
 49
0.0
 49
0.0
 49
0.0208333333333333
 49
0.0
 49
0.0
 49
0.0
 49
0.0
 49
1.0
 49
0.0
 49
0.0
 49
0.0
 49
0.0
 49
1.0
175
     0
142
0.0208333333333333
142
0.0
142
0.0
142
0.0
142
0.0
142
0.0208333333333333
142
0.0
142
0.0
142
0.0
142
0.0
142
1.0
142
0.0
142
0.0
142
0.0
142
0.0
142
1.0
179
     0
144
0.0208333333333333
144
0.0
144
0.0
144
0.0
144
0.0
144
0.0208333333333333
144
0.0
144
0.0
144
0.0
144
0.0
144
1.0
144
0.0
144
0.0
144
0.0
144
0.0
144
1.0
147
0.0208333333333333
147
0.0
147
0.0
147
0.0
147
0.0
147
0.0208333333333333
147
0.0
147
0.0
147
0.0
147
0.0
147
1.0
147
0.0
147
0.0
147
0.0
147
0.0
147
1.0
  0
MLEADERSTYLE
  5
9E00
102
{ACAD_REACTORS
330
9DFF
102
}
330
9DFF
100
AcDbMLeaderStyle
170
     2
171
     1
172
     0
 90
        2
 40
0.0
 41
0.0
173
     1
 91
-1056964608
340
9B2A
 92
       -2
290
     1
 42
0.09
291
     1
 43
0.36
  3
Standard
 44
0.18
300

342
9B28
174
     1
178
     6
175
     1
176
     0
 93
-1056964608
 45
0.18
292
     0
297
     0
 46
0.18
 94
-1056964608
 47
1.0
 49
1.0
140
1.0
293
     1
141
0.0
294
     1
177
     0
142
1.0
295
     0
296
     0
143
0.125
1001
ACAD_MLEADERVER
1070
     2
  0
MLINESTYLE
  5
9B2E
102
{ACAD_REACTORS
330
9B2D
102
}
330
9B2D
100
AcDbMlineStyle
  2
STANDARD
 70
     0
  3

 62
   256
 51
90.0
 52
90.0
 71
     2
 49
0.5
 62
   256
  6
BYLAYER
 49
-0.5
 62
   256
  6
BYLAYER
  0
ACDBPLACEHOLDER
  5
9DB7
102
{ACAD_REACTORS
330
9DB6
102
}
330
9DB6
  0
SCALE
  5
9DEE
102
{ACAD_REACTORS
330
9DED
102
}
330
9DED
100
AcDbScale
 70
     0
300
1:1
140
1.0
141
1.0
290
     1
  0
SCALE
  5
9DEF
102
{ACAD_REACTORS
330
9DED
102
}
330
9DED
100
AcDbScale
 70
     0
300
1/128" = 1'-0"
140
0.0078125
141
12.0
290
     0
  0
SCALE
  5
9DF0
102
{ACAD_REACTORS
330
9DED
102
}
330
9DED
100
AcDbScale
 70
     0
300
1/64" = 1'-0"
140
0.015625
141
12.0
290
     0
  0
SCALE
  5
9DF1
102
{ACAD_REACTORS
330
9DED
102
}
330
9DED
100
AcDbScale
 70
     0
300
1/32" = 1'-0"
140
0.03125
141
12.0
290
     0
  0
SCALE
  5
9DF2
102
{ACAD_REACTORS
330
9DED
102
}
330
9DED
100
AcDbScale
 70
     0
300
1/16" = 1'-0"
140
0.0625
141
12.0
290
     0
  0
SCALE
  5
9DF3
102
{ACAD_REACTORS
330
9DED
102
}
330
9DED
100
AcDbScale
 70
     0
300
3/32" = 1'-0"
140
0.09375
141
12.0
290
     0
  0
SCALE
  5
9DF4
102
{ACAD_REACTORS
330
9DED
102
}
330
9DED
100
AcDbScale
 70
     0
300
1/8" = 1'-0"
140
0.125
141
12.0
290
     0
  0
SCALE
  5
9DF5
102
{ACAD_REACTORS
330
9DED
102
}
330
9DED
100
AcDbScale
 70
     0
300
3/16" = 1'-0"
140
0.1875
141
12.0
290
     0
  0
SCALE
  5
9DF6
102
{ACAD_REACTORS
330
9DED
102
}
330
9DED
100
AcDbScale
 70
     0
300
1/4" = 1'-0"
140
0.25
141
12.0
290
     0
  0
SCALE
  5
9DF7
102
{ACAD_REACTORS
330
9DED
102
}
330
9DED
100
AcDbScale
 70
     0
300
3/8" = 1'-0"
140
0.375
141
12.0
290
     0
  0
SCALE
  5
9DF8
102
{ACAD_REACTORS
330
9DED
102
}
330
9DED
100
AcDbScale
 70
     0
300
1/2" = 1'-0"
140
0.5
141
12.0
290
     0
  0
SCALE
  5
9DF9
102
{ACAD_REACTORS
330
9DED
102
}
330
9DED
100
AcDbScale
 70
     0
300
3/4" = 1'-0"
140
0.75
141
12.0
290
     0
  0
SCALE
  5
9DFA
102
{ACAD_REACTORS
330
9DED
102
}
330
9DED
100
AcDbScale
 70
     0
300
1" = 1'-0"
140
1.0
141
12.0
290
     0
  0
SCALE
  5
9DFB
102
{ACAD_REACTORS
330
9DED
102
}
330
9DED
100
AcDbScale
 70
     0
300
1-1/2" = 1'-0"
140
1.5
141
12.0
290
     0
  0
SCALE
  5
9DFC
102
{ACAD_REACTORS
330
9DED
102
}
330
9DED
100
AcDbScale
 70
     0
300
3" = 1'-0"
140
3.0
141
12.0
290
     0
  0
SCALE
  5
9DFD
102
{ACAD_REACTORS
330
9DED
102
}
330
9DED
100
AcDbScale
 70
     0
300
6" = 1'-0"
140
6.0
141
12.0
290
     0
  0
SCALE
  5
9DFE
102
{ACAD_REACTORS
330
9DED
102
}
330
9DED
100
AcDbScale
 70
     0
300
1'-0" = 1'-0"
140
12.0
141
12.0
290
     0
  0
ACDBSECTIONVIEWSTYLE
  5
9E02
102
{ACAD_XDICTIONARY
360
9E5D
102
}
102
{ACAD_REACTORS
330
9E01
102
}
330
9E01
100
AcDbModelDocViewStyle
 70
     0
  3
Imperial24
290
     0
100
AcDbSectionViewStyle
 70
     0
 71
     0
 90
       78
 71
     1
340
9B28
 40
0.24
340
0
340
0
 40
0.24
300
I, O, Q, S, X, Z
 40
0.48
 90
        3
 40
0.18
 90
        1
 71
     2
340
9B2C
 90
       25
340
9B2C
 90
       50
 40
0.24
 40
0.0
 40
0.24
 71
     3
340
9B28
 40
0.24
 90
        1
 40
0.75
 90
        1
300
%<\AcVar ViewType \f "%tc1">% %<\AcVar ViewSectionStartId>%-%<\AcVar ViewSectionEndId>%\PSCALE %<\AcVar ViewScale \f "%sn">%
 71
     4
300
ANSI31
 40
1.0
 90
        0
290
     0
290
     0
 90
        6
 40
0.0
 40
1.570796326794896
 40
0.2617993877991494
 40
1.308996938995747
 40
-0.2617993877991494
 40
1.832595714594046
  0
TABLESTYLE
  5
9DEC
102
{ACAD_XDICTIONARY
360
9E24
102
}
102
{ACAD_REACTORS
330
9DEB
102
}
330
9DEB
100
AcDbTableStyle
  3
Standard
 70
     0
 71
     0
 40
0.06
 41
0.06
280
     0
281
     0
  7
STANDARD
140
0.18
170
     2
 62
     0
 63
     7
283
     0
274
    -2
284
     1
 64
     0
275
    -2
285
     1
 65
     0
276
    -2
286
     1
 66
     0
277
    -2
287
     1
 67
     0
278
    -2
288
     1
 68
     0
279
    -2
289
     1
 69
     0
  7
STANDARD
140
0.25
170
     5
 62
     0
 63
     7
283
     0
274
    -2
284
     1
 64
     0
275
    -2
285
     1
 65
     0
276
    -2
286
     1
 66
     0
277
    -2
287
     1
 67
     0
278
    -2
288
     1
 68
     0
279
    -2
289
     1
 69
     0
  7
STANDARD
140
0.18
170
     5
 62
     0
 63
     7
283
     0
274
    -2
284
     1
 64
     0
275
    -2
285
     1
 65
     0
276
    -2
286
     1
 66
     0
277
    -2
287
     1
 67
     0
278
    -2
288
     1
 68
     0
279
    -2
289
     1
 69
     0
  0
VISUALSTYLE
  5
9DD7
102
{ACAD_XDICTIONARY
360
9E35
102
}
102
{ACAD_REACTORS
330
9DD1
102
}
330
9DD1
100
AcDbVisualStyle
  2
2dWireframe
 70
     4
 71
     0
 72
     2
 73
     0
 90
        0
 40
-0.6
 41
-30.0
 62
     5
 63
     7
 74
     1
 91
        4
 64
     7
 65
   257
 75
     1
175
     1
 42
1.0
 92
        0
 66
   257
 43
1.0
 76
     1
 77
     6
 78
     2
 67
     7
 79
     5
170
     0
171
     0
290
     0
174
     0
 93
        1
 44
0.0
173
     0
291
     0
 45
0.0
1001
ACAD
1000
AcDbSavedByObjectVersion
1070
     0
  0
VISUALSTYLE
  5
9DD6
102
{ACAD_XDICTIONARY
360
9E33
102
}
102
{ACAD_REACTORS
330
9DD1
102
}
330
9DD1
100
AcDbVisualStyle
  2
Basic
 70
     7
 71
     1
 72
     0
 73
     1
 90
        0
 40
-0.6
 41
-30.0
 62
     5
 63
     7
 74
     0
 91
        4
 64
     7
 65
   257
 75
     1
175
     1
 42
1.0
 92
        8
 66
     7
 43
1.0
 76
     1
 77
     6
 78
     2
 67
     7
 79
     5
170
     0
171
     0
290
     0
174
     0
 93
        1
 44
0.0
173
     0
291
     1
 45
0.0
1001
ACAD
1000
AcDbSavedByObjectVersion
1070
     0
  0
VISUALSTYLE
  5
9DDD
102
{ACAD_XDICTIONARY
360
9E41
102
}
102
{ACAD_REACTORS
330
9DD1
102
}
330
9DD1
100
AcDbVisualStyle
  2
Brighten
 70
    12
 71
     2
 72
     2
 73
     0
 90
        0
 40
-0.6
 41
-30.0
 62
     5
 63
     7
 74
     1
 91
        4
 64
     7
 65
   257
 75
     1
175
     1
 42
1.0
 92
        8
 66
     7
 43
1.0
 76
     1
 77
     6
 78
     2
 67
     7
 79
     5
170
     0
171
     0
290
     0
174
     0
 93
        1
 44
50.0
173
     0
291
     1
 45
0.0
1001
ACAD
1000
AcDbSavedByObjectVersion
1070
     0
  0
VISUALSTYLE
  5
9DE1
102
{ACAD_XDICTIONARY
360
9E49
102
}
102
{ACAD_REACTORS
330
9DD1
102
}
330
9DD1
100
AcDbVisualStyle
  2
ColorChange
 70
    16
 71
     2
 72
     2
 73
     3
 90
        0
 40
-0.6
 41
-30.0
 62
     5
 63
     8
 74
     1
 91
        4
 64
     7
 65
   257
 75
     1
175
     1
 42
1.0
 92
        8
 66
     8
 43
1.0
 76
     1
 77
     6
 78
     2
 67
     7
 79
     5
170
     0
171
     0
290
     0
174
     0
 93
        1
 44
0.0
173
     0
291
     1
 45
0.0
1001
ACAD
1000
AcDbSavedByObjectVersion
1070
     0
  0
VISUALSTYLE
  5
9DDA
102
{ACAD_XDICTIONARY
360
9E3B
102
}
102
{ACAD_REACTORS
330
9DD1
102
}
330
9DD1
100
AcDbVisualStyle
  2
Conceptual
 70
     9
 71
     3
 72
     2
 73
     0
 90
        0
 40
-0.6
 41
-30.0
 62
     5
 63
     7
 74
     2
 91
        2
 64
     7
 65
   257
 75
     1
175
     1
 42
179.0
 92
        8
 66
     7
 43
1.0
 76
     1
 77
     6
 78
     2
 67
     7
 79
     3
170
     0
171
     0
290
     0
174
     0
 93
        1
 44
0.0
173
     0
291
     0
 45
0.0
1001
ACAD
1000
AcDbSavedByObjectVersion
1070
     0
  0
VISUALSTYLE
  5
9DDC
102
{ACAD_XDICTIONARY
360
9E3F
102
}
102
{ACAD_REACTORS
330
9DD1
102
}
330
9DD1
100
AcDbVisualStyle
  2
Dim
 70
    11
 71
     2
 72
     2
 73
     0
 90
        0
 40
-0.6
 41
-30.0
 62
     5
 63
     7
 74
     1
 91
        4
 64
     7
 65
   257
 75
     1
175
     1
 42
1.0
 92
        8
 66
     7
 43
1.0
 76
     1
 77
     6
 78
     2
 67
     7
 79
     5
170
     0
171
     0
290
     0
174
     0
 93
        1
 44
-50.0
173
     0
291
     1
 45
0.0
1001
ACAD
1000
AcDbSavedByObjectVersion
1070
     0
  0
VISUALSTYLE
  5
9DE9
102
{ACAD_XDICTIONARY
360
9E59
102
}
102
{ACAD_REACTORS
330
9DD1
102
}
330
9DD1
100
AcDbVisualStyle
  2
EdgeColorOff
 70
    22
 71
     2
 72
     2
 73
     0
 90
        0
 40
-0.6
 41
-30.0
 62
     5
 63
     7
 74
     1
 91
        4
 64
     7
 65
   257
 75
     1
175
     1
 42
1.0
 92
        8
 66
     7
 43
1.0
 76
     1
 77
     6
 78
     2
 67
     7
 79
     5
170
     0
171
     0
290
     0
174
     0
 93
        1
 44
0.0
173
     0
291
     1
 45
0.0
1001
ACAD
1000
AcDbSavedByObjectVersion
1070
     0
  0
VISUALSTYLE
  5
9DE0
102
{ACAD_XDICTIONARY
360
9E47
102
}
102
{ACAD_REACTORS
330
9DD1
102
}
330
9DD1
100
AcDbVisualStyle
  2
Facepattern
 70
    15
 71
     2
 72
     2
 73
     0
 90
        0
 40
-0.6
 41
-30.0
 62
     5
 63
     7
 74
     1
 91
        4
 64
     7
 65
   257
 75
     1
175
     1
 42
1.0
 92
        8
 66
     7
 43
1.0
 76
     1
 77
     6
 78
     2
 67
     7
 79
     5
170
     0
171
     0
290
     0
174
     0
 93
        1
 44
0.0
173
     0
291
     1
 45
0.0
1001
ACAD
1000
AcDbSavedByObjectVersion
1070
     0
  0
VISUALSTYLE
  5
9DD2
102
{ACAD_XDICTIONARY
360
9E2B
102
}
102
{ACAD_REACTORS
330
9DD1
102
}
330
9DD1
100
AcDbVisualStyle
  2
Flat
 70
     0
 71
     2
 72
     1
 73
     1
 90
        2
 40
-0.6
 41
30.0
 62
     5
 63
     7
 74
     0
 91
        0
 64
     7
 65
   257
 75
     1
175
     1
 42
1.0
 92
        8
 66
     7
 43
1.0
 76
     1
 77
     6
 78
     2
 67
     7
 79
     5
170
     0
171
     0
290
     0
174
     0
 93
       13
 44
0.0
173
     0
291
     1
 45
0.0
1001
ACAD
1000
AcDbSavedByObjectVersion
1070
     0
  0
VISUALSTYLE
  5
9DD3
102
{ACAD_XDICTIONARY
360
9E2D
102
}
102
{ACAD_REACTORS
330
9DD1
102
}
330
9DD1
100
AcDbVisualStyle
  2
FlatWithEdges
 70
     1
 71
     2
 72
     1
 73
     1
 90
        2
 40
-0.6
 41
30.0
 62
     5
 63
     7
 74
     1
 91
        0
 64
     7
 65
   257
 75
     1
175
     1
 42
1.0
 92
        0
 66
   257
 43
1.0
 76
     1
 77
     6
 78
     2
 67
     7
 79
     5
170
     0
171
     0
290
     0
174
     0
 93
       13
 44
0.0
173
     0
291
     1
 45
0.0
1001
ACAD
1000
AcDbSavedByObjectVersion
1070
     0
  0
VISUALSTYLE
  5
9DD4
102
{ACAD_XDICTIONARY
360
9E2F
102
}
102
{ACAD_REACTORS
330
9DD1
102
}
330
9DD1
100
AcDbVisualStyle
  2
Gouraud
 70
     2
 71
     2
 72
     2
 73
     1
 90
        2
 40
-0.6
 41
30.0
 62
     5
 63
     7
 74
     0
 91
        0
 64
     7
 65
   257
 75
     1
175
     1
 42
1.0
 92
        0
 66
     7
 43
1.0
 76
     1
 77
     6
 78
     2
 67
     7
 79
     5
170
     0
171
     0
290
     0
174
     0
 93
       13
 44
0.0
173
     0
291
     1
 45
0.0
1001
ACAD
1000
AcDbSavedByObjectVersion
1070
     0
  0
VISUALSTYLE
  5
9DD5
102
{ACAD_XDICTIONARY
360
9E31
102
}
102
{ACAD_REACTORS
330
9DD1
102
}
330
9DD1
100
AcDbVisualStyle
  2
GouraudWithEdges
 70
     3
 71
     2
 72
     2
 73
     1
 90
        2
 40
-0.6
 41
30.0
 62
     5
 63
     7
 74
     1
 91
        0
 64
     7
 65
   257
 75
     1
175
     1
 42
1.0
 92
        0
 66
   257
 43
1.0
 76
     1
 77
     6
 78
     2
 67
     7
 79
     5
170
     0
171
     0
290
     0
174
     0
 93
       13
 44
0.0
173
     0
291
     1
 45
0.0
1001
ACAD
1000
AcDbSavedByObjectVersion
1070
     0
  0
VISUALSTYLE
  5
9DD9
102
{ACAD_XDICTIONARY
360
9E39
102
}
102
{ACAD_REACTORS
330
9DD1
102
}
330
9DD1
100
AcDbVisualStyle
  2
Hidden
 70
     6
 71
     1
 72
     2
 73
     2
 90
        0
 40
-0.6
 41
-30.0
 62
     5
 63
     7
 74
     2
 91
        2
 64
     7
 65
   257
 75
     2
175
     1
 42
40.0
 92
        0
 66
   257
 43
1.0
 76
     1
 77
     6
 78
     2
 67
     7
 79
     3
170
     0
171
     0
290
     0
174
     0
 93
        1
 44
0.0
173
     0
291
     0
 45
0.0
1001
ACAD
1000
AcDbSavedByObjectVersion
1070
     0
  0
VISUALSTYLE
  5
9DE7
102
{ACAD_XDICTIONARY
360
9E55
102
}
102
{ACAD_REACTORS
330
9DD1
102
}
330
9DD1
100
AcDbVisualStyle
  2
JitterOff
 70
    20
 71
     2
 72
     2
 73
     0
 90
        0
 40
-0.6
 41
-30.0
 62
     5
 63
     7
 74
     1
 91
        4
 64
     7
 65
   257
 75
     1
175
     1
 42
1.0
 92
       10
 66
     7
 43
1.0
 76
     1
 77
     6
 78
     2
 67
     7
 79
     5
170
     0
171
     0
290
     0
174
     0
 93
        1
 44
0.0
173
     0
291
     1
 45
0.0
1001
ACAD
1000
AcDbSavedByObjectVersion
1070
     0
  0
VISUALSTYLE
  5
9DDF
102
{ACAD_XDICTIONARY
360
9E45
102
}
102
{ACAD_REACTORS
330
9DD1
102
}
330
9DD1
100
AcDbVisualStyle
  2
Linepattern
 70
    14
 71
     2
 72
     2
 73
     0
 90
        0
 40
-0.6
 41
-30.0
 62
     5
 63
     7
 74
     1
 91
        4
 64
     7
 65
   257
 75
     7
175
     7
 42
1.0
 92
        8
 66
     7
 43
1.0
 76
     1
 77
     6
 78
     2
 67
     7
 79
     5
170
     0
171
     0
290
     0
174
     0
 93
        1
 44
0.0
173
     0
291
     1
 45
0.0
1001
ACAD
1000
AcDbSavedByObjectVersion
1070
     0
  0
VISUALSTYLE
  5
9DE8
102
{ACAD_XDICTIONARY
360
9E57
102
}
102
{ACAD_REACTORS
330
9DD1
102
}
330
9DD1
100
AcDbVisualStyle
  2
OverhangOff
 70
    21
 71
     2
 72
     2
 73
     0
 90
        0
 40
-0.6
 41
-30.0
 62
     5
 63
     7
 74
     1
 91
        4
 64
     7
 65
   257
 75
     1
175
     1
 42
1.0
 92
        9
 66
     7
 43
1.0
 76
     1
 77
     6
 78
     2
 67
     7
 79
     5
170
     0
171
     0
290
     0
174
     0
 93
        1
 44
0.0
173
     0
291
     1
 45
0.0
1001
ACAD
1000
AcDbSavedByObjectVersion
1070
     0
  0
VISUALSTYLE
  5
9DDB
102
{ACAD_XDICTIONARY
360
9E3D
102
}
102
{ACAD_REACTORS
330
9DD1
102
}
330
9DD1
100
AcDbVisualStyle
  2
Realistic
 70
     8
 71
     2
 72
     3
 73
     0
 90
        2
 40
-0.6
 41
30.0
 62
     5
 63
     7
 74
     0
 91
        0
 64
     7
 65
   257
 75
     1
175
     1
 42
1.0
 92
        8
 66
   257
 43
1.0
 76
     1
 77
     6
 78
     2
 67
     7
 79
     3
170
     0
171
     0
290
     0
174
     0
 93
       13
 44
0.0
173
     0
291
     0
 45
0.0
1001
ACAD
1000
AcDbSavedByObjectVersion
1070
     0
  0
VISUALSTYLE
  5
9DE6
102
{ACAD_XDICTIONARY
360
9E53
102
}
102
{ACAD_REACTORS
330
9DD1
102
}
330
9DD1
100
AcDbVisualStyle
  2
Shaded
 70
    27
 71
     2
 72
     2
 73
     1
 90
        2
 40
-0.6
 41
30.0
 62
     5
 63
     7
 74
     0
 91
        4
 64
     7
 65
   257
 75
     1
175
     1
 42
1.0
 92
        8
 66
   257
 43
1.0
 76
     1
 77
     6
 78
     2
 67
     8
 79
     3
170
     0
171
     0
290
     0
174
     0
 93
        5
 44
0.0
173
     0
291
     0
 45
0.0
1001
ACAD
1000
AcDbSavedByObjectVersion
1070
     0
  0
VISUALSTYLE
  5
9DE5
102
{ACAD_XDICTIONARY
360
9E51
102
}
102
{ACAD_REACTORS
330
9DD1
102
}
330
9DD1
100
AcDbVisualStyle
  2
Shaded with edges
 70
    26
 71
     2
 72
     2
 73
     1
 90
        2
 40
-0.6
 41
30.0
 62
     5
 63
     7
 74
     1
 91
       10
 64
     7
 65
   257
 75
     2
175
     1
 42
1.0
 92
        8
 66
   257
 43
1.0
 76
     1
 77
     6
 78
     2
 67
     7
 79
     3
170
     0
171
     0
290
     0
174
     0
 93
        5
 44
0.0
173
     0
291
     0
 45
0.0
1001
ACAD
1000
AcDbSavedByObjectVersion
1070
     0
  0
VISUALSTYLE
  5
9DE2
102
{ACAD_XDICTIONARY
360
9E4B
102
}
102
{ACAD_REACTORS
330
9DD1
102
}
330
9DD1
100
AcDbVisualStyle
  2
Shades of Gray
 70
    23
 71
     2
 72
     2
 73
     3
 90
        0
 40
-0.6
 41
-30.0
 62
     5
 63
     7
 74
     2
 91
        2
 64
     7
 65
     7
 75
     1
175
     1
 42
40.0
 92
        8
 66
     7
 43
1.0
 76
     1
 77
     6
 78
     2
 67
     7
 79
     3
170
     0
171
     0
290
     0
174
     0
 93
        1
 44
0.0
173
     0
291
     0
 45
0.0
1001
ACAD
1000
AcDbSavedByObjectVersion
1070
     0
  0
VISUALSTYLE
  5
9DE3
102
{ACAD_XDICTIONARY
360
9E4D
102
}
102
{ACAD_REACTORS
330
9DD1
102
}
330
9DD1
100
AcDbVisualStyle
  2
Sketchy
 70
    24
 71
     1
 72
     2
 73
     2
 90
        0
 40
-0.6
 41
-30.0
 62
     5
 63
     7
 74
     2
 91
        2
 64
     7
 65
     7
 75
     1
175
     1
 42
40.0
 92
       11
 66
     7
 43
1.0
 76
     1
 77
     6
 78
     2
 67
     7
 79
     6
170
     0
171
     0
290
     0
174
     0
 93
        1
 44
0.0
173
     0
291
     0
 45
0.0
1001
ACAD
1000
AcDbSavedByObjectVersion
1070
     0
  0
VISUALSTYLE
  5
9DDE
102
{ACAD_XDICTIONARY
360
9E43
102
}
102
{ACAD_REACTORS
330
9DD1
102
}
330
9DD1
100
AcDbVisualStyle
  2
Thicken
 70
    13
 71
     2
 72
     2
 73
     0
 90
        0
 40
-0.6
 41
-30.0
 62
     5
 63
     7
 74
     1
 91
        4
 64
     7
 65
   257
 75
     1
175
     1
 42
1.0
 92
       12
 66
     7
 43
1.0
 76
     1
 77
     6
 78
     2
 67
     7
 79
     5
170
     0
171
     0
290
     0
174
     0
 93
        1
 44
0.0
173
     0
291
     1
 45
0.0
1001
ACAD
1000
AcDbSavedByObjectVersion
1070
     0
  0
VISUALSTYLE
  5
9DD8
102
{ACAD_XDICTIONARY
360
9E37
102
}
102
{ACAD_REACTORS
330
9DD1
102
}
330
9DD1
100
AcDbVisualStyle
  2
Wireframe
 70
     5
 71
     0
 72
     2
 73
     0
 90
        0
 40
-0.6
 41
-30.0
 62
     5
 63
     7
 74
     1
 91
        4
 64
     7
 65
   257
 75
     1
175
     1
 42
1.0
 92
        0
 66
   257
 43
1.0
 76
     1
 77
     6
 78
     2
 67
     7
 79
     3
170
     0
171
     0
290
     0
174
     0
 93
        1
 44
0.0
173
     0
291
     0
 45
0.0
1001
ACAD
1000
AcDbSavedByObjectVersion
1070
     0
  0
VISUALSTYLE
  5
9DE4
102
{ACAD_XDICTIONARY
360
9E4F
102
}
102
{ACAD_REACTORS
330
9DD1
102
}
330
9DD1
100
AcDbVisualStyle
  2
X-Ray
 70
    25
 71
     2
 72
     2
 73
     1
 90
        1
 40
0.5
 41
-30.0
 62
     5
 63
     7
 74
     1
 91
        0
 64
     7
 65
   257
 75
     1
175
     1
 42
1.0
 92
        8
 66
     7
 43
1.0
 76
     1
 77
     6
 78
     2
 67
     7
 79
     3
170
     0
171
     0
290
     0
174
     0
 93
       13
 44
0.0
173
     0
291
     0
 45
0.0
1001
ACAD
1000
AcDbSavedByObjectVersion
1070
     0
  0
DICTIONARYVAR
  5
9E1E
102
{ACAD_REACTORS
330
9E19
102
}
330
9E19
100
DictionaryVariables
280
     0
  1
1:1
  0
DICTIONARYVAR
  5
9E1B
102
{ACAD_REACTORS
330
9E19
102
}
330
9E19
100
DictionaryVariables
280
     0
  1
STANDARD
  0
DICTIONARYVAR
  5
9E1A
102
{ACAD_REACTORS
330
9E19
102
}
330
9E19
100
DictionaryVariables
280
     0
  1
STANDARD
  0
DICTIONARYVAR
  5
9E1C
102
{ACAD_REACTORS
330
9E19
102
}
330
9E19
100
DictionaryVariables
280
     0
  1
Imperial24
  0
DICTIONARYVAR
  5
9E1D
102
{ACAD_REACTORS
330
9E19
102
}
330
9E19
100
DictionaryVariables
280
     0
  1
Imperial24
  0
DICTIONARYVAR
  5
9E21
102
{ACAD_REACTORS
330
9E19
102
}
330
9E19
100
DictionaryVariables
280
     0
  1
1
  0
DICTIONARYVAR
  5
9E20
102
{ACAD_REACTORS
330
9E19
102
}
330
9E19
100
DictionaryVariables
280
     0
  1
0
  0
DICTIONARYVAR
  5
9E1F
102
{ACAD_REACTORS
330
9E19
102
}
330
9E19
100
DictionaryVariables
280
     0
  1
127
  0
DICTIONARYVAR
  5
9E22
102
{ACAD_REACTORS
330
9E19
102
}
330
9E19
100
DictionaryVariables
280
     0
  1
2
  0
DICTIONARY
  5
9E5F
330
9E04
100
AcDbDictionary
280
     1
281
     1
  3
ACAD_XREC_ROUNDTRIP
360
9E60
  0
DICTIONARY
  5
9E61
330
9E05
100
AcDbDictionary
280
     1
281
     1
  3
ACAD_XREC_ROUNDTRIP
360
9E62
  0
DICTIONARY
  5
9E63
330
9E06
100
AcDbDictionary
280
     1
281
     1
  3
ACAD_XREC_ROUNDTRIP
360
9E64
  0
DICTIONARY
  5
9DC2
330
9DC1
100
AcDbDictionary
280
     1
281
     1
  3
ACAD_XREC_ROUNDTRIP
360
9E29
  3
BUMPTILE
360
9DC4
  3
DIFFUSETILE
360
9DC3
  3
OPACITYTILE
360
9DC7
  3
REFLECTIONTILE
360
9DC6
  3
REFRACTIONTILE
360
9DC8
  3
SPECULARTILE
360
9DC5
  0
DICTIONARY
  5
9DBA
330
9DB9
100
AcDbDictionary
280
     1
281
     1
  3
ACAD_XREC_ROUNDTRIP
360
9E28
  3
BUMPTILE
360
9DBC
  3
DIFFUSETILE
360
9DBB
  3
OPACITYTILE
360
9DBF
  3
REFLECTIONTILE
360
9DBE
  3
REFRACTIONTILE
360
9DC0
  3
SPECULARTILE
360
9DBD
  0
DICTIONARY
  5
9DCA
330
9DC9
100
AcDbDictionary
280
     1
281
     1
  3
ACAD_XREC_ROUNDTRIP
360
9E2A
  3
BUMPTILE
360
9DCC
  3
DIFFUSETILE
360
9DCB
  3
OPACITYTILE
360
9DCF
  3
REFLECTIONTILE
360
9DCE
  3
REFRACTIONTILE
360
9DD0
  3
SPECULARTILE
360
9DCD
  0
DICTIONARY
  5
9E5D
330
9E02
100
AcDbDictionary
280
     1
281
     1
  3
ACAD_XREC_ROUNDTRIP
360
9E5E
  0
DICTIONARY
  5
9E24
330
9DEC
100
AcDbDictionary
280
     1
281
     1
  3
ACAD_ROUNDTRIP_2008_TABLESTYLE_CELLSTYLEMAP
360
9E25
  3
ACAD_XREC_ROUNDTRIP
360
9E5B
  0
DICTIONARY
  5
9E35
330
9DD7
100
AcDbDictionary
280
     1
281
     1
  3
ACAD_XREC_ROUNDTRIP
360
9E36
  0
DICTIONARY
  5
9E33
330
9DD6
100
AcDbDictionary
280
     1
281
     1
  3
ACAD_XREC_ROUNDTRIP
360
9E34
  0
DICTIONARY
  5
9E41
330
9DDD
100
AcDbDictionary
280
     1
281
     1
  3
ACAD_XREC_ROUNDTRIP
360
9E42
  0
DICTIONARY
  5
9E49
330
9DE1
100
AcDbDictionary
280
     1
281
     1
  3
ACAD_XREC_ROUNDTRIP
360
9E4A
  0
DICTIONARY
  5
9E3B
330
9DDA
100
AcDbDictionary
280
     1
281
     1
  3
ACAD_XREC_ROUNDTRIP
360
9E3C
  0
DICTIONARY
  5
9E3F
330
9DDC
100
AcDbDictionary
280
     1
281
     1
  3
ACAD_XREC_ROUNDTRIP
360
9E40
  0
DICTIONARY
  5
9E59
330
9DE9
100
AcDbDictionary
280
     1
281
     1
  3
ACAD_XREC_ROUNDTRIP
360
9E5A
  0
DICTIONARY
  5
9E47
330
9DE0
100
AcDbDictionary
280
     1
281
     1
  3
ACAD_XREC_ROUNDTRIP
360
9E48
  0
DICTIONARY
  5
9E2B
330
9DD2
100
AcDbDictionary
280
     1
281
     1
  3
ACAD_XREC_ROUNDTRIP
360
9E2C
  0
DICTIONARY
  5
9E2D
330
9DD3
100
AcDbDictionary
280
     1
281
     1
  3
ACAD_XREC_ROUNDTRIP
360
9E2E
  0
DICTIONARY
  5
9E2F
330
9DD4
100
AcDbDictionary
280
     1
281
     1
  3
ACAD_XREC_ROUNDTRIP
360
9E30
  0
DICTIONARY
  5
9E31
330
9DD5
100
AcDbDictionary
280
     1
281
     1
  3
ACAD_XREC_ROUNDTRIP
360
9E32
  0
DICTIONARY
  5
9E39
330
9DD9
100
AcDbDictionary
280
     1
281
     1
  3
ACAD_XREC_ROUNDTRIP
360
9E3A
  0
DICTIONARY
  5
9E55
330
9DE7
100
AcDbDictionary
280
     1
281
     1
  3
ACAD_XREC_ROUNDTRIP
360
9E56
  0
DICTIONARY
  5
9E45
330
9DDF
100
AcDbDictionary
280
     1
281
     1
  3
ACAD_XREC_ROUNDTRIP
360
9E46
  0
DICTIONARY
  5
9E57
330
9DE8
100
AcDbDictionary
280
     1
281
     1
  3
ACAD_XREC_ROUNDTRIP
360
9E58
  0
DICTIONARY
  5
9E3D
330
9DDB
100
AcDbDictionary
280
     1
281
     1
  3
ACAD_XREC_ROUNDTRIP
360
9E3E
  0
DICTIONARY
  5
9E53
330
9DE6
100
AcDbDictionary
280
     1
281
     1
  3
ACAD_XREC_ROUNDTRIP
360
9E54
  0
DICTIONARY
  5
9E51
330
9DE5
100
AcDbDictionary
280
     1
281
     1
  3
ACAD_XREC_ROUNDTRIP
360
9E52
  0
DICTIONARY
  5
9E4B
330
9DE2
100
AcDbDictionary
280
     1
281
     1
  3
ACAD_XREC_ROUNDTRIP
360
9E4C
  0
DICTIONARY
  5
9E4D
330
9DE3
100
AcDbDictionary
280
     1
281
     1
  3
ACAD_XREC_ROUNDTRIP
360
9E4E
  0
DICTIONARY
  5
9E43
330
9DDE
100
AcDbDictionary
280
     1
281
     1
  3
ACAD_XREC_ROUNDTRIP
360
9E44
  0
DICTIONARY
  5
9E37
330
9DD8
100
AcDbDictionary
280
     1
281
     1
  3
ACAD_XREC_ROUNDTRIP
360
9E38
  0
DICTIONARY
  5
9E4F
330
9DE4
100
AcDbDictionary
280
     1
281
     1
  3
ACAD_XREC_ROUNDTRIP
360
9E50
  0
XRECORD
  5
9E60
102
{ACAD_REACTORS
330
9E5F
102
}
330
9E5F
100
AcDbXrecord
280
     1
102
DISPLAYNAME
  1
Imperial24
102
FLAGS
 90
        0
  0
XRECORD
  5
9E62
102
{ACAD_REACTORS
330
9E61
102
}
330
9E61
100
AcDbXrecord
280
     1
102
SHADEPLOT
 70
     0
102
SHADEPLOTRESLEVEL
 70
     2
102
SHADEPLOTCUSTOMDPI
 70
   300
  0
XRECORD
  5
9E64
102
{ACAD_REACTORS
330
9E63
102
}
330
9E63
100
AcDbXrecord
280
     1
102
SHADEPLOT
 70
     0
102
SHADEPLOTRESLEVEL
 70
     2
102
SHADEPLOTCUSTOMDPI
 70
   300
  0
XRECORD
  5
9E29
102
{ACAD_REACTORS
330
9DC2
102
}
330
9DC2
100
AcDbXrecord
280
     1
102
MATERIAL
148
0.0
149
0.0
149
0.0
 93
        0
 94
      127
282
     0
 72
     0
 77
     0
171
     0
175
     0
179
     0
273
     0
  0
XRECORD
  5
9DC4
102
{ACAD_REACTORS
330
9DC2
102
}
330
9DC2
100
AcDbXrecord
280
     1
270
     1
271
     1
  0
XRECORD
  5
9DC3
102
{ACAD_REACTORS
330
9DC2
102
}
330
9DC2
100
AcDbXrecord
280
     1
270
     1
271
     1
  0
XRECORD
  5
9DC7
102
{ACAD_REACTORS
330
9DC2
102
}
330
9DC2
100
AcDbXrecord
280
     1
270
     1
271
     1
  0
XRECORD
  5
9DC6
102
{ACAD_REACTORS
330
9DC2
102
}
330
9DC2
100
AcDbXrecord
280
     1
270
     1
271
     1
  0
XRECORD
  5
9DC8
102
{ACAD_REACTORS
330
9DC2
102
}
330
9DC2
100
AcDbXrecord
280
     1
270
     1
271
     1
  0
XRECORD
  5
9DC5
102
{ACAD_REACTORS
330
9DC2
102
}
330
9DC2
100
AcDbXrecord
280
     1
270
     1
271
     1
  0
XRECORD
  5
9E28
102
{ACAD_REACTORS
330
9DBA
102
}
330
9DBA
100
AcDbXrecord
280
     1
102
MATERIAL
148
0.0
149
0.0
149
0.0
 93
        0
 94
      127
282
     0
 72
     0
 77
     0
171
     0
175
     0
179
     0
273
     0
  0
XRECORD
  5
9DBC
102
{ACAD_REACTORS
330
9DBA
102
}
330
9DBA
100
AcDbXrecord
280
     1
270
     1
271
     1
  0
XRECORD
  5
9DBB
102
{ACAD_REACTORS
330
9DBA
102
}
330
9DBA
100
AcDbXrecord
280
     1
270
     1
271
     1
  0
XRECORD
  5
9DBF
102
{ACAD_REACTORS
330
9DBA
102
}
330
9DBA
100
AcDbXrecord
280
     1
270
     1
271
     1
  0
XRECORD
  5
9DBE
102
{ACAD_REACTORS
330
9DBA
102
}
330
9DBA
100
AcDbXrecord
280
     1
270
     1
271
     1
  0
XRECORD
  5
9DC0
102
{ACAD_REACTORS
330
9DBA
102
}
330
9DBA
100
AcDbXrecord
280
     1
270
     1
271
     1
  0
XRECORD
  5
9DBD
102
{ACAD_REACTORS
330
9DBA
102
}
330
9DBA
100
AcDbXrecord
280
     1
270
     1
271
     1
  0
XRECORD
  5
9E2A
102
{ACAD_REACTORS
330
9DCA
102
}
330
9DCA
100
AcDbXrecord
280
     1
102
MATERIAL
148
0.0
149
0.0
149
0.0
 93
        0
 94
      127
282
     0
 72
     0
 77
     0
171
     0
175
     0
179
     0
273
     0
  0
XRECORD
  5
9DCC
102
{ACAD_REACTORS
330
9DCA
102
}
330
9DCA
100
AcDbXrecord
280
     1
270
     1
271
     1
  0
XRECORD
  5
9DCB
102
{ACAD_REACTORS
330
9DCA
102
}
330
9DCA
100
AcDbXrecord
280
     1
270
     1
271
     1
  0
XRECORD
  5
9DCF
102
{ACAD_REACTORS
330
9DCA
102
}
330
9DCA
100
AcDbXrecord
280
     1
270
     1
271
     1
  0
XRECORD
  5
9DCE
102
{ACAD_REACTORS
330
9DCA
102
}
330
9DCA
100
AcDbXrecord
280
     1
270
     1
271
     1
  0
XRECORD
  5
9DD0
102
{ACAD_REACTORS
330
9DCA
102
}
330
9DCA
100
AcDbXrecord
280
     1
270
     1
271
     1
  0
XRECORD
  5
9DCD
102
{ACAD_REACTORS
330
9DCA
102
}
330
9DCA
100
AcDbXrecord
280
     1
270
     1
271
     1
  0
XRECORD
  5
9E5E
102
{ACAD_REACTORS
330
9E5D
102
}
330
9E5D
100
AcDbXrecord
280
     1
102
DISPLAYNAME
  1
Imperial24
102
FLAGS
 90
        0
  0
CELLSTYLEMAP
  5
9E25
102
{ACAD_REACTORS
330
9E24
102
}
330
9E24
100
AcDbCellStyleMap
 90
        3
300
CELLSTYLE
  1
TABLEFORMAT_BEGIN
 90
        5
170
     1
 91
        0
 92
    32768
 62
   257
 93
        1
300
CONTENTFORMAT
  1
CONTENTFORMAT_BEGIN
 90
        0
 91
        0
 92
      512
 93
        0
300

 40
0.0
140
1.0
 94
        5
 62
     0
340
9B28
144
0.25
309
CONTENTFORMAT_END
171
     0
 94
        0
309
TABLEFORMAT_END
  1
CELLSTYLE_BEGIN
 90
        1
 91
        1
300
_TITLE
309
CELLSTYLE_END
300
CELLSTYLE
  1
TABLEFORMAT_BEGIN
 90
        5
170
     1
 91
        0
 92
        0
 62
   257
 93
        1
300
CONTENTFORMAT
  1
CONTENTFORMAT_BEGIN
 90
        0
 91
        0
 92
      512
 93
        0
300

 40
0.0
140
1.0
 94
        5
 62
     0
340
9B28
144
0.18
309
CONTENTFORMAT_END
171
     0
 94
        0
309
TABLEFORMAT_END
  1
CELLSTYLE_BEGIN
 90
        2
 91
        1
300
_HEADER
309
CELLSTYLE_END
300
CELLSTYLE
  1
TABLEFORMAT_BEGIN
 90
        5
170
     1
 91
        0
 92
        0
 62
   257
 93
        1
300
CONTENTFORMAT
  1
CONTENTFORMAT_BEGIN
 90
        0
 91
        0
 92
      512
 93
        0
300

 40
0.0
140
1.0
 94
        2
 62
     0
340
9B28
144
0.18
309
CONTENTFORMAT_END
171
     0
 94
        0
309
TABLEFORMAT_END
  1
CELLSTYLE_BEGIN
 90
        3
 91
        2
300
_DATA
309
CELLSTYLE_END
  0
XRECORD
  5
9E5B
102
{ACAD_REACTORS
330
9E24
102
}
330
9E24
100
AcDbXrecord
280
     1
102
ACAD_ROUNDTRIP_PRE2007_TABLESTYLE
 90
      512
 91
        0
  1

 92
      512
 93
        0
  2

 94
      512
 95
        0
  3

  0
XRECORD
  5
9E36
102
{ACAD_REACTORS
330
9E35
102
}
330
9E35
100
AcDbXrecord
280
     1
102
RTVSPost2010Prop28
280
     1
102
RTVSPost2010PropOp28
 70
     1
102
RTVSPost2010Prop29
280
     1
102
RTVSPost2010PropOp29
 70
     1
102
RTVSPost2010Prop30
280
     0
102
RTVSPost2010PropOp30
 70
     1
102
RTVSPost2010Prop31
280
     0
102
RTVSPost2010PropOp31
 70
     1
102
RTVSPost2010Prop32
280
     0
102
RTVSPost2010PropOp32
 70
     1
102
RTVSPost2010Prop33
280
     0
102
RTVSPost2010PropOp33
 70
     1
102
RTVSPost2010Prop34
280
     0
102
RTVSPost2010PropOp34
 70
     1
102
RTVSPost2010Prop35
280
     0
102
RTVSPost2010PropOp35
 70
     1
102
RTVSPost2010Prop36
280
     0
102
RTVSPost2010PropOp36
 70
     1
102
RTVSPost2010Prop37
 90
       50
102
RTVSPost2010PropOp37
 70
     1
102
RTVSPost2010Prop38
140
0.0
102
RTVSPost2010PropOp38
 70
     1
102
RTVSPost2010Prop39
140
1.0
102
RTVSPost2010PropOp39
 70
     1
102
RTVSPost2010Prop40
 90
        0
102
RTVSPost2010PropOp40
 70
     1
102
RTVSPost2010Prop41ColorIndex
 90
       18
102
RTVSPost2010Prop41ColorRGB
 90
        0
102
RTVSPost2010PropOp41
 70
     1
102
RTVSPost2010Prop42
 90
       50
102
RTVSPost2010PropOp42
 70
     1
102
RTVSPost2010Prop43
 90
        3
102
RTVSPost2010PropOp43
 70
     1
102
RTVSPost2010Prop44ColorIndex
 90
        5
102
RTVSPost2010Prop44ColorRGB
 90
      255
102
RTVSPost2010PropOp44
 70
     1
102
RTVSPost2010Prop45
280
     0
102
RTVSPost2010PropOp45
 70
     1
102
RTVSPost2010Prop46
 90
       50
102
RTVSPost2010PropOp46
 70
     1
102
RTVSPost2010Prop47
 90
       50
102
RTVSPost2010PropOp47
 70
     1
102
RTVSPost2010Prop48
 90
       50
102
RTVSPost2010PropOp48
 70
     1
102
RTVSPost2010Prop49
280
     0
102
RTVSPost2010PropOp49
 70
     1
102
RTVSPost2010Prop50
 90
       50
102
RTVSPost2010PropOp50
 70
     1
102
RTVSPost2010Prop51ColorIndex
 90
      256
102
RTVSPost2010Prop51ColorRGB
 90
-16777216
102
RTVSPost2010PropOp51
 70
     0
102
RTVSPost2010Prop52
140
1.0
102
RTVSPost2010PropOp52
 70
     0
102
RTVSPost2010Prop53
 90
        2
102
RTVSPost2010PropOp53
 70
     1
102
RTVSPost2010Prop54
  1
strokes_ogs.tif
102
RTVSPost2010PropOp54
 70
     1
102
RTVSPost2010Prop55
280
     0
102
RTVSPost2010PropOp55
 70
     1
102
RTVSPost2010Prop56
140
1.0
102
RTVSPost2010PropOp56
 70
     1
102
RTVSPost2010Prop57
140
1.0
102
RTVSPost2010PropOp57
 70
     1
102
RTVSPropertyOp0
 70
     1
102
RTVSPropertyOp1
 70
     1
102
RTVSPropertyOp2
 70
     1
102
RTVSPropertyOp3
 70
     1
102
RTVSPropertyOp4
 70
     1
102
RTVSPropertyOp5
 70
     1
102
RTVSPropertyOp6
 70
     1
102
RTVSPropertyOp7
 70
     1
102
RTVSPropertyOp8
 70
     1
102
RTVSPropertyOp9
 70
     1
102
RTVSPropertyOp10
 70
     1
102
RTVSPropertyOp11
 70
     1
102
RTVSPropertyOp12
 70
     1
102
RTVSPropertyOp13
 70
     1
102
RTVSPropertyOp14
 70
     1
102
RTVSPropertyOp15
 70
     1
102
RTVSPropertyOp16
 70
     1
102
RTVSPropertyOp17
 70
     1
102
RTVSPropertyOp18
 70
     1
102
RTVSPropertyOp19
 70
     1
102
RTVSPropertyOp20
 70
     1
102
RTVSPropertyOp21
 70
     1
102
RTVSPropertyOp22
 70
     1
102
RTVSPropertyOp23
 70
     1
102
RTVSPropertyOp24
 70
     1
102
RTVSPropertyOp25
 70
     1
102
RTVSPropertyOp26
 70
     1
102
RTVSPropertyOp27
 70
     1
102
RTVSPropertyOp28
 70
     1
102
RTVSPropertyOp29
 70
     1
102
RTVSPropertyOp30
 70
     1
102
RTVSPropertyOp31
 70
     1
102
RTVSPropertyOp32
 70
     1
102
RTVSPropertyOp33
 70
     1
102
RTVSPropertyOp34
 70
     1
102
RTVSPropertyOp35
 70
     1
102
RTVSPropertyOp36
 70
     1
102
RTVSPropertyOp37
 70
     1
102
RTVSPropertyOp38
 70
     1
102
RTVSPropertyOp39
 70
     1
102
RTVSPropertyOp40
 70
     1
102
RTVSPropertyOp41
 70
     1
102
RTVSPropertyOp42
 70
     1
102
RTVSPropertyOp43
 70
     1
102
RTVSPropertyOp44
 70
     1
102
RTVSPropertyOp45
 70
     1
102
RTVSPropertyOp46
 70
     1
102
RTVSPropertyOp47
 70
     1
102
RTVSPropertyOp48
 70
     1
102
RTVSPropertyOp49
 70
     1
102
RTVSPropertyOp50
 70
     1
102
RTVSPropertyOp51
 70
     0
102
RTVSPropertyOp52
 70
     0
102
RTVSPropertyOp53
 70
     1
102
RTVSPropertyOp54
 70
     1
102
RTVSPropertyOp55
 70
     1
102
RTVSPropertyOp56
 70
     1
102
RTVSPropertyOp57
 70
     1
102
RTVSPropertyOp58
 70
     1
102
RTVSPropertyOp59
 70
     1
102
RTVSPropertyOp60
 70
     1
102
RTVSPropertyOp61
 70
     1
102
RTVSPropertyOp62
 70
     1
  0
XRECORD
  5
9E34
102
{ACAD_REACTORS
330
9E33
102
}
330
9E33
100
AcDbXrecord
280
     1
102
RTVSPost2010Prop28
280
     0
102
RTVSPost2010PropOp28
 70
     1
102
RTVSPost2010Prop29
280
     1
102
RTVSPost2010PropOp29
 70
     1
102
RTVSPost2010Prop30
280
     1
102
RTVSPost2010PropOp30
 70
     1
102
RTVSPost2010Prop31
280
     0
102
RTVSPost2010PropOp31
 70
     1
102
RTVSPost2010Prop32
280
     0
102
RTVSPost2010PropOp32
 70
     1
102
RTVSPost2010Prop33
280
     0
102
RTVSPost2010PropOp33
 70
     1
102
RTVSPost2010Prop34
280
     0
102
RTVSPost2010PropOp34
 70
     1
102
RTVSPost2010Prop35
280
     0
102
RTVSPost2010PropOp35
 70
     1
102
RTVSPost2010Prop36
280
     0
102
RTVSPost2010PropOp36
 70
     1
102
RTVSPost2010Prop37
 90
       50
102
RTVSPost2010PropOp37
 70
     1
102
RTVSPost2010Prop38
140
0.0
102
RTVSPost2010PropOp38
 70
     1
102
RTVSPost2010Prop39
140
1.0
102
RTVSPost2010PropOp39
 70
     1
102
RTVSPost2010Prop40
 90
        0
102
RTVSPost2010PropOp40
 70
     1
102
RTVSPost2010Prop41ColorIndex
 90
       18
102
RTVSPost2010Prop41ColorRGB
 90
        0
102
RTVSPost2010PropOp41
 70
     1
102
RTVSPost2010Prop42
 90
       50
102
RTVSPost2010PropOp42
 70
     1
102
RTVSPost2010Prop43
 90
        3
102
RTVSPost2010PropOp43
 70
     1
102
RTVSPost2010Prop44ColorIndex
 90
        5
102
RTVSPost2010Prop44ColorRGB
 90
      255
102
RTVSPost2010PropOp44
 70
     1
102
RTVSPost2010Prop45
280
     0
102
RTVSPost2010PropOp45
 70
     1
102
RTVSPost2010Prop46
 90
       50
102
RTVSPost2010PropOp46
 70
     1
102
RTVSPost2010Prop47
 90
       50
102
RTVSPost2010PropOp47
 70
     1
102
RTVSPost2010Prop48
 90
       50
102
RTVSPost2010PropOp48
 70
     1
102
RTVSPost2010Prop49
280
     0
102
RTVSPost2010PropOp49
 70
     1
102
RTVSPost2010Prop50
 90
       50
102
RTVSPost2010PropOp50
 70
     1
102
RTVSPost2010Prop51ColorIndex
 90
      256
102
RTVSPost2010Prop51ColorRGB
 90
-16777216
102
RTVSPost2010PropOp51
 70
     0
102
RTVSPost2010Prop52
140
1.0
102
RTVSPost2010PropOp52
 70
     0
102
RTVSPost2010Prop53
 90
        2
102
RTVSPost2010PropOp53
 70
     1
102
RTVSPost2010Prop54
  1
strokes_ogs.tif
102
RTVSPost2010PropOp54
 70
     1
102
RTVSPost2010Prop55
280
     0
102
RTVSPost2010PropOp55
 70
     1
102
RTVSPost2010Prop56
140
1.0
102
RTVSPost2010PropOp56
 70
     1
102
RTVSPost2010Prop57
140
1.0
102
RTVSPost2010PropOp57
 70
     1
102
RTVSPropertyOp0
 70
     1
102
RTVSPropertyOp1
 70
     1
102
RTVSPropertyOp2
 70
     1
102
RTVSPropertyOp3
 70
     1
102
RTVSPropertyOp4
 70
     1
102
RTVSPropertyOp5
 70
     1
102
RTVSPropertyOp6
 70
     1
102
RTVSPropertyOp7
 70
     1
102
RTVSPropertyOp8
 70
     1
102
RTVSPropertyOp9
 70
     1
102
RTVSPropertyOp10
 70
     1
102
RTVSPropertyOp11
 70
     1
102
RTVSPropertyOp12
 70
     1
102
RTVSPropertyOp13
 70
     1
102
RTVSPropertyOp14
 70
     1
102
RTVSPropertyOp15
 70
     1
102
RTVSPropertyOp16
 70
     1
102
RTVSPropertyOp17
 70
     1
102
RTVSPropertyOp18
 70
     1
102
RTVSPropertyOp19
 70
     1
102
RTVSPropertyOp20
 70
     1
102
RTVSPropertyOp21
 70
     1
102
RTVSPropertyOp22
 70
     1
102
RTVSPropertyOp23
 70
     1
102
RTVSPropertyOp24
 70
     1
102
RTVSPropertyOp25
 70
     1
102
RTVSPropertyOp26
 70
     1
102
RTVSPropertyOp27
 70
     1
102
RTVSPropertyOp28
 70
     1
102
RTVSPropertyOp29
 70
     1
102
RTVSPropertyOp30
 70
     1
102
RTVSPropertyOp31
 70
     1
102
RTVSPropertyOp32
 70
     1
102
RTVSPropertyOp33
 70
     1
102
RTVSPropertyOp34
 70
     1
102
RTVSPropertyOp35
 70
     1
102
RTVSPropertyOp36
 70
     1
102
RTVSPropertyOp37
 70
     1
102
RTVSPropertyOp38
 70
     1
102
RTVSPropertyOp39
 70
     1
102
RTVSPropertyOp40
 70
     1
102
RTVSPropertyOp41
 70
     1
102
RTVSPropertyOp42
 70
     1
102
RTVSPropertyOp43
 70
     1
102
RTVSPropertyOp44
 70
     1
102
RTVSPropertyOp45
 70
     1
102
RTVSPropertyOp46
 70
     1
102
RTVSPropertyOp47
 70
     1
102
RTVSPropertyOp48
 70
     1
102
RTVSPropertyOp49
 70
     1
102
RTVSPropertyOp50
 70
     1
102
RTVSPropertyOp51
 70
     0
102
RTVSPropertyOp52
 70
     0
102
RTVSPropertyOp53
 70
     1
102
RTVSPropertyOp54
 70
     1
102
RTVSPropertyOp55
 70
     1
102
RTVSPropertyOp56
 70
     1
102
RTVSPropertyOp57
 70
     1
102
RTVSPropertyOp58
 70
     1
102
RTVSPropertyOp59
 70
     1
102
RTVSPropertyOp60
 70
     1
102
RTVSPropertyOp61
 70
     1
102
RTVSPropertyOp62
 70
     1
  0
XRECORD
  5
9E42
102
{ACAD_REACTORS
330
9E41
102
}
330
9E41
100
AcDbXrecord
280
     1
102
RTVSPost2010Prop28
280
     0
102
RTVSPost2010PropOp28
 70
     1
102
RTVSPost2010Prop29
280
     1
102
RTVSPost2010PropOp29
 70
     1
102
RTVSPost2010Prop30
280
     1
102
RTVSPost2010PropOp30
 70
     1
102
RTVSPost2010Prop31
280
     0
102
RTVSPost2010PropOp31
 70
     1
102
RTVSPost2010Prop32
280
     0
102
RTVSPost2010PropOp32
 70
     1
102
RTVSPost2010Prop33
280
     0
102
RTVSPost2010PropOp33
 70
     1
102
RTVSPost2010Prop34
280
     0
102
RTVSPost2010PropOp34
 70
     1
102
RTVSPost2010Prop35
280
     0
102
RTVSPost2010PropOp35
 70
     1
102
RTVSPost2010Prop36
280
     0
102
RTVSPost2010PropOp36
 70
     1
102
RTVSPost2010Prop37
 90
       50
102
RTVSPost2010PropOp37
 70
     1
102
RTVSPost2010Prop38
140
0.0
102
RTVSPost2010PropOp38
 70
     1
102
RTVSPost2010Prop39
140
1.0
102
RTVSPost2010PropOp39
 70
     1
102
RTVSPost2010Prop40
 90
        0
102
RTVSPost2010PropOp40
 70
     1
102
RTVSPost2010Prop41ColorIndex
 90
       18
102
RTVSPost2010Prop41ColorRGB
 90
        0
102
RTVSPost2010PropOp41
 70
     1
102
RTVSPost2010Prop42
 90
       50
102
RTVSPost2010PropOp42
 70
     1
102
RTVSPost2010Prop43
 90
        3
102
RTVSPost2010PropOp43
 70
     1
102
RTVSPost2010Prop44ColorIndex
 90
        5
102
RTVSPost2010Prop44ColorRGB
 90
      255
102
RTVSPost2010PropOp44
 70
     1
102
RTVSPost2010Prop45
280
     0
102
RTVSPost2010PropOp45
 70
     1
102
RTVSPost2010Prop46
 90
       50
102
RTVSPost2010PropOp46
 70
     1
102
RTVSPost2010Prop47
 90
       50
102
RTVSPost2010PropOp47
 70
     1
102
RTVSPost2010Prop48
 90
       50
102
RTVSPost2010PropOp48
 70
     1
102
RTVSPost2010Prop49
280
     0
102
RTVSPost2010PropOp49
 70
     1
102
RTVSPost2010Prop50
 90
       50
102
RTVSPost2010PropOp50
 70
     1
102
RTVSPost2010Prop51ColorIndex
 90
      256
102
RTVSPost2010Prop51ColorRGB
 90
-16777216
102
RTVSPost2010PropOp51
 70
     0
102
RTVSPost2010Prop52
140
1.0
102
RTVSPost2010PropOp52
 70
     0
102
RTVSPost2010Prop53
 90
        2
102
RTVSPost2010PropOp53
 70
     1
102
RTVSPost2010Prop54
  1
strokes_ogs.tif
102
RTVSPost2010PropOp54
 70
     1
102
RTVSPost2010Prop55
280
     0
102
RTVSPost2010PropOp55
 70
     1
102
RTVSPost2010Prop56
140
1.0
102
RTVSPost2010PropOp56
 70
     1
102
RTVSPost2010Prop57
140
1.0
102
RTVSPost2010PropOp57
 70
     1
102
RTVSPropertyOp0
 70
     1
102
RTVSPropertyOp1
 70
     1
102
RTVSPropertyOp2
 70
     1
102
RTVSPropertyOp3
 70
     1
102
RTVSPropertyOp4
 70
     1
102
RTVSPropertyOp5
 70
     1
102
RTVSPropertyOp6
 70
     1
102
RTVSPropertyOp7
 70
     1
102
RTVSPropertyOp8
 70
     1
102
RTVSPropertyOp9
 70
     1
102
RTVSPropertyOp10
 70
     1
102
RTVSPropertyOp11
 70
     1
102
RTVSPropertyOp12
 70
     1
102
RTVSPropertyOp13
 70
     1
102
RTVSPropertyOp14
 70
     1
102
RTVSPropertyOp15
 70
     1
102
RTVSPropertyOp16
 70
     1
102
RTVSPropertyOp17
 70
     1
102
RTVSPropertyOp18
 70
     1
102
RTVSPropertyOp19
 70
     1
102
RTVSPropertyOp20
 70
     1
102
RTVSPropertyOp21
 70
     1
102
RTVSPropertyOp22
 70
     1
102
RTVSPropertyOp23
 70
     1
102
RTVSPropertyOp24
 70
     1
102
RTVSPropertyOp25
 70
     1
102
RTVSPropertyOp26
 70
     1
102
RTVSPropertyOp27
 70
     1
102
RTVSPropertyOp28
 70
     1
102
RTVSPropertyOp29
 70
     1
102
RTVSPropertyOp30
 70
     1
102
RTVSPropertyOp31
 70
     1
102
RTVSPropertyOp32
 70
     1
102
RTVSPropertyOp33
 70
     1
102
RTVSPropertyOp34
 70
     1
102
RTVSPropertyOp35
 70
     1
102
RTVSPropertyOp36
 70
     1
102
RTVSPropertyOp37
 70
     1
102
RTVSPropertyOp38
 70
     1
102
RTVSPropertyOp39
 70
     1
102
RTVSPropertyOp40
 70
     1
102
RTVSPropertyOp41
 70
     1
102
RTVSPropertyOp42
 70
     1
102
RTVSPropertyOp43
 70
     1
102
RTVSPropertyOp44
 70
     1
102
RTVSPropertyOp45
 70
     1
102
RTVSPropertyOp46
 70
     1
102
RTVSPropertyOp47
 70
     1
102
RTVSPropertyOp48
 70
     1
102
RTVSPropertyOp49
 70
     1
102
RTVSPropertyOp50
 70
     1
102
RTVSPropertyOp51
 70
     0
102
RTVSPropertyOp52
 70
     0
102
RTVSPropertyOp53
 70
     1
102
RTVSPropertyOp54
 70
     1
102
RTVSPropertyOp55
 70
     1
102
RTVSPropertyOp56
 70
     1
102
RTVSPropertyOp57
 70
     1
102
RTVSPropertyOp58
 70
     1
102
RTVSPropertyOp59
 70
     1
102
RTVSPropertyOp60
 70
     1
102
RTVSPropertyOp61
 70
     1
102
RTVSPropertyOp62
 70
     1
  0
XRECORD
  5
9E4A
102
{ACAD_REACTORS
330
9E49
102
}
330
9E49
100
AcDbXrecord
280
     1
102
RTVSPost2010Prop28
280
     0
102
RTVSPost2010PropOp28
 70
     1
102
RTVSPost2010Prop29
280
     1
102
RTVSPost2010PropOp29
 70
     1
102
RTVSPost2010Prop30
280
     1
102
RTVSPost2010PropOp30
 70
     1
102
RTVSPost2010Prop31
280
     0
102
RTVSPost2010PropOp31
 70
     1
102
RTVSPost2010Prop32
280
     0
102
RTVSPost2010PropOp32
 70
     1
102
RTVSPost2010Prop33
280
     0
102
RTVSPost2010PropOp33
 70
     1
102
RTVSPost2010Prop34
280
     0
102
RTVSPost2010PropOp34
 70
     1
102
RTVSPost2010Prop35
280
     0
102
RTVSPost2010PropOp35
 70
     1
102
RTVSPost2010Prop36
280
     0
102
RTVSPost2010PropOp36
 70
     1
102
RTVSPost2010Prop37
 90
       50
102
RTVSPost2010PropOp37
 70
     1
102
RTVSPost2010Prop38
140
0.0
102
RTVSPost2010PropOp38
 70
     1
102
RTVSPost2010Prop39
140
1.0
102
RTVSPost2010PropOp39
 70
     1
102
RTVSPost2010Prop40
 90
        0
102
RTVSPost2010PropOp40
 70
     1
102
RTVSPost2010Prop41ColorIndex
 90
       18
102
RTVSPost2010Prop41ColorRGB
 90
        0
102
RTVSPost2010PropOp41
 70
     1
102
RTVSPost2010Prop42
 90
       50
102
RTVSPost2010PropOp42
 70
     1
102
RTVSPost2010Prop43
 90
        3
102
RTVSPost2010PropOp43
 70
     1
102
RTVSPost2010Prop44ColorIndex
 90
        5
102
RTVSPost2010Prop44ColorRGB
 90
      255
102
RTVSPost2010PropOp44
 70
     1
102
RTVSPost2010Prop45
280
     0
102
RTVSPost2010PropOp45
 70
     1
102
RTVSPost2010Prop46
 90
       50
102
RTVSPost2010PropOp46
 70
     1
102
RTVSPost2010Prop47
 90
       50
102
RTVSPost2010PropOp47
 70
     1
102
RTVSPost2010Prop48
 90
       50
102
RTVSPost2010PropOp48
 70
     1
102
RTVSPost2010Prop49
280
     0
102
RTVSPost2010PropOp49
 70
     1
102
RTVSPost2010Prop50
 90
       50
102
RTVSPost2010PropOp50
 70
     1
102
RTVSPost2010Prop51ColorIndex
 90
      256
102
RTVSPost2010Prop51ColorRGB
 90
-16777216
102
RTVSPost2010PropOp51
 70
     0
102
RTVSPost2010Prop52
140
1.0
102
RTVSPost2010PropOp52
 70
     0
102
RTVSPost2010Prop53
 90
        2
102
RTVSPost2010PropOp53
 70
     1
102
RTVSPost2010Prop54
  1
strokes_ogs.tif
102
RTVSPost2010PropOp54
 70
     1
102
RTVSPost2010Prop55
280
     0
102
RTVSPost2010PropOp55
 70
     1
102
RTVSPost2010Prop56
140
1.0
102
RTVSPost2010PropOp56
 70
     1
102
RTVSPost2010Prop57
140
1.0
102
RTVSPost2010PropOp57
 70
     1
102
RTVSPropertyOp0
 70
     1
102
RTVSPropertyOp1
 70
     1
102
RTVSPropertyOp2
 70
     1
102
RTVSPropertyOp3
 70
     1
102
RTVSPropertyOp4
 70
     1
102
RTVSPropertyOp5
 70
     1
102
RTVSPropertyOp6
 70
     1
102
RTVSPropertyOp7
 70
     1
102
RTVSPropertyOp8
 70
     1
102
RTVSPropertyOp9
 70
     1
102
RTVSPropertyOp10
 70
     1
102
RTVSPropertyOp11
 70
     1
102
RTVSPropertyOp12
 70
     1
102
RTVSPropertyOp13
 70
     1
102
RTVSPropertyOp14
 70
     1
102
RTVSPropertyOp15
 70
     1
102
RTVSPropertyOp16
 70
     1
102
RTVSPropertyOp17
 70
     1
102
RTVSPropertyOp18
 70
     1
102
RTVSPropertyOp19
 70
     1
102
RTVSPropertyOp20
 70
     1
102
RTVSPropertyOp21
 70
     1
102
RTVSPropertyOp22
 70
     1
102
RTVSPropertyOp23
 70
     1
102
RTVSPropertyOp24
 70
     1
102
RTVSPropertyOp25
 70
     1
102
RTVSPropertyOp26
 70
     1
102
RTVSPropertyOp27
 70
     1
102
RTVSPropertyOp28
 70
     1
102
RTVSPropertyOp29
 70
     1
102
RTVSPropertyOp30
 70
     1
102
RTVSPropertyOp31
 70
     1
102
RTVSPropertyOp32
 70
     1
102
RTVSPropertyOp33
 70
     1
102
RTVSPropertyOp34
 70
     1
102
RTVSPropertyOp35
 70
     1
102
RTVSPropertyOp36
 70
     1
102
RTVSPropertyOp37
 70
     1
102
RTVSPropertyOp38
 70
     1
102
RTVSPropertyOp39
 70
     1
102
RTVSPropertyOp40
 70
     1
102
RTVSPropertyOp41
 70
     1
102
RTVSPropertyOp42
 70
     1
102
RTVSPropertyOp43
 70
     1
102
RTVSPropertyOp44
 70
     1
102
RTVSPropertyOp45
 70
     1
102
RTVSPropertyOp46
 70
     1
102
RTVSPropertyOp47
 70
     1
102
RTVSPropertyOp48
 70
     1
102
RTVSPropertyOp49
 70
     1
102
RTVSPropertyOp50
 70
     1
102
RTVSPropertyOp51
 70
     0
102
RTVSPropertyOp52
 70
     0
102
RTVSPropertyOp53
 70
     1
102
RTVSPropertyOp54
 70
     1
102
RTVSPropertyOp55
 70
     1
102
RTVSPropertyOp56
 70
     1
102
RTVSPropertyOp57
 70
     1
102
RTVSPropertyOp58
 70
     1
102
RTVSPropertyOp59
 70
     1
102
RTVSPropertyOp60
 70
     1
102
RTVSPropertyOp61
 70
     1
102
RTVSPropertyOp62
 70
     1
  0
XRECORD
  5
9E3C
102
{ACAD_REACTORS
330
9E3B
102
}
330
9E3B
100
AcDbXrecord
280
     1
102
RTVSPost2010Prop28
280
     0
102
RTVSPost2010PropOp28
 70
     1
102
RTVSPost2010Prop29
280
     1
102
RTVSPost2010PropOp29
 70
     1
102
RTVSPost2010Prop30
280
     1
102
RTVSPost2010PropOp30
 70
     1
102
RTVSPost2010Prop31
280
     0
102
RTVSPost2010PropOp31
 70
     1
102
RTVSPost2010Prop32
280
     0
102
RTVSPost2010PropOp32
 70
     1
102
RTVSPost2010Prop33
280
     0
102
RTVSPost2010PropOp33
 70
     1
102
RTVSPost2010Prop34
280
     0
102
RTVSPost2010PropOp34
 70
     1
102
RTVSPost2010Prop35
280
     0
102
RTVSPost2010PropOp35
 70
     1
102
RTVSPost2010Prop36
280
     0
102
RTVSPost2010PropOp36
 70
     1
102
RTVSPost2010Prop37
 90
       50
102
RTVSPost2010PropOp37
 70
     1
102
RTVSPost2010Prop38
140
0.0
102
RTVSPost2010PropOp38
 70
     1
102
RTVSPost2010Prop39
140
1.0
102
RTVSPost2010PropOp39
 70
     1
102
RTVSPost2010Prop40
 90
        0
102
RTVSPost2010PropOp40
 70
     1
102
RTVSPost2010Prop41ColorIndex
 90
       18
102
RTVSPost2010Prop41ColorRGB
 90
        0
102
RTVSPost2010PropOp41
 70
     1
102
RTVSPost2010Prop42
 90
       50
102
RTVSPost2010PropOp42
 70
     1
102
RTVSPost2010Prop43
 90
        3
102
RTVSPost2010PropOp43
 70
     1
102
RTVSPost2010Prop44ColorIndex
 90
        5
102
RTVSPost2010Prop44ColorRGB
 90
      255
102
RTVSPost2010PropOp44
 70
     1
102
RTVSPost2010Prop45
280
     0
102
RTVSPost2010PropOp45
 70
     1
102
RTVSPost2010Prop46
 90
       50
102
RTVSPost2010PropOp46
 70
     1
102
RTVSPost2010Prop47
 90
       50
102
RTVSPost2010PropOp47
 70
     1
102
RTVSPost2010Prop48
 90
       50
102
RTVSPost2010PropOp48
 70
     1
102
RTVSPost2010Prop49
280
     0
102
RTVSPost2010PropOp49
 70
     1
102
RTVSPost2010Prop50
 90
       50
102
RTVSPost2010PropOp50
 70
     1
102
RTVSPost2010Prop51ColorIndex
 90
      256
102
RTVSPost2010Prop51ColorRGB
 90
-16777216
102
RTVSPost2010PropOp51
 70
     0
102
RTVSPost2010Prop52
140
1.0
102
RTVSPost2010PropOp52
 70
     0
102
RTVSPost2010Prop53
 90
        2
102
RTVSPost2010PropOp53
 70
     1
102
RTVSPost2010Prop54
  1
strokes_ogs.tif
102
RTVSPost2010PropOp54
 70
     1
102
RTVSPost2010Prop55
280
     0
102
RTVSPost2010PropOp55
 70
     1
102
RTVSPost2010Prop56
140
1.0
102
RTVSPost2010PropOp56
 70
     1
102
RTVSPost2010Prop57
140
1.0
102
RTVSPost2010PropOp57
 70
     1
102
RTVSPropertyOp0
 70
     1
102
RTVSPropertyOp1
 70
     1
102
RTVSPropertyOp2
 70
     1
102
RTVSPropertyOp3
 70
     1
102
RTVSPropertyOp4
 70
     1
102
RTVSPropertyOp5
 70
     1
102
RTVSPropertyOp6
 70
     1
102
RTVSPropertyOp7
 70
     1
102
RTVSPropertyOp8
 70
     1
102
RTVSPropertyOp9
 70
     1
102
RTVSPropertyOp10
 70
     1
102
RTVSPropertyOp11
 70
     1
102
RTVSPropertyOp12
 70
     1
102
RTVSPropertyOp13
 70
     1
102
RTVSPropertyOp14
 70
     1
102
RTVSPropertyOp15
 70
     1
102
RTVSPropertyOp16
 70
     1
102
RTVSPropertyOp17
 70
     1
102
RTVSPropertyOp18
 70
     1
102
RTVSPropertyOp19
 70
     1
102
RTVSPropertyOp20
 70
     1
102
RTVSPropertyOp21
 70
     1
102
RTVSPropertyOp22
 70
     1
102
RTVSPropertyOp23
 70
     1
102
RTVSPropertyOp24
 70
     1
102
RTVSPropertyOp25
 70
     1
102
RTVSPropertyOp26
 70
     1
102
RTVSPropertyOp27
 70
     1
102
RTVSPropertyOp28
 70
     1
102
RTVSPropertyOp29
 70
     1
102
RTVSPropertyOp30
 70
     1
102
RTVSPropertyOp31
 70
     1
102
RTVSPropertyOp32
 70
     1
102
RTVSPropertyOp33
 70
     1
102
RTVSPropertyOp34
 70
     1
102
RTVSPropertyOp35
 70
     1
102
RTVSPropertyOp36
 70
     1
102
RTVSPropertyOp37
 70
     1
102
RTVSPropertyOp38
 70
     1
102
RTVSPropertyOp39
 70
     1
102
RTVSPropertyOp40
 70
     1
102
RTVSPropertyOp41
 70
     1
102
RTVSPropertyOp42
 70
     1
102
RTVSPropertyOp43
 70
     1
102
RTVSPropertyOp44
 70
     1
102
RTVSPropertyOp45
 70
     1
102
RTVSPropertyOp46
 70
     1
102
RTVSPropertyOp47
 70
     1
102
RTVSPropertyOp48
 70
     1
102
RTVSPropertyOp49
 70
     1
102
RTVSPropertyOp50
 70
     1
102
RTVSPropertyOp51
 70
     0
102
RTVSPropertyOp52
 70
     0
102
RTVSPropertyOp53
 70
     1
102
RTVSPropertyOp54
 70
     1
102
RTVSPropertyOp55
 70
     1
102
RTVSPropertyOp56
 70
     1
102
RTVSPropertyOp57
 70
     1
102
RTVSPropertyOp58
 70
     1
102
RTVSPropertyOp59
 70
     1
102
RTVSPropertyOp60
 70
     1
102
RTVSPropertyOp61
 70
     1
102
RTVSPropertyOp62
 70
     1
  0
XRECORD
  5
9E40
102
{ACAD_REACTORS
330
9E3F
102
}
330
9E3F
100
AcDbXrecord
280
     1
102
RTVSPost2010Prop28
280
     0
102
RTVSPost2010PropOp28
 70
     1
102
RTVSPost2010Prop29
280
     1
102
RTVSPost2010PropOp29
 70
     1
102
RTVSPost2010Prop30
280
     1
102
RTVSPost2010PropOp30
 70
     1
102
RTVSPost2010Prop31
280
     0
102
RTVSPost2010PropOp31
 70
     1
102
RTVSPost2010Prop32
280
     0
102
RTVSPost2010PropOp32
 70
     1
102
RTVSPost2010Prop33
280
     0
102
RTVSPost2010PropOp33
 70
     1
102
RTVSPost2010Prop34
280
     0
102
RTVSPost2010PropOp34
 70
     1
102
RTVSPost2010Prop35
280
     0
102
RTVSPost2010PropOp35
 70
     1
102
RTVSPost2010Prop36
280
     0
102
RTVSPost2010PropOp36
 70
     1
102
RTVSPost2010Prop37
 90
       50
102
RTVSPost2010PropOp37
 70
     1
102
RTVSPost2010Prop38
140
0.0
102
RTVSPost2010PropOp38
 70
     1
102
RTVSPost2010Prop39
140
1.0
102
RTVSPost2010PropOp39
 70
     1
102
RTVSPost2010Prop40
 90
        0
102
RTVSPost2010PropOp40
 70
     1
102
RTVSPost2010Prop41ColorIndex
 90
       18
102
RTVSPost2010Prop41ColorRGB
 90
        0
102
RTVSPost2010PropOp41
 70
     1
102
RTVSPost2010Prop42
 90
       50
102
RTVSPost2010PropOp42
 70
     1
102
RTVSPost2010Prop43
 90
        3
102
RTVSPost2010PropOp43
 70
     1
102
RTVSPost2010Prop44ColorIndex
 90
        5
102
RTVSPost2010Prop44ColorRGB
 90
      255
102
RTVSPost2010PropOp44
 70
     1
102
RTVSPost2010Prop45
280
     0
102
RTVSPost2010PropOp45
 70
     1
102
RTVSPost2010Prop46
 90
       50
102
RTVSPost2010PropOp46
 70
     1
102
RTVSPost2010Prop47
 90
       50
102
RTVSPost2010PropOp47
 70
     1
102
RTVSPost2010Prop48
 90
       50
102
RTVSPost2010PropOp48
 70
     1
102
RTVSPost2010Prop49
280
     0
102
RTVSPost2010PropOp49
 70
     1
102
RTVSPost2010Prop50
 90
       50
102
RTVSPost2010PropOp50
 70
     1
102
RTVSPost2010Prop51ColorIndex
 90
      256
102
RTVSPost2010Prop51ColorRGB
 90
-16777216
102
RTVSPost2010PropOp51
 70
     0
102
RTVSPost2010Prop52
140
1.0
102
RTVSPost2010PropOp52
 70
     0
102
RTVSPost2010Prop53
 90
        2
102
RTVSPost2010PropOp53
 70
     1
102
RTVSPost2010Prop54
  1
strokes_ogs.tif
102
RTVSPost2010PropOp54
 70
     1
102
RTVSPost2010Prop55
280
     0
102
RTVSPost2010PropOp55
 70
     1
102
RTVSPost2010Prop56
140
1.0
102
RTVSPost2010PropOp56
 70
     1
102
RTVSPost2010Prop57
140
1.0
102
RTVSPost2010PropOp57
 70
     1
102
RTVSPropertyOp0
 70
     1
102
RTVSPropertyOp1
 70
     1
102
RTVSPropertyOp2
 70
     1
102
RTVSPropertyOp3
 70
     1
102
RTVSPropertyOp4
 70
     1
102
RTVSPropertyOp5
 70
     1
102
RTVSPropertyOp6
 70
     1
102
RTVSPropertyOp7
 70
     1
102
RTVSPropertyOp8
 70
     1
102
RTVSPropertyOp9
 70
     1
102
RTVSPropertyOp10
 70
     1
102
RTVSPropertyOp11
 70
     1
102
RTVSPropertyOp12
 70
     1
102
RTVSPropertyOp13
 70
     1
102
RTVSPropertyOp14
 70
     1
102
RTVSPropertyOp15
 70
     1
102
RTVSPropertyOp16
 70
     1
102
RTVSPropertyOp17
 70
     1
102
RTVSPropertyOp18
 70
     1
102
RTVSPropertyOp19
 70
     1
102
RTVSPropertyOp20
 70
     1
102
RTVSPropertyOp21
 70
     1
102
RTVSPropertyOp22
 70
     1
102
RTVSPropertyOp23
 70
     1
102
RTVSPropertyOp24
 70
     1
102
RTVSPropertyOp25
 70
     1
102
RTVSPropertyOp26
 70
     1
102
RTVSPropertyOp27
 70
     1
102
RTVSPropertyOp28
 70
     1
102
RTVSPropertyOp29
 70
     1
102
RTVSPropertyOp30
 70
     1
102
RTVSPropertyOp31
 70
     1
102
RTVSPropertyOp32
 70
     1
102
RTVSPropertyOp33
 70
     1
102
RTVSPropertyOp34
 70
     1
102
RTVSPropertyOp35
 70
     1
102
RTVSPropertyOp36
 70
     1
102
RTVSPropertyOp37
 70
     1
102
RTVSPropertyOp38
 70
     1
102
RTVSPropertyOp39
 70
     1
102
RTVSPropertyOp40
 70
     1
102
RTVSPropertyOp41
 70
     1
102
RTVSPropertyOp42
 70
     1
102
RTVSPropertyOp43
 70
     1
102
RTVSPropertyOp44
 70
     1
102
RTVSPropertyOp45
 70
     1
102
RTVSPropertyOp46
 70
     1
102
RTVSPropertyOp47
 70
     1
102
RTVSPropertyOp48
 70
     1
102
RTVSPropertyOp49
 70
     1
102
RTVSPropertyOp50
 70
     1
102
RTVSPropertyOp51
 70
     0
102
RTVSPropertyOp52
 70
     0
102
RTVSPropertyOp53
 70
     1
102
RTVSPropertyOp54
 70
     1
102
RTVSPropertyOp55
 70
     1
102
RTVSPropertyOp56
 70
     1
102
RTVSPropertyOp57
 70
     1
102
RTVSPropertyOp58
 70
     1
102
RTVSPropertyOp59
 70
     1
102
RTVSPropertyOp60
 70
     1
102
RTVSPropertyOp61
 70
     1
102
RTVSPropertyOp62
 70
     1
  0
XRECORD
  5
9E5A
102
{ACAD_REACTORS
330
9E59
102
}
330
9E59
100
AcDbXrecord
280
     1
102
RTVSPost2010Prop28
280
     0
102
RTVSPost2010PropOp28
 70
     1
102
RTVSPost2010Prop29
280
     1
102
RTVSPost2010PropOp29
 70
     1
102
RTVSPost2010Prop30
280
     1
102
RTVSPost2010PropOp30
 70
     1
102
RTVSPost2010Prop31
280
     0
102
RTVSPost2010PropOp31
 70
     1
102
RTVSPost2010Prop32
280
     0
102
RTVSPost2010PropOp32
 70
     1
102
RTVSPost2010Prop33
280
     0
102
RTVSPost2010PropOp33
 70
     1
102
RTVSPost2010Prop34
280
     0
102
RTVSPost2010PropOp34
 70
     1
102
RTVSPost2010Prop35
280
     0
102
RTVSPost2010PropOp35
 70
     1
102
RTVSPost2010Prop36
280
     0
102
RTVSPost2010PropOp36
 70
     1
102
RTVSPost2010Prop37
 90
       50
102
RTVSPost2010PropOp37
 70
     0
102
RTVSPost2010Prop38
140
0.0
102
RTVSPost2010PropOp38
 70
     0
102
RTVSPost2010Prop39
140
1.0
102
RTVSPost2010PropOp39
 70
     0
102
RTVSPost2010Prop40
 90
        0
102
RTVSPost2010PropOp40
 70
     0
102
RTVSPost2010Prop41ColorIndex
 90
       18
102
RTVSPost2010Prop41ColorRGB
 90
        0
102
RTVSPost2010PropOp41
 70
     0
102
RTVSPost2010Prop42
 90
       50
102
RTVSPost2010PropOp42
 70
     0
102
RTVSPost2010Prop43
 90
        3
102
RTVSPost2010PropOp43
 70
     0
102
RTVSPost2010Prop44ColorIndex
 90
        5
102
RTVSPost2010Prop44ColorRGB
 90
      255
102
RTVSPost2010PropOp44
 70
     0
102
RTVSPost2010Prop45
280
     0
102
RTVSPost2010PropOp45
 70
     1
102
RTVSPost2010Prop46
 90
       50
102
RTVSPost2010PropOp46
 70
     0
102
RTVSPost2010Prop47
 90
       50
102
RTVSPost2010PropOp47
 70
     0
102
RTVSPost2010Prop48
 90
       50
102
RTVSPost2010PropOp48
 70
     0
102
RTVSPost2010Prop49
280
     0
102
RTVSPost2010PropOp49
 70
     1
102
RTVSPost2010Prop50
 90
       50
102
RTVSPost2010PropOp50
 70
     0
102
RTVSPost2010Prop51ColorIndex
 90
      256
102
RTVSPost2010Prop51ColorRGB
 90
-16777216
102
RTVSPost2010PropOp51
 70
     0
102
RTVSPost2010Prop52
140
1.0
102
RTVSPost2010PropOp52
 70
     0
102
RTVSPost2010Prop53
 90
        2
102
RTVSPost2010PropOp53
 70
     0
102
RTVSPost2010Prop54
  1
strokes_ogs.tif
102
RTVSPost2010PropOp54
 70
     0
102
RTVSPost2010Prop55
280
     0
102
RTVSPost2010PropOp55
 70
     1
102
RTVSPost2010Prop56
140
1.0
102
RTVSPost2010PropOp56
 70
     0
102
RTVSPost2010Prop57
140
1.0
102
RTVSPost2010PropOp57
 70
     0
102
RTVSPropertyOp0
 70
     0
102
RTVSPropertyOp1
 70
     0
102
RTVSPropertyOp2
 70
     0
102
RTVSPropertyOp3
 70
     0
102
RTVSPropertyOp4
 70
     0
102
RTVSPropertyOp5
 70
     0
102
RTVSPropertyOp6
 70
     0
102
RTVSPropertyOp7
 70
     0
102
RTVSPropertyOp8
 70
     0
102
RTVSPropertyOp9
 70
     0
102
RTVSPropertyOp10
 70
     0
102
RTVSPropertyOp11
 70
     0
102
RTVSPropertyOp12
 70
     0
102
RTVSPropertyOp13
 70
     0
102
RTVSPropertyOp14
 70
     2
102
RTVSPropertyOp15
 70
     0
102
RTVSPropertyOp16
 70
     0
102
RTVSPropertyOp17
 70
     0
102
RTVSPropertyOp18
 70
     0
102
RTVSPropertyOp19
 70
     0
102
RTVSPropertyOp20
 70
     0
102
RTVSPropertyOp21
 70
     0
102
RTVSPropertyOp22
 70
     0
102
RTVSPropertyOp23
 70
     0
102
RTVSPropertyOp24
 70
     0
102
RTVSPropertyOp25
 70
     0
102
RTVSPropertyOp26
 70
     0
102
RTVSPropertyOp27
 70
     0
102
RTVSPropertyOp28
 70
     1
102
RTVSPropertyOp29
 70
     1
102
RTVSPropertyOp30
 70
     1
102
RTVSPropertyOp31
 70
     1
102
RTVSPropertyOp32
 70
     1
102
RTVSPropertyOp33
 70
     1
102
RTVSPropertyOp34
 70
     1
102
RTVSPropertyOp35
 70
     1
102
RTVSPropertyOp36
 70
     1
102
RTVSPropertyOp37
 70
     0
102
RTVSPropertyOp38
 70
     0
102
RTVSPropertyOp39
 70
     0
102
RTVSPropertyOp40
 70
     0
102
RTVSPropertyOp41
 70
     0
102
RTVSPropertyOp42
 70
     0
102
RTVSPropertyOp43
 70
     0
102
RTVSPropertyOp44
 70
     0
102
RTVSPropertyOp45
 70
     1
102
RTVSPropertyOp46
 70
     0
102
RTVSPropertyOp47
 70
     0
102
RTVSPropertyOp48
 70
     0
102
RTVSPropertyOp49
 70
     1
102
RTVSPropertyOp50
 70
     0
102
RTVSPropertyOp51
 70
     0
102
RTVSPropertyOp52
 70
     0
102
RTVSPropertyOp53
 70
     0
102
RTVSPropertyOp54
 70
     0
102
RTVSPropertyOp55
 70
     1
102
RTVSPropertyOp56
 70
     0
102
RTVSPropertyOp57
 70
     0
102
RTVSPropertyOp58
 70
     0
102
RTVSPropertyOp59
 70
     0
102
RTVSPropertyOp60
 70
     0
102
RTVSPropertyOp61
 70
     0
102
RTVSPropertyOp62
 70
     0
  0
XRECORD
  5
9E48
102
{ACAD_REACTORS
330
9E47
102
}
330
9E47
100
AcDbXrecord
280
     1
102
RTVSPost2010Prop28
280
     0
102
RTVSPost2010PropOp28
 70
     1
102
RTVSPost2010Prop29
280
     1
102
RTVSPost2010PropOp29
 70
     1
102
RTVSPost2010Prop30
280
     1
102
RTVSPost2010PropOp30
 70
     1
102
RTVSPost2010Prop31
280
     0
102
RTVSPost2010PropOp31
 70
     1
102
RTVSPost2010Prop32
280
     0
102
RTVSPost2010PropOp32
 70
     1
102
RTVSPost2010Prop33
280
     0
102
RTVSPost2010PropOp33
 70
     1
102
RTVSPost2010Prop34
280
     0
102
RTVSPost2010PropOp34
 70
     1
102
RTVSPost2010Prop35
280
     0
102
RTVSPost2010PropOp35
 70
     1
102
RTVSPost2010Prop36
280
     0
102
RTVSPost2010PropOp36
 70
     1
102
RTVSPost2010Prop37
 90
       50
102
RTVSPost2010PropOp37
 70
     1
102
RTVSPost2010Prop38
140
0.0
102
RTVSPost2010PropOp38
 70
     1
102
RTVSPost2010Prop39
140
1.0
102
RTVSPost2010PropOp39
 70
     1
102
RTVSPost2010Prop40
 90
        0
102
RTVSPost2010PropOp40
 70
     1
102
RTVSPost2010Prop41ColorIndex
 90
       18
102
RTVSPost2010Prop41ColorRGB
 90
        0
102
RTVSPost2010PropOp41
 70
     1
102
RTVSPost2010Prop42
 90
       50
102
RTVSPost2010PropOp42
 70
     1
102
RTVSPost2010Prop43
 90
        3
102
RTVSPost2010PropOp43
 70
     1
102
RTVSPost2010Prop44ColorIndex
 90
        5
102
RTVSPost2010Prop44ColorRGB
 90
      255
102
RTVSPost2010PropOp44
 70
     1
102
RTVSPost2010Prop45
280
     0
102
RTVSPost2010PropOp45
 70
     1
102
RTVSPost2010Prop46
 90
       50
102
RTVSPost2010PropOp46
 70
     1
102
RTVSPost2010Prop47
 90
       50
102
RTVSPost2010PropOp47
 70
     1
102
RTVSPost2010Prop48
 90
       50
102
RTVSPost2010PropOp48
 70
     1
102
RTVSPost2010Prop49
280
     0
102
RTVSPost2010PropOp49
 70
     1
102
RTVSPost2010Prop50
 90
       50
102
RTVSPost2010PropOp50
 70
     1
102
RTVSPost2010Prop51ColorIndex
 90
      256
102
RTVSPost2010Prop51ColorRGB
 90
-16777216
102
RTVSPost2010PropOp51
 70
     0
102
RTVSPost2010Prop52
140
1.0
102
RTVSPost2010PropOp52
 70
     0
102
RTVSPost2010Prop53
 90
        2
102
RTVSPost2010PropOp53
 70
     1
102
RTVSPost2010Prop54
  1
strokes_ogs.tif
102
RTVSPost2010PropOp54
 70
     1
102
RTVSPost2010Prop55
280
     0
102
RTVSPost2010PropOp55
 70
     1
102
RTVSPost2010Prop56
140
1.0
102
RTVSPost2010PropOp56
 70
     1
102
RTVSPost2010Prop57
140
1.0
102
RTVSPost2010PropOp57
 70
     1
102
RTVSPropertyOp0
 70
     1
102
RTVSPropertyOp1
 70
     1
102
RTVSPropertyOp2
 70
     1
102
RTVSPropertyOp3
 70
     1
102
RTVSPropertyOp4
 70
     1
102
RTVSPropertyOp5
 70
     1
102
RTVSPropertyOp6
 70
     1
102
RTVSPropertyOp7
 70
     1
102
RTVSPropertyOp8
 70
     1
102
RTVSPropertyOp9
 70
     1
102
RTVSPropertyOp10
 70
     1
102
RTVSPropertyOp11
 70
     1
102
RTVSPropertyOp12
 70
     1
102
RTVSPropertyOp13
 70
     1
102
RTVSPropertyOp14
 70
     1
102
RTVSPropertyOp15
 70
     1
102
RTVSPropertyOp16
 70
     1
102
RTVSPropertyOp17
 70
     1
102
RTVSPropertyOp18
 70
     1
102
RTVSPropertyOp19
 70
     1
102
RTVSPropertyOp20
 70
     1
102
RTVSPropertyOp21
 70
     1
102
RTVSPropertyOp22
 70
     1
102
RTVSPropertyOp23
 70
     1
102
RTVSPropertyOp24
 70
     1
102
RTVSPropertyOp25
 70
     1
102
RTVSPropertyOp26
 70
     1
102
RTVSPropertyOp27
 70
     1
102
RTVSPropertyOp28
 70
     1
102
RTVSPropertyOp29
 70
     1
102
RTVSPropertyOp30
 70
     1
102
RTVSPropertyOp31
 70
     1
102
RTVSPropertyOp32
 70
     1
102
RTVSPropertyOp33
 70
     1
102
RTVSPropertyOp34
 70
     1
102
RTVSPropertyOp35
 70
     1
102
RTVSPropertyOp36
 70
     1
102
RTVSPropertyOp37
 70
     1
102
RTVSPropertyOp38
 70
     1
102
RTVSPropertyOp39
 70
     1
102
RTVSPropertyOp40
 70
     1
102
RTVSPropertyOp41
 70
     1
102
RTVSPropertyOp42
 70
     1
102
RTVSPropertyOp43
 70
     1
102
RTVSPropertyOp44
 70
     1
102
RTVSPropertyOp45
 70
     1
102
RTVSPropertyOp46
 70
     1
102
RTVSPropertyOp47
 70
     1
102
RTVSPropertyOp48
 70
     1
102
RTVSPropertyOp49
 70
     1
102
RTVSPropertyOp50
 70
     1
102
RTVSPropertyOp51
 70
     0
102
RTVSPropertyOp52
 70
     0
102
RTVSPropertyOp53
 70
     1
102
RTVSPropertyOp54
 70
     1
102
RTVSPropertyOp55
 70
     1
102
RTVSPropertyOp56
 70
     1
102
RTVSPropertyOp57
 70
     1
102
RTVSPropertyOp58
 70
     1
102
RTVSPropertyOp59
 70
     1
102
RTVSPropertyOp60
 70
     1
102
RTVSPropertyOp61
 70
     1
102
RTVSPropertyOp62
 70
     1
  0
XRECORD
  5
9E2C
102
{ACAD_REACTORS
330
9E2B
102
}
330
9E2B
100
AcDbXrecord
280
     1
102
RTVSPost2010Prop28
280
     0
102
RTVSPost2010PropOp28
 70
     1
102
RTVSPost2010Prop29
280
     1
102
RTVSPost2010PropOp29
 70
     1
102
RTVSPost2010Prop30
280
     1
102
RTVSPost2010PropOp30
 70
     1
102
RTVSPost2010Prop31
280
     0
102
RTVSPost2010PropOp31
 70
     1
102
RTVSPost2010Prop32
280
     0
102
RTVSPost2010PropOp32
 70
     1
102
RTVSPost2010Prop33
280
     0
102
RTVSPost2010PropOp33
 70
     1
102
RTVSPost2010Prop34
280
     0
102
RTVSPost2010PropOp34
 70
     1
102
RTVSPost2010Prop35
280
     0
102
RTVSPost2010PropOp35
 70
     1
102
RTVSPost2010Prop36
280
     0
102
RTVSPost2010PropOp36
 70
     1
102
RTVSPost2010Prop37
 90
       50
102
RTVSPost2010PropOp37
 70
     1
102
RTVSPost2010Prop38
140
0.0
102
RTVSPost2010PropOp38
 70
     1
102
RTVSPost2010Prop39
140
1.0
102
RTVSPost2010PropOp39
 70
     1
102
RTVSPost2010Prop40
 90
        0
102
RTVSPost2010PropOp40
 70
     1
102
RTVSPost2010Prop41ColorIndex
 90
       18
102
RTVSPost2010Prop41ColorRGB
 90
        0
102
RTVSPost2010PropOp41
 70
     1
102
RTVSPost2010Prop42
 90
       50
102
RTVSPost2010PropOp42
 70
     1
102
RTVSPost2010Prop43
 90
        3
102
RTVSPost2010PropOp43
 70
     1
102
RTVSPost2010Prop44ColorIndex
 90
        5
102
RTVSPost2010Prop44ColorRGB
 90
      255
102
RTVSPost2010PropOp44
 70
     1
102
RTVSPost2010Prop45
280
     0
102
RTVSPost2010PropOp45
 70
     1
102
RTVSPost2010Prop46
 90
       50
102
RTVSPost2010PropOp46
 70
     1
102
RTVSPost2010Prop47
 90
       50
102
RTVSPost2010PropOp47
 70
     1
102
RTVSPost2010Prop48
 90
       50
102
RTVSPost2010PropOp48
 70
     1
102
RTVSPost2010Prop49
280
     0
102
RTVSPost2010PropOp49
 70
     1
102
RTVSPost2010Prop50
 90
       50
102
RTVSPost2010PropOp50
 70
     1
102
RTVSPost2010Prop51ColorIndex
 90
      256
102
RTVSPost2010Prop51ColorRGB
 90
-16777216
102
RTVSPost2010PropOp51
 70
     0
102
RTVSPost2010Prop52
140
1.0
102
RTVSPost2010PropOp52
 70
     0
102
RTVSPost2010Prop53
 90
        2
102
RTVSPost2010PropOp53
 70
     1
102
RTVSPost2010Prop54
  1
strokes_ogs.tif
102
RTVSPost2010PropOp54
 70
     1
102
RTVSPost2010Prop55
280
     0
102
RTVSPost2010PropOp55
 70
     1
102
RTVSPost2010Prop56
140
1.0
102
RTVSPost2010PropOp56
 70
     1
102
RTVSPost2010Prop57
140
1.0
102
RTVSPost2010PropOp57
 70
     1
102
RTVSPropertyOp0
 70
     1
102
RTVSPropertyOp1
 70
     1
102
RTVSPropertyOp2
 70
     1
102
RTVSPropertyOp3
 70
     1
102
RTVSPropertyOp4
 70
     1
102
RTVSPropertyOp5
 70
     1
102
RTVSPropertyOp6
 70
     1
102
RTVSPropertyOp7
 70
     1
102
RTVSPropertyOp8
 70
     1
102
RTVSPropertyOp9
 70
     1
102
RTVSPropertyOp10
 70
     1
102
RTVSPropertyOp11
 70
     1
102
RTVSPropertyOp12
 70
     1
102
RTVSPropertyOp13
 70
     1
102
RTVSPropertyOp14
 70
     1
102
RTVSPropertyOp15
 70
     1
102
RTVSPropertyOp16
 70
     1
102
RTVSPropertyOp17
 70
     1
102
RTVSPropertyOp18
 70
     1
102
RTVSPropertyOp19
 70
     1
102
RTVSPropertyOp20
 70
     1
102
RTVSPropertyOp21
 70
     1
102
RTVSPropertyOp22
 70
     1
102
RTVSPropertyOp23
 70
     1
102
RTVSPropertyOp24
 70
     1
102
RTVSPropertyOp25
 70
     1
102
RTVSPropertyOp26
 70
     1
102
RTVSPropertyOp27
 70
     1
102
RTVSPropertyOp28
 70
     1
102
RTVSPropertyOp29
 70
     1
102
RTVSPropertyOp30
 70
     1
102
RTVSPropertyOp31
 70
     1
102
RTVSPropertyOp32
 70
     1
102
RTVSPropertyOp33
 70
     1
102
RTVSPropertyOp34
 70
     1
102
RTVSPropertyOp35
 70
     1
102
RTVSPropertyOp36
 70
     1
102
RTVSPropertyOp37
 70
     1
102
RTVSPropertyOp38
 70
     1
102
RTVSPropertyOp39
 70
     1
102
RTVSPropertyOp40
 70
     1
102
RTVSPropertyOp41
 70
     1
102
RTVSPropertyOp42
 70
     1
102
RTVSPropertyOp43
 70
     1
102
RTVSPropertyOp44
 70
     1
102
RTVSPropertyOp45
 70
     1
102
RTVSPropertyOp46
 70
     1
102
RTVSPropertyOp47
 70
     1
102
RTVSPropertyOp48
 70
     1
102
RTVSPropertyOp49
 70
     1
102
RTVSPropertyOp50
 70
     1
102
RTVSPropertyOp51
 70
     0
102
RTVSPropertyOp52
 70
     0
102
RTVSPropertyOp53
 70
     1
102
RTVSPropertyOp54
 70
     1
102
RTVSPropertyOp55
 70
     1
102
RTVSPropertyOp56
 70
     1
102
RTVSPropertyOp57
 70
     1
102
RTVSPropertyOp58
 70
     1
102
RTVSPropertyOp59
 70
     1
102
RTVSPropertyOp60
 70
     1
102
RTVSPropertyOp61
 70
     1
102
RTVSPropertyOp62
 70
     1
  0
XRECORD
  5
9E2E
102
{ACAD_REACTORS
330
9E2D
102
}
330
9E2D
100
AcDbXrecord
280
     1
102
RTVSPost2010Prop28
280
     0
102
RTVSPost2010PropOp28
 70
     1
102
RTVSPost2010Prop29
280
     1
102
RTVSPost2010PropOp29
 70
     1
102
RTVSPost2010Prop30
280
     1
102
RTVSPost2010PropOp30
 70
     1
102
RTVSPost2010Prop31
280
     0
102
RTVSPost2010PropOp31
 70
     1
102
RTVSPost2010Prop32
280
     0
102
RTVSPost2010PropOp32
 70
     1
102
RTVSPost2010Prop33
280
     0
102
RTVSPost2010PropOp33
 70
     1
102
RTVSPost2010Prop34
280
     0
102
RTVSPost2010PropOp34
 70
     1
102
RTVSPost2010Prop35
280
     0
102
RTVSPost2010PropOp35
 70
     1
102
RTVSPost2010Prop36
280
     0
102
RTVSPost2010PropOp36
 70
     1
102
RTVSPost2010Prop37
 90
       50
102
RTVSPost2010PropOp37
 70
     1
102
RTVSPost2010Prop38
140
0.0
102
RTVSPost2010PropOp38
 70
     1
102
RTVSPost2010Prop39
140
1.0
102
RTVSPost2010PropOp39
 70
     1
102
RTVSPost2010Prop40
 90
        0
102
RTVSPost2010PropOp40
 70
     1
102
RTVSPost2010Prop41ColorIndex
 90
       18
102
RTVSPost2010Prop41ColorRGB
 90
        0
102
RTVSPost2010PropOp41
 70
     1
102
RTVSPost2010Prop42
 90
       50
102
RTVSPost2010PropOp42
 70
     1
102
RTVSPost2010Prop43
 90
        3
102
RTVSPost2010PropOp43
 70
     1
102
RTVSPost2010Prop44ColorIndex
 90
        5
102
RTVSPost2010Prop44ColorRGB
 90
      255
102
RTVSPost2010PropOp44
 70
     1
102
RTVSPost2010Prop45
280
     0
102
RTVSPost2010PropOp45
 70
     1
102
RTVSPost2010Prop46
 90
       50
102
RTVSPost2010PropOp46
 70
     1
102
RTVSPost2010Prop47
 90
       50
102
RTVSPost2010PropOp47
 70
     1
102
RTVSPost2010Prop48
 90
       50
102
RTVSPost2010PropOp48
 70
     1
102
RTVSPost2010Prop49
280
     0
102
RTVSPost2010PropOp49
 70
     1
102
RTVSPost2010Prop50
 90
       50
102
RTVSPost2010PropOp50
 70
     1
102
RTVSPost2010Prop51ColorIndex
 90
      256
102
RTVSPost2010Prop51ColorRGB
 90
-16777216
102
RTVSPost2010PropOp51
 70
     0
102
RTVSPost2010Prop52
140
1.0
102
RTVSPost2010PropOp52
 70
     0
102
RTVSPost2010Prop53
 90
        2
102
RTVSPost2010PropOp53
 70
     1
102
RTVSPost2010Prop54
  1
strokes_ogs.tif
102
RTVSPost2010PropOp54
 70
     1
102
RTVSPost2010Prop55
280
     0
102
RTVSPost2010PropOp55
 70
     1
102
RTVSPost2010Prop56
140
1.0
102
RTVSPost2010PropOp56
 70
     1
102
RTVSPost2010Prop57
140
1.0
102
RTVSPost2010PropOp57
 70
     1
102
RTVSPropertyOp0
 70
     1
102
RTVSPropertyOp1
 70
     1
102
RTVSPropertyOp2
 70
     1
102
RTVSPropertyOp3
 70
     1
102
RTVSPropertyOp4
 70
     1
102
RTVSPropertyOp5
 70
     1
102
RTVSPropertyOp6
 70
     1
102
RTVSPropertyOp7
 70
     1
102
RTVSPropertyOp8
 70
     1
102
RTVSPropertyOp9
 70
     1
102
RTVSPropertyOp10
 70
     1
102
RTVSPropertyOp11
 70
     1
102
RTVSPropertyOp12
 70
     1
102
RTVSPropertyOp13
 70
     1
102
RTVSPropertyOp14
 70
     1
102
RTVSPropertyOp15
 70
     1
102
RTVSPropertyOp16
 70
     1
102
RTVSPropertyOp17
 70
     1
102
RTVSPropertyOp18
 70
     1
102
RTVSPropertyOp19
 70
     1
102
RTVSPropertyOp20
 70
     1
102
RTVSPropertyOp21
 70
     1
102
RTVSPropertyOp22
 70
     1
102
RTVSPropertyOp23
 70
     1
102
RTVSPropertyOp24
 70
     1
102
RTVSPropertyOp25
 70
     1
102
RTVSPropertyOp26
 70
     1
102
RTVSPropertyOp27
 70
     1
102
RTVSPropertyOp28
 70
     1
102
RTVSPropertyOp29
 70
     1
102
RTVSPropertyOp30
 70
     1
102
RTVSPropertyOp31
 70
     1
102
RTVSPropertyOp32
 70
     1
102
RTVSPropertyOp33
 70
     1
102
RTVSPropertyOp34
 70
     1
102
RTVSPropertyOp35
 70
     1
102
RTVSPropertyOp36
 70
     1
102
RTVSPropertyOp37
 70
     1
102
RTVSPropertyOp38
 70
     1
102
RTVSPropertyOp39
 70
     1
102
RTVSPropertyOp40
 70
     1
102
RTVSPropertyOp41
 70
     1
102
RTVSPropertyOp42
 70
     1
102
RTVSPropertyOp43
 70
     1
102
RTVSPropertyOp44
 70
     1
102
RTVSPropertyOp45
 70
     1
102
RTVSPropertyOp46
 70
     1
102
RTVSPropertyOp47
 70
     1
102
RTVSPropertyOp48
 70
     1
102
RTVSPropertyOp49
 70
     1
102
RTVSPropertyOp50
 70
     1
102
RTVSPropertyOp51
 70
     0
102
RTVSPropertyOp52
 70
     0
102
RTVSPropertyOp53
 70
     1
102
RTVSPropertyOp54
 70
     1
102
RTVSPropertyOp55
 70
     1
102
RTVSPropertyOp56
 70
     1
102
RTVSPropertyOp57
 70
     1
102
RTVSPropertyOp58
 70
     1
102
RTVSPropertyOp59
 70
     1
102
RTVSPropertyOp60
 70
     1
102
RTVSPropertyOp61
 70
     1
102
RTVSPropertyOp62
 70
     1
  0
XRECORD
  5
9E30
102
{ACAD_REACTORS
330
9E2F
102
}
330
9E2F
100
AcDbXrecord
280
     1
102
RTVSPost2010Prop28
280
     0
102
RTVSPost2010PropOp28
 70
     1
102
RTVSPost2010Prop29
280
     1
102
RTVSPost2010PropOp29
 70
     1
102
RTVSPost2010Prop30
280
     1
102
RTVSPost2010PropOp30
 70
     1
102
RTVSPost2010Prop31
280
     0
102
RTVSPost2010PropOp31
 70
     1
102
RTVSPost2010Prop32
280
     0
102
RTVSPost2010PropOp32
 70
     1
102
RTVSPost2010Prop33
280
     0
102
RTVSPost2010PropOp33
 70
     1
102
RTVSPost2010Prop34
280
     0
102
RTVSPost2010PropOp34
 70
     1
102
RTVSPost2010Prop35
280
     0
102
RTVSPost2010PropOp35
 70
     1
102
RTVSPost2010Prop36
280
     0
102
RTVSPost2010PropOp36
 70
     1
102
RTVSPost2010Prop37
 90
       50
102
RTVSPost2010PropOp37
 70
     1
102
RTVSPost2010Prop38
140
0.0
102
RTVSPost2010PropOp38
 70
     1
102
RTVSPost2010Prop39
140
1.0
102
RTVSPost2010PropOp39
 70
     1
102
RTVSPost2010Prop40
 90
        0
102
RTVSPost2010PropOp40
 70
     1
102
RTVSPost2010Prop41ColorIndex
 90
       18
102
RTVSPost2010Prop41ColorRGB
 90
        0
102
RTVSPost2010PropOp41
 70
     1
102
RTVSPost2010Prop42
 90
       50
102
RTVSPost2010PropOp42
 70
     1
102
RTVSPost2010Prop43
 90
        3
102
RTVSPost2010PropOp43
 70
     1
102
RTVSPost2010Prop44ColorIndex
 90
        5
102
RTVSPost2010Prop44ColorRGB
 90
      255
102
RTVSPost2010PropOp44
 70
     1
102
RTVSPost2010Prop45
280
     0
102
RTVSPost2010PropOp45
 70
     1
102
RTVSPost2010Prop46
 90
       50
102
RTVSPost2010PropOp46
 70
     1
102
RTVSPost2010Prop47
 90
       50
102
RTVSPost2010PropOp47
 70
     1
102
RTVSPost2010Prop48
 90
       50
102
RTVSPost2010PropOp48
 70
     1
102
RTVSPost2010Prop49
280
     0
102
RTVSPost2010PropOp49
 70
     1
102
RTVSPost2010Prop50
 90
       50
102
RTVSPost2010PropOp50
 70
     1
102
RTVSPost2010Prop51ColorIndex
 90
      256
102
RTVSPost2010Prop51ColorRGB
 90
-16777216
102
RTVSPost2010PropOp51
 70
     0
102
RTVSPost2010Prop52
140
1.0
102
RTVSPost2010PropOp52
 70
     0
102
RTVSPost2010Prop53
 90
        2
102
RTVSPost2010PropOp53
 70
     1
102
RTVSPost2010Prop54
  1
strokes_ogs.tif
102
RTVSPost2010PropOp54
 70
     1
102
RTVSPost2010Prop55
280
     0
102
RTVSPost2010PropOp55
 70
     1
102
RTVSPost2010Prop56
140
1.0
102
RTVSPost2010PropOp56
 70
     1
102
RTVSPost2010Prop57
140
1.0
102
RTVSPost2010PropOp57
 70
     1
102
RTVSPropertyOp0
 70
     1
102
RTVSPropertyOp1
 70
     1
102
RTVSPropertyOp2
 70
     1
102
RTVSPropertyOp3
 70
     1
102
RTVSPropertyOp4
 70
     1
102
RTVSPropertyOp5
 70
     1
102
RTVSPropertyOp6
 70
     1
102
RTVSPropertyOp7
 70
     1
102
RTVSPropertyOp8
 70
     1
102
RTVSPropertyOp9
 70
     1
102
RTVSPropertyOp10
 70
     1
102
RTVSPropertyOp11
 70
     1
102
RTVSPropertyOp12
 70
     1
102
RTVSPropertyOp13
 70
     1
102
RTVSPropertyOp14
 70
     1
102
RTVSPropertyOp15
 70
     1
102
RTVSPropertyOp16
 70
     1
102
RTVSPropertyOp17
 70
     1
102
RTVSPropertyOp18
 70
     1
102
RTVSPropertyOp19
 70
     1
102
RTVSPropertyOp20
 70
     1
102
RTVSPropertyOp21
 70
     1
102
RTVSPropertyOp22
 70
     1
102
RTVSPropertyOp23
 70
     1
102
RTVSPropertyOp24
 70
     1
102
RTVSPropertyOp25
 70
     1
102
RTVSPropertyOp26
 70
     1
102
RTVSPropertyOp27
 70
     1
102
RTVSPropertyOp28
 70
     1
102
RTVSPropertyOp29
 70
     1
102
RTVSPropertyOp30
 70
     1
102
RTVSPropertyOp31
 70
     1
102
RTVSPropertyOp32
 70
     1
102
RTVSPropertyOp33
 70
     1
102
RTVSPropertyOp34
 70
     1
102
RTVSPropertyOp35
 70
     1
102
RTVSPropertyOp36
 70
     1
102
RTVSPropertyOp37
 70
     1
102
RTVSPropertyOp38
 70
     1
102
RTVSPropertyOp39
 70
     1
102
RTVSPropertyOp40
 70
     1
102
RTVSPropertyOp41
 70
     1
102
RTVSPropertyOp42
 70
     1
102
RTVSPropertyOp43
 70
     1
102
RTVSPropertyOp44
 70
     1
102
RTVSPropertyOp45
 70
     1
102
RTVSPropertyOp46
 70
     1
102
RTVSPropertyOp47
 70
     1
102
RTVSPropertyOp48
 70
     1
102
RTVSPropertyOp49
 70
     1
102
RTVSPropertyOp50
 70
     1
102
RTVSPropertyOp51
 70
     0
102
RTVSPropertyOp52
 70
     0
102
RTVSPropertyOp53
 70
     1
102
RTVSPropertyOp54
 70
     1
102
RTVSPropertyOp55
 70
     1
102
RTVSPropertyOp56
 70
     1
102
RTVSPropertyOp57
 70
     1
102
RTVSPropertyOp58
 70
     1
102
RTVSPropertyOp59
 70
     1
102
RTVSPropertyOp60
 70
     1
102
RTVSPropertyOp61
 70
     1
102
RTVSPropertyOp62
 70
     1
  0
XRECORD
  5
9E32
102
{ACAD_REACTORS
330
9E31
102
}
330
9E31
100
AcDbXrecord
280
     1
102
RTVSPost2010Prop28
280
     0
102
RTVSPost2010PropOp28
 70
     1
102
RTVSPost2010Prop29
280
     1
102
RTVSPost2010PropOp29
 70
     1
102
RTVSPost2010Prop30
280
     1
102
RTVSPost2010PropOp30
 70
     1
102
RTVSPost2010Prop31
280
     0
102
RTVSPost2010PropOp31
 70
     1
102
RTVSPost2010Prop32
280
     0
102
RTVSPost2010PropOp32
 70
     1
102
RTVSPost2010Prop33
280
     0
102
RTVSPost2010PropOp33
 70
     1
102
RTVSPost2010Prop34
280
     0
102
RTVSPost2010PropOp34
 70
     1
102
RTVSPost2010Prop35
280
     0
102
RTVSPost2010PropOp35
 70
     1
102
RTVSPost2010Prop36
280
     0
102
RTVSPost2010PropOp36
 70
     1
102
RTVSPost2010Prop37
 90
       50
102
RTVSPost2010PropOp37
 70
     1
102
RTVSPost2010Prop38
140
0.0
102
RTVSPost2010PropOp38
 70
     1
102
RTVSPost2010Prop39
140
1.0
102
RTVSPost2010PropOp39
 70
     1
102
RTVSPost2010Prop40
 90
        0
102
RTVSPost2010PropOp40
 70
     1
102
RTVSPost2010Prop41ColorIndex
 90
       18
102
RTVSPost2010Prop41ColorRGB
 90
        0
102
RTVSPost2010PropOp41
 70
     1
102
RTVSPost2010Prop42
 90
       50
102
RTVSPost2010PropOp42
 70
     1
102
RTVSPost2010Prop43
 90
        3
102
RTVSPost2010PropOp43
 70
     1
102
RTVSPost2010Prop44ColorIndex
 90
        5
102
RTVSPost2010Prop44ColorRGB
 90
      255
102
RTVSPost2010PropOp44
 70
     1
102
RTVSPost2010Prop45
280
     0
102
RTVSPost2010PropOp45
 70
     1
102
RTVSPost2010Prop46
 90
       50
102
RTVSPost2010PropOp46
 70
     1
102
RTVSPost2010Prop47
 90
       50
102
RTVSPost2010PropOp47
 70
     1
102
RTVSPost2010Prop48
 90
       50
102
RTVSPost2010PropOp48
 70
     1
102
RTVSPost2010Prop49
280
     0
102
RTVSPost2010PropOp49
 70
     1
102
RTVSPost2010Prop50
 90
       50
102
RTVSPost2010PropOp50
 70
     1
102
RTVSPost2010Prop51ColorIndex
 90
      256
102
RTVSPost2010Prop51ColorRGB
 90
-16777216
102
RTVSPost2010PropOp51
 70
     0
102
RTVSPost2010Prop52
140
1.0
102
RTVSPost2010PropOp52
 70
     0
102
RTVSPost2010Prop53
 90
        2
102
RTVSPost2010PropOp53
 70
     1
102
RTVSPost2010Prop54
  1
strokes_ogs.tif
102
RTVSPost2010PropOp54
 70
     1
102
RTVSPost2010Prop55
280
     0
102
RTVSPost2010PropOp55
 70
     1
102
RTVSPost2010Prop56
140
1.0
102
RTVSPost2010PropOp56
 70
     1
102
RTVSPost2010Prop57
140
1.0
102
RTVSPost2010PropOp57
 70
     1
102
RTVSPropertyOp0
 70
     1
102
RTVSPropertyOp1
 70
     1
102
RTVSPropertyOp2
 70
     1
102
RTVSPropertyOp3
 70
     1
102
RTVSPropertyOp4
 70
     1
102
RTVSPropertyOp5
 70
     1
102
RTVSPropertyOp6
 70
     1
102
RTVSPropertyOp7
 70
     1
102
RTVSPropertyOp8
 70
     1
102
RTVSPropertyOp9
 70
     1
102
RTVSPropertyOp10
 70
     1
102
RTVSPropertyOp11
 70
     1
102
RTVSPropertyOp12
 70
     1
102
RTVSPropertyOp13
 70
     1
102
RTVSPropertyOp14
 70
     1
102
RTVSPropertyOp15
 70
     1
102
RTVSPropertyOp16
 70
     1
102
RTVSPropertyOp17
 70
     1
102
RTVSPropertyOp18
 70
     1
102
RTVSPropertyOp19
 70
     1
102
RTVSPropertyOp20
 70
     1
102
RTVSPropertyOp21
 70
     1
102
RTVSPropertyOp22
 70
     1
102
RTVSPropertyOp23
 70
     1
102
RTVSPropertyOp24
 70
     1
102
RTVSPropertyOp25
 70
     1
102
RTVSPropertyOp26
 70
     1
102
RTVSPropertyOp27
 70
     1
102
RTVSPropertyOp28
 70
     1
102
RTVSPropertyOp29
 70
     1
102
RTVSPropertyOp30
 70
     1
102
RTVSPropertyOp31
 70
     1
102
RTVSPropertyOp32
 70
     1
102
RTVSPropertyOp33
 70
     1
102
RTVSPropertyOp34
 70
     1
102
RTVSPropertyOp35
 70
     1
102
RTVSPropertyOp36
 70
     1
102
RTVSPropertyOp37
 70
     1
102
RTVSPropertyOp38
 70
     1
102
RTVSPropertyOp39
 70
     1
102
RTVSPropertyOp40
 70
     1
102
RTVSPropertyOp41
 70
     1
102
RTVSPropertyOp42
 70
     1
102
RTVSPropertyOp43
 70
     1
102
RTVSPropertyOp44
 70
     1
102
RTVSPropertyOp45
 70
     1
102
RTVSPropertyOp46
 70
     1
102
RTVSPropertyOp47
 70
     1
102
RTVSPropertyOp48
 70
     1
102
RTVSPropertyOp49
 70
     1
102
RTVSPropertyOp50
 70
     1
102
RTVSPropertyOp51
 70
     0
102
RTVSPropertyOp52
 70
     0
102
RTVSPropertyOp53
 70
     1
102
RTVSPropertyOp54
 70
     1
102
RTVSPropertyOp55
 70
     1
102
RTVSPropertyOp56
 70
     1
102
RTVSPropertyOp57
 70
     1
102
RTVSPropertyOp58
 70
     1
102
RTVSPropertyOp59
 70
     1
102
RTVSPropertyOp60
 70
     1
102
RTVSPropertyOp61
 70
     1
102
RTVSPropertyOp62
 70
     1
  0
XRECORD
  5
9E3A
102
{ACAD_REACTORS
330
9E39
102
}
330
9E39
100
AcDbXrecord
280
     1
102
RTVSPost2010Prop28
280
     0
102
RTVSPost2010PropOp28
 70
     1
102
RTVSPost2010Prop29
280
     1
102
RTVSPost2010PropOp29
 70
     1
102
RTVSPost2010Prop30
280
     1
102
RTVSPost2010PropOp30
 70
     1
102
RTVSPost2010Prop31
280
     0
102
RTVSPost2010PropOp31
 70
     1
102
RTVSPost2010Prop32
280
     0
102
RTVSPost2010PropOp32
 70
     1
102
RTVSPost2010Prop33
280
     0
102
RTVSPost2010PropOp33
 70
     1
102
RTVSPost2010Prop34
280
     0
102
RTVSPost2010PropOp34
 70
     1
102
RTVSPost2010Prop35
280
     0
102
RTVSPost2010PropOp35
 70
     1
102
RTVSPost2010Prop36
280
     0
102
RTVSPost2010PropOp36
 70
     1
102
RTVSPost2010Prop37
 90
       50
102
RTVSPost2010PropOp37
 70
     1
102
RTVSPost2010Prop38
140
0.0
102
RTVSPost2010PropOp38
 70
     1
102
RTVSPost2010Prop39
140
1.0
102
RTVSPost2010PropOp39
 70
     1
102
RTVSPost2010Prop40
 90
        0
102
RTVSPost2010PropOp40
 70
     1
102
RTVSPost2010Prop41ColorIndex
 90
       18
102
RTVSPost2010Prop41ColorRGB
 90
        0
102
RTVSPost2010PropOp41
 70
     1
102
RTVSPost2010Prop42
 90
       50
102
RTVSPost2010PropOp42
 70
     1
102
RTVSPost2010Prop43
 90
        3
102
RTVSPost2010PropOp43
 70
     1
102
RTVSPost2010Prop44ColorIndex
 90
        5
102
RTVSPost2010Prop44ColorRGB
 90
      255
102
RTVSPost2010PropOp44
 70
     1
102
RTVSPost2010Prop45
280
     0
102
RTVSPost2010PropOp45
 70
     1
102
RTVSPost2010Prop46
 90
       50
102
RTVSPost2010PropOp46
 70
     1
102
RTVSPost2010Prop47
 90
       50
102
RTVSPost2010PropOp47
 70
     1
102
RTVSPost2010Prop48
 90
       50
102
RTVSPost2010PropOp48
 70
     1
102
RTVSPost2010Prop49
280
     0
102
RTVSPost2010PropOp49
 70
     1
102
RTVSPost2010Prop50
 90
       50
102
RTVSPost2010PropOp50
 70
     1
102
RTVSPost2010Prop51ColorIndex
 90
      256
102
RTVSPost2010Prop51ColorRGB
 90
-16777216
102
RTVSPost2010PropOp51
 70
     0
102
RTVSPost2010Prop52
140
1.0
102
RTVSPost2010PropOp52
 70
     0
102
RTVSPost2010Prop53
 90
        2
102
RTVSPost2010PropOp53
 70
     1
102
RTVSPost2010Prop54
  1
strokes_ogs.tif
102
RTVSPost2010PropOp54
 70
     1
102
RTVSPost2010Prop55
280
     0
102
RTVSPost2010PropOp55
 70
     1
102
RTVSPost2010Prop56
140
1.0
102
RTVSPost2010PropOp56
 70
     1
102
RTVSPost2010Prop57
140
1.0
102
RTVSPost2010PropOp57
 70
     1
102
RTVSPropertyOp0
 70
     1
102
RTVSPropertyOp1
 70
     1
102
RTVSPropertyOp2
 70
     1
102
RTVSPropertyOp3
 70
     1
102
RTVSPropertyOp4
 70
     1
102
RTVSPropertyOp5
 70
     1
102
RTVSPropertyOp6
 70
     1
102
RTVSPropertyOp7
 70
     1
102
RTVSPropertyOp8
 70
     1
102
RTVSPropertyOp9
 70
     1
102
RTVSPropertyOp10
 70
     1
102
RTVSPropertyOp11
 70
     1
102
RTVSPropertyOp12
 70
     1
102
RTVSPropertyOp13
 70
     1
102
RTVSPropertyOp14
 70
     1
102
RTVSPropertyOp15
 70
     1
102
RTVSPropertyOp16
 70
     1
102
RTVSPropertyOp17
 70
     1
102
RTVSPropertyOp18
 70
     1
102
RTVSPropertyOp19
 70
     1
102
RTVSPropertyOp20
 70
     1
102
RTVSPropertyOp21
 70
     1
102
RTVSPropertyOp22
 70
     1
102
RTVSPropertyOp23
 70
     1
102
RTVSPropertyOp24
 70
     1
102
RTVSPropertyOp25
 70
     1
102
RTVSPropertyOp26
 70
     1
102
RTVSPropertyOp27
 70
     1
102
RTVSPropertyOp28
 70
     1
102
RTVSPropertyOp29
 70
     1
102
RTVSPropertyOp30
 70
     1
102
RTVSPropertyOp31
 70
     1
102
RTVSPropertyOp32
 70
     1
102
RTVSPropertyOp33
 70
     1
102
RTVSPropertyOp34
 70
     1
102
RTVSPropertyOp35
 70
     1
102
RTVSPropertyOp36
 70
     1
102
RTVSPropertyOp37
 70
     1
102
RTVSPropertyOp38
 70
     1
102
RTVSPropertyOp39
 70
     1
102
RTVSPropertyOp40
 70
     1
102
RTVSPropertyOp41
 70
     1
102
RTVSPropertyOp42
 70
     1
102
RTVSPropertyOp43
 70
     1
102
RTVSPropertyOp44
 70
     1
102
RTVSPropertyOp45
 70
     1
102
RTVSPropertyOp46
 70
     1
102
RTVSPropertyOp47
 70
     1
102
RTVSPropertyOp48
 70
     1
102
RTVSPropertyOp49
 70
     1
102
RTVSPropertyOp50
 70
     1
102
RTVSPropertyOp51
 70
     0
102
RTVSPropertyOp52
 70
     0
102
RTVSPropertyOp53
 70
     1
102
RTVSPropertyOp54
 70
     1
102
RTVSPropertyOp55
 70
     1
102
RTVSPropertyOp56
 70
     1
102
RTVSPropertyOp57
 70
     1
102
RTVSPropertyOp58
 70
     1
102
RTVSPropertyOp59
 70
     1
102
RTVSPropertyOp60
 70
     1
102
RTVSPropertyOp61
 70
     1
102
RTVSPropertyOp62
 70
     1
  0
XRECORD
  5
9E56
102
{ACAD_REACTORS
330
9E55
102
}
330
9E55
100
AcDbXrecord
280
     1
102
RTVSPost2010Prop28
280
     0
102
RTVSPost2010PropOp28
 70
     1
102
RTVSPost2010Prop29
280
     1
102
RTVSPost2010PropOp29
 70
     1
102
RTVSPost2010Prop30
280
     1
102
RTVSPost2010PropOp30
 70
     1
102
RTVSPost2010Prop31
280
     0
102
RTVSPost2010PropOp31
 70
     1
102
RTVSPost2010Prop32
280
     0
102
RTVSPost2010PropOp32
 70
     1
102
RTVSPost2010Prop33
280
     0
102
RTVSPost2010PropOp33
 70
     1
102
RTVSPost2010Prop34
280
     0
102
RTVSPost2010PropOp34
 70
     1
102
RTVSPost2010Prop35
280
     0
102
RTVSPost2010PropOp35
 70
     1
102
RTVSPost2010Prop36
280
     0
102
RTVSPost2010PropOp36
 70
     1
102
RTVSPost2010Prop37
 90
       50
102
RTVSPost2010PropOp37
 70
     0
102
RTVSPost2010Prop38
140
0.0
102
RTVSPost2010PropOp38
 70
     0
102
RTVSPost2010Prop39
140
1.0
102
RTVSPost2010PropOp39
 70
     0
102
RTVSPost2010Prop40
 90
        0
102
RTVSPost2010PropOp40
 70
     0
102
RTVSPost2010Prop41ColorIndex
 90
       18
102
RTVSPost2010Prop41ColorRGB
 90
        0
102
RTVSPost2010PropOp41
 70
     0
102
RTVSPost2010Prop42
 90
       50
102
RTVSPost2010PropOp42
 70
     0
102
RTVSPost2010Prop43
 90
        3
102
RTVSPost2010PropOp43
 70
     0
102
RTVSPost2010Prop44ColorIndex
 90
        5
102
RTVSPost2010Prop44ColorRGB
 90
      255
102
RTVSPost2010PropOp44
 70
     0
102
RTVSPost2010Prop45
280
     0
102
RTVSPost2010PropOp45
 70
     1
102
RTVSPost2010Prop46
 90
       50
102
RTVSPost2010PropOp46
 70
     0
102
RTVSPost2010Prop47
 90
       50
102
RTVSPost2010PropOp47
 70
     0
102
RTVSPost2010Prop48
 90
       50
102
RTVSPost2010PropOp48
 70
     0
102
RTVSPost2010Prop49
280
     0
102
RTVSPost2010PropOp49
 70
     1
102
RTVSPost2010Prop50
 90
       50
102
RTVSPost2010PropOp50
 70
     0
102
RTVSPost2010Prop51ColorIndex
 90
      256
102
RTVSPost2010Prop51ColorRGB
 90
-16777216
102
RTVSPost2010PropOp51
 70
     0
102
RTVSPost2010Prop52
140
1.0
102
RTVSPost2010PropOp52
 70
     0
102
RTVSPost2010Prop53
 90
        2
102
RTVSPost2010PropOp53
 70
     0
102
RTVSPost2010Prop54
  1
strokes_ogs.tif
102
RTVSPost2010PropOp54
 70
     0
102
RTVSPost2010Prop55
280
     0
102
RTVSPost2010PropOp55
 70
     1
102
RTVSPost2010Prop56
140
1.0
102
RTVSPost2010PropOp56
 70
     0
102
RTVSPost2010Prop57
140
1.0
102
RTVSPost2010PropOp57
 70
     0
102
RTVSPropertyOp0
 70
     0
102
RTVSPropertyOp1
 70
     0
102
RTVSPropertyOp2
 70
     0
102
RTVSPropertyOp3
 70
     0
102
RTVSPropertyOp4
 70
     0
102
RTVSPropertyOp5
 70
     0
102
RTVSPropertyOp6
 70
     0
102
RTVSPropertyOp7
 70
     0
102
RTVSPropertyOp8
 70
     0
102
RTVSPropertyOp9
 70
     0
102
RTVSPropertyOp10
 70
     0
102
RTVSPropertyOp11
 70
     0
102
RTVSPropertyOp12
 70
     0
102
RTVSPropertyOp13
 70
     0
102
RTVSPropertyOp14
 70
     2
102
RTVSPropertyOp15
 70
     0
102
RTVSPropertyOp16
 70
     0
102
RTVSPropertyOp17
 70
     0
102
RTVSPropertyOp18
 70
     0
102
RTVSPropertyOp19
 70
     0
102
RTVSPropertyOp20
 70
     0
102
RTVSPropertyOp21
 70
     0
102
RTVSPropertyOp22
 70
     0
102
RTVSPropertyOp23
 70
     0
102
RTVSPropertyOp24
 70
     0
102
RTVSPropertyOp25
 70
     0
102
RTVSPropertyOp26
 70
     0
102
RTVSPropertyOp27
 70
     0
102
RTVSPropertyOp28
 70
     1
102
RTVSPropertyOp29
 70
     1
102
RTVSPropertyOp30
 70
     1
102
RTVSPropertyOp31
 70
     1
102
RTVSPropertyOp32
 70
     1
102
RTVSPropertyOp33
 70
     1
102
RTVSPropertyOp34
 70
     1
102
RTVSPropertyOp35
 70
     1
102
RTVSPropertyOp36
 70
     1
102
RTVSPropertyOp37
 70
     0
102
RTVSPropertyOp38
 70
     0
102
RTVSPropertyOp39
 70
     0
102
RTVSPropertyOp40
 70
     0
102
RTVSPropertyOp41
 70
     0
102
RTVSPropertyOp42
 70
     0
102
RTVSPropertyOp43
 70
     0
102
RTVSPropertyOp44
 70
     0
102
RTVSPropertyOp45
 70
     1
102
RTVSPropertyOp46
 70
     0
102
RTVSPropertyOp47
 70
     0
102
RTVSPropertyOp48
 70
     0
102
RTVSPropertyOp49
 70
     1
102
RTVSPropertyOp50
 70
     0
102
RTVSPropertyOp51
 70
     0
102
RTVSPropertyOp52
 70
     0
102
RTVSPropertyOp53
 70
     0
102
RTVSPropertyOp54
 70
     0
102
RTVSPropertyOp55
 70
     1
102
RTVSPropertyOp56
 70
     0
102
RTVSPropertyOp57
 70
     0
102
RTVSPropertyOp58
 70
     0
102
RTVSPropertyOp59
 70
     0
102
RTVSPropertyOp60
 70
     0
102
RTVSPropertyOp61
 70
     0
102
RTVSPropertyOp62
 70
     0
  0
XRECORD
  5
9E46
102
{ACAD_REACTORS
330
9E45
102
}
330
9E45
100
AcDbXrecord
280
     1
102
RTVSPost2010Prop28
280
     0
102
RTVSPost2010PropOp28
 70
     1
102
RTVSPost2010Prop29
280
     1
102
RTVSPost2010PropOp29
 70
     1
102
RTVSPost2010Prop30
280
     1
102
RTVSPost2010PropOp30
 70
     1
102
RTVSPost2010Prop31
280
     0
102
RTVSPost2010PropOp31
 70
     1
102
RTVSPost2010Prop32
280
     0
102
RTVSPost2010PropOp32
 70
     1
102
RTVSPost2010Prop33
280
     0
102
RTVSPost2010PropOp33
 70
     1
102
RTVSPost2010Prop34
280
     0
102
RTVSPost2010PropOp34
 70
     1
102
RTVSPost2010Prop35
280
     0
102
RTVSPost2010PropOp35
 70
     1
102
RTVSPost2010Prop36
280
     0
102
RTVSPost2010PropOp36
 70
     1
102
RTVSPost2010Prop37
 90
       50
102
RTVSPost2010PropOp37
 70
     1
102
RTVSPost2010Prop38
140
0.0
102
RTVSPost2010PropOp38
 70
     1
102
RTVSPost2010Prop39
140
1.0
102
RTVSPost2010PropOp39
 70
     1
102
RTVSPost2010Prop40
 90
        0
102
RTVSPost2010PropOp40
 70
     1
102
RTVSPost2010Prop41ColorIndex
 90
       18
102
RTVSPost2010Prop41ColorRGB
 90
        0
102
RTVSPost2010PropOp41
 70
     1
102
RTVSPost2010Prop42
 90
       50
102
RTVSPost2010PropOp42
 70
     1
102
RTVSPost2010Prop43
 90
        3
102
RTVSPost2010PropOp43
 70
     1
102
RTVSPost2010Prop44ColorIndex
 90
        5
102
RTVSPost2010Prop44ColorRGB
 90
      255
102
RTVSPost2010PropOp44
 70
     1
102
RTVSPost2010Prop45
280
     0
102
RTVSPost2010PropOp45
 70
     1
102
RTVSPost2010Prop46
 90
       50
102
RTVSPost2010PropOp46
 70
     1
102
RTVSPost2010Prop47
 90
       50
102
RTVSPost2010PropOp47
 70
     1
102
RTVSPost2010Prop48
 90
       50
102
RTVSPost2010PropOp48
 70
     1
102
RTVSPost2010Prop49
280
     0
102
RTVSPost2010PropOp49
 70
     1
102
RTVSPost2010Prop50
 90
       50
102
RTVSPost2010PropOp50
 70
     1
102
RTVSPost2010Prop51ColorIndex
 90
      256
102
RTVSPost2010Prop51ColorRGB
 90
-16777216
102
RTVSPost2010PropOp51
 70
     0
102
RTVSPost2010Prop52
140
1.0
102
RTVSPost2010PropOp52
 70
     0
102
RTVSPost2010Prop53
 90
        2
102
RTVSPost2010PropOp53
 70
     1
102
RTVSPost2010Prop54
  1
strokes_ogs.tif
102
RTVSPost2010PropOp54
 70
     1
102
RTVSPost2010Prop55
280
     0
102
RTVSPost2010PropOp55
 70
     1
102
RTVSPost2010Prop56
140
1.0
102
RTVSPost2010PropOp56
 70
     1
102
RTVSPost2010Prop57
140
1.0
102
RTVSPost2010PropOp57
 70
     1
102
RTVSPropertyOp0
 70
     1
102
RTVSPropertyOp1
 70
     1
102
RTVSPropertyOp2
 70
     1
102
RTVSPropertyOp3
 70
     1
102
RTVSPropertyOp4
 70
     1
102
RTVSPropertyOp5
 70
     1
102
RTVSPropertyOp6
 70
     1
102
RTVSPropertyOp7
 70
     1
102
RTVSPropertyOp8
 70
     1
102
RTVSPropertyOp9
 70
     1
102
RTVSPropertyOp10
 70
     1
102
RTVSPropertyOp11
 70
     1
102
RTVSPropertyOp12
 70
     1
102
RTVSPropertyOp13
 70
     1
102
RTVSPropertyOp14
 70
     1
102
RTVSPropertyOp15
 70
     1
102
RTVSPropertyOp16
 70
     1
102
RTVSPropertyOp17
 70
     1
102
RTVSPropertyOp18
 70
     1
102
RTVSPropertyOp19
 70
     1
102
RTVSPropertyOp20
 70
     1
102
RTVSPropertyOp21
 70
     1
102
RTVSPropertyOp22
 70
     1
102
RTVSPropertyOp23
 70
     1
102
RTVSPropertyOp24
 70
     1
102
RTVSPropertyOp25
 70
     1
102
RTVSPropertyOp26
 70
     1
102
RTVSPropertyOp27
 70
     1
102
RTVSPropertyOp28
 70
     1
102
RTVSPropertyOp29
 70
     1
102
RTVSPropertyOp30
 70
     1
102
RTVSPropertyOp31
 70
     1
102
RTVSPropertyOp32
 70
     1
102
RTVSPropertyOp33
 70
     1
102
RTVSPropertyOp34
 70
     1
102
RTVSPropertyOp35
 70
     1
102
RTVSPropertyOp36
 70
     1
102
RTVSPropertyOp37
 70
     1
102
RTVSPropertyOp38
 70
     1
102
RTVSPropertyOp39
 70
     1
102
RTVSPropertyOp40
 70
     1
102
RTVSPropertyOp41
 70
     1
102
RTVSPropertyOp42
 70
     1
102
RTVSPropertyOp43
 70
     1
102
RTVSPropertyOp44
 70
     1
102
RTVSPropertyOp45
 70
     1
102
RTVSPropertyOp46
 70
     1
102
RTVSPropertyOp47
 70
     1
102
RTVSPropertyOp48
 70
     1
102
RTVSPropertyOp49
 70
     1
102
RTVSPropertyOp50
 70
     1
102
RTVSPropertyOp51
 70
     0
102
RTVSPropertyOp52
 70
     0
102
RTVSPropertyOp53
 70
     1
102
RTVSPropertyOp54
 70
     1
102
RTVSPropertyOp55
 70
     1
102
RTVSPropertyOp56
 70
     1
102
RTVSPropertyOp57
 70
     1
102
RTVSPropertyOp58
 70
     1
102
RTVSPropertyOp59
 70
     1
102
RTVSPropertyOp60
 70
     1
102
RTVSPropertyOp61
 70
     1
102
RTVSPropertyOp62
 70
     1
  0
XRECORD
  5
9E58
102
{ACAD_REACTORS
330
9E57
102
}
330
9E57
100
AcDbXrecord
280
     1
102
RTVSPost2010Prop28
280
     0
102
RTVSPost2010PropOp28
 70
     1
102
RTVSPost2010Prop29
280
     1
102
RTVSPost2010PropOp29
 70
     1
102
RTVSPost2010Prop30
280
     1
102
RTVSPost2010PropOp30
 70
     1
102
RTVSPost2010Prop31
280
     0
102
RTVSPost2010PropOp31
 70
     1
102
RTVSPost2010Prop32
280
     0
102
RTVSPost2010PropOp32
 70
     1
102
RTVSPost2010Prop33
280
     0
102
RTVSPost2010PropOp33
 70
     1
102
RTVSPost2010Prop34
280
     0
102
RTVSPost2010PropOp34
 70
     1
102
RTVSPost2010Prop35
280
     0
102
RTVSPost2010PropOp35
 70
     1
102
RTVSPost2010Prop36
280
     0
102
RTVSPost2010PropOp36
 70
     1
102
RTVSPost2010Prop37
 90
       50
102
RTVSPost2010PropOp37
 70
     0
102
RTVSPost2010Prop38
140
0.0
102
RTVSPost2010PropOp38
 70
     0
102
RTVSPost2010Prop39
140
1.0
102
RTVSPost2010PropOp39
 70
     0
102
RTVSPost2010Prop40
 90
        0
102
RTVSPost2010PropOp40
 70
     0
102
RTVSPost2010Prop41ColorIndex
 90
       18
102
RTVSPost2010Prop41ColorRGB
 90
        0
102
RTVSPost2010PropOp41
 70
     0
102
RTVSPost2010Prop42
 90
       50
102
RTVSPost2010PropOp42
 70
     0
102
RTVSPost2010Prop43
 90
        3
102
RTVSPost2010PropOp43
 70
     0
102
RTVSPost2010Prop44ColorIndex
 90
        5
102
RTVSPost2010Prop44ColorRGB
 90
      255
102
RTVSPost2010PropOp44
 70
     0
102
RTVSPost2010Prop45
280
     0
102
RTVSPost2010PropOp45
 70
     1
102
RTVSPost2010Prop46
 90
       50
102
RTVSPost2010PropOp46
 70
     0
102
RTVSPost2010Prop47
 90
       50
102
RTVSPost2010PropOp47
 70
     0
102
RTVSPost2010Prop48
 90
       50
102
RTVSPost2010PropOp48
 70
     0
102
RTVSPost2010Prop49
280
     0
102
RTVSPost2010PropOp49
 70
     1
102
RTVSPost2010Prop50
 90
       50
102
RTVSPost2010PropOp50
 70
     0
102
RTVSPost2010Prop51ColorIndex
 90
      256
102
RTVSPost2010Prop51ColorRGB
 90
-16777216
102
RTVSPost2010PropOp51
 70
     0
102
RTVSPost2010Prop52
140
1.0
102
RTVSPost2010PropOp52
 70
     0
102
RTVSPost2010Prop53
 90
        2
102
RTVSPost2010PropOp53
 70
     0
102
RTVSPost2010Prop54
  1
strokes_ogs.tif
102
RTVSPost2010PropOp54
 70
     0
102
RTVSPost2010Prop55
280
     0
102
RTVSPost2010PropOp55
 70
     1
102
RTVSPost2010Prop56
140
1.0
102
RTVSPost2010PropOp56
 70
     0
102
RTVSPost2010Prop57
140
1.0
102
RTVSPost2010PropOp57
 70
     0
102
RTVSPropertyOp0
 70
     0
102
RTVSPropertyOp1
 70
     0
102
RTVSPropertyOp2
 70
     0
102
RTVSPropertyOp3
 70
     0
102
RTVSPropertyOp4
 70
     0
102
RTVSPropertyOp5
 70
     0
102
RTVSPropertyOp6
 70
     0
102
RTVSPropertyOp7
 70
     0
102
RTVSPropertyOp8
 70
     0
102
RTVSPropertyOp9
 70
     0
102
RTVSPropertyOp10
 70
     0
102
RTVSPropertyOp11
 70
     0
102
RTVSPropertyOp12
 70
     0
102
RTVSPropertyOp13
 70
     0
102
RTVSPropertyOp14
 70
     2
102
RTVSPropertyOp15
 70
     0
102
RTVSPropertyOp16
 70
     0
102
RTVSPropertyOp17
 70
     0
102
RTVSPropertyOp18
 70
     0
102
RTVSPropertyOp19
 70
     0
102
RTVSPropertyOp20
 70
     0
102
RTVSPropertyOp21
 70
     0
102
RTVSPropertyOp22
 70
     0
102
RTVSPropertyOp23
 70
     0
102
RTVSPropertyOp24
 70
     0
102
RTVSPropertyOp25
 70
     0
102
RTVSPropertyOp26
 70
     0
102
RTVSPropertyOp27
 70
     0
102
RTVSPropertyOp28
 70
     1
102
RTVSPropertyOp29
 70
     1
102
RTVSPropertyOp30
 70
     1
102
RTVSPropertyOp31
 70
     1
102
RTVSPropertyOp32
 70
     1
102
RTVSPropertyOp33
 70
     1
102
RTVSPropertyOp34
 70
     1
102
RTVSPropertyOp35
 70
     1
102
RTVSPropertyOp36
 70
     1
102
RTVSPropertyOp37
 70
     0
102
RTVSPropertyOp38
 70
     0
102
RTVSPropertyOp39
 70
     0
102
RTVSPropertyOp40
 70
     0
102
RTVSPropertyOp41
 70
     0
102
RTVSPropertyOp42
 70
     0
102
RTVSPropertyOp43
 70
     0
102
RTVSPropertyOp44
 70
     0
102
RTVSPropertyOp45
 70
     1
102
RTVSPropertyOp46
 70
     0
102
RTVSPropertyOp47
 70
     0
102
RTVSPropertyOp48
 70
     0
102
RTVSPropertyOp49
 70
     1
102
RTVSPropertyOp50
 70
     0
102
RTVSPropertyOp51
 70
     0
102
RTVSPropertyOp52
 70
     0
102
RTVSPropertyOp53
 70
     0
102
RTVSPropertyOp54
 70
     0
102
RTVSPropertyOp55
 70
     1
102
RTVSPropertyOp56
 70
     0
102
RTVSPropertyOp57
 70
     0
102
RTVSPropertyOp58
 70
     0
102
RTVSPropertyOp59
 70
     0
102
RTVSPropertyOp60
 70
     0
102
RTVSPropertyOp61
 70
     0
102
RTVSPropertyOp62
 70
     0
  0
XRECORD
  5
9E3E
102
{ACAD_REACTORS
330
9E3D
102
}
330
9E3D
100
AcDbXrecord
280
     1
102
RTVSPost2010Prop28
280
     0
102
RTVSPost2010PropOp28
 70
     1
102
RTVSPost2010Prop29
280
     1
102
RTVSPost2010PropOp29
 70
     1
102
RTVSPost2010Prop30
280
     1
102
RTVSPost2010PropOp30
 70
     1
102
RTVSPost2010Prop31
280
     0
102
RTVSPost2010PropOp31
 70
     1
102
RTVSPost2010Prop32
280
     0
102
RTVSPost2010PropOp32
 70
     1
102
RTVSPost2010Prop33
280
     0
102
RTVSPost2010PropOp33
 70
     1
102
RTVSPost2010Prop34
280
     0
102
RTVSPost2010PropOp34
 70
     1
102
RTVSPost2010Prop35
280
     0
102
RTVSPost2010PropOp35
 70
     1
102
RTVSPost2010Prop36
280
     0
102
RTVSPost2010PropOp36
 70
     1
102
RTVSPost2010Prop37
 90
       50
102
RTVSPost2010PropOp37
 70
     1
102
RTVSPost2010Prop38
140
0.0
102
RTVSPost2010PropOp38
 70
     1
102
RTVSPost2010Prop39
140
1.0
102
RTVSPost2010PropOp39
 70
     1
102
RTVSPost2010Prop40
 90
        0
102
RTVSPost2010PropOp40
 70
     1
102
RTVSPost2010Prop41ColorIndex
 90
       18
102
RTVSPost2010Prop41ColorRGB
 90
        0
102
RTVSPost2010PropOp41
 70
     1
102
RTVSPost2010Prop42
 90
       50
102
RTVSPost2010PropOp42
 70
     1
102
RTVSPost2010Prop43
 90
        3
102
RTVSPost2010PropOp43
 70
     1
102
RTVSPost2010Prop44ColorIndex
 90
        5
102
RTVSPost2010Prop44ColorRGB
 90
      255
102
RTVSPost2010PropOp44
 70
     1
102
RTVSPost2010Prop45
280
     0
102
RTVSPost2010PropOp45
 70
     1
102
RTVSPost2010Prop46
 90
       50
102
RTVSPost2010PropOp46
 70
     1
102
RTVSPost2010Prop47
 90
       50
102
RTVSPost2010PropOp47
 70
     1
102
RTVSPost2010Prop48
 90
       50
102
RTVSPost2010PropOp48
 70
     1
102
RTVSPost2010Prop49
280
     0
102
RTVSPost2010PropOp49
 70
     1
102
RTVSPost2010Prop50
 90
       50
102
RTVSPost2010PropOp50
 70
     1
102
RTVSPost2010Prop51ColorIndex
 90
      256
102
RTVSPost2010Prop51ColorRGB
 90
-16777216
102
RTVSPost2010PropOp51
 70
     0
102
RTVSPost2010Prop52
140
1.0
102
RTVSPost2010PropOp52
 70
     0
102
RTVSPost2010Prop53
 90
        2
102
RTVSPost2010PropOp53
 70
     1
102
RTVSPost2010Prop54
  1
strokes_ogs.tif
102
RTVSPost2010PropOp54
 70
     1
102
RTVSPost2010Prop55
280
     0
102
RTVSPost2010PropOp55
 70
     1
102
RTVSPost2010Prop56
140
1.0
102
RTVSPost2010PropOp56
 70
     1
102
RTVSPost2010Prop57
140
1.0
102
RTVSPost2010PropOp57
 70
     1
102
RTVSPropertyOp0
 70
     1
102
RTVSPropertyOp1
 70
     1
102
RTVSPropertyOp2
 70
     1
102
RTVSPropertyOp3
 70
     1
102
RTVSPropertyOp4
 70
     1
102
RTVSPropertyOp5
 70
     1
102
RTVSPropertyOp6
 70
     1
102
RTVSPropertyOp7
 70
     1
102
RTVSPropertyOp8
 70
     1
102
RTVSPropertyOp9
 70
     1
102
RTVSPropertyOp10
 70
     1
102
RTVSPropertyOp11
 70
     1
102
RTVSPropertyOp12
 70
     1
102
RTVSPropertyOp13
 70
     1
102
RTVSPropertyOp14
 70
     1
102
RTVSPropertyOp15
 70
     1
102
RTVSPropertyOp16
 70
     1
102
RTVSPropertyOp17
 70
     1
102
RTVSPropertyOp18
 70
     1
102
RTVSPropertyOp19
 70
     1
102
RTVSPropertyOp20
 70
     1
102
RTVSPropertyOp21
 70
     1
102
RTVSPropertyOp22
 70
     1
102
RTVSPropertyOp23
 70
     1
102
RTVSPropertyOp24
 70
     1
102
RTVSPropertyOp25
 70
     1
102
RTVSPropertyOp26
 70
     1
102
RTVSPropertyOp27
 70
     1
102
RTVSPropertyOp28
 70
     1
102
RTVSPropertyOp29
 70
     1
102
RTVSPropertyOp30
 70
     1
102
RTVSPropertyOp31
 70
     1
102
RTVSPropertyOp32
 70
     1
102
RTVSPropertyOp33
 70
     1
102
RTVSPropertyOp34
 70
     1
102
RTVSPropertyOp35
 70
     1
102
RTVSPropertyOp36
 70
     1
102
RTVSPropertyOp37
 70
     1
102
RTVSPropertyOp38
 70
     1
102
RTVSPropertyOp39
 70
     1
102
RTVSPropertyOp40
 70
     1
102
RTVSPropertyOp41
 70
     1
102
RTVSPropertyOp42
 70
     1
102
RTVSPropertyOp43
 70
     1
102
RTVSPropertyOp44
 70
     1
102
RTVSPropertyOp45
 70
     1
102
RTVSPropertyOp46
 70
     1
102
RTVSPropertyOp47
 70
     1
102
RTVSPropertyOp48
 70
     1
102
RTVSPropertyOp49
 70
     1
102
RTVSPropertyOp50
 70
     1
102
RTVSPropertyOp51
 70
     0
102
RTVSPropertyOp52
 70
     0
102
RTVSPropertyOp53
 70
     1
102
RTVSPropertyOp54
 70
     1
102
RTVSPropertyOp55
 70
     1
102
RTVSPropertyOp56
 70
     1
102
RTVSPropertyOp57
 70
     1
102
RTVSPropertyOp58
 70
     1
102
RTVSPropertyOp59
 70
     1
102
RTVSPropertyOp60
 70
     1
102
RTVSPropertyOp61
 70
     1
102
RTVSPropertyOp62
 70
     1
  0
XRECORD
  5
9E54
102
{ACAD_REACTORS
330
9E53
102
}
330
9E53
100
AcDbXrecord
280
     1
102
RTVSPost2010Prop28
280
     0
102
RTVSPost2010PropOp28
 70
     1
102
RTVSPost2010Prop29
280
     1
102
RTVSPost2010PropOp29
 70
     1
102
RTVSPost2010Prop30
280
     1
102
RTVSPost2010PropOp30
 70
     1
102
RTVSPost2010Prop31
280
     0
102
RTVSPost2010PropOp31
 70
     1
102
RTVSPost2010Prop32
280
     0
102
RTVSPost2010PropOp32
 70
     1
102
RTVSPost2010Prop33
280
     0
102
RTVSPost2010PropOp33
 70
     1
102
RTVSPost2010Prop34
280
     0
102
RTVSPost2010PropOp34
 70
     1
102
RTVSPost2010Prop35
280
     0
102
RTVSPost2010PropOp35
 70
     1
102
RTVSPost2010Prop36
280
     0
102
RTVSPost2010PropOp36
 70
     1
102
RTVSPost2010Prop37
 90
       50
102
RTVSPost2010PropOp37
 70
     1
102
RTVSPost2010Prop38
140
0.0
102
RTVSPost2010PropOp38
 70
     1
102
RTVSPost2010Prop39
140
1.0
102
RTVSPost2010PropOp39
 70
     1
102
RTVSPost2010Prop40
 90
        0
102
RTVSPost2010PropOp40
 70
     1
102
RTVSPost2010Prop41ColorIndex
 90
       18
102
RTVSPost2010Prop41ColorRGB
 90
        0
102
RTVSPost2010PropOp41
 70
     1
102
RTVSPost2010Prop42
 90
       50
102
RTVSPost2010PropOp42
 70
     1
102
RTVSPost2010Prop43
 90
        3
102
RTVSPost2010PropOp43
 70
     1
102
RTVSPost2010Prop44ColorIndex
 90
        5
102
RTVSPost2010Prop44ColorRGB
 90
      255
102
RTVSPost2010PropOp44
 70
     1
102
RTVSPost2010Prop45
280
     0
102
RTVSPost2010PropOp45
 70
     1
102
RTVSPost2010Prop46
 90
       50
102
RTVSPost2010PropOp46
 70
     1
102
RTVSPost2010Prop47
 90
       50
102
RTVSPost2010PropOp47
 70
     1
102
RTVSPost2010Prop48
 90
       50
102
RTVSPost2010PropOp48
 70
     1
102
RTVSPost2010Prop49
280
     0
102
RTVSPost2010PropOp49
 70
     1
102
RTVSPost2010Prop50
 90
       50
102
RTVSPost2010PropOp50
 70
     1
102
RTVSPost2010Prop51ColorIndex
 90
      256
102
RTVSPost2010Prop51ColorRGB
 90
-16777216
102
RTVSPost2010PropOp51
 70
     0
102
RTVSPost2010Prop52
140
1.0
102
RTVSPost2010PropOp52
 70
     0
102
RTVSPost2010Prop53
 90
        2
102
RTVSPost2010PropOp53
 70
     1
102
RTVSPost2010Prop54
  1
strokes_ogs.tif
102
RTVSPost2010PropOp54
 70
     1
102
RTVSPost2010Prop55
280
     0
102
RTVSPost2010PropOp55
 70
     1
102
RTVSPost2010Prop56
140
1.0
102
RTVSPost2010PropOp56
 70
     1
102
RTVSPost2010Prop57
140
1.0
102
RTVSPost2010PropOp57
 70
     1
102
RTVSPropertyOp0
 70
     1
102
RTVSPropertyOp1
 70
     1
102
RTVSPropertyOp2
 70
     1
102
RTVSPropertyOp3
 70
     1
102
RTVSPropertyOp4
 70
     1
102
RTVSPropertyOp5
 70
     1
102
RTVSPropertyOp6
 70
     1
102
RTVSPropertyOp7
 70
     1
102
RTVSPropertyOp8
 70
     1
102
RTVSPropertyOp9
 70
     1
102
RTVSPropertyOp10
 70
     1
102
RTVSPropertyOp11
 70
     1
102
RTVSPropertyOp12
 70
     1
102
RTVSPropertyOp13
 70
     1
102
RTVSPropertyOp14
 70
     1
102
RTVSPropertyOp15
 70
     1
102
RTVSPropertyOp16
 70
     1
102
RTVSPropertyOp17
 70
     1
102
RTVSPropertyOp18
 70
     1
102
RTVSPropertyOp19
 70
     1
102
RTVSPropertyOp20
 70
     1
102
RTVSPropertyOp21
 70
     1
102
RTVSPropertyOp22
 70
     1
102
RTVSPropertyOp23
 70
     1
102
RTVSPropertyOp24
 70
     1
102
RTVSPropertyOp25
 70
     1
102
RTVSPropertyOp26
 70
     1
102
RTVSPropertyOp27
 70
     1
102
RTVSPropertyOp28
 70
     1
102
RTVSPropertyOp29
 70
     1
102
RTVSPropertyOp30
 70
     1
102
RTVSPropertyOp31
 70
     1
102
RTVSPropertyOp32
 70
     1
102
RTVSPropertyOp33
 70
     1
102
RTVSPropertyOp34
 70
     1
102
RTVSPropertyOp35
 70
     1
102
RTVSPropertyOp36
 70
     1
102
RTVSPropertyOp37
 70
     1
102
RTVSPropertyOp38
 70
     1
102
RTVSPropertyOp39
 70
     1
102
RTVSPropertyOp40
 70
     1
102
RTVSPropertyOp41
 70
     1
102
RTVSPropertyOp42
 70
     1
102
RTVSPropertyOp43
 70
     1
102
RTVSPropertyOp44
 70
     1
102
RTVSPropertyOp45
 70
     1
102
RTVSPropertyOp46
 70
     1
102
RTVSPropertyOp47
 70
     1
102
RTVSPropertyOp48
 70
     1
102
RTVSPropertyOp49
 70
     1
102
RTVSPropertyOp50
 70
     1
102
RTVSPropertyOp51
 70
     0
102
RTVSPropertyOp52
 70
     0
102
RTVSPropertyOp53
 70
     1
102
RTVSPropertyOp54
 70
     1
102
RTVSPropertyOp55
 70
     1
102
RTVSPropertyOp56
 70
     1
102
RTVSPropertyOp57
 70
     1
102
RTVSPropertyOp58
 70
     1
102
RTVSPropertyOp59
 70
     1
102
RTVSPropertyOp60
 70
     1
102
RTVSPropertyOp61
 70
     1
102
RTVSPropertyOp62
 70
     1
  0
XRECORD
  5
9E52
102
{ACAD_REACTORS
330
9E51
102
}
330
9E51
100
AcDbXrecord
280
     1
102
RTVSPost2010Prop28
280
     0
102
RTVSPost2010PropOp28
 70
     1
102
RTVSPost2010Prop29
280
     1
102
RTVSPost2010PropOp29
 70
     1
102
RTVSPost2010Prop30
280
     1
102
RTVSPost2010PropOp30
 70
     1
102
RTVSPost2010Prop31
280
     0
102
RTVSPost2010PropOp31
 70
     1
102
RTVSPost2010Prop32
280
     0
102
RTVSPost2010PropOp32
 70
     1
102
RTVSPost2010Prop33
280
     0
102
RTVSPost2010PropOp33
 70
     1
102
RTVSPost2010Prop34
280
     0
102
RTVSPost2010PropOp34
 70
     1
102
RTVSPost2010Prop35
280
     0
102
RTVSPost2010PropOp35
 70
     1
102
RTVSPost2010Prop36
280
     0
102
RTVSPost2010PropOp36
 70
     1
102
RTVSPost2010Prop37
 90
       50
102
RTVSPost2010PropOp37
 70
     1
102
RTVSPost2010Prop38
140
0.0
102
RTVSPost2010PropOp38
 70
     1
102
RTVSPost2010Prop39
140
1.0
102
RTVSPost2010PropOp39
 70
     1
102
RTVSPost2010Prop40
 90
        0
102
RTVSPost2010PropOp40
 70
     1
102
RTVSPost2010Prop41ColorIndex
 90
       18
102
RTVSPost2010Prop41ColorRGB
 90
        0
102
RTVSPost2010PropOp41
 70
     1
102
RTVSPost2010Prop42
 90
       50
102
RTVSPost2010PropOp42
 70
     1
102
RTVSPost2010Prop43
 90
        3
102
RTVSPost2010PropOp43
 70
     1
102
RTVSPost2010Prop44ColorIndex
 90
        5
102
RTVSPost2010Prop44ColorRGB
 90
      255
102
RTVSPost2010PropOp44
 70
     1
102
RTVSPost2010Prop45
280
     0
102
RTVSPost2010PropOp45
 70
     1
102
RTVSPost2010Prop46
 90
       50
102
RTVSPost2010PropOp46
 70
     1
102
RTVSPost2010Prop47
 90
       50
102
RTVSPost2010PropOp47
 70
     1
102
RTVSPost2010Prop48
 90
       50
102
RTVSPost2010PropOp48
 70
     1
102
RTVSPost2010Prop49
280
     0
102
RTVSPost2010PropOp49
 70
     1
102
RTVSPost2010Prop50
 90
       50
102
RTVSPost2010PropOp50
 70
     1
102
RTVSPost2010Prop51ColorIndex
 90
      256
102
RTVSPost2010Prop51ColorRGB
 90
-16777216
102
RTVSPost2010PropOp51
 70
     0
102
RTVSPost2010Prop52
140
1.0
102
RTVSPost2010PropOp52
 70
     0
102
RTVSPost2010Prop53
 90
        2
102
RTVSPost2010PropOp53
 70
     1
102
RTVSPost2010Prop54
  1
strokes_ogs.tif
102
RTVSPost2010PropOp54
 70
     1
102
RTVSPost2010Prop55
280
     0
102
RTVSPost2010PropOp55
 70
     1
102
RTVSPost2010Prop56
140
1.0
102
RTVSPost2010PropOp56
 70
     1
102
RTVSPost2010Prop57
140
1.0
102
RTVSPost2010PropOp57
 70
     1
102
RTVSPropertyOp0
 70
     1
102
RTVSPropertyOp1
 70
     1
102
RTVSPropertyOp2
 70
     1
102
RTVSPropertyOp3
 70
     1
102
RTVSPropertyOp4
 70
     1
102
RTVSPropertyOp5
 70
     1
102
RTVSPropertyOp6
 70
     1
102
RTVSPropertyOp7
 70
     1
102
RTVSPropertyOp8
 70
     1
102
RTVSPropertyOp9
 70
     1
102
RTVSPropertyOp10
 70
     1
102
RTVSPropertyOp11
 70
     1
102
RTVSPropertyOp12
 70
     1
102
RTVSPropertyOp13
 70
     1
102
RTVSPropertyOp14
 70
     1
102
RTVSPropertyOp15
 70
     1
102
RTVSPropertyOp16
 70
     1
102
RTVSPropertyOp17
 70
     1
102
RTVSPropertyOp18
 70
     1
102
RTVSPropertyOp19
 70
     1
102
RTVSPropertyOp20
 70
     1
102
RTVSPropertyOp21
 70
     1
102
RTVSPropertyOp22
 70
     1
102
RTVSPropertyOp23
 70
     1
102
RTVSPropertyOp24
 70
     1
102
RTVSPropertyOp25
 70
     1
102
RTVSPropertyOp26
 70
     1
102
RTVSPropertyOp27
 70
     1
102
RTVSPropertyOp28
 70
     1
102
RTVSPropertyOp29
 70
     1
102
RTVSPropertyOp30
 70
     1
102
RTVSPropertyOp31
 70
     1
102
RTVSPropertyOp32
 70
     1
102
RTVSPropertyOp33
 70
     1
102
RTVSPropertyOp34
 70
     1
102
RTVSPropertyOp35
 70
     1
102
RTVSPropertyOp36
 70
     1
102
RTVSPropertyOp37
 70
     1
102
RTVSPropertyOp38
 70
     1
102
RTVSPropertyOp39
 70
     1
102
RTVSPropertyOp40
 70
     1
102
RTVSPropertyOp41
 70
     1
102
RTVSPropertyOp42
 70
     1
102
RTVSPropertyOp43
 70
     1
102
RTVSPropertyOp44
 70
     1
102
RTVSPropertyOp45
 70
     1
102
RTVSPropertyOp46
 70
     1
102
RTVSPropertyOp47
 70
     1
102
RTVSPropertyOp48
 70
     1
102
RTVSPropertyOp49
 70
     1
102
RTVSPropertyOp50
 70
     1
102
RTVSPropertyOp51
 70
     0
102
RTVSPropertyOp52
 70
     0
102
RTVSPropertyOp53
 70
     1
102
RTVSPropertyOp54
 70
     1
102
RTVSPropertyOp55
 70
     1
102
RTVSPropertyOp56
 70
     1
102
RTVSPropertyOp57
 70
     1
102
RTVSPropertyOp58
 70
     1
102
RTVSPropertyOp59
 70
     1
102
RTVSPropertyOp60
 70
     1
102
RTVSPropertyOp61
 70
     1
102
RTVSPropertyOp62
 70
     1
  0
XRECORD
  5
9E4C
102
{ACAD_REACTORS
330
9E4B
102
}
330
9E4B
100
AcDbXrecord
280
     1
102
RTVSPost2010Prop28
280
     0
102
RTVSPost2010PropOp28
 70
     1
102
RTVSPost2010Prop29
280
     1
102
RTVSPost2010PropOp29
 70
     1
102
RTVSPost2010Prop30
280
     1
102
RTVSPost2010PropOp30
 70
     1
102
RTVSPost2010Prop31
280
     0
102
RTVSPost2010PropOp31
 70
     1
102
RTVSPost2010Prop32
280
     0
102
RTVSPost2010PropOp32
 70
     1
102
RTVSPost2010Prop33
280
     0
102
RTVSPost2010PropOp33
 70
     1
102
RTVSPost2010Prop34
280
     0
102
RTVSPost2010PropOp34
 70
     1
102
RTVSPost2010Prop35
280
     0
102
RTVSPost2010PropOp35
 70
     1
102
RTVSPost2010Prop36
280
     0
102
RTVSPost2010PropOp36
 70
     1
102
RTVSPost2010Prop37
 90
       50
102
RTVSPost2010PropOp37
 70
     1
102
RTVSPost2010Prop38
140
0.0
102
RTVSPost2010PropOp38
 70
     1
102
RTVSPost2010Prop39
140
1.0
102
RTVSPost2010PropOp39
 70
     1
102
RTVSPost2010Prop40
 90
        0
102
RTVSPost2010PropOp40
 70
     1
102
RTVSPost2010Prop41ColorIndex
 90
       18
102
RTVSPost2010Prop41ColorRGB
 90
        0
102
RTVSPost2010PropOp41
 70
     1
102
RTVSPost2010Prop42
 90
       50
102
RTVSPost2010PropOp42
 70
     1
102
RTVSPost2010Prop43
 90
        3
102
RTVSPost2010PropOp43
 70
     1
102
RTVSPost2010Prop44ColorIndex
 90
        5
102
RTVSPost2010Prop44ColorRGB
 90
      255
102
RTVSPost2010PropOp44
 70
     1
102
RTVSPost2010Prop45
280
     0
102
RTVSPost2010PropOp45
 70
     1
102
RTVSPost2010Prop46
 90
       50
102
RTVSPost2010PropOp46
 70
     1
102
RTVSPost2010Prop47
 90
       50
102
RTVSPost2010PropOp47
 70
     1
102
RTVSPost2010Prop48
 90
       50
102
RTVSPost2010PropOp48
 70
     1
102
RTVSPost2010Prop49
280
     0
102
RTVSPost2010PropOp49
 70
     1
102
RTVSPost2010Prop50
 90
       50
102
RTVSPost2010PropOp50
 70
     1
102
RTVSPost2010Prop51ColorIndex
 90
      256
102
RTVSPost2010Prop51ColorRGB
 90
-16777216
102
RTVSPost2010PropOp51
 70
     0
102
RTVSPost2010Prop52
140
1.0
102
RTVSPost2010PropOp52
 70
     0
102
RTVSPost2010Prop53
 90
        2
102
RTVSPost2010PropOp53
 70
     1
102
RTVSPost2010Prop54
  1
strokes_ogs.tif
102
RTVSPost2010PropOp54
 70
     1
102
RTVSPost2010Prop55
280
     0
102
RTVSPost2010PropOp55
 70
     1
102
RTVSPost2010Prop56
140
1.0
102
RTVSPost2010PropOp56
 70
     1
102
RTVSPost2010Prop57
140
1.0
102
RTVSPost2010PropOp57
 70
     1
102
RTVSPropertyOp0
 70
     1
102
RTVSPropertyOp1
 70
     1
102
RTVSPropertyOp2
 70
     1
102
RTVSPropertyOp3
 70
     1
102
RTVSPropertyOp4
 70
     1
102
RTVSPropertyOp5
 70
     1
102
RTVSPropertyOp6
 70
     1
102
RTVSPropertyOp7
 70
     1
102
RTVSPropertyOp8
 70
     1
102
RTVSPropertyOp9
 70
     1
102
RTVSPropertyOp10
 70
     1
102
RTVSPropertyOp11
 70
     1
102
RTVSPropertyOp12
 70
     1
102
RTVSPropertyOp13
 70
     1
102
RTVSPropertyOp14
 70
     1
102
RTVSPropertyOp15
 70
     1
102
RTVSPropertyOp16
 70
     1
102
RTVSPropertyOp17
 70
     1
102
RTVSPropertyOp18
 70
     1
102
RTVSPropertyOp19
 70
     1
102
RTVSPropertyOp20
 70
     1
102
RTVSPropertyOp21
 70
     1
102
RTVSPropertyOp22
 70
     1
102
RTVSPropertyOp23
 70
     1
102
RTVSPropertyOp24
 70
     1
102
RTVSPropertyOp25
 70
     1
102
RTVSPropertyOp26
 70
     1
102
RTVSPropertyOp27
 70
     1
102
RTVSPropertyOp28
 70
     1
102
RTVSPropertyOp29
 70
     1
102
RTVSPropertyOp30
 70
     1
102
RTVSPropertyOp31
 70
     1
102
RTVSPropertyOp32
 70
     1
102
RTVSPropertyOp33
 70
     1
102
RTVSPropertyOp34
 70
     1
102
RTVSPropertyOp35
 70
     1
102
RTVSPropertyOp36
 70
     1
102
RTVSPropertyOp37
 70
     1
102
RTVSPropertyOp38
 70
     1
102
RTVSPropertyOp39
 70
     1
102
RTVSPropertyOp40
 70
     1
102
RTVSPropertyOp41
 70
     1
102
RTVSPropertyOp42
 70
     1
102
RTVSPropertyOp43
 70
     1
102
RTVSPropertyOp44
 70
     1
102
RTVSPropertyOp45
 70
     1
102
RTVSPropertyOp46
 70
     1
102
RTVSPropertyOp47
 70
     1
102
RTVSPropertyOp48
 70
     1
102
RTVSPropertyOp49
 70
     1
102
RTVSPropertyOp50
 70
     1
102
RTVSPropertyOp51
 70
     0
102
RTVSPropertyOp52
 70
     0
102
RTVSPropertyOp53
 70
     1
102
RTVSPropertyOp54
 70
     1
102
RTVSPropertyOp55
 70
     1
102
RTVSPropertyOp56
 70
     1
102
RTVSPropertyOp57
 70
     1
102
RTVSPropertyOp58
 70
     1
102
RTVSPropertyOp59
 70
     1
102
RTVSPropertyOp60
 70
     1
102
RTVSPropertyOp61
 70
     1
102
RTVSPropertyOp62
 70
     1
  0
XRECORD
  5
9E4E
102
{ACAD_REACTORS
330
9E4D
102
}
330
9E4D
100
AcDbXrecord
280
     1
102
RTVSPost2010Prop28
280
     0
102
RTVSPost2010PropOp28
 70
     1
102
RTVSPost2010Prop29
280
     1
102
RTVSPost2010PropOp29
 70
     1
102
RTVSPost2010Prop30
280
     1
102
RTVSPost2010PropOp30
 70
     1
102
RTVSPost2010Prop31
280
     0
102
RTVSPost2010PropOp31
 70
     1
102
RTVSPost2010Prop32
280
     0
102
RTVSPost2010PropOp32
 70
     1
102
RTVSPost2010Prop33
280
     0
102
RTVSPost2010PropOp33
 70
     1
102
RTVSPost2010Prop34
280
     0
102
RTVSPost2010PropOp34
 70
     1
102
RTVSPost2010Prop35
280
     0
102
RTVSPost2010PropOp35
 70
     1
102
RTVSPost2010Prop36
280
     0
102
RTVSPost2010PropOp36
 70
     1
102
RTVSPost2010Prop37
 90
       50
102
RTVSPost2010PropOp37
 70
     1
102
RTVSPost2010Prop38
140
0.0
102
RTVSPost2010PropOp38
 70
     1
102
RTVSPost2010Prop39
140
1.0
102
RTVSPost2010PropOp39
 70
     1
102
RTVSPost2010Prop40
 90
        0
102
RTVSPost2010PropOp40
 70
     1
102
RTVSPost2010Prop41ColorIndex
 90
       18
102
RTVSPost2010Prop41ColorRGB
 90
        0
102
RTVSPost2010PropOp41
 70
     1
102
RTVSPost2010Prop42
 90
       50
102
RTVSPost2010PropOp42
 70
     1
102
RTVSPost2010Prop43
 90
        3
102
RTVSPost2010PropOp43
 70
     1
102
RTVSPost2010Prop44ColorIndex
 90
        5
102
RTVSPost2010Prop44ColorRGB
 90
      255
102
RTVSPost2010PropOp44
 70
     1
102
RTVSPost2010Prop45
280
     0
102
RTVSPost2010PropOp45
 70
     1
102
RTVSPost2010Prop46
 90
       50
102
RTVSPost2010PropOp46
 70
     1
102
RTVSPost2010Prop47
 90
       50
102
RTVSPost2010PropOp47
 70
     1
102
RTVSPost2010Prop48
 90
       50
102
RTVSPost2010PropOp48
 70
     1
102
RTVSPost2010Prop49
280
     0
102
RTVSPost2010PropOp49
 70
     1
102
RTVSPost2010Prop50
 90
       50
102
RTVSPost2010PropOp50
 70
     1
102
RTVSPost2010Prop51ColorIndex
 90
      256
102
RTVSPost2010Prop51ColorRGB
 90
-16777216
102
RTVSPost2010PropOp51
 70
     0
102
RTVSPost2010Prop52
140
1.0
102
RTVSPost2010PropOp52
 70
     0
102
RTVSPost2010Prop53
 90
        2
102
RTVSPost2010PropOp53
 70
     1
102
RTVSPost2010Prop54
  1
strokes_ogs.tif
102
RTVSPost2010PropOp54
 70
     1
102
RTVSPost2010Prop55
280
     0
102
RTVSPost2010PropOp55
 70
     1
102
RTVSPost2010Prop56
140
1.0
102
RTVSPost2010PropOp56
 70
     1
102
RTVSPost2010Prop57
140
1.0
102
RTVSPost2010PropOp57
 70
     1
102
RTVSPropertyOp0
 70
     1
102
RTVSPropertyOp1
 70
     1
102
RTVSPropertyOp2
 70
     1
102
RTVSPropertyOp3
 70
     1
102
RTVSPropertyOp4
 70
     1
102
RTVSPropertyOp5
 70
     1
102
RTVSPropertyOp6
 70
     1
102
RTVSPropertyOp7
 70
     1
102
RTVSPropertyOp8
 70
     1
102
RTVSPropertyOp9
 70
     1
102
RTVSPropertyOp10
 70
     1
102
RTVSPropertyOp11
 70
     1
102
RTVSPropertyOp12
 70
     1
102
RTVSPropertyOp13
 70
     1
102
RTVSPropertyOp14
 70
     1
102
RTVSPropertyOp15
 70
     1
102
RTVSPropertyOp16
 70
     1
102
RTVSPropertyOp17
 70
     1
102
RTVSPropertyOp18
 70
     1
102
RTVSPropertyOp19
 70
     1
102
RTVSPropertyOp20
 70
     1
102
RTVSPropertyOp21
 70
     1
102
RTVSPropertyOp22
 70
     1
102
RTVSPropertyOp23
 70
     1
102
RTVSPropertyOp24
 70
     1
102
RTVSPropertyOp25
 70
     1
102
RTVSPropertyOp26
 70
     1
102
RTVSPropertyOp27
 70
     1
102
RTVSPropertyOp28
 70
     1
102
RTVSPropertyOp29
 70
     1
102
RTVSPropertyOp30
 70
     1
102
RTVSPropertyOp31
 70
     1
102
RTVSPropertyOp32
 70
     1
102
RTVSPropertyOp33
 70
     1
102
RTVSPropertyOp34
 70
     1
102
RTVSPropertyOp35
 70
     1
102
RTVSPropertyOp36
 70
     1
102
RTVSPropertyOp37
 70
     1
102
RTVSPropertyOp38
 70
     1
102
RTVSPropertyOp39
 70
     1
102
RTVSPropertyOp40
 70
     1
102
RTVSPropertyOp41
 70
     1
102
RTVSPropertyOp42
 70
     1
102
RTVSPropertyOp43
 70
     1
102
RTVSPropertyOp44
 70
     1
102
RTVSPropertyOp45
 70
     1
102
RTVSPropertyOp46
 70
     1
102
RTVSPropertyOp47
 70
     1
102
RTVSPropertyOp48
 70
     1
102
RTVSPropertyOp49
 70
     1
102
RTVSPropertyOp50
 70
     1
102
RTVSPropertyOp51
 70
     0
102
RTVSPropertyOp52
 70
     0
102
RTVSPropertyOp53
 70
     1
102
RTVSPropertyOp54
 70
     1
102
RTVSPropertyOp55
 70
     1
102
RTVSPropertyOp56
 70
     1
102
RTVSPropertyOp57
 70
     1
102
RTVSPropertyOp58
 70
     1
102
RTVSPropertyOp59
 70
     1
102
RTVSPropertyOp60
 70
     1
102
RTVSPropertyOp61
 70
     1
102
RTVSPropertyOp62
 70
     1
  0
XRECORD
  5
9E44
102
{ACAD_REACTORS
330
9E43
102
}
330
9E43
100
AcDbXrecord
280
     1
102
RTVSPost2010Prop28
280
     0
102
RTVSPost2010PropOp28
 70
     1
102
RTVSPost2010Prop29
280
     1
102
RTVSPost2010PropOp29
 70
     1
102
RTVSPost2010Prop30
280
     1
102
RTVSPost2010PropOp30
 70
     1
102
RTVSPost2010Prop31
280
     0
102
RTVSPost2010PropOp31
 70
     1
102
RTVSPost2010Prop32
280
     0
102
RTVSPost2010PropOp32
 70
     1
102
RTVSPost2010Prop33
280
     0
102
RTVSPost2010PropOp33
 70
     1
102
RTVSPost2010Prop34
280
     0
102
RTVSPost2010PropOp34
 70
     1
102
RTVSPost2010Prop35
280
     0
102
RTVSPost2010PropOp35
 70
     1
102
RTVSPost2010Prop36
280
     0
102
RTVSPost2010PropOp36
 70
     1
102
RTVSPost2010Prop37
 90
       50
102
RTVSPost2010PropOp37
 70
     1
102
RTVSPost2010Prop38
140
0.0
102
RTVSPost2010PropOp38
 70
     1
102
RTVSPost2010Prop39
140
1.0
102
RTVSPost2010PropOp39
 70
     1
102
RTVSPost2010Prop40
 90
        0
102
RTVSPost2010PropOp40
 70
     1
102
RTVSPost2010Prop41ColorIndex
 90
       18
102
RTVSPost2010Prop41ColorRGB
 90
        0
102
RTVSPost2010PropOp41
 70
     1
102
RTVSPost2010Prop42
 90
       50
102
RTVSPost2010PropOp42
 70
     1
102
RTVSPost2010Prop43
 90
        3
102
RTVSPost2010PropOp43
 70
     1
102
RTVSPost2010Prop44ColorIndex
 90
        5
102
RTVSPost2010Prop44ColorRGB
 90
      255
102
RTVSPost2010PropOp44
 70
     1
102
RTVSPost2010Prop45
280
     0
102
RTVSPost2010PropOp45
 70
     1
102
RTVSPost2010Prop46
 90
       50
102
RTVSPost2010PropOp46
 70
     1
102
RTVSPost2010Prop47
 90
       50
102
RTVSPost2010PropOp47
 70
     1
102
RTVSPost2010Prop48
 90
       50
102
RTVSPost2010PropOp48
 70
     1
102
RTVSPost2010Prop49
280
     0
102
RTVSPost2010PropOp49
 70
     1
102
RTVSPost2010Prop50
 90
       50
102
RTVSPost2010PropOp50
 70
     1
102
RTVSPost2010Prop51ColorIndex
 90
      256
102
RTVSPost2010Prop51ColorRGB
 90
-16777216
102
RTVSPost2010PropOp51
 70
     0
102
RTVSPost2010Prop52
140
1.0
102
RTVSPost2010PropOp52
 70
     0
102
RTVSPost2010Prop53
 90
        2
102
RTVSPost2010PropOp53
 70
     1
102
RTVSPost2010Prop54
  1
strokes_ogs.tif
102
RTVSPost2010PropOp54
 70
     1
102
RTVSPost2010Prop55
280
     0
102
RTVSPost2010PropOp55
 70
     1
102
RTVSPost2010Prop56
140
1.0
102
RTVSPost2010PropOp56
 70
     1
102
RTVSPost2010Prop57
140
1.0
102
RTVSPost2010PropOp57
 70
     1
102
RTVSPropertyOp0
 70
     1
102
RTVSPropertyOp1
 70
     1
102
RTVSPropertyOp2
 70
     1
102
RTVSPropertyOp3
 70
     1
102
RTVSPropertyOp4
 70
     1
102
RTVSPropertyOp5
 70
     1
102
RTVSPropertyOp6
 70
     1
102
RTVSPropertyOp7
 70
     1
102
RTVSPropertyOp8
 70
     1
102
RTVSPropertyOp9
 70
     1
102
RTVSPropertyOp10
 70
     1
102
RTVSPropertyOp11
 70
     1
102
RTVSPropertyOp12
 70
     1
102
RTVSPropertyOp13
 70
     1
102
RTVSPropertyOp14
 70
     1
102
RTVSPropertyOp15
 70
     1
102
RTVSPropertyOp16
 70
     1
102
RTVSPropertyOp17
 70
     1
102
RTVSPropertyOp18
 70
     1
102
RTVSPropertyOp19
 70
     1
102
RTVSPropertyOp20
 70
     1
102
RTVSPropertyOp21
 70
     1
102
RTVSPropertyOp22
 70
     1
102
RTVSPropertyOp23
 70
     1
102
RTVSPropertyOp24
 70
     1
102
RTVSPropertyOp25
 70
     1
102
RTVSPropertyOp26
 70
     1
102
RTVSPropertyOp27
 70
     1
102
RTVSPropertyOp28
 70
     1
102
RTVSPropertyOp29
 70
     1
102
RTVSPropertyOp30
 70
     1
102
RTVSPropertyOp31
 70
     1
102
RTVSPropertyOp32
 70
     1
102
RTVSPropertyOp33
 70
     1
102
RTVSPropertyOp34
 70
     1
102
RTVSPropertyOp35
 70
     1
102
RTVSPropertyOp36
 70
     1
102
RTVSPropertyOp37
 70
     1
102
RTVSPropertyOp38
 70
     1
102
RTVSPropertyOp39
 70
     1
102
RTVSPropertyOp40
 70
     1
102
RTVSPropertyOp41
 70
     1
102
RTVSPropertyOp42
 70
     1
102
RTVSPropertyOp43
 70
     1
102
RTVSPropertyOp44
 70
     1
102
RTVSPropertyOp45
 70
     1
102
RTVSPropertyOp46
 70
     1
102
RTVSPropertyOp47
 70
     1
102
RTVSPropertyOp48
 70
     1
102
RTVSPropertyOp49
 70
     1
102
RTVSPropertyOp50
 70
     1
102
RTVSPropertyOp51
 70
     0
102
RTVSPropertyOp52
 70
     0
102
RTVSPropertyOp53
 70
     1
102
RTVSPropertyOp54
 70
     1
102
RTVSPropertyOp55
 70
     1
102
RTVSPropertyOp56
 70
     1
102
RTVSPropertyOp57
 70
     1
102
RTVSPropertyOp58
 70
     1
102
RTVSPropertyOp59
 70
     1
102
RTVSPropertyOp60
 70
     1
102
RTVSPropertyOp61
 70
     1
102
RTVSPropertyOp62
 70
     1
  0
XRECORD
  5
9E38
102
{ACAD_REACTORS
330
9E37
102
}
330
9E37
100
AcDbXrecord
280
     1
102
RTVSPost2010Prop28
280
     0
102
RTVSPost2010PropOp28
 70
     1
102
RTVSPost2010Prop29
280
     1
102
RTVSPost2010PropOp29
 70
     1
102
RTVSPost2010Prop30
280
     1
102
RTVSPost2010PropOp30
 70
     1
102
RTVSPost2010Prop31
280
     0
102
RTVSPost2010PropOp31
 70
     1
102
RTVSPost2010Prop32
280
     0
102
RTVSPost2010PropOp32
 70
     1
102
RTVSPost2010Prop33
280
     0
102
RTVSPost2010PropOp33
 70
     1
102
RTVSPost2010Prop34
280
     0
102
RTVSPost2010PropOp34
 70
     1
102
RTVSPost2010Prop35
280
     0
102
RTVSPost2010PropOp35
 70
     1
102
RTVSPost2010Prop36
280
     0
102
RTVSPost2010PropOp36
 70
     1
102
RTVSPost2010Prop37
 90
       50
102
RTVSPost2010PropOp37
 70
     1
102
RTVSPost2010Prop38
140
0.0
102
RTVSPost2010PropOp38
 70
     1
102
RTVSPost2010Prop39
140
1.0
102
RTVSPost2010PropOp39
 70
     1
102
RTVSPost2010Prop40
 90
        0
102
RTVSPost2010PropOp40
 70
     1
102
RTVSPost2010Prop41ColorIndex
 90
       18
102
RTVSPost2010Prop41ColorRGB
 90
        0
102
RTVSPost2010PropOp41
 70
     1
102
RTVSPost2010Prop42
 90
       50
102
RTVSPost2010PropOp42
 70
     1
102
RTVSPost2010Prop43
 90
        3
102
RTVSPost2010PropOp43
 70
     1
102
RTVSPost2010Prop44ColorIndex
 90
        5
102
RTVSPost2010Prop44ColorRGB
 90
      255
102
RTVSPost2010PropOp44
 70
     1
102
RTVSPost2010Prop45
280
     0
102
RTVSPost2010PropOp45
 70
     1
102
RTVSPost2010Prop46
 90
       50
102
RTVSPost2010PropOp46
 70
     1
102
RTVSPost2010Prop47
 90
       50
102
RTVSPost2010PropOp47
 70
     1
102
RTVSPost2010Prop48
 90
       50
102
RTVSPost2010PropOp48
 70
     1
102
RTVSPost2010Prop49
280
     0
102
RTVSPost2010PropOp49
 70
     1
102
RTVSPost2010Prop50
 90
       50
102
RTVSPost2010PropOp50
 70
     1
102
RTVSPost2010Prop51ColorIndex
 90
      256
102
RTVSPost2010Prop51ColorRGB
 90
-16777216
102
RTVSPost2010PropOp51
 70
     0
102
RTVSPost2010Prop52
140
1.0
102
RTVSPost2010PropOp52
 70
     0
102
RTVSPost2010Prop53
 90
        2
102
RTVSPost2010PropOp53
 70
     1
102
RTVSPost2010Prop54
  1
strokes_ogs.tif
102
RTVSPost2010PropOp54
 70
     1
102
RTVSPost2010Prop55
280
     0
102
RTVSPost2010PropOp55
 70
     1
102
RTVSPost2010Prop56
140
1.0
102
RTVSPost2010PropOp56
 70
     1
102
RTVSPost2010Prop57
140
1.0
102
RTVSPost2010PropOp57
 70
     1
102
RTVSPropertyOp0
 70
     1
102
RTVSPropertyOp1
 70
     1
102
RTVSPropertyOp2
 70
     1
102
RTVSPropertyOp3
 70
     1
102
RTVSPropertyOp4
 70
     1
102
RTVSPropertyOp5
 70
     1
102
RTVSPropertyOp6
 70
     1
102
RTVSPropertyOp7
 70
     1
102
RTVSPropertyOp8
 70
     1
102
RTVSPropertyOp9
 70
     1
102
RTVSPropertyOp10
 70
     1
102
RTVSPropertyOp11
 70
     1
102
RTVSPropertyOp12
 70
     1
102
RTVSPropertyOp13
 70
     1
102
RTVSPropertyOp14
 70
     1
102
RTVSPropertyOp15
 70
     1
102
RTVSPropertyOp16
 70
     1
102
RTVSPropertyOp17
 70
     1
102
RTVSPropertyOp18
 70
     1
102
RTVSPropertyOp19
 70
     1
102
RTVSPropertyOp20
 70
     1
102
RTVSPropertyOp21
 70
     1
102
RTVSPropertyOp22
 70
     1
102
RTVSPropertyOp23
 70
     1
102
RTVSPropertyOp24
 70
     1
102
RTVSPropertyOp25
 70
     1
102
RTVSPropertyOp26
 70
     1
102
RTVSPropertyOp27
 70
     1
102
RTVSPropertyOp28
 70
     1
102
RTVSPropertyOp29
 70
     1
102
RTVSPropertyOp30
 70
     1
102
RTVSPropertyOp31
 70
     1
102
RTVSPropertyOp32
 70
     1
102
RTVSPropertyOp33
 70
     1
102
RTVSPropertyOp34
 70
     1
102
RTVSPropertyOp35
 70
     1
102
RTVSPropertyOp36
 70
     1
102
RTVSPropertyOp37
 70
     1
102
RTVSPropertyOp38
 70
     1
102
RTVSPropertyOp39
 70
     1
102
RTVSPropertyOp40
 70
     1
102
RTVSPropertyOp41
 70
     1
102
RTVSPropertyOp42
 70
     1
102
RTVSPropertyOp43
 70
     1
102
RTVSPropertyOp44
 70
     1
102
RTVSPropertyOp45
 70
     1
102
RTVSPropertyOp46
 70
     1
102
RTVSPropertyOp47
 70
     1
102
RTVSPropertyOp48
 70
     1
102
RTVSPropertyOp49
 70
     1
102
RTVSPropertyOp50
 70
     1
102
RTVSPropertyOp51
 70
     0
102
RTVSPropertyOp52
 70
     0
102
RTVSPropertyOp53
 70
     1
102
RTVSPropertyOp54
 70
     1
102
RTVSPropertyOp55
 70
     1
102
RTVSPropertyOp56
 70
     1
102
RTVSPropertyOp57
 70
     1
102
RTVSPropertyOp58
 70
     1
102
RTVSPropertyOp59
 70
     1
102
RTVSPropertyOp60
 70
     1
102
RTVSPropertyOp61
 70
     1
102
RTVSPropertyOp62
 70
     1
  0
XRECORD
  5
9E50
102
{ACAD_REACTORS
330
9E4F
102
}
330
9E4F
100
AcDbXrecord
280
     1
102
RTVSPost2010Prop28
280
     0
102
RTVSPost2010PropOp28
 70
     1
102
RTVSPost2010Prop29
280
     1
102
RTVSPost2010PropOp29
 70
     1
102
RTVSPost2010Prop30
280
     1
102
RTVSPost2010PropOp30
 70
     1
102
RTVSPost2010Prop31
280
     0
102
RTVSPost2010PropOp31
 70
     1
102
RTVSPost2010Prop32
280
     0
102
RTVSPost2010PropOp32
 70
     1
102
RTVSPost2010Prop33
280
     0
102
RTVSPost2010PropOp33
 70
     1
102
RTVSPost2010Prop34
280
     0
102
RTVSPost2010PropOp34
 70
     1
102
RTVSPost2010Prop35
280
     0
102
RTVSPost2010PropOp35
 70
     1
102
RTVSPost2010Prop36
280
     0
102
RTVSPost2010PropOp36
 70
     1
102
RTVSPost2010Prop37
 90
       50
102
RTVSPost2010PropOp37
 70
     1
102
RTVSPost2010Prop38
140
0.0
102
RTVSPost2010PropOp38
 70
     1
102
RTVSPost2010Prop39
140
1.0
102
RTVSPost2010PropOp39
 70
     1
102
RTVSPost2010Prop40
 90
        0
102
RTVSPost2010PropOp40
 70
     1
102
RTVSPost2010Prop41ColorIndex
 90
       18
102
RTVSPost2010Prop41ColorRGB
 90
        0
102
RTVSPost2010PropOp41
 70
     1
102
RTVSPost2010Prop42
 90
       50
102
RTVSPost2010PropOp42
 70
     1
102
RTVSPost2010Prop43
 90
        3
102
RTVSPost2010PropOp43
 70
     1
102
RTVSPost2010Prop44ColorIndex
 90
        5
102
RTVSPost2010Prop44ColorRGB
 90
      255
102
RTVSPost2010PropOp44
 70
     1
102
RTVSPost2010Prop45
280
     0
102
RTVSPost2010PropOp45
 70
     1
102
RTVSPost2010Prop46
 90
       50
102
RTVSPost2010PropOp46
 70
     1
102
RTVSPost2010Prop47
 90
       50
102
RTVSPost2010PropOp47
 70
     1
102
RTVSPost2010Prop48
 90
       50
102
RTVSPost2010PropOp48
 70
     1
102
RTVSPost2010Prop49
280
     0
102
RTVSPost2010PropOp49
 70
     1
102
RTVSPost2010Prop50
 90
       50
102
RTVSPost2010PropOp50
 70
     1
102
RTVSPost2010Prop51ColorIndex
 90
      256
102
RTVSPost2010Prop51ColorRGB
 90
-16777216
102
RTVSPost2010PropOp51
 70
     0
102
RTVSPost2010Prop52
140
1.0
102
RTVSPost2010PropOp52
 70
     0
102
RTVSPost2010Prop53
 90
        2
102
RTVSPost2010PropOp53
 70
     1
102
RTVSPost2010Prop54
  1
strokes_ogs.tif
102
RTVSPost2010PropOp54
 70
     1
102
RTVSPost2010Prop55
280
     0
102
RTVSPost2010PropOp55
 70
     1
102
RTVSPost2010Prop56
140
1.0
102
RTVSPost2010PropOp56
 70
     1
102
RTVSPost2010Prop57
140
1.0
102
RTVSPost2010PropOp57
 70
     1
102
RTVSPropertyOp0
 70
     1
102
RTVSPropertyOp1
 70
     1
102
RTVSPropertyOp2
 70
     1
102
RTVSPropertyOp3
 70
     1
102
RTVSPropertyOp4
 70
     1
102
RTVSPropertyOp5
 70
     1
102
RTVSPropertyOp6
 70
     1
102
RTVSPropertyOp7
 70
     1
102
RTVSPropertyOp8
 70
     1
102
RTVSPropertyOp9
 70
     1
102
RTVSPropertyOp10
 70
     1
102
RTVSPropertyOp11
 70
     1
102
RTVSPropertyOp12
 70
     1
102
RTVSPropertyOp13
 70
     1
102
RTVSPropertyOp14
 70
     1
102
RTVSPropertyOp15
 70
     1
102
RTVSPropertyOp16
 70
     1
102
RTVSPropertyOp17
 70
     1
102
RTVSPropertyOp18
 70
     1
102
RTVSPropertyOp19
 70
     1
102
RTVSPropertyOp20
 70
     1
102
RTVSPropertyOp21
 70
     1
102
RTVSPropertyOp22
 70
     1
102
RTVSPropertyOp23
 70
     1
102
RTVSPropertyOp24
 70
     1
102
RTVSPropertyOp25
 70
     1
102
RTVSPropertyOp26
 70
     1
102
RTVSPropertyOp27
 70
     1
102
RTVSPropertyOp28
 70
     1
102
RTVSPropertyOp29
 70
     1
102
RTVSPropertyOp30
 70
     1
102
RTVSPropertyOp31
 70
     1
102
RTVSPropertyOp32
 70
     1
102
RTVSPropertyOp33
 70
     1
102
RTVSPropertyOp34
 70
     1
102
RTVSPropertyOp35
 70
     1
102
RTVSPropertyOp36
 70
     1
102
RTVSPropertyOp37
 70
     1
102
RTVSPropertyOp38
 70
     1
102
RTVSPropertyOp39
 70
     1
102
RTVSPropertyOp40
 70
     1
102
RTVSPropertyOp41
 70
     1
102
RTVSPropertyOp42
 70
     1
102
RTVSPropertyOp43
 70
     1
102
RTVSPropertyOp44
 70
     1
102
RTVSPropertyOp45
 70
     1
102
RTVSPropertyOp46
 70
     1
102
RTVSPropertyOp47
 70
     1
102
RTVSPropertyOp48
 70
     1
102
RTVSPropertyOp49
 70
     1
102
RTVSPropertyOp50
 70
     1
102
RTVSPropertyOp51
 70
     0
102
RTVSPropertyOp52
 70
     0
102
RTVSPropertyOp53
 70
     1
102
RTVSPropertyOp54
 70
     1
102
RTVSPropertyOp55
 70
     1
102
RTVSPropertyOp56
 70
     1
102
RTVSPropertyOp57
 70
     1
102
RTVSPropertyOp58
 70
     1
102
RTVSPropertyOp59
 70
     1
102
RTVSPropertyOp60
 70
     1
102
RTVSPropertyOp61
 70
     1
102
RTVSPropertyOp62
 70
     1
  0
ENDSEC
  0
EOF
