  0
SECTION
  2
HEADER
  9
$ACADVER
  1
AC1015
  9
$ACADMAINTVER
 70
    20
  9
$DWGCODEPAGE
  3
ANSI_932
  9
$INSBASE
 10
0.0
 20
0.0
 30
0.0
  9
$EXTMIN
 10
10.0
 20
9.999999999999998
 30
0.0
  9
$EXTMAX
 10
415.512513
 20
321.4578389999999
 30
0.0
  9
$LIMMIN
 10
0.0
 20
0.0
  9
$LIMMAX
 10
495.0
 20
341.25
  9
$ORTHOMODE
 70
     1
  9
$REGENMODE
 70
     1
  9
$FILLMODE
 70
     1
  9
$QTEXTMODE
 70
     0
  9
$MIRRTEXT
 70
     1
  9
$LTSCALE
 40
20.0
  9
$ATTMODE
 70
     1
  9
$TEXTSIZE
 40
5.0
  9
$TRACEWID
 40
1.0
  9
$TEXTSTYLE
  7
STANDARD
  9
$CLAYER
  8
0
  9
$CELTYPE
  6
BYLAYER
  9
$CECOLOR
 62
   256
  9
$CELTSCALE
 40
1.0
  9
$DISPSILH
 70
     0
  9
$DIMSCALE
 40
1.0
  9
$DIMASZ
 40
3.0
  9
$DIMEXO
 40
1.0
  9
$DIMDLI
 40
10.0
  9
$DIMRND
 40
0.0
  9
$DIMDLE
 40
0.0
  9
$DIMEXE
 40
1.0
  9
$DIMTP
 40
0.0
  9
$DIMTM
 40
0.0
  9
$DIMTXT
 40
3.2
  9
$DIMCEN
 40
0.0
  9
$DIMTSZ
 40
0.0
  9
$DIMTOL
 70
     0
  9
$DIMLIM
 70
     0
  9
$DIMTIH
 70
     0
  9
$DIMTOH
 70
     0
  9
$DIMSE1
 70
     0
  9
$DIMSE2
 70
     0
  9
$DIMTAD
 70
     3
  9
$DIMZIN
 70
     8
  9
$DIMBLK
  1

  9
$DIMASO
 70
     1
  9
$DIMSHO
 70
     1
  9
$DIMPOST
  1

  9
$DIMAPOST
  1

  9
$DIMALT
 70
     0
  9
$DIMALTD
 70
     2
  9
$DIMALTF
 40
25.4
  9
$DIMLFAC
 40
1.0
  9
$DIMTOFL
 70
     1
  9
$DIMTVP
 40
0.0
  9
$DIMTIX
 70
     0
  9
$DIMSOXD
 70
     0
  9
$DIMSAH
 70
     1
  9
$DIMBLK1
  1
OPEN
  9
$DIMBLK2
  1
OPEN
  9
$DIMSTYLE
  2
STANDARD
  9
$DIMCLRD
 70
     0
  9
$DIMCLRE
 70
     0
  9
$DIMCLRT
 70
     0
  9
$DIMTFAC
 40
1.0
  9
$DIMGAP
 40
1.0
  9
$DIMJUST
 70
     0
  9
$DIMSD1
 70
     0
  9
$DIMSD2
 70
     0
  9
$DIMTOLJ
 70
     1
  9
$DIMTZIN
 70
     0
  9
$DIMALTZ
 70
     0
  9
$DIMALTTZ
 70
     0
  9
$DIMUPT
 70
     0
  9
$DIMDEC
 70
     4
  9
$DIMTDEC
 70
     4
  9
$DIMALTU
 70
     2
  9
$DIMALTTD
 70
     2
  9
$DIMTXSTY
  7
STANDARD
  9
$DIMAUNIT
 70
     0
  9
$DIMADEC
 70
     0
  9
$DIMALTRND
 40
0.0
  9
$DIMAZIN
 70
     0
  9
$DIMDSEP
 70
    46
  9
$DIMATFIT
 70
     3
  9
$DIMFRAC
 70
     0
  9
$DIMLDRBLK
  1
OPEN
  9
$DIMLUNIT
 70
     2
  9
$DIMLWD
 70
    -2
  9
$DIMLWE
 70
    -2
  9
$DIMTMOVE
 70
     0
  9
$LUNITS
 70
     2
  9
$LUPREC
 70
     4
  9
$SKETCHINC
 40
1.0
  9
$FILLETRAD
 40
2.0
  9
$AUNITS
 70
     0
  9
$AUPREC
 70
     2
  9
$MENU
  1
.
  9
$ELEVATION
 40
0.0
  9
$PELEVATION
 40
0.0
  9
$THICKNESS
 40
0.0
  9
$LIMCHECK
 70
     0
  9
$CHAMFERA
 40
10.0
  9
$CHAMFERB
 40
10.0
  9
$CHAMFERC
 40
0.0
  9
$CHAMFERD
 40
0.0
  9
$SKPOLY
 70
     0
  9
$TDCREATE
 40
2451301.405646296
  9
$TDUCREATE
 40
2451301.030646296
  9
$TDUPDATE
 40
2457192.686465798
  9
$TDUUPDATE
 40
2457192.311465798
  9
$TDINDWG
 40
0.0000105787
  9
$TDUSRTIMER
 40
0.0000102778
  9
$USRTIMER
 70
     1
  9
$ANGBASE
 50
0.0
  9
$ANGDIR
 70
     0
  9
$PDMODE
 70
     0
  9
$PDSIZE
 40
0.0
  9
$PLINEWID
 40
0.0
  9
$SPLFRAME
 70
     0
  9
$SPLINETYPE
 70
     6
  9
$SPLINESEGS
 70
     8
  9
$HANDSEED
  5
AA23
  9
$SURFTAB1
 70
     6
  9
$SURFTAB2
 70
     6
  9
$SURFTYPE
 70
     6
  9
$SURFU
 70
     6
  9
$SURFV
 70
     6
  9
$UCSBASE
  2

  9
$UCSNAME
  2

  9
$UCSORG
 10
0.0
 20
0.0
 30
0.0
  9
$UCSXDIR
 10
1.0
 20
0.0
 30
0.0
  9
$UCSYDIR
 10
0.0
 20
1.0
 30
0.0
  9
$UCSORTHOREF
  2

  9
$UCSORTHOVIEW
 70
     0
  9
$UCSORGTOP
 10
0.0
 20
0.0
 30
0.0
  9
$UCSORGBOTTOM
 10
0.0
 20
0.0
 30
0.0
  9
$UCSORGLEFT
 10
0.0
 20
0.0
 30
0.0
  9
$UCSORGRIGHT
 10
0.0
 20
0.0
 30
0.0
  9
$UCSORGFRONT
 10
0.0
 20
0.0
 30
0.0
  9
$UCSORGBACK
 10
0.0
 20
0.0
 30
0.0
  9
$PUCSBASE
  2

  9
$PUCSNAME
  2

  9
$PUCSORG
 10
0.0
 20
0.0
 30
0.0
  9
$PUCSXDIR
 10
1.0
 20
0.0
 30
0.0
  9
$PUCSYDIR
 10
0.0
 20
1.0
 30
0.0
  9
$PUCSORTHOREF
  2

  9
$PUCSORTHOVIEW
 70
     0
  9
$PUCSORGTOP
 10
0.0
 20
0.0
 30
0.0
  9
$PUCSORGBOTTOM
 10
0.0
 20
0.0
 30
0.0
  9
$PUCSORGLEFT
 10
0.0
 20
0.0
 30
0.0
  9
$PUCSORGRIGHT
 10
0.0
 20
0.0
 30
0.0
  9
$PUCSORGFRONT
 10
0.0
 20
0.0
 30
0.0
  9
$PUCSORGBACK
 10
0.0
 20
0.0
 30
0.0
  9
$USERI1
 70
     0
  9
$USERI2
 70
     0
  9
$USERI3
 70
     0
  9
$USERI4
 70
     0
  9
$USERI5
 70
     0
  9
$USERR1
 40
0.0
  9
$USERR2
 40
0.0
  9
$USERR3
 40
0.0
  9
$USERR4
 40
0.0
  9
$USERR5
 40
0.0
  9
$WORLDVIEW
 70
     1
  9
$SHADEDGE
 70
     3
  9
$SHADEDIF
 70
    70
  9
$TILEMODE
 70
     1
  9
$MAXACTVP
 70
    16
  9
$PINSBASE
 10
0.0
 20
0.0
 30
0.0
  9
$PLIMCHECK
 70
     0
  9
$PEXTMIN
 10
1.000000000000000E+20
 20
1.000000000000000E+20
 30
1.000000000000000E+20
  9
$PEXTMAX
 10
-1.000000000000000E+20
 20
-1.000000000000000E+20
 30
-1.000000000000000E+20
  9
$PLIMMIN
 10
0.0
 20
0.0
  9
$PLIMMAX
 10
420.0
 20
297.0
  9
$UNITMODE
 70
     0
  9
$VISRETAIN
 70
     0
  9
$PLINEGEN
 70
     0
  9
$PSLTSCALE
 70
     0
  9
$TREEDEPTH
 70
  3020
  9
$CMLSTYLE
  2
STANDARD
  9
$CMLJUST
 70
     0
  9
$CMLSCALE
 40
1.0
  9
$PROXYGRAPHICS
 70
     1
  9
$MEASUREMENT
 70
     0
  9
$CELWEIGHT
370
    -1
  9
$ENDCAPS
280
     0
  9
$JOINSTYLE
280
     0
  9
$LWDISPLAY
290
     0
  9
$INSUNITS
 70
     0
  9
$HYPERLINKBASE
  1

  9
$STYLESHEET
  1

  9
$XEDIT
290
     1
  9
$CEPSNTYPE
380
     0
  9
$PSTYLEMODE
290
     1
  9
$FINGERPRINTGUID
  2
{09E2F080-DF1A-4A3C-A490-AF13D4FC35EB}
  9
$VERSIONGUID
  2
{9DB88060-7F7C-4C35-9462-DE9C0D2BACC5}
  9
$EXTNAMES
290
     1
  9
$PSVPSCALE
 40
0.0
  9
$OLESTARTUP
290
     0
  0
ENDSEC
  0
SECTION
  2
CLASSES
  0
CLASS
  1
ACDBDICTIONARYWDFLT
  2
AcDbDictionaryWithDefault
  3
ObjectDBX Classes
 90
        0
280
     0
281
     0
  0
CLASS
  1
ACDBPLACEHOLDER
  2
AcDbPlaceHolder
  3
ObjectDBX Classes
 90
        0
280
     0
281
     0
  0
CLASS
  1
LAYOUT
  2
AcDbLayout
  3
ObjectDBX Classes
 90
        0
280
     0
281
     0
  0
CLASS
  1
DICTIONARYVAR
  2
AcDbDictionaryVar
  3
ObjectDBX Classes
 90
        0
280
     0
281
     0
  0
CLASS
  1
MATERIAL
  2
AcDbMaterial
  3
ObjectDBX Classes
 90
     1153
280
     0
281
     0
  0
CLASS
  1
VISUALSTYLE
  2
AcDbVisualStyle
  3
ObjectDBX Classes
 90
     4095
280
     0
281
     0
  0
CLASS
  1
TABLESTYLE
  2
AcDbTableStyle
  3
ObjectDBX Classes
 90
     4095
280
     0
281
     0
  0
CLASS
  1
SCALE
  2
AcDbScale
  3
ObjectDBX Classes
 90
     1153
280
     0
281
     0
  0
CLASS
  1
MLEADERSTYLE
  2
AcDbMLeaderStyle
  3
ACDB_MLEADERSTYLE_CLASS
 90
     4095
280
     0
281
     0
  0
CLASS
  1
ACDBSECTIONVIEWSTYLE
  2
AcDbSectionViewStyle
  3
ObjectDBX Classes
 90
     1025
280
     0
281
     0
  0
CLASS
  1
ACDBDETAILVIEWSTYLE
  2
AcDbDetailViewStyle
  3
ObjectDBX Classes
 90
     1025
280
     0
281
     0
  0
CLASS
  1
CELLSTYLEMAP
  2
AcDbCellStyleMap
  3
ObjectDBX Classes
 90
     1152
280
     0
281
     0
  0
ENDSEC
  0
SECTION
  2
TABLES
  0
TABLE
  2
VPORT
  5
A68E
330
0
100
AcDbSymbolTable
 70
     1
  0
VPORT
  5
A96C
330
A68E
100
AcDbSymbolTableRecord
100
AcDbViewportTableRecord
  2
*ACTIVE
 70
     0
 10
0.0
 20
0.0
 11
1.0
 21
1.0
 12
307.0993590236838
 22
165.7303627273129
 13
0.0
 23
0.0
 14
10.0
 24
10.0
 15
10.0
 25
10.0
 16
0.0
 26
0.0
 36
1.0
 17
0.0
 27
0.0
 37
0.0
 40
314.9282739615632
 41
2.35006605019815
 42
50.0
 43
0.0
 44
0.0
 50
0.0
 51
0.0
 71
     0
 72
   100
 73
     1
 74
     0
 75
     0
 76
     0
 77
     0
 78
     0
281
     0
 65
     1
110
0.0
120
0.0
130
0.0
111
1.0
121
0.0
131
0.0
112
0.0
122
1.0
132
0.0
 79
     0
146
0.0
1001
ACAD_NAV_VCDISPLAY
1070
     3
  0
ENDTAB
  0
TABLE
  2
LTYPE
  5
A68B
330
0
100
AcDbSymbolTable
 70
     4
  0
LTYPE
  5
A699
330
A68B
100
AcDbSymbolTableRecord
100
AcDbLinetypeTableRecord
  2
BYBLOCK
 70
     0
  3

 72
    65
 73
     0
 40
0.0
  0
LTYPE
  5
A69A
330
A68B
100
AcDbSymbolTableRecord
100
AcDbLinetypeTableRecord
  2
BYLAYER
 70
     0
  3

 72
    65
 73
     0
 40
0.0
  0
LTYPE
  5
A69B
330
A68B
100
AcDbSymbolTableRecord
100
AcDbLinetypeTableRecord
  2
CONTINUOUS
 70
     0
  3
Solid line
 72
    65
 73
     0
 40
0.0
  0
LTYPE
  5
A6A9
330
A68B
100
AcDbSymbolTableRecord
100
AcDbLinetypeTableRecord
  2
DASHED
 70
     0
  3
__ __ __ __ __ __ __ __ __ __ __ __ __ __ __ __
 72
    65
 73
     2
 40
0.75
 49
0.5
 74
     0
 49
-0.25
 74
     0
  0
LTYPE
  5
A6AA
330
A68B
100
AcDbSymbolTableRecord
100
AcDbLinetypeTableRecord
  2
CENTER
 70
     0
  3
____ _ ____ _ ____ _ ____ _ ____ _ ____ _ ____ 
 72
    65
 73
     4
 40
2.0
 49
1.25
 74
     0
 49
-0.25
 74
     0
 49
0.25
 74
     0
 49
-0.25
 74
     0
  0
LTYPE
  5
A6AB
330
A68B
100
AcDbSymbolTableRecord
100
AcDbLinetypeTableRecord
  2
PHANTOM
 70
     0
  3
______  __  __  ______  __  __  ______  __  __ 
 72
    65
 73
     6
 40
2.5
 49
1.25
 74
     0
 49
-0.25
 74
     0
 49
0.25
 74
     0
 49
-0.25
 74
     0
 49
0.25
 74
     0
 49
-0.25
 74
     0
  0
ENDTAB
  0
TABLE
  2
LAYER
  5
A688
330
0
100
AcDbSymbolTable
 70
     8
  0
LAYER
  5
A696
102
{ACAD_XDICTIONARY
360
A9C7
102
}
330
A688
100
AcDbSymbolTableRecord
100
AcDbLayerTableRecord
  2
0
 70
     0
 62
     7
  6
CONTINUOUS
370
    -3
390
A975
  0
LAYER
  5
A6AC
102
{ACAD_XDICTIONARY
360
A9C9
102
}
330
A688
100
AcDbSymbolTableRecord
100
AcDbLayerTableRecord
  2
4
 70
     0
 62
     1
  6
CENTER
370
    -3
390
A975
  0
LAYER
  5
A6AD
102
{ACAD_XDICTIONARY
360
A9CB
102
}
330
A688
100
AcDbSymbolTableRecord
100
AcDbLayerTableRecord
  2
5
 70
     0
 62
     6
  6
PHANTOM
370
    -3
390
A975
  0
LAYER
  5
A6AE
102
{ACAD_XDICTIONARY
360
A9CD
102
}
330
A688
100
AcDbSymbolTableRecord
100
AcDbLayerTableRecord
  2
1
 70
     0
 62
     7
  6
CONTINUOUS
370
    -3
390
A975
  0
LAYER
  5
A6AF
102
{ACAD_XDICTIONARY
360
A9CF
102
}
330
A688
100
AcDbSymbolTableRecord
100
AcDbLayerTableRecord
  2
2
 70
     0
 62
     4
  6
CONTINUOUS
370
    -3
390
A975
  0
LAYER
  5
A6B0
102
{ACAD_XDICTIONARY
360
A9D1
102
}
330
A688
100
AcDbSymbolTableRecord
100
AcDbLayerTableRecord
  2
3
 70
     0
 62
     2
  6
DASHED
370
    -3
390
A975
  0
LAYER
  5
A6B1
102
{ACAD_XDICTIONARY
360
A9D3
102
}
330
A688
100
AcDbSymbolTableRecord
100
AcDbLayerTableRecord
  2
6
 70
     0
 62
     5
  6
CONTINUOUS
370
    -3
390
A975
  0
LAYER
  5
A6B2
102
{ACAD_XDICTIONARY
360
A9D5
102
}
330
A688
100
AcDbSymbolTableRecord
100
AcDbLayerTableRecord
  2
7
 70
     0
 62
     3
  6
CONTINUOUS
370
    -3
390
A975
  0
ENDTAB
  0
TABLE
  2
STYLE
  5
A689
330
0
100
AcDbSymbolTable
 70
     1
  0
STYLE
  5
A697
330
A689
100
AcDbSymbolTableRecord
100
AcDbTextStyleTableRecord
  2
STANDARD
 70
     0
 40
0.0
 41
1.0
 50
0.0
 71
     0
 42
5.0
  3
txt
  4

  0
ENDTAB
  0
TABLE
  2
VIEW
  5
A68C
330
0
100
AcDbSymbolTable
 70
     0
  0
ENDTAB
  0
TABLE
  2
UCS
  5
A68D
330
0
100
AcDbSymbolTable
 70
     0
  0
ENDTAB
  0
TABLE
  2
APPID
  5
A68F
330
0
100
AcDbSymbolTable
 70
     3
  0
APPID
  5
A698
330
A68F
100
AcDbSymbolTableRecord
100
AcDbRegAppTableRecord
  2
ACAD
 70
     0
  0
APPID
  5
A9E1
330
A68F
100
AcDbSymbolTableRecord
100
AcDbRegAppTableRecord
  2
ACAD_NAV_VCDISPLAY
 70
     0
  0
APPID
  5
AA1A
330
A68F
100
AcDbSymbolTableRecord
100
AcDbRegAppTableRecord
  2
ACAD_MLEADERVER
 70
     0
  0
ENDTAB
  0
TABLE
  2
DIMSTYLE
  5
A690
330
0
100
AcDbSymbolTable
 70
     1
100
AcDbDimStyleTable
 71
     0
  0
DIMSTYLE
105
A6B4
330
A690
100
AcDbSymbolTableRecord
100
AcDbDimStyleTableRecord
  2
STANDARD
 70
     0
 41
3.0
 42
1.0
 43
10.0
 44
1.0
 73
     0
 74
     0
 77
     3
 78
     8
140
3.2
141
0.0
147
1.0
172
     1
173
     1
284
     8
285
     8
286
     8
340
A697
  0
ENDTAB
  0
TABLE
  2
BLOCK_RECORD
  5
A687
330
0
100
AcDbSymbolTable
 70
     1
  0
BLOCK_RECORD
  5
A6A4
102
{ACAD_XDICTIONARY
360
A96F
102
}
330
A687
100
AcDbSymbolTableRecord
100
AcDbBlockTableRecord
  2
*MODEL_SPACE
340
A9C3
  0
BLOCK_RECORD
  5
A6A0
102
{ACAD_XDICTIONARY
360
A96D
102
}
330
A687
100
AcDbSymbolTableRecord
100
AcDbBlockTableRecord
  2
*PAPER_SPACE
340
A9C4
  0
BLOCK_RECORD
  5
A6BC
330
A687
100
AcDbSymbolTableRecord
100
AcDbBlockTableRecord
  2
_OPEN
340
0
  0
ENDTAB
  0
ENDSEC
  0
SECTION
  2
BLOCKS
  0
BLOCK
  5
A6A5
330
A6A4
100
AcDbEntity
  8
0
100
AcDbBlockBegin
  2
*MODEL_SPACE
 70
     0
 10
0.0
 20
0.0
 30
0.0
  3
*MODEL_SPACE
  1

  0
ENDBLK
  5
A6A6
330
A6A4
100
AcDbEntity
  8
0
100
AcDbBlockEnd
  0
BLOCK
  5
A6A1
330
A6A0
100
AcDbEntity
 67
     1
  8
0
100
AcDbBlockBegin
  2
*PAPER_SPACE
 70
     0
 10
0.0
 20
0.0
 30
0.0
  3
*PAPER_SPACE
  1

  0
ENDBLK
  5
A6A2
330
A6A0
100
AcDbEntity
 67
     1
  8
0
100
AcDbBlockEnd
  0
BLOCK
  5
A6BD
330
A6BC
100
AcDbEntity
  8
0
100
AcDbBlockBegin
  2
_OPEN
 70
     0
 10
0.0
 20
0.0
 30
0.0
  3
_OPEN
  1

  0
LINE
  5
A6BE
330
A6BC
100
AcDbEntity
  8
0
  6
ByBlock
 62
     0
100
AcDbLine
 10
-1.0
 20
0.166667
 30
0.0
 11
0.0
 21
0.0
 31
0.0
  0
LINE
  5
A6BF
330
A6BC
100
AcDbEntity
  8
0
  6
ByBlock
 62
     0
100
AcDbLine
 10
0.0
 20
0.0
 30
0.0
 11
-1.0
 21
-0.166667
 31
0.0
  0
LINE
  5
A6C0
330
A6BC
100
AcDbEntity
  8
0
  6
ByBlock
 62
     0
100
AcDbLine
 10
0.0
 20
0.0
 30
0.0
 11
-1.0
 21
0.0
 31
0.0
  0
ENDBLK
  5
A6C1
330
A6BC
100
AcDbEntity
  8
0
100
AcDbBlockEnd
  0
ENDSEC
  0
SECTION
  2
ENTITIES
  0
TEXT
  5
A6C2
330
A6A4
100
AcDbEntity
  8
7
  6
Continuous
100
AcDbText
 10
10.0
 20
18.0
 30
0.0
 40
3.0
  1
TYPE No.102HB2-EP
100
AcDbText
  0
TEXT
  5
A6C3
330
A6A4
100
AcDbEntity
  8
7
  6
Continuous
100
AcDbText
 10
10.0
 20
26.0
 30
0.0
 40
3.0
  1
CODE No.19080
100
AcDbText
  0
TEXT
  5
A6C4
330
A6A4
100
AcDbEntity
  8
1
  6
Continuous
100
AcDbText
 10
10.0
 20
10.0
 30
0.0
 40
1.399999999999999
  1
LAYER
100
AcDbText
  0
TEXT
  5
A6C5
330
A6A4
100
AcDbEntity
  8
1
  6
Continuous
100
AcDbText
 10
17.97951099999998
 20
10.04873699999998
 30
0.0
 40
1.399999999999999
  1
1
100
AcDbText
  0
TEXT
  5
A6C6
330
A6A4
100
AcDbEntity
  8
7
  6
Continuous
100
AcDbText
 10
29.97951099999999
 20
10.04873699999998
 30
0.0
 40
1.399999999999999
  1
7
100
AcDbText
  0
TEXT
  5
A6C7
330
A6A4
100
AcDbEntity
  8
4
  6
CENTER
100
AcDbText
 10
23.97951099999999
 20
10.04873699999998
 30
0.0
 40
1.399999999999999
  1
4
100
AcDbText
  0
TEXT
  5
A6C8
330
A6A4
100
AcDbEntity
  8
3
  6
DASHED
100
AcDbText
 10
21.979511
 20
10.04873699999998
 30
0.0
 40
1.399999999999999
  1
3
100
AcDbText
  0
TEXT
  5
A6C9
330
A6A4
100
AcDbEntity
  8
2
  6
Continuous
100
AcDbText
 10
19.97951099999999
 20
10.04873699999998
 30
0.0
 40
1.399999999999999
  1
2
100
AcDbText
  0
TEXT
  5
A6CA
330
A6A4
100
AcDbEntity
  8
6
  6
Continuous
100
AcDbText
 10
27.979511
 20
10.04873699999998
 30
0.0
 40
1.399999999999999
  1
6
100
AcDbText
  0
TEXT
  5
A6CB
330
A6A4
100
AcDbEntity
  8
5
  6
PHANTOM
100
AcDbText
 10
25.97951099999999
 20
10.04873699999998
 30
0.0
 40
1.399999999999999
  1
5
100
AcDbText
  0
LINE
  5
A6CC
330
A6A4
100
AcDbEntity
  8
4
  6
CENTER
100
AcDbLine
 10
32.05526799999999
 20
171.3149699999999
 30
0.0
 11
87.555268
 21
171.3149699999999
 31
0.0
  0
LINE
  5
A6CD
330
A6A4
100
AcDbEntity
  8
1
  6
Continuous
100
AcDbLine
 10
28.855268
 20
209.0149699999999
 30
0.0
 11
86.85526800000003
 21
209.0149699999999
 31
0.0
  0
LINE
  5
A6CE
330
A6A4
100
AcDbEntity
  8
1
  6
Continuous
100
AcDbLine
 10
28.855268
 20
211.31497
 30
0.0
 11
86.85526800000003
 21
211.31497
 31
0.0
  0
ARC
  5
A6CF
330
A6A4
100
AcDbEntity
  8
1
  6
Continuous
100
AcDbCircle
 10
45.55526799999999
 20
171.3149699999999
 30
0.0
 40
10.5
100
AcDbArc
 50
138.1896849999999
 51
221.810315
  0
LINE
  5
A6D0
330
A6A4
100
AcDbEntity
  8
4
  6
CENTER
100
AcDbLine
 10
177.074349
 20
171.3149389999998
 30
0.0
 11
131.074349
 21
171.3149389999998
 31
0.0
  0
LINE
  5
A6D1
330
A6A4
100
AcDbEntity
  8
4
  6
CENTER
100
AcDbLine
 10
154.074349
 20
148.3149389999999
 30
0.0
 11
154.074349
 21
194.3149389999999
 31
0.0
  0
LINE
  5
A6D2
330
A6A4
100
AcDbEntity
  8
4
  6
CENTER
100
AcDbLine
 10
168.074349
 20
185.6584389999999
 30
0.0
 11
168.074349
 21
216.47357
 31
0.0
  0
ARC
  5
A6D3
330
A6A4
100
AcDbEntity
  8
1
  6
Continuous
100
AcDbCircle
 10
154.074349
 20
171.3149389999998
 30
0.0
 40
20.0
100
AcDbArc
 50
80.26090400000006
 51
344.8987559999998
  0
ARC
  5
A6D4
330
A6A4
100
AcDbEntity
  8
1
  6
Continuous
100
AcDbCircle
 10
154.074349
 20
171.3149389999998
 30
0.0
 40
14.0
100
AcDbArc
 50
80.54448399999998
 51
319.0443859999998
  0
ARC
  5
A6D5
330
A6A4
100
AcDbEntity
  8
1
  6
Continuous
100
AcDbCircle
 10
154.074349
 20
171.3149389999998
 30
0.0
 40
13.5
100
AcDbArc
 50
81.464957
 51
315.8497959999999
  0
LINE
  5
A6D6
330
A6A4
100
AcDbEntity
  8
1
  6
Continuous
100
AcDbLine
 10
28.855268
 20
209.0149699999999
 30
0.0
 11
28.855268
 21
211.31497
 31
0.0
  0
LINE
  5
A6D7
330
A6A4
100
AcDbEntity
  8
4
  6
CENTER
100
AcDbLine
 10
202.074349
 20
287.4578389999999
 30
0.0
 11
129.074349
 21
287.4578389999999
 31
0.0
  0
LINE
  5
A6D8
330
A6A4
100
AcDbEntity
  8
4
  6
CENTER
100
AcDbLine
 10
168.074349
 20
321.4578389999999
 30
0.0
 11
168.074349
 21
253.457839
 31
0.0
  0
CIRCLE
  5
A6D9
330
A6A4
100
AcDbEntity
  8
1
  6
Continuous
100
AcDbCircle
 10
168.074349
 20
287.4578389999999
 30
0.0
 40
18.82956199999998
  0
CIRCLE
  5
A6DA
330
A6A4
100
AcDbEntity
  8
1
  6
Continuous
100
AcDbCircle
 10
168.074349
 20
287.4578389999999
 30
0.0
 40
17.60192599999999
  0
CIRCLE
  5
A6DB
330
A6A4
100
AcDbEntity
  8
1
  6
Continuous
100
AcDbCircle
 10
168.074349
 20
287.4578389999999
 30
0.0
 40
9.0
  0
ARC
  5
A6DC
330
A6A4
100
AcDbEntity
  8
1
  6
Continuous
100
AcDbCircle
 10
234.074349
 20
287.4578389999999
 30
0.0
 40
100.0
100
AcDbArc
 50
173.8487
 51
186.150887
  0
LINE
  5
A6DD
330
A6A4
100
AcDbEntity
  8
1
  6
Continuous
100
AcDbLine
 10
139.074349
 20
265.4578389999999
 30
0.0
 11
139.074349
 21
309.4578389999999
 31
0.0
  0
LINE
  5
A6DE
330
A6A4
100
AcDbEntity
  8
1
  6
Continuous
100
AcDbLine
 10
197.074349
 20
265.4578389999999
 30
0.0
 11
197.074349
 21
309.4578389999999
 31
0.0
  0
LINE
  5
A6DF
330
A6A4
100
AcDbEntity
  8
1
  6
Continuous
100
AcDbLine
 10
190.074349
 20
258.4578389999999
 30
0.0
 11
146.074349
 21
258.4578389999999
 31
0.0
  0
LINE
  5
A6E0
330
A6A4
100
AcDbEntity
  8
4
  6
CENTER
100
AcDbLine
 10
190.074349
 20
259.2078389999999
 30
0.0
 11
190.074349
 21
271.7078389999999
 31
0.0
  0
CIRCLE
  5
A6E1
330
A6A4
100
AcDbEntity
  8
1
  6
Continuous
100
AcDbCircle
 10
190.074349
 20
265.4578389999999
 30
0.0
 40
3.25
  0
LINE
  5
A6E2
330
A6A4
100
AcDbEntity
  8
4
  6
CENTER
100
AcDbLine
 10
196.324349
 20
265.4578389999999
 30
0.0
 11
183.824349
 21
265.4578389999999
 31
0.0
  0
ARC
  5
A6E3
330
A6A4
100
AcDbEntity
  8
1
  6
Continuous
100
AcDbCircle
 10
190.074349
 20
265.4578389999999
 30
0.0
 40
7.0
100
AcDbArc
 50
270.0
 51
0.0
  0
LINE
  5
A6E4
330
A6A4
100
AcDbEntity
  8
4
  6
CENTER
100
AcDbLine
 10
152.324349
 20
265.4578389999999
 30
0.0
 11
139.824349
 21
265.4578389999999
 31
0.0
  0
LINE
  5
A6E5
330
A6A4
100
AcDbEntity
  8
4
  6
CENTER
100
AcDbLine
 10
146.074349
 20
259.2078389999999
 30
0.0
 11
146.074349
 21
271.7078389999999
 31
0.0
  0
CIRCLE
  5
A6E6
330
A6A4
100
AcDbEntity
  8
1
  6
Continuous
100
AcDbCircle
 10
146.074349
 20
265.4578389999999
 30
0.0
 40
3.25
  0
ARC
  5
A6E7
330
A6A4
100
AcDbEntity
  8
1
  6
Continuous
100
AcDbCircle
 10
146.074349
 20
265.4578389999999
 30
0.0
 40
7.0
100
AcDbArc
 50
180.0
 51
270.0
  0
LINE
  5
A6E8
330
A6A4
100
AcDbEntity
  8
1
  6
Continuous
100
AcDbLine
 10
139.074349
 20
274.9578389999999
 30
0.0
 11
136.6388639999998
 21
274.957418
 31
0.0
  0
ARC
  5
A6E9
330
A6A4
100
AcDbEntity
  8
1
  6
Continuous
100
AcDbCircle
 10
136.6385179999997
 20
276.957418
 30
0.0
 40
2.0
100
AcDbArc
 50
186.150887
 51
270.0099059999998
  0
LINE
  5
A6EA
330
A6A4
100
AcDbEntity
  8
1
  6
Continuous
100
AcDbLine
 10
190.074349
 20
316.4578389999999
 30
0.0
 11
146.074349
 21
316.4578389999999
 31
0.0
  0
LINE
  5
A6EB
330
A6A4
100
AcDbEntity
  8
4
  6
CENTER
100
AcDbLine
 10
190.074349
 20
303.2078389999999
 30
0.0
 11
190.074349
 21
315.7078389999999
 31
0.0
  0
ARC
  5
A6EC
330
A6A4
100
AcDbEntity
  8
1
  6
Continuous
100
AcDbCircle
 10
190.074349
 20
309.4578389999999
 30
0.0
 40
7.0
100
AcDbArc
 50
0.0
 51
90.0
  0
LINE
  5
A6ED
330
A6A4
100
AcDbEntity
  8
4
  6
CENTER
100
AcDbLine
 10
196.324349
 20
309.4578389999999
 30
0.0
 11
183.824349
 21
309.4578389999999
 31
0.0
  0
CIRCLE
  5
A6EE
330
A6A4
100
AcDbEntity
  8
1
  6
Continuous
100
AcDbCircle
 10
190.074349
 20
309.4578389999999
 30
0.0
 40
3.25
  0
LINE
  5
A6EF
330
A6A4
100
AcDbEntity
  8
1
  6
Continuous
100
AcDbLine
 10
139.074349
 20
299.9578389999999
 30
0.0
 11
136.6388639999998
 21
299.95826
 31
0.0
  0
ARC
  5
A6F0
330
A6A4
100
AcDbEntity
  8
1
  6
Continuous
100
AcDbCircle
 10
136.6385179999997
 20
297.9582609999998
 30
0.0
 40
2.0
100
AcDbArc
 50
89.990094
 51
173.849113
  0
LINE
  5
A6F1
330
A6A4
100
AcDbEntity
  8
4
  6
CENTER
100
AcDbLine
 10
152.324349
 20
309.4578389999999
 30
0.0
 11
139.824349
 21
309.4578389999999
 31
0.0
  0
LINE
  5
A6F2
330
A6A4
100
AcDbEntity
  8
4
  6
CENTER
100
AcDbLine
 10
146.074349
 20
303.2078389999999
 30
0.0
 11
146.074349
 21
315.7078389999999
 31
0.0
  0
ARC
  5
A6F3
330
A6A4
100
AcDbEntity
  8
1
  6
Continuous
100
AcDbCircle
 10
146.074349
 20
309.4578389999999
 30
0.0
 40
7.0
100
AcDbArc
 50
90.0
 51
180.0
  0
CIRCLE
  5
A6F4
330
A6A4
100
AcDbEntity
  8
1
  6
Continuous
100
AcDbCircle
 10
146.074349
 20
309.4578389999999
 30
0.0
 40
3.25
  0
LINE
  5
A6F5
330
A6A4
100
AcDbEntity
  8
4
  6
CENTER
100
AcDbLine
 10
57.855268
 20
216.3149699999999
 30
0.0
 11
57.855268
 21
148.31497
 31
0.0
  0
LINE
  5
A6F6
330
A6A4
100
AcDbEntity
  8
1
  6
Continuous
100
AcDbLine
 10
78.35526800000002
 20
200.3350129999998
 30
0.0
 11
78.35526800000002
 21
178.2431729999999
 31
0.0
  0
LINE
  5
A6F7
330
A6A4
100
AcDbEntity
  8
1
  6
Continuous
100
AcDbLine
 10
37.35526800000001
 20
200.3350129999998
 30
0.0
 11
37.35526800000001
 21
177.8731709999999
 31
0.0
  0
LINE
  5
A6F8
330
A6A4
100
AcDbEntity
  8
1
  6
Continuous
100
AcDbLine
 10
75.655268
 20
160.96497
 30
0.0
 11
75.655268
 21
191.0242659999999
 31
0.0
  0
LINE
  5
A6F9
330
A6A4
100
AcDbEntity
  8
1
  6
Continuous
100
AcDbLine
 10
40.055268
 20
191.0242659999999
 30
0.0
 11
40.055268
 21
160.96497
 31
0.0
  0
LINE
  5
A6FA
330
A6A4
100
AcDbEntity
  8
1
  6
Continuous
100
AcDbLine
 10
73.35526800000002
 20
191.580687
 30
0.0
 11
73.35526800000002
 21
160.96497
 31
0.0
  0
LINE
  5
A6FB
330
A6A4
100
AcDbEntity
  8
1
  6
Continuous
100
AcDbLine
 10
42.355268
 20
191.580687
 30
0.0
 11
42.355268
 21
160.96497
 31
0.0
  0
LINE
  5
A6FC
330
A6A4
100
AcDbEntity
  8
1
  6
Continuous
100
AcDbLine
 10
43.23702700000001
 20
178.8240539999999
 30
0.0
 11
43.23702700000001
 21
163.8058859999999
 31
0.0
  0
LINE
  5
A6FD
330
A6A4
100
AcDbEntity
  8
1
  6
Continuous
100
AcDbLine
 10
37.72903
 20
164.3149699999999
 30
0.0
 11
37.72903
 21
178.3149699999999
 31
0.0
  0
ARC
  5
A6FE
330
A6A4
100
AcDbEntity
  8
1
  6
Continuous
100
AcDbCircle
 10
57.855268
 20
251.31497
 30
0.0
 40
100.0
100
AcDbArc
 50
263.8493599999998
 51
276.15064
  0
ARC
  5
A6FF
330
A6A4
100
AcDbEntity
  8
1
  6
Continuous
100
AcDbCircle
 10
62.73855300000001
 20
168.243278
 30
0.0
 40
20.0
100
AcDbArc
 50
192.818869
 51
209.6383299999998
  0
ARC
  5
A700
330
A6A4
100
AcDbEntity
  8
1
  6
Continuous
100
AcDbCircle
 10
34.792582
 20
159.7562619999999
 30
0.0
 40
5.787669999999999
100
AcDbArc
 50
24.59222999999999
 51
40.39461099999999
  0
LINE
  5
A701
330
A6A4
100
AcDbEntity
  8
1
  6
Continuous
100
AcDbLine
 10
37.72903
 20
164.3149699999999
 30
0.0
 11
40.055268
 21
164.3149699999999
 31
0.0
  0
ARC
  5
A702
330
A6A4
100
AcDbEntity
  8
1
  6
Continuous
100
AcDbCircle
 10
45.09517699999999
 20
168.5227859999999
 30
0.0
 40
7.739908999999999
100
AcDbArc
 50
212.932587
 51
220.3946109999999
  0
LINE
  5
A703
330
A6A4
100
AcDbEntity
  8
1
  6
Continuous
100
AcDbLine
 10
42.355268
 20
164.3149699999999
 30
0.0
 11
43.23702700000001
 21
163.8058859999999
 31
0.0
  0
LINE
  5
A704
330
A6A4
100
AcDbEntity
  8
1
  6
Continuous
100
AcDbLine
 10
40.055268
 20
160.96497
 30
0.0
 11
42.355268
 21
160.96497
 31
0.0
  0
ARC
  5
A705
330
A6A4
100
AcDbEntity
  8
1
  6
Continuous
100
AcDbCircle
 10
-167.864315
 20
162.79405
 30
0.0
 40
207.9195819999999
100
AcDbArc
 50
0.0
 51
0.419119
  0
ARC
  5
A706
330
A6A4
100
AcDbEntity
  8
1
  6
Continuous
100
AcDbCircle
 10
62.73855300000001
 20
174.3866609999998
 30
0.0
 40
20.0
100
AcDbArc
 50
150.36167
 51
167.181131
  0
LINE
  5
A707
330
A6A4
100
AcDbEntity
  8
1
  6
Continuous
100
AcDbLine
 10
37.72903
 20
178.3149699999999
 30
0.0
 11
40.055268
 21
178.3149699999999
 31
0.0
  0
LINE
  5
A708
330
A6A4
100
AcDbEntity
  8
1
  6
Continuous
100
AcDbLine
 10
42.355268
 20
178.3149699999999
 30
0.0
 11
43.23702700000001
 21
178.8240539999999
 31
0.0
  0
LINE
  5
A709
330
A6A4
100
AcDbEntity
  8
1
  6
Continuous
100
AcDbLine
 10
77.655268
 20
163.8149699999999
 30
0.0
 11
77.655268
 21
178.8149699999999
 31
0.0
  0
LINE
  5
A70A
330
A6A4
100
AcDbEntity
  8
1
  6
Continuous
100
AcDbLine
 10
72.47350799999998
 20
178.8240539999999
 30
0.0
 11
72.47350799999998
 21
163.8058859999999
 31
0.0
  0
LINE
  5
A70B
330
A6A4
100
AcDbEntity
  8
1
  6
Continuous
100
AcDbLine
 10
75.655268
 20
163.8149699999999
 30
0.0
 11
77.655268
 21
163.8149699999999
 31
0.0
  0
ARC
  5
A70C
330
A6A4
100
AcDbEntity
  8
1
  6
Continuous
100
AcDbCircle
 10
80.91795299999999
 20
159.7562619999999
 30
0.0
 40
5.787669999999999
100
AcDbArc
 50
139.605389
 51
155.40777
  0
ARC
  5
A70D
330
A6A4
100
AcDbEntity
  8
1
  6
Continuous
100
AcDbCircle
 10
52.971982
 20
168.243278
 30
0.0
 40
20.0
100
AcDbArc
 50
330.36167
 51
347.181131
  0
LINE
  5
A70E
330
A6A4
100
AcDbEntity
  8
1
  6
Continuous
100
AcDbLine
 10
73.35526800000002
 20
164.3149699999999
 30
0.0
 11
72.47350799999998
 21
163.8058859999999
 31
0.0
  0
LINE
  5
A70F
330
A6A4
100
AcDbEntity
  8
1
  6
Continuous
100
AcDbLine
 10
73.35526800000002
 20
160.96497
 30
0.0
 11
75.655268
 21
160.96497
 31
0.0
  0
ARC
  5
A710
330
A6A4
100
AcDbEntity
  8
1
  6
Continuous
100
AcDbCircle
 10
70.61535899999999
 20
168.5227859999999
 30
0.0
 40
7.739908999999999
100
AcDbArc
 50
319.6053889999999
 51
322.5367709999998
  0
LINE
  5
A711
330
A6A4
100
AcDbEntity
  8
1
  6
Continuous
100
AcDbLine
 10
83.55526799999998
 20
167.3149699999999
 30
0.0
 11
83.55526799999998
 21
175.3149699999999
 31
0.0
  0
LINE
  5
A712
330
A6A4
100
AcDbEntity
  8
1
  6
Continuous
100
AcDbLine
 10
82.65526800000001
 20
166.1188169999998
 30
0.0
 11
82.65526800000001
 21
176.511122
 31
0.0
  0
LINE
  5
A713
330
A6A4
100
AcDbEntity
  8
1
  6
Continuous
100
AcDbLine
 10
84.55526799999999
 20
168.3149699999999
 30
0.0
 11
84.55526799999999
 21
174.31497
 31
0.0
  0
LINE
  5
A714
330
A6A4
100
AcDbEntity
  8
1
  6
Continuous
100
AcDbLine
 10
82.65526800000001
 20
167.3149699999999
 30
0.0
 11
83.55526799999998
 21
167.3149699999999
 31
0.0
  0
LINE
  5
A715
330
A6A4
100
AcDbEntity
  8
1
  6
Continuous
100
AcDbLine
 10
82.65526800000001
 20
175.3149699999999
 30
0.0
 11
83.55526799999998
 21
175.3149699999999
 31
0.0
  0
LINE
  5
A716
330
A6A4
100
AcDbEntity
  8
1
  6
Continuous
100
AcDbLine
 10
75.655268
 20
178.8149699999999
 30
0.0
 11
77.655268
 21
178.8149699999999
 31
0.0
  0
ARC
  5
A717
330
A6A4
100
AcDbEntity
  8
1
  6
Continuous
100
AcDbCircle
 10
52.971982
 20
174.3866609999998
 30
0.0
 40
20.0
100
AcDbArc
 50
12.81886899999999
 51
29.63833
  0
LINE
  5
A718
330
A6A4
100
AcDbEntity
  8
1
  6
Continuous
100
AcDbLine
 10
73.35526800000002
 20
178.3149699999999
 30
0.0
 11
72.47350799999998
 21
178.8240539999999
 31
0.0
  0
ARC
  5
A719
330
A6A4
100
AcDbEntity
  8
1
  6
Continuous
100
AcDbCircle
 10
68.355689
 20
188.7508009999999
 30
0.0
 40
2.0
100
AcDbArc
 50
359.9900939999998
 51
0.0
  0
LINE
  5
A71A
330
A6A4
100
AcDbEntity
  8
1
  6
Continuous
100
AcDbLine
 10
70.46352299999998
 20
202.3350129999998
 30
0.0
 11
68.154257
 21
204.644278
 31
0.0
  0
LINE
  5
A71B
330
A6A4
100
AcDbEntity
  8
1
  6
Continuous
100
AcDbLine
 10
69.049309
 20
202.3350129999998
 30
0.0
 11
66.740044
 21
204.644278
 31
0.0
  0
LINE
  5
A71C
330
A6A4
100
AcDbEntity
  8
1
  6
Continuous
100
AcDbLine
 10
67.25920600000001
 20
202.3350129999998
 30
0.0
 11
69.568471
 21
204.644278
 31
0.0
  0
LINE
  5
A71D
330
A6A4
100
AcDbEntity
  8
1
  6
Continuous
100
AcDbLine
 10
40.99533599999999
 20
206.7129079999999
 30
0.0
 11
74.715199
 21
206.7129079999999
 31
0.0
  0
LINE
  5
A71E
330
A6A4
100
AcDbEntity
  8
1
  6
Continuous
100
AcDbLine
 10
39.924038
 20
206.9994139999999
 30
0.0
 11
75.78649699999998
 21
206.9994139999999
 31
0.0
  0
LINE
  5
A71F
330
A6A4
100
AcDbEntity
  8
1
  6
Continuous
100
AcDbLine
 10
37.03020099999999
 20
208.4506849999999
 30
0.0
 11
78.680334
 21
208.4506849999999
 31
0.0
  0
LINE
  5
A720
330
A6A4
100
AcDbEntity
  8
1
  6
Continuous
100
AcDbLine
 10
43.05526799999999
 20
194.0242659999999
 30
0.0
 11
72.655268
 21
194.0242659999999
 31
0.0
  0
LINE
  5
A721
330
A6A4
100
AcDbEntity
  8
1
  6
Continuous
100
AcDbLine
 10
53.49295999999998
 20
202.3350129999998
 30
0.0
 11
51.183695
 21
204.644278
 31
0.0
  0
LINE
  5
A722
330
A6A4
100
AcDbEntity
  8
1
  6
Continuous
100
AcDbLine
 10
52.078746
 20
202.3350129999998
 30
0.0
 11
49.769481
 21
204.644278
 31
0.0
  0
LINE
  5
A723
330
A6A4
100
AcDbEntity
  8
1
  6
Continuous
100
AcDbLine
 10
51.702857
 20
202.3350129999998
 30
0.0
 11
54.01212199999999
 21
204.644278
 31
0.0
  0
LINE
  5
A724
330
A6A4
100
AcDbEntity
  8
1
  6
Continuous
100
AcDbLine
 10
50.288643
 20
202.3350129999998
 30
0.0
 11
52.597908
 21
204.644278
 31
0.0
  0
LINE
  5
A725
330
A6A4
100
AcDbEntity
  8
1
  6
Continuous
100
AcDbLine
 10
38.855268
 20
204.644278
 30
0.0
 11
76.85526800000002
 21
204.644278
 31
0.0
  0
ARC
  5
A726
330
A6A4
100
AcDbEntity
  8
1
  6
Continuous
100
AcDbCircle
 10
57.855268
 20
91.31497000000001
 30
0.0
 40
100.0
100
AcDbArc
 50
83.84936000000001
 51
96.15064
  0
LINE
  5
A727
330
A6A4
100
AcDbEntity
  8
1
  6
Continuous
100
AcDbLine
 10
76.85526800000002
 20
202.3350129999998
 30
0.0
 11
38.855268
 21
202.3350129999998
 31
0.0
  0
ARC
  5
A728
330
A6A4
100
AcDbEntity
  8
1
  6
Continuous
100
AcDbCircle
 10
45.355268
 20
191.580687
 30
0.0
 40
3.0
100
AcDbArc
 50
125.459425
 51
180.0
  0
ARC
  5
A729
330
A6A4
100
AcDbEntity
  8
1
  6
Continuous
100
AcDbCircle
 10
43.05526799999999
 20
191.0242659999999
 30
0.0
 40
3.0
100
AcDbArc
 50
90.0
 51
180.0
  0
LINE
  5
A72A
330
A6A4
100
AcDbEntity
  8
1
  6
Continuous
100
AcDbLine
 10
43.593465
 20
202.3350129999998
 30
0.0
 11
41.2842
 21
204.644278
 31
0.0
  0
LINE
  5
A72B
330
A6A4
100
AcDbEntity
  8
1
  6
Continuous
100
AcDbLine
 10
45.00767800000001
 20
202.3350129999998
 30
0.0
 11
42.698413
 21
204.644278
 31
0.0
  0
LINE
  5
A72C
330
A6A4
100
AcDbEntity
  8
1
  6
Continuous
100
AcDbLine
 10
41.803362
 20
202.3350129999998
 30
0.0
 11
44.112627
 21
204.644278
 31
0.0
  0
LINE
  5
A72D
330
A6A4
100
AcDbEntity
  8
1
  6
Continuous
100
AcDbLine
 10
43.21757499999999
 20
202.3350129999998
 30
0.0
 11
45.52684
 21
204.644278
 31
0.0
  0
ARC
  5
A72E
330
A6A4
100
AcDbEntity
  8
1
  6
Continuous
100
AcDbCircle
 10
40.309598
 20
205.8708709999999
 30
0.0
 40
0.8364709999999998
100
AcDbArc
 50
102.3749159999999
 51
160.6585409999999
  0
LINE
  5
A72F
330
A6A4
100
AcDbEntity
  8
1
  6
Continuous
100
AcDbLine
 10
38.855268
 20
204.2447829999999
 30
0.0
 11
40.765038
 21
202.3350129999998
 31
0.0
  0
LINE
  5
A730
330
A6A4
100
AcDbEntity
  8
1
  6
Continuous
100
AcDbLine
 10
38.855268
 20
203.6295589999999
 30
0.0
 11
39.86998599999999
 21
204.644278
 31
0.0
  0
LINE
  5
A731
330
A6A4
100
AcDbEntity
  8
1
  6
Continuous
100
AcDbLine
 10
38.97493499999999
 20
202.3350129999998
 30
0.0
 11
41.2842
 21
204.644278
 31
0.0
  0
LINE
  5
A732
330
A6A4
100
AcDbEntity
  8
1
  6
Continuous
100
AcDbLine
 10
38.855268
 20
202.8305689999998
 30
0.0
 11
39.35082399999997
 21
202.3350129999998
 31
0.0
  0
LINE
  5
A733
330
A6A4
100
AcDbEntity
  8
1
  6
Continuous
100
AcDbLine
 10
38.855268
 20
204.644278
 30
0.0
 11
38.855268
 21
202.3350129999998
 31
0.0
  0
LINE
  5
A734
330
A6A4
100
AcDbEntity
  8
1
  6
Continuous
100
AcDbLine
 10
42.179251
 20
202.3350129999998
 30
0.0
 11
39.86998599999999
 21
204.644278
 31
0.0
  0
LINE
  5
A735
330
A6A4
100
AcDbEntity
  8
1
  6
Continuous
100
AcDbLine
 10
40.38914799999999
 20
202.3350129999998
 30
0.0
 11
42.698413
 21
204.644278
 31
0.0
  0
ARC
  5
A736
330
A6A4
100
AcDbEntity
  8
1
  6
Continuous
100
AcDbCircle
 10
45.76704099999999
 20
207.576153
 30
0.0
 40
6.407901999999999
100
AcDbArc
 50
192.8787169999999
 51
207.22852
  0
ARC
  5
A737
330
A6A4
100
AcDbEntity
  8
1
  6
Continuous
100
AcDbCircle
 10
39.924038
 20
210.6102089999999
 30
0.0
 40
3.610794999999998
100
AcDbArc
 50
216.7321109999999
 51
270.0
  0
LINE
  5
A738
330
A6A4
100
AcDbEntity
  8
1
  6
Continuous
100
AcDbLine
 10
37.03020099999999
 20
208.4506849999999
 30
0.0
 11
37.03020099999999
 21
209.0149699999999
 31
0.0
  0
LINE
  5
A739
330
A6A4
100
AcDbEntity
  8
1
  6
Continuous
100
AcDbLine
 10
40.99533599999999
 20
206.7129079999999
 30
0.0
 11
41.139038
 21
206.9069059999999
 31
0.0
  0
LINE
  5
A73A
330
A6A4
100
AcDbEntity
  8
1
  6
Continuous
100
AcDbLine
 10
40.13033599999999
 20
206.687908
 30
0.0
 11
40.99533599999999
 21
206.7129079999999
 31
0.0
  0
ARC
  5
A73B
330
A6A4
100
AcDbEntity
  8
1
  6
Continuous
100
AcDbCircle
 10
44.282676
 20
203.493409
 30
0.0
 40
4.640519999999998
100
AcDbArc
 50
130.929183
 51
132.6433189999999
  0
LINE
  5
A73C
330
A6A4
100
AcDbEntity
  8
1
  6
Continuous
100
AcDbLine
 10
47.836106
 20
202.3350129999998
 30
0.0
 11
45.52684
 21
204.644278
 31
0.0
  0
LINE
  5
A73D
330
A6A4
100
AcDbEntity
  8
1
  6
Continuous
100
AcDbLine
 10
49.250319
 20
202.3350129999998
 30
0.0
 11
46.941054
 21
204.644278
 31
0.0
  0
LINE
  5
A73E
330
A6A4
100
AcDbEntity
  8
1
  6
Continuous
100
AcDbLine
 10
47.46021599999997
 20
202.3350129999998
 30
0.0
 11
49.769481
 21
204.644278
 31
0.0
  0
LINE
  5
A73F
330
A6A4
100
AcDbEntity
  8
1
  6
Continuous
100
AcDbLine
 10
46.046002
 20
202.3350129999998
 30
0.0
 11
48.355268
 21
204.644278
 31
0.0
  0
LINE
  5
A740
330
A6A4
100
AcDbEntity
  8
1
  6
Continuous
100
AcDbLine
 10
46.42189199999999
 20
202.3350129999998
 30
0.0
 11
44.112627
 21
204.644278
 31
0.0
  0
LINE
  5
A741
330
A6A4
100
AcDbEntity
  8
1
  6
Continuous
100
AcDbLine
 10
44.63178899999999
 20
202.3350129999998
 30
0.0
 11
46.941054
 21
204.644278
 31
0.0
  0
LINE
  5
A742
330
A6A4
100
AcDbEntity
  8
1
  6
Continuous
100
AcDbLine
 10
50.664533
 20
202.3350129999998
 30
0.0
 11
48.355268
 21
204.644278
 31
0.0
  0
LINE
  5
A743
330
A6A4
100
AcDbEntity
  8
1
  6
Continuous
100
AcDbLine
 10
48.87443
 20
202.3350129999998
 30
0.0
 11
51.183695
 21
204.644278
 31
0.0
  0
LINE
  5
A744
330
A6A4
100
AcDbEntity
  8
1
  6
Continuous
100
AcDbLine
 10
61.978241
 20
202.3350129999998
 30
0.0
 11
59.668976
 21
204.644278
 31
0.0
  0
LINE
  5
A745
330
A6A4
100
AcDbEntity
  8
1
  6
Continuous
100
AcDbLine
 10
60.564028
 20
202.3350129999998
 30
0.0
 11
58.254763
 21
204.644278
 31
0.0
  0
LINE
  5
A746
330
A6A4
100
AcDbEntity
  8
1
  6
Continuous
100
AcDbLine
 10
58.773924
 20
202.3350129999998
 30
0.0
 11
61.08319
 21
204.644278
 31
0.0
  0
LINE
  5
A747
330
A6A4
100
AcDbEntity
  8
1
  6
Continuous
100
AcDbLine
 10
57.735601
 20
202.3350129999998
 30
0.0
 11
55.42633499999999
 21
204.644278
 31
0.0
  0
LINE
  5
A748
330
A6A4
100
AcDbEntity
  8
1
  6
Continuous
100
AcDbLine
 10
56.321387
 20
202.3350129999998
 30
0.0
 11
54.01212199999999
 21
204.644278
 31
0.0
  0
LINE
  5
A749
330
A6A4
100
AcDbEntity
  8
1
  6
Continuous
100
AcDbLine
 10
54.531284
 20
202.3350129999998
 30
0.0
 11
56.84054899999999
 21
204.644278
 31
0.0
  0
LINE
  5
A74A
330
A6A4
100
AcDbEntity
  8
1
  6
Continuous
100
AcDbLine
 10
54.907173
 20
202.3350129999998
 30
0.0
 11
52.597908
 21
204.644278
 31
0.0
  0
LINE
  5
A74B
330
A6A4
100
AcDbEntity
  8
1
  6
Continuous
100
AcDbLine
 10
53.11707
 20
202.3350129999998
 30
0.0
 11
55.42633499999999
 21
204.644278
 31
0.0
  0
LINE
  5
A74C
330
A6A4
100
AcDbEntity
  8
1
  6
Continuous
100
AcDbLine
 10
59.149814
 20
202.3350129999998
 30
0.0
 11
56.84054899999999
 21
204.644278
 31
0.0
  0
LINE
  5
A74D
330
A6A4
100
AcDbEntity
  8
1
  6
Continuous
100
AcDbLine
 10
57.359711
 20
202.3350129999998
 30
0.0
 11
59.668976
 21
204.644278
 31
0.0
  0
LINE
  5
A74E
330
A6A4
100
AcDbEntity
  8
1
  6
Continuous
100
AcDbLine
 10
55.94549699999999
 20
202.3350129999998
 30
0.0
 11
58.254763
 21
204.644278
 31
0.0
  0
LINE
  5
A74F
330
A6A4
100
AcDbEntity
  8
1
  6
Continuous
100
AcDbLine
 10
66.22088199999999
 20
202.3350129999998
 30
0.0
 11
63.91161700000001
 21
204.644278
 31
0.0
  0
LINE
  5
A750
330
A6A4
100
AcDbEntity
  8
1
  6
Continuous
100
AcDbLine
 10
64.806668
 20
202.3350129999998
 30
0.0
 11
62.497403
 21
204.644278
 31
0.0
  0
LINE
  5
A751
330
A6A4
100
AcDbEntity
  8
1
  6
Continuous
100
AcDbLine
 10
63.01656499999999
 20
202.3350129999998
 30
0.0
 11
65.32583000000001
 21
204.644278
 31
0.0
  0
LINE
  5
A752
330
A6A4
100
AcDbEntity
  8
1
  6
Continuous
100
AcDbLine
 10
63.392455
 20
202.3350129999998
 30
0.0
 11
61.08319
 21
204.644278
 31
0.0
  0
LINE
  5
A753
330
A6A4
100
AcDbEntity
  8
1
  6
Continuous
100
AcDbLine
 10
61.602352
 20
202.3350129999998
 30
0.0
 11
63.91161700000001
 21
204.644278
 31
0.0
  0
LINE
  5
A754
330
A6A4
100
AcDbEntity
  8
1
  6
Continuous
100
AcDbLine
 10
60.188138
 20
202.3350129999998
 30
0.0
 11
62.497403
 21
204.644278
 31
0.0
  0
LINE
  5
A755
330
A6A4
100
AcDbEntity
  8
1
  6
Continuous
100
AcDbLine
 10
67.63509499999999
 20
202.3350129999998
 30
0.0
 11
65.32583000000001
 21
204.644278
 31
0.0
  0
LINE
  5
A756
330
A6A4
100
AcDbEntity
  8
1
  6
Continuous
100
AcDbLine
 10
65.844992
 20
202.3350129999998
 30
0.0
 11
68.154257
 21
204.644278
 31
0.0
  0
LINE
  5
A757
330
A6A4
100
AcDbEntity
  8
1
  6
Continuous
100
AcDbLine
 10
64.430779
 20
202.3350129999998
 30
0.0
 11
66.740044
 21
204.644278
 31
0.0
  0
ARC
  5
A758
330
A6A4
100
AcDbEntity
  8
1
  6
Continuous
100
AcDbCircle
 10
72.655268
 20
191.0242659999999
 30
0.0
 40
3.0
100
AcDbArc
 50
0.0
 51
90.0
  0
ARC
  5
A759
330
A6A4
100
AcDbEntity
  8
1
  6
Continuous
100
AcDbCircle
 10
70.35526800000001
 20
191.580687
 30
0.0
 40
3.0
100
AcDbArc
 50
0.0
 51
54.54057500000001
  0
LINE
  5
A75A
330
A6A4
100
AcDbEntity
  8
1
  6
Continuous
100
AcDbLine
 10
76.85526800000002
 20
203.0143359999999
 30
0.0
 11
75.225325
 21
204.644278
 31
0.0
  0
LINE
  5
A75B
330
A6A4
100
AcDbEntity
  8
1
  6
Continuous
100
AcDbLine
 10
75.74448700000002
 20
202.3350129999998
 30
0.0
 11
76.85526800000002
 21
203.4457929999999
 31
0.0
  0
LINE
  5
A75C
330
A6A4
100
AcDbEntity
  8
1
  6
Continuous
100
AcDbLine
 10
74.330274
 20
202.3350129999998
 30
0.0
 11
76.639539
 21
204.644278
 31
0.0
  0
ARC
  5
A75D
330
A6A4
100
AcDbEntity
  8
1
  6
Continuous
100
AcDbCircle
 10
75.78649699999998
 20
210.6102089999999
 30
0.0
 40
3.610794999999998
100
AcDbArc
 50
270.0
 51
323.267889
  0
ARC
  5
A75E
330
A6A4
100
AcDbEntity
  8
1
  6
Continuous
100
AcDbCircle
 10
75.40093699999999
 20
205.8708709999999
 30
0.0
 40
0.8364709999999998
100
AcDbArc
 50
19.341459
 51
77.625084
  0
LINE
  5
A75F
330
A6A4
100
AcDbEntity
  8
1
  6
Continuous
100
AcDbLine
 10
73.29195
 20
202.3350129999998
 30
0.0
 11
70.982685
 21
204.644278
 31
0.0
  0
LINE
  5
A760
330
A6A4
100
AcDbEntity
  8
1
  6
Continuous
100
AcDbLine
 10
71.501847
 20
202.3350129999998
 30
0.0
 11
73.81111199999998
 21
204.644278
 31
0.0
  0
LINE
  5
A761
330
A6A4
100
AcDbEntity
  8
1
  6
Continuous
100
AcDbLine
 10
70.087633
 20
202.3350129999998
 30
0.0
 11
72.39689799999998
 21
204.644278
 31
0.0
  0
LINE
  5
A762
330
A6A4
100
AcDbEntity
  8
1
  6
Continuous
100
AcDbLine
 10
71.87773599999998
 20
202.3350129999998
 30
0.0
 11
69.568471
 21
204.644278
 31
0.0
  0
LINE
  5
A763
330
A6A4
100
AcDbEntity
  8
1
  6
Continuous
100
AcDbLine
 10
68.67341899999999
 20
202.3350129999998
 30
0.0
 11
70.982685
 21
204.644278
 31
0.0
  0
LINE
  5
A764
330
A6A4
100
AcDbEntity
  8
1
  6
Continuous
100
AcDbLine
 10
76.12037700000001
 20
202.3350129999998
 30
0.0
 11
73.81111199999998
 21
204.644278
 31
0.0
  0
LINE
  5
A765
330
A6A4
100
AcDbEntity
  8
1
  6
Continuous
100
AcDbLine
 10
74.706163
 20
202.3350129999998
 30
0.0
 11
72.39689799999998
 21
204.644278
 31
0.0
  0
LINE
  5
A766
330
A6A4
100
AcDbEntity
  8
1
  6
Continuous
100
AcDbLine
 10
72.91606
 20
202.3350129999998
 30
0.0
 11
75.225325
 21
204.644278
 31
0.0
  0
ARC
  5
A767
330
A6A4
100
AcDbEntity
  8
1
  6
Continuous
100
AcDbCircle
 10
69.943494
 20
207.576153
 30
0.0
 40
6.407901999999999
100
AcDbArc
 50
332.7714799999998
 51
347.121283
  0
ARC
  5
A768
330
A6A4
100
AcDbEntity
  8
1
  6
Continuous
100
AcDbCircle
 10
71.42785899999998
 20
203.493409
 30
0.0
 40
4.640519999999998
100
AcDbArc
 50
47.356681
 51
49.07081699999999
  0
LINE
  5
A769
330
A6A4
100
AcDbEntity
  8
1
  6
Continuous
100
AcDbLine
 10
74.715199
 20
206.7129079999999
 30
0.0
 11
74.57149699999998
 21
206.9069059999999
 31
0.0
  0
LINE
  5
A76A
330
A6A4
100
AcDbEntity
  8
1
  6
Continuous
100
AcDbLine
 10
75.58019899999997
 20
206.687908
 30
0.0
 11
74.715199
 21
206.7129079999999
 31
0.0
  0
LINE
  5
A76B
330
A6A4
100
AcDbEntity
  8
1
  6
Continuous
100
AcDbLine
 10
76.85526800000002
 20
204.428549
 30
0.0
 11
76.639539
 21
204.644278
 31
0.0
  0
LINE
  5
A76C
330
A6A4
100
AcDbEntity
  8
1
  6
Continuous
100
AcDbLine
 10
76.85526800000002
 20
204.644278
 30
0.0
 11
76.85526800000002
 21
202.3350129999998
 31
0.0
  0
LINE
  5
A76D
330
A6A4
100
AcDbEntity
  8
1
  6
Continuous
100
AcDbLine
 10
78.680334
 20
208.4506849999999
 30
0.0
 11
78.680334
 21
209.0149699999999
 31
0.0
  0
LINE
  5
A76E
330
A6A4
100
AcDbEntity
  8
1
  6
Continuous
100
AcDbLine
 10
86.85526800000003
 20
209.0149699999999
 30
0.0
 11
86.85526800000003
 21
211.31497
 31
0.0
  0
LINE
  5
A76F
330
A6A4
100
AcDbEntity
  8
4
  6
CENTER
100
AcDbLine
 10
35.855268
 20
216.3149699999999
 30
0.0
 11
35.855268
 21
204.01497
 31
0.0
  0
LINE
  5
A770
330
A6A4
100
AcDbEntity
  8
4
  6
CENTER
100
AcDbLine
 10
79.85526800000002
 20
216.3149699999999
 30
0.0
 11
79.85526800000002
 21
204.01497
 31
0.0
  0
LINE
  5
A771
330
A6A4
100
AcDbEntity
  8
2
  6
Continuous
100
AcDbLine
 10
82.65526800000001
 20
174.6384699999999
 30
0.0
 11
84.231768
 21
174.6384699999999
 31
0.0
  0
LINE
  5
A772
330
A6A4
100
AcDbEntity
  8
2
  6
Continuous
100
AcDbLine
 10
82.65526800000001
 20
167.9914699999999
 30
0.0
 11
84.231768
 21
167.9914699999999
 31
0.0
  0
LINE
  5
A773
330
A6A4
100
AcDbEntity
  8
1
  6
Continuous
100
AcDbLine
 10
77.655268
 20
173.31497
 30
0.0
 11
75.655268
 21
171.3149699999999
 31
0.0
  0
LINE
  5
A774
330
A6A4
100
AcDbEntity
  8
1
  6
Continuous
100
AcDbLine
 10
77.655268
 20
171.3149699999999
 30
0.0
 11
75.655268
 21
169.31497
 31
0.0
  0
LINE
  5
A775
330
A6A4
100
AcDbEntity
  8
1
  6
Continuous
100
AcDbLine
 10
197.074349
 20
97.17203900000001
 30
0.0
 11
197.074349
 21
53.17203899999999
 31
0.0
  0
LINE
  5
A776
330
A6A4
100
AcDbEntity
  8
1
  6
Continuous
100
AcDbLine
 10
139.074349
 20
97.17203900000001
 30
0.0
 11
139.074349
 21
87.67246
 31
0.0
  0
ARC
  5
A777
330
A6A4
100
AcDbEntity
  8
1
  6
Continuous
100
AcDbCircle
 10
234.074349
 20
75.172039
 30
0.0
 40
100.0
100
AcDbArc
 50
173.849113
 51
186.1513
  0
LINE
  5
A778
330
A6A4
100
AcDbEntity
  8
4
  6
CENTER
100
AcDbLine
 10
168.074349
 20
41.17203899999998
 30
0.0
 11
168.074349
 21
109.1720389999998
 31
0.0
  0
ARC
  5
A779
330
A6A4
100
AcDbEntity
  8
1
  6
Continuous
100
AcDbCircle
 10
190.074349
 20
97.17203900000001
 30
0.0
 40
7.0
100
AcDbArc
 50
0.0
 51
90.0
  0
CIRCLE
  5
A77A
330
A6A4
100
AcDbEntity
  8
1
  6
Continuous
100
AcDbCircle
 10
190.074349
 20
97.17203900000001
 30
0.0
 40
3.25
  0
LINE
  5
A77B
330
A6A4
100
AcDbEntity
  8
4
  6
CENTER
100
AcDbLine
 10
196.324349
 20
97.17203900000001
 30
0.0
 11
183.824349
 21
97.17203900000001
 31
0.0
  0
LINE
  5
A77C
330
A6A4
100
AcDbEntity
  8
1
  6
Continuous
100
AcDbLine
 10
190.074349
 20
104.172039
 30
0.0
 11
146.074349
 21
104.172039
 31
0.0
  0
ARC
  5
A77D
330
A6A4
100
AcDbEntity
  8
1
  6
Continuous
100
AcDbCircle
 10
146.074349
 20
97.17203900000001
 30
0.0
 40
7.0
100
AcDbArc
 50
90.0
 51
180.0
  0
ARC
  5
A77E
330
A6A4
100
AcDbEntity
  8
1
  6
Continuous
100
AcDbCircle
 10
146.074349
 20
97.17203900000001
 30
0.0
 40
3.25
100
AcDbArc
 50
52.02012799999999
 51
278.8498829999999
  0
LINE
  5
A77F
330
A6A4
100
AcDbEntity
  8
4
  6
CENTER
100
AcDbLine
 10
152.324349
 20
97.17203900000001
 30
0.0
 11
139.824349
 21
97.17203900000001
 31
0.0
  0
ARC
  5
A780
330
A6A4
100
AcDbEntity
  8
1
  6
Continuous
100
AcDbCircle
 10
136.6385179999997
 20
85.67246
 30
0.0
 40
2.0
100
AcDbArc
 50
89.990094
 51
173.849113
  0
LINE
  5
A781
330
A6A4
100
AcDbEntity
  8
1
  6
Continuous
100
AcDbLine
 10
139.074349
 20
87.672039
 30
0.0
 11
136.6388639999998
 21
87.67246
 31
0.0
  0
LINE
  5
A782
330
A6A4
100
AcDbEntity
  8
4
  6
CENTER
100
AcDbLine
 10
146.074349
 20
103.4220389999999
 30
0.0
 11
146.074349
 21
90.92203899999999
 31
0.0
  0
LINE
  5
A783
330
A6A4
100
AcDbEntity
  8
4
  6
CENTER
100
AcDbLine
 10
190.074349
 20
103.4220389999999
 30
0.0
 11
190.074349
 21
90.92203899999999
 31
0.0
  0
ARC
  5
A784
330
A6A4
100
AcDbEntity
  8
1
  6
Continuous
100
AcDbCircle
 10
190.074349
 20
53.17203899999999
 30
0.0
 40
7.0
100
AcDbArc
 50
270.0
 51
0.0
  0
CIRCLE
  5
A785
330
A6A4
100
AcDbEntity
  8
1
  6
Continuous
100
AcDbCircle
 10
190.074349
 20
53.17203899999999
 30
0.0
 40
3.25
  0
LINE
  5
A786
330
A6A4
100
AcDbEntity
  8
4
  6
CENTER
100
AcDbLine
 10
196.324349
 20
53.17203899999999
 30
0.0
 11
183.824349
 21
53.17203899999999
 31
0.0
  0
LINE
  5
A787
330
A6A4
100
AcDbEntity
  8
4
  6
CENTER
100
AcDbLine
 10
202.074349
 20
75.172039
 30
0.0
 11
129.074349
 21
75.172039
 31
0.0
  0
LINE
  5
A788
330
A6A4
100
AcDbEntity
  8
1
  6
Continuous
100
AcDbLine
 10
190.074349
 20
46.17203899999998
 30
0.0
 11
146.074349
 21
46.17203899999998
 31
0.0
  0
LINE
  5
A789
330
A6A4
100
AcDbEntity
  8
1
  6
Continuous
100
AcDbLine
 10
139.074349
 20
62.672039
 30
0.0
 11
136.6388639999998
 21
62.671618
 31
0.0
  0
ARC
  5
A78A
330
A6A4
100
AcDbEntity
  8
1
  6
Continuous
100
AcDbCircle
 10
136.6385179999997
 20
64.671617
 30
0.0
 40
2.0
100
AcDbArc
 50
186.150887
 51
270.0099059999998
  0
ARC
  5
A78B
330
A6A4
100
AcDbEntity
  8
1
  6
Continuous
100
AcDbCircle
 10
146.074349
 20
53.17203899999999
 30
0.0
 40
3.25
100
AcDbArc
 50
72.07978699999998
 51
6.096969999999998
  0
ARC
  5
A78C
330
A6A4
100
AcDbEntity
  8
1
  6
Continuous
100
AcDbCircle
 10
146.074349
 20
53.17203899999999
 30
0.0
 40
7.0
100
AcDbArc
 50
180.0
 51
270.0
  0
LINE
  5
A78D
330
A6A4
100
AcDbEntity
  8
4
  6
CENTER
100
AcDbLine
 10
152.324349
 20
53.17203899999999
 30
0.0
 11
139.824349
 21
53.17203899999999
 31
0.0
  0
LINE
  5
A78E
330
A6A4
100
AcDbEntity
  8
4
  6
CENTER
100
AcDbLine
 10
146.074349
 20
59.42203899999999
 30
0.0
 11
146.074349
 21
46.92203899999999
 31
0.0
  0
LINE
  5
A78F
330
A6A4
100
AcDbEntity
  8
4
  6
CENTER
100
AcDbLine
 10
190.074349
 20
59.42203899999999
 30
0.0
 11
190.074349
 21
46.92203899999999
 31
0.0
  0
LINE
  5
A790
330
A6A4
100
AcDbEntity
  8
1
  6
Continuous
100
AcDbLine
 10
255.4934309999999
 20
160.96497
 30
0.0
 11
255.4934309999999
 21
162.164843
 31
0.0
  0
LINE
  5
A791
330
A6A4
100
AcDbEntity
  8
4
  6
CENTER
100
AcDbLine
 10
273.293431
 20
216.3149699999999
 30
0.0
 11
273.293431
 21
148.31497
 31
0.0
  0
LINE
  5
A792
330
A6A4
100
AcDbEntity
  8
4
  6
CENTER
100
AcDbLine
 10
301.093431
 20
171.3149699999999
 30
0.0
 11
241.593431
 21
171.3149699999999
 31
0.0
  0
ARC
  5
A793
330
A6A4
100
AcDbEntity
  8
1
  6
Continuous
100
AcDbCircle
 10
296.3561169999999
 20
159.7562619999999
 30
0.0
 40
5.787669999999999
100
AcDbArc
 50
139.605389
 51
155.40777
  0
ARC
  5
A794
330
A6A4
100
AcDbEntity
  8
1
  6
Continuous
100
AcDbCircle
 10
286.053522
 20
168.5227859999999
 30
0.0
 40
7.739908999999999
100
AcDbArc
 50
319.6053889999999
 51
0.0
  0
LINE
  5
A795
330
A6A4
100
AcDbEntity
  8
1
  6
Continuous
100
AcDbLine
 10
291.093431
 20
160.96497
 30
0.0
 11
288.7934309999998
 21
160.96497
 31
0.0
  0
LINE
  5
A796
330
A6A4
100
AcDbEntity
  8
1
  6
Continuous
100
AcDbLine
 10
257.7934309999998
 20
160.96497
 30
0.0
 11
255.4934309999999
 21
160.96497
 31
0.0
  0
ARC
  5
A797
330
A6A4
100
AcDbEntity
  8
1
  6
Continuous
100
AcDbCircle
 10
260.53334
 20
168.5227859999999
 30
0.0
 40
7.739908999999999
100
AcDbArc
 50
202.849834
 51
204.555429
  0
LINE
  5
A798
330
A6A4
100
AcDbEntity
  8
1
  6
Continuous
100
AcDbLine
 10
302.293431
 20
211.31497
 30
0.0
 11
244.293431
 21
211.31497
 31
0.0
  0
LINE
  5
A799
330
A6A4
100
AcDbEntity
  8
4
  6
CENTER
100
AcDbLine
 10
154.074349
 20
41.17203899999998
 30
0.0
 11
154.074349
 21
109.1720389999998
 31
0.0
  0
LINE
  5
A79A
330
A6A4
100
AcDbEntity
  8
1
  6
Continuous
100
AcDbLine
 10
162.033916
 20
92.97203899999999
 30
0.0
 11
143.724349
 21
92.97203899999999
 31
0.0
  0
LINE
  5
A79B
330
A6A4
100
AcDbEntity
  8
1
  6
Continuous
100
AcDbLine
 10
161.574349
 20
94.972039
 30
0.0
 11
146.574349
 21
94.972039
 31
0.0
  0
LINE
  5
A79C
330
A6A4
100
AcDbEntity
  8
1
  6
Continuous
100
AcDbLine
 10
136.6385179999997
 20
87.67246
 30
0.0
 11
171.51018
 21
87.67246
 31
0.0
  0
LINE
  5
A79D
330
A6A4
100
AcDbEntity
  8
1
  6
Continuous
100
AcDbLine
 10
146.5652649999998
 20
89.790279
 30
0.0
 11
161.583433
 21
89.790279
 31
0.0
  0
LINE
  5
A79E
330
A6A4
100
AcDbEntity
  8
1
  6
Continuous
100
AcDbLine
 10
143.724349
 20
90.672039
 30
0.0
 11
161.396036
 21
90.672039
 31
0.0
  0
ARC
  5
A79F
330
A6A4
100
AcDbEntity
  8
1
  6
Continuous
100
AcDbCircle
 10
154.074349
 20
62.872039
 30
0.0
 40
10.5
100
AcDbArc
 50
228.1896849999998
 51
311.810315
  0
LINE
  5
A7A0
330
A6A4
100
AcDbEntity
  8
1
  6
Continuous
100
AcDbLine
 10
143.724349
 20
57.372039
 30
0.0
 11
162.033916
 21
57.372039
 31
0.0
  0
LINE
  5
A7A1
330
A6A4
100
AcDbEntity
  8
1
  6
Continuous
100
AcDbLine
 10
136.6385179999997
 20
62.67161699999999
 30
0.0
 11
171.51018
 21
62.67161699999999
 31
0.0
  0
LINE
  5
A7A2
330
A6A4
100
AcDbEntity
  8
1
  6
Continuous
100
AcDbLine
 10
146.5652649999998
 20
60.553798
 30
0.0
 11
161.583433
 21
60.553798
 31
0.0
  0
LINE
  5
A7A3
330
A6A4
100
AcDbEntity
  8
1
  6
Continuous
100
AcDbLine
 10
161.074349
 20
55.045801
 30
0.0
 11
147.074349
 21
55.045801
 31
0.0
  0
LINE
  5
A7A4
330
A6A4
100
AcDbEntity
  8
1
  6
Continuous
100
AcDbLine
 10
143.724349
 20
59.672039
 30
0.0
 11
161.396036
 21
59.672039
 31
0.0
  0
ARC
  5
A7A5
330
A6A4
100
AcDbEntity
  8
1
  6
Continuous
100
AcDbCircle
 10
74.074349
 20
75.172039
 30
0.0
 40
100.0
100
AcDbArc
 50
353.849113
 51
6.151048999999999
  0
ARC
  5
A7A6
330
A6A4
100
AcDbEntity
  8
1
  6
Continuous
100
AcDbCircle
 10
171.51018
 20
64.671617
 30
0.0
 40
2.0
100
AcDbArc
 50
270.0
 51
353.849113
  0
ARC
  5
A7A7
330
A6A4
100
AcDbEntity
  8
1
  6
Continuous
100
AcDbCircle
 10
157.146041
 20
80.05532399999998
 30
0.0
 40
20.0
100
AcDbArc
 50
282.818869
 51
299.63833
  0
LINE
  5
A7A8
330
A6A4
100
AcDbEntity
  8
1
  6
Continuous
100
AcDbLine
 10
161.074349
 20
55.045801
 30
0.0
 11
161.074349
 21
57.372039
 31
0.0
  0
LINE
  5
A7A9
330
A6A4
100
AcDbEntity
  8
1
  6
Continuous
100
AcDbLine
 10
161.074349
 20
59.672039
 30
0.0
 11
161.583433
 21
60.553798
 31
0.0
  0
ARC
  5
A7AA
330
A6A4
100
AcDbEntity
  8
1
  6
Continuous
100
AcDbCircle
 10
162.595269
 20
-150.5475439999998
 30
0.0
 40
207.9195819999999
100
AcDbArc
 50
90.0
 51
90.419119
  0
ARC
  5
A7AB
330
A6A4
100
AcDbEntity
  8
1
  6
Continuous
100
AcDbCircle
 10
171.51018
 20
85.67246
 30
0.0
 40
2.0
100
AcDbArc
 50
6.150886999999999
 51
90.0
  0
LINE
  5
A7AC
330
A6A4
100
AcDbEntity
  8
1
  6
Continuous
100
AcDbLine
 10
152.074349
 20
94.972039
 30
0.0
 11
154.074349
 21
92.97203899999999
 31
0.0
  0
LINE
  5
A7AD
330
A6A4
100
AcDbEntity
  8
1
  6
Continuous
100
AcDbLine
 10
161.574349
 20
92.97203899999999
 30
0.0
 11
161.574349
 21
94.972039
 31
0.0
  0
ARC
  5
A7AE
330
A6A4
100
AcDbEntity
  8
1
  6
Continuous
100
AcDbCircle
 10
157.146041
 20
70.288753
 30
0.0
 40
20.0
100
AcDbArc
 50
60.36166999999998
 51
77.18113099999998
  0
LINE
  5
A7AF
330
A6A4
100
AcDbEntity
  8
1
  6
Continuous
100
AcDbLine
 10
161.074349
 20
90.672039
 30
0.0
 11
161.583433
 21
89.790279
 31
0.0
  0
LINE
  5
A7B0
330
A6A4
100
AcDbEntity
  8
1
  6
Continuous
100
AcDbLine
 10
154.074349
 20
94.972039
 30
0.0
 11
156.074349
 21
92.97203899999999
 31
0.0
  0
LINE
  5
A7B1
330
A6A4
100
AcDbEntity
  8
1
  6
Continuous
100
AcDbLine
 10
150.074349
 20
99.972039
 30
0.0
 11
150.074349
 21
100.872039
 31
0.0
  0
LINE
  5
A7B2
330
A6A4
100
AcDbEntity
  8
2
  6
Continuous
100
AcDbLine
 10
150.750849
 20
99.972039
 30
0.0
 11
150.750849
 21
101.548539
 31
0.0
  0
LINE
  5
A7B3
330
A6A4
100
AcDbEntity
  8
1
  6
Continuous
100
AcDbLine
 10
158.074349
 20
99.972039
 30
0.0
 11
158.074349
 21
100.872039
 31
0.0
  0
LINE
  5
A7B4
330
A6A4
100
AcDbEntity
  8
2
  6
Continuous
100
AcDbLine
 10
157.397849
 20
99.972039
 30
0.0
 11
157.397849
 21
101.548539
 31
0.0
  0
LINE
  5
A7B5
330
A6A4
100
AcDbEntity
  8
1
  6
Continuous
100
AcDbLine
 10
158.074349
 20
100.872039
 30
0.0
 11
150.074349
 21
100.872039
 31
0.0
  0
LINE
  5
A7B6
330
A6A4
100
AcDbEntity
  8
1
  6
Continuous
100
AcDbLine
 10
157.074349
 20
101.8720389999999
 30
0.0
 11
151.074349
 21
101.8720389999999
 31
0.0
  0
ARC
  5
A7B7
330
A6A4
100
AcDbEntity
  8
1
  6
Continuous
100
AcDbCircle
 10
151.0026579999999
 20
80.05532399999998
 30
0.0
 40
20.0
100
AcDbArc
 50
240.3616700000001
 51
257.181131
  0
LINE
  5
A7B8
330
A6A4
100
AcDbEntity
  8
1
  6
Continuous
100
AcDbLine
 10
147.074349
 20
55.045801
 30
0.0
 11
147.074349
 21
57.372039
 31
0.0
  0
LINE
  5
A7B9
330
A6A4
100
AcDbEntity
  8
1
  6
Continuous
100
AcDbLine
 10
147.074349
 20
59.672039
 30
0.0
 11
146.5652649999998
 21
60.553798
 31
0.0
  0
LINE
  5
A7BA
330
A6A4
100
AcDbEntity
  8
1
  6
Continuous
100
AcDbLine
 10
146.574349
 20
92.97203899999999
 30
0.0
 11
146.574349
 21
94.972039
 31
0.0
  0
ARC
  5
A7BB
330
A6A4
100
AcDbEntity
  8
1
  6
Continuous
100
AcDbCircle
 10
151.0026579999999
 20
70.288753
 30
0.0
 40
20.0
100
AcDbArc
 50
102.8188689999999
 51
119.6383299999999
  0
LINE
  5
A7BC
330
A6A4
100
AcDbEntity
  8
1
  6
Continuous
100
AcDbLine
 10
147.074349
 20
90.672039
 30
0.0
 11
146.5652649999998
 21
89.790279
 31
0.0
  0
ARC
  5
A7BD
330
A6A4
100
AcDbEntity
  8
1
  6
Continuous
100
AcDbCircle
 10
136.6385179999997
 20
85.67246
 30
0.0
 40
2.0
100
AcDbArc
 50
89.990094
 51
90.0
  0
ARC
  5
A7BE
330
A6A4
100
AcDbEntity
  8
1
  6
Continuous
100
AcDbCircle
 10
168.074349
 20
75.172039
 30
0.0
 40
20.5
100
AcDbArc
 50
250.0339419999999
 51
108.4860149999999
  0
ARC
  5
A7BF
330
A6A4
100
AcDbEntity
  8
1
  6
Continuous
100
AcDbCircle
 10
168.074349
 20
75.172039
 30
0.0
 40
18.2
100
AcDbArc
 50
288.840982
 51
71.159018
  0
ARC
  5
A7C0
330
A6A4
100
AcDbEntity
  8
1
  6
Continuous
100
AcDbCircle
 10
168.074349
 20
75.172039
 30
0.0
 40
16.2
100
AcDbArc
 50
245.980303
 51
114.019698
  0
ARC
  5
A7C1
330
A6A4
100
AcDbEntity
  8
1
  6
Continuous
100
AcDbCircle
 10
168.074349
 20
75.172039
 30
0.0
 40
14.19999999999999
100
AcDbArc
 50
255.248262
 51
104.7517439999999
  0
ARC
  5
A7C2
330
A6A4
100
AcDbEntity
  8
1
  6
Continuous
100
AcDbCircle
 10
168.074349
 20
75.172039
 30
0.0
 40
7.2
100
AcDbArc
 50
325.248419
 51
34.751581
  0
ARC
  5
A7C3
330
A6A4
100
AcDbEntity
  8
1
  6
Continuous
100
AcDbCircle
 10
168.074349
 20
75.172039
 30
0.0
 40
20.825067
100
AcDbArc
 50
250.358527
 51
108.1872699999999
  0
LINE
  5
A7C4
330
A6A4
100
AcDbEntity
  8
1
  6
Continuous
100
AcDbLine
 10
143.724349
 20
92.97203899999999
 30
0.0
 11
143.724349
 21
90.672039
 31
0.0
  0
LINE
  5
A7C5
330
A6A4
100
AcDbEntity
  8
1
  6
Continuous
100
AcDbLine
 10
143.724349
 20
57.372039
 30
0.0
 11
143.724349
 21
59.672039
 31
0.0
  0
ARC
  5
A7C6
330
A6A4
100
AcDbEntity
  8
1
  6
Continuous
100
AcDbCircle
 10
172.4350729999999
 20
79.49197099999998
 30
0.0
 40
15.68068599999999
100
AcDbArc
 50
95.54301999999998
 51
113.892296
  0
ARC
  5
A7C7
330
A6A4
100
AcDbEntity
  8
1
  6
Continuous
100
AcDbCircle
 10
162.033916
 20
102.972039
 30
0.0
 40
10.0
100
AcDbArc
 50
270.0
 51
293.8922959999998
  0
ARC
  5
A7C8
330
A6A4
100
AcDbEntity
  8
1
  6
Continuous
100
AcDbCircle
 10
171.693172
 20
87.13674199999998
 30
0.0
 40
8.0
100
AcDbArc
 50
73.17162900000003
 51
95.54301999999998
  0
ARC
  5
A7C9
330
A6A4
100
AcDbEntity
  8
1
  6
Continuous
100
AcDbCircle
 10
171.698623
 20
79.52628699999998
 30
0.0
 40
13.30950099999999
100
AcDbArc
 50
93.56616899999998
 51
113.72176
  0
ARC
  5
A7CA
330
A6A4
100
AcDbEntity
  8
1
  6
Continuous
100
AcDbCircle
 10
161.396036
 20
102.972039
 30
0.0
 40
12.3
100
AcDbArc
 50
270.0
 51
293.72176
  0
ARC
  5
A7CB
330
A6A4
100
AcDbEntity
  8
1
  6
Continuous
100
AcDbCircle
 10
171.3683649999999
 20
84.825508
 30
0.0
 40
8.0
100
AcDbArc
 50
71.159018
 51
93.56616899999998
  0
ARC
  5
A7CC
330
A6A4
100
AcDbEntity
  8
1
  6
Continuous
100
AcDbCircle
 10
171.698623
 20
70.81779
 30
0.0
 40
13.30950099999999
100
AcDbArc
 50
246.27824
 51
266.433831
  0
ARC
  5
A7CD
330
A6A4
100
AcDbEntity
  8
1
  6
Continuous
100
AcDbCircle
 10
172.4350729999999
 20
70.85210600000002
 30
0.0
 40
15.68068599999999
100
AcDbArc
 50
246.107704
 51
264.4569799999999
  0
ARC
  5
A7CE
330
A6A4
100
AcDbEntity
  8
1
  6
Continuous
100
AcDbCircle
 10
162.033916
 20
47.37203899999999
 30
0.0
 40
10.0
100
AcDbArc
 50
66.10770399999998
 51
90.0
  0
ARC
  5
A7CF
330
A6A4
100
AcDbEntity
  8
1
  6
Continuous
100
AcDbCircle
 10
161.396036
 20
47.37203899999999
 30
0.0
 40
12.3
100
AcDbArc
 50
66.27824
 51
90.0
  0
ARC
  5
A7D0
330
A6A4
100
AcDbEntity
  8
1
  6
Continuous
100
AcDbCircle
 10
171.3683649999999
 20
65.51857
 30
0.0
 40
8.0
100
AcDbArc
 50
266.433831
 51
288.840982
  0
ARC
  5
A7D1
330
A6A4
100
AcDbEntity
  8
1
  6
Continuous
100
AcDbCircle
 10
171.693172
 20
63.207335
 30
0.0
 40
8.0
100
AcDbArc
 50
264.4569799999999
 51
286.828371
  0
LINE
  5
A7D2
330
A6A4
100
AcDbEntity
  8
1
  6
Continuous
100
AcDbLine
 10
139.074349
 20
62.67161699999999
 30
0.0
 11
139.074349
 21
53.17203899999999
 31
0.0
  0
LINE
  5
A7D3
330
A6A4
100
AcDbEntity
  8
1
  6
Continuous
100
AcDbLine
 10
291.093431
 20
162.164843
 30
0.0
 11
291.093431
 21
160.96497
 31
0.0
  0
ARC
  5
A7D4
330
A6A4
100
AcDbEntity
  8
1
  6
Continuous
100
AcDbCircle
 10
250.2307449999999
 20
159.7562619999999
 30
0.0
 40
5.787669999999999
100
AcDbArc
 50
24.59222999999999
 51
40.39461099999999
  0
ARC
  5
A7D5
330
A6A4
100
AcDbEntity
  8
1
  6
Continuous
100
AcDbCircle
 10
260.53334
 20
168.5227859999999
 30
0.0
 40
7.739908999999999
100
AcDbArc
 50
180.0
 51
220.3946109999999
  0
ARC
  5
A7D6
330
A6A4
100
AcDbEntity
  8
1
  6
Continuous
100
AcDbCircle
 10
273.293431
 20
179.587796
 30
0.0
 40
16.22717399999999
100
AcDbArc
 50
70.234751
 51
109.7652489999997
  0
ARC
  5
A7D7
330
A6A4
100
AcDbEntity
  8
1
  6
Continuous
100
AcDbCircle
 10
323.4866989999999
 20
146.404493
 30
0.0
 40
74.072647
100
AcDbArc
 50
139.745383
 51
162.626302
  0
ARC
  5
A7D8
330
A6A4
100
AcDbEntity
  8
1
  6
Continuous
100
AcDbCircle
 10
223.100164
 20
146.404493
 30
0.0
 40
74.072647
100
AcDbArc
 50
17.373698
 51
40.254617
  0
ARC
  5
A7D9
330
A6A4
100
AcDbEntity
  8
1
  6
Continuous
100
AcDbCircle
 10
222.2395469999999
 20
152.121306
 30
0.0
 40
71.16958000000003
100
AcDbArc
 50
13.323939
 51
36.50696699999999
  0
ARC
  5
A7DA
330
A6A4
100
AcDbEntity
  8
1
  6
Continuous
100
AcDbCircle
 10
296.3561169999999
 20
159.7562619999999
 30
0.0
 40
8.087669999999999
100
AcDbArc
 50
139.605389
 51
159.2424229999998
  0
ARC
  5
A7DB
330
A6A4
100
AcDbEntity
  8
1
  6
Continuous
100
AcDbCircle
 10
324.3473159999999
 20
152.121306
 30
0.0
 40
71.16958000000003
100
AcDbArc
 50
143.493033
 51
166.676061
  0
ARC
  5
A7DC
330
A6A4
100
AcDbEntity
  8
1
  6
Continuous
100
AcDbCircle
 10
260.53334
 20
168.5227859999999
 30
0.0
 40
5.439908999999999
100
AcDbArc
 50
180.0
 51
220.3946109999999
  0
ARC
  5
A7DD
330
A6A4
100
AcDbEntity
  8
1
  6
Continuous
100
AcDbCircle
 10
250.2307449999999
 20
159.7562619999999
 30
0.0
 40
8.087669999999999
100
AcDbArc
 50
20.757577
 51
40.39461099999999
  0
ARC
  5
A7DE
330
A6A4
100
AcDbEntity
  8
1
  6
Continuous
100
AcDbCircle
 10
268.4822679999999
 20
192.9767909999999
 30
0.0
 40
2.0
100
AcDbArc
 50
109.7652489999997
 51
139.745383
  0
ARC
  5
A7DF
330
A6A4
100
AcDbEntity
  8
1
  6
Continuous
100
AcDbCircle
 10
278.104595
 20
192.9767909999999
 30
0.0
 40
2.0
100
AcDbArc
 50
40.254617
 51
70.234751
  0
LINE
  5
A7E0
330
A6A4
100
AcDbEntity
  8
1
  6
Continuous
100
AcDbLine
 10
84.55526799999999
 20
168.3149699999999
 30
0.0
 11
83.55526799999998
 21
167.3149699999999
 31
0.0
  0
LINE
  5
A7E1
330
A6A4
100
AcDbEntity
  8
1
  6
Continuous
100
AcDbLine
 10
84.55526799999999
 20
174.31497
 30
0.0
 11
83.55526799999998
 21
175.3149699999999
 31
0.0
  0
LINE
  5
A7E2
330
A6A4
100
AcDbEntity
  8
1
  6
Continuous
100
AcDbLine
 10
82.65526800000001
 20
177.3149699999999
 30
0.0
 11
82.65526800000001
 21
165.3149699999999
 31
0.0
  0
ARC
  5
A7E3
330
A6A4
100
AcDbEntity
  8
1
  6
Continuous
100
AcDbCircle
 10
71.19116600000002
 20
171.3149699999999
 30
0.0
 40
11.464102
100
AcDbArc
 50
342.4120459999999
 51
17.587954
  0
ARC
  5
A7E4
330
A6A4
100
AcDbEntity
  8
1
  6
Continuous
100
AcDbCircle
 10
89.11936899999997
 20
171.3149699999999
 30
0.0
 40
11.464102
100
AcDbArc
 50
162.412046
 51
197.5879539999999
  0
LINE
  5
A7E5
330
A6A4
100
AcDbEntity
  8
1
  6
Continuous
100
AcDbLine
 10
77.655268
 20
177.3149699999999
 30
0.0
 11
77.655268
 21
165.3149699999999
 31
0.0
  0
LINE
  5
A7E6
330
A6A4
100
AcDbEntity
  8
1
  6
Continuous
100
AcDbLine
 10
82.11936899999997
 20
164.3867669999998
 30
0.0
 11
82.65526800000001
 21
165.3149699999999
 31
0.0
  0
LINE
  5
A7E7
330
A6A4
100
AcDbEntity
  8
1
  6
Continuous
100
AcDbLine
 10
78.19116599999998
 20
164.3867669999998
 30
0.0
 11
77.655268
 21
165.3149699999999
 31
0.0
  0
LINE
  5
A7E8
330
A6A4
100
AcDbEntity
  8
1
  6
Continuous
100
AcDbLine
 10
78.19116599999998
 20
164.3867669999998
 30
0.0
 11
82.11936899999997
 21
164.3867669999998
 31
0.0
  0
LINE
  5
A7E9
330
A6A4
100
AcDbEntity
  8
1
  6
Continuous
100
AcDbLine
 10
78.19116599999998
 20
167.850868
 30
0.0
 11
82.11936899999997
 21
167.850868
 31
0.0
  0
ARC
  5
A7EA
330
A6A4
100
AcDbEntity
  8
1
  6
Continuous
100
AcDbCircle
 10
80.722255
 20
166.118818
 30
0.0
 40
3.066986999999998
100
AcDbArc
 50
145.615753
 51
205.615753
  0
ARC
  5
A7EB
330
A6A4
100
AcDbEntity
  8
1
  6
Continuous
100
AcDbCircle
 10
79.58828000000003
 20
166.118818
 30
0.0
 40
3.066986999999998
100
AcDbArc
 50
334.384247
 51
34.38424699999998
  0
ARC
  5
A7EC
330
A6A4
100
AcDbEntity
  8
1
  6
Continuous
100
AcDbCircle
 10
79.58828000000003
 20
176.511122
 30
0.0
 40
3.066986999999998
100
AcDbArc
 50
325.6157529999999
 51
25.615753
  0
ARC
  5
A7ED
330
A6A4
100
AcDbEntity
  8
1
  6
Continuous
100
AcDbCircle
 10
80.722255
 20
176.511122
 30
0.0
 40
3.066986999999998
100
AcDbArc
 50
154.3842469999999
 51
214.384247
  0
LINE
  5
A7EE
330
A6A4
100
AcDbEntity
  8
1
  6
Continuous
100
AcDbLine
 10
78.19116599999998
 20
174.7790719999999
 30
0.0
 11
82.11936899999997
 21
174.7790719999999
 31
0.0
  0
LINE
  5
A7EF
330
A6A4
100
AcDbEntity
  8
1
  6
Continuous
100
AcDbLine
 10
78.19116599999998
 20
178.2431729999999
 30
0.0
 11
82.11936899999997
 21
178.2431729999999
 31
0.0
  0
LINE
  5
A7F0
330
A6A4
100
AcDbEntity
  8
1
  6
Continuous
100
AcDbLine
 10
78.19116599999998
 20
178.2431729999999
 30
0.0
 11
77.655268
 21
177.3149699999999
 31
0.0
  0
LINE
  5
A7F1
330
A6A4
100
AcDbEntity
  8
1
  6
Continuous
100
AcDbLine
 10
82.11936899999997
 20
178.2431729999999
 30
0.0
 11
82.65526800000001
 21
177.3149699999999
 31
0.0
  0
LINE
  5
A7F2
330
A6A4
100
AcDbEntity
  8
1
  6
Continuous
100
AcDbLine
 10
148.074349
 20
174.7790399999999
 30
0.0
 11
148.074349
 21
167.850837
 31
0.0
  0
LINE
  5
A7F3
330
A6A4
100
AcDbEntity
  8
1
  6
Continuous
100
AcDbLine
 10
160.074349
 20
174.7790399999999
 30
0.0
 11
160.074349
 21
167.850837
 31
0.0
  0
CIRCLE
  5
A7F4
330
A6A4
100
AcDbEntity
  8
1
  6
Continuous
100
AcDbCircle
 10
154.074349
 20
171.3149389999998
 30
0.0
 40
6.0
  0
LINE
  5
A7F5
330
A6A4
100
AcDbEntity
  8
1
  6
Continuous
100
AcDbLine
 10
154.074349
 20
164.386736
 30
0.0
 11
160.074349
 21
167.850837
 31
0.0
  0
LINE
  5
A7F6
330
A6A4
100
AcDbEntity
  8
1
  6
Continuous
100
AcDbLine
 10
154.074349
 20
164.386736
 30
0.0
 11
148.074349
 21
167.850837
 31
0.0
  0
LINE
  5
A7F7
330
A6A4
100
AcDbEntity
  8
1
  6
Continuous
100
AcDbLine
 10
160.074349
 20
174.7790399999999
 30
0.0
 11
154.074349
 21
178.2431419999998
 31
0.0
  0
LINE
  5
A7F8
330
A6A4
100
AcDbEntity
  8
1
  6
Continuous
100
AcDbLine
 10
148.074349
 20
174.7790399999999
 30
0.0
 11
154.074349
 21
178.2431419999998
 31
0.0
  0
CIRCLE
  5
A7F9
330
A6A4
100
AcDbEntity
  8
1
  6
Continuous
100
AcDbCircle
 10
154.074349
 20
171.3149389999998
 30
0.0
 40
4.0
  0
LINE
  5
A7FA
330
A6A4
100
AcDbEntity
  8
1
  6
Continuous
100
AcDbLine
 10
197.074349
 20
209.014939
 30
0.0
 11
197.074349
 21
211.314939
 31
0.0
  0
ARC
  5
A7FB
330
A6A4
100
AcDbEntity
  8
1
  6
Continuous
100
AcDbCircle
 10
149.0626579999999
 20
189.517167
 30
0.0
 40
8.529569
100
AcDbArc
 50
285.394038
 51
11.707837
  0
ARC
  5
A7FC
330
A6A4
100
AcDbEntity
  8
1
  6
Continuous
100
AcDbCircle
 10
156.7737669999999
 20
191.086634
 30
0.0
 40
30.0
100
AcDbArc
 50
275.1624909999998
 51
318.7720459999998
  0
ARC
  5
A7FD
330
A6A4
100
AcDbEntity
  8
1
  6
Continuous
100
AcDbCircle
 10
154.074349
 20
171.3149389999998
 30
0.0
 40
10.34999999999999
100
AcDbArc
 50
105.394038
 51
270.0
  0
ARC
  5
A7FE
330
A6A4
100
AcDbEntity
  8
1
  6
Continuous
100
AcDbCircle
 10
154.074349
 20
220.964939
 30
0.0
 40
60.0
100
AcDbArc
 50
270.0
 51
275.1624909999998
  0
LINE
  5
A7FF
330
A6A4
100
AcDbEntity
  8
1
  6
Continuous
100
AcDbLine
 10
159.7087339999999
 20
202.4936129999999
 30
0.0
 11
162.0179999999998
 21
204.802878
 31
0.0
  0
LINE
  5
A800
330
A6A4
100
AcDbEntity
  8
1
  6
Continuous
100
AcDbLine
 10
161.122948
 20
202.4936129999999
 30
0.0
 11
163.4322129999999
 21
204.802878
 31
0.0
  0
LINE
  5
A801
330
A6A4
100
AcDbEntity
  8
1
  6
Continuous
100
AcDbLine
 10
162.9130509999999
 20
202.4936129999999
 30
0.0
 11
160.603786
 21
204.802878
 31
0.0
  0
LINE
  5
A802
330
A6A4
100
AcDbEntity
  8
1
  6
Continuous
100
AcDbLine
 10
184.93428
 20
206.7128779999999
 30
0.0
 11
151.214417
 21
206.7128779999999
 31
0.0
  0
LINE
  5
A803
330
A6A4
100
AcDbEntity
  8
1
  6
Continuous
100
AcDbLine
 10
188.899416
 20
208.4506549999999
 30
0.0
 11
147.249282
 21
208.4506549999999
 31
0.0
  0
LINE
  5
A804
330
A6A4
100
AcDbEntity
  8
1
  6
Continuous
100
AcDbLine
 10
186.0082659999999
 20
206.9993839999999
 30
0.0
 11
150.1431189999999
 21
206.9993839999999
 31
0.0
  0
LINE
  5
A805
330
A6A4
100
AcDbEntity
  8
1
  6
Continuous
100
AcDbLine
 10
187.074349
 20
204.802878
 30
0.0
 11
149.074349
 21
204.802878
 31
0.0
  0
LINE
  5
A806
330
A6A4
100
AcDbEntity
  8
1
  6
Continuous
100
AcDbLine
 10
187.074349
 20
202.4936129999999
 30
0.0
 11
148.6459289999999
 21
202.4936129999999
 31
0.0
  0
LINE
  5
A807
330
A6A4
100
AcDbEntity
  8
1
  6
Continuous
100
AcDbLine
 10
139.074349
 20
209.014939
 30
0.0
 11
197.074349
 21
209.014939
 31
0.0
  0
LINE
  5
A808
330
A6A4
100
AcDbEntity
  8
1
  6
Continuous
100
AcDbLine
 10
139.074349
 20
211.314939
 30
0.0
 11
197.074349
 21
211.314939
 31
0.0
  0
LINE
  5
A809
330
A6A4
100
AcDbEntity
  8
1
  6
Continuous
100
AcDbLine
 10
178.093511
 20
202.4936129999999
 30
0.0
 11
180.4027759999999
 21
204.802878
 31
0.0
  0
LINE
  5
A80A
330
A6A4
100
AcDbEntity
  8
1
  6
Continuous
100
AcDbLine
 10
176.679297
 20
202.4936129999999
 30
0.0
 11
178.9885619999998
 21
204.802878
 31
0.0
  0
LINE
  5
A80B
330
A6A4
100
AcDbEntity
  8
1
  6
Continuous
100
AcDbLine
 10
178.4694
 20
202.4936129999999
 30
0.0
 11
176.160135
 21
204.802878
 31
0.0
  0
LINE
  5
A80C
330
A6A4
100
AcDbEntity
  8
1
  6
Continuous
100
AcDbLine
 10
179.8836139999999
 20
202.4936129999999
 30
0.0
 11
177.574349
 21
204.802878
 31
0.0
  0
LINE
  5
A80D
330
A6A4
100
AcDbEntity
  8
1
  6
Continuous
100
AcDbLine
 10
187.074349
 20
204.403383
 30
0.0
 11
185.164578
 21
202.4936129999999
 31
0.0
  0
LINE
  5
A80E
330
A6A4
100
AcDbEntity
  8
1
  6
Continuous
100
AcDbLine
 10
187.074349
 20
203.788159
 30
0.0
 11
186.05963
 21
204.802878
 31
0.0
  0
LINE
  5
A80F
330
A6A4
100
AcDbEntity
  8
1
  6
Continuous
100
AcDbLine
 10
186.954682
 20
202.4936129999999
 30
0.0
 11
184.6454169999999
 21
204.802878
 31
0.0
  0
ARC
  5
A810
330
A6A4
100
AcDbEntity
  8
1
  6
Continuous
100
AcDbCircle
 10
185.6200179999999
 20
205.8708409999999
 30
0.0
 40
0.8364709999999998
100
AcDbArc
 50
19.341459
 51
77.625084
  0
ARC
  5
A811
330
A6A4
100
AcDbEntity
  8
1
  6
Continuous
100
AcDbCircle
 10
180.162575
 20
207.5761219999999
 30
0.0
 40
6.407901999999999
100
AcDbArc
 50
334.3555600000001
 51
347.121283
  0
ARC
  5
A812
330
A6A4
100
AcDbEntity
  8
1
  6
Continuous
100
AcDbCircle
 10
186.005578
 20
210.6101779999999
 30
0.0
 40
3.610794999999998
100
AcDbArc
 50
270.0
 51
323.267889
  0
LINE
  5
A813
330
A6A4
100
AcDbEntity
  8
1
  6
Continuous
100
AcDbLine
 10
187.074349
 20
202.9891689999999
 30
0.0
 11
186.5787919999999
 21
202.4936129999999
 31
0.0
  0
LINE
  5
A814
330
A6A4
100
AcDbEntity
  8
1
  6
Continuous
100
AcDbLine
 10
187.074349
 20
204.802878
 30
0.0
 11
187.074349
 21
202.4936129999999
 31
0.0
  0
LINE
  5
A815
330
A6A4
100
AcDbEntity
  8
1
  6
Continuous
100
AcDbLine
 10
188.899416
 20
208.4506549999999
 30
0.0
 11
188.899416
 21
209.014939
 31
0.0
  0
LINE
  5
A816
330
A6A4
100
AcDbEntity
  8
1
  6
Continuous
100
AcDbLine
 10
180.9219379999999
 20
202.4936129999999
 30
0.0
 11
183.2312029999999
 21
204.802878
 31
0.0
  0
LINE
  5
A817
330
A6A4
100
AcDbEntity
  8
1
  6
Continuous
100
AcDbLine
 10
184.1262549999999
 20
202.4936129999999
 30
0.0
 11
181.8169889999999
 21
204.802878
 31
0.0
  0
LINE
  5
A818
330
A6A4
100
AcDbEntity
  8
1
  6
Continuous
100
AcDbLine
 10
182.712041
 20
202.4936129999999
 30
0.0
 11
180.4027759999999
 21
204.802878
 31
0.0
  0
LINE
  5
A819
330
A6A4
100
AcDbEntity
  8
1
  6
Continuous
100
AcDbLine
 10
183.750365
 20
202.4936129999999
 30
0.0
 11
186.05963
 21
204.802878
 31
0.0
  0
LINE
  5
A81A
330
A6A4
100
AcDbEntity
  8
1
  6
Continuous
100
AcDbLine
 10
182.3361509999998
 20
202.4936129999999
 30
0.0
 11
184.6454169999999
 21
204.802878
 31
0.0
  0
LINE
  5
A81B
330
A6A4
100
AcDbEntity
  8
1
  6
Continuous
100
AcDbLine
 10
185.540468
 20
202.4936129999999
 30
0.0
 11
183.2312029999999
 21
204.802878
 31
0.0
  0
LINE
  5
A81C
330
A6A4
100
AcDbEntity
  8
1
  6
Continuous
100
AcDbLine
 10
179.5077239999999
 20
202.4936129999999
 30
0.0
 11
181.8169889999999
 21
204.802878
 31
0.0
  0
LINE
  5
A81D
330
A6A4
100
AcDbEntity
  8
1
  6
Continuous
100
AcDbLine
 10
181.297827
 20
202.4936129999999
 30
0.0
 11
178.9885619999998
 21
204.802878
 31
0.0
  0
LINE
  5
A81E
330
A6A4
100
AcDbEntity
  8
1
  6
Continuous
100
AcDbLine
 10
184.93428
 20
206.7128779999999
 30
0.0
 11
184.7905779999999
 21
206.9068759999999
 31
0.0
  0
LINE
  5
A81F
330
A6A4
100
AcDbEntity
  8
1
  6
Continuous
100
AcDbLine
 10
185.79928
 20
206.687878
 30
0.0
 11
184.93428
 21
206.7128779999999
 31
0.0
  0
ARC
  5
A820
330
A6A4
100
AcDbEntity
  8
1
  6
Continuous
100
AcDbCircle
 10
181.64694
 20
203.493379
 30
0.0
 40
4.640519999999998
100
AcDbArc
 50
47.356681
 51
49.07081699999999
  0
LINE
  5
A821
330
A6A4
100
AcDbEntity
  8
1
  6
Continuous
100
AcDbLine
 10
168.194016
 20
202.4936129999999
 30
0.0
 11
170.5032809999999
 21
204.802878
 31
0.0
  0
LINE
  5
A822
330
A6A4
100
AcDbEntity
  8
1
  6
Continuous
100
AcDbLine
 10
169.6082289999999
 20
202.4936129999999
 30
0.0
 11
171.917494
 21
204.802878
 31
0.0
  0
LINE
  5
A823
330
A6A4
100
AcDbEntity
  8
1
  6
Continuous
100
AcDbLine
 10
169.9841189999999
 20
202.4936129999999
 30
0.0
 11
167.674854
 21
204.802878
 31
0.0
  0
LINE
  5
A824
330
A6A4
100
AcDbEntity
  8
1
  6
Continuous
100
AcDbLine
 10
171.398332
 20
202.4936129999999
 30
0.0
 11
169.0890669999998
 21
204.802878
 31
0.0
  0
LINE
  5
A825
330
A6A4
100
AcDbEntity
  8
1
  6
Continuous
100
AcDbLine
 10
172.4366559999999
 20
202.4936129999999
 30
0.0
 11
174.745922
 21
204.802878
 31
0.0
  0
LINE
  5
A826
330
A6A4
100
AcDbEntity
  8
1
  6
Continuous
100
AcDbLine
 10
173.8508699999999
 20
202.4936129999999
 30
0.0
 11
176.160135
 21
204.802878
 31
0.0
  0
LINE
  5
A827
330
A6A4
100
AcDbEntity
  8
1
  6
Continuous
100
AcDbLine
 10
174.22676
 20
202.4936129999999
 30
0.0
 11
171.917494
 21
204.802878
 31
0.0
  0
LINE
  5
A828
330
A6A4
100
AcDbEntity
  8
1
  6
Continuous
100
AcDbLine
 10
175.640973
 20
202.4936129999999
 30
0.0
 11
173.3317079999999
 21
204.802878
 31
0.0
  0
LINE
  5
A829
330
A6A4
100
AcDbEntity
  8
1
  6
Continuous
100
AcDbLine
 10
175.265084
 20
202.4936129999999
 30
0.0
 11
177.574349
 21
204.802878
 31
0.0
  0
LINE
  5
A82A
330
A6A4
100
AcDbEntity
  8
1
  6
Continuous
100
AcDbLine
 10
177.055187
 20
202.4936129999999
 30
0.0
 11
174.745922
 21
204.802878
 31
0.0
  0
LINE
  5
A82B
330
A6A4
100
AcDbEntity
  8
1
  6
Continuous
100
AcDbLine
 10
171.0224429999998
 20
202.4936129999999
 30
0.0
 11
173.3317079999999
 21
204.802878
 31
0.0
  0
LINE
  5
A82C
330
A6A4
100
AcDbEntity
  8
1
  6
Continuous
100
AcDbLine
 10
172.812546
 20
202.4936129999999
 30
0.0
 11
170.5032809999999
 21
204.802878
 31
0.0
  0
LINE
  5
A82D
330
A6A4
100
AcDbEntity
  8
1
  6
Continuous
100
AcDbLine
 10
163.951375
 20
202.4936129999999
 30
0.0
 11
166.26064
 21
204.802878
 31
0.0
  0
LINE
  5
A82E
330
A6A4
100
AcDbEntity
  8
1
  6
Continuous
100
AcDbLine
 10
165.365589
 20
202.4936129999999
 30
0.0
 11
167.674854
 21
204.802878
 31
0.0
  0
LINE
  5
A82F
330
A6A4
100
AcDbEntity
  8
1
  6
Continuous
100
AcDbLine
 10
167.155692
 20
202.4936129999999
 30
0.0
 11
164.846427
 21
204.802878
 31
0.0
  0
LINE
  5
A830
330
A6A4
100
AcDbEntity
  8
1
  6
Continuous
100
AcDbLine
 10
166.779802
 20
202.4936129999999
 30
0.0
 11
169.0890669999998
 21
204.802878
 31
0.0
  0
LINE
  5
A831
330
A6A4
100
AcDbEntity
  8
1
  6
Continuous
100
AcDbLine
 10
168.569905
 20
202.4936129999999
 30
0.0
 11
166.26064
 21
204.802878
 31
0.0
  0
LINE
  5
A832
330
A6A4
100
AcDbEntity
  8
1
  6
Continuous
100
AcDbLine
 10
162.537161
 20
202.4936129999999
 30
0.0
 11
164.846427
 21
204.802878
 31
0.0
  0
LINE
  5
A833
330
A6A4
100
AcDbEntity
  8
1
  6
Continuous
100
AcDbLine
 10
164.3272649999999
 20
202.4936129999999
 30
0.0
 11
162.0179999999998
 21
204.802878
 31
0.0
  0
LINE
  5
A834
330
A6A4
100
AcDbEntity
  8
1
  6
Continuous
100
AcDbLine
 10
165.741478
 20
202.4936129999999
 30
0.0
 11
163.4322129999999
 21
204.802878
 31
0.0
  0
ARC
  5
A835
330
A6A4
100
AcDbEntity
  8
1
  6
Continuous
100
AcDbCircle
 10
148.6459289999999
 20
200.252446
 30
0.0
 40
2.241166999999999
100
AcDbArc
 50
90.0
 51
194.0
  0
LINE
  5
A836
330
A6A4
100
AcDbEntity
  8
1
  6
Continuous
100
AcDbLine
 10
147.8890189999999
 20
194.024236
 30
0.0
 11
153.637768
 21
194.024236
 31
0.0
  0
ARC
  5
A837
330
A6A4
100
AcDbEntity
  8
1
  6
Continuous
100
AcDbCircle
 10
153.637768
 20
190.0668599999999
 30
0.0
 40
3.957376
100
AcDbArc
 50
14.0
 51
90.0
  0
LINE
  5
A838
330
A6A4
100
AcDbEntity
  8
1
  6
Continuous
100
AcDbLine
 10
147.8890189999999
 20
194.024236
 30
0.0
 11
146.471335
 21
199.710259
 31
0.0
  0
LINE
  5
A839
330
A6A4
100
AcDbEntity
  8
1
  6
Continuous
100
AcDbLine
 10
151.223453
 20
202.4936129999999
 30
0.0
 11
153.5327179999999
 21
204.802878
 31
0.0
  0
LINE
  5
A83A
330
A6A4
100
AcDbEntity
  8
1
  6
Continuous
100
AcDbLine
 10
152.6376669999999
 20
202.4936129999999
 30
0.0
 11
154.946932
 21
204.802878
 31
0.0
  0
LINE
  5
A83B
330
A6A4
100
AcDbEntity
  8
1
  6
Continuous
100
AcDbLine
 10
154.42777
 20
202.4936129999999
 30
0.0
 11
152.1185049999999
 21
204.802878
 31
0.0
  0
LINE
  5
A83C
330
A6A4
100
AcDbEntity
  8
1
  6
Continuous
100
AcDbLine
 10
155.4660939999999
 20
202.4936129999999
 30
0.0
 11
157.775359
 21
204.802878
 31
0.0
  0
LINE
  5
A83D
330
A6A4
100
AcDbEntity
  8
1
  6
Continuous
100
AcDbLine
 10
156.8803069999999
 20
202.4936129999999
 30
0.0
 11
159.189572
 21
204.802878
 31
0.0
  0
LINE
  5
A83E
330
A6A4
100
AcDbEntity
  8
1
  6
Continuous
100
AcDbLine
 10
158.67041
 20
202.4936129999999
 30
0.0
 11
156.3611449999999
 21
204.802878
 31
0.0
  0
LINE
  5
A83F
330
A6A4
100
AcDbEntity
  8
1
  6
Continuous
100
AcDbLine
 10
158.294521
 20
202.4936129999999
 30
0.0
 11
160.603786
 21
204.802878
 31
0.0
  0
LINE
  5
A840
330
A6A4
100
AcDbEntity
  8
1
  6
Continuous
100
AcDbLine
 10
160.0846239999999
 20
202.4936129999999
 30
0.0
 11
157.775359
 21
204.802878
 31
0.0
  0
LINE
  5
A841
330
A6A4
100
AcDbEntity
  8
1
  6
Continuous
100
AcDbLine
 10
161.4988379999998
 20
202.4936129999999
 30
0.0
 11
159.189572
 21
204.802878
 31
0.0
  0
LINE
  5
A842
330
A6A4
100
AcDbEntity
  8
1
  6
Continuous
100
AcDbLine
 10
154.05188
 20
202.4936129999999
 30
0.0
 11
156.3611449999999
 21
204.802878
 31
0.0
  0
LINE
  5
A843
330
A6A4
100
AcDbEntity
  8
1
  6
Continuous
100
AcDbLine
 10
155.841983
 20
202.4936129999999
 30
0.0
 11
153.5327179999999
 21
204.802878
 31
0.0
  0
LINE
  5
A844
330
A6A4
100
AcDbEntity
  8
1
  6
Continuous
100
AcDbLine
 10
157.2561969999999
 20
202.4936129999999
 30
0.0
 11
154.946932
 21
204.802878
 31
0.0
  0
ARC
  5
A845
330
A6A4
100
AcDbEntity
  8
1
  6
Continuous
100
AcDbCircle
 10
150.528679
 20
205.8708409999999
 30
0.0
 40
0.8364709999999998
100
AcDbArc
 50
102.3749159999999
 51
160.6585409999999
  0
LINE
  5
A846
330
A6A4
100
AcDbEntity
  8
1
  6
Continuous
100
AcDbLine
 10
149.074349
 20
203.1729349999999
 30
0.0
 11
150.7042909999999
 21
204.802878
 31
0.0
  0
LINE
  5
A847
330
A6A4
100
AcDbEntity
  8
1
  6
Continuous
100
AcDbLine
 10
150.1851289999999
 20
202.4936129999999
 30
0.0
 11
149.074349
 21
203.6043929999999
 31
0.0
  0
LINE
  5
A848
330
A6A4
100
AcDbEntity
  8
1
  6
Continuous
100
AcDbLine
 10
151.5993429999998
 20
202.4936129999999
 30
0.0
 11
149.290077
 21
204.802878
 31
0.0
  0
LINE
  5
A849
330
A6A4
100
AcDbEntity
  8
1
  6
Continuous
100
AcDbLine
 10
149.809239
 20
202.4936129999999
 30
0.0
 11
152.1185049999999
 21
204.802878
 31
0.0
  0
LINE
  5
A84A
330
A6A4
100
AcDbEntity
  8
1
  6
Continuous
100
AcDbLine
 10
153.0135559999999
 20
202.4936129999999
 30
0.0
 11
150.7042909999999
 21
204.802878
 31
0.0
  0
ARC
  5
A84B
330
A6A4
100
AcDbEntity
  8
1
  6
Continuous
100
AcDbCircle
 10
155.9861219999999
 20
207.5761219999999
 30
0.0
 40
6.407901999999999
100
AcDbArc
 50
192.8787169999999
 51
205.64444
  0
LINE
  5
A84C
330
A6A4
100
AcDbEntity
  8
1
  6
Continuous
100
AcDbLine
 10
149.074349
 20
204.587149
 30
0.0
 11
149.290077
 21
204.802878
 31
0.0
  0
LINE
  5
A84D
330
A6A4
100
AcDbEntity
  8
1
  6
Continuous
100
AcDbLine
 10
149.074349
 20
204.802878
 30
0.0
 11
149.074349
 21
202.4936129999999
 31
0.0
  0
ARC
  5
A84E
330
A6A4
100
AcDbEntity
  8
1
  6
Continuous
100
AcDbCircle
 10
150.1431189999999
 20
210.6101779999999
 30
0.0
 40
3.610794999999998
100
AcDbArc
 50
216.7321109999999
 51
270.0
  0
LINE
  5
A84F
330
A6A4
100
AcDbEntity
  8
1
  6
Continuous
100
AcDbLine
 10
151.214417
 20
206.7128779999999
 30
0.0
 11
151.3581199999999
 21
206.9068759999999
 31
0.0
  0
LINE
  5
A850
330
A6A4
100
AcDbEntity
  8
1
  6
Continuous
100
AcDbLine
 10
150.3494169999999
 20
206.687878
 30
0.0
 11
151.214417
 21
206.7128779999999
 31
0.0
  0
ARC
  5
A851
330
A6A4
100
AcDbEntity
  8
1
  6
Continuous
100
AcDbCircle
 10
154.5017579999999
 20
203.493379
 30
0.0
 40
4.640519999999998
100
AcDbArc
 50
130.929183
 51
132.6433189999999
  0
LINE
  5
A852
330
A6A4
100
AcDbEntity
  8
1
  6
Continuous
100
AcDbLine
 10
147.249282
 20
208.4506549999999
 30
0.0
 11
147.249282
 21
209.014939
 31
0.0
  0
LINE
  5
A853
330
A6A4
100
AcDbEntity
  8
1
  6
Continuous
100
AcDbLine
 10
139.074349
 20
209.014939
 30
0.0
 11
139.074349
 21
211.314939
 31
0.0
  0
ARC
  5
A854
330
A6A4
100
AcDbEntity
  8
1
  6
Continuous
100
AcDbCircle
 10
76.35526799999998
 20
200.3350129999998
 30
0.0
 40
2.0
100
AcDbArc
 50
0.0
 51
90.0
  0
ARC
  5
A855
330
A6A4
100
AcDbEntity
  8
1
  6
Continuous
100
AcDbCircle
 10
39.355268
 20
200.3350129999998
 30
0.0
 40
2.0
100
AcDbArc
 50
90.0
 51
180.0
  0
ARC
  5
A856
330
A6A4
100
AcDbEntity
  8
1
  6
Continuous
100
AcDbCircle
 10
286.053522
 20
168.5227859999999
 30
0.0
 40
5.439908999999999
100
AcDbArc
 50
319.6053889999999
 51
0.0
  0
LINE
  5
A857
330
A6A4
100
AcDbEntity
  8
1
  6
Continuous
100
AcDbLine
 10
248.4934309999999
 20
177.3149699999999
 30
0.0
 11
248.4934309999999
 21
165.3149699999999
 31
0.0
  0
ARC
  5
A858
330
A6A4
100
AcDbEntity
  8
1
  6
Continuous
100
AcDbCircle
 10
251.5604189999999
 20
176.511122
 30
0.0
 40
3.066986999999998
100
AcDbArc
 50
154.3842469999999
 51
214.384247
  0
LINE
  5
A859
330
A6A4
100
AcDbEntity
  8
1
  6
Continuous
100
AcDbLine
 10
248.4934309999999
 20
166.1188169999998
 30
0.0
 11
248.4934309999999
 21
176.511122
 31
0.0
  0
LINE
  5
A85A
330
A6A4
100
AcDbEntity
  8
1
  6
Continuous
100
AcDbLine
 10
258.6751909999999
 20
178.8240539999999
 30
0.0
 11
258.6751909999999
 21
163.8058859999999
 31
0.0
  0
LINE
  5
A85B
330
A6A4
100
AcDbEntity
  8
1
  6
Continuous
100
AcDbLine
 10
253.493431
 20
163.8149699999999
 30
0.0
 11
253.493431
 21
165.306286
 31
0.0
  0
LINE
  5
A85C
330
A6A4
100
AcDbEntity
  8
1
  6
Continuous
100
AcDbLine
 10
293.4196689999998
 20
164.3149699999999
 30
0.0
 11
293.4196689999998
 21
166.1466399999999
 31
0.0
  0
LINE
  5
A85D
330
A6A4
100
AcDbEntity
  8
1
  6
Continuous
100
AcDbLine
 10
287.911672
 20
178.8240539999999
 30
0.0
 11
287.911672
 21
163.8058859999999
 31
0.0
  0
LINE
  5
A85E
330
A6A4
100
AcDbEntity
  8
1
  6
Continuous
100
AcDbLine
 10
288.7934309999998
 20
177.3341899999999
 30
0.0
 11
288.7934309999998
 21
160.96497
 31
0.0
  0
LINE
  5
A85F
330
A6A4
100
AcDbEntity
  8
1
  6
Continuous
100
AcDbLine
 10
257.7934309999998
 20
177.3341899999999
 30
0.0
 11
257.7934309999998
 21
160.96497
 31
0.0
  0
LINE
  5
A860
330
A6A4
100
AcDbEntity
  8
1
  6
Continuous
100
AcDbLine
 10
291.093431
 20
162.164843
 30
0.0
 11
291.093431
 21
160.96497
 31
0.0
  0
LINE
  5
A861
330
A6A4
100
AcDbEntity
  8
1
  6
Continuous
100
AcDbLine
 10
255.4934309999999
 20
160.96497
 30
0.0
 11
255.4934309999999
 21
162.1648449999999
 31
0.0
  0
ARC
  5
A862
330
A6A4
100
AcDbEntity
  8
1
  6
Continuous
100
AcDbCircle
 10
285.593431
 20
171.3149699999999
 30
0.0
 40
10.5
100
AcDbArc
 50
318.189685
 51
38.652143
  0
ARC
  5
A863
330
A6A4
100
AcDbEntity
  8
1
  6
Continuous
100
AcDbCircle
 10
273.293431
 20
251.31497
 30
0.0
 40
100.0
100
AcDbArc
 50
263.8493599999998
 51
276.15064
  0
LINE
  5
A864
330
A6A4
100
AcDbEntity
  8
1
  6
Continuous
100
AcDbLine
 10
291.093431
 20
160.96497
 30
0.0
 11
288.7934309999998
 21
160.96497
 31
0.0
  0
LINE
  5
A865
330
A6A4
100
AcDbEntity
  8
1
  6
Continuous
100
AcDbLine
 10
288.7934309999998
 20
164.3149699999999
 30
0.0
 11
287.911672
 21
163.8058859999999
 31
0.0
  0
ARC
  5
A866
330
A6A4
100
AcDbEntity
  8
1
  6
Continuous
100
AcDbCircle
 10
296.3561169999999
 20
159.7562619999999
 30
0.0
 40
5.787669999999999
100
AcDbArc
 50
139.605389
 51
155.40777
  0
ARC
  5
A867
330
A6A4
100
AcDbEntity
  8
1
  6
Continuous
100
AcDbCircle
 10
268.4101459999999
 20
168.243278
 30
0.0
 40
20.0
100
AcDbArc
 50
330.36167
 51
347.181131
  0
LINE
  5
A868
330
A6A4
100
AcDbEntity
  8
1
  6
Continuous
100
AcDbLine
 10
252.957533
 20
164.3867669999998
 30
0.0
 11
249.0293299999999
 21
164.3867669999998
 31
0.0
  0
LINE
  5
A869
330
A6A4
100
AcDbEntity
  8
1
  6
Continuous
100
AcDbLine
 10
252.822652
 20
167.850868
 30
0.0
 11
249.0293299999999
 21
167.850868
 31
0.0
  0
LINE
  5
A86A
330
A6A4
100
AcDbEntity
  8
1
  6
Continuous
100
AcDbLine
 10
252.793431
 20
174.7790719999999
 30
0.0
 11
249.0293299999999
 21
174.7790719999999
 31
0.0
  0
LINE
  5
A86B
330
A6A4
100
AcDbEntity
  8
1
  6
Continuous
100
AcDbLine
 10
252.957533
 20
164.3867669999998
 30
0.0
 11
253.493431
 21
165.3149699999999
 31
0.0
  0
ARC
  5
A86C
330
A6A4
100
AcDbEntity
  8
1
  6
Continuous
100
AcDbCircle
 10
250.426444
 20
166.118818
 30
0.0
 40
3.066986999999998
100
AcDbArc
 50
334.384247
 51
347.6949839999999
  0
LINE
  5
A86D
330
A6A4
100
AcDbEntity
  8
1
  6
Continuous
100
AcDbLine
 10
257.7934309999998
 20
160.96497
 30
0.0
 11
255.4934309999999
 21
160.96497
 31
0.0
  0
LINE
  5
A86E
330
A6A4
100
AcDbEntity
  8
1
  6
Continuous
100
AcDbLine
 10
257.7934309999998
 20
164.3149699999999
 30
0.0
 11
258.6751909999999
 21
163.8058859999999
 31
0.0
  0
ARC
  5
A86F
330
A6A4
100
AcDbEntity
  8
1
  6
Continuous
100
AcDbCircle
 10
278.176717
 20
168.243278
 30
0.0
 40
20.0
100
AcDbArc
 50
192.818869
 51
209.6383299999998
  0
ARC
  5
A870
330
A6A4
100
AcDbEntity
  8
1
  6
Continuous
100
AcDbCircle
 10
250.2307459999999
 20
159.7562619999999
 30
0.0
 40
5.787669999999999
100
AcDbArc
 50
24.59222999999999
 51
40.39461099999999
  0
LINE
  5
A871
330
A6A4
100
AcDbEntity
  8
1
  6
Continuous
100
AcDbLine
 10
254.389835
 20
163.8149699999999
 30
0.0
 11
253.493431
 21
163.8149699999999
 31
0.0
  0
ARC
  5
A872
330
A6A4
100
AcDbEntity
  8
1
  6
Continuous
100
AcDbCircle
 10
259.9575329999999
 20
171.3149699999999
 30
0.0
 40
11.464102
100
AcDbArc
 50
162.412046
 51
197.5879539999999
  0
LINE
  5
A873
330
A6A4
100
AcDbEntity
  8
1
  6
Continuous
100
AcDbLine
 10
249.0293299999999
 20
164.3867669999998
 30
0.0
 11
248.4934309999999
 21
165.3149699999999
 31
0.0
  0
ARC
  5
A874
330
A6A4
100
AcDbEntity
  8
1
  6
Continuous
100
AcDbCircle
 10
251.5604189999999
 20
166.118818
 30
0.0
 40
3.066986999999998
100
AcDbArc
 50
145.615753
 51
205.615753
  0
LINE
  5
A875
330
A6A4
100
AcDbEntity
  8
2
  6
Continuous
100
AcDbLine
 10
248.4934309999999
 20
174.6384699999999
 30
0.0
 11
246.916931
 21
174.6384699999999
 31
0.0
  0
LINE
  5
A876
330
A6A4
100
AcDbEntity
  8
1
  6
Continuous
100
AcDbLine
 10
246.593431
 20
168.3149699999999
 30
0.0
 11
246.593431
 21
174.31497
 31
0.0
  0
LINE
  5
A877
330
A6A4
100
AcDbEntity
  8
2
  6
Continuous
100
AcDbLine
 10
248.4934309999999
 20
167.9914699999999
 30
0.0
 11
246.916931
 21
167.9914699999999
 31
0.0
  0
LINE
  5
A878
330
A6A4
100
AcDbEntity
  8
1
  6
Continuous
100
AcDbLine
 10
246.593431
 20
168.3149699999999
 30
0.0
 11
247.5934309999999
 21
167.3149699999999
 31
0.0
  0
LINE
  5
A879
330
A6A4
100
AcDbEntity
  8
1
  6
Continuous
100
AcDbLine
 10
246.593431
 20
174.31497
 30
0.0
 11
247.5934309999999
 21
175.3149699999999
 31
0.0
  0
LINE
  5
A87A
330
A6A4
100
AcDbEntity
  8
1
  6
Continuous
100
AcDbLine
 10
248.4934309999999
 20
175.3149699999999
 30
0.0
 11
247.5934309999999
 21
175.3149699999999
 31
0.0
  0
LINE
  5
A87B
330
A6A4
100
AcDbEntity
  8
1
  6
Continuous
100
AcDbLine
 10
248.4934309999999
 20
167.3149699999999
 30
0.0
 11
247.5934309999999
 21
167.3149699999999
 31
0.0
  0
LINE
  5
A87C
330
A6A4
100
AcDbEntity
  8
1
  6
Continuous
100
AcDbLine
 10
247.5934309999999
 20
167.3149699999999
 30
0.0
 11
247.5934309999999
 21
175.3149699999999
 31
0.0
  0
LINE
  5
A87D
330
A6A4
100
AcDbEntity
  8
1
  6
Continuous
100
AcDbLine
 10
254.293431
 20
202.3350129999998
 30
0.0
 11
292.293431
 21
202.3350129999998
 31
0.0
  0
LINE
  5
A87E
330
A6A4
100
AcDbEntity
  8
1
  6
Continuous
100
AcDbLine
 10
292.293431
 20
204.644278
 30
0.0
 11
254.293431
 21
204.644278
 31
0.0
  0
LINE
  5
A87F
330
A6A4
100
AcDbEntity
  8
1
  6
Continuous
100
AcDbLine
 10
266.342031
 20
202.3350129999998
 30
0.0
 11
268.6512959999999
 21
204.644278
 31
0.0
  0
LINE
  5
A880
330
A6A4
100
AcDbEntity
  8
1
  6
Continuous
100
AcDbLine
 10
268.132134
 20
202.3350129999998
 30
0.0
 11
265.8228689999999
 21
204.644278
 31
0.0
  0
LINE
  5
A881
330
A6A4
100
AcDbEntity
  8
1
  6
Continuous
100
AcDbLine
 10
269.546347
 20
202.3350129999998
 30
0.0
 11
267.2370819999998
 21
204.644278
 31
0.0
  0
ARC
  5
A882
330
A6A4
100
AcDbEntity
  8
1
  6
Continuous
100
AcDbCircle
 10
273.293431
 20
91.31497000000001
 30
0.0
 40
100.0
100
AcDbArc
 50
85.07012500000001
 51
94.92987499999998
  0
LINE
  5
A883
330
A6A4
100
AcDbEntity
  8
1
  6
Continuous
100
AcDbLine
 10
294.118498
 20
208.4506849999999
 30
0.0
 11
252.4683649999999
 21
208.4506849999999
 31
0.0
  0
LINE
  5
A884
330
A6A4
100
AcDbEntity
  8
1
  6
Continuous
100
AcDbLine
 10
291.224661
 20
206.9994139999999
 30
0.0
 11
255.362202
 21
206.9994139999999
 31
0.0
  0
LINE
  5
A885
330
A6A4
100
AcDbEntity
  8
1
  6
Continuous
100
AcDbLine
 10
290.153363
 20
206.7129079999999
 30
0.0
 11
256.4334999999999
 21
206.7129079999999
 31
0.0
  0
LINE
  5
A886
330
A6A4
100
AcDbEntity
  8
1
  6
Continuous
100
AcDbLine
 10
302.293431
 20
209.0149699999999
 30
0.0
 11
244.293431
 21
209.0149699999999
 31
0.0
  0
LINE
  5
A887
330
A6A4
100
AcDbEntity
  8
1
  6
Continuous
100
AcDbLine
 10
302.293431
 20
209.0149699999999
 30
0.0
 11
302.293431
 21
211.31497
 31
0.0
  0
LINE
  5
A888
330
A6A4
100
AcDbEntity
  8
1
  6
Continuous
100
AcDbLine
 10
293.793431
 20
200.3350129999998
 30
0.0
 11
293.793431
 21
168.5227859999999
 31
0.0
  0
LINE
  5
A889
330
A6A4
100
AcDbEntity
  8
1
  6
Continuous
100
AcDbLine
 10
288.3001199999998
 20
178.599784
 30
0.0
 11
287.911672
 21
178.8240539999999
 31
0.0
  0
ARC
  5
A88A
330
A6A4
100
AcDbEntity
  8
1
  6
Continuous
100
AcDbCircle
 10
268.4101459999999
 20
174.3866609999998
 30
0.0
 40
20.0
100
AcDbArc
 50
12.81886899999999
 51
19.360963
  0
LINE
  5
A88B
330
A6A4
100
AcDbEntity
  8
1
  6
Continuous
100
AcDbLine
 10
281.8983799999998
 20
202.3350129999998
 30
0.0
 11
284.207645
 21
204.644278
 31
0.0
  0
LINE
  5
A88C
330
A6A4
100
AcDbEntity
  8
1
  6
Continuous
100
AcDbLine
 10
283.688483
 20
202.3350129999998
 30
0.0
 11
281.3792179999999
 21
204.644278
 31
0.0
  0
LINE
  5
A88D
330
A6A4
100
AcDbEntity
  8
1
  6
Continuous
100
AcDbLine
 10
285.1026969999999
 20
202.3350129999998
 30
0.0
 11
282.7934309999998
 21
204.644278
 31
0.0
  0
ARC
  5
A88E
330
A6A4
100
AcDbEntity
  8
1
  6
Continuous
100
AcDbCircle
 10
291.793431
 20
200.3350129999998
 30
0.0
 40
2.0
100
AcDbArc
 50
0.0
 51
90.0
  0
ARC
  5
A88F
330
A6A4
100
AcDbEntity
  8
1
  6
Continuous
100
AcDbCircle
 10
285.381658
 20
207.576153
 30
0.0
 40
6.407901999999999
100
AcDbArc
 50
332.7714799999998
 51
347.121283
  0
LINE
  5
A890
330
A6A4
100
AcDbEntity
  8
1
  6
Continuous
100
AcDbLine
 10
287.555234
 20
202.3350129999998
 30
0.0
 11
289.864499
 21
204.644278
 31
0.0
  0
LINE
  5
A891
330
A6A4
100
AcDbEntity
  8
1
  6
Continuous
100
AcDbLine
 10
286.141021
 20
202.3350129999998
 30
0.0
 11
288.4502859999999
 21
204.644278
 31
0.0
  0
LINE
  5
A892
330
A6A4
100
AcDbEntity
  8
1
  6
Continuous
100
AcDbLine
 10
289.3453369999999
 20
202.3350129999998
 30
0.0
 11
287.0360719999999
 21
204.644278
 31
0.0
  0
LINE
  5
A893
330
A6A4
100
AcDbEntity
  8
1
  6
Continuous
100
AcDbLine
 10
287.931124
 20
202.3350129999998
 30
0.0
 11
285.6218589999999
 21
204.644278
 31
0.0
  0
LINE
  5
A894
330
A6A4
100
AcDbEntity
  8
1
  6
Continuous
100
AcDbLine
 10
292.293431
 20
204.2447829999999
 30
0.0
 11
290.3836609999999
 21
202.3350129999998
 31
0.0
  0
LINE
  5
A895
330
A6A4
100
AcDbEntity
  8
1
  6
Continuous
100
AcDbLine
 10
292.293431
 20
203.6295589999999
 30
0.0
 11
291.2787129999999
 21
204.644278
 31
0.0
  0
LINE
  5
A896
330
A6A4
100
AcDbEntity
  8
1
  6
Continuous
100
AcDbLine
 10
292.1737639999999
 20
202.3350129999998
 30
0.0
 11
289.864499
 21
204.644278
 31
0.0
  0
LINE
  5
A897
330
A6A4
100
AcDbEntity
  8
1
  6
Continuous
100
AcDbLine
 10
292.293431
 20
202.8305689999998
 30
0.0
 11
291.7978749999999
 21
202.3350129999998
 31
0.0
  0
LINE
  5
A898
330
A6A4
100
AcDbEntity
  8
1
  6
Continuous
100
AcDbLine
 10
292.293431
 20
204.644278
 30
0.0
 11
292.293431
 21
202.3350129999998
 31
0.0
  0
LINE
  5
A899
330
A6A4
100
AcDbEntity
  8
1
  6
Continuous
100
AcDbLine
 10
288.969448
 20
202.3350129999998
 30
0.0
 11
291.2787129999999
 21
204.644278
 31
0.0
  0
LINE
  5
A89A
330
A6A4
100
AcDbEntity
  8
1
  6
Continuous
100
AcDbLine
 10
290.7595509999998
 20
202.3350129999998
 30
0.0
 11
288.4502859999999
 21
204.644278
 31
0.0
  0
LINE
  5
A89B
330
A6A4
100
AcDbEntity
  8
1
  6
Continuous
100
AcDbLine
 10
283.3125929999998
 20
202.3350129999998
 30
0.0
 11
285.6218589999999
 21
204.644278
 31
0.0
  0
LINE
  5
A89C
330
A6A4
100
AcDbEntity
  8
1
  6
Continuous
100
AcDbLine
 10
284.726807
 20
202.3350129999998
 30
0.0
 11
287.0360719999999
 21
204.644278
 31
0.0
  0
LINE
  5
A89D
330
A6A4
100
AcDbEntity
  8
1
  6
Continuous
100
AcDbLine
 10
286.51691
 20
202.3350129999998
 30
0.0
 11
284.207645
 21
204.644278
 31
0.0
  0
LINE
  5
A89E
330
A6A4
100
AcDbEntity
  8
4
  6
CENTER
100
AcDbLine
 10
295.2934309999998
 20
216.3149699999999
 30
0.0
 11
295.2934309999998
 21
204.01497
 31
0.0
  0
ARC
  5
A89F
330
A6A4
100
AcDbEntity
  8
1
  6
Continuous
100
AcDbCircle
 10
286.8660229999999
 20
203.493409
 30
0.0
 40
4.640519999999998
100
AcDbArc
 50
47.356681
 51
49.07081699999999
  0
LINE
  5
A8A0
330
A6A4
100
AcDbEntity
  8
1
  6
Continuous
100
AcDbLine
 10
291.0183629999999
 20
206.687908
 30
0.0
 11
290.153363
 21
206.7129079999999
 31
0.0
  0
LINE
  5
A8A1
330
A6A4
100
AcDbEntity
  8
1
  6
Continuous
100
AcDbLine
 10
290.153363
 20
206.7129079999999
 30
0.0
 11
290.0096609999998
 21
206.9069059999999
 31
0.0
  0
LINE
  5
A8A2
330
A6A4
100
AcDbEntity
  8
1
  6
Continuous
100
AcDbLine
 10
294.118498
 20
208.4506849999999
 30
0.0
 11
294.118498
 21
209.0149699999999
 31
0.0
  0
ARC
  5
A8A3
330
A6A4
100
AcDbEntity
  8
1
  6
Continuous
100
AcDbCircle
 10
291.224661
 20
210.6102089999999
 30
0.0
 40
3.610794999999998
100
AcDbArc
 50
270.0
 51
323.267889
  0
ARC
  5
A8A4
330
A6A4
100
AcDbEntity
  8
1
  6
Continuous
100
AcDbCircle
 10
290.8391009999998
 20
205.8708709999999
 30
0.0
 40
0.8364709999999998
100
AcDbArc
 50
19.341459
 51
77.625084
  0
LINE
  5
A8A5
330
A6A4
100
AcDbEntity
  8
1
  6
Continuous
100
AcDbLine
 10
277.6557389999999
 20
202.3350129999998
 30
0.0
 11
279.965004
 21
204.644278
 31
0.0
  0
LINE
  5
A8A6
330
A6A4
100
AcDbEntity
  8
1
  6
Continuous
100
AcDbLine
 10
279.0699529999999
 20
202.3350129999998
 30
0.0
 11
281.3792179999999
 21
204.644278
 31
0.0
  0
LINE
  5
A8A7
330
A6A4
100
AcDbEntity
  8
1
  6
Continuous
100
AcDbLine
 10
279.4458419999999
 20
202.3350129999998
 30
0.0
 11
277.136577
 21
204.644278
 31
0.0
  0
LINE
  5
A8A8
330
A6A4
100
AcDbEntity
  8
1
  6
Continuous
100
AcDbLine
 10
280.860056
 20
202.3350129999998
 30
0.0
 11
278.550791
 21
204.644278
 31
0.0
  0
LINE
  5
A8A9
330
A6A4
100
AcDbEntity
  8
1
  6
Continuous
100
AcDbLine
 10
280.484166
 20
202.3350129999998
 30
0.0
 11
282.7934309999998
 21
204.644278
 31
0.0
  0
LINE
  5
A8AA
330
A6A4
100
AcDbEntity
  8
1
  6
Continuous
100
AcDbLine
 10
282.274269
 20
202.3350129999998
 30
0.0
 11
279.965004
 21
204.644278
 31
0.0
  0
LINE
  5
A8AB
330
A6A4
100
AcDbEntity
  8
1
  6
Continuous
100
AcDbLine
 10
269.170458
 20
202.3350129999998
 30
0.0
 11
271.4797229999999
 21
204.644278
 31
0.0
  0
LINE
  5
A8AC
330
A6A4
100
AcDbEntity
  8
1
  6
Continuous
100
AcDbLine
 10
270.584671
 20
202.3350129999998
 30
0.0
 11
272.893936
 21
204.644278
 31
0.0
  0
LINE
  5
A8AD
330
A6A4
100
AcDbEntity
  8
1
  6
Continuous
100
AcDbLine
 10
272.374775
 20
202.3350129999998
 30
0.0
 11
270.0655089999999
 21
204.644278
 31
0.0
  0
LINE
  5
A8AE
330
A6A4
100
AcDbEntity
  8
1
  6
Continuous
100
AcDbLine
 10
273.4130979999998
 20
202.3350129999998
 30
0.0
 11
275.722364
 21
204.644278
 31
0.0
  0
LINE
  5
A8AF
330
A6A4
100
AcDbEntity
  8
1
  6
Continuous
100
AcDbLine
 10
274.8273119999999
 20
202.3350129999998
 30
0.0
 11
277.136577
 21
204.644278
 31
0.0
  0
LINE
  5
A8B0
330
A6A4
100
AcDbEntity
  8
1
  6
Continuous
100
AcDbLine
 10
276.6174149999998
 20
202.3350129999998
 30
0.0
 11
274.30815
 21
204.644278
 31
0.0
  0
LINE
  5
A8B1
330
A6A4
100
AcDbEntity
  8
1
  6
Continuous
100
AcDbLine
 10
276.2415259999999
 20
202.3350129999998
 30
0.0
 11
278.550791
 21
204.644278
 31
0.0
  0
LINE
  5
A8B2
330
A6A4
100
AcDbEntity
  8
1
  6
Continuous
100
AcDbLine
 10
278.031629
 20
202.3350129999998
 30
0.0
 11
275.722364
 21
204.644278
 31
0.0
  0
LINE
  5
A8B3
330
A6A4
100
AcDbEntity
  8
1
  6
Continuous
100
AcDbLine
 10
271.9988849999999
 20
202.3350129999998
 30
0.0
 11
274.30815
 21
204.644278
 31
0.0
  0
LINE
  5
A8B4
330
A6A4
100
AcDbEntity
  8
1
  6
Continuous
100
AcDbLine
 10
273.7889879999999
 20
202.3350129999998
 30
0.0
 11
271.4797229999999
 21
204.644278
 31
0.0
  0
LINE
  5
A8B5
330
A6A4
100
AcDbEntity
  8
1
  6
Continuous
100
AcDbLine
 10
275.2032019999999
 20
202.3350129999998
 30
0.0
 11
272.893936
 21
204.644278
 31
0.0
  0
LINE
  5
A8B6
330
A6A4
100
AcDbEntity
  8
1
  6
Continuous
100
AcDbLine
 10
267.7562439999999
 20
202.3350129999998
 30
0.0
 11
270.0655089999999
 21
204.644278
 31
0.0
  0
LINE
  5
A8B7
330
A6A4
100
AcDbEntity
  8
1
  6
Continuous
100
AcDbLine
 10
270.960561
 20
202.3350129999998
 30
0.0
 11
268.6512959999999
 21
204.644278
 31
0.0
  0
LINE
  5
A8B8
330
A6A4
100
AcDbEntity
  8
1
  6
Continuous
100
AcDbLine
 10
252.793431
 20
200.3350129999998
 30
0.0
 11
252.793431
 21
168.5227859999999
 31
0.0
  0
LINE
  5
A8B9
330
A6A4
100
AcDbEntity
  8
1
  6
Continuous
100
AcDbLine
 10
252.793431
 20
178.2431729999999
 30
0.0
 11
249.0293299999999
 21
178.2431729999999
 31
0.0
  0
LINE
  5
A8BA
330
A6A4
100
AcDbEntity
  8
1
  6
Continuous
100
AcDbLine
 10
258.2867429999998
 20
178.599783
 30
0.0
 11
258.6751909999999
 21
178.8240539999999
 31
0.0
  0
ARC
  5
A8BB
330
A6A4
100
AcDbEntity
  8
1
  6
Continuous
100
AcDbCircle
 10
278.176717
 20
174.3866609999998
 30
0.0
 40
20.0
100
AcDbArc
 50
160.6390039999998
 51
167.181131
  0
LINE
  5
A8BC
330
A6A4
100
AcDbEntity
  8
1
  6
Continuous
100
AcDbLine
 10
249.0293299999999
 20
178.2431729999999
 30
0.0
 11
248.4934309999999
 21
177.3149699999999
 31
0.0
  0
ARC
  5
A8BD
330
A6A4
100
AcDbEntity
  8
1
  6
Continuous
100
AcDbCircle
 10
254.793431
 20
200.3350129999998
 30
0.0
 40
2.0
100
AcDbArc
 50
90.0
 51
180.0
  0
ARC
  5
A8BE
330
A6A4
100
AcDbEntity
  8
1
  6
Continuous
100
AcDbCircle
 10
261.2052049999999
 20
207.576153
 30
0.0
 40
6.407901999999999
100
AcDbArc
 50
192.8787169999999
 51
207.22852
  0
LINE
  5
A8BF
330
A6A4
100
AcDbEntity
  8
1
  6
Continuous
100
AcDbLine
 10
260.6851759999999
 20
202.3350129999998
 30
0.0
 11
262.994442
 21
204.644278
 31
0.0
  0
LINE
  5
A8C0
330
A6A4
100
AcDbEntity
  8
1
  6
Continuous
100
AcDbLine
 10
262.0993899999999
 20
202.3350129999998
 30
0.0
 11
264.4086549999999
 21
204.644278
 31
0.0
  0
LINE
  5
A8C1
330
A6A4
100
AcDbEntity
  8
1
  6
Continuous
100
AcDbLine
 10
263.889493
 20
202.3350129999998
 30
0.0
 11
261.580228
 21
204.644278
 31
0.0
  0
LINE
  5
A8C2
330
A6A4
100
AcDbEntity
  8
1
  6
Continuous
100
AcDbLine
 10
264.927817
 20
202.3350129999998
 30
0.0
 11
267.2370819999998
 21
204.644278
 31
0.0
  0
LINE
  5
A8C3
330
A6A4
100
AcDbEntity
  8
1
  6
Continuous
100
AcDbLine
 10
263.5136039999998
 20
202.3350129999998
 30
0.0
 11
265.8228689999999
 21
204.644278
 31
0.0
  0
LINE
  5
A8C4
330
A6A4
100
AcDbEntity
  8
1
  6
Continuous
100
AcDbLine
 10
265.3037069999999
 20
202.3350129999998
 30
0.0
 11
262.994442
 21
204.644278
 31
0.0
  0
LINE
  5
A8C5
330
A6A4
100
AcDbEntity
  8
1
  6
Continuous
100
AcDbLine
 10
266.71792
 20
202.3350129999998
 30
0.0
 11
264.4086549999999
 21
204.644278
 31
0.0
  0
LINE
  5
A8C6
330
A6A4
100
AcDbEntity
  8
1
  6
Continuous
100
AcDbLine
 10
254.293431
 20
203.0143359999999
 30
0.0
 11
255.923374
 21
204.644278
 31
0.0
  0
LINE
  5
A8C7
330
A6A4
100
AcDbEntity
  8
1
  6
Continuous
100
AcDbLine
 10
255.404212
 20
202.3350129999998
 30
0.0
 11
254.293431
 21
203.4457929999999
 31
0.0
  0
LINE
  5
A8C8
330
A6A4
100
AcDbEntity
  8
1
  6
Continuous
100
AcDbLine
 10
256.8184249999998
 20
202.3350129999998
 30
0.0
 11
254.50916
 21
204.644278
 31
0.0
  0
LINE
  5
A8C9
330
A6A4
100
AcDbEntity
  8
1
  6
Continuous
100
AcDbLine
 10
257.8567489999999
 20
202.3350129999998
 30
0.0
 11
260.166014
 21
204.644278
 31
0.0
  0
LINE
  5
A8CA
330
A6A4
100
AcDbEntity
  8
1
  6
Continuous
100
AcDbLine
 10
259.646852
 20
202.3350129999998
 30
0.0
 11
257.337587
 21
204.644278
 31
0.0
  0
LINE
  5
A8CB
330
A6A4
100
AcDbEntity
  8
1
  6
Continuous
100
AcDbLine
 10
261.0610659999999
 20
202.3350129999998
 30
0.0
 11
258.751801
 21
204.644278
 31
0.0
  0
LINE
  5
A8CC
330
A6A4
100
AcDbEntity
  8
1
  6
Continuous
100
AcDbLine
 10
259.2709629999998
 20
202.3350129999998
 30
0.0
 11
261.580228
 21
204.644278
 31
0.0
  0
LINE
  5
A8CD
330
A6A4
100
AcDbEntity
  8
1
  6
Continuous
100
AcDbLine
 10
262.4752799999999
 20
202.3350129999998
 30
0.0
 11
260.166014
 21
204.644278
 31
0.0
  0
LINE
  5
A8CE
330
A6A4
100
AcDbEntity
  8
1
  6
Continuous
100
AcDbLine
 10
255.028322
 20
202.3350129999998
 30
0.0
 11
257.337587
 21
204.644278
 31
0.0
  0
LINE
  5
A8CF
330
A6A4
100
AcDbEntity
  8
1
  6
Continuous
100
AcDbLine
 10
256.4425359999999
 20
202.3350129999998
 30
0.0
 11
258.751801
 21
204.644278
 31
0.0
  0
LINE
  5
A8D0
330
A6A4
100
AcDbEntity
  8
1
  6
Continuous
100
AcDbLine
 10
258.2326389999999
 20
202.3350129999998
 30
0.0
 11
255.923374
 21
204.644278
 31
0.0
  0
LINE
  5
A8D1
330
A6A4
100
AcDbEntity
  8
1
  6
Continuous
100
AcDbLine
 10
254.293431
 20
204.428549
 30
0.0
 11
254.50916
 21
204.644278
 31
0.0
  0
LINE
  5
A8D2
330
A6A4
100
AcDbEntity
  8
1
  6
Continuous
100
AcDbLine
 10
254.293431
 20
204.644278
 30
0.0
 11
254.293431
 21
202.3350129999998
 31
0.0
  0
LINE
  5
A8D3
330
A6A4
100
AcDbEntity
  8
1
  6
Continuous
100
AcDbLine
 10
252.4683649999999
 20
208.4506849999999
 30
0.0
 11
252.4683649999999
 21
209.0149699999999
 31
0.0
  0
LINE
  5
A8D4
330
A6A4
100
AcDbEntity
  8
1
  6
Continuous
100
AcDbLine
 10
255.5684999999999
 20
206.687908
 30
0.0
 11
256.4334999999999
 21
206.7129079999999
 31
0.0
  0
LINE
  5
A8D5
330
A6A4
100
AcDbEntity
  8
1
  6
Continuous
100
AcDbLine
 10
256.4334999999999
 20
206.7129079999999
 30
0.0
 11
256.577202
 21
206.9069059999999
 31
0.0
  0
ARC
  5
A8D6
330
A6A4
100
AcDbEntity
  8
1
  6
Continuous
100
AcDbCircle
 10
259.7208399999999
 20
203.493409
 30
0.0
 40
4.640519999999998
100
AcDbArc
 50
130.929183
 51
132.6433189999999
  0
ARC
  5
A8D7
330
A6A4
100
AcDbEntity
  8
1
  6
Continuous
100
AcDbCircle
 10
255.7477619999999
 20
205.8708709999999
 30
0.0
 40
0.8364709999999998
100
AcDbArc
 50
102.3749159999999
 51
160.6585409999999
  0
ARC
  5
A8D8
330
A6A4
100
AcDbEntity
  8
1
  6
Continuous
100
AcDbCircle
 10
255.362202
 20
210.6102089999999
 30
0.0
 40
3.610794999999998
100
AcDbArc
 50
216.7321109999999
 51
270.0
  0
LINE
  5
A8D9
330
A6A4
100
AcDbEntity
  8
4
  6
CENTER
100
AcDbLine
 10
251.2934309999999
 20
216.3149699999999
 30
0.0
 11
251.2934309999999
 21
204.01497
 31
0.0
  0
LINE
  5
A8DA
330
A6A4
100
AcDbEntity
  8
1
  6
Continuous
100
AcDbLine
 10
244.293431
 20
209.0149699999999
 30
0.0
 11
244.293431
 21
211.31497
 31
0.0
  0
LINE
  5
A8DB
330
A6A4
100
AcDbEntity
  8
4
  6
CENTER
100
AcDbLine
 10
190.074349
 20
204.0149389999998
 30
0.0
 11
190.074349
 21
216.47357
 31
0.0
  0
LINE
  5
A8DC
330
A6A4
100
AcDbEntity
  8
4
  6
CENTER
100
AcDbLine
 10
146.074349
 20
204.0149389999998
 30
0.0
 11
146.074349
 21
216.47357
 31
0.0
  0
LINE
  5
A8DD
330
A6A4
100
AcDbEntity
  8
1
  6
Continuous
100
AcDbLine
 10
188.574349
 20
195.8149699999999
 30
0.0
 11
188.574349
 21
200.3036129999999
 31
0.0
  0
ARC
  5
A8DE
330
A6A4
100
AcDbEntity
  8
1
  6
Continuous
100
AcDbCircle
 10
186.3843489999999
 20
200.3036129999999
 30
0.0
 40
2.189999999999999
100
AcDbArc
 50
0.0
 51
90.0
  0
ARC
  5
A8DF
330
A6A4
100
AcDbEntity
  8
1
  6
Continuous
100
AcDbCircle
 10
145.6190389999999
 20
198.019768
 30
0.0
 40
43.011857
100
AcDbArc
 50
321.6202089999999
 51
357.0617169999999
  0
ARC
  5
A8E0
330
A6A4
100
AcDbEntity
  8
1
  6
Continuous
100
AcDbCircle
 10
157.074349
 20
91.306975
 30
0.0
 40
8.665063999999999
100
AcDbArc
 50
69.743842
 51
110.256158
  0
LINE
  5
A8E1
330
A6A4
100
AcDbEntity
  8
1
  6
Continuous
100
AcDbLine
 10
148.074349
 20
99.972039
 30
0.0
 11
160.074349
 21
99.972039
 31
0.0
  0
LINE
  5
A8E2
330
A6A4
100
AcDbEntity
  8
1
  6
Continuous
100
AcDbLine
 10
160.074349
 20
99.972039
 30
0.0
 11
160.074349
 21
94.972039
 31
0.0
  0
ARC
  5
A8E3
330
A6A4
100
AcDbEntity
  8
1
  6
Continuous
100
AcDbCircle
 10
151.074349
 20
103.637102
 30
0.0
 40
8.665063999999999
100
AcDbArc
 50
249.7438419999999
 51
290.256158
  0
ARC
  5
A8E4
330
A6A4
100
AcDbEntity
  8
1
  6
Continuous
100
AcDbCircle
 10
151.074349
 20
91.306975
 30
0.0
 40
8.665063999999999
100
AcDbArc
 50
69.743842
 51
110.256158
  0
LINE
  5
A8E5
330
A6A4
100
AcDbEntity
  8
1
  6
Continuous
100
AcDbLine
 10
154.074349
 20
95.50793699999998
 30
0.0
 11
154.074349
 21
99.43614000000003
 31
0.0
  0
LINE
  5
A8E6
330
A6A4
100
AcDbEntity
  8
1
  6
Continuous
100
AcDbLine
 10
148.074349
 20
99.972039
 30
0.0
 11
148.074349
 21
94.972039
 31
0.0
  0
ARC
  5
A8E7
330
A6A4
100
AcDbEntity
  8
1
  6
Continuous
100
AcDbCircle
 10
157.074349
 20
103.637102
 30
0.0
 40
8.665063999999999
100
AcDbArc
 50
249.7438419999999
 51
290.256158
  0
LINE
  5
A8E8
330
A6A4
100
AcDbEntity
  8
1
  6
Continuous
100
AcDbLine
 10
151.074349
 20
101.8720389999999
 30
0.0
 11
150.074349
 21
100.872039
 31
0.0
  0
LINE
  5
A8E9
330
A6A4
100
AcDbEntity
  8
1
  6
Continuous
100
AcDbLine
 10
157.074349
 20
101.8720389999999
 30
0.0
 11
158.074349
 21
100.872039
 31
0.0
  0
ARC
  5
A8EA
330
A6A4
100
AcDbEntity
  8
1
  6
Continuous
100
AcDbCircle
 10
151.074349
 20
258.992775
 30
0.0
 40
8.665063999999999
100
AcDbArc
 50
105.7106089999999
 51
110.256158
  0
LINE
  5
A8EB
330
A6A4
100
AcDbEntity
  8
1
  6
Continuous
100
AcDbLine
 10
148.074349
 20
262.8961009999998
 30
0.0
 11
148.074349
 21
267.657839
 31
0.0
  0
ARC
  5
A8EC
330
A6A4
100
AcDbEntity
  8
1
  6
Continuous
100
AcDbCircle
 10
151.074349
 20
271.3229019999999
 30
0.0
 40
8.665063999999999
100
AcDbArc
 50
249.7438419999999
 51
251.4593899999999
  0
LINE
  5
A8ED
330
A6A4
100
AcDbEntity
  8
1
  6
Continuous
100
AcDbLine
 10
146.574349
 20
268.6691469999999
 30
0.0
 11
146.574349
 21
267.657839
 31
0.0
  0
LINE
  5
A8EE
330
A6A4
100
AcDbEntity
  8
1
  6
Continuous
100
AcDbLine
 10
148.4665239999999
 20
267.657839
 30
0.0
 11
146.574349
 21
267.657839
 31
0.0
  0
ARC
  5
A8EF
330
A6A4
100
AcDbEntity
  8
1
  6
Continuous
100
AcDbCircle
 10
154.074349
 20
299.757839
 30
0.0
 40
10.5
100
AcDbArc
 50
117.009084
 51
131.810315
  0
LINE
  5
A8F0
330
A6A4
100
AcDbEntity
  8
1
  6
Continuous
100
AcDbLine
 10
148.7298189999999
 20
307.5840769999999
 30
0.0
 11
147.074349
 21
307.5840769999999
 31
0.0
  0
LINE
  5
A8F1
330
A6A4
100
AcDbEntity
  8
1
  6
Continuous
100
AcDbLine
 10
147.074349
 20
307.5840769999999
 30
0.0
 11
147.074349
 21
306.3655099999999
 31
0.0
  0
ARC
  5
A8F2
330
A6A4
100
AcDbEntity
  8
1
  6
Continuous
100
AcDbCircle
 10
400.967824
 20
198.019768
 30
0.0
 40
43.011857
100
AcDbArc
 50
182.938283
 51
218.379791
  0
ARC
  5
A8F3
330
A6A4
100
AcDbEntity
  8
1
  6
Continuous
100
AcDbCircle
 10
392.5125129999998
 20
171.3149389999998
 30
0.0
 40
10.34999999999999
100
AcDbArc
 50
270.0
 51
74.60596200000002
  0
ARC
  5
A8F4
330
A6A4
100
AcDbEntity
  8
1
  6
Continuous
100
AcDbCircle
 10
392.5125129999998
 20
171.3149389999998
 30
0.0
 40
13.5
100
AcDbArc
 50
224.150204
 51
98.535043
  0
ARC
  5
A8F5
330
A6A4
100
AcDbEntity
  8
1
  6
Continuous
100
AcDbCircle
 10
392.5125129999998
 20
171.3149389999998
 30
0.0
 40
14.0
100
AcDbArc
 50
220.955614
 51
99.45551600000001
  0
ARC
  5
A8F6
330
A6A4
100
AcDbEntity
  8
1
  6
Continuous
100
AcDbCircle
 10
392.5125129999998
 20
171.3149389999998
 30
0.0
 40
20.0
100
AcDbArc
 50
195.101244
 51
99.73909599999998
  0
LINE
  5
A8F7
330
A6A4
100
AcDbEntity
  8
4
  6
CENTER
100
AcDbLine
 10
392.5125129999998
 20
148.3149389999999
 30
0.0
 11
392.5125129999998
 21
194.3149389999999
 31
0.0
  0
ARC
  5
A8F8
330
A6A4
100
AcDbEntity
  8
1
  6
Continuous
100
AcDbCircle
 10
389.8130949999999
 20
191.086634
 30
0.0
 40
30.0
100
AcDbArc
 50
221.227954
 51
264.837509
  0
LINE
  5
A8F9
330
A6A4
100
AcDbEntity
  8
4
  6
CENTER
100
AcDbLine
 10
369.512513
 20
171.3149389999998
 30
0.0
 11
415.512513
 21
171.3149389999998
 31
0.0
  0
ARC
  5
A8FA
330
A6A4
100
AcDbEntity
  8
1
  6
Continuous
100
AcDbCircle
 10
392.5125129999998
 20
220.964939
 30
0.0
 40
60.0
100
AcDbArc
 50
264.837509
 51
270.0
  0
LINE
  5
A8FB
330
A6A4
100
AcDbEntity
  8
1
  6
Continuous
100
AcDbLine
 10
407.5125129999998
 20
211.314939
 30
0.0
 11
349.512513
 21
211.314939
 31
0.0
  0
LINE
  5
A8FC
330
A6A4
100
AcDbEntity
  8
1
  6
Continuous
100
AcDbLine
 10
407.5125129999998
 20
209.014939
 30
0.0
 11
349.512513
 21
209.014939
 31
0.0
  0
LINE
  5
A8FD
330
A6A4
100
AcDbEntity
  8
1
  6
Continuous
100
AcDbLine
 10
359.512513
 20
202.4936129999999
 30
0.0
 11
397.9409329999999
 21
202.4936129999999
 31
0.0
  0
LINE
  5
A8FE
330
A6A4
100
AcDbEntity
  8
1
  6
Continuous
100
AcDbLine
 10
385.088024
 20
202.4936129999999
 30
0.0
 11
387.39729
 21
204.802878
 31
0.0
  0
LINE
  5
A8FF
330
A6A4
100
AcDbEntity
  8
1
  6
Continuous
100
AcDbLine
 10
386.5022379999999
 20
202.4936129999999
 30
0.0
 11
388.8115029999998
 21
204.802878
 31
0.0
  0
LINE
  5
A900
330
A6A4
100
AcDbEntity
  8
1
  6
Continuous
100
AcDbLine
 10
388.292341
 20
202.4936129999999
 30
0.0
 11
385.9830759999999
 21
204.802878
 31
0.0
  0
LINE
  5
A901
330
A6A4
100
AcDbEntity
  8
1
  6
Continuous
100
AcDbLine
 10
359.512513
 20
204.802878
 30
0.0
 11
397.512513
 21
204.802878
 31
0.0
  0
LINE
  5
A902
330
A6A4
100
AcDbEntity
  8
1
  6
Continuous
100
AcDbLine
 10
360.5785969999999
 20
206.9993839999999
 30
0.0
 11
396.4437429999999
 21
206.9993839999999
 31
0.0
  0
LINE
  5
A903
330
A6A4
100
AcDbEntity
  8
1
  6
Continuous
100
AcDbLine
 10
357.687446
 20
208.4506549999999
 30
0.0
 11
399.3375799999999
 21
208.4506549999999
 31
0.0
  0
LINE
  5
A904
330
A6A4
100
AcDbEntity
  8
1
  6
Continuous
100
AcDbLine
 10
361.652582
 20
206.7128779999999
 30
0.0
 11
395.372445
 21
206.7128779999999
 31
0.0
  0
LINE
  5
A905
330
A6A4
100
AcDbEntity
  8
1
  6
Continuous
100
AcDbLine
 10
398.6978429999999
 20
194.024236
 30
0.0
 11
400.1155269999999
 21
199.710259
 31
0.0
  0
ARC
  5
A906
330
A6A4
100
AcDbEntity
  8
1
  6
Continuous
100
AcDbCircle
 10
392.9490939999998
 20
190.0668599999999
 30
0.0
 40
3.957376
100
AcDbArc
 50
90.0
 51
166.0
  0
ARC
  5
A907
330
A6A4
100
AcDbEntity
  8
1
  6
Continuous
100
AcDbCircle
 10
397.5242039999998
 20
189.517167
 30
0.0
 40
8.529569
100
AcDbArc
 50
168.2921629999999
 51
254.605962
  0
LINE
  5
A908
330
A6A4
100
AcDbEntity
  8
1
  6
Continuous
100
AcDbLine
 10
398.6978429999999
 20
194.024236
 30
0.0
 11
392.9490939999998
 21
194.024236
 31
0.0
  0
LINE
  5
A909
330
A6A4
100
AcDbEntity
  8
1
  6
Continuous
100
AcDbLine
 10
407.5125129999998
 20
209.014939
 30
0.0
 11
407.5125129999998
 21
211.314939
 31
0.0
  0
LINE
  5
A90A
330
A6A4
100
AcDbEntity
  8
4
  6
CENTER
100
AcDbLine
 10
400.512513
 20
204.0149389999998
 30
0.0
 11
400.512513
 21
216.47357
 31
0.0
  0
ARC
  5
A90B
330
A6A4
100
AcDbEntity
  8
1
  6
Continuous
100
AcDbCircle
 10
392.085104
 20
203.493379
 30
0.0
 40
4.640519999999998
100
AcDbArc
 50
47.356681
 51
49.07081699999999
  0
LINE
  5
A90C
330
A6A4
100
AcDbEntity
  8
1
  6
Continuous
100
AcDbLine
 10
395.372445
 20
206.7128779999999
 30
0.0
 11
395.228742
 21
206.9068759999999
 31
0.0
  0
LINE
  5
A90D
330
A6A4
100
AcDbEntity
  8
1
  6
Continuous
100
AcDbLine
 10
393.573306
 20
202.4936129999999
 30
0.0
 11
395.8825709999999
 21
204.802878
 31
0.0
  0
LINE
  5
A90E
330
A6A4
100
AcDbEntity
  8
1
  6
Continuous
100
AcDbLine
 10
389.3306649999999
 20
202.4936129999999
 30
0.0
 11
391.63993
 21
204.802878
 31
0.0
  0
LINE
  5
A90F
330
A6A4
100
AcDbEntity
  8
1
  6
Continuous
100
AcDbLine
 10
390.7448790000001
 20
202.4936129999999
 30
0.0
 11
393.054144
 21
204.802878
 31
0.0
  0
LINE
  5
A910
330
A6A4
100
AcDbEntity
  8
1
  6
Continuous
100
AcDbLine
 10
392.5349819999998
 20
202.4936129999999
 30
0.0
 11
390.225717
 21
204.802878
 31
0.0
  0
LINE
  5
A911
330
A6A4
100
AcDbEntity
  8
1
  6
Continuous
100
AcDbLine
 10
387.916452
 20
202.4936129999999
 30
0.0
 11
390.225717
 21
204.802878
 31
0.0
  0
LINE
  5
A912
330
A6A4
100
AcDbEntity
  8
1
  6
Continuous
100
AcDbLine
 10
389.7065549999999
 20
202.4936129999999
 30
0.0
 11
387.39729
 21
204.802878
 31
0.0
  0
LINE
  5
A913
330
A6A4
100
AcDbEntity
  8
1
  6
Continuous
100
AcDbLine
 10
391.120768
 20
202.4936129999999
 30
0.0
 11
388.8115029999998
 21
204.802878
 31
0.0
  0
LINE
  5
A914
330
A6A4
100
AcDbEntity
  8
1
  6
Continuous
100
AcDbLine
 10
392.1590919999999
 20
202.4936129999999
 30
0.0
 11
394.4683569999999
 21
204.802878
 31
0.0
  0
LINE
  5
A915
330
A6A4
100
AcDbEntity
  8
1
  6
Continuous
100
AcDbLine
 10
393.9491949999998
 20
202.4936129999999
 30
0.0
 11
391.63993
 21
204.802878
 31
0.0
  0
LINE
  5
A916
330
A6A4
100
AcDbEntity
  8
1
  6
Continuous
100
AcDbLine
 10
395.3634089999998
 20
202.4936129999999
 30
0.0
 11
393.054144
 21
204.802878
 31
0.0
  0
ARC
  5
A917
330
A6A4
100
AcDbEntity
  8
1
  6
Continuous
100
AcDbCircle
 10
397.9409329999999
 20
200.252446
 30
0.0
 40
2.241166999999999
100
AcDbArc
 50
346.0
 51
90.0
  0
LINE
  5
A918
330
A6A4
100
AcDbEntity
  8
1
  6
Continuous
100
AcDbLine
 10
399.3375799999999
 20
208.4506549999999
 30
0.0
 11
399.3375799999999
 21
209.014939
 31
0.0
  0
ARC
  5
A919
330
A6A4
100
AcDbEntity
  8
1
  6
Continuous
100
AcDbCircle
 10
396.4437429999999
 20
210.6101779999999
 30
0.0
 40
3.610794999999998
100
AcDbArc
 50
270.0
 51
323.267889
  0
LINE
  5
A91A
330
A6A4
100
AcDbEntity
  8
1
  6
Continuous
100
AcDbLine
 10
397.512513
 20
204.802878
 30
0.0
 11
397.512513
 21
202.4936129999999
 31
0.0
  0
LINE
  5
A91B
330
A6A4
100
AcDbEntity
  8
1
  6
Continuous
100
AcDbLine
 10
397.512513
 20
204.587149
 30
0.0
 11
397.296785
 21
204.802878
 31
0.0
  0
ARC
  5
A91C
330
A6A4
100
AcDbEntity
  8
1
  6
Continuous
100
AcDbCircle
 10
390.60074
 20
207.5761219999999
 30
0.0
 40
6.407901999999999
100
AcDbArc
 50
334.3555600000001
 51
347.121283
  0
LINE
  5
A91D
330
A6A4
100
AcDbEntity
  8
1
  6
Continuous
100
AcDbLine
 10
396.4017329999999
 20
202.4936129999999
 30
0.0
 11
397.512513
 21
203.6043929999999
 31
0.0
  0
ARC
  5
A91E
330
A6A4
100
AcDbEntity
  8
1
  6
Continuous
100
AcDbCircle
 10
396.0581829999999
 20
205.8708409999999
 30
0.0
 40
0.8364709999999998
100
AcDbArc
 50
19.341459
 51
77.625084
  0
LINE
  5
A91F
330
A6A4
100
AcDbEntity
  8
1
  6
Continuous
100
AcDbLine
 10
396.237445
 20
206.687878
 30
0.0
 11
395.372445
 21
206.7128779999999
 31
0.0
  0
LINE
  5
A920
330
A6A4
100
AcDbEntity
  8
1
  6
Continuous
100
AcDbLine
 10
396.777623
 20
202.4936129999999
 30
0.0
 11
394.4683569999999
 21
204.802878
 31
0.0
  0
LINE
  5
A921
330
A6A4
100
AcDbEntity
  8
1
  6
Continuous
100
AcDbLine
 10
394.987519
 20
202.4936129999999
 30
0.0
 11
397.296785
 21
204.802878
 31
0.0
  0
LINE
  5
A922
330
A6A4
100
AcDbEntity
  8
1
  6
Continuous
100
AcDbLine
 10
397.512513
 20
203.1729349999999
 30
0.0
 11
395.8825709999999
 21
204.802878
 31
0.0
  0
LINE
  5
A923
330
A6A4
100
AcDbEntity
  8
1
  6
Continuous
100
AcDbLine
 10
358.012513
 20
195.8149699999999
 30
0.0
 11
358.012513
 21
200.3036129999999
 31
0.0
  0
LINE
  5
A924
330
A6A4
100
AcDbEntity
  8
4
  6
CENTER
100
AcDbLine
 10
378.512513
 20
185.6584389999999
 30
0.0
 11
378.512513
 21
216.47357
 31
0.0
  0
LINE
  5
A925
330
A6A4
100
AcDbEntity
  8
1
  6
Continuous
100
AcDbLine
 10
371.3217779999998
 20
202.4936129999999
 30
0.0
 11
369.012513
 21
204.802878
 31
0.0
  0
LINE
  5
A926
330
A6A4
100
AcDbEntity
  8
1
  6
Continuous
100
AcDbLine
 10
369.5316749999999
 20
202.4936129999999
 30
0.0
 11
371.84094
 21
204.802878
 31
0.0
  0
LINE
  5
A927
330
A6A4
100
AcDbEntity
  8
1
  6
Continuous
100
AcDbLine
 10
370.945889
 20
202.4936129999999
 30
0.0
 11
373.255154
 21
204.802878
 31
0.0
  0
LINE
  5
A928
330
A6A4
100
AcDbEntity
  8
1
  6
Continuous
100
AcDbLine
 10
372.735992
 20
202.4936129999999
 30
0.0
 11
370.426727
 21
204.802878
 31
0.0
  0
LINE
  5
A929
330
A6A4
100
AcDbEntity
  8
1
  6
Continuous
100
AcDbLine
 10
379.8070599999999
 20
202.4936129999999
 30
0.0
 11
377.497795
 21
204.802878
 31
0.0
  0
LINE
  5
A92A
330
A6A4
100
AcDbEntity
  8
1
  6
Continuous
100
AcDbLine
 10
373.7743159999998
 20
202.4936129999999
 30
0.0
 11
376.0835809999999
 21
204.802878
 31
0.0
  0
LINE
  5
A92B
330
A6A4
100
AcDbEntity
  8
1
  6
Continuous
100
AcDbLine
 10
375.5644189999999
 20
202.4936129999999
 30
0.0
 11
373.255154
 21
204.802878
 31
0.0
  0
LINE
  5
A92C
330
A6A4
100
AcDbEntity
  8
1
  6
Continuous
100
AcDbLine
 10
372.3601019999999
 20
202.4936129999999
 30
0.0
 11
374.669368
 21
204.802878
 31
0.0
  0
LINE
  5
A92D
330
A6A4
100
AcDbEntity
  8
1
  6
Continuous
100
AcDbLine
 10
374.150206
 20
202.4936129999999
 30
0.0
 11
371.84094
 21
204.802878
 31
0.0
  0
LINE
  5
A92E
330
A6A4
100
AcDbEntity
  8
1
  6
Continuous
100
AcDbLine
 10
375.1885299999998
 20
202.4936129999999
 30
0.0
 11
377.497795
 21
204.802878
 31
0.0
  0
LINE
  5
A92F
330
A6A4
100
AcDbEntity
  8
1
  6
Continuous
100
AcDbLine
 10
376.6027429999998
 20
202.4936129999999
 30
0.0
 11
378.912008
 21
204.802878
 31
0.0
  0
LINE
  5
A930
330
A6A4
100
AcDbEntity
  8
1
  6
Continuous
100
AcDbLine
 10
376.978633
 20
202.4936129999999
 30
0.0
 11
374.669368
 21
204.802878
 31
0.0
  0
LINE
  5
A931
330
A6A4
100
AcDbEntity
  8
1
  6
Continuous
100
AcDbLine
 10
378.392846
 20
202.4936129999999
 30
0.0
 11
376.0835809999999
 21
204.802878
 31
0.0
  0
LINE
  5
A932
330
A6A4
100
AcDbEntity
  8
1
  6
Continuous
100
AcDbLine
 10
383.673811
 20
202.4936129999999
 30
0.0
 11
385.9830759999999
 21
204.802878
 31
0.0
  0
LINE
  5
A933
330
A6A4
100
AcDbEntity
  8
1
  6
Continuous
100
AcDbLine
 10
385.463914
 20
202.4936129999999
 30
0.0
 11
383.154649
 21
204.802878
 31
0.0
  0
LINE
  5
A934
330
A6A4
100
AcDbEntity
  8
1
  6
Continuous
100
AcDbLine
 10
386.878128
 20
202.4936129999999
 30
0.0
 11
384.568862
 21
204.802878
 31
0.0
  0
LINE
  5
A935
330
A6A4
100
AcDbEntity
  8
1
  6
Continuous
100
AcDbLine
 10
380.8453839999998
 20
202.4936129999999
 30
0.0
 11
383.154649
 21
204.802878
 31
0.0
  0
LINE
  5
A936
330
A6A4
100
AcDbEntity
  8
1
  6
Continuous
100
AcDbLine
 10
382.259597
 20
202.4936129999999
 30
0.0
 11
384.568862
 21
204.802878
 31
0.0
  0
LINE
  5
A937
330
A6A4
100
AcDbEntity
  8
1
  6
Continuous
100
AcDbLine
 10
384.0497009999999
 20
202.4936129999999
 30
0.0
 11
381.7404349999998
 21
204.802878
 31
0.0
  0
LINE
  5
A938
330
A6A4
100
AcDbEntity
  8
1
  6
Continuous
100
AcDbLine
 10
382.635487
 20
202.4936129999999
 30
0.0
 11
380.3262219999999
 21
204.802878
 31
0.0
  0
LINE
  5
A939
330
A6A4
100
AcDbEntity
  8
1
  6
Continuous
100
AcDbLine
 10
378.0169569999998
 20
202.4936129999999
 30
0.0
 11
380.3262219999999
 21
204.802878
 31
0.0
  0
LINE
  5
A93A
330
A6A4
100
AcDbEntity
  8
1
  6
Continuous
100
AcDbLine
 10
379.43117
 20
202.4936129999999
 30
0.0
 11
381.7404349999998
 21
204.802878
 31
0.0
  0
LINE
  5
A93B
330
A6A4
100
AcDbEntity
  8
1
  6
Continuous
100
AcDbLine
 10
381.221273
 20
202.4936129999999
 30
0.0
 11
378.912008
 21
204.802878
 31
0.0
  0
ARC
  5
A93C
330
A6A4
100
AcDbEntity
  8
1
  6
Continuous
100
AcDbCircle
 10
360.202513
 20
200.3036129999999
 30
0.0
 40
2.189999999999999
100
AcDbArc
 50
90.0
 51
180.0
  0
LINE
  5
A93D
330
A6A4
100
AcDbEntity
  8
4
  6
CENTER
100
AcDbLine
 10
356.512513
 20
204.0149389999998
 30
0.0
 11
356.512513
 21
216.47357
 31
0.0
  0
ARC
  5
A93E
330
A6A4
100
AcDbEntity
  8
1
  6
Continuous
100
AcDbCircle
 10
364.939922
 20
203.493379
 30
0.0
 40
4.640519999999998
100
AcDbArc
 50
130.929183
 51
132.6433189999999
  0
LINE
  5
A93F
330
A6A4
100
AcDbEntity
  8
1
  6
Continuous
100
AcDbLine
 10
360.7875819999999
 20
206.687878
 30
0.0
 11
361.652582
 21
206.7128779999999
 31
0.0
  0
LINE
  5
A940
330
A6A4
100
AcDbEntity
  8
1
  6
Continuous
100
AcDbLine
 10
361.652582
 20
206.7128779999999
 30
0.0
 11
361.7962839999998
 21
206.9068759999999
 31
0.0
  0
LINE
  5
A941
330
A6A4
100
AcDbEntity
  8
1
  6
Continuous
100
AcDbLine
 10
361.046394
 20
202.4936129999999
 30
0.0
 11
363.3556589999998
 21
204.802878
 31
0.0
  0
LINE
  5
A942
330
A6A4
100
AcDbEntity
  8
1
  6
Continuous
100
AcDbLine
 10
362.836497
 20
202.4936129999999
 30
0.0
 11
360.5272319999999
 21
204.802878
 31
0.0
  0
LINE
  5
A943
330
A6A4
100
AcDbEntity
  8
1
  6
Continuous
100
AcDbLine
 10
357.687446
 20
208.4506549999999
 30
0.0
 11
357.687446
 21
209.014939
 31
0.0
  0
LINE
  5
A944
330
A6A4
100
AcDbEntity
  8
1
  6
Continuous
100
AcDbLine
 10
359.512513
 20
204.802878
 30
0.0
 11
359.512513
 21
202.4936129999999
 31
0.0
  0
LINE
  5
A945
330
A6A4
100
AcDbEntity
  8
1
  6
Continuous
100
AcDbLine
 10
359.512513
 20
202.9891689999999
 30
0.0
 11
360.0080699999999
 21
202.4936129999999
 31
0.0
  0
ARC
  5
A946
330
A6A4
100
AcDbEntity
  8
1
  6
Continuous
100
AcDbCircle
 10
360.581284
 20
210.6101779999999
 30
0.0
 40
3.610794999999998
100
AcDbArc
 50
216.7321109999999
 51
270.0
  0
ARC
  5
A947
330
A6A4
100
AcDbEntity
  8
1
  6
Continuous
100
AcDbCircle
 10
366.4242869999998
 20
207.5761219999999
 30
0.0
 40
6.407901999999999
100
AcDbArc
 50
192.8787169999999
 51
205.64444
  0
ARC
  5
A948
330
A6A4
100
AcDbEntity
  8
1
  6
Continuous
100
AcDbCircle
 10
360.966844
 20
205.8708409999999
 30
0.0
 40
0.8364709999999998
100
AcDbArc
 50
102.3749159999999
 51
160.6585409999999
  0
LINE
  5
A949
330
A6A4
100
AcDbEntity
  8
1
  6
Continuous
100
AcDbLine
 10
359.63218
 20
202.4936129999999
 30
0.0
 11
361.9414449999999
 21
204.802878
 31
0.0
  0
LINE
  5
A94A
330
A6A4
100
AcDbEntity
  8
1
  6
Continuous
100
AcDbLine
 10
359.512513
 20
203.788159
 30
0.0
 11
360.5272319999999
 21
204.802878
 31
0.0
  0
LINE
  5
A94B
330
A6A4
100
AcDbEntity
  8
1
  6
Continuous
100
AcDbLine
 10
359.512513
 20
204.403383
 30
0.0
 11
361.422284
 21
202.4936129999999
 31
0.0
  0
LINE
  5
A94C
330
A6A4
100
AcDbEntity
  8
1
  6
Continuous
100
AcDbLine
 10
368.117462
 20
202.4936129999999
 30
0.0
 11
370.426727
 21
204.802878
 31
0.0
  0
LINE
  5
A94D
330
A6A4
100
AcDbEntity
  8
1
  6
Continuous
100
AcDbLine
 10
369.9075649999999
 20
202.4936129999999
 30
0.0
 11
367.5983
 21
204.802878
 31
0.0
  0
LINE
  5
A94E
330
A6A4
100
AcDbEntity
  8
1
  6
Continuous
100
AcDbLine
 10
365.289035
 20
202.4936129999999
 30
0.0
 11
367.5983
 21
204.802878
 31
0.0
  0
LINE
  5
A94F
330
A6A4
100
AcDbEntity
  8
1
  6
Continuous
100
AcDbLine
 10
367.079138
 20
202.4936129999999
 30
0.0
 11
364.769873
 21
204.802878
 31
0.0
  0
LINE
  5
A950
330
A6A4
100
AcDbEntity
  8
1
  6
Continuous
100
AcDbLine
 10
366.7032479999999
 20
202.4936129999999
 30
0.0
 11
369.012513
 21
204.802878
 31
0.0
  0
LINE
  5
A951
330
A6A4
100
AcDbEntity
  8
1
  6
Continuous
100
AcDbLine
 10
368.4933509999999
 20
202.4936129999999
 30
0.0
 11
366.1840859999998
 21
204.802878
 31
0.0
  0
LINE
  5
A952
330
A6A4
100
AcDbEntity
  8
1
  6
Continuous
100
AcDbLine
 10
364.2507109999999
 20
202.4936129999999
 30
0.0
 11
361.9414449999999
 21
204.802878
 31
0.0
  0
LINE
  5
A953
330
A6A4
100
AcDbEntity
  8
1
  6
Continuous
100
AcDbLine
 10
363.874821
 20
202.4936129999999
 30
0.0
 11
366.1840859999998
 21
204.802878
 31
0.0
  0
LINE
  5
A954
330
A6A4
100
AcDbEntity
  8
1
  6
Continuous
100
AcDbLine
 10
362.460607
 20
202.4936129999999
 30
0.0
 11
364.769873
 21
204.802878
 31
0.0
  0
LINE
  5
A955
330
A6A4
100
AcDbEntity
  8
1
  6
Continuous
100
AcDbLine
 10
365.6649240000001
 20
202.4936129999999
 30
0.0
 11
363.3556589999998
 21
204.802878
 31
0.0
  0
LINE
  5
A956
330
A6A4
100
AcDbEntity
  8
1
  6
Continuous
100
AcDbLine
 10
349.512513
 20
209.014939
 30
0.0
 11
349.512513
 21
211.314939
 31
0.0
  0
CIRCLE
  5
A957
330
A6A4
100
AcDbEntity
  8
1
  6
Continuous
100
AcDbCircle
 10
392.5125129999998
 20
171.3149389999998
 30
0.0
 40
7.0
  0
CIRCLE
  5
A958
330
A6A4
100
AcDbEntity
  8
2
  6
Continuous
100
AcDbCircle
 10
154.074349
 20
171.3149389999998
 30
0.0
 40
3.3235
  0
CIRCLE
  5
A959
330
A6A4
100
AcDbEntity
  8
1
  6
Continuous
100
AcDbCircle
 10
154.074349
 20
171.3149389999998
 30
0.0
 40
7.5
  0
LINE
  5
A95A
330
A6A4
100
AcDbEntity
  8
1
  6
Continuous
100
AcDbLine
 10
45.355268
 20
188.750846
 30
0.0
 11
45.355268
 21
153.8790939999999
 31
0.0
  0
LINE
  5
A95B
330
A6A4
100
AcDbEntity
  8
1
  6
Continuous
100
AcDbLine
 10
70.35526800000001
 20
188.750846
 30
0.0
 11
70.35526800000001
 21
153.8790939999999
 31
0.0
  0
ARC
  5
A95C
330
A6A4
100
AcDbEntity
  8
1
  6
Continuous
100
AcDbCircle
 10
47.355268
 20
153.8790939999999
 30
0.0
 40
2.0
100
AcDbArc
 50
180.0
 51
263.8493599999998
  0
ARC
  5
A95D
330
A6A4
100
AcDbEntity
  8
1
  6
Continuous
100
AcDbCircle
 10
68.35526800000001
 20
153.8790939999999
 30
0.0
 40
2.0
100
AcDbArc
 50
276.15064
 51
0.0
  0
ARC
  5
A95E
330
A6A4
100
AcDbEntity
  8
1
  6
Continuous
100
AcDbCircle
 10
47.355268
 20
188.750846
 30
0.0
 40
2.0
100
AcDbArc
 50
96.15064
 51
180.0
  0
ARC
  5
A95F
330
A6A4
100
AcDbEntity
  8
1
  6
Continuous
100
AcDbCircle
 10
68.35526800000001
 20
188.750846
 30
0.0
 40
2.0
100
AcDbArc
 50
0.0
 51
83.84936000000001
  0
LINE
  5
A960
330
A6A4
100
AcDbEntity
  8
1
  6
Continuous
100
AcDbLine
 10
260.793431
 20
184.1527409999999
 30
0.0
 11
260.793431
 21
153.8790939999999
 31
0.0
  0
LINE
  5
A961
330
A6A4
100
AcDbEntity
  8
1
  6
Continuous
100
AcDbLine
 10
285.793431
 20
184.1527409999999
 30
0.0
 11
285.793431
 21
153.8790939999999
 31
0.0
  0
ARC
  5
A962
330
A6A4
100
AcDbEntity
  8
1
  6
Continuous
100
AcDbCircle
 10
283.7934309999998
 20
153.8790939999999
 30
0.0
 40
2.0
100
AcDbArc
 50
276.15064
 51
0.0
  0
ARC
  5
A963
330
A6A4
100
AcDbEntity
  8
1
  6
Continuous
100
AcDbCircle
 10
262.793431
 20
153.8790939999999
 30
0.0
 40
2.0
100
AcDbArc
 50
180.0
 51
263.8493599999998
  0
LINE
  5
A964
330
A6A4
100
AcDbEntity
  8
4
  6
CENTER
100
AcDbLine
 10
154.074349
 20
321.4578389999999
 30
0.0
 11
154.074349
 21
253.457839
 31
0.0
  0
ENDSEC
  0
SECTION
  2
OBJECTS
  0
DICTIONARY
  5
A692
330
0
100
AcDbDictionary
281
     1
  3
ACAD_CIP_PREVIOUS_PRODUCT_INFO
350
A9C6
  3
ACAD_COLOR
350
A9A8
  3
ACAD_DETAILVIEWSTYLE
350
A9C1
  3
ACAD_GROUP
350
A693
  3
ACAD_LAYOUT
350
A69F
  3
ACAD_MATERIAL
350
A976
  3
ACAD_MLEADERSTYLE
350
A9BD
  3
ACAD_MLINESTYLE
350
A69C
  3
ACAD_PLOTSETTINGS
350
A69E
  3
ACAD_PLOTSTYLENAME
350
A974
  3
ACAD_SCALELIST
350
A9AB
  3
ACAD_SECTIONVIEWSTYLE
350
A9BF
  3
ACAD_TABLESTYLE
350
A9A9
  3
ACAD_VISUALSTYLE
350
A98F
  3
ACDB_RECOMPOSE_DATA
350
A9E4
  3
AcDbVariableDictionary
350
A9D7
  3
DWGPROPS
350
A9E5
  0
DICTIONARY
  5
A9C7
330
A696
100
AcDbDictionary
280
     1
281
     1
  3
ADSK_XREC_LAYER_RECONCILED
360
A9C8
  0
DICTIONARY
  5
A9C9
330
A6AC
100
AcDbDictionary
280
     1
281
     1
  3
ADSK_XREC_LAYER_RECONCILED
360
A9CA
  0
DICTIONARY
  5
A9CB
330
A6AD
100
AcDbDictionary
280
     1
281
     1
  3
ADSK_XREC_LAYER_RECONCILED
360
A9CC
  0
DICTIONARY
  5
A9CD
330
A6AE
100
AcDbDictionary
280
     1
281
     1
  3
ADSK_XREC_LAYER_RECONCILED
360
A9CE
  0
DICTIONARY
  5
A9CF
330
A6AF
100
AcDbDictionary
280
     1
281
     1
  3
ADSK_XREC_LAYER_RECONCILED
360
A9D0
  0
DICTIONARY
  5
A9D1
330
A6B0
100
AcDbDictionary
280
     1
281
     1
  3
ADSK_XREC_LAYER_RECONCILED
360
A9D2
  0
DICTIONARY
  5
A9D3
330
A6B1
100
AcDbDictionary
280
     1
281
     1
  3
ADSK_XREC_LAYER_RECONCILED
360
A9D4
  0
DICTIONARY
  5
A9D5
330
A6B2
100
AcDbDictionary
280
     1
281
     1
  3
ADSK_XREC_LAYER_RECONCILED
360
A9D6
  0
DICTIONARY
  5
A96F
330
A6A4
100
AcDbDictionary
281
     1
  3
ACAD_LAYOUTSELFREF
350
A970
  0
DICTIONARY
  5
A96D
330
A6A0
100
AcDbDictionary
281
     1
  3
ACAD_LAYOUTSELFREF
350
A96E
  0
XRECORD
  5
A9C6
102
{ACAD_REACTORS
330
A692
102
}
330
A692
100
AcDbXrecord
280
     1
300
ACDLT
300
2014
300
ACDLT_F_S
  0
DICTIONARY
  5
A9A8
102
{ACAD_REACTORS
330
A692
102
}
330
A692
100
AcDbDictionary
281
     1
  0
DICTIONARY
  5
A9C1
102
{ACAD_REACTORS
330
A692
102
}
330
A692
100
AcDbDictionary
281
     1
  3
Imperial24
350
A9C2
  0
DICTIONARY
  5
A693
102
{ACAD_REACTORS
330
A692
102
}
330
A692
100
AcDbDictionary
281
     1
  0
DICTIONARY
  5
A69F
102
{ACAD_REACTORS
330
A692
102
}
330
A692
100
AcDbDictionary
281
     1
  3
Model
350
A9C3
  3
レイアウト1
350
A9C4
  0
DICTIONARY
  5
A976
102
{ACAD_REACTORS
330
A692
102
}
330
A692
100
AcDbDictionary
281
     1
  3
ByBlock
350
A97F
  3
ByLayer
350
A977
  3
Global
350
A987
  0
DICTIONARY
  5
A9BD
102
{ACAD_REACTORS
330
A692
102
}
330
A692
100
AcDbDictionary
281
     1
  3
Standard
350
A9BE
  0
DICTIONARY
  5
A69C
102
{ACAD_REACTORS
330
A692
102
}
330
A692
100
AcDbDictionary
281
     1
  3
STANDARD
350
A69D
  0
DICTIONARY
  5
A69E
102
{ACAD_REACTORS
330
A692
102
}
330
A692
100
AcDbDictionary
281
     1
  0
ACDBDICTIONARYWDFLT
  5
A974
102
{ACAD_REACTORS
330
A692
102
}
330
A692
100
AcDbDictionary
281
     1
  3
Normal
350
A975
100
AcDbDictionaryWithDefault
340
A975
  0
DICTIONARY
  5
A9AB
102
{ACAD_REACTORS
330
A692
102
}
330
A692
100
AcDbDictionary
281
     1
  3
A0
350
A9AC
  3
A1
350
A9AD
  3
A2
350
A9AE
  3
A3
350
A9AF
  3
A4
350
A9B0
  3
A5
350
A9B1
  3
A6
350
A9B2
  3
A7
350
A9B3
  3
A8
350
A9B4
  3
A9
350
A9B5
  3
B0
350
A9B6
  3
B1
350
A9B7
  3
B2
350
A9B8
  3
B3
350
A9B9
  3
B4
350
A9BA
  3
B5
350
A9BB
  3
B6
350
A9BC
  0
DICTIONARY
  5
A9BF
102
{ACAD_REACTORS
330
A692
102
}
330
A692
100
AcDbDictionary
281
     1
  3
Imperial24
350
A9C0
  0
DICTIONARY
  5
A9A9
102
{ACAD_REACTORS
330
A692
102
}
330
A692
100
AcDbDictionary
281
     1
  3
Standard
350
A9AA
  0
DICTIONARY
  5
A98F
102
{ACAD_REACTORS
330
A692
102
}
330
A692
100
AcDbDictionary
281
     1
  3
2dWireframe
350
A995
  3
Basic
350
A994
  3
Brighten
350
A99B
  3
ColorChange
350
A99F
  3
Conceptual
350
A998
  3
Dim
350
A99A
  3
EdgeColorOff
350
A9A7
  3
Facepattern
350
A99E
  3
Flat
350
A990
  3
FlatWithEdges
350
A991
  3
Gouraud
350
A992
  3
GouraudWithEdges
350
A993
  3
Hidden
350
A997
  3
JitterOff
350
A9A5
  3
Linepattern
350
A99D
  3
OverhangOff
350
A9A6
  3
Realistic
350
A999
  3
Shaded
350
A9A4
  3
Shaded with edges
350
A9A3
  3
Shades of Gray
350
A9A0
  3
Sketchy
350
A9A1
  3
Thicken
350
A99C
  3
Wireframe
350
A996
  3
X-Ray
350
A9A2
  0
XRECORD
  5
A9E4
102
{ACAD_REACTORS
330
A692
102
}
330
A692
100
AcDbXrecord
280
     1
 90
        1
330
A9AA
  0
DICTIONARY
  5
A9D7
102
{ACAD_REACTORS
330
A692
102
}
330
A692
100
AcDbDictionary
281
     1
  3
CANNOSCALE
350
A9DC
  3
CMLEADERSTYLE
350
A9D9
  3
CTABLESTYLE
350
A9D8
  3
CVIEWDETAILSTYLE
350
A9DA
  3
CVIEWSECTIONSTYLE
350
A9DB
  3
DIMASSOC
350
A9DF
  3
INDEXCTL
350
A9DE
  3
SORTENTS
350
A9DD
  3
XCLIPFRAME
350
A9E0
  0
XRECORD
  5
A9E5
102
{ACAD_REACTORS
330
A692
102
}
330
A692
100
AcDbXrecord
280
     1
  1
DWGPROPS COOKIE
  2

  3

  4

  6

  7

  8
Yoshitsune
  9

300
=
301
=
302
=
303
=
304
=
305
=
306
=
307
=
308
=
309
=
 40
0.0000099189814815
 41
2451301.405646296
 42
2457192.686465798
  1

 90
        0
  0
XRECORD
  5
A9C8
102
{ACAD_REACTORS
330
A9C7
102
}
330
A9C7
100
AcDbXrecord
280
     1
290
     1
  0
XRECORD
  5
A9CA
102
{ACAD_REACTORS
330
A9C9
102
}
330
A9C9
100
AcDbXrecord
280
     1
290
     1
  0
XRECORD
  5
A9CC
102
{ACAD_REACTORS
330
A9CB
102
}
330
A9CB
100
AcDbXrecord
280
     1
290
     1
  0
XRECORD
  5
A9CE
102
{ACAD_REACTORS
330
A9CD
102
}
330
A9CD
100
AcDbXrecord
280
     1
290
     1
  0
XRECORD
  5
A9D0
102
{ACAD_REACTORS
330
A9CF
102
}
330
A9CF
100
AcDbXrecord
280
     1
290
     1
  0
XRECORD
  5
A9D2
102
{ACAD_REACTORS
330
A9D1
102
}
330
A9D1
100
AcDbXrecord
280
     1
290
     1
  0
XRECORD
  5
A9D4
102
{ACAD_REACTORS
330
A9D3
102
}
330
A9D3
100
AcDbXrecord
280
     1
290
     1
  0
XRECORD
  5
A9D6
102
{ACAD_REACTORS
330
A9D5
102
}
330
A9D5
100
AcDbXrecord
280
     1
290
     1
  0
XRECORD
  5
A970
102
{ACAD_REACTORS
330
A96F
102
}
330
A96F
100
AcDbXrecord
280
     1
340
A6A4
  0
XRECORD
  5
A96E
102
{ACAD_REACTORS
330
A96D
102
}
330
A96D
100
AcDbXrecord
280
     1
340
A6A0
  0
ACDBDETAILVIEWSTYLE
  5
A9C2
102
{ACAD_XDICTIONARY
360
AA1D
102
}
102
{ACAD_REACTORS
330
A9C1
102
}
330
A9C1
100
AcDbModelDocViewStyle
 70
     0
  3
Imperial24
290
     0
100
AcDbDetailViewStyle
 70
     0
 71
     0
 90
        3
 71
     1
340
A697
 40
0.24
340
0
 40
0.24
300

 40
0.36
280
     3
 71
     2
340
A69B
 90
       25
 71
     3
340
A697
 40
0.24
 90
        1
 40
0.75
 90
        1
300
%<\AcVar ViewType \f "%tc1">% %<\AcVar ViewDetailId>%\PSCALE %<\AcVar ViewScale \f "%sn">%
 71
     4
340
A69B
 90
       25
340
A69B
 90
       25
280
     0
  0
LAYOUT
  5
A9C3
102
{ACAD_XDICTIONARY
360
AA1F
102
}
102
{ACAD_REACTORS
330
A69F
102
}
330
A69F
100
AcDbPlotSettings
  1

  2
Canon LBP9100C
  4

  6

 40
0.0
 41
0.0
 42
0.0
 43
0.0
 44
0.0
 45
0.0
 46
0.0
 47
0.0
 48
0.0
 49
0.0
140
0.0
141
0.0
142
1.0
143
1.0
 70
  1712
 72
     0
 73
     0
 74
     0
  7

 75
     0
147
1.0
148
0.0
149
0.0
100
AcDbLayout
  1
Model
 70
     1
 71
     0
 10
0.0
 20
0.0
 11
12.0
 21
9.0
 12
0.0
 22
0.0
 32
0.0
 14
0.0
 24
0.0
 34
0.0
 15
0.0
 25
0.0
 35
0.0
146
0.0
 13
0.0
 23
0.0
 33
0.0
 16
1.0
 26
0.0
 36
0.0
 17
0.0
 27
1.0
 37
0.0
 76
     0
330
A6A4
331
A96C
  0
LAYOUT
  5
A9C4
102
{ACAD_XDICTIONARY
360
AA21
102
}
102
{ACAD_REACTORS
330
A69F
102
}
330
A69F
100
AcDbPlotSettings
  1

  2
Canon LBP9100C
  4

  6

 40
0.0
 41
0.0
 42
0.0
 43
0.0
 44
0.0
 45
0.0
 46
0.0
 47
0.0
 48
0.0
 49
0.0
140
0.0
141
0.0
142
1.0
143
1.0
 70
   688
 72
     0
 73
     0
 74
     5
  7

 75
    16
147
1.0
148
0.0
149
0.0
100
AcDbLayout
  1
レイアウト1
 70
     0
 71
     1
 10
0.0
 20
0.0
 11
420.0
 21
297.0
 12
0.0
 22
0.0
 32
0.0
 14
1.000000000000000E+20
 24
1.000000000000000E+20
 34
1.000000000000000E+20
 15
-1.000000000000000E+20
 25
-1.000000000000000E+20
 35
-1.000000000000000E+20
146
0.0
 13
0.0
 23
0.0
 33
0.0
 16
1.0
 26
0.0
 36
0.0
 17
0.0
 27
1.0
 37
0.0
 76
     0
330
A6A0
  0
MATERIAL
  5
A97F
102
{ACAD_XDICTIONARY
360
A980
102
}
102
{ACAD_REACTORS
330
A976
102
}
330
A976
100
AcDbMaterial
  1
ByBlock
 72
     0
 43
0.0208333333333333
 43
0.0
 43
0.0
 43
0.0
 43
0.0
 43
0.0208333333333333
 43
0.0
 43
0.0
 43
0.0
 43
0.0
 43
1.0
 43
0.0
 43
0.0
 43
0.0
 43
0.0
 43
1.0
 77
     0
 47
0.0208333333333333
 47
0.0
 47
0.0
 47
0.0
 47
0.0
 47
0.0208333333333333
 47
0.0
 47
0.0
 47
0.0
 47
0.0
 47
1.0
 47
0.0
 47
0.0
 47
0.0
 47
0.0
 47
1.0
171
     0
 49
0.0208333333333333
 49
0.0
 49
0.0
 49
0.0
 49
0.0
 49
0.0208333333333333
 49
0.0
 49
0.0
 49
0.0
 49
0.0
 49
1.0
 49
0.0
 49
0.0
 49
0.0
 49
0.0
 49
1.0
175
     0
142
0.0208333333333333
142
0.0
142
0.0
142
0.0
142
0.0
142
0.0208333333333333
142
0.0
142
0.0
142
0.0
142
0.0
142
1.0
142
0.0
142
0.0
142
0.0
142
0.0
142
1.0
179
     0
144
0.0208333333333333
144
0.0
144
0.0
144
0.0
144
0.0
144
0.0208333333333333
144
0.0
144
0.0
144
0.0
144
0.0
144
1.0
144
0.0
144
0.0
144
0.0
144
0.0
144
1.0
147
0.0208333333333333
147
0.0
147
0.0
147
0.0
147
0.0
147
0.0208333333333333
147
0.0
147
0.0
147
0.0
147
0.0
147
1.0
147
0.0
147
0.0
147
0.0
147
0.0
147
1.0
  0
MATERIAL
  5
A977
102
{ACAD_XDICTIONARY
360
A978
102
}
102
{ACAD_REACTORS
330
A976
102
}
330
A976
100
AcDbMaterial
  1
ByLayer
 72
     0
 43
0.0208333333333333
 43
0.0
 43
0.0
 43
0.0
 43
0.0
 43
0.0208333333333333
 43
0.0
 43
0.0
 43
0.0
 43
0.0
 43
1.0
 43
0.0
 43
0.0
 43
0.0
 43
0.0
 43
1.0
 77
     0
 47
0.0208333333333333
 47
0.0
 47
0.0
 47
0.0
 47
0.0
 47
0.0208333333333333
 47
0.0
 47
0.0
 47
0.0
 47
0.0
 47
1.0
 47
0.0
 47
0.0
 47
0.0
 47
0.0
 47
1.0
171
     0
 49
0.0208333333333333
 49
0.0
 49
0.0
 49
0.0
 49
0.0
 49
0.0208333333333333
 49
0.0
 49
0.0
 49
0.0
 49
0.0
 49
1.0
 49
0.0
 49
0.0
 49
0.0
 49
0.0
 49
1.0
175
     0
142
0.0208333333333333
142
0.0
142
0.0
142
0.0
142
0.0
142
0.0208333333333333
142
0.0
142
0.0
142
0.0
142
0.0
142
1.0
142
0.0
142
0.0
142
0.0
142
0.0
142
1.0
179
     0
144
0.0208333333333333
144
0.0
144
0.0
144
0.0
144
0.0
144
0.0208333333333333
144
0.0
144
0.0
144
0.0
144
0.0
144
1.0
144
0.0
144
0.0
144
0.0
144
0.0
144
1.0
147
0.0208333333333333
147
0.0
147
0.0
147
0.0
147
0.0
147
0.0208333333333333
147
0.0
147
0.0
147
0.0
147
0.0
147
1.0
147
0.0
147
0.0
147
0.0
147
0.0
147
1.0
  0
MATERIAL
  5
A987
102
{ACAD_XDICTIONARY
360
A988
102
}
102
{ACAD_REACTORS
330
A976
102
}
330
A976
100
AcDbMaterial
  1
Global
 72
     0
 43
0.0208333333333333
 43
0.0
 43
0.0
 43
0.0
 43
0.0
 43
0.0208333333333333
 43
0.0
 43
0.0
 43
0.0
 43
0.0
 43
1.0
 43
0.0
 43
0.0
 43
0.0
 43
0.0
 43
1.0
 77
     0
 47
0.0208333333333333
 47
0.0
 47
0.0
 47
0.0
 47
0.0
 47
0.0208333333333333
 47
0.0
 47
0.0
 47
0.0
 47
0.0
 47
1.0
 47
0.0
 47
0.0
 47
0.0
 47
0.0
 47
1.0
171
     0
 49
0.0208333333333333
 49
0.0
 49
0.0
 49
0.0
 49
0.0
 49
0.0208333333333333
 49
0.0
 49
0.0
 49
0.0
 49
0.0
 49
1.0
 49
0.0
 49
0.0
 49
0.0
 49
0.0
 49
1.0
175
     0
142
0.0208333333333333
142
0.0
142
0.0
142
0.0
142
0.0
142
0.0208333333333333
142
0.0
142
0.0
142
0.0
142
0.0
142
1.0
142
0.0
142
0.0
142
0.0
142
0.0
142
1.0
179
     0
144
0.0208333333333333
144
0.0
144
0.0
144
0.0
144
0.0
144
0.0208333333333333
144
0.0
144
0.0
144
0.0
144
0.0
144
1.0
144
0.0
144
0.0
144
0.0
144
0.0
144
1.0
147
0.0208333333333333
147
0.0
147
0.0
147
0.0
147
0.0
147
0.0208333333333333
147
0.0
147
0.0
147
0.0
147
0.0
147
1.0
147
0.0
147
0.0
147
0.0
147
0.0
147
1.0
  0
MLEADERSTYLE
  5
A9BE
102
{ACAD_REACTORS
330
A9BD
102
}
330
A9BD
100
AcDbMLeaderStyle
170
     2
171
     1
172
     0
 90
        2
 40
0.0
 41
0.0
173
     1
 91
-1056964608
340
A699
 92
       -2
290
     1
 42
0.09
291
     1
 43
0.36
  3
Standard
 44
0.18
300

342
A697
174
     1
178
     6
175
     1
176
     0
 93
-1056964608
 45
0.18
292
     0
297
     0
 46
0.18
 94
-1056964608
 47
1.0
 49
1.0
140
1.0
293
     1
141
0.0
294
     1
177
     0
142
1.0
295
     0
296
     0
143
0.125
1001
ACAD_MLEADERVER
1070
     2
  0
MLINESTYLE
  5
A69D
102
{ACAD_REACTORS
330
A69C
102
}
330
A69C
100
AcDbMlineStyle
  2
STANDARD
 70
     0
  3

 62
   256
 51
90.0
 52
90.0
 71
     2
 49
0.5
 62
   256
  6
BYLAYER
 49
-0.5
 62
   256
  6
BYLAYER
  0
ACDBPLACEHOLDER
  5
A975
102
{ACAD_REACTORS
330
A974
102
}
330
A974
  0
SCALE
  5
A9AC
102
{ACAD_REACTORS
330
A9AB
102
}
330
A9AB
100
AcDbScale
 70
     0
300
1:1
140
1.0
141
1.0
290
     1
  0
SCALE
  5
A9AD
102
{ACAD_REACTORS
330
A9AB
102
}
330
A9AB
100
AcDbScale
 70
     0
300
1/128" = 1'-0"
140
0.0078125
141
12.0
290
     0
  0
SCALE
  5
A9AE
102
{ACAD_REACTORS
330
A9AB
102
}
330
A9AB
100
AcDbScale
 70
     0
300
1/64" = 1'-0"
140
0.015625
141
12.0
290
     0
  0
SCALE
  5
A9AF
102
{ACAD_REACTORS
330
A9AB
102
}
330
A9AB
100
AcDbScale
 70
     0
300
1/32" = 1'-0"
140
0.03125
141
12.0
290
     0
  0
SCALE
  5
A9B0
102
{ACAD_REACTORS
330
A9AB
102
}
330
A9AB
100
AcDbScale
 70
     0
300
1/16" = 1'-0"
140
0.0625
141
12.0
290
     0
  0
SCALE
  5
A9B1
102
{ACAD_REACTORS
330
A9AB
102
}
330
A9AB
100
AcDbScale
 70
     0
300
3/32" = 1'-0"
140
0.09375
141
12.0
290
     0
  0
SCALE
  5
A9B2
102
{ACAD_REACTORS
330
A9AB
102
}
330
A9AB
100
AcDbScale
 70
     0
300
1/8" = 1'-0"
140
0.125
141
12.0
290
     0
  0
SCALE
  5
A9B3
102
{ACAD_REACTORS
330
A9AB
102
}
330
A9AB
100
AcDbScale
 70
     0
300
3/16" = 1'-0"
140
0.1875
141
12.0
290
     0
  0
SCALE
  5
A9B4
102
{ACAD_REACTORS
330
A9AB
102
}
330
A9AB
100
AcDbScale
 70
     0
300
1/4" = 1'-0"
140
0.25
141
12.0
290
     0
  0
SCALE
  5
A9B5
102
{ACAD_REACTORS
330
A9AB
102
}
330
A9AB
100
AcDbScale
 70
     0
300
3/8" = 1'-0"
140
0.375
141
12.0
290
     0
  0
SCALE
  5
A9B6
102
{ACAD_REACTORS
330
A9AB
102
}
330
A9AB
100
AcDbScale
 70
     0
300
1/2" = 1'-0"
140
0.5
141
12.0
290
     0
  0
SCALE
  5
A9B7
102
{ACAD_REACTORS
330
A9AB
102
}
330
A9AB
100
AcDbScale
 70
     0
300
3/4" = 1'-0"
140
0.75
141
12.0
290
     0
  0
SCALE
  5
A9B8
102
{ACAD_REACTORS
330
A9AB
102
}
330
A9AB
100
AcDbScale
 70
     0
300
1" = 1'-0"
140
1.0
141
12.0
290
     0
  0
SCALE
  5
A9B9
102
{ACAD_REACTORS
330
A9AB
102
}
330
A9AB
100
AcDbScale
 70
     0
300
1-1/2" = 1'-0"
140
1.5
141
12.0
290
     0
  0
SCALE
  5
A9BA
102
{ACAD_REACTORS
330
A9AB
102
}
330
A9AB
100
AcDbScale
 70
     0
300
3" = 1'-0"
140
3.0
141
12.0
290
     0
  0
SCALE
  5
A9BB
102
{ACAD_REACTORS
330
A9AB
102
}
330
A9AB
100
AcDbScale
 70
     0
300
6" = 1'-0"
140
6.0
141
12.0
290
     0
  0
SCALE
  5
A9BC
102
{ACAD_REACTORS
330
A9AB
102
}
330
A9AB
100
AcDbScale
 70
     0
300
1'-0" = 1'-0"
140
12.0
141
12.0
290
     0
  0
ACDBSECTIONVIEWSTYLE
  5
A9C0
102
{ACAD_XDICTIONARY
360
AA1B
102
}
102
{ACAD_REACTORS
330
A9BF
102
}
330
A9BF
100
AcDbModelDocViewStyle
 70
     0
  3
Imperial24
290
     0
100
AcDbSectionViewStyle
 70
     0
 71
     0
 90
       78
 71
     1
340
A697
 40
0.24
340
0
340
0
 40
0.24
300
I, O, Q, S, X, Z
 40
0.48
 90
        3
 40
0.18
 90
        1
 71
     2
340
A69B
 90
       25
340
A69B
 90
       50
 40
0.24
 40
0.0
 40
0.24
 71
     3
340
A697
 40
0.24
 90
        1
 40
0.75
 90
        1
300
%<\AcVar ViewType \f "%tc1">% %<\AcVar ViewSectionStartId>%-%<\AcVar ViewSectionEndId>%\PSCALE %<\AcVar ViewScale \f "%sn">%
 71
     4
300
ANSI31
 40
1.0
 90
        0
290
     0
290
     0
 90
        6
 40
0.0
 40
1.570796326794896
 40
0.2617993877991494
 40
1.308996938995747
 40
-0.2617993877991494
 40
1.832595714594046
  0
TABLESTYLE
  5
A9AA
102
{ACAD_XDICTIONARY
360
A9E2
102
}
102
{ACAD_REACTORS
330
A9A9
102
}
330
A9A9
100
AcDbTableStyle
  3
Standard
 70
     0
 71
     0
 40
0.06
 41
0.06
280
     0
281
     0
  7
STANDARD
140
0.18
170
     2
 62
     0
 63
     7
283
     0
274
    -2
284
     1
 64
     0
275
    -2
285
     1
 65
     0
276
    -2
286
     1
 66
     0
277
    -2
287
     1
 67
     0
278
    -2
288
     1
 68
     0
279
    -2
289
     1
 69
     0
  7
STANDARD
140
0.25
170
     5
 62
     0
 63
     7
283
     0
274
    -2
284
     1
 64
     0
275
    -2
285
     1
 65
     0
276
    -2
286
     1
 66
     0
277
    -2
287
     1
 67
     0
278
    -2
288
     1
 68
     0
279
    -2
289
     1
 69
     0
  7
STANDARD
140
0.18
170
     5
 62
     0
 63
     7
283
     0
274
    -2
284
     1
 64
     0
275
    -2
285
     1
 65
     0
276
    -2
286
     1
 66
     0
277
    -2
287
     1
 67
     0
278
    -2
288
     1
 68
     0
279
    -2
289
     1
 69
     0
  0
VISUALSTYLE
  5
A995
102
{ACAD_XDICTIONARY
360
A9F3
102
}
102
{ACAD_REACTORS
330
A98F
102
}
330
A98F
100
AcDbVisualStyle
  2
2dWireframe
 70
     4
 71
     0
 72
     2
 73
     0
 90
        0
 40
-0.6
 41
-30.0
 62
     5
 63
     7
 74
     1
 91
        4
 64
     7
 65
   257
 75
     1
175
     1
 42
1.0
 92
        0
 66
   257
 43
1.0
 76
     1
 77
     6
 78
     2
 67
     7
 79
     5
170
     0
171
     0
290
     0
174
     0
 93
        1
 44
0.0
173
     0
291
     0
 45
0.0
1001
ACAD
1000
AcDbSavedByObjectVersion
1070
     0
  0
VISUALSTYLE
  5
A994
102
{ACAD_XDICTIONARY
360
A9F1
102
}
102
{ACAD_REACTORS
330
A98F
102
}
330
A98F
100
AcDbVisualStyle
  2
Basic
 70
     7
 71
     1
 72
     0
 73
     1
 90
        0
 40
-0.6
 41
-30.0
 62
     5
 63
     7
 74
     0
 91
        4
 64
     7
 65
   257
 75
     1
175
     1
 42
1.0
 92
        8
 66
     7
 43
1.0
 76
     1
 77
     6
 78
     2
 67
     7
 79
     5
170
     0
171
     0
290
     0
174
     0
 93
        1
 44
0.0
173
     0
291
     1
 45
0.0
1001
ACAD
1000
AcDbSavedByObjectVersion
1070
     0
  0
VISUALSTYLE
  5
A99B
102
{ACAD_XDICTIONARY
360
A9FF
102
}
102
{ACAD_REACTORS
330
A98F
102
}
330
A98F
100
AcDbVisualStyle
  2
Brighten
 70
    12
 71
     2
 72
     2
 73
     0
 90
        0
 40
-0.6
 41
-30.0
 62
     5
 63
     7
 74
     1
 91
        4
 64
     7
 65
   257
 75
     1
175
     1
 42
1.0
 92
        8
 66
     7
 43
1.0
 76
     1
 77
     6
 78
     2
 67
     7
 79
     5
170
     0
171
     0
290
     0
174
     0
 93
        1
 44
50.0
173
     0
291
     1
 45
0.0
1001
ACAD
1000
AcDbSavedByObjectVersion
1070
     0
  0
VISUALSTYLE
  5
A99F
102
{ACAD_XDICTIONARY
360
AA07
102
}
102
{ACAD_REACTORS
330
A98F
102
}
330
A98F
100
AcDbVisualStyle
  2
ColorChange
 70
    16
 71
     2
 72
     2
 73
     3
 90
        0
 40
-0.6
 41
-30.0
 62
     5
 63
     8
 74
     1
 91
        4
 64
     7
 65
   257
 75
     1
175
     1
 42
1.0
 92
        8
 66
     8
 43
1.0
 76
     1
 77
     6
 78
     2
 67
     7
 79
     5
170
     0
171
     0
290
     0
174
     0
 93
        1
 44
0.0
173
     0
291
     1
 45
0.0
1001
ACAD
1000
AcDbSavedByObjectVersion
1070
     0
  0
VISUALSTYLE
  5
A998
102
{ACAD_XDICTIONARY
360
A9F9
102
}
102
{ACAD_REACTORS
330
A98F
102
}
330
A98F
100
AcDbVisualStyle
  2
Conceptual
 70
     9
 71
     3
 72
     2
 73
     0
 90
        0
 40
-0.6
 41
-30.0
 62
     5
 63
     7
 74
     2
 91
        2
 64
     7
 65
   257
 75
     1
175
     1
 42
179.0
 92
        8
 66
     7
 43
1.0
 76
     1
 77
     6
 78
     2
 67
     7
 79
     3
170
     0
171
     0
290
     0
174
     0
 93
        1
 44
0.0
173
     0
291
     0
 45
0.0
1001
ACAD
1000
AcDbSavedByObjectVersion
1070
     0
  0
VISUALSTYLE
  5
A99A
102
{ACAD_XDICTIONARY
360
A9FD
102
}
102
{ACAD_REACTORS
330
A98F
102
}
330
A98F
100
AcDbVisualStyle
  2
Dim
 70
    11
 71
     2
 72
     2
 73
     0
 90
        0
 40
-0.6
 41
-30.0
 62
     5
 63
     7
 74
     1
 91
        4
 64
     7
 65
   257
 75
     1
175
     1
 42
1.0
 92
        8
 66
     7
 43
1.0
 76
     1
 77
     6
 78
     2
 67
     7
 79
     5
170
     0
171
     0
290
     0
174
     0
 93
        1
 44
-50.0
173
     0
291
     1
 45
0.0
1001
ACAD
1000
AcDbSavedByObjectVersion
1070
     0
  0
VISUALSTYLE
  5
A9A7
102
{ACAD_XDICTIONARY
360
AA17
102
}
102
{ACAD_REACTORS
330
A98F
102
}
330
A98F
100
AcDbVisualStyle
  2
EdgeColorOff
 70
    22
 71
     2
 72
     2
 73
     0
 90
        0
 40
-0.6
 41
-30.0
 62
     5
 63
     7
 74
     1
 91
        4
 64
     7
 65
   257
 75
     1
175
     1
 42
1.0
 92
        8
 66
     7
 43
1.0
 76
     1
 77
     6
 78
     2
 67
     7
 79
     5
170
     0
171
     0
290
     0
174
     0
 93
        1
 44
0.0
173
     0
291
     1
 45
0.0
1001
ACAD
1000
AcDbSavedByObjectVersion
1070
     0
  0
VISUALSTYLE
  5
A99E
102
{ACAD_XDICTIONARY
360
AA05
102
}
102
{ACAD_REACTORS
330
A98F
102
}
330
A98F
100
AcDbVisualStyle
  2
Facepattern
 70
    15
 71
     2
 72
     2
 73
     0
 90
        0
 40
-0.6
 41
-30.0
 62
     5
 63
     7
 74
     1
 91
        4
 64
     7
 65
   257
 75
     1
175
     1
 42
1.0
 92
        8
 66
     7
 43
1.0
 76
     1
 77
     6
 78
     2
 67
     7
 79
     5
170
     0
171
     0
290
     0
174
     0
 93
        1
 44
0.0
173
     0
291
     1
 45
0.0
1001
ACAD
1000
AcDbSavedByObjectVersion
1070
     0
  0
VISUALSTYLE
  5
A990
102
{ACAD_XDICTIONARY
360
A9E9
102
}
102
{ACAD_REACTORS
330
A98F
102
}
330
A98F
100
AcDbVisualStyle
  2
Flat
 70
     0
 71
     2
 72
     1
 73
     1
 90
        2
 40
-0.6
 41
30.0
 62
     5
 63
     7
 74
     0
 91
        0
 64
     7
 65
   257
 75
     1
175
     1
 42
1.0
 92
        8
 66
     7
 43
1.0
 76
     1
 77
     6
 78
     2
 67
     7
 79
     5
170
     0
171
     0
290
     0
174
     0
 93
       13
 44
0.0
173
     0
291
     1
 45
0.0
1001
ACAD
1000
AcDbSavedByObjectVersion
1070
     0
  0
VISUALSTYLE
  5
A991
102
{ACAD_XDICTIONARY
360
A9EB
102
}
102
{ACAD_REACTORS
330
A98F
102
}
330
A98F
100
AcDbVisualStyle
  2
FlatWithEdges
 70
     1
 71
     2
 72
     1
 73
     1
 90
        2
 40
-0.6
 41
30.0
 62
     5
 63
     7
 74
     1
 91
        0
 64
     7
 65
   257
 75
     1
175
     1
 42
1.0
 92
        0
 66
   257
 43
1.0
 76
     1
 77
     6
 78
     2
 67
     7
 79
     5
170
     0
171
     0
290
     0
174
     0
 93
       13
 44
0.0
173
     0
291
     1
 45
0.0
1001
ACAD
1000
AcDbSavedByObjectVersion
1070
     0
  0
VISUALSTYLE
  5
A992
102
{ACAD_XDICTIONARY
360
A9ED
102
}
102
{ACAD_REACTORS
330
A98F
102
}
330
A98F
100
AcDbVisualStyle
  2
Gouraud
 70
     2
 71
     2
 72
     2
 73
     1
 90
        2
 40
-0.6
 41
30.0
 62
     5
 63
     7
 74
     0
 91
        0
 64
     7
 65
   257
 75
     1
175
     1
 42
1.0
 92
        0
 66
     7
 43
1.0
 76
     1
 77
     6
 78
     2
 67
     7
 79
     5
170
     0
171
     0
290
     0
174
     0
 93
       13
 44
0.0
173
     0
291
     1
 45
0.0
1001
ACAD
1000
AcDbSavedByObjectVersion
1070
     0
  0
VISUALSTYLE
  5
A993
102
{ACAD_XDICTIONARY
360
A9EF
102
}
102
{ACAD_REACTORS
330
A98F
102
}
330
A98F
100
AcDbVisualStyle
  2
GouraudWithEdges
 70
     3
 71
     2
 72
     2
 73
     1
 90
        2
 40
-0.6
 41
30.0
 62
     5
 63
     7
 74
     1
 91
        0
 64
     7
 65
   257
 75
     1
175
     1
 42
1.0
 92
        0
 66
   257
 43
1.0
 76
     1
 77
     6
 78
     2
 67
     7
 79
     5
170
     0
171
     0
290
     0
174
     0
 93
       13
 44
0.0
173
     0
291
     1
 45
0.0
1001
ACAD
1000
AcDbSavedByObjectVersion
1070
     0
  0
VISUALSTYLE
  5
A997
102
{ACAD_XDICTIONARY
360
A9F7
102
}
102
{ACAD_REACTORS
330
A98F
102
}
330
A98F
100
AcDbVisualStyle
  2
Hidden
 70
     6
 71
     1
 72
     2
 73
     2
 90
        0
 40
-0.6
 41
-30.0
 62
     5
 63
     7
 74
     2
 91
        2
 64
     7
 65
   257
 75
     2
175
     1
 42
40.0
 92
        0
 66
   257
 43
1.0
 76
     1
 77
     6
 78
     2
 67
     7
 79
     3
170
     0
171
     0
290
     0
174
     0
 93
        1
 44
0.0
173
     0
291
     0
 45
0.0
1001
ACAD
1000
AcDbSavedByObjectVersion
1070
     0
  0
VISUALSTYLE
  5
A9A5
102
{ACAD_XDICTIONARY
360
AA13
102
}
102
{ACAD_REACTORS
330
A98F
102
}
330
A98F
100
AcDbVisualStyle
  2
JitterOff
 70
    20
 71
     2
 72
     2
 73
     0
 90
        0
 40
-0.6
 41
-30.0
 62
     5
 63
     7
 74
     1
 91
        4
 64
     7
 65
   257
 75
     1
175
     1
 42
1.0
 92
       10
 66
     7
 43
1.0
 76
     1
 77
     6
 78
     2
 67
     7
 79
     5
170
     0
171
     0
290
     0
174
     0
 93
        1
 44
0.0
173
     0
291
     1
 45
0.0
1001
ACAD
1000
AcDbSavedByObjectVersion
1070
     0
  0
VISUALSTYLE
  5
A99D
102
{ACAD_XDICTIONARY
360
AA03
102
}
102
{ACAD_REACTORS
330
A98F
102
}
330
A98F
100
AcDbVisualStyle
  2
Linepattern
 70
    14
 71
     2
 72
     2
 73
     0
 90
        0
 40
-0.6
 41
-30.0
 62
     5
 63
     7
 74
     1
 91
        4
 64
     7
 65
   257
 75
     7
175
     7
 42
1.0
 92
        8
 66
     7
 43
1.0
 76
     1
 77
     6
 78
     2
 67
     7
 79
     5
170
     0
171
     0
290
     0
174
     0
 93
        1
 44
0.0
173
     0
291
     1
 45
0.0
1001
ACAD
1000
AcDbSavedByObjectVersion
1070
     0
  0
VISUALSTYLE
  5
A9A6
102
{ACAD_XDICTIONARY
360
AA15
102
}
102
{ACAD_REACTORS
330
A98F
102
}
330
A98F
100
AcDbVisualStyle
  2
OverhangOff
 70
    21
 71
     2
 72
     2
 73
     0
 90
        0
 40
-0.6
 41
-30.0
 62
     5
 63
     7
 74
     1
 91
        4
 64
     7
 65
   257
 75
     1
175
     1
 42
1.0
 92
        9
 66
     7
 43
1.0
 76
     1
 77
     6
 78
     2
 67
     7
 79
     5
170
     0
171
     0
290
     0
174
     0
 93
        1
 44
0.0
173
     0
291
     1
 45
0.0
1001
ACAD
1000
AcDbSavedByObjectVersion
1070
     0
  0
VISUALSTYLE
  5
A999
102
{ACAD_XDICTIONARY
360
A9FB
102
}
102
{ACAD_REACTORS
330
A98F
102
}
330
A98F
100
AcDbVisualStyle
  2
Realistic
 70
     8
 71
     2
 72
     3
 73
     0
 90
        2
 40
-0.6
 41
30.0
 62
     5
 63
     7
 74
     0
 91
        0
 64
     7
 65
   257
 75
     1
175
     1
 42
1.0
 92
        8
 66
   257
 43
1.0
 76
     1
 77
     6
 78
     2
 67
     7
 79
     3
170
     0
171
     0
290
     0
174
     0
 93
       13
 44
0.0
173
     0
291
     0
 45
0.0
1001
ACAD
1000
AcDbSavedByObjectVersion
1070
     0
  0
VISUALSTYLE
  5
A9A4
102
{ACAD_XDICTIONARY
360
AA11
102
}
102
{ACAD_REACTORS
330
A98F
102
}
330
A98F
100
AcDbVisualStyle
  2
Shaded
 70
    27
 71
     2
 72
     2
 73
     1
 90
        2
 40
-0.6
 41
30.0
 62
     5
 63
     7
 74
     0
 91
        4
 64
     7
 65
   257
 75
     1
175
     1
 42
1.0
 92
        8
 66
   257
 43
1.0
 76
     1
 77
     6
 78
     2
 67
     8
 79
     3
170
     0
171
     0
290
     0
174
     0
 93
        5
 44
0.0
173
     0
291
     0
 45
0.0
1001
ACAD
1000
AcDbSavedByObjectVersion
1070
     0
  0
VISUALSTYLE
  5
A9A3
102
{ACAD_XDICTIONARY
360
AA0F
102
}
102
{ACAD_REACTORS
330
A98F
102
}
330
A98F
100
AcDbVisualStyle
  2
Shaded with edges
 70
    26
 71
     2
 72
     2
 73
     1
 90
        2
 40
-0.6
 41
30.0
 62
     5
 63
     7
 74
     1
 91
       10
 64
     7
 65
   257
 75
     2
175
     1
 42
1.0
 92
        8
 66
   257
 43
1.0
 76
     1
 77
     6
 78
     2
 67
     7
 79
     3
170
     0
171
     0
290
     0
174
     0
 93
        5
 44
0.0
173
     0
291
     0
 45
0.0
1001
ACAD
1000
AcDbSavedByObjectVersion
1070
     0
  0
VISUALSTYLE
  5
A9A0
102
{ACAD_XDICTIONARY
360
AA09
102
}
102
{ACAD_REACTORS
330
A98F
102
}
330
A98F
100
AcDbVisualStyle
  2
Shades of Gray
 70
    23
 71
     2
 72
     2
 73
     3
 90
        0
 40
-0.6
 41
-30.0
 62
     5
 63
     7
 74
     2
 91
        2
 64
     7
 65
     7
 75
     1
175
     1
 42
40.0
 92
        8
 66
     7
 43
1.0
 76
     1
 77
     6
 78
     2
 67
     7
 79
     3
170
     0
171
     0
290
     0
174
     0
 93
        1
 44
0.0
173
     0
291
     0
 45
0.0
1001
ACAD
1000
AcDbSavedByObjectVersion
1070
     0
  0
VISUALSTYLE
  5
A9A1
102
{ACAD_XDICTIONARY
360
AA0B
102
}
102
{ACAD_REACTORS
330
A98F
102
}
330
A98F
100
AcDbVisualStyle
  2
Sketchy
 70
    24
 71
     1
 72
     2
 73
     2
 90
        0
 40
-0.6
 41
-30.0
 62
     5
 63
     7
 74
     2
 91
        2
 64
     7
 65
     7
 75
     1
175
     1
 42
40.0
 92
       11
 66
     7
 43
1.0
 76
     1
 77
     6
 78
     2
 67
     7
 79
     6
170
     0
171
     0
290
     0
174
     0
 93
        1
 44
0.0
173
     0
291
     0
 45
0.0
1001
ACAD
1000
AcDbSavedByObjectVersion
1070
     0
  0
VISUALSTYLE
  5
A99C
102
{ACAD_XDICTIONARY
360
AA01
102
}
102
{ACAD_REACTORS
330
A98F
102
}
330
A98F
100
AcDbVisualStyle
  2
Thicken
 70
    13
 71
     2
 72
     2
 73
     0
 90
        0
 40
-0.6
 41
-30.0
 62
     5
 63
     7
 74
     1
 91
        4
 64
     7
 65
   257
 75
     1
175
     1
 42
1.0
 92
       12
 66
     7
 43
1.0
 76
     1
 77
     6
 78
     2
 67
     7
 79
     5
170
     0
171
     0
290
     0
174
     0
 93
        1
 44
0.0
173
     0
291
     1
 45
0.0
1001
ACAD
1000
AcDbSavedByObjectVersion
1070
     0
  0
VISUALSTYLE
  5
A996
102
{ACAD_XDICTIONARY
360
A9F5
102
}
102
{ACAD_REACTORS
330
A98F
102
}
330
A98F
100
AcDbVisualStyle
  2
Wireframe
 70
     5
 71
     0
 72
     2
 73
     0
 90
        0
 40
-0.6
 41
-30.0
 62
     5
 63
     7
 74
     1
 91
        4
 64
     7
 65
   257
 75
     1
175
     1
 42
1.0
 92
        0
 66
   257
 43
1.0
 76
     1
 77
     6
 78
     2
 67
     7
 79
     3
170
     0
171
     0
290
     0
174
     0
 93
        1
 44
0.0
173
     0
291
     0
 45
0.0
1001
ACAD
1000
AcDbSavedByObjectVersion
1070
     0
  0
VISUALSTYLE
  5
A9A2
102
{ACAD_XDICTIONARY
360
AA0D
102
}
102
{ACAD_REACTORS
330
A98F
102
}
330
A98F
100
AcDbVisualStyle
  2
X-Ray
 70
    25
 71
     2
 72
     2
 73
     1
 90
        1
 40
0.5
 41
-30.0
 62
     5
 63
     7
 74
     1
 91
        0
 64
     7
 65
   257
 75
     1
175
     1
 42
1.0
 92
        8
 66
     7
 43
1.0
 76
     1
 77
     6
 78
     2
 67
     7
 79
     3
170
     0
171
     0
290
     0
174
     0
 93
       13
 44
0.0
173
     0
291
     0
 45
0.0
1001
ACAD
1000
AcDbSavedByObjectVersion
1070
     0
  0
DICTIONARYVAR
  5
A9DC
102
{ACAD_REACTORS
330
A9D7
102
}
330
A9D7
100
DictionaryVariables
280
     0
  1
1:1
  0
DICTIONARYVAR
  5
A9D9
102
{ACAD_REACTORS
330
A9D7
102
}
330
A9D7
100
DictionaryVariables
280
     0
  1
STANDARD
  0
DICTIONARYVAR
  5
A9D8
102
{ACAD_REACTORS
330
A9D7
102
}
330
A9D7
100
DictionaryVariables
280
     0
  1
STANDARD
  0
DICTIONARYVAR
  5
A9DA
102
{ACAD_REACTORS
330
A9D7
102
}
330
A9D7
100
DictionaryVariables
280
     0
  1
Imperial24
  0
DICTIONARYVAR
  5
A9DB
102
{ACAD_REACTORS
330
A9D7
102
}
330
A9D7
100
DictionaryVariables
280
     0
  1
Imperial24
  0
DICTIONARYVAR
  5
A9DF
102
{ACAD_REACTORS
330
A9D7
102
}
330
A9D7
100
DictionaryVariables
280
     0
  1
1
  0
DICTIONARYVAR
  5
A9DE
102
{ACAD_REACTORS
330
A9D7
102
}
330
A9D7
100
DictionaryVariables
280
     0
  1
0
  0
DICTIONARYVAR
  5
A9DD
102
{ACAD_REACTORS
330
A9D7
102
}
330
A9D7
100
DictionaryVariables
280
     0
  1
127
  0
DICTIONARYVAR
  5
A9E0
102
{ACAD_REACTORS
330
A9D7
102
}
330
A9D7
100
DictionaryVariables
280
     0
  1
2
  0
DICTIONARY
  5
AA1D
330
A9C2
100
AcDbDictionary
280
     1
281
     1
  3
ACAD_XREC_ROUNDTRIP
360
AA1E
  0
DICTIONARY
  5
AA1F
330
A9C3
100
AcDbDictionary
280
     1
281
     1
  3
ACAD_XREC_ROUNDTRIP
360
AA20
  0
DICTIONARY
  5
AA21
330
A9C4
100
AcDbDictionary
280
     1
281
     1
  3
ACAD_XREC_ROUNDTRIP
360
AA22
  0
DICTIONARY
  5
A980
330
A97F
100
AcDbDictionary
280
     1
281
     1
  3
ACAD_XREC_ROUNDTRIP
360
A9E7
  3
BUMPTILE
360
A982
  3
DIFFUSETILE
360
A981
  3
OPACITYTILE
360
A985
  3
REFLECTIONTILE
360
A984
  3
REFRACTIONTILE
360
A986
  3
SPECULARTILE
360
A983
  0
DICTIONARY
  5
A978
330
A977
100
AcDbDictionary
280
     1
281
     1
  3
ACAD_XREC_ROUNDTRIP
360
A9E6
  3
BUMPTILE
360
A97A
  3
DIFFUSETILE
360
A979
  3
OPACITYTILE
360
A97D
  3
REFLECTIONTILE
360
A97C
  3
REFRACTIONTILE
360
A97E
  3
SPECULARTILE
360
A97B
  0
DICTIONARY
  5
A988
330
A987
100
AcDbDictionary
280
     1
281
     1
  3
ACAD_XREC_ROUNDTRIP
360
A9E8
  3
BUMPTILE
360
A98A
  3
DIFFUSETILE
360
A989
  3
OPACITYTILE
360
A98D
  3
REFLECTIONTILE
360
A98C
  3
REFRACTIONTILE
360
A98E
  3
SPECULARTILE
360
A98B
  0
DICTIONARY
  5
AA1B
330
A9C0
100
AcDbDictionary
280
     1
281
     1
  3
ACAD_XREC_ROUNDTRIP
360
AA1C
  0
DICTIONARY
  5
A9E2
330
A9AA
100
AcDbDictionary
280
     1
281
     1
  3
ACAD_ROUNDTRIP_2008_TABLESTYLE_CELLSTYLEMAP
360
A9E3
  3
ACAD_XREC_ROUNDTRIP
360
AA19
  0
DICTIONARY
  5
A9F3
330
A995
100
AcDbDictionary
280
     1
281
     1
  3
ACAD_XREC_ROUNDTRIP
360
A9F4
  0
DICTIONARY
  5
A9F1
330
A994
100
AcDbDictionary
280
     1
281
     1
  3
ACAD_XREC_ROUNDTRIP
360
A9F2
  0
DICTIONARY
  5
A9FF
330
A99B
100
AcDbDictionary
280
     1
281
     1
  3
ACAD_XREC_ROUNDTRIP
360
AA00
  0
DICTIONARY
  5
AA07
330
A99F
100
AcDbDictionary
280
     1
281
     1
  3
ACAD_XREC_ROUNDTRIP
360
AA08
  0
DICTIONARY
  5
A9F9
330
A998
100
AcDbDictionary
280
     1
281
     1
  3
ACAD_XREC_ROUNDTRIP
360
A9FA
  0
DICTIONARY
  5
A9FD
330
A99A
100
AcDbDictionary
280
     1
281
     1
  3
ACAD_XREC_ROUNDTRIP
360
A9FE
  0
DICTIONARY
  5
AA17
330
A9A7
100
AcDbDictionary
280
     1
281
     1
  3
ACAD_XREC_ROUNDTRIP
360
AA18
  0
DICTIONARY
  5
AA05
330
A99E
100
AcDbDictionary
280
     1
281
     1
  3
ACAD_XREC_ROUNDTRIP
360
AA06
  0
DICTIONARY
  5
A9E9
330
A990
100
AcDbDictionary
280
     1
281
     1
  3
ACAD_XREC_ROUNDTRIP
360
A9EA
  0
DICTIONARY
  5
A9EB
330
A991
100
AcDbDictionary
280
     1
281
     1
  3
ACAD_XREC_ROUNDTRIP
360
A9EC
  0
DICTIONARY
  5
A9ED
330
A992
100
AcDbDictionary
280
     1
281
     1
  3
ACAD_XREC_ROUNDTRIP
360
A9EE
  0
DICTIONARY
  5
A9EF
330
A993
100
AcDbDictionary
280
     1
281
     1
  3
ACAD_XREC_ROUNDTRIP
360
A9F0
  0
DICTIONARY
  5
A9F7
330
A997
100
AcDbDictionary
280
     1
281
     1
  3
ACAD_XREC_ROUNDTRIP
360
A9F8
  0
DICTIONARY
  5
AA13
330
A9A5
100
AcDbDictionary
280
     1
281
     1
  3
ACAD_XREC_ROUNDTRIP
360
AA14
  0
DICTIONARY
  5
AA03
330
A99D
100
AcDbDictionary
280
     1
281
     1
  3
ACAD_XREC_ROUNDTRIP
360
AA04
  0
DICTIONARY
  5
AA15
330
A9A6
100
AcDbDictionary
280
     1
281
     1
  3
ACAD_XREC_ROUNDTRIP
360
AA16
  0
DICTIONARY
  5
A9FB
330
A999
100
AcDbDictionary
280
     1
281
     1
  3
ACAD_XREC_ROUNDTRIP
360
A9FC
  0
DICTIONARY
  5
AA11
330
A9A4
100
AcDbDictionary
280
     1
281
     1
  3
ACAD_XREC_ROUNDTRIP
360
AA12
  0
DICTIONARY
  5
AA0F
330
A9A3
100
AcDbDictionary
280
     1
281
     1
  3
ACAD_XREC_ROUNDTRIP
360
AA10
  0
DICTIONARY
  5
AA09
330
A9A0
100
AcDbDictionary
280
     1
281
     1
  3
ACAD_XREC_ROUNDTRIP
360
AA0A
  0
DICTIONARY
  5
AA0B
330
A9A1
100
AcDbDictionary
280
     1
281
     1
  3
ACAD_XREC_ROUNDTRIP
360
AA0C
  0
DICTIONARY
  5
AA01
330
A99C
100
AcDbDictionary
280
     1
281
     1
  3
ACAD_XREC_ROUNDTRIP
360
AA02
  0
DICTIONARY
  5
A9F5
330
A996
100
AcDbDictionary
280
     1
281
     1
  3
ACAD_XREC_ROUNDTRIP
360
A9F6
  0
DICTIONARY
  5
AA0D
330
A9A2
100
AcDbDictionary
280
     1
281
     1
  3
ACAD_XREC_ROUNDTRIP
360
AA0E
  0
XRECORD
  5
AA1E
102
{ACAD_REACTORS
330
AA1D
102
}
330
AA1D
100
AcDbXrecord
280
     1
102
DISPLAYNAME
  1
Imperial24
102
FLAGS
 90
        0
  0
XRECORD
  5
AA20
102
{ACAD_REACTORS
330
AA1F
102
}
330
AA1F
100
AcDbXrecord
280
     1
102
SHADEPLOT
 70
     0
102
SHADEPLOTRESLEVEL
 70
     2
102
SHADEPLOTCUSTOMDPI
 70
   300
  0
XRECORD
  5
AA22
102
{ACAD_REACTORS
330
AA21
102
}
330
AA21
100
AcDbXrecord
280
     1
102
SHADEPLOT
 70
     0
102
SHADEPLOTRESLEVEL
 70
     2
102
SHADEPLOTCUSTOMDPI
 70
   300
  0
XRECORD
  5
A9E7
102
{ACAD_REACTORS
330
A980
102
}
330
A980
100
AcDbXrecord
280
     1
102
MATERIAL
148
0.0
149
0.0
149
0.0
 93
        0
 94
      127
282
     0
 72
     0
 77
     0
171
     0
175
     0
179
     0
273
     0
  0
XRECORD
  5
A982
102
{ACAD_REACTORS
330
A980
102
}
330
A980
100
AcDbXrecord
280
     1
270
     1
271
     1
  0
XRECORD
  5
A981
102
{ACAD_REACTORS
330
A980
102
}
330
A980
100
AcDbXrecord
280
     1
270
     1
271
     1
  0
XRECORD
  5
A985
102
{ACAD_REACTORS
330
A980
102
}
330
A980
100
AcDbXrecord
280
     1
270
     1
271
     1
  0
XRECORD
  5
A984
102
{ACAD_REACTORS
330
A980
102
}
330
A980
100
AcDbXrecord
280
     1
270
     1
271
     1
  0
XRECORD
  5
A986
102
{ACAD_REACTORS
330
A980
102
}
330
A980
100
AcDbXrecord
280
     1
270
     1
271
     1
  0
XRECORD
  5
A983
102
{ACAD_REACTORS
330
A980
102
}
330
A980
100
AcDbXrecord
280
     1
270
     1
271
     1
  0
XRECORD
  5
A9E6
102
{ACAD_REACTORS
330
A978
102
}
330
A978
100
AcDbXrecord
280
     1
102
MATERIAL
148
0.0
149
0.0
149
0.0
 93
        0
 94
      127
282
     0
 72
     0
 77
     0
171
     0
175
     0
179
     0
273
     0
  0
XRECORD
  5
A97A
102
{ACAD_REACTORS
330
A978
102
}
330
A978
100
AcDbXrecord
280
     1
270
     1
271
     1
  0
XRECORD
  5
A979
102
{ACAD_REACTORS
330
A978
102
}
330
A978
100
AcDbXrecord
280
     1
270
     1
271
     1
  0
XRECORD
  5
A97D
102
{ACAD_REACTORS
330
A978
102
}
330
A978
100
AcDbXrecord
280
     1
270
     1
271
     1
  0
XRECORD
  5
A97C
102
{ACAD_REACTORS
330
A978
102
}
330
A978
100
AcDbXrecord
280
     1
270
     1
271
     1
  0
XRECORD
  5
A97E
102
{ACAD_REACTORS
330
A978
102
}
330
A978
100
AcDbXrecord
280
     1
270
     1
271
     1
  0
XRECORD
  5
A97B
102
{ACAD_REACTORS
330
A978
102
}
330
A978
100
AcDbXrecord
280
     1
270
     1
271
     1
  0
XRECORD
  5
A9E8
102
{ACAD_REACTORS
330
A988
102
}
330
A988
100
AcDbXrecord
280
     1
102
MATERIAL
148
0.0
149
0.0
149
0.0
 93
        0
 94
      127
282
     0
 72
     0
 77
     0
171
     0
175
     0
179
     0
273
     0
  0
XRECORD
  5
A98A
102
{ACAD_REACTORS
330
A988
102
}
330
A988
100
AcDbXrecord
280
     1
270
     1
271
     1
  0
XRECORD
  5
A989
102
{ACAD_REACTORS
330
A988
102
}
330
A988
100
AcDbXrecord
280
     1
270
     1
271
     1
  0
XRECORD
  5
A98D
102
{ACAD_REACTORS
330
A988
102
}
330
A988
100
AcDbXrecord
280
     1
270
     1
271
     1
  0
XRECORD
  5
A98C
102
{ACAD_REACTORS
330
A988
102
}
330
A988
100
AcDbXrecord
280
     1
270
     1
271
     1
  0
XRECORD
  5
A98E
102
{ACAD_REACTORS
330
A988
102
}
330
A988
100
AcDbXrecord
280
     1
270
     1
271
     1
  0
XRECORD
  5
A98B
102
{ACAD_REACTORS
330
A988
102
}
330
A988
100
AcDbXrecord
280
     1
270
     1
271
     1
  0
XRECORD
  5
AA1C
102
{ACAD_REACTORS
330
AA1B
102
}
330
AA1B
100
AcDbXrecord
280
     1
102
DISPLAYNAME
  1
Imperial24
102
FLAGS
 90
        0
  0
CELLSTYLEMAP
  5
A9E3
102
{ACAD_REACTORS
330
A9E2
102
}
330
A9E2
100
AcDbCellStyleMap
 90
        3
300
CELLSTYLE
  1
TABLEFORMAT_BEGIN
 90
        5
170
     1
 91
        0
 92
    32768
 62
   257
 93
        1
300
CONTENTFORMAT
  1
CONTENTFORMAT_BEGIN
 90
        0
 91
        0
 92
      512
 93
        0
300

 40
0.0
140
1.0
 94
        5
 62
     0
340
A697
144
0.25
309
CONTENTFORMAT_END
171
     0
 94
        0
309
TABLEFORMAT_END
  1
CELLSTYLE_BEGIN
 90
        1
 91
        1
300
_TITLE
309
CELLSTYLE_END
300
CELLSTYLE
  1
TABLEFORMAT_BEGIN
 90
        5
170
     1
 91
        0
 92
        0
 62
   257
 93
        1
300
CONTENTFORMAT
  1
CONTENTFORMAT_BEGIN
 90
        0
 91
        0
 92
      512
 93
        0
300

 40
0.0
140
1.0
 94
        5
 62
     0
340
A697
144
0.18
309
CONTENTFORMAT_END
171
     0
 94
        0
309
TABLEFORMAT_END
  1
CELLSTYLE_BEGIN
 90
        2
 91
        1
300
_HEADER
309
CELLSTYLE_END
300
CELLSTYLE
  1
TABLEFORMAT_BEGIN
 90
        5
170
     1
 91
        0
 92
        0
 62
   257
 93
        1
300
CONTENTFORMAT
  1
CONTENTFORMAT_BEGIN
 90
        0
 91
        0
 92
      512
 93
        0
300

 40
0.0
140
1.0
 94
        2
 62
     0
340
A697
144
0.18
309
CONTENTFORMAT_END
171
     0
 94
        0
309
TABLEFORMAT_END
  1
CELLSTYLE_BEGIN
 90
        3
 91
        2
300
_DATA
309
CELLSTYLE_END
  0
XRECORD
  5
AA19
102
{ACAD_REACTORS
330
A9E2
102
}
330
A9E2
100
AcDbXrecord
280
     1
102
ACAD_ROUNDTRIP_PRE2007_TABLESTYLE
 90
      512
 91
        0
  1

 92
      512
 93
        0
  2

 94
      512
 95
        0
  3

  0
XRECORD
  5
A9F4
102
{ACAD_REACTORS
330
A9F3
102
}
330
A9F3
100
AcDbXrecord
280
     1
102
RTVSPost2010Prop28
280
     1
102
RTVSPost2010PropOp28
 70
     1
102
RTVSPost2010Prop29
280
     1
102
RTVSPost2010PropOp29
 70
     1
102
RTVSPost2010Prop30
280
     0
102
RTVSPost2010PropOp30
 70
     1
102
RTVSPost2010Prop31
280
     0
102
RTVSPost2010PropOp31
 70
     1
102
RTVSPost2010Prop32
280
     0
102
RTVSPost2010PropOp32
 70
     1
102
RTVSPost2010Prop33
280
     0
102
RTVSPost2010PropOp33
 70
     1
102
RTVSPost2010Prop34
280
     0
102
RTVSPost2010PropOp34
 70
     1
102
RTVSPost2010Prop35
280
     0
102
RTVSPost2010PropOp35
 70
     1
102
RTVSPost2010Prop36
280
     0
102
RTVSPost2010PropOp36
 70
     1
102
RTVSPost2010Prop37
 90
       50
102
RTVSPost2010PropOp37
 70
     1
102
RTVSPost2010Prop38
140
0.0
102
RTVSPost2010PropOp38
 70
     1
102
RTVSPost2010Prop39
140
1.0
102
RTVSPost2010PropOp39
 70
     1
102
RTVSPost2010Prop40
 90
        0
102
RTVSPost2010PropOp40
 70
     1
102
RTVSPost2010Prop41ColorIndex
 90
       18
102
RTVSPost2010Prop41ColorRGB
 90
        0
102
RTVSPost2010PropOp41
 70
     1
102
RTVSPost2010Prop42
 90
       50
102
RTVSPost2010PropOp42
 70
     1
102
RTVSPost2010Prop43
 90
        3
102
RTVSPost2010PropOp43
 70
     1
102
RTVSPost2010Prop44ColorIndex
 90
        5
102
RTVSPost2010Prop44ColorRGB
 90
      255
102
RTVSPost2010PropOp44
 70
     1
102
RTVSPost2010Prop45
280
     0
102
RTVSPost2010PropOp45
 70
     1
102
RTVSPost2010Prop46
 90
       50
102
RTVSPost2010PropOp46
 70
     1
102
RTVSPost2010Prop47
 90
       50
102
RTVSPost2010PropOp47
 70
     1
102
RTVSPost2010Prop48
 90
       50
102
RTVSPost2010PropOp48
 70
     1
102
RTVSPost2010Prop49
280
     0
102
RTVSPost2010PropOp49
 70
     1
102
RTVSPost2010Prop50
 90
       50
102
RTVSPost2010PropOp50
 70
     1
102
RTVSPost2010Prop51ColorIndex
 90
      256
102
RTVSPost2010Prop51ColorRGB
 90
-16777216
102
RTVSPost2010PropOp51
 70
     0
102
RTVSPost2010Prop52
140
1.0
102
RTVSPost2010PropOp52
 70
     0
102
RTVSPost2010Prop53
 90
        2
102
RTVSPost2010PropOp53
 70
     1
102
RTVSPost2010Prop54
  1
strokes_ogs.tif
102
RTVSPost2010PropOp54
 70
     1
102
RTVSPost2010Prop55
280
     0
102
RTVSPost2010PropOp55
 70
     1
102
RTVSPost2010Prop56
140
1.0
102
RTVSPost2010PropOp56
 70
     1
102
RTVSPost2010Prop57
140
1.0
102
RTVSPost2010PropOp57
 70
     1
102
RTVSPropertyOp0
 70
     1
102
RTVSPropertyOp1
 70
     1
102
RTVSPropertyOp2
 70
     1
102
RTVSPropertyOp3
 70
     1
102
RTVSPropertyOp4
 70
     1
102
RTVSPropertyOp5
 70
     1
102
RTVSPropertyOp6
 70
     1
102
RTVSPropertyOp7
 70
     1
102
RTVSPropertyOp8
 70
     1
102
RTVSPropertyOp9
 70
     1
102
RTVSPropertyOp10
 70
     1
102
RTVSPropertyOp11
 70
     1
102
RTVSPropertyOp12
 70
     1
102
RTVSPropertyOp13
 70
     1
102
RTVSPropertyOp14
 70
     1
102
RTVSPropertyOp15
 70
     1
102
RTVSPropertyOp16
 70
     1
102
RTVSPropertyOp17
 70
     1
102
RTVSPropertyOp18
 70
     1
102
RTVSPropertyOp19
 70
     1
102
RTVSPropertyOp20
 70
     1
102
RTVSPropertyOp21
 70
     1
102
RTVSPropertyOp22
 70
     1
102
RTVSPropertyOp23
 70
     1
102
RTVSPropertyOp24
 70
     1
102
RTVSPropertyOp25
 70
     1
102
RTVSPropertyOp26
 70
     1
102
RTVSPropertyOp27
 70
     1
102
RTVSPropertyOp28
 70
     1
102
RTVSPropertyOp29
 70
     1
102
RTVSPropertyOp30
 70
     1
102
RTVSPropertyOp31
 70
     1
102
RTVSPropertyOp32
 70
     1
102
RTVSPropertyOp33
 70
     1
102
RTVSPropertyOp34
 70
     1
102
RTVSPropertyOp35
 70
     1
102
RTVSPropertyOp36
 70
     1
102
RTVSPropertyOp37
 70
     1
102
RTVSPropertyOp38
 70
     1
102
RTVSPropertyOp39
 70
     1
102
RTVSPropertyOp40
 70
     1
102
RTVSPropertyOp41
 70
     1
102
RTVSPropertyOp42
 70
     1
102
RTVSPropertyOp43
 70
     1
102
RTVSPropertyOp44
 70
     1
102
RTVSPropertyOp45
 70
     1
102
RTVSPropertyOp46
 70
     1
102
RTVSPropertyOp47
 70
     1
102
RTVSPropertyOp48
 70
     1
102
RTVSPropertyOp49
 70
     1
102
RTVSPropertyOp50
 70
     1
102
RTVSPropertyOp51
 70
     0
102
RTVSPropertyOp52
 70
     0
102
RTVSPropertyOp53
 70
     1
102
RTVSPropertyOp54
 70
     1
102
RTVSPropertyOp55
 70
     1
102
RTVSPropertyOp56
 70
     1
102
RTVSPropertyOp57
 70
     1
102
RTVSPropertyOp58
 70
     1
102
RTVSPropertyOp59
 70
     1
102
RTVSPropertyOp60
 70
     1
102
RTVSPropertyOp61
 70
     1
102
RTVSPropertyOp62
 70
     1
  0
XRECORD
  5
A9F2
102
{ACAD_REACTORS
330
A9F1
102
}
330
A9F1
100
AcDbXrecord
280
     1
102
RTVSPost2010Prop28
280
     0
102
RTVSPost2010PropOp28
 70
     1
102
RTVSPost2010Prop29
280
     1
102
RTVSPost2010PropOp29
 70
     1
102
RTVSPost2010Prop30
280
     1
102
RTVSPost2010PropOp30
 70
     1
102
RTVSPost2010Prop31
280
     0
102
RTVSPost2010PropOp31
 70
     1
102
RTVSPost2010Prop32
280
     0
102
RTVSPost2010PropOp32
 70
     1
102
RTVSPost2010Prop33
280
     0
102
RTVSPost2010PropOp33
 70
     1
102
RTVSPost2010Prop34
280
     0
102
RTVSPost2010PropOp34
 70
     1
102
RTVSPost2010Prop35
280
     0
102
RTVSPost2010PropOp35
 70
     1
102
RTVSPost2010Prop36
280
     0
102
RTVSPost2010PropOp36
 70
     1
102
RTVSPost2010Prop37
 90
       50
102
RTVSPost2010PropOp37
 70
     1
102
RTVSPost2010Prop38
140
0.0
102
RTVSPost2010PropOp38
 70
     1
102
RTVSPost2010Prop39
140
1.0
102
RTVSPost2010PropOp39
 70
     1
102
RTVSPost2010Prop40
 90
        0
102
RTVSPost2010PropOp40
 70
     1
102
RTVSPost2010Prop41ColorIndex
 90
       18
102
RTVSPost2010Prop41ColorRGB
 90
        0
102
RTVSPost2010PropOp41
 70
     1
102
RTVSPost2010Prop42
 90
       50
102
RTVSPost2010PropOp42
 70
     1
102
RTVSPost2010Prop43
 90
        3
102
RTVSPost2010PropOp43
 70
     1
102
RTVSPost2010Prop44ColorIndex
 90
        5
102
RTVSPost2010Prop44ColorRGB
 90
      255
102
RTVSPost2010PropOp44
 70
     1
102
RTVSPost2010Prop45
280
     0
102
RTVSPost2010PropOp45
 70
     1
102
RTVSPost2010Prop46
 90
       50
102
RTVSPost2010PropOp46
 70
     1
102
RTVSPost2010Prop47
 90
       50
102
RTVSPost2010PropOp47
 70
     1
102
RTVSPost2010Prop48
 90
       50
102
RTVSPost2010PropOp48
 70
     1
102
RTVSPost2010Prop49
280
     0
102
RTVSPost2010PropOp49
 70
     1
102
RTVSPost2010Prop50
 90
       50
102
RTVSPost2010PropOp50
 70
     1
102
RTVSPost2010Prop51ColorIndex
 90
      256
102
RTVSPost2010Prop51ColorRGB
 90
-16777216
102
RTVSPost2010PropOp51
 70
     0
102
RTVSPost2010Prop52
140
1.0
102
RTVSPost2010PropOp52
 70
     0
102
RTVSPost2010Prop53
 90
        2
102
RTVSPost2010PropOp53
 70
     1
102
RTVSPost2010Prop54
  1
strokes_ogs.tif
102
RTVSPost2010PropOp54
 70
     1
102
RTVSPost2010Prop55
280
     0
102
RTVSPost2010PropOp55
 70
     1
102
RTVSPost2010Prop56
140
1.0
102
RTVSPost2010PropOp56
 70
     1
102
RTVSPost2010Prop57
140
1.0
102
RTVSPost2010PropOp57
 70
     1
102
RTVSPropertyOp0
 70
     1
102
RTVSPropertyOp1
 70
     1
102
RTVSPropertyOp2
 70
     1
102
RTVSPropertyOp3
 70
     1
102
RTVSPropertyOp4
 70
     1
102
RTVSPropertyOp5
 70
     1
102
RTVSPropertyOp6
 70
     1
102
RTVSPropertyOp7
 70
     1
102
RTVSPropertyOp8
 70
     1
102
RTVSPropertyOp9
 70
     1
102
RTVSPropertyOp10
 70
     1
102
RTVSPropertyOp11
 70
     1
102
RTVSPropertyOp12
 70
     1
102
RTVSPropertyOp13
 70
     1
102
RTVSPropertyOp14
 70
     1
102
RTVSPropertyOp15
 70
     1
102
RTVSPropertyOp16
 70
     1
102
RTVSPropertyOp17
 70
     1
102
RTVSPropertyOp18
 70
     1
102
RTVSPropertyOp19
 70
     1
102
RTVSPropertyOp20
 70
     1
102
RTVSPropertyOp21
 70
     1
102
RTVSPropertyOp22
 70
     1
102
RTVSPropertyOp23
 70
     1
102
RTVSPropertyOp24
 70
     1
102
RTVSPropertyOp25
 70
     1
102
RTVSPropertyOp26
 70
     1
102
RTVSPropertyOp27
 70
     1
102
RTVSPropertyOp28
 70
     1
102
RTVSPropertyOp29
 70
     1
102
RTVSPropertyOp30
 70
     1
102
RTVSPropertyOp31
 70
     1
102
RTVSPropertyOp32
 70
     1
102
RTVSPropertyOp33
 70
     1
102
RTVSPropertyOp34
 70
     1
102
RTVSPropertyOp35
 70
     1
102
RTVSPropertyOp36
 70
     1
102
RTVSPropertyOp37
 70
     1
102
RTVSPropertyOp38
 70
     1
102
RTVSPropertyOp39
 70
     1
102
RTVSPropertyOp40
 70
     1
102
RTVSPropertyOp41
 70
     1
102
RTVSPropertyOp42
 70
     1
102
RTVSPropertyOp43
 70
     1
102
RTVSPropertyOp44
 70
     1
102
RTVSPropertyOp45
 70
     1
102
RTVSPropertyOp46
 70
     1
102
RTVSPropertyOp47
 70
     1
102
RTVSPropertyOp48
 70
     1
102
RTVSPropertyOp49
 70
     1
102
RTVSPropertyOp50
 70
     1
102
RTVSPropertyOp51
 70
     0
102
RTVSPropertyOp52
 70
     0
102
RTVSPropertyOp53
 70
     1
102
RTVSPropertyOp54
 70
     1
102
RTVSPropertyOp55
 70
     1
102
RTVSPropertyOp56
 70
     1
102
RTVSPropertyOp57
 70
     1
102
RTVSPropertyOp58
 70
     1
102
RTVSPropertyOp59
 70
     1
102
RTVSPropertyOp60
 70
     1
102
RTVSPropertyOp61
 70
     1
102
RTVSPropertyOp62
 70
     1
  0
XRECORD
  5
AA00
102
{ACAD_REACTORS
330
A9FF
102
}
330
A9FF
100
AcDbXrecord
280
     1
102
RTVSPost2010Prop28
280
     0
102
RTVSPost2010PropOp28
 70
     1
102
RTVSPost2010Prop29
280
     1
102
RTVSPost2010PropOp29
 70
     1
102
RTVSPost2010Prop30
280
     1
102
RTVSPost2010PropOp30
 70
     1
102
RTVSPost2010Prop31
280
     0
102
RTVSPost2010PropOp31
 70
     1
102
RTVSPost2010Prop32
280
     0
102
RTVSPost2010PropOp32
 70
     1
102
RTVSPost2010Prop33
280
     0
102
RTVSPost2010PropOp33
 70
     1
102
RTVSPost2010Prop34
280
     0
102
RTVSPost2010PropOp34
 70
     1
102
RTVSPost2010Prop35
280
     0
102
RTVSPost2010PropOp35
 70
     1
102
RTVSPost2010Prop36
280
     0
102
RTVSPost2010PropOp36
 70
     1
102
RTVSPost2010Prop37
 90
       50
102
RTVSPost2010PropOp37
 70
     1
102
RTVSPost2010Prop38
140
0.0
102
RTVSPost2010PropOp38
 70
     1
102
RTVSPost2010Prop39
140
1.0
102
RTVSPost2010PropOp39
 70
     1
102
RTVSPost2010Prop40
 90
        0
102
RTVSPost2010PropOp40
 70
     1
102
RTVSPost2010Prop41ColorIndex
 90
       18
102
RTVSPost2010Prop41ColorRGB
 90
        0
102
RTVSPost2010PropOp41
 70
     1
102
RTVSPost2010Prop42
 90
       50
102
RTVSPost2010PropOp42
 70
     1
102
RTVSPost2010Prop43
 90
        3
102
RTVSPost2010PropOp43
 70
     1
102
RTVSPost2010Prop44ColorIndex
 90
        5
102
RTVSPost2010Prop44ColorRGB
 90
      255
102
RTVSPost2010PropOp44
 70
     1
102
RTVSPost2010Prop45
280
     0
102
RTVSPost2010PropOp45
 70
     1
102
RTVSPost2010Prop46
 90
       50
102
RTVSPost2010PropOp46
 70
     1
102
RTVSPost2010Prop47
 90
       50
102
RTVSPost2010PropOp47
 70
     1
102
RTVSPost2010Prop48
 90
       50
102
RTVSPost2010PropOp48
 70
     1
102
RTVSPost2010Prop49
280
     0
102
RTVSPost2010PropOp49
 70
     1
102
RTVSPost2010Prop50
 90
       50
102
RTVSPost2010PropOp50
 70
     1
102
RTVSPost2010Prop51ColorIndex
 90
      256
102
RTVSPost2010Prop51ColorRGB
 90
-16777216
102
RTVSPost2010PropOp51
 70
     0
102
RTVSPost2010Prop52
140
1.0
102
RTVSPost2010PropOp52
 70
     0
102
RTVSPost2010Prop53
 90
        2
102
RTVSPost2010PropOp53
 70
     1
102
RTVSPost2010Prop54
  1
strokes_ogs.tif
102
RTVSPost2010PropOp54
 70
     1
102
RTVSPost2010Prop55
280
     0
102
RTVSPost2010PropOp55
 70
     1
102
RTVSPost2010Prop56
140
1.0
102
RTVSPost2010PropOp56
 70
     1
102
RTVSPost2010Prop57
140
1.0
102
RTVSPost2010PropOp57
 70
     1
102
RTVSPropertyOp0
 70
     1
102
RTVSPropertyOp1
 70
     1
102
RTVSPropertyOp2
 70
     1
102
RTVSPropertyOp3
 70
     1
102
RTVSPropertyOp4
 70
     1
102
RTVSPropertyOp5
 70
     1
102
RTVSPropertyOp6
 70
     1
102
RTVSPropertyOp7
 70
     1
102
RTVSPropertyOp8
 70
     1
102
RTVSPropertyOp9
 70
     1
102
RTVSPropertyOp10
 70
     1
102
RTVSPropertyOp11
 70
     1
102
RTVSPropertyOp12
 70
     1
102
RTVSPropertyOp13
 70
     1
102
RTVSPropertyOp14
 70
     1
102
RTVSPropertyOp15
 70
     1
102
RTVSPropertyOp16
 70
     1
102
RTVSPropertyOp17
 70
     1
102
RTVSPropertyOp18
 70
     1
102
RTVSPropertyOp19
 70
     1
102
RTVSPropertyOp20
 70
     1
102
RTVSPropertyOp21
 70
     1
102
RTVSPropertyOp22
 70
     1
102
RTVSPropertyOp23
 70
     1
102
RTVSPropertyOp24
 70
     1
102
RTVSPropertyOp25
 70
     1
102
RTVSPropertyOp26
 70
     1
102
RTVSPropertyOp27
 70
     1
102
RTVSPropertyOp28
 70
     1
102
RTVSPropertyOp29
 70
     1
102
RTVSPropertyOp30
 70
     1
102
RTVSPropertyOp31
 70
     1
102
RTVSPropertyOp32
 70
     1
102
RTVSPropertyOp33
 70
     1
102
RTVSPropertyOp34
 70
     1
102
RTVSPropertyOp35
 70
     1
102
RTVSPropertyOp36
 70
     1
102
RTVSPropertyOp37
 70
     1
102
RTVSPropertyOp38
 70
     1
102
RTVSPropertyOp39
 70
     1
102
RTVSPropertyOp40
 70
     1
102
RTVSPropertyOp41
 70
     1
102
RTVSPropertyOp42
 70
     1
102
RTVSPropertyOp43
 70
     1
102
RTVSPropertyOp44
 70
     1
102
RTVSPropertyOp45
 70
     1
102
RTVSPropertyOp46
 70
     1
102
RTVSPropertyOp47
 70
     1
102
RTVSPropertyOp48
 70
     1
102
RTVSPropertyOp49
 70
     1
102
RTVSPropertyOp50
 70
     1
102
RTVSPropertyOp51
 70
     0
102
RTVSPropertyOp52
 70
     0
102
RTVSPropertyOp53
 70
     1
102
RTVSPropertyOp54
 70
     1
102
RTVSPropertyOp55
 70
     1
102
RTVSPropertyOp56
 70
     1
102
RTVSPropertyOp57
 70
     1
102
RTVSPropertyOp58
 70
     1
102
RTVSPropertyOp59
 70
     1
102
RTVSPropertyOp60
 70
     1
102
RTVSPropertyOp61
 70
     1
102
RTVSPropertyOp62
 70
     1
  0
XRECORD
  5
AA08
102
{ACAD_REACTORS
330
AA07
102
}
330
AA07
100
AcDbXrecord
280
     1
102
RTVSPost2010Prop28
280
     0
102
RTVSPost2010PropOp28
 70
     1
102
RTVSPost2010Prop29
280
     1
102
RTVSPost2010PropOp29
 70
     1
102
RTVSPost2010Prop30
280
     1
102
RTVSPost2010PropOp30
 70
     1
102
RTVSPost2010Prop31
280
     0
102
RTVSPost2010PropOp31
 70
     1
102
RTVSPost2010Prop32
280
     0
102
RTVSPost2010PropOp32
 70
     1
102
RTVSPost2010Prop33
280
     0
102
RTVSPost2010PropOp33
 70
     1
102
RTVSPost2010Prop34
280
     0
102
RTVSPost2010PropOp34
 70
     1
102
RTVSPost2010Prop35
280
     0
102
RTVSPost2010PropOp35
 70
     1
102
RTVSPost2010Prop36
280
     0
102
RTVSPost2010PropOp36
 70
     1
102
RTVSPost2010Prop37
 90
       50
102
RTVSPost2010PropOp37
 70
     1
102
RTVSPost2010Prop38
140
0.0
102
RTVSPost2010PropOp38
 70
     1
102
RTVSPost2010Prop39
140
1.0
102
RTVSPost2010PropOp39
 70
     1
102
RTVSPost2010Prop40
 90
        0
102
RTVSPost2010PropOp40
 70
     1
102
RTVSPost2010Prop41ColorIndex
 90
       18
102
RTVSPost2010Prop41ColorRGB
 90
        0
102
RTVSPost2010PropOp41
 70
     1
102
RTVSPost2010Prop42
 90
       50
102
RTVSPost2010PropOp42
 70
     1
102
RTVSPost2010Prop43
 90
        3
102
RTVSPost2010PropOp43
 70
     1
102
RTVSPost2010Prop44ColorIndex
 90
        5
102
RTVSPost2010Prop44ColorRGB
 90
      255
102
RTVSPost2010PropOp44
 70
     1
102
RTVSPost2010Prop45
280
     0
102
RTVSPost2010PropOp45
 70
     1
102
RTVSPost2010Prop46
 90
       50
102
RTVSPost2010PropOp46
 70
     1
102
RTVSPost2010Prop47
 90
       50
102
RTVSPost2010PropOp47
 70
     1
102
RTVSPost2010Prop48
 90
       50
102
RTVSPost2010PropOp48
 70
     1
102
RTVSPost2010Prop49
280
     0
102
RTVSPost2010PropOp49
 70
     1
102
RTVSPost2010Prop50
 90
       50
102
RTVSPost2010PropOp50
 70
     1
102
RTVSPost2010Prop51ColorIndex
 90
      256
102
RTVSPost2010Prop51ColorRGB
 90
-16777216
102
RTVSPost2010PropOp51
 70
     0
102
RTVSPost2010Prop52
140
1.0
102
RTVSPost2010PropOp52
 70
     0
102
RTVSPost2010Prop53
 90
        2
102
RTVSPost2010PropOp53
 70
     1
102
RTVSPost2010Prop54
  1
strokes_ogs.tif
102
RTVSPost2010PropOp54
 70
     1
102
RTVSPost2010Prop55
280
     0
102
RTVSPost2010PropOp55
 70
     1
102
RTVSPost2010Prop56
140
1.0
102
RTVSPost2010PropOp56
 70
     1
102
RTVSPost2010Prop57
140
1.0
102
RTVSPost2010PropOp57
 70
     1
102
RTVSPropertyOp0
 70
     1
102
RTVSPropertyOp1
 70
     1
102
RTVSPropertyOp2
 70
     1
102
RTVSPropertyOp3
 70
     1
102
RTVSPropertyOp4
 70
     1
102
RTVSPropertyOp5
 70
     1
102
RTVSPropertyOp6
 70
     1
102
RTVSPropertyOp7
 70
     1
102
RTVSPropertyOp8
 70
     1
102
RTVSPropertyOp9
 70
     1
102
RTVSPropertyOp10
 70
     1
102
RTVSPropertyOp11
 70
     1
102
RTVSPropertyOp12
 70
     1
102
RTVSPropertyOp13
 70
     1
102
RTVSPropertyOp14
 70
     1
102
RTVSPropertyOp15
 70
     1
102
RTVSPropertyOp16
 70
     1
102
RTVSPropertyOp17
 70
     1
102
RTVSPropertyOp18
 70
     1
102
RTVSPropertyOp19
 70
     1
102
RTVSPropertyOp20
 70
     1
102
RTVSPropertyOp21
 70
     1
102
RTVSPropertyOp22
 70
     1
102
RTVSPropertyOp23
 70
     1
102
RTVSPropertyOp24
 70
     1
102
RTVSPropertyOp25
 70
     1
102
RTVSPropertyOp26
 70
     1
102
RTVSPropertyOp27
 70
     1
102
RTVSPropertyOp28
 70
     1
102
RTVSPropertyOp29
 70
     1
102
RTVSPropertyOp30
 70
     1
102
RTVSPropertyOp31
 70
     1
102
RTVSPropertyOp32
 70
     1
102
RTVSPropertyOp33
 70
     1
102
RTVSPropertyOp34
 70
     1
102
RTVSPropertyOp35
 70
     1
102
RTVSPropertyOp36
 70
     1
102
RTVSPropertyOp37
 70
     1
102
RTVSPropertyOp38
 70
     1
102
RTVSPropertyOp39
 70
     1
102
RTVSPropertyOp40
 70
     1
102
RTVSPropertyOp41
 70
     1
102
RTVSPropertyOp42
 70
     1
102
RTVSPropertyOp43
 70
     1
102
RTVSPropertyOp44
 70
     1
102
RTVSPropertyOp45
 70
     1
102
RTVSPropertyOp46
 70
     1
102
RTVSPropertyOp47
 70
     1
102
RTVSPropertyOp48
 70
     1
102
RTVSPropertyOp49
 70
     1
102
RTVSPropertyOp50
 70
     1
102
RTVSPropertyOp51
 70
     0
102
RTVSPropertyOp52
 70
     0
102
RTVSPropertyOp53
 70
     1
102
RTVSPropertyOp54
 70
     1
102
RTVSPropertyOp55
 70
     1
102
RTVSPropertyOp56
 70
     1
102
RTVSPropertyOp57
 70
     1
102
RTVSPropertyOp58
 70
     1
102
RTVSPropertyOp59
 70
     1
102
RTVSPropertyOp60
 70
     1
102
RTVSPropertyOp61
 70
     1
102
RTVSPropertyOp62
 70
     1
  0
XRECORD
  5
A9FA
102
{ACAD_REACTORS
330
A9F9
102
}
330
A9F9
100
AcDbXrecord
280
     1
102
RTVSPost2010Prop28
280
     0
102
RTVSPost2010PropOp28
 70
     1
102
RTVSPost2010Prop29
280
     1
102
RTVSPost2010PropOp29
 70
     1
102
RTVSPost2010Prop30
280
     1
102
RTVSPost2010PropOp30
 70
     1
102
RTVSPost2010Prop31
280
     0
102
RTVSPost2010PropOp31
 70
     1
102
RTVSPost2010Prop32
280
     0
102
RTVSPost2010PropOp32
 70
     1
102
RTVSPost2010Prop33
280
     0
102
RTVSPost2010PropOp33
 70
     1
102
RTVSPost2010Prop34
280
     0
102
RTVSPost2010PropOp34
 70
     1
102
RTVSPost2010Prop35
280
     0
102
RTVSPost2010PropOp35
 70
     1
102
RTVSPost2010Prop36
280
     0
102
RTVSPost2010PropOp36
 70
     1
102
RTVSPost2010Prop37
 90
       50
102
RTVSPost2010PropOp37
 70
     1
102
RTVSPost2010Prop38
140
0.0
102
RTVSPost2010PropOp38
 70
     1
102
RTVSPost2010Prop39
140
1.0
102
RTVSPost2010PropOp39
 70
     1
102
RTVSPost2010Prop40
 90
        0
102
RTVSPost2010PropOp40
 70
     1
102
RTVSPost2010Prop41ColorIndex
 90
       18
102
RTVSPost2010Prop41ColorRGB
 90
        0
102
RTVSPost2010PropOp41
 70
     1
102
RTVSPost2010Prop42
 90
       50
102
RTVSPost2010PropOp42
 70
     1
102
RTVSPost2010Prop43
 90
        3
102
RTVSPost2010PropOp43
 70
     1
102
RTVSPost2010Prop44ColorIndex
 90
        5
102
RTVSPost2010Prop44ColorRGB
 90
      255
102
RTVSPost2010PropOp44
 70
     1
102
RTVSPost2010Prop45
280
     0
102
RTVSPost2010PropOp45
 70
     1
102
RTVSPost2010Prop46
 90
       50
102
RTVSPost2010PropOp46
 70
     1
102
RTVSPost2010Prop47
 90
       50
102
RTVSPost2010PropOp47
 70
     1
102
RTVSPost2010Prop48
 90
       50
102
RTVSPost2010PropOp48
 70
     1
102
RTVSPost2010Prop49
280
     0
102
RTVSPost2010PropOp49
 70
     1
102
RTVSPost2010Prop50
 90
       50
102
RTVSPost2010PropOp50
 70
     1
102
RTVSPost2010Prop51ColorIndex
 90
      256
102
RTVSPost2010Prop51ColorRGB
 90
-16777216
102
RTVSPost2010PropOp51
 70
     0
102
RTVSPost2010Prop52
140
1.0
102
RTVSPost2010PropOp52
 70
     0
102
RTVSPost2010Prop53
 90
        2
102
RTVSPost2010PropOp53
 70
     1
102
RTVSPost2010Prop54
  1
strokes_ogs.tif
102
RTVSPost2010PropOp54
 70
     1
102
RTVSPost2010Prop55
280
     0
102
RTVSPost2010PropOp55
 70
     1
102
RTVSPost2010Prop56
140
1.0
102
RTVSPost2010PropOp56
 70
     1
102
RTVSPost2010Prop57
140
1.0
102
RTVSPost2010PropOp57
 70
     1
102
RTVSPropertyOp0
 70
     1
102
RTVSPropertyOp1
 70
     1
102
RTVSPropertyOp2
 70
     1
102
RTVSPropertyOp3
 70
     1
102
RTVSPropertyOp4
 70
     1
102
RTVSPropertyOp5
 70
     1
102
RTVSPropertyOp6
 70
     1
102
RTVSPropertyOp7
 70
     1
102
RTVSPropertyOp8
 70
     1
102
RTVSPropertyOp9
 70
     1
102
RTVSPropertyOp10
 70
     1
102
RTVSPropertyOp11
 70
     1
102
RTVSPropertyOp12
 70
     1
102
RTVSPropertyOp13
 70
     1
102
RTVSPropertyOp14
 70
     1
102
RTVSPropertyOp15
 70
     1
102
RTVSPropertyOp16
 70
     1
102
RTVSPropertyOp17
 70
     1
102
RTVSPropertyOp18
 70
     1
102
RTVSPropertyOp19
 70
     1
102
RTVSPropertyOp20
 70
     1
102
RTVSPropertyOp21
 70
     1
102
RTVSPropertyOp22
 70
     1
102
RTVSPropertyOp23
 70
     1
102
RTVSPropertyOp24
 70
     1
102
RTVSPropertyOp25
 70
     1
102
RTVSPropertyOp26
 70
     1
102
RTVSPropertyOp27
 70
     1
102
RTVSPropertyOp28
 70
     1
102
RTVSPropertyOp29
 70
     1
102
RTVSPropertyOp30
 70
     1
102
RTVSPropertyOp31
 70
     1
102
RTVSPropertyOp32
 70
     1
102
RTVSPropertyOp33
 70
     1
102
RTVSPropertyOp34
 70
     1
102
RTVSPropertyOp35
 70
     1
102
RTVSPropertyOp36
 70
     1
102
RTVSPropertyOp37
 70
     1
102
RTVSPropertyOp38
 70
     1
102
RTVSPropertyOp39
 70
     1
102
RTVSPropertyOp40
 70
     1
102
RTVSPropertyOp41
 70
     1
102
RTVSPropertyOp42
 70
     1
102
RTVSPropertyOp43
 70
     1
102
RTVSPropertyOp44
 70
     1
102
RTVSPropertyOp45
 70
     1
102
RTVSPropertyOp46
 70
     1
102
RTVSPropertyOp47
 70
     1
102
RTVSPropertyOp48
 70
     1
102
RTVSPropertyOp49
 70
     1
102
RTVSPropertyOp50
 70
     1
102
RTVSPropertyOp51
 70
     0
102
RTVSPropertyOp52
 70
     0
102
RTVSPropertyOp53
 70
     1
102
RTVSPropertyOp54
 70
     1
102
RTVSPropertyOp55
 70
     1
102
RTVSPropertyOp56
 70
     1
102
RTVSPropertyOp57
 70
     1
102
RTVSPropertyOp58
 70
     1
102
RTVSPropertyOp59
 70
     1
102
RTVSPropertyOp60
 70
     1
102
RTVSPropertyOp61
 70
     1
102
RTVSPropertyOp62
 70
     1
  0
XRECORD
  5
A9FE
102
{ACAD_REACTORS
330
A9FD
102
}
330
A9FD
100
AcDbXrecord
280
     1
102
RTVSPost2010Prop28
280
     0
102
RTVSPost2010PropOp28
 70
     1
102
RTVSPost2010Prop29
280
     1
102
RTVSPost2010PropOp29
 70
     1
102
RTVSPost2010Prop30
280
     1
102
RTVSPost2010PropOp30
 70
     1
102
RTVSPost2010Prop31
280
     0
102
RTVSPost2010PropOp31
 70
     1
102
RTVSPost2010Prop32
280
     0
102
RTVSPost2010PropOp32
 70
     1
102
RTVSPost2010Prop33
280
     0
102
RTVSPost2010PropOp33
 70
     1
102
RTVSPost2010Prop34
280
     0
102
RTVSPost2010PropOp34
 70
     1
102
RTVSPost2010Prop35
280
     0
102
RTVSPost2010PropOp35
 70
     1
102
RTVSPost2010Prop36
280
     0
102
RTVSPost2010PropOp36
 70
     1
102
RTVSPost2010Prop37
 90
       50
102
RTVSPost2010PropOp37
 70
     1
102
RTVSPost2010Prop38
140
0.0
102
RTVSPost2010PropOp38
 70
     1
102
RTVSPost2010Prop39
140
1.0
102
RTVSPost2010PropOp39
 70
     1
102
RTVSPost2010Prop40
 90
        0
102
RTVSPost2010PropOp40
 70
     1
102
RTVSPost2010Prop41ColorIndex
 90
       18
102
RTVSPost2010Prop41ColorRGB
 90
        0
102
RTVSPost2010PropOp41
 70
     1
102
RTVSPost2010Prop42
 90
       50
102
RTVSPost2010PropOp42
 70
     1
102
RTVSPost2010Prop43
 90
        3
102
RTVSPost2010PropOp43
 70
     1
102
RTVSPost2010Prop44ColorIndex
 90
        5
102
RTVSPost2010Prop44ColorRGB
 90
      255
102
RTVSPost2010PropOp44
 70
     1
102
RTVSPost2010Prop45
280
     0
102
RTVSPost2010PropOp45
 70
     1
102
RTVSPost2010Prop46
 90
       50
102
RTVSPost2010PropOp46
 70
     1
102
RTVSPost2010Prop47
 90
       50
102
RTVSPost2010PropOp47
 70
     1
102
RTVSPost2010Prop48
 90
       50
102
RTVSPost2010PropOp48
 70
     1
102
RTVSPost2010Prop49
280
     0
102
RTVSPost2010PropOp49
 70
     1
102
RTVSPost2010Prop50
 90
       50
102
RTVSPost2010PropOp50
 70
     1
102
RTVSPost2010Prop51ColorIndex
 90
      256
102
RTVSPost2010Prop51ColorRGB
 90
-16777216
102
RTVSPost2010PropOp51
 70
     0
102
RTVSPost2010Prop52
140
1.0
102
RTVSPost2010PropOp52
 70
     0
102
RTVSPost2010Prop53
 90
        2
102
RTVSPost2010PropOp53
 70
     1
102
RTVSPost2010Prop54
  1
strokes_ogs.tif
102
RTVSPost2010PropOp54
 70
     1
102
RTVSPost2010Prop55
280
     0
102
RTVSPost2010PropOp55
 70
     1
102
RTVSPost2010Prop56
140
1.0
102
RTVSPost2010PropOp56
 70
     1
102
RTVSPost2010Prop57
140
1.0
102
RTVSPost2010PropOp57
 70
     1
102
RTVSPropertyOp0
 70
     1
102
RTVSPropertyOp1
 70
     1
102
RTVSPropertyOp2
 70
     1
102
RTVSPropertyOp3
 70
     1
102
RTVSPropertyOp4
 70
     1
102
RTVSPropertyOp5
 70
     1
102
RTVSPropertyOp6
 70
     1
102
RTVSPropertyOp7
 70
     1
102
RTVSPropertyOp8
 70
     1
102
RTVSPropertyOp9
 70
     1
102
RTVSPropertyOp10
 70
     1
102
RTVSPropertyOp11
 70
     1
102
RTVSPropertyOp12
 70
     1
102
RTVSPropertyOp13
 70
     1
102
RTVSPropertyOp14
 70
     1
102
RTVSPropertyOp15
 70
     1
102
RTVSPropertyOp16
 70
     1
102
RTVSPropertyOp17
 70
     1
102
RTVSPropertyOp18
 70
     1
102
RTVSPropertyOp19
 70
     1
102
RTVSPropertyOp20
 70
     1
102
RTVSPropertyOp21
 70
     1
102
RTVSPropertyOp22
 70
     1
102
RTVSPropertyOp23
 70
     1
102
RTVSPropertyOp24
 70
     1
102
RTVSPropertyOp25
 70
     1
102
RTVSPropertyOp26
 70
     1
102
RTVSPropertyOp27
 70
     1
102
RTVSPropertyOp28
 70
     1
102
RTVSPropertyOp29
 70
     1
102
RTVSPropertyOp30
 70
     1
102
RTVSPropertyOp31
 70
     1
102
RTVSPropertyOp32
 70
     1
102
RTVSPropertyOp33
 70
     1
102
RTVSPropertyOp34
 70
     1
102
RTVSPropertyOp35
 70
     1
102
RTVSPropertyOp36
 70
     1
102
RTVSPropertyOp37
 70
     1
102
RTVSPropertyOp38
 70
     1
102
RTVSPropertyOp39
 70
     1
102
RTVSPropertyOp40
 70
     1
102
RTVSPropertyOp41
 70
     1
102
RTVSPropertyOp42
 70
     1
102
RTVSPropertyOp43
 70
     1
102
RTVSPropertyOp44
 70
     1
102
RTVSPropertyOp45
 70
     1
102
RTVSPropertyOp46
 70
     1
102
RTVSPropertyOp47
 70
     1
102
RTVSPropertyOp48
 70
     1
102
RTVSPropertyOp49
 70
     1
102
RTVSPropertyOp50
 70
     1
102
RTVSPropertyOp51
 70
     0
102
RTVSPropertyOp52
 70
     0
102
RTVSPropertyOp53
 70
     1
102
RTVSPropertyOp54
 70
     1
102
RTVSPropertyOp55
 70
     1
102
RTVSPropertyOp56
 70
     1
102
RTVSPropertyOp57
 70
     1
102
RTVSPropertyOp58
 70
     1
102
RTVSPropertyOp59
 70
     1
102
RTVSPropertyOp60
 70
     1
102
RTVSPropertyOp61
 70
     1
102
RTVSPropertyOp62
 70
     1
  0
XRECORD
  5
AA18
102
{ACAD_REACTORS
330
AA17
102
}
330
AA17
100
AcDbXrecord
280
     1
102
RTVSPost2010Prop28
280
     0
102
RTVSPost2010PropOp28
 70
     1
102
RTVSPost2010Prop29
280
     1
102
RTVSPost2010PropOp29
 70
     1
102
RTVSPost2010Prop30
280
     1
102
RTVSPost2010PropOp30
 70
     1
102
RTVSPost2010Prop31
280
     0
102
RTVSPost2010PropOp31
 70
     1
102
RTVSPost2010Prop32
280
     0
102
RTVSPost2010PropOp32
 70
     1
102
RTVSPost2010Prop33
280
     0
102
RTVSPost2010PropOp33
 70
     1
102
RTVSPost2010Prop34
280
     0
102
RTVSPost2010PropOp34
 70
     1
102
RTVSPost2010Prop35
280
     0
102
RTVSPost2010PropOp35
 70
     1
102
RTVSPost2010Prop36
280
     0
102
RTVSPost2010PropOp36
 70
     1
102
RTVSPost2010Prop37
 90
       50
102
RTVSPost2010PropOp37
 70
     0
102
RTVSPost2010Prop38
140
0.0
102
RTVSPost2010PropOp38
 70
     0
102
RTVSPost2010Prop39
140
1.0
102
RTVSPost2010PropOp39
 70
     0
102
RTVSPost2010Prop40
 90
        0
102
RTVSPost2010PropOp40
 70
     0
102
RTVSPost2010Prop41ColorIndex
 90
       18
102
RTVSPost2010Prop41ColorRGB
 90
        0
102
RTVSPost2010PropOp41
 70
     0
102
RTVSPost2010Prop42
 90
       50
102
RTVSPost2010PropOp42
 70
     0
102
RTVSPost2010Prop43
 90
        3
102
RTVSPost2010PropOp43
 70
     0
102
RTVSPost2010Prop44ColorIndex
 90
        5
102
RTVSPost2010Prop44ColorRGB
 90
      255
102
RTVSPost2010PropOp44
 70
     0
102
RTVSPost2010Prop45
280
     0
102
RTVSPost2010PropOp45
 70
     1
102
RTVSPost2010Prop46
 90
       50
102
RTVSPost2010PropOp46
 70
     0
102
RTVSPost2010Prop47
 90
       50
102
RTVSPost2010PropOp47
 70
     0
102
RTVSPost2010Prop48
 90
       50
102
RTVSPost2010PropOp48
 70
     0
102
RTVSPost2010Prop49
280
     0
102
RTVSPost2010PropOp49
 70
     1
102
RTVSPost2010Prop50
 90
       50
102
RTVSPost2010PropOp50
 70
     0
102
RTVSPost2010Prop51ColorIndex
 90
      256
102
RTVSPost2010Prop51ColorRGB
 90
-16777216
102
RTVSPost2010PropOp51
 70
     0
102
RTVSPost2010Prop52
140
1.0
102
RTVSPost2010PropOp52
 70
     0
102
RTVSPost2010Prop53
 90
        2
102
RTVSPost2010PropOp53
 70
     0
102
RTVSPost2010Prop54
  1
strokes_ogs.tif
102
RTVSPost2010PropOp54
 70
     0
102
RTVSPost2010Prop55
280
     0
102
RTVSPost2010PropOp55
 70
     1
102
RTVSPost2010Prop56
140
1.0
102
RTVSPost2010PropOp56
 70
     0
102
RTVSPost2010Prop57
140
1.0
102
RTVSPost2010PropOp57
 70
     0
102
RTVSPropertyOp0
 70
     0
102
RTVSPropertyOp1
 70
     0
102
RTVSPropertyOp2
 70
     0
102
RTVSPropertyOp3
 70
     0
102
RTVSPropertyOp4
 70
     0
102
RTVSPropertyOp5
 70
     0
102
RTVSPropertyOp6
 70
     0
102
RTVSPropertyOp7
 70
     0
102
RTVSPropertyOp8
 70
     0
102
RTVSPropertyOp9
 70
     0
102
RTVSPropertyOp10
 70
     0
102
RTVSPropertyOp11
 70
     0
102
RTVSPropertyOp12
 70
     0
102
RTVSPropertyOp13
 70
     0
102
RTVSPropertyOp14
 70
     2
102
RTVSPropertyOp15
 70
     0
102
RTVSPropertyOp16
 70
     0
102
RTVSPropertyOp17
 70
     0
102
RTVSPropertyOp18
 70
     0
102
RTVSPropertyOp19
 70
     0
102
RTVSPropertyOp20
 70
     0
102
RTVSPropertyOp21
 70
     0
102
RTVSPropertyOp22
 70
     0
102
RTVSPropertyOp23
 70
     0
102
RTVSPropertyOp24
 70
     0
102
RTVSPropertyOp25
 70
     0
102
RTVSPropertyOp26
 70
     0
102
RTVSPropertyOp27
 70
     0
102
RTVSPropertyOp28
 70
     1
102
RTVSPropertyOp29
 70
     1
102
RTVSPropertyOp30
 70
     1
102
RTVSPropertyOp31
 70
     1
102
RTVSPropertyOp32
 70
     1
102
RTVSPropertyOp33
 70
     1
102
RTVSPropertyOp34
 70
     1
102
RTVSPropertyOp35
 70
     1
102
RTVSPropertyOp36
 70
     1
102
RTVSPropertyOp37
 70
     0
102
RTVSPropertyOp38
 70
     0
102
RTVSPropertyOp39
 70
     0
102
RTVSPropertyOp40
 70
     0
102
RTVSPropertyOp41
 70
     0
102
RTVSPropertyOp42
 70
     0
102
RTVSPropertyOp43
 70
     0
102
RTVSPropertyOp44
 70
     0
102
RTVSPropertyOp45
 70
     1
102
RTVSPropertyOp46
 70
     0
102
RTVSPropertyOp47
 70
     0
102
RTVSPropertyOp48
 70
     0
102
RTVSPropertyOp49
 70
     1
102
RTVSPropertyOp50
 70
     0
102
RTVSPropertyOp51
 70
     0
102
RTVSPropertyOp52
 70
     0
102
RTVSPropertyOp53
 70
     0
102
RTVSPropertyOp54
 70
     0
102
RTVSPropertyOp55
 70
     1
102
RTVSPropertyOp56
 70
     0
102
RTVSPropertyOp57
 70
     0
102
RTVSPropertyOp58
 70
     0
102
RTVSPropertyOp59
 70
     0
102
RTVSPropertyOp60
 70
     0
102
RTVSPropertyOp61
 70
     0
102
RTVSPropertyOp62
 70
     0
  0
XRECORD
  5
AA06
102
{ACAD_REACTORS
330
AA05
102
}
330
AA05
100
AcDbXrecord
280
     1
102
RTVSPost2010Prop28
280
     0
102
RTVSPost2010PropOp28
 70
     1
102
RTVSPost2010Prop29
280
     1
102
RTVSPost2010PropOp29
 70
     1
102
RTVSPost2010Prop30
280
     1
102
RTVSPost2010PropOp30
 70
     1
102
RTVSPost2010Prop31
280
     0
102
RTVSPost2010PropOp31
 70
     1
102
RTVSPost2010Prop32
280
     0
102
RTVSPost2010PropOp32
 70
     1
102
RTVSPost2010Prop33
280
     0
102
RTVSPost2010PropOp33
 70
     1
102
RTVSPost2010Prop34
280
     0
102
RTVSPost2010PropOp34
 70
     1
102
RTVSPost2010Prop35
280
     0
102
RTVSPost2010PropOp35
 70
     1
102
RTVSPost2010Prop36
280
     0
102
RTVSPost2010PropOp36
 70
     1
102
RTVSPost2010Prop37
 90
       50
102
RTVSPost2010PropOp37
 70
     1
102
RTVSPost2010Prop38
140
0.0
102
RTVSPost2010PropOp38
 70
     1
102
RTVSPost2010Prop39
140
1.0
102
RTVSPost2010PropOp39
 70
     1
102
RTVSPost2010Prop40
 90
        0
102
RTVSPost2010PropOp40
 70
     1
102
RTVSPost2010Prop41ColorIndex
 90
       18
102
RTVSPost2010Prop41ColorRGB
 90
        0
102
RTVSPost2010PropOp41
 70
     1
102
RTVSPost2010Prop42
 90
       50
102
RTVSPost2010PropOp42
 70
     1
102
RTVSPost2010Prop43
 90
        3
102
RTVSPost2010PropOp43
 70
     1
102
RTVSPost2010Prop44ColorIndex
 90
        5
102
RTVSPost2010Prop44ColorRGB
 90
      255
102
RTVSPost2010PropOp44
 70
     1
102
RTVSPost2010Prop45
280
     0
102
RTVSPost2010PropOp45
 70
     1
102
RTVSPost2010Prop46
 90
       50
102
RTVSPost2010PropOp46
 70
     1
102
RTVSPost2010Prop47
 90
       50
102
RTVSPost2010PropOp47
 70
     1
102
RTVSPost2010Prop48
 90
       50
102
RTVSPost2010PropOp48
 70
     1
102
RTVSPost2010Prop49
280
     0
102
RTVSPost2010PropOp49
 70
     1
102
RTVSPost2010Prop50
 90
       50
102
RTVSPost2010PropOp50
 70
     1
102
RTVSPost2010Prop51ColorIndex
 90
      256
102
RTVSPost2010Prop51ColorRGB
 90
-16777216
102
RTVSPost2010PropOp51
 70
     0
102
RTVSPost2010Prop52
140
1.0
102
RTVSPost2010PropOp52
 70
     0
102
RTVSPost2010Prop53
 90
        2
102
RTVSPost2010PropOp53
 70
     1
102
RTVSPost2010Prop54
  1
strokes_ogs.tif
102
RTVSPost2010PropOp54
 70
     1
102
RTVSPost2010Prop55
280
     0
102
RTVSPost2010PropOp55
 70
     1
102
RTVSPost2010Prop56
140
1.0
102
RTVSPost2010PropOp56
 70
     1
102
RTVSPost2010Prop57
140
1.0
102
RTVSPost2010PropOp57
 70
     1
102
RTVSPropertyOp0
 70
     1
102
RTVSPropertyOp1
 70
     1
102
RTVSPropertyOp2
 70
     1
102
RTVSPropertyOp3
 70
     1
102
RTVSPropertyOp4
 70
     1
102
RTVSPropertyOp5
 70
     1
102
RTVSPropertyOp6
 70
     1
102
RTVSPropertyOp7
 70
     1
102
RTVSPropertyOp8
 70
     1
102
RTVSPropertyOp9
 70
     1
102
RTVSPropertyOp10
 70
     1
102
RTVSPropertyOp11
 70
     1
102
RTVSPropertyOp12
 70
     1
102
RTVSPropertyOp13
 70
     1
102
RTVSPropertyOp14
 70
     1
102
RTVSPropertyOp15
 70
     1
102
RTVSPropertyOp16
 70
     1
102
RTVSPropertyOp17
 70
     1
102
RTVSPropertyOp18
 70
     1
102
RTVSPropertyOp19
 70
     1
102
RTVSPropertyOp20
 70
     1
102
RTVSPropertyOp21
 70
     1
102
RTVSPropertyOp22
 70
     1
102
RTVSPropertyOp23
 70
     1
102
RTVSPropertyOp24
 70
     1
102
RTVSPropertyOp25
 70
     1
102
RTVSPropertyOp26
 70
     1
102
RTVSPropertyOp27
 70
     1
102
RTVSPropertyOp28
 70
     1
102
RTVSPropertyOp29
 70
     1
102
RTVSPropertyOp30
 70
     1
102
RTVSPropertyOp31
 70
     1
102
RTVSPropertyOp32
 70
     1
102
RTVSPropertyOp33
 70
     1
102
RTVSPropertyOp34
 70
     1
102
RTVSPropertyOp35
 70
     1
102
RTVSPropertyOp36
 70
     1
102
RTVSPropertyOp37
 70
     1
102
RTVSPropertyOp38
 70
     1
102
RTVSPropertyOp39
 70
     1
102
RTVSPropertyOp40
 70
     1
102
RTVSPropertyOp41
 70
     1
102
RTVSPropertyOp42
 70
     1
102
RTVSPropertyOp43
 70
     1
102
RTVSPropertyOp44
 70
     1
102
RTVSPropertyOp45
 70
     1
102
RTVSPropertyOp46
 70
     1
102
RTVSPropertyOp47
 70
     1
102
RTVSPropertyOp48
 70
     1
102
RTVSPropertyOp49
 70
     1
102
RTVSPropertyOp50
 70
     1
102
RTVSPropertyOp51
 70
     0
102
RTVSPropertyOp52
 70
     0
102
RTVSPropertyOp53
 70
     1
102
RTVSPropertyOp54
 70
     1
102
RTVSPropertyOp55
 70
     1
102
RTVSPropertyOp56
 70
     1
102
RTVSPropertyOp57
 70
     1
102
RTVSPropertyOp58
 70
     1
102
RTVSPropertyOp59
 70
     1
102
RTVSPropertyOp60
 70
     1
102
RTVSPropertyOp61
 70
     1
102
RTVSPropertyOp62
 70
     1
  0
XRECORD
  5
A9EA
102
{ACAD_REACTORS
330
A9E9
102
}
330
A9E9
100
AcDbXrecord
280
     1
102
RTVSPost2010Prop28
280
     0
102
RTVSPost2010PropOp28
 70
     1
102
RTVSPost2010Prop29
280
     1
102
RTVSPost2010PropOp29
 70
     1
102
RTVSPost2010Prop30
280
     1
102
RTVSPost2010PropOp30
 70
     1
102
RTVSPost2010Prop31
280
     0
102
RTVSPost2010PropOp31
 70
     1
102
RTVSPost2010Prop32
280
     0
102
RTVSPost2010PropOp32
 70
     1
102
RTVSPost2010Prop33
280
     0
102
RTVSPost2010PropOp33
 70
     1
102
RTVSPost2010Prop34
280
     0
102
RTVSPost2010PropOp34
 70
     1
102
RTVSPost2010Prop35
280
     0
102
RTVSPost2010PropOp35
 70
     1
102
RTVSPost2010Prop36
280
     0
102
RTVSPost2010PropOp36
 70
     1
102
RTVSPost2010Prop37
 90
       50
102
RTVSPost2010PropOp37
 70
     1
102
RTVSPost2010Prop38
140
0.0
102
RTVSPost2010PropOp38
 70
     1
102
RTVSPost2010Prop39
140
1.0
102
RTVSPost2010PropOp39
 70
     1
102
RTVSPost2010Prop40
 90
        0
102
RTVSPost2010PropOp40
 70
     1
102
RTVSPost2010Prop41ColorIndex
 90
       18
102
RTVSPost2010Prop41ColorRGB
 90
        0
102
RTVSPost2010PropOp41
 70
     1
102
RTVSPost2010Prop42
 90
       50
102
RTVSPost2010PropOp42
 70
     1
102
RTVSPost2010Prop43
 90
        3
102
RTVSPost2010PropOp43
 70
     1
102
RTVSPost2010Prop44ColorIndex
 90
        5
102
RTVSPost2010Prop44ColorRGB
 90
      255
102
RTVSPost2010PropOp44
 70
     1
102
RTVSPost2010Prop45
280
     0
102
RTVSPost2010PropOp45
 70
     1
102
RTVSPost2010Prop46
 90
       50
102
RTVSPost2010PropOp46
 70
     1
102
RTVSPost2010Prop47
 90
       50
102
RTVSPost2010PropOp47
 70
     1
102
RTVSPost2010Prop48
 90
       50
102
RTVSPost2010PropOp48
 70
     1
102
RTVSPost2010Prop49
280
     0
102
RTVSPost2010PropOp49
 70
     1
102
RTVSPost2010Prop50
 90
       50
102
RTVSPost2010PropOp50
 70
     1
102
RTVSPost2010Prop51ColorIndex
 90
      256
102
RTVSPost2010Prop51ColorRGB
 90
-16777216
102
RTVSPost2010PropOp51
 70
     0
102
RTVSPost2010Prop52
140
1.0
102
RTVSPost2010PropOp52
 70
     0
102
RTVSPost2010Prop53
 90
        2
102
RTVSPost2010PropOp53
 70
     1
102
RTVSPost2010Prop54
  1
strokes_ogs.tif
102
RTVSPost2010PropOp54
 70
     1
102
RTVSPost2010Prop55
280
     0
102
RTVSPost2010PropOp55
 70
     1
102
RTVSPost2010Prop56
140
1.0
102
RTVSPost2010PropOp56
 70
     1
102
RTVSPost2010Prop57
140
1.0
102
RTVSPost2010PropOp57
 70
     1
102
RTVSPropertyOp0
 70
     1
102
RTVSPropertyOp1
 70
     1
102
RTVSPropertyOp2
 70
     1
102
RTVSPropertyOp3
 70
     1
102
RTVSPropertyOp4
 70
     1
102
RTVSPropertyOp5
 70
     1
102
RTVSPropertyOp6
 70
     1
102
RTVSPropertyOp7
 70
     1
102
RTVSPropertyOp8
 70
     1
102
RTVSPropertyOp9
 70
     1
102
RTVSPropertyOp10
 70
     1
102
RTVSPropertyOp11
 70
     1
102
RTVSPropertyOp12
 70
     1
102
RTVSPropertyOp13
 70
     1
102
RTVSPropertyOp14
 70
     1
102
RTVSPropertyOp15
 70
     1
102
RTVSPropertyOp16
 70
     1
102
RTVSPropertyOp17
 70
     1
102
RTVSPropertyOp18
 70
     1
102
RTVSPropertyOp19
 70
     1
102
RTVSPropertyOp20
 70
     1
102
RTVSPropertyOp21
 70
     1
102
RTVSPropertyOp22
 70
     1
102
RTVSPropertyOp23
 70
     1
102
RTVSPropertyOp24
 70
     1
102
RTVSPropertyOp25
 70
     1
102
RTVSPropertyOp26
 70
     1
102
RTVSPropertyOp27
 70
     1
102
RTVSPropertyOp28
 70
     1
102
RTVSPropertyOp29
 70
     1
102
RTVSPropertyOp30
 70
     1
102
RTVSPropertyOp31
 70
     1
102
RTVSPropertyOp32
 70
     1
102
RTVSPropertyOp33
 70
     1
102
RTVSPropertyOp34
 70
     1
102
RTVSPropertyOp35
 70
     1
102
RTVSPropertyOp36
 70
     1
102
RTVSPropertyOp37
 70
     1
102
RTVSPropertyOp38
 70
     1
102
RTVSPropertyOp39
 70
     1
102
RTVSPropertyOp40
 70
     1
102
RTVSPropertyOp41
 70
     1
102
RTVSPropertyOp42
 70
     1
102
RTVSPropertyOp43
 70
     1
102
RTVSPropertyOp44
 70
     1
102
RTVSPropertyOp45
 70
     1
102
RTVSPropertyOp46
 70
     1
102
RTVSPropertyOp47
 70
     1
102
RTVSPropertyOp48
 70
     1
102
RTVSPropertyOp49
 70
     1
102
RTVSPropertyOp50
 70
     1
102
RTVSPropertyOp51
 70
     0
102
RTVSPropertyOp52
 70
     0
102
RTVSPropertyOp53
 70
     1
102
RTVSPropertyOp54
 70
     1
102
RTVSPropertyOp55
 70
     1
102
RTVSPropertyOp56
 70
     1
102
RTVSPropertyOp57
 70
     1
102
RTVSPropertyOp58
 70
     1
102
RTVSPropertyOp59
 70
     1
102
RTVSPropertyOp60
 70
     1
102
RTVSPropertyOp61
 70
     1
102
RTVSPropertyOp62
 70
     1
  0
XRECORD
  5
A9EC
102
{ACAD_REACTORS
330
A9EB
102
}
330
A9EB
100
AcDbXrecord
280
     1
102
RTVSPost2010Prop28
280
     0
102
RTVSPost2010PropOp28
 70
     1
102
RTVSPost2010Prop29
280
     1
102
RTVSPost2010PropOp29
 70
     1
102
RTVSPost2010Prop30
280
     1
102
RTVSPost2010PropOp30
 70
     1
102
RTVSPost2010Prop31
280
     0
102
RTVSPost2010PropOp31
 70
     1
102
RTVSPost2010Prop32
280
     0
102
RTVSPost2010PropOp32
 70
     1
102
RTVSPost2010Prop33
280
     0
102
RTVSPost2010PropOp33
 70
     1
102
RTVSPost2010Prop34
280
     0
102
RTVSPost2010PropOp34
 70
     1
102
RTVSPost2010Prop35
280
     0
102
RTVSPost2010PropOp35
 70
     1
102
RTVSPost2010Prop36
280
     0
102
RTVSPost2010PropOp36
 70
     1
102
RTVSPost2010Prop37
 90
       50
102
RTVSPost2010PropOp37
 70
     1
102
RTVSPost2010Prop38
140
0.0
102
RTVSPost2010PropOp38
 70
     1
102
RTVSPost2010Prop39
140
1.0
102
RTVSPost2010PropOp39
 70
     1
102
RTVSPost2010Prop40
 90
        0
102
RTVSPost2010PropOp40
 70
     1
102
RTVSPost2010Prop41ColorIndex
 90
       18
102
RTVSPost2010Prop41ColorRGB
 90
        0
102
RTVSPost2010PropOp41
 70
     1
102
RTVSPost2010Prop42
 90
       50
102
RTVSPost2010PropOp42
 70
     1
102
RTVSPost2010Prop43
 90
        3
102
RTVSPost2010PropOp43
 70
     1
102
RTVSPost2010Prop44ColorIndex
 90
        5
102
RTVSPost2010Prop44ColorRGB
 90
      255
102
RTVSPost2010PropOp44
 70
     1
102
RTVSPost2010Prop45
280
     0
102
RTVSPost2010PropOp45
 70
     1
102
RTVSPost2010Prop46
 90
       50
102
RTVSPost2010PropOp46
 70
     1
102
RTVSPost2010Prop47
 90
       50
102
RTVSPost2010PropOp47
 70
     1
102
RTVSPost2010Prop48
 90
       50
102
RTVSPost2010PropOp48
 70
     1
102
RTVSPost2010Prop49
280
     0
102
RTVSPost2010PropOp49
 70
     1
102
RTVSPost2010Prop50
 90
       50
102
RTVSPost2010PropOp50
 70
     1
102
RTVSPost2010Prop51ColorIndex
 90
      256
102
RTVSPost2010Prop51ColorRGB
 90
-16777216
102
RTVSPost2010PropOp51
 70
     0
102
RTVSPost2010Prop52
140
1.0
102
RTVSPost2010PropOp52
 70
     0
102
RTVSPost2010Prop53
 90
        2
102
RTVSPost2010PropOp53
 70
     1
102
RTVSPost2010Prop54
  1
strokes_ogs.tif
102
RTVSPost2010PropOp54
 70
     1
102
RTVSPost2010Prop55
280
     0
102
RTVSPost2010PropOp55
 70
     1
102
RTVSPost2010Prop56
140
1.0
102
RTVSPost2010PropOp56
 70
     1
102
RTVSPost2010Prop57
140
1.0
102
RTVSPost2010PropOp57
 70
     1
102
RTVSPropertyOp0
 70
     1
102
RTVSPropertyOp1
 70
     1
102
RTVSPropertyOp2
 70
     1
102
RTVSPropertyOp3
 70
     1
102
RTVSPropertyOp4
 70
     1
102
RTVSPropertyOp5
 70
     1
102
RTVSPropertyOp6
 70
     1
102
RTVSPropertyOp7
 70
     1
102
RTVSPropertyOp8
 70
     1
102
RTVSPropertyOp9
 70
     1
102
RTVSPropertyOp10
 70
     1
102
RTVSPropertyOp11
 70
     1
102
RTVSPropertyOp12
 70
     1
102
RTVSPropertyOp13
 70
     1
102
RTVSPropertyOp14
 70
     1
102
RTVSPropertyOp15
 70
     1
102
RTVSPropertyOp16
 70
     1
102
RTVSPropertyOp17
 70
     1
102
RTVSPropertyOp18
 70
     1
102
RTVSPropertyOp19
 70
     1
102
RTVSPropertyOp20
 70
     1
102
RTVSPropertyOp21
 70
     1
102
RTVSPropertyOp22
 70
     1
102
RTVSPropertyOp23
 70
     1
102
RTVSPropertyOp24
 70
     1
102
RTVSPropertyOp25
 70
     1
102
RTVSPropertyOp26
 70
     1
102
RTVSPropertyOp27
 70
     1
102
RTVSPropertyOp28
 70
     1
102
RTVSPropertyOp29
 70
     1
102
RTVSPropertyOp30
 70
     1
102
RTVSPropertyOp31
 70
     1
102
RTVSPropertyOp32
 70
     1
102
RTVSPropertyOp33
 70
     1
102
RTVSPropertyOp34
 70
     1
102
RTVSPropertyOp35
 70
     1
102
RTVSPropertyOp36
 70
     1
102
RTVSPropertyOp37
 70
     1
102
RTVSPropertyOp38
 70
     1
102
RTVSPropertyOp39
 70
     1
102
RTVSPropertyOp40
 70
     1
102
RTVSPropertyOp41
 70
     1
102
RTVSPropertyOp42
 70
     1
102
RTVSPropertyOp43
 70
     1
102
RTVSPropertyOp44
 70
     1
102
RTVSPropertyOp45
 70
     1
102
RTVSPropertyOp46
 70
     1
102
RTVSPropertyOp47
 70
     1
102
RTVSPropertyOp48
 70
     1
102
RTVSPropertyOp49
 70
     1
102
RTVSPropertyOp50
 70
     1
102
RTVSPropertyOp51
 70
     0
102
RTVSPropertyOp52
 70
     0
102
RTVSPropertyOp53
 70
     1
102
RTVSPropertyOp54
 70
     1
102
RTVSPropertyOp55
 70
     1
102
RTVSPropertyOp56
 70
     1
102
RTVSPropertyOp57
 70
     1
102
RTVSPropertyOp58
 70
     1
102
RTVSPropertyOp59
 70
     1
102
RTVSPropertyOp60
 70
     1
102
RTVSPropertyOp61
 70
     1
102
RTVSPropertyOp62
 70
     1
  0
XRECORD
  5
A9EE
102
{ACAD_REACTORS
330
A9ED
102
}
330
A9ED
100
AcDbXrecord
280
     1
102
RTVSPost2010Prop28
280
     0
102
RTVSPost2010PropOp28
 70
     1
102
RTVSPost2010Prop29
280
     1
102
RTVSPost2010PropOp29
 70
     1
102
RTVSPost2010Prop30
280
     1
102
RTVSPost2010PropOp30
 70
     1
102
RTVSPost2010Prop31
280
     0
102
RTVSPost2010PropOp31
 70
     1
102
RTVSPost2010Prop32
280
     0
102
RTVSPost2010PropOp32
 70
     1
102
RTVSPost2010Prop33
280
     0
102
RTVSPost2010PropOp33
 70
     1
102
RTVSPost2010Prop34
280
     0
102
RTVSPost2010PropOp34
 70
     1
102
RTVSPost2010Prop35
280
     0
102
RTVSPost2010PropOp35
 70
     1
102
RTVSPost2010Prop36
280
     0
102
RTVSPost2010PropOp36
 70
     1
102
RTVSPost2010Prop37
 90
       50
102
RTVSPost2010PropOp37
 70
     1
102
RTVSPost2010Prop38
140
0.0
102
RTVSPost2010PropOp38
 70
     1
102
RTVSPost2010Prop39
140
1.0
102
RTVSPost2010PropOp39
 70
     1
102
RTVSPost2010Prop40
 90
        0
102
RTVSPost2010PropOp40
 70
     1
102
RTVSPost2010Prop41ColorIndex
 90
       18
102
RTVSPost2010Prop41ColorRGB
 90
        0
102
RTVSPost2010PropOp41
 70
     1
102
RTVSPost2010Prop42
 90
       50
102
RTVSPost2010PropOp42
 70
     1
102
RTVSPost2010Prop43
 90
        3
102
RTVSPost2010PropOp43
 70
     1
102
RTVSPost2010Prop44ColorIndex
 90
        5
102
RTVSPost2010Prop44ColorRGB
 90
      255
102
RTVSPost2010PropOp44
 70
     1
102
RTVSPost2010Prop45
280
     0
102
RTVSPost2010PropOp45
 70
     1
102
RTVSPost2010Prop46
 90
       50
102
RTVSPost2010PropOp46
 70
     1
102
RTVSPost2010Prop47
 90
       50
102
RTVSPost2010PropOp47
 70
     1
102
RTVSPost2010Prop48
 90
       50
102
RTVSPost2010PropOp48
 70
     1
102
RTVSPost2010Prop49
280
     0
102
RTVSPost2010PropOp49
 70
     1
102
RTVSPost2010Prop50
 90
       50
102
RTVSPost2010PropOp50
 70
     1
102
RTVSPost2010Prop51ColorIndex
 90
      256
102
RTVSPost2010Prop51ColorRGB
 90
-16777216
102
RTVSPost2010PropOp51
 70
     0
102
RTVSPost2010Prop52
140
1.0
102
RTVSPost2010PropOp52
 70
     0
102
RTVSPost2010Prop53
 90
        2
102
RTVSPost2010PropOp53
 70
     1
102
RTVSPost2010Prop54
  1
strokes_ogs.tif
102
RTVSPost2010PropOp54
 70
     1
102
RTVSPost2010Prop55
280
     0
102
RTVSPost2010PropOp55
 70
     1
102
RTVSPost2010Prop56
140
1.0
102
RTVSPost2010PropOp56
 70
     1
102
RTVSPost2010Prop57
140
1.0
102
RTVSPost2010PropOp57
 70
     1
102
RTVSPropertyOp0
 70
     1
102
RTVSPropertyOp1
 70
     1
102
RTVSPropertyOp2
 70
     1
102
RTVSPropertyOp3
 70
     1
102
RTVSPropertyOp4
 70
     1
102
RTVSPropertyOp5
 70
     1
102
RTVSPropertyOp6
 70
     1
102
RTVSPropertyOp7
 70
     1
102
RTVSPropertyOp8
 70
     1
102
RTVSPropertyOp9
 70
     1
102
RTVSPropertyOp10
 70
     1
102
RTVSPropertyOp11
 70
     1
102
RTVSPropertyOp12
 70
     1
102
RTVSPropertyOp13
 70
     1
102
RTVSPropertyOp14
 70
     1
102
RTVSPropertyOp15
 70
     1
102
RTVSPropertyOp16
 70
     1
102
RTVSPropertyOp17
 70
     1
102
RTVSPropertyOp18
 70
     1
102
RTVSPropertyOp19
 70
     1
102
RTVSPropertyOp20
 70
     1
102
RTVSPropertyOp21
 70
     1
102
RTVSPropertyOp22
 70
     1
102
RTVSPropertyOp23
 70
     1
102
RTVSPropertyOp24
 70
     1
102
RTVSPropertyOp25
 70
     1
102
RTVSPropertyOp26
 70
     1
102
RTVSPropertyOp27
 70
     1
102
RTVSPropertyOp28
 70
     1
102
RTVSPropertyOp29
 70
     1
102
RTVSPropertyOp30
 70
     1
102
RTVSPropertyOp31
 70
     1
102
RTVSPropertyOp32
 70
     1
102
RTVSPropertyOp33
 70
     1
102
RTVSPropertyOp34
 70
     1
102
RTVSPropertyOp35
 70
     1
102
RTVSPropertyOp36
 70
     1
102
RTVSPropertyOp37
 70
     1
102
RTVSPropertyOp38
 70
     1
102
RTVSPropertyOp39
 70
     1
102
RTVSPropertyOp40
 70
     1
102
RTVSPropertyOp41
 70
     1
102
RTVSPropertyOp42
 70
     1
102
RTVSPropertyOp43
 70
     1
102
RTVSPropertyOp44
 70
     1
102
RTVSPropertyOp45
 70
     1
102
RTVSPropertyOp46
 70
     1
102
RTVSPropertyOp47
 70
     1
102
RTVSPropertyOp48
 70
     1
102
RTVSPropertyOp49
 70
     1
102
RTVSPropertyOp50
 70
     1
102
RTVSPropertyOp51
 70
     0
102
RTVSPropertyOp52
 70
     0
102
RTVSPropertyOp53
 70
     1
102
RTVSPropertyOp54
 70
     1
102
RTVSPropertyOp55
 70
     1
102
RTVSPropertyOp56
 70
     1
102
RTVSPropertyOp57
 70
     1
102
RTVSPropertyOp58
 70
     1
102
RTVSPropertyOp59
 70
     1
102
RTVSPropertyOp60
 70
     1
102
RTVSPropertyOp61
 70
     1
102
RTVSPropertyOp62
 70
     1
  0
XRECORD
  5
A9F0
102
{ACAD_REACTORS
330
A9EF
102
}
330
A9EF
100
AcDbXrecord
280
     1
102
RTVSPost2010Prop28
280
     0
102
RTVSPost2010PropOp28
 70
     1
102
RTVSPost2010Prop29
280
     1
102
RTVSPost2010PropOp29
 70
     1
102
RTVSPost2010Prop30
280
     1
102
RTVSPost2010PropOp30
 70
     1
102
RTVSPost2010Prop31
280
     0
102
RTVSPost2010PropOp31
 70
     1
102
RTVSPost2010Prop32
280
     0
102
RTVSPost2010PropOp32
 70
     1
102
RTVSPost2010Prop33
280
     0
102
RTVSPost2010PropOp33
 70
     1
102
RTVSPost2010Prop34
280
     0
102
RTVSPost2010PropOp34
 70
     1
102
RTVSPost2010Prop35
280
     0
102
RTVSPost2010PropOp35
 70
     1
102
RTVSPost2010Prop36
280
     0
102
RTVSPost2010PropOp36
 70
     1
102
RTVSPost2010Prop37
 90
       50
102
RTVSPost2010PropOp37
 70
     1
102
RTVSPost2010Prop38
140
0.0
102
RTVSPost2010PropOp38
 70
     1
102
RTVSPost2010Prop39
140
1.0
102
RTVSPost2010PropOp39
 70
     1
102
RTVSPost2010Prop40
 90
        0
102
RTVSPost2010PropOp40
 70
     1
102
RTVSPost2010Prop41ColorIndex
 90
       18
102
RTVSPost2010Prop41ColorRGB
 90
        0
102
RTVSPost2010PropOp41
 70
     1
102
RTVSPost2010Prop42
 90
       50
102
RTVSPost2010PropOp42
 70
     1
102
RTVSPost2010Prop43
 90
        3
102
RTVSPost2010PropOp43
 70
     1
102
RTVSPost2010Prop44ColorIndex
 90
        5
102
RTVSPost2010Prop44ColorRGB
 90
      255
102
RTVSPost2010PropOp44
 70
     1
102
RTVSPost2010Prop45
280
     0
102
RTVSPost2010PropOp45
 70
     1
102
RTVSPost2010Prop46
 90
       50
102
RTVSPost2010PropOp46
 70
     1
102
RTVSPost2010Prop47
 90
       50
102
RTVSPost2010PropOp47
 70
     1
102
RTVSPost2010Prop48
 90
       50
102
RTVSPost2010PropOp48
 70
     1
102
RTVSPost2010Prop49
280
     0
102
RTVSPost2010PropOp49
 70
     1
102
RTVSPost2010Prop50
 90
       50
102
RTVSPost2010PropOp50
 70
     1
102
RTVSPost2010Prop51ColorIndex
 90
      256
102
RTVSPost2010Prop51ColorRGB
 90
-16777216
102
RTVSPost2010PropOp51
 70
     0
102
RTVSPost2010Prop52
140
1.0
102
RTVSPost2010PropOp52
 70
     0
102
RTVSPost2010Prop53
 90
        2
102
RTVSPost2010PropOp53
 70
     1
102
RTVSPost2010Prop54
  1
strokes_ogs.tif
102
RTVSPost2010PropOp54
 70
     1
102
RTVSPost2010Prop55
280
     0
102
RTVSPost2010PropOp55
 70
     1
102
RTVSPost2010Prop56
140
1.0
102
RTVSPost2010PropOp56
 70
     1
102
RTVSPost2010Prop57
140
1.0
102
RTVSPost2010PropOp57
 70
     1
102
RTVSPropertyOp0
 70
     1
102
RTVSPropertyOp1
 70
     1
102
RTVSPropertyOp2
 70
     1
102
RTVSPropertyOp3
 70
     1
102
RTVSPropertyOp4
 70
     1
102
RTVSPropertyOp5
 70
     1
102
RTVSPropertyOp6
 70
     1
102
RTVSPropertyOp7
 70
     1
102
RTVSPropertyOp8
 70
     1
102
RTVSPropertyOp9
 70
     1
102
RTVSPropertyOp10
 70
     1
102
RTVSPropertyOp11
 70
     1
102
RTVSPropertyOp12
 70
     1
102
RTVSPropertyOp13
 70
     1
102
RTVSPropertyOp14
 70
     1
102
RTVSPropertyOp15
 70
     1
102
RTVSPropertyOp16
 70
     1
102
RTVSPropertyOp17
 70
     1
102
RTVSPropertyOp18
 70
     1
102
RTVSPropertyOp19
 70
     1
102
RTVSPropertyOp20
 70
     1
102
RTVSPropertyOp21
 70
     1
102
RTVSPropertyOp22
 70
     1
102
RTVSPropertyOp23
 70
     1
102
RTVSPropertyOp24
 70
     1
102
RTVSPropertyOp25
 70
     1
102
RTVSPropertyOp26
 70
     1
102
RTVSPropertyOp27
 70
     1
102
RTVSPropertyOp28
 70
     1
102
RTVSPropertyOp29
 70
     1
102
RTVSPropertyOp30
 70
     1
102
RTVSPropertyOp31
 70
     1
102
RTVSPropertyOp32
 70
     1
102
RTVSPropertyOp33
 70
     1
102
RTVSPropertyOp34
 70
     1
102
RTVSPropertyOp35
 70
     1
102
RTVSPropertyOp36
 70
     1
102
RTVSPropertyOp37
 70
     1
102
RTVSPropertyOp38
 70
     1
102
RTVSPropertyOp39
 70
     1
102
RTVSPropertyOp40
 70
     1
102
RTVSPropertyOp41
 70
     1
102
RTVSPropertyOp42
 70
     1
102
RTVSPropertyOp43
 70
     1
102
RTVSPropertyOp44
 70
     1
102
RTVSPropertyOp45
 70
     1
102
RTVSPropertyOp46
 70
     1
102
RTVSPropertyOp47
 70
     1
102
RTVSPropertyOp48
 70
     1
102
RTVSPropertyOp49
 70
     1
102
RTVSPropertyOp50
 70
     1
102
RTVSPropertyOp51
 70
     0
102
RTVSPropertyOp52
 70
     0
102
RTVSPropertyOp53
 70
     1
102
RTVSPropertyOp54
 70
     1
102
RTVSPropertyOp55
 70
     1
102
RTVSPropertyOp56
 70
     1
102
RTVSPropertyOp57
 70
     1
102
RTVSPropertyOp58
 70
     1
102
RTVSPropertyOp59
 70
     1
102
RTVSPropertyOp60
 70
     1
102
RTVSPropertyOp61
 70
     1
102
RTVSPropertyOp62
 70
     1
  0
XRECORD
  5
A9F8
102
{ACAD_REACTORS
330
A9F7
102
}
330
A9F7
100
AcDbXrecord
280
     1
102
RTVSPost2010Prop28
280
     0
102
RTVSPost2010PropOp28
 70
     1
102
RTVSPost2010Prop29
280
     1
102
RTVSPost2010PropOp29
 70
     1
102
RTVSPost2010Prop30
280
     1
102
RTVSPost2010PropOp30
 70
     1
102
RTVSPost2010Prop31
280
     0
102
RTVSPost2010PropOp31
 70
     1
102
RTVSPost2010Prop32
280
     0
102
RTVSPost2010PropOp32
 70
     1
102
RTVSPost2010Prop33
280
     0
102
RTVSPost2010PropOp33
 70
     1
102
RTVSPost2010Prop34
280
     0
102
RTVSPost2010PropOp34
 70
     1
102
RTVSPost2010Prop35
280
     0
102
RTVSPost2010PropOp35
 70
     1
102
RTVSPost2010Prop36
280
     0
102
RTVSPost2010PropOp36
 70
     1
102
RTVSPost2010Prop37
 90
       50
102
RTVSPost2010PropOp37
 70
     1
102
RTVSPost2010Prop38
140
0.0
102
RTVSPost2010PropOp38
 70
     1
102
RTVSPost2010Prop39
140
1.0
102
RTVSPost2010PropOp39
 70
     1
102
RTVSPost2010Prop40
 90
        0
102
RTVSPost2010PropOp40
 70
     1
102
RTVSPost2010Prop41ColorIndex
 90
       18
102
RTVSPost2010Prop41ColorRGB
 90
        0
102
RTVSPost2010PropOp41
 70
     1
102
RTVSPost2010Prop42
 90
       50
102
RTVSPost2010PropOp42
 70
     1
102
RTVSPost2010Prop43
 90
        3
102
RTVSPost2010PropOp43
 70
     1
102
RTVSPost2010Prop44ColorIndex
 90
        5
102
RTVSPost2010Prop44ColorRGB
 90
      255
102
RTVSPost2010PropOp44
 70
     1
102
RTVSPost2010Prop45
280
     0
102
RTVSPost2010PropOp45
 70
     1
102
RTVSPost2010Prop46
 90
       50
102
RTVSPost2010PropOp46
 70
     1
102
RTVSPost2010Prop47
 90
       50
102
RTVSPost2010PropOp47
 70
     1
102
RTVSPost2010Prop48
 90
       50
102
RTVSPost2010PropOp48
 70
     1
102
RTVSPost2010Prop49
280
     0
102
RTVSPost2010PropOp49
 70
     1
102
RTVSPost2010Prop50
 90
       50
102
RTVSPost2010PropOp50
 70
     1
102
RTVSPost2010Prop51ColorIndex
 90
      256
102
RTVSPost2010Prop51ColorRGB
 90
-16777216
102
RTVSPost2010PropOp51
 70
     0
102
RTVSPost2010Prop52
140
1.0
102
RTVSPost2010PropOp52
 70
     0
102
RTVSPost2010Prop53
 90
        2
102
RTVSPost2010PropOp53
 70
     1
102
RTVSPost2010Prop54
  1
strokes_ogs.tif
102
RTVSPost2010PropOp54
 70
     1
102
RTVSPost2010Prop55
280
     0
102
RTVSPost2010PropOp55
 70
     1
102
RTVSPost2010Prop56
140
1.0
102
RTVSPost2010PropOp56
 70
     1
102
RTVSPost2010Prop57
140
1.0
102
RTVSPost2010PropOp57
 70
     1
102
RTVSPropertyOp0
 70
     1
102
RTVSPropertyOp1
 70
     1
102
RTVSPropertyOp2
 70
     1
102
RTVSPropertyOp3
 70
     1
102
RTVSPropertyOp4
 70
     1
102
RTVSPropertyOp5
 70
     1
102
RTVSPropertyOp6
 70
     1
102
RTVSPropertyOp7
 70
     1
102
RTVSPropertyOp8
 70
     1
102
RTVSPropertyOp9
 70
     1
102
RTVSPropertyOp10
 70
     1
102
RTVSPropertyOp11
 70
     1
102
RTVSPropertyOp12
 70
     1
102
RTVSPropertyOp13
 70
     1
102
RTVSPropertyOp14
 70
     1
102
RTVSPropertyOp15
 70
     1
102
RTVSPropertyOp16
 70
     1
102
RTVSPropertyOp17
 70
     1
102
RTVSPropertyOp18
 70
     1
102
RTVSPropertyOp19
 70
     1
102
RTVSPropertyOp20
 70
     1
102
RTVSPropertyOp21
 70
     1
102
RTVSPropertyOp22
 70
     1
102
RTVSPropertyOp23
 70
     1
102
RTVSPropertyOp24
 70
     1
102
RTVSPropertyOp25
 70
     1
102
RTVSPropertyOp26
 70
     1
102
RTVSPropertyOp27
 70
     1
102
RTVSPropertyOp28
 70
     1
102
RTVSPropertyOp29
 70
     1
102
RTVSPropertyOp30
 70
     1
102
RTVSPropertyOp31
 70
     1
102
RTVSPropertyOp32
 70
     1
102
RTVSPropertyOp33
 70
     1
102
RTVSPropertyOp34
 70
     1
102
RTVSPropertyOp35
 70
     1
102
RTVSPropertyOp36
 70
     1
102
RTVSPropertyOp37
 70
     1
102
RTVSPropertyOp38
 70
     1
102
RTVSPropertyOp39
 70
     1
102
RTVSPropertyOp40
 70
     1
102
RTVSPropertyOp41
 70
     1
102
RTVSPropertyOp42
 70
     1
102
RTVSPropertyOp43
 70
     1
102
RTVSPropertyOp44
 70
     1
102
RTVSPropertyOp45
 70
     1
102
RTVSPropertyOp46
 70
     1
102
RTVSPropertyOp47
 70
     1
102
RTVSPropertyOp48
 70
     1
102
RTVSPropertyOp49
 70
     1
102
RTVSPropertyOp50
 70
     1
102
RTVSPropertyOp51
 70
     0
102
RTVSPropertyOp52
 70
     0
102
RTVSPropertyOp53
 70
     1
102
RTVSPropertyOp54
 70
     1
102
RTVSPropertyOp55
 70
     1
102
RTVSPropertyOp56
 70
     1
102
RTVSPropertyOp57
 70
     1
102
RTVSPropertyOp58
 70
     1
102
RTVSPropertyOp59
 70
     1
102
RTVSPropertyOp60
 70
     1
102
RTVSPropertyOp61
 70
     1
102
RTVSPropertyOp62
 70
     1
  0
XRECORD
  5
AA14
102
{ACAD_REACTORS
330
AA13
102
}
330
AA13
100
AcDbXrecord
280
     1
102
RTVSPost2010Prop28
280
     0
102
RTVSPost2010PropOp28
 70
     1
102
RTVSPost2010Prop29
280
     1
102
RTVSPost2010PropOp29
 70
     1
102
RTVSPost2010Prop30
280
     1
102
RTVSPost2010PropOp30
 70
     1
102
RTVSPost2010Prop31
280
     0
102
RTVSPost2010PropOp31
 70
     1
102
RTVSPost2010Prop32
280
     0
102
RTVSPost2010PropOp32
 70
     1
102
RTVSPost2010Prop33
280
     0
102
RTVSPost2010PropOp33
 70
     1
102
RTVSPost2010Prop34
280
     0
102
RTVSPost2010PropOp34
 70
     1
102
RTVSPost2010Prop35
280
     0
102
RTVSPost2010PropOp35
 70
     1
102
RTVSPost2010Prop36
280
     0
102
RTVSPost2010PropOp36
 70
     1
102
RTVSPost2010Prop37
 90
       50
102
RTVSPost2010PropOp37
 70
     0
102
RTVSPost2010Prop38
140
0.0
102
RTVSPost2010PropOp38
 70
     0
102
RTVSPost2010Prop39
140
1.0
102
RTVSPost2010PropOp39
 70
     0
102
RTVSPost2010Prop40
 90
        0
102
RTVSPost2010PropOp40
 70
     0
102
RTVSPost2010Prop41ColorIndex
 90
       18
102
RTVSPost2010Prop41ColorRGB
 90
        0
102
RTVSPost2010PropOp41
 70
     0
102
RTVSPost2010Prop42
 90
       50
102
RTVSPost2010PropOp42
 70
     0
102
RTVSPost2010Prop43
 90
        3
102
RTVSPost2010PropOp43
 70
     0
102
RTVSPost2010Prop44ColorIndex
 90
        5
102
RTVSPost2010Prop44ColorRGB
 90
      255
102
RTVSPost2010PropOp44
 70
     0
102
RTVSPost2010Prop45
280
     0
102
RTVSPost2010PropOp45
 70
     1
102
RTVSPost2010Prop46
 90
       50
102
RTVSPost2010PropOp46
 70
     0
102
RTVSPost2010Prop47
 90
       50
102
RTVSPost2010PropOp47
 70
     0
102
RTVSPost2010Prop48
 90
       50
102
RTVSPost2010PropOp48
 70
     0
102
RTVSPost2010Prop49
280
     0
102
RTVSPost2010PropOp49
 70
     1
102
RTVSPost2010Prop50
 90
       50
102
RTVSPost2010PropOp50
 70
     0
102
RTVSPost2010Prop51ColorIndex
 90
      256
102
RTVSPost2010Prop51ColorRGB
 90
-16777216
102
RTVSPost2010PropOp51
 70
     0
102
RTVSPost2010Prop52
140
1.0
102
RTVSPost2010PropOp52
 70
     0
102
RTVSPost2010Prop53
 90
        2
102
RTVSPost2010PropOp53
 70
     0
102
RTVSPost2010Prop54
  1
strokes_ogs.tif
102
RTVSPost2010PropOp54
 70
     0
102
RTVSPost2010Prop55
280
     0
102
RTVSPost2010PropOp55
 70
     1
102
RTVSPost2010Prop56
140
1.0
102
RTVSPost2010PropOp56
 70
     0
102
RTVSPost2010Prop57
140
1.0
102
RTVSPost2010PropOp57
 70
     0
102
RTVSPropertyOp0
 70
     0
102
RTVSPropertyOp1
 70
     0
102
RTVSPropertyOp2
 70
     0
102
RTVSPropertyOp3
 70
     0
102
RTVSPropertyOp4
 70
     0
102
RTVSPropertyOp5
 70
     0
102
RTVSPropertyOp6
 70
     0
102
RTVSPropertyOp7
 70
     0
102
RTVSPropertyOp8
 70
     0
102
RTVSPropertyOp9
 70
     0
102
RTVSPropertyOp10
 70
     0
102
RTVSPropertyOp11
 70
     0
102
RTVSPropertyOp12
 70
     0
102
RTVSPropertyOp13
 70
     0
102
RTVSPropertyOp14
 70
     2
102
RTVSPropertyOp15
 70
     0
102
RTVSPropertyOp16
 70
     0
102
RTVSPropertyOp17
 70
     0
102
RTVSPropertyOp18
 70
     0
102
RTVSPropertyOp19
 70
     0
102
RTVSPropertyOp20
 70
     0
102
RTVSPropertyOp21
 70
     0
102
RTVSPropertyOp22
 70
     0
102
RTVSPropertyOp23
 70
     0
102
RTVSPropertyOp24
 70
     0
102
RTVSPropertyOp25
 70
     0
102
RTVSPropertyOp26
 70
     0
102
RTVSPropertyOp27
 70
     0
102
RTVSPropertyOp28
 70
     1
102
RTVSPropertyOp29
 70
     1
102
RTVSPropertyOp30
 70
     1
102
RTVSPropertyOp31
 70
     1
102
RTVSPropertyOp32
 70
     1
102
RTVSPropertyOp33
 70
     1
102
RTVSPropertyOp34
 70
     1
102
RTVSPropertyOp35
 70
     1
102
RTVSPropertyOp36
 70
     1
102
RTVSPropertyOp37
 70
     0
102
RTVSPropertyOp38
 70
     0
102
RTVSPropertyOp39
 70
     0
102
RTVSPropertyOp40
 70
     0
102
RTVSPropertyOp41
 70
     0
102
RTVSPropertyOp42
 70
     0
102
RTVSPropertyOp43
 70
     0
102
RTVSPropertyOp44
 70
     0
102
RTVSPropertyOp45
 70
     1
102
RTVSPropertyOp46
 70
     0
102
RTVSPropertyOp47
 70
     0
102
RTVSPropertyOp48
 70
     0
102
RTVSPropertyOp49
 70
     1
102
RTVSPropertyOp50
 70
     0
102
RTVSPropertyOp51
 70
     0
102
RTVSPropertyOp52
 70
     0
102
RTVSPropertyOp53
 70
     0
102
RTVSPropertyOp54
 70
     0
102
RTVSPropertyOp55
 70
     1
102
RTVSPropertyOp56
 70
     0
102
RTVSPropertyOp57
 70
     0
102
RTVSPropertyOp58
 70
     0
102
RTVSPropertyOp59
 70
     0
102
RTVSPropertyOp60
 70
     0
102
RTVSPropertyOp61
 70
     0
102
RTVSPropertyOp62
 70
     0
  0
XRECORD
  5
AA04
102
{ACAD_REACTORS
330
AA03
102
}
330
AA03
100
AcDbXrecord
280
     1
102
RTVSPost2010Prop28
280
     0
102
RTVSPost2010PropOp28
 70
     1
102
RTVSPost2010Prop29
280
     1
102
RTVSPost2010PropOp29
 70
     1
102
RTVSPost2010Prop30
280
     1
102
RTVSPost2010PropOp30
 70
     1
102
RTVSPost2010Prop31
280
     0
102
RTVSPost2010PropOp31
 70
     1
102
RTVSPost2010Prop32
280
     0
102
RTVSPost2010PropOp32
 70
     1
102
RTVSPost2010Prop33
280
     0
102
RTVSPost2010PropOp33
 70
     1
102
RTVSPost2010Prop34
280
     0
102
RTVSPost2010PropOp34
 70
     1
102
RTVSPost2010Prop35
280
     0
102
RTVSPost2010PropOp35
 70
     1
102
RTVSPost2010Prop36
280
     0
102
RTVSPost2010PropOp36
 70
     1
102
RTVSPost2010Prop37
 90
       50
102
RTVSPost2010PropOp37
 70
     1
102
RTVSPost2010Prop38
140
0.0
102
RTVSPost2010PropOp38
 70
     1
102
RTVSPost2010Prop39
140
1.0
102
RTVSPost2010PropOp39
 70
     1
102
RTVSPost2010Prop40
 90
        0
102
RTVSPost2010PropOp40
 70
     1
102
RTVSPost2010Prop41ColorIndex
 90
       18
102
RTVSPost2010Prop41ColorRGB
 90
        0
102
RTVSPost2010PropOp41
 70
     1
102
RTVSPost2010Prop42
 90
       50
102
RTVSPost2010PropOp42
 70
     1
102
RTVSPost2010Prop43
 90
        3
102
RTVSPost2010PropOp43
 70
     1
102
RTVSPost2010Prop44ColorIndex
 90
        5
102
RTVSPost2010Prop44ColorRGB
 90
      255
102
RTVSPost2010PropOp44
 70
     1
102
RTVSPost2010Prop45
280
     0
102
RTVSPost2010PropOp45
 70
     1
102
RTVSPost2010Prop46
 90
       50
102
RTVSPost2010PropOp46
 70
     1
102
RTVSPost2010Prop47
 90
       50
102
RTVSPost2010PropOp47
 70
     1
102
RTVSPost2010Prop48
 90
       50
102
RTVSPost2010PropOp48
 70
     1
102
RTVSPost2010Prop49
280
     0
102
RTVSPost2010PropOp49
 70
     1
102
RTVSPost2010Prop50
 90
       50
102
RTVSPost2010PropOp50
 70
     1
102
RTVSPost2010Prop51ColorIndex
 90
      256
102
RTVSPost2010Prop51ColorRGB
 90
-16777216
102
RTVSPost2010PropOp51
 70
     0
102
RTVSPost2010Prop52
140
1.0
102
RTVSPost2010PropOp52
 70
     0
102
RTVSPost2010Prop53
 90
        2
102
RTVSPost2010PropOp53
 70
     1
102
RTVSPost2010Prop54
  1
strokes_ogs.tif
102
RTVSPost2010PropOp54
 70
     1
102
RTVSPost2010Prop55
280
     0
102
RTVSPost2010PropOp55
 70
     1
102
RTVSPost2010Prop56
140
1.0
102
RTVSPost2010PropOp56
 70
     1
102
RTVSPost2010Prop57
140
1.0
102
RTVSPost2010PropOp57
 70
     1
102
RTVSPropertyOp0
 70
     1
102
RTVSPropertyOp1
 70
     1
102
RTVSPropertyOp2
 70
     1
102
RTVSPropertyOp3
 70
     1
102
RTVSPropertyOp4
 70
     1
102
RTVSPropertyOp5
 70
     1
102
RTVSPropertyOp6
 70
     1
102
RTVSPropertyOp7
 70
     1
102
RTVSPropertyOp8
 70
     1
102
RTVSPropertyOp9
 70
     1
102
RTVSPropertyOp10
 70
     1
102
RTVSPropertyOp11
 70
     1
102
RTVSPropertyOp12
 70
     1
102
RTVSPropertyOp13
 70
     1
102
RTVSPropertyOp14
 70
     1
102
RTVSPropertyOp15
 70
     1
102
RTVSPropertyOp16
 70
     1
102
RTVSPropertyOp17
 70
     1
102
RTVSPropertyOp18
 70
     1
102
RTVSPropertyOp19
 70
     1
102
RTVSPropertyOp20
 70
     1
102
RTVSPropertyOp21
 70
     1
102
RTVSPropertyOp22
 70
     1
102
RTVSPropertyOp23
 70
     1
102
RTVSPropertyOp24
 70
     1
102
RTVSPropertyOp25
 70
     1
102
RTVSPropertyOp26
 70
     1
102
RTVSPropertyOp27
 70
     1
102
RTVSPropertyOp28
 70
     1
102
RTVSPropertyOp29
 70
     1
102
RTVSPropertyOp30
 70
     1
102
RTVSPropertyOp31
 70
     1
102
RTVSPropertyOp32
 70
     1
102
RTVSPropertyOp33
 70
     1
102
RTVSPropertyOp34
 70
     1
102
RTVSPropertyOp35
 70
     1
102
RTVSPropertyOp36
 70
     1
102
RTVSPropertyOp37
 70
     1
102
RTVSPropertyOp38
 70
     1
102
RTVSPropertyOp39
 70
     1
102
RTVSPropertyOp40
 70
     1
102
RTVSPropertyOp41
 70
     1
102
RTVSPropertyOp42
 70
     1
102
RTVSPropertyOp43
 70
     1
102
RTVSPropertyOp44
 70
     1
102
RTVSPropertyOp45
 70
     1
102
RTVSPropertyOp46
 70
     1
102
RTVSPropertyOp47
 70
     1
102
RTVSPropertyOp48
 70
     1
102
RTVSPropertyOp49
 70
     1
102
RTVSPropertyOp50
 70
     1
102
RTVSPropertyOp51
 70
     0
102
RTVSPropertyOp52
 70
     0
102
RTVSPropertyOp53
 70
     1
102
RTVSPropertyOp54
 70
     1
102
RTVSPropertyOp55
 70
     1
102
RTVSPropertyOp56
 70
     1
102
RTVSPropertyOp57
 70
     1
102
RTVSPropertyOp58
 70
     1
102
RTVSPropertyOp59
 70
     1
102
RTVSPropertyOp60
 70
     1
102
RTVSPropertyOp61
 70
     1
102
RTVSPropertyOp62
 70
     1
  0
XRECORD
  5
AA16
102
{ACAD_REACTORS
330
AA15
102
}
330
AA15
100
AcDbXrecord
280
     1
102
RTVSPost2010Prop28
280
     0
102
RTVSPost2010PropOp28
 70
     1
102
RTVSPost2010Prop29
280
     1
102
RTVSPost2010PropOp29
 70
     1
102
RTVSPost2010Prop30
280
     1
102
RTVSPost2010PropOp30
 70
     1
102
RTVSPost2010Prop31
280
     0
102
RTVSPost2010PropOp31
 70
     1
102
RTVSPost2010Prop32
280
     0
102
RTVSPost2010PropOp32
 70
     1
102
RTVSPost2010Prop33
280
     0
102
RTVSPost2010PropOp33
 70
     1
102
RTVSPost2010Prop34
280
     0
102
RTVSPost2010PropOp34
 70
     1
102
RTVSPost2010Prop35
280
     0
102
RTVSPost2010PropOp35
 70
     1
102
RTVSPost2010Prop36
280
     0
102
RTVSPost2010PropOp36
 70
     1
102
RTVSPost2010Prop37
 90
       50
102
RTVSPost2010PropOp37
 70
     0
102
RTVSPost2010Prop38
140
0.0
102
RTVSPost2010PropOp38
 70
     0
102
RTVSPost2010Prop39
140
1.0
102
RTVSPost2010PropOp39
 70
     0
102
RTVSPost2010Prop40
 90
        0
102
RTVSPost2010PropOp40
 70
     0
102
RTVSPost2010Prop41ColorIndex
 90
       18
102
RTVSPost2010Prop41ColorRGB
 90
        0
102
RTVSPost2010PropOp41
 70
     0
102
RTVSPost2010Prop42
 90
       50
102
RTVSPost2010PropOp42
 70
     0
102
RTVSPost2010Prop43
 90
        3
102
RTVSPost2010PropOp43
 70
     0
102
RTVSPost2010Prop44ColorIndex
 90
        5
102
RTVSPost2010Prop44ColorRGB
 90
      255
102
RTVSPost2010PropOp44
 70
     0
102
RTVSPost2010Prop45
280
     0
102
RTVSPost2010PropOp45
 70
     1
102
RTVSPost2010Prop46
 90
       50
102
RTVSPost2010PropOp46
 70
     0
102
RTVSPost2010Prop47
 90
       50
102
RTVSPost2010PropOp47
 70
     0
102
RTVSPost2010Prop48
 90
       50
102
RTVSPost2010PropOp48
 70
     0
102
RTVSPost2010Prop49
280
     0
102
RTVSPost2010PropOp49
 70
     1
102
RTVSPost2010Prop50
 90
       50
102
RTVSPost2010PropOp50
 70
     0
102
RTVSPost2010Prop51ColorIndex
 90
      256
102
RTVSPost2010Prop51ColorRGB
 90
-16777216
102
RTVSPost2010PropOp51
 70
     0
102
RTVSPost2010Prop52
140
1.0
102
RTVSPost2010PropOp52
 70
     0
102
RTVSPost2010Prop53
 90
        2
102
RTVSPost2010PropOp53
 70
     0
102
RTVSPost2010Prop54
  1
strokes_ogs.tif
102
RTVSPost2010PropOp54
 70
     0
102
RTVSPost2010Prop55
280
     0
102
RTVSPost2010PropOp55
 70
     1
102
RTVSPost2010Prop56
140
1.0
102
RTVSPost2010PropOp56
 70
     0
102
RTVSPost2010Prop57
140
1.0
102
RTVSPost2010PropOp57
 70
     0
102
RTVSPropertyOp0
 70
     0
102
RTVSPropertyOp1
 70
     0
102
RTVSPropertyOp2
 70
     0
102
RTVSPropertyOp3
 70
     0
102
RTVSPropertyOp4
 70
     0
102
RTVSPropertyOp5
 70
     0
102
RTVSPropertyOp6
 70
     0
102
RTVSPropertyOp7
 70
     0
102
RTVSPropertyOp8
 70
     0
102
RTVSPropertyOp9
 70
     0
102
RTVSPropertyOp10
 70
     0
102
RTVSPropertyOp11
 70
     0
102
RTVSPropertyOp12
 70
     0
102
RTVSPropertyOp13
 70
     0
102
RTVSPropertyOp14
 70
     2
102
RTVSPropertyOp15
 70
     0
102
RTVSPropertyOp16
 70
     0
102
RTVSPropertyOp17
 70
     0
102
RTVSPropertyOp18
 70
     0
102
RTVSPropertyOp19
 70
     0
102
RTVSPropertyOp20
 70
     0
102
RTVSPropertyOp21
 70
     0
102
RTVSPropertyOp22
 70
     0
102
RTVSPropertyOp23
 70
     0
102
RTVSPropertyOp24
 70
     0
102
RTVSPropertyOp25
 70
     0
102
RTVSPropertyOp26
 70
     0
102
RTVSPropertyOp27
 70
     0
102
RTVSPropertyOp28
 70
     1
102
RTVSPropertyOp29
 70
     1
102
RTVSPropertyOp30
 70
     1
102
RTVSPropertyOp31
 70
     1
102
RTVSPropertyOp32
 70
     1
102
RTVSPropertyOp33
 70
     1
102
RTVSPropertyOp34
 70
     1
102
RTVSPropertyOp35
 70
     1
102
RTVSPropertyOp36
 70
     1
102
RTVSPropertyOp37
 70
     0
102
RTVSPropertyOp38
 70
     0
102
RTVSPropertyOp39
 70
     0
102
RTVSPropertyOp40
 70
     0
102
RTVSPropertyOp41
 70
     0
102
RTVSPropertyOp42
 70
     0
102
RTVSPropertyOp43
 70
     0
102
RTVSPropertyOp44
 70
     0
102
RTVSPropertyOp45
 70
     1
102
RTVSPropertyOp46
 70
     0
102
RTVSPropertyOp47
 70
     0
102
RTVSPropertyOp48
 70
     0
102
RTVSPropertyOp49
 70
     1
102
RTVSPropertyOp50
 70
     0
102
RTVSPropertyOp51
 70
     0
102
RTVSPropertyOp52
 70
     0
102
RTVSPropertyOp53
 70
     0
102
RTVSPropertyOp54
 70
     0
102
RTVSPropertyOp55
 70
     1
102
RTVSPropertyOp56
 70
     0
102
RTVSPropertyOp57
 70
     0
102
RTVSPropertyOp58
 70
     0
102
RTVSPropertyOp59
 70
     0
102
RTVSPropertyOp60
 70
     0
102
RTVSPropertyOp61
 70
     0
102
RTVSPropertyOp62
 70
     0
  0
XRECORD
  5
A9FC
102
{ACAD_REACTORS
330
A9FB
102
}
330
A9FB
100
AcDbXrecord
280
     1
102
RTVSPost2010Prop28
280
     0
102
RTVSPost2010PropOp28
 70
     1
102
RTVSPost2010Prop29
280
     1
102
RTVSPost2010PropOp29
 70
     1
102
RTVSPost2010Prop30
280
     1
102
RTVSPost2010PropOp30
 70
     1
102
RTVSPost2010Prop31
280
     0
102
RTVSPost2010PropOp31
 70
     1
102
RTVSPost2010Prop32
280
     0
102
RTVSPost2010PropOp32
 70
     1
102
RTVSPost2010Prop33
280
     0
102
RTVSPost2010PropOp33
 70
     1
102
RTVSPost2010Prop34
280
     0
102
RTVSPost2010PropOp34
 70
     1
102
RTVSPost2010Prop35
280
     0
102
RTVSPost2010PropOp35
 70
     1
102
RTVSPost2010Prop36
280
     0
102
RTVSPost2010PropOp36
 70
     1
102
RTVSPost2010Prop37
 90
       50
102
RTVSPost2010PropOp37
 70
     1
102
RTVSPost2010Prop38
140
0.0
102
RTVSPost2010PropOp38
 70
     1
102
RTVSPost2010Prop39
140
1.0
102
RTVSPost2010PropOp39
 70
     1
102
RTVSPost2010Prop40
 90
        0
102
RTVSPost2010PropOp40
 70
     1
102
RTVSPost2010Prop41ColorIndex
 90
       18
102
RTVSPost2010Prop41ColorRGB
 90
        0
102
RTVSPost2010PropOp41
 70
     1
102
RTVSPost2010Prop42
 90
       50
102
RTVSPost2010PropOp42
 70
     1
102
RTVSPost2010Prop43
 90
        3
102
RTVSPost2010PropOp43
 70
     1
102
RTVSPost2010Prop44ColorIndex
 90
        5
102
RTVSPost2010Prop44ColorRGB
 90
      255
102
RTVSPost2010PropOp44
 70
     1
102
RTVSPost2010Prop45
280
     0
102
RTVSPost2010PropOp45
 70
     1
102
RTVSPost2010Prop46
 90
       50
102
RTVSPost2010PropOp46
 70
     1
102
RTVSPost2010Prop47
 90
       50
102
RTVSPost2010PropOp47
 70
     1
102
RTVSPost2010Prop48
 90
       50
102
RTVSPost2010PropOp48
 70
     1
102
RTVSPost2010Prop49
280
     0
102
RTVSPost2010PropOp49
 70
     1
102
RTVSPost2010Prop50
 90
       50
102
RTVSPost2010PropOp50
 70
     1
102
RTVSPost2010Prop51ColorIndex
 90
      256
102
RTVSPost2010Prop51ColorRGB
 90
-16777216
102
RTVSPost2010PropOp51
 70
     0
102
RTVSPost2010Prop52
140
1.0
102
RTVSPost2010PropOp52
 70
     0
102
RTVSPost2010Prop53
 90
        2
102
RTVSPost2010PropOp53
 70
     1
102
RTVSPost2010Prop54
  1
strokes_ogs.tif
102
RTVSPost2010PropOp54
 70
     1
102
RTVSPost2010Prop55
280
     0
102
RTVSPost2010PropOp55
 70
     1
102
RTVSPost2010Prop56
140
1.0
102
RTVSPost2010PropOp56
 70
     1
102
RTVSPost2010Prop57
140
1.0
102
RTVSPost2010PropOp57
 70
     1
102
RTVSPropertyOp0
 70
     1
102
RTVSPropertyOp1
 70
     1
102
RTVSPropertyOp2
 70
     1
102
RTVSPropertyOp3
 70
     1
102
RTVSPropertyOp4
 70
     1
102
RTVSPropertyOp5
 70
     1
102
RTVSPropertyOp6
 70
     1
102
RTVSPropertyOp7
 70
     1
102
RTVSPropertyOp8
 70
     1
102
RTVSPropertyOp9
 70
     1
102
RTVSPropertyOp10
 70
     1
102
RTVSPropertyOp11
 70
     1
102
RTVSPropertyOp12
 70
     1
102
RTVSPropertyOp13
 70
     1
102
RTVSPropertyOp14
 70
     1
102
RTVSPropertyOp15
 70
     1
102
RTVSPropertyOp16
 70
     1
102
RTVSPropertyOp17
 70
     1
102
RTVSPropertyOp18
 70
     1
102
RTVSPropertyOp19
 70
     1
102
RTVSPropertyOp20
 70
     1
102
RTVSPropertyOp21
 70
     1
102
RTVSPropertyOp22
 70
     1
102
RTVSPropertyOp23
 70
     1
102
RTVSPropertyOp24
 70
     1
102
RTVSPropertyOp25
 70
     1
102
RTVSPropertyOp26
 70
     1
102
RTVSPropertyOp27
 70
     1
102
RTVSPropertyOp28
 70
     1
102
RTVSPropertyOp29
 70
     1
102
RTVSPropertyOp30
 70
     1
102
RTVSPropertyOp31
 70
     1
102
RTVSPropertyOp32
 70
     1
102
RTVSPropertyOp33
 70
     1
102
RTVSPropertyOp34
 70
     1
102
RTVSPropertyOp35
 70
     1
102
RTVSPropertyOp36
 70
     1
102
RTVSPropertyOp37
 70
     1
102
RTVSPropertyOp38
 70
     1
102
RTVSPropertyOp39
 70
     1
102
RTVSPropertyOp40
 70
     1
102
RTVSPropertyOp41
 70
     1
102
RTVSPropertyOp42
 70
     1
102
RTVSPropertyOp43
 70
     1
102
RTVSPropertyOp44
 70
     1
102
RTVSPropertyOp45
 70
     1
102
RTVSPropertyOp46
 70
     1
102
RTVSPropertyOp47
 70
     1
102
RTVSPropertyOp48
 70
     1
102
RTVSPropertyOp49
 70
     1
102
RTVSPropertyOp50
 70
     1
102
RTVSPropertyOp51
 70
     0
102
RTVSPropertyOp52
 70
     0
102
RTVSPropertyOp53
 70
     1
102
RTVSPropertyOp54
 70
     1
102
RTVSPropertyOp55
 70
     1
102
RTVSPropertyOp56
 70
     1
102
RTVSPropertyOp57
 70
     1
102
RTVSPropertyOp58
 70
     1
102
RTVSPropertyOp59
 70
     1
102
RTVSPropertyOp60
 70
     1
102
RTVSPropertyOp61
 70
     1
102
RTVSPropertyOp62
 70
     1
  0
XRECORD
  5
AA12
102
{ACAD_REACTORS
330
AA11
102
}
330
AA11
100
AcDbXrecord
280
     1
102
RTVSPost2010Prop28
280
     0
102
RTVSPost2010PropOp28
 70
     1
102
RTVSPost2010Prop29
280
     1
102
RTVSPost2010PropOp29
 70
     1
102
RTVSPost2010Prop30
280
     1
102
RTVSPost2010PropOp30
 70
     1
102
RTVSPost2010Prop31
280
     0
102
RTVSPost2010PropOp31
 70
     1
102
RTVSPost2010Prop32
280
     0
102
RTVSPost2010PropOp32
 70
     1
102
RTVSPost2010Prop33
280
     0
102
RTVSPost2010PropOp33
 70
     1
102
RTVSPost2010Prop34
280
     0
102
RTVSPost2010PropOp34
 70
     1
102
RTVSPost2010Prop35
280
     0
102
RTVSPost2010PropOp35
 70
     1
102
RTVSPost2010Prop36
280
     0
102
RTVSPost2010PropOp36
 70
     1
102
RTVSPost2010Prop37
 90
       50
102
RTVSPost2010PropOp37
 70
     1
102
RTVSPost2010Prop38
140
0.0
102
RTVSPost2010PropOp38
 70
     1
102
RTVSPost2010Prop39
140
1.0
102
RTVSPost2010PropOp39
 70
     1
102
RTVSPost2010Prop40
 90
        0
102
RTVSPost2010PropOp40
 70
     1
102
RTVSPost2010Prop41ColorIndex
 90
       18
102
RTVSPost2010Prop41ColorRGB
 90
        0
102
RTVSPost2010PropOp41
 70
     1
102
RTVSPost2010Prop42
 90
       50
102
RTVSPost2010PropOp42
 70
     1
102
RTVSPost2010Prop43
 90
        3
102
RTVSPost2010PropOp43
 70
     1
102
RTVSPost2010Prop44ColorIndex
 90
        5
102
RTVSPost2010Prop44ColorRGB
 90
      255
102
RTVSPost2010PropOp44
 70
     1
102
RTVSPost2010Prop45
280
     0
102
RTVSPost2010PropOp45
 70
     1
102
RTVSPost2010Prop46
 90
       50
102
RTVSPost2010PropOp46
 70
     1
102
RTVSPost2010Prop47
 90
       50
102
RTVSPost2010PropOp47
 70
     1
102
RTVSPost2010Prop48
 90
       50
102
RTVSPost2010PropOp48
 70
     1
102
RTVSPost2010Prop49
280
     0
102
RTVSPost2010PropOp49
 70
     1
102
RTVSPost2010Prop50
 90
       50
102
RTVSPost2010PropOp50
 70
     1
102
RTVSPost2010Prop51ColorIndex
 90
      256
102
RTVSPost2010Prop51ColorRGB
 90
-16777216
102
RTVSPost2010PropOp51
 70
     0
102
RTVSPost2010Prop52
140
1.0
102
RTVSPost2010PropOp52
 70
     0
102
RTVSPost2010Prop53
 90
        2
102
RTVSPost2010PropOp53
 70
     1
102
RTVSPost2010Prop54
  1
strokes_ogs.tif
102
RTVSPost2010PropOp54
 70
     1
102
RTVSPost2010Prop55
280
     0
102
RTVSPost2010PropOp55
 70
     1
102
RTVSPost2010Prop56
140
1.0
102
RTVSPost2010PropOp56
 70
     1
102
RTVSPost2010Prop57
140
1.0
102
RTVSPost2010PropOp57
 70
     1
102
RTVSPropertyOp0
 70
     1
102
RTVSPropertyOp1
 70
     1
102
RTVSPropertyOp2
 70
     1
102
RTVSPropertyOp3
 70
     1
102
RTVSPropertyOp4
 70
     1
102
RTVSPropertyOp5
 70
     1
102
RTVSPropertyOp6
 70
     1
102
RTVSPropertyOp7
 70
     1
102
RTVSPropertyOp8
 70
     1
102
RTVSPropertyOp9
 70
     1
102
RTVSPropertyOp10
 70
     1
102
RTVSPropertyOp11
 70
     1
102
RTVSPropertyOp12
 70
     1
102
RTVSPropertyOp13
 70
     1
102
RTVSPropertyOp14
 70
     1
102
RTVSPropertyOp15
 70
     1
102
RTVSPropertyOp16
 70
     1
102
RTVSPropertyOp17
 70
     1
102
RTVSPropertyOp18
 70
     1
102
RTVSPropertyOp19
 70
     1
102
RTVSPropertyOp20
 70
     1
102
RTVSPropertyOp21
 70
     1
102
RTVSPropertyOp22
 70
     1
102
RTVSPropertyOp23
 70
     1
102
RTVSPropertyOp24
 70
     1
102
RTVSPropertyOp25
 70
     1
102
RTVSPropertyOp26
 70
     1
102
RTVSPropertyOp27
 70
     1
102
RTVSPropertyOp28
 70
     1
102
RTVSPropertyOp29
 70
     1
102
RTVSPropertyOp30
 70
     1
102
RTVSPropertyOp31
 70
     1
102
RTVSPropertyOp32
 70
     1
102
RTVSPropertyOp33
 70
     1
102
RTVSPropertyOp34
 70
     1
102
RTVSPropertyOp35
 70
     1
102
RTVSPropertyOp36
 70
     1
102
RTVSPropertyOp37
 70
     1
102
RTVSPropertyOp38
 70
     1
102
RTVSPropertyOp39
 70
     1
102
RTVSPropertyOp40
 70
     1
102
RTVSPropertyOp41
 70
     1
102
RTVSPropertyOp42
 70
     1
102
RTVSPropertyOp43
 70
     1
102
RTVSPropertyOp44
 70
     1
102
RTVSPropertyOp45
 70
     1
102
RTVSPropertyOp46
 70
     1
102
RTVSPropertyOp47
 70
     1
102
RTVSPropertyOp48
 70
     1
102
RTVSPropertyOp49
 70
     1
102
RTVSPropertyOp50
 70
     1
102
RTVSPropertyOp51
 70
     0
102
RTVSPropertyOp52
 70
     0
102
RTVSPropertyOp53
 70
     1
102
RTVSPropertyOp54
 70
     1
102
RTVSPropertyOp55
 70
     1
102
RTVSPropertyOp56
 70
     1
102
RTVSPropertyOp57
 70
     1
102
RTVSPropertyOp58
 70
     1
102
RTVSPropertyOp59
 70
     1
102
RTVSPropertyOp60
 70
     1
102
RTVSPropertyOp61
 70
     1
102
RTVSPropertyOp62
 70
     1
  0
XRECORD
  5
AA10
102
{ACAD_REACTORS
330
AA0F
102
}
330
AA0F
100
AcDbXrecord
280
     1
102
RTVSPost2010Prop28
280
     0
102
RTVSPost2010PropOp28
 70
     1
102
RTVSPost2010Prop29
280
     1
102
RTVSPost2010PropOp29
 70
     1
102
RTVSPost2010Prop30
280
     1
102
RTVSPost2010PropOp30
 70
     1
102
RTVSPost2010Prop31
280
     0
102
RTVSPost2010PropOp31
 70
     1
102
RTVSPost2010Prop32
280
     0
102
RTVSPost2010PropOp32
 70
     1
102
RTVSPost2010Prop33
280
     0
102
RTVSPost2010PropOp33
 70
     1
102
RTVSPost2010Prop34
280
     0
102
RTVSPost2010PropOp34
 70
     1
102
RTVSPost2010Prop35
280
     0
102
RTVSPost2010PropOp35
 70
     1
102
RTVSPost2010Prop36
280
     0
102
RTVSPost2010PropOp36
 70
     1
102
RTVSPost2010Prop37
 90
       50
102
RTVSPost2010PropOp37
 70
     1
102
RTVSPost2010Prop38
140
0.0
102
RTVSPost2010PropOp38
 70
     1
102
RTVSPost2010Prop39
140
1.0
102
RTVSPost2010PropOp39
 70
     1
102
RTVSPost2010Prop40
 90
        0
102
RTVSPost2010PropOp40
 70
     1
102
RTVSPost2010Prop41ColorIndex
 90
       18
102
RTVSPost2010Prop41ColorRGB
 90
        0
102
RTVSPost2010PropOp41
 70
     1
102
RTVSPost2010Prop42
 90
       50
102
RTVSPost2010PropOp42
 70
     1
102
RTVSPost2010Prop43
 90
        3
102
RTVSPost2010PropOp43
 70
     1
102
RTVSPost2010Prop44ColorIndex
 90
        5
102
RTVSPost2010Prop44ColorRGB
 90
      255
102
RTVSPost2010PropOp44
 70
     1
102
RTVSPost2010Prop45
280
     0
102
RTVSPost2010PropOp45
 70
     1
102
RTVSPost2010Prop46
 90
       50
102
RTVSPost2010PropOp46
 70
     1
102
RTVSPost2010Prop47
 90
       50
102
RTVSPost2010PropOp47
 70
     1
102
RTVSPost2010Prop48
 90
       50
102
RTVSPost2010PropOp48
 70
     1
102
RTVSPost2010Prop49
280
     0
102
RTVSPost2010PropOp49
 70
     1
102
RTVSPost2010Prop50
 90
       50
102
RTVSPost2010PropOp50
 70
     1
102
RTVSPost2010Prop51ColorIndex
 90
      256
102
RTVSPost2010Prop51ColorRGB
 90
-16777216
102
RTVSPost2010PropOp51
 70
     0
102
RTVSPost2010Prop52
140
1.0
102
RTVSPost2010PropOp52
 70
     0
102
RTVSPost2010Prop53
 90
        2
102
RTVSPost2010PropOp53
 70
     1
102
RTVSPost2010Prop54
  1
strokes_ogs.tif
102
RTVSPost2010PropOp54
 70
     1
102
RTVSPost2010Prop55
280
     0
102
RTVSPost2010PropOp55
 70
     1
102
RTVSPost2010Prop56
140
1.0
102
RTVSPost2010PropOp56
 70
     1
102
RTVSPost2010Prop57
140
1.0
102
RTVSPost2010PropOp57
 70
     1
102
RTVSPropertyOp0
 70
     1
102
RTVSPropertyOp1
 70
     1
102
RTVSPropertyOp2
 70
     1
102
RTVSPropertyOp3
 70
     1
102
RTVSPropertyOp4
 70
     1
102
RTVSPropertyOp5
 70
     1
102
RTVSPropertyOp6
 70
     1
102
RTVSPropertyOp7
 70
     1
102
RTVSPropertyOp8
 70
     1
102
RTVSPropertyOp9
 70
     1
102
RTVSPropertyOp10
 70
     1
102
RTVSPropertyOp11
 70
     1
102
RTVSPropertyOp12
 70
     1
102
RTVSPropertyOp13
 70
     1
102
RTVSPropertyOp14
 70
     1
102
RTVSPropertyOp15
 70
     1
102
RTVSPropertyOp16
 70
     1
102
RTVSPropertyOp17
 70
     1
102
RTVSPropertyOp18
 70
     1
102
RTVSPropertyOp19
 70
     1
102
RTVSPropertyOp20
 70
     1
102
RTVSPropertyOp21
 70
     1
102
RTVSPropertyOp22
 70
     1
102
RTVSPropertyOp23
 70
     1
102
RTVSPropertyOp24
 70
     1
102
RTVSPropertyOp25
 70
     1
102
RTVSPropertyOp26
 70
     1
102
RTVSPropertyOp27
 70
     1
102
RTVSPropertyOp28
 70
     1
102
RTVSPropertyOp29
 70
     1
102
RTVSPropertyOp30
 70
     1
102
RTVSPropertyOp31
 70
     1
102
RTVSPropertyOp32
 70
     1
102
RTVSPropertyOp33
 70
     1
102
RTVSPropertyOp34
 70
     1
102
RTVSPropertyOp35
 70
     1
102
RTVSPropertyOp36
 70
     1
102
RTVSPropertyOp37
 70
     1
102
RTVSPropertyOp38
 70
     1
102
RTVSPropertyOp39
 70
     1
102
RTVSPropertyOp40
 70
     1
102
RTVSPropertyOp41
 70
     1
102
RTVSPropertyOp42
 70
     1
102
RTVSPropertyOp43
 70
     1
102
RTVSPropertyOp44
 70
     1
102
RTVSPropertyOp45
 70
     1
102
RTVSPropertyOp46
 70
     1
102
RTVSPropertyOp47
 70
     1
102
RTVSPropertyOp48
 70
     1
102
RTVSPropertyOp49
 70
     1
102
RTVSPropertyOp50
 70
     1
102
RTVSPropertyOp51
 70
     0
102
RTVSPropertyOp52
 70
     0
102
RTVSPropertyOp53
 70
     1
102
RTVSPropertyOp54
 70
     1
102
RTVSPropertyOp55
 70
     1
102
RTVSPropertyOp56
 70
     1
102
RTVSPropertyOp57
 70
     1
102
RTVSPropertyOp58
 70
     1
102
RTVSPropertyOp59
 70
     1
102
RTVSPropertyOp60
 70
     1
102
RTVSPropertyOp61
 70
     1
102
RTVSPropertyOp62
 70
     1
  0
XRECORD
  5
AA0A
102
{ACAD_REACTORS
330
AA09
102
}
330
AA09
100
AcDbXrecord
280
     1
102
RTVSPost2010Prop28
280
     0
102
RTVSPost2010PropOp28
 70
     1
102
RTVSPost2010Prop29
280
     1
102
RTVSPost2010PropOp29
 70
     1
102
RTVSPost2010Prop30
280
     1
102
RTVSPost2010PropOp30
 70
     1
102
RTVSPost2010Prop31
280
     0
102
RTVSPost2010PropOp31
 70
     1
102
RTVSPost2010Prop32
280
     0
102
RTVSPost2010PropOp32
 70
     1
102
RTVSPost2010Prop33
280
     0
102
RTVSPost2010PropOp33
 70
     1
102
RTVSPost2010Prop34
280
     0
102
RTVSPost2010PropOp34
 70
     1
102
RTVSPost2010Prop35
280
     0
102
RTVSPost2010PropOp35
 70
     1
102
RTVSPost2010Prop36
280
     0
102
RTVSPost2010PropOp36
 70
     1
102
RTVSPost2010Prop37
 90
       50
102
RTVSPost2010PropOp37
 70
     1
102
RTVSPost2010Prop38
140
0.0
102
RTVSPost2010PropOp38
 70
     1
102
RTVSPost2010Prop39
140
1.0
102
RTVSPost2010PropOp39
 70
     1
102
RTVSPost2010Prop40
 90
        0
102
RTVSPost2010PropOp40
 70
     1
102
RTVSPost2010Prop41ColorIndex
 90
       18
102
RTVSPost2010Prop41ColorRGB
 90
        0
102
RTVSPost2010PropOp41
 70
     1
102
RTVSPost2010Prop42
 90
       50
102
RTVSPost2010PropOp42
 70
     1
102
RTVSPost2010Prop43
 90
        3
102
RTVSPost2010PropOp43
 70
     1
102
RTVSPost2010Prop44ColorIndex
 90
        5
102
RTVSPost2010Prop44ColorRGB
 90
      255
102
RTVSPost2010PropOp44
 70
     1
102
RTVSPost2010Prop45
280
     0
102
RTVSPost2010PropOp45
 70
     1
102
RTVSPost2010Prop46
 90
       50
102
RTVSPost2010PropOp46
 70
     1
102
RTVSPost2010Prop47
 90
       50
102
RTVSPost2010PropOp47
 70
     1
102
RTVSPost2010Prop48
 90
       50
102
RTVSPost2010PropOp48
 70
     1
102
RTVSPost2010Prop49
280
     0
102
RTVSPost2010PropOp49
 70
     1
102
RTVSPost2010Prop50
 90
       50
102
RTVSPost2010PropOp50
 70
     1
102
RTVSPost2010Prop51ColorIndex
 90
      256
102
RTVSPost2010Prop51ColorRGB
 90
-16777216
102
RTVSPost2010PropOp51
 70
     0
102
RTVSPost2010Prop52
140
1.0
102
RTVSPost2010PropOp52
 70
     0
102
RTVSPost2010Prop53
 90
        2
102
RTVSPost2010PropOp53
 70
     1
102
RTVSPost2010Prop54
  1
strokes_ogs.tif
102
RTVSPost2010PropOp54
 70
     1
102
RTVSPost2010Prop55
280
     0
102
RTVSPost2010PropOp55
 70
     1
102
RTVSPost2010Prop56
140
1.0
102
RTVSPost2010PropOp56
 70
     1
102
RTVSPost2010Prop57
140
1.0
102
RTVSPost2010PropOp57
 70
     1
102
RTVSPropertyOp0
 70
     1
102
RTVSPropertyOp1
 70
     1
102
RTVSPropertyOp2
 70
     1
102
RTVSPropertyOp3
 70
     1
102
RTVSPropertyOp4
 70
     1
102
RTVSPropertyOp5
 70
     1
102
RTVSPropertyOp6
 70
     1
102
RTVSPropertyOp7
 70
     1
102
RTVSPropertyOp8
 70
     1
102
RTVSPropertyOp9
 70
     1
102
RTVSPropertyOp10
 70
     1
102
RTVSPropertyOp11
 70
     1
102
RTVSPropertyOp12
 70
     1
102
RTVSPropertyOp13
 70
     1
102
RTVSPropertyOp14
 70
     1
102
RTVSPropertyOp15
 70
     1
102
RTVSPropertyOp16
 70
     1
102
RTVSPropertyOp17
 70
     1
102
RTVSPropertyOp18
 70
     1
102
RTVSPropertyOp19
 70
     1
102
RTVSPropertyOp20
 70
     1
102
RTVSPropertyOp21
 70
     1
102
RTVSPropertyOp22
 70
     1
102
RTVSPropertyOp23
 70
     1
102
RTVSPropertyOp24
 70
     1
102
RTVSPropertyOp25
 70
     1
102
RTVSPropertyOp26
 70
     1
102
RTVSPropertyOp27
 70
     1
102
RTVSPropertyOp28
 70
     1
102
RTVSPropertyOp29
 70
     1
102
RTVSPropertyOp30
 70
     1
102
RTVSPropertyOp31
 70
     1
102
RTVSPropertyOp32
 70
     1
102
RTVSPropertyOp33
 70
     1
102
RTVSPropertyOp34
 70
     1
102
RTVSPropertyOp35
 70
     1
102
RTVSPropertyOp36
 70
     1
102
RTVSPropertyOp37
 70
     1
102
RTVSPropertyOp38
 70
     1
102
RTVSPropertyOp39
 70
     1
102
RTVSPropertyOp40
 70
     1
102
RTVSPropertyOp41
 70
     1
102
RTVSPropertyOp42
 70
     1
102
RTVSPropertyOp43
 70
     1
102
RTVSPropertyOp44
 70
     1
102
RTVSPropertyOp45
 70
     1
102
RTVSPropertyOp46
 70
     1
102
RTVSPropertyOp47
 70
     1
102
RTVSPropertyOp48
 70
     1
102
RTVSPropertyOp49
 70
     1
102
RTVSPropertyOp50
 70
     1
102
RTVSPropertyOp51
 70
     0
102
RTVSPropertyOp52
 70
     0
102
RTVSPropertyOp53
 70
     1
102
RTVSPropertyOp54
 70
     1
102
RTVSPropertyOp55
 70
     1
102
RTVSPropertyOp56
 70
     1
102
RTVSPropertyOp57
 70
     1
102
RTVSPropertyOp58
 70
     1
102
RTVSPropertyOp59
 70
     1
102
RTVSPropertyOp60
 70
     1
102
RTVSPropertyOp61
 70
     1
102
RTVSPropertyOp62
 70
     1
  0
XRECORD
  5
AA0C
102
{ACAD_REACTORS
330
AA0B
102
}
330
AA0B
100
AcDbXrecord
280
     1
102
RTVSPost2010Prop28
280
     0
102
RTVSPost2010PropOp28
 70
     1
102
RTVSPost2010Prop29
280
     1
102
RTVSPost2010PropOp29
 70
     1
102
RTVSPost2010Prop30
280
     1
102
RTVSPost2010PropOp30
 70
     1
102
RTVSPost2010Prop31
280
     0
102
RTVSPost2010PropOp31
 70
     1
102
RTVSPost2010Prop32
280
     0
102
RTVSPost2010PropOp32
 70
     1
102
RTVSPost2010Prop33
280
     0
102
RTVSPost2010PropOp33
 70
     1
102
RTVSPost2010Prop34
280
     0
102
RTVSPost2010PropOp34
 70
     1
102
RTVSPost2010Prop35
280
     0
102
RTVSPost2010PropOp35
 70
     1
102
RTVSPost2010Prop36
280
     0
102
RTVSPost2010PropOp36
 70
     1
102
RTVSPost2010Prop37
 90
       50
102
RTVSPost2010PropOp37
 70
     1
102
RTVSPost2010Prop38
140
0.0
102
RTVSPost2010PropOp38
 70
     1
102
RTVSPost2010Prop39
140
1.0
102
RTVSPost2010PropOp39
 70
     1
102
RTVSPost2010Prop40
 90
        0
102
RTVSPost2010PropOp40
 70
     1
102
RTVSPost2010Prop41ColorIndex
 90
       18
102
RTVSPost2010Prop41ColorRGB
 90
        0
102
RTVSPost2010PropOp41
 70
     1
102
RTVSPost2010Prop42
 90
       50
102
RTVSPost2010PropOp42
 70
     1
102
RTVSPost2010Prop43
 90
        3
102
RTVSPost2010PropOp43
 70
     1
102
RTVSPost2010Prop44ColorIndex
 90
        5
102
RTVSPost2010Prop44ColorRGB
 90
      255
102
RTVSPost2010PropOp44
 70
     1
102
RTVSPost2010Prop45
280
     0
102
RTVSPost2010PropOp45
 70
     1
102
RTVSPost2010Prop46
 90
       50
102
RTVSPost2010PropOp46
 70
     1
102
RTVSPost2010Prop47
 90
       50
102
RTVSPost2010PropOp47
 70
     1
102
RTVSPost2010Prop48
 90
       50
102
RTVSPost2010PropOp48
 70
     1
102
RTVSPost2010Prop49
280
     0
102
RTVSPost2010PropOp49
 70
     1
102
RTVSPost2010Prop50
 90
       50
102
RTVSPost2010PropOp50
 70
     1
102
RTVSPost2010Prop51ColorIndex
 90
      256
102
RTVSPost2010Prop51ColorRGB
 90
-16777216
102
RTVSPost2010PropOp51
 70
     0
102
RTVSPost2010Prop52
140
1.0
102
RTVSPost2010PropOp52
 70
     0
102
RTVSPost2010Prop53
 90
        2
102
RTVSPost2010PropOp53
 70
     1
102
RTVSPost2010Prop54
  1
strokes_ogs.tif
102
RTVSPost2010PropOp54
 70
     1
102
RTVSPost2010Prop55
280
     0
102
RTVSPost2010PropOp55
 70
     1
102
RTVSPost2010Prop56
140
1.0
102
RTVSPost2010PropOp56
 70
     1
102
RTVSPost2010Prop57
140
1.0
102
RTVSPost2010PropOp57
 70
     1
102
RTVSPropertyOp0
 70
     1
102
RTVSPropertyOp1
 70
     1
102
RTVSPropertyOp2
 70
     1
102
RTVSPropertyOp3
 70
     1
102
RTVSPropertyOp4
 70
     1
102
RTVSPropertyOp5
 70
     1
102
RTVSPropertyOp6
 70
     1
102
RTVSPropertyOp7
 70
     1
102
RTVSPropertyOp8
 70
     1
102
RTVSPropertyOp9
 70
     1
102
RTVSPropertyOp10
 70
     1
102
RTVSPropertyOp11
 70
     1
102
RTVSPropertyOp12
 70
     1
102
RTVSPropertyOp13
 70
     1
102
RTVSPropertyOp14
 70
     1
102
RTVSPropertyOp15
 70
     1
102
RTVSPropertyOp16
 70
     1
102
RTVSPropertyOp17
 70
     1
102
RTVSPropertyOp18
 70
     1
102
RTVSPropertyOp19
 70
     1
102
RTVSPropertyOp20
 70
     1
102
RTVSPropertyOp21
 70
     1
102
RTVSPropertyOp22
 70
     1
102
RTVSPropertyOp23
 70
     1
102
RTVSPropertyOp24
 70
     1
102
RTVSPropertyOp25
 70
     1
102
RTVSPropertyOp26
 70
     1
102
RTVSPropertyOp27
 70
     1
102
RTVSPropertyOp28
 70
     1
102
RTVSPropertyOp29
 70
     1
102
RTVSPropertyOp30
 70
     1
102
RTVSPropertyOp31
 70
     1
102
RTVSPropertyOp32
 70
     1
102
RTVSPropertyOp33
 70
     1
102
RTVSPropertyOp34
 70
     1
102
RTVSPropertyOp35
 70
     1
102
RTVSPropertyOp36
 70
     1
102
RTVSPropertyOp37
 70
     1
102
RTVSPropertyOp38
 70
     1
102
RTVSPropertyOp39
 70
     1
102
RTVSPropertyOp40
 70
     1
102
RTVSPropertyOp41
 70
     1
102
RTVSPropertyOp42
 70
     1
102
RTVSPropertyOp43
 70
     1
102
RTVSPropertyOp44
 70
     1
102
RTVSPropertyOp45
 70
     1
102
RTVSPropertyOp46
 70
     1
102
RTVSPropertyOp47
 70
     1
102
RTVSPropertyOp48
 70
     1
102
RTVSPropertyOp49
 70
     1
102
RTVSPropertyOp50
 70
     1
102
RTVSPropertyOp51
 70
     0
102
RTVSPropertyOp52
 70
     0
102
RTVSPropertyOp53
 70
     1
102
RTVSPropertyOp54
 70
     1
102
RTVSPropertyOp55
 70
     1
102
RTVSPropertyOp56
 70
     1
102
RTVSPropertyOp57
 70
     1
102
RTVSPropertyOp58
 70
     1
102
RTVSPropertyOp59
 70
     1
102
RTVSPropertyOp60
 70
     1
102
RTVSPropertyOp61
 70
     1
102
RTVSPropertyOp62
 70
     1
  0
XRECORD
  5
AA02
102
{ACAD_REACTORS
330
AA01
102
}
330
AA01
100
AcDbXrecord
280
     1
102
RTVSPost2010Prop28
280
     0
102
RTVSPost2010PropOp28
 70
     1
102
RTVSPost2010Prop29
280
     1
102
RTVSPost2010PropOp29
 70
     1
102
RTVSPost2010Prop30
280
     1
102
RTVSPost2010PropOp30
 70
     1
102
RTVSPost2010Prop31
280
     0
102
RTVSPost2010PropOp31
 70
     1
102
RTVSPost2010Prop32
280
     0
102
RTVSPost2010PropOp32
 70
     1
102
RTVSPost2010Prop33
280
     0
102
RTVSPost2010PropOp33
 70
     1
102
RTVSPost2010Prop34
280
     0
102
RTVSPost2010PropOp34
 70
     1
102
RTVSPost2010Prop35
280
     0
102
RTVSPost2010PropOp35
 70
     1
102
RTVSPost2010Prop36
280
     0
102
RTVSPost2010PropOp36
 70
     1
102
RTVSPost2010Prop37
 90
       50
102
RTVSPost2010PropOp37
 70
     1
102
RTVSPost2010Prop38
140
0.0
102
RTVSPost2010PropOp38
 70
     1
102
RTVSPost2010Prop39
140
1.0
102
RTVSPost2010PropOp39
 70
     1
102
RTVSPost2010Prop40
 90
        0
102
RTVSPost2010PropOp40
 70
     1
102
RTVSPost2010Prop41ColorIndex
 90
       18
102
RTVSPost2010Prop41ColorRGB
 90
        0
102
RTVSPost2010PropOp41
 70
     1
102
RTVSPost2010Prop42
 90
       50
102
RTVSPost2010PropOp42
 70
     1
102
RTVSPost2010Prop43
 90
        3
102
RTVSPost2010PropOp43
 70
     1
102
RTVSPost2010Prop44ColorIndex
 90
        5
102
RTVSPost2010Prop44ColorRGB
 90
      255
102
RTVSPost2010PropOp44
 70
     1
102
RTVSPost2010Prop45
280
     0
102
RTVSPost2010PropOp45
 70
     1
102
RTVSPost2010Prop46
 90
       50
102
RTVSPost2010PropOp46
 70
     1
102
RTVSPost2010Prop47
 90
       50
102
RTVSPost2010PropOp47
 70
     1
102
RTVSPost2010Prop48
 90
       50
102
RTVSPost2010PropOp48
 70
     1
102
RTVSPost2010Prop49
280
     0
102
RTVSPost2010PropOp49
 70
     1
102
RTVSPost2010Prop50
 90
       50
102
RTVSPost2010PropOp50
 70
     1
102
RTVSPost2010Prop51ColorIndex
 90
      256
102
RTVSPost2010Prop51ColorRGB
 90
-16777216
102
RTVSPost2010PropOp51
 70
     0
102
RTVSPost2010Prop52
140
1.0
102
RTVSPost2010PropOp52
 70
     0
102
RTVSPost2010Prop53
 90
        2
102
RTVSPost2010PropOp53
 70
     1
102
RTVSPost2010Prop54
  1
strokes_ogs.tif
102
RTVSPost2010PropOp54
 70
     1
102
RTVSPost2010Prop55
280
     0
102
RTVSPost2010PropOp55
 70
     1
102
RTVSPost2010Prop56
140
1.0
102
RTVSPost2010PropOp56
 70
     1
102
RTVSPost2010Prop57
140
1.0
102
RTVSPost2010PropOp57
 70
     1
102
RTVSPropertyOp0
 70
     1
102
RTVSPropertyOp1
 70
     1
102
RTVSPropertyOp2
 70
     1
102
RTVSPropertyOp3
 70
     1
102
RTVSPropertyOp4
 70
     1
102
RTVSPropertyOp5
 70
     1
102
RTVSPropertyOp6
 70
     1
102
RTVSPropertyOp7
 70
     1
102
RTVSPropertyOp8
 70
     1
102
RTVSPropertyOp9
 70
     1
102
RTVSPropertyOp10
 70
     1
102
RTVSPropertyOp11
 70
     1
102
RTVSPropertyOp12
 70
     1
102
RTVSPropertyOp13
 70
     1
102
RTVSPropertyOp14
 70
     1
102
RTVSPropertyOp15
 70
     1
102
RTVSPropertyOp16
 70
     1
102
RTVSPropertyOp17
 70
     1
102
RTVSPropertyOp18
 70
     1
102
RTVSPropertyOp19
 70
     1
102
RTVSPropertyOp20
 70
     1
102
RTVSPropertyOp21
 70
     1
102
RTVSPropertyOp22
 70
     1
102
RTVSPropertyOp23
 70
     1
102
RTVSPropertyOp24
 70
     1
102
RTVSPropertyOp25
 70
     1
102
RTVSPropertyOp26
 70
     1
102
RTVSPropertyOp27
 70
     1
102
RTVSPropertyOp28
 70
     1
102
RTVSPropertyOp29
 70
     1
102
RTVSPropertyOp30
 70
     1
102
RTVSPropertyOp31
 70
     1
102
RTVSPropertyOp32
 70
     1
102
RTVSPropertyOp33
 70
     1
102
RTVSPropertyOp34
 70
     1
102
RTVSPropertyOp35
 70
     1
102
RTVSPropertyOp36
 70
     1
102
RTVSPropertyOp37
 70
     1
102
RTVSPropertyOp38
 70
     1
102
RTVSPropertyOp39
 70
     1
102
RTVSPropertyOp40
 70
     1
102
RTVSPropertyOp41
 70
     1
102
RTVSPropertyOp42
 70
     1
102
RTVSPropertyOp43
 70
     1
102
RTVSPropertyOp44
 70
     1
102
RTVSPropertyOp45
 70
     1
102
RTVSPropertyOp46
 70
     1
102
RTVSPropertyOp47
 70
     1
102
RTVSPropertyOp48
 70
     1
102
RTVSPropertyOp49
 70
     1
102
RTVSPropertyOp50
 70
     1
102
RTVSPropertyOp51
 70
     0
102
RTVSPropertyOp52
 70
     0
102
RTVSPropertyOp53
 70
     1
102
RTVSPropertyOp54
 70
     1
102
RTVSPropertyOp55
 70
     1
102
RTVSPropertyOp56
 70
     1
102
RTVSPropertyOp57
 70
     1
102
RTVSPropertyOp58
 70
     1
102
RTVSPropertyOp59
 70
     1
102
RTVSPropertyOp60
 70
     1
102
RTVSPropertyOp61
 70
     1
102
RTVSPropertyOp62
 70
     1
  0
XRECORD
  5
A9F6
102
{ACAD_REACTORS
330
A9F5
102
}
330
A9F5
100
AcDbXrecord
280
     1
102
RTVSPost2010Prop28
280
     0
102
RTVSPost2010PropOp28
 70
     1
102
RTVSPost2010Prop29
280
     1
102
RTVSPost2010PropOp29
 70
     1
102
RTVSPost2010Prop30
280
     1
102
RTVSPost2010PropOp30
 70
     1
102
RTVSPost2010Prop31
280
     0
102
RTVSPost2010PropOp31
 70
     1
102
RTVSPost2010Prop32
280
     0
102
RTVSPost2010PropOp32
 70
     1
102
RTVSPost2010Prop33
280
     0
102
RTVSPost2010PropOp33
 70
     1
102
RTVSPost2010Prop34
280
     0
102
RTVSPost2010PropOp34
 70
     1
102
RTVSPost2010Prop35
280
     0
102
RTVSPost2010PropOp35
 70
     1
102
RTVSPost2010Prop36
280
     0
102
RTVSPost2010PropOp36
 70
     1
102
RTVSPost2010Prop37
 90
       50
102
RTVSPost2010PropOp37
 70
     1
102
RTVSPost2010Prop38
140
0.0
102
RTVSPost2010PropOp38
 70
     1
102
RTVSPost2010Prop39
140
1.0
102
RTVSPost2010PropOp39
 70
     1
102
RTVSPost2010Prop40
 90
        0
102
RTVSPost2010PropOp40
 70
     1
102
RTVSPost2010Prop41ColorIndex
 90
       18
102
RTVSPost2010Prop41ColorRGB
 90
        0
102
RTVSPost2010PropOp41
 70
     1
102
RTVSPost2010Prop42
 90
       50
102
RTVSPost2010PropOp42
 70
     1
102
RTVSPost2010Prop43
 90
        3
102
RTVSPost2010PropOp43
 70
     1
102
RTVSPost2010Prop44ColorIndex
 90
        5
102
RTVSPost2010Prop44ColorRGB
 90
      255
102
RTVSPost2010PropOp44
 70
     1
102
RTVSPost2010Prop45
280
     0
102
RTVSPost2010PropOp45
 70
     1
102
RTVSPost2010Prop46
 90
       50
102
RTVSPost2010PropOp46
 70
     1
102
RTVSPost2010Prop47
 90
       50
102
RTVSPost2010PropOp47
 70
     1
102
RTVSPost2010Prop48
 90
       50
102
RTVSPost2010PropOp48
 70
     1
102
RTVSPost2010Prop49
280
     0
102
RTVSPost2010PropOp49
 70
     1
102
RTVSPost2010Prop50
 90
       50
102
RTVSPost2010PropOp50
 70
     1
102
RTVSPost2010Prop51ColorIndex
 90
      256
102
RTVSPost2010Prop51ColorRGB
 90
-16777216
102
RTVSPost2010PropOp51
 70
     0
102
RTVSPost2010Prop52
140
1.0
102
RTVSPost2010PropOp52
 70
     0
102
RTVSPost2010Prop53
 90
        2
102
RTVSPost2010PropOp53
 70
     1
102
RTVSPost2010Prop54
  1
strokes_ogs.tif
102
RTVSPost2010PropOp54
 70
     1
102
RTVSPost2010Prop55
280
     0
102
RTVSPost2010PropOp55
 70
     1
102
RTVSPost2010Prop56
140
1.0
102
RTVSPost2010PropOp56
 70
     1
102
RTVSPost2010Prop57
140
1.0
102
RTVSPost2010PropOp57
 70
     1
102
RTVSPropertyOp0
 70
     1
102
RTVSPropertyOp1
 70
     1
102
RTVSPropertyOp2
 70
     1
102
RTVSPropertyOp3
 70
     1
102
RTVSPropertyOp4
 70
     1
102
RTVSPropertyOp5
 70
     1
102
RTVSPropertyOp6
 70
     1
102
RTVSPropertyOp7
 70
     1
102
RTVSPropertyOp8
 70
     1
102
RTVSPropertyOp9
 70
     1
102
RTVSPropertyOp10
 70
     1
102
RTVSPropertyOp11
 70
     1
102
RTVSPropertyOp12
 70
     1
102
RTVSPropertyOp13
 70
     1
102
RTVSPropertyOp14
 70
     1
102
RTVSPropertyOp15
 70
     1
102
RTVSPropertyOp16
 70
     1
102
RTVSPropertyOp17
 70
     1
102
RTVSPropertyOp18
 70
     1
102
RTVSPropertyOp19
 70
     1
102
RTVSPropertyOp20
 70
     1
102
RTVSPropertyOp21
 70
     1
102
RTVSPropertyOp22
 70
     1
102
RTVSPropertyOp23
 70
     1
102
RTVSPropertyOp24
 70
     1
102
RTVSPropertyOp25
 70
     1
102
RTVSPropertyOp26
 70
     1
102
RTVSPropertyOp27
 70
     1
102
RTVSPropertyOp28
 70
     1
102
RTVSPropertyOp29
 70
     1
102
RTVSPropertyOp30
 70
     1
102
RTVSPropertyOp31
 70
     1
102
RTVSPropertyOp32
 70
     1
102
RTVSPropertyOp33
 70
     1
102
RTVSPropertyOp34
 70
     1
102
RTVSPropertyOp35
 70
     1
102
RTVSPropertyOp36
 70
     1
102
RTVSPropertyOp37
 70
     1
102
RTVSPropertyOp38
 70
     1
102
RTVSPropertyOp39
 70
     1
102
RTVSPropertyOp40
 70
     1
102
RTVSPropertyOp41
 70
     1
102
RTVSPropertyOp42
 70
     1
102
RTVSPropertyOp43
 70
     1
102
RTVSPropertyOp44
 70
     1
102
RTVSPropertyOp45
 70
     1
102
RTVSPropertyOp46
 70
     1
102
RTVSPropertyOp47
 70
     1
102
RTVSPropertyOp48
 70
     1
102
RTVSPropertyOp49
 70
     1
102
RTVSPropertyOp50
 70
     1
102
RTVSPropertyOp51
 70
     0
102
RTVSPropertyOp52
 70
     0
102
RTVSPropertyOp53
 70
     1
102
RTVSPropertyOp54
 70
     1
102
RTVSPropertyOp55
 70
     1
102
RTVSPropertyOp56
 70
     1
102
RTVSPropertyOp57
 70
     1
102
RTVSPropertyOp58
 70
     1
102
RTVSPropertyOp59
 70
     1
102
RTVSPropertyOp60
 70
     1
102
RTVSPropertyOp61
 70
     1
102
RTVSPropertyOp62
 70
     1
  0
XRECORD
  5
AA0E
102
{ACAD_REACTORS
330
AA0D
102
}
330
AA0D
100
AcDbXrecord
280
     1
102
RTVSPost2010Prop28
280
     0
102
RTVSPost2010PropOp28
 70
     1
102
RTVSPost2010Prop29
280
     1
102
RTVSPost2010PropOp29
 70
     1
102
RTVSPost2010Prop30
280
     1
102
RTVSPost2010PropOp30
 70
     1
102
RTVSPost2010Prop31
280
     0
102
RTVSPost2010PropOp31
 70
     1
102
RTVSPost2010Prop32
280
     0
102
RTVSPost2010PropOp32
 70
     1
102
RTVSPost2010Prop33
280
     0
102
RTVSPost2010PropOp33
 70
     1
102
RTVSPost2010Prop34
280
     0
102
RTVSPost2010PropOp34
 70
     1
102
RTVSPost2010Prop35
280
     0
102
RTVSPost2010PropOp35
 70
     1
102
RTVSPost2010Prop36
280
     0
102
RTVSPost2010PropOp36
 70
     1
102
RTVSPost2010Prop37
 90
       50
102
RTVSPost2010PropOp37
 70
     1
102
RTVSPost2010Prop38
140
0.0
102
RTVSPost2010PropOp38
 70
     1
102
RTVSPost2010Prop39
140
1.0
102
RTVSPost2010PropOp39
 70
     1
102
RTVSPost2010Prop40
 90
        0
102
RTVSPost2010PropOp40
 70
     1
102
RTVSPost2010Prop41ColorIndex
 90
       18
102
RTVSPost2010Prop41ColorRGB
 90
        0
102
RTVSPost2010PropOp41
 70
     1
102
RTVSPost2010Prop42
 90
       50
102
RTVSPost2010PropOp42
 70
     1
102
RTVSPost2010Prop43
 90
        3
102
RTVSPost2010PropOp43
 70
     1
102
RTVSPost2010Prop44ColorIndex
 90
        5
102
RTVSPost2010Prop44ColorRGB
 90
      255
102
RTVSPost2010PropOp44
 70
     1
102
RTVSPost2010Prop45
280
     0
102
RTVSPost2010PropOp45
 70
     1
102
RTVSPost2010Prop46
 90
       50
102
RTVSPost2010PropOp46
 70
     1
102
RTVSPost2010Prop47
 90
       50
102
RTVSPost2010PropOp47
 70
     1
102
RTVSPost2010Prop48
 90
       50
102
RTVSPost2010PropOp48
 70
     1
102
RTVSPost2010Prop49
280
     0
102
RTVSPost2010PropOp49
 70
     1
102
RTVSPost2010Prop50
 90
       50
102
RTVSPost2010PropOp50
 70
     1
102
RTVSPost2010Prop51ColorIndex
 90
      256
102
RTVSPost2010Prop51ColorRGB
 90
-16777216
102
RTVSPost2010PropOp51
 70
     0
102
RTVSPost2010Prop52
140
1.0
102
RTVSPost2010PropOp52
 70
     0
102
RTVSPost2010Prop53
 90
        2
102
RTVSPost2010PropOp53
 70
     1
102
RTVSPost2010Prop54
  1
strokes_ogs.tif
102
RTVSPost2010PropOp54
 70
     1
102
RTVSPost2010Prop55
280
     0
102
RTVSPost2010PropOp55
 70
     1
102
RTVSPost2010Prop56
140
1.0
102
RTVSPost2010PropOp56
 70
     1
102
RTVSPost2010Prop57
140
1.0
102
RTVSPost2010PropOp57
 70
     1
102
RTVSPropertyOp0
 70
     1
102
RTVSPropertyOp1
 70
     1
102
RTVSPropertyOp2
 70
     1
102
RTVSPropertyOp3
 70
     1
102
RTVSPropertyOp4
 70
     1
102
RTVSPropertyOp5
 70
     1
102
RTVSPropertyOp6
 70
     1
102
RTVSPropertyOp7
 70
     1
102
RTVSPropertyOp8
 70
     1
102
RTVSPropertyOp9
 70
     1
102
RTVSPropertyOp10
 70
     1
102
RTVSPropertyOp11
 70
     1
102
RTVSPropertyOp12
 70
     1
102
RTVSPropertyOp13
 70
     1
102
RTVSPropertyOp14
 70
     1
102
RTVSPropertyOp15
 70
     1
102
RTVSPropertyOp16
 70
     1
102
RTVSPropertyOp17
 70
     1
102
RTVSPropertyOp18
 70
     1
102
RTVSPropertyOp19
 70
     1
102
RTVSPropertyOp20
 70
     1
102
RTVSPropertyOp21
 70
     1
102
RTVSPropertyOp22
 70
     1
102
RTVSPropertyOp23
 70
     1
102
RTVSPropertyOp24
 70
     1
102
RTVSPropertyOp25
 70
     1
102
RTVSPropertyOp26
 70
     1
102
RTVSPropertyOp27
 70
     1
102
RTVSPropertyOp28
 70
     1
102
RTVSPropertyOp29
 70
     1
102
RTVSPropertyOp30
 70
     1
102
RTVSPropertyOp31
 70
     1
102
RTVSPropertyOp32
 70
     1
102
RTVSPropertyOp33
 70
     1
102
RTVSPropertyOp34
 70
     1
102
RTVSPropertyOp35
 70
     1
102
RTVSPropertyOp36
 70
     1
102
RTVSPropertyOp37
 70
     1
102
RTVSPropertyOp38
 70
     1
102
RTVSPropertyOp39
 70
     1
102
RTVSPropertyOp40
 70
     1
102
RTVSPropertyOp41
 70
     1
102
RTVSPropertyOp42
 70
     1
102
RTVSPropertyOp43
 70
     1
102
RTVSPropertyOp44
 70
     1
102
RTVSPropertyOp45
 70
     1
102
RTVSPropertyOp46
 70
     1
102
RTVSPropertyOp47
 70
     1
102
RTVSPropertyOp48
 70
     1
102
RTVSPropertyOp49
 70
     1
102
RTVSPropertyOp50
 70
     1
102
RTVSPropertyOp51
 70
     0
102
RTVSPropertyOp52
 70
     0
102
RTVSPropertyOp53
 70
     1
102
RTVSPropertyOp54
 70
     1
102
RTVSPropertyOp55
 70
     1
102
RTVSPropertyOp56
 70
     1
102
RTVSPropertyOp57
 70
     1
102
RTVSPropertyOp58
 70
     1
102
RTVSPropertyOp59
 70
     1
102
RTVSPropertyOp60
 70
     1
102
RTVSPropertyOp61
 70
     1
102
RTVSPropertyOp62
 70
     1
  0
ENDSEC
  0
EOF
