  0
SECTION
  2
HEADER
  9
$ACADVER
  1
AC1015
  9
$ACADMAINTVER
 70
    20
  9
$DWGCODEPAGE
  3
ANSI_932
  9
$INSBASE
 10
0.0
 20
0.0
 30
0.0
  9
$EXTMIN
 10
10.0
 20
9.999999999999998
 30
0.0
  9
$EXTMAX
 10
415.512513
 20
321.4578389999999
 30
0.0
  9
$LIMMIN
 10
0.0
 20
0.0
  9
$LIMMAX
 10
495.0
 20
341.25
  9
$ORTHOMODE
 70
     1
  9
$REGENMODE
 70
     1
  9
$FILLMODE
 70
     1
  9
$QTEXTMODE
 70
     0
  9
$MIRRTEXT
 70
     1
  9
$LTSCALE
 40
20.0
  9
$ATTMODE
 70
     1
  9
$TEXTSIZE
 40
5.0
  9
$TRACEWID
 40
1.0
  9
$TEXTSTYLE
  7
STANDARD
  9
$CLAYER
  8
0
  9
$CELTYPE
  6
BYLAYER
  9
$CECOLOR
 62
   256
  9
$CELTSCALE
 40
1.0
  9
$DISPSILH
 70
     0
  9
$DIMSCALE
 40
1.0
  9
$DIMASZ
 40
3.0
  9
$DIMEXO
 40
1.0
  9
$DIMDLI
 40
10.0
  9
$DIMRND
 40
0.0
  9
$DIMDLE
 40
0.0
  9
$DIMEXE
 40
1.0
  9
$DIMTP
 40
0.0
  9
$DIMTM
 40
0.0
  9
$DIMTXT
 40
3.2
  9
$DIMCEN
 40
0.0
  9
$DIMTSZ
 40
0.0
  9
$DIMTOL
 70
     0
  9
$DIMLIM
 70
     0
  9
$DIMTIH
 70
     0
  9
$DIMTOH
 70
     0
  9
$DIMSE1
 70
     0
  9
$DIMSE2
 70
     0
  9
$DIMTAD
 70
     3
  9
$DIMZIN
 70
     8
  9
$DIMBLK
  1

  9
$DIMASO
 70
     1
  9
$DIMSHO
 70
     1
  9
$DIMPOST
  1

  9
$DIMAPOST
  1

  9
$DIMALT
 70
     0
  9
$DIMALTD
 70
     2
  9
$DIMALTF
 40
25.4
  9
$DIMLFAC
 40
1.0
  9
$DIMTOFL
 70
     1
  9
$DIMTVP
 40
0.0
  9
$DIMTIX
 70
     0
  9
$DIMSOXD
 70
     0
  9
$DIMSAH
 70
     1
  9
$DIMBLK1
  1
OPEN
  9
$DIMBLK2
  1
OPEN
  9
$DIMSTYLE
  2
STANDARD
  9
$DIMCLRD
 70
     0
  9
$DIMCLRE
 70
     0
  9
$DIMCLRT
 70
     0
  9
$DIMTFAC
 40
1.0
  9
$DIMGAP
 40
1.0
  9
$DIMJUST
 70
     0
  9
$DIMSD1
 70
     0
  9
$DIMSD2
 70
     0
  9
$DIMTOLJ
 70
     1
  9
$DIMTZIN
 70
     0
  9
$DIMALTZ
 70
     0
  9
$DIMALTTZ
 70
     0
  9
$DIMUPT
 70
     0
  9
$DIMDEC
 70
     4
  9
$DIMTDEC
 70
     4
  9
$DIMALTU
 70
     2
  9
$DIMALTTD
 70
     2
  9
$DIMTXSTY
  7
STANDARD
  9
$DIMAUNIT
 70
     0
  9
$DIMADEC
 70
     0
  9
$DIMALTRND
 40
0.0
  9
$DIMAZIN
 70
     0
  9
$DIMDSEP
 70
    46
  9
$DIMATFIT
 70
     3
  9
$DIMFRAC
 70
     0
  9
$DIMLDRBLK
  1
OPEN
  9
$DIMLUNIT
 70
     2
  9
$DIMLWD
 70
    -2
  9
$DIMLWE
 70
    -2
  9
$DIMTMOVE
 70
     0
  9
$LUNITS
 70
     2
  9
$LUPREC
 70
     4
  9
$SKETCHINC
 40
1.0
  9
$FILLETRAD
 40
2.0
  9
$AUNITS
 70
     0
  9
$AUPREC
 70
     2
  9
$MENU
  1
.
  9
$ELEVATION
 40
0.0
  9
$PELEVATION
 40
0.0
  9
$THICKNESS
 40
0.0
  9
$LIMCHECK
 70
     0
  9
$CHAMFERA
 40
10.0
  9
$CHAMFERB
 40
10.0
  9
$CHAMFERC
 40
0.0
  9
$CHAMFERD
 40
0.0
  9
$SKPOLY
 70
     0
  9
$TDCREATE
 40
2451301.406600579
  9
$TDUCREATE
 40
2451301.031600578
  9
$TDUPDATE
 40
2457192.686474213
  9
$TDUUPDATE
 40
2457192.311474213
  9
$TDINDWG
 40
0.0000118403
  9
$TDUSRTIMER
 40
0.0000113542
  9
$USRTIMER
 70
     1
  9
$ANGBASE
 50
0.0
  9
$ANGDIR
 70
     0
  9
$PDMODE
 70
     0
  9
$PDSIZE
 40
0.0
  9
$PLINEWID
 40
0.0
  9
$SPLFRAME
 70
     0
  9
$SPLINETYPE
 70
     6
  9
$SPLINESEGS
 70
     8
  9
$HANDSEED
  5
ACE9
  9
$SURFTAB1
 70
     6
  9
$SURFTAB2
 70
     6
  9
$SURFTYPE
 70
     6
  9
$SURFU
 70
     6
  9
$SURFV
 70
     6
  9
$UCSBASE
  2

  9
$UCSNAME
  2

  9
$UCSORG
 10
0.0
 20
0.0
 30
0.0
  9
$UCSXDIR
 10
1.0
 20
0.0
 30
0.0
  9
$UCSYDIR
 10
0.0
 20
1.0
 30
0.0
  9
$UCSORTHOREF
  2

  9
$UCSORTHOVIEW
 70
     0
  9
$UCSORGTOP
 10
0.0
 20
0.0
 30
0.0
  9
$UCSORGBOTTOM
 10
0.0
 20
0.0
 30
0.0
  9
$UCSORGLEFT
 10
0.0
 20
0.0
 30
0.0
  9
$UCSORGRIGHT
 10
0.0
 20
0.0
 30
0.0
  9
$UCSORGFRONT
 10
0.0
 20
0.0
 30
0.0
  9
$UCSORGBACK
 10
0.0
 20
0.0
 30
0.0
  9
$PUCSBASE
  2

  9
$PUCSNAME
  2

  9
$PUCSORG
 10
0.0
 20
0.0
 30
0.0
  9
$PUCSXDIR
 10
1.0
 20
0.0
 30
0.0
  9
$PUCSYDIR
 10
0.0
 20
1.0
 30
0.0
  9
$PUCSORTHOREF
  2

  9
$PUCSORTHOVIEW
 70
     0
  9
$PUCSORGTOP
 10
0.0
 20
0.0
 30
0.0
  9
$PUCSORGBOTTOM
 10
0.0
 20
0.0
 30
0.0
  9
$PUCSORGLEFT
 10
0.0
 20
0.0
 30
0.0
  9
$PUCSORGRIGHT
 10
0.0
 20
0.0
 30
0.0
  9
$PUCSORGFRONT
 10
0.0
 20
0.0
 30
0.0
  9
$PUCSORGBACK
 10
0.0
 20
0.0
 30
0.0
  9
$USERI1
 70
     0
  9
$USERI2
 70
     0
  9
$USERI3
 70
     0
  9
$USERI4
 70
     0
  9
$USERI5
 70
     0
  9
$USERR1
 40
0.0
  9
$USERR2
 40
0.0
  9
$USERR3
 40
0.0
  9
$USERR4
 40
0.0
  9
$USERR5
 40
0.0
  9
$WORLDVIEW
 70
     1
  9
$SHADEDGE
 70
     3
  9
$SHADEDIF
 70
    70
  9
$TILEMODE
 70
     1
  9
$MAXACTVP
 70
    16
  9
$PINSBASE
 10
0.0
 20
0.0
 30
0.0
  9
$PLIMCHECK
 70
     0
  9
$PEXTMIN
 10
1.000000000000000E+20
 20
1.000000000000000E+20
 30
1.000000000000000E+20
  9
$PEXTMAX
 10
-1.000000000000000E+20
 20
-1.000000000000000E+20
 30
-1.000000000000000E+20
  9
$PLIMMIN
 10
0.0
 20
0.0
  9
$PLIMMAX
 10
420.0
 20
297.0
  9
$UNITMODE
 70
     0
  9
$VISRETAIN
 70
     0
  9
$PLINEGEN
 70
     0
  9
$PSLTSCALE
 70
     0
  9
$TREEDEPTH
 70
  3020
  9
$CMLSTYLE
  2
STANDARD
  9
$CMLJUST
 70
     0
  9
$CMLSCALE
 40
1.0
  9
$PROXYGRAPHICS
 70
     1
  9
$MEASUREMENT
 70
     0
  9
$CELWEIGHT
370
    -1
  9
$ENDCAPS
280
     0
  9
$JOINSTYLE
280
     0
  9
$LWDISPLAY
290
     0
  9
$INSUNITS
 70
     0
  9
$HYPERLINKBASE
  1

  9
$STYLESHEET
  1

  9
$XEDIT
290
     1
  9
$CEPSNTYPE
380
     0
  9
$PSTYLEMODE
290
     1
  9
$FINGERPRINTGUID
  2
{5A40BC07-87F9-4EC3-9990-6DE122992E94}
  9
$VERSIONGUID
  2
{FF2C290C-951D-405E-AED6-4BABD49A0CA5}
  9
$EXTNAMES
290
     1
  9
$PSVPSCALE
 40
0.0
  9
$OLESTARTUP
290
     0
  0
ENDSEC
  0
SECTION
  2
CLASSES
  0
CLASS
  1
ACDBDICTIONARYWDFLT
  2
AcDbDictionaryWithDefault
  3
ObjectDBX Classes
 90
        0
280
     0
281
     0
  0
CLASS
  1
ACDBPLACEHOLDER
  2
AcDbPlaceHolder
  3
ObjectDBX Classes
 90
        0
280
     0
281
     0
  0
CLASS
  1
LAYOUT
  2
AcDbLayout
  3
ObjectDBX Classes
 90
        0
280
     0
281
     0
  0
CLASS
  1
DICTIONARYVAR
  2
AcDbDictionaryVar
  3
ObjectDBX Classes
 90
        0
280
     0
281
     0
  0
CLASS
  1
MATERIAL
  2
AcDbMaterial
  3
ObjectDBX Classes
 90
     1153
280
     0
281
     0
  0
CLASS
  1
VISUALSTYLE
  2
AcDbVisualStyle
  3
ObjectDBX Classes
 90
     4095
280
     0
281
     0
  0
CLASS
  1
TABLESTYLE
  2
AcDbTableStyle
  3
ObjectDBX Classes
 90
     4095
280
     0
281
     0
  0
CLASS
  1
SCALE
  2
AcDbScale
  3
ObjectDBX Classes
 90
     1153
280
     0
281
     0
  0
CLASS
  1
MLEADERSTYLE
  2
AcDbMLeaderStyle
  3
ACDB_MLEADERSTYLE_CLASS
 90
     4095
280
     0
281
     0
  0
CLASS
  1
ACDBSECTIONVIEWSTYLE
  2
AcDbSectionViewStyle
  3
ObjectDBX Classes
 90
     1025
280
     0
281
     0
  0
CLASS
  1
ACDBDETAILVIEWSTYLE
  2
AcDbDetailViewStyle
  3
ObjectDBX Classes
 90
     1025
280
     0
281
     0
  0
CLASS
  1
CELLSTYLEMAP
  2
AcDbCellStyleMap
  3
ObjectDBX Classes
 90
     1152
280
     0
281
     0
  0
ENDSEC
  0
SECTION
  2
TABLES
  0
TABLE
  2
VPORT
  5
A941
330
0
100
AcDbSymbolTable
 70
     1
  0
VPORT
  5
AC32
330
A941
100
AcDbSymbolTableRecord
100
AcDbViewportTableRecord
  2
*ACTIVE
 70
     0
 10
0.0
 20
0.0
 11
1.0
 21
1.0
 12
307.0993590236838
 22
165.7303627273129
 13
0.0
 23
0.0
 14
10.0
 24
10.0
 15
10.0
 25
10.0
 16
0.0
 26
0.0
 36
1.0
 17
0.0
 27
0.0
 37
0.0
 40
314.9282739615632
 41
2.35006605019815
 42
50.0
 43
0.0
 44
0.0
 50
0.0
 51
0.0
 71
     0
 72
   100
 73
     1
 74
     0
 75
     0
 76
     0
 77
     0
 78
     0
281
     0
 65
     1
110
0.0
120
0.0
130
0.0
111
1.0
121
0.0
131
0.0
112
0.0
122
1.0
132
0.0
 79
     0
146
0.0
1001
ACAD_NAV_VCDISPLAY
1070
     3
  0
ENDTAB
  0
TABLE
  2
LTYPE
  5
A93E
330
0
100
AcDbSymbolTable
 70
     4
  0
LTYPE
  5
A94C
330
A93E
100
AcDbSymbolTableRecord
100
AcDbLinetypeTableRecord
  2
BYBLOCK
 70
     0
  3

 72
    65
 73
     0
 40
0.0
  0
LTYPE
  5
A94D
330
A93E
100
AcDbSymbolTableRecord
100
AcDbLinetypeTableRecord
  2
BYLAYER
 70
     0
  3

 72
    65
 73
     0
 40
0.0
  0
LTYPE
  5
A94E
330
A93E
100
AcDbSymbolTableRecord
100
AcDbLinetypeTableRecord
  2
CONTINUOUS
 70
     0
  3
Solid line
 72
    65
 73
     0
 40
0.0
  0
LTYPE
  5
A95C
330
A93E
100
AcDbSymbolTableRecord
100
AcDbLinetypeTableRecord
  2
DASHED
 70
     0
  3
__ __ __ __ __ __ __ __ __ __ __ __ __ __ __ __
 72
    65
 73
     2
 40
0.75
 49
0.5
 74
     0
 49
-0.25
 74
     0
  0
LTYPE
  5
A95D
330
A93E
100
AcDbSymbolTableRecord
100
AcDbLinetypeTableRecord
  2
CENTER
 70
     0
  3
____ _ ____ _ ____ _ ____ _ ____ _ ____ _ ____ 
 72
    65
 73
     4
 40
2.0
 49
1.25
 74
     0
 49
-0.25
 74
     0
 49
0.25
 74
     0
 49
-0.25
 74
     0
  0
LTYPE
  5
A95E
330
A93E
100
AcDbSymbolTableRecord
100
AcDbLinetypeTableRecord
  2
PHANTOM
 70
     0
  3
______  __  __  ______  __  __  ______  __  __ 
 72
    65
 73
     6
 40
2.5
 49
1.25
 74
     0
 49
-0.25
 74
     0
 49
0.25
 74
     0
 49
-0.25
 74
     0
 49
0.25
 74
     0
 49
-0.25
 74
     0
  0
ENDTAB
  0
TABLE
  2
LAYER
  5
A93B
330
0
100
AcDbSymbolTable
 70
     8
  0
LAYER
  5
A949
102
{ACAD_XDICTIONARY
360
AC8D
102
}
330
A93B
100
AcDbSymbolTableRecord
100
AcDbLayerTableRecord
  2
0
 70
     0
 62
     7
  6
CONTINUOUS
370
    -3
390
AC3B
  0
LAYER
  5
A95F
102
{ACAD_XDICTIONARY
360
AC8F
102
}
330
A93B
100
AcDbSymbolTableRecord
100
AcDbLayerTableRecord
  2
4
 70
     0
 62
     1
  6
CENTER
370
    -3
390
AC3B
  0
LAYER
  5
A960
102
{ACAD_XDICTIONARY
360
AC91
102
}
330
A93B
100
AcDbSymbolTableRecord
100
AcDbLayerTableRecord
  2
5
 70
     0
 62
     6
  6
PHANTOM
370
    -3
390
AC3B
  0
LAYER
  5
A961
102
{ACAD_XDICTIONARY
360
AC93
102
}
330
A93B
100
AcDbSymbolTableRecord
100
AcDbLayerTableRecord
  2
1
 70
     0
 62
     7
  6
CONTINUOUS
370
    -3
390
AC3B
  0
LAYER
  5
A962
102
{ACAD_XDICTIONARY
360
AC95
102
}
330
A93B
100
AcDbSymbolTableRecord
100
AcDbLayerTableRecord
  2
2
 70
     0
 62
     4
  6
CONTINUOUS
370
    -3
390
AC3B
  0
LAYER
  5
A963
102
{ACAD_XDICTIONARY
360
AC97
102
}
330
A93B
100
AcDbSymbolTableRecord
100
AcDbLayerTableRecord
  2
3
 70
     0
 62
     2
  6
DASHED
370
    -3
390
AC3B
  0
LAYER
  5
A964
102
{ACAD_XDICTIONARY
360
AC99
102
}
330
A93B
100
AcDbSymbolTableRecord
100
AcDbLayerTableRecord
  2
6
 70
     0
 62
     5
  6
CONTINUOUS
370
    -3
390
AC3B
  0
LAYER
  5
A965
102
{ACAD_XDICTIONARY
360
AC9B
102
}
330
A93B
100
AcDbSymbolTableRecord
100
AcDbLayerTableRecord
  2
7
 70
     0
 62
     3
  6
CONTINUOUS
370
    -3
390
AC3B
  0
ENDTAB
  0
TABLE
  2
STYLE
  5
A93C
330
0
100
AcDbSymbolTable
 70
     1
  0
STYLE
  5
A94A
330
A93C
100
AcDbSymbolTableRecord
100
AcDbTextStyleTableRecord
  2
STANDARD
 70
     0
 40
0.0
 41
1.0
 50
0.0
 71
     0
 42
5.0
  3
txt
  4

  0
ENDTAB
  0
TABLE
  2
VIEW
  5
A93F
330
0
100
AcDbSymbolTable
 70
     0
  0
ENDTAB
  0
TABLE
  2
UCS
  5
A940
330
0
100
AcDbSymbolTable
 70
     0
  0
ENDTAB
  0
TABLE
  2
APPID
  5
A942
330
0
100
AcDbSymbolTable
 70
     3
  0
APPID
  5
A94B
330
A942
100
AcDbSymbolTableRecord
100
AcDbRegAppTableRecord
  2
ACAD
 70
     0
  0
APPID
  5
ACA7
330
A942
100
AcDbSymbolTableRecord
100
AcDbRegAppTableRecord
  2
ACAD_NAV_VCDISPLAY
 70
     0
  0
APPID
  5
ACE0
330
A942
100
AcDbSymbolTableRecord
100
AcDbRegAppTableRecord
  2
ACAD_MLEADERVER
 70
     0
  0
ENDTAB
  0
TABLE
  2
DIMSTYLE
  5
A943
330
0
100
AcDbSymbolTable
 70
     1
100
AcDbDimStyleTable
 71
     0
  0
DIMSTYLE
105
A967
330
A943
100
AcDbSymbolTableRecord
100
AcDbDimStyleTableRecord
  2
STANDARD
 70
     0
 41
3.0
 42
1.0
 43
10.0
 44
1.0
 73
     0
 74
     0
 77
     3
 78
     8
140
3.2
141
0.0
147
1.0
172
     1
173
     1
284
     8
285
     8
286
     8
340
A94A
  0
ENDTAB
  0
TABLE
  2
BLOCK_RECORD
  5
A93A
330
0
100
AcDbSymbolTable
 70
     1
  0
BLOCK_RECORD
  5
A957
102
{ACAD_XDICTIONARY
360
AC35
102
}
330
A93A
100
AcDbSymbolTableRecord
100
AcDbBlockTableRecord
  2
*MODEL_SPACE
340
AC89
  0
BLOCK_RECORD
  5
A953
102
{ACAD_XDICTIONARY
360
AC33
102
}
330
A93A
100
AcDbSymbolTableRecord
100
AcDbBlockTableRecord
  2
*PAPER_SPACE
340
AC8A
  0
BLOCK_RECORD
  5
A96F
330
A93A
100
AcDbSymbolTableRecord
100
AcDbBlockTableRecord
  2
_OPEN
340
0
  0
ENDTAB
  0
ENDSEC
  0
SECTION
  2
BLOCKS
  0
BLOCK
  5
A958
330
A957
100
AcDbEntity
  8
0
100
AcDbBlockBegin
  2
*MODEL_SPACE
 70
     0
 10
0.0
 20
0.0
 30
0.0
  3
*MODEL_SPACE
  1

  0
ENDBLK
  5
A959
330
A957
100
AcDbEntity
  8
0
100
AcDbBlockEnd
  0
BLOCK
  5
A954
330
A953
100
AcDbEntity
 67
     1
  8
0
100
AcDbBlockBegin
  2
*PAPER_SPACE
 70
     0
 10
0.0
 20
0.0
 30
0.0
  3
*PAPER_SPACE
  1

  0
ENDBLK
  5
A955
330
A953
100
AcDbEntity
 67
     1
  8
0
100
AcDbBlockEnd
  0
BLOCK
  5
A970
330
A96F
100
AcDbEntity
  8
0
100
AcDbBlockBegin
  2
_OPEN
 70
     0
 10
0.0
 20
0.0
 30
0.0
  3
_OPEN
  1

  0
LINE
  5
A971
330
A96F
100
AcDbEntity
  8
0
  6
ByBlock
 62
     0
100
AcDbLine
 10
-1.0
 20
0.166667
 30
0.0
 11
0.0
 21
0.0
 31
0.0
  0
LINE
  5
A972
330
A96F
100
AcDbEntity
  8
0
  6
ByBlock
 62
     0
100
AcDbLine
 10
0.0
 20
0.0
 30
0.0
 11
-1.0
 21
-0.166667
 31
0.0
  0
LINE
  5
A973
330
A96F
100
AcDbEntity
  8
0
  6
ByBlock
 62
     0
100
AcDbLine
 10
0.0
 20
0.0
 30
0.0
 11
-1.0
 21
0.0
 31
0.0
  0
ENDBLK
  5
A974
330
A96F
100
AcDbEntity
  8
0
100
AcDbBlockEnd
  0
ENDSEC
  0
SECTION
  2
ENTITIES
  0
TEXT
  5
A975
330
A957
100
AcDbEntity
  8
7
  6
Continuous
100
AcDbText
 10
10.0
 20
18.0
 30
0.0
 40
3.0
  1
TYPE No.102HB2-PA
100
AcDbText
  0
TEXT
  5
A976
330
A957
100
AcDbEntity
  8
7
  6
Continuous
100
AcDbText
 10
10.0
 20
26.0
 30
0.0
 40
3.0
  1
CODE No.19076
100
AcDbText
  0
TEXT
  5
A977
330
A957
100
AcDbEntity
  8
1
  6
Continuous
100
AcDbText
 10
10.0
 20
10.0
 30
0.0
 40
1.399999999999999
  1
LAYER
100
AcDbText
  0
TEXT
  5
A978
330
A957
100
AcDbEntity
  8
1
  6
Continuous
100
AcDbText
 10
17.97951099999998
 20
10.04873699999998
 30
0.0
 40
1.399999999999999
  1
1
100
AcDbText
  0
TEXT
  5
A979
330
A957
100
AcDbEntity
  8
7
  6
Continuous
100
AcDbText
 10
29.97951099999999
 20
10.04873699999998
 30
0.0
 40
1.399999999999999
  1
7
100
AcDbText
  0
TEXT
  5
A97A
330
A957
100
AcDbEntity
  8
4
  6
CENTER
100
AcDbText
 10
23.97951099999999
 20
10.04873699999998
 30
0.0
 40
1.399999999999999
  1
4
100
AcDbText
  0
TEXT
  5
A97B
330
A957
100
AcDbEntity
  8
3
  6
DASHED
100
AcDbText
 10
21.979511
 20
10.04873699999998
 30
0.0
 40
1.399999999999999
  1
3
100
AcDbText
  0
TEXT
  5
A97C
330
A957
100
AcDbEntity
  8
2
  6
Continuous
100
AcDbText
 10
19.97951099999999
 20
10.04873699999998
 30
0.0
 40
1.399999999999999
  1
2
100
AcDbText
  0
TEXT
  5
A97D
330
A957
100
AcDbEntity
  8
6
  6
Continuous
100
AcDbText
 10
27.979511
 20
10.04873699999998
 30
0.0
 40
1.399999999999999
  1
6
100
AcDbText
  0
TEXT
  5
A97E
330
A957
100
AcDbEntity
  8
5
  6
PHANTOM
100
AcDbText
 10
25.97951099999999
 20
10.04873699999998
 30
0.0
 40
1.399999999999999
  1
5
100
AcDbText
  0
LINE
  5
A97F
330
A957
100
AcDbEntity
  8
4
  6
CENTER
100
AcDbLine
 10
32.05526799999999
 20
171.3149699999999
 30
0.0
 11
87.555268
 21
171.3149699999999
 31
0.0
  0
LINE
  5
A980
330
A957
100
AcDbEntity
  8
1
  6
Continuous
100
AcDbLine
 10
28.855268
 20
209.0149699999999
 30
0.0
 11
86.85526800000003
 21
209.0149699999999
 31
0.0
  0
LINE
  5
A981
330
A957
100
AcDbEntity
  8
1
  6
Continuous
100
AcDbLine
 10
28.855268
 20
211.31497
 30
0.0
 11
86.85526800000003
 21
211.31497
 31
0.0
  0
ARC
  5
A982
330
A957
100
AcDbEntity
  8
1
  6
Continuous
100
AcDbCircle
 10
45.55526799999999
 20
171.3149699999999
 30
0.0
 40
10.5
100
AcDbArc
 50
138.1896849999999
 51
221.810315
  0
LINE
  5
A983
330
A957
100
AcDbEntity
  8
4
  6
CENTER
100
AcDbLine
 10
177.074349
 20
171.3149389999998
 30
0.0
 11
131.074349
 21
171.3149389999998
 31
0.0
  0
LINE
  5
A984
330
A957
100
AcDbEntity
  8
4
  6
CENTER
100
AcDbLine
 10
154.074349
 20
148.3149389999999
 30
0.0
 11
154.074349
 21
194.3149389999999
 31
0.0
  0
LINE
  5
A985
330
A957
100
AcDbEntity
  8
4
  6
CENTER
100
AcDbLine
 10
168.074349
 20
185.6584389999999
 30
0.0
 11
168.074349
 21
216.47357
 31
0.0
  0
LINE
  5
A986
330
A957
100
AcDbEntity
  8
1
  6
Continuous
100
AcDbLine
 10
28.855268
 20
209.0149699999999
 30
0.0
 11
28.855268
 21
211.31497
 31
0.0
  0
LINE
  5
A987
330
A957
100
AcDbEntity
  8
4
  6
CENTER
100
AcDbLine
 10
202.074349
 20
287.4578389999999
 30
0.0
 11
129.074349
 21
287.4578389999999
 31
0.0
  0
LINE
  5
A988
330
A957
100
AcDbEntity
  8
4
  6
CENTER
100
AcDbLine
 10
168.074349
 20
321.4578389999999
 30
0.0
 11
168.074349
 21
253.457839
 31
0.0
  0
CIRCLE
  5
A989
330
A957
100
AcDbEntity
  8
1
  6
Continuous
100
AcDbCircle
 10
168.074349
 20
287.4578389999999
 30
0.0
 40
18.82956199999998
  0
CIRCLE
  5
A98A
330
A957
100
AcDbEntity
  8
1
  6
Continuous
100
AcDbCircle
 10
168.074349
 20
287.4578389999999
 30
0.0
 40
17.60192599999999
  0
CIRCLE
  5
A98B
330
A957
100
AcDbEntity
  8
1
  6
Continuous
100
AcDbCircle
 10
168.074349
 20
287.4578389999999
 30
0.0
 40
9.0
  0
LINE
  5
A98C
330
A957
100
AcDbEntity
  8
1
  6
Continuous
100
AcDbLine
 10
139.074349
 20
265.4578389999999
 30
0.0
 11
139.074349
 21
309.4578389999999
 31
0.0
  0
LINE
  5
A98D
330
A957
100
AcDbEntity
  8
1
  6
Continuous
100
AcDbLine
 10
197.074349
 20
265.4578389999999
 30
0.0
 11
197.074349
 21
309.4578389999999
 31
0.0
  0
LINE
  5
A98E
330
A957
100
AcDbEntity
  8
1
  6
Continuous
100
AcDbLine
 10
190.074349
 20
258.4578389999999
 30
0.0
 11
146.074349
 21
258.4578389999999
 31
0.0
  0
LINE
  5
A98F
330
A957
100
AcDbEntity
  8
4
  6
CENTER
100
AcDbLine
 10
190.074349
 20
259.2078389999999
 30
0.0
 11
190.074349
 21
271.7078389999999
 31
0.0
  0
CIRCLE
  5
A990
330
A957
100
AcDbEntity
  8
1
  6
Continuous
100
AcDbCircle
 10
190.074349
 20
265.4578389999999
 30
0.0
 40
3.25
  0
LINE
  5
A991
330
A957
100
AcDbEntity
  8
4
  6
CENTER
100
AcDbLine
 10
196.324349
 20
265.4578389999999
 30
0.0
 11
183.824349
 21
265.4578389999999
 31
0.0
  0
ARC
  5
A992
330
A957
100
AcDbEntity
  8
1
  6
Continuous
100
AcDbCircle
 10
190.074349
 20
265.4578389999999
 30
0.0
 40
7.0
100
AcDbArc
 50
270.0
 51
0.0
  0
LINE
  5
A993
330
A957
100
AcDbEntity
  8
4
  6
CENTER
100
AcDbLine
 10
152.324349
 20
265.4578389999999
 30
0.0
 11
139.824349
 21
265.4578389999999
 31
0.0
  0
LINE
  5
A994
330
A957
100
AcDbEntity
  8
4
  6
CENTER
100
AcDbLine
 10
146.074349
 20
259.2078389999999
 30
0.0
 11
146.074349
 21
271.7078389999999
 31
0.0
  0
CIRCLE
  5
A995
330
A957
100
AcDbEntity
  8
1
  6
Continuous
100
AcDbCircle
 10
146.074349
 20
265.4578389999999
 30
0.0
 40
3.25
  0
ARC
  5
A996
330
A957
100
AcDbEntity
  8
1
  6
Continuous
100
AcDbCircle
 10
146.074349
 20
265.4578389999999
 30
0.0
 40
7.0
100
AcDbArc
 50
180.0
 51
270.0
  0
LINE
  5
A997
330
A957
100
AcDbEntity
  8
1
  6
Continuous
100
AcDbLine
 10
190.074349
 20
316.4578389999999
 30
0.0
 11
146.074349
 21
316.4578389999999
 31
0.0
  0
LINE
  5
A998
330
A957
100
AcDbEntity
  8
4
  6
CENTER
100
AcDbLine
 10
190.074349
 20
303.2078389999999
 30
0.0
 11
190.074349
 21
315.7078389999999
 31
0.0
  0
ARC
  5
A999
330
A957
100
AcDbEntity
  8
1
  6
Continuous
100
AcDbCircle
 10
190.074349
 20
309.4578389999999
 30
0.0
 40
7.0
100
AcDbArc
 50
0.0
 51
90.0
  0
LINE
  5
A99A
330
A957
100
AcDbEntity
  8
4
  6
CENTER
100
AcDbLine
 10
196.324349
 20
309.4578389999999
 30
0.0
 11
183.824349
 21
309.4578389999999
 31
0.0
  0
CIRCLE
  5
A99B
330
A957
100
AcDbEntity
  8
1
  6
Continuous
100
AcDbCircle
 10
190.074349
 20
309.4578389999999
 30
0.0
 40
3.25
  0
LINE
  5
A99C
330
A957
100
AcDbEntity
  8
4
  6
CENTER
100
AcDbLine
 10
152.324349
 20
309.4578389999999
 30
0.0
 11
139.824349
 21
309.4578389999999
 31
0.0
  0
LINE
  5
A99D
330
A957
100
AcDbEntity
  8
4
  6
CENTER
100
AcDbLine
 10
146.074349
 20
303.2078389999999
 30
0.0
 11
146.074349
 21
315.7078389999999
 31
0.0
  0
ARC
  5
A99E
330
A957
100
AcDbEntity
  8
1
  6
Continuous
100
AcDbCircle
 10
146.074349
 20
309.4578389999999
 30
0.0
 40
7.0
100
AcDbArc
 50
90.0
 51
180.0
  0
CIRCLE
  5
A99F
330
A957
100
AcDbEntity
  8
1
  6
Continuous
100
AcDbCircle
 10
146.074349
 20
309.4578389999999
 30
0.0
 40
3.25
  0
LINE
  5
A9A0
330
A957
100
AcDbEntity
  8
4
  6
CENTER
100
AcDbLine
 10
57.855268
 20
216.3149699999999
 30
0.0
 11
57.855268
 21
148.31497
 31
0.0
  0
LINE
  5
A9A1
330
A957
100
AcDbEntity
  8
1
  6
Continuous
100
AcDbLine
 10
78.35526800000002
 20
200.3350129999998
 30
0.0
 11
78.35526800000002
 21
178.2431729999999
 31
0.0
  0
LINE
  5
A9A2
330
A957
100
AcDbEntity
  8
1
  6
Continuous
100
AcDbLine
 10
37.35526800000001
 20
200.3350129999998
 30
0.0
 11
37.35526800000001
 21
177.8731709999999
 31
0.0
  0
LINE
  5
A9A3
330
A957
100
AcDbEntity
  8
1
  6
Continuous
100
AcDbLine
 10
75.655268
 20
160.96497
 30
0.0
 11
75.655268
 21
191.0242659999999
 31
0.0
  0
LINE
  5
A9A4
330
A957
100
AcDbEntity
  8
1
  6
Continuous
100
AcDbLine
 10
40.055268
 20
191.0242659999999
 30
0.0
 11
40.055268
 21
160.96497
 31
0.0
  0
LINE
  5
A9A5
330
A957
100
AcDbEntity
  8
1
  6
Continuous
100
AcDbLine
 10
73.35526800000002
 20
191.580687
 30
0.0
 11
73.35526800000002
 21
160.96497
 31
0.0
  0
LINE
  5
A9A6
330
A957
100
AcDbEntity
  8
1
  6
Continuous
100
AcDbLine
 10
42.355268
 20
191.580687
 30
0.0
 11
42.355268
 21
160.96497
 31
0.0
  0
LINE
  5
A9A7
330
A957
100
AcDbEntity
  8
1
  6
Continuous
100
AcDbLine
 10
37.72903
 20
164.3149699999999
 30
0.0
 11
37.72903
 21
178.3149699999999
 31
0.0
  0
ARC
  5
A9A8
330
A957
100
AcDbEntity
  8
1
  6
Continuous
100
AcDbCircle
 10
34.792582
 20
159.7562619999999
 30
0.0
 40
5.787669999999999
100
AcDbArc
 50
24.59222999999999
 51
40.39461099999999
  0
LINE
  5
A9A9
330
A957
100
AcDbEntity
  8
1
  6
Continuous
100
AcDbLine
 10
37.72903
 20
164.3149699999999
 30
0.0
 11
40.055268
 21
164.3149699999999
 31
0.0
  0
ARC
  5
A9AA
330
A957
100
AcDbEntity
  8
1
  6
Continuous
100
AcDbCircle
 10
45.09517699999999
 20
168.5227859999999
 30
0.0
 40
7.739908999999999
100
AcDbArc
 50
212.932587
 51
220.3946109999999
  0
LINE
  5
A9AB
330
A957
100
AcDbEntity
  8
1
  6
Continuous
100
AcDbLine
 10
40.055268
 20
160.96497
 30
0.0
 11
42.355268
 21
160.96497
 31
0.0
  0
ARC
  5
A9AC
330
A957
100
AcDbEntity
  8
1
  6
Continuous
100
AcDbCircle
 10
-167.864315
 20
162.79405
 30
0.0
 40
207.9195819999999
100
AcDbArc
 50
0.0
 51
0.419119
  0
LINE
  5
A9AD
330
A957
100
AcDbEntity
  8
1
  6
Continuous
100
AcDbLine
 10
37.72903
 20
178.3149699999999
 30
0.0
 11
40.055268
 21
178.3149699999999
 31
0.0
  0
LINE
  5
A9AE
330
A957
100
AcDbEntity
  8
1
  6
Continuous
100
AcDbLine
 10
77.655268
 20
163.8149699999999
 30
0.0
 11
77.655268
 21
178.8149699999999
 31
0.0
  0
LINE
  5
A9AF
330
A957
100
AcDbEntity
  8
1
  6
Continuous
100
AcDbLine
 10
75.655268
 20
163.8149699999999
 30
0.0
 11
77.655268
 21
163.8149699999999
 31
0.0
  0
ARC
  5
A9B0
330
A957
100
AcDbEntity
  8
1
  6
Continuous
100
AcDbCircle
 10
80.91795299999999
 20
159.7562619999999
 30
0.0
 40
5.787669999999999
100
AcDbArc
 50
139.605389
 51
155.40777
  0
LINE
  5
A9B1
330
A957
100
AcDbEntity
  8
1
  6
Continuous
100
AcDbLine
 10
73.35526800000002
 20
160.96497
 30
0.0
 11
75.655268
 21
160.96497
 31
0.0
  0
ARC
  5
A9B2
330
A957
100
AcDbEntity
  8
1
  6
Continuous
100
AcDbCircle
 10
70.61535899999999
 20
168.5227859999999
 30
0.0
 40
7.739908999999999
100
AcDbArc
 50
319.6053889999999
 51
322.5367709999998
  0
LINE
  5
A9B3
330
A957
100
AcDbEntity
  8
1
  6
Continuous
100
AcDbLine
 10
83.55526799999998
 20
167.3149699999999
 30
0.0
 11
83.55526799999998
 21
175.3149699999999
 31
0.0
  0
LINE
  5
A9B4
330
A957
100
AcDbEntity
  8
1
  6
Continuous
100
AcDbLine
 10
82.65526800000001
 20
166.1188169999998
 30
0.0
 11
82.65526800000001
 21
176.511122
 31
0.0
  0
LINE
  5
A9B5
330
A957
100
AcDbEntity
  8
1
  6
Continuous
100
AcDbLine
 10
84.55526799999999
 20
168.3149699999999
 30
0.0
 11
84.55526799999999
 21
174.31497
 31
0.0
  0
LINE
  5
A9B6
330
A957
100
AcDbEntity
  8
1
  6
Continuous
100
AcDbLine
 10
82.65526800000001
 20
167.3149699999999
 30
0.0
 11
83.55526799999998
 21
167.3149699999999
 31
0.0
  0
LINE
  5
A9B7
330
A957
100
AcDbEntity
  8
1
  6
Continuous
100
AcDbLine
 10
82.65526800000001
 20
175.3149699999999
 30
0.0
 11
83.55526799999998
 21
175.3149699999999
 31
0.0
  0
LINE
  5
A9B8
330
A957
100
AcDbEntity
  8
1
  6
Continuous
100
AcDbLine
 10
75.655268
 20
178.8149699999999
 30
0.0
 11
77.655268
 21
178.8149699999999
 31
0.0
  0
LINE
  5
A9B9
330
A957
100
AcDbEntity
  8
1
  6
Continuous
100
AcDbLine
 10
70.46352299999998
 20
202.3350129999998
 30
0.0
 11
68.154257
 21
204.644278
 31
0.0
  0
LINE
  5
A9BA
330
A957
100
AcDbEntity
  8
1
  6
Continuous
100
AcDbLine
 10
69.049309
 20
202.3350129999998
 30
0.0
 11
66.740044
 21
204.644278
 31
0.0
  0
LINE
  5
A9BB
330
A957
100
AcDbEntity
  8
1
  6
Continuous
100
AcDbLine
 10
67.25920600000001
 20
202.3350129999998
 30
0.0
 11
69.568471
 21
204.644278
 31
0.0
  0
LINE
  5
A9BC
330
A957
100
AcDbEntity
  8
1
  6
Continuous
100
AcDbLine
 10
40.99533599999999
 20
206.7129079999999
 30
0.0
 11
74.715199
 21
206.7129079999999
 31
0.0
  0
LINE
  5
A9BD
330
A957
100
AcDbEntity
  8
1
  6
Continuous
100
AcDbLine
 10
39.924038
 20
206.9994139999999
 30
0.0
 11
75.78649699999998
 21
206.9994139999999
 31
0.0
  0
LINE
  5
A9BE
330
A957
100
AcDbEntity
  8
1
  6
Continuous
100
AcDbLine
 10
37.03020099999999
 20
208.4506849999999
 30
0.0
 11
78.680334
 21
208.4506849999999
 31
0.0
  0
LINE
  5
A9BF
330
A957
100
AcDbEntity
  8
1
  6
Continuous
100
AcDbLine
 10
43.05526799999999
 20
194.0242659999999
 30
0.0
 11
72.655268
 21
194.0242659999999
 31
0.0
  0
LINE
  5
A9C0
330
A957
100
AcDbEntity
  8
1
  6
Continuous
100
AcDbLine
 10
53.49295999999998
 20
202.3350129999998
 30
0.0
 11
51.183695
 21
204.644278
 31
0.0
  0
LINE
  5
A9C1
330
A957
100
AcDbEntity
  8
1
  6
Continuous
100
AcDbLine
 10
52.078746
 20
202.3350129999998
 30
0.0
 11
49.769481
 21
204.644278
 31
0.0
  0
LINE
  5
A9C2
330
A957
100
AcDbEntity
  8
1
  6
Continuous
100
AcDbLine
 10
51.702857
 20
202.3350129999998
 30
0.0
 11
54.01212199999999
 21
204.644278
 31
0.0
  0
LINE
  5
A9C3
330
A957
100
AcDbEntity
  8
1
  6
Continuous
100
AcDbLine
 10
50.288643
 20
202.3350129999998
 30
0.0
 11
52.597908
 21
204.644278
 31
0.0
  0
LINE
  5
A9C4
330
A957
100
AcDbEntity
  8
1
  6
Continuous
100
AcDbLine
 10
38.855268
 20
204.644278
 30
0.0
 11
76.85526800000002
 21
204.644278
 31
0.0
  0
LINE
  5
A9C5
330
A957
100
AcDbEntity
  8
1
  6
Continuous
100
AcDbLine
 10
76.85526800000002
 20
202.3350129999998
 30
0.0
 11
38.855268
 21
202.3350129999998
 31
0.0
  0
ARC
  5
A9C6
330
A957
100
AcDbEntity
  8
1
  6
Continuous
100
AcDbCircle
 10
45.355268
 20
191.580687
 30
0.0
 40
3.0
100
AcDbArc
 50
125.459425
 51
180.0
  0
ARC
  5
A9C7
330
A957
100
AcDbEntity
  8
1
  6
Continuous
100
AcDbCircle
 10
43.05526799999999
 20
191.0242659999999
 30
0.0
 40
3.0
100
AcDbArc
 50
90.0
 51
180.0
  0
LINE
  5
A9C8
330
A957
100
AcDbEntity
  8
1
  6
Continuous
100
AcDbLine
 10
43.593465
 20
202.3350129999998
 30
0.0
 11
41.2842
 21
204.644278
 31
0.0
  0
LINE
  5
A9C9
330
A957
100
AcDbEntity
  8
1
  6
Continuous
100
AcDbLine
 10
45.00767800000001
 20
202.3350129999998
 30
0.0
 11
42.698413
 21
204.644278
 31
0.0
  0
LINE
  5
A9CA
330
A957
100
AcDbEntity
  8
1
  6
Continuous
100
AcDbLine
 10
41.803362
 20
202.3350129999998
 30
0.0
 11
44.112627
 21
204.644278
 31
0.0
  0
LINE
  5
A9CB
330
A957
100
AcDbEntity
  8
1
  6
Continuous
100
AcDbLine
 10
43.21757499999999
 20
202.3350129999998
 30
0.0
 11
45.52684
 21
204.644278
 31
0.0
  0
ARC
  5
A9CC
330
A957
100
AcDbEntity
  8
1
  6
Continuous
100
AcDbCircle
 10
40.309598
 20
205.8708709999999
 30
0.0
 40
0.8364709999999998
100
AcDbArc
 50
102.3749159999999
 51
160.6585409999999
  0
LINE
  5
A9CD
330
A957
100
AcDbEntity
  8
1
  6
Continuous
100
AcDbLine
 10
38.855268
 20
204.2447829999999
 30
0.0
 11
40.765038
 21
202.3350129999998
 31
0.0
  0
LINE
  5
A9CE
330
A957
100
AcDbEntity
  8
1
  6
Continuous
100
AcDbLine
 10
38.855268
 20
203.6295589999999
 30
0.0
 11
39.86998599999999
 21
204.644278
 31
0.0
  0
LINE
  5
A9CF
330
A957
100
AcDbEntity
  8
1
  6
Continuous
100
AcDbLine
 10
38.97493499999999
 20
202.3350129999998
 30
0.0
 11
41.2842
 21
204.644278
 31
0.0
  0
LINE
  5
A9D0
330
A957
100
AcDbEntity
  8
1
  6
Continuous
100
AcDbLine
 10
38.855268
 20
202.8305689999998
 30
0.0
 11
39.35082399999997
 21
202.3350129999998
 31
0.0
  0
LINE
  5
A9D1
330
A957
100
AcDbEntity
  8
1
  6
Continuous
100
AcDbLine
 10
38.855268
 20
204.644278
 30
0.0
 11
38.855268
 21
202.3350129999998
 31
0.0
  0
LINE
  5
A9D2
330
A957
100
AcDbEntity
  8
1
  6
Continuous
100
AcDbLine
 10
42.179251
 20
202.3350129999998
 30
0.0
 11
39.86998599999999
 21
204.644278
 31
0.0
  0
LINE
  5
A9D3
330
A957
100
AcDbEntity
  8
1
  6
Continuous
100
AcDbLine
 10
40.38914799999999
 20
202.3350129999998
 30
0.0
 11
42.698413
 21
204.644278
 31
0.0
  0
ARC
  5
A9D4
330
A957
100
AcDbEntity
  8
1
  6
Continuous
100
AcDbCircle
 10
45.76704099999999
 20
207.576153
 30
0.0
 40
6.407901999999999
100
AcDbArc
 50
192.8787169999999
 51
207.22852
  0
ARC
  5
A9D5
330
A957
100
AcDbEntity
  8
1
  6
Continuous
100
AcDbCircle
 10
39.924038
 20
210.6102089999999
 30
0.0
 40
3.610794999999998
100
AcDbArc
 50
216.7321109999999
 51
270.0
  0
LINE
  5
A9D6
330
A957
100
AcDbEntity
  8
1
  6
Continuous
100
AcDbLine
 10
37.03020099999999
 20
208.4506849999999
 30
0.0
 11
37.03020099999999
 21
209.0149699999999
 31
0.0
  0
LINE
  5
A9D7
330
A957
100
AcDbEntity
  8
1
  6
Continuous
100
AcDbLine
 10
40.99533599999999
 20
206.7129079999999
 30
0.0
 11
41.139038
 21
206.9069059999999
 31
0.0
  0
LINE
  5
A9D8
330
A957
100
AcDbEntity
  8
1
  6
Continuous
100
AcDbLine
 10
40.13033599999999
 20
206.687908
 30
0.0
 11
40.99533599999999
 21
206.7129079999999
 31
0.0
  0
ARC
  5
A9D9
330
A957
100
AcDbEntity
  8
1
  6
Continuous
100
AcDbCircle
 10
44.282676
 20
203.493409
 30
0.0
 40
4.640519999999998
100
AcDbArc
 50
130.929183
 51
132.6433189999999
  0
LINE
  5
A9DA
330
A957
100
AcDbEntity
  8
1
  6
Continuous
100
AcDbLine
 10
47.836106
 20
202.3350129999998
 30
0.0
 11
45.52684
 21
204.644278
 31
0.0
  0
LINE
  5
A9DB
330
A957
100
AcDbEntity
  8
1
  6
Continuous
100
AcDbLine
 10
49.250319
 20
202.3350129999998
 30
0.0
 11
46.941054
 21
204.644278
 31
0.0
  0
LINE
  5
A9DC
330
A957
100
AcDbEntity
  8
1
  6
Continuous
100
AcDbLine
 10
47.46021599999997
 20
202.3350129999998
 30
0.0
 11
49.769481
 21
204.644278
 31
0.0
  0
LINE
  5
A9DD
330
A957
100
AcDbEntity
  8
1
  6
Continuous
100
AcDbLine
 10
46.046002
 20
202.3350129999998
 30
0.0
 11
48.355268
 21
204.644278
 31
0.0
  0
LINE
  5
A9DE
330
A957
100
AcDbEntity
  8
1
  6
Continuous
100
AcDbLine
 10
46.42189199999999
 20
202.3350129999998
 30
0.0
 11
44.112627
 21
204.644278
 31
0.0
  0
LINE
  5
A9DF
330
A957
100
AcDbEntity
  8
1
  6
Continuous
100
AcDbLine
 10
44.63178899999999
 20
202.3350129999998
 30
0.0
 11
46.941054
 21
204.644278
 31
0.0
  0
LINE
  5
A9E0
330
A957
100
AcDbEntity
  8
1
  6
Continuous
100
AcDbLine
 10
50.664533
 20
202.3350129999998
 30
0.0
 11
48.355268
 21
204.644278
 31
0.0
  0
LINE
  5
A9E1
330
A957
100
AcDbEntity
  8
1
  6
Continuous
100
AcDbLine
 10
48.87443
 20
202.3350129999998
 30
0.0
 11
51.183695
 21
204.644278
 31
0.0
  0
LINE
  5
A9E2
330
A957
100
AcDbEntity
  8
1
  6
Continuous
100
AcDbLine
 10
61.978241
 20
202.3350129999998
 30
0.0
 11
59.668976
 21
204.644278
 31
0.0
  0
LINE
  5
A9E3
330
A957
100
AcDbEntity
  8
1
  6
Continuous
100
AcDbLine
 10
60.564028
 20
202.3350129999998
 30
0.0
 11
58.254763
 21
204.644278
 31
0.0
  0
LINE
  5
A9E4
330
A957
100
AcDbEntity
  8
1
  6
Continuous
100
AcDbLine
 10
58.773924
 20
202.3350129999998
 30
0.0
 11
61.08319
 21
204.644278
 31
0.0
  0
LINE
  5
A9E5
330
A957
100
AcDbEntity
  8
1
  6
Continuous
100
AcDbLine
 10
57.735601
 20
202.3350129999998
 30
0.0
 11
55.42633499999999
 21
204.644278
 31
0.0
  0
LINE
  5
A9E6
330
A957
100
AcDbEntity
  8
1
  6
Continuous
100
AcDbLine
 10
56.321387
 20
202.3350129999998
 30
0.0
 11
54.01212199999999
 21
204.644278
 31
0.0
  0
LINE
  5
A9E7
330
A957
100
AcDbEntity
  8
1
  6
Continuous
100
AcDbLine
 10
54.531284
 20
202.3350129999998
 30
0.0
 11
56.84054899999999
 21
204.644278
 31
0.0
  0
LINE
  5
A9E8
330
A957
100
AcDbEntity
  8
1
  6
Continuous
100
AcDbLine
 10
54.907173
 20
202.3350129999998
 30
0.0
 11
52.597908
 21
204.644278
 31
0.0
  0
LINE
  5
A9E9
330
A957
100
AcDbEntity
  8
1
  6
Continuous
100
AcDbLine
 10
53.11707
 20
202.3350129999998
 30
0.0
 11
55.42633499999999
 21
204.644278
 31
0.0
  0
LINE
  5
A9EA
330
A957
100
AcDbEntity
  8
1
  6
Continuous
100
AcDbLine
 10
59.149814
 20
202.3350129999998
 30
0.0
 11
56.84054899999999
 21
204.644278
 31
0.0
  0
LINE
  5
A9EB
330
A957
100
AcDbEntity
  8
1
  6
Continuous
100
AcDbLine
 10
57.359711
 20
202.3350129999998
 30
0.0
 11
59.668976
 21
204.644278
 31
0.0
  0
LINE
  5
A9EC
330
A957
100
AcDbEntity
  8
1
  6
Continuous
100
AcDbLine
 10
55.94549699999999
 20
202.3350129999998
 30
0.0
 11
58.254763
 21
204.644278
 31
0.0
  0
LINE
  5
A9ED
330
A957
100
AcDbEntity
  8
1
  6
Continuous
100
AcDbLine
 10
66.22088199999999
 20
202.3350129999998
 30
0.0
 11
63.91161700000001
 21
204.644278
 31
0.0
  0
LINE
  5
A9EE
330
A957
100
AcDbEntity
  8
1
  6
Continuous
100
AcDbLine
 10
64.806668
 20
202.3350129999998
 30
0.0
 11
62.497403
 21
204.644278
 31
0.0
  0
LINE
  5
A9EF
330
A957
100
AcDbEntity
  8
1
  6
Continuous
100
AcDbLine
 10
63.01656499999999
 20
202.3350129999998
 30
0.0
 11
65.32583000000001
 21
204.644278
 31
0.0
  0
LINE
  5
A9F0
330
A957
100
AcDbEntity
  8
1
  6
Continuous
100
AcDbLine
 10
63.392455
 20
202.3350129999998
 30
0.0
 11
61.08319
 21
204.644278
 31
0.0
  0
LINE
  5
A9F1
330
A957
100
AcDbEntity
  8
1
  6
Continuous
100
AcDbLine
 10
61.602352
 20
202.3350129999998
 30
0.0
 11
63.91161700000001
 21
204.644278
 31
0.0
  0
LINE
  5
A9F2
330
A957
100
AcDbEntity
  8
1
  6
Continuous
100
AcDbLine
 10
60.188138
 20
202.3350129999998
 30
0.0
 11
62.497403
 21
204.644278
 31
0.0
  0
LINE
  5
A9F3
330
A957
100
AcDbEntity
  8
1
  6
Continuous
100
AcDbLine
 10
67.63509499999999
 20
202.3350129999998
 30
0.0
 11
65.32583000000001
 21
204.644278
 31
0.0
  0
LINE
  5
A9F4
330
A957
100
AcDbEntity
  8
1
  6
Continuous
100
AcDbLine
 10
65.844992
 20
202.3350129999998
 30
0.0
 11
68.154257
 21
204.644278
 31
0.0
  0
LINE
  5
A9F5
330
A957
100
AcDbEntity
  8
1
  6
Continuous
100
AcDbLine
 10
64.430779
 20
202.3350129999998
 30
0.0
 11
66.740044
 21
204.644278
 31
0.0
  0
ARC
  5
A9F6
330
A957
100
AcDbEntity
  8
1
  6
Continuous
100
AcDbCircle
 10
72.655268
 20
191.0242659999999
 30
0.0
 40
3.0
100
AcDbArc
 50
0.0
 51
90.0
  0
ARC
  5
A9F7
330
A957
100
AcDbEntity
  8
1
  6
Continuous
100
AcDbCircle
 10
70.35526800000001
 20
191.580687
 30
0.0
 40
3.0
100
AcDbArc
 50
0.0
 51
54.54057500000001
  0
LINE
  5
A9F8
330
A957
100
AcDbEntity
  8
1
  6
Continuous
100
AcDbLine
 10
76.85526800000002
 20
203.0143359999999
 30
0.0
 11
75.225325
 21
204.644278
 31
0.0
  0
LINE
  5
A9F9
330
A957
100
AcDbEntity
  8
1
  6
Continuous
100
AcDbLine
 10
75.74448700000002
 20
202.3350129999998
 30
0.0
 11
76.85526800000002
 21
203.4457929999999
 31
0.0
  0
LINE
  5
A9FA
330
A957
100
AcDbEntity
  8
1
  6
Continuous
100
AcDbLine
 10
74.330274
 20
202.3350129999998
 30
0.0
 11
76.639539
 21
204.644278
 31
0.0
  0
ARC
  5
A9FB
330
A957
100
AcDbEntity
  8
1
  6
Continuous
100
AcDbCircle
 10
75.78649699999998
 20
210.6102089999999
 30
0.0
 40
3.610794999999998
100
AcDbArc
 50
270.0
 51
323.267889
  0
ARC
  5
A9FC
330
A957
100
AcDbEntity
  8
1
  6
Continuous
100
AcDbCircle
 10
75.40093699999999
 20
205.8708709999999
 30
0.0
 40
0.8364709999999998
100
AcDbArc
 50
19.341459
 51
77.625084
  0
LINE
  5
A9FD
330
A957
100
AcDbEntity
  8
1
  6
Continuous
100
AcDbLine
 10
73.29195
 20
202.3350129999998
 30
0.0
 11
70.982685
 21
204.644278
 31
0.0
  0
LINE
  5
A9FE
330
A957
100
AcDbEntity
  8
1
  6
Continuous
100
AcDbLine
 10
71.501847
 20
202.3350129999998
 30
0.0
 11
73.81111199999998
 21
204.644278
 31
0.0
  0
LINE
  5
A9FF
330
A957
100
AcDbEntity
  8
1
  6
Continuous
100
AcDbLine
 10
70.087633
 20
202.3350129999998
 30
0.0
 11
72.39689799999998
 21
204.644278
 31
0.0
  0
LINE
  5
AA00
330
A957
100
AcDbEntity
  8
1
  6
Continuous
100
AcDbLine
 10
71.87773599999998
 20
202.3350129999998
 30
0.0
 11
69.568471
 21
204.644278
 31
0.0
  0
LINE
  5
AA01
330
A957
100
AcDbEntity
  8
1
  6
Continuous
100
AcDbLine
 10
68.67341899999999
 20
202.3350129999998
 30
0.0
 11
70.982685
 21
204.644278
 31
0.0
  0
LINE
  5
AA02
330
A957
100
AcDbEntity
  8
1
  6
Continuous
100
AcDbLine
 10
76.12037700000001
 20
202.3350129999998
 30
0.0
 11
73.81111199999998
 21
204.644278
 31
0.0
  0
LINE
  5
AA03
330
A957
100
AcDbEntity
  8
1
  6
Continuous
100
AcDbLine
 10
74.706163
 20
202.3350129999998
 30
0.0
 11
72.39689799999998
 21
204.644278
 31
0.0
  0
LINE
  5
AA04
330
A957
100
AcDbEntity
  8
1
  6
Continuous
100
AcDbLine
 10
72.91606
 20
202.3350129999998
 30
0.0
 11
75.225325
 21
204.644278
 31
0.0
  0
ARC
  5
AA05
330
A957
100
AcDbEntity
  8
1
  6
Continuous
100
AcDbCircle
 10
69.943494
 20
207.576153
 30
0.0
 40
6.407901999999999
100
AcDbArc
 50
332.7714799999998
 51
347.121283
  0
ARC
  5
AA06
330
A957
100
AcDbEntity
  8
1
  6
Continuous
100
AcDbCircle
 10
71.42785899999998
 20
203.493409
 30
0.0
 40
4.640519999999998
100
AcDbArc
 50
47.356681
 51
49.07081699999999
  0
LINE
  5
AA07
330
A957
100
AcDbEntity
  8
1
  6
Continuous
100
AcDbLine
 10
74.715199
 20
206.7129079999999
 30
0.0
 11
74.57149699999998
 21
206.9069059999999
 31
0.0
  0
LINE
  5
AA08
330
A957
100
AcDbEntity
  8
1
  6
Continuous
100
AcDbLine
 10
75.58019899999997
 20
206.687908
 30
0.0
 11
74.715199
 21
206.7129079999999
 31
0.0
  0
LINE
  5
AA09
330
A957
100
AcDbEntity
  8
1
  6
Continuous
100
AcDbLine
 10
76.85526800000002
 20
204.428549
 30
0.0
 11
76.639539
 21
204.644278
 31
0.0
  0
LINE
  5
AA0A
330
A957
100
AcDbEntity
  8
1
  6
Continuous
100
AcDbLine
 10
76.85526800000002
 20
204.644278
 30
0.0
 11
76.85526800000002
 21
202.3350129999998
 31
0.0
  0
LINE
  5
AA0B
330
A957
100
AcDbEntity
  8
1
  6
Continuous
100
AcDbLine
 10
78.680334
 20
208.4506849999999
 30
0.0
 11
78.680334
 21
209.0149699999999
 31
0.0
  0
LINE
  5
AA0C
330
A957
100
AcDbEntity
  8
1
  6
Continuous
100
AcDbLine
 10
86.85526800000003
 20
209.0149699999999
 30
0.0
 11
86.85526800000003
 21
211.31497
 31
0.0
  0
LINE
  5
AA0D
330
A957
100
AcDbEntity
  8
4
  6
CENTER
100
AcDbLine
 10
35.855268
 20
216.3149699999999
 30
0.0
 11
35.855268
 21
204.01497
 31
0.0
  0
LINE
  5
AA0E
330
A957
100
AcDbEntity
  8
4
  6
CENTER
100
AcDbLine
 10
79.85526800000002
 20
216.3149699999999
 30
0.0
 11
79.85526800000002
 21
204.01497
 31
0.0
  0
LINE
  5
AA0F
330
A957
100
AcDbEntity
  8
2
  6
Continuous
100
AcDbLine
 10
82.65526800000001
 20
174.6384699999999
 30
0.0
 11
84.231768
 21
174.6384699999999
 31
0.0
  0
LINE
  5
AA10
330
A957
100
AcDbEntity
  8
2
  6
Continuous
100
AcDbLine
 10
82.65526800000001
 20
167.9914699999999
 30
0.0
 11
84.231768
 21
167.9914699999999
 31
0.0
  0
LINE
  5
AA11
330
A957
100
AcDbEntity
  8
1
  6
Continuous
100
AcDbLine
 10
77.655268
 20
173.31497
 30
0.0
 11
75.655268
 21
171.3149699999999
 31
0.0
  0
LINE
  5
AA12
330
A957
100
AcDbEntity
  8
1
  6
Continuous
100
AcDbLine
 10
77.655268
 20
171.3149699999999
 30
0.0
 11
75.655268
 21
169.31497
 31
0.0
  0
LINE
  5
AA13
330
A957
100
AcDbEntity
  8
1
  6
Continuous
100
AcDbLine
 10
197.074349
 20
97.17203900000001
 30
0.0
 11
197.074349
 21
53.17203899999999
 31
0.0
  0
LINE
  5
AA14
330
A957
100
AcDbEntity
  8
1
  6
Continuous
100
AcDbLine
 10
139.074349
 20
97.17203900000001
 30
0.0
 11
139.074349
 21
87.67246
 31
0.0
  0
LINE
  5
AA15
330
A957
100
AcDbEntity
  8
4
  6
CENTER
100
AcDbLine
 10
168.074349
 20
41.17203899999998
 30
0.0
 11
168.074349
 21
109.1720389999998
 31
0.0
  0
ARC
  5
AA16
330
A957
100
AcDbEntity
  8
1
  6
Continuous
100
AcDbCircle
 10
190.074349
 20
97.17203900000001
 30
0.0
 40
7.0
100
AcDbArc
 50
0.0
 51
90.0
  0
CIRCLE
  5
AA17
330
A957
100
AcDbEntity
  8
1
  6
Continuous
100
AcDbCircle
 10
190.074349
 20
97.17203900000001
 30
0.0
 40
3.25
  0
LINE
  5
AA18
330
A957
100
AcDbEntity
  8
4
  6
CENTER
100
AcDbLine
 10
196.324349
 20
97.17203900000001
 30
0.0
 11
183.824349
 21
97.17203900000001
 31
0.0
  0
LINE
  5
AA19
330
A957
100
AcDbEntity
  8
1
  6
Continuous
100
AcDbLine
 10
190.074349
 20
104.172039
 30
0.0
 11
146.074349
 21
104.172039
 31
0.0
  0
ARC
  5
AA1A
330
A957
100
AcDbEntity
  8
1
  6
Continuous
100
AcDbCircle
 10
146.074349
 20
97.17203900000001
 30
0.0
 40
7.0
100
AcDbArc
 50
90.0
 51
180.0
  0
ARC
  5
AA1B
330
A957
100
AcDbEntity
  8
1
  6
Continuous
100
AcDbCircle
 10
146.074349
 20
97.17203900000001
 30
0.0
 40
3.25
100
AcDbArc
 50
52.02012799999999
 51
278.8498829999999
  0
LINE
  5
AA1C
330
A957
100
AcDbEntity
  8
4
  6
CENTER
100
AcDbLine
 10
152.324349
 20
97.17203900000001
 30
0.0
 11
139.824349
 21
97.17203900000001
 31
0.0
  0
LINE
  5
AA1D
330
A957
100
AcDbEntity
  8
4
  6
CENTER
100
AcDbLine
 10
146.074349
 20
103.4220389999999
 30
0.0
 11
146.074349
 21
90.92203899999999
 31
0.0
  0
LINE
  5
AA1E
330
A957
100
AcDbEntity
  8
4
  6
CENTER
100
AcDbLine
 10
190.074349
 20
103.4220389999999
 30
0.0
 11
190.074349
 21
90.92203899999999
 31
0.0
  0
ARC
  5
AA1F
330
A957
100
AcDbEntity
  8
1
  6
Continuous
100
AcDbCircle
 10
190.074349
 20
53.17203899999999
 30
0.0
 40
7.0
100
AcDbArc
 50
270.0
 51
0.0
  0
CIRCLE
  5
AA20
330
A957
100
AcDbEntity
  8
1
  6
Continuous
100
AcDbCircle
 10
190.074349
 20
53.17203899999999
 30
0.0
 40
3.25
  0
LINE
  5
AA21
330
A957
100
AcDbEntity
  8
4
  6
CENTER
100
AcDbLine
 10
196.324349
 20
53.17203899999999
 30
0.0
 11
183.824349
 21
53.17203899999999
 31
0.0
  0
LINE
  5
AA22
330
A957
100
AcDbEntity
  8
4
  6
CENTER
100
AcDbLine
 10
202.074349
 20
75.172039
 30
0.0
 11
129.074349
 21
75.172039
 31
0.0
  0
LINE
  5
AA23
330
A957
100
AcDbEntity
  8
1
  6
Continuous
100
AcDbLine
 10
190.074349
 20
46.17203899999998
 30
0.0
 11
146.074349
 21
46.17203899999998
 31
0.0
  0
ARC
  5
AA24
330
A957
100
AcDbEntity
  8
1
  6
Continuous
100
AcDbCircle
 10
146.074349
 20
53.17203899999999
 30
0.0
 40
3.25
100
AcDbArc
 50
72.07978699999998
 51
6.096969999999998
  0
ARC
  5
AA25
330
A957
100
AcDbEntity
  8
1
  6
Continuous
100
AcDbCircle
 10
146.074349
 20
53.17203899999999
 30
0.0
 40
7.0
100
AcDbArc
 50
180.0
 51
270.0
  0
LINE
  5
AA26
330
A957
100
AcDbEntity
  8
4
  6
CENTER
100
AcDbLine
 10
152.324349
 20
53.17203899999999
 30
0.0
 11
139.824349
 21
53.17203899999999
 31
0.0
  0
LINE
  5
AA27
330
A957
100
AcDbEntity
  8
4
  6
CENTER
100
AcDbLine
 10
146.074349
 20
59.42203899999999
 30
0.0
 11
146.074349
 21
46.92203899999999
 31
0.0
  0
LINE
  5
AA28
330
A957
100
AcDbEntity
  8
4
  6
CENTER
100
AcDbLine
 10
190.074349
 20
59.42203899999999
 30
0.0
 11
190.074349
 21
46.92203899999999
 31
0.0
  0
LINE
  5
AA29
330
A957
100
AcDbEntity
  8
1
  6
Continuous
100
AcDbLine
 10
255.4934309999999
 20
160.96497
 30
0.0
 11
255.4934309999999
 21
162.164843
 31
0.0
  0
LINE
  5
AA2A
330
A957
100
AcDbEntity
  8
4
  6
CENTER
100
AcDbLine
 10
273.293431
 20
216.3149699999999
 30
0.0
 11
273.293431
 21
148.31497
 31
0.0
  0
LINE
  5
AA2B
330
A957
100
AcDbEntity
  8
4
  6
CENTER
100
AcDbLine
 10
301.093431
 20
171.3149699999999
 30
0.0
 11
241.593431
 21
171.3149699999999
 31
0.0
  0
ARC
  5
AA2C
330
A957
100
AcDbEntity
  8
1
  6
Continuous
100
AcDbCircle
 10
296.3561169999999
 20
159.7562619999999
 30
0.0
 40
5.787669999999999
100
AcDbArc
 50
139.605389
 51
155.40777
  0
ARC
  5
AA2D
330
A957
100
AcDbEntity
  8
1
  6
Continuous
100
AcDbCircle
 10
286.053522
 20
168.5227859999999
 30
0.0
 40
7.739908999999999
100
AcDbArc
 50
319.6053889999999
 51
0.0
  0
LINE
  5
AA2E
330
A957
100
AcDbEntity
  8
1
  6
Continuous
100
AcDbLine
 10
291.093431
 20
160.96497
 30
0.0
 11
288.7934309999998
 21
160.96497
 31
0.0
  0
LINE
  5
AA2F
330
A957
100
AcDbEntity
  8
1
  6
Continuous
100
AcDbLine
 10
257.7934309999998
 20
160.96497
 30
0.0
 11
255.4934309999999
 21
160.96497
 31
0.0
  0
ARC
  5
AA30
330
A957
100
AcDbEntity
  8
1
  6
Continuous
100
AcDbCircle
 10
260.53334
 20
168.5227859999999
 30
0.0
 40
7.739908999999999
100
AcDbArc
 50
202.849834
 51
204.555429
  0
LINE
  5
AA31
330
A957
100
AcDbEntity
  8
1
  6
Continuous
100
AcDbLine
 10
302.293431
 20
211.31497
 30
0.0
 11
244.293431
 21
211.31497
 31
0.0
  0
LINE
  5
AA32
330
A957
100
AcDbEntity
  8
4
  6
CENTER
100
AcDbLine
 10
154.074349
 20
41.17203899999998
 30
0.0
 11
154.074349
 21
109.1720389999998
 31
0.0
  0
LINE
  5
AA33
330
A957
100
AcDbEntity
  8
1
  6
Continuous
100
AcDbLine
 10
162.033916
 20
92.97203899999999
 30
0.0
 11
143.724349
 21
92.97203899999999
 31
0.0
  0
LINE
  5
AA34
330
A957
100
AcDbEntity
  8
1
  6
Continuous
100
AcDbLine
 10
161.574349
 20
94.972039
 30
0.0
 11
146.574349
 21
94.972039
 31
0.0
  0
LINE
  5
AA35
330
A957
100
AcDbEntity
  8
1
  6
Continuous
100
AcDbLine
 10
143.724349
 20
90.672039
 30
0.0
 11
161.396036
 21
90.672039
 31
0.0
  0
ARC
  5
AA36
330
A957
100
AcDbEntity
  8
1
  6
Continuous
100
AcDbCircle
 10
154.074349
 20
62.872039
 30
0.0
 40
10.5
100
AcDbArc
 50
228.1896849999998
 51
311.810315
  0
LINE
  5
AA37
330
A957
100
AcDbEntity
  8
1
  6
Continuous
100
AcDbLine
 10
143.724349
 20
57.372039
 30
0.0
 11
162.033916
 21
57.372039
 31
0.0
  0
LINE
  5
AA38
330
A957
100
AcDbEntity
  8
1
  6
Continuous
100
AcDbLine
 10
161.074349
 20
55.045801
 30
0.0
 11
147.074349
 21
55.045801
 31
0.0
  0
LINE
  5
AA39
330
A957
100
AcDbEntity
  8
1
  6
Continuous
100
AcDbLine
 10
143.724349
 20
59.672039
 30
0.0
 11
161.396036
 21
59.672039
 31
0.0
  0
LINE
  5
AA3A
330
A957
100
AcDbEntity
  8
1
  6
Continuous
100
AcDbLine
 10
161.074349
 20
55.045801
 30
0.0
 11
161.074349
 21
57.372039
 31
0.0
  0
ARC
  5
AA3B
330
A957
100
AcDbEntity
  8
1
  6
Continuous
100
AcDbCircle
 10
162.595269
 20
-150.5475439999998
 30
0.0
 40
207.9195819999999
100
AcDbArc
 50
90.0
 51
90.419119
  0
LINE
  5
AA3C
330
A957
100
AcDbEntity
  8
1
  6
Continuous
100
AcDbLine
 10
152.074349
 20
94.972039
 30
0.0
 11
154.074349
 21
92.97203899999999
 31
0.0
  0
LINE
  5
AA3D
330
A957
100
AcDbEntity
  8
1
  6
Continuous
100
AcDbLine
 10
161.574349
 20
92.97203899999999
 30
0.0
 11
161.574349
 21
94.972039
 31
0.0
  0
LINE
  5
AA3E
330
A957
100
AcDbEntity
  8
1
  6
Continuous
100
AcDbLine
 10
154.074349
 20
94.972039
 30
0.0
 11
156.074349
 21
92.97203899999999
 31
0.0
  0
LINE
  5
AA3F
330
A957
100
AcDbEntity
  8
1
  6
Continuous
100
AcDbLine
 10
150.074349
 20
99.972039
 30
0.0
 11
150.074349
 21
100.872039
 31
0.0
  0
LINE
  5
AA40
330
A957
100
AcDbEntity
  8
2
  6
Continuous
100
AcDbLine
 10
150.750849
 20
99.972039
 30
0.0
 11
150.750849
 21
101.548539
 31
0.0
  0
LINE
  5
AA41
330
A957
100
AcDbEntity
  8
1
  6
Continuous
100
AcDbLine
 10
158.074349
 20
99.972039
 30
0.0
 11
158.074349
 21
100.872039
 31
0.0
  0
LINE
  5
AA42
330
A957
100
AcDbEntity
  8
2
  6
Continuous
100
AcDbLine
 10
157.397849
 20
99.972039
 30
0.0
 11
157.397849
 21
101.548539
 31
0.0
  0
LINE
  5
AA43
330
A957
100
AcDbEntity
  8
1
  6
Continuous
100
AcDbLine
 10
158.074349
 20
100.872039
 30
0.0
 11
150.074349
 21
100.872039
 31
0.0
  0
LINE
  5
AA44
330
A957
100
AcDbEntity
  8
1
  6
Continuous
100
AcDbLine
 10
157.074349
 20
101.8720389999999
 30
0.0
 11
151.074349
 21
101.8720389999999
 31
0.0
  0
LINE
  5
AA45
330
A957
100
AcDbEntity
  8
1
  6
Continuous
100
AcDbLine
 10
147.074349
 20
55.045801
 30
0.0
 11
147.074349
 21
57.372039
 31
0.0
  0
LINE
  5
AA46
330
A957
100
AcDbEntity
  8
1
  6
Continuous
100
AcDbLine
 10
146.574349
 20
92.97203899999999
 30
0.0
 11
146.574349
 21
94.972039
 31
0.0
  0
ARC
  5
AA47
330
A957
100
AcDbEntity
  8
1
  6
Continuous
100
AcDbCircle
 10
168.074349
 20
75.172039
 30
0.0
 40
20.5
100
AcDbArc
 50
250.0339419999999
 51
108.4860149999999
  0
ARC
  5
AA48
330
A957
100
AcDbEntity
  8
1
  6
Continuous
100
AcDbCircle
 10
168.074349
 20
75.172039
 30
0.0
 40
18.2
100
AcDbArc
 50
288.840982
 51
71.159018
  0
ARC
  5
AA49
330
A957
100
AcDbEntity
  8
1
  6
Continuous
100
AcDbCircle
 10
168.074349
 20
75.172039
 30
0.0
 40
16.2
100
AcDbArc
 50
245.980303
 51
114.019698
  0
ARC
  5
AA4A
330
A957
100
AcDbEntity
  8
1
  6
Continuous
100
AcDbCircle
 10
168.074349
 20
75.172039
 30
0.0
 40
14.19999999999999
100
AcDbArc
 50
255.248262
 51
104.7517439999999
  0
ARC
  5
AA4B
330
A957
100
AcDbEntity
  8
1
  6
Continuous
100
AcDbCircle
 10
168.074349
 20
75.172039
 30
0.0
 40
7.2
100
AcDbArc
 50
325.248419
 51
34.751581
  0
ARC
  5
AA4C
330
A957
100
AcDbEntity
  8
1
  6
Continuous
100
AcDbCircle
 10
168.074349
 20
75.172039
 30
0.0
 40
20.825067
100
AcDbArc
 50
250.358527
 51
108.1872699999999
  0
LINE
  5
AA4D
330
A957
100
AcDbEntity
  8
1
  6
Continuous
100
AcDbLine
 10
143.724349
 20
92.97203899999999
 30
0.0
 11
143.724349
 21
90.672039
 31
0.0
  0
LINE
  5
AA4E
330
A957
100
AcDbEntity
  8
1
  6
Continuous
100
AcDbLine
 10
143.724349
 20
57.372039
 30
0.0
 11
143.724349
 21
59.672039
 31
0.0
  0
ARC
  5
AA4F
330
A957
100
AcDbEntity
  8
1
  6
Continuous
100
AcDbCircle
 10
172.4350729999999
 20
79.49197099999998
 30
0.0
 40
15.68068599999999
100
AcDbArc
 50
95.54301999999998
 51
113.892296
  0
ARC
  5
AA50
330
A957
100
AcDbEntity
  8
1
  6
Continuous
100
AcDbCircle
 10
162.033916
 20
102.972039
 30
0.0
 40
10.0
100
AcDbArc
 50
270.0
 51
293.8922959999998
  0
ARC
  5
AA51
330
A957
100
AcDbEntity
  8
1
  6
Continuous
100
AcDbCircle
 10
171.693172
 20
87.13674199999998
 30
0.0
 40
8.0
100
AcDbArc
 50
73.17162900000003
 51
95.54301999999998
  0
ARC
  5
AA52
330
A957
100
AcDbEntity
  8
1
  6
Continuous
100
AcDbCircle
 10
171.698623
 20
79.52628699999998
 30
0.0
 40
13.30950099999999
100
AcDbArc
 50
93.56616899999998
 51
113.72176
  0
ARC
  5
AA53
330
A957
100
AcDbEntity
  8
1
  6
Continuous
100
AcDbCircle
 10
161.396036
 20
102.972039
 30
0.0
 40
12.3
100
AcDbArc
 50
270.0
 51
293.72176
  0
ARC
  5
AA54
330
A957
100
AcDbEntity
  8
1
  6
Continuous
100
AcDbCircle
 10
171.3683649999999
 20
84.825508
 30
0.0
 40
8.0
100
AcDbArc
 50
71.159018
 51
93.56616899999998
  0
ARC
  5
AA55
330
A957
100
AcDbEntity
  8
1
  6
Continuous
100
AcDbCircle
 10
171.698623
 20
70.81779
 30
0.0
 40
13.30950099999999
100
AcDbArc
 50
246.27824
 51
266.433831
  0
ARC
  5
AA56
330
A957
100
AcDbEntity
  8
1
  6
Continuous
100
AcDbCircle
 10
172.4350729999999
 20
70.85210600000002
 30
0.0
 40
15.68068599999999
100
AcDbArc
 50
246.107704
 51
264.4569799999999
  0
ARC
  5
AA57
330
A957
100
AcDbEntity
  8
1
  6
Continuous
100
AcDbCircle
 10
162.033916
 20
47.37203899999999
 30
0.0
 40
10.0
100
AcDbArc
 50
66.10770399999998
 51
90.0
  0
ARC
  5
AA58
330
A957
100
AcDbEntity
  8
1
  6
Continuous
100
AcDbCircle
 10
161.396036
 20
47.37203899999999
 30
0.0
 40
12.3
100
AcDbArc
 50
66.27824
 51
90.0
  0
ARC
  5
AA59
330
A957
100
AcDbEntity
  8
1
  6
Continuous
100
AcDbCircle
 10
171.3683649999999
 20
65.51857
 30
0.0
 40
8.0
100
AcDbArc
 50
266.433831
 51
288.840982
  0
ARC
  5
AA5A
330
A957
100
AcDbEntity
  8
1
  6
Continuous
100
AcDbCircle
 10
171.693172
 20
63.207335
 30
0.0
 40
8.0
100
AcDbArc
 50
264.4569799999999
 51
286.828371
  0
LINE
  5
AA5B
330
A957
100
AcDbEntity
  8
1
  6
Continuous
100
AcDbLine
 10
139.074349
 20
62.67161699999999
 30
0.0
 11
139.074349
 21
53.17203899999999
 31
0.0
  0
LINE
  5
AA5C
330
A957
100
AcDbEntity
  8
1
  6
Continuous
100
AcDbLine
 10
291.093431
 20
162.164843
 30
0.0
 11
291.093431
 21
160.96497
 31
0.0
  0
ARC
  5
AA5D
330
A957
100
AcDbEntity
  8
1
  6
Continuous
100
AcDbCircle
 10
250.2307449999999
 20
159.7562619999999
 30
0.0
 40
5.787669999999999
100
AcDbArc
 50
24.59222999999999
 51
40.39461099999999
  0
ARC
  5
AA5E
330
A957
100
AcDbEntity
  8
1
  6
Continuous
100
AcDbCircle
 10
273.293431
 20
179.587796
 30
0.0
 40
16.22717399999999
100
AcDbArc
 50
70.234751
 51
109.7652489999997
  0
ARC
  5
AA5F
330
A957
100
AcDbEntity
  8
1
  6
Continuous
100
AcDbCircle
 10
323.4866989999999
 20
146.404493
 30
0.0
 40
74.072647
100
AcDbArc
 50
139.745383
 51
162.626302
  0
ARC
  5
AA60
330
A957
100
AcDbEntity
  8
1
  6
Continuous
100
AcDbCircle
 10
223.100164
 20
146.404493
 30
0.0
 40
74.072647
100
AcDbArc
 50
17.373698
 51
40.254617
  0
ARC
  5
AA61
330
A957
100
AcDbEntity
  8
1
  6
Continuous
100
AcDbCircle
 10
222.2395469999999
 20
152.121306
 30
0.0
 40
71.16958000000003
100
AcDbArc
 50
13.323939
 51
36.50696699999999
  0
ARC
  5
AA62
330
A957
100
AcDbEntity
  8
1
  6
Continuous
100
AcDbCircle
 10
296.3561169999999
 20
159.7562619999999
 30
0.0
 40
8.087669999999999
100
AcDbArc
 50
139.605389
 51
159.2424229999998
  0
ARC
  5
AA63
330
A957
100
AcDbEntity
  8
1
  6
Continuous
100
AcDbCircle
 10
324.3473159999999
 20
152.121306
 30
0.0
 40
71.16958000000003
100
AcDbArc
 50
143.493033
 51
166.676061
  0
ARC
  5
AA64
330
A957
100
AcDbEntity
  8
1
  6
Continuous
100
AcDbCircle
 10
260.53334
 20
168.5227859999999
 30
0.0
 40
5.439908999999999
100
AcDbArc
 50
180.0
 51
220.3946109999999
  0
ARC
  5
AA65
330
A957
100
AcDbEntity
  8
1
  6
Continuous
100
AcDbCircle
 10
250.2307449999999
 20
159.7562619999999
 30
0.0
 40
8.087669999999999
100
AcDbArc
 50
20.757577
 51
40.39461099999999
  0
ARC
  5
AA66
330
A957
100
AcDbEntity
  8
1
  6
Continuous
100
AcDbCircle
 10
268.4822679999999
 20
192.9767909999999
 30
0.0
 40
2.0
100
AcDbArc
 50
109.7652489999997
 51
139.745383
  0
ARC
  5
AA67
330
A957
100
AcDbEntity
  8
1
  6
Continuous
100
AcDbCircle
 10
278.104595
 20
192.9767909999999
 30
0.0
 40
2.0
100
AcDbArc
 50
40.254617
 51
70.234751
  0
LINE
  5
AA68
330
A957
100
AcDbEntity
  8
1
  6
Continuous
100
AcDbLine
 10
84.55526799999999
 20
168.3149699999999
 30
0.0
 11
83.55526799999998
 21
167.3149699999999
 31
0.0
  0
LINE
  5
AA69
330
A957
100
AcDbEntity
  8
1
  6
Continuous
100
AcDbLine
 10
84.55526799999999
 20
174.31497
 30
0.0
 11
83.55526799999998
 21
175.3149699999999
 31
0.0
  0
LINE
  5
AA6A
330
A957
100
AcDbEntity
  8
1
  6
Continuous
100
AcDbLine
 10
82.65526800000001
 20
177.3149699999999
 30
0.0
 11
82.65526800000001
 21
165.3149699999999
 31
0.0
  0
ARC
  5
AA6B
330
A957
100
AcDbEntity
  8
1
  6
Continuous
100
AcDbCircle
 10
71.19116600000002
 20
171.3149699999999
 30
0.0
 40
11.464102
100
AcDbArc
 50
342.4120459999999
 51
17.587954
  0
ARC
  5
AA6C
330
A957
100
AcDbEntity
  8
1
  6
Continuous
100
AcDbCircle
 10
89.11936899999997
 20
171.3149699999999
 30
0.0
 40
11.464102
100
AcDbArc
 50
162.412046
 51
197.5879539999999
  0
LINE
  5
AA6D
330
A957
100
AcDbEntity
  8
1
  6
Continuous
100
AcDbLine
 10
77.655268
 20
177.3149699999999
 30
0.0
 11
77.655268
 21
165.3149699999999
 31
0.0
  0
LINE
  5
AA6E
330
A957
100
AcDbEntity
  8
1
  6
Continuous
100
AcDbLine
 10
82.11936899999997
 20
164.3867669999998
 30
0.0
 11
82.65526800000001
 21
165.3149699999999
 31
0.0
  0
LINE
  5
AA6F
330
A957
100
AcDbEntity
  8
1
  6
Continuous
100
AcDbLine
 10
78.19116599999998
 20
164.3867669999998
 30
0.0
 11
77.655268
 21
165.3149699999999
 31
0.0
  0
LINE
  5
AA70
330
A957
100
AcDbEntity
  8
1
  6
Continuous
100
AcDbLine
 10
78.19116599999998
 20
164.3867669999998
 30
0.0
 11
82.11936899999997
 21
164.3867669999998
 31
0.0
  0
LINE
  5
AA71
330
A957
100
AcDbEntity
  8
1
  6
Continuous
100
AcDbLine
 10
78.19116599999998
 20
167.850868
 30
0.0
 11
82.11936899999997
 21
167.850868
 31
0.0
  0
ARC
  5
AA72
330
A957
100
AcDbEntity
  8
1
  6
Continuous
100
AcDbCircle
 10
80.722255
 20
166.118818
 30
0.0
 40
3.066986999999998
100
AcDbArc
 50
145.615753
 51
205.615753
  0
ARC
  5
AA73
330
A957
100
AcDbEntity
  8
1
  6
Continuous
100
AcDbCircle
 10
79.58828000000003
 20
166.118818
 30
0.0
 40
3.066986999999998
100
AcDbArc
 50
334.384247
 51
34.38424699999998
  0
ARC
  5
AA74
330
A957
100
AcDbEntity
  8
1
  6
Continuous
100
AcDbCircle
 10
79.58828000000003
 20
176.511122
 30
0.0
 40
3.066986999999998
100
AcDbArc
 50
325.6157529999999
 51
25.615753
  0
ARC
  5
AA75
330
A957
100
AcDbEntity
  8
1
  6
Continuous
100
AcDbCircle
 10
80.722255
 20
176.511122
 30
0.0
 40
3.066986999999998
100
AcDbArc
 50
154.3842469999999
 51
214.384247
  0
LINE
  5
AA76
330
A957
100
AcDbEntity
  8
1
  6
Continuous
100
AcDbLine
 10
78.19116599999998
 20
174.7790719999999
 30
0.0
 11
82.11936899999997
 21
174.7790719999999
 31
0.0
  0
LINE
  5
AA77
330
A957
100
AcDbEntity
  8
1
  6
Continuous
100
AcDbLine
 10
78.19116599999998
 20
178.2431729999999
 30
0.0
 11
82.11936899999997
 21
178.2431729999999
 31
0.0
  0
LINE
  5
AA78
330
A957
100
AcDbEntity
  8
1
  6
Continuous
100
AcDbLine
 10
78.19116599999998
 20
178.2431729999999
 30
0.0
 11
77.655268
 21
177.3149699999999
 31
0.0
  0
LINE
  5
AA79
330
A957
100
AcDbEntity
  8
1
  6
Continuous
100
AcDbLine
 10
82.11936899999997
 20
178.2431729999999
 30
0.0
 11
82.65526800000001
 21
177.3149699999999
 31
0.0
  0
LINE
  5
AA7A
330
A957
100
AcDbEntity
  8
1
  6
Continuous
100
AcDbLine
 10
148.074349
 20
174.7790399999999
 30
0.0
 11
148.074349
 21
167.850837
 31
0.0
  0
LINE
  5
AA7B
330
A957
100
AcDbEntity
  8
1
  6
Continuous
100
AcDbLine
 10
160.074349
 20
174.7790399999999
 30
0.0
 11
160.074349
 21
167.850837
 31
0.0
  0
CIRCLE
  5
AA7C
330
A957
100
AcDbEntity
  8
1
  6
Continuous
100
AcDbCircle
 10
154.074349
 20
171.3149389999998
 30
0.0
 40
6.0
  0
LINE
  5
AA7D
330
A957
100
AcDbEntity
  8
1
  6
Continuous
100
AcDbLine
 10
154.074349
 20
164.386736
 30
0.0
 11
160.074349
 21
167.850837
 31
0.0
  0
LINE
  5
AA7E
330
A957
100
AcDbEntity
  8
1
  6
Continuous
100
AcDbLine
 10
154.074349
 20
164.386736
 30
0.0
 11
148.074349
 21
167.850837
 31
0.0
  0
LINE
  5
AA7F
330
A957
100
AcDbEntity
  8
1
  6
Continuous
100
AcDbLine
 10
160.074349
 20
174.7790399999999
 30
0.0
 11
154.074349
 21
178.2431419999998
 31
0.0
  0
LINE
  5
AA80
330
A957
100
AcDbEntity
  8
1
  6
Continuous
100
AcDbLine
 10
148.074349
 20
174.7790399999999
 30
0.0
 11
154.074349
 21
178.2431419999998
 31
0.0
  0
CIRCLE
  5
AA81
330
A957
100
AcDbEntity
  8
1
  6
Continuous
100
AcDbCircle
 10
154.074349
 20
171.3149389999998
 30
0.0
 40
4.0
  0
LINE
  5
AA82
330
A957
100
AcDbEntity
  8
1
  6
Continuous
100
AcDbLine
 10
197.074349
 20
209.014939
 30
0.0
 11
197.074349
 21
211.314939
 31
0.0
  0
ARC
  5
AA83
330
A957
100
AcDbEntity
  8
1
  6
Continuous
100
AcDbCircle
 10
149.0626579999999
 20
189.517167
 30
0.0
 40
8.529569
100
AcDbArc
 50
285.394038
 51
11.707837
  0
ARC
  5
AA84
330
A957
100
AcDbEntity
  8
1
  6
Continuous
100
AcDbCircle
 10
156.7737669999999
 20
191.086634
 30
0.0
 40
30.0
100
AcDbArc
 50
275.1624909999998
 51
318.7720459999998
  0
ARC
  5
AA85
330
A957
100
AcDbEntity
  8
1
  6
Continuous
100
AcDbCircle
 10
154.074349
 20
171.3149389999998
 30
0.0
 40
10.34999999999999
100
AcDbArc
 50
105.394038
 51
270.0
  0
ARC
  5
AA86
330
A957
100
AcDbEntity
  8
1
  6
Continuous
100
AcDbCircle
 10
154.074349
 20
220.964939
 30
0.0
 40
60.0
100
AcDbArc
 50
270.0
 51
275.1624909999998
  0
LINE
  5
AA87
330
A957
100
AcDbEntity
  8
1
  6
Continuous
100
AcDbLine
 10
159.7087339999999
 20
202.4936129999999
 30
0.0
 11
162.0179999999998
 21
204.802878
 31
0.0
  0
LINE
  5
AA88
330
A957
100
AcDbEntity
  8
1
  6
Continuous
100
AcDbLine
 10
161.122948
 20
202.4936129999999
 30
0.0
 11
163.4322129999999
 21
204.802878
 31
0.0
  0
LINE
  5
AA89
330
A957
100
AcDbEntity
  8
1
  6
Continuous
100
AcDbLine
 10
162.9130509999999
 20
202.4936129999999
 30
0.0
 11
160.603786
 21
204.802878
 31
0.0
  0
LINE
  5
AA8A
330
A957
100
AcDbEntity
  8
1
  6
Continuous
100
AcDbLine
 10
184.93428
 20
206.7128779999999
 30
0.0
 11
151.214417
 21
206.7128779999999
 31
0.0
  0
LINE
  5
AA8B
330
A957
100
AcDbEntity
  8
1
  6
Continuous
100
AcDbLine
 10
188.899416
 20
208.4506549999999
 30
0.0
 11
147.249282
 21
208.4506549999999
 31
0.0
  0
LINE
  5
AA8C
330
A957
100
AcDbEntity
  8
1
  6
Continuous
100
AcDbLine
 10
186.0082659999999
 20
206.9993839999999
 30
0.0
 11
150.1431189999999
 21
206.9993839999999
 31
0.0
  0
LINE
  5
AA8D
330
A957
100
AcDbEntity
  8
1
  6
Continuous
100
AcDbLine
 10
187.074349
 20
204.802878
 30
0.0
 11
149.074349
 21
204.802878
 31
0.0
  0
LINE
  5
AA8E
330
A957
100
AcDbEntity
  8
1
  6
Continuous
100
AcDbLine
 10
187.074349
 20
202.4936129999999
 30
0.0
 11
148.6459289999999
 21
202.4936129999999
 31
0.0
  0
LINE
  5
AA8F
330
A957
100
AcDbEntity
  8
1
  6
Continuous
100
AcDbLine
 10
139.074349
 20
209.014939
 30
0.0
 11
197.074349
 21
209.014939
 31
0.0
  0
LINE
  5
AA90
330
A957
100
AcDbEntity
  8
1
  6
Continuous
100
AcDbLine
 10
139.074349
 20
211.314939
 30
0.0
 11
197.074349
 21
211.314939
 31
0.0
  0
LINE
  5
AA91
330
A957
100
AcDbEntity
  8
1
  6
Continuous
100
AcDbLine
 10
178.093511
 20
202.4936129999999
 30
0.0
 11
180.4027759999999
 21
204.802878
 31
0.0
  0
LINE
  5
AA92
330
A957
100
AcDbEntity
  8
1
  6
Continuous
100
AcDbLine
 10
176.679297
 20
202.4936129999999
 30
0.0
 11
178.9885619999998
 21
204.802878
 31
0.0
  0
LINE
  5
AA93
330
A957
100
AcDbEntity
  8
1
  6
Continuous
100
AcDbLine
 10
178.4694
 20
202.4936129999999
 30
0.0
 11
176.160135
 21
204.802878
 31
0.0
  0
LINE
  5
AA94
330
A957
100
AcDbEntity
  8
1
  6
Continuous
100
AcDbLine
 10
179.8836139999999
 20
202.4936129999999
 30
0.0
 11
177.574349
 21
204.802878
 31
0.0
  0
LINE
  5
AA95
330
A957
100
AcDbEntity
  8
1
  6
Continuous
100
AcDbLine
 10
187.074349
 20
204.403383
 30
0.0
 11
185.164578
 21
202.4936129999999
 31
0.0
  0
LINE
  5
AA96
330
A957
100
AcDbEntity
  8
1
  6
Continuous
100
AcDbLine
 10
187.074349
 20
203.788159
 30
0.0
 11
186.05963
 21
204.802878
 31
0.0
  0
LINE
  5
AA97
330
A957
100
AcDbEntity
  8
1
  6
Continuous
100
AcDbLine
 10
186.954682
 20
202.4936129999999
 30
0.0
 11
184.6454169999999
 21
204.802878
 31
0.0
  0
ARC
  5
AA98
330
A957
100
AcDbEntity
  8
1
  6
Continuous
100
AcDbCircle
 10
185.6200179999999
 20
205.8708409999999
 30
0.0
 40
0.8364709999999998
100
AcDbArc
 50
19.341459
 51
77.625084
  0
ARC
  5
AA99
330
A957
100
AcDbEntity
  8
1
  6
Continuous
100
AcDbCircle
 10
180.162575
 20
207.5761219999999
 30
0.0
 40
6.407901999999999
100
AcDbArc
 50
334.3555600000001
 51
347.121283
  0
ARC
  5
AA9A
330
A957
100
AcDbEntity
  8
1
  6
Continuous
100
AcDbCircle
 10
186.005578
 20
210.6101779999999
 30
0.0
 40
3.610794999999998
100
AcDbArc
 50
270.0
 51
323.267889
  0
LINE
  5
AA9B
330
A957
100
AcDbEntity
  8
1
  6
Continuous
100
AcDbLine
 10
187.074349
 20
202.9891689999999
 30
0.0
 11
186.5787919999999
 21
202.4936129999999
 31
0.0
  0
LINE
  5
AA9C
330
A957
100
AcDbEntity
  8
1
  6
Continuous
100
AcDbLine
 10
187.074349
 20
204.802878
 30
0.0
 11
187.074349
 21
202.4936129999999
 31
0.0
  0
LINE
  5
AA9D
330
A957
100
AcDbEntity
  8
1
  6
Continuous
100
AcDbLine
 10
188.899416
 20
208.4506549999999
 30
0.0
 11
188.899416
 21
209.014939
 31
0.0
  0
LINE
  5
AA9E
330
A957
100
AcDbEntity
  8
1
  6
Continuous
100
AcDbLine
 10
180.9219379999999
 20
202.4936129999999
 30
0.0
 11
183.2312029999999
 21
204.802878
 31
0.0
  0
LINE
  5
AA9F
330
A957
100
AcDbEntity
  8
1
  6
Continuous
100
AcDbLine
 10
184.1262549999999
 20
202.4936129999999
 30
0.0
 11
181.8169889999999
 21
204.802878
 31
0.0
  0
LINE
  5
AAA0
330
A957
100
AcDbEntity
  8
1
  6
Continuous
100
AcDbLine
 10
182.712041
 20
202.4936129999999
 30
0.0
 11
180.4027759999999
 21
204.802878
 31
0.0
  0
LINE
  5
AAA1
330
A957
100
AcDbEntity
  8
1
  6
Continuous
100
AcDbLine
 10
183.750365
 20
202.4936129999999
 30
0.0
 11
186.05963
 21
204.802878
 31
0.0
  0
LINE
  5
AAA2
330
A957
100
AcDbEntity
  8
1
  6
Continuous
100
AcDbLine
 10
182.3361509999998
 20
202.4936129999999
 30
0.0
 11
184.6454169999999
 21
204.802878
 31
0.0
  0
LINE
  5
AAA3
330
A957
100
AcDbEntity
  8
1
  6
Continuous
100
AcDbLine
 10
185.540468
 20
202.4936129999999
 30
0.0
 11
183.2312029999999
 21
204.802878
 31
0.0
  0
LINE
  5
AAA4
330
A957
100
AcDbEntity
  8
1
  6
Continuous
100
AcDbLine
 10
179.5077239999999
 20
202.4936129999999
 30
0.0
 11
181.8169889999999
 21
204.802878
 31
0.0
  0
LINE
  5
AAA5
330
A957
100
AcDbEntity
  8
1
  6
Continuous
100
AcDbLine
 10
181.297827
 20
202.4936129999999
 30
0.0
 11
178.9885619999998
 21
204.802878
 31
0.0
  0
LINE
  5
AAA6
330
A957
100
AcDbEntity
  8
1
  6
Continuous
100
AcDbLine
 10
184.93428
 20
206.7128779999999
 30
0.0
 11
184.7905779999999
 21
206.9068759999999
 31
0.0
  0
LINE
  5
AAA7
330
A957
100
AcDbEntity
  8
1
  6
Continuous
100
AcDbLine
 10
185.79928
 20
206.687878
 30
0.0
 11
184.93428
 21
206.7128779999999
 31
0.0
  0
ARC
  5
AAA8
330
A957
100
AcDbEntity
  8
1
  6
Continuous
100
AcDbCircle
 10
181.64694
 20
203.493379
 30
0.0
 40
4.640519999999998
100
AcDbArc
 50
47.356681
 51
49.07081699999999
  0
LINE
  5
AAA9
330
A957
100
AcDbEntity
  8
1
  6
Continuous
100
AcDbLine
 10
168.194016
 20
202.4936129999999
 30
0.0
 11
170.5032809999999
 21
204.802878
 31
0.0
  0
LINE
  5
AAAA
330
A957
100
AcDbEntity
  8
1
  6
Continuous
100
AcDbLine
 10
169.6082289999999
 20
202.4936129999999
 30
0.0
 11
171.917494
 21
204.802878
 31
0.0
  0
LINE
  5
AAAB
330
A957
100
AcDbEntity
  8
1
  6
Continuous
100
AcDbLine
 10
169.9841189999999
 20
202.4936129999999
 30
0.0
 11
167.674854
 21
204.802878
 31
0.0
  0
LINE
  5
AAAC
330
A957
100
AcDbEntity
  8
1
  6
Continuous
100
AcDbLine
 10
171.398332
 20
202.4936129999999
 30
0.0
 11
169.0890669999998
 21
204.802878
 31
0.0
  0
LINE
  5
AAAD
330
A957
100
AcDbEntity
  8
1
  6
Continuous
100
AcDbLine
 10
172.4366559999999
 20
202.4936129999999
 30
0.0
 11
174.745922
 21
204.802878
 31
0.0
  0
LINE
  5
AAAE
330
A957
100
AcDbEntity
  8
1
  6
Continuous
100
AcDbLine
 10
173.8508699999999
 20
202.4936129999999
 30
0.0
 11
176.160135
 21
204.802878
 31
0.0
  0
LINE
  5
AAAF
330
A957
100
AcDbEntity
  8
1
  6
Continuous
100
AcDbLine
 10
174.22676
 20
202.4936129999999
 30
0.0
 11
171.917494
 21
204.802878
 31
0.0
  0
LINE
  5
AAB0
330
A957
100
AcDbEntity
  8
1
  6
Continuous
100
AcDbLine
 10
175.640973
 20
202.4936129999999
 30
0.0
 11
173.3317079999999
 21
204.802878
 31
0.0
  0
LINE
  5
AAB1
330
A957
100
AcDbEntity
  8
1
  6
Continuous
100
AcDbLine
 10
175.265084
 20
202.4936129999999
 30
0.0
 11
177.574349
 21
204.802878
 31
0.0
  0
LINE
  5
AAB2
330
A957
100
AcDbEntity
  8
1
  6
Continuous
100
AcDbLine
 10
177.055187
 20
202.4936129999999
 30
0.0
 11
174.745922
 21
204.802878
 31
0.0
  0
LINE
  5
AAB3
330
A957
100
AcDbEntity
  8
1
  6
Continuous
100
AcDbLine
 10
171.0224429999998
 20
202.4936129999999
 30
0.0
 11
173.3317079999999
 21
204.802878
 31
0.0
  0
LINE
  5
AAB4
330
A957
100
AcDbEntity
  8
1
  6
Continuous
100
AcDbLine
 10
172.812546
 20
202.4936129999999
 30
0.0
 11
170.5032809999999
 21
204.802878
 31
0.0
  0
LINE
  5
AAB5
330
A957
100
AcDbEntity
  8
1
  6
Continuous
100
AcDbLine
 10
163.951375
 20
202.4936129999999
 30
0.0
 11
166.26064
 21
204.802878
 31
0.0
  0
LINE
  5
AAB6
330
A957
100
AcDbEntity
  8
1
  6
Continuous
100
AcDbLine
 10
165.365589
 20
202.4936129999999
 30
0.0
 11
167.674854
 21
204.802878
 31
0.0
  0
LINE
  5
AAB7
330
A957
100
AcDbEntity
  8
1
  6
Continuous
100
AcDbLine
 10
167.155692
 20
202.4936129999999
 30
0.0
 11
164.846427
 21
204.802878
 31
0.0
  0
LINE
  5
AAB8
330
A957
100
AcDbEntity
  8
1
  6
Continuous
100
AcDbLine
 10
166.779802
 20
202.4936129999999
 30
0.0
 11
169.0890669999998
 21
204.802878
 31
0.0
  0
LINE
  5
AAB9
330
A957
100
AcDbEntity
  8
1
  6
Continuous
100
AcDbLine
 10
168.569905
 20
202.4936129999999
 30
0.0
 11
166.26064
 21
204.802878
 31
0.0
  0
LINE
  5
AABA
330
A957
100
AcDbEntity
  8
1
  6
Continuous
100
AcDbLine
 10
162.537161
 20
202.4936129999999
 30
0.0
 11
164.846427
 21
204.802878
 31
0.0
  0
LINE
  5
AABB
330
A957
100
AcDbEntity
  8
1
  6
Continuous
100
AcDbLine
 10
164.3272649999999
 20
202.4936129999999
 30
0.0
 11
162.0179999999998
 21
204.802878
 31
0.0
  0
LINE
  5
AABC
330
A957
100
AcDbEntity
  8
1
  6
Continuous
100
AcDbLine
 10
165.741478
 20
202.4936129999999
 30
0.0
 11
163.4322129999999
 21
204.802878
 31
0.0
  0
ARC
  5
AABD
330
A957
100
AcDbEntity
  8
1
  6
Continuous
100
AcDbCircle
 10
148.6459289999999
 20
200.252446
 30
0.0
 40
2.241166999999999
100
AcDbArc
 50
90.0
 51
194.0
  0
LINE
  5
AABE
330
A957
100
AcDbEntity
  8
1
  6
Continuous
100
AcDbLine
 10
147.8890189999999
 20
194.024236
 30
0.0
 11
153.637768
 21
194.024236
 31
0.0
  0
ARC
  5
AABF
330
A957
100
AcDbEntity
  8
1
  6
Continuous
100
AcDbCircle
 10
153.637768
 20
190.0668599999999
 30
0.0
 40
3.957376
100
AcDbArc
 50
14.0
 51
90.0
  0
LINE
  5
AAC0
330
A957
100
AcDbEntity
  8
1
  6
Continuous
100
AcDbLine
 10
147.8890189999999
 20
194.024236
 30
0.0
 11
146.471335
 21
199.710259
 31
0.0
  0
LINE
  5
AAC1
330
A957
100
AcDbEntity
  8
1
  6
Continuous
100
AcDbLine
 10
151.223453
 20
202.4936129999999
 30
0.0
 11
153.5327179999999
 21
204.802878
 31
0.0
  0
LINE
  5
AAC2
330
A957
100
AcDbEntity
  8
1
  6
Continuous
100
AcDbLine
 10
152.6376669999999
 20
202.4936129999999
 30
0.0
 11
154.946932
 21
204.802878
 31
0.0
  0
LINE
  5
AAC3
330
A957
100
AcDbEntity
  8
1
  6
Continuous
100
AcDbLine
 10
154.42777
 20
202.4936129999999
 30
0.0
 11
152.1185049999999
 21
204.802878
 31
0.0
  0
LINE
  5
AAC4
330
A957
100
AcDbEntity
  8
1
  6
Continuous
100
AcDbLine
 10
155.4660939999999
 20
202.4936129999999
 30
0.0
 11
157.775359
 21
204.802878
 31
0.0
  0
LINE
  5
AAC5
330
A957
100
AcDbEntity
  8
1
  6
Continuous
100
AcDbLine
 10
156.8803069999999
 20
202.4936129999999
 30
0.0
 11
159.189572
 21
204.802878
 31
0.0
  0
LINE
  5
AAC6
330
A957
100
AcDbEntity
  8
1
  6
Continuous
100
AcDbLine
 10
158.67041
 20
202.4936129999999
 30
0.0
 11
156.3611449999999
 21
204.802878
 31
0.0
  0
LINE
  5
AAC7
330
A957
100
AcDbEntity
  8
1
  6
Continuous
100
AcDbLine
 10
158.294521
 20
202.4936129999999
 30
0.0
 11
160.603786
 21
204.802878
 31
0.0
  0
LINE
  5
AAC8
330
A957
100
AcDbEntity
  8
1
  6
Continuous
100
AcDbLine
 10
160.0846239999999
 20
202.4936129999999
 30
0.0
 11
157.775359
 21
204.802878
 31
0.0
  0
LINE
  5
AAC9
330
A957
100
AcDbEntity
  8
1
  6
Continuous
100
AcDbLine
 10
161.4988379999998
 20
202.4936129999999
 30
0.0
 11
159.189572
 21
204.802878
 31
0.0
  0
LINE
  5
AACA
330
A957
100
AcDbEntity
  8
1
  6
Continuous
100
AcDbLine
 10
154.05188
 20
202.4936129999999
 30
0.0
 11
156.3611449999999
 21
204.802878
 31
0.0
  0
LINE
  5
AACB
330
A957
100
AcDbEntity
  8
1
  6
Continuous
100
AcDbLine
 10
155.841983
 20
202.4936129999999
 30
0.0
 11
153.5327179999999
 21
204.802878
 31
0.0
  0
LINE
  5
AACC
330
A957
100
AcDbEntity
  8
1
  6
Continuous
100
AcDbLine
 10
157.2561969999999
 20
202.4936129999999
 30
0.0
 11
154.946932
 21
204.802878
 31
0.0
  0
ARC
  5
AACD
330
A957
100
AcDbEntity
  8
1
  6
Continuous
100
AcDbCircle
 10
150.528679
 20
205.8708409999999
 30
0.0
 40
0.8364709999999998
100
AcDbArc
 50
102.3749159999999
 51
160.6585409999999
  0
LINE
  5
AACE
330
A957
100
AcDbEntity
  8
1
  6
Continuous
100
AcDbLine
 10
149.074349
 20
203.1729349999999
 30
0.0
 11
150.7042909999999
 21
204.802878
 31
0.0
  0
LINE
  5
AACF
330
A957
100
AcDbEntity
  8
1
  6
Continuous
100
AcDbLine
 10
150.1851289999999
 20
202.4936129999999
 30
0.0
 11
149.074349
 21
203.6043929999999
 31
0.0
  0
LINE
  5
AAD0
330
A957
100
AcDbEntity
  8
1
  6
Continuous
100
AcDbLine
 10
151.5993429999998
 20
202.4936129999999
 30
0.0
 11
149.290077
 21
204.802878
 31
0.0
  0
LINE
  5
AAD1
330
A957
100
AcDbEntity
  8
1
  6
Continuous
100
AcDbLine
 10
149.809239
 20
202.4936129999999
 30
0.0
 11
152.1185049999999
 21
204.802878
 31
0.0
  0
LINE
  5
AAD2
330
A957
100
AcDbEntity
  8
1
  6
Continuous
100
AcDbLine
 10
153.0135559999999
 20
202.4936129999999
 30
0.0
 11
150.7042909999999
 21
204.802878
 31
0.0
  0
ARC
  5
AAD3
330
A957
100
AcDbEntity
  8
1
  6
Continuous
100
AcDbCircle
 10
155.9861219999999
 20
207.5761219999999
 30
0.0
 40
6.407901999999999
100
AcDbArc
 50
192.8787169999999
 51
205.64444
  0
LINE
  5
AAD4
330
A957
100
AcDbEntity
  8
1
  6
Continuous
100
AcDbLine
 10
149.074349
 20
204.587149
 30
0.0
 11
149.290077
 21
204.802878
 31
0.0
  0
LINE
  5
AAD5
330
A957
100
AcDbEntity
  8
1
  6
Continuous
100
AcDbLine
 10
149.074349
 20
204.802878
 30
0.0
 11
149.074349
 21
202.4936129999999
 31
0.0
  0
ARC
  5
AAD6
330
A957
100
AcDbEntity
  8
1
  6
Continuous
100
AcDbCircle
 10
150.1431189999999
 20
210.6101779999999
 30
0.0
 40
3.610794999999998
100
AcDbArc
 50
216.7321109999999
 51
270.0
  0
LINE
  5
AAD7
330
A957
100
AcDbEntity
  8
1
  6
Continuous
100
AcDbLine
 10
151.214417
 20
206.7128779999999
 30
0.0
 11
151.3581199999999
 21
206.9068759999999
 31
0.0
  0
LINE
  5
AAD8
330
A957
100
AcDbEntity
  8
1
  6
Continuous
100
AcDbLine
 10
150.3494169999999
 20
206.687878
 30
0.0
 11
151.214417
 21
206.7128779999999
 31
0.0
  0
ARC
  5
AAD9
330
A957
100
AcDbEntity
  8
1
  6
Continuous
100
AcDbCircle
 10
154.5017579999999
 20
203.493379
 30
0.0
 40
4.640519999999998
100
AcDbArc
 50
130.929183
 51
132.6433189999999
  0
LINE
  5
AADA
330
A957
100
AcDbEntity
  8
1
  6
Continuous
100
AcDbLine
 10
147.249282
 20
208.4506549999999
 30
0.0
 11
147.249282
 21
209.014939
 31
0.0
  0
LINE
  5
AADB
330
A957
100
AcDbEntity
  8
1
  6
Continuous
100
AcDbLine
 10
139.074349
 20
209.014939
 30
0.0
 11
139.074349
 21
211.314939
 31
0.0
  0
ARC
  5
AADC
330
A957
100
AcDbEntity
  8
1
  6
Continuous
100
AcDbCircle
 10
76.35526799999998
 20
200.3350129999998
 30
0.0
 40
2.0
100
AcDbArc
 50
0.0
 51
90.0
  0
ARC
  5
AADD
330
A957
100
AcDbEntity
  8
1
  6
Continuous
100
AcDbCircle
 10
39.355268
 20
200.3350129999998
 30
0.0
 40
2.0
100
AcDbArc
 50
90.0
 51
180.0
  0
ARC
  5
AADE
330
A957
100
AcDbEntity
  8
1
  6
Continuous
100
AcDbCircle
 10
286.053522
 20
168.5227859999999
 30
0.0
 40
5.439908999999999
100
AcDbArc
 50
319.6053889999999
 51
0.0
  0
LINE
  5
AADF
330
A957
100
AcDbEntity
  8
1
  6
Continuous
100
AcDbLine
 10
248.4934309999999
 20
177.3149699999999
 30
0.0
 11
248.4934309999999
 21
165.3149699999999
 31
0.0
  0
ARC
  5
AAE0
330
A957
100
AcDbEntity
  8
1
  6
Continuous
100
AcDbCircle
 10
251.5604189999999
 20
176.511122
 30
0.0
 40
3.066986999999998
100
AcDbArc
 50
154.3842469999999
 51
214.384247
  0
LINE
  5
AAE1
330
A957
100
AcDbEntity
  8
1
  6
Continuous
100
AcDbLine
 10
248.4934309999999
 20
166.1188169999998
 30
0.0
 11
248.4934309999999
 21
176.511122
 31
0.0
  0
LINE
  5
AAE2
330
A957
100
AcDbEntity
  8
1
  6
Continuous
100
AcDbLine
 10
253.493431
 20
163.8149699999999
 30
0.0
 11
253.493431
 21
165.306286
 31
0.0
  0
LINE
  5
AAE3
330
A957
100
AcDbEntity
  8
1
  6
Continuous
100
AcDbLine
 10
293.4196689999998
 20
164.3149699999999
 30
0.0
 11
293.4196689999998
 21
166.1466399999999
 31
0.0
  0
LINE
  5
AAE4
330
A957
100
AcDbEntity
  8
1
  6
Continuous
100
AcDbLine
 10
288.7934309999998
 20
177.3341899999999
 30
0.0
 11
288.7934309999998
 21
160.96497
 31
0.0
  0
LINE
  5
AAE5
330
A957
100
AcDbEntity
  8
1
  6
Continuous
100
AcDbLine
 10
257.7934309999998
 20
177.3341899999999
 30
0.0
 11
257.7934309999998
 21
160.96497
 31
0.0
  0
LINE
  5
AAE6
330
A957
100
AcDbEntity
  8
1
  6
Continuous
100
AcDbLine
 10
291.093431
 20
162.164843
 30
0.0
 11
291.093431
 21
160.96497
 31
0.0
  0
LINE
  5
AAE7
330
A957
100
AcDbEntity
  8
1
  6
Continuous
100
AcDbLine
 10
255.4934309999999
 20
160.96497
 30
0.0
 11
255.4934309999999
 21
162.1648449999999
 31
0.0
  0
ARC
  5
AAE8
330
A957
100
AcDbEntity
  8
1
  6
Continuous
100
AcDbCircle
 10
285.593431
 20
171.3149699999999
 30
0.0
 40
10.5
100
AcDbArc
 50
318.189685
 51
38.652143
  0
LINE
  5
AAE9
330
A957
100
AcDbEntity
  8
1
  6
Continuous
100
AcDbLine
 10
291.093431
 20
160.96497
 30
0.0
 11
288.7934309999998
 21
160.96497
 31
0.0
  0
ARC
  5
AAEA
330
A957
100
AcDbEntity
  8
1
  6
Continuous
100
AcDbCircle
 10
296.3561169999999
 20
159.7562619999999
 30
0.0
 40
5.787669999999999
100
AcDbArc
 50
139.605389
 51
155.40777
  0
LINE
  5
AAEB
330
A957
100
AcDbEntity
  8
1
  6
Continuous
100
AcDbLine
 10
252.957533
 20
164.3867669999998
 30
0.0
 11
249.0293299999999
 21
164.3867669999998
 31
0.0
  0
LINE
  5
AAEC
330
A957
100
AcDbEntity
  8
1
  6
Continuous
100
AcDbLine
 10
252.822652
 20
167.850868
 30
0.0
 11
249.0293299999999
 21
167.850868
 31
0.0
  0
LINE
  5
AAED
330
A957
100
AcDbEntity
  8
1
  6
Continuous
100
AcDbLine
 10
252.793431
 20
174.7790719999999
 30
0.0
 11
249.0293299999999
 21
174.7790719999999
 31
0.0
  0
LINE
  5
AAEE
330
A957
100
AcDbEntity
  8
1
  6
Continuous
100
AcDbLine
 10
252.957533
 20
164.3867669999998
 30
0.0
 11
253.493431
 21
165.3149699999999
 31
0.0
  0
ARC
  5
AAEF
330
A957
100
AcDbEntity
  8
1
  6
Continuous
100
AcDbCircle
 10
250.426444
 20
166.118818
 30
0.0
 40
3.066986999999998
100
AcDbArc
 50
334.384247
 51
347.6949839999999
  0
ARC
  5
AAF0
330
A957
100
AcDbEntity
  8
1
  6
Continuous
100
AcDbCircle
 10
260.53334
 20
168.5227859999999
 30
0.0
 40
7.739908999999999
100
AcDbArc
 50
217.4632289999999
 51
220.3946109999999
  0
LINE
  5
AAF1
330
A957
100
AcDbEntity
  8
1
  6
Continuous
100
AcDbLine
 10
257.7934309999998
 20
160.96497
 30
0.0
 11
255.4934309999999
 21
160.96497
 31
0.0
  0
LINE
  5
AAF2
330
A957
100
AcDbEntity
  8
1
  6
Continuous
100
AcDbLine
 10
254.389835
 20
163.8149699999999
 30
0.0
 11
253.493431
 21
163.8149699999999
 31
0.0
  0
ARC
  5
AAF3
330
A957
100
AcDbEntity
  8
1
  6
Continuous
100
AcDbCircle
 10
259.9575329999999
 20
171.3149699999999
 30
0.0
 40
11.464102
100
AcDbArc
 50
162.412046
 51
197.5879539999999
  0
LINE
  5
AAF4
330
A957
100
AcDbEntity
  8
1
  6
Continuous
100
AcDbLine
 10
249.0293299999999
 20
164.3867669999998
 30
0.0
 11
248.4934309999999
 21
165.3149699999999
 31
0.0
  0
ARC
  5
AAF5
330
A957
100
AcDbEntity
  8
1
  6
Continuous
100
AcDbCircle
 10
251.5604189999999
 20
166.118818
 30
0.0
 40
3.066986999999998
100
AcDbArc
 50
145.615753
 51
205.615753
  0
LINE
  5
AAF6
330
A957
100
AcDbEntity
  8
2
  6
Continuous
100
AcDbLine
 10
248.4934309999999
 20
174.6384699999999
 30
0.0
 11
246.916931
 21
174.6384699999999
 31
0.0
  0
LINE
  5
AAF7
330
A957
100
AcDbEntity
  8
1
  6
Continuous
100
AcDbLine
 10
246.593431
 20
168.3149699999999
 30
0.0
 11
246.593431
 21
174.31497
 31
0.0
  0
LINE
  5
AAF8
330
A957
100
AcDbEntity
  8
2
  6
Continuous
100
AcDbLine
 10
248.4934309999999
 20
167.9914699999999
 30
0.0
 11
246.916931
 21
167.9914699999999
 31
0.0
  0
LINE
  5
AAF9
330
A957
100
AcDbEntity
  8
1
  6
Continuous
100
AcDbLine
 10
246.593431
 20
168.3149699999999
 30
0.0
 11
247.5934309999999
 21
167.3149699999999
 31
0.0
  0
LINE
  5
AAFA
330
A957
100
AcDbEntity
  8
1
  6
Continuous
100
AcDbLine
 10
246.593431
 20
174.31497
 30
0.0
 11
247.5934309999999
 21
175.3149699999999
 31
0.0
  0
LINE
  5
AAFB
330
A957
100
AcDbEntity
  8
1
  6
Continuous
100
AcDbLine
 10
248.4934309999999
 20
175.3149699999999
 30
0.0
 11
247.5934309999999
 21
175.3149699999999
 31
0.0
  0
LINE
  5
AAFC
330
A957
100
AcDbEntity
  8
1
  6
Continuous
100
AcDbLine
 10
248.4934309999999
 20
167.3149699999999
 30
0.0
 11
247.5934309999999
 21
167.3149699999999
 31
0.0
  0
LINE
  5
AAFD
330
A957
100
AcDbEntity
  8
1
  6
Continuous
100
AcDbLine
 10
247.5934309999999
 20
167.3149699999999
 30
0.0
 11
247.5934309999999
 21
175.3149699999999
 31
0.0
  0
LINE
  5
AAFE
330
A957
100
AcDbEntity
  8
1
  6
Continuous
100
AcDbLine
 10
254.293431
 20
202.3350129999998
 30
0.0
 11
292.293431
 21
202.3350129999998
 31
0.0
  0
LINE
  5
AAFF
330
A957
100
AcDbEntity
  8
1
  6
Continuous
100
AcDbLine
 10
292.293431
 20
204.644278
 30
0.0
 11
254.293431
 21
204.644278
 31
0.0
  0
LINE
  5
AB00
330
A957
100
AcDbEntity
  8
1
  6
Continuous
100
AcDbLine
 10
266.342031
 20
202.3350129999998
 30
0.0
 11
268.6512959999999
 21
204.644278
 31
0.0
  0
LINE
  5
AB01
330
A957
100
AcDbEntity
  8
1
  6
Continuous
100
AcDbLine
 10
268.132134
 20
202.3350129999998
 30
0.0
 11
265.8228689999999
 21
204.644278
 31
0.0
  0
LINE
  5
AB02
330
A957
100
AcDbEntity
  8
1
  6
Continuous
100
AcDbLine
 10
269.546347
 20
202.3350129999998
 30
0.0
 11
267.2370819999998
 21
204.644278
 31
0.0
  0
LINE
  5
AB03
330
A957
100
AcDbEntity
  8
1
  6
Continuous
100
AcDbLine
 10
294.118498
 20
208.4506849999999
 30
0.0
 11
252.4683649999999
 21
208.4506849999999
 31
0.0
  0
LINE
  5
AB04
330
A957
100
AcDbEntity
  8
1
  6
Continuous
100
AcDbLine
 10
291.224661
 20
206.9994139999999
 30
0.0
 11
255.362202
 21
206.9994139999999
 31
0.0
  0
LINE
  5
AB05
330
A957
100
AcDbEntity
  8
1
  6
Continuous
100
AcDbLine
 10
290.153363
 20
206.7129079999999
 30
0.0
 11
256.4334999999999
 21
206.7129079999999
 31
0.0
  0
LINE
  5
AB06
330
A957
100
AcDbEntity
  8
1
  6
Continuous
100
AcDbLine
 10
302.293431
 20
209.0149699999999
 30
0.0
 11
244.293431
 21
209.0149699999999
 31
0.0
  0
LINE
  5
AB07
330
A957
100
AcDbEntity
  8
1
  6
Continuous
100
AcDbLine
 10
302.293431
 20
209.0149699999999
 30
0.0
 11
302.293431
 21
211.31497
 31
0.0
  0
LINE
  5
AB08
330
A957
100
AcDbEntity
  8
1
  6
Continuous
100
AcDbLine
 10
293.793431
 20
200.3350129999998
 30
0.0
 11
293.793431
 21
168.5227859999999
 31
0.0
  0
LINE
  5
AB09
330
A957
100
AcDbEntity
  8
1
  6
Continuous
100
AcDbLine
 10
281.8983799999998
 20
202.3350129999998
 30
0.0
 11
284.207645
 21
204.644278
 31
0.0
  0
LINE
  5
AB0A
330
A957
100
AcDbEntity
  8
1
  6
Continuous
100
AcDbLine
 10
283.688483
 20
202.3350129999998
 30
0.0
 11
281.3792179999999
 21
204.644278
 31
0.0
  0
LINE
  5
AB0B
330
A957
100
AcDbEntity
  8
1
  6
Continuous
100
AcDbLine
 10
285.1026969999999
 20
202.3350129999998
 30
0.0
 11
282.7934309999998
 21
204.644278
 31
0.0
  0
ARC
  5
AB0C
330
A957
100
AcDbEntity
  8
1
  6
Continuous
100
AcDbCircle
 10
291.793431
 20
200.3350129999998
 30
0.0
 40
2.0
100
AcDbArc
 50
0.0
 51
90.0
  0
ARC
  5
AB0D
330
A957
100
AcDbEntity
  8
1
  6
Continuous
100
AcDbCircle
 10
285.381658
 20
207.576153
 30
0.0
 40
6.407901999999999
100
AcDbArc
 50
332.7714799999998
 51
347.121283
  0
LINE
  5
AB0E
330
A957
100
AcDbEntity
  8
1
  6
Continuous
100
AcDbLine
 10
287.555234
 20
202.3350129999998
 30
0.0
 11
289.864499
 21
204.644278
 31
0.0
  0
LINE
  5
AB0F
330
A957
100
AcDbEntity
  8
1
  6
Continuous
100
AcDbLine
 10
286.141021
 20
202.3350129999998
 30
0.0
 11
288.4502859999999
 21
204.644278
 31
0.0
  0
LINE
  5
AB10
330
A957
100
AcDbEntity
  8
1
  6
Continuous
100
AcDbLine
 10
289.3453369999999
 20
202.3350129999998
 30
0.0
 11
287.0360719999999
 21
204.644278
 31
0.0
  0
LINE
  5
AB11
330
A957
100
AcDbEntity
  8
1
  6
Continuous
100
AcDbLine
 10
287.931124
 20
202.3350129999998
 30
0.0
 11
285.6218589999999
 21
204.644278
 31
0.0
  0
LINE
  5
AB12
330
A957
100
AcDbEntity
  8
1
  6
Continuous
100
AcDbLine
 10
292.293431
 20
204.2447829999999
 30
0.0
 11
290.3836609999999
 21
202.3350129999998
 31
0.0
  0
LINE
  5
AB13
330
A957
100
AcDbEntity
  8
1
  6
Continuous
100
AcDbLine
 10
292.293431
 20
203.6295589999999
 30
0.0
 11
291.2787129999999
 21
204.644278
 31
0.0
  0
LINE
  5
AB14
330
A957
100
AcDbEntity
  8
1
  6
Continuous
100
AcDbLine
 10
292.1737639999999
 20
202.3350129999998
 30
0.0
 11
289.864499
 21
204.644278
 31
0.0
  0
LINE
  5
AB15
330
A957
100
AcDbEntity
  8
1
  6
Continuous
100
AcDbLine
 10
292.293431
 20
202.8305689999998
 30
0.0
 11
291.7978749999999
 21
202.3350129999998
 31
0.0
  0
LINE
  5
AB16
330
A957
100
AcDbEntity
  8
1
  6
Continuous
100
AcDbLine
 10
292.293431
 20
204.644278
 30
0.0
 11
292.293431
 21
202.3350129999998
 31
0.0
  0
LINE
  5
AB17
330
A957
100
AcDbEntity
  8
1
  6
Continuous
100
AcDbLine
 10
288.969448
 20
202.3350129999998
 30
0.0
 11
291.2787129999999
 21
204.644278
 31
0.0
  0
LINE
  5
AB18
330
A957
100
AcDbEntity
  8
1
  6
Continuous
100
AcDbLine
 10
290.7595509999998
 20
202.3350129999998
 30
0.0
 11
288.4502859999999
 21
204.644278
 31
0.0
  0
LINE
  5
AB19
330
A957
100
AcDbEntity
  8
1
  6
Continuous
100
AcDbLine
 10
283.3125929999998
 20
202.3350129999998
 30
0.0
 11
285.6218589999999
 21
204.644278
 31
0.0
  0
LINE
  5
AB1A
330
A957
100
AcDbEntity
  8
1
  6
Continuous
100
AcDbLine
 10
284.726807
 20
202.3350129999998
 30
0.0
 11
287.0360719999999
 21
204.644278
 31
0.0
  0
LINE
  5
AB1B
330
A957
100
AcDbEntity
  8
1
  6
Continuous
100
AcDbLine
 10
286.51691
 20
202.3350129999998
 30
0.0
 11
284.207645
 21
204.644278
 31
0.0
  0
LINE
  5
AB1C
330
A957
100
AcDbEntity
  8
4
  6
CENTER
100
AcDbLine
 10
295.2934309999998
 20
216.3149699999999
 30
0.0
 11
295.2934309999998
 21
204.01497
 31
0.0
  0
ARC
  5
AB1D
330
A957
100
AcDbEntity
  8
1
  6
Continuous
100
AcDbCircle
 10
286.8660229999999
 20
203.493409
 30
0.0
 40
4.640519999999998
100
AcDbArc
 50
47.356681
 51
49.07081699999999
  0
LINE
  5
AB1E
330
A957
100
AcDbEntity
  8
1
  6
Continuous
100
AcDbLine
 10
291.0183629999999
 20
206.687908
 30
0.0
 11
290.153363
 21
206.7129079999999
 31
0.0
  0
LINE
  5
AB1F
330
A957
100
AcDbEntity
  8
1
  6
Continuous
100
AcDbLine
 10
290.153363
 20
206.7129079999999
 30
0.0
 11
290.0096609999998
 21
206.9069059999999
 31
0.0
  0
LINE
  5
AB20
330
A957
100
AcDbEntity
  8
1
  6
Continuous
100
AcDbLine
 10
294.118498
 20
208.4506849999999
 30
0.0
 11
294.118498
 21
209.0149699999999
 31
0.0
  0
ARC
  5
AB21
330
A957
100
AcDbEntity
  8
1
  6
Continuous
100
AcDbCircle
 10
291.224661
 20
210.6102089999999
 30
0.0
 40
3.610794999999998
100
AcDbArc
 50
270.0
 51
323.267889
  0
ARC
  5
AB22
330
A957
100
AcDbEntity
  8
1
  6
Continuous
100
AcDbCircle
 10
290.8391009999998
 20
205.8708709999999
 30
0.0
 40
0.8364709999999998
100
AcDbArc
 50
19.341459
 51
77.625084
  0
LINE
  5
AB23
330
A957
100
AcDbEntity
  8
1
  6
Continuous
100
AcDbLine
 10
277.6557389999999
 20
202.3350129999998
 30
0.0
 11
279.965004
 21
204.644278
 31
0.0
  0
LINE
  5
AB24
330
A957
100
AcDbEntity
  8
1
  6
Continuous
100
AcDbLine
 10
279.0699529999999
 20
202.3350129999998
 30
0.0
 11
281.3792179999999
 21
204.644278
 31
0.0
  0
LINE
  5
AB25
330
A957
100
AcDbEntity
  8
1
  6
Continuous
100
AcDbLine
 10
279.4458419999999
 20
202.3350129999998
 30
0.0
 11
277.136577
 21
204.644278
 31
0.0
  0
LINE
  5
AB26
330
A957
100
AcDbEntity
  8
1
  6
Continuous
100
AcDbLine
 10
280.860056
 20
202.3350129999998
 30
0.0
 11
278.550791
 21
204.644278
 31
0.0
  0
LINE
  5
AB27
330
A957
100
AcDbEntity
  8
1
  6
Continuous
100
AcDbLine
 10
280.484166
 20
202.3350129999998
 30
0.0
 11
282.7934309999998
 21
204.644278
 31
0.0
  0
LINE
  5
AB28
330
A957
100
AcDbEntity
  8
1
  6
Continuous
100
AcDbLine
 10
282.274269
 20
202.3350129999998
 30
0.0
 11
279.965004
 21
204.644278
 31
0.0
  0
LINE
  5
AB29
330
A957
100
AcDbEntity
  8
1
  6
Continuous
100
AcDbLine
 10
269.170458
 20
202.3350129999998
 30
0.0
 11
271.4797229999999
 21
204.644278
 31
0.0
  0
LINE
  5
AB2A
330
A957
100
AcDbEntity
  8
1
  6
Continuous
100
AcDbLine
 10
270.584671
 20
202.3350129999998
 30
0.0
 11
272.893936
 21
204.644278
 31
0.0
  0
LINE
  5
AB2B
330
A957
100
AcDbEntity
  8
1
  6
Continuous
100
AcDbLine
 10
272.374775
 20
202.3350129999998
 30
0.0
 11
270.0655089999999
 21
204.644278
 31
0.0
  0
LINE
  5
AB2C
330
A957
100
AcDbEntity
  8
1
  6
Continuous
100
AcDbLine
 10
273.4130979999998
 20
202.3350129999998
 30
0.0
 11
275.722364
 21
204.644278
 31
0.0
  0
LINE
  5
AB2D
330
A957
100
AcDbEntity
  8
1
  6
Continuous
100
AcDbLine
 10
274.8273119999999
 20
202.3350129999998
 30
0.0
 11
277.136577
 21
204.644278
 31
0.0
  0
LINE
  5
AB2E
330
A957
100
AcDbEntity
  8
1
  6
Continuous
100
AcDbLine
 10
276.6174149999998
 20
202.3350129999998
 30
0.0
 11
274.30815
 21
204.644278
 31
0.0
  0
LINE
  5
AB2F
330
A957
100
AcDbEntity
  8
1
  6
Continuous
100
AcDbLine
 10
276.2415259999999
 20
202.3350129999998
 30
0.0
 11
278.550791
 21
204.644278
 31
0.0
  0
LINE
  5
AB30
330
A957
100
AcDbEntity
  8
1
  6
Continuous
100
AcDbLine
 10
278.031629
 20
202.3350129999998
 30
0.0
 11
275.722364
 21
204.644278
 31
0.0
  0
LINE
  5
AB31
330
A957
100
AcDbEntity
  8
1
  6
Continuous
100
AcDbLine
 10
271.9988849999999
 20
202.3350129999998
 30
0.0
 11
274.30815
 21
204.644278
 31
0.0
  0
LINE
  5
AB32
330
A957
100
AcDbEntity
  8
1
  6
Continuous
100
AcDbLine
 10
273.7889879999999
 20
202.3350129999998
 30
0.0
 11
271.4797229999999
 21
204.644278
 31
0.0
  0
LINE
  5
AB33
330
A957
100
AcDbEntity
  8
1
  6
Continuous
100
AcDbLine
 10
275.2032019999999
 20
202.3350129999998
 30
0.0
 11
272.893936
 21
204.644278
 31
0.0
  0
LINE
  5
AB34
330
A957
100
AcDbEntity
  8
1
  6
Continuous
100
AcDbLine
 10
267.7562439999999
 20
202.3350129999998
 30
0.0
 11
270.0655089999999
 21
204.644278
 31
0.0
  0
LINE
  5
AB35
330
A957
100
AcDbEntity
  8
1
  6
Continuous
100
AcDbLine
 10
270.960561
 20
202.3350129999998
 30
0.0
 11
268.6512959999999
 21
204.644278
 31
0.0
  0
LINE
  5
AB36
330
A957
100
AcDbEntity
  8
1
  6
Continuous
100
AcDbLine
 10
252.793431
 20
200.3350129999998
 30
0.0
 11
252.793431
 21
168.5227859999999
 31
0.0
  0
LINE
  5
AB37
330
A957
100
AcDbEntity
  8
1
  6
Continuous
100
AcDbLine
 10
252.793431
 20
178.2431729999999
 30
0.0
 11
249.0293299999999
 21
178.2431729999999
 31
0.0
  0
LINE
  5
AB38
330
A957
100
AcDbEntity
  8
1
  6
Continuous
100
AcDbLine
 10
249.0293299999999
 20
178.2431729999999
 30
0.0
 11
248.4934309999999
 21
177.3149699999999
 31
0.0
  0
ARC
  5
AB39
330
A957
100
AcDbEntity
  8
1
  6
Continuous
100
AcDbCircle
 10
254.793431
 20
200.3350129999998
 30
0.0
 40
2.0
100
AcDbArc
 50
90.0
 51
180.0
  0
ARC
  5
AB3A
330
A957
100
AcDbEntity
  8
1
  6
Continuous
100
AcDbCircle
 10
261.2052049999999
 20
207.576153
 30
0.0
 40
6.407901999999999
100
AcDbArc
 50
192.8787169999999
 51
207.22852
  0
LINE
  5
AB3B
330
A957
100
AcDbEntity
  8
1
  6
Continuous
100
AcDbLine
 10
260.6851759999999
 20
202.3350129999998
 30
0.0
 11
262.994442
 21
204.644278
 31
0.0
  0
LINE
  5
AB3C
330
A957
100
AcDbEntity
  8
1
  6
Continuous
100
AcDbLine
 10
262.0993899999999
 20
202.3350129999998
 30
0.0
 11
264.4086549999999
 21
204.644278
 31
0.0
  0
LINE
  5
AB3D
330
A957
100
AcDbEntity
  8
1
  6
Continuous
100
AcDbLine
 10
263.889493
 20
202.3350129999998
 30
0.0
 11
261.580228
 21
204.644278
 31
0.0
  0
LINE
  5
AB3E
330
A957
100
AcDbEntity
  8
1
  6
Continuous
100
AcDbLine
 10
264.927817
 20
202.3350129999998
 30
0.0
 11
267.2370819999998
 21
204.644278
 31
0.0
  0
LINE
  5
AB3F
330
A957
100
AcDbEntity
  8
1
  6
Continuous
100
AcDbLine
 10
263.5136039999998
 20
202.3350129999998
 30
0.0
 11
265.8228689999999
 21
204.644278
 31
0.0
  0
LINE
  5
AB40
330
A957
100
AcDbEntity
  8
1
  6
Continuous
100
AcDbLine
 10
265.3037069999999
 20
202.3350129999998
 30
0.0
 11
262.994442
 21
204.644278
 31
0.0
  0
LINE
  5
AB41
330
A957
100
AcDbEntity
  8
1
  6
Continuous
100
AcDbLine
 10
266.71792
 20
202.3350129999998
 30
0.0
 11
264.4086549999999
 21
204.644278
 31
0.0
  0
LINE
  5
AB42
330
A957
100
AcDbEntity
  8
1
  6
Continuous
100
AcDbLine
 10
254.293431
 20
203.0143359999999
 30
0.0
 11
255.923374
 21
204.644278
 31
0.0
  0
LINE
  5
AB43
330
A957
100
AcDbEntity
  8
1
  6
Continuous
100
AcDbLine
 10
255.404212
 20
202.3350129999998
 30
0.0
 11
254.293431
 21
203.4457929999999
 31
0.0
  0
LINE
  5
AB44
330
A957
100
AcDbEntity
  8
1
  6
Continuous
100
AcDbLine
 10
256.8184249999998
 20
202.3350129999998
 30
0.0
 11
254.50916
 21
204.644278
 31
0.0
  0
LINE
  5
AB45
330
A957
100
AcDbEntity
  8
1
  6
Continuous
100
AcDbLine
 10
257.8567489999999
 20
202.3350129999998
 30
0.0
 11
260.166014
 21
204.644278
 31
0.0
  0
LINE
  5
AB46
330
A957
100
AcDbEntity
  8
1
  6
Continuous
100
AcDbLine
 10
259.646852
 20
202.3350129999998
 30
0.0
 11
257.337587
 21
204.644278
 31
0.0
  0
LINE
  5
AB47
330
A957
100
AcDbEntity
  8
1
  6
Continuous
100
AcDbLine
 10
261.0610659999999
 20
202.3350129999998
 30
0.0
 11
258.751801
 21
204.644278
 31
0.0
  0
LINE
  5
AB48
330
A957
100
AcDbEntity
  8
1
  6
Continuous
100
AcDbLine
 10
259.2709629999998
 20
202.3350129999998
 30
0.0
 11
261.580228
 21
204.644278
 31
0.0
  0
LINE
  5
AB49
330
A957
100
AcDbEntity
  8
1
  6
Continuous
100
AcDbLine
 10
262.4752799999999
 20
202.3350129999998
 30
0.0
 11
260.166014
 21
204.644278
 31
0.0
  0
LINE
  5
AB4A
330
A957
100
AcDbEntity
  8
1
  6
Continuous
100
AcDbLine
 10
255.028322
 20
202.3350129999998
 30
0.0
 11
257.337587
 21
204.644278
 31
0.0
  0
LINE
  5
AB4B
330
A957
100
AcDbEntity
  8
1
  6
Continuous
100
AcDbLine
 10
256.4425359999999
 20
202.3350129999998
 30
0.0
 11
258.751801
 21
204.644278
 31
0.0
  0
LINE
  5
AB4C
330
A957
100
AcDbEntity
  8
1
  6
Continuous
100
AcDbLine
 10
258.2326389999999
 20
202.3350129999998
 30
0.0
 11
255.923374
 21
204.644278
 31
0.0
  0
LINE
  5
AB4D
330
A957
100
AcDbEntity
  8
1
  6
Continuous
100
AcDbLine
 10
254.293431
 20
204.428549
 30
0.0
 11
254.50916
 21
204.644278
 31
0.0
  0
LINE
  5
AB4E
330
A957
100
AcDbEntity
  8
1
  6
Continuous
100
AcDbLine
 10
254.293431
 20
204.644278
 30
0.0
 11
254.293431
 21
202.3350129999998
 31
0.0
  0
LINE
  5
AB4F
330
A957
100
AcDbEntity
  8
1
  6
Continuous
100
AcDbLine
 10
252.4683649999999
 20
208.4506849999999
 30
0.0
 11
252.4683649999999
 21
209.0149699999999
 31
0.0
  0
LINE
  5
AB50
330
A957
100
AcDbEntity
  8
1
  6
Continuous
100
AcDbLine
 10
255.5684999999999
 20
206.687908
 30
0.0
 11
256.4334999999999
 21
206.7129079999999
 31
0.0
  0
LINE
  5
AB51
330
A957
100
AcDbEntity
  8
1
  6
Continuous
100
AcDbLine
 10
256.4334999999999
 20
206.7129079999999
 30
0.0
 11
256.577202
 21
206.9069059999999
 31
0.0
  0
ARC
  5
AB52
330
A957
100
AcDbEntity
  8
1
  6
Continuous
100
AcDbCircle
 10
259.7208399999999
 20
203.493409
 30
0.0
 40
4.640519999999998
100
AcDbArc
 50
130.929183
 51
132.6433189999999
  0
ARC
  5
AB53
330
A957
100
AcDbEntity
  8
1
  6
Continuous
100
AcDbCircle
 10
255.7477619999999
 20
205.8708709999999
 30
0.0
 40
0.8364709999999998
100
AcDbArc
 50
102.3749159999999
 51
160.6585409999999
  0
ARC
  5
AB54
330
A957
100
AcDbEntity
  8
1
  6
Continuous
100
AcDbCircle
 10
255.362202
 20
210.6102089999999
 30
0.0
 40
3.610794999999998
100
AcDbArc
 50
216.7321109999999
 51
270.0
  0
LINE
  5
AB55
330
A957
100
AcDbEntity
  8
4
  6
CENTER
100
AcDbLine
 10
251.2934309999999
 20
216.3149699999999
 30
0.0
 11
251.2934309999999
 21
204.01497
 31
0.0
  0
LINE
  5
AB56
330
A957
100
AcDbEntity
  8
1
  6
Continuous
100
AcDbLine
 10
244.293431
 20
209.0149699999999
 30
0.0
 11
244.293431
 21
211.31497
 31
0.0
  0
LINE
  5
AB57
330
A957
100
AcDbEntity
  8
4
  6
CENTER
100
AcDbLine
 10
190.074349
 20
204.0149389999998
 30
0.0
 11
190.074349
 21
216.47357
 31
0.0
  0
LINE
  5
AB58
330
A957
100
AcDbEntity
  8
4
  6
CENTER
100
AcDbLine
 10
146.074349
 20
204.0149389999998
 30
0.0
 11
146.074349
 21
216.47357
 31
0.0
  0
LINE
  5
AB59
330
A957
100
AcDbEntity
  8
1
  6
Continuous
100
AcDbLine
 10
188.574349
 20
195.8149699999999
 30
0.0
 11
188.574349
 21
200.3036129999999
 31
0.0
  0
ARC
  5
AB5A
330
A957
100
AcDbEntity
  8
1
  6
Continuous
100
AcDbCircle
 10
186.3843489999999
 20
200.3036129999999
 30
0.0
 40
2.189999999999999
100
AcDbArc
 50
0.0
 51
90.0
  0
ARC
  5
AB5B
330
A957
100
AcDbEntity
  8
1
  6
Continuous
100
AcDbCircle
 10
145.6190389999999
 20
198.019768
 30
0.0
 40
43.011857
100
AcDbArc
 50
321.6202089999999
 51
357.0617169999999
  0
ARC
  5
AB5C
330
A957
100
AcDbEntity
  8
1
  6
Continuous
100
AcDbCircle
 10
157.074349
 20
91.306975
 30
0.0
 40
8.665063999999999
100
AcDbArc
 50
69.743842
 51
110.256158
  0
LINE
  5
AB5D
330
A957
100
AcDbEntity
  8
1
  6
Continuous
100
AcDbLine
 10
148.074349
 20
99.972039
 30
0.0
 11
160.074349
 21
99.972039
 31
0.0
  0
LINE
  5
AB5E
330
A957
100
AcDbEntity
  8
1
  6
Continuous
100
AcDbLine
 10
160.074349
 20
99.972039
 30
0.0
 11
160.074349
 21
94.972039
 31
0.0
  0
ARC
  5
AB5F
330
A957
100
AcDbEntity
  8
1
  6
Continuous
100
AcDbCircle
 10
151.074349
 20
103.637102
 30
0.0
 40
8.665063999999999
100
AcDbArc
 50
249.7438419999999
 51
290.256158
  0
ARC
  5
AB60
330
A957
100
AcDbEntity
  8
1
  6
Continuous
100
AcDbCircle
 10
151.074349
 20
91.306975
 30
0.0
 40
8.665063999999999
100
AcDbArc
 50
69.743842
 51
110.256158
  0
LINE
  5
AB61
330
A957
100
AcDbEntity
  8
1
  6
Continuous
100
AcDbLine
 10
154.074349
 20
95.50793699999998
 30
0.0
 11
154.074349
 21
99.43614000000003
 31
0.0
  0
LINE
  5
AB62
330
A957
100
AcDbEntity
  8
1
  6
Continuous
100
AcDbLine
 10
148.074349
 20
99.972039
 30
0.0
 11
148.074349
 21
94.972039
 31
0.0
  0
ARC
  5
AB63
330
A957
100
AcDbEntity
  8
1
  6
Continuous
100
AcDbCircle
 10
157.074349
 20
103.637102
 30
0.0
 40
8.665063999999999
100
AcDbArc
 50
249.7438419999999
 51
290.256158
  0
LINE
  5
AB64
330
A957
100
AcDbEntity
  8
1
  6
Continuous
100
AcDbLine
 10
151.074349
 20
101.8720389999999
 30
0.0
 11
150.074349
 21
100.872039
 31
0.0
  0
LINE
  5
AB65
330
A957
100
AcDbEntity
  8
1
  6
Continuous
100
AcDbLine
 10
157.074349
 20
101.8720389999999
 30
0.0
 11
158.074349
 21
100.872039
 31
0.0
  0
ARC
  5
AB66
330
A957
100
AcDbEntity
  8
1
  6
Continuous
100
AcDbCircle
 10
151.074349
 20
258.992775
 30
0.0
 40
8.665063999999999
100
AcDbArc
 50
105.7106089999999
 51
110.256158
  0
LINE
  5
AB67
330
A957
100
AcDbEntity
  8
1
  6
Continuous
100
AcDbLine
 10
148.074349
 20
262.8961009999998
 30
0.0
 11
148.074349
 21
267.657839
 31
0.0
  0
ARC
  5
AB68
330
A957
100
AcDbEntity
  8
1
  6
Continuous
100
AcDbCircle
 10
151.074349
 20
271.3229019999999
 30
0.0
 40
8.665063999999999
100
AcDbArc
 50
249.7438419999999
 51
251.4593899999999
  0
LINE
  5
AB69
330
A957
100
AcDbEntity
  8
1
  6
Continuous
100
AcDbLine
 10
146.574349
 20
268.6691469999999
 30
0.0
 11
146.574349
 21
267.657839
 31
0.0
  0
LINE
  5
AB6A
330
A957
100
AcDbEntity
  8
1
  6
Continuous
100
AcDbLine
 10
148.4665239999999
 20
267.657839
 30
0.0
 11
146.574349
 21
267.657839
 31
0.0
  0
ARC
  5
AB6B
330
A957
100
AcDbEntity
  8
1
  6
Continuous
100
AcDbCircle
 10
154.074349
 20
299.757839
 30
0.0
 40
10.5
100
AcDbArc
 50
117.009084
 51
131.810315
  0
LINE
  5
AB6C
330
A957
100
AcDbEntity
  8
1
  6
Continuous
100
AcDbLine
 10
148.7298189999999
 20
307.5840769999999
 30
0.0
 11
147.074349
 21
307.5840769999999
 31
0.0
  0
LINE
  5
AB6D
330
A957
100
AcDbEntity
  8
1
  6
Continuous
100
AcDbLine
 10
147.074349
 20
307.5840769999999
 30
0.0
 11
147.074349
 21
306.3655099999999
 31
0.0
  0
ARC
  5
AB6E
330
A957
100
AcDbEntity
  8
1
  6
Continuous
100
AcDbCircle
 10
400.967824
 20
198.019768
 30
0.0
 40
43.011857
100
AcDbArc
 50
182.938283
 51
218.379791
  0
ARC
  5
AB6F
330
A957
100
AcDbEntity
  8
1
  6
Continuous
100
AcDbCircle
 10
392.5125129999998
 20
171.3149389999998
 30
0.0
 40
10.34999999999999
100
AcDbArc
 50
270.0
 51
74.60596200000002
  0
LINE
  5
AB70
330
A957
100
AcDbEntity
  8
4
  6
CENTER
100
AcDbLine
 10
392.5125129999998
 20
148.3149389999999
 30
0.0
 11
392.5125129999998
 21
194.3149389999999
 31
0.0
  0
ARC
  5
AB71
330
A957
100
AcDbEntity
  8
1
  6
Continuous
100
AcDbCircle
 10
389.8130949999999
 20
191.086634
 30
0.0
 40
30.0
100
AcDbArc
 50
221.227954
 51
264.837509
  0
LINE
  5
AB72
330
A957
100
AcDbEntity
  8
4
  6
CENTER
100
AcDbLine
 10
369.512513
 20
171.3149389999998
 30
0.0
 11
415.512513
 21
171.3149389999998
 31
0.0
  0
ARC
  5
AB73
330
A957
100
AcDbEntity
  8
1
  6
Continuous
100
AcDbCircle
 10
392.5125129999998
 20
220.964939
 30
0.0
 40
60.0
100
AcDbArc
 50
264.837509
 51
270.0
  0
LINE
  5
AB74
330
A957
100
AcDbEntity
  8
1
  6
Continuous
100
AcDbLine
 10
407.5125129999998
 20
211.314939
 30
0.0
 11
349.512513
 21
211.314939
 31
0.0
  0
LINE
  5
AB75
330
A957
100
AcDbEntity
  8
1
  6
Continuous
100
AcDbLine
 10
407.5125129999998
 20
209.014939
 30
0.0
 11
349.512513
 21
209.014939
 31
0.0
  0
LINE
  5
AB76
330
A957
100
AcDbEntity
  8
1
  6
Continuous
100
AcDbLine
 10
359.512513
 20
202.4936129999999
 30
0.0
 11
397.9409329999999
 21
202.4936129999999
 31
0.0
  0
LINE
  5
AB77
330
A957
100
AcDbEntity
  8
1
  6
Continuous
100
AcDbLine
 10
385.088024
 20
202.4936129999999
 30
0.0
 11
387.39729
 21
204.802878
 31
0.0
  0
LINE
  5
AB78
330
A957
100
AcDbEntity
  8
1
  6
Continuous
100
AcDbLine
 10
386.5022379999999
 20
202.4936129999999
 30
0.0
 11
388.8115029999998
 21
204.802878
 31
0.0
  0
LINE
  5
AB79
330
A957
100
AcDbEntity
  8
1
  6
Continuous
100
AcDbLine
 10
388.292341
 20
202.4936129999999
 30
0.0
 11
385.9830759999999
 21
204.802878
 31
0.0
  0
LINE
  5
AB7A
330
A957
100
AcDbEntity
  8
1
  6
Continuous
100
AcDbLine
 10
359.512513
 20
204.802878
 30
0.0
 11
397.512513
 21
204.802878
 31
0.0
  0
LINE
  5
AB7B
330
A957
100
AcDbEntity
  8
1
  6
Continuous
100
AcDbLine
 10
360.5785969999999
 20
206.9993839999999
 30
0.0
 11
396.4437429999999
 21
206.9993839999999
 31
0.0
  0
LINE
  5
AB7C
330
A957
100
AcDbEntity
  8
1
  6
Continuous
100
AcDbLine
 10
357.687446
 20
208.4506549999999
 30
0.0
 11
399.3375799999999
 21
208.4506549999999
 31
0.0
  0
LINE
  5
AB7D
330
A957
100
AcDbEntity
  8
1
  6
Continuous
100
AcDbLine
 10
361.652582
 20
206.7128779999999
 30
0.0
 11
395.372445
 21
206.7128779999999
 31
0.0
  0
LINE
  5
AB7E
330
A957
100
AcDbEntity
  8
1
  6
Continuous
100
AcDbLine
 10
398.6978429999999
 20
194.024236
 30
0.0
 11
400.1155269999999
 21
199.710259
 31
0.0
  0
ARC
  5
AB7F
330
A957
100
AcDbEntity
  8
1
  6
Continuous
100
AcDbCircle
 10
392.9490939999998
 20
190.0668599999999
 30
0.0
 40
3.957376
100
AcDbArc
 50
90.0
 51
166.0
  0
ARC
  5
AB80
330
A957
100
AcDbEntity
  8
1
  6
Continuous
100
AcDbCircle
 10
397.5242039999998
 20
189.517167
 30
0.0
 40
8.529569
100
AcDbArc
 50
168.2921629999999
 51
254.605962
  0
LINE
  5
AB81
330
A957
100
AcDbEntity
  8
1
  6
Continuous
100
AcDbLine
 10
398.6978429999999
 20
194.024236
 30
0.0
 11
392.9490939999998
 21
194.024236
 31
0.0
  0
LINE
  5
AB82
330
A957
100
AcDbEntity
  8
1
  6
Continuous
100
AcDbLine
 10
407.5125129999998
 20
209.014939
 30
0.0
 11
407.5125129999998
 21
211.314939
 31
0.0
  0
LINE
  5
AB83
330
A957
100
AcDbEntity
  8
4
  6
CENTER
100
AcDbLine
 10
400.512513
 20
204.0149389999998
 30
0.0
 11
400.512513
 21
216.47357
 31
0.0
  0
ARC
  5
AB84
330
A957
100
AcDbEntity
  8
1
  6
Continuous
100
AcDbCircle
 10
392.085104
 20
203.493379
 30
0.0
 40
4.640519999999998
100
AcDbArc
 50
47.356681
 51
49.07081699999999
  0
LINE
  5
AB85
330
A957
100
AcDbEntity
  8
1
  6
Continuous
100
AcDbLine
 10
395.372445
 20
206.7128779999999
 30
0.0
 11
395.228742
 21
206.9068759999999
 31
0.0
  0
LINE
  5
AB86
330
A957
100
AcDbEntity
  8
1
  6
Continuous
100
AcDbLine
 10
393.573306
 20
202.4936129999999
 30
0.0
 11
395.8825709999999
 21
204.802878
 31
0.0
  0
LINE
  5
AB87
330
A957
100
AcDbEntity
  8
1
  6
Continuous
100
AcDbLine
 10
389.3306649999999
 20
202.4936129999999
 30
0.0
 11
391.63993
 21
204.802878
 31
0.0
  0
LINE
  5
AB88
330
A957
100
AcDbEntity
  8
1
  6
Continuous
100
AcDbLine
 10
390.7448790000001
 20
202.4936129999999
 30
0.0
 11
393.054144
 21
204.802878
 31
0.0
  0
LINE
  5
AB89
330
A957
100
AcDbEntity
  8
1
  6
Continuous
100
AcDbLine
 10
392.5349819999998
 20
202.4936129999999
 30
0.0
 11
390.225717
 21
204.802878
 31
0.0
  0
LINE
  5
AB8A
330
A957
100
AcDbEntity
  8
1
  6
Continuous
100
AcDbLine
 10
387.916452
 20
202.4936129999999
 30
0.0
 11
390.225717
 21
204.802878
 31
0.0
  0
LINE
  5
AB8B
330
A957
100
AcDbEntity
  8
1
  6
Continuous
100
AcDbLine
 10
389.7065549999999
 20
202.4936129999999
 30
0.0
 11
387.39729
 21
204.802878
 31
0.0
  0
LINE
  5
AB8C
330
A957
100
AcDbEntity
  8
1
  6
Continuous
100
AcDbLine
 10
391.120768
 20
202.4936129999999
 30
0.0
 11
388.8115029999998
 21
204.802878
 31
0.0
  0
LINE
  5
AB8D
330
A957
100
AcDbEntity
  8
1
  6
Continuous
100
AcDbLine
 10
392.1590919999999
 20
202.4936129999999
 30
0.0
 11
394.4683569999999
 21
204.802878
 31
0.0
  0
LINE
  5
AB8E
330
A957
100
AcDbEntity
  8
1
  6
Continuous
100
AcDbLine
 10
393.9491949999998
 20
202.4936129999999
 30
0.0
 11
391.63993
 21
204.802878
 31
0.0
  0
LINE
  5
AB8F
330
A957
100
AcDbEntity
  8
1
  6
Continuous
100
AcDbLine
 10
395.3634089999998
 20
202.4936129999999
 30
0.0
 11
393.054144
 21
204.802878
 31
0.0
  0
ARC
  5
AB90
330
A957
100
AcDbEntity
  8
1
  6
Continuous
100
AcDbCircle
 10
397.9409329999999
 20
200.252446
 30
0.0
 40
2.241166999999999
100
AcDbArc
 50
346.0
 51
90.0
  0
LINE
  5
AB91
330
A957
100
AcDbEntity
  8
1
  6
Continuous
100
AcDbLine
 10
399.3375799999999
 20
208.4506549999999
 30
0.0
 11
399.3375799999999
 21
209.014939
 31
0.0
  0
ARC
  5
AB92
330
A957
100
AcDbEntity
  8
1
  6
Continuous
100
AcDbCircle
 10
396.4437429999999
 20
210.6101779999999
 30
0.0
 40
3.610794999999998
100
AcDbArc
 50
270.0
 51
323.267889
  0
LINE
  5
AB93
330
A957
100
AcDbEntity
  8
1
  6
Continuous
100
AcDbLine
 10
397.512513
 20
204.802878
 30
0.0
 11
397.512513
 21
202.4936129999999
 31
0.0
  0
LINE
  5
AB94
330
A957
100
AcDbEntity
  8
1
  6
Continuous
100
AcDbLine
 10
397.512513
 20
204.587149
 30
0.0
 11
397.296785
 21
204.802878
 31
0.0
  0
ARC
  5
AB95
330
A957
100
AcDbEntity
  8
1
  6
Continuous
100
AcDbCircle
 10
390.60074
 20
207.5761219999999
 30
0.0
 40
6.407901999999999
100
AcDbArc
 50
334.3555600000001
 51
347.121283
  0
LINE
  5
AB96
330
A957
100
AcDbEntity
  8
1
  6
Continuous
100
AcDbLine
 10
396.4017329999999
 20
202.4936129999999
 30
0.0
 11
397.512513
 21
203.6043929999999
 31
0.0
  0
ARC
  5
AB97
330
A957
100
AcDbEntity
  8
1
  6
Continuous
100
AcDbCircle
 10
396.0581829999999
 20
205.8708409999999
 30
0.0
 40
0.8364709999999998
100
AcDbArc
 50
19.341459
 51
77.625084
  0
LINE
  5
AB98
330
A957
100
AcDbEntity
  8
1
  6
Continuous
100
AcDbLine
 10
396.237445
 20
206.687878
 30
0.0
 11
395.372445
 21
206.7128779999999
 31
0.0
  0
LINE
  5
AB99
330
A957
100
AcDbEntity
  8
1
  6
Continuous
100
AcDbLine
 10
396.777623
 20
202.4936129999999
 30
0.0
 11
394.4683569999999
 21
204.802878
 31
0.0
  0
LINE
  5
AB9A
330
A957
100
AcDbEntity
  8
1
  6
Continuous
100
AcDbLine
 10
394.987519
 20
202.4936129999999
 30
0.0
 11
397.296785
 21
204.802878
 31
0.0
  0
LINE
  5
AB9B
330
A957
100
AcDbEntity
  8
1
  6
Continuous
100
AcDbLine
 10
397.512513
 20
203.1729349999999
 30
0.0
 11
395.8825709999999
 21
204.802878
 31
0.0
  0
LINE
  5
AB9C
330
A957
100
AcDbEntity
  8
1
  6
Continuous
100
AcDbLine
 10
358.012513
 20
195.8149699999999
 30
0.0
 11
358.012513
 21
200.3036129999999
 31
0.0
  0
LINE
  5
AB9D
330
A957
100
AcDbEntity
  8
4
  6
CENTER
100
AcDbLine
 10
378.512513
 20
185.6584389999999
 30
0.0
 11
378.512513
 21
216.47357
 31
0.0
  0
LINE
  5
AB9E
330
A957
100
AcDbEntity
  8
1
  6
Continuous
100
AcDbLine
 10
371.3217779999998
 20
202.4936129999999
 30
0.0
 11
369.012513
 21
204.802878
 31
0.0
  0
LINE
  5
AB9F
330
A957
100
AcDbEntity
  8
1
  6
Continuous
100
AcDbLine
 10
369.5316749999999
 20
202.4936129999999
 30
0.0
 11
371.84094
 21
204.802878
 31
0.0
  0
LINE
  5
ABA0
330
A957
100
AcDbEntity
  8
1
  6
Continuous
100
AcDbLine
 10
370.945889
 20
202.4936129999999
 30
0.0
 11
373.255154
 21
204.802878
 31
0.0
  0
LINE
  5
ABA1
330
A957
100
AcDbEntity
  8
1
  6
Continuous
100
AcDbLine
 10
372.735992
 20
202.4936129999999
 30
0.0
 11
370.426727
 21
204.802878
 31
0.0
  0
LINE
  5
ABA2
330
A957
100
AcDbEntity
  8
1
  6
Continuous
100
AcDbLine
 10
379.8070599999999
 20
202.4936129999999
 30
0.0
 11
377.497795
 21
204.802878
 31
0.0
  0
LINE
  5
ABA3
330
A957
100
AcDbEntity
  8
1
  6
Continuous
100
AcDbLine
 10
373.7743159999998
 20
202.4936129999999
 30
0.0
 11
376.0835809999999
 21
204.802878
 31
0.0
  0
LINE
  5
ABA4
330
A957
100
AcDbEntity
  8
1
  6
Continuous
100
AcDbLine
 10
375.5644189999999
 20
202.4936129999999
 30
0.0
 11
373.255154
 21
204.802878
 31
0.0
  0
LINE
  5
ABA5
330
A957
100
AcDbEntity
  8
1
  6
Continuous
100
AcDbLine
 10
372.3601019999999
 20
202.4936129999999
 30
0.0
 11
374.669368
 21
204.802878
 31
0.0
  0
LINE
  5
ABA6
330
A957
100
AcDbEntity
  8
1
  6
Continuous
100
AcDbLine
 10
374.150206
 20
202.4936129999999
 30
0.0
 11
371.84094
 21
204.802878
 31
0.0
  0
LINE
  5
ABA7
330
A957
100
AcDbEntity
  8
1
  6
Continuous
100
AcDbLine
 10
375.1885299999998
 20
202.4936129999999
 30
0.0
 11
377.497795
 21
204.802878
 31
0.0
  0
LINE
  5
ABA8
330
A957
100
AcDbEntity
  8
1
  6
Continuous
100
AcDbLine
 10
376.6027429999998
 20
202.4936129999999
 30
0.0
 11
378.912008
 21
204.802878
 31
0.0
  0
LINE
  5
ABA9
330
A957
100
AcDbEntity
  8
1
  6
Continuous
100
AcDbLine
 10
376.978633
 20
202.4936129999999
 30
0.0
 11
374.669368
 21
204.802878
 31
0.0
  0
LINE
  5
ABAA
330
A957
100
AcDbEntity
  8
1
  6
Continuous
100
AcDbLine
 10
378.392846
 20
202.4936129999999
 30
0.0
 11
376.0835809999999
 21
204.802878
 31
0.0
  0
LINE
  5
ABAB
330
A957
100
AcDbEntity
  8
1
  6
Continuous
100
AcDbLine
 10
383.673811
 20
202.4936129999999
 30
0.0
 11
385.9830759999999
 21
204.802878
 31
0.0
  0
LINE
  5
ABAC
330
A957
100
AcDbEntity
  8
1
  6
Continuous
100
AcDbLine
 10
385.463914
 20
202.4936129999999
 30
0.0
 11
383.154649
 21
204.802878
 31
0.0
  0
LINE
  5
ABAD
330
A957
100
AcDbEntity
  8
1
  6
Continuous
100
AcDbLine
 10
386.878128
 20
202.4936129999999
 30
0.0
 11
384.568862
 21
204.802878
 31
0.0
  0
LINE
  5
ABAE
330
A957
100
AcDbEntity
  8
1
  6
Continuous
100
AcDbLine
 10
380.8453839999998
 20
202.4936129999999
 30
0.0
 11
383.154649
 21
204.802878
 31
0.0
  0
LINE
  5
ABAF
330
A957
100
AcDbEntity
  8
1
  6
Continuous
100
AcDbLine
 10
382.259597
 20
202.4936129999999
 30
0.0
 11
384.568862
 21
204.802878
 31
0.0
  0
LINE
  5
ABB0
330
A957
100
AcDbEntity
  8
1
  6
Continuous
100
AcDbLine
 10
384.0497009999999
 20
202.4936129999999
 30
0.0
 11
381.7404349999998
 21
204.802878
 31
0.0
  0
LINE
  5
ABB1
330
A957
100
AcDbEntity
  8
1
  6
Continuous
100
AcDbLine
 10
382.635487
 20
202.4936129999999
 30
0.0
 11
380.3262219999999
 21
204.802878
 31
0.0
  0
LINE
  5
ABB2
330
A957
100
AcDbEntity
  8
1
  6
Continuous
100
AcDbLine
 10
378.0169569999998
 20
202.4936129999999
 30
0.0
 11
380.3262219999999
 21
204.802878
 31
0.0
  0
LINE
  5
ABB3
330
A957
100
AcDbEntity
  8
1
  6
Continuous
100
AcDbLine
 10
379.43117
 20
202.4936129999999
 30
0.0
 11
381.7404349999998
 21
204.802878
 31
0.0
  0
LINE
  5
ABB4
330
A957
100
AcDbEntity
  8
1
  6
Continuous
100
AcDbLine
 10
381.221273
 20
202.4936129999999
 30
0.0
 11
378.912008
 21
204.802878
 31
0.0
  0
ARC
  5
ABB5
330
A957
100
AcDbEntity
  8
1
  6
Continuous
100
AcDbCircle
 10
360.202513
 20
200.3036129999999
 30
0.0
 40
2.189999999999999
100
AcDbArc
 50
90.0
 51
180.0
  0
LINE
  5
ABB6
330
A957
100
AcDbEntity
  8
4
  6
CENTER
100
AcDbLine
 10
356.512513
 20
204.0149389999998
 30
0.0
 11
356.512513
 21
216.47357
 31
0.0
  0
ARC
  5
ABB7
330
A957
100
AcDbEntity
  8
1
  6
Continuous
100
AcDbCircle
 10
364.939922
 20
203.493379
 30
0.0
 40
4.640519999999998
100
AcDbArc
 50
130.929183
 51
132.6433189999999
  0
LINE
  5
ABB8
330
A957
100
AcDbEntity
  8
1
  6
Continuous
100
AcDbLine
 10
360.7875819999999
 20
206.687878
 30
0.0
 11
361.652582
 21
206.7128779999999
 31
0.0
  0
LINE
  5
ABB9
330
A957
100
AcDbEntity
  8
1
  6
Continuous
100
AcDbLine
 10
361.652582
 20
206.7128779999999
 30
0.0
 11
361.7962839999998
 21
206.9068759999999
 31
0.0
  0
LINE
  5
ABBA
330
A957
100
AcDbEntity
  8
1
  6
Continuous
100
AcDbLine
 10
361.046394
 20
202.4936129999999
 30
0.0
 11
363.3556589999998
 21
204.802878
 31
0.0
  0
LINE
  5
ABBB
330
A957
100
AcDbEntity
  8
1
  6
Continuous
100
AcDbLine
 10
362.836497
 20
202.4936129999999
 30
0.0
 11
360.5272319999999
 21
204.802878
 31
0.0
  0
LINE
  5
ABBC
330
A957
100
AcDbEntity
  8
1
  6
Continuous
100
AcDbLine
 10
357.687446
 20
208.4506549999999
 30
0.0
 11
357.687446
 21
209.014939
 31
0.0
  0
LINE
  5
ABBD
330
A957
100
AcDbEntity
  8
1
  6
Continuous
100
AcDbLine
 10
359.512513
 20
204.802878
 30
0.0
 11
359.512513
 21
202.4936129999999
 31
0.0
  0
LINE
  5
ABBE
330
A957
100
AcDbEntity
  8
1
  6
Continuous
100
AcDbLine
 10
359.512513
 20
202.9891689999999
 30
0.0
 11
360.0080699999999
 21
202.4936129999999
 31
0.0
  0
ARC
  5
ABBF
330
A957
100
AcDbEntity
  8
1
  6
Continuous
100
AcDbCircle
 10
360.581284
 20
210.6101779999999
 30
0.0
 40
3.610794999999998
100
AcDbArc
 50
216.7321109999999
 51
270.0
  0
ARC
  5
ABC0
330
A957
100
AcDbEntity
  8
1
  6
Continuous
100
AcDbCircle
 10
366.4242869999998
 20
207.5761219999999
 30
0.0
 40
6.407901999999999
100
AcDbArc
 50
192.8787169999999
 51
205.64444
  0
ARC
  5
ABC1
330
A957
100
AcDbEntity
  8
1
  6
Continuous
100
AcDbCircle
 10
360.966844
 20
205.8708409999999
 30
0.0
 40
0.8364709999999998
100
AcDbArc
 50
102.3749159999999
 51
160.6585409999999
  0
LINE
  5
ABC2
330
A957
100
AcDbEntity
  8
1
  6
Continuous
100
AcDbLine
 10
359.63218
 20
202.4936129999999
 30
0.0
 11
361.9414449999999
 21
204.802878
 31
0.0
  0
LINE
  5
ABC3
330
A957
100
AcDbEntity
  8
1
  6
Continuous
100
AcDbLine
 10
359.512513
 20
203.788159
 30
0.0
 11
360.5272319999999
 21
204.802878
 31
0.0
  0
LINE
  5
ABC4
330
A957
100
AcDbEntity
  8
1
  6
Continuous
100
AcDbLine
 10
359.512513
 20
204.403383
 30
0.0
 11
361.422284
 21
202.4936129999999
 31
0.0
  0
LINE
  5
ABC5
330
A957
100
AcDbEntity
  8
1
  6
Continuous
100
AcDbLine
 10
368.117462
 20
202.4936129999999
 30
0.0
 11
370.426727
 21
204.802878
 31
0.0
  0
LINE
  5
ABC6
330
A957
100
AcDbEntity
  8
1
  6
Continuous
100
AcDbLine
 10
369.9075649999999
 20
202.4936129999999
 30
0.0
 11
367.5983
 21
204.802878
 31
0.0
  0
LINE
  5
ABC7
330
A957
100
AcDbEntity
  8
1
  6
Continuous
100
AcDbLine
 10
365.289035
 20
202.4936129999999
 30
0.0
 11
367.5983
 21
204.802878
 31
0.0
  0
LINE
  5
ABC8
330
A957
100
AcDbEntity
  8
1
  6
Continuous
100
AcDbLine
 10
367.079138
 20
202.4936129999999
 30
0.0
 11
364.769873
 21
204.802878
 31
0.0
  0
LINE
  5
ABC9
330
A957
100
AcDbEntity
  8
1
  6
Continuous
100
AcDbLine
 10
366.7032479999999
 20
202.4936129999999
 30
0.0
 11
369.012513
 21
204.802878
 31
0.0
  0
LINE
  5
ABCA
330
A957
100
AcDbEntity
  8
1
  6
Continuous
100
AcDbLine
 10
368.4933509999999
 20
202.4936129999999
 30
0.0
 11
366.1840859999998
 21
204.802878
 31
0.0
  0
LINE
  5
ABCB
330
A957
100
AcDbEntity
  8
1
  6
Continuous
100
AcDbLine
 10
364.2507109999999
 20
202.4936129999999
 30
0.0
 11
361.9414449999999
 21
204.802878
 31
0.0
  0
LINE
  5
ABCC
330
A957
100
AcDbEntity
  8
1
  6
Continuous
100
AcDbLine
 10
363.874821
 20
202.4936129999999
 30
0.0
 11
366.1840859999998
 21
204.802878
 31
0.0
  0
LINE
  5
ABCD
330
A957
100
AcDbEntity
  8
1
  6
Continuous
100
AcDbLine
 10
362.460607
 20
202.4936129999999
 30
0.0
 11
364.769873
 21
204.802878
 31
0.0
  0
LINE
  5
ABCE
330
A957
100
AcDbEntity
  8
1
  6
Continuous
100
AcDbLine
 10
365.6649240000001
 20
202.4936129999999
 30
0.0
 11
363.3556589999998
 21
204.802878
 31
0.0
  0
LINE
  5
ABCF
330
A957
100
AcDbEntity
  8
1
  6
Continuous
100
AcDbLine
 10
349.512513
 20
209.014939
 30
0.0
 11
349.512513
 21
211.314939
 31
0.0
  0
CIRCLE
  5
ABD0
330
A957
100
AcDbEntity
  8
1
  6
Continuous
100
AcDbCircle
 10
392.5125129999998
 20
171.3149389999998
 30
0.0
 40
7.0
  0
CIRCLE
  5
ABD1
330
A957
100
AcDbEntity
  8
2
  6
Continuous
100
AcDbCircle
 10
154.074349
 20
171.3149389999998
 30
0.0
 40
3.3235
  0
CIRCLE
  5
ABD2
330
A957
100
AcDbEntity
  8
1
  6
Continuous
100
AcDbCircle
 10
154.074349
 20
171.3149389999998
 30
0.0
 40
7.5
  0
ARC
  5
ABD3
330
A957
100
AcDbEntity
  8
1
  6
Continuous
100
AcDbCircle
 10
154.074349
 20
171.3149389999998
 30
0.0
 40
16.0
100
AcDbArc
 50
78.6851
 51
329.587004
  0
ARC
  5
ABD4
330
A957
100
AcDbEntity
  8
1
  6
Continuous
100
AcDbCircle
 10
154.074349
 20
171.3149389999998
 30
0.0
 40
13.5
100
AcDbArc
 50
81.46495999999997
 51
315.8498
  0
ARC
  5
ABD5
330
A957
100
AcDbEntity
  8
1
  6
Continuous
100
AcDbCircle
 10
154.074349
 20
171.3149389999998
 30
0.0
 40
14.0
100
AcDbArc
 50
80.54448599999998
 51
319.0443899999999
  0
ARC
  5
ABD6
330
A957
100
AcDbEntity
  8
1
  6
Continuous
100
AcDbCircle
 10
154.074349
 20
171.3149389999998
 30
0.0
 40
20.0
100
AcDbArc
 50
80.26090400000006
 51
344.8987579999999
  0
LINE
  5
ABD7
330
A957
100
AcDbEntity
  8
1
  6
Continuous
100
AcDbLine
 10
134.5592899999997
 20
277.6215339999998
 30
0.0
 11
139.074349
 21
277.6215339999998
 31
0.0
  0
LINE
  5
ABD8
330
A957
100
AcDbEntity
  8
1
  6
Continuous
100
AcDbLine
 10
134.5592899999997
 20
297.294143
 30
0.0
 11
139.074349
 21
297.294143
 31
0.0
  0
LINE
  5
ABD9
330
A957
100
AcDbEntity
  8
1
  6
Continuous
100
AcDbLine
 10
139.074349
 20
274.957666
 30
0.0
 11
138.074349
 21
274.957666
 31
0.0
  0
LINE
  5
ABDA
330
A957
100
AcDbEntity
  8
1
  6
Continuous
100
AcDbLine
 10
138.0735689999999
 20
299.957666
 30
0.0
 11
139.074349
 21
299.957666
 31
0.0
  0
LINE
  5
ABDB
330
A957
100
AcDbEntity
  8
1
  6
Continuous
100
AcDbLine
 10
138.074349
 20
274.957666
 30
0.0
 11
135.741051
 21
275.988981
 31
0.0
  0
LINE
  5
ABDC
330
A957
100
AcDbEntity
  8
1
  6
Continuous
100
AcDbLine
 10
138.074349
 20
299.958011
 30
0.0
 11
135.741051
 21
298.926696
 31
0.0
  0
ARC
  5
ABDD
330
A957
100
AcDbEntity
  8
1
  6
Continuous
100
AcDbCircle
 10
234.074349
 20
287.4578389999999
 30
0.0
 40
100.0
100
AcDbArc
 50
174.355086
 51
185.644915
  0
ARC
  5
ABDE
330
A957
100
AcDbEntity
  8
1
  6
Continuous
100
AcDbCircle
 10
136.5495909999999
 20
297.097416
 30
0.0
 40
2.0
100
AcDbArc
 50
113.8453729999999
 51
174.355086
  0
ARC
  5
ABDF
330
A957
100
AcDbEntity
  8
1
  6
Continuous
100
AcDbCircle
 10
136.5495909999999
 20
277.81826
 30
0.0
 40
2.0
100
AcDbArc
 50
185.644915
 51
246.1546269999999
  0
ARC
  5
ABE0
330
A957
100
AcDbEntity
  8
1
  6
Continuous
100
AcDbCircle
 10
392.5125129999998
 20
171.3149389999998
 30
0.0
 40
13.5
100
AcDbArc
 50
224.1502
 51
98.53504
  0
ARC
  5
ABE1
330
A957
100
AcDbEntity
  8
1
  6
Continuous
100
AcDbCircle
 10
392.5125129999998
 20
171.3149389999998
 30
0.0
 40
14.0
100
AcDbArc
 50
220.95561
 51
99.45551400000002
  0
ARC
  5
ABE2
330
A957
100
AcDbEntity
  8
1
  6
Continuous
100
AcDbCircle
 10
392.5125129999998
 20
171.3149389999998
 30
0.0
 40
20.0
100
AcDbArc
 50
195.1012419999999
 51
99.73909599999998
  0
ARC
  5
ABE3
330
A957
100
AcDbEntity
  8
1
  6
Continuous
100
AcDbCircle
 10
392.5125129999998
 20
171.3149389999998
 30
0.0
 40
16.0
100
AcDbArc
 50
210.4129959999998
 51
101.3148999999998
  0
LINE
  5
ABE4
330
A957
100
AcDbEntity
  8
1
  6
Continuous
100
AcDbLine
 10
72.47350799999998
 20
163.8058859999999
 30
0.0
 11
72.47350799999998
 21
178.824057
 31
0.0
  0
LINE
  5
ABE5
330
A957
100
AcDbEntity
  8
1
  6
Continuous
100
AcDbLine
 10
43.23702700000001
 20
163.8058859999999
 30
0.0
 11
43.23702700000001
 21
178.824057
 31
0.0
  0
LINE
  5
ABE6
330
A957
100
AcDbEntity
  8
1
  6
Continuous
100
AcDbLine
 10
70.35509499999999
 20
187.315751
 30
0.0
 11
70.35509499999999
 21
155.314187
 31
0.0
  0
LINE
  5
ABE7
330
A957
100
AcDbEntity
  8
1
  6
Continuous
100
AcDbLine
 10
67.69157199999999
 20
190.8300289999999
 30
0.0
 11
67.69157199999999
 21
151.79991
 31
0.0
  0
LINE
  5
ABE8
330
A957
100
AcDbEntity
  8
1
  6
Continuous
100
AcDbLine
 10
45.35509499999998
 20
155.3149699999998
 30
0.0
 11
45.35509499999998
 21
187.3149699999999
 31
0.0
  0
LINE
  5
ABE9
330
A957
100
AcDbEntity
  8
1
  6
Continuous
100
AcDbLine
 10
48.018963
 20
190.8300289999999
 30
0.0
 11
48.018963
 21
151.79991
 31
0.0
  0
LINE
  5
ABEA
330
A957
100
AcDbEntity
  8
1
  6
Continuous
100
AcDbLine
 10
42.355268
 20
164.3149699999999
 30
0.0
 11
43.23702700000001
 21
163.8058859999999
 31
0.0
  0
ARC
  5
ABEB
330
A957
100
AcDbEntity
  8
1
  6
Continuous
100
AcDbCircle
 10
57.855268
 20
251.31497
 30
0.0
 40
100.0
100
AcDbArc
 50
264.355085
 51
275.644914
  0
ARC
  5
ABEC
330
A957
100
AcDbEntity
  8
1
  6
Continuous
100
AcDbCircle
 10
48.21568899999999
 20
153.790212
 30
0.0
 40
2.0
100
AcDbArc
 50
203.845373
 51
264.355085
  0
LINE
  5
ABED
330
A957
100
AcDbEntity
  8
1
  6
Continuous
100
AcDbLine
 10
45.35509499999998
 20
155.3149699999998
 30
0.0
 11
46.38640999999998
 21
152.981672
 31
0.0
  0
ARC
  5
ABEE
330
A957
100
AcDbEntity
  8
1
  6
Continuous
100
AcDbCircle
 10
67.494845
 20
153.790211
 30
0.0
 40
2.0
100
AcDbArc
 50
275.644914
 51
336.154627
  0
LINE
  5
ABEF
330
A957
100
AcDbEntity
  8
1
  6
Continuous
100
AcDbLine
 10
70.35544
 20
155.3149699999998
 30
0.0
 11
69.32412499999999
 21
152.981672
 31
0.0
  0
ARC
  5
ABF0
330
A957
100
AcDbEntity
  8
1
  6
Continuous
100
AcDbCircle
 10
62.73855300000001
 20
168.243278
 30
0.0
 40
20.0
100
AcDbArc
 50
192.818869
 51
209.6403699999999
  0
LINE
  5
ABF1
330
A957
100
AcDbEntity
  8
1
  6
Continuous
100
AcDbLine
 10
73.35526800000002
 20
164.3149699999999
 30
0.0
 11
72.47350799999998
 21
163.8058859999999
 31
0.0
  0
ARC
  5
ABF2
330
A957
100
AcDbEntity
  8
1
  6
Continuous
100
AcDbCircle
 10
52.971982
 20
168.243278
 30
0.0
 40
20.0
100
AcDbArc
 50
330.3606689999999
 51
347.181131
  0
LINE
  5
ABF3
330
A957
100
AcDbEntity
  8
1
  6
Continuous
100
AcDbLine
 10
42.355268
 20
178.3149699999999
 30
0.0
 11
43.23702700000001
 21
178.8240539999999
 31
0.0
  0
ARC
  5
ABF4
330
A957
100
AcDbEntity
  8
1
  6
Continuous
100
AcDbCircle
 10
57.855268
 20
91.31497000000001
 30
0.0
 40
100.0
100
AcDbArc
 50
84.355086
 51
95.644915
  0
ARC
  5
ABF5
330
A957
100
AcDbEntity
  8
1
  6
Continuous
100
AcDbCircle
 10
48.21568899999999
 20
188.839729
 30
0.0
 40
2.0
100
AcDbArc
 50
95.644915
 51
156.154627
  0
LINE
  5
ABF6
330
A957
100
AcDbEntity
  8
1
  6
Continuous
100
AcDbLine
 10
45.35509499999998
 20
187.3149699999999
 30
0.0
 11
46.38640999999998
 21
189.648268
 31
0.0
  0
ARC
  5
ABF7
330
A957
100
AcDbEntity
  8
1
  6
Continuous
100
AcDbCircle
 10
62.73855300000001
 20
174.3866609999998
 30
0.0
 40
20.0
100
AcDbArc
 50
150.35963
 51
167.181131
  0
ARC
  5
ABF8
330
A957
100
AcDbEntity
  8
1
  6
Continuous
100
AcDbCircle
 10
67.494845
 20
188.839729
 30
0.0
 40
2.0
100
AcDbArc
 50
23.845373
 51
84.355086
  0
LINE
  5
ABF9
330
A957
100
AcDbEntity
  8
1
  6
Continuous
100
AcDbLine
 10
70.35544
 20
187.3149699999999
 30
0.0
 11
69.324124
 21
189.648268
 31
0.0
  0
LINE
  5
ABFA
330
A957
100
AcDbEntity
  8
1
  6
Continuous
100
AcDbLine
 10
73.35526800000002
 20
178.3149699999999
 30
0.0
 11
72.47350799999998
 21
178.8240539999999
 31
0.0
  0
ARC
  5
ABFB
330
A957
100
AcDbEntity
  8
1
  6
Continuous
100
AcDbCircle
 10
52.971982
 20
174.3866609999998
 30
0.0
 40
20.0
100
AcDbArc
 50
12.81886899999999
 51
29.639331
  0
LINE
  5
ABFC
330
A957
100
AcDbEntity
  8
1
  6
Continuous
100
AcDbLine
 10
263.4571259999999
 20
188.96549
 30
0.0
 11
263.4571259999999
 21
151.79991
 31
0.0
  0
LINE
  5
ABFD
330
A957
100
AcDbEntity
  8
1
  6
Continuous
100
AcDbLine
 10
260.7932579999999
 20
155.3149699999998
 30
0.0
 11
260.7932579999999
 21
184.152398
 31
0.0
  0
LINE
  5
ABFE
330
A957
100
AcDbEntity
  8
1
  6
Continuous
100
AcDbLine
 10
283.1297349999999
 20
188.9654919999999
 30
0.0
 11
283.1297349999999
 21
151.79991
 31
0.0
  0
LINE
  5
ABFF
330
A957
100
AcDbEntity
  8
1
  6
Continuous
100
AcDbLine
 10
285.7932579999999
 20
184.153084
 30
0.0
 11
285.7932579999999
 21
155.314187
 31
0.0
  0
LINE
  5
AC00
330
A957
100
AcDbEntity
  8
1
  6
Continuous
100
AcDbLine
 10
258.6751899999998
 20
163.8058859999999
 30
0.0
 11
258.6751899999998
 21
178.824057
 31
0.0
  0
LINE
  5
AC01
330
A957
100
AcDbEntity
  8
1
  6
Continuous
100
AcDbLine
 10
287.911671
 20
163.8058859999999
 30
0.0
 11
287.911671
 21
178.824057
 31
0.0
  0
ARC
  5
AC02
330
A957
100
AcDbEntity
  8
1
  6
Continuous
100
AcDbCircle
 10
273.293431
 20
251.31497
 30
0.0
 40
100.0
100
AcDbArc
 50
264.355085
 51
275.644914
  0
LINE
  5
AC03
330
A957
100
AcDbEntity
  8
1
  6
Continuous
100
AcDbLine
 10
260.7932579999999
 20
155.3149699999998
 30
0.0
 11
261.8245729999998
 21
152.981672
 31
0.0
  0
ARC
  5
AC04
330
A957
100
AcDbEntity
  8
1
  6
Continuous
100
AcDbCircle
 10
263.6538529999999
 20
153.790212
 30
0.0
 40
2.0
100
AcDbArc
 50
203.845373
 51
264.355085
  0
ARC
  5
AC05
330
A957
100
AcDbEntity
  8
1
  6
Continuous
100
AcDbCircle
 10
278.176716
 20
168.243278
 30
0.0
 40
20.0
100
AcDbArc
 50
192.818869
 51
209.6403699999999
  0
LINE
  5
AC06
330
A957
100
AcDbEntity
  8
1
  6
Continuous
100
AcDbLine
 10
257.7934309999998
 20
164.3149699999999
 30
0.0
 11
258.6751899999998
 21
163.8058859999999
 31
0.0
  0
LINE
  5
AC07
330
A957
100
AcDbEntity
  8
1
  6
Continuous
100
AcDbLine
 10
285.7936029999999
 20
155.3149699999998
 30
0.0
 11
284.762288
 21
152.981672
 31
0.0
  0
ARC
  5
AC08
330
A957
100
AcDbEntity
  8
1
  6
Continuous
100
AcDbCircle
 10
282.9330089999999
 20
153.790211
 30
0.0
 40
2.0
100
AcDbArc
 50
275.644914
 51
336.154627
  0
ARC
  5
AC09
330
A957
100
AcDbEntity
  8
1
  6
Continuous
100
AcDbCircle
 10
268.4101449999999
 20
168.243278
 30
0.0
 40
20.0
100
AcDbArc
 50
330.3606689999999
 51
347.181131
  0
LINE
  5
AC0A
330
A957
100
AcDbEntity
  8
1
  6
Continuous
100
AcDbLine
 10
288.7934309999998
 20
164.3149699999999
 30
0.0
 11
287.911671
 21
163.8058859999999
 31
0.0
  0
ARC
  5
AC0B
330
A957
100
AcDbEntity
  8
1
  6
Continuous
100
AcDbCircle
 10
273.293431
 20
91.31497000000001
 30
0.0
 40
100.0
100
AcDbArc
 50
85.07012500000001
 51
94.92987499999998
  0
ARC
  5
AC0C
330
A957
100
AcDbEntity
  8
1
  6
Continuous
100
AcDbCircle
 10
278.176716
 20
174.3866609999998
 30
0.0
 40
20.0
100
AcDbArc
 50
160.639037
 51
167.181131
  0
LINE
  5
AC0D
330
A957
100
AcDbEntity
  8
1
  6
Continuous
100
AcDbLine
 10
258.2867429999998
 20
178.599784
 30
0.0
 11
258.6751899999998
 21
178.8240539999999
 31
0.0
  0
ARC
  5
AC0E
330
A957
100
AcDbEntity
  8
1
  6
Continuous
100
AcDbCircle
 10
268.4101449999999
 20
174.3866609999998
 30
0.0
 40
20.0
100
AcDbArc
 50
12.81886899999999
 51
19.360996
  0
LINE
  5
AC0F
330
A957
100
AcDbEntity
  8
1
  6
Continuous
100
AcDbLine
 10
288.3001199999998
 20
178.599783
 30
0.0
 11
287.911671
 21
178.8240539999999
 31
0.0
  0
ARC
  5
AC10
330
A957
100
AcDbEntity
  8
1
  6
Continuous
100
AcDbCircle
 10
234.074349
 20
75.172039
 30
0.0
 40
100.0
100
AcDbArc
 50
174.355086
 51
185.644915
  0
ARC
  5
AC11
330
A957
100
AcDbEntity
  8
1
  6
Continuous
100
AcDbCircle
 10
74.074349
 20
75.172039
 30
0.0
 40
100.0
100
AcDbArc
 50
354.3550849999999
 51
5.644913999999997
  0
LINE
  5
AC12
330
A957
100
AcDbEntity
  8
1
  6
Continuous
100
AcDbLine
 10
134.5592899999997
 20
65.335734
 30
0.0
 11
173.5894089999999
 21
65.335734
 31
0.0
  0
LINE
  5
AC13
330
A957
100
AcDbEntity
  8
1
  6
Continuous
100
AcDbLine
 10
170.074349
 20
62.671866
 30
0.0
 11
138.074349
 21
62.671866
 31
0.0
  0
LINE
  5
AC14
330
A957
100
AcDbEntity
  8
1
  6
Continuous
100
AcDbLine
 10
161.583433
 20
60.553798
 30
0.0
 11
146.565262
 21
60.553798
 31
0.0
  0
LINE
  5
AC15
330
A957
100
AcDbEntity
  8
1
  6
Continuous
100
AcDbLine
 10
138.074349
 20
62.671866
 30
0.0
 11
135.741051
 21
63.70318100000001
 31
0.0
  0
ARC
  5
AC16
330
A957
100
AcDbEntity
  8
1
  6
Continuous
100
AcDbCircle
 10
136.5495909999999
 20
65.53246
 30
0.0
 40
2.0
100
AcDbArc
 50
185.644915
 51
246.1546269999999
  0
LINE
  5
AC17
330
A957
100
AcDbEntity
  8
1
  6
Continuous
100
AcDbLine
 10
147.074349
 20
59.672039
 30
0.0
 11
146.5652649999998
 21
60.553798
 31
0.0
  0
ARC
  5
AC18
330
A957
100
AcDbEntity
  8
1
  6
Continuous
100
AcDbCircle
 10
151.0026579999999
 20
80.05532399999998
 30
0.0
 40
20.0
100
AcDbArc
 50
240.3596299999999
 51
257.181131
  0
LINE
  5
AC19
330
A957
100
AcDbEntity
  8
1
  6
Continuous
100
AcDbLine
 10
170.074349
 20
62.671866
 30
0.0
 11
172.4076469999999
 21
63.70318100000001
 31
0.0
  0
LINE
  5
AC1A
330
A957
100
AcDbEntity
  8
1
  6
Continuous
100
AcDbLine
 10
161.074349
 20
59.672039
 30
0.0
 11
161.583433
 21
60.553798
 31
0.0
  0
ARC
  5
AC1B
330
A957
100
AcDbEntity
  8
1
  6
Continuous
100
AcDbCircle
 10
157.146041
 20
80.05532399999998
 30
0.0
 40
20.0
100
AcDbArc
 50
282.818869
 51
299.64037
  0
ARC
  5
AC1C
330
A957
100
AcDbEntity
  8
1
  6
Continuous
100
AcDbCircle
 10
171.599108
 20
65.53246
 30
0.0
 40
2.0
100
AcDbArc
 50
293.8453729999998
 51
354.3550849999999
  0
LINE
  5
AC1D
330
A957
100
AcDbEntity
  8
1
  6
Continuous
100
AcDbLine
 10
134.5592899999997
 20
85.00834300000002
 30
0.0
 11
173.5894089999999
 21
85.00834300000002
 31
0.0
  0
LINE
  5
AC1E
330
A957
100
AcDbEntity
  8
1
  6
Continuous
100
AcDbLine
 10
138.0735689999999
 20
87.67186599999998
 30
0.0
 11
170.0751319999999
 21
87.67186599999998
 31
0.0
  0
LINE
  5
AC1F
330
A957
100
AcDbEntity
  8
1
  6
Continuous
100
AcDbLine
 10
161.583433
 20
89.790279
 30
0.0
 11
146.565262
 21
89.790279
 31
0.0
  0
LINE
  5
AC20
330
A957
100
AcDbEntity
  8
1
  6
Continuous
100
AcDbLine
 10
138.074349
 20
87.672211
 30
0.0
 11
135.741051
 21
86.640896
 31
0.0
  0
ARC
  5
AC21
330
A957
100
AcDbEntity
  8
1
  6
Continuous
100
AcDbCircle
 10
136.5495909999999
 20
84.811616
 30
0.0
 40
2.0
100
AcDbArc
 50
113.8453729999999
 51
174.355086
  0
ARC
  5
AC22
330
A957
100
AcDbEntity
  8
1
  6
Continuous
100
AcDbCircle
 10
151.0026579999999
 20
70.288753
 30
0.0
 40
20.0
100
AcDbArc
 50
102.8188689999999
 51
119.6393309999999
  0
LINE
  5
AC23
330
A957
100
AcDbEntity
  8
1
  6
Continuous
100
AcDbLine
 10
147.074349
 20
90.672039
 30
0.0
 11
146.5652649999998
 21
89.790279
 31
0.0
  0
LINE
  5
AC24
330
A957
100
AcDbEntity
  8
1
  6
Continuous
100
AcDbLine
 10
170.074349
 20
87.672211
 30
0.0
 11
172.4076469999999
 21
86.640896
 31
0.0
  0
ARC
  5
AC25
330
A957
100
AcDbEntity
  8
1
  6
Continuous
100
AcDbCircle
 10
157.146041
 20
70.288753
 30
0.0
 40
20.0
100
AcDbArc
 50
60.36066899999998
 51
77.18113099999998
  0
LINE
  5
AC26
330
A957
100
AcDbEntity
  8
1
  6
Continuous
100
AcDbLine
 10
161.074349
 20
90.672039
 30
0.0
 11
161.583433
 21
89.790279
 31
0.0
  0
ARC
  5
AC27
330
A957
100
AcDbEntity
  8
1
  6
Continuous
100
AcDbCircle
 10
171.599108
 20
84.811616
 30
0.0
 40
2.0
100
AcDbArc
 50
5.644913999999997
 51
66.15462700000001
  0
ARC
  5
AC28
330
A957
100
AcDbEntity
  8
1
  6
Continuous
100
AcDbCircle
 10
260.53334
 20
168.5227859999999
 30
0.0
 40
7.739908999999999
100
AcDbArc
 50
180.0
 51
220.3946109999999
  0
LINE
  5
AC29
330
A957
100
AcDbEntity
  8
1
  6
Continuous
100
AcDbLine
 10
293.4196689999998
 20
164.3149699999999
 30
0.0
 11
292.549712
 21
164.3149699999999
 31
0.0
  0
LINE
  5
AC2A
330
A957
100
AcDbEntity
  8
4
  6
CENTER
100
AcDbLine
 10
154.074349
 20
321.4578389999999
 30
0.0
 11
154.074349
 21
253.457839
 31
0.0
  0
ENDSEC
  0
SECTION
  2
OBJECTS
  0
DICTIONARY
  5
A945
330
0
100
AcDbDictionary
281
     1
  3
ACAD_CIP_PREVIOUS_PRODUCT_INFO
350
AC8C
  3
ACAD_COLOR
350
AC6E
  3
ACAD_DETAILVIEWSTYLE
350
AC87
  3
ACAD_GROUP
350
A946
  3
ACAD_LAYOUT
350
A952
  3
ACAD_MATERIAL
350
AC3C
  3
ACAD_MLEADERSTYLE
350
AC83
  3
ACAD_MLINESTYLE
350
A94F
  3
ACAD_PLOTSETTINGS
350
A951
  3
ACAD_PLOTSTYLENAME
350
AC3A
  3
ACAD_SCALELIST
350
AC71
  3
ACAD_SECTIONVIEWSTYLE
350
AC85
  3
ACAD_TABLESTYLE
350
AC6F
  3
ACAD_VISUALSTYLE
350
AC55
  3
ACDB_RECOMPOSE_DATA
350
ACAA
  3
AcDbVariableDictionary
350
AC9D
  3
DWGPROPS
350
ACAB
  0
DICTIONARY
  5
AC8D
330
A949
100
AcDbDictionary
280
     1
281
     1
  3
ADSK_XREC_LAYER_RECONCILED
360
AC8E
  0
DICTIONARY
  5
AC8F
330
A95F
100
AcDbDictionary
280
     1
281
     1
  3
ADSK_XREC_LAYER_RECONCILED
360
AC90
  0
DICTIONARY
  5
AC91
330
A960
100
AcDbDictionary
280
     1
281
     1
  3
ADSK_XREC_LAYER_RECONCILED
360
AC92
  0
DICTIONARY
  5
AC93
330
A961
100
AcDbDictionary
280
     1
281
     1
  3
ADSK_XREC_LAYER_RECONCILED
360
AC94
  0
DICTIONARY
  5
AC95
330
A962
100
AcDbDictionary
280
     1
281
     1
  3
ADSK_XREC_LAYER_RECONCILED
360
AC96
  0
DICTIONARY
  5
AC97
330
A963
100
AcDbDictionary
280
     1
281
     1
  3
ADSK_XREC_LAYER_RECONCILED
360
AC98
  0
DICTIONARY
  5
AC99
330
A964
100
AcDbDictionary
280
     1
281
     1
  3
ADSK_XREC_LAYER_RECONCILED
360
AC9A
  0
DICTIONARY
  5
AC9B
330
A965
100
AcDbDictionary
280
     1
281
     1
  3
ADSK_XREC_LAYER_RECONCILED
360
AC9C
  0
DICTIONARY
  5
AC35
330
A957
100
AcDbDictionary
281
     1
  3
ACAD_LAYOUTSELFREF
350
AC36
  0
DICTIONARY
  5
AC33
330
A953
100
AcDbDictionary
281
     1
  3
ACAD_LAYOUTSELFREF
350
AC34
  0
XRECORD
  5
AC8C
102
{ACAD_REACTORS
330
A945
102
}
330
A945
100
AcDbXrecord
280
     1
300
ACDLT
300
2014
300
ACDLT_F_S
  0
DICTIONARY
  5
AC6E
102
{ACAD_REACTORS
330
A945
102
}
330
A945
100
AcDbDictionary
281
     1
  0
DICTIONARY
  5
AC87
102
{ACAD_REACTORS
330
A945
102
}
330
A945
100
AcDbDictionary
281
     1
  3
Imperial24
350
AC88
  0
DICTIONARY
  5
A946
102
{ACAD_REACTORS
330
A945
102
}
330
A945
100
AcDbDictionary
281
     1
  0
DICTIONARY
  5
A952
102
{ACAD_REACTORS
330
A945
102
}
330
A945
100
AcDbDictionary
281
     1
  3
Model
350
AC89
  3
レイアウト1
350
AC8A
  0
DICTIONARY
  5
AC3C
102
{ACAD_REACTORS
330
A945
102
}
330
A945
100
AcDbDictionary
281
     1
  3
ByBlock
350
AC45
  3
ByLayer
350
AC3D
  3
Global
350
AC4D
  0
DICTIONARY
  5
AC83
102
{ACAD_REACTORS
330
A945
102
}
330
A945
100
AcDbDictionary
281
     1
  3
Standard
350
AC84
  0
DICTIONARY
  5
A94F
102
{ACAD_REACTORS
330
A945
102
}
330
A945
100
AcDbDictionary
281
     1
  3
STANDARD
350
A950
  0
DICTIONARY
  5
A951
102
{ACAD_REACTORS
330
A945
102
}
330
A945
100
AcDbDictionary
281
     1
  0
ACDBDICTIONARYWDFLT
  5
AC3A
102
{ACAD_REACTORS
330
A945
102
}
330
A945
100
AcDbDictionary
281
     1
  3
Normal
350
AC3B
100
AcDbDictionaryWithDefault
340
AC3B
  0
DICTIONARY
  5
AC71
102
{ACAD_REACTORS
330
A945
102
}
330
A945
100
AcDbDictionary
281
     1
  3
A0
350
AC72
  3
A1
350
AC73
  3
A2
350
AC74
  3
A3
350
AC75
  3
A4
350
AC76
  3
A5
350
AC77
  3
A6
350
AC78
  3
A7
350
AC79
  3
A8
350
AC7A
  3
A9
350
AC7B
  3
B0
350
AC7C
  3
B1
350
AC7D
  3
B2
350
AC7E
  3
B3
350
AC7F
  3
B4
350
AC80
  3
B5
350
AC81
  3
B6
350
AC82
  0
DICTIONARY
  5
AC85
102
{ACAD_REACTORS
330
A945
102
}
330
A945
100
AcDbDictionary
281
     1
  3
Imperial24
350
AC86
  0
DICTIONARY
  5
AC6F
102
{ACAD_REACTORS
330
A945
102
}
330
A945
100
AcDbDictionary
281
     1
  3
Standard
350
AC70
  0
DICTIONARY
  5
AC55
102
{ACAD_REACTORS
330
A945
102
}
330
A945
100
AcDbDictionary
281
     1
  3
2dWireframe
350
AC5B
  3
Basic
350
AC5A
  3
Brighten
350
AC61
  3
ColorChange
350
AC65
  3
Conceptual
350
AC5E
  3
Dim
350
AC60
  3
EdgeColorOff
350
AC6D
  3
Facepattern
350
AC64
  3
Flat
350
AC56
  3
FlatWithEdges
350
AC57
  3
Gouraud
350
AC58
  3
GouraudWithEdges
350
AC59
  3
Hidden
350
AC5D
  3
JitterOff
350
AC6B
  3
Linepattern
350
AC63
  3
OverhangOff
350
AC6C
  3
Realistic
350
AC5F
  3
Shaded
350
AC6A
  3
Shaded with edges
350
AC69
  3
Shades of Gray
350
AC66
  3
Sketchy
350
AC67
  3
Thicken
350
AC62
  3
Wireframe
350
AC5C
  3
X-Ray
350
AC68
  0
XRECORD
  5
ACAA
102
{ACAD_REACTORS
330
A945
102
}
330
A945
100
AcDbXrecord
280
     1
 90
        1
330
AC70
  0
DICTIONARY
  5
AC9D
102
{ACAD_REACTORS
330
A945
102
}
330
A945
100
AcDbDictionary
281
     1
  3
CANNOSCALE
350
ACA2
  3
CMLEADERSTYLE
350
AC9F
  3
CTABLESTYLE
350
AC9E
  3
CVIEWDETAILSTYLE
350
ACA0
  3
CVIEWSECTIONSTYLE
350
ACA1
  3
DIMASSOC
350
ACA5
  3
INDEXCTL
350
ACA4
  3
SORTENTS
350
ACA3
  3
XCLIPFRAME
350
ACA6
  0
XRECORD
  5
ACAB
102
{ACAD_REACTORS
330
A945
102
}
330
A945
100
AcDbXrecord
280
     1
  1
DWGPROPS COOKIE
  2

  3

  4

  6

  7

  8
Yoshitsune
  9

300
=
301
=
302
=
303
=
304
=
305
=
306
=
307
=
308
=
309
=
 40
0.0000111689814815
 41
2451301.406600579
 42
2457192.686474213
  1

 90
        0
  0
XRECORD
  5
AC8E
102
{ACAD_REACTORS
330
AC8D
102
}
330
AC8D
100
AcDbXrecord
280
     1
290
     1
  0
XRECORD
  5
AC90
102
{ACAD_REACTORS
330
AC8F
102
}
330
AC8F
100
AcDbXrecord
280
     1
290
     1
  0
XRECORD
  5
AC92
102
{ACAD_REACTORS
330
AC91
102
}
330
AC91
100
AcDbXrecord
280
     1
290
     1
  0
XRECORD
  5
AC94
102
{ACAD_REACTORS
330
AC93
102
}
330
AC93
100
AcDbXrecord
280
     1
290
     1
  0
XRECORD
  5
AC96
102
{ACAD_REACTORS
330
AC95
102
}
330
AC95
100
AcDbXrecord
280
     1
290
     1
  0
XRECORD
  5
AC98
102
{ACAD_REACTORS
330
AC97
102
}
330
AC97
100
AcDbXrecord
280
     1
290
     1
  0
XRECORD
  5
AC9A
102
{ACAD_REACTORS
330
AC99
102
}
330
AC99
100
AcDbXrecord
280
     1
290
     1
  0
XRECORD
  5
AC9C
102
{ACAD_REACTORS
330
AC9B
102
}
330
AC9B
100
AcDbXrecord
280
     1
290
     1
  0
XRECORD
  5
AC36
102
{ACAD_REACTORS
330
AC35
102
}
330
AC35
100
AcDbXrecord
280
     1
340
A957
  0
XRECORD
  5
AC34
102
{ACAD_REACTORS
330
AC33
102
}
330
AC33
100
AcDbXrecord
280
     1
340
A953
  0
ACDBDETAILVIEWSTYLE
  5
AC88
102
{ACAD_XDICTIONARY
360
ACE3
102
}
102
{ACAD_REACTORS
330
AC87
102
}
330
AC87
100
AcDbModelDocViewStyle
 70
     0
  3
Imperial24
290
     0
100
AcDbDetailViewStyle
 70
     0
 71
     0
 90
        3
 71
     1
340
A94A
 40
0.24
340
0
 40
0.24
300

 40
0.36
280
     3
 71
     2
340
A94E
 90
       25
 71
     3
340
A94A
 40
0.24
 90
        1
 40
0.75
 90
        1
300
%<\AcVar ViewType \f "%tc1">% %<\AcVar ViewDetailId>%\PSCALE %<\AcVar ViewScale \f "%sn">%
 71
     4
340
A94E
 90
       25
340
A94E
 90
       25
280
     0
  0
LAYOUT
  5
AC89
102
{ACAD_XDICTIONARY
360
ACE5
102
}
102
{ACAD_REACTORS
330
A952
102
}
330
A952
100
AcDbPlotSettings
  1

  2
Canon LBP9100C
  4

  6

 40
0.0
 41
0.0
 42
0.0
 43
0.0
 44
0.0
 45
0.0
 46
0.0
 47
0.0
 48
0.0
 49
0.0
140
0.0
141
0.0
142
1.0
143
1.0
 70
  1712
 72
     0
 73
     0
 74
     0
  7

 75
     0
147
1.0
148
0.0
149
0.0
100
AcDbLayout
  1
Model
 70
     1
 71
     0
 10
0.0
 20
0.0
 11
12.0
 21
9.0
 12
0.0
 22
0.0
 32
0.0
 14
0.0
 24
0.0
 34
0.0
 15
0.0
 25
0.0
 35
0.0
146
0.0
 13
0.0
 23
0.0
 33
0.0
 16
1.0
 26
0.0
 36
0.0
 17
0.0
 27
1.0
 37
0.0
 76
     0
330
A957
331
AC32
  0
LAYOUT
  5
AC8A
102
{ACAD_XDICTIONARY
360
ACE7
102
}
102
{ACAD_REACTORS
330
A952
102
}
330
A952
100
AcDbPlotSettings
  1

  2
Canon LBP9100C
  4

  6

 40
0.0
 41
0.0
 42
0.0
 43
0.0
 44
0.0
 45
0.0
 46
0.0
 47
0.0
 48
0.0
 49
0.0
140
0.0
141
0.0
142
1.0
143
1.0
 70
   688
 72
     0
 73
     0
 74
     5
  7

 75
    16
147
1.0
148
0.0
149
0.0
100
AcDbLayout
  1
レイアウト1
 70
     0
 71
     1
 10
0.0
 20
0.0
 11
420.0
 21
297.0
 12
0.0
 22
0.0
 32
0.0
 14
1.000000000000000E+20
 24
1.000000000000000E+20
 34
1.000000000000000E+20
 15
-1.000000000000000E+20
 25
-1.000000000000000E+20
 35
-1.000000000000000E+20
146
0.0
 13
0.0
 23
0.0
 33
0.0
 16
1.0
 26
0.0
 36
0.0
 17
0.0
 27
1.0
 37
0.0
 76
     0
330
A953
  0
MATERIAL
  5
AC45
102
{ACAD_XDICTIONARY
360
AC46
102
}
102
{ACAD_REACTORS
330
AC3C
102
}
330
AC3C
100
AcDbMaterial
  1
ByBlock
 72
     0
 43
0.0208333333333333
 43
0.0
 43
0.0
 43
0.0
 43
0.0
 43
0.0208333333333333
 43
0.0
 43
0.0
 43
0.0
 43
0.0
 43
1.0
 43
0.0
 43
0.0
 43
0.0
 43
0.0
 43
1.0
 77
     0
 47
0.0208333333333333
 47
0.0
 47
0.0
 47
0.0
 47
0.0
 47
0.0208333333333333
 47
0.0
 47
0.0
 47
0.0
 47
0.0
 47
1.0
 47
0.0
 47
0.0
 47
0.0
 47
0.0
 47
1.0
171
     0
 49
0.0208333333333333
 49
0.0
 49
0.0
 49
0.0
 49
0.0
 49
0.0208333333333333
 49
0.0
 49
0.0
 49
0.0
 49
0.0
 49
1.0
 49
0.0
 49
0.0
 49
0.0
 49
0.0
 49
1.0
175
     0
142
0.0208333333333333
142
0.0
142
0.0
142
0.0
142
0.0
142
0.0208333333333333
142
0.0
142
0.0
142
0.0
142
0.0
142
1.0
142
0.0
142
0.0
142
0.0
142
0.0
142
1.0
179
     0
144
0.0208333333333333
144
0.0
144
0.0
144
0.0
144
0.0
144
0.0208333333333333
144
0.0
144
0.0
144
0.0
144
0.0
144
1.0
144
0.0
144
0.0
144
0.0
144
0.0
144
1.0
147
0.0208333333333333
147
0.0
147
0.0
147
0.0
147
0.0
147
0.0208333333333333
147
0.0
147
0.0
147
0.0
147
0.0
147
1.0
147
0.0
147
0.0
147
0.0
147
0.0
147
1.0
  0
MATERIAL
  5
AC3D
102
{ACAD_XDICTIONARY
360
AC3E
102
}
102
{ACAD_REACTORS
330
AC3C
102
}
330
AC3C
100
AcDbMaterial
  1
ByLayer
 72
     0
 43
0.0208333333333333
 43
0.0
 43
0.0
 43
0.0
 43
0.0
 43
0.0208333333333333
 43
0.0
 43
0.0
 43
0.0
 43
0.0
 43
1.0
 43
0.0
 43
0.0
 43
0.0
 43
0.0
 43
1.0
 77
     0
 47
0.0208333333333333
 47
0.0
 47
0.0
 47
0.0
 47
0.0
 47
0.0208333333333333
 47
0.0
 47
0.0
 47
0.0
 47
0.0
 47
1.0
 47
0.0
 47
0.0
 47
0.0
 47
0.0
 47
1.0
171
     0
 49
0.0208333333333333
 49
0.0
 49
0.0
 49
0.0
 49
0.0
 49
0.0208333333333333
 49
0.0
 49
0.0
 49
0.0
 49
0.0
 49
1.0
 49
0.0
 49
0.0
 49
0.0
 49
0.0
 49
1.0
175
     0
142
0.0208333333333333
142
0.0
142
0.0
142
0.0
142
0.0
142
0.0208333333333333
142
0.0
142
0.0
142
0.0
142
0.0
142
1.0
142
0.0
142
0.0
142
0.0
142
0.0
142
1.0
179
     0
144
0.0208333333333333
144
0.0
144
0.0
144
0.0
144
0.0
144
0.0208333333333333
144
0.0
144
0.0
144
0.0
144
0.0
144
1.0
144
0.0
144
0.0
144
0.0
144
0.0
144
1.0
147
0.0208333333333333
147
0.0
147
0.0
147
0.0
147
0.0
147
0.0208333333333333
147
0.0
147
0.0
147
0.0
147
0.0
147
1.0
147
0.0
147
0.0
147
0.0
147
0.0
147
1.0
  0
MATERIAL
  5
AC4D
102
{ACAD_XDICTIONARY
360
AC4E
102
}
102
{ACAD_REACTORS
330
AC3C
102
}
330
AC3C
100
AcDbMaterial
  1
Global
 72
     0
 43
0.0208333333333333
 43
0.0
 43
0.0
 43
0.0
 43
0.0
 43
0.0208333333333333
 43
0.0
 43
0.0
 43
0.0
 43
0.0
 43
1.0
 43
0.0
 43
0.0
 43
0.0
 43
0.0
 43
1.0
 77
     0
 47
0.0208333333333333
 47
0.0
 47
0.0
 47
0.0
 47
0.0
 47
0.0208333333333333
 47
0.0
 47
0.0
 47
0.0
 47
0.0
 47
1.0
 47
0.0
 47
0.0
 47
0.0
 47
0.0
 47
1.0
171
     0
 49
0.0208333333333333
 49
0.0
 49
0.0
 49
0.0
 49
0.0
 49
0.0208333333333333
 49
0.0
 49
0.0
 49
0.0
 49
0.0
 49
1.0
 49
0.0
 49
0.0
 49
0.0
 49
0.0
 49
1.0
175
     0
142
0.0208333333333333
142
0.0
142
0.0
142
0.0
142
0.0
142
0.0208333333333333
142
0.0
142
0.0
142
0.0
142
0.0
142
1.0
142
0.0
142
0.0
142
0.0
142
0.0
142
1.0
179
     0
144
0.0208333333333333
144
0.0
144
0.0
144
0.0
144
0.0
144
0.0208333333333333
144
0.0
144
0.0
144
0.0
144
0.0
144
1.0
144
0.0
144
0.0
144
0.0
144
0.0
144
1.0
147
0.0208333333333333
147
0.0
147
0.0
147
0.0
147
0.0
147
0.0208333333333333
147
0.0
147
0.0
147
0.0
147
0.0
147
1.0
147
0.0
147
0.0
147
0.0
147
0.0
147
1.0
  0
MLEADERSTYLE
  5
AC84
102
{ACAD_REACTORS
330
AC83
102
}
330
AC83
100
AcDbMLeaderStyle
170
     2
171
     1
172
     0
 90
        2
 40
0.0
 41
0.0
173
     1
 91
-1056964608
340
A94C
 92
       -2
290
     1
 42
0.09
291
     1
 43
0.36
  3
Standard
 44
0.18
300

342
A94A
174
     1
178
     6
175
     1
176
     0
 93
-1056964608
 45
0.18
292
     0
297
     0
 46
0.18
 94
-1056964608
 47
1.0
 49
1.0
140
1.0
293
     1
141
0.0
294
     1
177
     0
142
1.0
295
     0
296
     0
143
0.125
1001
ACAD_MLEADERVER
1070
     2
  0
MLINESTYLE
  5
A950
102
{ACAD_REACTORS
330
A94F
102
}
330
A94F
100
AcDbMlineStyle
  2
STANDARD
 70
     0
  3

 62
   256
 51
90.0
 52
90.0
 71
     2
 49
0.5
 62
   256
  6
BYLAYER
 49
-0.5
 62
   256
  6
BYLAYER
  0
ACDBPLACEHOLDER
  5
AC3B
102
{ACAD_REACTORS
330
AC3A
102
}
330
AC3A
  0
SCALE
  5
AC72
102
{ACAD_REACTORS
330
AC71
102
}
330
AC71
100
AcDbScale
 70
     0
300
1:1
140
1.0
141
1.0
290
     1
  0
SCALE
  5
AC73
102
{ACAD_REACTORS
330
AC71
102
}
330
AC71
100
AcDbScale
 70
     0
300
1/128" = 1'-0"
140
0.0078125
141
12.0
290
     0
  0
SCALE
  5
AC74
102
{ACAD_REACTORS
330
AC71
102
}
330
AC71
100
AcDbScale
 70
     0
300
1/64" = 1'-0"
140
0.015625
141
12.0
290
     0
  0
SCALE
  5
AC75
102
{ACAD_REACTORS
330
AC71
102
}
330
AC71
100
AcDbScale
 70
     0
300
1/32" = 1'-0"
140
0.03125
141
12.0
290
     0
  0
SCALE
  5
AC76
102
{ACAD_REACTORS
330
AC71
102
}
330
AC71
100
AcDbScale
 70
     0
300
1/16" = 1'-0"
140
0.0625
141
12.0
290
     0
  0
SCALE
  5
AC77
102
{ACAD_REACTORS
330
AC71
102
}
330
AC71
100
AcDbScale
 70
     0
300
3/32" = 1'-0"
140
0.09375
141
12.0
290
     0
  0
SCALE
  5
AC78
102
{ACAD_REACTORS
330
AC71
102
}
330
AC71
100
AcDbScale
 70
     0
300
1/8" = 1'-0"
140
0.125
141
12.0
290
     0
  0
SCALE
  5
AC79
102
{ACAD_REACTORS
330
AC71
102
}
330
AC71
100
AcDbScale
 70
     0
300
3/16" = 1'-0"
140
0.1875
141
12.0
290
     0
  0
SCALE
  5
AC7A
102
{ACAD_REACTORS
330
AC71
102
}
330
AC71
100
AcDbScale
 70
     0
300
1/4" = 1'-0"
140
0.25
141
12.0
290
     0
  0
SCALE
  5
AC7B
102
{ACAD_REACTORS
330
AC71
102
}
330
AC71
100
AcDbScale
 70
     0
300
3/8" = 1'-0"
140
0.375
141
12.0
290
     0
  0
SCALE
  5
AC7C
102
{ACAD_REACTORS
330
AC71
102
}
330
AC71
100
AcDbScale
 70
     0
300
1/2" = 1'-0"
140
0.5
141
12.0
290
     0
  0
SCALE
  5
AC7D
102
{ACAD_REACTORS
330
AC71
102
}
330
AC71
100
AcDbScale
 70
     0
300
3/4" = 1'-0"
140
0.75
141
12.0
290
     0
  0
SCALE
  5
AC7E
102
{ACAD_REACTORS
330
AC71
102
}
330
AC71
100
AcDbScale
 70
     0
300
1" = 1'-0"
140
1.0
141
12.0
290
     0
  0
SCALE
  5
AC7F
102
{ACAD_REACTORS
330
AC71
102
}
330
AC71
100
AcDbScale
 70
     0
300
1-1/2" = 1'-0"
140
1.5
141
12.0
290
     0
  0
SCALE
  5
AC80
102
{ACAD_REACTORS
330
AC71
102
}
330
AC71
100
AcDbScale
 70
     0
300
3" = 1'-0"
140
3.0
141
12.0
290
     0
  0
SCALE
  5
AC81
102
{ACAD_REACTORS
330
AC71
102
}
330
AC71
100
AcDbScale
 70
     0
300
6" = 1'-0"
140
6.0
141
12.0
290
     0
  0
SCALE
  5
AC82
102
{ACAD_REACTORS
330
AC71
102
}
330
AC71
100
AcDbScale
 70
     0
300
1'-0" = 1'-0"
140
12.0
141
12.0
290
     0
  0
ACDBSECTIONVIEWSTYLE
  5
AC86
102
{ACAD_XDICTIONARY
360
ACE1
102
}
102
{ACAD_REACTORS
330
AC85
102
}
330
AC85
100
AcDbModelDocViewStyle
 70
     0
  3
Imperial24
290
     0
100
AcDbSectionViewStyle
 70
     0
 71
     0
 90
       78
 71
     1
340
A94A
 40
0.24
340
0
340
0
 40
0.24
300
I, O, Q, S, X, Z
 40
0.48
 90
        3
 40
0.18
 90
        1
 71
     2
340
A94E
 90
       25
340
A94E
 90
       50
 40
0.24
 40
0.0
 40
0.24
 71
     3
340
A94A
 40
0.24
 90
        1
 40
0.75
 90
        1
300
%<\AcVar ViewType \f "%tc1">% %<\AcVar ViewSectionStartId>%-%<\AcVar ViewSectionEndId>%\PSCALE %<\AcVar ViewScale \f "%sn">%
 71
     4
300
ANSI31
 40
1.0
 90
        0
290
     0
290
     0
 90
        6
 40
0.0
 40
1.570796326794896
 40
0.2617993877991494
 40
1.308996938995747
 40
-0.2617993877991494
 40
1.832595714594046
  0
TABLESTYLE
  5
AC70
102
{ACAD_XDICTIONARY
360
ACA8
102
}
102
{ACAD_REACTORS
330
AC6F
102
}
330
AC6F
100
AcDbTableStyle
  3
Standard
 70
     0
 71
     0
 40
0.06
 41
0.06
280
     0
281
     0
  7
STANDARD
140
0.18
170
     2
 62
     0
 63
     7
283
     0
274
    -2
284
     1
 64
     0
275
    -2
285
     1
 65
     0
276
    -2
286
     1
 66
     0
277
    -2
287
     1
 67
     0
278
    -2
288
     1
 68
     0
279
    -2
289
     1
 69
     0
  7
STANDARD
140
0.25
170
     5
 62
     0
 63
     7
283
     0
274
    -2
284
     1
 64
     0
275
    -2
285
     1
 65
     0
276
    -2
286
     1
 66
     0
277
    -2
287
     1
 67
     0
278
    -2
288
     1
 68
     0
279
    -2
289
     1
 69
     0
  7
STANDARD
140
0.18
170
     5
 62
     0
 63
     7
283
     0
274
    -2
284
     1
 64
     0
275
    -2
285
     1
 65
     0
276
    -2
286
     1
 66
     0
277
    -2
287
     1
 67
     0
278
    -2
288
     1
 68
     0
279
    -2
289
     1
 69
     0
  0
VISUALSTYLE
  5
AC5B
102
{ACAD_XDICTIONARY
360
ACB9
102
}
102
{ACAD_REACTORS
330
AC55
102
}
330
AC55
100
AcDbVisualStyle
  2
2dWireframe
 70
     4
 71
     0
 72
     2
 73
     0
 90
        0
 40
-0.6
 41
-30.0
 62
     5
 63
     7
 74
     1
 91
        4
 64
     7
 65
   257
 75
     1
175
     1
 42
1.0
 92
        0
 66
   257
 43
1.0
 76
     1
 77
     6
 78
     2
 67
     7
 79
     5
170
     0
171
     0
290
     0
174
     0
 93
        1
 44
0.0
173
     0
291
     0
 45
0.0
1001
ACAD
1000
AcDbSavedByObjectVersion
1070
     0
  0
VISUALSTYLE
  5
AC5A
102
{ACAD_XDICTIONARY
360
ACB7
102
}
102
{ACAD_REACTORS
330
AC55
102
}
330
AC55
100
AcDbVisualStyle
  2
Basic
 70
     7
 71
     1
 72
     0
 73
     1
 90
        0
 40
-0.6
 41
-30.0
 62
     5
 63
     7
 74
     0
 91
        4
 64
     7
 65
   257
 75
     1
175
     1
 42
1.0
 92
        8
 66
     7
 43
1.0
 76
     1
 77
     6
 78
     2
 67
     7
 79
     5
170
     0
171
     0
290
     0
174
     0
 93
        1
 44
0.0
173
     0
291
     1
 45
0.0
1001
ACAD
1000
AcDbSavedByObjectVersion
1070
     0
  0
VISUALSTYLE
  5
AC61
102
{ACAD_XDICTIONARY
360
ACC5
102
}
102
{ACAD_REACTORS
330
AC55
102
}
330
AC55
100
AcDbVisualStyle
  2
Brighten
 70
    12
 71
     2
 72
     2
 73
     0
 90
        0
 40
-0.6
 41
-30.0
 62
     5
 63
     7
 74
     1
 91
        4
 64
     7
 65
   257
 75
     1
175
     1
 42
1.0
 92
        8
 66
     7
 43
1.0
 76
     1
 77
     6
 78
     2
 67
     7
 79
     5
170
     0
171
     0
290
     0
174
     0
 93
        1
 44
50.0
173
     0
291
     1
 45
0.0
1001
ACAD
1000
AcDbSavedByObjectVersion
1070
     0
  0
VISUALSTYLE
  5
AC65
102
{ACAD_XDICTIONARY
360
ACCD
102
}
102
{ACAD_REACTORS
330
AC55
102
}
330
AC55
100
AcDbVisualStyle
  2
ColorChange
 70
    16
 71
     2
 72
     2
 73
     3
 90
        0
 40
-0.6
 41
-30.0
 62
     5
 63
     8
 74
     1
 91
        4
 64
     7
 65
   257
 75
     1
175
     1
 42
1.0
 92
        8
 66
     8
 43
1.0
 76
     1
 77
     6
 78
     2
 67
     7
 79
     5
170
     0
171
     0
290
     0
174
     0
 93
        1
 44
0.0
173
     0
291
     1
 45
0.0
1001
ACAD
1000
AcDbSavedByObjectVersion
1070
     0
  0
VISUALSTYLE
  5
AC5E
102
{ACAD_XDICTIONARY
360
ACBF
102
}
102
{ACAD_REACTORS
330
AC55
102
}
330
AC55
100
AcDbVisualStyle
  2
Conceptual
 70
     9
 71
     3
 72
     2
 73
     0
 90
        0
 40
-0.6
 41
-30.0
 62
     5
 63
     7
 74
     2
 91
        2
 64
     7
 65
   257
 75
     1
175
     1
 42
179.0
 92
        8
 66
     7
 43
1.0
 76
     1
 77
     6
 78
     2
 67
     7
 79
     3
170
     0
171
     0
290
     0
174
     0
 93
        1
 44
0.0
173
     0
291
     0
 45
0.0
1001
ACAD
1000
AcDbSavedByObjectVersion
1070
     0
  0
VISUALSTYLE
  5
AC60
102
{ACAD_XDICTIONARY
360
ACC3
102
}
102
{ACAD_REACTORS
330
AC55
102
}
330
AC55
100
AcDbVisualStyle
  2
Dim
 70
    11
 71
     2
 72
     2
 73
     0
 90
        0
 40
-0.6
 41
-30.0
 62
     5
 63
     7
 74
     1
 91
        4
 64
     7
 65
   257
 75
     1
175
     1
 42
1.0
 92
        8
 66
     7
 43
1.0
 76
     1
 77
     6
 78
     2
 67
     7
 79
     5
170
     0
171
     0
290
     0
174
     0
 93
        1
 44
-50.0
173
     0
291
     1
 45
0.0
1001
ACAD
1000
AcDbSavedByObjectVersion
1070
     0
  0
VISUALSTYLE
  5
AC6D
102
{ACAD_XDICTIONARY
360
ACDD
102
}
102
{ACAD_REACTORS
330
AC55
102
}
330
AC55
100
AcDbVisualStyle
  2
EdgeColorOff
 70
    22
 71
     2
 72
     2
 73
     0
 90
        0
 40
-0.6
 41
-30.0
 62
     5
 63
     7
 74
     1
 91
        4
 64
     7
 65
   257
 75
     1
175
     1
 42
1.0
 92
        8
 66
     7
 43
1.0
 76
     1
 77
     6
 78
     2
 67
     7
 79
     5
170
     0
171
     0
290
     0
174
     0
 93
        1
 44
0.0
173
     0
291
     1
 45
0.0
1001
ACAD
1000
AcDbSavedByObjectVersion
1070
     0
  0
VISUALSTYLE
  5
AC64
102
{ACAD_XDICTIONARY
360
ACCB
102
}
102
{ACAD_REACTORS
330
AC55
102
}
330
AC55
100
AcDbVisualStyle
  2
Facepattern
 70
    15
 71
     2
 72
     2
 73
     0
 90
        0
 40
-0.6
 41
-30.0
 62
     5
 63
     7
 74
     1
 91
        4
 64
     7
 65
   257
 75
     1
175
     1
 42
1.0
 92
        8
 66
     7
 43
1.0
 76
     1
 77
     6
 78
     2
 67
     7
 79
     5
170
     0
171
     0
290
     0
174
     0
 93
        1
 44
0.0
173
     0
291
     1
 45
0.0
1001
ACAD
1000
AcDbSavedByObjectVersion
1070
     0
  0
VISUALSTYLE
  5
AC56
102
{ACAD_XDICTIONARY
360
ACAF
102
}
102
{ACAD_REACTORS
330
AC55
102
}
330
AC55
100
AcDbVisualStyle
  2
Flat
 70
     0
 71
     2
 72
     1
 73
     1
 90
        2
 40
-0.6
 41
30.0
 62
     5
 63
     7
 74
     0
 91
        0
 64
     7
 65
   257
 75
     1
175
     1
 42
1.0
 92
        8
 66
     7
 43
1.0
 76
     1
 77
     6
 78
     2
 67
     7
 79
     5
170
     0
171
     0
290
     0
174
     0
 93
       13
 44
0.0
173
     0
291
     1
 45
0.0
1001
ACAD
1000
AcDbSavedByObjectVersion
1070
     0
  0
VISUALSTYLE
  5
AC57
102
{ACAD_XDICTIONARY
360
ACB1
102
}
102
{ACAD_REACTORS
330
AC55
102
}
330
AC55
100
AcDbVisualStyle
  2
FlatWithEdges
 70
     1
 71
     2
 72
     1
 73
     1
 90
        2
 40
-0.6
 41
30.0
 62
     5
 63
     7
 74
     1
 91
        0
 64
     7
 65
   257
 75
     1
175
     1
 42
1.0
 92
        0
 66
   257
 43
1.0
 76
     1
 77
     6
 78
     2
 67
     7
 79
     5
170
     0
171
     0
290
     0
174
     0
 93
       13
 44
0.0
173
     0
291
     1
 45
0.0
1001
ACAD
1000
AcDbSavedByObjectVersion
1070
     0
  0
VISUALSTYLE
  5
AC58
102
{ACAD_XDICTIONARY
360
ACB3
102
}
102
{ACAD_REACTORS
330
AC55
102
}
330
AC55
100
AcDbVisualStyle
  2
Gouraud
 70
     2
 71
     2
 72
     2
 73
     1
 90
        2
 40
-0.6
 41
30.0
 62
     5
 63
     7
 74
     0
 91
        0
 64
     7
 65
   257
 75
     1
175
     1
 42
1.0
 92
        0
 66
     7
 43
1.0
 76
     1
 77
     6
 78
     2
 67
     7
 79
     5
170
     0
171
     0
290
     0
174
     0
 93
       13
 44
0.0
173
     0
291
     1
 45
0.0
1001
ACAD
1000
AcDbSavedByObjectVersion
1070
     0
  0
VISUALSTYLE
  5
AC59
102
{ACAD_XDICTIONARY
360
ACB5
102
}
102
{ACAD_REACTORS
330
AC55
102
}
330
AC55
100
AcDbVisualStyle
  2
GouraudWithEdges
 70
     3
 71
     2
 72
     2
 73
     1
 90
        2
 40
-0.6
 41
30.0
 62
     5
 63
     7
 74
     1
 91
        0
 64
     7
 65
   257
 75
     1
175
     1
 42
1.0
 92
        0
 66
   257
 43
1.0
 76
     1
 77
     6
 78
     2
 67
     7
 79
     5
170
     0
171
     0
290
     0
174
     0
 93
       13
 44
0.0
173
     0
291
     1
 45
0.0
1001
ACAD
1000
AcDbSavedByObjectVersion
1070
     0
  0
VISUALSTYLE
  5
AC5D
102
{ACAD_XDICTIONARY
360
ACBD
102
}
102
{ACAD_REACTORS
330
AC55
102
}
330
AC55
100
AcDbVisualStyle
  2
Hidden
 70
     6
 71
     1
 72
     2
 73
     2
 90
        0
 40
-0.6
 41
-30.0
 62
     5
 63
     7
 74
     2
 91
        2
 64
     7
 65
   257
 75
     2
175
     1
 42
40.0
 92
        0
 66
   257
 43
1.0
 76
     1
 77
     6
 78
     2
 67
     7
 79
     3
170
     0
171
     0
290
     0
174
     0
 93
        1
 44
0.0
173
     0
291
     0
 45
0.0
1001
ACAD
1000
AcDbSavedByObjectVersion
1070
     0
  0
VISUALSTYLE
  5
AC6B
102
{ACAD_XDICTIONARY
360
ACD9
102
}
102
{ACAD_REACTORS
330
AC55
102
}
330
AC55
100
AcDbVisualStyle
  2
JitterOff
 70
    20
 71
     2
 72
     2
 73
     0
 90
        0
 40
-0.6
 41
-30.0
 62
     5
 63
     7
 74
     1
 91
        4
 64
     7
 65
   257
 75
     1
175
     1
 42
1.0
 92
       10
 66
     7
 43
1.0
 76
     1
 77
     6
 78
     2
 67
     7
 79
     5
170
     0
171
     0
290
     0
174
     0
 93
        1
 44
0.0
173
     0
291
     1
 45
0.0
1001
ACAD
1000
AcDbSavedByObjectVersion
1070
     0
  0
VISUALSTYLE
  5
AC63
102
{ACAD_XDICTIONARY
360
ACC9
102
}
102
{ACAD_REACTORS
330
AC55
102
}
330
AC55
100
AcDbVisualStyle
  2
Linepattern
 70
    14
 71
     2
 72
     2
 73
     0
 90
        0
 40
-0.6
 41
-30.0
 62
     5
 63
     7
 74
     1
 91
        4
 64
     7
 65
   257
 75
     7
175
     7
 42
1.0
 92
        8
 66
     7
 43
1.0
 76
     1
 77
     6
 78
     2
 67
     7
 79
     5
170
     0
171
     0
290
     0
174
     0
 93
        1
 44
0.0
173
     0
291
     1
 45
0.0
1001
ACAD
1000
AcDbSavedByObjectVersion
1070
     0
  0
VISUALSTYLE
  5
AC6C
102
{ACAD_XDICTIONARY
360
ACDB
102
}
102
{ACAD_REACTORS
330
AC55
102
}
330
AC55
100
AcDbVisualStyle
  2
OverhangOff
 70
    21
 71
     2
 72
     2
 73
     0
 90
        0
 40
-0.6
 41
-30.0
 62
     5
 63
     7
 74
     1
 91
        4
 64
     7
 65
   257
 75
     1
175
     1
 42
1.0
 92
        9
 66
     7
 43
1.0
 76
     1
 77
     6
 78
     2
 67
     7
 79
     5
170
     0
171
     0
290
     0
174
     0
 93
        1
 44
0.0
173
     0
291
     1
 45
0.0
1001
ACAD
1000
AcDbSavedByObjectVersion
1070
     0
  0
VISUALSTYLE
  5
AC5F
102
{ACAD_XDICTIONARY
360
ACC1
102
}
102
{ACAD_REACTORS
330
AC55
102
}
330
AC55
100
AcDbVisualStyle
  2
Realistic
 70
     8
 71
     2
 72
     3
 73
     0
 90
        2
 40
-0.6
 41
30.0
 62
     5
 63
     7
 74
     0
 91
        0
 64
     7
 65
   257
 75
     1
175
     1
 42
1.0
 92
        8
 66
   257
 43
1.0
 76
     1
 77
     6
 78
     2
 67
     7
 79
     3
170
     0
171
     0
290
     0
174
     0
 93
       13
 44
0.0
173
     0
291
     0
 45
0.0
1001
ACAD
1000
AcDbSavedByObjectVersion
1070
     0
  0
VISUALSTYLE
  5
AC6A
102
{ACAD_XDICTIONARY
360
ACD7
102
}
102
{ACAD_REACTORS
330
AC55
102
}
330
AC55
100
AcDbVisualStyle
  2
Shaded
 70
    27
 71
     2
 72
     2
 73
     1
 90
        2
 40
-0.6
 41
30.0
 62
     5
 63
     7
 74
     0
 91
        4
 64
     7
 65
   257
 75
     1
175
     1
 42
1.0
 92
        8
 66
   257
 43
1.0
 76
     1
 77
     6
 78
     2
 67
     8
 79
     3
170
     0
171
     0
290
     0
174
     0
 93
        5
 44
0.0
173
     0
291
     0
 45
0.0
1001
ACAD
1000
AcDbSavedByObjectVersion
1070
     0
  0
VISUALSTYLE
  5
AC69
102
{ACAD_XDICTIONARY
360
ACD5
102
}
102
{ACAD_REACTORS
330
AC55
102
}
330
AC55
100
AcDbVisualStyle
  2
Shaded with edges
 70
    26
 71
     2
 72
     2
 73
     1
 90
        2
 40
-0.6
 41
30.0
 62
     5
 63
     7
 74
     1
 91
       10
 64
     7
 65
   257
 75
     2
175
     1
 42
1.0
 92
        8
 66
   257
 43
1.0
 76
     1
 77
     6
 78
     2
 67
     7
 79
     3
170
     0
171
     0
290
     0
174
     0
 93
        5
 44
0.0
173
     0
291
     0
 45
0.0
1001
ACAD
1000
AcDbSavedByObjectVersion
1070
     0
  0
VISUALSTYLE
  5
AC66
102
{ACAD_XDICTIONARY
360
ACCF
102
}
102
{ACAD_REACTORS
330
AC55
102
}
330
AC55
100
AcDbVisualStyle
  2
Shades of Gray
 70
    23
 71
     2
 72
     2
 73
     3
 90
        0
 40
-0.6
 41
-30.0
 62
     5
 63
     7
 74
     2
 91
        2
 64
     7
 65
     7
 75
     1
175
     1
 42
40.0
 92
        8
 66
     7
 43
1.0
 76
     1
 77
     6
 78
     2
 67
     7
 79
     3
170
     0
171
     0
290
     0
174
     0
 93
        1
 44
0.0
173
     0
291
     0
 45
0.0
1001
ACAD
1000
AcDbSavedByObjectVersion
1070
     0
  0
VISUALSTYLE
  5
AC67
102
{ACAD_XDICTIONARY
360
ACD1
102
}
102
{ACAD_REACTORS
330
AC55
102
}
330
AC55
100
AcDbVisualStyle
  2
Sketchy
 70
    24
 71
     1
 72
     2
 73
     2
 90
        0
 40
-0.6
 41
-30.0
 62
     5
 63
     7
 74
     2
 91
        2
 64
     7
 65
     7
 75
     1
175
     1
 42
40.0
 92
       11
 66
     7
 43
1.0
 76
     1
 77
     6
 78
     2
 67
     7
 79
     6
170
     0
171
     0
290
     0
174
     0
 93
        1
 44
0.0
173
     0
291
     0
 45
0.0
1001
ACAD
1000
AcDbSavedByObjectVersion
1070
     0
  0
VISUALSTYLE
  5
AC62
102
{ACAD_XDICTIONARY
360
ACC7
102
}
102
{ACAD_REACTORS
330
AC55
102
}
330
AC55
100
AcDbVisualStyle
  2
Thicken
 70
    13
 71
     2
 72
     2
 73
     0
 90
        0
 40
-0.6
 41
-30.0
 62
     5
 63
     7
 74
     1
 91
        4
 64
     7
 65
   257
 75
     1
175
     1
 42
1.0
 92
       12
 66
     7
 43
1.0
 76
     1
 77
     6
 78
     2
 67
     7
 79
     5
170
     0
171
     0
290
     0
174
     0
 93
        1
 44
0.0
173
     0
291
     1
 45
0.0
1001
ACAD
1000
AcDbSavedByObjectVersion
1070
     0
  0
VISUALSTYLE
  5
AC5C
102
{ACAD_XDICTIONARY
360
ACBB
102
}
102
{ACAD_REACTORS
330
AC55
102
}
330
AC55
100
AcDbVisualStyle
  2
Wireframe
 70
     5
 71
     0
 72
     2
 73
     0
 90
        0
 40
-0.6
 41
-30.0
 62
     5
 63
     7
 74
     1
 91
        4
 64
     7
 65
   257
 75
     1
175
     1
 42
1.0
 92
        0
 66
   257
 43
1.0
 76
     1
 77
     6
 78
     2
 67
     7
 79
     3
170
     0
171
     0
290
     0
174
     0
 93
        1
 44
0.0
173
     0
291
     0
 45
0.0
1001
ACAD
1000
AcDbSavedByObjectVersion
1070
     0
  0
VISUALSTYLE
  5
AC68
102
{ACAD_XDICTIONARY
360
ACD3
102
}
102
{ACAD_REACTORS
330
AC55
102
}
330
AC55
100
AcDbVisualStyle
  2
X-Ray
 70
    25
 71
     2
 72
     2
 73
     1
 90
        1
 40
0.5
 41
-30.0
 62
     5
 63
     7
 74
     1
 91
        0
 64
     7
 65
   257
 75
     1
175
     1
 42
1.0
 92
        8
 66
     7
 43
1.0
 76
     1
 77
     6
 78
     2
 67
     7
 79
     3
170
     0
171
     0
290
     0
174
     0
 93
       13
 44
0.0
173
     0
291
     0
 45
0.0
1001
ACAD
1000
AcDbSavedByObjectVersion
1070
     0
  0
DICTIONARYVAR
  5
ACA2
102
{ACAD_REACTORS
330
AC9D
102
}
330
AC9D
100
DictionaryVariables
280
     0
  1
1:1
  0
DICTIONARYVAR
  5
AC9F
102
{ACAD_REACTORS
330
AC9D
102
}
330
AC9D
100
DictionaryVariables
280
     0
  1
STANDARD
  0
DICTIONARYVAR
  5
AC9E
102
{ACAD_REACTORS
330
AC9D
102
}
330
AC9D
100
DictionaryVariables
280
     0
  1
STANDARD
  0
DICTIONARYVAR
  5
ACA0
102
{ACAD_REACTORS
330
AC9D
102
}
330
AC9D
100
DictionaryVariables
280
     0
  1
Imperial24
  0
DICTIONARYVAR
  5
ACA1
102
{ACAD_REACTORS
330
AC9D
102
}
330
AC9D
100
DictionaryVariables
280
     0
  1
Imperial24
  0
DICTIONARYVAR
  5
ACA5
102
{ACAD_REACTORS
330
AC9D
102
}
330
AC9D
100
DictionaryVariables
280
     0
  1
1
  0
DICTIONARYVAR
  5
ACA4
102
{ACAD_REACTORS
330
AC9D
102
}
330
AC9D
100
DictionaryVariables
280
     0
  1
0
  0
DICTIONARYVAR
  5
ACA3
102
{ACAD_REACTORS
330
AC9D
102
}
330
AC9D
100
DictionaryVariables
280
     0
  1
127
  0
DICTIONARYVAR
  5
ACA6
102
{ACAD_REACTORS
330
AC9D
102
}
330
AC9D
100
DictionaryVariables
280
     0
  1
2
  0
DICTIONARY
  5
ACE3
330
AC88
100
AcDbDictionary
280
     1
281
     1
  3
ACAD_XREC_ROUNDTRIP
360
ACE4
  0
DICTIONARY
  5
ACE5
330
AC89
100
AcDbDictionary
280
     1
281
     1
  3
ACAD_XREC_ROUNDTRIP
360
ACE6
  0
DICTIONARY
  5
ACE7
330
AC8A
100
AcDbDictionary
280
     1
281
     1
  3
ACAD_XREC_ROUNDTRIP
360
ACE8
  0
DICTIONARY
  5
AC46
330
AC45
100
AcDbDictionary
280
     1
281
     1
  3
ACAD_XREC_ROUNDTRIP
360
ACAD
  3
BUMPTILE
360
AC48
  3
DIFFUSETILE
360
AC47
  3
OPACITYTILE
360
AC4B
  3
REFLECTIONTILE
360
AC4A
  3
REFRACTIONTILE
360
AC4C
  3
SPECULARTILE
360
AC49
  0
DICTIONARY
  5
AC3E
330
AC3D
100
AcDbDictionary
280
     1
281
     1
  3
ACAD_XREC_ROUNDTRIP
360
ACAC
  3
BUMPTILE
360
AC40
  3
DIFFUSETILE
360
AC3F
  3
OPACITYTILE
360
AC43
  3
REFLECTIONTILE
360
AC42
  3
REFRACTIONTILE
360
AC44
  3
SPECULARTILE
360
AC41
  0
DICTIONARY
  5
AC4E
330
AC4D
100
AcDbDictionary
280
     1
281
     1
  3
ACAD_XREC_ROUNDTRIP
360
ACAE
  3
BUMPTILE
360
AC50
  3
DIFFUSETILE
360
AC4F
  3
OPACITYTILE
360
AC53
  3
REFLECTIONTILE
360
AC52
  3
REFRACTIONTILE
360
AC54
  3
SPECULARTILE
360
AC51
  0
DICTIONARY
  5
ACE1
330
AC86
100
AcDbDictionary
280
     1
281
     1
  3
ACAD_XREC_ROUNDTRIP
360
ACE2
  0
DICTIONARY
  5
ACA8
330
AC70
100
AcDbDictionary
280
     1
281
     1
  3
ACAD_ROUNDTRIP_2008_TABLESTYLE_CELLSTYLEMAP
360
ACA9
  3
ACAD_XREC_ROUNDTRIP
360
ACDF
  0
DICTIONARY
  5
ACB9
330
AC5B
100
AcDbDictionary
280
     1
281
     1
  3
ACAD_XREC_ROUNDTRIP
360
ACBA
  0
DICTIONARY
  5
ACB7
330
AC5A
100
AcDbDictionary
280
     1
281
     1
  3
ACAD_XREC_ROUNDTRIP
360
ACB8
  0
DICTIONARY
  5
ACC5
330
AC61
100
AcDbDictionary
280
     1
281
     1
  3
ACAD_XREC_ROUNDTRIP
360
ACC6
  0
DICTIONARY
  5
ACCD
330
AC65
100
AcDbDictionary
280
     1
281
     1
  3
ACAD_XREC_ROUNDTRIP
360
ACCE
  0
DICTIONARY
  5
ACBF
330
AC5E
100
AcDbDictionary
280
     1
281
     1
  3
ACAD_XREC_ROUNDTRIP
360
ACC0
  0
DICTIONARY
  5
ACC3
330
AC60
100
AcDbDictionary
280
     1
281
     1
  3
ACAD_XREC_ROUNDTRIP
360
ACC4
  0
DICTIONARY
  5
ACDD
330
AC6D
100
AcDbDictionary
280
     1
281
     1
  3
ACAD_XREC_ROUNDTRIP
360
ACDE
  0
DICTIONARY
  5
ACCB
330
AC64
100
AcDbDictionary
280
     1
281
     1
  3
ACAD_XREC_ROUNDTRIP
360
ACCC
  0
DICTIONARY
  5
ACAF
330
AC56
100
AcDbDictionary
280
     1
281
     1
  3
ACAD_XREC_ROUNDTRIP
360
ACB0
  0
DICTIONARY
  5
ACB1
330
AC57
100
AcDbDictionary
280
     1
281
     1
  3
ACAD_XREC_ROUNDTRIP
360
ACB2
  0
DICTIONARY
  5
ACB3
330
AC58
100
AcDbDictionary
280
     1
281
     1
  3
ACAD_XREC_ROUNDTRIP
360
ACB4
  0
DICTIONARY
  5
ACB5
330
AC59
100
AcDbDictionary
280
     1
281
     1
  3
ACAD_XREC_ROUNDTRIP
360
ACB6
  0
DICTIONARY
  5
ACBD
330
AC5D
100
AcDbDictionary
280
     1
281
     1
  3
ACAD_XREC_ROUNDTRIP
360
ACBE
  0
DICTIONARY
  5
ACD9
330
AC6B
100
AcDbDictionary
280
     1
281
     1
  3
ACAD_XREC_ROUNDTRIP
360
ACDA
  0
DICTIONARY
  5
ACC9
330
AC63
100
AcDbDictionary
280
     1
281
     1
  3
ACAD_XREC_ROUNDTRIP
360
ACCA
  0
DICTIONARY
  5
ACDB
330
AC6C
100
AcDbDictionary
280
     1
281
     1
  3
ACAD_XREC_ROUNDTRIP
360
ACDC
  0
DICTIONARY
  5
ACC1
330
AC5F
100
AcDbDictionary
280
     1
281
     1
  3
ACAD_XREC_ROUNDTRIP
360
ACC2
  0
DICTIONARY
  5
ACD7
330
AC6A
100
AcDbDictionary
280
     1
281
     1
  3
ACAD_XREC_ROUNDTRIP
360
ACD8
  0
DICTIONARY
  5
ACD5
330
AC69
100
AcDbDictionary
280
     1
281
     1
  3
ACAD_XREC_ROUNDTRIP
360
ACD6
  0
DICTIONARY
  5
ACCF
330
AC66
100
AcDbDictionary
280
     1
281
     1
  3
ACAD_XREC_ROUNDTRIP
360
ACD0
  0
DICTIONARY
  5
ACD1
330
AC67
100
AcDbDictionary
280
     1
281
     1
  3
ACAD_XREC_ROUNDTRIP
360
ACD2
  0
DICTIONARY
  5
ACC7
330
AC62
100
AcDbDictionary
280
     1
281
     1
  3
ACAD_XREC_ROUNDTRIP
360
ACC8
  0
DICTIONARY
  5
ACBB
330
AC5C
100
AcDbDictionary
280
     1
281
     1
  3
ACAD_XREC_ROUNDTRIP
360
ACBC
  0
DICTIONARY
  5
ACD3
330
AC68
100
AcDbDictionary
280
     1
281
     1
  3
ACAD_XREC_ROUNDTRIP
360
ACD4
  0
XRECORD
  5
ACE4
102
{ACAD_REACTORS
330
ACE3
102
}
330
ACE3
100
AcDbXrecord
280
     1
102
DISPLAYNAME
  1
Imperial24
102
FLAGS
 90
        0
  0
XRECORD
  5
ACE6
102
{ACAD_REACTORS
330
ACE5
102
}
330
ACE5
100
AcDbXrecord
280
     1
102
SHADEPLOT
 70
     0
102
SHADEPLOTRESLEVEL
 70
     2
102
SHADEPLOTCUSTOMDPI
 70
   300
  0
XRECORD
  5
ACE8
102
{ACAD_REACTORS
330
ACE7
102
}
330
ACE7
100
AcDbXrecord
280
     1
102
SHADEPLOT
 70
     0
102
SHADEPLOTRESLEVEL
 70
     2
102
SHADEPLOTCUSTOMDPI
 70
   300
  0
XRECORD
  5
ACAD
102
{ACAD_REACTORS
330
AC46
102
}
330
AC46
100
AcDbXrecord
280
     1
102
MATERIAL
148
0.0
149
0.0
149
0.0
 93
        0
 94
      127
282
     0
 72
     0
 77
     0
171
     0
175
     0
179
     0
273
     0
  0
XRECORD
  5
AC48
102
{ACAD_REACTORS
330
AC46
102
}
330
AC46
100
AcDbXrecord
280
     1
270
     1
271
     1
  0
XRECORD
  5
AC47
102
{ACAD_REACTORS
330
AC46
102
}
330
AC46
100
AcDbXrecord
280
     1
270
     1
271
     1
  0
XRECORD
  5
AC4B
102
{ACAD_REACTORS
330
AC46
102
}
330
AC46
100
AcDbXrecord
280
     1
270
     1
271
     1
  0
XRECORD
  5
AC4A
102
{ACAD_REACTORS
330
AC46
102
}
330
AC46
100
AcDbXrecord
280
     1
270
     1
271
     1
  0
XRECORD
  5
AC4C
102
{ACAD_REACTORS
330
AC46
102
}
330
AC46
100
AcDbXrecord
280
     1
270
     1
271
     1
  0
XRECORD
  5
AC49
102
{ACAD_REACTORS
330
AC46
102
}
330
AC46
100
AcDbXrecord
280
     1
270
     1
271
     1
  0
XRECORD
  5
ACAC
102
{ACAD_REACTORS
330
AC3E
102
}
330
AC3E
100
AcDbXrecord
280
     1
102
MATERIAL
148
0.0
149
0.0
149
0.0
 93
        0
 94
      127
282
     0
 72
     0
 77
     0
171
     0
175
     0
179
     0
273
     0
  0
XRECORD
  5
AC40
102
{ACAD_REACTORS
330
AC3E
102
}
330
AC3E
100
AcDbXrecord
280
     1
270
     1
271
     1
  0
XRECORD
  5
AC3F
102
{ACAD_REACTORS
330
AC3E
102
}
330
AC3E
100
AcDbXrecord
280
     1
270
     1
271
     1
  0
XRECORD
  5
AC43
102
{ACAD_REACTORS
330
AC3E
102
}
330
AC3E
100
AcDbXrecord
280
     1
270
     1
271
     1
  0
XRECORD
  5
AC42
102
{ACAD_REACTORS
330
AC3E
102
}
330
AC3E
100
AcDbXrecord
280
     1
270
     1
271
     1
  0
XRECORD
  5
AC44
102
{ACAD_REACTORS
330
AC3E
102
}
330
AC3E
100
AcDbXrecord
280
     1
270
     1
271
     1
  0
XRECORD
  5
AC41
102
{ACAD_REACTORS
330
AC3E
102
}
330
AC3E
100
AcDbXrecord
280
     1
270
     1
271
     1
  0
XRECORD
  5
ACAE
102
{ACAD_REACTORS
330
AC4E
102
}
330
AC4E
100
AcDbXrecord
280
     1
102
MATERIAL
148
0.0
149
0.0
149
0.0
 93
        0
 94
      127
282
     0
 72
     0
 77
     0
171
     0
175
     0
179
     0
273
     0
  0
XRECORD
  5
AC50
102
{ACAD_REACTORS
330
AC4E
102
}
330
AC4E
100
AcDbXrecord
280
     1
270
     1
271
     1
  0
XRECORD
  5
AC4F
102
{ACAD_REACTORS
330
AC4E
102
}
330
AC4E
100
AcDbXrecord
280
     1
270
     1
271
     1
  0
XRECORD
  5
AC53
102
{ACAD_REACTORS
330
AC4E
102
}
330
AC4E
100
AcDbXrecord
280
     1
270
     1
271
     1
  0
XRECORD
  5
AC52
102
{ACAD_REACTORS
330
AC4E
102
}
330
AC4E
100
AcDbXrecord
280
     1
270
     1
271
     1
  0
XRECORD
  5
AC54
102
{ACAD_REACTORS
330
AC4E
102
}
330
AC4E
100
AcDbXrecord
280
     1
270
     1
271
     1
  0
XRECORD
  5
AC51
102
{ACAD_REACTORS
330
AC4E
102
}
330
AC4E
100
AcDbXrecord
280
     1
270
     1
271
     1
  0
XRECORD
  5
ACE2
102
{ACAD_REACTORS
330
ACE1
102
}
330
ACE1
100
AcDbXrecord
280
     1
102
DISPLAYNAME
  1
Imperial24
102
FLAGS
 90
        0
  0
CELLSTYLEMAP
  5
ACA9
102
{ACAD_REACTORS
330
ACA8
102
}
330
ACA8
100
AcDbCellStyleMap
 90
        3
300
CELLSTYLE
  1
TABLEFORMAT_BEGIN
 90
        5
170
     1
 91
        0
 92
    32768
 62
   257
 93
        1
300
CONTENTFORMAT
  1
CONTENTFORMAT_BEGIN
 90
        0
 91
        0
 92
      512
 93
        0
300

 40
0.0
140
1.0
 94
        5
 62
     0
340
A94A
144
0.25
309
CONTENTFORMAT_END
171
     0
 94
        0
309
TABLEFORMAT_END
  1
CELLSTYLE_BEGIN
 90
        1
 91
        1
300
_TITLE
309
CELLSTYLE_END
300
CELLSTYLE
  1
TABLEFORMAT_BEGIN
 90
        5
170
     1
 91
        0
 92
        0
 62
   257
 93
        1
300
CONTENTFORMAT
  1
CONTENTFORMAT_BEGIN
 90
        0
 91
        0
 92
      512
 93
        0
300

 40
0.0
140
1.0
 94
        5
 62
     0
340
A94A
144
0.18
309
CONTENTFORMAT_END
171
     0
 94
        0
309
TABLEFORMAT_END
  1
CELLSTYLE_BEGIN
 90
        2
 91
        1
300
_HEADER
309
CELLSTYLE_END
300
CELLSTYLE
  1
TABLEFORMAT_BEGIN
 90
        5
170
     1
 91
        0
 92
        0
 62
   257
 93
        1
300
CONTENTFORMAT
  1
CONTENTFORMAT_BEGIN
 90
        0
 91
        0
 92
      512
 93
        0
300

 40
0.0
140
1.0
 94
        2
 62
     0
340
A94A
144
0.18
309
CONTENTFORMAT_END
171
     0
 94
        0
309
TABLEFORMAT_END
  1
CELLSTYLE_BEGIN
 90
        3
 91
        2
300
_DATA
309
CELLSTYLE_END
  0
XRECORD
  5
ACDF
102
{ACAD_REACTORS
330
ACA8
102
}
330
ACA8
100
AcDbXrecord
280
     1
102
ACAD_ROUNDTRIP_PRE2007_TABLESTYLE
 90
      512
 91
        0
  1

 92
      512
 93
        0
  2

 94
      512
 95
        0
  3

  0
XRECORD
  5
ACBA
102
{ACAD_REACTORS
330
ACB9
102
}
330
ACB9
100
AcDbXrecord
280
     1
102
RTVSPost2010Prop28
280
     1
102
RTVSPost2010PropOp28
 70
     1
102
RTVSPost2010Prop29
280
     1
102
RTVSPost2010PropOp29
 70
     1
102
RTVSPost2010Prop30
280
     0
102
RTVSPost2010PropOp30
 70
     1
102
RTVSPost2010Prop31
280
     0
102
RTVSPost2010PropOp31
 70
     1
102
RTVSPost2010Prop32
280
     0
102
RTVSPost2010PropOp32
 70
     1
102
RTVSPost2010Prop33
280
     0
102
RTVSPost2010PropOp33
 70
     1
102
RTVSPost2010Prop34
280
     0
102
RTVSPost2010PropOp34
 70
     1
102
RTVSPost2010Prop35
280
     0
102
RTVSPost2010PropOp35
 70
     1
102
RTVSPost2010Prop36
280
     0
102
RTVSPost2010PropOp36
 70
     1
102
RTVSPost2010Prop37
 90
       50
102
RTVSPost2010PropOp37
 70
     1
102
RTVSPost2010Prop38
140
0.0
102
RTVSPost2010PropOp38
 70
     1
102
RTVSPost2010Prop39
140
1.0
102
RTVSPost2010PropOp39
 70
     1
102
RTVSPost2010Prop40
 90
        0
102
RTVSPost2010PropOp40
 70
     1
102
RTVSPost2010Prop41ColorIndex
 90
       18
102
RTVSPost2010Prop41ColorRGB
 90
        0
102
RTVSPost2010PropOp41
 70
     1
102
RTVSPost2010Prop42
 90
       50
102
RTVSPost2010PropOp42
 70
     1
102
RTVSPost2010Prop43
 90
        3
102
RTVSPost2010PropOp43
 70
     1
102
RTVSPost2010Prop44ColorIndex
 90
        5
102
RTVSPost2010Prop44ColorRGB
 90
      255
102
RTVSPost2010PropOp44
 70
     1
102
RTVSPost2010Prop45
280
     0
102
RTVSPost2010PropOp45
 70
     1
102
RTVSPost2010Prop46
 90
       50
102
RTVSPost2010PropOp46
 70
     1
102
RTVSPost2010Prop47
 90
       50
102
RTVSPost2010PropOp47
 70
     1
102
RTVSPost2010Prop48
 90
       50
102
RTVSPost2010PropOp48
 70
     1
102
RTVSPost2010Prop49
280
     0
102
RTVSPost2010PropOp49
 70
     1
102
RTVSPost2010Prop50
 90
       50
102
RTVSPost2010PropOp50
 70
     1
102
RTVSPost2010Prop51ColorIndex
 90
      256
102
RTVSPost2010Prop51ColorRGB
 90
-16777216
102
RTVSPost2010PropOp51
 70
     0
102
RTVSPost2010Prop52
140
1.0
102
RTVSPost2010PropOp52
 70
     0
102
RTVSPost2010Prop53
 90
        2
102
RTVSPost2010PropOp53
 70
     1
102
RTVSPost2010Prop54
  1
strokes_ogs.tif
102
RTVSPost2010PropOp54
 70
     1
102
RTVSPost2010Prop55
280
     0
102
RTVSPost2010PropOp55
 70
     1
102
RTVSPost2010Prop56
140
1.0
102
RTVSPost2010PropOp56
 70
     1
102
RTVSPost2010Prop57
140
1.0
102
RTVSPost2010PropOp57
 70
     1
102
RTVSPropertyOp0
 70
     1
102
RTVSPropertyOp1
 70
     1
102
RTVSPropertyOp2
 70
     1
102
RTVSPropertyOp3
 70
     1
102
RTVSPropertyOp4
 70
     1
102
RTVSPropertyOp5
 70
     1
102
RTVSPropertyOp6
 70
     1
102
RTVSPropertyOp7
 70
     1
102
RTVSPropertyOp8
 70
     1
102
RTVSPropertyOp9
 70
     1
102
RTVSPropertyOp10
 70
     1
102
RTVSPropertyOp11
 70
     1
102
RTVSPropertyOp12
 70
     1
102
RTVSPropertyOp13
 70
     1
102
RTVSPropertyOp14
 70
     1
102
RTVSPropertyOp15
 70
     1
102
RTVSPropertyOp16
 70
     1
102
RTVSPropertyOp17
 70
     1
102
RTVSPropertyOp18
 70
     1
102
RTVSPropertyOp19
 70
     1
102
RTVSPropertyOp20
 70
     1
102
RTVSPropertyOp21
 70
     1
102
RTVSPropertyOp22
 70
     1
102
RTVSPropertyOp23
 70
     1
102
RTVSPropertyOp24
 70
     1
102
RTVSPropertyOp25
 70
     1
102
RTVSPropertyOp26
 70
     1
102
RTVSPropertyOp27
 70
     1
102
RTVSPropertyOp28
 70
     1
102
RTVSPropertyOp29
 70
     1
102
RTVSPropertyOp30
 70
     1
102
RTVSPropertyOp31
 70
     1
102
RTVSPropertyOp32
 70
     1
102
RTVSPropertyOp33
 70
     1
102
RTVSPropertyOp34
 70
     1
102
RTVSPropertyOp35
 70
     1
102
RTVSPropertyOp36
 70
     1
102
RTVSPropertyOp37
 70
     1
102
RTVSPropertyOp38
 70
     1
102
RTVSPropertyOp39
 70
     1
102
RTVSPropertyOp40
 70
     1
102
RTVSPropertyOp41
 70
     1
102
RTVSPropertyOp42
 70
     1
102
RTVSPropertyOp43
 70
     1
102
RTVSPropertyOp44
 70
     1
102
RTVSPropertyOp45
 70
     1
102
RTVSPropertyOp46
 70
     1
102
RTVSPropertyOp47
 70
     1
102
RTVSPropertyOp48
 70
     1
102
RTVSPropertyOp49
 70
     1
102
RTVSPropertyOp50
 70
     1
102
RTVSPropertyOp51
 70
     0
102
RTVSPropertyOp52
 70
     0
102
RTVSPropertyOp53
 70
     1
102
RTVSPropertyOp54
 70
     1
102
RTVSPropertyOp55
 70
     1
102
RTVSPropertyOp56
 70
     1
102
RTVSPropertyOp57
 70
     1
102
RTVSPropertyOp58
 70
     1
102
RTVSPropertyOp59
 70
     1
102
RTVSPropertyOp60
 70
     1
102
RTVSPropertyOp61
 70
     1
102
RTVSPropertyOp62
 70
     1
  0
XRECORD
  5
ACB8
102
{ACAD_REACTORS
330
ACB7
102
}
330
ACB7
100
AcDbXrecord
280
     1
102
RTVSPost2010Prop28
280
     0
102
RTVSPost2010PropOp28
 70
     1
102
RTVSPost2010Prop29
280
     1
102
RTVSPost2010PropOp29
 70
     1
102
RTVSPost2010Prop30
280
     1
102
RTVSPost2010PropOp30
 70
     1
102
RTVSPost2010Prop31
280
     0
102
RTVSPost2010PropOp31
 70
     1
102
RTVSPost2010Prop32
280
     0
102
RTVSPost2010PropOp32
 70
     1
102
RTVSPost2010Prop33
280
     0
102
RTVSPost2010PropOp33
 70
     1
102
RTVSPost2010Prop34
280
     0
102
RTVSPost2010PropOp34
 70
     1
102
RTVSPost2010Prop35
280
     0
102
RTVSPost2010PropOp35
 70
     1
102
RTVSPost2010Prop36
280
     0
102
RTVSPost2010PropOp36
 70
     1
102
RTVSPost2010Prop37
 90
       50
102
RTVSPost2010PropOp37
 70
     1
102
RTVSPost2010Prop38
140
0.0
102
RTVSPost2010PropOp38
 70
     1
102
RTVSPost2010Prop39
140
1.0
102
RTVSPost2010PropOp39
 70
     1
102
RTVSPost2010Prop40
 90
        0
102
RTVSPost2010PropOp40
 70
     1
102
RTVSPost2010Prop41ColorIndex
 90
       18
102
RTVSPost2010Prop41ColorRGB
 90
        0
102
RTVSPost2010PropOp41
 70
     1
102
RTVSPost2010Prop42
 90
       50
102
RTVSPost2010PropOp42
 70
     1
102
RTVSPost2010Prop43
 90
        3
102
RTVSPost2010PropOp43
 70
     1
102
RTVSPost2010Prop44ColorIndex
 90
        5
102
RTVSPost2010Prop44ColorRGB
 90
      255
102
RTVSPost2010PropOp44
 70
     1
102
RTVSPost2010Prop45
280
     0
102
RTVSPost2010PropOp45
 70
     1
102
RTVSPost2010Prop46
 90
       50
102
RTVSPost2010PropOp46
 70
     1
102
RTVSPost2010Prop47
 90
       50
102
RTVSPost2010PropOp47
 70
     1
102
RTVSPost2010Prop48
 90
       50
102
RTVSPost2010PropOp48
 70
     1
102
RTVSPost2010Prop49
280
     0
102
RTVSPost2010PropOp49
 70
     1
102
RTVSPost2010Prop50
 90
       50
102
RTVSPost2010PropOp50
 70
     1
102
RTVSPost2010Prop51ColorIndex
 90
      256
102
RTVSPost2010Prop51ColorRGB
 90
-16777216
102
RTVSPost2010PropOp51
 70
     0
102
RTVSPost2010Prop52
140
1.0
102
RTVSPost2010PropOp52
 70
     0
102
RTVSPost2010Prop53
 90
        2
102
RTVSPost2010PropOp53
 70
     1
102
RTVSPost2010Prop54
  1
strokes_ogs.tif
102
RTVSPost2010PropOp54
 70
     1
102
RTVSPost2010Prop55
280
     0
102
RTVSPost2010PropOp55
 70
     1
102
RTVSPost2010Prop56
140
1.0
102
RTVSPost2010PropOp56
 70
     1
102
RTVSPost2010Prop57
140
1.0
102
RTVSPost2010PropOp57
 70
     1
102
RTVSPropertyOp0
 70
     1
102
RTVSPropertyOp1
 70
     1
102
RTVSPropertyOp2
 70
     1
102
RTVSPropertyOp3
 70
     1
102
RTVSPropertyOp4
 70
     1
102
RTVSPropertyOp5
 70
     1
102
RTVSPropertyOp6
 70
     1
102
RTVSPropertyOp7
 70
     1
102
RTVSPropertyOp8
 70
     1
102
RTVSPropertyOp9
 70
     1
102
RTVSPropertyOp10
 70
     1
102
RTVSPropertyOp11
 70
     1
102
RTVSPropertyOp12
 70
     1
102
RTVSPropertyOp13
 70
     1
102
RTVSPropertyOp14
 70
     1
102
RTVSPropertyOp15
 70
     1
102
RTVSPropertyOp16
 70
     1
102
RTVSPropertyOp17
 70
     1
102
RTVSPropertyOp18
 70
     1
102
RTVSPropertyOp19
 70
     1
102
RTVSPropertyOp20
 70
     1
102
RTVSPropertyOp21
 70
     1
102
RTVSPropertyOp22
 70
     1
102
RTVSPropertyOp23
 70
     1
102
RTVSPropertyOp24
 70
     1
102
RTVSPropertyOp25
 70
     1
102
RTVSPropertyOp26
 70
     1
102
RTVSPropertyOp27
 70
     1
102
RTVSPropertyOp28
 70
     1
102
RTVSPropertyOp29
 70
     1
102
RTVSPropertyOp30
 70
     1
102
RTVSPropertyOp31
 70
     1
102
RTVSPropertyOp32
 70
     1
102
RTVSPropertyOp33
 70
     1
102
RTVSPropertyOp34
 70
     1
102
RTVSPropertyOp35
 70
     1
102
RTVSPropertyOp36
 70
     1
102
RTVSPropertyOp37
 70
     1
102
RTVSPropertyOp38
 70
     1
102
RTVSPropertyOp39
 70
     1
102
RTVSPropertyOp40
 70
     1
102
RTVSPropertyOp41
 70
     1
102
RTVSPropertyOp42
 70
     1
102
RTVSPropertyOp43
 70
     1
102
RTVSPropertyOp44
 70
     1
102
RTVSPropertyOp45
 70
     1
102
RTVSPropertyOp46
 70
     1
102
RTVSPropertyOp47
 70
     1
102
RTVSPropertyOp48
 70
     1
102
RTVSPropertyOp49
 70
     1
102
RTVSPropertyOp50
 70
     1
102
RTVSPropertyOp51
 70
     0
102
RTVSPropertyOp52
 70
     0
102
RTVSPropertyOp53
 70
     1
102
RTVSPropertyOp54
 70
     1
102
RTVSPropertyOp55
 70
     1
102
RTVSPropertyOp56
 70
     1
102
RTVSPropertyOp57
 70
     1
102
RTVSPropertyOp58
 70
     1
102
RTVSPropertyOp59
 70
     1
102
RTVSPropertyOp60
 70
     1
102
RTVSPropertyOp61
 70
     1
102
RTVSPropertyOp62
 70
     1
  0
XRECORD
  5
ACC6
102
{ACAD_REACTORS
330
ACC5
102
}
330
ACC5
100
AcDbXrecord
280
     1
102
RTVSPost2010Prop28
280
     0
102
RTVSPost2010PropOp28
 70
     1
102
RTVSPost2010Prop29
280
     1
102
RTVSPost2010PropOp29
 70
     1
102
RTVSPost2010Prop30
280
     1
102
RTVSPost2010PropOp30
 70
     1
102
RTVSPost2010Prop31
280
     0
102
RTVSPost2010PropOp31
 70
     1
102
RTVSPost2010Prop32
280
     0
102
RTVSPost2010PropOp32
 70
     1
102
RTVSPost2010Prop33
280
     0
102
RTVSPost2010PropOp33
 70
     1
102
RTVSPost2010Prop34
280
     0
102
RTVSPost2010PropOp34
 70
     1
102
RTVSPost2010Prop35
280
     0
102
RTVSPost2010PropOp35
 70
     1
102
RTVSPost2010Prop36
280
     0
102
RTVSPost2010PropOp36
 70
     1
102
RTVSPost2010Prop37
 90
       50
102
RTVSPost2010PropOp37
 70
     1
102
RTVSPost2010Prop38
140
0.0
102
RTVSPost2010PropOp38
 70
     1
102
RTVSPost2010Prop39
140
1.0
102
RTVSPost2010PropOp39
 70
     1
102
RTVSPost2010Prop40
 90
        0
102
RTVSPost2010PropOp40
 70
     1
102
RTVSPost2010Prop41ColorIndex
 90
       18
102
RTVSPost2010Prop41ColorRGB
 90
        0
102
RTVSPost2010PropOp41
 70
     1
102
RTVSPost2010Prop42
 90
       50
102
RTVSPost2010PropOp42
 70
     1
102
RTVSPost2010Prop43
 90
        3
102
RTVSPost2010PropOp43
 70
     1
102
RTVSPost2010Prop44ColorIndex
 90
        5
102
RTVSPost2010Prop44ColorRGB
 90
      255
102
RTVSPost2010PropOp44
 70
     1
102
RTVSPost2010Prop45
280
     0
102
RTVSPost2010PropOp45
 70
     1
102
RTVSPost2010Prop46
 90
       50
102
RTVSPost2010PropOp46
 70
     1
102
RTVSPost2010Prop47
 90
       50
102
RTVSPost2010PropOp47
 70
     1
102
RTVSPost2010Prop48
 90
       50
102
RTVSPost2010PropOp48
 70
     1
102
RTVSPost2010Prop49
280
     0
102
RTVSPost2010PropOp49
 70
     1
102
RTVSPost2010Prop50
 90
       50
102
RTVSPost2010PropOp50
 70
     1
102
RTVSPost2010Prop51ColorIndex
 90
      256
102
RTVSPost2010Prop51ColorRGB
 90
-16777216
102
RTVSPost2010PropOp51
 70
     0
102
RTVSPost2010Prop52
140
1.0
102
RTVSPost2010PropOp52
 70
     0
102
RTVSPost2010Prop53
 90
        2
102
RTVSPost2010PropOp53
 70
     1
102
RTVSPost2010Prop54
  1
strokes_ogs.tif
102
RTVSPost2010PropOp54
 70
     1
102
RTVSPost2010Prop55
280
     0
102
RTVSPost2010PropOp55
 70
     1
102
RTVSPost2010Prop56
140
1.0
102
RTVSPost2010PropOp56
 70
     1
102
RTVSPost2010Prop57
140
1.0
102
RTVSPost2010PropOp57
 70
     1
102
RTVSPropertyOp0
 70
     1
102
RTVSPropertyOp1
 70
     1
102
RTVSPropertyOp2
 70
     1
102
RTVSPropertyOp3
 70
     1
102
RTVSPropertyOp4
 70
     1
102
RTVSPropertyOp5
 70
     1
102
RTVSPropertyOp6
 70
     1
102
RTVSPropertyOp7
 70
     1
102
RTVSPropertyOp8
 70
     1
102
RTVSPropertyOp9
 70
     1
102
RTVSPropertyOp10
 70
     1
102
RTVSPropertyOp11
 70
     1
102
RTVSPropertyOp12
 70
     1
102
RTVSPropertyOp13
 70
     1
102
RTVSPropertyOp14
 70
     1
102
RTVSPropertyOp15
 70
     1
102
RTVSPropertyOp16
 70
     1
102
RTVSPropertyOp17
 70
     1
102
RTVSPropertyOp18
 70
     1
102
RTVSPropertyOp19
 70
     1
102
RTVSPropertyOp20
 70
     1
102
RTVSPropertyOp21
 70
     1
102
RTVSPropertyOp22
 70
     1
102
RTVSPropertyOp23
 70
     1
102
RTVSPropertyOp24
 70
     1
102
RTVSPropertyOp25
 70
     1
102
RTVSPropertyOp26
 70
     1
102
RTVSPropertyOp27
 70
     1
102
RTVSPropertyOp28
 70
     1
102
RTVSPropertyOp29
 70
     1
102
RTVSPropertyOp30
 70
     1
102
RTVSPropertyOp31
 70
     1
102
RTVSPropertyOp32
 70
     1
102
RTVSPropertyOp33
 70
     1
102
RTVSPropertyOp34
 70
     1
102
RTVSPropertyOp35
 70
     1
102
RTVSPropertyOp36
 70
     1
102
RTVSPropertyOp37
 70
     1
102
RTVSPropertyOp38
 70
     1
102
RTVSPropertyOp39
 70
     1
102
RTVSPropertyOp40
 70
     1
102
RTVSPropertyOp41
 70
     1
102
RTVSPropertyOp42
 70
     1
102
RTVSPropertyOp43
 70
     1
102
RTVSPropertyOp44
 70
     1
102
RTVSPropertyOp45
 70
     1
102
RTVSPropertyOp46
 70
     1
102
RTVSPropertyOp47
 70
     1
102
RTVSPropertyOp48
 70
     1
102
RTVSPropertyOp49
 70
     1
102
RTVSPropertyOp50
 70
     1
102
RTVSPropertyOp51
 70
     0
102
RTVSPropertyOp52
 70
     0
102
RTVSPropertyOp53
 70
     1
102
RTVSPropertyOp54
 70
     1
102
RTVSPropertyOp55
 70
     1
102
RTVSPropertyOp56
 70
     1
102
RTVSPropertyOp57
 70
     1
102
RTVSPropertyOp58
 70
     1
102
RTVSPropertyOp59
 70
     1
102
RTVSPropertyOp60
 70
     1
102
RTVSPropertyOp61
 70
     1
102
RTVSPropertyOp62
 70
     1
  0
XRECORD
  5
ACCE
102
{ACAD_REACTORS
330
ACCD
102
}
330
ACCD
100
AcDbXrecord
280
     1
102
RTVSPost2010Prop28
280
     0
102
RTVSPost2010PropOp28
 70
     1
102
RTVSPost2010Prop29
280
     1
102
RTVSPost2010PropOp29
 70
     1
102
RTVSPost2010Prop30
280
     1
102
RTVSPost2010PropOp30
 70
     1
102
RTVSPost2010Prop31
280
     0
102
RTVSPost2010PropOp31
 70
     1
102
RTVSPost2010Prop32
280
     0
102
RTVSPost2010PropOp32
 70
     1
102
RTVSPost2010Prop33
280
     0
102
RTVSPost2010PropOp33
 70
     1
102
RTVSPost2010Prop34
280
     0
102
RTVSPost2010PropOp34
 70
     1
102
RTVSPost2010Prop35
280
     0
102
RTVSPost2010PropOp35
 70
     1
102
RTVSPost2010Prop36
280
     0
102
RTVSPost2010PropOp36
 70
     1
102
RTVSPost2010Prop37
 90
       50
102
RTVSPost2010PropOp37
 70
     1
102
RTVSPost2010Prop38
140
0.0
102
RTVSPost2010PropOp38
 70
     1
102
RTVSPost2010Prop39
140
1.0
102
RTVSPost2010PropOp39
 70
     1
102
RTVSPost2010Prop40
 90
        0
102
RTVSPost2010PropOp40
 70
     1
102
RTVSPost2010Prop41ColorIndex
 90
       18
102
RTVSPost2010Prop41ColorRGB
 90
        0
102
RTVSPost2010PropOp41
 70
     1
102
RTVSPost2010Prop42
 90
       50
102
RTVSPost2010PropOp42
 70
     1
102
RTVSPost2010Prop43
 90
        3
102
RTVSPost2010PropOp43
 70
     1
102
RTVSPost2010Prop44ColorIndex
 90
        5
102
RTVSPost2010Prop44ColorRGB
 90
      255
102
RTVSPost2010PropOp44
 70
     1
102
RTVSPost2010Prop45
280
     0
102
RTVSPost2010PropOp45
 70
     1
102
RTVSPost2010Prop46
 90
       50
102
RTVSPost2010PropOp46
 70
     1
102
RTVSPost2010Prop47
 90
       50
102
RTVSPost2010PropOp47
 70
     1
102
RTVSPost2010Prop48
 90
       50
102
RTVSPost2010PropOp48
 70
     1
102
RTVSPost2010Prop49
280
     0
102
RTVSPost2010PropOp49
 70
     1
102
RTVSPost2010Prop50
 90
       50
102
RTVSPost2010PropOp50
 70
     1
102
RTVSPost2010Prop51ColorIndex
 90
      256
102
RTVSPost2010Prop51ColorRGB
 90
-16777216
102
RTVSPost2010PropOp51
 70
     0
102
RTVSPost2010Prop52
140
1.0
102
RTVSPost2010PropOp52
 70
     0
102
RTVSPost2010Prop53
 90
        2
102
RTVSPost2010PropOp53
 70
     1
102
RTVSPost2010Prop54
  1
strokes_ogs.tif
102
RTVSPost2010PropOp54
 70
     1
102
RTVSPost2010Prop55
280
     0
102
RTVSPost2010PropOp55
 70
     1
102
RTVSPost2010Prop56
140
1.0
102
RTVSPost2010PropOp56
 70
     1
102
RTVSPost2010Prop57
140
1.0
102
RTVSPost2010PropOp57
 70
     1
102
RTVSPropertyOp0
 70
     1
102
RTVSPropertyOp1
 70
     1
102
RTVSPropertyOp2
 70
     1
102
RTVSPropertyOp3
 70
     1
102
RTVSPropertyOp4
 70
     1
102
RTVSPropertyOp5
 70
     1
102
RTVSPropertyOp6
 70
     1
102
RTVSPropertyOp7
 70
     1
102
RTVSPropertyOp8
 70
     1
102
RTVSPropertyOp9
 70
     1
102
RTVSPropertyOp10
 70
     1
102
RTVSPropertyOp11
 70
     1
102
RTVSPropertyOp12
 70
     1
102
RTVSPropertyOp13
 70
     1
102
RTVSPropertyOp14
 70
     1
102
RTVSPropertyOp15
 70
     1
102
RTVSPropertyOp16
 70
     1
102
RTVSPropertyOp17
 70
     1
102
RTVSPropertyOp18
 70
     1
102
RTVSPropertyOp19
 70
     1
102
RTVSPropertyOp20
 70
     1
102
RTVSPropertyOp21
 70
     1
102
RTVSPropertyOp22
 70
     1
102
RTVSPropertyOp23
 70
     1
102
RTVSPropertyOp24
 70
     1
102
RTVSPropertyOp25
 70
     1
102
RTVSPropertyOp26
 70
     1
102
RTVSPropertyOp27
 70
     1
102
RTVSPropertyOp28
 70
     1
102
RTVSPropertyOp29
 70
     1
102
RTVSPropertyOp30
 70
     1
102
RTVSPropertyOp31
 70
     1
102
RTVSPropertyOp32
 70
     1
102
RTVSPropertyOp33
 70
     1
102
RTVSPropertyOp34
 70
     1
102
RTVSPropertyOp35
 70
     1
102
RTVSPropertyOp36
 70
     1
102
RTVSPropertyOp37
 70
     1
102
RTVSPropertyOp38
 70
     1
102
RTVSPropertyOp39
 70
     1
102
RTVSPropertyOp40
 70
     1
102
RTVSPropertyOp41
 70
     1
102
RTVSPropertyOp42
 70
     1
102
RTVSPropertyOp43
 70
     1
102
RTVSPropertyOp44
 70
     1
102
RTVSPropertyOp45
 70
     1
102
RTVSPropertyOp46
 70
     1
102
RTVSPropertyOp47
 70
     1
102
RTVSPropertyOp48
 70
     1
102
RTVSPropertyOp49
 70
     1
102
RTVSPropertyOp50
 70
     1
102
RTVSPropertyOp51
 70
     0
102
RTVSPropertyOp52
 70
     0
102
RTVSPropertyOp53
 70
     1
102
RTVSPropertyOp54
 70
     1
102
RTVSPropertyOp55
 70
     1
102
RTVSPropertyOp56
 70
     1
102
RTVSPropertyOp57
 70
     1
102
RTVSPropertyOp58
 70
     1
102
RTVSPropertyOp59
 70
     1
102
RTVSPropertyOp60
 70
     1
102
RTVSPropertyOp61
 70
     1
102
RTVSPropertyOp62
 70
     1
  0
XRECORD
  5
ACC0
102
{ACAD_REACTORS
330
ACBF
102
}
330
ACBF
100
AcDbXrecord
280
     1
102
RTVSPost2010Prop28
280
     0
102
RTVSPost2010PropOp28
 70
     1
102
RTVSPost2010Prop29
280
     1
102
RTVSPost2010PropOp29
 70
     1
102
RTVSPost2010Prop30
280
     1
102
RTVSPost2010PropOp30
 70
     1
102
RTVSPost2010Prop31
280
     0
102
RTVSPost2010PropOp31
 70
     1
102
RTVSPost2010Prop32
280
     0
102
RTVSPost2010PropOp32
 70
     1
102
RTVSPost2010Prop33
280
     0
102
RTVSPost2010PropOp33
 70
     1
102
RTVSPost2010Prop34
280
     0
102
RTVSPost2010PropOp34
 70
     1
102
RTVSPost2010Prop35
280
     0
102
RTVSPost2010PropOp35
 70
     1
102
RTVSPost2010Prop36
280
     0
102
RTVSPost2010PropOp36
 70
     1
102
RTVSPost2010Prop37
 90
       50
102
RTVSPost2010PropOp37
 70
     1
102
RTVSPost2010Prop38
140
0.0
102
RTVSPost2010PropOp38
 70
     1
102
RTVSPost2010Prop39
140
1.0
102
RTVSPost2010PropOp39
 70
     1
102
RTVSPost2010Prop40
 90
        0
102
RTVSPost2010PropOp40
 70
     1
102
RTVSPost2010Prop41ColorIndex
 90
       18
102
RTVSPost2010Prop41ColorRGB
 90
        0
102
RTVSPost2010PropOp41
 70
     1
102
RTVSPost2010Prop42
 90
       50
102
RTVSPost2010PropOp42
 70
     1
102
RTVSPost2010Prop43
 90
        3
102
RTVSPost2010PropOp43
 70
     1
102
RTVSPost2010Prop44ColorIndex
 90
        5
102
RTVSPost2010Prop44ColorRGB
 90
      255
102
RTVSPost2010PropOp44
 70
     1
102
RTVSPost2010Prop45
280
     0
102
RTVSPost2010PropOp45
 70
     1
102
RTVSPost2010Prop46
 90
       50
102
RTVSPost2010PropOp46
 70
     1
102
RTVSPost2010Prop47
 90
       50
102
RTVSPost2010PropOp47
 70
     1
102
RTVSPost2010Prop48
 90
       50
102
RTVSPost2010PropOp48
 70
     1
102
RTVSPost2010Prop49
280
     0
102
RTVSPost2010PropOp49
 70
     1
102
RTVSPost2010Prop50
 90
       50
102
RTVSPost2010PropOp50
 70
     1
102
RTVSPost2010Prop51ColorIndex
 90
      256
102
RTVSPost2010Prop51ColorRGB
 90
-16777216
102
RTVSPost2010PropOp51
 70
     0
102
RTVSPost2010Prop52
140
1.0
102
RTVSPost2010PropOp52
 70
     0
102
RTVSPost2010Prop53
 90
        2
102
RTVSPost2010PropOp53
 70
     1
102
RTVSPost2010Prop54
  1
strokes_ogs.tif
102
RTVSPost2010PropOp54
 70
     1
102
RTVSPost2010Prop55
280
     0
102
RTVSPost2010PropOp55
 70
     1
102
RTVSPost2010Prop56
140
1.0
102
RTVSPost2010PropOp56
 70
     1
102
RTVSPost2010Prop57
140
1.0
102
RTVSPost2010PropOp57
 70
     1
102
RTVSPropertyOp0
 70
     1
102
RTVSPropertyOp1
 70
     1
102
RTVSPropertyOp2
 70
     1
102
RTVSPropertyOp3
 70
     1
102
RTVSPropertyOp4
 70
     1
102
RTVSPropertyOp5
 70
     1
102
RTVSPropertyOp6
 70
     1
102
RTVSPropertyOp7
 70
     1
102
RTVSPropertyOp8
 70
     1
102
RTVSPropertyOp9
 70
     1
102
RTVSPropertyOp10
 70
     1
102
RTVSPropertyOp11
 70
     1
102
RTVSPropertyOp12
 70
     1
102
RTVSPropertyOp13
 70
     1
102
RTVSPropertyOp14
 70
     1
102
RTVSPropertyOp15
 70
     1
102
RTVSPropertyOp16
 70
     1
102
RTVSPropertyOp17
 70
     1
102
RTVSPropertyOp18
 70
     1
102
RTVSPropertyOp19
 70
     1
102
RTVSPropertyOp20
 70
     1
102
RTVSPropertyOp21
 70
     1
102
RTVSPropertyOp22
 70
     1
102
RTVSPropertyOp23
 70
     1
102
RTVSPropertyOp24
 70
     1
102
RTVSPropertyOp25
 70
     1
102
RTVSPropertyOp26
 70
     1
102
RTVSPropertyOp27
 70
     1
102
RTVSPropertyOp28
 70
     1
102
RTVSPropertyOp29
 70
     1
102
RTVSPropertyOp30
 70
     1
102
RTVSPropertyOp31
 70
     1
102
RTVSPropertyOp32
 70
     1
102
RTVSPropertyOp33
 70
     1
102
RTVSPropertyOp34
 70
     1
102
RTVSPropertyOp35
 70
     1
102
RTVSPropertyOp36
 70
     1
102
RTVSPropertyOp37
 70
     1
102
RTVSPropertyOp38
 70
     1
102
RTVSPropertyOp39
 70
     1
102
RTVSPropertyOp40
 70
     1
102
RTVSPropertyOp41
 70
     1
102
RTVSPropertyOp42
 70
     1
102
RTVSPropertyOp43
 70
     1
102
RTVSPropertyOp44
 70
     1
102
RTVSPropertyOp45
 70
     1
102
RTVSPropertyOp46
 70
     1
102
RTVSPropertyOp47
 70
     1
102
RTVSPropertyOp48
 70
     1
102
RTVSPropertyOp49
 70
     1
102
RTVSPropertyOp50
 70
     1
102
RTVSPropertyOp51
 70
     0
102
RTVSPropertyOp52
 70
     0
102
RTVSPropertyOp53
 70
     1
102
RTVSPropertyOp54
 70
     1
102
RTVSPropertyOp55
 70
     1
102
RTVSPropertyOp56
 70
     1
102
RTVSPropertyOp57
 70
     1
102
RTVSPropertyOp58
 70
     1
102
RTVSPropertyOp59
 70
     1
102
RTVSPropertyOp60
 70
     1
102
RTVSPropertyOp61
 70
     1
102
RTVSPropertyOp62
 70
     1
  0
XRECORD
  5
ACC4
102
{ACAD_REACTORS
330
ACC3
102
}
330
ACC3
100
AcDbXrecord
280
     1
102
RTVSPost2010Prop28
280
     0
102
RTVSPost2010PropOp28
 70
     1
102
RTVSPost2010Prop29
280
     1
102
RTVSPost2010PropOp29
 70
     1
102
RTVSPost2010Prop30
280
     1
102
RTVSPost2010PropOp30
 70
     1
102
RTVSPost2010Prop31
280
     0
102
RTVSPost2010PropOp31
 70
     1
102
RTVSPost2010Prop32
280
     0
102
RTVSPost2010PropOp32
 70
     1
102
RTVSPost2010Prop33
280
     0
102
RTVSPost2010PropOp33
 70
     1
102
RTVSPost2010Prop34
280
     0
102
RTVSPost2010PropOp34
 70
     1
102
RTVSPost2010Prop35
280
     0
102
RTVSPost2010PropOp35
 70
     1
102
RTVSPost2010Prop36
280
     0
102
RTVSPost2010PropOp36
 70
     1
102
RTVSPost2010Prop37
 90
       50
102
RTVSPost2010PropOp37
 70
     1
102
RTVSPost2010Prop38
140
0.0
102
RTVSPost2010PropOp38
 70
     1
102
RTVSPost2010Prop39
140
1.0
102
RTVSPost2010PropOp39
 70
     1
102
RTVSPost2010Prop40
 90
        0
102
RTVSPost2010PropOp40
 70
     1
102
RTVSPost2010Prop41ColorIndex
 90
       18
102
RTVSPost2010Prop41ColorRGB
 90
        0
102
RTVSPost2010PropOp41
 70
     1
102
RTVSPost2010Prop42
 90
       50
102
RTVSPost2010PropOp42
 70
     1
102
RTVSPost2010Prop43
 90
        3
102
RTVSPost2010PropOp43
 70
     1
102
RTVSPost2010Prop44ColorIndex
 90
        5
102
RTVSPost2010Prop44ColorRGB
 90
      255
102
RTVSPost2010PropOp44
 70
     1
102
RTVSPost2010Prop45
280
     0
102
RTVSPost2010PropOp45
 70
     1
102
RTVSPost2010Prop46
 90
       50
102
RTVSPost2010PropOp46
 70
     1
102
RTVSPost2010Prop47
 90
       50
102
RTVSPost2010PropOp47
 70
     1
102
RTVSPost2010Prop48
 90
       50
102
RTVSPost2010PropOp48
 70
     1
102
RTVSPost2010Prop49
280
     0
102
RTVSPost2010PropOp49
 70
     1
102
RTVSPost2010Prop50
 90
       50
102
RTVSPost2010PropOp50
 70
     1
102
RTVSPost2010Prop51ColorIndex
 90
      256
102
RTVSPost2010Prop51ColorRGB
 90
-16777216
102
RTVSPost2010PropOp51
 70
     0
102
RTVSPost2010Prop52
140
1.0
102
RTVSPost2010PropOp52
 70
     0
102
RTVSPost2010Prop53
 90
        2
102
RTVSPost2010PropOp53
 70
     1
102
RTVSPost2010Prop54
  1
strokes_ogs.tif
102
RTVSPost2010PropOp54
 70
     1
102
RTVSPost2010Prop55
280
     0
102
RTVSPost2010PropOp55
 70
     1
102
RTVSPost2010Prop56
140
1.0
102
RTVSPost2010PropOp56
 70
     1
102
RTVSPost2010Prop57
140
1.0
102
RTVSPost2010PropOp57
 70
     1
102
RTVSPropertyOp0
 70
     1
102
RTVSPropertyOp1
 70
     1
102
RTVSPropertyOp2
 70
     1
102
RTVSPropertyOp3
 70
     1
102
RTVSPropertyOp4
 70
     1
102
RTVSPropertyOp5
 70
     1
102
RTVSPropertyOp6
 70
     1
102
RTVSPropertyOp7
 70
     1
102
RTVSPropertyOp8
 70
     1
102
RTVSPropertyOp9
 70
     1
102
RTVSPropertyOp10
 70
     1
102
RTVSPropertyOp11
 70
     1
102
RTVSPropertyOp12
 70
     1
102
RTVSPropertyOp13
 70
     1
102
RTVSPropertyOp14
 70
     1
102
RTVSPropertyOp15
 70
     1
102
RTVSPropertyOp16
 70
     1
102
RTVSPropertyOp17
 70
     1
102
RTVSPropertyOp18
 70
     1
102
RTVSPropertyOp19
 70
     1
102
RTVSPropertyOp20
 70
     1
102
RTVSPropertyOp21
 70
     1
102
RTVSPropertyOp22
 70
     1
102
RTVSPropertyOp23
 70
     1
102
RTVSPropertyOp24
 70
     1
102
RTVSPropertyOp25
 70
     1
102
RTVSPropertyOp26
 70
     1
102
RTVSPropertyOp27
 70
     1
102
RTVSPropertyOp28
 70
     1
102
RTVSPropertyOp29
 70
     1
102
RTVSPropertyOp30
 70
     1
102
RTVSPropertyOp31
 70
     1
102
RTVSPropertyOp32
 70
     1
102
RTVSPropertyOp33
 70
     1
102
RTVSPropertyOp34
 70
     1
102
RTVSPropertyOp35
 70
     1
102
RTVSPropertyOp36
 70
     1
102
RTVSPropertyOp37
 70
     1
102
RTVSPropertyOp38
 70
     1
102
RTVSPropertyOp39
 70
     1
102
RTVSPropertyOp40
 70
     1
102
RTVSPropertyOp41
 70
     1
102
RTVSPropertyOp42
 70
     1
102
RTVSPropertyOp43
 70
     1
102
RTVSPropertyOp44
 70
     1
102
RTVSPropertyOp45
 70
     1
102
RTVSPropertyOp46
 70
     1
102
RTVSPropertyOp47
 70
     1
102
RTVSPropertyOp48
 70
     1
102
RTVSPropertyOp49
 70
     1
102
RTVSPropertyOp50
 70
     1
102
RTVSPropertyOp51
 70
     0
102
RTVSPropertyOp52
 70
     0
102
RTVSPropertyOp53
 70
     1
102
RTVSPropertyOp54
 70
     1
102
RTVSPropertyOp55
 70
     1
102
RTVSPropertyOp56
 70
     1
102
RTVSPropertyOp57
 70
     1
102
RTVSPropertyOp58
 70
     1
102
RTVSPropertyOp59
 70
     1
102
RTVSPropertyOp60
 70
     1
102
RTVSPropertyOp61
 70
     1
102
RTVSPropertyOp62
 70
     1
  0
XRECORD
  5
ACDE
102
{ACAD_REACTORS
330
ACDD
102
}
330
ACDD
100
AcDbXrecord
280
     1
102
RTVSPost2010Prop28
280
     0
102
RTVSPost2010PropOp28
 70
     1
102
RTVSPost2010Prop29
280
     1
102
RTVSPost2010PropOp29
 70
     1
102
RTVSPost2010Prop30
280
     1
102
RTVSPost2010PropOp30
 70
     1
102
RTVSPost2010Prop31
280
     0
102
RTVSPost2010PropOp31
 70
     1
102
RTVSPost2010Prop32
280
     0
102
RTVSPost2010PropOp32
 70
     1
102
RTVSPost2010Prop33
280
     0
102
RTVSPost2010PropOp33
 70
     1
102
RTVSPost2010Prop34
280
     0
102
RTVSPost2010PropOp34
 70
     1
102
RTVSPost2010Prop35
280
     0
102
RTVSPost2010PropOp35
 70
     1
102
RTVSPost2010Prop36
280
     0
102
RTVSPost2010PropOp36
 70
     1
102
RTVSPost2010Prop37
 90
       50
102
RTVSPost2010PropOp37
 70
     0
102
RTVSPost2010Prop38
140
0.0
102
RTVSPost2010PropOp38
 70
     0
102
RTVSPost2010Prop39
140
1.0
102
RTVSPost2010PropOp39
 70
     0
102
RTVSPost2010Prop40
 90
        0
102
RTVSPost2010PropOp40
 70
     0
102
RTVSPost2010Prop41ColorIndex
 90
       18
102
RTVSPost2010Prop41ColorRGB
 90
        0
102
RTVSPost2010PropOp41
 70
     0
102
RTVSPost2010Prop42
 90
       50
102
RTVSPost2010PropOp42
 70
     0
102
RTVSPost2010Prop43
 90
        3
102
RTVSPost2010PropOp43
 70
     0
102
RTVSPost2010Prop44ColorIndex
 90
        5
102
RTVSPost2010Prop44ColorRGB
 90
      255
102
RTVSPost2010PropOp44
 70
     0
102
RTVSPost2010Prop45
280
     0
102
RTVSPost2010PropOp45
 70
     1
102
RTVSPost2010Prop46
 90
       50
102
RTVSPost2010PropOp46
 70
     0
102
RTVSPost2010Prop47
 90
       50
102
RTVSPost2010PropOp47
 70
     0
102
RTVSPost2010Prop48
 90
       50
102
RTVSPost2010PropOp48
 70
     0
102
RTVSPost2010Prop49
280
     0
102
RTVSPost2010PropOp49
 70
     1
102
RTVSPost2010Prop50
 90
       50
102
RTVSPost2010PropOp50
 70
     0
102
RTVSPost2010Prop51ColorIndex
 90
      256
102
RTVSPost2010Prop51ColorRGB
 90
-16777216
102
RTVSPost2010PropOp51
 70
     0
102
RTVSPost2010Prop52
140
1.0
102
RTVSPost2010PropOp52
 70
     0
102
RTVSPost2010Prop53
 90
        2
102
RTVSPost2010PropOp53
 70
     0
102
RTVSPost2010Prop54
  1
strokes_ogs.tif
102
RTVSPost2010PropOp54
 70
     0
102
RTVSPost2010Prop55
280
     0
102
RTVSPost2010PropOp55
 70
     1
102
RTVSPost2010Prop56
140
1.0
102
RTVSPost2010PropOp56
 70
     0
102
RTVSPost2010Prop57
140
1.0
102
RTVSPost2010PropOp57
 70
     0
102
RTVSPropertyOp0
 70
     0
102
RTVSPropertyOp1
 70
     0
102
RTVSPropertyOp2
 70
     0
102
RTVSPropertyOp3
 70
     0
102
RTVSPropertyOp4
 70
     0
102
RTVSPropertyOp5
 70
     0
102
RTVSPropertyOp6
 70
     0
102
RTVSPropertyOp7
 70
     0
102
RTVSPropertyOp8
 70
     0
102
RTVSPropertyOp9
 70
     0
102
RTVSPropertyOp10
 70
     0
102
RTVSPropertyOp11
 70
     0
102
RTVSPropertyOp12
 70
     0
102
RTVSPropertyOp13
 70
     0
102
RTVSPropertyOp14
 70
     2
102
RTVSPropertyOp15
 70
     0
102
RTVSPropertyOp16
 70
     0
102
RTVSPropertyOp17
 70
     0
102
RTVSPropertyOp18
 70
     0
102
RTVSPropertyOp19
 70
     0
102
RTVSPropertyOp20
 70
     0
102
RTVSPropertyOp21
 70
     0
102
RTVSPropertyOp22
 70
     0
102
RTVSPropertyOp23
 70
     0
102
RTVSPropertyOp24
 70
     0
102
RTVSPropertyOp25
 70
     0
102
RTVSPropertyOp26
 70
     0
102
RTVSPropertyOp27
 70
     0
102
RTVSPropertyOp28
 70
     1
102
RTVSPropertyOp29
 70
     1
102
RTVSPropertyOp30
 70
     1
102
RTVSPropertyOp31
 70
     1
102
RTVSPropertyOp32
 70
     1
102
RTVSPropertyOp33
 70
     1
102
RTVSPropertyOp34
 70
     1
102
RTVSPropertyOp35
 70
     1
102
RTVSPropertyOp36
 70
     1
102
RTVSPropertyOp37
 70
     0
102
RTVSPropertyOp38
 70
     0
102
RTVSPropertyOp39
 70
     0
102
RTVSPropertyOp40
 70
     0
102
RTVSPropertyOp41
 70
     0
102
RTVSPropertyOp42
 70
     0
102
RTVSPropertyOp43
 70
     0
102
RTVSPropertyOp44
 70
     0
102
RTVSPropertyOp45
 70
     1
102
RTVSPropertyOp46
 70
     0
102
RTVSPropertyOp47
 70
     0
102
RTVSPropertyOp48
 70
     0
102
RTVSPropertyOp49
 70
     1
102
RTVSPropertyOp50
 70
     0
102
RTVSPropertyOp51
 70
     0
102
RTVSPropertyOp52
 70
     0
102
RTVSPropertyOp53
 70
     0
102
RTVSPropertyOp54
 70
     0
102
RTVSPropertyOp55
 70
     1
102
RTVSPropertyOp56
 70
     0
102
RTVSPropertyOp57
 70
     0
102
RTVSPropertyOp58
 70
     0
102
RTVSPropertyOp59
 70
     0
102
RTVSPropertyOp60
 70
     0
102
RTVSPropertyOp61
 70
     0
102
RTVSPropertyOp62
 70
     0
  0
XRECORD
  5
ACCC
102
{ACAD_REACTORS
330
ACCB
102
}
330
ACCB
100
AcDbXrecord
280
     1
102
RTVSPost2010Prop28
280
     0
102
RTVSPost2010PropOp28
 70
     1
102
RTVSPost2010Prop29
280
     1
102
RTVSPost2010PropOp29
 70
     1
102
RTVSPost2010Prop30
280
     1
102
RTVSPost2010PropOp30
 70
     1
102
RTVSPost2010Prop31
280
     0
102
RTVSPost2010PropOp31
 70
     1
102
RTVSPost2010Prop32
280
     0
102
RTVSPost2010PropOp32
 70
     1
102
RTVSPost2010Prop33
280
     0
102
RTVSPost2010PropOp33
 70
     1
102
RTVSPost2010Prop34
280
     0
102
RTVSPost2010PropOp34
 70
     1
102
RTVSPost2010Prop35
280
     0
102
RTVSPost2010PropOp35
 70
     1
102
RTVSPost2010Prop36
280
     0
102
RTVSPost2010PropOp36
 70
     1
102
RTVSPost2010Prop37
 90
       50
102
RTVSPost2010PropOp37
 70
     1
102
RTVSPost2010Prop38
140
0.0
102
RTVSPost2010PropOp38
 70
     1
102
RTVSPost2010Prop39
140
1.0
102
RTVSPost2010PropOp39
 70
     1
102
RTVSPost2010Prop40
 90
        0
102
RTVSPost2010PropOp40
 70
     1
102
RTVSPost2010Prop41ColorIndex
 90
       18
102
RTVSPost2010Prop41ColorRGB
 90
        0
102
RTVSPost2010PropOp41
 70
     1
102
RTVSPost2010Prop42
 90
       50
102
RTVSPost2010PropOp42
 70
     1
102
RTVSPost2010Prop43
 90
        3
102
RTVSPost2010PropOp43
 70
     1
102
RTVSPost2010Prop44ColorIndex
 90
        5
102
RTVSPost2010Prop44ColorRGB
 90
      255
102
RTVSPost2010PropOp44
 70
     1
102
RTVSPost2010Prop45
280
     0
102
RTVSPost2010PropOp45
 70
     1
102
RTVSPost2010Prop46
 90
       50
102
RTVSPost2010PropOp46
 70
     1
102
RTVSPost2010Prop47
 90
       50
102
RTVSPost2010PropOp47
 70
     1
102
RTVSPost2010Prop48
 90
       50
102
RTVSPost2010PropOp48
 70
     1
102
RTVSPost2010Prop49
280
     0
102
RTVSPost2010PropOp49
 70
     1
102
RTVSPost2010Prop50
 90
       50
102
RTVSPost2010PropOp50
 70
     1
102
RTVSPost2010Prop51ColorIndex
 90
      256
102
RTVSPost2010Prop51ColorRGB
 90
-16777216
102
RTVSPost2010PropOp51
 70
     0
102
RTVSPost2010Prop52
140
1.0
102
RTVSPost2010PropOp52
 70
     0
102
RTVSPost2010Prop53
 90
        2
102
RTVSPost2010PropOp53
 70
     1
102
RTVSPost2010Prop54
  1
strokes_ogs.tif
102
RTVSPost2010PropOp54
 70
     1
102
RTVSPost2010Prop55
280
     0
102
RTVSPost2010PropOp55
 70
     1
102
RTVSPost2010Prop56
140
1.0
102
RTVSPost2010PropOp56
 70
     1
102
RTVSPost2010Prop57
140
1.0
102
RTVSPost2010PropOp57
 70
     1
102
RTVSPropertyOp0
 70
     1
102
RTVSPropertyOp1
 70
     1
102
RTVSPropertyOp2
 70
     1
102
RTVSPropertyOp3
 70
     1
102
RTVSPropertyOp4
 70
     1
102
RTVSPropertyOp5
 70
     1
102
RTVSPropertyOp6
 70
     1
102
RTVSPropertyOp7
 70
     1
102
RTVSPropertyOp8
 70
     1
102
RTVSPropertyOp9
 70
     1
102
RTVSPropertyOp10
 70
     1
102
RTVSPropertyOp11
 70
     1
102
RTVSPropertyOp12
 70
     1
102
RTVSPropertyOp13
 70
     1
102
RTVSPropertyOp14
 70
     1
102
RTVSPropertyOp15
 70
     1
102
RTVSPropertyOp16
 70
     1
102
RTVSPropertyOp17
 70
     1
102
RTVSPropertyOp18
 70
     1
102
RTVSPropertyOp19
 70
     1
102
RTVSPropertyOp20
 70
     1
102
RTVSPropertyOp21
 70
     1
102
RTVSPropertyOp22
 70
     1
102
RTVSPropertyOp23
 70
     1
102
RTVSPropertyOp24
 70
     1
102
RTVSPropertyOp25
 70
     1
102
RTVSPropertyOp26
 70
     1
102
RTVSPropertyOp27
 70
     1
102
RTVSPropertyOp28
 70
     1
102
RTVSPropertyOp29
 70
     1
102
RTVSPropertyOp30
 70
     1
102
RTVSPropertyOp31
 70
     1
102
RTVSPropertyOp32
 70
     1
102
RTVSPropertyOp33
 70
     1
102
RTVSPropertyOp34
 70
     1
102
RTVSPropertyOp35
 70
     1
102
RTVSPropertyOp36
 70
     1
102
RTVSPropertyOp37
 70
     1
102
RTVSPropertyOp38
 70
     1
102
RTVSPropertyOp39
 70
     1
102
RTVSPropertyOp40
 70
     1
102
RTVSPropertyOp41
 70
     1
102
RTVSPropertyOp42
 70
     1
102
RTVSPropertyOp43
 70
     1
102
RTVSPropertyOp44
 70
     1
102
RTVSPropertyOp45
 70
     1
102
RTVSPropertyOp46
 70
     1
102
RTVSPropertyOp47
 70
     1
102
RTVSPropertyOp48
 70
     1
102
RTVSPropertyOp49
 70
     1
102
RTVSPropertyOp50
 70
     1
102
RTVSPropertyOp51
 70
     0
102
RTVSPropertyOp52
 70
     0
102
RTVSPropertyOp53
 70
     1
102
RTVSPropertyOp54
 70
     1
102
RTVSPropertyOp55
 70
     1
102
RTVSPropertyOp56
 70
     1
102
RTVSPropertyOp57
 70
     1
102
RTVSPropertyOp58
 70
     1
102
RTVSPropertyOp59
 70
     1
102
RTVSPropertyOp60
 70
     1
102
RTVSPropertyOp61
 70
     1
102
RTVSPropertyOp62
 70
     1
  0
XRECORD
  5
ACB0
102
{ACAD_REACTORS
330
ACAF
102
}
330
ACAF
100
AcDbXrecord
280
     1
102
RTVSPost2010Prop28
280
     0
102
RTVSPost2010PropOp28
 70
     1
102
RTVSPost2010Prop29
280
     1
102
RTVSPost2010PropOp29
 70
     1
102
RTVSPost2010Prop30
280
     1
102
RTVSPost2010PropOp30
 70
     1
102
RTVSPost2010Prop31
280
     0
102
RTVSPost2010PropOp31
 70
     1
102
RTVSPost2010Prop32
280
     0
102
RTVSPost2010PropOp32
 70
     1
102
RTVSPost2010Prop33
280
     0
102
RTVSPost2010PropOp33
 70
     1
102
RTVSPost2010Prop34
280
     0
102
RTVSPost2010PropOp34
 70
     1
102
RTVSPost2010Prop35
280
     0
102
RTVSPost2010PropOp35
 70
     1
102
RTVSPost2010Prop36
280
     0
102
RTVSPost2010PropOp36
 70
     1
102
RTVSPost2010Prop37
 90
       50
102
RTVSPost2010PropOp37
 70
     1
102
RTVSPost2010Prop38
140
0.0
102
RTVSPost2010PropOp38
 70
     1
102
RTVSPost2010Prop39
140
1.0
102
RTVSPost2010PropOp39
 70
     1
102
RTVSPost2010Prop40
 90
        0
102
RTVSPost2010PropOp40
 70
     1
102
RTVSPost2010Prop41ColorIndex
 90
       18
102
RTVSPost2010Prop41ColorRGB
 90
        0
102
RTVSPost2010PropOp41
 70
     1
102
RTVSPost2010Prop42
 90
       50
102
RTVSPost2010PropOp42
 70
     1
102
RTVSPost2010Prop43
 90
        3
102
RTVSPost2010PropOp43
 70
     1
102
RTVSPost2010Prop44ColorIndex
 90
        5
102
RTVSPost2010Prop44ColorRGB
 90
      255
102
RTVSPost2010PropOp44
 70
     1
102
RTVSPost2010Prop45
280
     0
102
RTVSPost2010PropOp45
 70
     1
102
RTVSPost2010Prop46
 90
       50
102
RTVSPost2010PropOp46
 70
     1
102
RTVSPost2010Prop47
 90
       50
102
RTVSPost2010PropOp47
 70
     1
102
RTVSPost2010Prop48
 90
       50
102
RTVSPost2010PropOp48
 70
     1
102
RTVSPost2010Prop49
280
     0
102
RTVSPost2010PropOp49
 70
     1
102
RTVSPost2010Prop50
 90
       50
102
RTVSPost2010PropOp50
 70
     1
102
RTVSPost2010Prop51ColorIndex
 90
      256
102
RTVSPost2010Prop51ColorRGB
 90
-16777216
102
RTVSPost2010PropOp51
 70
     0
102
RTVSPost2010Prop52
140
1.0
102
RTVSPost2010PropOp52
 70
     0
102
RTVSPost2010Prop53
 90
        2
102
RTVSPost2010PropOp53
 70
     1
102
RTVSPost2010Prop54
  1
strokes_ogs.tif
102
RTVSPost2010PropOp54
 70
     1
102
RTVSPost2010Prop55
280
     0
102
RTVSPost2010PropOp55
 70
     1
102
RTVSPost2010Prop56
140
1.0
102
RTVSPost2010PropOp56
 70
     1
102
RTVSPost2010Prop57
140
1.0
102
RTVSPost2010PropOp57
 70
     1
102
RTVSPropertyOp0
 70
     1
102
RTVSPropertyOp1
 70
     1
102
RTVSPropertyOp2
 70
     1
102
RTVSPropertyOp3
 70
     1
102
RTVSPropertyOp4
 70
     1
102
RTVSPropertyOp5
 70
     1
102
RTVSPropertyOp6
 70
     1
102
RTVSPropertyOp7
 70
     1
102
RTVSPropertyOp8
 70
     1
102
RTVSPropertyOp9
 70
     1
102
RTVSPropertyOp10
 70
     1
102
RTVSPropertyOp11
 70
     1
102
RTVSPropertyOp12
 70
     1
102
RTVSPropertyOp13
 70
     1
102
RTVSPropertyOp14
 70
     1
102
RTVSPropertyOp15
 70
     1
102
RTVSPropertyOp16
 70
     1
102
RTVSPropertyOp17
 70
     1
102
RTVSPropertyOp18
 70
     1
102
RTVSPropertyOp19
 70
     1
102
RTVSPropertyOp20
 70
     1
102
RTVSPropertyOp21
 70
     1
102
RTVSPropertyOp22
 70
     1
102
RTVSPropertyOp23
 70
     1
102
RTVSPropertyOp24
 70
     1
102
RTVSPropertyOp25
 70
     1
102
RTVSPropertyOp26
 70
     1
102
RTVSPropertyOp27
 70
     1
102
RTVSPropertyOp28
 70
     1
102
RTVSPropertyOp29
 70
     1
102
RTVSPropertyOp30
 70
     1
102
RTVSPropertyOp31
 70
     1
102
RTVSPropertyOp32
 70
     1
102
RTVSPropertyOp33
 70
     1
102
RTVSPropertyOp34
 70
     1
102
RTVSPropertyOp35
 70
     1
102
RTVSPropertyOp36
 70
     1
102
RTVSPropertyOp37
 70
     1
102
RTVSPropertyOp38
 70
     1
102
RTVSPropertyOp39
 70
     1
102
RTVSPropertyOp40
 70
     1
102
RTVSPropertyOp41
 70
     1
102
RTVSPropertyOp42
 70
     1
102
RTVSPropertyOp43
 70
     1
102
RTVSPropertyOp44
 70
     1
102
RTVSPropertyOp45
 70
     1
102
RTVSPropertyOp46
 70
     1
102
RTVSPropertyOp47
 70
     1
102
RTVSPropertyOp48
 70
     1
102
RTVSPropertyOp49
 70
     1
102
RTVSPropertyOp50
 70
     1
102
RTVSPropertyOp51
 70
     0
102
RTVSPropertyOp52
 70
     0
102
RTVSPropertyOp53
 70
     1
102
RTVSPropertyOp54
 70
     1
102
RTVSPropertyOp55
 70
     1
102
RTVSPropertyOp56
 70
     1
102
RTVSPropertyOp57
 70
     1
102
RTVSPropertyOp58
 70
     1
102
RTVSPropertyOp59
 70
     1
102
RTVSPropertyOp60
 70
     1
102
RTVSPropertyOp61
 70
     1
102
RTVSPropertyOp62
 70
     1
  0
XRECORD
  5
ACB2
102
{ACAD_REACTORS
330
ACB1
102
}
330
ACB1
100
AcDbXrecord
280
     1
102
RTVSPost2010Prop28
280
     0
102
RTVSPost2010PropOp28
 70
     1
102
RTVSPost2010Prop29
280
     1
102
RTVSPost2010PropOp29
 70
     1
102
RTVSPost2010Prop30
280
     1
102
RTVSPost2010PropOp30
 70
     1
102
RTVSPost2010Prop31
280
     0
102
RTVSPost2010PropOp31
 70
     1
102
RTVSPost2010Prop32
280
     0
102
RTVSPost2010PropOp32
 70
     1
102
RTVSPost2010Prop33
280
     0
102
RTVSPost2010PropOp33
 70
     1
102
RTVSPost2010Prop34
280
     0
102
RTVSPost2010PropOp34
 70
     1
102
RTVSPost2010Prop35
280
     0
102
RTVSPost2010PropOp35
 70
     1
102
RTVSPost2010Prop36
280
     0
102
RTVSPost2010PropOp36
 70
     1
102
RTVSPost2010Prop37
 90
       50
102
RTVSPost2010PropOp37
 70
     1
102
RTVSPost2010Prop38
140
0.0
102
RTVSPost2010PropOp38
 70
     1
102
RTVSPost2010Prop39
140
1.0
102
RTVSPost2010PropOp39
 70
     1
102
RTVSPost2010Prop40
 90
        0
102
RTVSPost2010PropOp40
 70
     1
102
RTVSPost2010Prop41ColorIndex
 90
       18
102
RTVSPost2010Prop41ColorRGB
 90
        0
102
RTVSPost2010PropOp41
 70
     1
102
RTVSPost2010Prop42
 90
       50
102
RTVSPost2010PropOp42
 70
     1
102
RTVSPost2010Prop43
 90
        3
102
RTVSPost2010PropOp43
 70
     1
102
RTVSPost2010Prop44ColorIndex
 90
        5
102
RTVSPost2010Prop44ColorRGB
 90
      255
102
RTVSPost2010PropOp44
 70
     1
102
RTVSPost2010Prop45
280
     0
102
RTVSPost2010PropOp45
 70
     1
102
RTVSPost2010Prop46
 90
       50
102
RTVSPost2010PropOp46
 70
     1
102
RTVSPost2010Prop47
 90
       50
102
RTVSPost2010PropOp47
 70
     1
102
RTVSPost2010Prop48
 90
       50
102
RTVSPost2010PropOp48
 70
     1
102
RTVSPost2010Prop49
280
     0
102
RTVSPost2010PropOp49
 70
     1
102
RTVSPost2010Prop50
 90
       50
102
RTVSPost2010PropOp50
 70
     1
102
RTVSPost2010Prop51ColorIndex
 90
      256
102
RTVSPost2010Prop51ColorRGB
 90
-16777216
102
RTVSPost2010PropOp51
 70
     0
102
RTVSPost2010Prop52
140
1.0
102
RTVSPost2010PropOp52
 70
     0
102
RTVSPost2010Prop53
 90
        2
102
RTVSPost2010PropOp53
 70
     1
102
RTVSPost2010Prop54
  1
strokes_ogs.tif
102
RTVSPost2010PropOp54
 70
     1
102
RTVSPost2010Prop55
280
     0
102
RTVSPost2010PropOp55
 70
     1
102
RTVSPost2010Prop56
140
1.0
102
RTVSPost2010PropOp56
 70
     1
102
RTVSPost2010Prop57
140
1.0
102
RTVSPost2010PropOp57
 70
     1
102
RTVSPropertyOp0
 70
     1
102
RTVSPropertyOp1
 70
     1
102
RTVSPropertyOp2
 70
     1
102
RTVSPropertyOp3
 70
     1
102
RTVSPropertyOp4
 70
     1
102
RTVSPropertyOp5
 70
     1
102
RTVSPropertyOp6
 70
     1
102
RTVSPropertyOp7
 70
     1
102
RTVSPropertyOp8
 70
     1
102
RTVSPropertyOp9
 70
     1
102
RTVSPropertyOp10
 70
     1
102
RTVSPropertyOp11
 70
     1
102
RTVSPropertyOp12
 70
     1
102
RTVSPropertyOp13
 70
     1
102
RTVSPropertyOp14
 70
     1
102
RTVSPropertyOp15
 70
     1
102
RTVSPropertyOp16
 70
     1
102
RTVSPropertyOp17
 70
     1
102
RTVSPropertyOp18
 70
     1
102
RTVSPropertyOp19
 70
     1
102
RTVSPropertyOp20
 70
     1
102
RTVSPropertyOp21
 70
     1
102
RTVSPropertyOp22
 70
     1
102
RTVSPropertyOp23
 70
     1
102
RTVSPropertyOp24
 70
     1
102
RTVSPropertyOp25
 70
     1
102
RTVSPropertyOp26
 70
     1
102
RTVSPropertyOp27
 70
     1
102
RTVSPropertyOp28
 70
     1
102
RTVSPropertyOp29
 70
     1
102
RTVSPropertyOp30
 70
     1
102
RTVSPropertyOp31
 70
     1
102
RTVSPropertyOp32
 70
     1
102
RTVSPropertyOp33
 70
     1
102
RTVSPropertyOp34
 70
     1
102
RTVSPropertyOp35
 70
     1
102
RTVSPropertyOp36
 70
     1
102
RTVSPropertyOp37
 70
     1
102
RTVSPropertyOp38
 70
     1
102
RTVSPropertyOp39
 70
     1
102
RTVSPropertyOp40
 70
     1
102
RTVSPropertyOp41
 70
     1
102
RTVSPropertyOp42
 70
     1
102
RTVSPropertyOp43
 70
     1
102
RTVSPropertyOp44
 70
     1
102
RTVSPropertyOp45
 70
     1
102
RTVSPropertyOp46
 70
     1
102
RTVSPropertyOp47
 70
     1
102
RTVSPropertyOp48
 70
     1
102
RTVSPropertyOp49
 70
     1
102
RTVSPropertyOp50
 70
     1
102
RTVSPropertyOp51
 70
     0
102
RTVSPropertyOp52
 70
     0
102
RTVSPropertyOp53
 70
     1
102
RTVSPropertyOp54
 70
     1
102
RTVSPropertyOp55
 70
     1
102
RTVSPropertyOp56
 70
     1
102
RTVSPropertyOp57
 70
     1
102
RTVSPropertyOp58
 70
     1
102
RTVSPropertyOp59
 70
     1
102
RTVSPropertyOp60
 70
     1
102
RTVSPropertyOp61
 70
     1
102
RTVSPropertyOp62
 70
     1
  0
XRECORD
  5
ACB4
102
{ACAD_REACTORS
330
ACB3
102
}
330
ACB3
100
AcDbXrecord
280
     1
102
RTVSPost2010Prop28
280
     0
102
RTVSPost2010PropOp28
 70
     1
102
RTVSPost2010Prop29
280
     1
102
RTVSPost2010PropOp29
 70
     1
102
RTVSPost2010Prop30
280
     1
102
RTVSPost2010PropOp30
 70
     1
102
RTVSPost2010Prop31
280
     0
102
RTVSPost2010PropOp31
 70
     1
102
RTVSPost2010Prop32
280
     0
102
RTVSPost2010PropOp32
 70
     1
102
RTVSPost2010Prop33
280
     0
102
RTVSPost2010PropOp33
 70
     1
102
RTVSPost2010Prop34
280
     0
102
RTVSPost2010PropOp34
 70
     1
102
RTVSPost2010Prop35
280
     0
102
RTVSPost2010PropOp35
 70
     1
102
RTVSPost2010Prop36
280
     0
102
RTVSPost2010PropOp36
 70
     1
102
RTVSPost2010Prop37
 90
       50
102
RTVSPost2010PropOp37
 70
     1
102
RTVSPost2010Prop38
140
0.0
102
RTVSPost2010PropOp38
 70
     1
102
RTVSPost2010Prop39
140
1.0
102
RTVSPost2010PropOp39
 70
     1
102
RTVSPost2010Prop40
 90
        0
102
RTVSPost2010PropOp40
 70
     1
102
RTVSPost2010Prop41ColorIndex
 90
       18
102
RTVSPost2010Prop41ColorRGB
 90
        0
102
RTVSPost2010PropOp41
 70
     1
102
RTVSPost2010Prop42
 90
       50
102
RTVSPost2010PropOp42
 70
     1
102
RTVSPost2010Prop43
 90
        3
102
RTVSPost2010PropOp43
 70
     1
102
RTVSPost2010Prop44ColorIndex
 90
        5
102
RTVSPost2010Prop44ColorRGB
 90
      255
102
RTVSPost2010PropOp44
 70
     1
102
RTVSPost2010Prop45
280
     0
102
RTVSPost2010PropOp45
 70
     1
102
RTVSPost2010Prop46
 90
       50
102
RTVSPost2010PropOp46
 70
     1
102
RTVSPost2010Prop47
 90
       50
102
RTVSPost2010PropOp47
 70
     1
102
RTVSPost2010Prop48
 90
       50
102
RTVSPost2010PropOp48
 70
     1
102
RTVSPost2010Prop49
280
     0
102
RTVSPost2010PropOp49
 70
     1
102
RTVSPost2010Prop50
 90
       50
102
RTVSPost2010PropOp50
 70
     1
102
RTVSPost2010Prop51ColorIndex
 90
      256
102
RTVSPost2010Prop51ColorRGB
 90
-16777216
102
RTVSPost2010PropOp51
 70
     0
102
RTVSPost2010Prop52
140
1.0
102
RTVSPost2010PropOp52
 70
     0
102
RTVSPost2010Prop53
 90
        2
102
RTVSPost2010PropOp53
 70
     1
102
RTVSPost2010Prop54
  1
strokes_ogs.tif
102
RTVSPost2010PropOp54
 70
     1
102
RTVSPost2010Prop55
280
     0
102
RTVSPost2010PropOp55
 70
     1
102
RTVSPost2010Prop56
140
1.0
102
RTVSPost2010PropOp56
 70
     1
102
RTVSPost2010Prop57
140
1.0
102
RTVSPost2010PropOp57
 70
     1
102
RTVSPropertyOp0
 70
     1
102
RTVSPropertyOp1
 70
     1
102
RTVSPropertyOp2
 70
     1
102
RTVSPropertyOp3
 70
     1
102
RTVSPropertyOp4
 70
     1
102
RTVSPropertyOp5
 70
     1
102
RTVSPropertyOp6
 70
     1
102
RTVSPropertyOp7
 70
     1
102
RTVSPropertyOp8
 70
     1
102
RTVSPropertyOp9
 70
     1
102
RTVSPropertyOp10
 70
     1
102
RTVSPropertyOp11
 70
     1
102
RTVSPropertyOp12
 70
     1
102
RTVSPropertyOp13
 70
     1
102
RTVSPropertyOp14
 70
     1
102
RTVSPropertyOp15
 70
     1
102
RTVSPropertyOp16
 70
     1
102
RTVSPropertyOp17
 70
     1
102
RTVSPropertyOp18
 70
     1
102
RTVSPropertyOp19
 70
     1
102
RTVSPropertyOp20
 70
     1
102
RTVSPropertyOp21
 70
     1
102
RTVSPropertyOp22
 70
     1
102
RTVSPropertyOp23
 70
     1
102
RTVSPropertyOp24
 70
     1
102
RTVSPropertyOp25
 70
     1
102
RTVSPropertyOp26
 70
     1
102
RTVSPropertyOp27
 70
     1
102
RTVSPropertyOp28
 70
     1
102
RTVSPropertyOp29
 70
     1
102
RTVSPropertyOp30
 70
     1
102
RTVSPropertyOp31
 70
     1
102
RTVSPropertyOp32
 70
     1
102
RTVSPropertyOp33
 70
     1
102
RTVSPropertyOp34
 70
     1
102
RTVSPropertyOp35
 70
     1
102
RTVSPropertyOp36
 70
     1
102
RTVSPropertyOp37
 70
     1
102
RTVSPropertyOp38
 70
     1
102
RTVSPropertyOp39
 70
     1
102
RTVSPropertyOp40
 70
     1
102
RTVSPropertyOp41
 70
     1
102
RTVSPropertyOp42
 70
     1
102
RTVSPropertyOp43
 70
     1
102
RTVSPropertyOp44
 70
     1
102
RTVSPropertyOp45
 70
     1
102
RTVSPropertyOp46
 70
     1
102
RTVSPropertyOp47
 70
     1
102
RTVSPropertyOp48
 70
     1
102
RTVSPropertyOp49
 70
     1
102
RTVSPropertyOp50
 70
     1
102
RTVSPropertyOp51
 70
     0
102
RTVSPropertyOp52
 70
     0
102
RTVSPropertyOp53
 70
     1
102
RTVSPropertyOp54
 70
     1
102
RTVSPropertyOp55
 70
     1
102
RTVSPropertyOp56
 70
     1
102
RTVSPropertyOp57
 70
     1
102
RTVSPropertyOp58
 70
     1
102
RTVSPropertyOp59
 70
     1
102
RTVSPropertyOp60
 70
     1
102
RTVSPropertyOp61
 70
     1
102
RTVSPropertyOp62
 70
     1
  0
XRECORD
  5
ACB6
102
{ACAD_REACTORS
330
ACB5
102
}
330
ACB5
100
AcDbXrecord
280
     1
102
RTVSPost2010Prop28
280
     0
102
RTVSPost2010PropOp28
 70
     1
102
RTVSPost2010Prop29
280
     1
102
RTVSPost2010PropOp29
 70
     1
102
RTVSPost2010Prop30
280
     1
102
RTVSPost2010PropOp30
 70
     1
102
RTVSPost2010Prop31
280
     0
102
RTVSPost2010PropOp31
 70
     1
102
RTVSPost2010Prop32
280
     0
102
RTVSPost2010PropOp32
 70
     1
102
RTVSPost2010Prop33
280
     0
102
RTVSPost2010PropOp33
 70
     1
102
RTVSPost2010Prop34
280
     0
102
RTVSPost2010PropOp34
 70
     1
102
RTVSPost2010Prop35
280
     0
102
RTVSPost2010PropOp35
 70
     1
102
RTVSPost2010Prop36
280
     0
102
RTVSPost2010PropOp36
 70
     1
102
RTVSPost2010Prop37
 90
       50
102
RTVSPost2010PropOp37
 70
     1
102
RTVSPost2010Prop38
140
0.0
102
RTVSPost2010PropOp38
 70
     1
102
RTVSPost2010Prop39
140
1.0
102
RTVSPost2010PropOp39
 70
     1
102
RTVSPost2010Prop40
 90
        0
102
RTVSPost2010PropOp40
 70
     1
102
RTVSPost2010Prop41ColorIndex
 90
       18
102
RTVSPost2010Prop41ColorRGB
 90
        0
102
RTVSPost2010PropOp41
 70
     1
102
RTVSPost2010Prop42
 90
       50
102
RTVSPost2010PropOp42
 70
     1
102
RTVSPost2010Prop43
 90
        3
102
RTVSPost2010PropOp43
 70
     1
102
RTVSPost2010Prop44ColorIndex
 90
        5
102
RTVSPost2010Prop44ColorRGB
 90
      255
102
RTVSPost2010PropOp44
 70
     1
102
RTVSPost2010Prop45
280
     0
102
RTVSPost2010PropOp45
 70
     1
102
RTVSPost2010Prop46
 90
       50
102
RTVSPost2010PropOp46
 70
     1
102
RTVSPost2010Prop47
 90
       50
102
RTVSPost2010PropOp47
 70
     1
102
RTVSPost2010Prop48
 90
       50
102
RTVSPost2010PropOp48
 70
     1
102
RTVSPost2010Prop49
280
     0
102
RTVSPost2010PropOp49
 70
     1
102
RTVSPost2010Prop50
 90
       50
102
RTVSPost2010PropOp50
 70
     1
102
RTVSPost2010Prop51ColorIndex
 90
      256
102
RTVSPost2010Prop51ColorRGB
 90
-16777216
102
RTVSPost2010PropOp51
 70
     0
102
RTVSPost2010Prop52
140
1.0
102
RTVSPost2010PropOp52
 70
     0
102
RTVSPost2010Prop53
 90
        2
102
RTVSPost2010PropOp53
 70
     1
102
RTVSPost2010Prop54
  1
strokes_ogs.tif
102
RTVSPost2010PropOp54
 70
     1
102
RTVSPost2010Prop55
280
     0
102
RTVSPost2010PropOp55
 70
     1
102
RTVSPost2010Prop56
140
1.0
102
RTVSPost2010PropOp56
 70
     1
102
RTVSPost2010Prop57
140
1.0
102
RTVSPost2010PropOp57
 70
     1
102
RTVSPropertyOp0
 70
     1
102
RTVSPropertyOp1
 70
     1
102
RTVSPropertyOp2
 70
     1
102
RTVSPropertyOp3
 70
     1
102
RTVSPropertyOp4
 70
     1
102
RTVSPropertyOp5
 70
     1
102
RTVSPropertyOp6
 70
     1
102
RTVSPropertyOp7
 70
     1
102
RTVSPropertyOp8
 70
     1
102
RTVSPropertyOp9
 70
     1
102
RTVSPropertyOp10
 70
     1
102
RTVSPropertyOp11
 70
     1
102
RTVSPropertyOp12
 70
     1
102
RTVSPropertyOp13
 70
     1
102
RTVSPropertyOp14
 70
     1
102
RTVSPropertyOp15
 70
     1
102
RTVSPropertyOp16
 70
     1
102
RTVSPropertyOp17
 70
     1
102
RTVSPropertyOp18
 70
     1
102
RTVSPropertyOp19
 70
     1
102
RTVSPropertyOp20
 70
     1
102
RTVSPropertyOp21
 70
     1
102
RTVSPropertyOp22
 70
     1
102
RTVSPropertyOp23
 70
     1
102
RTVSPropertyOp24
 70
     1
102
RTVSPropertyOp25
 70
     1
102
RTVSPropertyOp26
 70
     1
102
RTVSPropertyOp27
 70
     1
102
RTVSPropertyOp28
 70
     1
102
RTVSPropertyOp29
 70
     1
102
RTVSPropertyOp30
 70
     1
102
RTVSPropertyOp31
 70
     1
102
RTVSPropertyOp32
 70
     1
102
RTVSPropertyOp33
 70
     1
102
RTVSPropertyOp34
 70
     1
102
RTVSPropertyOp35
 70
     1
102
RTVSPropertyOp36
 70
     1
102
RTVSPropertyOp37
 70
     1
102
RTVSPropertyOp38
 70
     1
102
RTVSPropertyOp39
 70
     1
102
RTVSPropertyOp40
 70
     1
102
RTVSPropertyOp41
 70
     1
102
RTVSPropertyOp42
 70
     1
102
RTVSPropertyOp43
 70
     1
102
RTVSPropertyOp44
 70
     1
102
RTVSPropertyOp45
 70
     1
102
RTVSPropertyOp46
 70
     1
102
RTVSPropertyOp47
 70
     1
102
RTVSPropertyOp48
 70
     1
102
RTVSPropertyOp49
 70
     1
102
RTVSPropertyOp50
 70
     1
102
RTVSPropertyOp51
 70
     0
102
RTVSPropertyOp52
 70
     0
102
RTVSPropertyOp53
 70
     1
102
RTVSPropertyOp54
 70
     1
102
RTVSPropertyOp55
 70
     1
102
RTVSPropertyOp56
 70
     1
102
RTVSPropertyOp57
 70
     1
102
RTVSPropertyOp58
 70
     1
102
RTVSPropertyOp59
 70
     1
102
RTVSPropertyOp60
 70
     1
102
RTVSPropertyOp61
 70
     1
102
RTVSPropertyOp62
 70
     1
  0
XRECORD
  5
ACBE
102
{ACAD_REACTORS
330
ACBD
102
}
330
ACBD
100
AcDbXrecord
280
     1
102
RTVSPost2010Prop28
280
     0
102
RTVSPost2010PropOp28
 70
     1
102
RTVSPost2010Prop29
280
     1
102
RTVSPost2010PropOp29
 70
     1
102
RTVSPost2010Prop30
280
     1
102
RTVSPost2010PropOp30
 70
     1
102
RTVSPost2010Prop31
280
     0
102
RTVSPost2010PropOp31
 70
     1
102
RTVSPost2010Prop32
280
     0
102
RTVSPost2010PropOp32
 70
     1
102
RTVSPost2010Prop33
280
     0
102
RTVSPost2010PropOp33
 70
     1
102
RTVSPost2010Prop34
280
     0
102
RTVSPost2010PropOp34
 70
     1
102
RTVSPost2010Prop35
280
     0
102
RTVSPost2010PropOp35
 70
     1
102
RTVSPost2010Prop36
280
     0
102
RTVSPost2010PropOp36
 70
     1
102
RTVSPost2010Prop37
 90
       50
102
RTVSPost2010PropOp37
 70
     1
102
RTVSPost2010Prop38
140
0.0
102
RTVSPost2010PropOp38
 70
     1
102
RTVSPost2010Prop39
140
1.0
102
RTVSPost2010PropOp39
 70
     1
102
RTVSPost2010Prop40
 90
        0
102
RTVSPost2010PropOp40
 70
     1
102
RTVSPost2010Prop41ColorIndex
 90
       18
102
RTVSPost2010Prop41ColorRGB
 90
        0
102
RTVSPost2010PropOp41
 70
     1
102
RTVSPost2010Prop42
 90
       50
102
RTVSPost2010PropOp42
 70
     1
102
RTVSPost2010Prop43
 90
        3
102
RTVSPost2010PropOp43
 70
     1
102
RTVSPost2010Prop44ColorIndex
 90
        5
102
RTVSPost2010Prop44ColorRGB
 90
      255
102
RTVSPost2010PropOp44
 70
     1
102
RTVSPost2010Prop45
280
     0
102
RTVSPost2010PropOp45
 70
     1
102
RTVSPost2010Prop46
 90
       50
102
RTVSPost2010PropOp46
 70
     1
102
RTVSPost2010Prop47
 90
       50
102
RTVSPost2010PropOp47
 70
     1
102
RTVSPost2010Prop48
 90
       50
102
RTVSPost2010PropOp48
 70
     1
102
RTVSPost2010Prop49
280
     0
102
RTVSPost2010PropOp49
 70
     1
102
RTVSPost2010Prop50
 90
       50
102
RTVSPost2010PropOp50
 70
     1
102
RTVSPost2010Prop51ColorIndex
 90
      256
102
RTVSPost2010Prop51ColorRGB
 90
-16777216
102
RTVSPost2010PropOp51
 70
     0
102
RTVSPost2010Prop52
140
1.0
102
RTVSPost2010PropOp52
 70
     0
102
RTVSPost2010Prop53
 90
        2
102
RTVSPost2010PropOp53
 70
     1
102
RTVSPost2010Prop54
  1
strokes_ogs.tif
102
RTVSPost2010PropOp54
 70
     1
102
RTVSPost2010Prop55
280
     0
102
RTVSPost2010PropOp55
 70
     1
102
RTVSPost2010Prop56
140
1.0
102
RTVSPost2010PropOp56
 70
     1
102
RTVSPost2010Prop57
140
1.0
102
RTVSPost2010PropOp57
 70
     1
102
RTVSPropertyOp0
 70
     1
102
RTVSPropertyOp1
 70
     1
102
RTVSPropertyOp2
 70
     1
102
RTVSPropertyOp3
 70
     1
102
RTVSPropertyOp4
 70
     1
102
RTVSPropertyOp5
 70
     1
102
RTVSPropertyOp6
 70
     1
102
RTVSPropertyOp7
 70
     1
102
RTVSPropertyOp8
 70
     1
102
RTVSPropertyOp9
 70
     1
102
RTVSPropertyOp10
 70
     1
102
RTVSPropertyOp11
 70
     1
102
RTVSPropertyOp12
 70
     1
102
RTVSPropertyOp13
 70
     1
102
RTVSPropertyOp14
 70
     1
102
RTVSPropertyOp15
 70
     1
102
RTVSPropertyOp16
 70
     1
102
RTVSPropertyOp17
 70
     1
102
RTVSPropertyOp18
 70
     1
102
RTVSPropertyOp19
 70
     1
102
RTVSPropertyOp20
 70
     1
102
RTVSPropertyOp21
 70
     1
102
RTVSPropertyOp22
 70
     1
102
RTVSPropertyOp23
 70
     1
102
RTVSPropertyOp24
 70
     1
102
RTVSPropertyOp25
 70
     1
102
RTVSPropertyOp26
 70
     1
102
RTVSPropertyOp27
 70
     1
102
RTVSPropertyOp28
 70
     1
102
RTVSPropertyOp29
 70
     1
102
RTVSPropertyOp30
 70
     1
102
RTVSPropertyOp31
 70
     1
102
RTVSPropertyOp32
 70
     1
102
RTVSPropertyOp33
 70
     1
102
RTVSPropertyOp34
 70
     1
102
RTVSPropertyOp35
 70
     1
102
RTVSPropertyOp36
 70
     1
102
RTVSPropertyOp37
 70
     1
102
RTVSPropertyOp38
 70
     1
102
RTVSPropertyOp39
 70
     1
102
RTVSPropertyOp40
 70
     1
102
RTVSPropertyOp41
 70
     1
102
RTVSPropertyOp42
 70
     1
102
RTVSPropertyOp43
 70
     1
102
RTVSPropertyOp44
 70
     1
102
RTVSPropertyOp45
 70
     1
102
RTVSPropertyOp46
 70
     1
102
RTVSPropertyOp47
 70
     1
102
RTVSPropertyOp48
 70
     1
102
RTVSPropertyOp49
 70
     1
102
RTVSPropertyOp50
 70
     1
102
RTVSPropertyOp51
 70
     0
102
RTVSPropertyOp52
 70
     0
102
RTVSPropertyOp53
 70
     1
102
RTVSPropertyOp54
 70
     1
102
RTVSPropertyOp55
 70
     1
102
RTVSPropertyOp56
 70
     1
102
RTVSPropertyOp57
 70
     1
102
RTVSPropertyOp58
 70
     1
102
RTVSPropertyOp59
 70
     1
102
RTVSPropertyOp60
 70
     1
102
RTVSPropertyOp61
 70
     1
102
RTVSPropertyOp62
 70
     1
  0
XRECORD
  5
ACDA
102
{ACAD_REACTORS
330
ACD9
102
}
330
ACD9
100
AcDbXrecord
280
     1
102
RTVSPost2010Prop28
280
     0
102
RTVSPost2010PropOp28
 70
     1
102
RTVSPost2010Prop29
280
     1
102
RTVSPost2010PropOp29
 70
     1
102
RTVSPost2010Prop30
280
     1
102
RTVSPost2010PropOp30
 70
     1
102
RTVSPost2010Prop31
280
     0
102
RTVSPost2010PropOp31
 70
     1
102
RTVSPost2010Prop32
280
     0
102
RTVSPost2010PropOp32
 70
     1
102
RTVSPost2010Prop33
280
     0
102
RTVSPost2010PropOp33
 70
     1
102
RTVSPost2010Prop34
280
     0
102
RTVSPost2010PropOp34
 70
     1
102
RTVSPost2010Prop35
280
     0
102
RTVSPost2010PropOp35
 70
     1
102
RTVSPost2010Prop36
280
     0
102
RTVSPost2010PropOp36
 70
     1
102
RTVSPost2010Prop37
 90
       50
102
RTVSPost2010PropOp37
 70
     0
102
RTVSPost2010Prop38
140
0.0
102
RTVSPost2010PropOp38
 70
     0
102
RTVSPost2010Prop39
140
1.0
102
RTVSPost2010PropOp39
 70
     0
102
RTVSPost2010Prop40
 90
        0
102
RTVSPost2010PropOp40
 70
     0
102
RTVSPost2010Prop41ColorIndex
 90
       18
102
RTVSPost2010Prop41ColorRGB
 90
        0
102
RTVSPost2010PropOp41
 70
     0
102
RTVSPost2010Prop42
 90
       50
102
RTVSPost2010PropOp42
 70
     0
102
RTVSPost2010Prop43
 90
        3
102
RTVSPost2010PropOp43
 70
     0
102
RTVSPost2010Prop44ColorIndex
 90
        5
102
RTVSPost2010Prop44ColorRGB
 90
      255
102
RTVSPost2010PropOp44
 70
     0
102
RTVSPost2010Prop45
280
     0
102
RTVSPost2010PropOp45
 70
     1
102
RTVSPost2010Prop46
 90
       50
102
RTVSPost2010PropOp46
 70
     0
102
RTVSPost2010Prop47
 90
       50
102
RTVSPost2010PropOp47
 70
     0
102
RTVSPost2010Prop48
 90
       50
102
RTVSPost2010PropOp48
 70
     0
102
RTVSPost2010Prop49
280
     0
102
RTVSPost2010PropOp49
 70
     1
102
RTVSPost2010Prop50
 90
       50
102
RTVSPost2010PropOp50
 70
     0
102
RTVSPost2010Prop51ColorIndex
 90
      256
102
RTVSPost2010Prop51ColorRGB
 90
-16777216
102
RTVSPost2010PropOp51
 70
     0
102
RTVSPost2010Prop52
140
1.0
102
RTVSPost2010PropOp52
 70
     0
102
RTVSPost2010Prop53
 90
        2
102
RTVSPost2010PropOp53
 70
     0
102
RTVSPost2010Prop54
  1
strokes_ogs.tif
102
RTVSPost2010PropOp54
 70
     0
102
RTVSPost2010Prop55
280
     0
102
RTVSPost2010PropOp55
 70
     1
102
RTVSPost2010Prop56
140
1.0
102
RTVSPost2010PropOp56
 70
     0
102
RTVSPost2010Prop57
140
1.0
102
RTVSPost2010PropOp57
 70
     0
102
RTVSPropertyOp0
 70
     0
102
RTVSPropertyOp1
 70
     0
102
RTVSPropertyOp2
 70
     0
102
RTVSPropertyOp3
 70
     0
102
RTVSPropertyOp4
 70
     0
102
RTVSPropertyOp5
 70
     0
102
RTVSPropertyOp6
 70
     0
102
RTVSPropertyOp7
 70
     0
102
RTVSPropertyOp8
 70
     0
102
RTVSPropertyOp9
 70
     0
102
RTVSPropertyOp10
 70
     0
102
RTVSPropertyOp11
 70
     0
102
RTVSPropertyOp12
 70
     0
102
RTVSPropertyOp13
 70
     0
102
RTVSPropertyOp14
 70
     2
102
RTVSPropertyOp15
 70
     0
102
RTVSPropertyOp16
 70
     0
102
RTVSPropertyOp17
 70
     0
102
RTVSPropertyOp18
 70
     0
102
RTVSPropertyOp19
 70
     0
102
RTVSPropertyOp20
 70
     0
102
RTVSPropertyOp21
 70
     0
102
RTVSPropertyOp22
 70
     0
102
RTVSPropertyOp23
 70
     0
102
RTVSPropertyOp24
 70
     0
102
RTVSPropertyOp25
 70
     0
102
RTVSPropertyOp26
 70
     0
102
RTVSPropertyOp27
 70
     0
102
RTVSPropertyOp28
 70
     1
102
RTVSPropertyOp29
 70
     1
102
RTVSPropertyOp30
 70
     1
102
RTVSPropertyOp31
 70
     1
102
RTVSPropertyOp32
 70
     1
102
RTVSPropertyOp33
 70
     1
102
RTVSPropertyOp34
 70
     1
102
RTVSPropertyOp35
 70
     1
102
RTVSPropertyOp36
 70
     1
102
RTVSPropertyOp37
 70
     0
102
RTVSPropertyOp38
 70
     0
102
RTVSPropertyOp39
 70
     0
102
RTVSPropertyOp40
 70
     0
102
RTVSPropertyOp41
 70
     0
102
RTVSPropertyOp42
 70
     0
102
RTVSPropertyOp43
 70
     0
102
RTVSPropertyOp44
 70
     0
102
RTVSPropertyOp45
 70
     1
102
RTVSPropertyOp46
 70
     0
102
RTVSPropertyOp47
 70
     0
102
RTVSPropertyOp48
 70
     0
102
RTVSPropertyOp49
 70
     1
102
RTVSPropertyOp50
 70
     0
102
RTVSPropertyOp51
 70
     0
102
RTVSPropertyOp52
 70
     0
102
RTVSPropertyOp53
 70
     0
102
RTVSPropertyOp54
 70
     0
102
RTVSPropertyOp55
 70
     1
102
RTVSPropertyOp56
 70
     0
102
RTVSPropertyOp57
 70
     0
102
RTVSPropertyOp58
 70
     0
102
RTVSPropertyOp59
 70
     0
102
RTVSPropertyOp60
 70
     0
102
RTVSPropertyOp61
 70
     0
102
RTVSPropertyOp62
 70
     0
  0
XRECORD
  5
ACCA
102
{ACAD_REACTORS
330
ACC9
102
}
330
ACC9
100
AcDbXrecord
280
     1
102
RTVSPost2010Prop28
280
     0
102
RTVSPost2010PropOp28
 70
     1
102
RTVSPost2010Prop29
280
     1
102
RTVSPost2010PropOp29
 70
     1
102
RTVSPost2010Prop30
280
     1
102
RTVSPost2010PropOp30
 70
     1
102
RTVSPost2010Prop31
280
     0
102
RTVSPost2010PropOp31
 70
     1
102
RTVSPost2010Prop32
280
     0
102
RTVSPost2010PropOp32
 70
     1
102
RTVSPost2010Prop33
280
     0
102
RTVSPost2010PropOp33
 70
     1
102
RTVSPost2010Prop34
280
     0
102
RTVSPost2010PropOp34
 70
     1
102
RTVSPost2010Prop35
280
     0
102
RTVSPost2010PropOp35
 70
     1
102
RTVSPost2010Prop36
280
     0
102
RTVSPost2010PropOp36
 70
     1
102
RTVSPost2010Prop37
 90
       50
102
RTVSPost2010PropOp37
 70
     1
102
RTVSPost2010Prop38
140
0.0
102
RTVSPost2010PropOp38
 70
     1
102
RTVSPost2010Prop39
140
1.0
102
RTVSPost2010PropOp39
 70
     1
102
RTVSPost2010Prop40
 90
        0
102
RTVSPost2010PropOp40
 70
     1
102
RTVSPost2010Prop41ColorIndex
 90
       18
102
RTVSPost2010Prop41ColorRGB
 90
        0
102
RTVSPost2010PropOp41
 70
     1
102
RTVSPost2010Prop42
 90
       50
102
RTVSPost2010PropOp42
 70
     1
102
RTVSPost2010Prop43
 90
        3
102
RTVSPost2010PropOp43
 70
     1
102
RTVSPost2010Prop44ColorIndex
 90
        5
102
RTVSPost2010Prop44ColorRGB
 90
      255
102
RTVSPost2010PropOp44
 70
     1
102
RTVSPost2010Prop45
280
     0
102
RTVSPost2010PropOp45
 70
     1
102
RTVSPost2010Prop46
 90
       50
102
RTVSPost2010PropOp46
 70
     1
102
RTVSPost2010Prop47
 90
       50
102
RTVSPost2010PropOp47
 70
     1
102
RTVSPost2010Prop48
 90
       50
102
RTVSPost2010PropOp48
 70
     1
102
RTVSPost2010Prop49
280
     0
102
RTVSPost2010PropOp49
 70
     1
102
RTVSPost2010Prop50
 90
       50
102
RTVSPost2010PropOp50
 70
     1
102
RTVSPost2010Prop51ColorIndex
 90
      256
102
RTVSPost2010Prop51ColorRGB
 90
-16777216
102
RTVSPost2010PropOp51
 70
     0
102
RTVSPost2010Prop52
140
1.0
102
RTVSPost2010PropOp52
 70
     0
102
RTVSPost2010Prop53
 90
        2
102
RTVSPost2010PropOp53
 70
     1
102
RTVSPost2010Prop54
  1
strokes_ogs.tif
102
RTVSPost2010PropOp54
 70
     1
102
RTVSPost2010Prop55
280
     0
102
RTVSPost2010PropOp55
 70
     1
102
RTVSPost2010Prop56
140
1.0
102
RTVSPost2010PropOp56
 70
     1
102
RTVSPost2010Prop57
140
1.0
102
RTVSPost2010PropOp57
 70
     1
102
RTVSPropertyOp0
 70
     1
102
RTVSPropertyOp1
 70
     1
102
RTVSPropertyOp2
 70
     1
102
RTVSPropertyOp3
 70
     1
102
RTVSPropertyOp4
 70
     1
102
RTVSPropertyOp5
 70
     1
102
RTVSPropertyOp6
 70
     1
102
RTVSPropertyOp7
 70
     1
102
RTVSPropertyOp8
 70
     1
102
RTVSPropertyOp9
 70
     1
102
RTVSPropertyOp10
 70
     1
102
RTVSPropertyOp11
 70
     1
102
RTVSPropertyOp12
 70
     1
102
RTVSPropertyOp13
 70
     1
102
RTVSPropertyOp14
 70
     1
102
RTVSPropertyOp15
 70
     1
102
RTVSPropertyOp16
 70
     1
102
RTVSPropertyOp17
 70
     1
102
RTVSPropertyOp18
 70
     1
102
RTVSPropertyOp19
 70
     1
102
RTVSPropertyOp20
 70
     1
102
RTVSPropertyOp21
 70
     1
102
RTVSPropertyOp22
 70
     1
102
RTVSPropertyOp23
 70
     1
102
RTVSPropertyOp24
 70
     1
102
RTVSPropertyOp25
 70
     1
102
RTVSPropertyOp26
 70
     1
102
RTVSPropertyOp27
 70
     1
102
RTVSPropertyOp28
 70
     1
102
RTVSPropertyOp29
 70
     1
102
RTVSPropertyOp30
 70
     1
102
RTVSPropertyOp31
 70
     1
102
RTVSPropertyOp32
 70
     1
102
RTVSPropertyOp33
 70
     1
102
RTVSPropertyOp34
 70
     1
102
RTVSPropertyOp35
 70
     1
102
RTVSPropertyOp36
 70
     1
102
RTVSPropertyOp37
 70
     1
102
RTVSPropertyOp38
 70
     1
102
RTVSPropertyOp39
 70
     1
102
RTVSPropertyOp40
 70
     1
102
RTVSPropertyOp41
 70
     1
102
RTVSPropertyOp42
 70
     1
102
RTVSPropertyOp43
 70
     1
102
RTVSPropertyOp44
 70
     1
102
RTVSPropertyOp45
 70
     1
102
RTVSPropertyOp46
 70
     1
102
RTVSPropertyOp47
 70
     1
102
RTVSPropertyOp48
 70
     1
102
RTVSPropertyOp49
 70
     1
102
RTVSPropertyOp50
 70
     1
102
RTVSPropertyOp51
 70
     0
102
RTVSPropertyOp52
 70
     0
102
RTVSPropertyOp53
 70
     1
102
RTVSPropertyOp54
 70
     1
102
RTVSPropertyOp55
 70
     1
102
RTVSPropertyOp56
 70
     1
102
RTVSPropertyOp57
 70
     1
102
RTVSPropertyOp58
 70
     1
102
RTVSPropertyOp59
 70
     1
102
RTVSPropertyOp60
 70
     1
102
RTVSPropertyOp61
 70
     1
102
RTVSPropertyOp62
 70
     1
  0
XRECORD
  5
ACDC
102
{ACAD_REACTORS
330
ACDB
102
}
330
ACDB
100
AcDbXrecord
280
     1
102
RTVSPost2010Prop28
280
     0
102
RTVSPost2010PropOp28
 70
     1
102
RTVSPost2010Prop29
280
     1
102
RTVSPost2010PropOp29
 70
     1
102
RTVSPost2010Prop30
280
     1
102
RTVSPost2010PropOp30
 70
     1
102
RTVSPost2010Prop31
280
     0
102
RTVSPost2010PropOp31
 70
     1
102
RTVSPost2010Prop32
280
     0
102
RTVSPost2010PropOp32
 70
     1
102
RTVSPost2010Prop33
280
     0
102
RTVSPost2010PropOp33
 70
     1
102
RTVSPost2010Prop34
280
     0
102
RTVSPost2010PropOp34
 70
     1
102
RTVSPost2010Prop35
280
     0
102
RTVSPost2010PropOp35
 70
     1
102
RTVSPost2010Prop36
280
     0
102
RTVSPost2010PropOp36
 70
     1
102
RTVSPost2010Prop37
 90
       50
102
RTVSPost2010PropOp37
 70
     0
102
RTVSPost2010Prop38
140
0.0
102
RTVSPost2010PropOp38
 70
     0
102
RTVSPost2010Prop39
140
1.0
102
RTVSPost2010PropOp39
 70
     0
102
RTVSPost2010Prop40
 90
        0
102
RTVSPost2010PropOp40
 70
     0
102
RTVSPost2010Prop41ColorIndex
 90
       18
102
RTVSPost2010Prop41ColorRGB
 90
        0
102
RTVSPost2010PropOp41
 70
     0
102
RTVSPost2010Prop42
 90
       50
102
RTVSPost2010PropOp42
 70
     0
102
RTVSPost2010Prop43
 90
        3
102
RTVSPost2010PropOp43
 70
     0
102
RTVSPost2010Prop44ColorIndex
 90
        5
102
RTVSPost2010Prop44ColorRGB
 90
      255
102
RTVSPost2010PropOp44
 70
     0
102
RTVSPost2010Prop45
280
     0
102
RTVSPost2010PropOp45
 70
     1
102
RTVSPost2010Prop46
 90
       50
102
RTVSPost2010PropOp46
 70
     0
102
RTVSPost2010Prop47
 90
       50
102
RTVSPost2010PropOp47
 70
     0
102
RTVSPost2010Prop48
 90
       50
102
RTVSPost2010PropOp48
 70
     0
102
RTVSPost2010Prop49
280
     0
102
RTVSPost2010PropOp49
 70
     1
102
RTVSPost2010Prop50
 90
       50
102
RTVSPost2010PropOp50
 70
     0
102
RTVSPost2010Prop51ColorIndex
 90
      256
102
RTVSPost2010Prop51ColorRGB
 90
-16777216
102
RTVSPost2010PropOp51
 70
     0
102
RTVSPost2010Prop52
140
1.0
102
RTVSPost2010PropOp52
 70
     0
102
RTVSPost2010Prop53
 90
        2
102
RTVSPost2010PropOp53
 70
     0
102
RTVSPost2010Prop54
  1
strokes_ogs.tif
102
RTVSPost2010PropOp54
 70
     0
102
RTVSPost2010Prop55
280
     0
102
RTVSPost2010PropOp55
 70
     1
102
RTVSPost2010Prop56
140
1.0
102
RTVSPost2010PropOp56
 70
     0
102
RTVSPost2010Prop57
140
1.0
102
RTVSPost2010PropOp57
 70
     0
102
RTVSPropertyOp0
 70
     0
102
RTVSPropertyOp1
 70
     0
102
RTVSPropertyOp2
 70
     0
102
RTVSPropertyOp3
 70
     0
102
RTVSPropertyOp4
 70
     0
102
RTVSPropertyOp5
 70
     0
102
RTVSPropertyOp6
 70
     0
102
RTVSPropertyOp7
 70
     0
102
RTVSPropertyOp8
 70
     0
102
RTVSPropertyOp9
 70
     0
102
RTVSPropertyOp10
 70
     0
102
RTVSPropertyOp11
 70
     0
102
RTVSPropertyOp12
 70
     0
102
RTVSPropertyOp13
 70
     0
102
RTVSPropertyOp14
 70
     2
102
RTVSPropertyOp15
 70
     0
102
RTVSPropertyOp16
 70
     0
102
RTVSPropertyOp17
 70
     0
102
RTVSPropertyOp18
 70
     0
102
RTVSPropertyOp19
 70
     0
102
RTVSPropertyOp20
 70
     0
102
RTVSPropertyOp21
 70
     0
102
RTVSPropertyOp22
 70
     0
102
RTVSPropertyOp23
 70
     0
102
RTVSPropertyOp24
 70
     0
102
RTVSPropertyOp25
 70
     0
102
RTVSPropertyOp26
 70
     0
102
RTVSPropertyOp27
 70
     0
102
RTVSPropertyOp28
 70
     1
102
RTVSPropertyOp29
 70
     1
102
RTVSPropertyOp30
 70
     1
102
RTVSPropertyOp31
 70
     1
102
RTVSPropertyOp32
 70
     1
102
RTVSPropertyOp33
 70
     1
102
RTVSPropertyOp34
 70
     1
102
RTVSPropertyOp35
 70
     1
102
RTVSPropertyOp36
 70
     1
102
RTVSPropertyOp37
 70
     0
102
RTVSPropertyOp38
 70
     0
102
RTVSPropertyOp39
 70
     0
102
RTVSPropertyOp40
 70
     0
102
RTVSPropertyOp41
 70
     0
102
RTVSPropertyOp42
 70
     0
102
RTVSPropertyOp43
 70
     0
102
RTVSPropertyOp44
 70
     0
102
RTVSPropertyOp45
 70
     1
102
RTVSPropertyOp46
 70
     0
102
RTVSPropertyOp47
 70
     0
102
RTVSPropertyOp48
 70
     0
102
RTVSPropertyOp49
 70
     1
102
RTVSPropertyOp50
 70
     0
102
RTVSPropertyOp51
 70
     0
102
RTVSPropertyOp52
 70
     0
102
RTVSPropertyOp53
 70
     0
102
RTVSPropertyOp54
 70
     0
102
RTVSPropertyOp55
 70
     1
102
RTVSPropertyOp56
 70
     0
102
RTVSPropertyOp57
 70
     0
102
RTVSPropertyOp58
 70
     0
102
RTVSPropertyOp59
 70
     0
102
RTVSPropertyOp60
 70
     0
102
RTVSPropertyOp61
 70
     0
102
RTVSPropertyOp62
 70
     0
  0
XRECORD
  5
ACC2
102
{ACAD_REACTORS
330
ACC1
102
}
330
ACC1
100
AcDbXrecord
280
     1
102
RTVSPost2010Prop28
280
     0
102
RTVSPost2010PropOp28
 70
     1
102
RTVSPost2010Prop29
280
     1
102
RTVSPost2010PropOp29
 70
     1
102
RTVSPost2010Prop30
280
     1
102
RTVSPost2010PropOp30
 70
     1
102
RTVSPost2010Prop31
280
     0
102
RTVSPost2010PropOp31
 70
     1
102
RTVSPost2010Prop32
280
     0
102
RTVSPost2010PropOp32
 70
     1
102
RTVSPost2010Prop33
280
     0
102
RTVSPost2010PropOp33
 70
     1
102
RTVSPost2010Prop34
280
     0
102
RTVSPost2010PropOp34
 70
     1
102
RTVSPost2010Prop35
280
     0
102
RTVSPost2010PropOp35
 70
     1
102
RTVSPost2010Prop36
280
     0
102
RTVSPost2010PropOp36
 70
     1
102
RTVSPost2010Prop37
 90
       50
102
RTVSPost2010PropOp37
 70
     1
102
RTVSPost2010Prop38
140
0.0
102
RTVSPost2010PropOp38
 70
     1
102
RTVSPost2010Prop39
140
1.0
102
RTVSPost2010PropOp39
 70
     1
102
RTVSPost2010Prop40
 90
        0
102
RTVSPost2010PropOp40
 70
     1
102
RTVSPost2010Prop41ColorIndex
 90
       18
102
RTVSPost2010Prop41ColorRGB
 90
        0
102
RTVSPost2010PropOp41
 70
     1
102
RTVSPost2010Prop42
 90
       50
102
RTVSPost2010PropOp42
 70
     1
102
RTVSPost2010Prop43
 90
        3
102
RTVSPost2010PropOp43
 70
     1
102
RTVSPost2010Prop44ColorIndex
 90
        5
102
RTVSPost2010Prop44ColorRGB
 90
      255
102
RTVSPost2010PropOp44
 70
     1
102
RTVSPost2010Prop45
280
     0
102
RTVSPost2010PropOp45
 70
     1
102
RTVSPost2010Prop46
 90
       50
102
RTVSPost2010PropOp46
 70
     1
102
RTVSPost2010Prop47
 90
       50
102
RTVSPost2010PropOp47
 70
     1
102
RTVSPost2010Prop48
 90
       50
102
RTVSPost2010PropOp48
 70
     1
102
RTVSPost2010Prop49
280
     0
102
RTVSPost2010PropOp49
 70
     1
102
RTVSPost2010Prop50
 90
       50
102
RTVSPost2010PropOp50
 70
     1
102
RTVSPost2010Prop51ColorIndex
 90
      256
102
RTVSPost2010Prop51ColorRGB
 90
-16777216
102
RTVSPost2010PropOp51
 70
     0
102
RTVSPost2010Prop52
140
1.0
102
RTVSPost2010PropOp52
 70
     0
102
RTVSPost2010Prop53
 90
        2
102
RTVSPost2010PropOp53
 70
     1
102
RTVSPost2010Prop54
  1
strokes_ogs.tif
102
RTVSPost2010PropOp54
 70
     1
102
RTVSPost2010Prop55
280
     0
102
RTVSPost2010PropOp55
 70
     1
102
RTVSPost2010Prop56
140
1.0
102
RTVSPost2010PropOp56
 70
     1
102
RTVSPost2010Prop57
140
1.0
102
RTVSPost2010PropOp57
 70
     1
102
RTVSPropertyOp0
 70
     1
102
RTVSPropertyOp1
 70
     1
102
RTVSPropertyOp2
 70
     1
102
RTVSPropertyOp3
 70
     1
102
RTVSPropertyOp4
 70
     1
102
RTVSPropertyOp5
 70
     1
102
RTVSPropertyOp6
 70
     1
102
RTVSPropertyOp7
 70
     1
102
RTVSPropertyOp8
 70
     1
102
RTVSPropertyOp9
 70
     1
102
RTVSPropertyOp10
 70
     1
102
RTVSPropertyOp11
 70
     1
102
RTVSPropertyOp12
 70
     1
102
RTVSPropertyOp13
 70
     1
102
RTVSPropertyOp14
 70
     1
102
RTVSPropertyOp15
 70
     1
102
RTVSPropertyOp16
 70
     1
102
RTVSPropertyOp17
 70
     1
102
RTVSPropertyOp18
 70
     1
102
RTVSPropertyOp19
 70
     1
102
RTVSPropertyOp20
 70
     1
102
RTVSPropertyOp21
 70
     1
102
RTVSPropertyOp22
 70
     1
102
RTVSPropertyOp23
 70
     1
102
RTVSPropertyOp24
 70
     1
102
RTVSPropertyOp25
 70
     1
102
RTVSPropertyOp26
 70
     1
102
RTVSPropertyOp27
 70
     1
102
RTVSPropertyOp28
 70
     1
102
RTVSPropertyOp29
 70
     1
102
RTVSPropertyOp30
 70
     1
102
RTVSPropertyOp31
 70
     1
102
RTVSPropertyOp32
 70
     1
102
RTVSPropertyOp33
 70
     1
102
RTVSPropertyOp34
 70
     1
102
RTVSPropertyOp35
 70
     1
102
RTVSPropertyOp36
 70
     1
102
RTVSPropertyOp37
 70
     1
102
RTVSPropertyOp38
 70
     1
102
RTVSPropertyOp39
 70
     1
102
RTVSPropertyOp40
 70
     1
102
RTVSPropertyOp41
 70
     1
102
RTVSPropertyOp42
 70
     1
102
RTVSPropertyOp43
 70
     1
102
RTVSPropertyOp44
 70
     1
102
RTVSPropertyOp45
 70
     1
102
RTVSPropertyOp46
 70
     1
102
RTVSPropertyOp47
 70
     1
102
RTVSPropertyOp48
 70
     1
102
RTVSPropertyOp49
 70
     1
102
RTVSPropertyOp50
 70
     1
102
RTVSPropertyOp51
 70
     0
102
RTVSPropertyOp52
 70
     0
102
RTVSPropertyOp53
 70
     1
102
RTVSPropertyOp54
 70
     1
102
RTVSPropertyOp55
 70
     1
102
RTVSPropertyOp56
 70
     1
102
RTVSPropertyOp57
 70
     1
102
RTVSPropertyOp58
 70
     1
102
RTVSPropertyOp59
 70
     1
102
RTVSPropertyOp60
 70
     1
102
RTVSPropertyOp61
 70
     1
102
RTVSPropertyOp62
 70
     1
  0
XRECORD
  5
ACD8
102
{ACAD_REACTORS
330
ACD7
102
}
330
ACD7
100
AcDbXrecord
280
     1
102
RTVSPost2010Prop28
280
     0
102
RTVSPost2010PropOp28
 70
     1
102
RTVSPost2010Prop29
280
     1
102
RTVSPost2010PropOp29
 70
     1
102
RTVSPost2010Prop30
280
     1
102
RTVSPost2010PropOp30
 70
     1
102
RTVSPost2010Prop31
280
     0
102
RTVSPost2010PropOp31
 70
     1
102
RTVSPost2010Prop32
280
     0
102
RTVSPost2010PropOp32
 70
     1
102
RTVSPost2010Prop33
280
     0
102
RTVSPost2010PropOp33
 70
     1
102
RTVSPost2010Prop34
280
     0
102
RTVSPost2010PropOp34
 70
     1
102
RTVSPost2010Prop35
280
     0
102
RTVSPost2010PropOp35
 70
     1
102
RTVSPost2010Prop36
280
     0
102
RTVSPost2010PropOp36
 70
     1
102
RTVSPost2010Prop37
 90
       50
102
RTVSPost2010PropOp37
 70
     1
102
RTVSPost2010Prop38
140
0.0
102
RTVSPost2010PropOp38
 70
     1
102
RTVSPost2010Prop39
140
1.0
102
RTVSPost2010PropOp39
 70
     1
102
RTVSPost2010Prop40
 90
        0
102
RTVSPost2010PropOp40
 70
     1
102
RTVSPost2010Prop41ColorIndex
 90
       18
102
RTVSPost2010Prop41ColorRGB
 90
        0
102
RTVSPost2010PropOp41
 70
     1
102
RTVSPost2010Prop42
 90
       50
102
RTVSPost2010PropOp42
 70
     1
102
RTVSPost2010Prop43
 90
        3
102
RTVSPost2010PropOp43
 70
     1
102
RTVSPost2010Prop44ColorIndex
 90
        5
102
RTVSPost2010Prop44ColorRGB
 90
      255
102
RTVSPost2010PropOp44
 70
     1
102
RTVSPost2010Prop45
280
     0
102
RTVSPost2010PropOp45
 70
     1
102
RTVSPost2010Prop46
 90
       50
102
RTVSPost2010PropOp46
 70
     1
102
RTVSPost2010Prop47
 90
       50
102
RTVSPost2010PropOp47
 70
     1
102
RTVSPost2010Prop48
 90
       50
102
RTVSPost2010PropOp48
 70
     1
102
RTVSPost2010Prop49
280
     0
102
RTVSPost2010PropOp49
 70
     1
102
RTVSPost2010Prop50
 90
       50
102
RTVSPost2010PropOp50
 70
     1
102
RTVSPost2010Prop51ColorIndex
 90
      256
102
RTVSPost2010Prop51ColorRGB
 90
-16777216
102
RTVSPost2010PropOp51
 70
     0
102
RTVSPost2010Prop52
140
1.0
102
RTVSPost2010PropOp52
 70
     0
102
RTVSPost2010Prop53
 90
        2
102
RTVSPost2010PropOp53
 70
     1
102
RTVSPost2010Prop54
  1
strokes_ogs.tif
102
RTVSPost2010PropOp54
 70
     1
102
RTVSPost2010Prop55
280
     0
102
RTVSPost2010PropOp55
 70
     1
102
RTVSPost2010Prop56
140
1.0
102
RTVSPost2010PropOp56
 70
     1
102
RTVSPost2010Prop57
140
1.0
102
RTVSPost2010PropOp57
 70
     1
102
RTVSPropertyOp0
 70
     1
102
RTVSPropertyOp1
 70
     1
102
RTVSPropertyOp2
 70
     1
102
RTVSPropertyOp3
 70
     1
102
RTVSPropertyOp4
 70
     1
102
RTVSPropertyOp5
 70
     1
102
RTVSPropertyOp6
 70
     1
102
RTVSPropertyOp7
 70
     1
102
RTVSPropertyOp8
 70
     1
102
RTVSPropertyOp9
 70
     1
102
RTVSPropertyOp10
 70
     1
102
RTVSPropertyOp11
 70
     1
102
RTVSPropertyOp12
 70
     1
102
RTVSPropertyOp13
 70
     1
102
RTVSPropertyOp14
 70
     1
102
RTVSPropertyOp15
 70
     1
102
RTVSPropertyOp16
 70
     1
102
RTVSPropertyOp17
 70
     1
102
RTVSPropertyOp18
 70
     1
102
RTVSPropertyOp19
 70
     1
102
RTVSPropertyOp20
 70
     1
102
RTVSPropertyOp21
 70
     1
102
RTVSPropertyOp22
 70
     1
102
RTVSPropertyOp23
 70
     1
102
RTVSPropertyOp24
 70
     1
102
RTVSPropertyOp25
 70
     1
102
RTVSPropertyOp26
 70
     1
102
RTVSPropertyOp27
 70
     1
102
RTVSPropertyOp28
 70
     1
102
RTVSPropertyOp29
 70
     1
102
RTVSPropertyOp30
 70
     1
102
RTVSPropertyOp31
 70
     1
102
RTVSPropertyOp32
 70
     1
102
RTVSPropertyOp33
 70
     1
102
RTVSPropertyOp34
 70
     1
102
RTVSPropertyOp35
 70
     1
102
RTVSPropertyOp36
 70
     1
102
RTVSPropertyOp37
 70
     1
102
RTVSPropertyOp38
 70
     1
102
RTVSPropertyOp39
 70
     1
102
RTVSPropertyOp40
 70
     1
102
RTVSPropertyOp41
 70
     1
102
RTVSPropertyOp42
 70
     1
102
RTVSPropertyOp43
 70
     1
102
RTVSPropertyOp44
 70
     1
102
RTVSPropertyOp45
 70
     1
102
RTVSPropertyOp46
 70
     1
102
RTVSPropertyOp47
 70
     1
102
RTVSPropertyOp48
 70
     1
102
RTVSPropertyOp49
 70
     1
102
RTVSPropertyOp50
 70
     1
102
RTVSPropertyOp51
 70
     0
102
RTVSPropertyOp52
 70
     0
102
RTVSPropertyOp53
 70
     1
102
RTVSPropertyOp54
 70
     1
102
RTVSPropertyOp55
 70
     1
102
RTVSPropertyOp56
 70
     1
102
RTVSPropertyOp57
 70
     1
102
RTVSPropertyOp58
 70
     1
102
RTVSPropertyOp59
 70
     1
102
RTVSPropertyOp60
 70
     1
102
RTVSPropertyOp61
 70
     1
102
RTVSPropertyOp62
 70
     1
  0
XRECORD
  5
ACD6
102
{ACAD_REACTORS
330
ACD5
102
}
330
ACD5
100
AcDbXrecord
280
     1
102
RTVSPost2010Prop28
280
     0
102
RTVSPost2010PropOp28
 70
     1
102
RTVSPost2010Prop29
280
     1
102
RTVSPost2010PropOp29
 70
     1
102
RTVSPost2010Prop30
280
     1
102
RTVSPost2010PropOp30
 70
     1
102
RTVSPost2010Prop31
280
     0
102
RTVSPost2010PropOp31
 70
     1
102
RTVSPost2010Prop32
280
     0
102
RTVSPost2010PropOp32
 70
     1
102
RTVSPost2010Prop33
280
     0
102
RTVSPost2010PropOp33
 70
     1
102
RTVSPost2010Prop34
280
     0
102
RTVSPost2010PropOp34
 70
     1
102
RTVSPost2010Prop35
280
     0
102
RTVSPost2010PropOp35
 70
     1
102
RTVSPost2010Prop36
280
     0
102
RTVSPost2010PropOp36
 70
     1
102
RTVSPost2010Prop37
 90
       50
102
RTVSPost2010PropOp37
 70
     1
102
RTVSPost2010Prop38
140
0.0
102
RTVSPost2010PropOp38
 70
     1
102
RTVSPost2010Prop39
140
1.0
102
RTVSPost2010PropOp39
 70
     1
102
RTVSPost2010Prop40
 90
        0
102
RTVSPost2010PropOp40
 70
     1
102
RTVSPost2010Prop41ColorIndex
 90
       18
102
RTVSPost2010Prop41ColorRGB
 90
        0
102
RTVSPost2010PropOp41
 70
     1
102
RTVSPost2010Prop42
 90
       50
102
RTVSPost2010PropOp42
 70
     1
102
RTVSPost2010Prop43
 90
        3
102
RTVSPost2010PropOp43
 70
     1
102
RTVSPost2010Prop44ColorIndex
 90
        5
102
RTVSPost2010Prop44ColorRGB
 90
      255
102
RTVSPost2010PropOp44
 70
     1
102
RTVSPost2010Prop45
280
     0
102
RTVSPost2010PropOp45
 70
     1
102
RTVSPost2010Prop46
 90
       50
102
RTVSPost2010PropOp46
 70
     1
102
RTVSPost2010Prop47
 90
       50
102
RTVSPost2010PropOp47
 70
     1
102
RTVSPost2010Prop48
 90
       50
102
RTVSPost2010PropOp48
 70
     1
102
RTVSPost2010Prop49
280
     0
102
RTVSPost2010PropOp49
 70
     1
102
RTVSPost2010Prop50
 90
       50
102
RTVSPost2010PropOp50
 70
     1
102
RTVSPost2010Prop51ColorIndex
 90
      256
102
RTVSPost2010Prop51ColorRGB
 90
-16777216
102
RTVSPost2010PropOp51
 70
     0
102
RTVSPost2010Prop52
140
1.0
102
RTVSPost2010PropOp52
 70
     0
102
RTVSPost2010Prop53
 90
        2
102
RTVSPost2010PropOp53
 70
     1
102
RTVSPost2010Prop54
  1
strokes_ogs.tif
102
RTVSPost2010PropOp54
 70
     1
102
RTVSPost2010Prop55
280
     0
102
RTVSPost2010PropOp55
 70
     1
102
RTVSPost2010Prop56
140
1.0
102
RTVSPost2010PropOp56
 70
     1
102
RTVSPost2010Prop57
140
1.0
102
RTVSPost2010PropOp57
 70
     1
102
RTVSPropertyOp0
 70
     1
102
RTVSPropertyOp1
 70
     1
102
RTVSPropertyOp2
 70
     1
102
RTVSPropertyOp3
 70
     1
102
RTVSPropertyOp4
 70
     1
102
RTVSPropertyOp5
 70
     1
102
RTVSPropertyOp6
 70
     1
102
RTVSPropertyOp7
 70
     1
102
RTVSPropertyOp8
 70
     1
102
RTVSPropertyOp9
 70
     1
102
RTVSPropertyOp10
 70
     1
102
RTVSPropertyOp11
 70
     1
102
RTVSPropertyOp12
 70
     1
102
RTVSPropertyOp13
 70
     1
102
RTVSPropertyOp14
 70
     1
102
RTVSPropertyOp15
 70
     1
102
RTVSPropertyOp16
 70
     1
102
RTVSPropertyOp17
 70
     1
102
RTVSPropertyOp18
 70
     1
102
RTVSPropertyOp19
 70
     1
102
RTVSPropertyOp20
 70
     1
102
RTVSPropertyOp21
 70
     1
102
RTVSPropertyOp22
 70
     1
102
RTVSPropertyOp23
 70
     1
102
RTVSPropertyOp24
 70
     1
102
RTVSPropertyOp25
 70
     1
102
RTVSPropertyOp26
 70
     1
102
RTVSPropertyOp27
 70
     1
102
RTVSPropertyOp28
 70
     1
102
RTVSPropertyOp29
 70
     1
102
RTVSPropertyOp30
 70
     1
102
RTVSPropertyOp31
 70
     1
102
RTVSPropertyOp32
 70
     1
102
RTVSPropertyOp33
 70
     1
102
RTVSPropertyOp34
 70
     1
102
RTVSPropertyOp35
 70
     1
102
RTVSPropertyOp36
 70
     1
102
RTVSPropertyOp37
 70
     1
102
RTVSPropertyOp38
 70
     1
102
RTVSPropertyOp39
 70
     1
102
RTVSPropertyOp40
 70
     1
102
RTVSPropertyOp41
 70
     1
102
RTVSPropertyOp42
 70
     1
102
RTVSPropertyOp43
 70
     1
102
RTVSPropertyOp44
 70
     1
102
RTVSPropertyOp45
 70
     1
102
RTVSPropertyOp46
 70
     1
102
RTVSPropertyOp47
 70
     1
102
RTVSPropertyOp48
 70
     1
102
RTVSPropertyOp49
 70
     1
102
RTVSPropertyOp50
 70
     1
102
RTVSPropertyOp51
 70
     0
102
RTVSPropertyOp52
 70
     0
102
RTVSPropertyOp53
 70
     1
102
RTVSPropertyOp54
 70
     1
102
RTVSPropertyOp55
 70
     1
102
RTVSPropertyOp56
 70
     1
102
RTVSPropertyOp57
 70
     1
102
RTVSPropertyOp58
 70
     1
102
RTVSPropertyOp59
 70
     1
102
RTVSPropertyOp60
 70
     1
102
RTVSPropertyOp61
 70
     1
102
RTVSPropertyOp62
 70
     1
  0
XRECORD
  5
ACD0
102
{ACAD_REACTORS
330
ACCF
102
}
330
ACCF
100
AcDbXrecord
280
     1
102
RTVSPost2010Prop28
280
     0
102
RTVSPost2010PropOp28
 70
     1
102
RTVSPost2010Prop29
280
     1
102
RTVSPost2010PropOp29
 70
     1
102
RTVSPost2010Prop30
280
     1
102
RTVSPost2010PropOp30
 70
     1
102
RTVSPost2010Prop31
280
     0
102
RTVSPost2010PropOp31
 70
     1
102
RTVSPost2010Prop32
280
     0
102
RTVSPost2010PropOp32
 70
     1
102
RTVSPost2010Prop33
280
     0
102
RTVSPost2010PropOp33
 70
     1
102
RTVSPost2010Prop34
280
     0
102
RTVSPost2010PropOp34
 70
     1
102
RTVSPost2010Prop35
280
     0
102
RTVSPost2010PropOp35
 70
     1
102
RTVSPost2010Prop36
280
     0
102
RTVSPost2010PropOp36
 70
     1
102
RTVSPost2010Prop37
 90
       50
102
RTVSPost2010PropOp37
 70
     1
102
RTVSPost2010Prop38
140
0.0
102
RTVSPost2010PropOp38
 70
     1
102
RTVSPost2010Prop39
140
1.0
102
RTVSPost2010PropOp39
 70
     1
102
RTVSPost2010Prop40
 90
        0
102
RTVSPost2010PropOp40
 70
     1
102
RTVSPost2010Prop41ColorIndex
 90
       18
102
RTVSPost2010Prop41ColorRGB
 90
        0
102
RTVSPost2010PropOp41
 70
     1
102
RTVSPost2010Prop42
 90
       50
102
RTVSPost2010PropOp42
 70
     1
102
RTVSPost2010Prop43
 90
        3
102
RTVSPost2010PropOp43
 70
     1
102
RTVSPost2010Prop44ColorIndex
 90
        5
102
RTVSPost2010Prop44ColorRGB
 90
      255
102
RTVSPost2010PropOp44
 70
     1
102
RTVSPost2010Prop45
280
     0
102
RTVSPost2010PropOp45
 70
     1
102
RTVSPost2010Prop46
 90
       50
102
RTVSPost2010PropOp46
 70
     1
102
RTVSPost2010Prop47
 90
       50
102
RTVSPost2010PropOp47
 70
     1
102
RTVSPost2010Prop48
 90
       50
102
RTVSPost2010PropOp48
 70
     1
102
RTVSPost2010Prop49
280
     0
102
RTVSPost2010PropOp49
 70
     1
102
RTVSPost2010Prop50
 90
       50
102
RTVSPost2010PropOp50
 70
     1
102
RTVSPost2010Prop51ColorIndex
 90
      256
102
RTVSPost2010Prop51ColorRGB
 90
-16777216
102
RTVSPost2010PropOp51
 70
     0
102
RTVSPost2010Prop52
140
1.0
102
RTVSPost2010PropOp52
 70
     0
102
RTVSPost2010Prop53
 90
        2
102
RTVSPost2010PropOp53
 70
     1
102
RTVSPost2010Prop54
  1
strokes_ogs.tif
102
RTVSPost2010PropOp54
 70
     1
102
RTVSPost2010Prop55
280
     0
102
RTVSPost2010PropOp55
 70
     1
102
RTVSPost2010Prop56
140
1.0
102
RTVSPost2010PropOp56
 70
     1
102
RTVSPost2010Prop57
140
1.0
102
RTVSPost2010PropOp57
 70
     1
102
RTVSPropertyOp0
 70
     1
102
RTVSPropertyOp1
 70
     1
102
RTVSPropertyOp2
 70
     1
102
RTVSPropertyOp3
 70
     1
102
RTVSPropertyOp4
 70
     1
102
RTVSPropertyOp5
 70
     1
102
RTVSPropertyOp6
 70
     1
102
RTVSPropertyOp7
 70
     1
102
RTVSPropertyOp8
 70
     1
102
RTVSPropertyOp9
 70
     1
102
RTVSPropertyOp10
 70
     1
102
RTVSPropertyOp11
 70
     1
102
RTVSPropertyOp12
 70
     1
102
RTVSPropertyOp13
 70
     1
102
RTVSPropertyOp14
 70
     1
102
RTVSPropertyOp15
 70
     1
102
RTVSPropertyOp16
 70
     1
102
RTVSPropertyOp17
 70
     1
102
RTVSPropertyOp18
 70
     1
102
RTVSPropertyOp19
 70
     1
102
RTVSPropertyOp20
 70
     1
102
RTVSPropertyOp21
 70
     1
102
RTVSPropertyOp22
 70
     1
102
RTVSPropertyOp23
 70
     1
102
RTVSPropertyOp24
 70
     1
102
RTVSPropertyOp25
 70
     1
102
RTVSPropertyOp26
 70
     1
102
RTVSPropertyOp27
 70
     1
102
RTVSPropertyOp28
 70
     1
102
RTVSPropertyOp29
 70
     1
102
RTVSPropertyOp30
 70
     1
102
RTVSPropertyOp31
 70
     1
102
RTVSPropertyOp32
 70
     1
102
RTVSPropertyOp33
 70
     1
102
RTVSPropertyOp34
 70
     1
102
RTVSPropertyOp35
 70
     1
102
RTVSPropertyOp36
 70
     1
102
RTVSPropertyOp37
 70
     1
102
RTVSPropertyOp38
 70
     1
102
RTVSPropertyOp39
 70
     1
102
RTVSPropertyOp40
 70
     1
102
RTVSPropertyOp41
 70
     1
102
RTVSPropertyOp42
 70
     1
102
RTVSPropertyOp43
 70
     1
102
RTVSPropertyOp44
 70
     1
102
RTVSPropertyOp45
 70
     1
102
RTVSPropertyOp46
 70
     1
102
RTVSPropertyOp47
 70
     1
102
RTVSPropertyOp48
 70
     1
102
RTVSPropertyOp49
 70
     1
102
RTVSPropertyOp50
 70
     1
102
RTVSPropertyOp51
 70
     0
102
RTVSPropertyOp52
 70
     0
102
RTVSPropertyOp53
 70
     1
102
RTVSPropertyOp54
 70
     1
102
RTVSPropertyOp55
 70
     1
102
RTVSPropertyOp56
 70
     1
102
RTVSPropertyOp57
 70
     1
102
RTVSPropertyOp58
 70
     1
102
RTVSPropertyOp59
 70
     1
102
RTVSPropertyOp60
 70
     1
102
RTVSPropertyOp61
 70
     1
102
RTVSPropertyOp62
 70
     1
  0
XRECORD
  5
ACD2
102
{ACAD_REACTORS
330
ACD1
102
}
330
ACD1
100
AcDbXrecord
280
     1
102
RTVSPost2010Prop28
280
     0
102
RTVSPost2010PropOp28
 70
     1
102
RTVSPost2010Prop29
280
     1
102
RTVSPost2010PropOp29
 70
     1
102
RTVSPost2010Prop30
280
     1
102
RTVSPost2010PropOp30
 70
     1
102
RTVSPost2010Prop31
280
     0
102
RTVSPost2010PropOp31
 70
     1
102
RTVSPost2010Prop32
280
     0
102
RTVSPost2010PropOp32
 70
     1
102
RTVSPost2010Prop33
280
     0
102
RTVSPost2010PropOp33
 70
     1
102
RTVSPost2010Prop34
280
     0
102
RTVSPost2010PropOp34
 70
     1
102
RTVSPost2010Prop35
280
     0
102
RTVSPost2010PropOp35
 70
     1
102
RTVSPost2010Prop36
280
     0
102
RTVSPost2010PropOp36
 70
     1
102
RTVSPost2010Prop37
 90
       50
102
RTVSPost2010PropOp37
 70
     1
102
RTVSPost2010Prop38
140
0.0
102
RTVSPost2010PropOp38
 70
     1
102
RTVSPost2010Prop39
140
1.0
102
RTVSPost2010PropOp39
 70
     1
102
RTVSPost2010Prop40
 90
        0
102
RTVSPost2010PropOp40
 70
     1
102
RTVSPost2010Prop41ColorIndex
 90
       18
102
RTVSPost2010Prop41ColorRGB
 90
        0
102
RTVSPost2010PropOp41
 70
     1
102
RTVSPost2010Prop42
 90
       50
102
RTVSPost2010PropOp42
 70
     1
102
RTVSPost2010Prop43
 90
        3
102
RTVSPost2010PropOp43
 70
     1
102
RTVSPost2010Prop44ColorIndex
 90
        5
102
RTVSPost2010Prop44ColorRGB
 90
      255
102
RTVSPost2010PropOp44
 70
     1
102
RTVSPost2010Prop45
280
     0
102
RTVSPost2010PropOp45
 70
     1
102
RTVSPost2010Prop46
 90
       50
102
RTVSPost2010PropOp46
 70
     1
102
RTVSPost2010Prop47
 90
       50
102
RTVSPost2010PropOp47
 70
     1
102
RTVSPost2010Prop48
 90
       50
102
RTVSPost2010PropOp48
 70
     1
102
RTVSPost2010Prop49
280
     0
102
RTVSPost2010PropOp49
 70
     1
102
RTVSPost2010Prop50
 90
       50
102
RTVSPost2010PropOp50
 70
     1
102
RTVSPost2010Prop51ColorIndex
 90
      256
102
RTVSPost2010Prop51ColorRGB
 90
-16777216
102
RTVSPost2010PropOp51
 70
     0
102
RTVSPost2010Prop52
140
1.0
102
RTVSPost2010PropOp52
 70
     0
102
RTVSPost2010Prop53
 90
        2
102
RTVSPost2010PropOp53
 70
     1
102
RTVSPost2010Prop54
  1
strokes_ogs.tif
102
RTVSPost2010PropOp54
 70
     1
102
RTVSPost2010Prop55
280
     0
102
RTVSPost2010PropOp55
 70
     1
102
RTVSPost2010Prop56
140
1.0
102
RTVSPost2010PropOp56
 70
     1
102
RTVSPost2010Prop57
140
1.0
102
RTVSPost2010PropOp57
 70
     1
102
RTVSPropertyOp0
 70
     1
102
RTVSPropertyOp1
 70
     1
102
RTVSPropertyOp2
 70
     1
102
RTVSPropertyOp3
 70
     1
102
RTVSPropertyOp4
 70
     1
102
RTVSPropertyOp5
 70
     1
102
RTVSPropertyOp6
 70
     1
102
RTVSPropertyOp7
 70
     1
102
RTVSPropertyOp8
 70
     1
102
RTVSPropertyOp9
 70
     1
102
RTVSPropertyOp10
 70
     1
102
RTVSPropertyOp11
 70
     1
102
RTVSPropertyOp12
 70
     1
102
RTVSPropertyOp13
 70
     1
102
RTVSPropertyOp14
 70
     1
102
RTVSPropertyOp15
 70
     1
102
RTVSPropertyOp16
 70
     1
102
RTVSPropertyOp17
 70
     1
102
RTVSPropertyOp18
 70
     1
102
RTVSPropertyOp19
 70
     1
102
RTVSPropertyOp20
 70
     1
102
RTVSPropertyOp21
 70
     1
102
RTVSPropertyOp22
 70
     1
102
RTVSPropertyOp23
 70
     1
102
RTVSPropertyOp24
 70
     1
102
RTVSPropertyOp25
 70
     1
102
RTVSPropertyOp26
 70
     1
102
RTVSPropertyOp27
 70
     1
102
RTVSPropertyOp28
 70
     1
102
RTVSPropertyOp29
 70
     1
102
RTVSPropertyOp30
 70
     1
102
RTVSPropertyOp31
 70
     1
102
RTVSPropertyOp32
 70
     1
102
RTVSPropertyOp33
 70
     1
102
RTVSPropertyOp34
 70
     1
102
RTVSPropertyOp35
 70
     1
102
RTVSPropertyOp36
 70
     1
102
RTVSPropertyOp37
 70
     1
102
RTVSPropertyOp38
 70
     1
102
RTVSPropertyOp39
 70
     1
102
RTVSPropertyOp40
 70
     1
102
RTVSPropertyOp41
 70
     1
102
RTVSPropertyOp42
 70
     1
102
RTVSPropertyOp43
 70
     1
102
RTVSPropertyOp44
 70
     1
102
RTVSPropertyOp45
 70
     1
102
RTVSPropertyOp46
 70
     1
102
RTVSPropertyOp47
 70
     1
102
RTVSPropertyOp48
 70
     1
102
RTVSPropertyOp49
 70
     1
102
RTVSPropertyOp50
 70
     1
102
RTVSPropertyOp51
 70
     0
102
RTVSPropertyOp52
 70
     0
102
RTVSPropertyOp53
 70
     1
102
RTVSPropertyOp54
 70
     1
102
RTVSPropertyOp55
 70
     1
102
RTVSPropertyOp56
 70
     1
102
RTVSPropertyOp57
 70
     1
102
RTVSPropertyOp58
 70
     1
102
RTVSPropertyOp59
 70
     1
102
RTVSPropertyOp60
 70
     1
102
RTVSPropertyOp61
 70
     1
102
RTVSPropertyOp62
 70
     1
  0
XRECORD
  5
ACC8
102
{ACAD_REACTORS
330
ACC7
102
}
330
ACC7
100
AcDbXrecord
280
     1
102
RTVSPost2010Prop28
280
     0
102
RTVSPost2010PropOp28
 70
     1
102
RTVSPost2010Prop29
280
     1
102
RTVSPost2010PropOp29
 70
     1
102
RTVSPost2010Prop30
280
     1
102
RTVSPost2010PropOp30
 70
     1
102
RTVSPost2010Prop31
280
     0
102
RTVSPost2010PropOp31
 70
     1
102
RTVSPost2010Prop32
280
     0
102
RTVSPost2010PropOp32
 70
     1
102
RTVSPost2010Prop33
280
     0
102
RTVSPost2010PropOp33
 70
     1
102
RTVSPost2010Prop34
280
     0
102
RTVSPost2010PropOp34
 70
     1
102
RTVSPost2010Prop35
280
     0
102
RTVSPost2010PropOp35
 70
     1
102
RTVSPost2010Prop36
280
     0
102
RTVSPost2010PropOp36
 70
     1
102
RTVSPost2010Prop37
 90
       50
102
RTVSPost2010PropOp37
 70
     1
102
RTVSPost2010Prop38
140
0.0
102
RTVSPost2010PropOp38
 70
     1
102
RTVSPost2010Prop39
140
1.0
102
RTVSPost2010PropOp39
 70
     1
102
RTVSPost2010Prop40
 90
        0
102
RTVSPost2010PropOp40
 70
     1
102
RTVSPost2010Prop41ColorIndex
 90
       18
102
RTVSPost2010Prop41ColorRGB
 90
        0
102
RTVSPost2010PropOp41
 70
     1
102
RTVSPost2010Prop42
 90
       50
102
RTVSPost2010PropOp42
 70
     1
102
RTVSPost2010Prop43
 90
        3
102
RTVSPost2010PropOp43
 70
     1
102
RTVSPost2010Prop44ColorIndex
 90
        5
102
RTVSPost2010Prop44ColorRGB
 90
      255
102
RTVSPost2010PropOp44
 70
     1
102
RTVSPost2010Prop45
280
     0
102
RTVSPost2010PropOp45
 70
     1
102
RTVSPost2010Prop46
 90
       50
102
RTVSPost2010PropOp46
 70
     1
102
RTVSPost2010Prop47
 90
       50
102
RTVSPost2010PropOp47
 70
     1
102
RTVSPost2010Prop48
 90
       50
102
RTVSPost2010PropOp48
 70
     1
102
RTVSPost2010Prop49
280
     0
102
RTVSPost2010PropOp49
 70
     1
102
RTVSPost2010Prop50
 90
       50
102
RTVSPost2010PropOp50
 70
     1
102
RTVSPost2010Prop51ColorIndex
 90
      256
102
RTVSPost2010Prop51ColorRGB
 90
-16777216
102
RTVSPost2010PropOp51
 70
     0
102
RTVSPost2010Prop52
140
1.0
102
RTVSPost2010PropOp52
 70
     0
102
RTVSPost2010Prop53
 90
        2
102
RTVSPost2010PropOp53
 70
     1
102
RTVSPost2010Prop54
  1
strokes_ogs.tif
102
RTVSPost2010PropOp54
 70
     1
102
RTVSPost2010Prop55
280
     0
102
RTVSPost2010PropOp55
 70
     1
102
RTVSPost2010Prop56
140
1.0
102
RTVSPost2010PropOp56
 70
     1
102
RTVSPost2010Prop57
140
1.0
102
RTVSPost2010PropOp57
 70
     1
102
RTVSPropertyOp0
 70
     1
102
RTVSPropertyOp1
 70
     1
102
RTVSPropertyOp2
 70
     1
102
RTVSPropertyOp3
 70
     1
102
RTVSPropertyOp4
 70
     1
102
RTVSPropertyOp5
 70
     1
102
RTVSPropertyOp6
 70
     1
102
RTVSPropertyOp7
 70
     1
102
RTVSPropertyOp8
 70
     1
102
RTVSPropertyOp9
 70
     1
102
RTVSPropertyOp10
 70
     1
102
RTVSPropertyOp11
 70
     1
102
RTVSPropertyOp12
 70
     1
102
RTVSPropertyOp13
 70
     1
102
RTVSPropertyOp14
 70
     1
102
RTVSPropertyOp15
 70
     1
102
RTVSPropertyOp16
 70
     1
102
RTVSPropertyOp17
 70
     1
102
RTVSPropertyOp18
 70
     1
102
RTVSPropertyOp19
 70
     1
102
RTVSPropertyOp20
 70
     1
102
RTVSPropertyOp21
 70
     1
102
RTVSPropertyOp22
 70
     1
102
RTVSPropertyOp23
 70
     1
102
RTVSPropertyOp24
 70
     1
102
RTVSPropertyOp25
 70
     1
102
RTVSPropertyOp26
 70
     1
102
RTVSPropertyOp27
 70
     1
102
RTVSPropertyOp28
 70
     1
102
RTVSPropertyOp29
 70
     1
102
RTVSPropertyOp30
 70
     1
102
RTVSPropertyOp31
 70
     1
102
RTVSPropertyOp32
 70
     1
102
RTVSPropertyOp33
 70
     1
102
RTVSPropertyOp34
 70
     1
102
RTVSPropertyOp35
 70
     1
102
RTVSPropertyOp36
 70
     1
102
RTVSPropertyOp37
 70
     1
102
RTVSPropertyOp38
 70
     1
102
RTVSPropertyOp39
 70
     1
102
RTVSPropertyOp40
 70
     1
102
RTVSPropertyOp41
 70
     1
102
RTVSPropertyOp42
 70
     1
102
RTVSPropertyOp43
 70
     1
102
RTVSPropertyOp44
 70
     1
102
RTVSPropertyOp45
 70
     1
102
RTVSPropertyOp46
 70
     1
102
RTVSPropertyOp47
 70
     1
102
RTVSPropertyOp48
 70
     1
102
RTVSPropertyOp49
 70
     1
102
RTVSPropertyOp50
 70
     1
102
RTVSPropertyOp51
 70
     0
102
RTVSPropertyOp52
 70
     0
102
RTVSPropertyOp53
 70
     1
102
RTVSPropertyOp54
 70
     1
102
RTVSPropertyOp55
 70
     1
102
RTVSPropertyOp56
 70
     1
102
RTVSPropertyOp57
 70
     1
102
RTVSPropertyOp58
 70
     1
102
RTVSPropertyOp59
 70
     1
102
RTVSPropertyOp60
 70
     1
102
RTVSPropertyOp61
 70
     1
102
RTVSPropertyOp62
 70
     1
  0
XRECORD
  5
ACBC
102
{ACAD_REACTORS
330
ACBB
102
}
330
ACBB
100
AcDbXrecord
280
     1
102
RTVSPost2010Prop28
280
     0
102
RTVSPost2010PropOp28
 70
     1
102
RTVSPost2010Prop29
280
     1
102
RTVSPost2010PropOp29
 70
     1
102
RTVSPost2010Prop30
280
     1
102
RTVSPost2010PropOp30
 70
     1
102
RTVSPost2010Prop31
280
     0
102
RTVSPost2010PropOp31
 70
     1
102
RTVSPost2010Prop32
280
     0
102
RTVSPost2010PropOp32
 70
     1
102
RTVSPost2010Prop33
280
     0
102
RTVSPost2010PropOp33
 70
     1
102
RTVSPost2010Prop34
280
     0
102
RTVSPost2010PropOp34
 70
     1
102
RTVSPost2010Prop35
280
     0
102
RTVSPost2010PropOp35
 70
     1
102
RTVSPost2010Prop36
280
     0
102
RTVSPost2010PropOp36
 70
     1
102
RTVSPost2010Prop37
 90
       50
102
RTVSPost2010PropOp37
 70
     1
102
RTVSPost2010Prop38
140
0.0
102
RTVSPost2010PropOp38
 70
     1
102
RTVSPost2010Prop39
140
1.0
102
RTVSPost2010PropOp39
 70
     1
102
RTVSPost2010Prop40
 90
        0
102
RTVSPost2010PropOp40
 70
     1
102
RTVSPost2010Prop41ColorIndex
 90
       18
102
RTVSPost2010Prop41ColorRGB
 90
        0
102
RTVSPost2010PropOp41
 70
     1
102
RTVSPost2010Prop42
 90
       50
102
RTVSPost2010PropOp42
 70
     1
102
RTVSPost2010Prop43
 90
        3
102
RTVSPost2010PropOp43
 70
     1
102
RTVSPost2010Prop44ColorIndex
 90
        5
102
RTVSPost2010Prop44ColorRGB
 90
      255
102
RTVSPost2010PropOp44
 70
     1
102
RTVSPost2010Prop45
280
     0
102
RTVSPost2010PropOp45
 70
     1
102
RTVSPost2010Prop46
 90
       50
102
RTVSPost2010PropOp46
 70
     1
102
RTVSPost2010Prop47
 90
       50
102
RTVSPost2010PropOp47
 70
     1
102
RTVSPost2010Prop48
 90
       50
102
RTVSPost2010PropOp48
 70
     1
102
RTVSPost2010Prop49
280
     0
102
RTVSPost2010PropOp49
 70
     1
102
RTVSPost2010Prop50
 90
       50
102
RTVSPost2010PropOp50
 70
     1
102
RTVSPost2010Prop51ColorIndex
 90
      256
102
RTVSPost2010Prop51ColorRGB
 90
-16777216
102
RTVSPost2010PropOp51
 70
     0
102
RTVSPost2010Prop52
140
1.0
102
RTVSPost2010PropOp52
 70
     0
102
RTVSPost2010Prop53
 90
        2
102
RTVSPost2010PropOp53
 70
     1
102
RTVSPost2010Prop54
  1
strokes_ogs.tif
102
RTVSPost2010PropOp54
 70
     1
102
RTVSPost2010Prop55
280
     0
102
RTVSPost2010PropOp55
 70
     1
102
RTVSPost2010Prop56
140
1.0
102
RTVSPost2010PropOp56
 70
     1
102
RTVSPost2010Prop57
140
1.0
102
RTVSPost2010PropOp57
 70
     1
102
RTVSPropertyOp0
 70
     1
102
RTVSPropertyOp1
 70
     1
102
RTVSPropertyOp2
 70
     1
102
RTVSPropertyOp3
 70
     1
102
RTVSPropertyOp4
 70
     1
102
RTVSPropertyOp5
 70
     1
102
RTVSPropertyOp6
 70
     1
102
RTVSPropertyOp7
 70
     1
102
RTVSPropertyOp8
 70
     1
102
RTVSPropertyOp9
 70
     1
102
RTVSPropertyOp10
 70
     1
102
RTVSPropertyOp11
 70
     1
102
RTVSPropertyOp12
 70
     1
102
RTVSPropertyOp13
 70
     1
102
RTVSPropertyOp14
 70
     1
102
RTVSPropertyOp15
 70
     1
102
RTVSPropertyOp16
 70
     1
102
RTVSPropertyOp17
 70
     1
102
RTVSPropertyOp18
 70
     1
102
RTVSPropertyOp19
 70
     1
102
RTVSPropertyOp20
 70
     1
102
RTVSPropertyOp21
 70
     1
102
RTVSPropertyOp22
 70
     1
102
RTVSPropertyOp23
 70
     1
102
RTVSPropertyOp24
 70
     1
102
RTVSPropertyOp25
 70
     1
102
RTVSPropertyOp26
 70
     1
102
RTVSPropertyOp27
 70
     1
102
RTVSPropertyOp28
 70
     1
102
RTVSPropertyOp29
 70
     1
102
RTVSPropertyOp30
 70
     1
102
RTVSPropertyOp31
 70
     1
102
RTVSPropertyOp32
 70
     1
102
RTVSPropertyOp33
 70
     1
102
RTVSPropertyOp34
 70
     1
102
RTVSPropertyOp35
 70
     1
102
RTVSPropertyOp36
 70
     1
102
RTVSPropertyOp37
 70
     1
102
RTVSPropertyOp38
 70
     1
102
RTVSPropertyOp39
 70
     1
102
RTVSPropertyOp40
 70
     1
102
RTVSPropertyOp41
 70
     1
102
RTVSPropertyOp42
 70
     1
102
RTVSPropertyOp43
 70
     1
102
RTVSPropertyOp44
 70
     1
102
RTVSPropertyOp45
 70
     1
102
RTVSPropertyOp46
 70
     1
102
RTVSPropertyOp47
 70
     1
102
RTVSPropertyOp48
 70
     1
102
RTVSPropertyOp49
 70
     1
102
RTVSPropertyOp50
 70
     1
102
RTVSPropertyOp51
 70
     0
102
RTVSPropertyOp52
 70
     0
102
RTVSPropertyOp53
 70
     1
102
RTVSPropertyOp54
 70
     1
102
RTVSPropertyOp55
 70
     1
102
RTVSPropertyOp56
 70
     1
102
RTVSPropertyOp57
 70
     1
102
RTVSPropertyOp58
 70
     1
102
RTVSPropertyOp59
 70
     1
102
RTVSPropertyOp60
 70
     1
102
RTVSPropertyOp61
 70
     1
102
RTVSPropertyOp62
 70
     1
  0
XRECORD
  5
ACD4
102
{ACAD_REACTORS
330
ACD3
102
}
330
ACD3
100
AcDbXrecord
280
     1
102
RTVSPost2010Prop28
280
     0
102
RTVSPost2010PropOp28
 70
     1
102
RTVSPost2010Prop29
280
     1
102
RTVSPost2010PropOp29
 70
     1
102
RTVSPost2010Prop30
280
     1
102
RTVSPost2010PropOp30
 70
     1
102
RTVSPost2010Prop31
280
     0
102
RTVSPost2010PropOp31
 70
     1
102
RTVSPost2010Prop32
280
     0
102
RTVSPost2010PropOp32
 70
     1
102
RTVSPost2010Prop33
280
     0
102
RTVSPost2010PropOp33
 70
     1
102
RTVSPost2010Prop34
280
     0
102
RTVSPost2010PropOp34
 70
     1
102
RTVSPost2010Prop35
280
     0
102
RTVSPost2010PropOp35
 70
     1
102
RTVSPost2010Prop36
280
     0
102
RTVSPost2010PropOp36
 70
     1
102
RTVSPost2010Prop37
 90
       50
102
RTVSPost2010PropOp37
 70
     1
102
RTVSPost2010Prop38
140
0.0
102
RTVSPost2010PropOp38
 70
     1
102
RTVSPost2010Prop39
140
1.0
102
RTVSPost2010PropOp39
 70
     1
102
RTVSPost2010Prop40
 90
        0
102
RTVSPost2010PropOp40
 70
     1
102
RTVSPost2010Prop41ColorIndex
 90
       18
102
RTVSPost2010Prop41ColorRGB
 90
        0
102
RTVSPost2010PropOp41
 70
     1
102
RTVSPost2010Prop42
 90
       50
102
RTVSPost2010PropOp42
 70
     1
102
RTVSPost2010Prop43
 90
        3
102
RTVSPost2010PropOp43
 70
     1
102
RTVSPost2010Prop44ColorIndex
 90
        5
102
RTVSPost2010Prop44ColorRGB
 90
      255
102
RTVSPost2010PropOp44
 70
     1
102
RTVSPost2010Prop45
280
     0
102
RTVSPost2010PropOp45
 70
     1
102
RTVSPost2010Prop46
 90
       50
102
RTVSPost2010PropOp46
 70
     1
102
RTVSPost2010Prop47
 90
       50
102
RTVSPost2010PropOp47
 70
     1
102
RTVSPost2010Prop48
 90
       50
102
RTVSPost2010PropOp48
 70
     1
102
RTVSPost2010Prop49
280
     0
102
RTVSPost2010PropOp49
 70
     1
102
RTVSPost2010Prop50
 90
       50
102
RTVSPost2010PropOp50
 70
     1
102
RTVSPost2010Prop51ColorIndex
 90
      256
102
RTVSPost2010Prop51ColorRGB
 90
-16777216
102
RTVSPost2010PropOp51
 70
     0
102
RTVSPost2010Prop52
140
1.0
102
RTVSPost2010PropOp52
 70
     0
102
RTVSPost2010Prop53
 90
        2
102
RTVSPost2010PropOp53
 70
     1
102
RTVSPost2010Prop54
  1
strokes_ogs.tif
102
RTVSPost2010PropOp54
 70
     1
102
RTVSPost2010Prop55
280
     0
102
RTVSPost2010PropOp55
 70
     1
102
RTVSPost2010Prop56
140
1.0
102
RTVSPost2010PropOp56
 70
     1
102
RTVSPost2010Prop57
140
1.0
102
RTVSPost2010PropOp57
 70
     1
102
RTVSPropertyOp0
 70
     1
102
RTVSPropertyOp1
 70
     1
102
RTVSPropertyOp2
 70
     1
102
RTVSPropertyOp3
 70
     1
102
RTVSPropertyOp4
 70
     1
102
RTVSPropertyOp5
 70
     1
102
RTVSPropertyOp6
 70
     1
102
RTVSPropertyOp7
 70
     1
102
RTVSPropertyOp8
 70
     1
102
RTVSPropertyOp9
 70
     1
102
RTVSPropertyOp10
 70
     1
102
RTVSPropertyOp11
 70
     1
102
RTVSPropertyOp12
 70
     1
102
RTVSPropertyOp13
 70
     1
102
RTVSPropertyOp14
 70
     1
102
RTVSPropertyOp15
 70
     1
102
RTVSPropertyOp16
 70
     1
102
RTVSPropertyOp17
 70
     1
102
RTVSPropertyOp18
 70
     1
102
RTVSPropertyOp19
 70
     1
102
RTVSPropertyOp20
 70
     1
102
RTVSPropertyOp21
 70
     1
102
RTVSPropertyOp22
 70
     1
102
RTVSPropertyOp23
 70
     1
102
RTVSPropertyOp24
 70
     1
102
RTVSPropertyOp25
 70
     1
102
RTVSPropertyOp26
 70
     1
102
RTVSPropertyOp27
 70
     1
102
RTVSPropertyOp28
 70
     1
102
RTVSPropertyOp29
 70
     1
102
RTVSPropertyOp30
 70
     1
102
RTVSPropertyOp31
 70
     1
102
RTVSPropertyOp32
 70
     1
102
RTVSPropertyOp33
 70
     1
102
RTVSPropertyOp34
 70
     1
102
RTVSPropertyOp35
 70
     1
102
RTVSPropertyOp36
 70
     1
102
RTVSPropertyOp37
 70
     1
102
RTVSPropertyOp38
 70
     1
102
RTVSPropertyOp39
 70
     1
102
RTVSPropertyOp40
 70
     1
102
RTVSPropertyOp41
 70
     1
102
RTVSPropertyOp42
 70
     1
102
RTVSPropertyOp43
 70
     1
102
RTVSPropertyOp44
 70
     1
102
RTVSPropertyOp45
 70
     1
102
RTVSPropertyOp46
 70
     1
102
RTVSPropertyOp47
 70
     1
102
RTVSPropertyOp48
 70
     1
102
RTVSPropertyOp49
 70
     1
102
RTVSPropertyOp50
 70
     1
102
RTVSPropertyOp51
 70
     0
102
RTVSPropertyOp52
 70
     0
102
RTVSPropertyOp53
 70
     1
102
RTVSPropertyOp54
 70
     1
102
RTVSPropertyOp55
 70
     1
102
RTVSPropertyOp56
 70
     1
102
RTVSPropertyOp57
 70
     1
102
RTVSPropertyOp58
 70
     1
102
RTVSPropertyOp59
 70
     1
102
RTVSPropertyOp60
 70
     1
102
RTVSPropertyOp61
 70
     1
102
RTVSPropertyOp62
 70
     1
  0
ENDSEC
  0
EOF
