  0
SECTION
  2
HEADER
  9
$ACADVER
  1
AC1015
  9
$ACADMAINTVER
 70
    20
  9
$DWGCODEPAGE
  3
ANSI_932
  9
$INSBASE
 10
0.0
 20
0.0
 30
0.0
  9
$EXTMIN
 10
10.0
 20
9.999999999999998
 30
0.0
  9
$EXTMAX
 10
385.56178
 20
285.2174619999999
 30
0.0
  9
$LIMMIN
 10
0.0
 20
0.0
  9
$LIMMAX
 10
495.0
 20
341.25
  9
$ORTHOMODE
 70
     1
  9
$REGENMODE
 70
     1
  9
$FILLMODE
 70
     1
  9
$QTEXTMODE
 70
     0
  9
$MIRRTEXT
 70
     1
  9
$LTSCALE
 40
20.0
  9
$ATTMODE
 70
     1
  9
$TEXTSIZE
 40
5.0
  9
$TRACEWID
 40
1.0
  9
$TEXTSTYLE
  7
STANDARD
  9
$CLAYER
  8
0
  9
$CELTYPE
  6
BYLAYER
  9
$CECOLOR
 62
   256
  9
$CELTSCALE
 40
1.0
  9
$DISPSILH
 70
     0
  9
$DIMSCALE
 40
1.0
  9
$DIMASZ
 40
3.0
  9
$DIMEXO
 40
1.0
  9
$DIMDLI
 40
10.0
  9
$DIMRND
 40
0.0
  9
$DIMDLE
 40
0.0
  9
$DIMEXE
 40
1.0
  9
$DIMTP
 40
0.0
  9
$DIMTM
 40
0.0
  9
$DIMTXT
 40
3.2
  9
$DIMCEN
 40
0.0
  9
$DIMTSZ
 40
0.0
  9
$DIMTOL
 70
     0
  9
$DIMLIM
 70
     0
  9
$DIMTIH
 70
     0
  9
$DIMTOH
 70
     0
  9
$DIMSE1
 70
     0
  9
$DIMSE2
 70
     0
  9
$DIMTAD
 70
     3
  9
$DIMZIN
 70
     8
  9
$DIMBLK
  1

  9
$DIMASO
 70
     1
  9
$DIMSHO
 70
     1
  9
$DIMPOST
  1

  9
$DIMAPOST
  1

  9
$DIMALT
 70
     0
  9
$DIMALTD
 70
     2
  9
$DIMALTF
 40
25.4
  9
$DIMLFAC
 40
1.0
  9
$DIMTOFL
 70
     1
  9
$DIMTVP
 40
0.0
  9
$DIMTIX
 70
     0
  9
$DIMSOXD
 70
     0
  9
$DIMSAH
 70
     1
  9
$DIMBLK1
  1
OPEN
  9
$DIMBLK2
  1
OPEN
  9
$DIMSTYLE
  2
STANDARD
  9
$DIMCLRD
 70
     0
  9
$DIMCLRE
 70
     0
  9
$DIMCLRT
 70
     0
  9
$DIMTFAC
 40
1.0
  9
$DIMGAP
 40
1.0
  9
$DIMJUST
 70
     0
  9
$DIMSD1
 70
     0
  9
$DIMSD2
 70
     0
  9
$DIMTOLJ
 70
     1
  9
$DIMTZIN
 70
     0
  9
$DIMALTZ
 70
     0
  9
$DIMALTTZ
 70
     0
  9
$DIMUPT
 70
     0
  9
$DIMDEC
 70
     4
  9
$DIMTDEC
 70
     4
  9
$DIMALTU
 70
     2
  9
$DIMALTTD
 70
     2
  9
$DIMTXSTY
  7
STANDARD
  9
$DIMAUNIT
 70
     0
  9
$DIMADEC
 70
     0
  9
$DIMALTRND
 40
0.0
  9
$DIMAZIN
 70
     0
  9
$DIMDSEP
 70
    46
  9
$DIMATFIT
 70
     3
  9
$DIMFRAC
 70
     0
  9
$DIMLDRBLK
  1
OPEN
  9
$DIMLUNIT
 70
     2
  9
$DIMLWD
 70
    -2
  9
$DIMLWE
 70
    -2
  9
$DIMTMOVE
 70
     0
  9
$LUNITS
 70
     2
  9
$LUPREC
 70
     4
  9
$SKETCHINC
 40
1.0
  9
$FILLETRAD
 40
0.0
  9
$AUNITS
 70
     0
  9
$AUPREC
 70
     2
  9
$MENU
  1
.
  9
$ELEVATION
 40
0.0
  9
$PELEVATION
 40
0.0
  9
$THICKNESS
 40
0.0
  9
$LIMCHECK
 70
     0
  9
$CHAMFERA
 40
10.0
  9
$CHAMFERB
 40
10.0
  9
$CHAMFERC
 40
0.0
  9
$CHAMFERD
 40
0.0
  9
$SKPOLY
 70
     0
  9
$TDCREATE
 40
2451301.408143403
  9
$TDUCREATE
 40
2451301.033143403
  9
$TDUPDATE
 40
2457192.686499988
  9
$TDUUPDATE
 40
2457192.311499988
  9
$TDINDWG
 40
0.0008281829
  9
$TDUSRTIMER
 40
0.0008278704
  9
$USRTIMER
 70
     1
  9
$ANGBASE
 50
0.0
  9
$ANGDIR
 70
     0
  9
$PDMODE
 70
     0
  9
$PDSIZE
 40
0.0
  9
$PLINEWID
 40
0.0
  9
$SPLFRAME
 70
     0
  9
$SPLINETYPE
 70
     6
  9
$SPLINESEGS
 70
     8
  9
$HANDSEED
  5
A5C1
  9
$SURFTAB1
 70
     6
  9
$SURFTAB2
 70
     6
  9
$SURFTYPE
 70
     6
  9
$SURFU
 70
     6
  9
$SURFV
 70
     6
  9
$UCSBASE
  2

  9
$UCSNAME
  2

  9
$UCSORG
 10
0.0
 20
0.0
 30
0.0
  9
$UCSXDIR
 10
1.0
 20
0.0
 30
0.0
  9
$UCSYDIR
 10
0.0
 20
1.0
 30
0.0
  9
$UCSORTHOREF
  2

  9
$UCSORTHOVIEW
 70
     0
  9
$UCSORGTOP
 10
0.0
 20
0.0
 30
0.0
  9
$UCSORGBOTTOM
 10
0.0
 20
0.0
 30
0.0
  9
$UCSORGLEFT
 10
0.0
 20
0.0
 30
0.0
  9
$UCSORGRIGHT
 10
0.0
 20
0.0
 30
0.0
  9
$UCSORGFRONT
 10
0.0
 20
0.0
 30
0.0
  9
$UCSORGBACK
 10
0.0
 20
0.0
 30
0.0
  9
$PUCSBASE
  2

  9
$PUCSNAME
  2

  9
$PUCSORG
 10
0.0
 20
0.0
 30
0.0
  9
$PUCSXDIR
 10
1.0
 20
0.0
 30
0.0
  9
$PUCSYDIR
 10
0.0
 20
1.0
 30
0.0
  9
$PUCSORTHOREF
  2

  9
$PUCSORTHOVIEW
 70
     0
  9
$PUCSORGTOP
 10
0.0
 20
0.0
 30
0.0
  9
$PUCSORGBOTTOM
 10
0.0
 20
0.0
 30
0.0
  9
$PUCSORGLEFT
 10
0.0
 20
0.0
 30
0.0
  9
$PUCSORGRIGHT
 10
0.0
 20
0.0
 30
0.0
  9
$PUCSORGFRONT
 10
0.0
 20
0.0
 30
0.0
  9
$PUCSORGBACK
 10
0.0
 20
0.0
 30
0.0
  9
$USERI1
 70
     0
  9
$USERI2
 70
     0
  9
$USERI3
 70
     0
  9
$USERI4
 70
     0
  9
$USERI5
 70
     0
  9
$USERR1
 40
0.0
  9
$USERR2
 40
0.0
  9
$USERR3
 40
0.0
  9
$USERR4
 40
0.0
  9
$USERR5
 40
0.0
  9
$WORLDVIEW
 70
     1
  9
$SHADEDGE
 70
     3
  9
$SHADEDIF
 70
    70
  9
$TILEMODE
 70
     1
  9
$MAXACTVP
 70
    16
  9
$PINSBASE
 10
0.0
 20
0.0
 30
0.0
  9
$PLIMCHECK
 70
     0
  9
$PEXTMIN
 10
1.000000000000000E+20
 20
1.000000000000000E+20
 30
1.000000000000000E+20
  9
$PEXTMAX
 10
-1.000000000000000E+20
 20
-1.000000000000000E+20
 30
-1.000000000000000E+20
  9
$PLIMMIN
 10
0.0
 20
0.0
  9
$PLIMMAX
 10
420.0
 20
297.0
  9
$UNITMODE
 70
     0
  9
$VISRETAIN
 70
     0
  9
$PLINEGEN
 70
     0
  9
$PSLTSCALE
 70
     0
  9
$TREEDEPTH
 70
  3020
  9
$CMLSTYLE
  2
STANDARD
  9
$CMLJUST
 70
     0
  9
$CMLSCALE
 40
1.0
  9
$PROXYGRAPHICS
 70
     1
  9
$MEASUREMENT
 70
     0
  9
$CELWEIGHT
370
    -1
  9
$ENDCAPS
280
     0
  9
$JOINSTYLE
280
     0
  9
$LWDISPLAY
290
     0
  9
$INSUNITS
 70
     0
  9
$HYPERLINKBASE
  1

  9
$STYLESHEET
  1

  9
$XEDIT
290
     1
  9
$CEPSNTYPE
380
     0
  9
$PSTYLEMODE
290
     1
  9
$FINGERPRINTGUID
  2
{CDA9072E-36A2-4850-8766-EFA2D59D935E}
  9
$VERSIONGUID
  2
{F3129E06-1839-4225-8756-E4B3D62839B5}
  9
$EXTNAMES
290
     1
  9
$PSVPSCALE
 40
0.0
  9
$OLESTARTUP
290
     0
  0
ENDSEC
  0
SECTION
  2
CLASSES
  0
CLASS
  1
ACDBDICTIONARYWDFLT
  2
AcDbDictionaryWithDefault
  3
ObjectDBX Classes
 90
        0
280
     0
281
     0
  0
CLASS
  1
ACDBPLACEHOLDER
  2
AcDbPlaceHolder
  3
ObjectDBX Classes
 90
        0
280
     0
281
     0
  0
CLASS
  1
LAYOUT
  2
AcDbLayout
  3
ObjectDBX Classes
 90
        0
280
     0
281
     0
  0
CLASS
  1
DICTIONARYVAR
  2
AcDbDictionaryVar
  3
ObjectDBX Classes
 90
        0
280
     0
281
     0
  0
CLASS
  1
MATERIAL
  2
AcDbMaterial
  3
ObjectDBX Classes
 90
     1153
280
     0
281
     0
  0
CLASS
  1
VISUALSTYLE
  2
AcDbVisualStyle
  3
ObjectDBX Classes
 90
     4095
280
     0
281
     0
  0
CLASS
  1
TABLESTYLE
  2
AcDbTableStyle
  3
ObjectDBX Classes
 90
     4095
280
     0
281
     0
  0
CLASS
  1
SCALE
  2
AcDbScale
  3
ObjectDBX Classes
 90
     1153
280
     0
281
     0
  0
CLASS
  1
MLEADERSTYLE
  2
AcDbMLeaderStyle
  3
ACDB_MLEADERSTYLE_CLASS
 90
     4095
280
     0
281
     0
  0
CLASS
  1
ACDBSECTIONVIEWSTYLE
  2
AcDbSectionViewStyle
  3
ObjectDBX Classes
 90
     1025
280
     0
281
     0
  0
CLASS
  1
ACDBDETAILVIEWSTYLE
  2
AcDbDetailViewStyle
  3
ObjectDBX Classes
 90
     1025
280
     0
281
     0
  0
CLASS
  1
CELLSTYLEMAP
  2
AcDbCellStyleMap
  3
ObjectDBX Classes
 90
     1152
280
     0
281
     0
  0
ENDSEC
  0
SECTION
  2
TABLES
  0
TABLE
  2
VPORT
  5
A2AF
330
0
100
AcDbSymbolTable
 70
     1
  0
VPORT
  5
A50A
330
A2AF
100
AcDbSymbolTableRecord
100
AcDbViewportTableRecord
  2
*ACTIVE
 70
     0
 10
0.0
 20
0.0
 11
1.0
 21
1.0
 12
281.1485467191423
 22
147.609787755046
 13
0.0
 23
0.0
 14
10.0
 24
10.0
 15
10.0
 25
10.0
 16
0.0
 26
0.0
 36
1.0
 17
0.0
 27
0.0
 37
0.0
 40
278.2866693215096
 41
2.35006605019815
 42
50.0
 43
0.0
 44
0.0
 50
0.0
 51
0.0
 71
     0
 72
   100
 73
     1
 74
     0
 75
     0
 76
     0
 77
     0
 78
     0
281
     0
 65
     1
110
0.0
120
0.0
130
0.0
111
1.0
121
0.0
131
0.0
112
0.0
122
1.0
132
0.0
 79
     0
146
0.0
1001
ACAD_NAV_VCDISPLAY
1070
     3
  0
ENDTAB
  0
TABLE
  2
LTYPE
  5
A2AC
330
0
100
AcDbSymbolTable
 70
     4
  0
LTYPE
  5
A2BA
330
A2AC
100
AcDbSymbolTableRecord
100
AcDbLinetypeTableRecord
  2
BYBLOCK
 70
     0
  3

 72
    65
 73
     0
 40
0.0
  0
LTYPE
  5
A2BB
330
A2AC
100
AcDbSymbolTableRecord
100
AcDbLinetypeTableRecord
  2
BYLAYER
 70
     0
  3

 72
    65
 73
     0
 40
0.0
  0
LTYPE
  5
A2BC
330
A2AC
100
AcDbSymbolTableRecord
100
AcDbLinetypeTableRecord
  2
CONTINUOUS
 70
     0
  3
Solid line
 72
    65
 73
     0
 40
0.0
  0
LTYPE
  5
A2CA
330
A2AC
100
AcDbSymbolTableRecord
100
AcDbLinetypeTableRecord
  2
DASHED
 70
     0
  3
__ __ __ __ __ __ __ __ __ __ __ __ __ __ __ __
 72
    65
 73
     2
 40
0.75
 49
0.5
 74
     0
 49
-0.25
 74
     0
  0
LTYPE
  5
A2CB
330
A2AC
100
AcDbSymbolTableRecord
100
AcDbLinetypeTableRecord
  2
CENTER
 70
     0
  3
____ _ ____ _ ____ _ ____ _ ____ _ ____ _ ____ 
 72
    65
 73
     4
 40
2.0
 49
1.25
 74
     0
 49
-0.25
 74
     0
 49
0.25
 74
     0
 49
-0.25
 74
     0
  0
LTYPE
  5
A2CC
330
A2AC
100
AcDbSymbolTableRecord
100
AcDbLinetypeTableRecord
  2
PHANTOM
 70
     0
  3
______  __  __  ______  __  __  ______  __  __ 
 72
    65
 73
     6
 40
2.5
 49
1.25
 74
     0
 49
-0.25
 74
     0
 49
0.25
 74
     0
 49
-0.25
 74
     0
 49
0.25
 74
     0
 49
-0.25
 74
     0
  0
ENDTAB
  0
TABLE
  2
LAYER
  5
A2A9
330
0
100
AcDbSymbolTable
 70
     8
  0
LAYER
  5
A2B7
102
{ACAD_XDICTIONARY
360
A565
102
}
330
A2A9
100
AcDbSymbolTableRecord
100
AcDbLayerTableRecord
  2
0
 70
     0
 62
     7
  6
CONTINUOUS
370
    -3
390
A513
  0
LAYER
  5
A2CD
102
{ACAD_XDICTIONARY
360
A567
102
}
330
A2A9
100
AcDbSymbolTableRecord
100
AcDbLayerTableRecord
  2
4
 70
     0
 62
     1
  6
CENTER
370
    -3
390
A513
  0
LAYER
  5
A2CE
102
{ACAD_XDICTIONARY
360
A569
102
}
330
A2A9
100
AcDbSymbolTableRecord
100
AcDbLayerTableRecord
  2
5
 70
     0
 62
     6
  6
PHANTOM
370
    -3
390
A513
  0
LAYER
  5
A2CF
102
{ACAD_XDICTIONARY
360
A56B
102
}
330
A2A9
100
AcDbSymbolTableRecord
100
AcDbLayerTableRecord
  2
1
 70
     0
 62
     7
  6
CONTINUOUS
370
    -3
390
A513
  0
LAYER
  5
A2D0
102
{ACAD_XDICTIONARY
360
A56D
102
}
330
A2A9
100
AcDbSymbolTableRecord
100
AcDbLayerTableRecord
  2
2
 70
     0
 62
     4
  6
CONTINUOUS
370
    -3
390
A513
  0
LAYER
  5
A2D1
102
{ACAD_XDICTIONARY
360
A56F
102
}
330
A2A9
100
AcDbSymbolTableRecord
100
AcDbLayerTableRecord
  2
3
 70
     0
 62
     2
  6
DASHED
370
    -3
390
A513
  0
LAYER
  5
A2D2
102
{ACAD_XDICTIONARY
360
A571
102
}
330
A2A9
100
AcDbSymbolTableRecord
100
AcDbLayerTableRecord
  2
6
 70
     0
 62
     5
  6
CONTINUOUS
370
    -3
390
A513
  0
LAYER
  5
A2D3
102
{ACAD_XDICTIONARY
360
A573
102
}
330
A2A9
100
AcDbSymbolTableRecord
100
AcDbLayerTableRecord
  2
7
 70
     0
 62
     3
  6
CONTINUOUS
370
    -3
390
A513
  0
ENDTAB
  0
TABLE
  2
STYLE
  5
A2AA
330
0
100
AcDbSymbolTable
 70
     1
  0
STYLE
  5
A2B8
330
A2AA
100
AcDbSymbolTableRecord
100
AcDbTextStyleTableRecord
  2
STANDARD
 70
     0
 40
0.0
 41
1.0
 50
0.0
 71
     0
 42
5.0
  3
txt
  4

  0
ENDTAB
  0
TABLE
  2
VIEW
  5
A2AD
330
0
100
AcDbSymbolTable
 70
     0
  0
ENDTAB
  0
TABLE
  2
UCS
  5
A2AE
330
0
100
AcDbSymbolTable
 70
     0
  0
ENDTAB
  0
TABLE
  2
APPID
  5
A2B0
330
0
100
AcDbSymbolTable
 70
     3
  0
APPID
  5
A2B9
330
A2B0
100
AcDbSymbolTableRecord
100
AcDbRegAppTableRecord
  2
ACAD
 70
     0
  0
APPID
  5
A57F
330
A2B0
100
AcDbSymbolTableRecord
100
AcDbRegAppTableRecord
  2
ACAD_NAV_VCDISPLAY
 70
     0
  0
APPID
  5
A5B8
330
A2B0
100
AcDbSymbolTableRecord
100
AcDbRegAppTableRecord
  2
ACAD_MLEADERVER
 70
     0
  0
ENDTAB
  0
TABLE
  2
DIMSTYLE
  5
A2B1
330
0
100
AcDbSymbolTable
 70
     1
100
AcDbDimStyleTable
 71
     0
  0
DIMSTYLE
105
A2D5
330
A2B1
100
AcDbSymbolTableRecord
100
AcDbDimStyleTableRecord
  2
STANDARD
 70
     0
 41
3.0
 42
1.0
 43
10.0
 44
1.0
 73
     0
 74
     0
 77
     3
 78
     8
140
3.2
141
0.0
147
1.0
172
     1
173
     1
284
     8
285
     8
286
     8
340
A2B8
  0
ENDTAB
  0
TABLE
  2
BLOCK_RECORD
  5
A2A8
330
0
100
AcDbSymbolTable
 70
     1
  0
BLOCK_RECORD
  5
A2C5
102
{ACAD_XDICTIONARY
360
A50D
102
}
330
A2A8
100
AcDbSymbolTableRecord
100
AcDbBlockTableRecord
  2
*MODEL_SPACE
340
A561
  0
BLOCK_RECORD
  5
A2C1
102
{ACAD_XDICTIONARY
360
A50B
102
}
330
A2A8
100
AcDbSymbolTableRecord
100
AcDbBlockTableRecord
  2
*PAPER_SPACE
340
A562
  0
BLOCK_RECORD
  5
A2DD
330
A2A8
100
AcDbSymbolTableRecord
100
AcDbBlockTableRecord
  2
_OPEN
340
0
  0
ENDTAB
  0
ENDSEC
  0
SECTION
  2
BLOCKS
  0
BLOCK
  5
A2C6
330
A2C5
100
AcDbEntity
  8
0
100
AcDbBlockBegin
  2
*MODEL_SPACE
 70
     0
 10
0.0
 20
0.0
 30
0.0
  3
*MODEL_SPACE
  1

  0
ENDBLK
  5
A2C7
330
A2C5
100
AcDbEntity
  8
0
100
AcDbBlockEnd
  0
BLOCK
  5
A2C2
330
A2C1
100
AcDbEntity
 67
     1
  8
0
100
AcDbBlockBegin
  2
*PAPER_SPACE
 70
     0
 10
0.0
 20
0.0
 30
0.0
  3
*PAPER_SPACE
  1

  0
ENDBLK
  5
A2C3
330
A2C1
100
AcDbEntity
 67
     1
  8
0
100
AcDbBlockEnd
  0
BLOCK
  5
A2DE
330
A2DD
100
AcDbEntity
  8
0
100
AcDbBlockBegin
  2
_OPEN
 70
     0
 10
0.0
 20
0.0
 30
0.0
  3
_OPEN
  1

  0
LINE
  5
A2DF
330
A2DD
100
AcDbEntity
  8
0
  6
ByBlock
 62
     0
100
AcDbLine
 10
-1.0
 20
0.166667
 30
0.0
 11
0.0
 21
0.0
 31
0.0
  0
LINE
  5
A2E0
330
A2DD
100
AcDbEntity
  8
0
  6
ByBlock
 62
     0
100
AcDbLine
 10
0.0
 20
0.0
 30
0.0
 11
-1.0
 21
-0.166667
 31
0.0
  0
LINE
  5
A2E1
330
A2DD
100
AcDbEntity
  8
0
  6
ByBlock
 62
     0
100
AcDbLine
 10
0.0
 20
0.0
 30
0.0
 11
-1.0
 21
0.0
 31
0.0
  0
ENDBLK
  5
A2E2
330
A2DD
100
AcDbEntity
  8
0
100
AcDbBlockEnd
  0
ENDSEC
  0
SECTION
  2
ENTITIES
  0
TEXT
  5
A2E3
330
A2C5
100
AcDbEntity
  8
7
  6
Continuous
100
AcDbText
 10
10.0
 20
18.0
 30
0.0
 40
3.0
  1
TYPE No.103
100
AcDbText
  0
TEXT
  5
A2E4
330
A2C5
100
AcDbEntity
  8
7
  6
Continuous
100
AcDbText
 10
10.0
 20
26.0
 30
0.0
 40
3.0
  1
CODE No.9003
100
AcDbText
  0
TEXT
  5
A2E5
330
A2C5
100
AcDbEntity
  8
1
  6
Continuous
100
AcDbText
 10
10.0
 20
10.0
 30
0.0
 40
1.399999999999999
  1
LAYER
100
AcDbText
  0
TEXT
  5
A2E6
330
A2C5
100
AcDbEntity
  8
1
  6
Continuous
100
AcDbText
 10
17.97951099999998
 20
10.04873699999998
 30
0.0
 40
1.399999999999999
  1
1
100
AcDbText
  0
TEXT
  5
A2E7
330
A2C5
100
AcDbEntity
  8
7
  6
Continuous
100
AcDbText
 10
29.97951099999999
 20
10.04873699999998
 30
0.0
 40
1.399999999999999
  1
7
100
AcDbText
  0
TEXT
  5
A2E8
330
A2C5
100
AcDbEntity
  8
4
  6
CENTER
100
AcDbText
 10
23.97951099999999
 20
10.04873699999998
 30
0.0
 40
1.399999999999999
  1
4
100
AcDbText
  0
TEXT
  5
A2E9
330
A2C5
100
AcDbEntity
  8
3
  6
DASHED
100
AcDbText
 10
21.979511
 20
10.04873699999998
 30
0.0
 40
1.399999999999999
  1
3
100
AcDbText
  0
TEXT
  5
A2EA
330
A2C5
100
AcDbEntity
  8
2
  6
Continuous
100
AcDbText
 10
19.97951099999999
 20
10.04873699999998
 30
0.0
 40
1.399999999999999
  1
2
100
AcDbText
  0
TEXT
  5
A2EB
330
A2C5
100
AcDbEntity
  8
6
  6
Continuous
100
AcDbText
 10
27.979511
 20
10.04873699999998
 30
0.0
 40
1.399999999999999
  1
6
100
AcDbText
  0
TEXT
  5
A2EC
330
A2C5
100
AcDbEntity
  8
5
  6
PHANTOM
100
AcDbText
 10
25.97951099999999
 20
10.04873699999998
 30
0.0
 40
1.399999999999999
  1
5
100
AcDbText
  0
LINE
  5
A2ED
330
A2C5
100
AcDbEntity
  8
1
  6
Continuous
100
AcDbLine
 10
179.6646189999999
 20
238.217462
 30
0.0
 11
124.6646189999998
 21
238.217462
 31
0.0
  0
LINE
  5
A2EE
330
A2C5
100
AcDbEntity
  8
1
  6
Continuous
100
AcDbLine
 10
122.1646189999999
 20
240.717462
 30
0.0
 11
122.1646189999999
 21
277.717462
 31
0.0
  0
LINE
  5
A2EF
330
A2C5
100
AcDbEntity
  8
1
  6
Continuous
100
AcDbLine
 10
124.6646189999998
 20
280.217462
 30
0.0
 11
179.6646189999999
 21
280.217462
 31
0.0
  0
LINE
  5
A2F0
330
A2C5
100
AcDbEntity
  8
1
  6
Continuous
100
AcDbLine
 10
182.1646189999999
 20
277.717462
 30
0.0
 11
182.1646189999999
 21
240.717462
 31
0.0
  0
CIRCLE
  5
A2F1
330
A2C5
100
AcDbEntity
  8
1
  6
Continuous
100
AcDbCircle
 10
152.164619
 20
259.217462
 30
0.0
 40
8.5
  0
CIRCLE
  5
A2F2
330
A2C5
100
AcDbEntity
  8
1
  6
Continuous
100
AcDbCircle
 10
175.6646189999999
 20
273.717462
 30
0.0
 40
3.25
  0
CIRCLE
  5
A2F3
330
A2C5
100
AcDbEntity
  8
1
  6
Continuous
100
AcDbCircle
 10
175.6646189999999
 20
244.717462
 30
0.0
 40
3.25
  0
CIRCLE
  5
A2F4
330
A2C5
100
AcDbEntity
  8
1
  6
Continuous
100
AcDbCircle
 10
128.6646189999999
 20
244.717462
 30
0.0
 40
3.25
  0
CIRCLE
  5
A2F5
330
A2C5
100
AcDbEntity
  8
1
  6
Continuous
100
AcDbCircle
 10
128.6646189999999
 20
273.717462
 30
0.0
 40
3.25
  0
ARC
  5
A2F6
330
A2C5
100
AcDbEntity
  8
1
  6
Continuous
100
AcDbCircle
 10
179.6646189999999
 20
277.717462
 30
0.0
 40
2.5
100
AcDbArc
 50
0.0
 51
90.0
  0
ARC
  5
A2F7
330
A2C5
100
AcDbEntity
  8
1
  6
Continuous
100
AcDbCircle
 10
179.6646189999999
 20
240.717462
 30
0.0
 40
2.5
100
AcDbArc
 50
270.0
 51
0.0
  0
ARC
  5
A2F8
330
A2C5
100
AcDbEntity
  8
1
  6
Continuous
100
AcDbCircle
 10
124.6646189999998
 20
277.717462
 30
0.0
 40
2.5
100
AcDbArc
 50
90.0
 51
180.0
  0
ARC
  5
A2F9
330
A2C5
100
AcDbEntity
  8
1
  6
Continuous
100
AcDbCircle
 10
124.6646189999998
 20
240.717462
 30
0.0
 40
2.5
100
AcDbArc
 50
180.0
 51
270.0
  0
LINE
  5
A2FA
330
A2C5
100
AcDbEntity
  8
1
  6
Continuous
100
AcDbLine
 10
263.2132029999999
 20
186.8011789999999
 30
0.0
 11
263.2132029999999
 21
166.401179
 31
0.0
  0
ARC
  5
A2FB
330
A2C5
100
AcDbEntity
  8
1
  6
Continuous
100
AcDbCircle
 10
228.5132029999998
 20
186.8011789999999
 30
0.0
 40
3.0
100
AcDbArc
 50
90.0
 51
180.0
  0
ARC
  5
A2FC
330
A2C5
100
AcDbEntity
  8
1
  6
Continuous
100
AcDbCircle
 10
260.2132029999999
 20
186.8011789999999
 30
0.0
 40
3.0
100
AcDbArc
 50
0.0
 51
90.0
  0
LINE
  5
A2FD
330
A2C5
100
AcDbEntity
  8
1
  6
Continuous
100
AcDbLine
 10
228.1362479999998
 20
193.145533
 30
0.0
 11
260.5899609999998
 21
193.145533
 31
0.0
  0
ARC
  5
A2FE
330
A2C5
100
AcDbEntity
  8
1
  6
Continuous
100
AcDbCircle
 10
228.1362479999998
 20
196.324106
 30
0.0
 40
3.178573
100
AcDbArc
 50
236.7899089999999
 51
270.0
  0
LINE
  5
A2FF
330
A2C5
100
AcDbEntity
  8
1
  6
Continuous
100
AcDbLine
 10
224.5976069999999
 20
194.865533
 30
0.0
 11
224.4094409999999
 21
195.113571
 31
0.0
  0
LINE
  5
A300
330
A2C5
100
AcDbEntity
  8
1
  6
Continuous
100
AcDbLine
 10
223.3632029999998
 20
197.1135329999999
 30
0.0
 11
265.363203
 21
197.1135329999999
 31
0.0
  0
ARC
  5
A301
330
A2C5
100
AcDbEntity
  8
1
  6
Continuous
100
AcDbCircle
 10
290.1340339999998
 20
291.0302449999999
 30
0.0
 40
116.3729999999999
100
AcDbArc
 50
235.7254979999999
 51
236.7899089999999
  0
ARC
  5
A302
330
A2C5
100
AcDbEntity
  8
1
  6
Continuous
100
AcDbCircle
 10
230.6688359999998
 20
192.7040129999998
 30
0.0
 40
2.371570999999998
100
AcDbArc
 50
188.020211
 51
218.050809
  0
ARC
  5
A303
330
A2C5
100
AcDbEntity
  8
1
  6
Continuous
100
AcDbCircle
 10
229.350973
 20
191.991802
 30
0.0
 40
1.098799999999998
100
AcDbArc
 50
121.214655
 51
159.693839
  0
LINE
  5
A304
330
A2C5
100
AcDbEntity
  8
1
  6
Continuous
100
AcDbLine
 10
228.1131039999999
 20
189.801237
 30
0.0
 11
260.613104
 21
189.801043
 31
0.0
  0
LINE
  5
A305
330
A2C5
100
AcDbEntity
  8
1
  6
Continuous
100
AcDbLine
 10
223.3632029999998
 20
195.113571
 30
0.0
 11
265.363203
 21
195.113571
 31
0.0
  0
LINE
  5
A306
330
A2C5
100
AcDbEntity
  8
1
  6
Continuous
100
AcDbLine
 10
260.613104
 20
191.2421929999999
 30
0.0
 11
228.1131039999999
 21
191.242273
 31
0.0
  0
LINE
  5
A307
330
A2C5
100
AcDbEntity
  8
1
  6
Continuous
100
AcDbLine
 10
228.1131039999999
 20
191.242233
 30
0.0
 11
228.1131039999999
 21
189.801237
 31
0.0
  0
LINE
  5
A308
330
A2C5
100
AcDbEntity
  8
1
  6
Continuous
100
AcDbLine
 10
228.781524
 20
192.93153
 30
0.0
 11
229.1346809999998
 21
193.145533
 31
0.0
  0
ARC
  5
A309
330
A2C5
100
AcDbEntity
  8
1
  6
Continuous
100
AcDbCircle
 10
260.5899609999998
 20
196.324106
 30
0.0
 40
3.178573
100
AcDbArc
 50
270.0
 51
303.210091
  0
LINE
  5
A30A
330
A2C5
100
AcDbEntity
  8
1
  6
Continuous
100
AcDbLine
 10
264.1286009999999
 20
194.865533
 30
0.0
 11
264.316768
 21
195.113571
 31
0.0
  0
ARC
  5
A30B
330
A2C5
100
AcDbEntity
  8
1
  6
Continuous
100
AcDbCircle
 10
198.592174
 20
291.0302449999999
 30
0.0
 40
116.3729999999999
100
AcDbArc
 50
303.210091
 51
304.2745019999999
  0
ARC
  5
A30C
330
A2C5
100
AcDbEntity
  8
1
  6
Continuous
100
AcDbCircle
 10
258.0573719999999
 20
192.7040129999998
 30
0.0
 40
2.371570999999998
100
AcDbArc
 50
321.9491909999999
 51
351.9797889999999
  0
ARC
  5
A30D
330
A2C5
100
AcDbEntity
  8
1
  6
Continuous
100
AcDbCircle
 10
259.3752359999999
 20
191.991802
 30
0.0
 40
1.098799999999998
100
AcDbArc
 50
20.306161
 51
58.785345
  0
LINE
  5
A30E
330
A2C5
100
AcDbEntity
  8
1
  6
Continuous
100
AcDbLine
 10
260.613104
 20
191.242233
 30
0.0
 11
260.613104
 21
189.801237
 31
0.0
  0
LINE
  5
A30F
330
A2C5
100
AcDbEntity
  8
1
  6
Continuous
100
AcDbLine
 10
259.944684
 20
192.93153
 30
0.0
 11
259.5915279999999
 21
193.145533
 31
0.0
  0
LINE
  5
A310
330
A2C5
100
AcDbEntity
  8
1
  6
Continuous
100
AcDbLine
 10
223.3632029999998
 20
197.1135329999999
 30
0.0
 11
223.3632029999998
 21
195.113571
 31
0.0
  0
LINE
  5
A311
330
A2C5
100
AcDbEntity
  8
1
  6
Continuous
100
AcDbLine
 10
265.363203
 20
197.1135329999999
 30
0.0
 11
265.363203
 21
195.113571
 31
0.0
  0
LINE
  5
A312
330
A2C5
100
AcDbEntity
  8
1
  6
Continuous
100
AcDbLine
 10
231.1158789999999
 20
183.097428
 30
0.0
 11
257.6105279999998
 21
183.097428
 31
0.0
  0
ARC
  5
A313
330
A2C5
100
AcDbEntity
  8
1
  6
Continuous
100
AcDbCircle
 10
257.6105279999998
 20
179.1487379999999
 30
0.0
 40
3.94869
100
AcDbArc
 50
33.136856
 51
90.0
  0
ARC
  5
A314
330
A2C5
100
AcDbEntity
  8
1
  6
Continuous
100
AcDbCircle
 10
249.094448
 20
173.5893659999999
 30
0.0
 40
14.11875499999999
100
AcDbArc
 50
0.0
 51
33.136856
  0
ARC
  5
A315
330
A2C5
100
AcDbEntity
  8
1
  6
Continuous
100
AcDbCircle
 10
247.9536839999999
 20
173.5058109999999
 30
0.0
 40
13.262575
100
AcDbArc
 50
4.189117999999997
 51
46.32007700000001
  0
ARC
  5
A316
330
A2C5
100
AcDbEntity
  8
1
  6
Continuous
100
AcDbCircle
 10
231.1158789999999
 20
179.1487379999999
 30
0.0
 40
3.94869
100
AcDbArc
 50
90.0
 51
146.863144
  0
ARC
  5
A317
330
A2C5
100
AcDbEntity
  8
1
  6
Continuous
100
AcDbCircle
 10
239.631959
 20
173.5893659999999
 30
0.0
 40
14.11875499999999
100
AcDbArc
 50
146.863144
 51
180.0
  0
LINE
  5
A318
330
A2C5
100
AcDbEntity
  8
1
  6
Continuous
100
AcDbLine
 10
234.3632029999999
 20
179.5167409999999
 30
0.0
 11
234.3632029999999
 21
134.709334
 31
0.0
  0
LINE
  5
A319
330
A2C5
100
AcDbEntity
  8
1
  6
Continuous
100
AcDbLine
 10
232.8632029999999
 20
165.613038
 30
0.0
 11
232.8632029999999
 21
148.6130379999998
 31
0.0
  0
LINE
  5
A31A
330
A2C5
100
AcDbEntity
  8
1
  6
Continuous
100
AcDbLine
 10
232.8632029999999
 20
165.613038
 30
0.0
 11
234.3632029999999
 21
165.613038
 31
0.0
  0
ARC
  5
A31B
330
A2C5
100
AcDbEntity
  8
1
  6
Continuous
100
AcDbCircle
 10
244.3632029999999
 20
147.1130379999999
 30
0.0
 40
35.0
100
AcDbArc
 50
75.30157599999999
 51
104.698424
  0
ARC
  5
A31C
330
A2C5
100
AcDbEntity
  8
1
  6
Continuous
100
AcDbCircle
 10
235.8632029999998
 20
179.5167409999999
 30
0.0
 40
1.5
100
AcDbArc
 50
104.698424
 51
180.0
  0
LINE
  5
A31D
330
A2C5
100
AcDbEntity
  8
1
  6
Continuous
100
AcDbLine
 10
254.3632029999999
 20
179.5167409999999
 30
0.0
 11
254.3632029999999
 21
134.709334
 31
0.0
  0
LINE
  5
A31E
330
A2C5
100
AcDbEntity
  8
1
  6
Continuous
100
AcDbLine
 10
255.8632029999999
 20
165.613038
 30
0.0
 11
254.3632029999999
 21
165.613038
 31
0.0
  0
ARC
  5
A31F
330
A2C5
100
AcDbEntity
  8
1
  6
Continuous
100
AcDbCircle
 10
252.8632029999999
 20
179.5167409999999
 30
0.0
 40
1.5
100
AcDbArc
 50
0.0
 51
75.30157599999999
  0
LINE
  5
A320
330
A2C5
100
AcDbEntity
  8
1
  6
Continuous
100
AcDbLine
 10
232.8632029999999
 20
148.6130379999998
 30
0.0
 11
234.3632029999999
 21
148.6130379999998
 31
0.0
  0
ARC
  5
A321
330
A2C5
100
AcDbEntity
  8
1
  6
Continuous
100
AcDbCircle
 10
244.3632029999999
 20
167.1130379999999
 30
0.0
 40
35.0
100
AcDbArc
 50
255.301576
 51
284.6984239999999
  0
ARC
  5
A322
330
A2C5
100
AcDbEntity
  8
1
  6
Continuous
100
AcDbCircle
 10
235.8632029999998
 20
134.709334
 30
0.0
 40
1.5
100
AcDbArc
 50
180.0
 51
255.301576
  0
LINE
  5
A323
330
A2C5
100
AcDbEntity
  8
1
  6
Continuous
100
AcDbLine
 10
255.8632029999999
 20
148.6130379999998
 30
0.0
 11
254.3632029999999
 21
148.6130379999998
 31
0.0
  0
ARC
  5
A324
330
A2C5
100
AcDbEntity
  8
1
  6
Continuous
100
AcDbCircle
 10
252.8632029999999
 20
134.709334
 30
0.0
 40
1.5
100
AcDbArc
 50
284.6984239999999
 51
0.0
  0
LINE
  5
A325
330
A2C5
100
AcDbEntity
  8
1
  6
Continuous
100
AcDbLine
 10
255.8632029999999
 20
165.613038
 30
0.0
 11
255.8632029999999
 21
148.6130379999998
 31
0.0
  0
LINE
  5
A326
330
A2C5
100
AcDbEntity
  8
1
  6
Continuous
100
AcDbLine
 10
110.760923
 20
249.217462
 30
0.0
 11
122.1646189999999
 21
249.217462
 31
0.0
  0
ARC
  5
A327
330
A2C5
100
AcDbEntity
  8
1
  6
Continuous
100
AcDbCircle
 10
143.1646259999999
 20
259.217462
 30
0.0
 40
35.0
100
AcDbArc
 50
165.301576
 51
194.698424
  0
ARC
  5
A328
330
A2C5
100
AcDbEntity
  8
1
  6
Continuous
100
AcDbCircle
 10
110.760923
 20
250.717462
 30
0.0
 40
1.5
100
AcDbArc
 50
194.698424
 51
270.0
  0
LINE
  5
A329
330
A2C5
100
AcDbEntity
  8
1
  6
Continuous
100
AcDbLine
 10
110.760923
 20
269.217462
 30
0.0
 11
122.1646189999999
 21
269.217462
 31
0.0
  0
ARC
  5
A32A
330
A2C5
100
AcDbEntity
  8
1
  6
Continuous
100
AcDbCircle
 10
110.760923
 20
267.717462
 30
0.0
 40
1.5
100
AcDbArc
 50
90.0
 51
165.301576
  0
CIRCLE
  5
A32B
330
A2C5
100
AcDbEntity
  8
1
  6
Continuous
100
AcDbCircle
 10
152.164619
 20
259.217462
 30
0.0
 40
16.89999999999999
  0
CIRCLE
  5
A32C
330
A2C5
100
AcDbEntity
  8
1
  6
Continuous
100
AcDbCircle
 10
152.164619
 20
259.217462
 30
0.0
 40
15.25
  0
LINE
  5
A32D
330
A2C5
100
AcDbEntity
  8
1
  6
Continuous
100
AcDbLine
 10
231.8632029999999
 20
160.1130379999998
 30
0.0
 11
232.8632029999999
 21
160.1130379999998
 31
0.0
  0
LINE
  5
A32E
330
A2C5
100
AcDbEntity
  8
1
  6
Continuous
100
AcDbLine
 10
255.8632029999999
 20
160.1130379999998
 30
0.0
 11
256.8632029999998
 21
160.1130379999998
 31
0.0
  0
LINE
  5
A32F
330
A2C5
100
AcDbEntity
  8
1
  6
Continuous
100
AcDbLine
 10
231.8632029999999
 20
154.113038
 30
0.0
 11
232.8632029999999
 21
154.113038
 31
0.0
  0
LINE
  5
A330
330
A2C5
100
AcDbEntity
  8
1
  6
Continuous
100
AcDbLine
 10
255.8632029999999
 20
154.113038
 30
0.0
 11
256.8632029999998
 21
154.113038
 31
0.0
  0
LINE
  5
A331
330
A2C5
100
AcDbEntity
  8
1
  6
Continuous
100
AcDbLine
 10
229.1131029999998
 20
191.242233
 30
0.0
 11
228.1131039999999
 21
190.2422349999999
 31
0.0
  0
LINE
  5
A332
330
A2C5
100
AcDbEntity
  8
1
  6
Continuous
100
AcDbLine
 10
230.527316
 20
191.242233
 30
0.0
 11
228.52732
 21
189.801237
 31
0.0
  0
LINE
  5
A333
330
A2C5
100
AcDbEntity
  8
1
  6
Continuous
100
AcDbLine
 10
231.9415299999998
 20
191.242233
 30
0.0
 11
229.9415329999999
 21
189.801237
 31
0.0
  0
LINE
  5
A334
330
A2C5
100
AcDbEntity
  8
1
  6
Continuous
100
AcDbLine
 10
233.3557429999999
 20
191.242233
 30
0.0
 11
231.355747
 21
189.801237
 31
0.0
  0
LINE
  5
A335
330
A2C5
100
AcDbEntity
  8
1
  6
Continuous
100
AcDbLine
 10
234.7699569999999
 20
191.242233
 30
0.0
 11
232.7699599999998
 21
189.801237
 31
0.0
  0
LINE
  5
A336
330
A2C5
100
AcDbEntity
  8
1
  6
Continuous
100
AcDbLine
 10
236.1841699999999
 20
191.242233
 30
0.0
 11
234.184174
 21
189.801237
 31
0.0
  0
LINE
  5
A337
330
A2C5
100
AcDbEntity
  8
1
  6
Continuous
100
AcDbLine
 10
237.5983839999999
 20
191.242233
 30
0.0
 11
235.598387
 21
189.801237
 31
0.0
  0
LINE
  5
A338
330
A2C5
100
AcDbEntity
  8
1
  6
Continuous
100
AcDbLine
 10
239.012597
 20
191.242233
 30
0.0
 11
237.0126009999999
 21
189.801237
 31
0.0
  0
LINE
  5
A339
330
A2C5
100
AcDbEntity
  8
1
  6
Continuous
100
AcDbLine
 10
240.4268109999999
 20
191.242233
 30
0.0
 11
238.426815
 21
189.801237
 31
0.0
  0
LINE
  5
A33A
330
A2C5
100
AcDbEntity
  8
1
  6
Continuous
100
AcDbLine
 10
241.8410249999999
 20
191.242233
 30
0.0
 11
239.8410279999999
 21
189.801237
 31
0.0
  0
LINE
  5
A33B
330
A2C5
100
AcDbEntity
  8
1
  6
Continuous
100
AcDbLine
 10
243.255238
 20
191.242233
 30
0.0
 11
241.2552419999999
 21
189.801237
 31
0.0
  0
LINE
  5
A33C
330
A2C5
100
AcDbEntity
  8
1
  6
Continuous
100
AcDbLine
 10
244.669452
 20
191.242233
 30
0.0
 11
242.6694549999999
 21
189.801237
 31
0.0
  0
LINE
  5
A33D
330
A2C5
100
AcDbEntity
  8
1
  6
Continuous
100
AcDbLine
 10
246.083665
 20
191.242233
 30
0.0
 11
244.0836689999999
 21
189.801237
 31
0.0
  0
LINE
  5
A33E
330
A2C5
100
AcDbEntity
  8
1
  6
Continuous
100
AcDbLine
 10
247.497879
 20
191.242233
 30
0.0
 11
245.497882
 21
189.801237
 31
0.0
  0
LINE
  5
A33F
330
A2C5
100
AcDbEntity
  8
1
  6
Continuous
100
AcDbLine
 10
248.9120919999999
 20
191.242233
 30
0.0
 11
246.912096
 21
189.801237
 31
0.0
  0
LINE
  5
A340
330
A2C5
100
AcDbEntity
  8
1
  6
Continuous
100
AcDbLine
 10
250.326306
 20
191.242233
 30
0.0
 11
248.32631
 21
189.801237
 31
0.0
  0
LINE
  5
A341
330
A2C5
100
AcDbEntity
  8
1
  6
Continuous
100
AcDbLine
 10
251.74052
 20
191.242233
 30
0.0
 11
249.740523
 21
189.801237
 31
0.0
  0
LINE
  5
A342
330
A2C5
100
AcDbEntity
  8
1
  6
Continuous
100
AcDbLine
 10
253.1547329999999
 20
191.242233
 30
0.0
 11
251.154737
 21
189.801237
 31
0.0
  0
LINE
  5
A343
330
A2C5
100
AcDbEntity
  8
1
  6
Continuous
100
AcDbLine
 10
254.568947
 20
191.242233
 30
0.0
 11
252.5689499999999
 21
189.801237
 31
0.0
  0
LINE
  5
A344
330
A2C5
100
AcDbEntity
  8
1
  6
Continuous
100
AcDbLine
 10
255.9831599999998
 20
191.242233
 30
0.0
 11
253.983164
 21
189.801237
 31
0.0
  0
LINE
  5
A345
330
A2C5
100
AcDbEntity
  8
1
  6
Continuous
100
AcDbLine
 10
257.397374
 20
191.242233
 30
0.0
 11
255.397377
 21
189.801237
 31
0.0
  0
LINE
  5
A346
330
A2C5
100
AcDbEntity
  8
1
  6
Continuous
100
AcDbLine
 10
258.8115869999999
 20
191.242233
 30
0.0
 11
256.811591
 21
189.801237
 31
0.0
  0
LINE
  5
A347
330
A2C5
100
AcDbEntity
  8
1
  6
Continuous
100
AcDbLine
 10
260.2258009999999
 20
191.242233
 30
0.0
 11
258.2258039999999
 21
189.801237
 31
0.0
  0
LINE
  5
A348
330
A2C5
100
AcDbEntity
  8
1
  6
Continuous
100
AcDbLine
 10
260.613104
 20
190.215323
 30
0.0
 11
259.6400179999998
 21
189.801237
 31
0.0
  0
LINE
  5
A349
330
A2C5
100
AcDbEntity
  8
1
  6
Continuous
100
AcDbLine
 10
229.1131029999998
 20
189.801237
 30
0.0
 11
228.1131039999999
 21
190.2422349999999
 31
0.0
  0
LINE
  5
A34A
330
A2C5
100
AcDbEntity
  8
1
  6
Continuous
100
AcDbLine
 10
229.9415329999999
 20
191.242233
 30
0.0
 11
231.9415299999998
 21
189.801237
 31
0.0
  0
LINE
  5
A34B
330
A2C5
100
AcDbEntity
  8
1
  6
Continuous
100
AcDbLine
 10
232.7699599999998
 20
191.242233
 30
0.0
 11
234.7699569999999
 21
189.801237
 31
0.0
  0
LINE
  5
A34C
330
A2C5
100
AcDbEntity
  8
1
  6
Continuous
100
AcDbLine
 10
235.598387
 20
191.242233
 30
0.0
 11
237.5983839999999
 21
189.801237
 31
0.0
  0
LINE
  5
A34D
330
A2C5
100
AcDbEntity
  8
1
  6
Continuous
100
AcDbLine
 10
238.426815
 20
191.242233
 30
0.0
 11
240.4268109999999
 21
189.801237
 31
0.0
  0
LINE
  5
A34E
330
A2C5
100
AcDbEntity
  8
1
  6
Continuous
100
AcDbLine
 10
241.2552419999999
 20
191.242233
 30
0.0
 11
243.255238
 21
189.801237
 31
0.0
  0
LINE
  5
A34F
330
A2C5
100
AcDbEntity
  8
1
  6
Continuous
100
AcDbLine
 10
244.0836689999999
 20
191.242233
 30
0.0
 11
246.083665
 21
189.801237
 31
0.0
  0
LINE
  5
A350
330
A2C5
100
AcDbEntity
  8
1
  6
Continuous
100
AcDbLine
 10
246.912096
 20
191.242233
 30
0.0
 11
248.9120919999999
 21
189.801237
 31
0.0
  0
LINE
  5
A351
330
A2C5
100
AcDbEntity
  8
1
  6
Continuous
100
AcDbLine
 10
249.740523
 20
191.242233
 30
0.0
 11
251.74052
 21
189.801237
 31
0.0
  0
LINE
  5
A352
330
A2C5
100
AcDbEntity
  8
1
  6
Continuous
100
AcDbLine
 10
252.5689499999999
 20
191.242233
 30
0.0
 11
254.568947
 21
189.801237
 31
0.0
  0
LINE
  5
A353
330
A2C5
100
AcDbEntity
  8
1
  6
Continuous
100
AcDbLine
 10
255.397377
 20
191.242233
 30
0.0
 11
257.397374
 21
189.801237
 31
0.0
  0
LINE
  5
A354
330
A2C5
100
AcDbEntity
  8
1
  6
Continuous
100
AcDbLine
 10
258.2258039999999
 20
191.242233
 30
0.0
 11
260.2258009999999
 21
189.801237
 31
0.0
  0
LINE
  5
A355
330
A2C5
100
AcDbEntity
  8
4
  6
CENTER
100
AcDbLine
 10
187.1646189999999
 20
259.217462
 30
0.0
 11
103.164626
 21
259.217462
 31
0.0
  0
LINE
  5
A356
330
A2C5
100
AcDbEntity
  8
4
  6
CENTER
100
AcDbLine
 10
152.164619
 20
285.2174619999999
 30
0.0
 11
152.164619
 21
233.2174619999999
 31
0.0
  0
LINE
  5
A357
330
A2C5
100
AcDbEntity
  8
4
  6
CENTER
100
AcDbLine
 10
181.9146189999999
 20
273.717462
 30
0.0
 11
169.4146189999998
 21
273.717462
 31
0.0
  0
LINE
  5
A358
330
A2C5
100
AcDbEntity
  8
4
  6
CENTER
100
AcDbLine
 10
175.6646189999999
 20
267.467462
 30
0.0
 11
175.6646189999999
 21
279.967462
 31
0.0
  0
LINE
  5
A359
330
A2C5
100
AcDbEntity
  8
4
  6
CENTER
100
AcDbLine
 10
181.9146189999999
 20
244.717462
 30
0.0
 11
169.4146189999998
 21
244.717462
 31
0.0
  0
LINE
  5
A35A
330
A2C5
100
AcDbEntity
  8
4
  6
CENTER
100
AcDbLine
 10
175.6646189999999
 20
238.467462
 30
0.0
 11
175.6646189999999
 21
250.967462
 31
0.0
  0
LINE
  5
A35B
330
A2C5
100
AcDbEntity
  8
4
  6
CENTER
100
AcDbLine
 10
134.9146189999999
 20
244.717462
 30
0.0
 11
122.4146189999999
 21
244.717462
 31
0.0
  0
LINE
  5
A35C
330
A2C5
100
AcDbEntity
  8
4
  6
CENTER
100
AcDbLine
 10
128.6646189999999
 20
238.467462
 30
0.0
 11
128.6646189999999
 21
250.967462
 31
0.0
  0
LINE
  5
A35D
330
A2C5
100
AcDbEntity
  8
4
  6
CENTER
100
AcDbLine
 10
134.9146189999999
 20
273.717462
 30
0.0
 11
122.4146189999999
 21
273.717462
 31
0.0
  0
LINE
  5
A35E
330
A2C5
100
AcDbEntity
  8
4
  6
CENTER
100
AcDbLine
 10
128.6646189999999
 20
267.467462
 30
0.0
 11
128.6646189999999
 21
279.967462
 31
0.0
  0
LINE
  5
A35F
330
A2C5
100
AcDbEntity
  8
4
  6
CENTER
100
AcDbLine
 10
244.3632029999999
 20
202.113537
 30
0.0
 11
244.3632029999999
 21
127.113038
 31
0.0
  0
LINE
  5
A360
330
A2C5
100
AcDbEntity
  8
4
  6
CENTER
100
AcDbLine
 10
222.6129629999999
 20
157.1130379999999
 30
0.0
 11
265.863443
 21
157.1130379999999
 31
0.0
  0
LINE
  5
A361
330
A2C5
100
AcDbEntity
  8
4
  6
CENTER
100
AcDbLine
 10
103.164626
 20
157.1132369999999
 30
0.0
 11
163.164626
 21
157.1132369999999
 31
0.0
  0
LINE
  5
A362
330
A2C5
100
AcDbEntity
  8
1
  6
Continuous
100
AcDbLine
 10
122.1646259999999
 20
197.113537
 30
0.0
 11
182.1646259999999
 21
197.113537
 31
0.0
  0
LINE
  5
A363
330
A2C5
100
AcDbEntity
  8
1
  6
Continuous
100
AcDbLine
 10
135.717126
 20
186.9818379999999
 30
0.0
 11
132.0371259999998
 21
186.938028
 31
0.0
  0
ARC
  5
A364
330
A2C5
100
AcDbEntity
  8
1
  6
Continuous
100
AcDbCircle
 10
197.9355559999999
 20
291.030249
 30
0.0
 40
116.3729999999999
100
AcDbArc
 50
235.7254979999999
 51
236.7899089999999
  0
LINE
  5
A365
330
A2C5
100
AcDbEntity
  8
1
  6
Continuous
100
AcDbLine
 10
122.1646259999999
 20
195.1135739999998
 30
0.0
 11
182.1646259999999
 21
195.1135739999998
 31
0.0
  0
ARC
  5
A366
330
A2C5
100
AcDbEntity
  8
1
  6
Continuous
100
AcDbCircle
 10
133.5146259999999
 20
156.163237
 30
0.0
 40
7.5
100
AcDbArc
 50
174.673297
 51
295.9209009999998
  0
ARC
  5
A367
330
A2C5
100
AcDbEntity
  8
1
  6
Continuous
100
AcDbCircle
 10
133.164626
 20
157.1132369999999
 30
0.0
 40
8.5
100
AcDbArc
 50
139.62305
 51
281.789558
  0
ARC
  5
A368
330
A2C5
100
AcDbEntity
  8
1
  6
Continuous
100
AcDbCircle
 10
133.164626
 20
157.1132369999999
 30
0.0
 40
17.5
100
AcDbArc
 50
107.378525
 51
26.47566499999999
  0
ARC
  5
A369
330
A2C5
100
AcDbEntity
  8
1
  6
Continuous
100
AcDbCircle
 10
133.164626
 20
157.1132369999999
 30
0.0
 40
25.0
100
AcDbArc
 50
99.78061099999999
 51
35.83806699999998
  0
LINE
  5
A36A
330
A2C5
100
AcDbEntity
  8
1
  6
Continuous
100
AcDbLine
 10
141.0146259999999
 20
186.064782
 30
0.0
 11
141.0146259999999
 21
155.880475
 31
0.0
  0
ARC
  5
A36B
330
A2C5
100
AcDbEntity
  8
1
  6
Continuous
100
AcDbCircle
 10
205.7691629999999
 20
135.989325
 30
0.0
 40
63.35981999999999
100
AcDbArc
 50
134.0470019999999
 51
143.333821
  0
LINE
  5
A36C
330
A2C5
100
AcDbEntity
  8
4
  6
CENTER
100
AcDbLine
 10
152.1646259999999
 20
202.113537
 30
0.0
 11
152.1646259999999
 21
166.57326
 31
0.0
  0
ARC
  5
A36D
330
A2C5
100
AcDbEntity
  8
1
  6
Continuous
100
AcDbCircle
 10
91.122744
 20
191.822394
 30
0.0
 40
63.31738699999998
100
AcDbArc
 50
321.97488
 51
329.982574
  0
ARC
  5
A36E
330
A2C5
100
AcDbEntity
  8
1
  6
Continuous
100
AcDbCircle
 10
268.1828499999999
 20
89.52488199999995
 30
0.0
 40
141.169928
100
AcDbArc
 50
143.333821
 51
149.982574
  0
ARC
  5
A36F
330
A2C5
100
AcDbEntity
  8
1
  6
Continuous
100
AcDbCircle
 10
165.5442449999999
 20
177.575123
 30
0.0
 40
5.502905999999999
100
AcDbArc
 50
90.0
 51
134.0470019999999
  0
LINE
  5
A370
330
A2C5
100
AcDbEntity
  8
1
  6
Continuous
100
AcDbLine
 10
163.1719869999998
 20
191.2422369999999
 30
0.0
 11
165.4078309999999
 21
189.801237
 31
0.0
  0
LINE
  5
A371
330
A2C5
100
AcDbEntity
  8
1
  6
Continuous
100
AcDbLine
 10
182.1646259999999
 20
197.113537
 30
0.0
 11
182.1646259999999
 21
195.1135739999998
 31
0.0
  0
ARC
  5
A372
330
A2C5
100
AcDbEntity
  8
1
  6
Continuous
100
AcDbCircle
 10
165.858894
 20
192.7040159999999
 30
0.0
 40
2.371570999999998
100
AcDbArc
 50
321.9491909999999
 51
351.9797889999999
  0
ARC
  5
A373
330
A2C5
100
AcDbEntity
  8
1
  6
Continuous
100
AcDbCircle
 10
167.176758
 20
191.9918049999999
 30
0.0
 40
1.098799999999998
100
AcDbArc
 50
20.306161
 51
58.785345
  0
LINE
  5
A374
330
A2C5
100
AcDbEntity
  8
1
  6
Continuous
100
AcDbLine
 10
169.3501259999998
 20
183.018028
 30
0.0
 11
169.127126
 21
183.0780279999999
 31
0.0
  0
LINE
  5
A375
330
A2C5
100
AcDbEntity
  8
1
  6
Continuous
100
AcDbLine
 10
169.127126
 20
183.0780279999999
 30
0.0
 11
165.5442449999999
 21
183.0780279999999
 31
0.0
  0
LINE
  5
A376
330
A2C5
100
AcDbEntity
  8
1
  6
Continuous
100
AcDbLine
 10
168.414626
 20
191.2422369999999
 30
0.0
 11
168.414626
 21
189.801237
 31
0.0
  0
LINE
  5
A377
330
A2C5
100
AcDbEntity
  8
1
  6
Continuous
100
AcDbLine
 10
167.746206
 20
192.931534
 30
0.0
 11
167.393049
 21
193.1455369999999
 31
0.0
  0
LINE
  5
A378
330
A2C5
100
AcDbEntity
  8
1
  6
Continuous
100
AcDbLine
 10
167.4146279999999
 20
191.2422369999999
 30
0.0
 11
168.414626
 21
190.2422389999999
 31
0.0
  0
LINE
  5
A379
330
A2C5
100
AcDbEntity
  8
1
  6
Continuous
100
AcDbLine
 10
166.0004139999998
 20
191.2422369999999
 30
0.0
 11
168.2362579999999
 21
189.801237
 31
0.0
  0
LINE
  5
A37A
330
A2C5
100
AcDbEntity
  8
1
  6
Continuous
100
AcDbLine
 10
164.5862009999999
 20
191.2422369999999
 30
0.0
 11
166.8220439999998
 21
189.801237
 31
0.0
  0
LINE
  5
A37B
330
A2C5
100
AcDbEntity
  8
1
  6
Continuous
100
AcDbLine
 10
166.888666
 20
189.801237
 30
0.0
 11
168.414626
 21
190.2422389999999
 31
0.0
  0
LINE
  5
A37C
330
A2C5
100
AcDbEntity
  8
1
  6
Continuous
100
AcDbLine
 10
166.5861969999999
 20
191.2422369999999
 30
0.0
 11
164.350355
 21
189.801237
 31
0.0
  0
LINE
  5
A37D
330
A2C5
100
AcDbEntity
  8
1
  6
Continuous
100
AcDbLine
 10
171.930123
 20
194.8655369999999
 30
0.0
 11
172.11829
 21
195.1135739999998
 31
0.0
  0
ARC
  5
A37E
330
A2C5
100
AcDbEntity
  8
1
  6
Continuous
100
AcDbCircle
 10
106.3936959999999
 20
291.030249
 30
0.0
 40
116.3729999999999
100
AcDbArc
 50
303.210091
 51
304.2745019999999
  0
LINE
  5
A37F
330
A2C5
100
AcDbEntity
  8
1
  6
Continuous
100
AcDbLine
 10
170.764126
 20
183.105367
 30
0.0
 11
170.015126
 21
183.063028
 31
0.0
  0
ARC
  5
A380
330
A2C5
100
AcDbEntity
  8
1
  6
Continuous
100
AcDbCircle
 10
168.391482
 20
196.3241099999999
 30
0.0
 40
3.178573
100
AcDbArc
 50
270.0
 51
303.210091
  0
ARC
  5
A381
330
A2C5
100
AcDbEntity
  8
1
  6
Continuous
100
AcDbCircle
 10
167.9451409999998
 20
187.2199979999998
 30
0.0
 40
2.732905
100
AcDbArc
 50
0.0
 51
70.822161
  0
LINE
  5
A382
330
A2C5
100
AcDbEntity
  8
1
  6
Continuous
100
AcDbLine
 10
170.015126
 20
183.063028
 30
0.0
 11
169.3501259999998
 21
183.018028
 31
0.0
  0
LINE
  5
A383
330
A2C5
100
AcDbEntity
  8
1
  6
Continuous
100
AcDbLine
 10
147.6156379999999
 20
191.2422369999999
 30
0.0
 11
149.851481
 21
189.801237
 31
0.0
  0
LINE
  5
A384
330
A2C5
100
AcDbEntity
  8
1
  6
Continuous
100
AcDbLine
 10
149.6156339999998
 20
191.2422369999999
 30
0.0
 11
147.3797919999998
 21
189.801237
 31
0.0
  0
LINE
  5
A385
330
A2C5
100
AcDbEntity
  8
1
  6
Continuous
100
AcDbLine
 10
135.93777
 20
193.1455369999999
 30
0.0
 11
168.391482
 21
193.1455369999999
 31
0.0
  0
LINE
  5
A386
330
A2C5
100
AcDbEntity
  8
1
  6
Continuous
100
AcDbLine
 10
168.414626
 20
191.2421979999998
 30
0.0
 11
135.9146259999999
 21
191.242276
 31
0.0
  0
LINE
  5
A387
330
A2C5
100
AcDbEntity
  8
1
  6
Continuous
100
AcDbLine
 10
151.858279
 20
191.2422369999999
 30
0.0
 11
154.094122
 21
189.801237
 31
0.0
  0
LINE
  5
A388
330
A2C5
100
AcDbEntity
  8
1
  6
Continuous
100
AcDbLine
 10
150.444065
 20
191.2422369999999
 30
0.0
 11
152.679908
 21
189.801237
 31
0.0
  0
LINE
  5
A389
330
A2C5
100
AcDbEntity
  8
1
  6
Continuous
100
AcDbLine
 10
149.029852
 20
191.2422369999999
 30
0.0
 11
151.265695
 21
189.801237
 31
0.0
  0
LINE
  5
A38A
330
A2C5
100
AcDbEntity
  8
1
  6
Continuous
100
AcDbLine
 10
152.444061
 20
191.2422369999999
 30
0.0
 11
150.2082189999998
 21
189.801237
 31
0.0
  0
LINE
  5
A38B
330
A2C5
100
AcDbEntity
  8
1
  6
Continuous
100
AcDbLine
 10
161.757774
 20
191.2422369999999
 30
0.0
 11
163.993617
 21
189.801237
 31
0.0
  0
LINE
  5
A38C
330
A2C5
100
AcDbEntity
  8
1
  6
Continuous
100
AcDbLine
 10
160.34356
 20
191.2422369999999
 30
0.0
 11
162.579403
 21
189.801237
 31
0.0
  0
LINE
  5
A38D
330
A2C5
100
AcDbEntity
  8
1
  6
Continuous
100
AcDbLine
 10
158.929346
 20
191.2422369999999
 30
0.0
 11
161.16519
 21
189.801237
 31
0.0
  0
LINE
  5
A38E
330
A2C5
100
AcDbEntity
  8
1
  6
Continuous
100
AcDbLine
 10
157.5151329999999
 20
191.2422369999999
 30
0.0
 11
159.750976
 21
189.801237
 31
0.0
  0
LINE
  5
A38F
330
A2C5
100
AcDbEntity
  8
1
  6
Continuous
100
AcDbLine
 10
156.100919
 20
191.2422369999999
 30
0.0
 11
158.3367629999998
 21
189.801237
 31
0.0
  0
LINE
  5
A390
330
A2C5
100
AcDbEntity
  8
1
  6
Continuous
100
AcDbLine
 10
154.6867059999999
 20
191.2422369999999
 30
0.0
 11
156.922549
 21
189.801237
 31
0.0
  0
LINE
  5
A391
330
A2C5
100
AcDbEntity
  8
1
  6
Continuous
100
AcDbLine
 10
163.75777
 20
191.2422369999999
 30
0.0
 11
161.5219279999998
 21
189.801237
 31
0.0
  0
LINE
  5
A392
330
A2C5
100
AcDbEntity
  8
1
  6
Continuous
100
AcDbLine
 10
160.9293429999999
 20
191.2422369999999
 30
0.0
 11
158.6934999999998
 21
189.801237
 31
0.0
  0
LINE
  5
A393
330
A2C5
100
AcDbEntity
  8
1
  6
Continuous
100
AcDbLine
 10
158.1009159999998
 20
191.2422369999999
 30
0.0
 11
155.865073
 21
189.801237
 31
0.0
  0
LINE
  5
A394
330
A2C5
100
AcDbEntity
  8
1
  6
Continuous
100
AcDbLine
 10
153.2724919999998
 20
191.2422369999999
 30
0.0
 11
155.508336
 21
189.801237
 31
0.0
  0
LINE
  5
A395
330
A2C5
100
AcDbEntity
  8
1
  6
Continuous
100
AcDbLine
 10
155.2724889999998
 20
191.2422369999999
 30
0.0
 11
153.0366459999999
 21
189.801237
 31
0.0
  0
ARC
  5
A396
330
A2C5
100
AcDbEntity
  8
1
  6
Continuous
100
AcDbCircle
 10
136.8794169999999
 20
186.686869
 30
0.0
 40
3.266183999999998
100
AcDbArc
 50
107.537707
 51
141.743298
  0
ARC
  5
A397
330
A2C5
100
AcDbEntity
  8
1
  6
Continuous
100
AcDbCircle
 10
137.810311
 20
185.9528349999999
 30
0.0
 40
4.451666999999998
100
AcDbArc
 50
141.743298
 51
156.849068
  0
LINE
  5
A398
330
A2C5
100
AcDbEntity
  8
1
  6
Continuous
100
AcDbLine
 10
133.717126
 20
187.7030279999999
 30
0.0
 11
133.5721259999999
 21
187.2680279999999
 31
0.0
  0
LINE
  5
A399
330
A2C5
100
AcDbEntity
  8
1
  6
Continuous
100
AcDbLine
 10
133.5721259999999
 20
187.2680279999999
 30
0.0
 11
133.232126
 21
187.068028
 31
0.0
  0
LINE
  5
A39A
330
A2C5
100
AcDbEntity
  8
1
  6
Continuous
100
AcDbLine
 10
133.232126
 20
187.068028
 30
0.0
 11
133.062126
 21
186.983028
 31
0.0
  0
LINE
  5
A39B
330
A2C5
100
AcDbEntity
  8
1
  6
Continuous
100
AcDbLine
 10
133.062126
 20
186.983028
 30
0.0
 11
132.877126
 21
186.9480279999999
 31
0.0
  0
ARC
  5
A39C
330
A2C5
100
AcDbEntity
  8
1
  6
Continuous
100
AcDbCircle
 10
135.93777
 20
196.3241099999999
 30
0.0
 40
3.178573
100
AcDbArc
 50
236.7899089999999
 51
270.0
  0
ARC
  5
A39D
330
A2C5
100
AcDbEntity
  8
1
  6
Continuous
100
AcDbCircle
 10
138.470358
 20
192.7040159999999
 30
0.0
 40
2.371570999999998
100
AcDbArc
 50
188.020211
 51
218.050809
  0
ARC
  5
A39E
330
A2C5
100
AcDbEntity
  8
1
  6
Continuous
100
AcDbCircle
 10
137.152494
 20
191.9918049999999
 30
0.0
 40
1.098799999999998
100
AcDbArc
 50
121.214655
 51
159.693839
  0
LINE
  5
A39F
330
A2C5
100
AcDbEntity
  8
1
  6
Continuous
100
AcDbLine
 10
135.9146259999999
 20
191.2422369999999
 30
0.0
 11
135.9146259999999
 21
189.801237
 31
0.0
  0
LINE
  5
A3A0
330
A2C5
100
AcDbEntity
  8
1
  6
Continuous
100
AcDbLine
 10
136.5830459999999
 20
192.931534
 30
0.0
 11
136.936203
 21
193.1455369999999
 31
0.0
  0
ARC
  5
A3A1
330
A2C5
100
AcDbEntity
  8
1
  6
Continuous
100
AcDbCircle
 10
135.6928139999999
 20
189.0240619999999
 30
0.0
 40
2.042368999999998
100
AcDbArc
 50
270.6820599999999
 51
340.178191
  0
LINE
  5
A3A2
330
A2C5
100
AcDbEntity
  8
1
  6
Continuous
100
AcDbLine
 10
135.9146259999999
 20
190.215327
 30
0.0
 11
137.452075
 21
189.801237
 31
0.0
  0
LINE
  5
A3A3
330
A2C5
100
AcDbEntity
  8
1
  6
Continuous
100
AcDbLine
 10
146.201424
 20
191.2422369999999
 30
0.0
 11
148.4372679999999
 21
189.801237
 31
0.0
  0
LINE
  5
A3A4
330
A2C5
100
AcDbEntity
  8
1
  6
Continuous
100
AcDbLine
 10
144.787211
 20
191.2422369999999
 30
0.0
 11
147.023054
 21
189.801237
 31
0.0
  0
LINE
  5
A3A5
330
A2C5
100
AcDbEntity
  8
1
  6
Continuous
100
AcDbLine
 10
143.3729969999999
 20
191.2422369999999
 30
0.0
 11
145.6088409999999
 21
189.801237
 31
0.0
  0
LINE
  5
A3A6
330
A2C5
100
AcDbEntity
  8
1
  6
Continuous
100
AcDbLine
 10
141.958784
 20
191.2422369999999
 30
0.0
 11
144.194627
 21
189.801237
 31
0.0
  0
LINE
  5
A3A7
330
A2C5
100
AcDbEntity
  8
1
  6
Continuous
100
AcDbLine
 10
140.54457
 20
191.2422369999999
 30
0.0
 11
142.7804139999998
 21
189.801237
 31
0.0
  0
LINE
  5
A3A8
330
A2C5
100
AcDbEntity
  8
1
  6
Continuous
100
AcDbLine
 10
139.130357
 20
191.2422369999999
 30
0.0
 11
141.3661999999999
 21
189.801237
 31
0.0
  0
LINE
  5
A3A9
330
A2C5
100
AcDbEntity
  8
1
  6
Continuous
100
AcDbLine
 10
146.787207
 20
191.2422369999999
 30
0.0
 11
144.551365
 21
189.801237
 31
0.0
  0
LINE
  5
A3AA
330
A2C5
100
AcDbEntity
  8
1
  6
Continuous
100
AcDbLine
 10
143.9587799999999
 20
191.2422369999999
 30
0.0
 11
141.722938
 21
189.801237
 31
0.0
  0
LINE
  5
A3AB
330
A2C5
100
AcDbEntity
  8
1
  6
Continuous
100
AcDbLine
 10
141.130353
 20
191.2422369999999
 30
0.0
 11
138.8945109999999
 21
189.801237
 31
0.0
  0
LINE
  5
A3AC
330
A2C5
100
AcDbEntity
  8
1
  6
Continuous
100
AcDbLine
 10
137.7161429999999
 20
191.2422369999999
 30
0.0
 11
139.951986
 21
189.801237
 31
0.0
  0
LINE
  5
A3AD
330
A2C5
100
AcDbEntity
  8
1
  6
Continuous
100
AcDbLine
 10
136.3019289999998
 20
191.2422369999999
 30
0.0
 11
138.5377729999998
 21
189.801237
 31
0.0
  0
LINE
  5
A3AE
330
A2C5
100
AcDbEntity
  8
1
  6
Continuous
100
AcDbLine
 10
138.301926
 20
191.2422369999999
 30
0.0
 11
136.066083
 21
189.801237
 31
0.0
  0
LINE
  5
A3AF
330
A2C5
100
AcDbEntity
  8
1
  6
Continuous
100
AcDbLine
 10
130.877126
 20
186.928028
 30
0.0
 11
127.658798
 21
186.992395
 31
0.0
  0
LINE
  5
A3B0
330
A2C5
100
AcDbEntity
  8
1
  6
Continuous
100
AcDbLine
 10
132.0371259999998
 20
186.938028
 30
0.0
 11
131.442126
 21
186.9180279999999
 31
0.0
  0
LINE
  5
A3B1
330
A2C5
100
AcDbEntity
  8
1
  6
Continuous
100
AcDbLine
 10
131.442126
 20
186.9180279999999
 30
0.0
 11
130.877126
 21
186.928028
 31
0.0
  0
ARC
  5
A3B2
330
A2C5
100
AcDbEntity
  8
1
  6
Continuous
100
AcDbCircle
 10
127.631779
 20
185.6414879999999
 30
0.0
 40
1.351175999999999
100
AcDbArc
 50
88.85423700000002
 51
129.236686
  0
LINE
  5
A3B3
330
A2C5
100
AcDbEntity
  8
1
  6
Continuous
100
AcDbLine
 10
129.217126
 20
184.961041
 30
0.0
 11
126.9481689999998
 21
184.9947979999998
 31
0.0
  0
LINE
  5
A3B4
330
A2C5
100
AcDbEntity
  8
1
  6
Continuous
100
AcDbLine
 10
126.7771259999999
 20
186.688028
 30
0.0
 11
126.717126
 21
185.773028
 31
0.0
  0
LINE
  5
A3B5
330
A2C5
100
AcDbEntity
  8
1
  6
Continuous
100
AcDbLine
 10
126.717126
 20
185.773028
 30
0.0
 11
126.717126
 21
185.088028
 31
0.0
  0
ARC
  5
A3B6
330
A2C5
100
AcDbEntity
  8
1
  6
Continuous
100
AcDbCircle
 10
126.953311
 20
185.340442
 30
0.0
 40
0.345682
100
AcDbArc
 50
226.9023309999998
 51
269.1476279999998
  0
LINE
  5
A3B7
330
A2C5
100
AcDbEntity
  8
1
  6
Continuous
100
AcDbLine
 10
132.3991289999999
 20
194.8655369999999
 30
0.0
 11
132.2109619999999
 21
195.1135739999998
 31
0.0
  0
LINE
  5
A3B8
330
A2C5
100
AcDbEntity
  8
1
  6
Continuous
100
AcDbLine
 10
122.1646259999999
 20
197.113537
 30
0.0
 11
122.1646259999999
 21
195.1135739999998
 31
0.0
  0
LINE
  5
A3B9
330
A2C5
100
AcDbEntity
  8
1
  6
Continuous
100
AcDbLine
 10
225.5132029999999
 20
186.8011789999999
 30
0.0
 11
225.5132029999999
 21
166.401179
 31
0.0
  0
ARC
  5
A3BA
330
A2C5
100
AcDbEntity
  8
1
  6
Continuous
100
AcDbCircle
 10
56.366049
 20
134.709334
 30
0.0
 40
1.5
100
AcDbArc
 50
284.6984239999999
 51
0.0
  0
ARC
  5
A3BB
330
A2C5
100
AcDbEntity
  8
1
  6
Continuous
100
AcDbCircle
 10
47.86604899999999
 20
167.1130379999999
 30
0.0
 40
35.0
100
AcDbArc
 50
255.301576
 51
284.6984239999999
  0
ARC
  5
A3BC
330
A2C5
100
AcDbEntity
  8
1
  6
Continuous
100
AcDbCircle
 10
39.36604899999998
 20
134.709334
 30
0.0
 40
1.5
100
AcDbArc
 50
180.0
 51
255.301576
  0
LINE
  5
A3BD
330
A2C5
100
AcDbEntity
  8
4
  6
CENTER
100
AcDbLine
 10
68.822001
 20
157.1130379999999
 30
0.0
 11
26.365809
 21
157.1130379999999
 31
0.0
  0
ARC
  5
A3BE
330
A2C5
100
AcDbEntity
  8
1
  6
Continuous
100
AcDbCircle
 10
56.366049
 20
179.5167409999999
 30
0.0
 40
1.5
100
AcDbArc
 50
0.0
 51
75.30157599999999
  0
LINE
  5
A3BF
330
A2C5
100
AcDbEntity
  8
1
  6
Continuous
100
AcDbLine
 10
57.866049
 20
179.5167409999999
 30
0.0
 11
57.866049
 21
134.709334
 31
0.0
  0
LINE
  5
A3C0
330
A2C5
100
AcDbEntity
  8
1
  6
Continuous
100
AcDbLine
 10
59.36604899999998
 20
165.613038
 30
0.0
 11
59.36604899999998
 21
148.6130379999998
 31
0.0
  0
LINE
  5
A3C1
330
A2C5
100
AcDbEntity
  8
1
  6
Continuous
100
AcDbLine
 10
59.36604899999998
 20
148.6130379999998
 30
0.0
 11
57.866049
 21
148.6130379999998
 31
0.0
  0
LINE
  5
A3C2
330
A2C5
100
AcDbEntity
  8
1
  6
Continuous
100
AcDbLine
 10
59.86604899999999
 20
154.113038
 30
0.0
 11
59.36604899999998
 21
154.113038
 31
0.0
  0
LINE
  5
A3C3
330
A2C5
100
AcDbEntity
  8
1
  6
Continuous
100
AcDbLine
 10
59.36604899999998
 20
165.613038
 30
0.0
 11
57.866049
 21
165.613038
 31
0.0
  0
LINE
  5
A3C4
330
A2C5
100
AcDbEntity
  8
1
  6
Continuous
100
AcDbLine
 10
59.96955299999999
 20
160.1130379999998
 30
0.0
 11
59.36604899999998
 21
160.1130379999998
 31
0.0
  0
ARC
  5
A3C5
330
A2C5
100
AcDbEntity
  8
1
  6
Continuous
100
AcDbCircle
 10
39.36604899999998
 20
179.5167409999999
 30
0.0
 40
1.5
100
AcDbArc
 50
104.698424
 51
180.0
  0
LINE
  5
A3C6
330
A2C5
100
AcDbEntity
  8
1
  6
Continuous
100
AcDbLine
 10
37.86604899999999
 20
179.5167409999999
 30
0.0
 11
37.86604899999999
 21
134.709334
 31
0.0
  0
LINE
  5
A3C7
330
A2C5
100
AcDbEntity
  8
1
  6
Continuous
100
AcDbLine
 10
36.366049
 20
165.613038
 30
0.0
 11
36.366049
 21
148.6130379999998
 31
0.0
  0
LINE
  5
A3C8
330
A2C5
100
AcDbEntity
  8
1
  6
Continuous
100
AcDbLine
 10
36.366049
 20
148.6130379999998
 30
0.0
 11
37.86604899999999
 21
148.6130379999998
 31
0.0
  0
LINE
  5
A3C9
330
A2C5
100
AcDbEntity
  8
1
  6
Continuous
100
AcDbLine
 10
36.366049
 20
154.113038
 30
0.0
 11
36.266049
 21
154.113038
 31
0.0
  0
LINE
  5
A3CA
330
A2C5
100
AcDbEntity
  8
1
  6
Continuous
100
AcDbLine
 10
36.366049
 20
165.613038
 30
0.0
 11
37.86604899999999
 21
165.613038
 31
0.0
  0
LINE
  5
A3CB
330
A2C5
100
AcDbEntity
  8
1
  6
Continuous
100
AcDbLine
 10
36.366049
 20
160.1130379999998
 30
0.0
 11
36.162545
 21
160.1130379999998
 31
0.0
  0
LINE
  5
A3CC
330
A2C5
100
AcDbEntity
  8
1
  6
Continuous
100
AcDbLine
 10
26.866049
 20
197.1135329999999
 30
0.0
 11
68.866049
 21
197.1135329999999
 31
0.0
  0
ARC
  5
A3CD
330
A2C5
100
AcDbEntity
  8
1
  6
Continuous
100
AcDbCircle
 10
47.86604899999999
 20
147.1130379999999
 30
0.0
 40
35.0
100
AcDbArc
 50
75.30157599999999
 51
104.698424
  0
LINE
  5
A3CE
330
A2C5
100
AcDbEntity
  8
4
  6
CENTER
100
AcDbLine
 10
47.86604899999999
 20
202.113537
 30
0.0
 11
47.86604899999999
 21
127.113038
 31
0.0
  0
LINE
  5
A3CF
330
A2C5
100
AcDbEntity
  8
1
  6
Continuous
100
AcDbLine
 10
31.61595
 20
189.801237
 30
0.0
 11
64.11595
 21
189.801044
 31
0.0
  0
ARC
  5
A3D0
330
A2C5
100
AcDbEntity
  8
1
  6
Continuous
100
AcDbCircle
 10
37.11580899999999
 20
183.0120179999999
 30
0.0
 40
3.75
100
AcDbArc
 50
90.0
 51
180.0
  0
LINE
  5
A3D1
330
A2C5
100
AcDbEntity
  8
1
  6
Continuous
100
AcDbLine
 10
35.444376
 20
191.242233
 30
0.0
 11
33.44437899999999
 21
189.801237
 31
0.0
  0
LINE
  5
A3D2
330
A2C5
100
AcDbEntity
  8
1
  6
Continuous
100
AcDbLine
 10
36.858589
 20
191.242233
 30
0.0
 11
34.85859299999999
 21
189.801237
 31
0.0
  0
LINE
  5
A3D3
330
A2C5
100
AcDbEntity
  8
1
  6
Continuous
100
AcDbLine
 10
33.44437899999999
 20
191.242233
 30
0.0
 11
35.444376
 21
189.801237
 31
0.0
  0
LINE
  5
A3D4
330
A2C5
100
AcDbEntity
  8
1
  6
Continuous
100
AcDbLine
 10
33.36580899999999
 20
148.6763159999999
 30
0.0
 11
35.36604899999999
 21
148.6763159999999
 31
0.0
  0
LINE
  5
A3D5
330
A2C5
100
AcDbEntity
  8
1
  6
Continuous
100
AcDbLine
 10
26.866049
 20
195.113571
 30
0.0
 11
68.866049
 21
195.113571
 31
0.0
  0
LINE
  5
A3D6
330
A2C5
100
AcDbEntity
  8
1
  6
Continuous
100
AcDbLine
 10
31.639094
 20
193.145533
 30
0.0
 11
64.092807
 21
193.145533
 31
0.0
  0
LINE
  5
A3D7
330
A2C5
100
AcDbEntity
  8
1
  6
Continuous
100
AcDbLine
 10
64.11595
 20
191.2421929999999
 30
0.0
 11
31.61595
 21
191.242273
 31
0.0
  0
ARC
  5
A3D8
330
A2C5
100
AcDbEntity
  8
1
  6
Continuous
100
AcDbCircle
 10
55.731462
 20
167.03323
 30
0.0
 40
26.722888
100
AcDbArc
 50
181.355289
 51
204.692905
  0
LINE
  5
A3D9
330
A2C5
100
AcDbEntity
  8
1
  6
Continuous
100
AcDbLine
 10
33.36580899999999
 20
183.0120179999999
 30
0.0
 11
33.36580899999999
 21
148.6763159999999
 31
0.0
  0
LINE
  5
A3DA
330
A2C5
100
AcDbEntity
  8
1
  6
Continuous
100
AcDbLine
 10
32.432493
 20
161.363038
 30
0.0
 11
32.432493
 21
152.8630379999999
 31
0.0
  0
ARC
  5
A3DB
330
A2C5
100
AcDbEntity
  8
1
  6
Continuous
100
AcDbCircle
 10
40.36580899999999
 20
157.1130379999999
 30
0.0
 40
9.0
100
AcDbArc
 50
151.821357
 51
208.178643
  0
LINE
  5
A3DC
330
A2C5
100
AcDbEntity
  8
1
  6
Continuous
100
AcDbLine
 10
33.36580899999999
 20
152.8630379999999
 30
0.0
 11
32.432493
 21
152.8630379999999
 31
0.0
  0
LINE
  5
A3DD
330
A2C5
100
AcDbEntity
  8
1
  6
Continuous
100
AcDbLine
 10
29.016049
 20
186.8011789999999
 30
0.0
 11
29.016049
 21
166.401179
 31
0.0
  0
LINE
  5
A3DE
330
A2C5
100
AcDbEntity
  8
1
  6
Continuous
100
AcDbLine
 10
33.36580899999999
 20
161.363038
 30
0.0
 11
32.432493
 21
161.363038
 31
0.0
  0
LINE
  5
A3DF
330
A2C5
100
AcDbEntity
  8
1
  6
Continuous
100
AcDbLine
 10
34.03016199999999
 20
191.242233
 30
0.0
 11
32.03016599999998
 21
189.801237
 31
0.0
  0
ARC
  5
A3E0
330
A2C5
100
AcDbEntity
  8
1
  6
Continuous
100
AcDbCircle
 10
32.23066699999999
 20
186.579094
 30
0.0
 40
3.22228
100
AcDbArc
 50
89.37084
 51
176.0479389999999
  0
LINE
  5
A3E1
330
A2C5
100
AcDbEntity
  8
1
  6
Continuous
100
AcDbLine
 10
31.61595
 20
191.242233
 30
0.0
 11
31.61595
 21
189.801237
 31
0.0
  0
LINE
  5
A3E2
330
A2C5
100
AcDbEntity
  8
1
  6
Continuous
100
AcDbLine
 10
32.615949
 20
191.242233
 30
0.0
 11
31.61595
 21
190.8012349999999
 31
0.0
  0
LINE
  5
A3E3
330
A2C5
100
AcDbEntity
  8
1
  6
Continuous
100
AcDbLine
 10
32.615949
 20
189.801237
 30
0.0
 11
31.61595
 21
190.8012349999999
 31
0.0
  0
LINE
  5
A3E4
330
A2C5
100
AcDbEntity
  8
1
  6
Continuous
100
AcDbLine
 10
26.866049
 20
197.1135329999999
 30
0.0
 11
26.866049
 21
195.113571
 31
0.0
  0
LINE
  5
A3E5
330
A2C5
100
AcDbEntity
  8
1
  6
Continuous
100
AcDbLine
 10
32.28437
 20
192.93153
 30
0.0
 11
32.63752699999999
 21
193.145533
 31
0.0
  0
ARC
  5
A3E6
330
A2C5
100
AcDbEntity
  8
1
  6
Continuous
100
AcDbCircle
 10
32.853819
 20
191.991802
 30
0.0
 40
1.098799999999998
100
AcDbArc
 50
121.214655
 51
159.693839
  0
ARC
  5
A3E7
330
A2C5
100
AcDbEntity
  8
1
  6
Continuous
100
AcDbCircle
 10
34.17168199999999
 20
192.7040129999998
 30
0.0
 40
2.371570999999998
100
AcDbArc
 50
188.020211
 51
218.050809
  0
ARC
  5
A3E8
330
A2C5
100
AcDbEntity
  8
1
  6
Continuous
100
AcDbCircle
 10
93.63688000000001
 20
291.0302449999999
 30
0.0
 40
116.3729999999999
100
AcDbArc
 50
235.7254979999999
 51
236.7899089999999
  0
LINE
  5
A3E9
330
A2C5
100
AcDbEntity
  8
1
  6
Continuous
100
AcDbLine
 10
28.100453
 20
194.865533
 30
0.0
 11
27.912287
 21
195.113571
 31
0.0
  0
ARC
  5
A3EA
330
A2C5
100
AcDbEntity
  8
1
  6
Continuous
100
AcDbCircle
 10
31.639094
 20
196.324106
 30
0.0
 40
3.178573
100
AcDbArc
 50
236.7899089999999
 51
270.0
  0
ARC
  5
A3EB
330
A2C5
100
AcDbEntity
  8
1
  6
Continuous
100
AcDbCircle
 10
40.006289
 20
166.870484
 30
0.0
 40
26.713884
100
AcDbArc
 50
326.8265529999998
 51
358.9933849999999
  0
LINE
  5
A3EC
330
A2C5
100
AcDbEntity
  8
1
  6
Continuous
100
AcDbLine
 10
35.36604899999999
 20
183.020424
 30
0.0
 11
35.36604899999999
 21
148.6763159999999
 31
0.0
  0
LINE
  5
A3ED
330
A2C5
100
AcDbEntity
  8
1
  6
Continuous
100
AcDbLine
 10
60.366049
 20
183.020424
 30
0.0
 11
60.366049
 21
148.6763159999999
 31
0.0
  0
LINE
  5
A3EE
330
A2C5
100
AcDbEntity
  8
1
  6
Continuous
100
AcDbLine
 10
62.366289
 20
183.0120179999999
 30
0.0
 11
62.366289
 21
148.6763159999999
 31
0.0
  0
LINE
  5
A3EF
330
A2C5
100
AcDbEntity
  8
1
  6
Continuous
100
AcDbLine
 10
35.36604899999999
 20
154.113038
 30
0.0
 11
36.366049
 21
154.113038
 31
0.0
  0
LINE
  5
A3F0
330
A2C5
100
AcDbEntity
  8
1
  6
Continuous
100
AcDbLine
 10
60.366049
 20
148.6763159999999
 30
0.0
 11
62.366289
 21
148.6763159999999
 31
0.0
  0
LINE
  5
A3F1
330
A2C5
100
AcDbEntity
  8
1
  6
Continuous
100
AcDbLine
 10
60.366049
 20
154.113038
 30
0.0
 11
59.36604899999998
 21
154.113038
 31
0.0
  0
ARC
  5
A3F2
330
A2C5
100
AcDbEntity
  8
1
  6
Continuous
100
AcDbCircle
 10
63.50143199999997
 20
186.579094
 30
0.0
 40
3.22228
100
AcDbArc
 50
3.952061
 51
90.62915999999999
  0
ARC
  5
A3F3
330
A2C5
100
AcDbEntity
  8
1
  6
Continuous
100
AcDbCircle
 10
2.095019999999998
 20
291.0302449999999
 30
0.0
 40
116.3729999999999
100
AcDbArc
 50
303.210091
 51
304.2745019999999
  0
LINE
  5
A3F4
330
A2C5
100
AcDbEntity
  8
1
  6
Continuous
100
AcDbLine
 10
66.716049
 20
186.8011789999999
 30
0.0
 11
66.716049
 21
166.401179
 31
0.0
  0
LINE
  5
A3F5
330
A2C5
100
AcDbEntity
  8
1
  6
Continuous
100
AcDbLine
 10
35.36604899999999
 20
160.1130379999998
 30
0.0
 11
36.366049
 21
160.1130379999998
 31
0.0
  0
LINE
  5
A3F6
330
A2C5
100
AcDbEntity
  8
1
  6
Continuous
100
AcDbLine
 10
59.36604899999998
 20
160.1130379999998
 30
0.0
 11
60.366049
 21
160.1130379999998
 31
0.0
  0
LINE
  5
A3F7
330
A2C5
100
AcDbEntity
  8
1
  6
Continuous
100
AcDbLine
 10
37.11604899999999
 20
184.7704239999999
 30
0.0
 11
58.61604899999999
 21
184.7704239999999
 31
0.0
  0
LINE
  5
A3F8
330
A2C5
100
AcDbEntity
  8
1
  6
Continuous
100
AcDbLine
 10
37.11580899999999
 20
186.7620179999999
 30
0.0
 11
58.616289
 21
186.7620179999999
 31
0.0
  0
LINE
  5
A3F9
330
A2C5
100
AcDbEntity
  8
1
  6
Continuous
100
AcDbLine
 10
51.000725
 20
191.242233
 30
0.0
 11
49.000728
 21
189.801237
 31
0.0
  0
LINE
  5
A3FA
330
A2C5
100
AcDbEntity
  8
1
  6
Continuous
100
AcDbLine
 10
52.414938
 20
191.242233
 30
0.0
 11
50.41494199999998
 21
189.801237
 31
0.0
  0
LINE
  5
A3FB
330
A2C5
100
AcDbEntity
  8
1
  6
Continuous
100
AcDbLine
 10
50.41494199999998
 20
191.242233
 30
0.0
 11
52.414938
 21
189.801237
 31
0.0
  0
LINE
  5
A3FC
330
A2C5
100
AcDbEntity
  8
1
  6
Continuous
100
AcDbLine
 10
49.586511
 20
191.242233
 30
0.0
 11
47.586515
 21
189.801237
 31
0.0
  0
LINE
  5
A3FD
330
A2C5
100
AcDbEntity
  8
1
  6
Continuous
100
AcDbLine
 10
47.586515
 20
191.242233
 30
0.0
 11
49.586511
 21
189.801237
 31
0.0
  0
ARC
  5
A3FE
330
A2C5
100
AcDbEntity
  8
1
  6
Continuous
100
AcDbCircle
 10
37.11604899999999
 20
183.020424
 30
0.0
 40
1.75
100
AcDbArc
 50
90.0
 51
180.0
  0
LINE
  5
A3FF
330
A2C5
100
AcDbEntity
  8
1
  6
Continuous
100
AcDbLine
 10
39.687016
 20
191.242233
 30
0.0
 11
37.68701999999999
 21
189.801237
 31
0.0
  0
LINE
  5
A400
330
A2C5
100
AcDbEntity
  8
1
  6
Continuous
100
AcDbLine
 10
41.10123
 20
191.242233
 30
0.0
 11
39.101233
 21
189.801237
 31
0.0
  0
LINE
  5
A401
330
A2C5
100
AcDbEntity
  8
1
  6
Continuous
100
AcDbLine
 10
42.51544299999999
 20
191.242233
 30
0.0
 11
40.51544699999999
 21
189.801237
 31
0.0
  0
LINE
  5
A402
330
A2C5
100
AcDbEntity
  8
1
  6
Continuous
100
AcDbLine
 10
43.929657
 20
191.242233
 30
0.0
 11
41.92966099999997
 21
189.801237
 31
0.0
  0
LINE
  5
A403
330
A2C5
100
AcDbEntity
  8
1
  6
Continuous
100
AcDbLine
 10
45.343871
 20
191.242233
 30
0.0
 11
43.34387399999999
 21
189.801237
 31
0.0
  0
LINE
  5
A404
330
A2C5
100
AcDbEntity
  8
1
  6
Continuous
100
AcDbLine
 10
46.758084
 20
191.242233
 30
0.0
 11
44.758088
 21
189.801237
 31
0.0
  0
LINE
  5
A405
330
A2C5
100
AcDbEntity
  8
1
  6
Continuous
100
AcDbLine
 10
48.17229799999999
 20
191.242233
 30
0.0
 11
46.17230099999999
 21
189.801237
 31
0.0
  0
LINE
  5
A406
330
A2C5
100
AcDbEntity
  8
1
  6
Continuous
100
AcDbLine
 10
39.101233
 20
191.242233
 30
0.0
 11
41.10123
 21
189.801237
 31
0.0
  0
LINE
  5
A407
330
A2C5
100
AcDbEntity
  8
1
  6
Continuous
100
AcDbLine
 10
41.92966099999997
 20
191.242233
 30
0.0
 11
43.929657
 21
189.801237
 31
0.0
  0
LINE
  5
A408
330
A2C5
100
AcDbEntity
  8
1
  6
Continuous
100
AcDbLine
 10
44.758088
 20
191.242233
 30
0.0
 11
46.758084
 21
189.801237
 31
0.0
  0
LINE
  5
A409
330
A2C5
100
AcDbEntity
  8
1
  6
Continuous
100
AcDbLine
 10
38.272803
 20
191.242233
 30
0.0
 11
36.27280600000001
 21
189.801237
 31
0.0
  0
LINE
  5
A40A
330
A2C5
100
AcDbEntity
  8
1
  6
Continuous
100
AcDbLine
 10
36.27280600000001
 20
191.242233
 30
0.0
 11
38.272803
 21
189.801237
 31
0.0
  0
ARC
  5
A40B
330
A2C5
100
AcDbEntity
  8
1
  6
Continuous
100
AcDbCircle
 10
58.616289
 20
183.0120179999999
 30
0.0
 40
3.75
100
AcDbArc
 50
0.0
 51
90.0
  0
ARC
  5
A40C
330
A2C5
100
AcDbEntity
  8
1
  6
Continuous
100
AcDbCircle
 10
58.61604899999999
 20
183.020424
 30
0.0
 40
1.75
100
AcDbArc
 50
0.0
 51
90.0
  0
LINE
  5
A40D
330
A2C5
100
AcDbEntity
  8
1
  6
Continuous
100
AcDbLine
 10
64.11595
 20
191.242233
 30
0.0
 11
64.11595
 21
189.801044
 31
0.0
  0
LINE
  5
A40E
330
A2C5
100
AcDbEntity
  8
1
  6
Continuous
100
AcDbLine
 10
56.657579
 20
191.242233
 30
0.0
 11
54.657583
 21
189.801237
 31
0.0
  0
LINE
  5
A40F
330
A2C5
100
AcDbEntity
  8
1
  6
Continuous
100
AcDbLine
 10
58.07179300000001
 20
191.242233
 30
0.0
 11
56.071796
 21
189.801237
 31
0.0
  0
LINE
  5
A410
330
A2C5
100
AcDbEntity
  8
1
  6
Continuous
100
AcDbLine
 10
59.486006
 20
191.242233
 30
0.0
 11
57.48601
 21
189.801237
 31
0.0
  0
LINE
  5
A411
330
A2C5
100
AcDbEntity
  8
1
  6
Continuous
100
AcDbLine
 10
60.90022
 20
191.242233
 30
0.0
 11
58.900223
 21
189.801237
 31
0.0
  0
LINE
  5
A412
330
A2C5
100
AcDbEntity
  8
1
  6
Continuous
100
AcDbLine
 10
62.31443299999999
 20
191.242233
 30
0.0
 11
60.314437
 21
189.801237
 31
0.0
  0
LINE
  5
A413
330
A2C5
100
AcDbEntity
  8
1
  6
Continuous
100
AcDbLine
 10
63.728647
 20
191.242233
 30
0.0
 11
61.72865
 21
189.801237
 31
0.0
  0
LINE
  5
A414
330
A2C5
100
AcDbEntity
  8
1
  6
Continuous
100
AcDbLine
 10
64.11595
 20
190.774323
 30
0.0
 11
63.142864
 21
189.801237
 31
0.0
  0
LINE
  5
A415
330
A2C5
100
AcDbEntity
  8
1
  6
Continuous
100
AcDbLine
 10
56.071796
 20
191.242233
 30
0.0
 11
58.07179300000001
 21
189.801237
 31
0.0
  0
LINE
  5
A416
330
A2C5
100
AcDbEntity
  8
1
  6
Continuous
100
AcDbLine
 10
58.900223
 20
191.242233
 30
0.0
 11
60.90022
 21
189.801237
 31
0.0
  0
LINE
  5
A417
330
A2C5
100
AcDbEntity
  8
1
  6
Continuous
100
AcDbLine
 10
61.72865
 20
191.242233
 30
0.0
 11
63.728647
 21
189.801237
 31
0.0
  0
LINE
  5
A418
330
A2C5
100
AcDbEntity
  8
1
  6
Continuous
100
AcDbLine
 10
55.243366
 20
191.242233
 30
0.0
 11
53.24336899999998
 21
189.801237
 31
0.0
  0
LINE
  5
A419
330
A2C5
100
AcDbEntity
  8
1
  6
Continuous
100
AcDbLine
 10
53.24336899999998
 20
191.242233
 30
0.0
 11
55.243366
 21
189.801237
 31
0.0
  0
LINE
  5
A41A
330
A2C5
100
AcDbEntity
  8
1
  6
Continuous
100
AcDbLine
 10
53.829152
 20
191.242233
 30
0.0
 11
51.829156
 21
189.801237
 31
0.0
  0
LINE
  5
A41B
330
A2C5
100
AcDbEntity
  8
1
  6
Continuous
100
AcDbLine
 10
63.44753
 20
192.93153
 30
0.0
 11
63.094374
 21
193.145533
 31
0.0
  0
ARC
  5
A41C
330
A2C5
100
AcDbEntity
  8
1
  6
Continuous
100
AcDbCircle
 10
62.87808199999999
 20
191.991802
 30
0.0
 40
1.098799999999998
100
AcDbArc
 50
20.306161
 51
58.785345
  0
ARC
  5
A41D
330
A2C5
100
AcDbEntity
  8
1
  6
Continuous
100
AcDbCircle
 10
61.56021800000001
 20
192.7040129999998
 30
0.0
 40
2.371570999999998
100
AcDbArc
 50
321.9491909999999
 51
351.9797889999999
  0
ARC
  5
A41E
330
A2C5
100
AcDbEntity
  8
1
  6
Continuous
100
AcDbCircle
 10
64.092807
 20
196.324106
 30
0.0
 40
3.178573
100
AcDbArc
 50
270.0
 51
303.210091
  0
LINE
  5
A41F
330
A2C5
100
AcDbEntity
  8
1
  6
Continuous
100
AcDbLine
 10
68.866049
 20
197.1135329999999
 30
0.0
 11
68.866049
 21
195.113571
 31
0.0
  0
LINE
  5
A420
330
A2C5
100
AcDbEntity
  8
1
  6
Continuous
100
AcDbLine
 10
67.63144699999999
 20
194.865533
 30
0.0
 11
67.819614
 21
195.113571
 31
0.0
  0
LINE
  5
A421
330
A2C5
100
AcDbEntity
  8
1
  6
Continuous
100
AcDbLine
 10
256.8632029999998
 20
183.020424
 30
0.0
 11
256.8632029999998
 21
148.6763159999999
 31
0.0
  0
LINE
  5
A422
330
A2C5
100
AcDbEntity
  8
1
  6
Continuous
100
AcDbLine
 10
231.8632029999999
 20
183.020424
 30
0.0
 11
231.8632029999999
 21
148.6763159999999
 31
0.0
  0
LINE
  5
A423
330
A2C5
100
AcDbEntity
  8
4
  6
CENTER
100
AcDbLine
 10
33.36604899999999
 20
202.113537
 30
0.0
 11
33.36604899999999
 21
190.1135739999998
 31
0.0
  0
LINE
  5
A424
330
A2C5
100
AcDbEntity
  8
4
  6
CENTER
100
AcDbLine
 10
62.36604899999999
 20
202.113537
 30
0.0
 11
62.36604899999999
 21
190.1135739999998
 31
0.0
  0
LINE
  5
A425
330
A2C5
100
AcDbEntity
  8
4
  6
CENTER
100
AcDbLine
 10
229.8632029999999
 20
202.113537
 30
0.0
 11
229.8632029999999
 21
190.1135739999998
 31
0.0
  0
LINE
  5
A426
330
A2C5
100
AcDbEntity
  8
4
  6
CENTER
100
AcDbLine
 10
258.8632029999998
 20
202.113537
 30
0.0
 11
258.8632029999998
 21
190.1135739999998
 31
0.0
  0
ARC
  5
A427
330
A2C5
100
AcDbEntity
  8
1
  6
Continuous
100
AcDbCircle
 10
252.113443
 20
157.1130379999999
 30
0.0
 40
9.0
100
AcDbArc
 50
331.8213569999999
 51
355.5531859999998
  0
LINE
  5
A428
330
A2C5
100
AcDbEntity
  8
1
  6
Continuous
100
AcDbLine
 10
260.046759
 20
154.2473369999999
 30
0.0
 11
260.046759
 21
152.8630379999999
 31
0.0
  0
LINE
  5
A429
330
A2C5
100
AcDbEntity
  8
1
  6
Continuous
100
AcDbLine
 10
259.4357299999999
 20
152.8630379999999
 30
0.0
 11
260.046759
 21
152.8630379999999
 31
0.0
  0
LINE
  5
A42A
330
A2C5
100
AcDbEntity
  8
1
  6
Continuous
100
AcDbLine
 10
129.4032709999999
 20
186.9575049999999
 30
0.0
 11
126.0470149999999
 21
156.859497
 31
0.0
  0
ARC
  5
A42B
330
A2C5
100
AcDbEntity
  8
1
  6
Continuous
100
AcDbCircle
 10
131.547542
 20
160.21053
 30
0.0
 40
12.0
100
AcDbArc
 50
295.9209009999998
 51
321.97488
  0
LINE
  5
A42C
330
A2C5
100
AcDbEntity
  8
4
  6
CENTER
100
AcDbLine
 10
128.6646259999999
 20
202.113537
 30
0.0
 11
128.6646259999999
 21
190.1135739999998
 31
0.0
  0
LINE
  5
A42D
330
A2C5
100
AcDbEntity
  8
4
  6
CENTER
100
AcDbLine
 10
175.664626
 20
202.113537
 30
0.0
 11
175.664626
 21
190.1135739999998
 31
0.0
  0
LINE
  5
A42E
330
A2C5
100
AcDbEntity
  8
4
  6
CENTER
100
AcDbLine
 10
181.9146189999999
 20
55.50961199999999
 30
0.0
 11
169.4146189999998
 21
55.50961199999999
 31
0.0
  0
LINE
  5
A42F
330
A2C5
100
AcDbEntity
  8
4
  6
CENTER
100
AcDbLine
 10
181.9146189999999
 20
84.509612
 30
0.0
 11
169.4146189999998
 21
84.509612
 31
0.0
  0
LINE
  5
A430
330
A2C5
100
AcDbEntity
  8
4
  6
CENTER
100
AcDbLine
 10
187.1646189999999
 20
70.009612
 30
0.0
 11
103.164626
 21
70.009612
 31
0.0
  0
LINE
  5
A431
330
A2C5
100
AcDbEntity
  8
1
  6
Continuous
100
AcDbLine
 10
124.6646189999998
 20
49.009612
 30
0.0
 11
179.6646189999999
 21
49.009612
 31
0.0
  0
LINE
  5
A432
330
A2C5
100
AcDbEntity
  8
1
  6
Continuous
100
AcDbLine
 10
179.6646189999999
 20
91.009612
 30
0.0
 11
124.6646189999998
 21
91.009612
 31
0.0
  0
LINE
  5
A433
330
A2C5
100
AcDbEntity
  8
4
  6
CENTER
100
AcDbLine
 10
152.164619
 20
44.009612
 30
0.0
 11
152.164619
 21
96.009612
 31
0.0
  0
LINE
  5
A434
330
A2C5
100
AcDbEntity
  8
4
  6
CENTER
100
AcDbLine
 10
128.6646189999999
 20
61.75961199999999
 30
0.0
 11
128.6646189999999
 21
49.25961199999999
 31
0.0
  0
LINE
  5
A435
330
A2C5
100
AcDbEntity
  8
1
  6
Continuous
100
AcDbLine
 10
122.1646189999999
 20
88.509612
 30
0.0
 11
122.1646189999999
 21
80.009612
 31
0.0
  0
LINE
  5
A436
330
A2C5
100
AcDbEntity
  8
4
  6
CENTER
100
AcDbLine
 10
128.6646189999999
 20
90.759612
 30
0.0
 11
128.6646189999999
 21
78.259612
 31
0.0
  0
ARC
  5
A437
330
A2C5
100
AcDbEntity
  8
1
  6
Continuous
100
AcDbCircle
 10
128.6646189999999
 20
84.509612
 30
0.0
 40
3.25
100
AcDbArc
 50
23.57455199999999
 51
217.182865
  0
ARC
  5
A438
330
A2C5
100
AcDbEntity
  8
1
  6
Continuous
100
AcDbCircle
 10
124.6646189999998
 20
88.509612
 30
0.0
 40
2.5
100
AcDbArc
 50
90.0
 51
180.0
  0
LINE
  5
A439
330
A2C5
100
AcDbEntity
  8
4
  6
CENTER
100
AcDbLine
 10
134.9146189999999
 20
84.509612
 30
0.0
 11
122.4146189999999
 21
84.509612
 31
0.0
  0
ARC
  5
A43A
330
A2C5
100
AcDbEntity
  8
1
  6
Continuous
100
AcDbCircle
 10
124.6646189999998
 20
51.509612
 30
0.0
 40
2.5
100
AcDbArc
 50
180.0
 51
270.0
  0
LINE
  5
A43B
330
A2C5
100
AcDbEntity
  8
4
  6
CENTER
100
AcDbLine
 10
134.9146189999999
 20
55.50961199999999
 30
0.0
 11
122.4146189999999
 21
55.50961199999999
 31
0.0
  0
LINE
  5
A43C
330
A2C5
100
AcDbEntity
  8
4
  6
CENTER
100
AcDbLine
 10
175.6646189999999
 20
61.75961199999999
 30
0.0
 11
175.6646189999999
 21
49.25961199999999
 31
0.0
  0
LINE
  5
A43D
330
A2C5
100
AcDbEntity
  8
1
  6
Continuous
100
AcDbLine
 10
182.1646189999999
 20
51.509612
 30
0.0
 11
182.1646189999999
 21
88.509612
 31
0.0
  0
LINE
  5
A43E
330
A2C5
100
AcDbEntity
  8
4
  6
CENTER
100
AcDbLine
 10
175.6646189999999
 20
90.759612
 30
0.0
 11
175.6646189999999
 21
78.259612
 31
0.0
  0
CIRCLE
  5
A43F
330
A2C5
100
AcDbEntity
  8
1
  6
Continuous
100
AcDbCircle
 10
175.6646189999999
 20
84.509612
 30
0.0
 40
3.25
  0
ARC
  5
A440
330
A2C5
100
AcDbEntity
  8
1
  6
Continuous
100
AcDbCircle
 10
179.6646189999999
 20
88.509612
 30
0.0
 40
2.5
100
AcDbArc
 50
0.0
 51
90.0
  0
ARC
  5
A441
330
A2C5
100
AcDbEntity
  8
1
  6
Continuous
100
AcDbCircle
 10
179.6646189999999
 20
51.509612
 30
0.0
 40
2.5
100
AcDbArc
 50
270.0
 51
0.0
  0
CIRCLE
  5
A442
330
A2C5
100
AcDbEntity
  8
1
  6
Continuous
100
AcDbCircle
 10
175.6646189999999
 20
55.50961199999999
 30
0.0
 40
3.25
  0
LINE
  5
A443
330
A2C5
100
AcDbEntity
  8
1
  6
Continuous
100
AcDbLine
 10
137.5129129999999
 20
57.50961199999998
 30
0.0
 11
126.07531
 21
57.50961199999998
 31
0.0
  0
LINE
  5
A444
330
A2C5
100
AcDbEntity
  8
1
  6
Continuous
100
AcDbLine
 10
136.931079
 20
55.50937199999999
 30
0.0
 11
126.07531
 21
55.50937199999999
 31
0.0
  0
LINE
  5
A445
330
A2C5
100
AcDbEntity
  8
1
  6
Continuous
100
AcDbLine
 10
136.931079
 20
84.50985199999998
 30
0.0
 11
126.07531
 21
84.50985199999998
 31
0.0
  0
LINE
  5
A446
330
A2C5
100
AcDbEntity
  8
1
  6
Continuous
100
AcDbLine
 10
137.5129129999999
 20
82.509612
 30
0.0
 11
126.07531
 21
82.509612
 31
0.0
  0
LINE
  5
A447
330
A2C5
100
AcDbEntity
  8
1
  6
Continuous
100
AcDbLine
 10
130.164626
 20
81.70961199999998
 30
0.0
 11
130.164626
 21
81.50961200000002
 31
0.0
  0
LINE
  5
A448
330
A2C5
100
AcDbEntity
  8
1
  6
Continuous
100
AcDbLine
 10
122.1646189999999
 20
60.00961199999998
 30
0.0
 11
122.1646189999999
 21
51.509612
 31
0.0
  0
ARC
  5
A449
330
A2C5
100
AcDbEntity
  8
1
  6
Continuous
100
AcDbCircle
 10
128.6646189999999
 20
55.50961199999999
 30
0.0
 40
3.25
100
AcDbArc
 50
112.6198649999998
 51
142.020128
  0
LINE
  5
A44A
330
A2C5
100
AcDbEntity
  8
4
  6
CENTER
100
AcDbLine
 10
133.164626
 20
127.113237
 30
0.0
 11
133.164626
 21
185.113237
 31
0.0
  0
LINE
  5
A44B
330
A2C5
100
AcDbEntity
  8
1
  6
Continuous
100
AcDbLine
 10
126.07531
 20
55.50937199999999
 30
0.0
 11
126.07531
 21
57.50961199999998
 31
0.0
  0
LINE
  5
A44C
330
A2C5
100
AcDbEntity
  8
1
  6
Continuous
100
AcDbLine
 10
126.07531
 20
82.509612
 30
0.0
 11
126.07531
 21
84.50985199999998
 31
0.0
  0
ARC
  5
A44D
330
A2C5
100
AcDbEntity
  8
1
  6
Continuous
100
AcDbCircle
 10
152.164619
 20
70.009612
 30
0.0
 40
19.953671
100
AcDbArc
 50
227.2057859999999
 51
132.7942139999999
  0
ARC
  5
A44E
330
A2C5
100
AcDbEntity
  8
1
  6
Continuous
100
AcDbCircle
 10
152.164619
 20
70.009612
 30
0.0
 40
13.6
100
AcDbArc
 50
227.332075
 51
132.6679249999999
  0
ARC
  5
A44F
330
A2C5
100
AcDbEntity
  8
1
  6
Continuous
100
AcDbCircle
 10
152.164619
 20
70.009612
 30
0.0
 40
12.0
100
AcDbArc
 50
236.44269
 51
123.55731
  0
LINE
  5
A450
330
A2C5
100
AcDbEntity
  8
1
  6
Continuous
100
AcDbLine
 10
110.760923
 20
80.009612
 30
0.0
 11
155.56833
 21
80.009612
 31
0.0
  0
ARC
  5
A451
330
A2C5
100
AcDbEntity
  8
1
  6
Continuous
100
AcDbCircle
 10
123.1646259999999
 20
70.009612
 30
0.0
 40
35.0
100
AcDbArc
 50
345.3015759999999
 51
14.698424
  0
ARC
  5
A452
330
A2C5
100
AcDbEntity
  8
1
  6
Continuous
100
AcDbCircle
 10
155.56833
 20
78.509612
 30
0.0
 40
1.5
100
AcDbArc
 50
14.698424
 51
90.0
  0
LINE
  5
A453
330
A2C5
100
AcDbEntity
  8
1
  6
Continuous
100
AcDbLine
 10
110.760923
 20
60.00961199999998
 30
0.0
 11
155.56833
 21
60.00961199999998
 31
0.0
  0
ARC
  5
A454
330
A2C5
100
AcDbEntity
  8
1
  6
Continuous
100
AcDbCircle
 10
155.56833
 20
61.509612
 30
0.0
 40
1.5
100
AcDbArc
 50
270.0
 51
345.3015759999999
  0
LINE
  5
A455
330
A2C5
100
AcDbEntity
  8
4
  6
CENTER
100
AcDbLine
 10
133.164626
 20
95.81078899999999
 30
0.0
 11
133.164626
 21
44.009612
 31
0.0
  0
ARC
  5
A456
330
A2C5
100
AcDbEntity
  8
1
  6
Continuous
100
AcDbCircle
 10
133.164626
 20
62.509372
 30
0.0
 40
9.0
100
AcDbArc
 50
241.8213569999999
 51
298.178643
  0
LINE
  5
A457
330
A2C5
100
AcDbEntity
  8
1
  6
Continuous
100
AcDbLine
 10
128.914626
 20
54.576056
 30
0.0
 11
137.414626
 21
54.576056
 31
0.0
  0
LINE
  5
A458
330
A2C5
100
AcDbEntity
  8
1
  6
Continuous
100
AcDbLine
 10
124.664626
 20
58.509612
 30
0.0
 11
141.664626
 21
58.509612
 31
0.0
  0
LINE
  5
A459
330
A2C5
100
AcDbEntity
  8
1
  6
Continuous
100
AcDbLine
 10
124.664626
 20
81.50961200000002
 30
0.0
 11
141.664626
 21
81.50961200000002
 31
0.0
  0
LINE
  5
A45A
330
A2C5
100
AcDbEntity
  8
1
  6
Continuous
100
AcDbLine
 10
136.164626
 20
57.50961199999998
 30
0.0
 11
136.164626
 21
58.109612
 31
0.0
  0
LINE
  5
A45B
330
A2C5
100
AcDbEntity
  8
1
  6
Continuous
100
AcDbLine
 10
137.414626
 20
55.50937199999999
 30
0.0
 11
137.414626
 21
54.576056
 31
0.0
  0
LINE
  5
A45C
330
A2C5
100
AcDbEntity
  8
1
  6
Continuous
100
AcDbLine
 10
136.164626
 20
58.509612
 30
0.0
 11
136.164626
 21
58.00961199999999
 31
0.0
  0
LINE
  5
A45D
330
A2C5
100
AcDbEntity
  8
1
  6
Continuous
100
AcDbLine
 10
141.664626
 20
58.509612
 30
0.0
 11
141.664626
 21
60.00961199999998
 31
0.0
  0
LINE
  5
A45E
330
A2C5
100
AcDbEntity
  8
1
  6
Continuous
100
AcDbLine
 10
136.164626
 20
81.70961199999998
 30
0.0
 11
136.164626
 21
81.50961200000002
 31
0.0
  0
LINE
  5
A45F
330
A2C5
100
AcDbEntity
  8
1
  6
Continuous
100
AcDbLine
 10
136.164626
 20
82.509612
 30
0.0
 11
136.164626
 21
81.50961200000002
 31
0.0
  0
LINE
  5
A460
330
A2C5
100
AcDbEntity
  8
1
  6
Continuous
100
AcDbLine
 10
141.664626
 20
81.50961200000002
 30
0.0
 11
141.664626
 21
80.009612
 31
0.0
  0
LINE
  5
A461
330
A2C5
100
AcDbEntity
  8
1
  6
Continuous
100
AcDbLine
 10
130.164626
 20
57.50961199999998
 30
0.0
 11
130.164626
 21
58.109612
 31
0.0
  0
LINE
  5
A462
330
A2C5
100
AcDbEntity
  8
1
  6
Continuous
100
AcDbLine
 10
128.914626
 20
55.50937199999999
 30
0.0
 11
128.914626
 21
54.576056
 31
0.0
  0
LINE
  5
A463
330
A2C5
100
AcDbEntity
  8
1
  6
Continuous
100
AcDbLine
 10
130.164626
 20
58.509612
 30
0.0
 11
130.164626
 21
57.90610799999999
 31
0.0
  0
LINE
  5
A464
330
A2C5
100
AcDbEntity
  8
1
  6
Continuous
100
AcDbLine
 10
124.664626
 20
58.509612
 30
0.0
 11
124.664626
 21
60.00961199999998
 31
0.0
  0
LINE
  5
A465
330
A2C5
100
AcDbEntity
  8
1
  6
Continuous
100
AcDbLine
 10
130.164626
 20
81.50961200000002
 30
0.0
 11
130.164626
 21
81.70961199999998
 31
0.0
  0
LINE
  5
A466
330
A2C5
100
AcDbEntity
  8
1
  6
Continuous
100
AcDbLine
 10
130.164626
 20
82.509612
 30
0.0
 11
130.164626
 21
81.50961200000002
 31
0.0
  0
LINE
  5
A467
330
A2C5
100
AcDbEntity
  8
1
  6
Continuous
100
AcDbLine
 10
124.664626
 20
81.50961200000002
 30
0.0
 11
124.664626
 21
80.009612
 31
0.0
  0
ARC
  5
A468
330
A2C5
100
AcDbEntity
  8
1
  6
Continuous
100
AcDbCircle
 10
110.760923
 20
78.509612
 30
0.0
 40
1.5
100
AcDbArc
 50
90.0
 51
165.301576
  0
ARC
  5
A469
330
A2C5
100
AcDbEntity
  8
1
  6
Continuous
100
AcDbCircle
 10
143.1646259999999
 20
70.009612
 30
0.0
 40
35.0
100
AcDbArc
 50
165.301576
 51
194.698424
  0
ARC
  5
A46A
330
A2C5
100
AcDbEntity
  8
1
  6
Continuous
100
AcDbCircle
 10
110.760923
 20
61.509612
 30
0.0
 40
1.5
100
AcDbArc
 50
194.698424
 51
270.0
  0
ARC
  5
A46B
330
A2C5
100
AcDbEntity
  8
1
  6
Continuous
100
AcDbCircle
 10
128.6646189999999
 20
55.50961199999999
 30
0.0
 40
3.25
100
AcDbArc
 50
142.817135
 51
326.0023529999998
  0
LINE
  5
A46C
330
A2C5
100
AcDbEntity
  8
1
  6
Continuous
100
AcDbLine
 10
126.07531
 20
246.681635
 30
0.0
 11
126.07531
 21
244.717222
 31
0.0
  0
LINE
  5
A46D
330
A2C5
100
AcDbEntity
  8
1
  6
Continuous
100
AcDbLine
 10
128.694865
 20
246.717462
 30
0.0
 11
126.1028819999999
 21
246.717462
 31
0.0
  0
LINE
  5
A46E
330
A2C5
100
AcDbEntity
  8
1
  6
Continuous
100
AcDbLine
 10
131.9146189999998
 20
244.717222
 30
0.0
 11
126.07531
 21
244.717222
 31
0.0
  0
LINE
  5
A46F
330
A2C5
100
AcDbEntity
  8
1
  6
Continuous
100
AcDbLine
 10
126.07531
 20
273.7177019999999
 30
0.0
 11
126.07531
 21
271.753289
 31
0.0
  0
LINE
  5
A470
330
A2C5
100
AcDbEntity
  8
1
  6
Continuous
100
AcDbLine
 10
128.914626
 20
273.7177019999999
 30
0.0
 11
128.914626
 21
274.651018
 31
0.0
  0
LINE
  5
A471
330
A2C5
100
AcDbEntity
  8
1
  6
Continuous
100
AcDbLine
 10
131.9146189999998
 20
273.7177019999999
 30
0.0
 11
126.07531
 21
273.7177019999999
 31
0.0
  0
LINE
  5
A472
330
A2C5
100
AcDbEntity
  8
1
  6
Continuous
100
AcDbLine
 10
128.694865
 20
271.717462
 30
0.0
 11
126.1028819999999
 21
271.717462
 31
0.0
  0
LINE
  5
A473
330
A2C5
100
AcDbEntity
  8
1
  6
Continuous
100
AcDbLine
 10
128.914626
 20
274.651018
 30
0.0
 11
131.777652
 21
274.651018
 31
0.0
  0
ARC
  5
A474
330
A2C5
100
AcDbEntity
  8
1
  6
Continuous
100
AcDbCircle
 10
133.164626
 20
266.717702
 30
0.0
 40
9.0
100
AcDbArc
 50
101.5730889999999
 51
118.178643
  0
ARC
  5
A475
330
A2C5
100
AcDbEntity
  8
1
  6
Continuous
100
AcDbCircle
 10
167.167723
 20
70.009612
 30
0.0
 40
40.45257399999999
100
AcDbArc
 50
162.0007939999998
 51
163.4839739999998
  0
ARC
  5
A476
330
A2C5
100
AcDbEntity
  8
1
  6
Continuous
100
AcDbCircle
 10
167.167723
 20
70.009612
 30
0.0
 40
40.45257399999999
100
AcDbArc
 50
196.516026
 51
197.9992059999999
  0
ARC
  5
A477
330
A2C5
100
AcDbEntity
  8
1
  6
Continuous
100
AcDbCircle
 10
167.167723
 20
259.217462
 30
0.0
 40
40.45257399999999
100
AcDbArc
 50
196.174637
 51
201.005058
  0
ARC
  5
A478
330
A2C5
100
AcDbEntity
  8
1
  6
Continuous
100
AcDbCircle
 10
167.167723
 20
259.217462
 30
0.0
 40
40.45257399999999
100
AcDbArc
 50
158.9949419999999
 51
163.8253629999999
  0
LINE
  5
A479
330
A2C5
100
AcDbEntity
  8
1
  6
Continuous
100
AcDbLine
 10
170.764126
 20
183.105367
 30
0.0
 11
171.0146259999999
 21
183.105367
 31
0.0
  0
LINE
  5
A47A
330
A2C5
100
AcDbEntity
  8
1
  6
Continuous
100
AcDbLine
 10
171.0146259999999
 20
183.105367
 30
0.0
 11
170.6780469999999
 21
187.2199979999998
 31
0.0
  0
ARC
  5
A47B
330
A2C5
100
AcDbEntity
  8
1
  6
Continuous
100
AcDbCircle
 10
152.164619
 20
70.009612
 30
0.0
 40
18.85
100
AcDbArc
 50
238.127847
 51
121.872153
  0
ARC
  5
A47C
330
A2C5
100
AcDbEntity
  8
1
  6
Continuous
100
AcDbCircle
 10
152.164619
 20
70.009612
 30
0.0
 40
16.85
100
AcDbArc
 50
236.92835
 51
123.07165
  0
ARC
  5
A47D
330
A2C5
100
AcDbEntity
  8
1
  6
Continuous
100
AcDbCircle
 10
136.931079
 20
94.50985199999999
 30
0.0
 40
10.0
100
AcDbArc
 50
270.0
 51
301.8721529999999
  0
ARC
  5
A47E
330
A2C5
100
AcDbEntity
  8
1
  6
Continuous
100
AcDbCircle
 10
137.5129129999999
 20
92.509612
 30
0.0
 40
10.0
100
AcDbArc
 50
270.0
 51
303.07165
  0
ARC
  5
A47F
330
A2C5
100
AcDbEntity
  8
1
  6
Continuous
100
AcDbCircle
 10
137.5129129999999
 20
47.50961199999998
 30
0.0
 40
10.0
100
AcDbArc
 50
56.92835
 51
90.0
  0
ARC
  5
A480
330
A2C5
100
AcDbEntity
  8
1
  6
Continuous
100
AcDbCircle
 10
136.931079
 20
45.50937199999999
 30
0.0
 40
10.0
100
AcDbArc
 50
58.12784699999998
 51
90.0
  0
ARC
  5
A481
330
A2C5
100
AcDbEntity
  8
1
  6
Continuous
100
AcDbCircle
 10
133.164626
 20
250.76175
 30
0.0
 40
7.5
100
AcDbArc
 50
237.769047
 51
258.297302
  0
LINE
  5
A482
330
A2C5
100
AcDbEntity
  8
1
  6
Continuous
100
AcDbLine
 10
131.900744
 20
244.417462
 30
0.0
 11
129.164626
 21
244.417462
 31
0.0
  0
LINE
  5
A483
330
A2C5
100
AcDbEntity
  8
1
  6
Continuous
100
AcDbLine
 10
129.164626
 20
244.417462
 30
0.0
 11
129.164626
 21
244.717462
 31
0.0
  0
LINE
  5
A484
330
A2C5
100
AcDbEntity
  8
1
  6
Continuous
100
AcDbLine
 10
62.666289
 20
161.1130379999998
 30
0.0
 11
62.666289
 21
153.113038
 31
0.0
  0
ARC
  5
A485
330
A2C5
100
AcDbEntity
  8
1
  6
Continuous
100
AcDbCircle
 10
56.322001
 20
157.1130379999999
 30
0.0
 40
7.5
100
AcDbArc
 50
327.769047
 51
32.230953
  0
LINE
  5
A486
330
A2C5
100
AcDbEntity
  8
1
  6
Continuous
100
AcDbLine
 10
62.666289
 20
153.113038
 30
0.0
 11
62.366289
 21
153.113038
 31
0.0
  0
LINE
  5
A487
330
A2C5
100
AcDbEntity
  8
1
  6
Continuous
100
AcDbLine
 10
62.666289
 20
161.1130379999998
 30
0.0
 11
62.366289
 21
161.1130379999998
 31
0.0
  0
CIRCLE
  5
A488
330
A2C5
100
AcDbEntity
  8
1
  6
Continuous
100
AcDbCircle
 10
133.164626
 20
157.1132369999999
 30
0.0
 40
4.0
  0
LINE
  5
A489
330
A2C5
100
AcDbEntity
  8
1
  6
Continuous
100
AcDbLine
 10
137.164626
 20
84.80961200000001
 30
0.0
 11
137.164626
 21
84.509612
 31
0.0
  0
LINE
  5
A48A
330
A2C5
100
AcDbEntity
  8
1
  6
Continuous
100
AcDbLine
 10
129.164626
 20
84.80961200000001
 30
0.0
 11
129.164626
 21
84.509612
 31
0.0
  0
LINE
  5
A48B
330
A2C5
100
AcDbEntity
  8
1
  6
Continuous
100
AcDbLine
 10
137.164626
 20
84.80961200000001
 30
0.0
 11
129.164626
 21
84.80961200000001
 31
0.0
  0
ARC
  5
A48C
330
A2C5
100
AcDbEntity
  8
1
  6
Continuous
100
AcDbCircle
 10
133.164626
 20
78.46532399999998
 30
0.0
 40
7.5
100
AcDbArc
 50
57.76904700000001
 51
122.230953
  0
ARC
  5
A48D
330
A2C5
100
AcDbEntity
  8
1
  6
Continuous
100
AcDbCircle
 10
128.6646189999999
 20
84.509612
 30
0.0
 40
3.25
100
AcDbArc
 50
217.9798719999999
 51
247.380135
  0
ARC
  5
A48E
330
A2C5
100
AcDbEntity
  8
1
  6
Continuous
100
AcDbCircle
 10
55.731462
 20
167.03323
 30
0.0
 40
26.722888
100
AcDbArc
 50
212.0233099999999
 51
213.180835
  0
LINE
  5
A48F
330
A2C5
100
AcDbEntity
  8
1
  6
Continuous
100
AcDbLine
 10
258.863443
 20
149.528637
 30
0.0
 11
258.863443
 21
148.6763159999999
 31
0.0
  0
ARC
  5
A490
330
A2C5
100
AcDbEntity
  8
1
  6
Continuous
100
AcDbCircle
 10
236.503443
 20
166.870484
 30
0.0
 40
26.713884
100
AcDbArc
 50
331.812974
 51
358.9933849999999
  0
LINE
  5
A491
330
A2C5
100
AcDbEntity
  8
1
  6
Continuous
100
AcDbLine
 10
256.8632029999998
 20
148.6763159999999
 30
0.0
 11
258.863443
 21
148.6763159999999
 31
0.0
  0
ARC
  5
A492
330
A2C5
100
AcDbEntity
  8
1
  6
Continuous
100
AcDbCircle
 10
268.863443
 20
149.528637
 30
0.0
 40
10.0
100
AcDbArc
 50
151.812974
 51
180.0
  0
LINE
  5
A493
330
A2C5
100
AcDbEntity
  8
1
  6
Continuous
100
AcDbLine
 10
261.180827
 20
174.474628
 30
0.0
 11
261.180827
 21
167.2864389999998
 31
0.0
  0
ARC
  5
A494
330
A2C5
100
AcDbEntity
  8
1
  6
Continuous
100
AcDbCircle
 10
234.4710669999999
 20
167.7557439999999
 30
0.0
 40
26.713884
100
AcDbArc
 50
331.812974
 51
358.9933849999999
  0
ARC
  5
A495
330
A2C5
100
AcDbEntity
  8
1
  6
Continuous
100
AcDbCircle
 10
266.831067
 20
150.413898
 30
0.0
 40
10.0
100
AcDbArc
 50
151.812974
 51
175.405317
  0
ARC
  5
A496
330
A2C5
100
AcDbEntity
  8
1
  6
Continuous
100
AcDbCircle
 10
252.222963
 20
166.870484
 30
0.0
 40
26.713884
100
AcDbArc
 50
181.006615
 51
208.187026
  0
ARC
  5
A497
330
A2C5
100
AcDbEntity
  8
1
  6
Continuous
100
AcDbCircle
 10
219.8629629999998
 20
149.528637
 30
0.0
 40
10.0
100
AcDbArc
 50
0.0
 51
28.18702599999999
  0
LINE
  5
A498
330
A2C5
100
AcDbEntity
  8
1
  6
Continuous
100
AcDbLine
 10
231.8632029999999
 20
148.6763159999999
 30
0.0
 11
229.8629629999998
 21
148.6763159999999
 31
0.0
  0
LINE
  5
A499
330
A2C5
100
AcDbEntity
  8
1
  6
Continuous
100
AcDbLine
 10
229.8629629999998
 20
149.528637
 30
0.0
 11
229.8629629999998
 21
148.6763159999999
 31
0.0
  0
ARC
  5
A49A
330
A2C5
100
AcDbEntity
  8
1
  6
Continuous
100
AcDbCircle
 10
221.89534
 20
150.413898
 30
0.0
 40
10.0
100
AcDbArc
 50
4.594682999999998
 51
28.18702599999999
  0
ARC
  5
A49B
330
A2C5
100
AcDbEntity
  8
1
  6
Continuous
100
AcDbCircle
 10
254.25534
 20
167.7557439999999
 30
0.0
 40
26.713884
100
AcDbArc
 50
181.006615
 51
208.187026
  0
LINE
  5
A49C
330
A2C5
100
AcDbEntity
  8
1
  6
Continuous
100
AcDbLine
 10
227.5455799999999
 20
174.474628
 30
0.0
 11
227.5455799999999
 21
167.2864389999998
 31
0.0
  0
ARC
  5
A49D
330
A2C5
100
AcDbEntity
  8
1
  6
Continuous
100
AcDbCircle
 10
240.7727219999999
 20
173.5058109999999
 30
0.0
 40
13.262575
100
AcDbArc
 50
133.679923
 51
175.810882
  0
LINE
  5
A49E
330
A2C5
100
AcDbEntity
  8
1
  6
Continuous
100
AcDbLine
 10
127.4146189999999
 20
247.7174619999999
 30
0.0
 11
128.3842109999999
 21
247.7174619999999
 31
0.0
  0
LINE
  5
A49F
330
A2C5
100
AcDbEntity
  8
1
  6
Continuous
100
AcDbLine
 10
127.4146189999999
 20
270.7174619999999
 30
0.0
 11
128.3842109999999
 21
270.7174619999999
 31
0.0
  0
LINE
  5
A4A0
330
A2C5
100
AcDbEntity
  8
1
  6
Continuous
100
AcDbLine
 10
135.8952069999999
 20
189.801237
 30
0.0
 11
168.842904
 21
189.801237
 31
0.0
  0
LINE
  5
A4A1
330
A2C5
100
AcDbEntity
  8
4
  6
CENTER
100
AcDbLine
 10
355.56178
 20
127.113237
 30
0.0
 11
355.56178
 21
185.113237
 31
0.0
  0
LINE
  5
A4A2
330
A2C5
100
AcDbEntity
  8
1
  6
Continuous
100
AcDbLine
 10
359.3231349999999
 20
186.9575049999999
 30
0.0
 11
362.679392
 21
156.859497
 31
0.0
  0
LINE
  5
A4A3
330
A2C5
100
AcDbEntity
  8
4
  6
CENTER
100
AcDbLine
 10
336.5617799999998
 20
202.113537
 30
0.0
 11
336.5617799999998
 21
166.57326
 31
0.0
  0
ARC
  5
A4A4
330
A2C5
100
AcDbEntity
  8
1
  6
Continuous
100
AcDbCircle
 10
282.957243
 20
135.989325
 30
0.0
 40
63.35981999999999
100
AcDbArc
 50
36.666179
 51
45.952998
  0
LINE
  5
A4A5
330
A2C5
100
AcDbEntity
  8
1
  6
Continuous
100
AcDbLine
 10
347.7117799999998
 20
186.064782
 30
0.0
 11
347.7117799999998
 21
155.880475
 31
0.0
  0
ARC
  5
A4A6
330
A2C5
100
AcDbEntity
  8
1
  6
Continuous
100
AcDbCircle
 10
355.56178
 20
157.1132369999999
 30
0.0
 40
25.0
100
AcDbArc
 50
144.1619329999998
 51
80.219389
  0
ARC
  5
A4A7
330
A2C5
100
AcDbEntity
  8
1
  6
Continuous
100
AcDbCircle
 10
355.56178
 20
157.1132369999999
 30
0.0
 40
17.5
100
AcDbArc
 50
153.524335
 51
72.62147500000001
  0
ARC
  5
A4A8
330
A2C5
100
AcDbEntity
  8
1
  6
Continuous
100
AcDbCircle
 10
355.56178
 20
157.1132369999999
 30
0.0
 40
8.5
100
AcDbArc
 50
258.2104419999998
 51
40.37695
  0
ARC
  5
A4A9
330
A2C5
100
AcDbEntity
  8
1
  6
Continuous
100
AcDbCircle
 10
355.2117799999999
 20
156.163237
 30
0.0
 40
7.5
100
AcDbArc
 50
244.0790989999999
 51
5.326703
  0
LINE
  5
A4AA
330
A2C5
100
AcDbEntity
  8
4
  6
CENTER
100
AcDbLine
 10
385.56178
 20
157.1132369999999
 30
0.0
 11
325.56178
 21
157.1132369999999
 31
0.0
  0
ARC
  5
A4AB
330
A2C5
100
AcDbEntity
  8
1
  6
Continuous
100
AcDbCircle
 10
397.6036619999999
 20
191.822394
 30
0.0
 40
63.31738699999998
100
AcDbArc
 50
210.0174259999998
 51
218.02512
  0
ARC
  5
A4AC
330
A2C5
100
AcDbEntity
  8
1
  6
Continuous
100
AcDbCircle
 10
357.1788649999998
 20
160.21053
 30
0.0
 40
12.0
100
AcDbArc
 50
218.02512
 51
244.0790989999999
  0
ARC
  5
A4AD
330
A2C5
100
AcDbEntity
  8
1
  6
Continuous
100
AcDbCircle
 10
220.543556
 20
89.52488199999995
 30
0.0
 40
141.169928
100
AcDbArc
 50
30.017426
 51
36.666179
  0
LINE
  5
A4AE
330
A2C5
100
AcDbEntity
  8
1
  6
Continuous
100
AcDbLine
 10
359.5092799999998
 20
184.961041
 30
0.0
 11
361.778237
 21
184.9947979999998
 31
0.0
  0
ARC
  5
A4AF
330
A2C5
100
AcDbEntity
  8
1
  6
Continuous
100
AcDbCircle
 10
361.0946269999999
 20
185.6414879999999
 30
0.0
 40
1.351175999999999
100
AcDbArc
 50
50.763314
 51
91.14576300000001
  0
LINE
  5
A4B0
330
A2C5
100
AcDbEntity
  8
1
  6
Continuous
100
AcDbLine
 10
366.56178
 20
195.1135739999998
 30
0.0
 11
306.56178
 21
195.1135739999998
 31
0.0
  0
LINE
  5
A4B1
330
A2C5
100
AcDbEntity
  8
1
  6
Continuous
100
AcDbLine
 10
366.56178
 20
197.113537
 30
0.0
 11
306.56178
 21
197.113537
 31
0.0
  0
LINE
  5
A4B2
330
A2C5
100
AcDbEntity
  8
1
  6
Continuous
100
AcDbLine
 10
366.56178
 20
197.113537
 30
0.0
 11
366.56178
 21
195.1135739999998
 31
0.0
  0
ARC
  5
A4B3
330
A2C5
100
AcDbEntity
  8
1
  6
Continuous
100
AcDbCircle
 10
361.773095
 20
185.340442
 30
0.0
 40
0.345682
100
AcDbArc
 50
270.852372
 51
313.097669
  0
LINE
  5
A4B4
330
A2C5
100
AcDbEntity
  8
1
  6
Continuous
100
AcDbLine
 10
362.00928
 20
185.773028
 30
0.0
 11
362.00928
 21
185.088028
 31
0.0
  0
LINE
  5
A4B5
330
A2C5
100
AcDbEntity
  8
1
  6
Continuous
100
AcDbLine
 10
361.9492799999999
 20
186.688028
 30
0.0
 11
362.00928
 21
185.773028
 31
0.0
  0
LINE
  5
A4B6
330
A2C5
100
AcDbEntity
  8
1
  6
Continuous
100
AcDbLine
 10
352.8312
 20
189.801237
 30
0.0
 11
319.883502
 21
189.801237
 31
0.0
  0
LINE
  5
A4B7
330
A2C5
100
AcDbEntity
  8
1
  6
Continuous
100
AcDbLine
 10
327.7970629999999
 20
191.2422369999999
 30
0.0
 11
330.0329069999999
 21
189.801237
 31
0.0
  0
LINE
  5
A4B8
330
A2C5
100
AcDbEntity
  8
1
  6
Continuous
100
AcDbLine
 10
331.2112729999999
 20
191.2422369999999
 30
0.0
 11
328.975431
 21
189.801237
 31
0.0
  0
LINE
  5
A4B9
330
A2C5
100
AcDbEntity
  8
1
  6
Continuous
100
AcDbLine
 10
329.7970599999998
 20
191.2422369999999
 30
0.0
 11
327.561217
 21
189.801237
 31
0.0
  0
LINE
  5
A4BA
330
A2C5
100
AcDbEntity
  8
1
  6
Continuous
100
AcDbLine
 10
320.31178
 20
191.2421979999998
 30
0.0
 11
352.8117799999998
 21
191.242276
 31
0.0
  0
LINE
  5
A4BB
330
A2C5
100
AcDbEntity
  8
1
  6
Continuous
100
AcDbLine
 10
352.788636
 20
193.1455369999999
 30
0.0
 11
320.334924
 21
193.1455369999999
 31
0.0
  0
LINE
  5
A4BC
330
A2C5
100
AcDbEntity
  8
4
  6
CENTER
100
AcDbLine
 10
360.06178
 20
202.113537
 30
0.0
 11
360.06178
 21
190.1135739999998
 31
0.0
  0
LINE
  5
A4BD
330
A2C5
100
AcDbEntity
  8
1
  6
Continuous
100
AcDbLine
 10
344.7676259999998
 20
191.2422369999999
 30
0.0
 11
347.0034689999998
 21
189.801237
 31
0.0
  0
LINE
  5
A4BE
330
A2C5
100
AcDbEntity
  8
1
  6
Continuous
100
AcDbLine
 10
346.767622
 20
191.2422369999999
 30
0.0
 11
344.5317799999998
 21
189.801237
 31
0.0
  0
LINE
  5
A4BF
330
A2C5
100
AcDbEntity
  8
1
  6
Continuous
100
AcDbLine
 10
345.353409
 20
191.2422369999999
 30
0.0
 11
343.117566
 21
189.801237
 31
0.0
  0
LINE
  5
A4C0
330
A2C5
100
AcDbEntity
  8
1
  6
Continuous
100
AcDbLine
 10
352.8117799999998
 20
190.215327
 30
0.0
 11
351.2743319999998
 21
189.801237
 31
0.0
  0
LINE
  5
A4C1
330
A2C5
100
AcDbEntity
  8
1
  6
Continuous
100
AcDbLine
 10
350.4244799999999
 20
191.2422369999999
 30
0.0
 11
352.660324
 21
189.801237
 31
0.0
  0
LINE
  5
A4C2
330
A2C5
100
AcDbEntity
  8
1
  6
Continuous
100
AcDbLine
 10
352.424477
 20
191.2422369999999
 30
0.0
 11
350.1886339999999
 21
189.801237
 31
0.0
  0
LINE
  5
A4C3
330
A2C5
100
AcDbEntity
  8
1
  6
Continuous
100
AcDbLine
 10
351.010263
 20
191.2422369999999
 30
0.0
 11
348.774421
 21
189.801237
 31
0.0
  0
LINE
  5
A4C4
330
A2C5
100
AcDbEntity
  8
1
  6
Continuous
100
AcDbLine
 10
347.596053
 20
191.2422369999999
 30
0.0
 11
349.8318959999999
 21
189.801237
 31
0.0
  0
LINE
  5
A4C5
330
A2C5
100
AcDbEntity
  8
1
  6
Continuous
100
AcDbLine
 10
349.5960489999998
 20
191.2422369999999
 30
0.0
 11
347.360207
 21
189.801237
 31
0.0
  0
LINE
  5
A4C6
330
A2C5
100
AcDbEntity
  8
1
  6
Continuous
100
AcDbLine
 10
348.1818359999999
 20
191.2422369999999
 30
0.0
 11
345.9459929999999
 21
189.801237
 31
0.0
  0
ARC
  5
A4C7
330
A2C5
100
AcDbEntity
  8
1
  6
Continuous
100
AcDbCircle
 10
351.8469889999999
 20
186.686869
 30
0.0
 40
3.266183999999998
100
AcDbArc
 50
38.25670199999999
 51
72.462293
  0
LINE
  5
A4C8
330
A2C5
100
AcDbEntity
  8
1
  6
Continuous
100
AcDbLine
 10
352.8117799999998
 20
191.2422369999999
 30
0.0
 11
352.8117799999998
 21
189.801237
 31
0.0
  0
LINE
  5
A4C9
330
A2C5
100
AcDbEntity
  8
1
  6
Continuous
100
AcDbLine
 10
356.3272769999999
 20
194.8655369999999
 30
0.0
 11
356.515444
 21
195.1135739999998
 31
0.0
  0
LINE
  5
A4CA
330
A2C5
100
AcDbEntity
  8
1
  6
Continuous
100
AcDbLine
 10
357.2842799999999
 20
186.9180279999999
 30
0.0
 11
357.8492799999998
 21
186.928028
 31
0.0
  0
LINE
  5
A4CB
330
A2C5
100
AcDbEntity
  8
1
  6
Continuous
100
AcDbLine
 10
356.68928
 20
186.938028
 30
0.0
 11
357.2842799999999
 21
186.9180279999999
 31
0.0
  0
LINE
  5
A4CC
330
A2C5
100
AcDbEntity
  8
1
  6
Continuous
100
AcDbLine
 10
357.8492799999998
 20
186.928028
 30
0.0
 11
361.067608
 21
186.992395
 31
0.0
  0
ARC
  5
A4CD
330
A2C5
100
AcDbEntity
  8
1
  6
Continuous
100
AcDbCircle
 10
353.033592
 20
189.0240619999999
 30
0.0
 40
2.042368999999998
100
AcDbArc
 50
199.821809
 51
269.3179399999999
  0
LINE
  5
A4CE
330
A2C5
100
AcDbEntity
  8
1
  6
Continuous
100
AcDbLine
 10
352.1433599999999
 20
192.931534
 30
0.0
 11
351.7902029999998
 21
193.1455369999999
 31
0.0
  0
ARC
  5
A4CF
330
A2C5
100
AcDbEntity
  8
1
  6
Continuous
100
AcDbCircle
 10
351.573912
 20
191.9918049999999
 30
0.0
 40
1.098799999999998
100
AcDbArc
 50
20.306161
 51
58.785345
  0
ARC
  5
A4D0
330
A2C5
100
AcDbEntity
  8
1
  6
Continuous
100
AcDbCircle
 10
350.256048
 20
192.7040159999999
 30
0.0
 40
2.371570999999998
100
AcDbArc
 50
321.9491909999999
 51
351.9797889999999
  0
ARC
  5
A4D1
330
A2C5
100
AcDbEntity
  8
1
  6
Continuous
100
AcDbCircle
 10
352.788636
 20
196.3241099999999
 30
0.0
 40
3.178573
100
AcDbArc
 50
270.0
 51
303.210091
  0
LINE
  5
A4D2
330
A2C5
100
AcDbEntity
  8
1
  6
Continuous
100
AcDbLine
 10
355.6642799999999
 20
186.983028
 30
0.0
 11
355.8492799999998
 21
186.9480279999999
 31
0.0
  0
LINE
  5
A4D3
330
A2C5
100
AcDbEntity
  8
1
  6
Continuous
100
AcDbLine
 10
355.49428
 20
187.068028
 30
0.0
 11
355.6642799999999
 21
186.983028
 31
0.0
  0
LINE
  5
A4D4
330
A2C5
100
AcDbEntity
  8
1
  6
Continuous
100
AcDbLine
 10
355.1542799999999
 20
187.2680279999999
 30
0.0
 11
355.49428
 21
187.068028
 31
0.0
  0
LINE
  5
A4D5
330
A2C5
100
AcDbEntity
  8
1
  6
Continuous
100
AcDbLine
 10
355.0092799999998
 20
187.7030279999999
 30
0.0
 11
355.1542799999999
 21
187.2680279999999
 31
0.0
  0
ARC
  5
A4D6
330
A2C5
100
AcDbEntity
  8
1
  6
Continuous
100
AcDbCircle
 10
350.916095
 20
185.9528349999999
 30
0.0
 40
4.451666999999998
100
AcDbArc
 50
23.150932
 51
38.25670199999999
  0
ARC
  5
A4D7
330
A2C5
100
AcDbEntity
  8
1
  6
Continuous
100
AcDbCircle
 10
290.7908499999999
 20
291.030249
 30
0.0
 40
116.3729999999999
100
AcDbArc
 50
303.210091
 51
304.2745019999999
  0
LINE
  5
A4D8
330
A2C5
100
AcDbEntity
  8
1
  6
Continuous
100
AcDbLine
 10
353.0092799999998
 20
186.9818379999999
 30
0.0
 11
356.68928
 21
186.938028
 31
0.0
  0
LINE
  5
A4D9
330
A2C5
100
AcDbEntity
  8
1
  6
Continuous
100
AcDbLine
 10
332.625487
 20
191.2422369999999
 30
0.0
 11
330.3896439999999
 21
189.801237
 31
0.0
  0
LINE
  5
A4DA
330
A2C5
100
AcDbEntity
  8
1
  6
Continuous
100
AcDbLine
 10
341.9391989999998
 20
191.2422369999999
 30
0.0
 11
344.175042
 21
189.801237
 31
0.0
  0
LINE
  5
A4DB
330
A2C5
100
AcDbEntity
  8
1
  6
Continuous
100
AcDbLine
 10
343.939195
 20
191.2422369999999
 30
0.0
 11
341.7033529999998
 21
189.801237
 31
0.0
  0
LINE
  5
A4DC
330
A2C5
100
AcDbEntity
  8
1
  6
Continuous
100
AcDbLine
 10
342.5249819999999
 20
191.2422369999999
 30
0.0
 11
340.2891389999999
 21
189.801237
 31
0.0
  0
LINE
  5
A4DD
330
A2C5
100
AcDbEntity
  8
1
  6
Continuous
100
AcDbLine
 10
339.1107719999999
 20
191.2422369999999
 30
0.0
 11
341.346615
 21
189.801237
 31
0.0
  0
LINE
  5
A4DE
330
A2C5
100
AcDbEntity
  8
1
  6
Continuous
100
AcDbLine
 10
341.110768
 20
191.2422369999999
 30
0.0
 11
338.8749259999999
 21
189.801237
 31
0.0
  0
LINE
  5
A4DF
330
A2C5
100
AcDbEntity
  8
1
  6
Continuous
100
AcDbLine
 10
336.282345
 20
191.2422369999999
 30
0.0
 11
338.518188
 21
189.801237
 31
0.0
  0
LINE
  5
A4E0
330
A2C5
100
AcDbEntity
  8
1
  6
Continuous
100
AcDbLine
 10
339.696554
 20
191.2422369999999
 30
0.0
 11
337.460712
 21
189.801237
 31
0.0
  0
LINE
  5
A4E1
330
A2C5
100
AcDbEntity
  8
1
  6
Continuous
100
AcDbLine
 10
338.2823409999998
 20
191.2422369999999
 30
0.0
 11
336.046499
 21
189.801237
 31
0.0
  0
LINE
  5
A4E2
330
A2C5
100
AcDbEntity
  8
1
  6
Continuous
100
AcDbLine
 10
333.4539169999998
 20
191.2422369999999
 30
0.0
 11
335.6897609999998
 21
189.801237
 31
0.0
  0
LINE
  5
A4E3
330
A2C5
100
AcDbEntity
  8
1
  6
Continuous
100
AcDbLine
 10
336.868127
 20
191.2422369999999
 30
0.0
 11
334.632285
 21
189.801237
 31
0.0
  0
LINE
  5
A4E4
330
A2C5
100
AcDbEntity
  8
1
  6
Continuous
100
AcDbLine
 10
335.4539139999999
 20
191.2422369999999
 30
0.0
 11
333.218071
 21
189.801237
 31
0.0
  0
LINE
  5
A4E5
330
A2C5
100
AcDbEntity
  8
1
  6
Continuous
100
AcDbLine
 10
330.62549
 20
191.2422369999999
 30
0.0
 11
332.8613339999999
 21
189.801237
 31
0.0
  0
LINE
  5
A4E6
330
A2C5
100
AcDbEntity
  8
1
  6
Continuous
100
AcDbLine
 10
334.0396999999999
 20
191.2422369999999
 30
0.0
 11
331.803858
 21
189.801237
 31
0.0
  0
LINE
  5
A4E7
330
A2C5
100
AcDbEntity
  8
4
  6
CENTER
100
AcDbLine
 10
313.06178
 20
202.113537
 30
0.0
 11
313.06178
 21
190.1135739999998
 31
0.0
  0
LINE
  5
A4E8
330
A2C5
100
AcDbEntity
  8
1
  6
Continuous
100
AcDbLine
 10
324.968636
 20
191.2422369999999
 30
0.0
 11
327.2044789999998
 21
189.801237
 31
0.0
  0
LINE
  5
A4E9
330
A2C5
100
AcDbEntity
  8
1
  6
Continuous
100
AcDbLine
 10
328.3828459999999
 20
191.2422369999999
 30
0.0
 11
326.1470039999999
 21
189.801237
 31
0.0
  0
LINE
  5
A4EA
330
A2C5
100
AcDbEntity
  8
1
  6
Continuous
100
AcDbLine
 10
326.9686319999999
 20
191.2422369999999
 30
0.0
 11
324.7327899999999
 21
189.801237
 31
0.0
  0
LINE
  5
A4EB
330
A2C5
100
AcDbEntity
  8
1
  6
Continuous
100
AcDbLine
 10
322.1402089999999
 20
191.2422369999999
 30
0.0
 11
324.376052
 21
189.801237
 31
0.0
  0
LINE
  5
A4EC
330
A2C5
100
AcDbEntity
  8
1
  6
Continuous
100
AcDbLine
 10
325.554419
 20
191.2422369999999
 30
0.0
 11
323.3185759999999
 21
189.801237
 31
0.0
  0
LINE
  5
A4ED
330
A2C5
100
AcDbEntity
  8
1
  6
Continuous
100
AcDbLine
 10
324.140205
 20
191.2422369999999
 30
0.0
 11
321.9043629999998
 21
189.801237
 31
0.0
  0
LINE
  5
A4EE
330
A2C5
100
AcDbEntity
  8
1
  6
Continuous
100
AcDbLine
 10
322.725992
 20
191.2422369999999
 30
0.0
 11
320.4901489999999
 21
189.801237
 31
0.0
  0
LINE
  5
A4EF
330
A2C5
100
AcDbEntity
  8
1
  6
Continuous
100
AcDbLine
 10
321.8377409999998
 20
189.801237
 30
0.0
 11
320.31178
 21
190.2422389999999
 31
0.0
  0
LINE
  5
A4F0
330
A2C5
100
AcDbEntity
  8
1
  6
Continuous
100
AcDbLine
 10
320.31178
 20
191.2422369999999
 30
0.0
 11
320.31178
 21
189.801237
 31
0.0
  0
ARC
  5
A4F1
330
A2C5
100
AcDbEntity
  8
1
  6
Continuous
100
AcDbCircle
 10
320.781266
 20
187.2199979999998
 30
0.0
 40
2.732905
100
AcDbArc
 50
109.1778389999999
 51
180.0
  0
LINE
  5
A4F2
330
A2C5
100
AcDbEntity
  8
1
  6
Continuous
100
AcDbLine
 10
317.7117799999999
 20
183.105367
 30
0.0
 11
318.04836
 21
187.2199979999998
 31
0.0
  0
LINE
  5
A4F3
330
A2C5
100
AcDbEntity
  8
1
  6
Continuous
100
AcDbLine
 10
317.9622799999999
 20
183.105367
 30
0.0
 11
317.7117799999999
 21
183.105367
 31
0.0
  0
LINE
  5
A4F4
330
A2C5
100
AcDbEntity
  8
1
  6
Continuous
100
AcDbLine
 10
318.7112799999998
 20
183.063028
 30
0.0
 11
319.37628
 21
183.018028
 31
0.0
  0
ARC
  5
A4F5
330
A2C5
100
AcDbEntity
  8
1
  6
Continuous
100
AcDbCircle
 10
320.334924
 20
196.3241099999999
 30
0.0
 40
3.178573
100
AcDbArc
 50
236.7899089999999
 51
270.0
  0
LINE
  5
A4F6
330
A2C5
100
AcDbEntity
  8
1
  6
Continuous
100
AcDbLine
 10
317.9622799999999
 20
183.105367
 30
0.0
 11
318.7112799999998
 21
183.063028
 31
0.0
  0
ARC
  5
A4F7
330
A2C5
100
AcDbEntity
  8
1
  6
Continuous
100
AcDbCircle
 10
382.33271
 20
291.030249
 30
0.0
 40
116.3729999999999
100
AcDbArc
 50
235.7254979999999
 51
236.7899089999999
  0
LINE
  5
A4F8
330
A2C5
100
AcDbEntity
  8
1
  6
Continuous
100
AcDbLine
 10
316.796283
 20
194.8655369999999
 30
0.0
 11
316.608116
 21
195.1135739999998
 31
0.0
  0
LINE
  5
A4F9
330
A2C5
100
AcDbEntity
  8
1
  6
Continuous
100
AcDbLine
 10
321.311778
 20
191.2422369999999
 30
0.0
 11
320.31178
 21
190.2422389999999
 31
0.0
  0
LINE
  5
A4FA
330
A2C5
100
AcDbEntity
  8
1
  6
Continuous
100
AcDbLine
 10
320.9802
 20
192.931534
 30
0.0
 11
321.3333569999999
 21
193.1455369999999
 31
0.0
  0
LINE
  5
A4FB
330
A2C5
100
AcDbEntity
  8
1
  6
Continuous
100
AcDbLine
 10
319.5992799999999
 20
183.0780279999999
 30
0.0
 11
323.182161
 21
183.0780279999999
 31
0.0
  0
LINE
  5
A4FC
330
A2C5
100
AcDbEntity
  8
1
  6
Continuous
100
AcDbLine
 10
319.37628
 20
183.018028
 30
0.0
 11
319.5992799999999
 21
183.0780279999999
 31
0.0
  0
ARC
  5
A4FD
330
A2C5
100
AcDbEntity
  8
1
  6
Continuous
100
AcDbCircle
 10
321.549648
 20
191.9918049999999
 30
0.0
 40
1.098799999999998
100
AcDbArc
 50
121.214655
 51
159.693839
  0
ARC
  5
A4FE
330
A2C5
100
AcDbEntity
  8
1
  6
Continuous
100
AcDbCircle
 10
322.8675119999999
 20
192.7040159999999
 30
0.0
 40
2.371570999999998
100
AcDbArc
 50
188.020211
 51
218.050809
  0
ARC
  5
A4FF
330
A2C5
100
AcDbEntity
  8
1
  6
Continuous
100
AcDbCircle
 10
323.182161
 20
177.575123
 30
0.0
 40
5.502905999999999
100
AcDbArc
 50
45.952998
 51
90.0
  0
LINE
  5
A500
330
A2C5
100
AcDbEntity
  8
1
  6
Continuous
100
AcDbLine
 10
306.56178
 20
197.113537
 30
0.0
 11
306.56178
 21
195.1135739999998
 31
0.0
  0
CIRCLE
  5
A501
330
A2C5
100
AcDbEntity
  8
1
  6
Continuous
100
AcDbCircle
 10
355.56178
 20
157.1132369999999
 30
0.0
 40
4.25
  0
LINE
  5
A502
330
A2C5
100
AcDbEntity
  8
4
  6
CENTER
100
AcDbLine
 10
133.1646189999998
 20
285.2174619999999
 30
0.0
 11
133.1646189999998
 21
233.2174619999999
 31
0.0
  0
ENDSEC
  0
SECTION
  2
OBJECTS
  0
DICTIONARY
  5
A2B3
330
0
100
AcDbDictionary
281
     1
  3
ACAD_CIP_PREVIOUS_PRODUCT_INFO
350
A564
  3
ACAD_COLOR
350
A546
  3
ACAD_DETAILVIEWSTYLE
350
A55F
  3
ACAD_GROUP
350
A2B4
  3
ACAD_LAYOUT
350
A2C0
  3
ACAD_MATERIAL
350
A514
  3
ACAD_MLEADERSTYLE
350
A55B
  3
ACAD_MLINESTYLE
350
A2BD
  3
ACAD_PLOTSETTINGS
350
A2BF
  3
ACAD_PLOTSTYLENAME
350
A512
  3
ACAD_SCALELIST
350
A549
  3
ACAD_SECTIONVIEWSTYLE
350
A55D
  3
ACAD_TABLESTYLE
350
A547
  3
ACAD_VISUALSTYLE
350
A52D
  3
ACDB_RECOMPOSE_DATA
350
A582
  3
AcDbVariableDictionary
350
A575
  3
DWGPROPS
350
A583
  0
DICTIONARY
  5
A565
330
A2B7
100
AcDbDictionary
280
     1
281
     1
  3
ADSK_XREC_LAYER_RECONCILED
360
A566
  0
DICTIONARY
  5
A567
330
A2CD
100
AcDbDictionary
280
     1
281
     1
  3
ADSK_XREC_LAYER_RECONCILED
360
A568
  0
DICTIONARY
  5
A569
330
A2CE
100
AcDbDictionary
280
     1
281
     1
  3
ADSK_XREC_LAYER_RECONCILED
360
A56A
  0
DICTIONARY
  5
A56B
330
A2CF
100
AcDbDictionary
280
     1
281
     1
  3
ADSK_XREC_LAYER_RECONCILED
360
A56C
  0
DICTIONARY
  5
A56D
330
A2D0
100
AcDbDictionary
280
     1
281
     1
  3
ADSK_XREC_LAYER_RECONCILED
360
A56E
  0
DICTIONARY
  5
A56F
330
A2D1
100
AcDbDictionary
280
     1
281
     1
  3
ADSK_XREC_LAYER_RECONCILED
360
A570
  0
DICTIONARY
  5
A571
330
A2D2
100
AcDbDictionary
280
     1
281
     1
  3
ADSK_XREC_LAYER_RECONCILED
360
A572
  0
DICTIONARY
  5
A573
330
A2D3
100
AcDbDictionary
280
     1
281
     1
  3
ADSK_XREC_LAYER_RECONCILED
360
A574
  0
DICTIONARY
  5
A50D
330
A2C5
100
AcDbDictionary
281
     1
  3
ACAD_LAYOUTSELFREF
350
A50E
  0
DICTIONARY
  5
A50B
330
A2C1
100
AcDbDictionary
281
     1
  3
ACAD_LAYOUTSELFREF
350
A50C
  0
XRECORD
  5
A564
102
{ACAD_REACTORS
330
A2B3
102
}
330
A2B3
100
AcDbXrecord
280
     1
300
ACDLT
300
2014
300
ACDLT_F_S
  0
DICTIONARY
  5
A546
102
{ACAD_REACTORS
330
A2B3
102
}
330
A2B3
100
AcDbDictionary
281
     1
  0
DICTIONARY
  5
A55F
102
{ACAD_REACTORS
330
A2B3
102
}
330
A2B3
100
AcDbDictionary
281
     1
  3
Imperial24
350
A560
  0
DICTIONARY
  5
A2B4
102
{ACAD_REACTORS
330
A2B3
102
}
330
A2B3
100
AcDbDictionary
281
     1
  0
DICTIONARY
  5
A2C0
102
{ACAD_REACTORS
330
A2B3
102
}
330
A2B3
100
AcDbDictionary
281
     1
  3
Model
350
A561
  3
レイアウト1
350
A562
  0
DICTIONARY
  5
A514
102
{ACAD_REACTORS
330
A2B3
102
}
330
A2B3
100
AcDbDictionary
281
     1
  3
ByBlock
350
A51D
  3
ByLayer
350
A515
  3
Global
350
A525
  0
DICTIONARY
  5
A55B
102
{ACAD_REACTORS
330
A2B3
102
}
330
A2B3
100
AcDbDictionary
281
     1
  3
Standard
350
A55C
  0
DICTIONARY
  5
A2BD
102
{ACAD_REACTORS
330
A2B3
102
}
330
A2B3
100
AcDbDictionary
281
     1
  3
STANDARD
350
A2BE
  0
DICTIONARY
  5
A2BF
102
{ACAD_REACTORS
330
A2B3
102
}
330
A2B3
100
AcDbDictionary
281
     1
  0
ACDBDICTIONARYWDFLT
  5
A512
102
{ACAD_REACTORS
330
A2B3
102
}
330
A2B3
100
AcDbDictionary
281
     1
  3
Normal
350
A513
100
AcDbDictionaryWithDefault
340
A513
  0
DICTIONARY
  5
A549
102
{ACAD_REACTORS
330
A2B3
102
}
330
A2B3
100
AcDbDictionary
281
     1
  3
A0
350
A54A
  3
A1
350
A54B
  3
A2
350
A54C
  3
A3
350
A54D
  3
A4
350
A54E
  3
A5
350
A54F
  3
A6
350
A550
  3
A7
350
A551
  3
A8
350
A552
  3
A9
350
A553
  3
B0
350
A554
  3
B1
350
A555
  3
B2
350
A556
  3
B3
350
A557
  3
B4
350
A558
  3
B5
350
A559
  3
B6
350
A55A
  0
DICTIONARY
  5
A55D
102
{ACAD_REACTORS
330
A2B3
102
}
330
A2B3
100
AcDbDictionary
281
     1
  3
Imperial24
350
A55E
  0
DICTIONARY
  5
A547
102
{ACAD_REACTORS
330
A2B3
102
}
330
A2B3
100
AcDbDictionary
281
     1
  3
Standard
350
A548
  0
DICTIONARY
  5
A52D
102
{ACAD_REACTORS
330
A2B3
102
}
330
A2B3
100
AcDbDictionary
281
     1
  3
2dWireframe
350
A533
  3
Basic
350
A532
  3
Brighten
350
A539
  3
ColorChange
350
A53D
  3
Conceptual
350
A536
  3
Dim
350
A538
  3
EdgeColorOff
350
A545
  3
Facepattern
350
A53C
  3
Flat
350
A52E
  3
FlatWithEdges
350
A52F
  3
Gouraud
350
A530
  3
GouraudWithEdges
350
A531
  3
Hidden
350
A535
  3
JitterOff
350
A543
  3
Linepattern
350
A53B
  3
OverhangOff
350
A544
  3
Realistic
350
A537
  3
Shaded
350
A542
  3
Shaded with edges
350
A541
  3
Shades of Gray
350
A53E
  3
Sketchy
350
A53F
  3
Thicken
350
A53A
  3
Wireframe
350
A534
  3
X-Ray
350
A540
  0
XRECORD
  5
A582
102
{ACAD_REACTORS
330
A2B3
102
}
330
A2B3
100
AcDbXrecord
280
     1
 90
        1
330
A548
  0
DICTIONARY
  5
A575
102
{ACAD_REACTORS
330
A2B3
102
}
330
A2B3
100
AcDbDictionary
281
     1
  3
CANNOSCALE
350
A57A
  3
CMLEADERSTYLE
350
A577
  3
CTABLESTYLE
350
A576
  3
CVIEWDETAILSTYLE
350
A578
  3
CVIEWSECTIONSTYLE
350
A579
  3
DIMASSOC
350
A57D
  3
INDEXCTL
350
A57C
  3
SORTENTS
350
A57B
  3
XCLIPFRAME
350
A57E
  0
XRECORD
  5
A583
102
{ACAD_REACTORS
330
A2B3
102
}
330
A2B3
100
AcDbXrecord
280
     1
  1
DWGPROPS COOKIE
  2

  3

  4

  6

  7

  8
Yoshitsune
  9

300
=
301
=
302
=
303
=
304
=
305
=
306
=
307
=
308
=
309
=
 40
0.0008275115740741
 41
2451301.408143403
 42
2457192.686499988
  1

 90
        0
  0
XRECORD
  5
A566
102
{ACAD_REACTORS
330
A565
102
}
330
A565
100
AcDbXrecord
280
     1
290
     1
  0
XRECORD
  5
A568
102
{ACAD_REACTORS
330
A567
102
}
330
A567
100
AcDbXrecord
280
     1
290
     1
  0
XRECORD
  5
A56A
102
{ACAD_REACTORS
330
A569
102
}
330
A569
100
AcDbXrecord
280
     1
290
     1
  0
XRECORD
  5
A56C
102
{ACAD_REACTORS
330
A56B
102
}
330
A56B
100
AcDbXrecord
280
     1
290
     1
  0
XRECORD
  5
A56E
102
{ACAD_REACTORS
330
A56D
102
}
330
A56D
100
AcDbXrecord
280
     1
290
     1
  0
XRECORD
  5
A570
102
{ACAD_REACTORS
330
A56F
102
}
330
A56F
100
AcDbXrecord
280
     1
290
     1
  0
XRECORD
  5
A572
102
{ACAD_REACTORS
330
A571
102
}
330
A571
100
AcDbXrecord
280
     1
290
     1
  0
XRECORD
  5
A574
102
{ACAD_REACTORS
330
A573
102
}
330
A573
100
AcDbXrecord
280
     1
290
     1
  0
XRECORD
  5
A50E
102
{ACAD_REACTORS
330
A50D
102
}
330
A50D
100
AcDbXrecord
280
     1
340
A2C5
  0
XRECORD
  5
A50C
102
{ACAD_REACTORS
330
A50B
102
}
330
A50B
100
AcDbXrecord
280
     1
340
A2C1
  0
ACDBDETAILVIEWSTYLE
  5
A560
102
{ACAD_XDICTIONARY
360
A5BB
102
}
102
{ACAD_REACTORS
330
A55F
102
}
330
A55F
100
AcDbModelDocViewStyle
 70
     0
  3
Imperial24
290
     0
100
AcDbDetailViewStyle
 70
     0
 71
     0
 90
        3
 71
     1
340
A2B8
 40
0.24
340
0
 40
0.24
300

 40
0.36
280
     3
 71
     2
340
A2BC
 90
       25
 71
     3
340
A2B8
 40
0.24
 90
        1
 40
0.75
 90
        1
300
%<\AcVar ViewType \f "%tc1">% %<\AcVar ViewDetailId>%\PSCALE %<\AcVar ViewScale \f "%sn">%
 71
     4
340
A2BC
 90
       25
340
A2BC
 90
       25
280
     0
  0
LAYOUT
  5
A561
102
{ACAD_XDICTIONARY
360
A5BD
102
}
102
{ACAD_REACTORS
330
A2C0
102
}
330
A2C0
100
AcDbPlotSettings
  1

  2
Canon LBP9100C
  4

  6

 40
0.0
 41
0.0
 42
0.0
 43
0.0
 44
0.0
 45
0.0
 46
0.0
 47
0.0
 48
0.0
 49
0.0
140
0.0
141
0.0
142
1.0
143
1.0
 70
  1712
 72
     0
 73
     0
 74
     0
  7

 75
     0
147
1.0
148
0.0
149
0.0
100
AcDbLayout
  1
Model
 70
     1
 71
     0
 10
0.0
 20
0.0
 11
12.0
 21
9.0
 12
0.0
 22
0.0
 32
0.0
 14
0.0
 24
0.0
 34
0.0
 15
0.0
 25
0.0
 35
0.0
146
0.0
 13
0.0
 23
0.0
 33
0.0
 16
1.0
 26
0.0
 36
0.0
 17
0.0
 27
1.0
 37
0.0
 76
     0
330
A2C5
331
A50A
  0
LAYOUT
  5
A562
102
{ACAD_XDICTIONARY
360
A5BF
102
}
102
{ACAD_REACTORS
330
A2C0
102
}
330
A2C0
100
AcDbPlotSettings
  1

  2
Canon LBP9100C
  4

  6

 40
0.0
 41
0.0
 42
0.0
 43
0.0
 44
0.0
 45
0.0
 46
0.0
 47
0.0
 48
0.0
 49
0.0
140
0.0
141
0.0
142
1.0
143
1.0
 70
   688
 72
     0
 73
     0
 74
     5
  7

 75
    16
147
1.0
148
0.0
149
0.0
100
AcDbLayout
  1
レイアウト1
 70
     0
 71
     1
 10
0.0
 20
0.0
 11
420.0
 21
297.0
 12
0.0
 22
0.0
 32
0.0
 14
1.000000000000000E+20
 24
1.000000000000000E+20
 34
1.000000000000000E+20
 15
-1.000000000000000E+20
 25
-1.000000000000000E+20
 35
-1.000000000000000E+20
146
0.0
 13
0.0
 23
0.0
 33
0.0
 16
1.0
 26
0.0
 36
0.0
 17
0.0
 27
1.0
 37
0.0
 76
     0
330
A2C1
  0
MATERIAL
  5
A51D
102
{ACAD_XDICTIONARY
360
A51E
102
}
102
{ACAD_REACTORS
330
A514
102
}
330
A514
100
AcDbMaterial
  1
ByBlock
 72
     0
 43
0.0208333333333333
 43
0.0
 43
0.0
 43
0.0
 43
0.0
 43
0.0208333333333333
 43
0.0
 43
0.0
 43
0.0
 43
0.0
 43
1.0
 43
0.0
 43
0.0
 43
0.0
 43
0.0
 43
1.0
 77
     0
 47
0.0208333333333333
 47
0.0
 47
0.0
 47
0.0
 47
0.0
 47
0.0208333333333333
 47
0.0
 47
0.0
 47
0.0
 47
0.0
 47
1.0
 47
0.0
 47
0.0
 47
0.0
 47
0.0
 47
1.0
171
     0
 49
0.0208333333333333
 49
0.0
 49
0.0
 49
0.0
 49
0.0
 49
0.0208333333333333
 49
0.0
 49
0.0
 49
0.0
 49
0.0
 49
1.0
 49
0.0
 49
0.0
 49
0.0
 49
0.0
 49
1.0
175
     0
142
0.0208333333333333
142
0.0
142
0.0
142
0.0
142
0.0
142
0.0208333333333333
142
0.0
142
0.0
142
0.0
142
0.0
142
1.0
142
0.0
142
0.0
142
0.0
142
0.0
142
1.0
179
     0
144
0.0208333333333333
144
0.0
144
0.0
144
0.0
144
0.0
144
0.0208333333333333
144
0.0
144
0.0
144
0.0
144
0.0
144
1.0
144
0.0
144
0.0
144
0.0
144
0.0
144
1.0
147
0.0208333333333333
147
0.0
147
0.0
147
0.0
147
0.0
147
0.0208333333333333
147
0.0
147
0.0
147
0.0
147
0.0
147
1.0
147
0.0
147
0.0
147
0.0
147
0.0
147
1.0
  0
MATERIAL
  5
A515
102
{ACAD_XDICTIONARY
360
A516
102
}
102
{ACAD_REACTORS
330
A514
102
}
330
A514
100
AcDbMaterial
  1
ByLayer
 72
     0
 43
0.0208333333333333
 43
0.0
 43
0.0
 43
0.0
 43
0.0
 43
0.0208333333333333
 43
0.0
 43
0.0
 43
0.0
 43
0.0
 43
1.0
 43
0.0
 43
0.0
 43
0.0
 43
0.0
 43
1.0
 77
     0
 47
0.0208333333333333
 47
0.0
 47
0.0
 47
0.0
 47
0.0
 47
0.0208333333333333
 47
0.0
 47
0.0
 47
0.0
 47
0.0
 47
1.0
 47
0.0
 47
0.0
 47
0.0
 47
0.0
 47
1.0
171
     0
 49
0.0208333333333333
 49
0.0
 49
0.0
 49
0.0
 49
0.0
 49
0.0208333333333333
 49
0.0
 49
0.0
 49
0.0
 49
0.0
 49
1.0
 49
0.0
 49
0.0
 49
0.0
 49
0.0
 49
1.0
175
     0
142
0.0208333333333333
142
0.0
142
0.0
142
0.0
142
0.0
142
0.0208333333333333
142
0.0
142
0.0
142
0.0
142
0.0
142
1.0
142
0.0
142
0.0
142
0.0
142
0.0
142
1.0
179
     0
144
0.0208333333333333
144
0.0
144
0.0
144
0.0
144
0.0
144
0.0208333333333333
144
0.0
144
0.0
144
0.0
144
0.0
144
1.0
144
0.0
144
0.0
144
0.0
144
0.0
144
1.0
147
0.0208333333333333
147
0.0
147
0.0
147
0.0
147
0.0
147
0.0208333333333333
147
0.0
147
0.0
147
0.0
147
0.0
147
1.0
147
0.0
147
0.0
147
0.0
147
0.0
147
1.0
  0
MATERIAL
  5
A525
102
{ACAD_XDICTIONARY
360
A526
102
}
102
{ACAD_REACTORS
330
A514
102
}
330
A514
100
AcDbMaterial
  1
Global
 72
     0
 43
0.0208333333333333
 43
0.0
 43
0.0
 43
0.0
 43
0.0
 43
0.0208333333333333
 43
0.0
 43
0.0
 43
0.0
 43
0.0
 43
1.0
 43
0.0
 43
0.0
 43
0.0
 43
0.0
 43
1.0
 77
     0
 47
0.0208333333333333
 47
0.0
 47
0.0
 47
0.0
 47
0.0
 47
0.0208333333333333
 47
0.0
 47
0.0
 47
0.0
 47
0.0
 47
1.0
 47
0.0
 47
0.0
 47
0.0
 47
0.0
 47
1.0
171
     0
 49
0.0208333333333333
 49
0.0
 49
0.0
 49
0.0
 49
0.0
 49
0.0208333333333333
 49
0.0
 49
0.0
 49
0.0
 49
0.0
 49
1.0
 49
0.0
 49
0.0
 49
0.0
 49
0.0
 49
1.0
175
     0
142
0.0208333333333333
142
0.0
142
0.0
142
0.0
142
0.0
142
0.0208333333333333
142
0.0
142
0.0
142
0.0
142
0.0
142
1.0
142
0.0
142
0.0
142
0.0
142
0.0
142
1.0
179
     0
144
0.0208333333333333
144
0.0
144
0.0
144
0.0
144
0.0
144
0.0208333333333333
144
0.0
144
0.0
144
0.0
144
0.0
144
1.0
144
0.0
144
0.0
144
0.0
144
0.0
144
1.0
147
0.0208333333333333
147
0.0
147
0.0
147
0.0
147
0.0
147
0.0208333333333333
147
0.0
147
0.0
147
0.0
147
0.0
147
1.0
147
0.0
147
0.0
147
0.0
147
0.0
147
1.0
  0
MLEADERSTYLE
  5
A55C
102
{ACAD_REACTORS
330
A55B
102
}
330
A55B
100
AcDbMLeaderStyle
170
     2
171
     1
172
     0
 90
        2
 40
0.0
 41
0.0
173
     1
 91
-1056964608
340
A2BA
 92
       -2
290
     1
 42
0.09
291
     1
 43
0.36
  3
Standard
 44
0.18
300

342
A2B8
174
     1
178
     6
175
     1
176
     0
 93
-1056964608
 45
0.18
292
     0
297
     0
 46
0.18
 94
-1056964608
 47
1.0
 49
1.0
140
1.0
293
     1
141
0.0
294
     1
177
     0
142
1.0
295
     0
296
     0
143
0.125
1001
ACAD_MLEADERVER
1070
     2
  0
MLINESTYLE
  5
A2BE
102
{ACAD_REACTORS
330
A2BD
102
}
330
A2BD
100
AcDbMlineStyle
  2
STANDARD
 70
     0
  3

 62
   256
 51
90.0
 52
90.0
 71
     2
 49
0.5
 62
   256
  6
BYLAYER
 49
-0.5
 62
   256
  6
BYLAYER
  0
ACDBPLACEHOLDER
  5
A513
102
{ACAD_REACTORS
330
A512
102
}
330
A512
  0
SCALE
  5
A54A
102
{ACAD_REACTORS
330
A549
102
}
330
A549
100
AcDbScale
 70
     0
300
1:1
140
1.0
141
1.0
290
     1
  0
SCALE
  5
A54B
102
{ACAD_REACTORS
330
A549
102
}
330
A549
100
AcDbScale
 70
     0
300
1/128" = 1'-0"
140
0.0078125
141
12.0
290
     0
  0
SCALE
  5
A54C
102
{ACAD_REACTORS
330
A549
102
}
330
A549
100
AcDbScale
 70
     0
300
1/64" = 1'-0"
140
0.015625
141
12.0
290
     0
  0
SCALE
  5
A54D
102
{ACAD_REACTORS
330
A549
102
}
330
A549
100
AcDbScale
 70
     0
300
1/32" = 1'-0"
140
0.03125
141
12.0
290
     0
  0
SCALE
  5
A54E
102
{ACAD_REACTORS
330
A549
102
}
330
A549
100
AcDbScale
 70
     0
300
1/16" = 1'-0"
140
0.0625
141
12.0
290
     0
  0
SCALE
  5
A54F
102
{ACAD_REACTORS
330
A549
102
}
330
A549
100
AcDbScale
 70
     0
300
3/32" = 1'-0"
140
0.09375
141
12.0
290
     0
  0
SCALE
  5
A550
102
{ACAD_REACTORS
330
A549
102
}
330
A549
100
AcDbScale
 70
     0
300
1/8" = 1'-0"
140
0.125
141
12.0
290
     0
  0
SCALE
  5
A551
102
{ACAD_REACTORS
330
A549
102
}
330
A549
100
AcDbScale
 70
     0
300
3/16" = 1'-0"
140
0.1875
141
12.0
290
     0
  0
SCALE
  5
A552
102
{ACAD_REACTORS
330
A549
102
}
330
A549
100
AcDbScale
 70
     0
300
1/4" = 1'-0"
140
0.25
141
12.0
290
     0
  0
SCALE
  5
A553
102
{ACAD_REACTORS
330
A549
102
}
330
A549
100
AcDbScale
 70
     0
300
3/8" = 1'-0"
140
0.375
141
12.0
290
     0
  0
SCALE
  5
A554
102
{ACAD_REACTORS
330
A549
102
}
330
A549
100
AcDbScale
 70
     0
300
1/2" = 1'-0"
140
0.5
141
12.0
290
     0
  0
SCALE
  5
A555
102
{ACAD_REACTORS
330
A549
102
}
330
A549
100
AcDbScale
 70
     0
300
3/4" = 1'-0"
140
0.75
141
12.0
290
     0
  0
SCALE
  5
A556
102
{ACAD_REACTORS
330
A549
102
}
330
A549
100
AcDbScale
 70
     0
300
1" = 1'-0"
140
1.0
141
12.0
290
     0
  0
SCALE
  5
A557
102
{ACAD_REACTORS
330
A549
102
}
330
A549
100
AcDbScale
 70
     0
300
1-1/2" = 1'-0"
140
1.5
141
12.0
290
     0
  0
SCALE
  5
A558
102
{ACAD_REACTORS
330
A549
102
}
330
A549
100
AcDbScale
 70
     0
300
3" = 1'-0"
140
3.0
141
12.0
290
     0
  0
SCALE
  5
A559
102
{ACAD_REACTORS
330
A549
102
}
330
A549
100
AcDbScale
 70
     0
300
6" = 1'-0"
140
6.0
141
12.0
290
     0
  0
SCALE
  5
A55A
102
{ACAD_REACTORS
330
A549
102
}
330
A549
100
AcDbScale
 70
     0
300
1'-0" = 1'-0"
140
12.0
141
12.0
290
     0
  0
ACDBSECTIONVIEWSTYLE
  5
A55E
102
{ACAD_XDICTIONARY
360
A5B9
102
}
102
{ACAD_REACTORS
330
A55D
102
}
330
A55D
100
AcDbModelDocViewStyle
 70
     0
  3
Imperial24
290
     0
100
AcDbSectionViewStyle
 70
     0
 71
     0
 90
       78
 71
     1
340
A2B8
 40
0.24
340
0
340
0
 40
0.24
300
I, O, Q, S, X, Z
 40
0.48
 90
        3
 40
0.18
 90
        1
 71
     2
340
A2BC
 90
       25
340
A2BC
 90
       50
 40
0.24
 40
0.0
 40
0.24
 71
     3
340
A2B8
 40
0.24
 90
        1
 40
0.75
 90
        1
300
%<\AcVar ViewType \f "%tc1">% %<\AcVar ViewSectionStartId>%-%<\AcVar ViewSectionEndId>%\PSCALE %<\AcVar ViewScale \f "%sn">%
 71
     4
300
ANSI31
 40
1.0
 90
        0
290
     0
290
     0
 90
        6
 40
0.0
 40
1.570796326794896
 40
0.2617993877991494
 40
1.308996938995747
 40
-0.2617993877991494
 40
1.832595714594046
  0
TABLESTYLE
  5
A548
102
{ACAD_XDICTIONARY
360
A580
102
}
102
{ACAD_REACTORS
330
A547
102
}
330
A547
100
AcDbTableStyle
  3
Standard
 70
     0
 71
     0
 40
0.06
 41
0.06
280
     0
281
     0
  7
STANDARD
140
0.18
170
     2
 62
     0
 63
     7
283
     0
274
    -2
284
     1
 64
     0
275
    -2
285
     1
 65
     0
276
    -2
286
     1
 66
     0
277
    -2
287
     1
 67
     0
278
    -2
288
     1
 68
     0
279
    -2
289
     1
 69
     0
  7
STANDARD
140
0.25
170
     5
 62
     0
 63
     7
283
     0
274
    -2
284
     1
 64
     0
275
    -2
285
     1
 65
     0
276
    -2
286
     1
 66
     0
277
    -2
287
     1
 67
     0
278
    -2
288
     1
 68
     0
279
    -2
289
     1
 69
     0
  7
STANDARD
140
0.18
170
     5
 62
     0
 63
     7
283
     0
274
    -2
284
     1
 64
     0
275
    -2
285
     1
 65
     0
276
    -2
286
     1
 66
     0
277
    -2
287
     1
 67
     0
278
    -2
288
     1
 68
     0
279
    -2
289
     1
 69
     0
  0
VISUALSTYLE
  5
A533
102
{ACAD_XDICTIONARY
360
A591
102
}
102
{ACAD_REACTORS
330
A52D
102
}
330
A52D
100
AcDbVisualStyle
  2
2dWireframe
 70
     4
 71
     0
 72
     2
 73
     0
 90
        0
 40
-0.6
 41
-30.0
 62
     5
 63
     7
 74
     1
 91
        4
 64
     7
 65
   257
 75
     1
175
     1
 42
1.0
 92
        0
 66
   257
 43
1.0
 76
     1
 77
     6
 78
     2
 67
     7
 79
     5
170
     0
171
     0
290
     0
174
     0
 93
        1
 44
0.0
173
     0
291
     0
 45
0.0
1001
ACAD
1000
AcDbSavedByObjectVersion
1070
     0
  0
VISUALSTYLE
  5
A532
102
{ACAD_XDICTIONARY
360
A58F
102
}
102
{ACAD_REACTORS
330
A52D
102
}
330
A52D
100
AcDbVisualStyle
  2
Basic
 70
     7
 71
     1
 72
     0
 73
     1
 90
        0
 40
-0.6
 41
-30.0
 62
     5
 63
     7
 74
     0
 91
        4
 64
     7
 65
   257
 75
     1
175
     1
 42
1.0
 92
        8
 66
     7
 43
1.0
 76
     1
 77
     6
 78
     2
 67
     7
 79
     5
170
     0
171
     0
290
     0
174
     0
 93
        1
 44
0.0
173
     0
291
     1
 45
0.0
1001
ACAD
1000
AcDbSavedByObjectVersion
1070
     0
  0
VISUALSTYLE
  5
A539
102
{ACAD_XDICTIONARY
360
A59D
102
}
102
{ACAD_REACTORS
330
A52D
102
}
330
A52D
100
AcDbVisualStyle
  2
Brighten
 70
    12
 71
     2
 72
     2
 73
     0
 90
        0
 40
-0.6
 41
-30.0
 62
     5
 63
     7
 74
     1
 91
        4
 64
     7
 65
   257
 75
     1
175
     1
 42
1.0
 92
        8
 66
     7
 43
1.0
 76
     1
 77
     6
 78
     2
 67
     7
 79
     5
170
     0
171
     0
290
     0
174
     0
 93
        1
 44
50.0
173
     0
291
     1
 45
0.0
1001
ACAD
1000
AcDbSavedByObjectVersion
1070
     0
  0
VISUALSTYLE
  5
A53D
102
{ACAD_XDICTIONARY
360
A5A5
102
}
102
{ACAD_REACTORS
330
A52D
102
}
330
A52D
100
AcDbVisualStyle
  2
ColorChange
 70
    16
 71
     2
 72
     2
 73
     3
 90
        0
 40
-0.6
 41
-30.0
 62
     5
 63
     8
 74
     1
 91
        4
 64
     7
 65
   257
 75
     1
175
     1
 42
1.0
 92
        8
 66
     8
 43
1.0
 76
     1
 77
     6
 78
     2
 67
     7
 79
     5
170
     0
171
     0
290
     0
174
     0
 93
        1
 44
0.0
173
     0
291
     1
 45
0.0
1001
ACAD
1000
AcDbSavedByObjectVersion
1070
     0
  0
VISUALSTYLE
  5
A536
102
{ACAD_XDICTIONARY
360
A597
102
}
102
{ACAD_REACTORS
330
A52D
102
}
330
A52D
100
AcDbVisualStyle
  2
Conceptual
 70
     9
 71
     3
 72
     2
 73
     0
 90
        0
 40
-0.6
 41
-30.0
 62
     5
 63
     7
 74
     2
 91
        2
 64
     7
 65
   257
 75
     1
175
     1
 42
179.0
 92
        8
 66
     7
 43
1.0
 76
     1
 77
     6
 78
     2
 67
     7
 79
     3
170
     0
171
     0
290
     0
174
     0
 93
        1
 44
0.0
173
     0
291
     0
 45
0.0
1001
ACAD
1000
AcDbSavedByObjectVersion
1070
     0
  0
VISUALSTYLE
  5
A538
102
{ACAD_XDICTIONARY
360
A59B
102
}
102
{ACAD_REACTORS
330
A52D
102
}
330
A52D
100
AcDbVisualStyle
  2
Dim
 70
    11
 71
     2
 72
     2
 73
     0
 90
        0
 40
-0.6
 41
-30.0
 62
     5
 63
     7
 74
     1
 91
        4
 64
     7
 65
   257
 75
     1
175
     1
 42
1.0
 92
        8
 66
     7
 43
1.0
 76
     1
 77
     6
 78
     2
 67
     7
 79
     5
170
     0
171
     0
290
     0
174
     0
 93
        1
 44
-50.0
173
     0
291
     1
 45
0.0
1001
ACAD
1000
AcDbSavedByObjectVersion
1070
     0
  0
VISUALSTYLE
  5
A545
102
{ACAD_XDICTIONARY
360
A5B5
102
}
102
{ACAD_REACTORS
330
A52D
102
}
330
A52D
100
AcDbVisualStyle
  2
EdgeColorOff
 70
    22
 71
     2
 72
     2
 73
     0
 90
        0
 40
-0.6
 41
-30.0
 62
     5
 63
     7
 74
     1
 91
        4
 64
     7
 65
   257
 75
     1
175
     1
 42
1.0
 92
        8
 66
     7
 43
1.0
 76
     1
 77
     6
 78
     2
 67
     7
 79
     5
170
     0
171
     0
290
     0
174
     0
 93
        1
 44
0.0
173
     0
291
     1
 45
0.0
1001
ACAD
1000
AcDbSavedByObjectVersion
1070
     0
  0
VISUALSTYLE
  5
A53C
102
{ACAD_XDICTIONARY
360
A5A3
102
}
102
{ACAD_REACTORS
330
A52D
102
}
330
A52D
100
AcDbVisualStyle
  2
Facepattern
 70
    15
 71
     2
 72
     2
 73
     0
 90
        0
 40
-0.6
 41
-30.0
 62
     5
 63
     7
 74
     1
 91
        4
 64
     7
 65
   257
 75
     1
175
     1
 42
1.0
 92
        8
 66
     7
 43
1.0
 76
     1
 77
     6
 78
     2
 67
     7
 79
     5
170
     0
171
     0
290
     0
174
     0
 93
        1
 44
0.0
173
     0
291
     1
 45
0.0
1001
ACAD
1000
AcDbSavedByObjectVersion
1070
     0
  0
VISUALSTYLE
  5
A52E
102
{ACAD_XDICTIONARY
360
A587
102
}
102
{ACAD_REACTORS
330
A52D
102
}
330
A52D
100
AcDbVisualStyle
  2
Flat
 70
     0
 71
     2
 72
     1
 73
     1
 90
        2
 40
-0.6
 41
30.0
 62
     5
 63
     7
 74
     0
 91
        0
 64
     7
 65
   257
 75
     1
175
     1
 42
1.0
 92
        8
 66
     7
 43
1.0
 76
     1
 77
     6
 78
     2
 67
     7
 79
     5
170
     0
171
     0
290
     0
174
     0
 93
       13
 44
0.0
173
     0
291
     1
 45
0.0
1001
ACAD
1000
AcDbSavedByObjectVersion
1070
     0
  0
VISUALSTYLE
  5
A52F
102
{ACAD_XDICTIONARY
360
A589
102
}
102
{ACAD_REACTORS
330
A52D
102
}
330
A52D
100
AcDbVisualStyle
  2
FlatWithEdges
 70
     1
 71
     2
 72
     1
 73
     1
 90
        2
 40
-0.6
 41
30.0
 62
     5
 63
     7
 74
     1
 91
        0
 64
     7
 65
   257
 75
     1
175
     1
 42
1.0
 92
        0
 66
   257
 43
1.0
 76
     1
 77
     6
 78
     2
 67
     7
 79
     5
170
     0
171
     0
290
     0
174
     0
 93
       13
 44
0.0
173
     0
291
     1
 45
0.0
1001
ACAD
1000
AcDbSavedByObjectVersion
1070
     0
  0
VISUALSTYLE
  5
A530
102
{ACAD_XDICTIONARY
360
A58B
102
}
102
{ACAD_REACTORS
330
A52D
102
}
330
A52D
100
AcDbVisualStyle
  2
Gouraud
 70
     2
 71
     2
 72
     2
 73
     1
 90
        2
 40
-0.6
 41
30.0
 62
     5
 63
     7
 74
     0
 91
        0
 64
     7
 65
   257
 75
     1
175
     1
 42
1.0
 92
        0
 66
     7
 43
1.0
 76
     1
 77
     6
 78
     2
 67
     7
 79
     5
170
     0
171
     0
290
     0
174
     0
 93
       13
 44
0.0
173
     0
291
     1
 45
0.0
1001
ACAD
1000
AcDbSavedByObjectVersion
1070
     0
  0
VISUALSTYLE
  5
A531
102
{ACAD_XDICTIONARY
360
A58D
102
}
102
{ACAD_REACTORS
330
A52D
102
}
330
A52D
100
AcDbVisualStyle
  2
GouraudWithEdges
 70
     3
 71
     2
 72
     2
 73
     1
 90
        2
 40
-0.6
 41
30.0
 62
     5
 63
     7
 74
     1
 91
        0
 64
     7
 65
   257
 75
     1
175
     1
 42
1.0
 92
        0
 66
   257
 43
1.0
 76
     1
 77
     6
 78
     2
 67
     7
 79
     5
170
     0
171
     0
290
     0
174
     0
 93
       13
 44
0.0
173
     0
291
     1
 45
0.0
1001
ACAD
1000
AcDbSavedByObjectVersion
1070
     0
  0
VISUALSTYLE
  5
A535
102
{ACAD_XDICTIONARY
360
A595
102
}
102
{ACAD_REACTORS
330
A52D
102
}
330
A52D
100
AcDbVisualStyle
  2
Hidden
 70
     6
 71
     1
 72
     2
 73
     2
 90
        0
 40
-0.6
 41
-30.0
 62
     5
 63
     7
 74
     2
 91
        2
 64
     7
 65
   257
 75
     2
175
     1
 42
40.0
 92
        0
 66
   257
 43
1.0
 76
     1
 77
     6
 78
     2
 67
     7
 79
     3
170
     0
171
     0
290
     0
174
     0
 93
        1
 44
0.0
173
     0
291
     0
 45
0.0
1001
ACAD
1000
AcDbSavedByObjectVersion
1070
     0
  0
VISUALSTYLE
  5
A543
102
{ACAD_XDICTIONARY
360
A5B1
102
}
102
{ACAD_REACTORS
330
A52D
102
}
330
A52D
100
AcDbVisualStyle
  2
JitterOff
 70
    20
 71
     2
 72
     2
 73
     0
 90
        0
 40
-0.6
 41
-30.0
 62
     5
 63
     7
 74
     1
 91
        4
 64
     7
 65
   257
 75
     1
175
     1
 42
1.0
 92
       10
 66
     7
 43
1.0
 76
     1
 77
     6
 78
     2
 67
     7
 79
     5
170
     0
171
     0
290
     0
174
     0
 93
        1
 44
0.0
173
     0
291
     1
 45
0.0
1001
ACAD
1000
AcDbSavedByObjectVersion
1070
     0
  0
VISUALSTYLE
  5
A53B
102
{ACAD_XDICTIONARY
360
A5A1
102
}
102
{ACAD_REACTORS
330
A52D
102
}
330
A52D
100
AcDbVisualStyle
  2
Linepattern
 70
    14
 71
     2
 72
     2
 73
     0
 90
        0
 40
-0.6
 41
-30.0
 62
     5
 63
     7
 74
     1
 91
        4
 64
     7
 65
   257
 75
     7
175
     7
 42
1.0
 92
        8
 66
     7
 43
1.0
 76
     1
 77
     6
 78
     2
 67
     7
 79
     5
170
     0
171
     0
290
     0
174
     0
 93
        1
 44
0.0
173
     0
291
     1
 45
0.0
1001
ACAD
1000
AcDbSavedByObjectVersion
1070
     0
  0
VISUALSTYLE
  5
A544
102
{ACAD_XDICTIONARY
360
A5B3
102
}
102
{ACAD_REACTORS
330
A52D
102
}
330
A52D
100
AcDbVisualStyle
  2
OverhangOff
 70
    21
 71
     2
 72
     2
 73
     0
 90
        0
 40
-0.6
 41
-30.0
 62
     5
 63
     7
 74
     1
 91
        4
 64
     7
 65
   257
 75
     1
175
     1
 42
1.0
 92
        9
 66
     7
 43
1.0
 76
     1
 77
     6
 78
     2
 67
     7
 79
     5
170
     0
171
     0
290
     0
174
     0
 93
        1
 44
0.0
173
     0
291
     1
 45
0.0
1001
ACAD
1000
AcDbSavedByObjectVersion
1070
     0
  0
VISUALSTYLE
  5
A537
102
{ACAD_XDICTIONARY
360
A599
102
}
102
{ACAD_REACTORS
330
A52D
102
}
330
A52D
100
AcDbVisualStyle
  2
Realistic
 70
     8
 71
     2
 72
     3
 73
     0
 90
        2
 40
-0.6
 41
30.0
 62
     5
 63
     7
 74
     0
 91
        0
 64
     7
 65
   257
 75
     1
175
     1
 42
1.0
 92
        8
 66
   257
 43
1.0
 76
     1
 77
     6
 78
     2
 67
     7
 79
     3
170
     0
171
     0
290
     0
174
     0
 93
       13
 44
0.0
173
     0
291
     0
 45
0.0
1001
ACAD
1000
AcDbSavedByObjectVersion
1070
     0
  0
VISUALSTYLE
  5
A542
102
{ACAD_XDICTIONARY
360
A5AF
102
}
102
{ACAD_REACTORS
330
A52D
102
}
330
A52D
100
AcDbVisualStyle
  2
Shaded
 70
    27
 71
     2
 72
     2
 73
     1
 90
        2
 40
-0.6
 41
30.0
 62
     5
 63
     7
 74
     0
 91
        4
 64
     7
 65
   257
 75
     1
175
     1
 42
1.0
 92
        8
 66
   257
 43
1.0
 76
     1
 77
     6
 78
     2
 67
     8
 79
     3
170
     0
171
     0
290
     0
174
     0
 93
        5
 44
0.0
173
     0
291
     0
 45
0.0
1001
ACAD
1000
AcDbSavedByObjectVersion
1070
     0
  0
VISUALSTYLE
  5
A541
102
{ACAD_XDICTIONARY
360
A5AD
102
}
102
{ACAD_REACTORS
330
A52D
102
}
330
A52D
100
AcDbVisualStyle
  2
Shaded with edges
 70
    26
 71
     2
 72
     2
 73
     1
 90
        2
 40
-0.6
 41
30.0
 62
     5
 63
     7
 74
     1
 91
       10
 64
     7
 65
   257
 75
     2
175
     1
 42
1.0
 92
        8
 66
   257
 43
1.0
 76
     1
 77
     6
 78
     2
 67
     7
 79
     3
170
     0
171
     0
290
     0
174
     0
 93
        5
 44
0.0
173
     0
291
     0
 45
0.0
1001
ACAD
1000
AcDbSavedByObjectVersion
1070
     0
  0
VISUALSTYLE
  5
A53E
102
{ACAD_XDICTIONARY
360
A5A7
102
}
102
{ACAD_REACTORS
330
A52D
102
}
330
A52D
100
AcDbVisualStyle
  2
Shades of Gray
 70
    23
 71
     2
 72
     2
 73
     3
 90
        0
 40
-0.6
 41
-30.0
 62
     5
 63
     7
 74
     2
 91
        2
 64
     7
 65
     7
 75
     1
175
     1
 42
40.0
 92
        8
 66
     7
 43
1.0
 76
     1
 77
     6
 78
     2
 67
     7
 79
     3
170
     0
171
     0
290
     0
174
     0
 93
        1
 44
0.0
173
     0
291
     0
 45
0.0
1001
ACAD
1000
AcDbSavedByObjectVersion
1070
     0
  0
VISUALSTYLE
  5
A53F
102
{ACAD_XDICTIONARY
360
A5A9
102
}
102
{ACAD_REACTORS
330
A52D
102
}
330
A52D
100
AcDbVisualStyle
  2
Sketchy
 70
    24
 71
     1
 72
     2
 73
     2
 90
        0
 40
-0.6
 41
-30.0
 62
     5
 63
     7
 74
     2
 91
        2
 64
     7
 65
     7
 75
     1
175
     1
 42
40.0
 92
       11
 66
     7
 43
1.0
 76
     1
 77
     6
 78
     2
 67
     7
 79
     6
170
     0
171
     0
290
     0
174
     0
 93
        1
 44
0.0
173
     0
291
     0
 45
0.0
1001
ACAD
1000
AcDbSavedByObjectVersion
1070
     0
  0
VISUALSTYLE
  5
A53A
102
{ACAD_XDICTIONARY
360
A59F
102
}
102
{ACAD_REACTORS
330
A52D
102
}
330
A52D
100
AcDbVisualStyle
  2
Thicken
 70
    13
 71
     2
 72
     2
 73
     0
 90
        0
 40
-0.6
 41
-30.0
 62
     5
 63
     7
 74
     1
 91
        4
 64
     7
 65
   257
 75
     1
175
     1
 42
1.0
 92
       12
 66
     7
 43
1.0
 76
     1
 77
     6
 78
     2
 67
     7
 79
     5
170
     0
171
     0
290
     0
174
     0
 93
        1
 44
0.0
173
     0
291
     1
 45
0.0
1001
ACAD
1000
AcDbSavedByObjectVersion
1070
     0
  0
VISUALSTYLE
  5
A534
102
{ACAD_XDICTIONARY
360
A593
102
}
102
{ACAD_REACTORS
330
A52D
102
}
330
A52D
100
AcDbVisualStyle
  2
Wireframe
 70
     5
 71
     0
 72
     2
 73
     0
 90
        0
 40
-0.6
 41
-30.0
 62
     5
 63
     7
 74
     1
 91
        4
 64
     7
 65
   257
 75
     1
175
     1
 42
1.0
 92
        0
 66
   257
 43
1.0
 76
     1
 77
     6
 78
     2
 67
     7
 79
     3
170
     0
171
     0
290
     0
174
     0
 93
        1
 44
0.0
173
     0
291
     0
 45
0.0
1001
ACAD
1000
AcDbSavedByObjectVersion
1070
     0
  0
VISUALSTYLE
  5
A540
102
{ACAD_XDICTIONARY
360
A5AB
102
}
102
{ACAD_REACTORS
330
A52D
102
}
330
A52D
100
AcDbVisualStyle
  2
X-Ray
 70
    25
 71
     2
 72
     2
 73
     1
 90
        1
 40
0.5
 41
-30.0
 62
     5
 63
     7
 74
     1
 91
        0
 64
     7
 65
   257
 75
     1
175
     1
 42
1.0
 92
        8
 66
     7
 43
1.0
 76
     1
 77
     6
 78
     2
 67
     7
 79
     3
170
     0
171
     0
290
     0
174
     0
 93
       13
 44
0.0
173
     0
291
     0
 45
0.0
1001
ACAD
1000
AcDbSavedByObjectVersion
1070
     0
  0
DICTIONARYVAR
  5
A57A
102
{ACAD_REACTORS
330
A575
102
}
330
A575
100
DictionaryVariables
280
     0
  1
1:1
  0
DICTIONARYVAR
  5
A577
102
{ACAD_REACTORS
330
A575
102
}
330
A575
100
DictionaryVariables
280
     0
  1
STANDARD
  0
DICTIONARYVAR
  5
A576
102
{ACAD_REACTORS
330
A575
102
}
330
A575
100
DictionaryVariables
280
     0
  1
STANDARD
  0
DICTIONARYVAR
  5
A578
102
{ACAD_REACTORS
330
A575
102
}
330
A575
100
DictionaryVariables
280
     0
  1
Imperial24
  0
DICTIONARYVAR
  5
A579
102
{ACAD_REACTORS
330
A575
102
}
330
A575
100
DictionaryVariables
280
     0
  1
Imperial24
  0
DICTIONARYVAR
  5
A57D
102
{ACAD_REACTORS
330
A575
102
}
330
A575
100
DictionaryVariables
280
     0
  1
1
  0
DICTIONARYVAR
  5
A57C
102
{ACAD_REACTORS
330
A575
102
}
330
A575
100
DictionaryVariables
280
     0
  1
0
  0
DICTIONARYVAR
  5
A57B
102
{ACAD_REACTORS
330
A575
102
}
330
A575
100
DictionaryVariables
280
     0
  1
127
  0
DICTIONARYVAR
  5
A57E
102
{ACAD_REACTORS
330
A575
102
}
330
A575
100
DictionaryVariables
280
     0
  1
2
  0
DICTIONARY
  5
A5BB
330
A560
100
AcDbDictionary
280
     1
281
     1
  3
ACAD_XREC_ROUNDTRIP
360
A5BC
  0
DICTIONARY
  5
A5BD
330
A561
100
AcDbDictionary
280
     1
281
     1
  3
ACAD_XREC_ROUNDTRIP
360
A5BE
  0
DICTIONARY
  5
A5BF
330
A562
100
AcDbDictionary
280
     1
281
     1
  3
ACAD_XREC_ROUNDTRIP
360
A5C0
  0
DICTIONARY
  5
A51E
330
A51D
100
AcDbDictionary
280
     1
281
     1
  3
ACAD_XREC_ROUNDTRIP
360
A585
  3
BUMPTILE
360
A520
  3
DIFFUSETILE
360
A51F
  3
OPACITYTILE
360
A523
  3
REFLECTIONTILE
360
A522
  3
REFRACTIONTILE
360
A524
  3
SPECULARTILE
360
A521
  0
DICTIONARY
  5
A516
330
A515
100
AcDbDictionary
280
     1
281
     1
  3
ACAD_XREC_ROUNDTRIP
360
A584
  3
BUMPTILE
360
A518
  3
DIFFUSETILE
360
A517
  3
OPACITYTILE
360
A51B
  3
REFLECTIONTILE
360
A51A
  3
REFRACTIONTILE
360
A51C
  3
SPECULARTILE
360
A519
  0
DICTIONARY
  5
A526
330
A525
100
AcDbDictionary
280
     1
281
     1
  3
ACAD_XREC_ROUNDTRIP
360
A586
  3
BUMPTILE
360
A528
  3
DIFFUSETILE
360
A527
  3
OPACITYTILE
360
A52B
  3
REFLECTIONTILE
360
A52A
  3
REFRACTIONTILE
360
A52C
  3
SPECULARTILE
360
A529
  0
DICTIONARY
  5
A5B9
330
A55E
100
AcDbDictionary
280
     1
281
     1
  3
ACAD_XREC_ROUNDTRIP
360
A5BA
  0
DICTIONARY
  5
A580
330
A548
100
AcDbDictionary
280
     1
281
     1
  3
ACAD_ROUNDTRIP_2008_TABLESTYLE_CELLSTYLEMAP
360
A581
  3
ACAD_XREC_ROUNDTRIP
360
A5B7
  0
DICTIONARY
  5
A591
330
A533
100
AcDbDictionary
280
     1
281
     1
  3
ACAD_XREC_ROUNDTRIP
360
A592
  0
DICTIONARY
  5
A58F
330
A532
100
AcDbDictionary
280
     1
281
     1
  3
ACAD_XREC_ROUNDTRIP
360
A590
  0
DICTIONARY
  5
A59D
330
A539
100
AcDbDictionary
280
     1
281
     1
  3
ACAD_XREC_ROUNDTRIP
360
A59E
  0
DICTIONARY
  5
A5A5
330
A53D
100
AcDbDictionary
280
     1
281
     1
  3
ACAD_XREC_ROUNDTRIP
360
A5A6
  0
DICTIONARY
  5
A597
330
A536
100
AcDbDictionary
280
     1
281
     1
  3
ACAD_XREC_ROUNDTRIP
360
A598
  0
DICTIONARY
  5
A59B
330
A538
100
AcDbDictionary
280
     1
281
     1
  3
ACAD_XREC_ROUNDTRIP
360
A59C
  0
DICTIONARY
  5
A5B5
330
A545
100
AcDbDictionary
280
     1
281
     1
  3
ACAD_XREC_ROUNDTRIP
360
A5B6
  0
DICTIONARY
  5
A5A3
330
A53C
100
AcDbDictionary
280
     1
281
     1
  3
ACAD_XREC_ROUNDTRIP
360
A5A4
  0
DICTIONARY
  5
A587
330
A52E
100
AcDbDictionary
280
     1
281
     1
  3
ACAD_XREC_ROUNDTRIP
360
A588
  0
DICTIONARY
  5
A589
330
A52F
100
AcDbDictionary
280
     1
281
     1
  3
ACAD_XREC_ROUNDTRIP
360
A58A
  0
DICTIONARY
  5
A58B
330
A530
100
AcDbDictionary
280
     1
281
     1
  3
ACAD_XREC_ROUNDTRIP
360
A58C
  0
DICTIONARY
  5
A58D
330
A531
100
AcDbDictionary
280
     1
281
     1
  3
ACAD_XREC_ROUNDTRIP
360
A58E
  0
DICTIONARY
  5
A595
330
A535
100
AcDbDictionary
280
     1
281
     1
  3
ACAD_XREC_ROUNDTRIP
360
A596
  0
DICTIONARY
  5
A5B1
330
A543
100
AcDbDictionary
280
     1
281
     1
  3
ACAD_XREC_ROUNDTRIP
360
A5B2
  0
DICTIONARY
  5
A5A1
330
A53B
100
AcDbDictionary
280
     1
281
     1
  3
ACAD_XREC_ROUNDTRIP
360
A5A2
  0
DICTIONARY
  5
A5B3
330
A544
100
AcDbDictionary
280
     1
281
     1
  3
ACAD_XREC_ROUNDTRIP
360
A5B4
  0
DICTIONARY
  5
A599
330
A537
100
AcDbDictionary
280
     1
281
     1
  3
ACAD_XREC_ROUNDTRIP
360
A59A
  0
DICTIONARY
  5
A5AF
330
A542
100
AcDbDictionary
280
     1
281
     1
  3
ACAD_XREC_ROUNDTRIP
360
A5B0
  0
DICTIONARY
  5
A5AD
330
A541
100
AcDbDictionary
280
     1
281
     1
  3
ACAD_XREC_ROUNDTRIP
360
A5AE
  0
DICTIONARY
  5
A5A7
330
A53E
100
AcDbDictionary
280
     1
281
     1
  3
ACAD_XREC_ROUNDTRIP
360
A5A8
  0
DICTIONARY
  5
A5A9
330
A53F
100
AcDbDictionary
280
     1
281
     1
  3
ACAD_XREC_ROUNDTRIP
360
A5AA
  0
DICTIONARY
  5
A59F
330
A53A
100
AcDbDictionary
280
     1
281
     1
  3
ACAD_XREC_ROUNDTRIP
360
A5A0
  0
DICTIONARY
  5
A593
330
A534
100
AcDbDictionary
280
     1
281
     1
  3
ACAD_XREC_ROUNDTRIP
360
A594
  0
DICTIONARY
  5
A5AB
330
A540
100
AcDbDictionary
280
     1
281
     1
  3
ACAD_XREC_ROUNDTRIP
360
A5AC
  0
XRECORD
  5
A5BC
102
{ACAD_REACTORS
330
A5BB
102
}
330
A5BB
100
AcDbXrecord
280
     1
102
DISPLAYNAME
  1
Imperial24
102
FLAGS
 90
        0
  0
XRECORD
  5
A5BE
102
{ACAD_REACTORS
330
A5BD
102
}
330
A5BD
100
AcDbXrecord
280
     1
102
SHADEPLOT
 70
     0
102
SHADEPLOTRESLEVEL
 70
     2
102
SHADEPLOTCUSTOMDPI
 70
   300
  0
XRECORD
  5
A5C0
102
{ACAD_REACTORS
330
A5BF
102
}
330
A5BF
100
AcDbXrecord
280
     1
102
SHADEPLOT
 70
     0
102
SHADEPLOTRESLEVEL
 70
     2
102
SHADEPLOTCUSTOMDPI
 70
   300
  0
XRECORD
  5
A585
102
{ACAD_REACTORS
330
A51E
102
}
330
A51E
100
AcDbXrecord
280
     1
102
MATERIAL
148
0.0
149
0.0
149
0.0
 93
        0
 94
      127
282
     0
 72
     0
 77
     0
171
     0
175
     0
179
     0
273
     0
  0
XRECORD
  5
A520
102
{ACAD_REACTORS
330
A51E
102
}
330
A51E
100
AcDbXrecord
280
     1
270
     1
271
     1
  0
XRECORD
  5
A51F
102
{ACAD_REACTORS
330
A51E
102
}
330
A51E
100
AcDbXrecord
280
     1
270
     1
271
     1
  0
XRECORD
  5
A523
102
{ACAD_REACTORS
330
A51E
102
}
330
A51E
100
AcDbXrecord
280
     1
270
     1
271
     1
  0
XRECORD
  5
A522
102
{ACAD_REACTORS
330
A51E
102
}
330
A51E
100
AcDbXrecord
280
     1
270
     1
271
     1
  0
XRECORD
  5
A524
102
{ACAD_REACTORS
330
A51E
102
}
330
A51E
100
AcDbXrecord
280
     1
270
     1
271
     1
  0
XRECORD
  5
A521
102
{ACAD_REACTORS
330
A51E
102
}
330
A51E
100
AcDbXrecord
280
     1
270
     1
271
     1
  0
XRECORD
  5
A584
102
{ACAD_REACTORS
330
A516
102
}
330
A516
100
AcDbXrecord
280
     1
102
MATERIAL
148
0.0
149
0.0
149
0.0
 93
        0
 94
      127
282
     0
 72
     0
 77
     0
171
     0
175
     0
179
     0
273
     0
  0
XRECORD
  5
A518
102
{ACAD_REACTORS
330
A516
102
}
330
A516
100
AcDbXrecord
280
     1
270
     1
271
     1
  0
XRECORD
  5
A517
102
{ACAD_REACTORS
330
A516
102
}
330
A516
100
AcDbXrecord
280
     1
270
     1
271
     1
  0
XRECORD
  5
A51B
102
{ACAD_REACTORS
330
A516
102
}
330
A516
100
AcDbXrecord
280
     1
270
     1
271
     1
  0
XRECORD
  5
A51A
102
{ACAD_REACTORS
330
A516
102
}
330
A516
100
AcDbXrecord
280
     1
270
     1
271
     1
  0
XRECORD
  5
A51C
102
{ACAD_REACTORS
330
A516
102
}
330
A516
100
AcDbXrecord
280
     1
270
     1
271
     1
  0
XRECORD
  5
A519
102
{ACAD_REACTORS
330
A516
102
}
330
A516
100
AcDbXrecord
280
     1
270
     1
271
     1
  0
XRECORD
  5
A586
102
{ACAD_REACTORS
330
A526
102
}
330
A526
100
AcDbXrecord
280
     1
102
MATERIAL
148
0.0
149
0.0
149
0.0
 93
        0
 94
      127
282
     0
 72
     0
 77
     0
171
     0
175
     0
179
     0
273
     0
  0
XRECORD
  5
A528
102
{ACAD_REACTORS
330
A526
102
}
330
A526
100
AcDbXrecord
280
     1
270
     1
271
     1
  0
XRECORD
  5
A527
102
{ACAD_REACTORS
330
A526
102
}
330
A526
100
AcDbXrecord
280
     1
270
     1
271
     1
  0
XRECORD
  5
A52B
102
{ACAD_REACTORS
330
A526
102
}
330
A526
100
AcDbXrecord
280
     1
270
     1
271
     1
  0
XRECORD
  5
A52A
102
{ACAD_REACTORS
330
A526
102
}
330
A526
100
AcDbXrecord
280
     1
270
     1
271
     1
  0
XRECORD
  5
A52C
102
{ACAD_REACTORS
330
A526
102
}
330
A526
100
AcDbXrecord
280
     1
270
     1
271
     1
  0
XRECORD
  5
A529
102
{ACAD_REACTORS
330
A526
102
}
330
A526
100
AcDbXrecord
280
     1
270
     1
271
     1
  0
XRECORD
  5
A5BA
102
{ACAD_REACTORS
330
A5B9
102
}
330
A5B9
100
AcDbXrecord
280
     1
102
DISPLAYNAME
  1
Imperial24
102
FLAGS
 90
        0
  0
CELLSTYLEMAP
  5
A581
102
{ACAD_REACTORS
330
A580
102
}
330
A580
100
AcDbCellStyleMap
 90
        3
300
CELLSTYLE
  1
TABLEFORMAT_BEGIN
 90
        5
170
     1
 91
        0
 92
    32768
 62
   257
 93
        1
300
CONTENTFORMAT
  1
CONTENTFORMAT_BEGIN
 90
        0
 91
        0
 92
      512
 93
        0
300

 40
0.0
140
1.0
 94
        5
 62
     0
340
A2B8
144
0.25
309
CONTENTFORMAT_END
171
     0
 94
        0
309
TABLEFORMAT_END
  1
CELLSTYLE_BEGIN
 90
        1
 91
        1
300
_TITLE
309
CELLSTYLE_END
300
CELLSTYLE
  1
TABLEFORMAT_BEGIN
 90
        5
170
     1
 91
        0
 92
        0
 62
   257
 93
        1
300
CONTENTFORMAT
  1
CONTENTFORMAT_BEGIN
 90
        0
 91
        0
 92
      512
 93
        0
300

 40
0.0
140
1.0
 94
        5
 62
     0
340
A2B8
144
0.18
309
CONTENTFORMAT_END
171
     0
 94
        0
309
TABLEFORMAT_END
  1
CELLSTYLE_BEGIN
 90
        2
 91
        1
300
_HEADER
309
CELLSTYLE_END
300
CELLSTYLE
  1
TABLEFORMAT_BEGIN
 90
        5
170
     1
 91
        0
 92
        0
 62
   257
 93
        1
300
CONTENTFORMAT
  1
CONTENTFORMAT_BEGIN
 90
        0
 91
        0
 92
      512
 93
        0
300

 40
0.0
140
1.0
 94
        2
 62
     0
340
A2B8
144
0.18
309
CONTENTFORMAT_END
171
     0
 94
        0
309
TABLEFORMAT_END
  1
CELLSTYLE_BEGIN
 90
        3
 91
        2
300
_DATA
309
CELLSTYLE_END
  0
XRECORD
  5
A5B7
102
{ACAD_REACTORS
330
A580
102
}
330
A580
100
AcDbXrecord
280
     1
102
ACAD_ROUNDTRIP_PRE2007_TABLESTYLE
 90
      512
 91
        0
  1

 92
      512
 93
        0
  2

 94
      512
 95
        0
  3

  0
XRECORD
  5
A592
102
{ACAD_REACTORS
330
A591
102
}
330
A591
100
AcDbXrecord
280
     1
102
RTVSPost2010Prop28
280
     1
102
RTVSPost2010PropOp28
 70
     1
102
RTVSPost2010Prop29
280
     1
102
RTVSPost2010PropOp29
 70
     1
102
RTVSPost2010Prop30
280
     0
102
RTVSPost2010PropOp30
 70
     1
102
RTVSPost2010Prop31
280
     0
102
RTVSPost2010PropOp31
 70
     1
102
RTVSPost2010Prop32
280
     0
102
RTVSPost2010PropOp32
 70
     1
102
RTVSPost2010Prop33
280
     0
102
RTVSPost2010PropOp33
 70
     1
102
RTVSPost2010Prop34
280
     0
102
RTVSPost2010PropOp34
 70
     1
102
RTVSPost2010Prop35
280
     0
102
RTVSPost2010PropOp35
 70
     1
102
RTVSPost2010Prop36
280
     0
102
RTVSPost2010PropOp36
 70
     1
102
RTVSPost2010Prop37
 90
       50
102
RTVSPost2010PropOp37
 70
     1
102
RTVSPost2010Prop38
140
0.0
102
RTVSPost2010PropOp38
 70
     1
102
RTVSPost2010Prop39
140
1.0
102
RTVSPost2010PropOp39
 70
     1
102
RTVSPost2010Prop40
 90
        0
102
RTVSPost2010PropOp40
 70
     1
102
RTVSPost2010Prop41ColorIndex
 90
       18
102
RTVSPost2010Prop41ColorRGB
 90
        0
102
RTVSPost2010PropOp41
 70
     1
102
RTVSPost2010Prop42
 90
       50
102
RTVSPost2010PropOp42
 70
     1
102
RTVSPost2010Prop43
 90
        3
102
RTVSPost2010PropOp43
 70
     1
102
RTVSPost2010Prop44ColorIndex
 90
        5
102
RTVSPost2010Prop44ColorRGB
 90
      255
102
RTVSPost2010PropOp44
 70
     1
102
RTVSPost2010Prop45
280
     0
102
RTVSPost2010PropOp45
 70
     1
102
RTVSPost2010Prop46
 90
       50
102
RTVSPost2010PropOp46
 70
     1
102
RTVSPost2010Prop47
 90
       50
102
RTVSPost2010PropOp47
 70
     1
102
RTVSPost2010Prop48
 90
       50
102
RTVSPost2010PropOp48
 70
     1
102
RTVSPost2010Prop49
280
     0
102
RTVSPost2010PropOp49
 70
     1
102
RTVSPost2010Prop50
 90
       50
102
RTVSPost2010PropOp50
 70
     1
102
RTVSPost2010Prop51ColorIndex
 90
      256
102
RTVSPost2010Prop51ColorRGB
 90
-16777216
102
RTVSPost2010PropOp51
 70
     0
102
RTVSPost2010Prop52
140
1.0
102
RTVSPost2010PropOp52
 70
     0
102
RTVSPost2010Prop53
 90
        2
102
RTVSPost2010PropOp53
 70
     1
102
RTVSPost2010Prop54
  1
strokes_ogs.tif
102
RTVSPost2010PropOp54
 70
     1
102
RTVSPost2010Prop55
280
     0
102
RTVSPost2010PropOp55
 70
     1
102
RTVSPost2010Prop56
140
1.0
102
RTVSPost2010PropOp56
 70
     1
102
RTVSPost2010Prop57
140
1.0
102
RTVSPost2010PropOp57
 70
     1
102
RTVSPropertyOp0
 70
     1
102
RTVSPropertyOp1
 70
     1
102
RTVSPropertyOp2
 70
     1
102
RTVSPropertyOp3
 70
     1
102
RTVSPropertyOp4
 70
     1
102
RTVSPropertyOp5
 70
     1
102
RTVSPropertyOp6
 70
     1
102
RTVSPropertyOp7
 70
     1
102
RTVSPropertyOp8
 70
     1
102
RTVSPropertyOp9
 70
     1
102
RTVSPropertyOp10
 70
     1
102
RTVSPropertyOp11
 70
     1
102
RTVSPropertyOp12
 70
     1
102
RTVSPropertyOp13
 70
     1
102
RTVSPropertyOp14
 70
     1
102
RTVSPropertyOp15
 70
     1
102
RTVSPropertyOp16
 70
     1
102
RTVSPropertyOp17
 70
     1
102
RTVSPropertyOp18
 70
     1
102
RTVSPropertyOp19
 70
     1
102
RTVSPropertyOp20
 70
     1
102
RTVSPropertyOp21
 70
     1
102
RTVSPropertyOp22
 70
     1
102
RTVSPropertyOp23
 70
     1
102
RTVSPropertyOp24
 70
     1
102
RTVSPropertyOp25
 70
     1
102
RTVSPropertyOp26
 70
     1
102
RTVSPropertyOp27
 70
     1
102
RTVSPropertyOp28
 70
     1
102
RTVSPropertyOp29
 70
     1
102
RTVSPropertyOp30
 70
     1
102
RTVSPropertyOp31
 70
     1
102
RTVSPropertyOp32
 70
     1
102
RTVSPropertyOp33
 70
     1
102
RTVSPropertyOp34
 70
     1
102
RTVSPropertyOp35
 70
     1
102
RTVSPropertyOp36
 70
     1
102
RTVSPropertyOp37
 70
     1
102
RTVSPropertyOp38
 70
     1
102
RTVSPropertyOp39
 70
     1
102
RTVSPropertyOp40
 70
     1
102
RTVSPropertyOp41
 70
     1
102
RTVSPropertyOp42
 70
     1
102
RTVSPropertyOp43
 70
     1
102
RTVSPropertyOp44
 70
     1
102
RTVSPropertyOp45
 70
     1
102
RTVSPropertyOp46
 70
     1
102
RTVSPropertyOp47
 70
     1
102
RTVSPropertyOp48
 70
     1
102
RTVSPropertyOp49
 70
     1
102
RTVSPropertyOp50
 70
     1
102
RTVSPropertyOp51
 70
     0
102
RTVSPropertyOp52
 70
     0
102
RTVSPropertyOp53
 70
     1
102
RTVSPropertyOp54
 70
     1
102
RTVSPropertyOp55
 70
     1
102
RTVSPropertyOp56
 70
     1
102
RTVSPropertyOp57
 70
     1
102
RTVSPropertyOp58
 70
     1
102
RTVSPropertyOp59
 70
     1
102
RTVSPropertyOp60
 70
     1
102
RTVSPropertyOp61
 70
     1
102
RTVSPropertyOp62
 70
     1
  0
XRECORD
  5
A590
102
{ACAD_REACTORS
330
A58F
102
}
330
A58F
100
AcDbXrecord
280
     1
102
RTVSPost2010Prop28
280
     0
102
RTVSPost2010PropOp28
 70
     1
102
RTVSPost2010Prop29
280
     1
102
RTVSPost2010PropOp29
 70
     1
102
RTVSPost2010Prop30
280
     1
102
RTVSPost2010PropOp30
 70
     1
102
RTVSPost2010Prop31
280
     0
102
RTVSPost2010PropOp31
 70
     1
102
RTVSPost2010Prop32
280
     0
102
RTVSPost2010PropOp32
 70
     1
102
RTVSPost2010Prop33
280
     0
102
RTVSPost2010PropOp33
 70
     1
102
RTVSPost2010Prop34
280
     0
102
RTVSPost2010PropOp34
 70
     1
102
RTVSPost2010Prop35
280
     0
102
RTVSPost2010PropOp35
 70
     1
102
RTVSPost2010Prop36
280
     0
102
RTVSPost2010PropOp36
 70
     1
102
RTVSPost2010Prop37
 90
       50
102
RTVSPost2010PropOp37
 70
     1
102
RTVSPost2010Prop38
140
0.0
102
RTVSPost2010PropOp38
 70
     1
102
RTVSPost2010Prop39
140
1.0
102
RTVSPost2010PropOp39
 70
     1
102
RTVSPost2010Prop40
 90
        0
102
RTVSPost2010PropOp40
 70
     1
102
RTVSPost2010Prop41ColorIndex
 90
       18
102
RTVSPost2010Prop41ColorRGB
 90
        0
102
RTVSPost2010PropOp41
 70
     1
102
RTVSPost2010Prop42
 90
       50
102
RTVSPost2010PropOp42
 70
     1
102
RTVSPost2010Prop43
 90
        3
102
RTVSPost2010PropOp43
 70
     1
102
RTVSPost2010Prop44ColorIndex
 90
        5
102
RTVSPost2010Prop44ColorRGB
 90
      255
102
RTVSPost2010PropOp44
 70
     1
102
RTVSPost2010Prop45
280
     0
102
RTVSPost2010PropOp45
 70
     1
102
RTVSPost2010Prop46
 90
       50
102
RTVSPost2010PropOp46
 70
     1
102
RTVSPost2010Prop47
 90
       50
102
RTVSPost2010PropOp47
 70
     1
102
RTVSPost2010Prop48
 90
       50
102
RTVSPost2010PropOp48
 70
     1
102
RTVSPost2010Prop49
280
     0
102
RTVSPost2010PropOp49
 70
     1
102
RTVSPost2010Prop50
 90
       50
102
RTVSPost2010PropOp50
 70
     1
102
RTVSPost2010Prop51ColorIndex
 90
      256
102
RTVSPost2010Prop51ColorRGB
 90
-16777216
102
RTVSPost2010PropOp51
 70
     0
102
RTVSPost2010Prop52
140
1.0
102
RTVSPost2010PropOp52
 70
     0
102
RTVSPost2010Prop53
 90
        2
102
RTVSPost2010PropOp53
 70
     1
102
RTVSPost2010Prop54
  1
strokes_ogs.tif
102
RTVSPost2010PropOp54
 70
     1
102
RTVSPost2010Prop55
280
     0
102
RTVSPost2010PropOp55
 70
     1
102
RTVSPost2010Prop56
140
1.0
102
RTVSPost2010PropOp56
 70
     1
102
RTVSPost2010Prop57
140
1.0
102
RTVSPost2010PropOp57
 70
     1
102
RTVSPropertyOp0
 70
     1
102
RTVSPropertyOp1
 70
     1
102
RTVSPropertyOp2
 70
     1
102
RTVSPropertyOp3
 70
     1
102
RTVSPropertyOp4
 70
     1
102
RTVSPropertyOp5
 70
     1
102
RTVSPropertyOp6
 70
     1
102
RTVSPropertyOp7
 70
     1
102
RTVSPropertyOp8
 70
     1
102
RTVSPropertyOp9
 70
     1
102
RTVSPropertyOp10
 70
     1
102
RTVSPropertyOp11
 70
     1
102
RTVSPropertyOp12
 70
     1
102
RTVSPropertyOp13
 70
     1
102
RTVSPropertyOp14
 70
     1
102
RTVSPropertyOp15
 70
     1
102
RTVSPropertyOp16
 70
     1
102
RTVSPropertyOp17
 70
     1
102
RTVSPropertyOp18
 70
     1
102
RTVSPropertyOp19
 70
     1
102
RTVSPropertyOp20
 70
     1
102
RTVSPropertyOp21
 70
     1
102
RTVSPropertyOp22
 70
     1
102
RTVSPropertyOp23
 70
     1
102
RTVSPropertyOp24
 70
     1
102
RTVSPropertyOp25
 70
     1
102
RTVSPropertyOp26
 70
     1
102
RTVSPropertyOp27
 70
     1
102
RTVSPropertyOp28
 70
     1
102
RTVSPropertyOp29
 70
     1
102
RTVSPropertyOp30
 70
     1
102
RTVSPropertyOp31
 70
     1
102
RTVSPropertyOp32
 70
     1
102
RTVSPropertyOp33
 70
     1
102
RTVSPropertyOp34
 70
     1
102
RTVSPropertyOp35
 70
     1
102
RTVSPropertyOp36
 70
     1
102
RTVSPropertyOp37
 70
     1
102
RTVSPropertyOp38
 70
     1
102
RTVSPropertyOp39
 70
     1
102
RTVSPropertyOp40
 70
     1
102
RTVSPropertyOp41
 70
     1
102
RTVSPropertyOp42
 70
     1
102
RTVSPropertyOp43
 70
     1
102
RTVSPropertyOp44
 70
     1
102
RTVSPropertyOp45
 70
     1
102
RTVSPropertyOp46
 70
     1
102
RTVSPropertyOp47
 70
     1
102
RTVSPropertyOp48
 70
     1
102
RTVSPropertyOp49
 70
     1
102
RTVSPropertyOp50
 70
     1
102
RTVSPropertyOp51
 70
     0
102
RTVSPropertyOp52
 70
     0
102
RTVSPropertyOp53
 70
     1
102
RTVSPropertyOp54
 70
     1
102
RTVSPropertyOp55
 70
     1
102
RTVSPropertyOp56
 70
     1
102
RTVSPropertyOp57
 70
     1
102
RTVSPropertyOp58
 70
     1
102
RTVSPropertyOp59
 70
     1
102
RTVSPropertyOp60
 70
     1
102
RTVSPropertyOp61
 70
     1
102
RTVSPropertyOp62
 70
     1
  0
XRECORD
  5
A59E
102
{ACAD_REACTORS
330
A59D
102
}
330
A59D
100
AcDbXrecord
280
     1
102
RTVSPost2010Prop28
280
     0
102
RTVSPost2010PropOp28
 70
     1
102
RTVSPost2010Prop29
280
     1
102
RTVSPost2010PropOp29
 70
     1
102
RTVSPost2010Prop30
280
     1
102
RTVSPost2010PropOp30
 70
     1
102
RTVSPost2010Prop31
280
     0
102
RTVSPost2010PropOp31
 70
     1
102
RTVSPost2010Prop32
280
     0
102
RTVSPost2010PropOp32
 70
     1
102
RTVSPost2010Prop33
280
     0
102
RTVSPost2010PropOp33
 70
     1
102
RTVSPost2010Prop34
280
     0
102
RTVSPost2010PropOp34
 70
     1
102
RTVSPost2010Prop35
280
     0
102
RTVSPost2010PropOp35
 70
     1
102
RTVSPost2010Prop36
280
     0
102
RTVSPost2010PropOp36
 70
     1
102
RTVSPost2010Prop37
 90
       50
102
RTVSPost2010PropOp37
 70
     1
102
RTVSPost2010Prop38
140
0.0
102
RTVSPost2010PropOp38
 70
     1
102
RTVSPost2010Prop39
140
1.0
102
RTVSPost2010PropOp39
 70
     1
102
RTVSPost2010Prop40
 90
        0
102
RTVSPost2010PropOp40
 70
     1
102
RTVSPost2010Prop41ColorIndex
 90
       18
102
RTVSPost2010Prop41ColorRGB
 90
        0
102
RTVSPost2010PropOp41
 70
     1
102
RTVSPost2010Prop42
 90
       50
102
RTVSPost2010PropOp42
 70
     1
102
RTVSPost2010Prop43
 90
        3
102
RTVSPost2010PropOp43
 70
     1
102
RTVSPost2010Prop44ColorIndex
 90
        5
102
RTVSPost2010Prop44ColorRGB
 90
      255
102
RTVSPost2010PropOp44
 70
     1
102
RTVSPost2010Prop45
280
     0
102
RTVSPost2010PropOp45
 70
     1
102
RTVSPost2010Prop46
 90
       50
102
RTVSPost2010PropOp46
 70
     1
102
RTVSPost2010Prop47
 90
       50
102
RTVSPost2010PropOp47
 70
     1
102
RTVSPost2010Prop48
 90
       50
102
RTVSPost2010PropOp48
 70
     1
102
RTVSPost2010Prop49
280
     0
102
RTVSPost2010PropOp49
 70
     1
102
RTVSPost2010Prop50
 90
       50
102
RTVSPost2010PropOp50
 70
     1
102
RTVSPost2010Prop51ColorIndex
 90
      256
102
RTVSPost2010Prop51ColorRGB
 90
-16777216
102
RTVSPost2010PropOp51
 70
     0
102
RTVSPost2010Prop52
140
1.0
102
RTVSPost2010PropOp52
 70
     0
102
RTVSPost2010Prop53
 90
        2
102
RTVSPost2010PropOp53
 70
     1
102
RTVSPost2010Prop54
  1
strokes_ogs.tif
102
RTVSPost2010PropOp54
 70
     1
102
RTVSPost2010Prop55
280
     0
102
RTVSPost2010PropOp55
 70
     1
102
RTVSPost2010Prop56
140
1.0
102
RTVSPost2010PropOp56
 70
     1
102
RTVSPost2010Prop57
140
1.0
102
RTVSPost2010PropOp57
 70
     1
102
RTVSPropertyOp0
 70
     1
102
RTVSPropertyOp1
 70
     1
102
RTVSPropertyOp2
 70
     1
102
RTVSPropertyOp3
 70
     1
102
RTVSPropertyOp4
 70
     1
102
RTVSPropertyOp5
 70
     1
102
RTVSPropertyOp6
 70
     1
102
RTVSPropertyOp7
 70
     1
102
RTVSPropertyOp8
 70
     1
102
RTVSPropertyOp9
 70
     1
102
RTVSPropertyOp10
 70
     1
102
RTVSPropertyOp11
 70
     1
102
RTVSPropertyOp12
 70
     1
102
RTVSPropertyOp13
 70
     1
102
RTVSPropertyOp14
 70
     1
102
RTVSPropertyOp15
 70
     1
102
RTVSPropertyOp16
 70
     1
102
RTVSPropertyOp17
 70
     1
102
RTVSPropertyOp18
 70
     1
102
RTVSPropertyOp19
 70
     1
102
RTVSPropertyOp20
 70
     1
102
RTVSPropertyOp21
 70
     1
102
RTVSPropertyOp22
 70
     1
102
RTVSPropertyOp23
 70
     1
102
RTVSPropertyOp24
 70
     1
102
RTVSPropertyOp25
 70
     1
102
RTVSPropertyOp26
 70
     1
102
RTVSPropertyOp27
 70
     1
102
RTVSPropertyOp28
 70
     1
102
RTVSPropertyOp29
 70
     1
102
RTVSPropertyOp30
 70
     1
102
RTVSPropertyOp31
 70
     1
102
RTVSPropertyOp32
 70
     1
102
RTVSPropertyOp33
 70
     1
102
RTVSPropertyOp34
 70
     1
102
RTVSPropertyOp35
 70
     1
102
RTVSPropertyOp36
 70
     1
102
RTVSPropertyOp37
 70
     1
102
RTVSPropertyOp38
 70
     1
102
RTVSPropertyOp39
 70
     1
102
RTVSPropertyOp40
 70
     1
102
RTVSPropertyOp41
 70
     1
102
RTVSPropertyOp42
 70
     1
102
RTVSPropertyOp43
 70
     1
102
RTVSPropertyOp44
 70
     1
102
RTVSPropertyOp45
 70
     1
102
RTVSPropertyOp46
 70
     1
102
RTVSPropertyOp47
 70
     1
102
RTVSPropertyOp48
 70
     1
102
RTVSPropertyOp49
 70
     1
102
RTVSPropertyOp50
 70
     1
102
RTVSPropertyOp51
 70
     0
102
RTVSPropertyOp52
 70
     0
102
RTVSPropertyOp53
 70
     1
102
RTVSPropertyOp54
 70
     1
102
RTVSPropertyOp55
 70
     1
102
RTVSPropertyOp56
 70
     1
102
RTVSPropertyOp57
 70
     1
102
RTVSPropertyOp58
 70
     1
102
RTVSPropertyOp59
 70
     1
102
RTVSPropertyOp60
 70
     1
102
RTVSPropertyOp61
 70
     1
102
RTVSPropertyOp62
 70
     1
  0
XRECORD
  5
A5A6
102
{ACAD_REACTORS
330
A5A5
102
}
330
A5A5
100
AcDbXrecord
280
     1
102
RTVSPost2010Prop28
280
     0
102
RTVSPost2010PropOp28
 70
     1
102
RTVSPost2010Prop29
280
     1
102
RTVSPost2010PropOp29
 70
     1
102
RTVSPost2010Prop30
280
     1
102
RTVSPost2010PropOp30
 70
     1
102
RTVSPost2010Prop31
280
     0
102
RTVSPost2010PropOp31
 70
     1
102
RTVSPost2010Prop32
280
     0
102
RTVSPost2010PropOp32
 70
     1
102
RTVSPost2010Prop33
280
     0
102
RTVSPost2010PropOp33
 70
     1
102
RTVSPost2010Prop34
280
     0
102
RTVSPost2010PropOp34
 70
     1
102
RTVSPost2010Prop35
280
     0
102
RTVSPost2010PropOp35
 70
     1
102
RTVSPost2010Prop36
280
     0
102
RTVSPost2010PropOp36
 70
     1
102
RTVSPost2010Prop37
 90
       50
102
RTVSPost2010PropOp37
 70
     1
102
RTVSPost2010Prop38
140
0.0
102
RTVSPost2010PropOp38
 70
     1
102
RTVSPost2010Prop39
140
1.0
102
RTVSPost2010PropOp39
 70
     1
102
RTVSPost2010Prop40
 90
        0
102
RTVSPost2010PropOp40
 70
     1
102
RTVSPost2010Prop41ColorIndex
 90
       18
102
RTVSPost2010Prop41ColorRGB
 90
        0
102
RTVSPost2010PropOp41
 70
     1
102
RTVSPost2010Prop42
 90
       50
102
RTVSPost2010PropOp42
 70
     1
102
RTVSPost2010Prop43
 90
        3
102
RTVSPost2010PropOp43
 70
     1
102
RTVSPost2010Prop44ColorIndex
 90
        5
102
RTVSPost2010Prop44ColorRGB
 90
      255
102
RTVSPost2010PropOp44
 70
     1
102
RTVSPost2010Prop45
280
     0
102
RTVSPost2010PropOp45
 70
     1
102
RTVSPost2010Prop46
 90
       50
102
RTVSPost2010PropOp46
 70
     1
102
RTVSPost2010Prop47
 90
       50
102
RTVSPost2010PropOp47
 70
     1
102
RTVSPost2010Prop48
 90
       50
102
RTVSPost2010PropOp48
 70
     1
102
RTVSPost2010Prop49
280
     0
102
RTVSPost2010PropOp49
 70
     1
102
RTVSPost2010Prop50
 90
       50
102
RTVSPost2010PropOp50
 70
     1
102
RTVSPost2010Prop51ColorIndex
 90
      256
102
RTVSPost2010Prop51ColorRGB
 90
-16777216
102
RTVSPost2010PropOp51
 70
     0
102
RTVSPost2010Prop52
140
1.0
102
RTVSPost2010PropOp52
 70
     0
102
RTVSPost2010Prop53
 90
        2
102
RTVSPost2010PropOp53
 70
     1
102
RTVSPost2010Prop54
  1
strokes_ogs.tif
102
RTVSPost2010PropOp54
 70
     1
102
RTVSPost2010Prop55
280
     0
102
RTVSPost2010PropOp55
 70
     1
102
RTVSPost2010Prop56
140
1.0
102
RTVSPost2010PropOp56
 70
     1
102
RTVSPost2010Prop57
140
1.0
102
RTVSPost2010PropOp57
 70
     1
102
RTVSPropertyOp0
 70
     1
102
RTVSPropertyOp1
 70
     1
102
RTVSPropertyOp2
 70
     1
102
RTVSPropertyOp3
 70
     1
102
RTVSPropertyOp4
 70
     1
102
RTVSPropertyOp5
 70
     1
102
RTVSPropertyOp6
 70
     1
102
RTVSPropertyOp7
 70
     1
102
RTVSPropertyOp8
 70
     1
102
RTVSPropertyOp9
 70
     1
102
RTVSPropertyOp10
 70
     1
102
RTVSPropertyOp11
 70
     1
102
RTVSPropertyOp12
 70
     1
102
RTVSPropertyOp13
 70
     1
102
RTVSPropertyOp14
 70
     1
102
RTVSPropertyOp15
 70
     1
102
RTVSPropertyOp16
 70
     1
102
RTVSPropertyOp17
 70
     1
102
RTVSPropertyOp18
 70
     1
102
RTVSPropertyOp19
 70
     1
102
RTVSPropertyOp20
 70
     1
102
RTVSPropertyOp21
 70
     1
102
RTVSPropertyOp22
 70
     1
102
RTVSPropertyOp23
 70
     1
102
RTVSPropertyOp24
 70
     1
102
RTVSPropertyOp25
 70
     1
102
RTVSPropertyOp26
 70
     1
102
RTVSPropertyOp27
 70
     1
102
RTVSPropertyOp28
 70
     1
102
RTVSPropertyOp29
 70
     1
102
RTVSPropertyOp30
 70
     1
102
RTVSPropertyOp31
 70
     1
102
RTVSPropertyOp32
 70
     1
102
RTVSPropertyOp33
 70
     1
102
RTVSPropertyOp34
 70
     1
102
RTVSPropertyOp35
 70
     1
102
RTVSPropertyOp36
 70
     1
102
RTVSPropertyOp37
 70
     1
102
RTVSPropertyOp38
 70
     1
102
RTVSPropertyOp39
 70
     1
102
RTVSPropertyOp40
 70
     1
102
RTVSPropertyOp41
 70
     1
102
RTVSPropertyOp42
 70
     1
102
RTVSPropertyOp43
 70
     1
102
RTVSPropertyOp44
 70
     1
102
RTVSPropertyOp45
 70
     1
102
RTVSPropertyOp46
 70
     1
102
RTVSPropertyOp47
 70
     1
102
RTVSPropertyOp48
 70
     1
102
RTVSPropertyOp49
 70
     1
102
RTVSPropertyOp50
 70
     1
102
RTVSPropertyOp51
 70
     0
102
RTVSPropertyOp52
 70
     0
102
RTVSPropertyOp53
 70
     1
102
RTVSPropertyOp54
 70
     1
102
RTVSPropertyOp55
 70
     1
102
RTVSPropertyOp56
 70
     1
102
RTVSPropertyOp57
 70
     1
102
RTVSPropertyOp58
 70
     1
102
RTVSPropertyOp59
 70
     1
102
RTVSPropertyOp60
 70
     1
102
RTVSPropertyOp61
 70
     1
102
RTVSPropertyOp62
 70
     1
  0
XRECORD
  5
A598
102
{ACAD_REACTORS
330
A597
102
}
330
A597
100
AcDbXrecord
280
     1
102
RTVSPost2010Prop28
280
     0
102
RTVSPost2010PropOp28
 70
     1
102
RTVSPost2010Prop29
280
     1
102
RTVSPost2010PropOp29
 70
     1
102
RTVSPost2010Prop30
280
     1
102
RTVSPost2010PropOp30
 70
     1
102
RTVSPost2010Prop31
280
     0
102
RTVSPost2010PropOp31
 70
     1
102
RTVSPost2010Prop32
280
     0
102
RTVSPost2010PropOp32
 70
     1
102
RTVSPost2010Prop33
280
     0
102
RTVSPost2010PropOp33
 70
     1
102
RTVSPost2010Prop34
280
     0
102
RTVSPost2010PropOp34
 70
     1
102
RTVSPost2010Prop35
280
     0
102
RTVSPost2010PropOp35
 70
     1
102
RTVSPost2010Prop36
280
     0
102
RTVSPost2010PropOp36
 70
     1
102
RTVSPost2010Prop37
 90
       50
102
RTVSPost2010PropOp37
 70
     1
102
RTVSPost2010Prop38
140
0.0
102
RTVSPost2010PropOp38
 70
     1
102
RTVSPost2010Prop39
140
1.0
102
RTVSPost2010PropOp39
 70
     1
102
RTVSPost2010Prop40
 90
        0
102
RTVSPost2010PropOp40
 70
     1
102
RTVSPost2010Prop41ColorIndex
 90
       18
102
RTVSPost2010Prop41ColorRGB
 90
        0
102
RTVSPost2010PropOp41
 70
     1
102
RTVSPost2010Prop42
 90
       50
102
RTVSPost2010PropOp42
 70
     1
102
RTVSPost2010Prop43
 90
        3
102
RTVSPost2010PropOp43
 70
     1
102
RTVSPost2010Prop44ColorIndex
 90
        5
102
RTVSPost2010Prop44ColorRGB
 90
      255
102
RTVSPost2010PropOp44
 70
     1
102
RTVSPost2010Prop45
280
     0
102
RTVSPost2010PropOp45
 70
     1
102
RTVSPost2010Prop46
 90
       50
102
RTVSPost2010PropOp46
 70
     1
102
RTVSPost2010Prop47
 90
       50
102
RTVSPost2010PropOp47
 70
     1
102
RTVSPost2010Prop48
 90
       50
102
RTVSPost2010PropOp48
 70
     1
102
RTVSPost2010Prop49
280
     0
102
RTVSPost2010PropOp49
 70
     1
102
RTVSPost2010Prop50
 90
       50
102
RTVSPost2010PropOp50
 70
     1
102
RTVSPost2010Prop51ColorIndex
 90
      256
102
RTVSPost2010Prop51ColorRGB
 90
-16777216
102
RTVSPost2010PropOp51
 70
     0
102
RTVSPost2010Prop52
140
1.0
102
RTVSPost2010PropOp52
 70
     0
102
RTVSPost2010Prop53
 90
        2
102
RTVSPost2010PropOp53
 70
     1
102
RTVSPost2010Prop54
  1
strokes_ogs.tif
102
RTVSPost2010PropOp54
 70
     1
102
RTVSPost2010Prop55
280
     0
102
RTVSPost2010PropOp55
 70
     1
102
RTVSPost2010Prop56
140
1.0
102
RTVSPost2010PropOp56
 70
     1
102
RTVSPost2010Prop57
140
1.0
102
RTVSPost2010PropOp57
 70
     1
102
RTVSPropertyOp0
 70
     1
102
RTVSPropertyOp1
 70
     1
102
RTVSPropertyOp2
 70
     1
102
RTVSPropertyOp3
 70
     1
102
RTVSPropertyOp4
 70
     1
102
RTVSPropertyOp5
 70
     1
102
RTVSPropertyOp6
 70
     1
102
RTVSPropertyOp7
 70
     1
102
RTVSPropertyOp8
 70
     1
102
RTVSPropertyOp9
 70
     1
102
RTVSPropertyOp10
 70
     1
102
RTVSPropertyOp11
 70
     1
102
RTVSPropertyOp12
 70
     1
102
RTVSPropertyOp13
 70
     1
102
RTVSPropertyOp14
 70
     1
102
RTVSPropertyOp15
 70
     1
102
RTVSPropertyOp16
 70
     1
102
RTVSPropertyOp17
 70
     1
102
RTVSPropertyOp18
 70
     1
102
RTVSPropertyOp19
 70
     1
102
RTVSPropertyOp20
 70
     1
102
RTVSPropertyOp21
 70
     1
102
RTVSPropertyOp22
 70
     1
102
RTVSPropertyOp23
 70
     1
102
RTVSPropertyOp24
 70
     1
102
RTVSPropertyOp25
 70
     1
102
RTVSPropertyOp26
 70
     1
102
RTVSPropertyOp27
 70
     1
102
RTVSPropertyOp28
 70
     1
102
RTVSPropertyOp29
 70
     1
102
RTVSPropertyOp30
 70
     1
102
RTVSPropertyOp31
 70
     1
102
RTVSPropertyOp32
 70
     1
102
RTVSPropertyOp33
 70
     1
102
RTVSPropertyOp34
 70
     1
102
RTVSPropertyOp35
 70
     1
102
RTVSPropertyOp36
 70
     1
102
RTVSPropertyOp37
 70
     1
102
RTVSPropertyOp38
 70
     1
102
RTVSPropertyOp39
 70
     1
102
RTVSPropertyOp40
 70
     1
102
RTVSPropertyOp41
 70
     1
102
RTVSPropertyOp42
 70
     1
102
RTVSPropertyOp43
 70
     1
102
RTVSPropertyOp44
 70
     1
102
RTVSPropertyOp45
 70
     1
102
RTVSPropertyOp46
 70
     1
102
RTVSPropertyOp47
 70
     1
102
RTVSPropertyOp48
 70
     1
102
RTVSPropertyOp49
 70
     1
102
RTVSPropertyOp50
 70
     1
102
RTVSPropertyOp51
 70
     0
102
RTVSPropertyOp52
 70
     0
102
RTVSPropertyOp53
 70
     1
102
RTVSPropertyOp54
 70
     1
102
RTVSPropertyOp55
 70
     1
102
RTVSPropertyOp56
 70
     1
102
RTVSPropertyOp57
 70
     1
102
RTVSPropertyOp58
 70
     1
102
RTVSPropertyOp59
 70
     1
102
RTVSPropertyOp60
 70
     1
102
RTVSPropertyOp61
 70
     1
102
RTVSPropertyOp62
 70
     1
  0
XRECORD
  5
A59C
102
{ACAD_REACTORS
330
A59B
102
}
330
A59B
100
AcDbXrecord
280
     1
102
RTVSPost2010Prop28
280
     0
102
RTVSPost2010PropOp28
 70
     1
102
RTVSPost2010Prop29
280
     1
102
RTVSPost2010PropOp29
 70
     1
102
RTVSPost2010Prop30
280
     1
102
RTVSPost2010PropOp30
 70
     1
102
RTVSPost2010Prop31
280
     0
102
RTVSPost2010PropOp31
 70
     1
102
RTVSPost2010Prop32
280
     0
102
RTVSPost2010PropOp32
 70
     1
102
RTVSPost2010Prop33
280
     0
102
RTVSPost2010PropOp33
 70
     1
102
RTVSPost2010Prop34
280
     0
102
RTVSPost2010PropOp34
 70
     1
102
RTVSPost2010Prop35
280
     0
102
RTVSPost2010PropOp35
 70
     1
102
RTVSPost2010Prop36
280
     0
102
RTVSPost2010PropOp36
 70
     1
102
RTVSPost2010Prop37
 90
       50
102
RTVSPost2010PropOp37
 70
     1
102
RTVSPost2010Prop38
140
0.0
102
RTVSPost2010PropOp38
 70
     1
102
RTVSPost2010Prop39
140
1.0
102
RTVSPost2010PropOp39
 70
     1
102
RTVSPost2010Prop40
 90
        0
102
RTVSPost2010PropOp40
 70
     1
102
RTVSPost2010Prop41ColorIndex
 90
       18
102
RTVSPost2010Prop41ColorRGB
 90
        0
102
RTVSPost2010PropOp41
 70
     1
102
RTVSPost2010Prop42
 90
       50
102
RTVSPost2010PropOp42
 70
     1
102
RTVSPost2010Prop43
 90
        3
102
RTVSPost2010PropOp43
 70
     1
102
RTVSPost2010Prop44ColorIndex
 90
        5
102
RTVSPost2010Prop44ColorRGB
 90
      255
102
RTVSPost2010PropOp44
 70
     1
102
RTVSPost2010Prop45
280
     0
102
RTVSPost2010PropOp45
 70
     1
102
RTVSPost2010Prop46
 90
       50
102
RTVSPost2010PropOp46
 70
     1
102
RTVSPost2010Prop47
 90
       50
102
RTVSPost2010PropOp47
 70
     1
102
RTVSPost2010Prop48
 90
       50
102
RTVSPost2010PropOp48
 70
     1
102
RTVSPost2010Prop49
280
     0
102
RTVSPost2010PropOp49
 70
     1
102
RTVSPost2010Prop50
 90
       50
102
RTVSPost2010PropOp50
 70
     1
102
RTVSPost2010Prop51ColorIndex
 90
      256
102
RTVSPost2010Prop51ColorRGB
 90
-16777216
102
RTVSPost2010PropOp51
 70
     0
102
RTVSPost2010Prop52
140
1.0
102
RTVSPost2010PropOp52
 70
     0
102
RTVSPost2010Prop53
 90
        2
102
RTVSPost2010PropOp53
 70
     1
102
RTVSPost2010Prop54
  1
strokes_ogs.tif
102
RTVSPost2010PropOp54
 70
     1
102
RTVSPost2010Prop55
280
     0
102
RTVSPost2010PropOp55
 70
     1
102
RTVSPost2010Prop56
140
1.0
102
RTVSPost2010PropOp56
 70
     1
102
RTVSPost2010Prop57
140
1.0
102
RTVSPost2010PropOp57
 70
     1
102
RTVSPropertyOp0
 70
     1
102
RTVSPropertyOp1
 70
     1
102
RTVSPropertyOp2
 70
     1
102
RTVSPropertyOp3
 70
     1
102
RTVSPropertyOp4
 70
     1
102
RTVSPropertyOp5
 70
     1
102
RTVSPropertyOp6
 70
     1
102
RTVSPropertyOp7
 70
     1
102
RTVSPropertyOp8
 70
     1
102
RTVSPropertyOp9
 70
     1
102
RTVSPropertyOp10
 70
     1
102
RTVSPropertyOp11
 70
     1
102
RTVSPropertyOp12
 70
     1
102
RTVSPropertyOp13
 70
     1
102
RTVSPropertyOp14
 70
     1
102
RTVSPropertyOp15
 70
     1
102
RTVSPropertyOp16
 70
     1
102
RTVSPropertyOp17
 70
     1
102
RTVSPropertyOp18
 70
     1
102
RTVSPropertyOp19
 70
     1
102
RTVSPropertyOp20
 70
     1
102
RTVSPropertyOp21
 70
     1
102
RTVSPropertyOp22
 70
     1
102
RTVSPropertyOp23
 70
     1
102
RTVSPropertyOp24
 70
     1
102
RTVSPropertyOp25
 70
     1
102
RTVSPropertyOp26
 70
     1
102
RTVSPropertyOp27
 70
     1
102
RTVSPropertyOp28
 70
     1
102
RTVSPropertyOp29
 70
     1
102
RTVSPropertyOp30
 70
     1
102
RTVSPropertyOp31
 70
     1
102
RTVSPropertyOp32
 70
     1
102
RTVSPropertyOp33
 70
     1
102
RTVSPropertyOp34
 70
     1
102
RTVSPropertyOp35
 70
     1
102
RTVSPropertyOp36
 70
     1
102
RTVSPropertyOp37
 70
     1
102
RTVSPropertyOp38
 70
     1
102
RTVSPropertyOp39
 70
     1
102
RTVSPropertyOp40
 70
     1
102
RTVSPropertyOp41
 70
     1
102
RTVSPropertyOp42
 70
     1
102
RTVSPropertyOp43
 70
     1
102
RTVSPropertyOp44
 70
     1
102
RTVSPropertyOp45
 70
     1
102
RTVSPropertyOp46
 70
     1
102
RTVSPropertyOp47
 70
     1
102
RTVSPropertyOp48
 70
     1
102
RTVSPropertyOp49
 70
     1
102
RTVSPropertyOp50
 70
     1
102
RTVSPropertyOp51
 70
     0
102
RTVSPropertyOp52
 70
     0
102
RTVSPropertyOp53
 70
     1
102
RTVSPropertyOp54
 70
     1
102
RTVSPropertyOp55
 70
     1
102
RTVSPropertyOp56
 70
     1
102
RTVSPropertyOp57
 70
     1
102
RTVSPropertyOp58
 70
     1
102
RTVSPropertyOp59
 70
     1
102
RTVSPropertyOp60
 70
     1
102
RTVSPropertyOp61
 70
     1
102
RTVSPropertyOp62
 70
     1
  0
XRECORD
  5
A5B6
102
{ACAD_REACTORS
330
A5B5
102
}
330
A5B5
100
AcDbXrecord
280
     1
102
RTVSPost2010Prop28
280
     0
102
RTVSPost2010PropOp28
 70
     1
102
RTVSPost2010Prop29
280
     1
102
RTVSPost2010PropOp29
 70
     1
102
RTVSPost2010Prop30
280
     1
102
RTVSPost2010PropOp30
 70
     1
102
RTVSPost2010Prop31
280
     0
102
RTVSPost2010PropOp31
 70
     1
102
RTVSPost2010Prop32
280
     0
102
RTVSPost2010PropOp32
 70
     1
102
RTVSPost2010Prop33
280
     0
102
RTVSPost2010PropOp33
 70
     1
102
RTVSPost2010Prop34
280
     0
102
RTVSPost2010PropOp34
 70
     1
102
RTVSPost2010Prop35
280
     0
102
RTVSPost2010PropOp35
 70
     1
102
RTVSPost2010Prop36
280
     0
102
RTVSPost2010PropOp36
 70
     1
102
RTVSPost2010Prop37
 90
       50
102
RTVSPost2010PropOp37
 70
     0
102
RTVSPost2010Prop38
140
0.0
102
RTVSPost2010PropOp38
 70
     0
102
RTVSPost2010Prop39
140
1.0
102
RTVSPost2010PropOp39
 70
     0
102
RTVSPost2010Prop40
 90
        0
102
RTVSPost2010PropOp40
 70
     0
102
RTVSPost2010Prop41ColorIndex
 90
       18
102
RTVSPost2010Prop41ColorRGB
 90
        0
102
RTVSPost2010PropOp41
 70
     0
102
RTVSPost2010Prop42
 90
       50
102
RTVSPost2010PropOp42
 70
     0
102
RTVSPost2010Prop43
 90
        3
102
RTVSPost2010PropOp43
 70
     0
102
RTVSPost2010Prop44ColorIndex
 90
        5
102
RTVSPost2010Prop44ColorRGB
 90
      255
102
RTVSPost2010PropOp44
 70
     0
102
RTVSPost2010Prop45
280
     0
102
RTVSPost2010PropOp45
 70
     1
102
RTVSPost2010Prop46
 90
       50
102
RTVSPost2010PropOp46
 70
     0
102
RTVSPost2010Prop47
 90
       50
102
RTVSPost2010PropOp47
 70
     0
102
RTVSPost2010Prop48
 90
       50
102
RTVSPost2010PropOp48
 70
     0
102
RTVSPost2010Prop49
280
     0
102
RTVSPost2010PropOp49
 70
     1
102
RTVSPost2010Prop50
 90
       50
102
RTVSPost2010PropOp50
 70
     0
102
RTVSPost2010Prop51ColorIndex
 90
      256
102
RTVSPost2010Prop51ColorRGB
 90
-16777216
102
RTVSPost2010PropOp51
 70
     0
102
RTVSPost2010Prop52
140
1.0
102
RTVSPost2010PropOp52
 70
     0
102
RTVSPost2010Prop53
 90
        2
102
RTVSPost2010PropOp53
 70
     0
102
RTVSPost2010Prop54
  1
strokes_ogs.tif
102
RTVSPost2010PropOp54
 70
     0
102
RTVSPost2010Prop55
280
     0
102
RTVSPost2010PropOp55
 70
     1
102
RTVSPost2010Prop56
140
1.0
102
RTVSPost2010PropOp56
 70
     0
102
RTVSPost2010Prop57
140
1.0
102
RTVSPost2010PropOp57
 70
     0
102
RTVSPropertyOp0
 70
     0
102
RTVSPropertyOp1
 70
     0
102
RTVSPropertyOp2
 70
     0
102
RTVSPropertyOp3
 70
     0
102
RTVSPropertyOp4
 70
     0
102
RTVSPropertyOp5
 70
     0
102
RTVSPropertyOp6
 70
     0
102
RTVSPropertyOp7
 70
     0
102
RTVSPropertyOp8
 70
     0
102
RTVSPropertyOp9
 70
     0
102
RTVSPropertyOp10
 70
     0
102
RTVSPropertyOp11
 70
     0
102
RTVSPropertyOp12
 70
     0
102
RTVSPropertyOp13
 70
     0
102
RTVSPropertyOp14
 70
     2
102
RTVSPropertyOp15
 70
     0
102
RTVSPropertyOp16
 70
     0
102
RTVSPropertyOp17
 70
     0
102
RTVSPropertyOp18
 70
     0
102
RTVSPropertyOp19
 70
     0
102
RTVSPropertyOp20
 70
     0
102
RTVSPropertyOp21
 70
     0
102
RTVSPropertyOp22
 70
     0
102
RTVSPropertyOp23
 70
     0
102
RTVSPropertyOp24
 70
     0
102
RTVSPropertyOp25
 70
     0
102
RTVSPropertyOp26
 70
     0
102
RTVSPropertyOp27
 70
     0
102
RTVSPropertyOp28
 70
     1
102
RTVSPropertyOp29
 70
     1
102
RTVSPropertyOp30
 70
     1
102
RTVSPropertyOp31
 70
     1
102
RTVSPropertyOp32
 70
     1
102
RTVSPropertyOp33
 70
     1
102
RTVSPropertyOp34
 70
     1
102
RTVSPropertyOp35
 70
     1
102
RTVSPropertyOp36
 70
     1
102
RTVSPropertyOp37
 70
     0
102
RTVSPropertyOp38
 70
     0
102
RTVSPropertyOp39
 70
     0
102
RTVSPropertyOp40
 70
     0
102
RTVSPropertyOp41
 70
     0
102
RTVSPropertyOp42
 70
     0
102
RTVSPropertyOp43
 70
     0
102
RTVSPropertyOp44
 70
     0
102
RTVSPropertyOp45
 70
     1
102
RTVSPropertyOp46
 70
     0
102
RTVSPropertyOp47
 70
     0
102
RTVSPropertyOp48
 70
     0
102
RTVSPropertyOp49
 70
     1
102
RTVSPropertyOp50
 70
     0
102
RTVSPropertyOp51
 70
     0
102
RTVSPropertyOp52
 70
     0
102
RTVSPropertyOp53
 70
     0
102
RTVSPropertyOp54
 70
     0
102
RTVSPropertyOp55
 70
     1
102
RTVSPropertyOp56
 70
     0
102
RTVSPropertyOp57
 70
     0
102
RTVSPropertyOp58
 70
     0
102
RTVSPropertyOp59
 70
     0
102
RTVSPropertyOp60
 70
     0
102
RTVSPropertyOp61
 70
     0
102
RTVSPropertyOp62
 70
     0
  0
XRECORD
  5
A5A4
102
{ACAD_REACTORS
330
A5A3
102
}
330
A5A3
100
AcDbXrecord
280
     1
102
RTVSPost2010Prop28
280
     0
102
RTVSPost2010PropOp28
 70
     1
102
RTVSPost2010Prop29
280
     1
102
RTVSPost2010PropOp29
 70
     1
102
RTVSPost2010Prop30
280
     1
102
RTVSPost2010PropOp30
 70
     1
102
RTVSPost2010Prop31
280
     0
102
RTVSPost2010PropOp31
 70
     1
102
RTVSPost2010Prop32
280
     0
102
RTVSPost2010PropOp32
 70
     1
102
RTVSPost2010Prop33
280
     0
102
RTVSPost2010PropOp33
 70
     1
102
RTVSPost2010Prop34
280
     0
102
RTVSPost2010PropOp34
 70
     1
102
RTVSPost2010Prop35
280
     0
102
RTVSPost2010PropOp35
 70
     1
102
RTVSPost2010Prop36
280
     0
102
RTVSPost2010PropOp36
 70
     1
102
RTVSPost2010Prop37
 90
       50
102
RTVSPost2010PropOp37
 70
     1
102
RTVSPost2010Prop38
140
0.0
102
RTVSPost2010PropOp38
 70
     1
102
RTVSPost2010Prop39
140
1.0
102
RTVSPost2010PropOp39
 70
     1
102
RTVSPost2010Prop40
 90
        0
102
RTVSPost2010PropOp40
 70
     1
102
RTVSPost2010Prop41ColorIndex
 90
       18
102
RTVSPost2010Prop41ColorRGB
 90
        0
102
RTVSPost2010PropOp41
 70
     1
102
RTVSPost2010Prop42
 90
       50
102
RTVSPost2010PropOp42
 70
     1
102
RTVSPost2010Prop43
 90
        3
102
RTVSPost2010PropOp43
 70
     1
102
RTVSPost2010Prop44ColorIndex
 90
        5
102
RTVSPost2010Prop44ColorRGB
 90
      255
102
RTVSPost2010PropOp44
 70
     1
102
RTVSPost2010Prop45
280
     0
102
RTVSPost2010PropOp45
 70
     1
102
RTVSPost2010Prop46
 90
       50
102
RTVSPost2010PropOp46
 70
     1
102
RTVSPost2010Prop47
 90
       50
102
RTVSPost2010PropOp47
 70
     1
102
RTVSPost2010Prop48
 90
       50
102
RTVSPost2010PropOp48
 70
     1
102
RTVSPost2010Prop49
280
     0
102
RTVSPost2010PropOp49
 70
     1
102
RTVSPost2010Prop50
 90
       50
102
RTVSPost2010PropOp50
 70
     1
102
RTVSPost2010Prop51ColorIndex
 90
      256
102
RTVSPost2010Prop51ColorRGB
 90
-16777216
102
RTVSPost2010PropOp51
 70
     0
102
RTVSPost2010Prop52
140
1.0
102
RTVSPost2010PropOp52
 70
     0
102
RTVSPost2010Prop53
 90
        2
102
RTVSPost2010PropOp53
 70
     1
102
RTVSPost2010Prop54
  1
strokes_ogs.tif
102
RTVSPost2010PropOp54
 70
     1
102
RTVSPost2010Prop55
280
     0
102
RTVSPost2010PropOp55
 70
     1
102
RTVSPost2010Prop56
140
1.0
102
RTVSPost2010PropOp56
 70
     1
102
RTVSPost2010Prop57
140
1.0
102
RTVSPost2010PropOp57
 70
     1
102
RTVSPropertyOp0
 70
     1
102
RTVSPropertyOp1
 70
     1
102
RTVSPropertyOp2
 70
     1
102
RTVSPropertyOp3
 70
     1
102
RTVSPropertyOp4
 70
     1
102
RTVSPropertyOp5
 70
     1
102
RTVSPropertyOp6
 70
     1
102
RTVSPropertyOp7
 70
     1
102
RTVSPropertyOp8
 70
     1
102
RTVSPropertyOp9
 70
     1
102
RTVSPropertyOp10
 70
     1
102
RTVSPropertyOp11
 70
     1
102
RTVSPropertyOp12
 70
     1
102
RTVSPropertyOp13
 70
     1
102
RTVSPropertyOp14
 70
     1
102
RTVSPropertyOp15
 70
     1
102
RTVSPropertyOp16
 70
     1
102
RTVSPropertyOp17
 70
     1
102
RTVSPropertyOp18
 70
     1
102
RTVSPropertyOp19
 70
     1
102
RTVSPropertyOp20
 70
     1
102
RTVSPropertyOp21
 70
     1
102
RTVSPropertyOp22
 70
     1
102
RTVSPropertyOp23
 70
     1
102
RTVSPropertyOp24
 70
     1
102
RTVSPropertyOp25
 70
     1
102
RTVSPropertyOp26
 70
     1
102
RTVSPropertyOp27
 70
     1
102
RTVSPropertyOp28
 70
     1
102
RTVSPropertyOp29
 70
     1
102
RTVSPropertyOp30
 70
     1
102
RTVSPropertyOp31
 70
     1
102
RTVSPropertyOp32
 70
     1
102
RTVSPropertyOp33
 70
     1
102
RTVSPropertyOp34
 70
     1
102
RTVSPropertyOp35
 70
     1
102
RTVSPropertyOp36
 70
     1
102
RTVSPropertyOp37
 70
     1
102
RTVSPropertyOp38
 70
     1
102
RTVSPropertyOp39
 70
     1
102
RTVSPropertyOp40
 70
     1
102
RTVSPropertyOp41
 70
     1
102
RTVSPropertyOp42
 70
     1
102
RTVSPropertyOp43
 70
     1
102
RTVSPropertyOp44
 70
     1
102
RTVSPropertyOp45
 70
     1
102
RTVSPropertyOp46
 70
     1
102
RTVSPropertyOp47
 70
     1
102
RTVSPropertyOp48
 70
     1
102
RTVSPropertyOp49
 70
     1
102
RTVSPropertyOp50
 70
     1
102
RTVSPropertyOp51
 70
     0
102
RTVSPropertyOp52
 70
     0
102
RTVSPropertyOp53
 70
     1
102
RTVSPropertyOp54
 70
     1
102
RTVSPropertyOp55
 70
     1
102
RTVSPropertyOp56
 70
     1
102
RTVSPropertyOp57
 70
     1
102
RTVSPropertyOp58
 70
     1
102
RTVSPropertyOp59
 70
     1
102
RTVSPropertyOp60
 70
     1
102
RTVSPropertyOp61
 70
     1
102
RTVSPropertyOp62
 70
     1
  0
XRECORD
  5
A588
102
{ACAD_REACTORS
330
A587
102
}
330
A587
100
AcDbXrecord
280
     1
102
RTVSPost2010Prop28
280
     0
102
RTVSPost2010PropOp28
 70
     1
102
RTVSPost2010Prop29
280
     1
102
RTVSPost2010PropOp29
 70
     1
102
RTVSPost2010Prop30
280
     1
102
RTVSPost2010PropOp30
 70
     1
102
RTVSPost2010Prop31
280
     0
102
RTVSPost2010PropOp31
 70
     1
102
RTVSPost2010Prop32
280
     0
102
RTVSPost2010PropOp32
 70
     1
102
RTVSPost2010Prop33
280
     0
102
RTVSPost2010PropOp33
 70
     1
102
RTVSPost2010Prop34
280
     0
102
RTVSPost2010PropOp34
 70
     1
102
RTVSPost2010Prop35
280
     0
102
RTVSPost2010PropOp35
 70
     1
102
RTVSPost2010Prop36
280
     0
102
RTVSPost2010PropOp36
 70
     1
102
RTVSPost2010Prop37
 90
       50
102
RTVSPost2010PropOp37
 70
     1
102
RTVSPost2010Prop38
140
0.0
102
RTVSPost2010PropOp38
 70
     1
102
RTVSPost2010Prop39
140
1.0
102
RTVSPost2010PropOp39
 70
     1
102
RTVSPost2010Prop40
 90
        0
102
RTVSPost2010PropOp40
 70
     1
102
RTVSPost2010Prop41ColorIndex
 90
       18
102
RTVSPost2010Prop41ColorRGB
 90
        0
102
RTVSPost2010PropOp41
 70
     1
102
RTVSPost2010Prop42
 90
       50
102
RTVSPost2010PropOp42
 70
     1
102
RTVSPost2010Prop43
 90
        3
102
RTVSPost2010PropOp43
 70
     1
102
RTVSPost2010Prop44ColorIndex
 90
        5
102
RTVSPost2010Prop44ColorRGB
 90
      255
102
RTVSPost2010PropOp44
 70
     1
102
RTVSPost2010Prop45
280
     0
102
RTVSPost2010PropOp45
 70
     1
102
RTVSPost2010Prop46
 90
       50
102
RTVSPost2010PropOp46
 70
     1
102
RTVSPost2010Prop47
 90
       50
102
RTVSPost2010PropOp47
 70
     1
102
RTVSPost2010Prop48
 90
       50
102
RTVSPost2010PropOp48
 70
     1
102
RTVSPost2010Prop49
280
     0
102
RTVSPost2010PropOp49
 70
     1
102
RTVSPost2010Prop50
 90
       50
102
RTVSPost2010PropOp50
 70
     1
102
RTVSPost2010Prop51ColorIndex
 90
      256
102
RTVSPost2010Prop51ColorRGB
 90
-16777216
102
RTVSPost2010PropOp51
 70
     0
102
RTVSPost2010Prop52
140
1.0
102
RTVSPost2010PropOp52
 70
     0
102
RTVSPost2010Prop53
 90
        2
102
RTVSPost2010PropOp53
 70
     1
102
RTVSPost2010Prop54
  1
strokes_ogs.tif
102
RTVSPost2010PropOp54
 70
     1
102
RTVSPost2010Prop55
280
     0
102
RTVSPost2010PropOp55
 70
     1
102
RTVSPost2010Prop56
140
1.0
102
RTVSPost2010PropOp56
 70
     1
102
RTVSPost2010Prop57
140
1.0
102
RTVSPost2010PropOp57
 70
     1
102
RTVSPropertyOp0
 70
     1
102
RTVSPropertyOp1
 70
     1
102
RTVSPropertyOp2
 70
     1
102
RTVSPropertyOp3
 70
     1
102
RTVSPropertyOp4
 70
     1
102
RTVSPropertyOp5
 70
     1
102
RTVSPropertyOp6
 70
     1
102
RTVSPropertyOp7
 70
     1
102
RTVSPropertyOp8
 70
     1
102
RTVSPropertyOp9
 70
     1
102
RTVSPropertyOp10
 70
     1
102
RTVSPropertyOp11
 70
     1
102
RTVSPropertyOp12
 70
     1
102
RTVSPropertyOp13
 70
     1
102
RTVSPropertyOp14
 70
     1
102
RTVSPropertyOp15
 70
     1
102
RTVSPropertyOp16
 70
     1
102
RTVSPropertyOp17
 70
     1
102
RTVSPropertyOp18
 70
     1
102
RTVSPropertyOp19
 70
     1
102
RTVSPropertyOp20
 70
     1
102
RTVSPropertyOp21
 70
     1
102
RTVSPropertyOp22
 70
     1
102
RTVSPropertyOp23
 70
     1
102
RTVSPropertyOp24
 70
     1
102
RTVSPropertyOp25
 70
     1
102
RTVSPropertyOp26
 70
     1
102
RTVSPropertyOp27
 70
     1
102
RTVSPropertyOp28
 70
     1
102
RTVSPropertyOp29
 70
     1
102
RTVSPropertyOp30
 70
     1
102
RTVSPropertyOp31
 70
     1
102
RTVSPropertyOp32
 70
     1
102
RTVSPropertyOp33
 70
     1
102
RTVSPropertyOp34
 70
     1
102
RTVSPropertyOp35
 70
     1
102
RTVSPropertyOp36
 70
     1
102
RTVSPropertyOp37
 70
     1
102
RTVSPropertyOp38
 70
     1
102
RTVSPropertyOp39
 70
     1
102
RTVSPropertyOp40
 70
     1
102
RTVSPropertyOp41
 70
     1
102
RTVSPropertyOp42
 70
     1
102
RTVSPropertyOp43
 70
     1
102
RTVSPropertyOp44
 70
     1
102
RTVSPropertyOp45
 70
     1
102
RTVSPropertyOp46
 70
     1
102
RTVSPropertyOp47
 70
     1
102
RTVSPropertyOp48
 70
     1
102
RTVSPropertyOp49
 70
     1
102
RTVSPropertyOp50
 70
     1
102
RTVSPropertyOp51
 70
     0
102
RTVSPropertyOp52
 70
     0
102
RTVSPropertyOp53
 70
     1
102
RTVSPropertyOp54
 70
     1
102
RTVSPropertyOp55
 70
     1
102
RTVSPropertyOp56
 70
     1
102
RTVSPropertyOp57
 70
     1
102
RTVSPropertyOp58
 70
     1
102
RTVSPropertyOp59
 70
     1
102
RTVSPropertyOp60
 70
     1
102
RTVSPropertyOp61
 70
     1
102
RTVSPropertyOp62
 70
     1
  0
XRECORD
  5
A58A
102
{ACAD_REACTORS
330
A589
102
}
330
A589
100
AcDbXrecord
280
     1
102
RTVSPost2010Prop28
280
     0
102
RTVSPost2010PropOp28
 70
     1
102
RTVSPost2010Prop29
280
     1
102
RTVSPost2010PropOp29
 70
     1
102
RTVSPost2010Prop30
280
     1
102
RTVSPost2010PropOp30
 70
     1
102
RTVSPost2010Prop31
280
     0
102
RTVSPost2010PropOp31
 70
     1
102
RTVSPost2010Prop32
280
     0
102
RTVSPost2010PropOp32
 70
     1
102
RTVSPost2010Prop33
280
     0
102
RTVSPost2010PropOp33
 70
     1
102
RTVSPost2010Prop34
280
     0
102
RTVSPost2010PropOp34
 70
     1
102
RTVSPost2010Prop35
280
     0
102
RTVSPost2010PropOp35
 70
     1
102
RTVSPost2010Prop36
280
     0
102
RTVSPost2010PropOp36
 70
     1
102
RTVSPost2010Prop37
 90
       50
102
RTVSPost2010PropOp37
 70
     1
102
RTVSPost2010Prop38
140
0.0
102
RTVSPost2010PropOp38
 70
     1
102
RTVSPost2010Prop39
140
1.0
102
RTVSPost2010PropOp39
 70
     1
102
RTVSPost2010Prop40
 90
        0
102
RTVSPost2010PropOp40
 70
     1
102
RTVSPost2010Prop41ColorIndex
 90
       18
102
RTVSPost2010Prop41ColorRGB
 90
        0
102
RTVSPost2010PropOp41
 70
     1
102
RTVSPost2010Prop42
 90
       50
102
RTVSPost2010PropOp42
 70
     1
102
RTVSPost2010Prop43
 90
        3
102
RTVSPost2010PropOp43
 70
     1
102
RTVSPost2010Prop44ColorIndex
 90
        5
102
RTVSPost2010Prop44ColorRGB
 90
      255
102
RTVSPost2010PropOp44
 70
     1
102
RTVSPost2010Prop45
280
     0
102
RTVSPost2010PropOp45
 70
     1
102
RTVSPost2010Prop46
 90
       50
102
RTVSPost2010PropOp46
 70
     1
102
RTVSPost2010Prop47
 90
       50
102
RTVSPost2010PropOp47
 70
     1
102
RTVSPost2010Prop48
 90
       50
102
RTVSPost2010PropOp48
 70
     1
102
RTVSPost2010Prop49
280
     0
102
RTVSPost2010PropOp49
 70
     1
102
RTVSPost2010Prop50
 90
       50
102
RTVSPost2010PropOp50
 70
     1
102
RTVSPost2010Prop51ColorIndex
 90
      256
102
RTVSPost2010Prop51ColorRGB
 90
-16777216
102
RTVSPost2010PropOp51
 70
     0
102
RTVSPost2010Prop52
140
1.0
102
RTVSPost2010PropOp52
 70
     0
102
RTVSPost2010Prop53
 90
        2
102
RTVSPost2010PropOp53
 70
     1
102
RTVSPost2010Prop54
  1
strokes_ogs.tif
102
RTVSPost2010PropOp54
 70
     1
102
RTVSPost2010Prop55
280
     0
102
RTVSPost2010PropOp55
 70
     1
102
RTVSPost2010Prop56
140
1.0
102
RTVSPost2010PropOp56
 70
     1
102
RTVSPost2010Prop57
140
1.0
102
RTVSPost2010PropOp57
 70
     1
102
RTVSPropertyOp0
 70
     1
102
RTVSPropertyOp1
 70
     1
102
RTVSPropertyOp2
 70
     1
102
RTVSPropertyOp3
 70
     1
102
RTVSPropertyOp4
 70
     1
102
RTVSPropertyOp5
 70
     1
102
RTVSPropertyOp6
 70
     1
102
RTVSPropertyOp7
 70
     1
102
RTVSPropertyOp8
 70
     1
102
RTVSPropertyOp9
 70
     1
102
RTVSPropertyOp10
 70
     1
102
RTVSPropertyOp11
 70
     1
102
RTVSPropertyOp12
 70
     1
102
RTVSPropertyOp13
 70
     1
102
RTVSPropertyOp14
 70
     1
102
RTVSPropertyOp15
 70
     1
102
RTVSPropertyOp16
 70
     1
102
RTVSPropertyOp17
 70
     1
102
RTVSPropertyOp18
 70
     1
102
RTVSPropertyOp19
 70
     1
102
RTVSPropertyOp20
 70
     1
102
RTVSPropertyOp21
 70
     1
102
RTVSPropertyOp22
 70
     1
102
RTVSPropertyOp23
 70
     1
102
RTVSPropertyOp24
 70
     1
102
RTVSPropertyOp25
 70
     1
102
RTVSPropertyOp26
 70
     1
102
RTVSPropertyOp27
 70
     1
102
RTVSPropertyOp28
 70
     1
102
RTVSPropertyOp29
 70
     1
102
RTVSPropertyOp30
 70
     1
102
RTVSPropertyOp31
 70
     1
102
RTVSPropertyOp32
 70
     1
102
RTVSPropertyOp33
 70
     1
102
RTVSPropertyOp34
 70
     1
102
RTVSPropertyOp35
 70
     1
102
RTVSPropertyOp36
 70
     1
102
RTVSPropertyOp37
 70
     1
102
RTVSPropertyOp38
 70
     1
102
RTVSPropertyOp39
 70
     1
102
RTVSPropertyOp40
 70
     1
102
RTVSPropertyOp41
 70
     1
102
RTVSPropertyOp42
 70
     1
102
RTVSPropertyOp43
 70
     1
102
RTVSPropertyOp44
 70
     1
102
RTVSPropertyOp45
 70
     1
102
RTVSPropertyOp46
 70
     1
102
RTVSPropertyOp47
 70
     1
102
RTVSPropertyOp48
 70
     1
102
RTVSPropertyOp49
 70
     1
102
RTVSPropertyOp50
 70
     1
102
RTVSPropertyOp51
 70
     0
102
RTVSPropertyOp52
 70
     0
102
RTVSPropertyOp53
 70
     1
102
RTVSPropertyOp54
 70
     1
102
RTVSPropertyOp55
 70
     1
102
RTVSPropertyOp56
 70
     1
102
RTVSPropertyOp57
 70
     1
102
RTVSPropertyOp58
 70
     1
102
RTVSPropertyOp59
 70
     1
102
RTVSPropertyOp60
 70
     1
102
RTVSPropertyOp61
 70
     1
102
RTVSPropertyOp62
 70
     1
  0
XRECORD
  5
A58C
102
{ACAD_REACTORS
330
A58B
102
}
330
A58B
100
AcDbXrecord
280
     1
102
RTVSPost2010Prop28
280
     0
102
RTVSPost2010PropOp28
 70
     1
102
RTVSPost2010Prop29
280
     1
102
RTVSPost2010PropOp29
 70
     1
102
RTVSPost2010Prop30
280
     1
102
RTVSPost2010PropOp30
 70
     1
102
RTVSPost2010Prop31
280
     0
102
RTVSPost2010PropOp31
 70
     1
102
RTVSPost2010Prop32
280
     0
102
RTVSPost2010PropOp32
 70
     1
102
RTVSPost2010Prop33
280
     0
102
RTVSPost2010PropOp33
 70
     1
102
RTVSPost2010Prop34
280
     0
102
RTVSPost2010PropOp34
 70
     1
102
RTVSPost2010Prop35
280
     0
102
RTVSPost2010PropOp35
 70
     1
102
RTVSPost2010Prop36
280
     0
102
RTVSPost2010PropOp36
 70
     1
102
RTVSPost2010Prop37
 90
       50
102
RTVSPost2010PropOp37
 70
     1
102
RTVSPost2010Prop38
140
0.0
102
RTVSPost2010PropOp38
 70
     1
102
RTVSPost2010Prop39
140
1.0
102
RTVSPost2010PropOp39
 70
     1
102
RTVSPost2010Prop40
 90
        0
102
RTVSPost2010PropOp40
 70
     1
102
RTVSPost2010Prop41ColorIndex
 90
       18
102
RTVSPost2010Prop41ColorRGB
 90
        0
102
RTVSPost2010PropOp41
 70
     1
102
RTVSPost2010Prop42
 90
       50
102
RTVSPost2010PropOp42
 70
     1
102
RTVSPost2010Prop43
 90
        3
102
RTVSPost2010PropOp43
 70
     1
102
RTVSPost2010Prop44ColorIndex
 90
        5
102
RTVSPost2010Prop44ColorRGB
 90
      255
102
RTVSPost2010PropOp44
 70
     1
102
RTVSPost2010Prop45
280
     0
102
RTVSPost2010PropOp45
 70
     1
102
RTVSPost2010Prop46
 90
       50
102
RTVSPost2010PropOp46
 70
     1
102
RTVSPost2010Prop47
 90
       50
102
RTVSPost2010PropOp47
 70
     1
102
RTVSPost2010Prop48
 90
       50
102
RTVSPost2010PropOp48
 70
     1
102
RTVSPost2010Prop49
280
     0
102
RTVSPost2010PropOp49
 70
     1
102
RTVSPost2010Prop50
 90
       50
102
RTVSPost2010PropOp50
 70
     1
102
RTVSPost2010Prop51ColorIndex
 90
      256
102
RTVSPost2010Prop51ColorRGB
 90
-16777216
102
RTVSPost2010PropOp51
 70
     0
102
RTVSPost2010Prop52
140
1.0
102
RTVSPost2010PropOp52
 70
     0
102
RTVSPost2010Prop53
 90
        2
102
RTVSPost2010PropOp53
 70
     1
102
RTVSPost2010Prop54
  1
strokes_ogs.tif
102
RTVSPost2010PropOp54
 70
     1
102
RTVSPost2010Prop55
280
     0
102
RTVSPost2010PropOp55
 70
     1
102
RTVSPost2010Prop56
140
1.0
102
RTVSPost2010PropOp56
 70
     1
102
RTVSPost2010Prop57
140
1.0
102
RTVSPost2010PropOp57
 70
     1
102
RTVSPropertyOp0
 70
     1
102
RTVSPropertyOp1
 70
     1
102
RTVSPropertyOp2
 70
     1
102
RTVSPropertyOp3
 70
     1
102
RTVSPropertyOp4
 70
     1
102
RTVSPropertyOp5
 70
     1
102
RTVSPropertyOp6
 70
     1
102
RTVSPropertyOp7
 70
     1
102
RTVSPropertyOp8
 70
     1
102
RTVSPropertyOp9
 70
     1
102
RTVSPropertyOp10
 70
     1
102
RTVSPropertyOp11
 70
     1
102
RTVSPropertyOp12
 70
     1
102
RTVSPropertyOp13
 70
     1
102
RTVSPropertyOp14
 70
     1
102
RTVSPropertyOp15
 70
     1
102
RTVSPropertyOp16
 70
     1
102
RTVSPropertyOp17
 70
     1
102
RTVSPropertyOp18
 70
     1
102
RTVSPropertyOp19
 70
     1
102
RTVSPropertyOp20
 70
     1
102
RTVSPropertyOp21
 70
     1
102
RTVSPropertyOp22
 70
     1
102
RTVSPropertyOp23
 70
     1
102
RTVSPropertyOp24
 70
     1
102
RTVSPropertyOp25
 70
     1
102
RTVSPropertyOp26
 70
     1
102
RTVSPropertyOp27
 70
     1
102
RTVSPropertyOp28
 70
     1
102
RTVSPropertyOp29
 70
     1
102
RTVSPropertyOp30
 70
     1
102
RTVSPropertyOp31
 70
     1
102
RTVSPropertyOp32
 70
     1
102
RTVSPropertyOp33
 70
     1
102
RTVSPropertyOp34
 70
     1
102
RTVSPropertyOp35
 70
     1
102
RTVSPropertyOp36
 70
     1
102
RTVSPropertyOp37
 70
     1
102
RTVSPropertyOp38
 70
     1
102
RTVSPropertyOp39
 70
     1
102
RTVSPropertyOp40
 70
     1
102
RTVSPropertyOp41
 70
     1
102
RTVSPropertyOp42
 70
     1
102
RTVSPropertyOp43
 70
     1
102
RTVSPropertyOp44
 70
     1
102
RTVSPropertyOp45
 70
     1
102
RTVSPropertyOp46
 70
     1
102
RTVSPropertyOp47
 70
     1
102
RTVSPropertyOp48
 70
     1
102
RTVSPropertyOp49
 70
     1
102
RTVSPropertyOp50
 70
     1
102
RTVSPropertyOp51
 70
     0
102
RTVSPropertyOp52
 70
     0
102
RTVSPropertyOp53
 70
     1
102
RTVSPropertyOp54
 70
     1
102
RTVSPropertyOp55
 70
     1
102
RTVSPropertyOp56
 70
     1
102
RTVSPropertyOp57
 70
     1
102
RTVSPropertyOp58
 70
     1
102
RTVSPropertyOp59
 70
     1
102
RTVSPropertyOp60
 70
     1
102
RTVSPropertyOp61
 70
     1
102
RTVSPropertyOp62
 70
     1
  0
XRECORD
  5
A58E
102
{ACAD_REACTORS
330
A58D
102
}
330
A58D
100
AcDbXrecord
280
     1
102
RTVSPost2010Prop28
280
     0
102
RTVSPost2010PropOp28
 70
     1
102
RTVSPost2010Prop29
280
     1
102
RTVSPost2010PropOp29
 70
     1
102
RTVSPost2010Prop30
280
     1
102
RTVSPost2010PropOp30
 70
     1
102
RTVSPost2010Prop31
280
     0
102
RTVSPost2010PropOp31
 70
     1
102
RTVSPost2010Prop32
280
     0
102
RTVSPost2010PropOp32
 70
     1
102
RTVSPost2010Prop33
280
     0
102
RTVSPost2010PropOp33
 70
     1
102
RTVSPost2010Prop34
280
     0
102
RTVSPost2010PropOp34
 70
     1
102
RTVSPost2010Prop35
280
     0
102
RTVSPost2010PropOp35
 70
     1
102
RTVSPost2010Prop36
280
     0
102
RTVSPost2010PropOp36
 70
     1
102
RTVSPost2010Prop37
 90
       50
102
RTVSPost2010PropOp37
 70
     1
102
RTVSPost2010Prop38
140
0.0
102
RTVSPost2010PropOp38
 70
     1
102
RTVSPost2010Prop39
140
1.0
102
RTVSPost2010PropOp39
 70
     1
102
RTVSPost2010Prop40
 90
        0
102
RTVSPost2010PropOp40
 70
     1
102
RTVSPost2010Prop41ColorIndex
 90
       18
102
RTVSPost2010Prop41ColorRGB
 90
        0
102
RTVSPost2010PropOp41
 70
     1
102
RTVSPost2010Prop42
 90
       50
102
RTVSPost2010PropOp42
 70
     1
102
RTVSPost2010Prop43
 90
        3
102
RTVSPost2010PropOp43
 70
     1
102
RTVSPost2010Prop44ColorIndex
 90
        5
102
RTVSPost2010Prop44ColorRGB
 90
      255
102
RTVSPost2010PropOp44
 70
     1
102
RTVSPost2010Prop45
280
     0
102
RTVSPost2010PropOp45
 70
     1
102
RTVSPost2010Prop46
 90
       50
102
RTVSPost2010PropOp46
 70
     1
102
RTVSPost2010Prop47
 90
       50
102
RTVSPost2010PropOp47
 70
     1
102
RTVSPost2010Prop48
 90
       50
102
RTVSPost2010PropOp48
 70
     1
102
RTVSPost2010Prop49
280
     0
102
RTVSPost2010PropOp49
 70
     1
102
RTVSPost2010Prop50
 90
       50
102
RTVSPost2010PropOp50
 70
     1
102
RTVSPost2010Prop51ColorIndex
 90
      256
102
RTVSPost2010Prop51ColorRGB
 90
-16777216
102
RTVSPost2010PropOp51
 70
     0
102
RTVSPost2010Prop52
140
1.0
102
RTVSPost2010PropOp52
 70
     0
102
RTVSPost2010Prop53
 90
        2
102
RTVSPost2010PropOp53
 70
     1
102
RTVSPost2010Prop54
  1
strokes_ogs.tif
102
RTVSPost2010PropOp54
 70
     1
102
RTVSPost2010Prop55
280
     0
102
RTVSPost2010PropOp55
 70
     1
102
RTVSPost2010Prop56
140
1.0
102
RTVSPost2010PropOp56
 70
     1
102
RTVSPost2010Prop57
140
1.0
102
RTVSPost2010PropOp57
 70
     1
102
RTVSPropertyOp0
 70
     1
102
RTVSPropertyOp1
 70
     1
102
RTVSPropertyOp2
 70
     1
102
RTVSPropertyOp3
 70
     1
102
RTVSPropertyOp4
 70
     1
102
RTVSPropertyOp5
 70
     1
102
RTVSPropertyOp6
 70
     1
102
RTVSPropertyOp7
 70
     1
102
RTVSPropertyOp8
 70
     1
102
RTVSPropertyOp9
 70
     1
102
RTVSPropertyOp10
 70
     1
102
RTVSPropertyOp11
 70
     1
102
RTVSPropertyOp12
 70
     1
102
RTVSPropertyOp13
 70
     1
102
RTVSPropertyOp14
 70
     1
102
RTVSPropertyOp15
 70
     1
102
RTVSPropertyOp16
 70
     1
102
RTVSPropertyOp17
 70
     1
102
RTVSPropertyOp18
 70
     1
102
RTVSPropertyOp19
 70
     1
102
RTVSPropertyOp20
 70
     1
102
RTVSPropertyOp21
 70
     1
102
RTVSPropertyOp22
 70
     1
102
RTVSPropertyOp23
 70
     1
102
RTVSPropertyOp24
 70
     1
102
RTVSPropertyOp25
 70
     1
102
RTVSPropertyOp26
 70
     1
102
RTVSPropertyOp27
 70
     1
102
RTVSPropertyOp28
 70
     1
102
RTVSPropertyOp29
 70
     1
102
RTVSPropertyOp30
 70
     1
102
RTVSPropertyOp31
 70
     1
102
RTVSPropertyOp32
 70
     1
102
RTVSPropertyOp33
 70
     1
102
RTVSPropertyOp34
 70
     1
102
RTVSPropertyOp35
 70
     1
102
RTVSPropertyOp36
 70
     1
102
RTVSPropertyOp37
 70
     1
102
RTVSPropertyOp38
 70
     1
102
RTVSPropertyOp39
 70
     1
102
RTVSPropertyOp40
 70
     1
102
RTVSPropertyOp41
 70
     1
102
RTVSPropertyOp42
 70
     1
102
RTVSPropertyOp43
 70
     1
102
RTVSPropertyOp44
 70
     1
102
RTVSPropertyOp45
 70
     1
102
RTVSPropertyOp46
 70
     1
102
RTVSPropertyOp47
 70
     1
102
RTVSPropertyOp48
 70
     1
102
RTVSPropertyOp49
 70
     1
102
RTVSPropertyOp50
 70
     1
102
RTVSPropertyOp51
 70
     0
102
RTVSPropertyOp52
 70
     0
102
RTVSPropertyOp53
 70
     1
102
RTVSPropertyOp54
 70
     1
102
RTVSPropertyOp55
 70
     1
102
RTVSPropertyOp56
 70
     1
102
RTVSPropertyOp57
 70
     1
102
RTVSPropertyOp58
 70
     1
102
RTVSPropertyOp59
 70
     1
102
RTVSPropertyOp60
 70
     1
102
RTVSPropertyOp61
 70
     1
102
RTVSPropertyOp62
 70
     1
  0
XRECORD
  5
A596
102
{ACAD_REACTORS
330
A595
102
}
330
A595
100
AcDbXrecord
280
     1
102
RTVSPost2010Prop28
280
     0
102
RTVSPost2010PropOp28
 70
     1
102
RTVSPost2010Prop29
280
     1
102
RTVSPost2010PropOp29
 70
     1
102
RTVSPost2010Prop30
280
     1
102
RTVSPost2010PropOp30
 70
     1
102
RTVSPost2010Prop31
280
     0
102
RTVSPost2010PropOp31
 70
     1
102
RTVSPost2010Prop32
280
     0
102
RTVSPost2010PropOp32
 70
     1
102
RTVSPost2010Prop33
280
     0
102
RTVSPost2010PropOp33
 70
     1
102
RTVSPost2010Prop34
280
     0
102
RTVSPost2010PropOp34
 70
     1
102
RTVSPost2010Prop35
280
     0
102
RTVSPost2010PropOp35
 70
     1
102
RTVSPost2010Prop36
280
     0
102
RTVSPost2010PropOp36
 70
     1
102
RTVSPost2010Prop37
 90
       50
102
RTVSPost2010PropOp37
 70
     1
102
RTVSPost2010Prop38
140
0.0
102
RTVSPost2010PropOp38
 70
     1
102
RTVSPost2010Prop39
140
1.0
102
RTVSPost2010PropOp39
 70
     1
102
RTVSPost2010Prop40
 90
        0
102
RTVSPost2010PropOp40
 70
     1
102
RTVSPost2010Prop41ColorIndex
 90
       18
102
RTVSPost2010Prop41ColorRGB
 90
        0
102
RTVSPost2010PropOp41
 70
     1
102
RTVSPost2010Prop42
 90
       50
102
RTVSPost2010PropOp42
 70
     1
102
RTVSPost2010Prop43
 90
        3
102
RTVSPost2010PropOp43
 70
     1
102
RTVSPost2010Prop44ColorIndex
 90
        5
102
RTVSPost2010Prop44ColorRGB
 90
      255
102
RTVSPost2010PropOp44
 70
     1
102
RTVSPost2010Prop45
280
     0
102
RTVSPost2010PropOp45
 70
     1
102
RTVSPost2010Prop46
 90
       50
102
RTVSPost2010PropOp46
 70
     1
102
RTVSPost2010Prop47
 90
       50
102
RTVSPost2010PropOp47
 70
     1
102
RTVSPost2010Prop48
 90
       50
102
RTVSPost2010PropOp48
 70
     1
102
RTVSPost2010Prop49
280
     0
102
RTVSPost2010PropOp49
 70
     1
102
RTVSPost2010Prop50
 90
       50
102
RTVSPost2010PropOp50
 70
     1
102
RTVSPost2010Prop51ColorIndex
 90
      256
102
RTVSPost2010Prop51ColorRGB
 90
-16777216
102
RTVSPost2010PropOp51
 70
     0
102
RTVSPost2010Prop52
140
1.0
102
RTVSPost2010PropOp52
 70
     0
102
RTVSPost2010Prop53
 90
        2
102
RTVSPost2010PropOp53
 70
     1
102
RTVSPost2010Prop54
  1
strokes_ogs.tif
102
RTVSPost2010PropOp54
 70
     1
102
RTVSPost2010Prop55
280
     0
102
RTVSPost2010PropOp55
 70
     1
102
RTVSPost2010Prop56
140
1.0
102
RTVSPost2010PropOp56
 70
     1
102
RTVSPost2010Prop57
140
1.0
102
RTVSPost2010PropOp57
 70
     1
102
RTVSPropertyOp0
 70
     1
102
RTVSPropertyOp1
 70
     1
102
RTVSPropertyOp2
 70
     1
102
RTVSPropertyOp3
 70
     1
102
RTVSPropertyOp4
 70
     1
102
RTVSPropertyOp5
 70
     1
102
RTVSPropertyOp6
 70
     1
102
RTVSPropertyOp7
 70
     1
102
RTVSPropertyOp8
 70
     1
102
RTVSPropertyOp9
 70
     1
102
RTVSPropertyOp10
 70
     1
102
RTVSPropertyOp11
 70
     1
102
RTVSPropertyOp12
 70
     1
102
RTVSPropertyOp13
 70
     1
102
RTVSPropertyOp14
 70
     1
102
RTVSPropertyOp15
 70
     1
102
RTVSPropertyOp16
 70
     1
102
RTVSPropertyOp17
 70
     1
102
RTVSPropertyOp18
 70
     1
102
RTVSPropertyOp19
 70
     1
102
RTVSPropertyOp20
 70
     1
102
RTVSPropertyOp21
 70
     1
102
RTVSPropertyOp22
 70
     1
102
RTVSPropertyOp23
 70
     1
102
RTVSPropertyOp24
 70
     1
102
RTVSPropertyOp25
 70
     1
102
RTVSPropertyOp26
 70
     1
102
RTVSPropertyOp27
 70
     1
102
RTVSPropertyOp28
 70
     1
102
RTVSPropertyOp29
 70
     1
102
RTVSPropertyOp30
 70
     1
102
RTVSPropertyOp31
 70
     1
102
RTVSPropertyOp32
 70
     1
102
RTVSPropertyOp33
 70
     1
102
RTVSPropertyOp34
 70
     1
102
RTVSPropertyOp35
 70
     1
102
RTVSPropertyOp36
 70
     1
102
RTVSPropertyOp37
 70
     1
102
RTVSPropertyOp38
 70
     1
102
RTVSPropertyOp39
 70
     1
102
RTVSPropertyOp40
 70
     1
102
RTVSPropertyOp41
 70
     1
102
RTVSPropertyOp42
 70
     1
102
RTVSPropertyOp43
 70
     1
102
RTVSPropertyOp44
 70
     1
102
RTVSPropertyOp45
 70
     1
102
RTVSPropertyOp46
 70
     1
102
RTVSPropertyOp47
 70
     1
102
RTVSPropertyOp48
 70
     1
102
RTVSPropertyOp49
 70
     1
102
RTVSPropertyOp50
 70
     1
102
RTVSPropertyOp51
 70
     0
102
RTVSPropertyOp52
 70
     0
102
RTVSPropertyOp53
 70
     1
102
RTVSPropertyOp54
 70
     1
102
RTVSPropertyOp55
 70
     1
102
RTVSPropertyOp56
 70
     1
102
RTVSPropertyOp57
 70
     1
102
RTVSPropertyOp58
 70
     1
102
RTVSPropertyOp59
 70
     1
102
RTVSPropertyOp60
 70
     1
102
RTVSPropertyOp61
 70
     1
102
RTVSPropertyOp62
 70
     1
  0
XRECORD
  5
A5B2
102
{ACAD_REACTORS
330
A5B1
102
}
330
A5B1
100
AcDbXrecord
280
     1
102
RTVSPost2010Prop28
280
     0
102
RTVSPost2010PropOp28
 70
     1
102
RTVSPost2010Prop29
280
     1
102
RTVSPost2010PropOp29
 70
     1
102
RTVSPost2010Prop30
280
     1
102
RTVSPost2010PropOp30
 70
     1
102
RTVSPost2010Prop31
280
     0
102
RTVSPost2010PropOp31
 70
     1
102
RTVSPost2010Prop32
280
     0
102
RTVSPost2010PropOp32
 70
     1
102
RTVSPost2010Prop33
280
     0
102
RTVSPost2010PropOp33
 70
     1
102
RTVSPost2010Prop34
280
     0
102
RTVSPost2010PropOp34
 70
     1
102
RTVSPost2010Prop35
280
     0
102
RTVSPost2010PropOp35
 70
     1
102
RTVSPost2010Prop36
280
     0
102
RTVSPost2010PropOp36
 70
     1
102
RTVSPost2010Prop37
 90
       50
102
RTVSPost2010PropOp37
 70
     0
102
RTVSPost2010Prop38
140
0.0
102
RTVSPost2010PropOp38
 70
     0
102
RTVSPost2010Prop39
140
1.0
102
RTVSPost2010PropOp39
 70
     0
102
RTVSPost2010Prop40
 90
        0
102
RTVSPost2010PropOp40
 70
     0
102
RTVSPost2010Prop41ColorIndex
 90
       18
102
RTVSPost2010Prop41ColorRGB
 90
        0
102
RTVSPost2010PropOp41
 70
     0
102
RTVSPost2010Prop42
 90
       50
102
RTVSPost2010PropOp42
 70
     0
102
RTVSPost2010Prop43
 90
        3
102
RTVSPost2010PropOp43
 70
     0
102
RTVSPost2010Prop44ColorIndex
 90
        5
102
RTVSPost2010Prop44ColorRGB
 90
      255
102
RTVSPost2010PropOp44
 70
     0
102
RTVSPost2010Prop45
280
     0
102
RTVSPost2010PropOp45
 70
     1
102
RTVSPost2010Prop46
 90
       50
102
RTVSPost2010PropOp46
 70
     0
102
RTVSPost2010Prop47
 90
       50
102
RTVSPost2010PropOp47
 70
     0
102
RTVSPost2010Prop48
 90
       50
102
RTVSPost2010PropOp48
 70
     0
102
RTVSPost2010Prop49
280
     0
102
RTVSPost2010PropOp49
 70
     1
102
RTVSPost2010Prop50
 90
       50
102
RTVSPost2010PropOp50
 70
     0
102
RTVSPost2010Prop51ColorIndex
 90
      256
102
RTVSPost2010Prop51ColorRGB
 90
-16777216
102
RTVSPost2010PropOp51
 70
     0
102
RTVSPost2010Prop52
140
1.0
102
RTVSPost2010PropOp52
 70
     0
102
RTVSPost2010Prop53
 90
        2
102
RTVSPost2010PropOp53
 70
     0
102
RTVSPost2010Prop54
  1
strokes_ogs.tif
102
RTVSPost2010PropOp54
 70
     0
102
RTVSPost2010Prop55
280
     0
102
RTVSPost2010PropOp55
 70
     1
102
RTVSPost2010Prop56
140
1.0
102
RTVSPost2010PropOp56
 70
     0
102
RTVSPost2010Prop57
140
1.0
102
RTVSPost2010PropOp57
 70
     0
102
RTVSPropertyOp0
 70
     0
102
RTVSPropertyOp1
 70
     0
102
RTVSPropertyOp2
 70
     0
102
RTVSPropertyOp3
 70
     0
102
RTVSPropertyOp4
 70
     0
102
RTVSPropertyOp5
 70
     0
102
RTVSPropertyOp6
 70
     0
102
RTVSPropertyOp7
 70
     0
102
RTVSPropertyOp8
 70
     0
102
RTVSPropertyOp9
 70
     0
102
RTVSPropertyOp10
 70
     0
102
RTVSPropertyOp11
 70
     0
102
RTVSPropertyOp12
 70
     0
102
RTVSPropertyOp13
 70
     0
102
RTVSPropertyOp14
 70
     2
102
RTVSPropertyOp15
 70
     0
102
RTVSPropertyOp16
 70
     0
102
RTVSPropertyOp17
 70
     0
102
RTVSPropertyOp18
 70
     0
102
RTVSPropertyOp19
 70
     0
102
RTVSPropertyOp20
 70
     0
102
RTVSPropertyOp21
 70
     0
102
RTVSPropertyOp22
 70
     0
102
RTVSPropertyOp23
 70
     0
102
RTVSPropertyOp24
 70
     0
102
RTVSPropertyOp25
 70
     0
102
RTVSPropertyOp26
 70
     0
102
RTVSPropertyOp27
 70
     0
102
RTVSPropertyOp28
 70
     1
102
RTVSPropertyOp29
 70
     1
102
RTVSPropertyOp30
 70
     1
102
RTVSPropertyOp31
 70
     1
102
RTVSPropertyOp32
 70
     1
102
RTVSPropertyOp33
 70
     1
102
RTVSPropertyOp34
 70
     1
102
RTVSPropertyOp35
 70
     1
102
RTVSPropertyOp36
 70
     1
102
RTVSPropertyOp37
 70
     0
102
RTVSPropertyOp38
 70
     0
102
RTVSPropertyOp39
 70
     0
102
RTVSPropertyOp40
 70
     0
102
RTVSPropertyOp41
 70
     0
102
RTVSPropertyOp42
 70
     0
102
RTVSPropertyOp43
 70
     0
102
RTVSPropertyOp44
 70
     0
102
RTVSPropertyOp45
 70
     1
102
RTVSPropertyOp46
 70
     0
102
RTVSPropertyOp47
 70
     0
102
RTVSPropertyOp48
 70
     0
102
RTVSPropertyOp49
 70
     1
102
RTVSPropertyOp50
 70
     0
102
RTVSPropertyOp51
 70
     0
102
RTVSPropertyOp52
 70
     0
102
RTVSPropertyOp53
 70
     0
102
RTVSPropertyOp54
 70
     0
102
RTVSPropertyOp55
 70
     1
102
RTVSPropertyOp56
 70
     0
102
RTVSPropertyOp57
 70
     0
102
RTVSPropertyOp58
 70
     0
102
RTVSPropertyOp59
 70
     0
102
RTVSPropertyOp60
 70
     0
102
RTVSPropertyOp61
 70
     0
102
RTVSPropertyOp62
 70
     0
  0
XRECORD
  5
A5A2
102
{ACAD_REACTORS
330
A5A1
102
}
330
A5A1
100
AcDbXrecord
280
     1
102
RTVSPost2010Prop28
280
     0
102
RTVSPost2010PropOp28
 70
     1
102
RTVSPost2010Prop29
280
     1
102
RTVSPost2010PropOp29
 70
     1
102
RTVSPost2010Prop30
280
     1
102
RTVSPost2010PropOp30
 70
     1
102
RTVSPost2010Prop31
280
     0
102
RTVSPost2010PropOp31
 70
     1
102
RTVSPost2010Prop32
280
     0
102
RTVSPost2010PropOp32
 70
     1
102
RTVSPost2010Prop33
280
     0
102
RTVSPost2010PropOp33
 70
     1
102
RTVSPost2010Prop34
280
     0
102
RTVSPost2010PropOp34
 70
     1
102
RTVSPost2010Prop35
280
     0
102
RTVSPost2010PropOp35
 70
     1
102
RTVSPost2010Prop36
280
     0
102
RTVSPost2010PropOp36
 70
     1
102
RTVSPost2010Prop37
 90
       50
102
RTVSPost2010PropOp37
 70
     1
102
RTVSPost2010Prop38
140
0.0
102
RTVSPost2010PropOp38
 70
     1
102
RTVSPost2010Prop39
140
1.0
102
RTVSPost2010PropOp39
 70
     1
102
RTVSPost2010Prop40
 90
        0
102
RTVSPost2010PropOp40
 70
     1
102
RTVSPost2010Prop41ColorIndex
 90
       18
102
RTVSPost2010Prop41ColorRGB
 90
        0
102
RTVSPost2010PropOp41
 70
     1
102
RTVSPost2010Prop42
 90
       50
102
RTVSPost2010PropOp42
 70
     1
102
RTVSPost2010Prop43
 90
        3
102
RTVSPost2010PropOp43
 70
     1
102
RTVSPost2010Prop44ColorIndex
 90
        5
102
RTVSPost2010Prop44ColorRGB
 90
      255
102
RTVSPost2010PropOp44
 70
     1
102
RTVSPost2010Prop45
280
     0
102
RTVSPost2010PropOp45
 70
     1
102
RTVSPost2010Prop46
 90
       50
102
RTVSPost2010PropOp46
 70
     1
102
RTVSPost2010Prop47
 90
       50
102
RTVSPost2010PropOp47
 70
     1
102
RTVSPost2010Prop48
 90
       50
102
RTVSPost2010PropOp48
 70
     1
102
RTVSPost2010Prop49
280
     0
102
RTVSPost2010PropOp49
 70
     1
102
RTVSPost2010Prop50
 90
       50
102
RTVSPost2010PropOp50
 70
     1
102
RTVSPost2010Prop51ColorIndex
 90
      256
102
RTVSPost2010Prop51ColorRGB
 90
-16777216
102
RTVSPost2010PropOp51
 70
     0
102
RTVSPost2010Prop52
140
1.0
102
RTVSPost2010PropOp52
 70
     0
102
RTVSPost2010Prop53
 90
        2
102
RTVSPost2010PropOp53
 70
     1
102
RTVSPost2010Prop54
  1
strokes_ogs.tif
102
RTVSPost2010PropOp54
 70
     1
102
RTVSPost2010Prop55
280
     0
102
RTVSPost2010PropOp55
 70
     1
102
RTVSPost2010Prop56
140
1.0
102
RTVSPost2010PropOp56
 70
     1
102
RTVSPost2010Prop57
140
1.0
102
RTVSPost2010PropOp57
 70
     1
102
RTVSPropertyOp0
 70
     1
102
RTVSPropertyOp1
 70
     1
102
RTVSPropertyOp2
 70
     1
102
RTVSPropertyOp3
 70
     1
102
RTVSPropertyOp4
 70
     1
102
RTVSPropertyOp5
 70
     1
102
RTVSPropertyOp6
 70
     1
102
RTVSPropertyOp7
 70
     1
102
RTVSPropertyOp8
 70
     1
102
RTVSPropertyOp9
 70
     1
102
RTVSPropertyOp10
 70
     1
102
RTVSPropertyOp11
 70
     1
102
RTVSPropertyOp12
 70
     1
102
RTVSPropertyOp13
 70
     1
102
RTVSPropertyOp14
 70
     1
102
RTVSPropertyOp15
 70
     1
102
RTVSPropertyOp16
 70
     1
102
RTVSPropertyOp17
 70
     1
102
RTVSPropertyOp18
 70
     1
102
RTVSPropertyOp19
 70
     1
102
RTVSPropertyOp20
 70
     1
102
RTVSPropertyOp21
 70
     1
102
RTVSPropertyOp22
 70
     1
102
RTVSPropertyOp23
 70
     1
102
RTVSPropertyOp24
 70
     1
102
RTVSPropertyOp25
 70
     1
102
RTVSPropertyOp26
 70
     1
102
RTVSPropertyOp27
 70
     1
102
RTVSPropertyOp28
 70
     1
102
RTVSPropertyOp29
 70
     1
102
RTVSPropertyOp30
 70
     1
102
RTVSPropertyOp31
 70
     1
102
RTVSPropertyOp32
 70
     1
102
RTVSPropertyOp33
 70
     1
102
RTVSPropertyOp34
 70
     1
102
RTVSPropertyOp35
 70
     1
102
RTVSPropertyOp36
 70
     1
102
RTVSPropertyOp37
 70
     1
102
RTVSPropertyOp38
 70
     1
102
RTVSPropertyOp39
 70
     1
102
RTVSPropertyOp40
 70
     1
102
RTVSPropertyOp41
 70
     1
102
RTVSPropertyOp42
 70
     1
102
RTVSPropertyOp43
 70
     1
102
RTVSPropertyOp44
 70
     1
102
RTVSPropertyOp45
 70
     1
102
RTVSPropertyOp46
 70
     1
102
RTVSPropertyOp47
 70
     1
102
RTVSPropertyOp48
 70
     1
102
RTVSPropertyOp49
 70
     1
102
RTVSPropertyOp50
 70
     1
102
RTVSPropertyOp51
 70
     0
102
RTVSPropertyOp52
 70
     0
102
RTVSPropertyOp53
 70
     1
102
RTVSPropertyOp54
 70
     1
102
RTVSPropertyOp55
 70
     1
102
RTVSPropertyOp56
 70
     1
102
RTVSPropertyOp57
 70
     1
102
RTVSPropertyOp58
 70
     1
102
RTVSPropertyOp59
 70
     1
102
RTVSPropertyOp60
 70
     1
102
RTVSPropertyOp61
 70
     1
102
RTVSPropertyOp62
 70
     1
  0
XRECORD
  5
A5B4
102
{ACAD_REACTORS
330
A5B3
102
}
330
A5B3
100
AcDbXrecord
280
     1
102
RTVSPost2010Prop28
280
     0
102
RTVSPost2010PropOp28
 70
     1
102
RTVSPost2010Prop29
280
     1
102
RTVSPost2010PropOp29
 70
     1
102
RTVSPost2010Prop30
280
     1
102
RTVSPost2010PropOp30
 70
     1
102
RTVSPost2010Prop31
280
     0
102
RTVSPost2010PropOp31
 70
     1
102
RTVSPost2010Prop32
280
     0
102
RTVSPost2010PropOp32
 70
     1
102
RTVSPost2010Prop33
280
     0
102
RTVSPost2010PropOp33
 70
     1
102
RTVSPost2010Prop34
280
     0
102
RTVSPost2010PropOp34
 70
     1
102
RTVSPost2010Prop35
280
     0
102
RTVSPost2010PropOp35
 70
     1
102
RTVSPost2010Prop36
280
     0
102
RTVSPost2010PropOp36
 70
     1
102
RTVSPost2010Prop37
 90
       50
102
RTVSPost2010PropOp37
 70
     0
102
RTVSPost2010Prop38
140
0.0
102
RTVSPost2010PropOp38
 70
     0
102
RTVSPost2010Prop39
140
1.0
102
RTVSPost2010PropOp39
 70
     0
102
RTVSPost2010Prop40
 90
        0
102
RTVSPost2010PropOp40
 70
     0
102
RTVSPost2010Prop41ColorIndex
 90
       18
102
RTVSPost2010Prop41ColorRGB
 90
        0
102
RTVSPost2010PropOp41
 70
     0
102
RTVSPost2010Prop42
 90
       50
102
RTVSPost2010PropOp42
 70
     0
102
RTVSPost2010Prop43
 90
        3
102
RTVSPost2010PropOp43
 70
     0
102
RTVSPost2010Prop44ColorIndex
 90
        5
102
RTVSPost2010Prop44ColorRGB
 90
      255
102
RTVSPost2010PropOp44
 70
     0
102
RTVSPost2010Prop45
280
     0
102
RTVSPost2010PropOp45
 70
     1
102
RTVSPost2010Prop46
 90
       50
102
RTVSPost2010PropOp46
 70
     0
102
RTVSPost2010Prop47
 90
       50
102
RTVSPost2010PropOp47
 70
     0
102
RTVSPost2010Prop48
 90
       50
102
RTVSPost2010PropOp48
 70
     0
102
RTVSPost2010Prop49
280
     0
102
RTVSPost2010PropOp49
 70
     1
102
RTVSPost2010Prop50
 90
       50
102
RTVSPost2010PropOp50
 70
     0
102
RTVSPost2010Prop51ColorIndex
 90
      256
102
RTVSPost2010Prop51ColorRGB
 90
-16777216
102
RTVSPost2010PropOp51
 70
     0
102
RTVSPost2010Prop52
140
1.0
102
RTVSPost2010PropOp52
 70
     0
102
RTVSPost2010Prop53
 90
        2
102
RTVSPost2010PropOp53
 70
     0
102
RTVSPost2010Prop54
  1
strokes_ogs.tif
102
RTVSPost2010PropOp54
 70
     0
102
RTVSPost2010Prop55
280
     0
102
RTVSPost2010PropOp55
 70
     1
102
RTVSPost2010Prop56
140
1.0
102
RTVSPost2010PropOp56
 70
     0
102
RTVSPost2010Prop57
140
1.0
102
RTVSPost2010PropOp57
 70
     0
102
RTVSPropertyOp0
 70
     0
102
RTVSPropertyOp1
 70
     0
102
RTVSPropertyOp2
 70
     0
102
RTVSPropertyOp3
 70
     0
102
RTVSPropertyOp4
 70
     0
102
RTVSPropertyOp5
 70
     0
102
RTVSPropertyOp6
 70
     0
102
RTVSPropertyOp7
 70
     0
102
RTVSPropertyOp8
 70
     0
102
RTVSPropertyOp9
 70
     0
102
RTVSPropertyOp10
 70
     0
102
RTVSPropertyOp11
 70
     0
102
RTVSPropertyOp12
 70
     0
102
RTVSPropertyOp13
 70
     0
102
RTVSPropertyOp14
 70
     2
102
RTVSPropertyOp15
 70
     0
102
RTVSPropertyOp16
 70
     0
102
RTVSPropertyOp17
 70
     0
102
RTVSPropertyOp18
 70
     0
102
RTVSPropertyOp19
 70
     0
102
RTVSPropertyOp20
 70
     0
102
RTVSPropertyOp21
 70
     0
102
RTVSPropertyOp22
 70
     0
102
RTVSPropertyOp23
 70
     0
102
RTVSPropertyOp24
 70
     0
102
RTVSPropertyOp25
 70
     0
102
RTVSPropertyOp26
 70
     0
102
RTVSPropertyOp27
 70
     0
102
RTVSPropertyOp28
 70
     1
102
RTVSPropertyOp29
 70
     1
102
RTVSPropertyOp30
 70
     1
102
RTVSPropertyOp31
 70
     1
102
RTVSPropertyOp32
 70
     1
102
RTVSPropertyOp33
 70
     1
102
RTVSPropertyOp34
 70
     1
102
RTVSPropertyOp35
 70
     1
102
RTVSPropertyOp36
 70
     1
102
RTVSPropertyOp37
 70
     0
102
RTVSPropertyOp38
 70
     0
102
RTVSPropertyOp39
 70
     0
102
RTVSPropertyOp40
 70
     0
102
RTVSPropertyOp41
 70
     0
102
RTVSPropertyOp42
 70
     0
102
RTVSPropertyOp43
 70
     0
102
RTVSPropertyOp44
 70
     0
102
RTVSPropertyOp45
 70
     1
102
RTVSPropertyOp46
 70
     0
102
RTVSPropertyOp47
 70
     0
102
RTVSPropertyOp48
 70
     0
102
RTVSPropertyOp49
 70
     1
102
RTVSPropertyOp50
 70
     0
102
RTVSPropertyOp51
 70
     0
102
RTVSPropertyOp52
 70
     0
102
RTVSPropertyOp53
 70
     0
102
RTVSPropertyOp54
 70
     0
102
RTVSPropertyOp55
 70
     1
102
RTVSPropertyOp56
 70
     0
102
RTVSPropertyOp57
 70
     0
102
RTVSPropertyOp58
 70
     0
102
RTVSPropertyOp59
 70
     0
102
RTVSPropertyOp60
 70
     0
102
RTVSPropertyOp61
 70
     0
102
RTVSPropertyOp62
 70
     0
  0
XRECORD
  5
A59A
102
{ACAD_REACTORS
330
A599
102
}
330
A599
100
AcDbXrecord
280
     1
102
RTVSPost2010Prop28
280
     0
102
RTVSPost2010PropOp28
 70
     1
102
RTVSPost2010Prop29
280
     1
102
RTVSPost2010PropOp29
 70
     1
102
RTVSPost2010Prop30
280
     1
102
RTVSPost2010PropOp30
 70
     1
102
RTVSPost2010Prop31
280
     0
102
RTVSPost2010PropOp31
 70
     1
102
RTVSPost2010Prop32
280
     0
102
RTVSPost2010PropOp32
 70
     1
102
RTVSPost2010Prop33
280
     0
102
RTVSPost2010PropOp33
 70
     1
102
RTVSPost2010Prop34
280
     0
102
RTVSPost2010PropOp34
 70
     1
102
RTVSPost2010Prop35
280
     0
102
RTVSPost2010PropOp35
 70
     1
102
RTVSPost2010Prop36
280
     0
102
RTVSPost2010PropOp36
 70
     1
102
RTVSPost2010Prop37
 90
       50
102
RTVSPost2010PropOp37
 70
     1
102
RTVSPost2010Prop38
140
0.0
102
RTVSPost2010PropOp38
 70
     1
102
RTVSPost2010Prop39
140
1.0
102
RTVSPost2010PropOp39
 70
     1
102
RTVSPost2010Prop40
 90
        0
102
RTVSPost2010PropOp40
 70
     1
102
RTVSPost2010Prop41ColorIndex
 90
       18
102
RTVSPost2010Prop41ColorRGB
 90
        0
102
RTVSPost2010PropOp41
 70
     1
102
RTVSPost2010Prop42
 90
       50
102
RTVSPost2010PropOp42
 70
     1
102
RTVSPost2010Prop43
 90
        3
102
RTVSPost2010PropOp43
 70
     1
102
RTVSPost2010Prop44ColorIndex
 90
        5
102
RTVSPost2010Prop44ColorRGB
 90
      255
102
RTVSPost2010PropOp44
 70
     1
102
RTVSPost2010Prop45
280
     0
102
RTVSPost2010PropOp45
 70
     1
102
RTVSPost2010Prop46
 90
       50
102
RTVSPost2010PropOp46
 70
     1
102
RTVSPost2010Prop47
 90
       50
102
RTVSPost2010PropOp47
 70
     1
102
RTVSPost2010Prop48
 90
       50
102
RTVSPost2010PropOp48
 70
     1
102
RTVSPost2010Prop49
280
     0
102
RTVSPost2010PropOp49
 70
     1
102
RTVSPost2010Prop50
 90
       50
102
RTVSPost2010PropOp50
 70
     1
102
RTVSPost2010Prop51ColorIndex
 90
      256
102
RTVSPost2010Prop51ColorRGB
 90
-16777216
102
RTVSPost2010PropOp51
 70
     0
102
RTVSPost2010Prop52
140
1.0
102
RTVSPost2010PropOp52
 70
     0
102
RTVSPost2010Prop53
 90
        2
102
RTVSPost2010PropOp53
 70
     1
102
RTVSPost2010Prop54
  1
strokes_ogs.tif
102
RTVSPost2010PropOp54
 70
     1
102
RTVSPost2010Prop55
280
     0
102
RTVSPost2010PropOp55
 70
     1
102
RTVSPost2010Prop56
140
1.0
102
RTVSPost2010PropOp56
 70
     1
102
RTVSPost2010Prop57
140
1.0
102
RTVSPost2010PropOp57
 70
     1
102
RTVSPropertyOp0
 70
     1
102
RTVSPropertyOp1
 70
     1
102
RTVSPropertyOp2
 70
     1
102
RTVSPropertyOp3
 70
     1
102
RTVSPropertyOp4
 70
     1
102
RTVSPropertyOp5
 70
     1
102
RTVSPropertyOp6
 70
     1
102
RTVSPropertyOp7
 70
     1
102
RTVSPropertyOp8
 70
     1
102
RTVSPropertyOp9
 70
     1
102
RTVSPropertyOp10
 70
     1
102
RTVSPropertyOp11
 70
     1
102
RTVSPropertyOp12
 70
     1
102
RTVSPropertyOp13
 70
     1
102
RTVSPropertyOp14
 70
     1
102
RTVSPropertyOp15
 70
     1
102
RTVSPropertyOp16
 70
     1
102
RTVSPropertyOp17
 70
     1
102
RTVSPropertyOp18
 70
     1
102
RTVSPropertyOp19
 70
     1
102
RTVSPropertyOp20
 70
     1
102
RTVSPropertyOp21
 70
     1
102
RTVSPropertyOp22
 70
     1
102
RTVSPropertyOp23
 70
     1
102
RTVSPropertyOp24
 70
     1
102
RTVSPropertyOp25
 70
     1
102
RTVSPropertyOp26
 70
     1
102
RTVSPropertyOp27
 70
     1
102
RTVSPropertyOp28
 70
     1
102
RTVSPropertyOp29
 70
     1
102
RTVSPropertyOp30
 70
     1
102
RTVSPropertyOp31
 70
     1
102
RTVSPropertyOp32
 70
     1
102
RTVSPropertyOp33
 70
     1
102
RTVSPropertyOp34
 70
     1
102
RTVSPropertyOp35
 70
     1
102
RTVSPropertyOp36
 70
     1
102
RTVSPropertyOp37
 70
     1
102
RTVSPropertyOp38
 70
     1
102
RTVSPropertyOp39
 70
     1
102
RTVSPropertyOp40
 70
     1
102
RTVSPropertyOp41
 70
     1
102
RTVSPropertyOp42
 70
     1
102
RTVSPropertyOp43
 70
     1
102
RTVSPropertyOp44
 70
     1
102
RTVSPropertyOp45
 70
     1
102
RTVSPropertyOp46
 70
     1
102
RTVSPropertyOp47
 70
     1
102
RTVSPropertyOp48
 70
     1
102
RTVSPropertyOp49
 70
     1
102
RTVSPropertyOp50
 70
     1
102
RTVSPropertyOp51
 70
     0
102
RTVSPropertyOp52
 70
     0
102
RTVSPropertyOp53
 70
     1
102
RTVSPropertyOp54
 70
     1
102
RTVSPropertyOp55
 70
     1
102
RTVSPropertyOp56
 70
     1
102
RTVSPropertyOp57
 70
     1
102
RTVSPropertyOp58
 70
     1
102
RTVSPropertyOp59
 70
     1
102
RTVSPropertyOp60
 70
     1
102
RTVSPropertyOp61
 70
     1
102
RTVSPropertyOp62
 70
     1
  0
XRECORD
  5
A5B0
102
{ACAD_REACTORS
330
A5AF
102
}
330
A5AF
100
AcDbXrecord
280
     1
102
RTVSPost2010Prop28
280
     0
102
RTVSPost2010PropOp28
 70
     1
102
RTVSPost2010Prop29
280
     1
102
RTVSPost2010PropOp29
 70
     1
102
RTVSPost2010Prop30
280
     1
102
RTVSPost2010PropOp30
 70
     1
102
RTVSPost2010Prop31
280
     0
102
RTVSPost2010PropOp31
 70
     1
102
RTVSPost2010Prop32
280
     0
102
RTVSPost2010PropOp32
 70
     1
102
RTVSPost2010Prop33
280
     0
102
RTVSPost2010PropOp33
 70
     1
102
RTVSPost2010Prop34
280
     0
102
RTVSPost2010PropOp34
 70
     1
102
RTVSPost2010Prop35
280
     0
102
RTVSPost2010PropOp35
 70
     1
102
RTVSPost2010Prop36
280
     0
102
RTVSPost2010PropOp36
 70
     1
102
RTVSPost2010Prop37
 90
       50
102
RTVSPost2010PropOp37
 70
     1
102
RTVSPost2010Prop38
140
0.0
102
RTVSPost2010PropOp38
 70
     1
102
RTVSPost2010Prop39
140
1.0
102
RTVSPost2010PropOp39
 70
     1
102
RTVSPost2010Prop40
 90
        0
102
RTVSPost2010PropOp40
 70
     1
102
RTVSPost2010Prop41ColorIndex
 90
       18
102
RTVSPost2010Prop41ColorRGB
 90
        0
102
RTVSPost2010PropOp41
 70
     1
102
RTVSPost2010Prop42
 90
       50
102
RTVSPost2010PropOp42
 70
     1
102
RTVSPost2010Prop43
 90
        3
102
RTVSPost2010PropOp43
 70
     1
102
RTVSPost2010Prop44ColorIndex
 90
        5
102
RTVSPost2010Prop44ColorRGB
 90
      255
102
RTVSPost2010PropOp44
 70
     1
102
RTVSPost2010Prop45
280
     0
102
RTVSPost2010PropOp45
 70
     1
102
RTVSPost2010Prop46
 90
       50
102
RTVSPost2010PropOp46
 70
     1
102
RTVSPost2010Prop47
 90
       50
102
RTVSPost2010PropOp47
 70
     1
102
RTVSPost2010Prop48
 90
       50
102
RTVSPost2010PropOp48
 70
     1
102
RTVSPost2010Prop49
280
     0
102
RTVSPost2010PropOp49
 70
     1
102
RTVSPost2010Prop50
 90
       50
102
RTVSPost2010PropOp50
 70
     1
102
RTVSPost2010Prop51ColorIndex
 90
      256
102
RTVSPost2010Prop51ColorRGB
 90
-16777216
102
RTVSPost2010PropOp51
 70
     0
102
RTVSPost2010Prop52
140
1.0
102
RTVSPost2010PropOp52
 70
     0
102
RTVSPost2010Prop53
 90
        2
102
RTVSPost2010PropOp53
 70
     1
102
RTVSPost2010Prop54
  1
strokes_ogs.tif
102
RTVSPost2010PropOp54
 70
     1
102
RTVSPost2010Prop55
280
     0
102
RTVSPost2010PropOp55
 70
     1
102
RTVSPost2010Prop56
140
1.0
102
RTVSPost2010PropOp56
 70
     1
102
RTVSPost2010Prop57
140
1.0
102
RTVSPost2010PropOp57
 70
     1
102
RTVSPropertyOp0
 70
     1
102
RTVSPropertyOp1
 70
     1
102
RTVSPropertyOp2
 70
     1
102
RTVSPropertyOp3
 70
     1
102
RTVSPropertyOp4
 70
     1
102
RTVSPropertyOp5
 70
     1
102
RTVSPropertyOp6
 70
     1
102
RTVSPropertyOp7
 70
     1
102
RTVSPropertyOp8
 70
     1
102
RTVSPropertyOp9
 70
     1
102
RTVSPropertyOp10
 70
     1
102
RTVSPropertyOp11
 70
     1
102
RTVSPropertyOp12
 70
     1
102
RTVSPropertyOp13
 70
     1
102
RTVSPropertyOp14
 70
     1
102
RTVSPropertyOp15
 70
     1
102
RTVSPropertyOp16
 70
     1
102
RTVSPropertyOp17
 70
     1
102
RTVSPropertyOp18
 70
     1
102
RTVSPropertyOp19
 70
     1
102
RTVSPropertyOp20
 70
     1
102
RTVSPropertyOp21
 70
     1
102
RTVSPropertyOp22
 70
     1
102
RTVSPropertyOp23
 70
     1
102
RTVSPropertyOp24
 70
     1
102
RTVSPropertyOp25
 70
     1
102
RTVSPropertyOp26
 70
     1
102
RTVSPropertyOp27
 70
     1
102
RTVSPropertyOp28
 70
     1
102
RTVSPropertyOp29
 70
     1
102
RTVSPropertyOp30
 70
     1
102
RTVSPropertyOp31
 70
     1
102
RTVSPropertyOp32
 70
     1
102
RTVSPropertyOp33
 70
     1
102
RTVSPropertyOp34
 70
     1
102
RTVSPropertyOp35
 70
     1
102
RTVSPropertyOp36
 70
     1
102
RTVSPropertyOp37
 70
     1
102
RTVSPropertyOp38
 70
     1
102
RTVSPropertyOp39
 70
     1
102
RTVSPropertyOp40
 70
     1
102
RTVSPropertyOp41
 70
     1
102
RTVSPropertyOp42
 70
     1
102
RTVSPropertyOp43
 70
     1
102
RTVSPropertyOp44
 70
     1
102
RTVSPropertyOp45
 70
     1
102
RTVSPropertyOp46
 70
     1
102
RTVSPropertyOp47
 70
     1
102
RTVSPropertyOp48
 70
     1
102
RTVSPropertyOp49
 70
     1
102
RTVSPropertyOp50
 70
     1
102
RTVSPropertyOp51
 70
     0
102
RTVSPropertyOp52
 70
     0
102
RTVSPropertyOp53
 70
     1
102
RTVSPropertyOp54
 70
     1
102
RTVSPropertyOp55
 70
     1
102
RTVSPropertyOp56
 70
     1
102
RTVSPropertyOp57
 70
     1
102
RTVSPropertyOp58
 70
     1
102
RTVSPropertyOp59
 70
     1
102
RTVSPropertyOp60
 70
     1
102
RTVSPropertyOp61
 70
     1
102
RTVSPropertyOp62
 70
     1
  0
XRECORD
  5
A5AE
102
{ACAD_REACTORS
330
A5AD
102
}
330
A5AD
100
AcDbXrecord
280
     1
102
RTVSPost2010Prop28
280
     0
102
RTVSPost2010PropOp28
 70
     1
102
RTVSPost2010Prop29
280
     1
102
RTVSPost2010PropOp29
 70
     1
102
RTVSPost2010Prop30
280
     1
102
RTVSPost2010PropOp30
 70
     1
102
RTVSPost2010Prop31
280
     0
102
RTVSPost2010PropOp31
 70
     1
102
RTVSPost2010Prop32
280
     0
102
RTVSPost2010PropOp32
 70
     1
102
RTVSPost2010Prop33
280
     0
102
RTVSPost2010PropOp33
 70
     1
102
RTVSPost2010Prop34
280
     0
102
RTVSPost2010PropOp34
 70
     1
102
RTVSPost2010Prop35
280
     0
102
RTVSPost2010PropOp35
 70
     1
102
RTVSPost2010Prop36
280
     0
102
RTVSPost2010PropOp36
 70
     1
102
RTVSPost2010Prop37
 90
       50
102
RTVSPost2010PropOp37
 70
     1
102
RTVSPost2010Prop38
140
0.0
102
RTVSPost2010PropOp38
 70
     1
102
RTVSPost2010Prop39
140
1.0
102
RTVSPost2010PropOp39
 70
     1
102
RTVSPost2010Prop40
 90
        0
102
RTVSPost2010PropOp40
 70
     1
102
RTVSPost2010Prop41ColorIndex
 90
       18
102
RTVSPost2010Prop41ColorRGB
 90
        0
102
RTVSPost2010PropOp41
 70
     1
102
RTVSPost2010Prop42
 90
       50
102
RTVSPost2010PropOp42
 70
     1
102
RTVSPost2010Prop43
 90
        3
102
RTVSPost2010PropOp43
 70
     1
102
RTVSPost2010Prop44ColorIndex
 90
        5
102
RTVSPost2010Prop44ColorRGB
 90
      255
102
RTVSPost2010PropOp44
 70
     1
102
RTVSPost2010Prop45
280
     0
102
RTVSPost2010PropOp45
 70
     1
102
RTVSPost2010Prop46
 90
       50
102
RTVSPost2010PropOp46
 70
     1
102
RTVSPost2010Prop47
 90
       50
102
RTVSPost2010PropOp47
 70
     1
102
RTVSPost2010Prop48
 90
       50
102
RTVSPost2010PropOp48
 70
     1
102
RTVSPost2010Prop49
280
     0
102
RTVSPost2010PropOp49
 70
     1
102
RTVSPost2010Prop50
 90
       50
102
RTVSPost2010PropOp50
 70
     1
102
RTVSPost2010Prop51ColorIndex
 90
      256
102
RTVSPost2010Prop51ColorRGB
 90
-16777216
102
RTVSPost2010PropOp51
 70
     0
102
RTVSPost2010Prop52
140
1.0
102
RTVSPost2010PropOp52
 70
     0
102
RTVSPost2010Prop53
 90
        2
102
RTVSPost2010PropOp53
 70
     1
102
RTVSPost2010Prop54
  1
strokes_ogs.tif
102
RTVSPost2010PropOp54
 70
     1
102
RTVSPost2010Prop55
280
     0
102
RTVSPost2010PropOp55
 70
     1
102
RTVSPost2010Prop56
140
1.0
102
RTVSPost2010PropOp56
 70
     1
102
RTVSPost2010Prop57
140
1.0
102
RTVSPost2010PropOp57
 70
     1
102
RTVSPropertyOp0
 70
     1
102
RTVSPropertyOp1
 70
     1
102
RTVSPropertyOp2
 70
     1
102
RTVSPropertyOp3
 70
     1
102
RTVSPropertyOp4
 70
     1
102
RTVSPropertyOp5
 70
     1
102
RTVSPropertyOp6
 70
     1
102
RTVSPropertyOp7
 70
     1
102
RTVSPropertyOp8
 70
     1
102
RTVSPropertyOp9
 70
     1
102
RTVSPropertyOp10
 70
     1
102
RTVSPropertyOp11
 70
     1
102
RTVSPropertyOp12
 70
     1
102
RTVSPropertyOp13
 70
     1
102
RTVSPropertyOp14
 70
     1
102
RTVSPropertyOp15
 70
     1
102
RTVSPropertyOp16
 70
     1
102
RTVSPropertyOp17
 70
     1
102
RTVSPropertyOp18
 70
     1
102
RTVSPropertyOp19
 70
     1
102
RTVSPropertyOp20
 70
     1
102
RTVSPropertyOp21
 70
     1
102
RTVSPropertyOp22
 70
     1
102
RTVSPropertyOp23
 70
     1
102
RTVSPropertyOp24
 70
     1
102
RTVSPropertyOp25
 70
     1
102
RTVSPropertyOp26
 70
     1
102
RTVSPropertyOp27
 70
     1
102
RTVSPropertyOp28
 70
     1
102
RTVSPropertyOp29
 70
     1
102
RTVSPropertyOp30
 70
     1
102
RTVSPropertyOp31
 70
     1
102
RTVSPropertyOp32
 70
     1
102
RTVSPropertyOp33
 70
     1
102
RTVSPropertyOp34
 70
     1
102
RTVSPropertyOp35
 70
     1
102
RTVSPropertyOp36
 70
     1
102
RTVSPropertyOp37
 70
     1
102
RTVSPropertyOp38
 70
     1
102
RTVSPropertyOp39
 70
     1
102
RTVSPropertyOp40
 70
     1
102
RTVSPropertyOp41
 70
     1
102
RTVSPropertyOp42
 70
     1
102
RTVSPropertyOp43
 70
     1
102
RTVSPropertyOp44
 70
     1
102
RTVSPropertyOp45
 70
     1
102
RTVSPropertyOp46
 70
     1
102
RTVSPropertyOp47
 70
     1
102
RTVSPropertyOp48
 70
     1
102
RTVSPropertyOp49
 70
     1
102
RTVSPropertyOp50
 70
     1
102
RTVSPropertyOp51
 70
     0
102
RTVSPropertyOp52
 70
     0
102
RTVSPropertyOp53
 70
     1
102
RTVSPropertyOp54
 70
     1
102
RTVSPropertyOp55
 70
     1
102
RTVSPropertyOp56
 70
     1
102
RTVSPropertyOp57
 70
     1
102
RTVSPropertyOp58
 70
     1
102
RTVSPropertyOp59
 70
     1
102
RTVSPropertyOp60
 70
     1
102
RTVSPropertyOp61
 70
     1
102
RTVSPropertyOp62
 70
     1
  0
XRECORD
  5
A5A8
102
{ACAD_REACTORS
330
A5A7
102
}
330
A5A7
100
AcDbXrecord
280
     1
102
RTVSPost2010Prop28
280
     0
102
RTVSPost2010PropOp28
 70
     1
102
RTVSPost2010Prop29
280
     1
102
RTVSPost2010PropOp29
 70
     1
102
RTVSPost2010Prop30
280
     1
102
RTVSPost2010PropOp30
 70
     1
102
RTVSPost2010Prop31
280
     0
102
RTVSPost2010PropOp31
 70
     1
102
RTVSPost2010Prop32
280
     0
102
RTVSPost2010PropOp32
 70
     1
102
RTVSPost2010Prop33
280
     0
102
RTVSPost2010PropOp33
 70
     1
102
RTVSPost2010Prop34
280
     0
102
RTVSPost2010PropOp34
 70
     1
102
RTVSPost2010Prop35
280
     0
102
RTVSPost2010PropOp35
 70
     1
102
RTVSPost2010Prop36
280
     0
102
RTVSPost2010PropOp36
 70
     1
102
RTVSPost2010Prop37
 90
       50
102
RTVSPost2010PropOp37
 70
     1
102
RTVSPost2010Prop38
140
0.0
102
RTVSPost2010PropOp38
 70
     1
102
RTVSPost2010Prop39
140
1.0
102
RTVSPost2010PropOp39
 70
     1
102
RTVSPost2010Prop40
 90
        0
102
RTVSPost2010PropOp40
 70
     1
102
RTVSPost2010Prop41ColorIndex
 90
       18
102
RTVSPost2010Prop41ColorRGB
 90
        0
102
RTVSPost2010PropOp41
 70
     1
102
RTVSPost2010Prop42
 90
       50
102
RTVSPost2010PropOp42
 70
     1
102
RTVSPost2010Prop43
 90
        3
102
RTVSPost2010PropOp43
 70
     1
102
RTVSPost2010Prop44ColorIndex
 90
        5
102
RTVSPost2010Prop44ColorRGB
 90
      255
102
RTVSPost2010PropOp44
 70
     1
102
RTVSPost2010Prop45
280
     0
102
RTVSPost2010PropOp45
 70
     1
102
RTVSPost2010Prop46
 90
       50
102
RTVSPost2010PropOp46
 70
     1
102
RTVSPost2010Prop47
 90
       50
102
RTVSPost2010PropOp47
 70
     1
102
RTVSPost2010Prop48
 90
       50
102
RTVSPost2010PropOp48
 70
     1
102
RTVSPost2010Prop49
280
     0
102
RTVSPost2010PropOp49
 70
     1
102
RTVSPost2010Prop50
 90
       50
102
RTVSPost2010PropOp50
 70
     1
102
RTVSPost2010Prop51ColorIndex
 90
      256
102
RTVSPost2010Prop51ColorRGB
 90
-16777216
102
RTVSPost2010PropOp51
 70
     0
102
RTVSPost2010Prop52
140
1.0
102
RTVSPost2010PropOp52
 70
     0
102
RTVSPost2010Prop53
 90
        2
102
RTVSPost2010PropOp53
 70
     1
102
RTVSPost2010Prop54
  1
strokes_ogs.tif
102
RTVSPost2010PropOp54
 70
     1
102
RTVSPost2010Prop55
280
     0
102
RTVSPost2010PropOp55
 70
     1
102
RTVSPost2010Prop56
140
1.0
102
RTVSPost2010PropOp56
 70
     1
102
RTVSPost2010Prop57
140
1.0
102
RTVSPost2010PropOp57
 70
     1
102
RTVSPropertyOp0
 70
     1
102
RTVSPropertyOp1
 70
     1
102
RTVSPropertyOp2
 70
     1
102
RTVSPropertyOp3
 70
     1
102
RTVSPropertyOp4
 70
     1
102
RTVSPropertyOp5
 70
     1
102
RTVSPropertyOp6
 70
     1
102
RTVSPropertyOp7
 70
     1
102
RTVSPropertyOp8
 70
     1
102
RTVSPropertyOp9
 70
     1
102
RTVSPropertyOp10
 70
     1
102
RTVSPropertyOp11
 70
     1
102
RTVSPropertyOp12
 70
     1
102
RTVSPropertyOp13
 70
     1
102
RTVSPropertyOp14
 70
     1
102
RTVSPropertyOp15
 70
     1
102
RTVSPropertyOp16
 70
     1
102
RTVSPropertyOp17
 70
     1
102
RTVSPropertyOp18
 70
     1
102
RTVSPropertyOp19
 70
     1
102
RTVSPropertyOp20
 70
     1
102
RTVSPropertyOp21
 70
     1
102
RTVSPropertyOp22
 70
     1
102
RTVSPropertyOp23
 70
     1
102
RTVSPropertyOp24
 70
     1
102
RTVSPropertyOp25
 70
     1
102
RTVSPropertyOp26
 70
     1
102
RTVSPropertyOp27
 70
     1
102
RTVSPropertyOp28
 70
     1
102
RTVSPropertyOp29
 70
     1
102
RTVSPropertyOp30
 70
     1
102
RTVSPropertyOp31
 70
     1
102
RTVSPropertyOp32
 70
     1
102
RTVSPropertyOp33
 70
     1
102
RTVSPropertyOp34
 70
     1
102
RTVSPropertyOp35
 70
     1
102
RTVSPropertyOp36
 70
     1
102
RTVSPropertyOp37
 70
     1
102
RTVSPropertyOp38
 70
     1
102
RTVSPropertyOp39
 70
     1
102
RTVSPropertyOp40
 70
     1
102
RTVSPropertyOp41
 70
     1
102
RTVSPropertyOp42
 70
     1
102
RTVSPropertyOp43
 70
     1
102
RTVSPropertyOp44
 70
     1
102
RTVSPropertyOp45
 70
     1
102
RTVSPropertyOp46
 70
     1
102
RTVSPropertyOp47
 70
     1
102
RTVSPropertyOp48
 70
     1
102
RTVSPropertyOp49
 70
     1
102
RTVSPropertyOp50
 70
     1
102
RTVSPropertyOp51
 70
     0
102
RTVSPropertyOp52
 70
     0
102
RTVSPropertyOp53
 70
     1
102
RTVSPropertyOp54
 70
     1
102
RTVSPropertyOp55
 70
     1
102
RTVSPropertyOp56
 70
     1
102
RTVSPropertyOp57
 70
     1
102
RTVSPropertyOp58
 70
     1
102
RTVSPropertyOp59
 70
     1
102
RTVSPropertyOp60
 70
     1
102
RTVSPropertyOp61
 70
     1
102
RTVSPropertyOp62
 70
     1
  0
XRECORD
  5
A5AA
102
{ACAD_REACTORS
330
A5A9
102
}
330
A5A9
100
AcDbXrecord
280
     1
102
RTVSPost2010Prop28
280
     0
102
RTVSPost2010PropOp28
 70
     1
102
RTVSPost2010Prop29
280
     1
102
RTVSPost2010PropOp29
 70
     1
102
RTVSPost2010Prop30
280
     1
102
RTVSPost2010PropOp30
 70
     1
102
RTVSPost2010Prop31
280
     0
102
RTVSPost2010PropOp31
 70
     1
102
RTVSPost2010Prop32
280
     0
102
RTVSPost2010PropOp32
 70
     1
102
RTVSPost2010Prop33
280
     0
102
RTVSPost2010PropOp33
 70
     1
102
RTVSPost2010Prop34
280
     0
102
RTVSPost2010PropOp34
 70
     1
102
RTVSPost2010Prop35
280
     0
102
RTVSPost2010PropOp35
 70
     1
102
RTVSPost2010Prop36
280
     0
102
RTVSPost2010PropOp36
 70
     1
102
RTVSPost2010Prop37
 90
       50
102
RTVSPost2010PropOp37
 70
     1
102
RTVSPost2010Prop38
140
0.0
102
RTVSPost2010PropOp38
 70
     1
102
RTVSPost2010Prop39
140
1.0
102
RTVSPost2010PropOp39
 70
     1
102
RTVSPost2010Prop40
 90
        0
102
RTVSPost2010PropOp40
 70
     1
102
RTVSPost2010Prop41ColorIndex
 90
       18
102
RTVSPost2010Prop41ColorRGB
 90
        0
102
RTVSPost2010PropOp41
 70
     1
102
RTVSPost2010Prop42
 90
       50
102
RTVSPost2010PropOp42
 70
     1
102
RTVSPost2010Prop43
 90
        3
102
RTVSPost2010PropOp43
 70
     1
102
RTVSPost2010Prop44ColorIndex
 90
        5
102
RTVSPost2010Prop44ColorRGB
 90
      255
102
RTVSPost2010PropOp44
 70
     1
102
RTVSPost2010Prop45
280
     0
102
RTVSPost2010PropOp45
 70
     1
102
RTVSPost2010Prop46
 90
       50
102
RTVSPost2010PropOp46
 70
     1
102
RTVSPost2010Prop47
 90
       50
102
RTVSPost2010PropOp47
 70
     1
102
RTVSPost2010Prop48
 90
       50
102
RTVSPost2010PropOp48
 70
     1
102
RTVSPost2010Prop49
280
     0
102
RTVSPost2010PropOp49
 70
     1
102
RTVSPost2010Prop50
 90
       50
102
RTVSPost2010PropOp50
 70
     1
102
RTVSPost2010Prop51ColorIndex
 90
      256
102
RTVSPost2010Prop51ColorRGB
 90
-16777216
102
RTVSPost2010PropOp51
 70
     0
102
RTVSPost2010Prop52
140
1.0
102
RTVSPost2010PropOp52
 70
     0
102
RTVSPost2010Prop53
 90
        2
102
RTVSPost2010PropOp53
 70
     1
102
RTVSPost2010Prop54
  1
strokes_ogs.tif
102
RTVSPost2010PropOp54
 70
     1
102
RTVSPost2010Prop55
280
     0
102
RTVSPost2010PropOp55
 70
     1
102
RTVSPost2010Prop56
140
1.0
102
RTVSPost2010PropOp56
 70
     1
102
RTVSPost2010Prop57
140
1.0
102
RTVSPost2010PropOp57
 70
     1
102
RTVSPropertyOp0
 70
     1
102
RTVSPropertyOp1
 70
     1
102
RTVSPropertyOp2
 70
     1
102
RTVSPropertyOp3
 70
     1
102
RTVSPropertyOp4
 70
     1
102
RTVSPropertyOp5
 70
     1
102
RTVSPropertyOp6
 70
     1
102
RTVSPropertyOp7
 70
     1
102
RTVSPropertyOp8
 70
     1
102
RTVSPropertyOp9
 70
     1
102
RTVSPropertyOp10
 70
     1
102
RTVSPropertyOp11
 70
     1
102
RTVSPropertyOp12
 70
     1
102
RTVSPropertyOp13
 70
     1
102
RTVSPropertyOp14
 70
     1
102
RTVSPropertyOp15
 70
     1
102
RTVSPropertyOp16
 70
     1
102
RTVSPropertyOp17
 70
     1
102
RTVSPropertyOp18
 70
     1
102
RTVSPropertyOp19
 70
     1
102
RTVSPropertyOp20
 70
     1
102
RTVSPropertyOp21
 70
     1
102
RTVSPropertyOp22
 70
     1
102
RTVSPropertyOp23
 70
     1
102
RTVSPropertyOp24
 70
     1
102
RTVSPropertyOp25
 70
     1
102
RTVSPropertyOp26
 70
     1
102
RTVSPropertyOp27
 70
     1
102
RTVSPropertyOp28
 70
     1
102
RTVSPropertyOp29
 70
     1
102
RTVSPropertyOp30
 70
     1
102
RTVSPropertyOp31
 70
     1
102
RTVSPropertyOp32
 70
     1
102
RTVSPropertyOp33
 70
     1
102
RTVSPropertyOp34
 70
     1
102
RTVSPropertyOp35
 70
     1
102
RTVSPropertyOp36
 70
     1
102
RTVSPropertyOp37
 70
     1
102
RTVSPropertyOp38
 70
     1
102
RTVSPropertyOp39
 70
     1
102
RTVSPropertyOp40
 70
     1
102
RTVSPropertyOp41
 70
     1
102
RTVSPropertyOp42
 70
     1
102
RTVSPropertyOp43
 70
     1
102
RTVSPropertyOp44
 70
     1
102
RTVSPropertyOp45
 70
     1
102
RTVSPropertyOp46
 70
     1
102
RTVSPropertyOp47
 70
     1
102
RTVSPropertyOp48
 70
     1
102
RTVSPropertyOp49
 70
     1
102
RTVSPropertyOp50
 70
     1
102
RTVSPropertyOp51
 70
     0
102
RTVSPropertyOp52
 70
     0
102
RTVSPropertyOp53
 70
     1
102
RTVSPropertyOp54
 70
     1
102
RTVSPropertyOp55
 70
     1
102
RTVSPropertyOp56
 70
     1
102
RTVSPropertyOp57
 70
     1
102
RTVSPropertyOp58
 70
     1
102
RTVSPropertyOp59
 70
     1
102
RTVSPropertyOp60
 70
     1
102
RTVSPropertyOp61
 70
     1
102
RTVSPropertyOp62
 70
     1
  0
XRECORD
  5
A5A0
102
{ACAD_REACTORS
330
A59F
102
}
330
A59F
100
AcDbXrecord
280
     1
102
RTVSPost2010Prop28
280
     0
102
RTVSPost2010PropOp28
 70
     1
102
RTVSPost2010Prop29
280
     1
102
RTVSPost2010PropOp29
 70
     1
102
RTVSPost2010Prop30
280
     1
102
RTVSPost2010PropOp30
 70
     1
102
RTVSPost2010Prop31
280
     0
102
RTVSPost2010PropOp31
 70
     1
102
RTVSPost2010Prop32
280
     0
102
RTVSPost2010PropOp32
 70
     1
102
RTVSPost2010Prop33
280
     0
102
RTVSPost2010PropOp33
 70
     1
102
RTVSPost2010Prop34
280
     0
102
RTVSPost2010PropOp34
 70
     1
102
RTVSPost2010Prop35
280
     0
102
RTVSPost2010PropOp35
 70
     1
102
RTVSPost2010Prop36
280
     0
102
RTVSPost2010PropOp36
 70
     1
102
RTVSPost2010Prop37
 90
       50
102
RTVSPost2010PropOp37
 70
     1
102
RTVSPost2010Prop38
140
0.0
102
RTVSPost2010PropOp38
 70
     1
102
RTVSPost2010Prop39
140
1.0
102
RTVSPost2010PropOp39
 70
     1
102
RTVSPost2010Prop40
 90
        0
102
RTVSPost2010PropOp40
 70
     1
102
RTVSPost2010Prop41ColorIndex
 90
       18
102
RTVSPost2010Prop41ColorRGB
 90
        0
102
RTVSPost2010PropOp41
 70
     1
102
RTVSPost2010Prop42
 90
       50
102
RTVSPost2010PropOp42
 70
     1
102
RTVSPost2010Prop43
 90
        3
102
RTVSPost2010PropOp43
 70
     1
102
RTVSPost2010Prop44ColorIndex
 90
        5
102
RTVSPost2010Prop44ColorRGB
 90
      255
102
RTVSPost2010PropOp44
 70
     1
102
RTVSPost2010Prop45
280
     0
102
RTVSPost2010PropOp45
 70
     1
102
RTVSPost2010Prop46
 90
       50
102
RTVSPost2010PropOp46
 70
     1
102
RTVSPost2010Prop47
 90
       50
102
RTVSPost2010PropOp47
 70
     1
102
RTVSPost2010Prop48
 90
       50
102
RTVSPost2010PropOp48
 70
     1
102
RTVSPost2010Prop49
280
     0
102
RTVSPost2010PropOp49
 70
     1
102
RTVSPost2010Prop50
 90
       50
102
RTVSPost2010PropOp50
 70
     1
102
RTVSPost2010Prop51ColorIndex
 90
      256
102
RTVSPost2010Prop51ColorRGB
 90
-16777216
102
RTVSPost2010PropOp51
 70
     0
102
RTVSPost2010Prop52
140
1.0
102
RTVSPost2010PropOp52
 70
     0
102
RTVSPost2010Prop53
 90
        2
102
RTVSPost2010PropOp53
 70
     1
102
RTVSPost2010Prop54
  1
strokes_ogs.tif
102
RTVSPost2010PropOp54
 70
     1
102
RTVSPost2010Prop55
280
     0
102
RTVSPost2010PropOp55
 70
     1
102
RTVSPost2010Prop56
140
1.0
102
RTVSPost2010PropOp56
 70
     1
102
RTVSPost2010Prop57
140
1.0
102
RTVSPost2010PropOp57
 70
     1
102
RTVSPropertyOp0
 70
     1
102
RTVSPropertyOp1
 70
     1
102
RTVSPropertyOp2
 70
     1
102
RTVSPropertyOp3
 70
     1
102
RTVSPropertyOp4
 70
     1
102
RTVSPropertyOp5
 70
     1
102
RTVSPropertyOp6
 70
     1
102
RTVSPropertyOp7
 70
     1
102
RTVSPropertyOp8
 70
     1
102
RTVSPropertyOp9
 70
     1
102
RTVSPropertyOp10
 70
     1
102
RTVSPropertyOp11
 70
     1
102
RTVSPropertyOp12
 70
     1
102
RTVSPropertyOp13
 70
     1
102
RTVSPropertyOp14
 70
     1
102
RTVSPropertyOp15
 70
     1
102
RTVSPropertyOp16
 70
     1
102
RTVSPropertyOp17
 70
     1
102
RTVSPropertyOp18
 70
     1
102
RTVSPropertyOp19
 70
     1
102
RTVSPropertyOp20
 70
     1
102
RTVSPropertyOp21
 70
     1
102
RTVSPropertyOp22
 70
     1
102
RTVSPropertyOp23
 70
     1
102
RTVSPropertyOp24
 70
     1
102
RTVSPropertyOp25
 70
     1
102
RTVSPropertyOp26
 70
     1
102
RTVSPropertyOp27
 70
     1
102
RTVSPropertyOp28
 70
     1
102
RTVSPropertyOp29
 70
     1
102
RTVSPropertyOp30
 70
     1
102
RTVSPropertyOp31
 70
     1
102
RTVSPropertyOp32
 70
     1
102
RTVSPropertyOp33
 70
     1
102
RTVSPropertyOp34
 70
     1
102
RTVSPropertyOp35
 70
     1
102
RTVSPropertyOp36
 70
     1
102
RTVSPropertyOp37
 70
     1
102
RTVSPropertyOp38
 70
     1
102
RTVSPropertyOp39
 70
     1
102
RTVSPropertyOp40
 70
     1
102
RTVSPropertyOp41
 70
     1
102
RTVSPropertyOp42
 70
     1
102
RTVSPropertyOp43
 70
     1
102
RTVSPropertyOp44
 70
     1
102
RTVSPropertyOp45
 70
     1
102
RTVSPropertyOp46
 70
     1
102
RTVSPropertyOp47
 70
     1
102
RTVSPropertyOp48
 70
     1
102
RTVSPropertyOp49
 70
     1
102
RTVSPropertyOp50
 70
     1
102
RTVSPropertyOp51
 70
     0
102
RTVSPropertyOp52
 70
     0
102
RTVSPropertyOp53
 70
     1
102
RTVSPropertyOp54
 70
     1
102
RTVSPropertyOp55
 70
     1
102
RTVSPropertyOp56
 70
     1
102
RTVSPropertyOp57
 70
     1
102
RTVSPropertyOp58
 70
     1
102
RTVSPropertyOp59
 70
     1
102
RTVSPropertyOp60
 70
     1
102
RTVSPropertyOp61
 70
     1
102
RTVSPropertyOp62
 70
     1
  0
XRECORD
  5
A594
102
{ACAD_REACTORS
330
A593
102
}
330
A593
100
AcDbXrecord
280
     1
102
RTVSPost2010Prop28
280
     0
102
RTVSPost2010PropOp28
 70
     1
102
RTVSPost2010Prop29
280
     1
102
RTVSPost2010PropOp29
 70
     1
102
RTVSPost2010Prop30
280
     1
102
RTVSPost2010PropOp30
 70
     1
102
RTVSPost2010Prop31
280
     0
102
RTVSPost2010PropOp31
 70
     1
102
RTVSPost2010Prop32
280
     0
102
RTVSPost2010PropOp32
 70
     1
102
RTVSPost2010Prop33
280
     0
102
RTVSPost2010PropOp33
 70
     1
102
RTVSPost2010Prop34
280
     0
102
RTVSPost2010PropOp34
 70
     1
102
RTVSPost2010Prop35
280
     0
102
RTVSPost2010PropOp35
 70
     1
102
RTVSPost2010Prop36
280
     0
102
RTVSPost2010PropOp36
 70
     1
102
RTVSPost2010Prop37
 90
       50
102
RTVSPost2010PropOp37
 70
     1
102
RTVSPost2010Prop38
140
0.0
102
RTVSPost2010PropOp38
 70
     1
102
RTVSPost2010Prop39
140
1.0
102
RTVSPost2010PropOp39
 70
     1
102
RTVSPost2010Prop40
 90
        0
102
RTVSPost2010PropOp40
 70
     1
102
RTVSPost2010Prop41ColorIndex
 90
       18
102
RTVSPost2010Prop41ColorRGB
 90
        0
102
RTVSPost2010PropOp41
 70
     1
102
RTVSPost2010Prop42
 90
       50
102
RTVSPost2010PropOp42
 70
     1
102
RTVSPost2010Prop43
 90
        3
102
RTVSPost2010PropOp43
 70
     1
102
RTVSPost2010Prop44ColorIndex
 90
        5
102
RTVSPost2010Prop44ColorRGB
 90
      255
102
RTVSPost2010PropOp44
 70
     1
102
RTVSPost2010Prop45
280
     0
102
RTVSPost2010PropOp45
 70
     1
102
RTVSPost2010Prop46
 90
       50
102
RTVSPost2010PropOp46
 70
     1
102
RTVSPost2010Prop47
 90
       50
102
RTVSPost2010PropOp47
 70
     1
102
RTVSPost2010Prop48
 90
       50
102
RTVSPost2010PropOp48
 70
     1
102
RTVSPost2010Prop49
280
     0
102
RTVSPost2010PropOp49
 70
     1
102
RTVSPost2010Prop50
 90
       50
102
RTVSPost2010PropOp50
 70
     1
102
RTVSPost2010Prop51ColorIndex
 90
      256
102
RTVSPost2010Prop51ColorRGB
 90
-16777216
102
RTVSPost2010PropOp51
 70
     0
102
RTVSPost2010Prop52
140
1.0
102
RTVSPost2010PropOp52
 70
     0
102
RTVSPost2010Prop53
 90
        2
102
RTVSPost2010PropOp53
 70
     1
102
RTVSPost2010Prop54
  1
strokes_ogs.tif
102
RTVSPost2010PropOp54
 70
     1
102
RTVSPost2010Prop55
280
     0
102
RTVSPost2010PropOp55
 70
     1
102
RTVSPost2010Prop56
140
1.0
102
RTVSPost2010PropOp56
 70
     1
102
RTVSPost2010Prop57
140
1.0
102
RTVSPost2010PropOp57
 70
     1
102
RTVSPropertyOp0
 70
     1
102
RTVSPropertyOp1
 70
     1
102
RTVSPropertyOp2
 70
     1
102
RTVSPropertyOp3
 70
     1
102
RTVSPropertyOp4
 70
     1
102
RTVSPropertyOp5
 70
     1
102
RTVSPropertyOp6
 70
     1
102
RTVSPropertyOp7
 70
     1
102
RTVSPropertyOp8
 70
     1
102
RTVSPropertyOp9
 70
     1
102
RTVSPropertyOp10
 70
     1
102
RTVSPropertyOp11
 70
     1
102
RTVSPropertyOp12
 70
     1
102
RTVSPropertyOp13
 70
     1
102
RTVSPropertyOp14
 70
     1
102
RTVSPropertyOp15
 70
     1
102
RTVSPropertyOp16
 70
     1
102
RTVSPropertyOp17
 70
     1
102
RTVSPropertyOp18
 70
     1
102
RTVSPropertyOp19
 70
     1
102
RTVSPropertyOp20
 70
     1
102
RTVSPropertyOp21
 70
     1
102
RTVSPropertyOp22
 70
     1
102
RTVSPropertyOp23
 70
     1
102
RTVSPropertyOp24
 70
     1
102
RTVSPropertyOp25
 70
     1
102
RTVSPropertyOp26
 70
     1
102
RTVSPropertyOp27
 70
     1
102
RTVSPropertyOp28
 70
     1
102
RTVSPropertyOp29
 70
     1
102
RTVSPropertyOp30
 70
     1
102
RTVSPropertyOp31
 70
     1
102
RTVSPropertyOp32
 70
     1
102
RTVSPropertyOp33
 70
     1
102
RTVSPropertyOp34
 70
     1
102
RTVSPropertyOp35
 70
     1
102
RTVSPropertyOp36
 70
     1
102
RTVSPropertyOp37
 70
     1
102
RTVSPropertyOp38
 70
     1
102
RTVSPropertyOp39
 70
     1
102
RTVSPropertyOp40
 70
     1
102
RTVSPropertyOp41
 70
     1
102
RTVSPropertyOp42
 70
     1
102
RTVSPropertyOp43
 70
     1
102
RTVSPropertyOp44
 70
     1
102
RTVSPropertyOp45
 70
     1
102
RTVSPropertyOp46
 70
     1
102
RTVSPropertyOp47
 70
     1
102
RTVSPropertyOp48
 70
     1
102
RTVSPropertyOp49
 70
     1
102
RTVSPropertyOp50
 70
     1
102
RTVSPropertyOp51
 70
     0
102
RTVSPropertyOp52
 70
     0
102
RTVSPropertyOp53
 70
     1
102
RTVSPropertyOp54
 70
     1
102
RTVSPropertyOp55
 70
     1
102
RTVSPropertyOp56
 70
     1
102
RTVSPropertyOp57
 70
     1
102
RTVSPropertyOp58
 70
     1
102
RTVSPropertyOp59
 70
     1
102
RTVSPropertyOp60
 70
     1
102
RTVSPropertyOp61
 70
     1
102
RTVSPropertyOp62
 70
     1
  0
XRECORD
  5
A5AC
102
{ACAD_REACTORS
330
A5AB
102
}
330
A5AB
100
AcDbXrecord
280
     1
102
RTVSPost2010Prop28
280
     0
102
RTVSPost2010PropOp28
 70
     1
102
RTVSPost2010Prop29
280
     1
102
RTVSPost2010PropOp29
 70
     1
102
RTVSPost2010Prop30
280
     1
102
RTVSPost2010PropOp30
 70
     1
102
RTVSPost2010Prop31
280
     0
102
RTVSPost2010PropOp31
 70
     1
102
RTVSPost2010Prop32
280
     0
102
RTVSPost2010PropOp32
 70
     1
102
RTVSPost2010Prop33
280
     0
102
RTVSPost2010PropOp33
 70
     1
102
RTVSPost2010Prop34
280
     0
102
RTVSPost2010PropOp34
 70
     1
102
RTVSPost2010Prop35
280
     0
102
RTVSPost2010PropOp35
 70
     1
102
RTVSPost2010Prop36
280
     0
102
RTVSPost2010PropOp36
 70
     1
102
RTVSPost2010Prop37
 90
       50
102
RTVSPost2010PropOp37
 70
     1
102
RTVSPost2010Prop38
140
0.0
102
RTVSPost2010PropOp38
 70
     1
102
RTVSPost2010Prop39
140
1.0
102
RTVSPost2010PropOp39
 70
     1
102
RTVSPost2010Prop40
 90
        0
102
RTVSPost2010PropOp40
 70
     1
102
RTVSPost2010Prop41ColorIndex
 90
       18
102
RTVSPost2010Prop41ColorRGB
 90
        0
102
RTVSPost2010PropOp41
 70
     1
102
RTVSPost2010Prop42
 90
       50
102
RTVSPost2010PropOp42
 70
     1
102
RTVSPost2010Prop43
 90
        3
102
RTVSPost2010PropOp43
 70
     1
102
RTVSPost2010Prop44ColorIndex
 90
        5
102
RTVSPost2010Prop44ColorRGB
 90
      255
102
RTVSPost2010PropOp44
 70
     1
102
RTVSPost2010Prop45
280
     0
102
RTVSPost2010PropOp45
 70
     1
102
RTVSPost2010Prop46
 90
       50
102
RTVSPost2010PropOp46
 70
     1
102
RTVSPost2010Prop47
 90
       50
102
RTVSPost2010PropOp47
 70
     1
102
RTVSPost2010Prop48
 90
       50
102
RTVSPost2010PropOp48
 70
     1
102
RTVSPost2010Prop49
280
     0
102
RTVSPost2010PropOp49
 70
     1
102
RTVSPost2010Prop50
 90
       50
102
RTVSPost2010PropOp50
 70
     1
102
RTVSPost2010Prop51ColorIndex
 90
      256
102
RTVSPost2010Prop51ColorRGB
 90
-16777216
102
RTVSPost2010PropOp51
 70
     0
102
RTVSPost2010Prop52
140
1.0
102
RTVSPost2010PropOp52
 70
     0
102
RTVSPost2010Prop53
 90
        2
102
RTVSPost2010PropOp53
 70
     1
102
RTVSPost2010Prop54
  1
strokes_ogs.tif
102
RTVSPost2010PropOp54
 70
     1
102
RTVSPost2010Prop55
280
     0
102
RTVSPost2010PropOp55
 70
     1
102
RTVSPost2010Prop56
140
1.0
102
RTVSPost2010PropOp56
 70
     1
102
RTVSPost2010Prop57
140
1.0
102
RTVSPost2010PropOp57
 70
     1
102
RTVSPropertyOp0
 70
     1
102
RTVSPropertyOp1
 70
     1
102
RTVSPropertyOp2
 70
     1
102
RTVSPropertyOp3
 70
     1
102
RTVSPropertyOp4
 70
     1
102
RTVSPropertyOp5
 70
     1
102
RTVSPropertyOp6
 70
     1
102
RTVSPropertyOp7
 70
     1
102
RTVSPropertyOp8
 70
     1
102
RTVSPropertyOp9
 70
     1
102
RTVSPropertyOp10
 70
     1
102
RTVSPropertyOp11
 70
     1
102
RTVSPropertyOp12
 70
     1
102
RTVSPropertyOp13
 70
     1
102
RTVSPropertyOp14
 70
     1
102
RTVSPropertyOp15
 70
     1
102
RTVSPropertyOp16
 70
     1
102
RTVSPropertyOp17
 70
     1
102
RTVSPropertyOp18
 70
     1
102
RTVSPropertyOp19
 70
     1
102
RTVSPropertyOp20
 70
     1
102
RTVSPropertyOp21
 70
     1
102
RTVSPropertyOp22
 70
     1
102
RTVSPropertyOp23
 70
     1
102
RTVSPropertyOp24
 70
     1
102
RTVSPropertyOp25
 70
     1
102
RTVSPropertyOp26
 70
     1
102
RTVSPropertyOp27
 70
     1
102
RTVSPropertyOp28
 70
     1
102
RTVSPropertyOp29
 70
     1
102
RTVSPropertyOp30
 70
     1
102
RTVSPropertyOp31
 70
     1
102
RTVSPropertyOp32
 70
     1
102
RTVSPropertyOp33
 70
     1
102
RTVSPropertyOp34
 70
     1
102
RTVSPropertyOp35
 70
     1
102
RTVSPropertyOp36
 70
     1
102
RTVSPropertyOp37
 70
     1
102
RTVSPropertyOp38
 70
     1
102
RTVSPropertyOp39
 70
     1
102
RTVSPropertyOp40
 70
     1
102
RTVSPropertyOp41
 70
     1
102
RTVSPropertyOp42
 70
     1
102
RTVSPropertyOp43
 70
     1
102
RTVSPropertyOp44
 70
     1
102
RTVSPropertyOp45
 70
     1
102
RTVSPropertyOp46
 70
     1
102
RTVSPropertyOp47
 70
     1
102
RTVSPropertyOp48
 70
     1
102
RTVSPropertyOp49
 70
     1
102
RTVSPropertyOp50
 70
     1
102
RTVSPropertyOp51
 70
     0
102
RTVSPropertyOp52
 70
     0
102
RTVSPropertyOp53
 70
     1
102
RTVSPropertyOp54
 70
     1
102
RTVSPropertyOp55
 70
     1
102
RTVSPropertyOp56
 70
     1
102
RTVSPropertyOp57
 70
     1
102
RTVSPropertyOp58
 70
     1
102
RTVSPropertyOp59
 70
     1
102
RTVSPropertyOp60
 70
     1
102
RTVSPropertyOp61
 70
     1
102
RTVSPropertyOp62
 70
     1
  0
ENDSEC
  0
EOF
