  0
SECTION
  2
HEADER
  9
$ACADVER
  1
AC1015
  9
$ACADMAINTVER
 70
    20
  9
$DWGCODEPAGE
  3
ANSI_932
  9
$INSBASE
 10
0.0
 20
0.0
 30
0.0
  9
$EXTMIN
 10
10.0
 20
9.999999999999998
 30
0.0
  9
$EXTMAX
 10
468.255519
 20
352.295657
 30
0.0
  9
$LIMMIN
 10
0.0
 20
0.0
  9
$LIMMAX
 10
554.3999999999998
 20
382.2
  9
$ORTHOMODE
 70
     1
  9
$REGENMODE
 70
     1
  9
$FILLMODE
 70
     1
  9
$QTEXTMODE
 70
     0
  9
$MIRRTEXT
 70
     1
  9
$LTSCALE
 40
20.0
  9
$ATTMODE
 70
     1
  9
$TEXTSIZE
 40
5.0
  9
$TRACEWID
 40
1.0
  9
$TEXTSTYLE
  7
STANDARD
  9
$CLAYER
  8
0
  9
$CELTYPE
  6
BYLAYER
  9
$CECOLOR
 62
   256
  9
$CELTSCALE
 40
1.0
  9
$DISPSILH
 70
     0
  9
$DIMSCALE
 40
1.0
  9
$DIMASZ
 40
3.0
  9
$DIMEXO
 40
1.0
  9
$DIMDLI
 40
10.0
  9
$DIMRND
 40
0.0
  9
$DIMDLE
 40
0.0
  9
$DIMEXE
 40
1.0
  9
$DIMTP
 40
0.0
  9
$DIMTM
 40
0.0
  9
$DIMTXT
 40
2.5
  9
$DIMCEN
 40
0.0
  9
$DIMTSZ
 40
0.0
  9
$DIMTOL
 70
     0
  9
$DIMLIM
 70
     0
  9
$DIMTIH
 70
     0
  9
$DIMTOH
 70
     0
  9
$DIMSE1
 70
     0
  9
$DIMSE2
 70
     0
  9
$DIMTAD
 70
     3
  9
$DIMZIN
 70
     8
  9
$DIMBLK
  1

  9
$DIMASO
 70
     1
  9
$DIMSHO
 70
     1
  9
$DIMPOST
  1

  9
$DIMAPOST
  1

  9
$DIMALT
 70
     0
  9
$DIMALTD
 70
     2
  9
$DIMALTF
 40
25.4
  9
$DIMLFAC
 40
1.0
  9
$DIMTOFL
 70
     1
  9
$DIMTVP
 40
0.0
  9
$DIMTIX
 70
     0
  9
$DIMSOXD
 70
     0
  9
$DIMSAH
 70
     1
  9
$DIMBLK1
  1
OPEN
  9
$DIMBLK2
  1
OPEN
  9
$DIMSTYLE
  2
STANDARD
  9
$DIMCLRD
 70
     0
  9
$DIMCLRE
 70
     0
  9
$DIMCLRT
 70
     0
  9
$DIMTFAC
 40
1.0
  9
$DIMGAP
 40
1.0
  9
$DIMJUST
 70
     0
  9
$DIMSD1
 70
     0
  9
$DIMSD2
 70
     0
  9
$DIMTOLJ
 70
     1
  9
$DIMTZIN
 70
     0
  9
$DIMALTZ
 70
     0
  9
$DIMALTTZ
 70
     0
  9
$DIMUPT
 70
     0
  9
$DIMDEC
 70
     4
  9
$DIMTDEC
 70
     4
  9
$DIMALTU
 70
     2
  9
$DIMALTTD
 70
     2
  9
$DIMTXSTY
  7
STANDARD
  9
$DIMAUNIT
 70
     0
  9
$DIMADEC
 70
     0
  9
$DIMALTRND
 40
0.0
  9
$DIMAZIN
 70
     0
  9
$DIMDSEP
 70
    46
  9
$DIMATFIT
 70
     3
  9
$DIMFRAC
 70
     0
  9
$DIMLDRBLK
  1
OPEN
  9
$DIMLUNIT
 70
     2
  9
$DIMLWD
 70
    -2
  9
$DIMLWE
 70
    -2
  9
$DIMTMOVE
 70
     0
  9
$LUNITS
 70
     2
  9
$LUPREC
 70
     4
  9
$SKETCHINC
 40
1.0
  9
$FILLETRAD
 40
0.0
  9
$AUNITS
 70
     0
  9
$AUPREC
 70
     2
  9
$MENU
  1
.
  9
$ELEVATION
 40
0.0
  9
$PELEVATION
 40
0.0
  9
$THICKNESS
 40
0.0
  9
$LIMCHECK
 70
     0
  9
$CHAMFERA
 40
10.0
  9
$CHAMFERB
 40
10.0
  9
$CHAMFERC
 40
0.0
  9
$CHAMFERD
 40
0.0
  9
$SKPOLY
 70
     0
  9
$TDCREATE
 40
2451301.396503473
  9
$TDUCREATE
 40
2451301.021503472
  9
$TDUPDATE
 40
2457192.686517767
  9
$TDUUPDATE
 40
2457192.311517766
  9
$TDINDWG
 40
0.0220940046
  9
$TDUSRTIMER
 40
0.0220937153
  9
$USRTIMER
 70
     1
  9
$ANGBASE
 50
0.0
  9
$ANGDIR
 70
     0
  9
$PDMODE
 70
     0
  9
$PDSIZE
 40
0.0
  9
$PLINEWID
 40
0.0
  9
$SPLFRAME
 70
     0
  9
$SPLINETYPE
 70
     6
  9
$SPLINESEGS
 70
     8
  9
$HANDSEED
  5
C35E
  9
$SURFTAB1
 70
     6
  9
$SURFTAB2
 70
     6
  9
$SURFTYPE
 70
     6
  9
$SURFU
 70
     6
  9
$SURFV
 70
     6
  9
$UCSBASE
  2

  9
$UCSNAME
  2

  9
$UCSORG
 10
0.0
 20
0.0
 30
0.0
  9
$UCSXDIR
 10
1.0
 20
0.0
 30
0.0
  9
$UCSYDIR
 10
0.0
 20
1.0
 30
0.0
  9
$UCSORTHOREF
  2

  9
$UCSORTHOVIEW
 70
     0
  9
$UCSORGTOP
 10
0.0
 20
0.0
 30
0.0
  9
$UCSORGBOTTOM
 10
0.0
 20
0.0
 30
0.0
  9
$UCSORGLEFT
 10
0.0
 20
0.0
 30
0.0
  9
$UCSORGRIGHT
 10
0.0
 20
0.0
 30
0.0
  9
$UCSORGFRONT
 10
0.0
 20
0.0
 30
0.0
  9
$UCSORGBACK
 10
0.0
 20
0.0
 30
0.0
  9
$PUCSBASE
  2

  9
$PUCSNAME
  2

  9
$PUCSORG
 10
0.0
 20
0.0
 30
0.0
  9
$PUCSXDIR
 10
1.0
 20
0.0
 30
0.0
  9
$PUCSYDIR
 10
0.0
 20
1.0
 30
0.0
  9
$PUCSORTHOREF
  2

  9
$PUCSORTHOVIEW
 70
     0
  9
$PUCSORGTOP
 10
0.0
 20
0.0
 30
0.0
  9
$PUCSORGBOTTOM
 10
0.0
 20
0.0
 30
0.0
  9
$PUCSORGLEFT
 10
0.0
 20
0.0
 30
0.0
  9
$PUCSORGRIGHT
 10
0.0
 20
0.0
 30
0.0
  9
$PUCSORGFRONT
 10
0.0
 20
0.0
 30
0.0
  9
$PUCSORGBACK
 10
0.0
 20
0.0
 30
0.0
  9
$USERI1
 70
     0
  9
$USERI2
 70
     0
  9
$USERI3
 70
     0
  9
$USERI4
 70
     0
  9
$USERI5
 70
     0
  9
$USERR1
 40
0.0
  9
$USERR2
 40
0.0
  9
$USERR3
 40
0.0
  9
$USERR4
 40
0.0
  9
$USERR5
 40
0.0
  9
$WORLDVIEW
 70
     1
  9
$SHADEDGE
 70
     3
  9
$SHADEDIF
 70
    70
  9
$TILEMODE
 70
     1
  9
$MAXACTVP
 70
    16
  9
$PINSBASE
 10
0.0
 20
0.0
 30
0.0
  9
$PLIMCHECK
 70
     0
  9
$PEXTMIN
 10
1.000000000000000E+20
 20
1.000000000000000E+20
 30
1.000000000000000E+20
  9
$PEXTMAX
 10
-1.000000000000000E+20
 20
-1.000000000000000E+20
 30
-1.000000000000000E+20
  9
$PLIMMIN
 10
0.0
 20
0.0
  9
$PLIMMAX
 10
420.0
 20
297.0
  9
$UNITMODE
 70
     0
  9
$VISRETAIN
 70
     0
  9
$PLINEGEN
 70
     0
  9
$PSLTSCALE
 70
     0
  9
$TREEDEPTH
 70
  3020
  9
$CMLSTYLE
  2
STANDARD
  9
$CMLJUST
 70
     0
  9
$CMLSCALE
 40
1.0
  9
$PROXYGRAPHICS
 70
     1
  9
$MEASUREMENT
 70
     0
  9
$CELWEIGHT
370
    -1
  9
$ENDCAPS
280
     0
  9
$JOINSTYLE
280
     0
  9
$LWDISPLAY
290
     0
  9
$INSUNITS
 70
     0
  9
$HYPERLINKBASE
  1

  9
$STYLESHEET
  1

  9
$XEDIT
290
     1
  9
$CEPSNTYPE
380
     0
  9
$PSTYLEMODE
290
     1
  9
$FINGERPRINTGUID
  2
{FE429796-4586-42C2-ADFD-54F8A57AF985}
  9
$VERSIONGUID
  2
{C4A1C957-9251-41DA-93AA-BC481745D9D9}
  9
$EXTNAMES
290
     1
  9
$PSVPSCALE
 40
0.0
  9
$OLESTARTUP
290
     0
  0
ENDSEC
  0
SECTION
  2
CLASSES
  0
CLASS
  1
ACDBDICTIONARYWDFLT
  2
AcDbDictionaryWithDefault
  3
ObjectDBX Classes
 90
        0
280
     0
281
     0
  0
CLASS
  1
ACDBPLACEHOLDER
  2
AcDbPlaceHolder
  3
ObjectDBX Classes
 90
        0
280
     0
281
     0
  0
CLASS
  1
LAYOUT
  2
AcDbLayout
  3
ObjectDBX Classes
 90
        0
280
     0
281
     0
  0
CLASS
  1
DICTIONARYVAR
  2
AcDbDictionaryVar
  3
ObjectDBX Classes
 90
        0
280
     0
281
     0
  0
CLASS
  1
MATERIAL
  2
AcDbMaterial
  3
ObjectDBX Classes
 90
     1153
280
     0
281
     0
  0
CLASS
  1
VISUALSTYLE
  2
AcDbVisualStyle
  3
ObjectDBX Classes
 90
     4095
280
     0
281
     0
  0
CLASS
  1
TABLESTYLE
  2
AcDbTableStyle
  3
ObjectDBX Classes
 90
     4095
280
     0
281
     0
  0
CLASS
  1
SCALE
  2
AcDbScale
  3
ObjectDBX Classes
 90
     1153
280
     0
281
     0
  0
CLASS
  1
MLEADERSTYLE
  2
AcDbMLeaderStyle
  3
ACDB_MLEADERSTYLE_CLASS
 90
     4095
280
     0
281
     0
  0
CLASS
  1
ACDBSECTIONVIEWSTYLE
  2
AcDbSectionViewStyle
  3
ObjectDBX Classes
 90
     1025
280
     0
281
     0
  0
CLASS
  1
ACDBDETAILVIEWSTYLE
  2
AcDbDetailViewStyle
  3
ObjectDBX Classes
 90
     1025
280
     0
281
     0
  0
CLASS
  1
CELLSTYLEMAP
  2
AcDbCellStyleMap
  3
ObjectDBX Classes
 90
     1152
280
     0
281
     0
  0
ENDSEC
  0
SECTION
  2
TABLES
  0
TABLE
  2
VPORT
  5
BF4A
330
0
100
AcDbSymbolTable
 70
     1
  0
VPORT
  5
C2A7
330
BF4A
100
AcDbSymbolTableRecord
100
AcDbViewportTableRecord
  2
*ACTIVE
 70
     0
 10
0.0
 20
0.0
 11
1.0
 21
1.0
 12
342.7977350237963
 22
181.1565957269358
 13
0.0
 23
0.0
 14
10.0
 24
10.0
 15
10.0
 25
10.0
 16
0.0
 26
0.0
 36
1.0
 17
0.0
 27
0.0
 37
0.0
 40
346.1157546443526
 41
2.35006605019815
 42
50.0
 43
0.0
 44
0.0
 50
0.0
 51
0.0
 71
     0
 72
   100
 73
     1
 74
     0
 75
     0
 76
     0
 77
     0
 78
     0
281
     0
 65
     1
110
0.0
120
0.0
130
0.0
111
1.0
121
0.0
131
0.0
112
0.0
122
1.0
132
0.0
 79
     0
146
0.0
1001
ACAD_NAV_VCDISPLAY
1070
     3
  0
ENDTAB
  0
TABLE
  2
LTYPE
  5
BF47
330
0
100
AcDbSymbolTable
 70
     4
  0
LTYPE
  5
BF55
330
BF47
100
AcDbSymbolTableRecord
100
AcDbLinetypeTableRecord
  2
BYBLOCK
 70
     0
  3

 72
    65
 73
     0
 40
0.0
  0
LTYPE
  5
BF56
330
BF47
100
AcDbSymbolTableRecord
100
AcDbLinetypeTableRecord
  2
BYLAYER
 70
     0
  3

 72
    65
 73
     0
 40
0.0
  0
LTYPE
  5
BF57
330
BF47
100
AcDbSymbolTableRecord
100
AcDbLinetypeTableRecord
  2
CONTINUOUS
 70
     0
  3
Solid line
 72
    65
 73
     0
 40
0.0
  0
LTYPE
  5
BF65
330
BF47
100
AcDbSymbolTableRecord
100
AcDbLinetypeTableRecord
  2
DASHED
 70
     0
  3
__ __ __ __ __ __ __ __ __ __ __ __ __ __ __ __
 72
    65
 73
     2
 40
0.75
 49
0.5
 74
     0
 49
-0.25
 74
     0
  0
LTYPE
  5
BF66
330
BF47
100
AcDbSymbolTableRecord
100
AcDbLinetypeTableRecord
  2
CENTER
 70
     0
  3
____ _ ____ _ ____ _ ____ _ ____ _ ____ _ ____ 
 72
    65
 73
     4
 40
2.0
 49
1.25
 74
     0
 49
-0.25
 74
     0
 49
0.25
 74
     0
 49
-0.25
 74
     0
  0
LTYPE
  5
BF67
330
BF47
100
AcDbSymbolTableRecord
100
AcDbLinetypeTableRecord
  2
PHANTOM
 70
     0
  3
______  __  __  ______  __  __  ______  __  __ 
 72
    65
 73
     6
 40
2.5
 49
1.25
 74
     0
 49
-0.25
 74
     0
 49
0.25
 74
     0
 49
-0.25
 74
     0
 49
0.25
 74
     0
 49
-0.25
 74
     0
  0
ENDTAB
  0
TABLE
  2
LAYER
  5
BF44
330
0
100
AcDbSymbolTable
 70
     8
  0
LAYER
  5
BF52
102
{ACAD_XDICTIONARY
360
C302
102
}
330
BF44
100
AcDbSymbolTableRecord
100
AcDbLayerTableRecord
  2
0
 70
     0
 62
     7
  6
CONTINUOUS
370
    -3
390
C2B0
  0
LAYER
  5
BF68
102
{ACAD_XDICTIONARY
360
C304
102
}
330
BF44
100
AcDbSymbolTableRecord
100
AcDbLayerTableRecord
  2
4
 70
     0
 62
     1
  6
CENTER
370
    -3
390
C2B0
  0
LAYER
  5
BF69
102
{ACAD_XDICTIONARY
360
C306
102
}
330
BF44
100
AcDbSymbolTableRecord
100
AcDbLayerTableRecord
  2
5
 70
     0
 62
     6
  6
PHANTOM
370
    -3
390
C2B0
  0
LAYER
  5
BF6A
102
{ACAD_XDICTIONARY
360
C308
102
}
330
BF44
100
AcDbSymbolTableRecord
100
AcDbLayerTableRecord
  2
1
 70
     0
 62
     7
  6
CONTINUOUS
370
    -3
390
C2B0
  0
LAYER
  5
BF6B
102
{ACAD_XDICTIONARY
360
C30A
102
}
330
BF44
100
AcDbSymbolTableRecord
100
AcDbLayerTableRecord
  2
2
 70
     0
 62
     4
  6
CONTINUOUS
370
    -3
390
C2B0
  0
LAYER
  5
BF6C
102
{ACAD_XDICTIONARY
360
C30C
102
}
330
BF44
100
AcDbSymbolTableRecord
100
AcDbLayerTableRecord
  2
3
 70
     0
 62
     2
  6
DASHED
370
    -3
390
C2B0
  0
LAYER
  5
BF6D
102
{ACAD_XDICTIONARY
360
C30E
102
}
330
BF44
100
AcDbSymbolTableRecord
100
AcDbLayerTableRecord
  2
6
 70
     0
 62
     5
  6
CONTINUOUS
370
    -3
390
C2B0
  0
LAYER
  5
BF6E
102
{ACAD_XDICTIONARY
360
C310
102
}
330
BF44
100
AcDbSymbolTableRecord
100
AcDbLayerTableRecord
  2
7
 70
     0
 62
     3
  6
CONTINUOUS
370
    -3
390
C2B0
  0
ENDTAB
  0
TABLE
  2
STYLE
  5
BF45
330
0
100
AcDbSymbolTable
 70
     1
  0
STYLE
  5
BF53
330
BF45
100
AcDbSymbolTableRecord
100
AcDbTextStyleTableRecord
  2
STANDARD
 70
     0
 40
0.0
 41
1.0
 50
0.0
 71
     0
 42
5.0
  3
txt
  4

  0
ENDTAB
  0
TABLE
  2
VIEW
  5
BF48
330
0
100
AcDbSymbolTable
 70
     0
  0
ENDTAB
  0
TABLE
  2
UCS
  5
BF49
330
0
100
AcDbSymbolTable
 70
     0
  0
ENDTAB
  0
TABLE
  2
APPID
  5
BF4B
330
0
100
AcDbSymbolTable
 70
     3
  0
APPID
  5
BF54
330
BF4B
100
AcDbSymbolTableRecord
100
AcDbRegAppTableRecord
  2
ACAD
 70
     0
  0
APPID
  5
C31C
330
BF4B
100
AcDbSymbolTableRecord
100
AcDbRegAppTableRecord
  2
ACAD_NAV_VCDISPLAY
 70
     0
  0
APPID
  5
C355
330
BF4B
100
AcDbSymbolTableRecord
100
AcDbRegAppTableRecord
  2
ACAD_MLEADERVER
 70
     0
  0
ENDTAB
  0
TABLE
  2
DIMSTYLE
  5
BF4C
330
0
100
AcDbSymbolTable
 70
     1
100
AcDbDimStyleTable
 71
     0
  0
DIMSTYLE
105
BF70
330
BF4C
100
AcDbSymbolTableRecord
100
AcDbDimStyleTableRecord
  2
STANDARD
 70
     0
 41
3.0
 42
1.0
 43
10.0
 44
1.0
 73
     0
 74
     0
 77
     3
 78
     8
140
2.5
141
0.0
147
1.0
172
     1
173
     1
284
     8
285
     8
286
     8
340
BF53
  0
ENDTAB
  0
TABLE
  2
BLOCK_RECORD
  5
BF43
330
0
100
AcDbSymbolTable
 70
     1
  0
BLOCK_RECORD
  5
BF60
102
{ACAD_XDICTIONARY
360
C2AA
102
}
330
BF43
100
AcDbSymbolTableRecord
100
AcDbBlockTableRecord
  2
*MODEL_SPACE
340
C2FE
  0
BLOCK_RECORD
  5
BF5C
102
{ACAD_XDICTIONARY
360
C2A8
102
}
330
BF43
100
AcDbSymbolTableRecord
100
AcDbBlockTableRecord
  2
*PAPER_SPACE
340
C2FF
  0
BLOCK_RECORD
  5
BF78
330
BF43
100
AcDbSymbolTableRecord
100
AcDbBlockTableRecord
  2
_OPEN
340
0
  0
ENDTAB
  0
ENDSEC
  0
SECTION
  2
BLOCKS
  0
BLOCK
  5
BF61
330
BF60
100
AcDbEntity
  8
0
100
AcDbBlockBegin
  2
*MODEL_SPACE
 70
     0
 10
0.0
 20
0.0
 30
0.0
  3
*MODEL_SPACE
  1

  0
ENDBLK
  5
BF62
330
BF60
100
AcDbEntity
  8
0
100
AcDbBlockEnd
  0
BLOCK
  5
BF5D
330
BF5C
100
AcDbEntity
 67
     1
  8
0
100
AcDbBlockBegin
  2
*PAPER_SPACE
 70
     0
 10
0.0
 20
0.0
 30
0.0
  3
*PAPER_SPACE
  1

  0
ENDBLK
  5
BF5E
330
BF5C
100
AcDbEntity
 67
     1
  8
0
100
AcDbBlockEnd
  0
BLOCK
  5
BF79
330
BF78
100
AcDbEntity
  8
0
100
AcDbBlockBegin
  2
_OPEN
 70
     0
 10
0.0
 20
0.0
 30
0.0
  3
_OPEN
  1

  0
LINE
  5
BF7A
330
BF78
100
AcDbEntity
  8
0
  6
ByBlock
 62
     0
100
AcDbLine
 10
-1.0
 20
0.166667
 30
0.0
 11
0.0
 21
0.0
 31
0.0
  0
LINE
  5
BF7B
330
BF78
100
AcDbEntity
  8
0
  6
ByBlock
 62
     0
100
AcDbLine
 10
0.0
 20
0.0
 30
0.0
 11
-1.0
 21
-0.166667
 31
0.0
  0
LINE
  5
BF7C
330
BF78
100
AcDbEntity
  8
0
  6
ByBlock
 62
     0
100
AcDbLine
 10
0.0
 20
0.0
 30
0.0
 11
-1.0
 21
0.0
 31
0.0
  0
ENDBLK
  5
BF7D
330
BF78
100
AcDbEntity
  8
0
100
AcDbBlockEnd
  0
ENDSEC
  0
SECTION
  2
ENTITIES
  0
TEXT
  5
BF7E
330
BF60
100
AcDbEntity
  8
7
  6
Continuous
100
AcDbText
 10
10.0
 20
18.0
 30
0.0
 40
3.0
  1
TYPE No.103A.F-N
100
AcDbText
  0
TEXT
  5
BF7F
330
BF60
100
AcDbEntity
  8
7
  6
Continuous
100
AcDbText
 10
10.0
 20
26.0
 30
0.0
 40
3.0
  1
CODE No.9137
100
AcDbText
  0
TEXT
  5
BF80
330
BF60
100
AcDbEntity
  8
1
  6
Continuous
100
AcDbText
 10
10.0
 20
10.0
 30
0.0
 40
1.399999999999999
  1
LAYER
100
AcDbText
  0
TEXT
  5
BF81
330
BF60
100
AcDbEntity
  8
1
  6
Continuous
100
AcDbText
 10
17.97951099999998
 20
10.04873699999998
 30
0.0
 40
1.399999999999999
  1
1
100
AcDbText
  0
TEXT
  5
BF82
330
BF60
100
AcDbEntity
  8
7
  6
Continuous
100
AcDbText
 10
29.97951099999999
 20
10.04873699999998
 30
0.0
 40
1.399999999999999
  1
7
100
AcDbText
  0
TEXT
  5
BF83
330
BF60
100
AcDbEntity
  8
4
  6
CENTER
100
AcDbText
 10
23.97951099999999
 20
10.04873699999998
 30
0.0
 40
1.399999999999999
  1
4
100
AcDbText
  0
TEXT
  5
BF84
330
BF60
100
AcDbEntity
  8
3
  6
DASHED
100
AcDbText
 10
21.979511
 20
10.04873699999998
 30
0.0
 40
1.399999999999999
  1
3
100
AcDbText
  0
TEXT
  5
BF85
330
BF60
100
AcDbEntity
  8
2
  6
Continuous
100
AcDbText
 10
19.97951099999999
 20
10.04873699999998
 30
0.0
 40
1.399999999999999
  1
2
100
AcDbText
  0
TEXT
  5
BF86
330
BF60
100
AcDbEntity
  8
6
  6
Continuous
100
AcDbText
 10
27.979511
 20
10.04873699999998
 30
0.0
 40
1.399999999999999
  1
6
100
AcDbText
  0
TEXT
  5
BF87
330
BF60
100
AcDbEntity
  8
5
  6
PHANTOM
100
AcDbText
 10
25.97951099999999
 20
10.04873699999998
 30
0.0
 40
1.399999999999999
  1
5
100
AcDbText
  0
LINE
  5
BF88
330
BF60
100
AcDbEntity
  8
1
  6
Continuous
100
AcDbLine
 10
216.2516779999999
 20
176.210263
 30
0.0
 11
216.2516779999999
 21
172.210263
 31
0.0
  0
LINE
  5
BF89
330
BF60
100
AcDbEntity
  8
1
  6
Continuous
100
AcDbLine
 10
196.2516779999999
 20
176.210263
 30
0.0
 11
196.2516779999999
 21
172.210263
 31
0.0
  0
LINE
  5
BF8A
330
BF60
100
AcDbEntity
  8
1
  6
Continuous
100
AcDbLine
 10
210.7516779999999
 20
176.210263
 30
0.0
 11
210.7516779999999
 21
172.210263
 31
0.0
  0
LINE
  5
BF8B
330
BF60
100
AcDbEntity
  8
1
  6
Continuous
100
AcDbLine
 10
201.751678
 20
176.210263
 30
0.0
 11
201.751678
 21
172.210263
 31
0.0
  0
LINE
  5
BF8C
330
BF60
100
AcDbEntity
  8
1
  6
Continuous
100
AcDbLine
 10
216.2516779999999
 20
176.210263
 30
0.0
 11
196.2516779999999
 21
176.210263
 31
0.0
  0
ARC
  5
BF8D
330
BF60
100
AcDbEntity
  8
1
  6
Continuous
100
AcDbCircle
 10
213.5016779999999
 20
175.491513
 30
0.0
 40
4.28125
100
AcDbArc
 50
230.0337869999999
 51
309.966213
  0
ARC
  5
BF8E
330
BF60
100
AcDbEntity
  8
1
  6
Continuous
100
AcDbCircle
 10
206.251678
 20
181.8352629999999
 30
0.0
 40
10.625
100
AcDbArc
 50
244.942385
 51
295.057615
  0
ARC
  5
BF8F
330
BF60
100
AcDbEntity
  8
1
  6
Continuous
100
AcDbCircle
 10
199.0016779999999
 20
175.491513
 30
0.0
 40
4.28125
100
AcDbArc
 50
230.0337869999999
 51
309.966213
  0
LINE
  5
BF90
330
BF60
100
AcDbEntity
  8
1
  6
Continuous
100
AcDbLine
 10
213.5016779999999
 20
171.2102629999999
 30
0.0
 11
199.0016779999999
 21
171.2102629999999
 31
0.0
  0
LINE
  5
BF91
330
BF60
100
AcDbEntity
  8
1
  6
Continuous
100
AcDbLine
 10
211.2516779999999
 20
188.910298
 30
0.0
 11
211.2516779999999
 21
176.210263
 31
0.0
  0
LINE
  5
BF92
330
BF60
100
AcDbEntity
  8
1
  6
Continuous
100
AcDbLine
 10
201.2516779999999
 20
188.910298
 30
0.0
 11
201.2516779999999
 21
176.210263
 31
0.0
  0
LINE
  5
BF93
330
BF60
100
AcDbEntity
  8
1
  6
Continuous
100
AcDbLine
 10
209.7516779999998
 20
171.2102629999999
 30
0.0
 11
209.7516779999998
 21
170.724955
 31
0.0
  0
LINE
  5
BF94
330
BF60
100
AcDbEntity
  8
1
  6
Continuous
100
AcDbLine
 10
202.751678
 20
170.724955
 30
0.0
 11
202.751678
 21
171.2102629999999
 31
0.0
  0
LINE
  5
BF95
330
BF60
100
AcDbEntity
  8
1
  6
Continuous
100
AcDbLine
 10
195.7516779999999
 20
170.710263
 30
0.0
 11
195.7516779999999
 21
170.2102629999999
 31
0.0
  0
LINE
  5
BF96
330
BF60
100
AcDbEntity
  8
1
  6
Continuous
100
AcDbLine
 10
216.7516779999999
 20
170.710263
 30
0.0
 11
216.7516779999999
 21
170.2102629999999
 31
0.0
  0
LINE
  5
BF97
330
BF60
100
AcDbEntity
  8
1
  6
Continuous
100
AcDbLine
 10
225.101678
 20
167.2102629999999
 30
0.0
 11
225.101678
 21
164.210263
 31
0.0
  0
LINE
  5
BF98
330
BF60
100
AcDbEntity
  8
1
  6
Continuous
100
AcDbLine
 10
187.401678
 20
164.210263
 30
0.0
 11
187.401678
 21
167.2102629999999
 31
0.0
  0
LINE
  5
BF99
330
BF60
100
AcDbEntity
  8
1
  6
Continuous
100
AcDbLine
 10
225.101678
 20
164.210263
 30
0.0
 11
187.401678
 21
164.210263
 31
0.0
  0
ARC
  5
BF9A
330
BF60
100
AcDbEntity
  8
1
  6
Continuous
100
AcDbCircle
 10
222.1016779999999
 20
167.2102629999999
 30
0.0
 40
3.0
100
AcDbArc
 50
0.0
 51
90.0
  0
ARC
  5
BF9B
330
BF60
100
AcDbEntity
  8
1
  6
Continuous
100
AcDbCircle
 10
190.401678
 20
167.2102629999999
 30
0.0
 40
3.0
100
AcDbArc
 50
90.0
 51
180.0
  0
LINE
  5
BF9C
330
BF60
100
AcDbEntity
  8
1
  6
Continuous
100
AcDbLine
 10
222.1016779999999
 20
170.2102629999999
 30
0.0
 11
190.401678
 21
170.2102629999999
 31
0.0
  0
LINE
  5
BF9D
330
BF60
100
AcDbEntity
  8
1
  6
Continuous
100
AcDbLine
 10
223.5016779999999
 20
164.210263
 30
0.0
 11
223.5016779999999
 21
157.7102629999999
 31
0.0
  0
LINE
  5
BF9E
330
BF60
100
AcDbEntity
  8
1
  6
Continuous
100
AcDbLine
 10
189.001678
 20
164.210263
 30
0.0
 11
189.001678
 21
157.7102629999999
 31
0.0
  0
LINE
  5
BF9F
330
BF60
100
AcDbEntity
  8
1
  6
Continuous
100
AcDbLine
 10
223.5016779999999
 20
157.7102629999999
 30
0.0
 11
189.001678
 21
157.7102629999999
 31
0.0
  0
ARC
  5
BFA0
330
BF60
100
AcDbEntity
  8
1
  6
Continuous
100
AcDbCircle
 10
163.699799
 20
211.1999049999997
 30
0.0
 40
3.903893
100
AcDbArc
 50
122.2397269999999
 51
138.3577309999997
  0
ARC
  5
BFA1
330
BF60
100
AcDbEntity
  8
1
  6
Continuous
100
AcDbCircle
 10
163.6011879999998
 20
211.356256
 30
0.0
 40
3.719041999999998
100
AcDbArc
 50
90.00004399999998
 51
122.2397269999999
  0
ARC
  5
BFA2
330
BF60
100
AcDbEntity
  8
1
  6
Continuous
100
AcDbCircle
 10
164.8156699999999
 20
210.2077149999999
 30
0.0
 40
5.397081
100
AcDbArc
 50
138.3577309999997
 51
153.7952999999999
  0
ARC
  5
BFA3
330
BF60
100
AcDbEntity
  8
1
  6
Continuous
100
AcDbCircle
 10
157.194327
 20
212.569241
 30
0.0
 40
2.779046999999998
100
AcDbArc
 50
350.511243
 51
0.4476720000000002
  0
ARC
  5
BFA4
330
BF60
100
AcDbEntity
  8
1
  6
Continuous
100
AcDbCircle
 10
162.6462209999999
 20
164.1543809999998
 30
0.0
 40
47.941747
100
AcDbArc
 50
93.523197
 51
101.7392569999999
  0
ARC
  5
BFA5
330
BF60
100
AcDbEntity
  8
1
  6
Continuous
100
AcDbCircle
 10
159.677601
 20
212.370523
 30
0.0
 40
0.365696
100
AcDbArc
 50
273.523197
 51
314.815141
  0
ARC
  5
BFA6
330
BF60
100
AcDbEntity
  8
1
  6
Continuous
100
AcDbCircle
 10
158.087221
 20
186.093254
 30
0.0
 40
25.53418999999999
100
AcDbArc
 50
101.7392569999999
 51
116.385656
  0
ARC
  5
BFA7
330
BF60
100
AcDbEntity
  8
1
  6
Continuous
100
AcDbCircle
 10
141.6595669999999
 20
221.267236
 30
0.0
 40
15.28686099999998
100
AcDbArc
 50
290.113849
 51
295.562224
  0
ARC
  5
BFA8
330
BF60
100
AcDbEntity
  8
1
  6
Continuous
100
AcDbCircle
 10
157.2476969999998
 20
188.677174
 30
0.0
 40
20.83933299999999
100
AcDbArc
 50
108.002609
 51
115.562224
  0
ARC
  5
BFA9
330
BF60
100
AcDbEntity
  8
1
  6
Continuous
100
AcDbCircle
 10
147.182095
 20
207.4596099999999
 30
0.0
 40
0.6079810000000001
100
AcDbArc
 50
201.184
 51
244.098621
  0
ARC
  5
BFAA
330
BF60
100
AcDbEntity
  8
1
  6
Continuous
100
AcDbCircle
 10
124.5163369999997
 20
198.675423
 30
0.0
 40
23.70042399999999
100
AcDbArc
 50
21.184
 51
24.157624
  0
ARC
  5
BFAB
330
BF60
100
AcDbEntity
  8
1
  6
Continuous
100
AcDbCircle
 10
148.5554299999997
 20
206.5352569999999
 30
0.0
 40
3.035225999999998
100
AcDbArc
 50
126.74604
 51
142.6949679999998
  0
LINE
  5
BFAC
330
BF60
100
AcDbEntity
  8
1
  6
Continuous
100
AcDbLine
 10
194.3951449999999
 20
215.075322
 30
0.0
 11
163.6011879999998
 21
215.075275
 31
0.0
  0
LINE
  5
BFAD
330
BF60
100
AcDbEntity
  8
1
  6
Continuous
100
AcDbLine
 10
159.174185
 20
174.818107
 30
0.0
 11
169.7373979999998
 21
175.561726
 31
0.0
  0
ARC
  5
BFAE
330
BF60
100
AcDbEntity
  8
1
  6
Continuous
100
AcDbCircle
 10
169.473928
 20
179.304356
 30
0.0
 40
3.751891999999998
100
AcDbArc
 50
274.0268089999999
 51
333.909053
  0
ARC
  5
BFAF
330
BF60
100
AcDbEntity
  8
1
  6
Continuous
100
AcDbCircle
 10
338.7870659999999
 20
96.391874
 30
0.0
 40
184.7724259999999
100
AcDbArc
 50
148.295173
 51
153.909053
  0
ARC
  5
BFB0
330
BF60
100
AcDbEntity
  8
1
  6
Continuous
100
AcDbCircle
 10
196.331632
 20
181.3483939999999
 30
0.0
 40
21.51445999999999
100
AcDbArc
 50
96.15826500000002
 51
104.01644
  0
ARC
  5
BFB1
330
BF60
100
AcDbEntity
  8
1
  6
Continuous
100
AcDbCircle
 10
192.020574
 20
198.6179939999999
 30
0.0
 40
3.714901999999998
100
AcDbArc
 50
104.01644
 51
130.072753
  0
ARC
  5
BFB2
330
BF60
100
AcDbEntity
  8
1
  6
Continuous
100
AcDbCircle
 10
234.554637
 20
148.05839
 30
0.0
 40
69.78622699999999
100
AcDbArc
 50
130.072753
 51
139.3736939999998
  0
ARC
  5
BFB3
330
BF60
100
AcDbEntity
  8
1
  6
Continuous
100
AcDbCircle
 10
202.6093939999999
 20
123.84341
 30
0.0
 40
79.35321
100
AcDbArc
 50
88.925005
 51
96.15826500000002
  0
LINE
  5
BFB4
330
BF60
100
AcDbEntity
  8
1
  6
Continuous
100
AcDbLine
 10
150.603251
 20
210.012882
 30
0.0
 11
154.861435
 21
178.330389
 31
0.0
  0
ARC
  5
BFB5
330
BF60
100
AcDbEntity
  8
1
  6
Continuous
100
AcDbCircle
 10
158.888825
 20
178.871678
 30
0.0
 40
4.063601999999998
100
AcDbArc
 50
187.654785
 51
274.0268089999999
  0
ARC
  5
BFB6
330
BF60
100
AcDbEntity
  8
1
  6
Continuous
100
AcDbCircle
 10
202.494055
 20
686.1225789999997
 30
0.0
 40
471.1497549999998
100
AcDbArc
 50
269.952738
 51
270.630847
  0
ARC
  5
BFB7
330
BF60
100
AcDbEntity
  8
1
  6
Continuous
100
AcDbCircle
 10
202.172795
 20
296.6542029999999
 30
0.0
 40
81.681246
100
AcDbArc
 50
267.598015
 51
269.952738
  0
ARC
  5
BFB8
330
BF60
100
AcDbEntity
  8
1
  6
Continuous
100
AcDbCircle
 10
209.147073
 20
81.89576700000001
 30
0.0
 40
133.113684
100
AcDbArc
 50
87.996002
 51
90.630847
  0
ARC
  5
BFB9
330
BF60
100
AcDbEntity
  8
1
  6
Continuous
100
AcDbCircle
 10
213.927671
 20
211.3957259999998
 30
0.0
 40
3.485376999999997
100
AcDbArc
 50
23.353943
 51
81.35279999999999
  0
ARC
  5
BFBA
330
BF60
100
AcDbEntity
  8
1
  6
Continuous
100
AcDbCircle
 10
211.2406189999999
 20
210.235499
 30
0.0
 40
6.412213999999998
100
AcDbArc
 50
359.6315119999999
 51
23.353943
  0
ARC
  5
BFBB
330
BF60
100
AcDbEntity
  8
1
  6
Continuous
100
AcDbCircle
 10
144.7173939999998
 20
207.493794
 30
0.0
 40
72.95869999999998
100
AcDbArc
 50
357.774122
 51
1.159634
  0
ARC
  5
BFBC
330
BF60
100
AcDbEntity
  8
1
  6
Continuous
100
AcDbCircle
 10
213.9024089999999
 20
204.517147
 30
0.0
 40
3.749505
100
AcDbArc
 50
334.349468
 51
347.6783879999999
  0
ARC
  5
BFBD
330
BF60
100
AcDbEntity
  8
1
  6
Continuous
100
AcDbCircle
 10
230.3373099999999
 20
203.438648
 30
0.0
 40
12.774798
100
AcDbArc
 50
174.513139
 51
178.7514419999999
  0
LINE
  5
BFBE
330
BF60
100
AcDbEntity
  8
1
  6
Continuous
100
AcDbLine
 10
206.063017
 20
202.8940579999999
 30
0.0
 11
204.0981469999999
 21
203.1826539999999
 31
0.0
  0
ARC
  5
BFBF
330
BF60
100
AcDbEntity
  8
1
  6
Continuous
100
AcDbCircle
 10
196.126055
 20
152.502723
 30
0.0
 40
62.597
100
AcDbArc
 50
87.598015
 51
91.66966499999999
  0
ARC
  5
BFC0
330
BF60
100
AcDbEntity
  8
1
  6
Continuous
100
AcDbCircle
 10
263.5443509999999
 20
209.8991119999999
 30
0.0
 40
45.8926
100
AcDbArc
 50
179.6315119999999
 51
181.159634
  0
ARC
  5
BFC1
330
BF60
100
AcDbEntity
  8
1
  6
Continuous
100
AcDbCircle
 10
212.800825
 20
203.5054249999999
 30
0.0
 40
11.4664
100
AcDbArc
 50
81.35279999999999
 51
84.991134
  0
LINE
  5
BFC2
330
BF60
100
AcDbEntity
  8
1
  6
Continuous
100
AcDbLine
 10
159.935352
 20
212.111104
 30
0.0
 11
168.7288399999999
 21
212.111104
 31
0.0
  0
ARC
  5
BFC3
330
BF60
100
AcDbEntity
  8
1
  6
Continuous
100
AcDbCircle
 10
168.7288399999999
 20
214.7626409999999
 30
0.0
 40
2.651536999999998
100
AcDbArc
 50
270.0
 51
350.453982
  0
LINE
  5
BFC4
330
BF60
100
AcDbEntity
  8
1
  6
Continuous
100
AcDbLine
 10
206.063017
 20
202.8940579999999
 30
0.0
 11
217.282405
 21
202.8940579999999
 31
0.0
  0
ARC
  5
BFC5
330
BF60
100
AcDbEntity
  8
1
  6
Continuous
100
AcDbCircle
 10
159.7516589999998
 20
182.7102629999999
 30
0.0
 40
25.0
100
AcDbArc
 50
110.19956
 51
26.907958
  0
ARC
  5
BFC6
330
BF60
100
AcDbEntity
  8
1
  6
Continuous
100
AcDbCircle
 10
159.7516589999998
 20
182.7102629999999
 30
0.0
 40
8.5
100
AcDbArc
 50
137.362085
 51
296.8917279999999
  0
ARC
  5
BFC7
330
BF60
100
AcDbEntity
  8
1
  6
Continuous
100
AcDbCircle
 10
57.49972299999999
 20
270.9244519999999
 30
0.0
 40
64.067327
100
AcDbArc
 50
259.7451689999999
 51
280.254831
  0
ARC
  5
BFC8
330
BF60
100
AcDbEntity
  8
1
  6
Continuous
100
AcDbCircle
 10
57.49972299999999
 20
270.9244519999999
 30
0.0
 40
62.646627
100
AcDbArc
 50
259.8436229999999
 51
280.156377
  0
LINE
  5
BFC9
330
BF60
100
AcDbEntity
  8
1
  6
Continuous
100
AcDbLine
 10
44.916102
 20
206.883163
 30
0.0
 11
45.34491699999999
 21
174.807778
 31
0.0
  0
LINE
  5
BFCA
330
BF60
100
AcDbEntity
  8
1
  6
Continuous
100
AcDbLine
 10
70.083343
 20
206.883163
 30
0.0
 11
69.65452900000001
 21
174.807778
 31
0.0
  0
LINE
  5
BFCB
330
BF60
100
AcDbEntity
  8
1
  6
Continuous
100
AcDbLine
 10
42.888899
 20
208.9045959999999
 30
0.0
 11
43.34473899999998
 21
174.807775
 31
0.0
  0
LINE
  5
BFCC
330
BF60
100
AcDbEntity
  8
1
  6
Continuous
100
AcDbLine
 10
72.11054699999998
 20
208.9045959999999
 30
0.0
 11
71.654707
 21
174.807778
 31
0.0
  0
LINE
  5
BFCD
330
BF60
100
AcDbEntity
  8
1
  6
Continuous
100
AcDbLine
 10
71.829551
 20
174.807778
 30
0.0
 11
69.65452900000001
 21
174.807778
 31
0.0
  0
LINE
  5
BFCE
330
BF60
100
AcDbEntity
  8
1
  6
Continuous
100
AcDbLine
 10
45.34491699999999
 20
174.807778
 30
0.0
 11
43.169895
 21
174.807778
 31
0.0
  0
LINE
  5
BFCF
330
BF60
100
AcDbEntity
  8
1
  6
Continuous
100
AcDbLine
 10
72.15119
 20
211.944699
 30
0.0
 11
42.848256
 21
211.944699
 31
0.0
  0
ARC
  5
BFD0
330
BF60
100
AcDbEntity
  8
1
  6
Continuous
100
AcDbCircle
 10
69.07554499999999
 20
206.306498
 30
0.0
 40
3.0
100
AcDbArc
 50
359.2340599999997
 51
100.156377
  0
ARC
  5
BFD1
330
BF60
100
AcDbEntity
  8
1
  6
Continuous
100
AcDbCircle
 10
45.923901
 20
206.306498
 30
0.0
 40
3.0
100
AcDbArc
 50
79.84362299999998
 51
180.76594
  0
ARC
  5
BFD2
330
BF60
100
AcDbEntity
  8
1
  6
Continuous
100
AcDbCircle
 10
69.083433
 20
206.896531
 30
0.0
 40
1.0
100
AcDbArc
 50
359.2340599999997
 51
100.254831
  0
ARC
  5
BFD3
330
BF60
100
AcDbEntity
  8
1
  6
Continuous
100
AcDbCircle
 10
45.91601299999999
 20
206.896531
 30
0.0
 40
1.0
100
AcDbArc
 50
79.74516899999997
 51
180.76594
  0
ARC
  5
BFD4
330
BF60
100
AcDbEntity
  8
1
  6
Continuous
100
AcDbCircle
 10
69.110815
 20
208.9446989999999
 30
0.0
 40
3.0
100
AcDbArc
 50
359.2340599999997
 51
90.0
  0
ARC
  5
BFD5
330
BF60
100
AcDbEntity
  8
1
  6
Continuous
100
AcDbCircle
 10
45.888631
 20
208.9446989999999
 30
0.0
 40
3.0
100
AcDbArc
 50
90.0
 51
180.76594
  0
ARC
  5
BFD6
330
BF60
100
AcDbEntity
  8
1
  6
Continuous
100
AcDbCircle
 10
50.14623199999999
 20
182.710298
 30
0.0
 40
9.0
100
AcDbArc
 50
151.821357
 51
208.178643
  0
LINE
  5
BFD7
330
BF60
100
AcDbEntity
  8
1
  6
Continuous
100
AcDbLine
 10
42.21291599999999
 20
186.9602979999999
 30
0.0
 11
42.21291599999999
 21
178.460298
 31
0.0
  0
LINE
  5
BFD8
330
BF60
100
AcDbEntity
  8
1
  6
Continuous
100
AcDbLine
 10
43.14623199999998
 20
186.9602979999999
 30
0.0
 11
42.21291599999999
 21
186.9602979999999
 31
0.0
  0
LINE
  5
BFD9
330
BF60
100
AcDbEntity
  8
1
  6
Continuous
100
AcDbLine
 10
43.14623199999998
 20
178.460298
 30
0.0
 11
42.21291599999999
 21
178.460298
 31
0.0
  0
ARC
  5
BFDA
330
BF60
100
AcDbEntity
  8
1
  6
Continuous
100
AcDbCircle
 10
65.70242399999999
 20
182.710298
 30
0.0
 40
7.5
100
AcDbArc
 50
327.769047
 51
32.230953
  0
LINE
  5
BFDB
330
BF60
100
AcDbEntity
  8
1
  6
Continuous
100
AcDbLine
 10
72.04671199999999
 20
186.710298
 30
0.0
 11
72.04671199999999
 21
178.710298
 31
0.0
  0
LINE
  5
BFDC
330
BF60
100
AcDbEntity
  8
1
  6
Continuous
100
AcDbLine
 10
71.813822
 20
186.710298
 30
0.0
 11
72.04671199999999
 21
186.710298
 31
0.0
  0
LINE
  5
BFDD
330
BF60
100
AcDbEntity
  8
1
  6
Continuous
100
AcDbLine
 10
72.04671199999999
 20
178.710298
 30
0.0
 11
71.70687099999998
 21
178.710298
 31
0.0
  0
LINE
  5
BFDE
330
BF60
100
AcDbEntity
  8
1
  6
Continuous
100
AcDbLine
 10
69.720061
 20
179.710298
 30
0.0
 11
69.249723
 21
179.710298
 31
0.0
  0
LINE
  5
BFDF
330
BF60
100
AcDbEntity
  8
1
  6
Continuous
100
AcDbLine
 10
45.279385
 20
179.710298
 30
0.0
 11
45.74972299999997
 21
179.710298
 31
0.0
  0
LINE
  5
BFE0
330
BF60
100
AcDbEntity
  8
1
  6
Continuous
100
AcDbLine
 10
43.14623199999998
 20
186.9602979999999
 30
0.0
 11
43.14623199999998
 21
178.460298
 31
0.0
  0
LINE
  5
BFE1
330
BF60
100
AcDbEntity
  8
1
  6
Continuous
100
AcDbLine
 10
45.19917099999999
 20
185.710298
 30
0.0
 11
45.74972299999997
 21
185.710298
 31
0.0
  0
LINE
  5
BFE2
330
BF60
100
AcDbEntity
  8
1
  6
Continuous
100
AcDbLine
 10
69.249723
 20
185.710298
 30
0.0
 11
69.800275
 21
185.710298
 31
0.0
  0
LINE
  5
BFE3
330
BF60
100
AcDbEntity
  8
1
  6
Continuous
100
AcDbLine
 10
46.49972299999999
 20
205.2961569999999
 30
0.0
 11
46.49972299999999
 21
160.1244379999999
 31
0.0
  0
ARC
  5
BFE4
330
BF60
100
AcDbEntity
  8
1
  6
Continuous
100
AcDbCircle
 10
48.49972300000001
 20
205.2961569999999
 30
0.0
 40
2.0
100
AcDbArc
 50
95.26928199999998
 51
180.0
  0
ARC
  5
BFE5
330
BF60
100
AcDbEntity
  8
1
  6
Continuous
100
AcDbCircle
 10
57.49972299999999
 20
107.710298
 30
0.0
 40
100.0
100
AcDbArc
 50
94.674825
 51
95.26928199999998
  0
ARC
  5
BFE6
330
BF60
100
AcDbEntity
  8
1
  6
Continuous
100
AcDbCircle
 10
48.49972300000001
 20
160.1244379999999
 30
0.0
 40
2.0
100
AcDbArc
 50
180.0
 51
264.730718
  0
ARC
  5
BFE7
330
BF60
100
AcDbEntity
  8
1
  6
Continuous
100
AcDbCircle
 10
57.49972299999999
 20
257.710298
 30
0.0
 40
100.0
100
AcDbArc
 50
264.730718
 51
275.269983
  0
LINE
  5
BFE8
330
BF60
100
AcDbEntity
  8
1
  6
Continuous
100
AcDbLine
 10
69.249723
 20
188.290714
 30
0.0
 11
69.249723
 21
177.1298129999999
 31
0.0
  0
LINE
  5
BFE9
330
BF60
100
AcDbEntity
  8
1
  6
Continuous
100
AcDbLine
 10
68.836547
 20
188.783117
 30
0.0
 11
68.49972300000001
 21
188.842509
 31
0.0
  0
ARC
  5
BFEA
330
BF60
100
AcDbEntity
  8
1
  6
Continuous
100
AcDbCircle
 10
68.749723
 20
188.290714
 30
0.0
 40
0.5
100
AcDbArc
 50
0.0
 51
80.0
  0
LINE
  5
BFEB
330
BF60
100
AcDbEntity
  8
1
  6
Continuous
100
AcDbLine
 10
68.836547
 20
176.637409
 30
0.0
 11
68.49972300000001
 21
176.5780179999999
 31
0.0
  0
ARC
  5
BFEC
330
BF60
100
AcDbEntity
  8
1
  6
Continuous
100
AcDbCircle
 10
68.749723
 20
177.1298129999999
 30
0.0
 40
0.5
100
AcDbArc
 50
280.0
 51
0.0
  0
LINE
  5
BFED
330
BF60
100
AcDbEntity
  8
1
  6
Continuous
100
AcDbLine
 10
68.49972300000001
 20
205.2961569999999
 30
0.0
 11
68.49972300000001
 21
160.1244379999999
 31
0.0
  0
ARC
  5
BFEE
330
BF60
100
AcDbEntity
  8
1
  6
Continuous
100
AcDbCircle
 10
66.499723
 20
205.2961569999999
 30
0.0
 40
2.0
100
AcDbArc
 50
0.0
 51
84.73071800000003
  0
ARC
  5
BFEF
330
BF60
100
AcDbEntity
  8
1
  6
Continuous
100
AcDbCircle
 10
66.499723
 20
160.1244379999999
 30
0.0
 40
2.0
100
AcDbArc
 50
275.2692819999999
 51
0.0
  0
LINE
  5
BFF0
330
BF60
100
AcDbEntity
  8
1
  6
Continuous
100
AcDbLine
 10
45.74972299999997
 20
188.290714
 30
0.0
 11
45.74972299999997
 21
177.1298129999999
 31
0.0
  0
LINE
  5
BFF1
330
BF60
100
AcDbEntity
  8
1
  6
Continuous
100
AcDbLine
 10
46.16289899999999
 20
188.783117
 30
0.0
 11
46.49972299999999
 21
188.842509
 31
0.0
  0
ARC
  5
BFF2
330
BF60
100
AcDbEntity
  8
1
  6
Continuous
100
AcDbCircle
 10
46.24972299999998
 20
188.290714
 30
0.0
 40
0.5
100
AcDbArc
 50
100.0
 51
180.0
  0
LINE
  5
BFF3
330
BF60
100
AcDbEntity
  8
1
  6
Continuous
100
AcDbLine
 10
46.16289899999999
 20
176.637409
 30
0.0
 11
46.49972299999999
 21
176.5780179999999
 31
0.0
  0
ARC
  5
BFF4
330
BF60
100
AcDbEntity
  8
1
  6
Continuous
100
AcDbCircle
 10
46.24972299999998
 20
177.1298129999999
 30
0.0
 40
0.5
100
AcDbArc
 50
180.0
 51
260.0
  0
ARC
  5
BFF5
330
BF60
100
AcDbEntity
  8
1
  6
Continuous
100
AcDbCircle
 10
57.49972299999999
 20
107.710298
 30
0.0
 40
100.0
100
AcDbArc
 50
84.73071800000003
 51
85.325175
  0
LINE
  5
BFF6
330
BF60
100
AcDbEntity
  8
4
  6
CENTER
100
AcDbLine
 10
178.7516589999999
 20
200.065842
 30
0.0
 11
178.7516589999999
 21
225.1361249999999
 31
0.0
  0
LINE
  5
BFF7
330
BF60
100
AcDbEntity
  8
4
  6
CENTER
100
AcDbLine
 10
57.49972299999999
 20
226.4876679999999
 30
0.0
 11
57.49972299999999
 21
154.823675
 31
0.0
  0
LINE
  5
BFF8
330
BF60
100
AcDbEntity
  8
4
  6
CENTER
100
AcDbLine
 10
206.251678
 20
146.005844
 30
0.0
 11
206.251678
 21
225.1405899999999
 31
0.0
  0
LINE
  5
BFF9
330
BF60
100
AcDbEntity
  8
4
  6
CENTER
100
AcDbLine
 10
187.7516589999999
 20
182.7102629999999
 30
0.0
 11
131.7516589999998
 21
182.7102629999999
 31
0.0
  0
LINE
  5
BFFA
330
BF60
100
AcDbEntity
  8
4
  6
CENTER
100
AcDbLine
 10
159.7516589999998
 20
154.7102629999999
 30
0.0
 11
159.7516589999998
 21
210.7102629999999
 31
0.0
  0
LINE
  5
BFFB
330
BF60
100
AcDbEntity
  8
4
  6
CENTER
100
AcDbLine
 10
74.975502
 20
182.7102629999999
 30
0.0
 11
40.628719
 21
182.7102629999999
 31
0.0
  0
LINE
  5
BFFC
330
BF60
100
AcDbEntity
  8
1
  6
Continuous
100
AcDbLine
 10
216.7516779999999
 20
170.710263
 30
0.0
 11
195.7516779999999
 21
170.710263
 31
0.0
  0
LINE
  5
BFFD
330
BF60
100
AcDbEntity
  8
2
  6
Continuous
100
AcDbLine
 10
211.2516779999999
 20
177.8038379999999
 30
0.0
 11
210.439678
 21
179.210263
 31
0.0
  0
LINE
  5
BFFE
330
BF60
100
AcDbEntity
  8
2
  6
Continuous
100
AcDbLine
 10
201.2516779999999
 20
177.8038379999999
 30
0.0
 11
202.063678
 21
179.210263
 31
0.0
  0
LINE
  5
BFFF
330
BF60
100
AcDbEntity
  8
1
  6
Continuous
100
AcDbLine
 10
211.2516779999999
 20
179.210263
 30
0.0
 11
201.2516779999999
 21
179.210263
 31
0.0
  0
LINE
  5
C000
330
BF60
100
AcDbEntity
  8
2
  6
Continuous
100
AcDbLine
 10
210.439678
 20
179.210263
 30
0.0
 11
210.439678
 21
188.910298
 31
0.0
  0
LINE
  5
C001
330
BF60
100
AcDbEntity
  8
2
  6
Continuous
100
AcDbLine
 10
202.063678
 20
179.210263
 30
0.0
 11
202.063678
 21
188.910298
 31
0.0
  0
LINE
  5
C002
330
BF60
100
AcDbEntity
  8
1
  6
Continuous
100
AcDbLine
 10
73.34972299999998
 20
170.210298
 30
0.0
 11
68.49972300000001
 21
170.210298
 31
0.0
  0
LINE
  5
C003
330
BF60
100
AcDbEntity
  8
1
  6
Continuous
100
AcDbLine
 10
76.34972299999998
 20
164.2102979999999
 30
0.0
 11
68.49972300000001
 21
164.2102979999999
 31
0.0
  0
LINE
  5
C004
330
BF60
100
AcDbEntity
  8
1
  6
Continuous
100
AcDbLine
 10
74.74972300000001
 20
157.710298
 30
0.0
 11
40.24972299999999
 21
157.710298
 31
0.0
  0
ARC
  5
C005
330
BF60
100
AcDbEntity
  8
1
  6
Continuous
100
AcDbCircle
 10
73.34972299999998
 20
167.210298
 30
0.0
 40
3.0
100
AcDbArc
 50
0.0
 51
90.0
  0
LINE
  5
C006
330
BF60
100
AcDbEntity
  8
1
  6
Continuous
100
AcDbLine
 10
76.34972299999998
 20
167.210298
 30
0.0
 11
76.34972299999998
 21
164.2102979999999
 31
0.0
  0
LINE
  5
C007
330
BF60
100
AcDbEntity
  8
1
  6
Continuous
100
AcDbLine
 10
74.74972300000001
 20
164.2102979999999
 30
0.0
 11
74.74972300000001
 21
157.710298
 31
0.0
  0
LINE
  5
C008
330
BF60
100
AcDbEntity
  8
1
  6
Continuous
100
AcDbLine
 10
38.649723
 20
164.2102979999999
 30
0.0
 11
38.649723
 21
167.210298
 31
0.0
  0
ARC
  5
C009
330
BF60
100
AcDbEntity
  8
1
  6
Continuous
100
AcDbCircle
 10
41.649723
 20
167.210298
 30
0.0
 40
3.0
100
AcDbArc
 50
90.0
 51
180.0
  0
LINE
  5
C00A
330
BF60
100
AcDbEntity
  8
1
  6
Continuous
100
AcDbLine
 10
40.24972299999999
 20
164.2102979999999
 30
0.0
 11
40.24972299999999
 21
157.710298
 31
0.0
  0
LINE
  5
C00B
330
BF60
100
AcDbEntity
  8
1
  6
Continuous
100
AcDbLine
 10
46.49972299999999
 20
164.2102979999999
 30
0.0
 11
38.649723
 21
164.2102979999999
 31
0.0
  0
LINE
  5
C00C
330
BF60
100
AcDbEntity
  8
1
  6
Continuous
100
AcDbLine
 10
46.49972299999999
 20
170.210298
 30
0.0
 11
41.649723
 21
170.210298
 31
0.0
  0
LINE
  5
C00D
330
BF60
100
AcDbEntity
  8
4
  6
CENTER
100
AcDbLine
 10
300.0035889999999
 20
226.4876679999999
 30
0.0
 11
300.0035889999999
 21
154.823675
 31
0.0
  0
LINE
  5
C00E
330
BF60
100
AcDbEntity
  8
1
  6
Continuous
100
AcDbLine
 10
289.0035889999999
 20
202.894093
 30
0.0
 11
289.0035889999999
 21
170.2102979999999
 31
0.0
  0
LINE
  5
C00F
330
BF60
100
AcDbEntity
  8
1
  6
Continuous
100
AcDbLine
 10
311.0035889999999
 20
202.894093
 30
0.0
 11
311.0035889999999
 21
170.2102979999999
 31
0.0
  0
LINE
  5
C010
330
BF60
100
AcDbEntity
  8
1
  6
Continuous
100
AcDbLine
 10
282.7535889999999
 20
157.710298
 30
0.0
 11
317.2535889999999
 21
157.710298
 31
0.0
  0
LINE
  5
C011
330
BF60
100
AcDbEntity
  8
4
  6
CENTER
100
AcDbLine
 10
282.5278099999998
 20
182.7102629999999
 30
0.0
 11
316.874593
 21
182.7102629999999
 31
0.0
  0
LINE
  5
C012
330
BF60
100
AcDbEntity
  8
1
  6
Continuous
100
AcDbLine
 10
284.153589
 20
170.210298
 30
0.0
 11
315.853589
 21
170.210298
 31
0.0
  0
LINE
  5
C013
330
BF60
100
AcDbEntity
  8
1
  6
Continuous
100
AcDbLine
 10
281.153589
 20
164.2102979999999
 30
0.0
 11
318.853589
 21
164.2102979999999
 31
0.0
  0
LINE
  5
C014
330
BF60
100
AcDbEntity
  8
1
  6
Continuous
100
AcDbLine
 10
317.2535889999999
 20
164.2102979999999
 30
0.0
 11
317.2535889999999
 21
157.710298
 31
0.0
  0
ARC
  5
C015
330
BF60
100
AcDbEntity
  8
1
  6
Continuous
100
AcDbCircle
 10
315.853589
 20
167.210298
 30
0.0
 40
3.0
100
AcDbArc
 50
0.0
 51
90.0
  0
LINE
  5
C016
330
BF60
100
AcDbEntity
  8
1
  6
Continuous
100
AcDbLine
 10
318.853589
 20
164.2102979999999
 30
0.0
 11
318.853589
 21
167.210298
 31
0.0
  0
ARC
  5
C017
330
BF60
100
AcDbEntity
  8
1
  6
Continuous
100
AcDbCircle
 10
311.2535889999999
 20
177.1298129999999
 30
0.0
 40
0.5
100
AcDbArc
 50
280.0
 51
0.0
  0
LINE
  5
C018
330
BF60
100
AcDbEntity
  8
1
  6
Continuous
100
AcDbLine
 10
311.340413
 20
176.637409
 30
0.0
 11
311.0035889999999
 21
176.5780179999999
 31
0.0
  0
ARC
  5
C019
330
BF60
100
AcDbEntity
  8
1
  6
Continuous
100
AcDbCircle
 10
311.2535889999999
 20
188.290714
 30
0.0
 40
0.5
100
AcDbArc
 50
0.0
 51
80.0
  0
LINE
  5
C01A
330
BF60
100
AcDbEntity
  8
1
  6
Continuous
100
AcDbLine
 10
311.340413
 20
188.783117
 30
0.0
 11
311.0035889999999
 21
188.842509
 31
0.0
  0
LINE
  5
C01B
330
BF60
100
AcDbEntity
  8
1
  6
Continuous
100
AcDbLine
 10
311.7535889999999
 20
188.290714
 30
0.0
 11
311.7535889999999
 21
177.1298129999999
 31
0.0
  0
LINE
  5
C01C
330
BF60
100
AcDbEntity
  8
1
  6
Continuous
100
AcDbLine
 10
311.7535889999999
 20
185.710298
 30
0.0
 11
312.304141
 21
185.710298
 31
0.0
  0
LINE
  5
C01D
330
BF60
100
AcDbEntity
  8
1
  6
Continuous
100
AcDbLine
 10
312.223927
 20
179.710298
 30
0.0
 11
311.7535889999999
 21
179.710298
 31
0.0
  0
LINE
  5
C01E
330
BF60
100
AcDbEntity
  8
1
  6
Continuous
100
AcDbLine
 10
312.1583949999999
 20
174.807778
 30
0.0
 11
314.333417
 21
174.807778
 31
0.0
  0
LINE
  5
C01F
330
BF60
100
AcDbEntity
  8
1
  6
Continuous
100
AcDbLine
 10
282.7535889999999
 20
164.2102979999999
 30
0.0
 11
282.7535889999999
 21
157.710298
 31
0.0
  0
LINE
  5
C020
330
BF60
100
AcDbEntity
  8
1
  6
Continuous
100
AcDbLine
 10
281.153589
 20
167.210298
 30
0.0
 11
281.153589
 21
164.2102979999999
 31
0.0
  0
ARC
  5
C021
330
BF60
100
AcDbEntity
  8
1
  6
Continuous
100
AcDbCircle
 10
284.153589
 20
167.210298
 30
0.0
 40
3.0
100
AcDbArc
 50
90.0
 51
180.0
  0
ARC
  5
C022
330
BF60
100
AcDbEntity
  8
1
  6
Continuous
100
AcDbCircle
 10
288.7535889999999
 20
177.1298129999999
 30
0.0
 40
0.5
100
AcDbArc
 50
180.0
 51
260.0
  0
ARC
  5
C023
330
BF60
100
AcDbEntity
  8
1
  6
Continuous
100
AcDbCircle
 10
288.7535889999999
 20
188.290714
 30
0.0
 40
0.5
100
AcDbArc
 50
100.0
 51
180.0
  0
LINE
  5
C024
330
BF60
100
AcDbEntity
  8
1
  6
Continuous
100
AcDbLine
 10
288.666765
 20
176.637409
 30
0.0
 11
289.0035889999999
 21
176.5780179999999
 31
0.0
  0
LINE
  5
C025
330
BF60
100
AcDbEntity
  8
1
  6
Continuous
100
AcDbLine
 10
288.666765
 20
188.783117
 30
0.0
 11
289.0035889999999
 21
188.842509
 31
0.0
  0
LINE
  5
C026
330
BF60
100
AcDbEntity
  8
1
  6
Continuous
100
AcDbLine
 10
288.2535889999999
 20
188.290714
 30
0.0
 11
288.2535889999999
 21
177.1298129999999
 31
0.0
  0
LINE
  5
C027
330
BF60
100
AcDbEntity
  8
1
  6
Continuous
100
AcDbLine
 10
287.7030369999999
 20
185.710298
 30
0.0
 11
288.2535889999999
 21
185.710298
 31
0.0
  0
LINE
  5
C028
330
BF60
100
AcDbEntity
  8
1
  6
Continuous
100
AcDbLine
 10
287.7832509999997
 20
179.710298
 30
0.0
 11
288.2535889999999
 21
179.710298
 31
0.0
  0
LINE
  5
C029
330
BF60
100
AcDbEntity
  8
1
  6
Continuous
100
AcDbLine
 10
285.203589
 20
215.074991
 30
0.0
 11
291.920685
 21
215.074991
 31
0.0
  0
CIRCLE
  5
C02A
330
BF60
100
AcDbEntity
  8
1
  6
Continuous
100
AcDbCircle
 10
159.7516589999998
 20
182.7102629999999
 30
0.0
 40
4.0
  0
ARC
  5
C02B
330
BF60
100
AcDbEntity
  8
1
  6
Continuous
100
AcDbCircle
 10
238.469305
 20
207.4938289999999
 30
0.0
 40
72.95869999999998
100
AcDbArc
 50
357.774122
 51
1.159634
  0
LINE
  5
C02C
330
BF60
100
AcDbEntity
  8
1
  6
Continuous
100
AcDbLine
 10
287.4221559999999
 20
202.894093
 30
0.0
 11
312.5850219999999
 21
202.894093
 31
0.0
  0
ARC
  5
C02D
330
BF60
100
AcDbEntity
  8
1
  6
Continuous
100
AcDbCircle
 10
324.089221
 20
203.4386829999998
 30
0.0
 40
12.774798
100
AcDbArc
 50
174.513139
 51
178.7514419999999
  0
ARC
  5
C02E
330
BF60
100
AcDbEntity
  8
1
  6
Continuous
100
AcDbCircle
 10
307.6543199999999
 20
204.5171819999999
 30
0.0
 40
3.749505
100
AcDbArc
 50
334.349468
 51
347.6783879999999
  0
ARC
  5
C02F
330
BF60
100
AcDbEntity
  8
1
  6
Continuous
100
AcDbCircle
 10
357.296262
 20
209.899147
 30
0.0
 40
45.8926
100
AcDbArc
 50
179.6315119999999
 51
181.159634
  0
ARC
  5
C030
330
BF60
100
AcDbEntity
  8
1
  6
Continuous
100
AcDbCircle
 10
304.9925299999998
 20
210.2355339999999
 30
0.0
 40
6.412213999999998
100
AcDbArc
 50
359.6315119999999
 51
23.353943
  0
ARC
  5
C031
330
BF60
100
AcDbEntity
  8
1
  6
Continuous
100
AcDbCircle
 10
307.679582
 20
211.3957609999999
 30
0.0
 40
3.485376999999997
100
AcDbArc
 50
23.353943
 51
81.35279999999999
  0
LINE
  5
C032
330
BF60
100
AcDbEntity
  8
2
  6
Continuous
100
AcDbLine
 10
295.815589
 20
179.2102979999999
 30
0.0
 11
295.815589
 21
188.910298
 31
0.0
  0
LINE
  5
C033
330
BF60
100
AcDbEntity
  8
2
  6
Continuous
100
AcDbLine
 10
304.191589
 20
179.2102979999999
 30
0.0
 11
304.191589
 21
188.910298
 31
0.0
  0
LINE
  5
C034
330
BF60
100
AcDbEntity
  8
1
  6
Continuous
100
AcDbLine
 10
295.0035889999999
 20
188.910298
 30
0.0
 11
295.0035889999999
 21
176.2102979999999
 31
0.0
  0
LINE
  5
C035
330
BF60
100
AcDbEntity
  8
1
  6
Continuous
100
AcDbLine
 10
305.0035889999999
 20
188.910298
 30
0.0
 11
305.0035889999999
 21
176.2102979999999
 31
0.0
  0
LINE
  5
C036
330
BF60
100
AcDbEntity
  8
1
  6
Continuous
100
AcDbLine
 10
305.0035889999999
 20
179.2102979999999
 30
0.0
 11
295.0035889999999
 21
179.2102979999999
 31
0.0
  0
LINE
  5
C037
330
BF60
100
AcDbEntity
  8
1
  6
Continuous
100
AcDbLine
 10
310.5035889999999
 20
170.7102979999999
 30
0.0
 11
289.5035889999999
 21
170.7102979999999
 31
0.0
  0
LINE
  5
C038
330
BF60
100
AcDbEntity
  8
1
  6
Continuous
100
AcDbLine
 10
308.5035889999999
 20
171.210298
 30
0.0
 11
291.503589
 21
171.210298
 31
0.0
  0
LINE
  5
C039
330
BF60
100
AcDbEntity
  8
1
  6
Continuous
100
AcDbLine
 10
308.5035889999999
 20
176.2102979999999
 30
0.0
 11
291.503589
 21
176.2102979999999
 31
0.0
  0
LINE
  5
C03A
330
BF60
100
AcDbEntity
  8
2
  6
Continuous
100
AcDbLine
 10
295.0035889999999
 20
177.803873
 30
0.0
 11
295.815589
 21
179.2102979999999
 31
0.0
  0
LINE
  5
C03B
330
BF60
100
AcDbEntity
  8
1
  6
Continuous
100
AcDbLine
 10
289.5035889999999
 20
170.7102979999999
 30
0.0
 11
289.5035889999999
 21
170.210298
 31
0.0
  0
LINE
  5
C03C
330
BF60
100
AcDbEntity
  8
1
  6
Continuous
100
AcDbLine
 10
296.5035889999999
 20
170.7249899999998
 30
0.0
 11
296.5035889999999
 21
171.210298
 31
0.0
  0
LINE
  5
C03D
330
BF60
100
AcDbEntity
  8
1
  6
Continuous
100
AcDbLine
 10
300.0035889999999
 20
176.2102979999999
 30
0.0
 11
300.0035889999999
 21
172.210298
 31
0.0
  0
LINE
  5
C03E
330
BF60
100
AcDbEntity
  8
2
  6
Continuous
100
AcDbLine
 10
305.0035889999999
 20
177.803873
 30
0.0
 11
304.191589
 21
179.2102979999999
 31
0.0
  0
LINE
  5
C03F
330
BF60
100
AcDbEntity
  8
1
  6
Continuous
100
AcDbLine
 10
310.5035889999999
 20
170.7102979999999
 30
0.0
 11
310.5035889999999
 21
170.210298
 31
0.0
  0
LINE
  5
C040
330
BF60
100
AcDbEntity
  8
1
  6
Continuous
100
AcDbLine
 10
303.5035889999999
 20
171.210298
 30
0.0
 11
303.5035889999999
 21
170.7249899999998
 31
0.0
  0
LINE
  5
C041
330
BF60
100
AcDbEntity
  8
1
  6
Continuous
100
AcDbLine
 10
306.0657669999998
 20
188.910298
 30
0.0
 11
293.9414109999999
 21
188.910298
 31
0.0
  0
LINE
  5
C042
330
BF60
100
AcDbEntity
  8
1
  6
Continuous
100
AcDbLine
 10
308.086493
 20
189.767809
 30
0.0
 11
308.086493
 21
202.894093
 31
0.0
  0
LINE
  5
C043
330
BF60
100
AcDbEntity
  8
1
  6
Continuous
100
AcDbLine
 10
291.920685
 20
189.767809
 30
0.0
 11
291.920685
 21
202.894093
 31
0.0
  0
ARC
  5
C044
330
BF60
100
AcDbEntity
  8
1
  6
Continuous
100
AcDbCircle
 10
361.5378729999998
 20
207.4938289999999
 30
0.0
 40
72.95869999999998
100
AcDbArc
 50
178.8403659999999
 51
182.225878
  0
ARC
  5
C045
330
BF60
100
AcDbEntity
  8
1
  6
Continuous
100
AcDbCircle
 10
292.3528580000001
 20
204.5171819999999
 30
0.0
 40
3.749505
100
AcDbArc
 50
192.321612
 51
205.6505319999998
  0
ARC
  5
C046
330
BF60
100
AcDbEntity
  8
1
  6
Continuous
100
AcDbCircle
 10
275.917957
 20
203.4386829999998
 30
0.0
 40
12.774798
100
AcDbArc
 50
1.248558
 51
5.486861
  0
ARC
  5
C047
330
BF60
100
AcDbEntity
  8
1
  6
Continuous
100
AcDbCircle
 10
242.710916
 20
209.899147
 30
0.0
 40
45.8926
100
AcDbArc
 50
358.840366
 51
0.3684880000000001
  0
ARC
  5
C048
330
BF60
100
AcDbEntity
  8
1
  6
Continuous
100
AcDbCircle
 10
295.014648
 20
210.2355339999999
 30
0.0
 40
6.412213999999998
100
AcDbArc
 50
156.646057
 51
180.3684879999999
  0
LINE
  5
C049
330
BF60
100
AcDbEntity
  8
1
  6
Continuous
100
AcDbLine
 10
304.045041
 20
190.910298
 30
0.0
 11
304.045041
 21
202.894093
 31
0.0
  0
LINE
  5
C04A
330
BF60
100
AcDbEntity
  8
1
  6
Continuous
100
AcDbLine
 10
295.9621369999999
 20
190.910298
 30
0.0
 11
295.9621369999999
 21
202.894093
 31
0.0
  0
ARC
  5
C04B
330
BF60
100
AcDbEntity
  8
1
  6
Continuous
100
AcDbCircle
 10
300.0035889999999
 20
193.9936319999999
 30
0.0
 40
5.083332999999997
100
AcDbArc
 50
217.340992
 51
322.6590079999998
  0
ARC
  5
C04C
330
BF60
100
AcDbEntity
  8
1
  6
Continuous
100
AcDbCircle
 10
306.0657669999998
 20
190.931132
 30
0.0
 40
2.020833
100
AcDbArc
 50
180.5906879999998
 51
303.124319
  0
LINE
  5
C04D
330
BF60
100
AcDbEntity
  8
1
  6
Continuous
100
AcDbLine
 10
307.170066
 20
189.23871
 30
0.0
 11
308.086493
 21
189.767809
 31
0.0
  0
LINE
  5
C04E
330
BF60
100
AcDbEntity
  8
1
  6
Continuous
100
AcDbLine
 10
292.8371119999998
 20
189.23871
 30
0.0
 11
291.920685
 21
189.767809
 31
0.0
  0
ARC
  5
C04F
330
BF60
100
AcDbEntity
  8
1
  6
Continuous
100
AcDbCircle
 10
293.9414109999999
 20
190.931132
 30
0.0
 40
2.020833
100
AcDbArc
 50
236.8756809999999
 51
359.409312
  0
LINE
  5
C050
330
BF60
100
AcDbEntity
  8
1
  6
Continuous
100
AcDbLine
 10
291.920685
 20
214.846056
 30
0.0
 11
291.920685
 21
220.710298
 31
0.0
  0
LINE
  5
C051
330
BF60
100
AcDbEntity
  8
1
  6
Continuous
100
AcDbLine
 10
295.9621369999999
 20
214.9866779999999
 30
0.0
 11
295.9621369999999
 21
220.710298
 31
0.0
  0
LINE
  5
C052
330
BF60
100
AcDbEntity
  8
1
  6
Continuous
100
AcDbLine
 10
304.045041
 20
214.951796
 30
0.0
 11
304.045041
 21
220.710298
 31
0.0
  0
LINE
  5
C053
330
BF60
100
AcDbEntity
  8
1
  6
Continuous
100
AcDbLine
 10
308.086493
 20
214.8454839999998
 30
0.0
 11
308.086493
 21
220.710298
 31
0.0
  0
ARC
  5
C054
330
BF60
100
AcDbEntity
  8
1
  6
Continuous
100
AcDbCircle
 10
292.3275959999998
 20
211.3957609999999
 30
0.0
 40
3.485376999999997
100
AcDbArc
 50
98.6472
 51
156.646057
  0
ARC
  5
C055
330
BF60
100
AcDbEntity
  8
1
  6
Continuous
100
AcDbCircle
 10
300.0035889999999
 20
4.661861
 30
0.0
 40
210.3395569999999
100
AcDbArc
 50
87.765777
 51
92.23422300000001
  0
LINE
  5
C056
330
BF60
100
AcDbEntity
  8
1
  6
Continuous
100
AcDbLine
 10
308.5035889999999
 20
171.210298
 30
0.0
 11
308.5035889999999
 21
176.2102979999999
 31
0.0
  0
LINE
  5
C057
330
BF60
100
AcDbEntity
  8
1
  6
Continuous
100
AcDbLine
 10
291.503589
 20
171.210298
 30
0.0
 11
291.503589
 21
176.2102979999999
 31
0.0
  0
ARC
  5
C058
330
BF60
100
AcDbEntity
  8
1
  6
Continuous
100
AcDbCircle
 10
304.2535889999999
 20
180.7415479999999
 30
0.0
 40
9.53125
100
AcDbArc
 50
243.5189599999999
 51
296.48104
  0
ARC
  5
C059
330
BF60
100
AcDbEntity
  8
1
  6
Continuous
100
AcDbCircle
 10
295.7535889999999
 20
180.7415479999999
 30
0.0
 40
9.53125
100
AcDbArc
 50
243.5189599999999
 51
296.48104
  0
LINE
  5
C05A
330
BF60
100
AcDbEntity
  8
1
  6
Continuous
100
AcDbLine
 10
308.086493
 20
215.074991
 30
0.0
 11
314.803589
 21
215.074991
 31
0.0
  0
CIRCLE
  5
C05B
330
BF60
100
AcDbEntity
  8
1
  6
Continuous
100
AcDbCircle
 10
206.251678
 20
73.5
 30
0.0
 40
18.85
  0
CIRCLE
  5
C05C
330
BF60
100
AcDbEntity
  8
1
  6
Continuous
100
AcDbCircle
 10
206.251678
 20
73.5
 30
0.0
 40
17.25
  0
LINE
  5
C05D
330
BF60
100
AcDbEntity
  8
4
  6
CENTER
100
AcDbLine
 10
206.251678
 20
51.65
 30
0.0
 11
206.251678
 21
95.35
 31
0.0
  0
LINE
  5
C05E
330
BF60
100
AcDbEntity
  8
1
  6
Continuous
100
AcDbLine
 10
205.143339
 20
73.99278599999998
 30
0.0
 11
204.535873
 21
74.621835
 31
0.0
  0
LINE
  5
C05F
330
BF60
100
AcDbEntity
  8
1
  6
Continuous
100
AcDbLine
 10
207.360017
 20
73.99278599999998
 30
0.0
 11
207.967483
 21
74.621835
 31
0.0
  0
LINE
  5
C060
330
BF60
100
AcDbEntity
  8
1
  6
Continuous
100
AcDbLine
 10
206.251678
 20
74.42898000000003
 30
0.0
 11
206.744464
 21
74.608339
 31
0.0
  0
LINE
  5
C061
330
BF60
100
AcDbEntity
  8
1
  6
Continuous
100
AcDbLine
 10
206.251678
 20
74.42898000000003
 30
0.0
 11
205.758892
 21
74.608339
 31
0.0
  0
CIRCLE
  5
C062
330
BF60
100
AcDbEntity
  8
1
  6
Continuous
100
AcDbCircle
 10
206.251678
 20
73.5
 30
0.0
 40
3.5
  0
LINE
  5
C063
330
BF60
100
AcDbEntity
  8
1
  6
Continuous
100
AcDbLine
 10
200.251678
 20
79.5
 30
0.0
 11
200.251678
 21
73.5
 31
0.0
  0
LINE
  5
C064
330
BF60
100
AcDbEntity
  8
1
  6
Continuous
100
AcDbLine
 10
212.2516779999999
 20
79.5
 30
0.0
 11
212.2516779999999
 21
73.5
 31
0.0
  0
LINE
  5
C065
330
BF60
100
AcDbEntity
  8
1
  6
Continuous
100
AcDbLine
 10
206.251678
 20
72.57101999999997
 30
0.0
 11
205.758892
 21
72.391661
 31
0.0
  0
ARC
  5
C066
330
BF60
100
AcDbEntity
  8
1
  6
Continuous
100
AcDbCircle
 10
206.251678
 20
73.5
 30
0.0
 40
6.0
100
AcDbArc
 50
180.0
 51
0.0
  0
LINE
  5
C067
330
BF60
100
AcDbEntity
  8
1
  6
Continuous
100
AcDbLine
 10
205.758892
 20
72.391661
 30
0.0
 11
205.129843
 21
71.784195
 31
0.0
  0
LINE
  5
C068
330
BF60
100
AcDbEntity
  8
1
  6
Continuous
100
AcDbLine
 10
205.322698
 20
73.5
 30
0.0
 11
205.143339
 21
73.99278599999998
 31
0.0
  0
LINE
  5
C069
330
BF60
100
AcDbEntity
  8
1
  6
Continuous
100
AcDbLine
 10
205.322698
 20
73.5
 30
0.0
 11
205.143339
 21
73.007214
 31
0.0
  0
LINE
  5
C06A
330
BF60
100
AcDbEntity
  8
1
  6
Continuous
100
AcDbLine
 10
205.143339
 20
73.007214
 30
0.0
 11
204.535873
 21
72.37816499999998
 31
0.0
  0
ARC
  5
C06B
330
BF60
100
AcDbEntity
  8
1
  6
Continuous
100
AcDbCircle
 10
206.251678
 20
73.5
 30
0.0
 40
2.049999999999998
100
AcDbArc
 50
213.17764
 51
236.8223599999998
  0
LINE
  5
C06C
330
BF60
100
AcDbEntity
  8
1
  6
Continuous
100
AcDbLine
 10
206.744464
 20
72.391661
 30
0.0
 11
207.373513
 21
71.784195
 31
0.0
  0
LINE
  5
C06D
330
BF60
100
AcDbEntity
  8
1
  6
Continuous
100
AcDbLine
 10
206.251678
 20
72.57101999999997
 30
0.0
 11
206.744464
 21
72.391661
 31
0.0
  0
LINE
  5
C06E
330
BF60
100
AcDbEntity
  8
1
  6
Continuous
100
AcDbLine
 10
207.180658
 20
73.5
 30
0.0
 11
207.360017
 21
73.007214
 31
0.0
  0
LINE
  5
C06F
330
BF60
100
AcDbEntity
  8
1
  6
Continuous
100
AcDbLine
 10
207.360017
 20
73.007214
 30
0.0
 11
207.967483
 21
72.37816499999998
 31
0.0
  0
LINE
  5
C070
330
BF60
100
AcDbEntity
  8
1
  6
Continuous
100
AcDbLine
 10
207.180658
 20
73.5
 30
0.0
 11
207.360017
 21
73.99278599999998
 31
0.0
  0
ARC
  5
C071
330
BF60
100
AcDbEntity
  8
1
  6
Continuous
100
AcDbCircle
 10
206.251678
 20
73.5
 30
0.0
 40
2.049999999999998
100
AcDbArc
 50
303.17764
 51
326.82236
  0
ARC
  5
C072
330
BF60
100
AcDbEntity
  8
1
  6
Continuous
100
AcDbCircle
 10
206.251678
 20
79.5
 30
0.0
 40
6.0
100
AcDbArc
 50
0.0
 51
180.0
  0
LINE
  5
C073
330
BF60
100
AcDbEntity
  8
1
  6
Continuous
100
AcDbLine
 10
205.758892
 20
74.608339
 30
0.0
 11
205.129843
 21
75.215805
 31
0.0
  0
ARC
  5
C074
330
BF60
100
AcDbEntity
  8
1
  6
Continuous
100
AcDbCircle
 10
206.251678
 20
73.5
 30
0.0
 40
2.049999999999998
100
AcDbArc
 50
123.1776399999999
 51
146.8223599999998
  0
LINE
  5
C075
330
BF60
100
AcDbEntity
  8
1
  6
Continuous
100
AcDbLine
 10
206.744464
 20
74.608339
 30
0.0
 11
207.373513
 21
75.215805
 31
0.0
  0
ARC
  5
C076
330
BF60
100
AcDbEntity
  8
1
  6
Continuous
100
AcDbCircle
 10
206.251678
 20
73.5
 30
0.0
 40
2.049999999999998
100
AcDbArc
 50
33.17763999999999
 51
56.82235999999999
  0
ARC
  5
C077
330
BF60
100
AcDbEntity
  8
1
  6
Continuous
100
AcDbCircle
 10
206.251678
 20
73.5
 30
0.0
 40
5.5
100
AcDbArc
 50
318.5691279999999
 51
221.430826
  0
ARC
  5
C078
330
BF60
100
AcDbEntity
  8
1
  6
Continuous
100
AcDbCircle
 10
206.251678
 20
73.5
 30
0.0
 40
4.299999999999998
100
AcDbArc
 50
115.8868629999999
 51
174.113188
  0
ARC
  5
C079
330
BF60
100
AcDbEntity
  8
1
  6
Continuous
100
AcDbCircle
 10
204.5489569999999
 20
77.008667
 30
0.0
 40
0.4
100
AcDbArc
 50
20.000122
 51
115.886945
  0
LINE
  5
C07A
330
BF60
100
AcDbEntity
  8
1
  6
Continuous
100
AcDbLine
 10
204.924833
 20
77.145477
 30
0.0
 11
205.054608
 21
76.78892399999998
 31
0.0
  0
LINE
  5
C07B
330
BF60
100
AcDbEntity
  8
1
  6
Continuous
100
AcDbLine
 10
207.448747
 20
76.788925
 30
0.0
 11
207.5785209999998
 21
77.145477
 31
0.0
  0
ARC
  5
C07C
330
BF60
100
AcDbEntity
  8
1
  6
Continuous
100
AcDbCircle
 10
207.9543989999999
 20
77.008667
 30
0.0
 40
0.4
100
AcDbArc
 50
64.113073
 51
159.9999949999999
  0
ARC
  5
C07D
330
BF60
100
AcDbEntity
  8
1
  6
Continuous
100
AcDbCircle
 10
206.251678
 20
73.5
 30
0.0
 40
4.299999999999998
100
AcDbArc
 50
5.886828999999999
 51
64.113162
  0
ARC
  5
C07E
330
BF60
100
AcDbEntity
  8
1
  6
Continuous
100
AcDbCircle
 10
210.1311109999997
 20
73.900002
 30
0.0
 40
0.4
100
AcDbArc
 50
270.0000179999999
 51
5.886752999999998
  0
ARC
  5
C07F
330
BF60
100
AcDbEntity
  8
1
  6
Continuous
100
AcDbCircle
 10
210.0754279999999
 20
70.125252
 30
0.0
 40
0.4
100
AcDbArc
 50
209.999934
 51
318.568933
  0
LINE
  5
C080
330
BF60
100
AcDbEntity
  8
1
  6
Continuous
100
AcDbLine
 10
208.951255
 20
71.27238100000003
 30
0.0
 11
209.7290189999999
 21
69.92525500000001
 31
0.0
  0
LINE
  5
C081
330
BF60
100
AcDbEntity
  8
1
  6
Continuous
100
AcDbLine
 10
202.7743389999999
 20
69.92525500000001
 30
0.0
 11
203.552104
 21
71.272378
 31
0.0
  0
ARC
  5
C082
330
BF60
100
AcDbEntity
  8
1
  6
Continuous
100
AcDbCircle
 10
202.427928
 20
70.125252
 30
0.0
 40
0.4
100
AcDbArc
 50
221.430871
 51
329.999948
  0
ARC
  5
C083
330
BF60
100
AcDbEntity
  8
1
  6
Continuous
100
AcDbCircle
 10
202.372245
 20
73.900002
 30
0.0
 40
0.4
100
AcDbArc
 50
174.1132429999999
 51
270.000001
  0
LINE
  5
C084
330
BF60
100
AcDbEntity
  8
1
  6
Continuous
100
AcDbLine
 10
202.372245
 20
73.50000199999998
 30
0.0
 11
202.7242939999999
 21
73.50000199999998
 31
0.0
  0
LINE
  5
C085
330
BF60
100
AcDbEntity
  8
1
  6
Continuous
100
AcDbLine
 10
210.1311109999997
 20
73.50000199999998
 30
0.0
 11
209.7516779999998
 21
73.5
 31
0.0
  0
ARC
  5
C086
330
BF60
100
AcDbEntity
  8
1
  6
Continuous
100
AcDbCircle
 10
178.751656
 20
73.5
 30
0.0
 40
19.5
100
AcDbArc
 50
43.24998299999999
 51
133.195908
  0
LINE
  5
C087
330
BF60
100
AcDbEntity
  8
1
  6
Continuous
100
AcDbLine
 10
165.33211
 20
61.75
 30
0.0
 11
159.7516589999998
 21
61.75
 31
0.0
  0
LINE
  5
C088
330
BF60
100
AcDbEntity
  8
1
  6
Continuous
100
AcDbLine
 10
182.337553
 20
62.5
 30
0.0
 11
137.1658339999999
 21
62.5
 31
0.0
  0
LINE
  5
C089
330
BF60
100
AcDbEntity
  8
1
  6
Continuous
100
AcDbLine
 10
165.33211
 20
85.25
 30
0.0
 11
159.7516589999998
 21
85.25
 31
0.0
  0
LINE
  5
C08A
330
BF60
100
AcDbEntity
  8
1
  6
Continuous
100
AcDbLine
 10
182.337553
 20
84.50000000000001
 30
0.0
 11
137.1658339999999
 21
84.50000000000001
 31
0.0
  0
LINE
  5
C08B
330
BF60
100
AcDbEntity
  8
1
  6
Continuous
100
AcDbLine
 10
164.0016939999999
 20
59.14650899999998
 30
0.0
 11
155.5016939999999
 21
59.14650899999998
 31
0.0
  0
LINE
  5
C08C
330
BF60
100
AcDbEntity
  8
1
  6
Continuous
100
AcDbLine
 10
163.7516939999999
 20
88.04698899999998
 30
0.0
 11
155.751694
 21
88.04698899999998
 31
0.0
  0
ARC
  5
C08D
330
BF60
100
AcDbEntity
  8
1
  6
Continuous
100
AcDbCircle
 10
159.751694
 20
81.70270100000001
 30
0.0
 40
7.5
100
AcDbArc
 50
57.76904700000001
 51
122.230953
  0
LINE
  5
C08E
330
BF60
100
AcDbEntity
  8
1
  6
Continuous
100
AcDbLine
 10
164.0016939999999
 20
58.21319299999998
 30
0.0
 11
155.5016939999999
 21
58.21319299999998
 31
0.0
  0
ARC
  5
C08F
330
BF60
100
AcDbEntity
  8
1
  6
Continuous
100
AcDbCircle
 10
159.751694
 20
66.146509
 30
0.0
 40
9.0
100
AcDbArc
 50
241.8213569999999
 51
298.178643
  0
ARC
  5
C090
330
BF60
100
AcDbEntity
  8
1
  6
Continuous
100
AcDbCircle
 10
234.7516939999999
 20
73.5
 30
0.0
 40
100.0
100
AcDbArc
 50
174.730718
 51
185.269983
  0
ARC
  5
C091
330
BF60
100
AcDbEntity
  8
1
  6
Continuous
100
AcDbCircle
 10
137.1658339999999
 20
82.5
 30
0.0
 40
2.0
100
AcDbArc
 50
90.0
 51
174.730718
  0
ARC
  5
C092
330
BF60
100
AcDbEntity
  8
1
  6
Continuous
100
AcDbCircle
 10
154.171209
 20
84.74999999999999
 30
0.0
 40
0.5
100
AcDbArc
 50
90.0
 51
170.0
  0
LINE
  5
C093
330
BF60
100
AcDbEntity
  8
1
  6
Continuous
100
AcDbLine
 10
153.678805
 20
84.83682399999997
 30
0.0
 11
153.6194139999998
 21
84.50000000000001
 31
0.0
  0
LINE
  5
C094
330
BF60
100
AcDbEntity
  8
1
  6
Continuous
100
AcDbLine
 10
154.171209
 20
85.25
 30
0.0
 11
159.7516589999998
 21
85.25
 31
0.0
  0
LINE
  5
C095
330
BF60
100
AcDbEntity
  8
1
  6
Continuous
100
AcDbLine
 10
162.7516939999999
 20
85.25
 30
0.0
 11
162.7516939999999
 21
85.654984
 31
0.0
  0
LINE
  5
C096
330
BF60
100
AcDbEntity
  8
1
  6
Continuous
100
AcDbLine
 10
156.7516939999999
 20
85.654984
 30
0.0
 11
156.7516939999999
 21
85.25
 31
0.0
  0
LINE
  5
C097
330
BF60
100
AcDbEntity
  8
1
  6
Continuous
100
AcDbLine
 10
155.751694
 20
88.04698899999998
 30
0.0
 11
155.751694
 21
87.654984
 31
0.0
  0
ARC
  5
C098
330
BF60
100
AcDbEntity
  8
1
  6
Continuous
100
AcDbCircle
 10
137.1658339999999
 20
64.5
 30
0.0
 40
2.0
100
AcDbArc
 50
185.269282
 51
270.0
  0
ARC
  5
C099
330
BF60
100
AcDbEntity
  8
1
  6
Continuous
100
AcDbCircle
 10
154.171209
 20
62.25
 30
0.0
 40
0.5
100
AcDbArc
 50
190.0
 51
270.0
  0
LINE
  5
C09A
330
BF60
100
AcDbEntity
  8
1
  6
Continuous
100
AcDbLine
 10
153.678805
 20
62.16317599999999
 30
0.0
 11
153.6194139999998
 21
62.5
 31
0.0
  0
LINE
  5
C09B
330
BF60
100
AcDbEntity
  8
1
  6
Continuous
100
AcDbLine
 10
154.171209
 20
61.75
 30
0.0
 11
159.7516589999998
 21
61.75
 31
0.0
  0
LINE
  5
C09C
330
BF60
100
AcDbEntity
  8
1
  6
Continuous
100
AcDbLine
 10
155.5016939999999
 20
59.14650899999998
 30
0.0
 11
155.5016939999999
 21
58.21319299999998
 31
0.0
  0
ARC
  5
C09D
330
BF60
100
AcDbEntity
  8
1
  6
Continuous
100
AcDbCircle
 10
165.33211
 20
84.74999999999999
 30
0.0
 40
0.5
100
AcDbArc
 50
10.0
 51
90.0
  0
LINE
  5
C09E
330
BF60
100
AcDbEntity
  8
1
  6
Continuous
100
AcDbLine
 10
165.824513
 20
84.83682399999997
 30
0.0
 11
165.883905
 21
84.50000000000001
 31
0.0
  0
LINE
  5
C09F
330
BF60
100
AcDbEntity
  8
1
  6
Continuous
100
AcDbLine
 10
163.7516939999999
 20
87.654984
 30
0.0
 11
163.7516939999999
 21
88.04698899999998
 31
0.0
  0
ARC
  5
C0A0
330
BF60
100
AcDbEntity
  8
1
  6
Continuous
100
AcDbCircle
 10
165.33211
 20
62.25
 30
0.0
 40
0.5
100
AcDbArc
 50
270.0
 51
350.0
  0
LINE
  5
C0A1
330
BF60
100
AcDbEntity
  8
1
  6
Continuous
100
AcDbLine
 10
165.824513
 20
62.16317599999999
 30
0.0
 11
165.883905
 21
62.5
 31
0.0
  0
LINE
  5
C0A2
330
BF60
100
AcDbEntity
  8
1
  6
Continuous
100
AcDbLine
 10
164.0016939999999
 20
59.14650899999998
 30
0.0
 11
164.0016939999999
 21
58.21319299999998
 31
0.0
  0
LINE
  5
C0A3
330
BF60
100
AcDbEntity
  8
4
  6
CENTER
100
AcDbLine
 10
159.7516589999998
 20
54.14650899999998
 30
0.0
 11
159.7516589999998
 21
92.202701
 31
0.0
  0
ARC
  5
C0A4
330
BF60
100
AcDbEntity
  8
1
  6
Continuous
100
AcDbCircle
 10
178.751656
 20
73.5
 30
0.0
 40
19.5
100
AcDbArc
 50
226.5434909999999
 51
316.750017
  0
ARC
  5
C0A5
330
BF60
100
AcDbEntity
  8
1
  6
Continuous
100
AcDbCircle
 10
84.751624
 20
73.5
 30
0.0
 40
100.0
100
AcDbArc
 50
354.7300169999999
 51
5.269281999999998
  0
ARC
  5
C0A6
330
BF60
100
AcDbEntity
  8
1
  6
Continuous
100
AcDbCircle
 10
182.3374839999999
 20
64.5
 30
0.0
 40
2.0
100
AcDbArc
 50
270.0
 51
354.730718
  0
ARC
  5
C0A7
330
BF60
100
AcDbEntity
  8
1
  6
Continuous
100
AcDbCircle
 10
182.3374839999999
 20
82.5
 30
0.0
 40
2.0
100
AcDbArc
 50
5.269281999999998
 51
90.0
  0
LINE
  5
C0A8
330
BF60
100
AcDbEntity
  8
1
  6
Continuous
100
AcDbLine
 10
151.6196699999998
 20
87.654984
 30
0.0
 11
164.6262679999999
 21
87.654984
 31
0.0
  0
LINE
  5
C0A9
330
BF60
100
AcDbEntity
  8
1
  6
Continuous
100
AcDbLine
 10
156.7516939999999
 20
59.14650899999998
 30
0.0
 11
156.7516939999999
 21
59.34501499999999
 31
0.0
  0
LINE
  5
C0AA
330
BF60
100
AcDbEntity
  8
1
  6
Continuous
100
AcDbLine
 10
162.7516939999999
 20
59.14650899999998
 30
0.0
 11
162.7516939999999
 21
59.34501499999999
 31
0.0
  0
LINE
  5
C0AB
330
BF60
100
AcDbEntity
  8
1
  6
Continuous
100
AcDbLine
 10
318.803589
 20
188.3578449999999
 30
0.0
 11
318.803589
 21
211.074991
 31
0.0
  0
ARC
  5
C0AC
330
BF60
100
AcDbEntity
  8
1
  6
Continuous
100
AcDbCircle
 10
314.803589
 20
211.074991
 30
0.0
 40
4.0
100
AcDbArc
 50
0.0
 51
90.0
  0
ARC
  5
C0AD
330
BF60
100
AcDbEntity
  8
1
  6
Continuous
100
AcDbCircle
 10
262.763906
 20
188.3578449999999
 30
0.0
 40
56.039683
100
AcDbArc
 50
348.9721999999999
 51
0.0
  0
ARC
  5
C0AE
330
BF60
100
AcDbEntity
  8
1
  6
Continuous
100
AcDbCircle
 10
300.0035889999999
 20
190.6879139999998
 30
0.0
 40
18.8
100
AcDbArc
 50
0.0
 51
34.682702
  0
LINE
  5
C0AF
330
BF60
100
AcDbEntity
  8
1
  6
Continuous
100
AcDbLine
 10
312.520504
 20
201.8935749999999
 30
0.0
 11
312.1583949999999
 21
174.807778
 31
0.0
  0
ARC
  5
C0B0
330
BF60
100
AcDbEntity
  8
1
  6
Continuous
100
AcDbCircle
 10
314.333417
 20
178.307778
 30
0.0
 40
3.5
100
AcDbArc
 50
270.0
 51
348.9721999999999
  0
ARC
  5
C0B1
330
BF60
100
AcDbEntity
  8
1
  6
Continuous
100
AcDbCircle
 10
262.763906
 20
188.3578449999999
 30
0.0
 40
54.03968299999998
100
AcDbArc
 50
345.5713600000001
 51
0.0
  0
ARC
  5
C0B2
330
BF60
100
AcDbEntity
  8
1
  6
Continuous
100
AcDbCircle
 10
300.0035889999999
 20
190.6879139999998
 30
0.0
 40
16.8
100
AcDbArc
 50
0.0
 51
46.59863099999999
  0
LINE
  5
C0B3
330
BF60
100
AcDbEntity
  8
1
  6
Continuous
100
AcDbLine
 10
316.803589
 20
188.3578449999999
 30
0.0
 11
316.803589
 21
190.6879139999998
 31
0.0
  0
ARC
  5
C0B4
330
BF60
100
AcDbEntity
  8
1
  6
Continuous
100
AcDbCircle
 10
312.5850219999999
 20
199.3940929999999
 30
0.0
 40
3.5
100
AcDbArc
 50
34.682702
 51
90.0
  0
ARC
  5
C0B5
330
BF60
100
AcDbEntity
  8
1
  6
Continuous
100
AcDbCircle
 10
285.203589
 20
211.074991
 30
0.0
 40
4.0
100
AcDbArc
 50
90.0
 51
180.0
  0
LINE
  5
C0B6
330
BF60
100
AcDbEntity
  8
1
  6
Continuous
100
AcDbLine
 10
281.203589
 20
188.3578449999999
 30
0.0
 11
281.203589
 21
211.074991
 31
0.0
  0
ARC
  5
C0B7
330
BF60
100
AcDbEntity
  8
1
  6
Continuous
100
AcDbCircle
 10
337.2432719999999
 20
188.3578449999999
 30
0.0
 40
56.039683
100
AcDbArc
 50
180.0
 51
191.0278
  0
ARC
  5
C0B8
330
BF60
100
AcDbEntity
  8
1
  6
Continuous
100
AcDbCircle
 10
285.673761
 20
178.307778
 30
0.0
 40
3.5
100
AcDbArc
 50
191.0278
 51
270.0
  0
LINE
  5
C0B9
330
BF60
100
AcDbEntity
  8
1
  6
Continuous
100
AcDbLine
 10
287.848783
 20
174.807778
 30
0.0
 11
285.673761
 21
174.807778
 31
0.0
  0
LINE
  5
C0BA
330
BF60
100
AcDbEntity
  8
1
  6
Continuous
100
AcDbLine
 10
287.4866739999998
 20
201.8935749999999
 30
0.0
 11
287.848783
 21
174.807778
 31
0.0
  0
ARC
  5
C0BB
330
BF60
100
AcDbEntity
  8
1
  6
Continuous
100
AcDbCircle
 10
300.0035889999999
 20
190.6879139999998
 30
0.0
 40
18.8
100
AcDbArc
 50
145.3172979999999
 51
180.0
  0
ARC
  5
C0BC
330
BF60
100
AcDbEntity
  8
1
  6
Continuous
100
AcDbCircle
 10
300.0035889999999
 20
190.6879139999998
 30
0.0
 40
16.8
100
AcDbArc
 50
133.4013689999999
 51
180.0
  0
ARC
  5
C0BD
330
BF60
100
AcDbEntity
  8
1
  6
Continuous
100
AcDbCircle
 10
337.2432719999999
 20
188.3578449999999
 30
0.0
 40
54.03968299999998
100
AcDbArc
 50
180.0
 51
194.4286399999997
  0
LINE
  5
C0BE
330
BF60
100
AcDbEntity
  8
1
  6
Continuous
100
AcDbLine
 10
283.203589
 20
188.3578449999999
 30
0.0
 11
283.203589
 21
190.6879139999998
 31
0.0
  0
ARC
  5
C0BF
330
BF60
100
AcDbEntity
  8
1
  6
Continuous
100
AcDbCircle
 10
287.4221559999999
 20
199.3940929999999
 30
0.0
 40
3.5
100
AcDbArc
 50
90.0
 51
145.3172979999999
  0
ARC
  5
C0C0
330
BF60
100
AcDbEntity
  8
1
  6
Continuous
100
AcDbCircle
 10
94.739406
 20
188.3578449999999
 30
0.0
 40
56.039683
100
AcDbArc
 50
180.0
 51
191.0278
  0
ARC
  5
C0C1
330
BF60
100
AcDbEntity
  8
1
  6
Continuous
100
AcDbCircle
 10
20.26003999999999
 20
188.3578449999999
 30
0.0
 40
56.039683
100
AcDbArc
 50
348.9721999999999
 51
0.0
  0
ARC
  5
C0C2
330
BF60
100
AcDbEntity
  8
1
  6
Continuous
100
AcDbCircle
 10
43.169895
 20
178.307778
 30
0.0
 40
3.5
100
AcDbArc
 50
191.0278
 51
270.0
  0
ARC
  5
C0C3
330
BF60
100
AcDbEntity
  8
1
  6
Continuous
100
AcDbCircle
 10
71.829551
 20
178.307778
 30
0.0
 40
3.5
100
AcDbArc
 50
270.0
 51
348.9721999999999
  0
ARC
  5
C0C4
330
BF60
100
AcDbEntity
  8
1
  6
Continuous
100
AcDbCircle
 10
72.299723
 20
211.074991
 30
0.0
 40
4.0
100
AcDbArc
 50
0.0
 51
90.0
  0
LINE
  5
C0C5
330
BF60
100
AcDbEntity
  8
1
  6
Continuous
100
AcDbLine
 10
38.699723
 20
188.3578449999999
 30
0.0
 11
38.699723
 21
211.074991
 31
0.0
  0
ARC
  5
C0C6
330
BF60
100
AcDbEntity
  8
1
  6
Continuous
100
AcDbCircle
 10
42.699723
 20
211.074991
 30
0.0
 40
4.0
100
AcDbArc
 50
90.0
 51
180.0
  0
LINE
  5
C0C7
330
BF60
100
AcDbEntity
  8
1
  6
Continuous
100
AcDbLine
 10
76.299723
 20
188.3578449999999
 30
0.0
 11
76.299723
 21
211.074991
 31
0.0
  0
LINE
  5
C0C8
330
BF60
100
AcDbEntity
  8
1
  6
Continuous
100
AcDbLine
 10
42.699723
 20
215.074991
 30
0.0
 11
72.299723
 21
215.074991
 31
0.0
  0
ARC
  5
C0C9
330
BF60
100
AcDbEntity
  8
1
  6
Continuous
100
AcDbCircle
 10
178.751656
 20
73.5
 30
0.0
 40
18.8
100
AcDbArc
 50
43.638145
 51
126.406038
  0
LINE
  5
C0CA
330
BF60
100
AcDbEntity
  8
1
  6
Continuous
100
AcDbLine
 10
166.37925
 20
179.270101
 30
0.0
 11
166.37925
 21
206.524058
 31
0.0
  0
ARC
  5
C0CB
330
BF60
100
AcDbEntity
  8
1
  6
Continuous
100
AcDbCircle
 10
195.9760159999999
 20
89.92441599999997
 30
0.0
 40
5.0
100
AcDbArc
 50
223.638145
 51
225.4708149999999
  0
ARC
  5
C0CC
330
BF60
100
AcDbEntity
  8
1
  6
Continuous
100
AcDbCircle
 10
164.6262679999999
 20
92.654984
 30
0.0
 40
5.0
100
AcDbArc
 50
270.0
 51
306.4060379999999
  0
ARC
  5
C0CD
330
BF60
100
AcDbEntity
  8
1
  6
Continuous
100
AcDbCircle
 10
178.751656
 20
73.5
 30
0.0
 40
16.8
100
AcDbArc
 50
43.638145
 51
126.406038
  0
ARC
  5
C0CE
330
BF60
100
AcDbEntity
  8
1
  6
Continuous
100
AcDbCircle
 10
164.6262679999999
 20
92.654984
 30
0.0
 40
7.0
100
AcDbArc
 50
270.0
 51
306.4060379999999
  0
ARC
  5
C0CF
330
BF60
100
AcDbEntity
  8
1
  6
Continuous
100
AcDbCircle
 10
195.9760159999999
 20
89.92441599999997
 30
0.0
 40
7.0
100
AcDbArc
 50
223.638145
 51
226.775152
  0
LINE
  5
C0D0
330
BF60
100
AcDbEntity
  8
1
  6
Continuous
100
AcDbLine
 10
150.807086
 20
85.654984
 30
0.0
 11
164.6262679999999
 21
85.654984
 31
0.0
  0
LINE
  5
C0D1
330
BF60
100
AcDbEntity
  8
1
  6
Continuous
100
AcDbLine
 10
156.7516939999999
 20
61.345016
 30
0.0
 11
156.7516939999999
 21
61.75
 31
0.0
  0
LINE
  5
C0D2
330
BF60
100
AcDbEntity
  8
1
  6
Continuous
100
AcDbLine
 10
162.7516939999999
 20
61.75
 30
0.0
 11
162.7516939999999
 21
61.345016
 31
0.0
  0
ARC
  5
C0D3
330
BF60
100
AcDbEntity
  8
1
  6
Continuous
100
AcDbCircle
 10
164.6262679999999
 20
54.345016
 30
0.0
 40
7.0
100
AcDbArc
 50
53.59396199999999
 51
90.0
  0
ARC
  5
C0D4
330
BF60
100
AcDbEntity
  8
1
  6
Continuous
100
AcDbCircle
 10
178.751656
 20
73.5
 30
0.0
 40
16.8
100
AcDbArc
 50
233.5939619999999
 51
316.3618549999998
  0
ARC
  5
C0D5
330
BF60
100
AcDbEntity
  8
1
  6
Continuous
100
AcDbCircle
 10
178.751656
 20
73.5
 30
0.0
 40
18.8
100
AcDbArc
 50
233.5939619999999
 51
316.3618549999998
  0
ARC
  5
C0D6
330
BF60
100
AcDbEntity
  8
1
  6
Continuous
100
AcDbCircle
 10
164.6262679999999
 20
54.345016
 30
0.0
 40
5.0
100
AcDbArc
 50
53.59396199999999
 51
90.0
  0
LINE
  5
C0D7
330
BF60
100
AcDbEntity
  8
1
  6
Continuous
100
AcDbLine
 10
151.6196699999998
 20
59.345016
 30
0.0
 11
164.6262679999999
 21
59.345016
 31
0.0
  0
LINE
  5
C0D8
330
BF60
100
AcDbEntity
  8
1
  6
Continuous
100
AcDbLine
 10
150.807086
 20
61.345016
 30
0.0
 11
164.6262679999999
 21
61.345016
 31
0.0
  0
ARC
  5
C0D9
330
BF60
100
AcDbEntity
  8
1
  6
Continuous
100
AcDbCircle
 10
195.9760159999999
 20
57.07558399999999
 30
0.0
 40
7.0
100
AcDbArc
 50
133.224848
 51
136.3618549999999
  0
ARC
  5
C0DA
330
BF60
100
AcDbEntity
  8
1
  6
Continuous
100
AcDbCircle
 10
195.9760159999999
 20
57.07558399999999
 30
0.0
 40
5.0
100
AcDbArc
 50
134.529185
 51
136.3618549999999
  0
ARC
  5
C0DB
330
BF60
100
AcDbEntity
  8
1
  6
Continuous
100
AcDbCircle
 10
171.1169759999999
 20
73.5
 30
0.0
 40
24.975827
100
AcDbArc
 50
148.059819
 51
153.8689439999999
  0
ARC
  5
C0DC
330
BF60
100
AcDbEntity
  8
1
  6
Continuous
100
AcDbCircle
 10
167.849195
 20
73.5
 30
0.0
 40
20.93267999999999
100
AcDbArc
 50
144.502303
 51
148.2984879999999
  0
ARC
  5
C0DD
330
BF60
100
AcDbEntity
  8
1
  6
Continuous
100
AcDbCircle
 10
151.6196699999998
 20
85.654984
 30
0.0
 40
2.0
100
AcDbArc
 50
90.0
 51
148.059819
  0
ARC
  5
C0DE
330
BF60
100
AcDbEntity
  8
1
  6
Continuous
100
AcDbCircle
 10
151.6196699999998
 20
61.345016
 30
0.0
 40
2.0
100
AcDbArc
 50
211.9401809999998
 51
270.0
  0
ARC
  5
C0DF
330
BF60
100
AcDbEntity
  8
1
  6
Continuous
100
AcDbCircle
 10
167.849195
 20
73.5
 30
0.0
 40
20.93267999999999
100
AcDbArc
 50
211.701512
 51
215.4976969999999
  0
ARC
  5
C0E0
330
BF60
100
AcDbEntity
  8
1
  6
Continuous
100
AcDbCircle
 10
171.1169759999999
 20
73.5
 30
0.0
 40
24.975827
100
AcDbArc
 50
206.1310559999999
 51
211.9401809999998
  0
LINE
  5
C0E1
330
BF60
100
AcDbEntity
  8
1
  6
Continuous
100
AcDbLine
 10
43.14623199999998
 20
179.710298
 30
0.0
 11
43.27919699999998
 21
179.710298
 31
0.0
  0
LINE
  5
C0E2
330
BF60
100
AcDbEntity
  8
1
  6
Continuous
100
AcDbLine
 10
43.14623199999998
 20
185.710298
 30
0.0
 11
43.198983
 21
185.710298
 31
0.0
  0
ARC
  5
C0E3
330
BF60
100
AcDbEntity
  8
1
  6
Continuous
100
AcDbCircle
 10
159.7516589999998
 20
182.7102629999999
 30
0.0
 40
17.5
100
AcDbArc
 50
115.731449
 51
9.667051999999998
  0
LINE
  5
C0E4
330
BF60
100
AcDbEntity
  8
4
  6
CENTER
100
AcDbLine
 10
206.251678
 20
287.961343
 30
0.0
 11
206.251678
 21
331.6613429999998
 31
0.0
  0
LINE
  5
C0E5
330
BF60
100
AcDbEntity
  8
4
  6
CENTER
100
AcDbLine
 10
159.7516589999998
 20
290.457852
 30
0.0
 11
159.7516589999998
 21
328.514044
 31
0.0
  0
LINE
  5
C0E6
330
BF60
100
AcDbEntity
  8
4
  6
CENTER
100
AcDbLine
 10
178.751656
 20
268.643296
 30
0.0
 11
178.751656
 21
352.295657
 31
0.0
  0
LINE
  5
C0E7
330
BF60
100
AcDbEntity
  8
4
  6
CENTER
100
AcDbLine
 10
227.8175599999999
 20
309.811343
 30
0.0
 11
130.568616
 21
309.811343
 31
0.0
  0
CIRCLE
  5
C0E8
330
BF60
100
AcDbEntity
  8
1
  6
Continuous
100
AcDbCircle
 10
178.751656
 20
309.811343
 30
0.0
 40
36.5
  0
CIRCLE
  5
C0E9
330
BF60
100
AcDbEntity
  8
1
  6
Continuous
100
AcDbCircle
 10
178.751656
 20
309.811343
 30
0.0
 40
37.0
  0
CIRCLE
  5
C0EA
330
BF60
100
AcDbEntity
  8
1
  6
Continuous
100
AcDbCircle
 10
178.751656
 20
309.811343
 30
0.0
 40
17.0
  0
LINE
  5
C0EB
330
BF60
100
AcDbEntity
  8
1
  6
Continuous
100
AcDbLine
 10
210.751656
 20
270.811343
 30
0.0
 11
146.7516559999999
 21
270.811343
 31
0.0
  0
LINE
  5
C0EC
330
BF60
100
AcDbEntity
  8
1
  6
Continuous
100
AcDbLine
 10
210.751656
 20
348.811343
 30
0.0
 11
146.7516559999999
 21
348.811343
 31
0.0
  0
ARC
  5
C0ED
330
BF60
100
AcDbEntity
  8
1
  6
Continuous
100
AcDbCircle
 10
206.251678
 20
309.811343
 30
0.0
 40
18.85
100
AcDbArc
 50
307.5963259999999
 51
52.403674
  0
LINE
  5
C0EE
330
BF60
100
AcDbEntity
  8
1
  6
Continuous
100
AcDbLine
 10
217.7516559999999
 20
341.811343
 30
0.0
 11
217.7516559999999
 21
277.811343
 31
0.0
  0
LINE
  5
C0EF
330
BF60
100
AcDbEntity
  8
4
  6
CENTER
100
AcDbLine
 10
210.751656
 20
271.561343
 30
0.0
 11
210.751656
 21
284.061343
 31
0.0
  0
LINE
  5
C0F0
330
BF60
100
AcDbEntity
  8
4
  6
CENTER
100
AcDbLine
 10
217.001656
 20
277.811343
 30
0.0
 11
204.501656
 21
277.811343
 31
0.0
  0
CIRCLE
  5
C0F1
330
BF60
100
AcDbEntity
  8
1
  6
Continuous
100
AcDbCircle
 10
210.751656
 20
277.811343
 30
0.0
 40
3.25
  0
ARC
  5
C0F2
330
BF60
100
AcDbEntity
  8
1
  6
Continuous
100
AcDbCircle
 10
210.751656
 20
277.811343
 30
0.0
 40
7.0
100
AcDbArc
 50
270.0
 51
0.0
  0
LINE
  5
C0F3
330
BF60
100
AcDbEntity
  8
4
  6
CENTER
100
AcDbLine
 10
217.001656
 20
341.811343
 30
0.0
 11
204.501656
 21
341.811343
 31
0.0
  0
CIRCLE
  5
C0F4
330
BF60
100
AcDbEntity
  8
1
  6
Continuous
100
AcDbCircle
 10
210.751656
 20
341.811343
 30
0.0
 40
3.25
  0
LINE
  5
C0F5
330
BF60
100
AcDbEntity
  8
4
  6
CENTER
100
AcDbLine
 10
210.751656
 20
335.561343
 30
0.0
 11
210.751656
 21
348.061343
 31
0.0
  0
ARC
  5
C0F6
330
BF60
100
AcDbEntity
  8
1
  6
Continuous
100
AcDbCircle
 10
210.751656
 20
341.811343
 30
0.0
 40
7.0
100
AcDbArc
 50
0.0
 51
90.0
  0
CIRCLE
  5
C0F7
330
BF60
100
AcDbEntity
  8
1
  6
Continuous
100
AcDbCircle
 10
178.751656
 20
309.811343
 30
0.0
 40
15.0
  0
CIRCLE
  5
C0F8
330
BF60
100
AcDbEntity
  8
1
  6
Continuous
100
AcDbCircle
 10
178.751656
 20
309.811343
 30
0.0
 40
8.5
  0
LINE
  5
C0F9
330
BF60
100
AcDbEntity
  8
1
  6
Continuous
100
AcDbLine
 10
139.7516559999999
 20
341.811343
 30
0.0
 11
139.7516559999999
 21
277.811343
 31
0.0
  0
LINE
  5
C0FA
330
BF60
100
AcDbEntity
  8
4
  6
CENTER
100
AcDbLine
 10
146.7516559999999
 20
271.561343
 30
0.0
 11
146.7516559999999
 21
284.061343
 31
0.0
  0
LINE
  5
C0FB
330
BF60
100
AcDbEntity
  8
4
  6
CENTER
100
AcDbLine
 10
153.0016559999999
 20
277.811343
 30
0.0
 11
140.5016559999999
 21
277.811343
 31
0.0
  0
CIRCLE
  5
C0FC
330
BF60
100
AcDbEntity
  8
1
  6
Continuous
100
AcDbCircle
 10
146.7516559999999
 20
277.811343
 30
0.0
 40
3.25
  0
ARC
  5
C0FD
330
BF60
100
AcDbEntity
  8
1
  6
Continuous
100
AcDbCircle
 10
146.7516559999999
 20
277.811343
 30
0.0
 40
7.0
100
AcDbArc
 50
180.0
 51
270.0
  0
LINE
  5
C0FE
330
BF60
100
AcDbEntity
  8
4
  6
CENTER
100
AcDbLine
 10
153.0016559999999
 20
341.811343
 30
0.0
 11
140.5016559999999
 21
341.811343
 31
0.0
  0
CIRCLE
  5
C0FF
330
BF60
100
AcDbEntity
  8
1
  6
Continuous
100
AcDbCircle
 10
146.7516559999999
 20
341.811343
 30
0.0
 40
3.25
  0
ARC
  5
C100
330
BF60
100
AcDbEntity
  8
1
  6
Continuous
100
AcDbCircle
 10
146.7516559999999
 20
341.811343
 30
0.0
 40
7.0
100
AcDbArc
 50
90.0
 51
180.0
  0
LINE
  5
C101
330
BF60
100
AcDbEntity
  8
4
  6
CENTER
100
AcDbLine
 10
146.7516559999999
 20
335.561343
 30
0.0
 11
146.7516559999999
 21
348.061343
 31
0.0
  0
LINE
  5
C102
330
BF60
100
AcDbEntity
  8
1
  6
Continuous
100
AcDbLine
 10
73.75
 20
215.0912959999998
 30
0.0
 11
41.25
 21
215.0912959999998
 31
0.0
  0
ARC
  5
C103
330
BF60
100
AcDbEntity
  8
1
  6
Continuous
100
AcDbCircle
 10
40.89430899999999
 20
216.6182399999999
 30
0.0
 40
1.212217
100
AcDbArc
 50
24.41332
 51
50.77817899999999
  0
LINE
  5
C104
330
BF60
100
AcDbEntity
  8
1
  6
Continuous
100
AcDbLine
 10
41.660823
 20
217.557349
 30
0.0
 11
41.403036
 21
218.3567559999999
 31
0.0
  0
ARC
  5
C105
330
BF60
100
AcDbEntity
  8
1
  6
Continuous
100
AcDbCircle
 10
41.782488
 20
218.4791189999998
 30
0.0
 40
0.398694
100
AcDbArc
 50
123.1388479999999
 51
197.873131
  0
ARC
  5
C106
330
BF60
100
AcDbEntity
  8
1
  6
Continuous
100
AcDbCircle
 10
42.36947199999996
 20
217.716718
 30
0.0
 40
1.360029999999999
100
AcDbArc
 50
104.2867189999999
 51
126.288607
  0
ARC
  5
C107
330
BF60
100
AcDbEntity
  8
1
  6
Continuous
100
AcDbCircle
 10
71.256002
 20
218.6523799999999
 30
0.0
 40
2.338996999999999
100
AcDbArc
 50
319.015841
 51
344.9161179999999
  0
ARC
  5
C108
330
BF60
100
AcDbEntity
  8
1
  6
Continuous
100
AcDbCircle
 10
72.82174399999998
 20
218.2664359999999
 30
0.0
 40
0.76825
100
AcDbArc
 50
345.5231819999998
 51
90.0
  0
LINE
  5
C109
330
BF60
100
AcDbEntity
  8
1
  6
Continuous
100
AcDbLine
 10
73.51441099999998
 20
218.0436959999999
 30
0.0
 11
73.565601
 21
218.0743819999999
 31
0.0
  0
LINE
  5
C10A
330
BF60
100
AcDbEntity
  8
1
  6
Continuous
100
AcDbLine
 10
72.82174399999998
 20
219.034686
 30
0.0
 11
42.033851
 21
219.034686
 31
0.0
  0
LINE
  5
C10B
330
BF60
100
AcDbEntity
  8
1
  6
Continuous
100
AcDbLine
 10
73.75
 20
217.1183479999999
 30
0.0
 11
73.75
 21
215.091271
 31
0.0
  0
LINE
  5
C10C
330
BF60
100
AcDbEntity
  8
1
  6
Continuous
100
AcDbLine
 10
41.25
 20
217.1183479999999
 30
0.0
 11
41.25
 21
215.0912959999998
 31
0.0
  0
LINE
  5
C10D
330
BF60
100
AcDbEntity
  8
1
  6
Continuous
100
AcDbLine
 10
96.49972300000001
 20
222.710298
 30
0.0
 11
18.499723
 21
222.710298
 31
0.0
  0
LINE
  5
C10E
330
BF60
100
AcDbEntity
  8
1
  6
Continuous
100
AcDbLine
 10
96.49972300000001
 20
220.710298
 30
0.0
 11
96.49972300000001
 21
222.710298
 31
0.0
  0
LINE
  5
C10F
330
BF60
100
AcDbEntity
  8
1
  6
Continuous
100
AcDbLine
 10
18.499723
 20
222.710298
 30
0.0
 11
18.499723
 21
220.710298
 31
0.0
  0
LINE
  5
C110
330
BF60
100
AcDbEntity
  8
1
  6
Continuous
100
AcDbLine
 10
96.49972300000001
 20
220.710298
 30
0.0
 11
18.499723
 21
220.710298
 31
0.0
  0
LINE
  5
C111
330
BF60
100
AcDbEntity
  8
1
  6
Continuous
100
AcDbLine
 10
91.93255999999999
 20
219.910298
 30
0.0
 11
23.0669
 21
219.910298
 31
0.0
  0
ARC
  5
C112
330
BF60
100
AcDbEntity
  8
1
  6
Continuous
100
AcDbCircle
 10
23.0669
 20
221.845325
 30
0.0
 40
1.935027
100
AcDbArc
 50
215.9139189999999
 51
270.0
  0
ARC
  5
C113
330
BF60
100
AcDbEntity
  8
1
  6
Continuous
100
AcDbCircle
 10
91.93255999999999
 20
221.8452979999999
 30
0.0
 40
1.935
100
AcDbArc
 50
270.0
 51
324.086493
  0
ARC
  5
C114
330
BF60
100
AcDbEntity
  8
1
  6
Continuous
100
AcDbCircle
 10
74.51787
 20
223.9600089999999
 30
0.0
 40
4.749710999999998
100
AcDbArc
 50
270.0
 51
301.5019239999999
  0
ARC
  5
C115
330
BF60
100
AcDbEntity
  8
1
  6
Continuous
100
AcDbCircle
 10
40.481658
 20
223.9602979999999
 30
0.0
 40
4.75
100
AcDbArc
 50
238.499059
 51
270.0
  0
LINE
  5
C116
330
BF60
100
AcDbEntity
  8
1
  6
Continuous
100
AcDbLine
 10
74.51787
 20
219.210298
 30
0.0
 11
40.481658
 21
219.210298
 31
0.0
  0
LINE
  5
C117
330
BF60
100
AcDbEntity
  8
1
  6
Continuous
100
AcDbLine
 10
73.565601
 20
218.0743819999999
 30
0.0
 11
41.49409399999997
 21
218.0743819999999
 31
0.0
  0
LINE
  5
C118
330
BF60
100
AcDbEntity
  8
1
  6
Continuous
100
AcDbLine
 10
59.54705699999998
 20
215.0912959999998
 30
0.0
 11
57.52000500000001
 21
217.1183479999999
 31
0.0
  0
LINE
  5
C119
330
BF60
100
AcDbEntity
  8
1
  6
Continuous
100
AcDbLine
 10
58.13284300000001
 20
215.0912959999998
 30
0.0
 11
56.105791
 21
217.1183479999999
 31
0.0
  0
LINE
  5
C11A
330
BF60
100
AcDbEntity
  8
1
  6
Continuous
100
AcDbLine
 10
56.71863
 20
215.0912959999998
 30
0.0
 11
54.691577
 21
217.1183479999999
 31
0.0
  0
LINE
  5
C11B
330
BF60
100
AcDbEntity
  8
1
  6
Continuous
100
AcDbLine
 10
55.304416
 20
215.0912959999998
 30
0.0
 11
53.277363
 21
217.1183479999999
 31
0.0
  0
LINE
  5
C11C
330
BF60
100
AcDbEntity
  8
1
  6
Continuous
100
AcDbLine
 10
53.890202
 20
215.0912959999998
 30
0.0
 11
51.86315
 21
217.1183479999999
 31
0.0
  0
LINE
  5
C11D
330
BF60
100
AcDbEntity
  8
1
  6
Continuous
100
AcDbLine
 10
52.47598899999999
 20
215.0912959999998
 30
0.0
 11
50.448937
 21
217.1183479999999
 31
0.0
  0
LINE
  5
C11E
330
BF60
100
AcDbEntity
  8
1
  6
Continuous
100
AcDbLine
 10
51.061775
 20
215.0912959999998
 30
0.0
 11
49.034723
 21
217.1183479999999
 31
0.0
  0
LINE
  5
C11F
330
BF60
100
AcDbEntity
  8
1
  6
Continuous
100
AcDbLine
 10
49.647562
 20
215.0912959999998
 30
0.0
 11
47.62050900000001
 21
217.1183479999999
 31
0.0
  0
LINE
  5
C120
330
BF60
100
AcDbEntity
  8
1
  6
Continuous
100
AcDbLine
 10
48.233348
 20
215.0912959999998
 30
0.0
 11
46.206296
 21
217.1183479999999
 31
0.0
  0
LINE
  5
C121
330
BF60
100
AcDbEntity
  8
1
  6
Continuous
100
AcDbLine
 10
46.81913499999999
 20
215.0912959999998
 30
0.0
 11
44.792082
 21
217.1183479999999
 31
0.0
  0
LINE
  5
C122
330
BF60
100
AcDbEntity
  8
1
  6
Continuous
100
AcDbLine
 10
45.404921
 20
215.0912959999998
 30
0.0
 11
43.37786799999999
 21
217.1183479999999
 31
0.0
  0
LINE
  5
C123
330
BF60
100
AcDbEntity
  8
1
  6
Continuous
100
AcDbLine
 10
43.990707
 20
215.0912959999998
 30
0.0
 11
41.963656
 21
217.1183479999999
 31
0.0
  0
LINE
  5
C124
330
BF60
100
AcDbEntity
  8
1
  6
Continuous
100
AcDbLine
 10
42.576494
 20
215.0912959999998
 30
0.0
 11
41.25
 21
216.4177899999998
 31
0.0
  0
LINE
  5
C125
330
BF60
100
AcDbEntity
  8
1
  6
Continuous
100
AcDbLine
 10
60.96126999999999
 20
215.0912959999998
 30
0.0
 11
58.93421800000001
 21
217.1183479999999
 31
0.0
  0
LINE
  5
C126
330
BF60
100
AcDbEntity
  8
1
  6
Continuous
100
AcDbLine
 10
62.375484
 20
215.0912959999998
 30
0.0
 11
60.34843099999999
 21
217.1183479999999
 31
0.0
  0
LINE
  5
C127
330
BF60
100
AcDbEntity
  8
1
  6
Continuous
100
AcDbLine
 10
63.78969699999998
 20
215.0912959999998
 30
0.0
 11
61.76264499999999
 21
217.1183479999999
 31
0.0
  0
LINE
  5
C128
330
BF60
100
AcDbEntity
  8
1
  6
Continuous
100
AcDbLine
 10
65.20391100000001
 20
215.0912959999998
 30
0.0
 11
63.17685899999999
 21
217.1183479999999
 31
0.0
  0
LINE
  5
C129
330
BF60
100
AcDbEntity
  8
1
  6
Continuous
100
AcDbLine
 10
66.61812399999999
 20
215.0912959999998
 30
0.0
 11
64.591072
 21
217.1183479999999
 31
0.0
  0
LINE
  5
C12A
330
BF60
100
AcDbEntity
  8
1
  6
Continuous
100
AcDbLine
 10
68.032338
 20
215.0912959999998
 30
0.0
 11
66.005286
 21
217.1183479999999
 31
0.0
  0
LINE
  5
C12B
330
BF60
100
AcDbEntity
  8
1
  6
Continuous
100
AcDbLine
 10
69.44655199999999
 20
215.0912959999998
 30
0.0
 11
67.4195
 21
217.1183479999999
 31
0.0
  0
LINE
  5
C12C
330
BF60
100
AcDbEntity
  8
1
  6
Continuous
100
AcDbLine
 10
70.860765
 20
215.0912959999998
 30
0.0
 11
68.833712
 21
217.1183479999999
 31
0.0
  0
LINE
  5
C12D
330
BF60
100
AcDbEntity
  8
1
  6
Continuous
100
AcDbLine
 10
72.274979
 20
215.0912959999998
 30
0.0
 11
70.24792600000001
 21
217.1183479999999
 31
0.0
  0
LINE
  5
C12E
330
BF60
100
AcDbEntity
  8
1
  6
Continuous
100
AcDbLine
 10
73.689192
 20
215.0912959999998
 30
0.0
 11
71.66214
 21
217.1183479999999
 31
0.0
  0
LINE
  5
C12F
330
BF60
100
AcDbEntity
  8
1
  6
Continuous
100
AcDbLine
 10
73.75
 20
216.444702
 30
0.0
 11
73.07635400000002
 21
217.1183479999999
 31
0.0
  0
LINE
  5
C130
330
BF60
100
AcDbEntity
  8
1
  6
Continuous
100
AcDbLine
 10
55.452942
 20
215.0912959999998
 30
0.0
 11
57.47999499999998
 21
217.1183479999999
 31
0.0
  0
LINE
  5
C131
330
BF60
100
AcDbEntity
  8
1
  6
Continuous
100
AcDbLine
 10
52.624515
 20
215.0912959999998
 30
0.0
 11
54.65156700000001
 21
217.1183479999999
 31
0.0
  0
LINE
  5
C132
330
BF60
100
AcDbEntity
  8
1
  6
Continuous
100
AcDbLine
 10
49.796088
 20
215.0912959999998
 30
0.0
 11
51.823141
 21
217.1183479999999
 31
0.0
  0
LINE
  5
C133
330
BF60
100
AcDbEntity
  8
1
  6
Continuous
100
AcDbLine
 10
46.967661
 20
215.0912959999998
 30
0.0
 11
48.994713
 21
217.1183479999999
 31
0.0
  0
LINE
  5
C134
330
BF60
100
AcDbEntity
  8
1
  6
Continuous
100
AcDbLine
 10
44.139234
 20
215.0912959999998
 30
0.0
 11
46.166286
 21
217.1183479999999
 31
0.0
  0
LINE
  5
C135
330
BF60
100
AcDbEntity
  8
1
  6
Continuous
100
AcDbLine
 10
41.310807
 20
215.0912959999998
 30
0.0
 11
43.337859
 21
217.1183479999999
 31
0.0
  0
LINE
  5
C136
330
BF60
100
AcDbEntity
  8
1
  6
Continuous
100
AcDbLine
 10
58.28136999999999
 20
215.0912959999998
 30
0.0
 11
60.308422
 21
217.1183479999999
 31
0.0
  0
LINE
  5
C137
330
BF60
100
AcDbEntity
  8
1
  6
Continuous
100
AcDbLine
 10
61.109797
 20
215.0912959999998
 30
0.0
 11
63.136849
 21
217.1183479999999
 31
0.0
  0
LINE
  5
C138
330
BF60
100
AcDbEntity
  8
1
  6
Continuous
100
AcDbLine
 10
63.938224
 20
215.0912959999998
 30
0.0
 11
65.965277
 21
217.1183479999999
 31
0.0
  0
LINE
  5
C139
330
BF60
100
AcDbEntity
  8
1
  6
Continuous
100
AcDbLine
 10
66.766651
 20
215.0912959999998
 30
0.0
 11
68.79370300000001
 21
217.1183479999999
 31
0.0
  0
LINE
  5
C13A
330
BF60
100
AcDbEntity
  8
1
  6
Continuous
100
AcDbLine
 10
69.595078
 20
215.0912959999998
 30
0.0
 11
71.62213
 21
217.1183479999999
 31
0.0
  0
LINE
  5
C13B
330
BF60
100
AcDbEntity
  8
1
  6
Continuous
100
AcDbLine
 10
73.75
 20
216.4177899999998
 30
0.0
 11
72.423505
 21
215.0912959999998
 31
0.0
  0
LINE
  5
C13C
330
BF60
100
AcDbEntity
  8
4
  6
CENTER
100
AcDbLine
 10
89.499723
 20
218.250827
 30
0.0
 11
89.499723
 21
225.364622
 31
0.0
  0
LINE
  5
C13D
330
BF60
100
AcDbEntity
  8
4
  6
CENTER
100
AcDbLine
 10
25.499723
 20
224.887404
 30
0.0
 11
25.499723
 21
217.514668
 31
0.0
  0
ARC
  5
C13E
330
BF60
100
AcDbEntity
  8
1
  6
Continuous
100
AcDbCircle
 10
234.7516939999999
 20
309.811343
 30
0.0
 40
100.0
100
AcDbArc
 50
174.730718
 51
185.269983
  0
LINE
  5
C13F
330
BF60
100
AcDbEntity
  8
1
  6
Continuous
100
AcDbLine
 10
139.7516559999999
 20
320.811343
 30
0.0
 11
137.1658339999999
 21
320.811343
 31
0.0
  0
ARC
  5
C140
330
BF60
100
AcDbEntity
  8
1
  6
Continuous
100
AcDbCircle
 10
137.1658339999999
 20
318.811343
 30
0.0
 40
2.0
100
AcDbArc
 50
90.0
 51
174.730718
  0
LINE
  5
C141
330
BF60
100
AcDbEntity
  8
1
  6
Continuous
100
AcDbLine
 10
139.7516559999999
 20
298.811343
 30
0.0
 11
137.1658339999999
 21
298.811343
 31
0.0
  0
ARC
  5
C142
330
BF60
100
AcDbEntity
  8
1
  6
Continuous
100
AcDbCircle
 10
137.1658339999999
 20
300.811343
 30
0.0
 40
2.0
100
AcDbArc
 50
185.269282
 51
270.0
  0
LINE
  5
C143
330
BF60
100
AcDbEntity
  8
1
  6
Continuous
100
AcDbLine
 10
194.8175369999999
 20
218.0743819999999
 30
0.0
 11
162.7460299999999
 21
218.0743819999999
 31
0.0
  0
LINE
  5
C144
330
BF60
100
AcDbEntity
  8
1
  6
Continuous
100
AcDbLine
 10
195.769806
 20
219.210298
 30
0.0
 11
161.7335939999998
 21
219.210298
 31
0.0
  0
LINE
  5
C145
330
BF60
100
AcDbEntity
  8
1
  6
Continuous
100
AcDbLine
 10
213.184496
 20
219.910298
 30
0.0
 11
144.318836
 21
219.910298
 31
0.0
  0
LINE
  5
C146
330
BF60
100
AcDbEntity
  8
1
  6
Continuous
100
AcDbLine
 10
217.7516589999999
 20
220.710298
 30
0.0
 11
139.7516589999999
 21
220.710298
 31
0.0
  0
LINE
  5
C147
330
BF60
100
AcDbEntity
  8
1
  6
Continuous
100
AcDbLine
 10
217.7516589999999
 20
222.710298
 30
0.0
 11
139.7516589999999
 21
222.710298
 31
0.0
  0
LINE
  5
C148
330
BF60
100
AcDbEntity
  8
1
  6
Continuous
100
AcDbLine
 10
194.0736799999999
 20
219.034686
 30
0.0
 11
163.285787
 21
219.034686
 31
0.0
  0
ARC
  5
C149
330
BF60
100
AcDbEntity
  8
1
  6
Continuous
100
AcDbCircle
 10
144.318836
 20
221.845325
 30
0.0
 40
1.935027
100
AcDbArc
 50
215.9139189999999
 51
270.0
  0
LINE
  5
C14A
330
BF60
100
AcDbEntity
  8
1
  6
Continuous
100
AcDbLine
 10
139.7516589999999
 20
222.710298
 30
0.0
 11
139.7516589999999
 21
220.710298
 31
0.0
  0
LINE
  5
C14B
330
BF60
100
AcDbEntity
  8
4
  6
CENTER
100
AcDbLine
 10
146.7516589999999
 20
224.887404
 30
0.0
 11
146.7516589999999
 21
217.514668
 31
0.0
  0
ARC
  5
C14C
330
BF60
100
AcDbEntity
  8
1
  6
Continuous
100
AcDbCircle
 10
161.7335939999998
 20
223.9602979999999
 30
0.0
 40
4.75
100
AcDbArc
 50
238.499059
 51
270.0
  0
ARC
  5
C14D
330
BF60
100
AcDbEntity
  8
1
  6
Continuous
100
AcDbCircle
 10
163.621408
 20
217.716718
 30
0.0
 40
1.360029999999999
100
AcDbArc
 50
104.2867189999999
 51
126.288607
  0
LINE
  5
C14E
330
BF60
100
AcDbEntity
  8
1
  6
Continuous
100
AcDbLine
 10
162.9127589999999
 20
217.557349
 30
0.0
 11
162.6549719999998
 21
218.3567559999999
 31
0.0
  0
ARC
  5
C14F
330
BF60
100
AcDbEntity
  8
1
  6
Continuous
100
AcDbCircle
 10
162.1462449999999
 20
216.6182399999999
 30
0.0
 40
1.212217
100
AcDbArc
 50
24.41332
 51
50.77817899999999
  0
ARC
  5
C150
330
BF60
100
AcDbEntity
  8
1
  6
Continuous
100
AcDbCircle
 10
163.034424
 20
218.4791189999998
 30
0.0
 40
0.398694
100
AcDbArc
 50
123.1388479999999
 51
197.873131
  0
ARC
  5
C151
330
BF60
100
AcDbEntity
  8
1
  6
Continuous
100
AcDbCircle
 10
195.769806
 20
223.9600089999999
 30
0.0
 40
4.749710999999998
100
AcDbArc
 50
270.0
 51
301.5019239999999
  0
LINE
  5
C152
330
BF60
100
AcDbEntity
  8
1
  6
Continuous
100
AcDbLine
 10
194.7663469999999
 20
218.0436959999999
 30
0.0
 11
194.8175369999999
 21
218.0743819999999
 31
0.0
  0
ARC
  5
C153
330
BF60
100
AcDbEntity
  8
1
  6
Continuous
100
AcDbCircle
 10
192.5079379999999
 20
218.6523799999999
 30
0.0
 40
2.338996999999999
100
AcDbArc
 50
319.015841
 51
344.9161179999999
  0
ARC
  5
C154
330
BF60
100
AcDbEntity
  8
1
  6
Continuous
100
AcDbCircle
 10
194.0736799999999
 20
218.2664359999999
 30
0.0
 40
0.76825
100
AcDbArc
 50
345.5231819999998
 51
90.0
  0
ARC
  5
C155
330
BF60
100
AcDbEntity
  8
1
  6
Continuous
100
AcDbCircle
 10
213.184496
 20
221.8452979999999
 30
0.0
 40
1.935
100
AcDbArc
 50
270.0
 51
324.086493
  0
LINE
  5
C156
330
BF60
100
AcDbEntity
  8
4
  6
CENTER
100
AcDbLine
 10
210.7516589999999
 20
218.250827
 30
0.0
 11
210.7516589999999
 21
225.364622
 31
0.0
  0
LINE
  5
C157
330
BF60
100
AcDbEntity
  8
1
  6
Continuous
100
AcDbLine
 10
217.7516589999999
 20
220.710298
 30
0.0
 11
217.7516589999999
 21
222.710298
 31
0.0
  0
LINE
  5
C158
330
BF60
100
AcDbEntity
  8
1
  6
Continuous
100
AcDbLine
 10
195.0019359999997
 20
215.0912959999998
 30
0.0
 11
162.501936
 21
215.0912959999998
 31
0.0
  0
LINE
  5
C159
330
BF60
100
AcDbEntity
  8
1
  6
Continuous
100
AcDbLine
 10
213.2516779999999
 20
214.9461529999999
 30
0.0
 11
213.2516779999999
 21
219.910298
 31
0.0
  0
LINE
  5
C15A
330
BF60
100
AcDbEntity
  8
1
  6
Continuous
100
AcDbLine
 10
206.251678
 20
219.910298
 30
0.0
 11
206.251678
 21
218.0879099999999
 31
0.0
  0
LINE
  5
C15B
330
BF60
100
AcDbEntity
  8
1
  6
Continuous
100
AcDbLine
 10
205.2516779999999
 20
216.0878779999999
 30
0.0
 11
205.2516779999999
 21
217.08791
 31
0.0
  0
LINE
  5
C15C
330
BF60
100
AcDbEntity
  8
1
  6
Continuous
100
AcDbLine
 10
207.2516779999999
 20
216.0878779999999
 30
0.0
 11
207.2516779999999
 21
217.08791
 31
0.0
  0
ARC
  5
C15D
330
BF60
100
AcDbEntity
  8
1
  6
Continuous
100
AcDbCircle
 10
206.251678
 20
217.08791
 30
0.0
 40
1.0
100
AcDbArc
 50
0.0
 51
180.0
  0
ARC
  5
C15E
330
BF60
100
AcDbEntity
  8
1
  6
Continuous
100
AcDbCircle
 10
206.251678
 20
216.0878779999999
 30
0.0
 40
1.0
100
AcDbArc
 50
180.0
 51
0.0
  0
LINE
  5
C15F
330
BF60
100
AcDbEntity
  8
1
  6
Continuous
100
AcDbLine
 10
199.251678
 20
215.025207
 30
0.0
 11
199.251678
 21
219.910298
 31
0.0
  0
LINE
  5
C160
330
BF60
100
AcDbEntity
  8
1
  6
Continuous
100
AcDbLine
 10
199.251678
 20
202.894092
 30
0.0
 11
199.251678
 21
189.410298
 31
0.0
  0
LINE
  5
C161
330
BF60
100
AcDbEntity
  8
1
  6
Continuous
100
AcDbLine
 10
212.7516779999999
 20
188.910298
 30
0.0
 11
199.7516779999999
 21
188.910298
 31
0.0
  0
ARC
  5
C162
330
BF60
100
AcDbEntity
  8
1
  6
Continuous
100
AcDbCircle
 10
199.7516779999999
 20
189.410298
 30
0.0
 40
0.5
100
AcDbArc
 50
180.0
 51
270.0
  0
ARC
  5
C163
330
BF60
100
AcDbEntity
  8
1
  6
Continuous
100
AcDbCircle
 10
202.751678
 20
193.743631
 30
0.0
 40
4.833332999999997
100
AcDbArc
 50
223.6028189999999
 51
316.397181
  0
ARC
  5
C164
330
BF60
100
AcDbEntity
  8
1
  6
Continuous
100
AcDbCircle
 10
209.7516779999998
 20
193.743631
 30
0.0
 40
4.833332999999997
100
AcDbArc
 50
223.6028189999999
 51
316.397181
  0
LINE
  5
C165
330
BF60
100
AcDbEntity
  8
1
  6
Continuous
100
AcDbLine
 10
206.251678
 20
202.894092
 30
0.0
 11
206.251678
 21
190.410298
 31
0.0
  0
LINE
  5
C166
330
BF60
100
AcDbEntity
  8
1
  6
Continuous
100
AcDbLine
 10
213.2516779999999
 20
202.894092
 30
0.0
 11
213.2516779999999
 21
189.410298
 31
0.0
  0
ARC
  5
C167
330
BF60
100
AcDbEntity
  8
1
  6
Continuous
100
AcDbCircle
 10
212.7516779999999
 20
189.410298
 30
0.0
 40
0.5
100
AcDbArc
 50
270.0
 51
0.0
  0
LINE
  5
C168
330
BF60
100
AcDbEntity
  8
1
  6
Continuous
100
AcDbLine
 10
334.4364259999999
 20
219.910298
 30
0.0
 11
308.086493
 21
219.910298
 31
0.0
  0
LINE
  5
C169
330
BF60
100
AcDbEntity
  8
1
  6
Continuous
100
AcDbLine
 10
339.003589
 20
220.710298
 30
0.0
 11
261.0035889999999
 21
220.710298
 31
0.0
  0
LINE
  5
C16A
330
BF60
100
AcDbEntity
  8
1
  6
Continuous
100
AcDbLine
 10
339.003589
 20
222.710298
 30
0.0
 11
261.0035889999999
 21
222.710298
 31
0.0
  0
ARC
  5
C16B
330
BF60
100
AcDbEntity
  8
1
  6
Continuous
100
AcDbCircle
 10
334.4364259999999
 20
221.8452979999999
 30
0.0
 40
1.935
100
AcDbArc
 50
270.0
 51
324.086493
  0
LINE
  5
C16C
330
BF60
100
AcDbEntity
  8
4
  6
CENTER
100
AcDbLine
 10
332.0035889999999
 20
218.250827
 30
0.0
 11
332.0035889999999
 21
225.364622
 31
0.0
  0
LINE
  5
C16D
330
BF60
100
AcDbEntity
  8
1
  6
Continuous
100
AcDbLine
 10
339.003589
 20
220.710298
 30
0.0
 11
339.003589
 21
222.710298
 31
0.0
  0
ARC
  5
C16E
330
BF60
100
AcDbEntity
  8
1
  6
Continuous
100
AcDbCircle
 10
265.570766
 20
221.845325
 30
0.0
 40
1.935027
100
AcDbArc
 50
215.9139189999999
 51
270.0
  0
LINE
  5
C16F
330
BF60
100
AcDbEntity
  8
1
  6
Continuous
100
AcDbLine
 10
261.0035889999999
 20
222.710298
 30
0.0
 11
261.0035889999999
 21
220.710298
 31
0.0
  0
LINE
  5
C170
330
BF60
100
AcDbEntity
  8
4
  6
CENTER
100
AcDbLine
 10
268.0035889999999
 20
224.887404
 30
0.0
 11
268.0035889999999
 21
217.514668
 31
0.0
  0
LINE
  5
C171
330
BF60
100
AcDbEntity
  8
1
  6
Continuous
100
AcDbLine
 10
316.0694669999998
 20
218.0743819999999
 30
0.0
 11
308.086493
 21
218.0743819999999
 31
0.0
  0
LINE
  5
C172
330
BF60
100
AcDbEntity
  8
1
  6
Continuous
100
AcDbLine
 10
317.0217359999999
 20
219.210298
 30
0.0
 11
308.086493
 21
219.210298
 31
0.0
  0
LINE
  5
C173
330
BF60
100
AcDbEntity
  8
1
  6
Continuous
100
AcDbLine
 10
315.32561
 20
219.034686
 30
0.0
 11
308.086493
 21
219.034686
 31
0.0
  0
ARC
  5
C174
330
BF60
100
AcDbEntity
  8
1
  6
Continuous
100
AcDbCircle
 10
282.985524
 20
223.9602979999999
 30
0.0
 40
4.75
100
AcDbArc
 50
238.499059
 51
270.0
  0
ARC
  5
C175
330
BF60
100
AcDbEntity
  8
1
  6
Continuous
100
AcDbCircle
 10
284.873338
 20
217.716718
 30
0.0
 40
1.360029999999999
100
AcDbArc
 50
104.2867189999999
 51
126.288607
  0
LINE
  5
C176
330
BF60
100
AcDbEntity
  8
1
  6
Continuous
100
AcDbLine
 10
284.164689
 20
217.557349
 30
0.0
 11
283.906902
 21
218.3567559999999
 31
0.0
  0
ARC
  5
C177
330
BF60
100
AcDbEntity
  8
1
  6
Continuous
100
AcDbCircle
 10
283.3981749999999
 20
216.6182399999999
 30
0.0
 40
1.212217
100
AcDbArc
 50
24.41332
 51
50.77817899999999
  0
ARC
  5
C178
330
BF60
100
AcDbEntity
  8
1
  6
Continuous
100
AcDbCircle
 10
284.286354
 20
218.4791189999998
 30
0.0
 40
0.398694
100
AcDbArc
 50
123.1388479999999
 51
197.873131
  0
ARC
  5
C179
330
BF60
100
AcDbEntity
  8
1
  6
Continuous
100
AcDbCircle
 10
317.0217359999999
 20
223.9600089999999
 30
0.0
 40
4.749710999999998
100
AcDbArc
 50
270.0
 51
301.5019239999999
  0
LINE
  5
C17A
330
BF60
100
AcDbEntity
  8
1
  6
Continuous
100
AcDbLine
 10
316.018277
 20
218.0436959999999
 30
0.0
 11
316.0694669999998
 21
218.0743819999999
 31
0.0
  0
ARC
  5
C17B
330
BF60
100
AcDbEntity
  8
1
  6
Continuous
100
AcDbCircle
 10
313.7598679999999
 20
218.6523799999999
 30
0.0
 40
2.338996999999999
100
AcDbArc
 50
319.015841
 51
344.9161179999999
  0
ARC
  5
C17C
330
BF60
100
AcDbEntity
  8
1
  6
Continuous
100
AcDbCircle
 10
315.32561
 20
218.2664359999999
 30
0.0
 40
0.76825
100
AcDbArc
 50
345.5231819999998
 51
90.0
  0
LINE
  5
C17D
330
BF60
100
AcDbEntity
  8
1
  6
Continuous
100
AcDbLine
 10
316.253866
 20
215.0912959999998
 30
0.0
 11
308.086493
 21
215.0912959999998
 31
0.0
  0
LINE
  5
C17E
330
BF60
100
AcDbEntity
  8
1
  6
Continuous
100
AcDbLine
 10
41.25
 20
217.1183479999999
 30
0.0
 11
73.75
 21
217.1183479999999
 31
0.0
  0
LINE
  5
C17F
330
BF60
100
AcDbEntity
  8
1
  6
Continuous
100
AcDbLine
 10
162.501936
 20
217.1183479999999
 30
0.0
 11
195.0019359999997
 21
217.1183479999999
 31
0.0
  0
LINE
  5
C180
330
BF60
100
AcDbEntity
  8
1
  6
Continuous
100
AcDbLine
 10
195.0019359999997
 20
217.1183479999999
 30
0.0
 11
195.0019359999997
 21
215.091271
 31
0.0
  0
LINE
  5
C181
330
BF60
100
AcDbEntity
  8
1
  6
Continuous
100
AcDbLine
 10
195.0019359999997
 20
216.444702
 30
0.0
 11
194.3282899999999
 21
217.1183479999999
 31
0.0
  0
LINE
  5
C182
330
BF60
100
AcDbEntity
  8
1
  6
Continuous
100
AcDbLine
 10
195.0019359999997
 20
216.4177899999998
 30
0.0
 11
193.6754409999998
 21
215.0912959999998
 31
0.0
  0
LINE
  5
C183
330
BF60
100
AcDbEntity
  8
1
  6
Continuous
100
AcDbLine
 10
186.455847
 20
215.0912959999998
 30
0.0
 11
184.428795
 21
217.1183479999999
 31
0.0
  0
LINE
  5
C184
330
BF60
100
AcDbEntity
  8
1
  6
Continuous
100
AcDbLine
 10
182.213206
 20
215.0912959999998
 30
0.0
 11
180.1861539999999
 21
217.1183479999999
 31
0.0
  0
LINE
  5
C185
330
BF60
100
AcDbEntity
  8
1
  6
Continuous
100
AcDbLine
 10
183.62742
 20
215.0912959999998
 30
0.0
 11
181.600367
 21
217.1183479999999
 31
0.0
  0
LINE
  5
C186
330
BF60
100
AcDbEntity
  8
1
  6
Continuous
100
AcDbLine
 10
179.533306
 20
215.0912959999998
 30
0.0
 11
181.560358
 21
217.1183479999999
 31
0.0
  0
LINE
  5
C187
330
BF60
100
AcDbEntity
  8
1
  6
Continuous
100
AcDbLine
 10
182.3617329999999
 20
215.0912959999998
 30
0.0
 11
184.388785
 21
217.1183479999999
 31
0.0
  0
LINE
  5
C188
330
BF60
100
AcDbEntity
  8
1
  6
Continuous
100
AcDbLine
 10
185.0416329999999
 20
215.0912959999998
 30
0.0
 11
183.0145809999999
 21
217.1183479999999
 31
0.0
  0
LINE
  5
C189
330
BF60
100
AcDbEntity
  8
1
  6
Continuous
100
AcDbLine
 10
180.7989929999999
 20
215.0912959999998
 30
0.0
 11
178.771941
 21
217.1183479999999
 31
0.0
  0
LINE
  5
C18A
330
BF60
100
AcDbEntity
  8
1
  6
Continuous
100
AcDbLine
 10
193.526915
 20
215.0912959999998
 30
0.0
 11
191.499862
 21
217.1183479999999
 31
0.0
  0
LINE
  5
C18B
330
BF60
100
AcDbEntity
  8
1
  6
Continuous
100
AcDbLine
 10
194.9411279999999
 20
215.0912959999998
 30
0.0
 11
192.9140759999999
 21
217.1183479999999
 31
0.0
  0
LINE
  5
C18C
330
BF60
100
AcDbEntity
  8
1
  6
Continuous
100
AcDbLine
 10
190.847014
 20
215.0912959999998
 30
0.0
 11
192.874066
 21
217.1183479999999
 31
0.0
  0
LINE
  5
C18D
330
BF60
100
AcDbEntity
  8
1
  6
Continuous
100
AcDbLine
 10
188.018587
 20
215.0912959999998
 30
0.0
 11
190.045639
 21
217.1183479999999
 31
0.0
  0
LINE
  5
C18E
330
BF60
100
AcDbEntity
  8
1
  6
Continuous
100
AcDbLine
 10
192.112701
 20
215.0912959999998
 30
0.0
 11
190.0856479999999
 21
217.1183479999999
 31
0.0
  0
LINE
  5
C18F
330
BF60
100
AcDbEntity
  8
1
  6
Continuous
100
AcDbLine
 10
187.8700599999999
 20
215.0912959999998
 30
0.0
 11
185.8430079999999
 21
217.1183479999999
 31
0.0
  0
LINE
  5
C190
330
BF60
100
AcDbEntity
  8
1
  6
Continuous
100
AcDbLine
 10
185.1901599999999
 20
215.0912959999998
 30
0.0
 11
187.2172129999999
 21
217.1183479999999
 31
0.0
  0
LINE
  5
C191
330
BF60
100
AcDbEntity
  8
1
  6
Continuous
100
AcDbLine
 10
189.284274
 20
215.0912959999998
 30
0.0
 11
187.2572219999999
 21
217.1183479999999
 31
0.0
  0
LINE
  5
C192
330
BF60
100
AcDbEntity
  8
1
  6
Continuous
100
AcDbLine
 10
190.6984879999999
 20
215.0912959999998
 30
0.0
 11
188.671436
 21
217.1183479999999
 31
0.0
  0
LINE
  5
C193
330
BF60
100
AcDbEntity
  8
1
  6
Continuous
100
AcDbLine
 10
168.2195969999999
 20
215.0912959999998
 30
0.0
 11
170.2466489999999
 21
217.1183479999999
 31
0.0
  0
LINE
  5
C194
330
BF60
100
AcDbEntity
  8
1
  6
Continuous
100
AcDbLine
 10
169.485284
 20
215.0912959999998
 30
0.0
 11
167.458232
 21
217.1183479999999
 31
0.0
  0
LINE
  5
C195
330
BF60
100
AcDbEntity
  8
1
  6
Continuous
100
AcDbLine
 10
170.8994979999999
 20
215.0912959999998
 30
0.0
 11
168.872445
 21
217.1183479999999
 31
0.0
  0
LINE
  5
C196
330
BF60
100
AcDbEntity
  8
1
  6
Continuous
100
AcDbLine
 10
165.3911699999999
 20
215.0912959999998
 30
0.0
 11
167.4182219999998
 21
217.1183479999999
 31
0.0
  0
LINE
  5
C197
330
BF60
100
AcDbEntity
  8
1
  6
Continuous
100
AcDbLine
 10
162.5627429999999
 20
215.0912959999998
 30
0.0
 11
164.589795
 21
217.1183479999999
 31
0.0
  0
LINE
  5
C198
330
BF60
100
AcDbEntity
  8
1
  6
Continuous
100
AcDbLine
 10
165.242643
 20
215.0912959999998
 30
0.0
 11
163.2155919999999
 21
217.1183479999999
 31
0.0
  0
LINE
  5
C199
330
BF60
100
AcDbEntity
  8
1
  6
Continuous
100
AcDbLine
 10
166.656857
 20
215.0912959999998
 30
0.0
 11
164.629804
 21
217.1183479999999
 31
0.0
  0
LINE
  5
C19A
330
BF60
100
AcDbEntity
  8
1
  6
Continuous
100
AcDbLine
 10
168.0710709999999
 20
215.0912959999998
 30
0.0
 11
166.0440179999999
 21
217.1183479999999
 31
0.0
  0
LINE
  5
C19B
330
BF60
100
AcDbEntity
  8
1
  6
Continuous
100
AcDbLine
 10
162.501936
 20
217.1183479999999
 30
0.0
 11
162.501936
 21
215.0912959999998
 31
0.0
  0
LINE
  5
C19C
330
BF60
100
AcDbEntity
  8
1
  6
Continuous
100
AcDbLine
 10
163.82843
 20
215.0912959999998
 30
0.0
 11
162.501936
 21
216.4177899999998
 31
0.0
  0
LINE
  5
C19D
330
BF60
100
AcDbEntity
  8
1
  6
Continuous
100
AcDbLine
 10
176.704878
 20
215.0912959999998
 30
0.0
 11
178.7319309999998
 21
217.1183479999999
 31
0.0
  0
LINE
  5
C19E
330
BF60
100
AcDbEntity
  8
1
  6
Continuous
100
AcDbLine
 10
177.9705659999999
 20
215.0912959999998
 30
0.0
 11
175.9435129999999
 21
217.1183479999999
 31
0.0
  0
LINE
  5
C19F
330
BF60
100
AcDbEntity
  8
1
  6
Continuous
100
AcDbLine
 10
179.384779
 20
215.0912959999998
 30
0.0
 11
177.357727
 21
217.1183479999999
 31
0.0
  0
LINE
  5
C1A0
330
BF60
100
AcDbEntity
  8
1
  6
Continuous
100
AcDbLine
 10
176.556352
 20
215.0912959999998
 30
0.0
 11
174.529299
 21
217.1183479999999
 31
0.0
  0
LINE
  5
C1A1
330
BF60
100
AcDbEntity
  8
1
  6
Continuous
100
AcDbLine
 10
175.142138
 20
215.0912959999998
 30
0.0
 11
173.1150859999999
 21
217.1183479999999
 31
0.0
  0
LINE
  5
C1A2
330
BF60
100
AcDbEntity
  8
1
  6
Continuous
100
AcDbLine
 10
173.876451
 20
215.0912959999998
 30
0.0
 11
175.9035029999997
 21
217.1183479999999
 31
0.0
  0
LINE
  5
C1A3
330
BF60
100
AcDbEntity
  8
1
  6
Continuous
100
AcDbLine
 10
171.048024
 20
215.0912959999998
 30
0.0
 11
173.075077
 21
217.1183479999999
 31
0.0
  0
LINE
  5
C1A4
330
BF60
100
AcDbEntity
  8
1
  6
Continuous
100
AcDbLine
 10
172.313711
 20
215.0912959999998
 30
0.0
 11
170.286659
 21
217.1183479999999
 31
0.0
  0
LINE
  5
C1A5
330
BF60
100
AcDbEntity
  8
1
  6
Continuous
100
AcDbLine
 10
173.727925
 20
215.0912959999998
 30
0.0
 11
171.700873
 21
217.1183479999999
 31
0.0
  0
LINE
  5
C1A6
330
BF60
100
AcDbEntity
  8
1
  6
Continuous
100
AcDbLine
 10
283.753866
 20
217.1183479999999
 30
0.0
 11
291.920685
 21
217.1183479999999
 31
0.0
  0
LINE
  5
C1A7
330
BF60
100
AcDbEntity
  8
1
  6
Continuous
100
AcDbLine
 10
316.253866
 20
216.4177899999998
 30
0.0
 11
314.927371
 21
215.0912959999998
 31
0.0
  0
LINE
  5
C1A8
330
BF60
100
AcDbEntity
  8
1
  6
Continuous
100
AcDbLine
 10
316.253866
 20
216.444702
 30
0.0
 11
315.58022
 21
217.1183479999999
 31
0.0
  0
LINE
  5
C1A9
330
BF60
100
AcDbEntity
  8
1
  6
Continuous
100
AcDbLine
 10
316.253866
 20
217.1183479999999
 30
0.0
 11
316.253866
 21
215.091271
 31
0.0
  0
LINE
  5
C1AA
330
BF60
100
AcDbEntity
  8
1
  6
Continuous
100
AcDbLine
 10
313.3646309999999
 20
215.0912959999998
 30
0.0
 11
311.337578
 21
217.1183479999999
 31
0.0
  0
LINE
  5
C1AB
330
BF60
100
AcDbEntity
  8
1
  6
Continuous
100
AcDbLine
 10
312.098944
 20
215.0912959999998
 30
0.0
 11
314.1259959999998
 21
217.1183479999999
 31
0.0
  0
LINE
  5
C1AC
330
BF60
100
AcDbEntity
  8
1
  6
Continuous
100
AcDbLine
 10
311.950418
 20
215.0912959999998
 30
0.0
 11
309.9233659999999
 21
217.1183479999999
 31
0.0
  0
LINE
  5
C1AD
330
BF60
100
AcDbEntity
  8
1
  6
Continuous
100
AcDbLine
 10
310.536204
 20
215.0912959999998
 30
0.0
 11
308.5091519999999
 21
217.1183479999999
 31
0.0
  0
LINE
  5
C1AE
330
BF60
100
AcDbEntity
  8
1
  6
Continuous
100
AcDbLine
 10
308.086493
 20
216.735698
 30
0.0
 11
308.4691429999999
 21
217.1183479999999
 31
0.0
  0
LINE
  5
C1AF
330
BF60
100
AcDbEntity
  8
1
  6
Continuous
100
AcDbLine
 10
309.12199
 20
215.0912959999998
 30
0.0
 11
308.086493
 21
216.126793
 31
0.0
  0
LINE
  5
C1B0
330
BF60
100
AcDbEntity
  8
1
  6
Continuous
100
AcDbLine
 10
309.2705169999999
 20
215.0912959999998
 30
0.0
 11
311.297569
 21
217.1183479999999
 31
0.0
  0
LINE
  5
C1B1
330
BF60
100
AcDbEntity
  8
1
  6
Continuous
100
AcDbLine
 10
316.1930579999999
 20
215.0912959999998
 30
0.0
 11
314.1660059999999
 21
217.1183479999999
 31
0.0
  0
LINE
  5
C1B2
330
BF60
100
AcDbEntity
  8
1
  6
Continuous
100
AcDbLine
 10
314.7788450000001
 20
215.0912959999998
 30
0.0
 11
312.7517919999998
 21
217.1183479999999
 31
0.0
  0
LINE
  5
C1B3
330
BF60
100
AcDbEntity
  8
1
  6
Continuous
100
AcDbLine
 10
291.920685
 20
216.736252
 30
0.0
 11
291.5385889999999
 21
217.1183479999999
 31
0.0
  0
LINE
  5
C1B4
330
BF60
100
AcDbEntity
  8
1
  6
Continuous
100
AcDbLine
 10
285.0803599999998
 20
215.0912959999998
 30
0.0
 11
283.753866
 21
216.4177899999998
 31
0.0
  0
LINE
  5
C1B5
330
BF60
100
AcDbEntity
  8
1
  6
Continuous
100
AcDbLine
 10
283.753866
 20
217.1183479999999
 30
0.0
 11
283.753866
 21
215.0912959999998
 31
0.0
  0
LINE
  5
C1B6
330
BF60
100
AcDbEntity
  8
1
  6
Continuous
100
AcDbLine
 10
289.3230009999999
 20
215.0912959999998
 30
0.0
 11
287.295948
 21
217.1183479999999
 31
0.0
  0
LINE
  5
C1B7
330
BF60
100
AcDbEntity
  8
1
  6
Continuous
100
AcDbLine
 10
287.908787
 20
215.0912959999998
 30
0.0
 11
285.8817339999998
 21
217.1183479999999
 31
0.0
  0
LINE
  5
C1B8
330
BF60
100
AcDbEntity
  8
1
  6
Continuous
100
AcDbLine
 10
286.494573
 20
215.0912959999998
 30
0.0
 11
284.4675219999999
 21
217.1183479999999
 31
0.0
  0
LINE
  5
C1B9
330
BF60
100
AcDbEntity
  8
1
  6
Continuous
100
AcDbLine
 10
283.8146729999999
 20
215.0912959999998
 30
0.0
 11
285.841725
 21
217.1183479999999
 31
0.0
  0
LINE
  5
C1BA
330
BF60
100
AcDbEntity
  8
1
  6
Continuous
100
AcDbLine
 10
286.6431
 20
215.0912959999998
 30
0.0
 11
288.6701519999999
 21
217.1183479999999
 31
0.0
  0
LINE
  5
C1BB
330
BF60
100
AcDbEntity
  8
1
  6
Continuous
100
AcDbLine
 10
291.920685
 20
215.3220389999999
 30
0.0
 11
290.1243749999998
 21
217.1183479999999
 31
0.0
  0
LINE
  5
C1BC
330
BF60
100
AcDbEntity
  8
1
  6
Continuous
100
AcDbLine
 10
290.737214
 20
215.0912959999998
 30
0.0
 11
288.7101620000001
 21
217.1183479999999
 31
0.0
  0
LINE
  5
C1BD
330
BF60
100
AcDbEntity
  8
1
  6
Continuous
100
AcDbLine
 10
289.4715269999998
 20
215.0912959999998
 30
0.0
 11
291.498579
 21
217.1183479999999
 31
0.0
  0
LINE
  5
C1BE
330
BF60
100
AcDbEntity
  8
1
  6
Continuous
100
AcDbLine
 10
291.920685
 20
218.0743819999999
 30
0.0
 11
283.9979599999999
 21
218.0743819999999
 31
0.0
  0
LINE
  5
C1BF
330
BF60
100
AcDbEntity
  8
1
  6
Continuous
100
AcDbLine
 10
291.920685
 20
219.034686
 30
0.0
 11
284.5377169999998
 21
219.034686
 31
0.0
  0
LINE
  5
C1C0
330
BF60
100
AcDbEntity
  8
1
  6
Continuous
100
AcDbLine
 10
291.920685
 20
219.210298
 30
0.0
 11
282.985524
 21
219.210298
 31
0.0
  0
LINE
  5
C1C1
330
BF60
100
AcDbEntity
  8
1
  6
Continuous
100
AcDbLine
 10
291.920685
 20
219.910298
 30
0.0
 11
265.570766
 21
219.910298
 31
0.0
  0
LINE
  5
C1C2
330
BF60
100
AcDbEntity
  8
1
  6
Continuous
100
AcDbLine
 10
308.086493
 20
217.1183479999999
 30
0.0
 11
316.253866
 21
217.1183479999999
 31
0.0
  0
LINE
  5
C1C3
330
BF60
100
AcDbEntity
  8
1
  6
Continuous
100
AcDbLine
 10
291.920685
 20
215.0912959999998
 30
0.0
 11
283.753866
 21
215.0912959999998
 31
0.0
  0
LINE
  5
C1C4
330
BF60
100
AcDbEntity
  8
1
  6
Continuous
100
AcDbLine
 10
139.7516559999999
 20
105.4999999999999
 30
0.0
 11
139.7516559999999
 21
84.50000000000001
 31
0.0
  0
LINE
  5
C1C5
330
BF60
100
AcDbEntity
  8
1
  6
Continuous
100
AcDbLine
 10
210.751656
 20
112.5
 30
0.0
 11
146.7516559999999
 21
112.5
 31
0.0
  0
ARC
  5
C1C6
330
BF60
100
AcDbEntity
  8
1
  6
Continuous
100
AcDbCircle
 10
146.7516559999999
 20
105.4999999999999
 30
0.0
 40
7.0
100
AcDbArc
 50
90.0
 51
180.0
  0
CIRCLE
  5
C1C7
330
BF60
100
AcDbEntity
  8
1
  6
Continuous
100
AcDbCircle
 10
146.7516559999999
 20
105.4999999999999
 30
0.0
 40
3.25
  0
LINE
  5
C1C8
330
BF60
100
AcDbEntity
  8
4
  6
CENTER
100
AcDbLine
 10
153.0016559999999
 20
105.4999999999999
 30
0.0
 11
140.5016559999999
 21
105.4999999999999
 31
0.0
  0
LINE
  5
C1C9
330
BF60
100
AcDbEntity
  8
4
  6
CENTER
100
AcDbLine
 10
146.7516559999999
 20
99.25
 30
0.0
 11
146.7516559999999
 21
111.7499999999999
 31
0.0
  0
LINE
  5
C1CA
330
BF60
100
AcDbEntity
  8
4
  6
CENTER
100
AcDbLine
 10
146.7516559999999
 20
35.25
 30
0.0
 11
146.7516559999999
 21
47.75
 31
0.0
  0
CIRCLE
  5
C1CB
330
BF60
100
AcDbEntity
  8
1
  6
Continuous
100
AcDbCircle
 10
146.7516559999999
 20
41.5
 30
0.0
 40
3.25
  0
LINE
  5
C1CC
330
BF60
100
AcDbEntity
  8
4
  6
CENTER
100
AcDbLine
 10
153.0016559999999
 20
41.5
 30
0.0
 11
140.5016559999999
 21
41.5
 31
0.0
  0
ARC
  5
C1CD
330
BF60
100
AcDbEntity
  8
1
  6
Continuous
100
AcDbCircle
 10
146.7516559999999
 20
41.5
 30
0.0
 40
7.0
100
AcDbArc
 50
180.0
 51
270.0
  0
LINE
  5
C1CE
330
BF60
100
AcDbEntity
  8
4
  6
CENTER
100
AcDbLine
 10
210.751656
 20
35.25
 30
0.0
 11
210.751656
 21
47.75
 31
0.0
  0
LINE
  5
C1CF
330
BF60
100
AcDbEntity
  8
1
  6
Continuous
100
AcDbLine
 10
217.7516559999999
 20
105.4999999999999
 30
0.0
 11
217.7516559999999
 21
88.435629
 31
0.0
  0
LINE
  5
C1D0
330
BF60
100
AcDbEntity
  8
1
  6
Continuous
100
AcDbLine
 10
210.751656
 20
34.5
 30
0.0
 11
146.7516559999999
 21
34.5
 31
0.0
  0
LINE
  5
C1D1
330
BF60
100
AcDbEntity
  8
4
  6
CENTER
100
AcDbLine
 10
217.001656
 20
41.5
 30
0.0
 11
204.501656
 21
41.5
 31
0.0
  0
ARC
  5
C1D2
330
BF60
100
AcDbEntity
  8
1
  6
Continuous
100
AcDbCircle
 10
210.751656
 20
41.5
 30
0.0
 40
7.0
100
AcDbArc
 50
270.0
 51
0.0
  0
CIRCLE
  5
C1D3
330
BF60
100
AcDbEntity
  8
1
  6
Continuous
100
AcDbCircle
 10
210.751656
 20
41.5
 30
0.0
 40
3.25
  0
ARC
  5
C1D4
330
BF60
100
AcDbEntity
  8
1
  6
Continuous
100
AcDbCircle
 10
210.751656
 20
105.4999999999999
 30
0.0
 40
7.0
100
AcDbArc
 50
0.0
 51
90.0
  0
CIRCLE
  5
C1D5
330
BF60
100
AcDbEntity
  8
1
  6
Continuous
100
AcDbCircle
 10
210.751656
 20
105.4999999999999
 30
0.0
 40
3.25
  0
LINE
  5
C1D6
330
BF60
100
AcDbEntity
  8
4
  6
CENTER
100
AcDbLine
 10
217.001656
 20
105.4999999999999
 30
0.0
 11
204.501656
 21
105.4999999999999
 31
0.0
  0
LINE
  5
C1D7
330
BF60
100
AcDbEntity
  8
4
  6
CENTER
100
AcDbLine
 10
210.751656
 20
99.25
 30
0.0
 11
210.751656
 21
111.7499999999999
 31
0.0
  0
LINE
  5
C1D8
330
BF60
100
AcDbEntity
  8
4
  6
CENTER
100
AcDbLine
 10
227.8175599999999
 20
73.5
 30
0.0
 11
130.568616
 21
73.5
 31
0.0
  0
LINE
  5
C1D9
330
BF60
100
AcDbEntity
  8
4
  6
CENTER
100
AcDbLine
 10
178.751656
 20
32.33195300000001
 30
0.0
 11
178.751656
 21
115.9843139999999
 31
0.0
  0
LINE
  5
C1DA
330
BF60
100
AcDbEntity
  8
1
  6
Continuous
100
AcDbLine
 10
139.7516559999999
 20
62.5
 30
0.0
 11
139.7516559999999
 21
41.5
 31
0.0
  0
LINE
  5
C1DB
330
BF60
100
AcDbEntity
  8
1
  6
Continuous
100
AcDbLine
 10
217.7516559999999
 20
58.56437099999999
 30
0.0
 11
217.7516559999999
 21
41.5
 31
0.0
  0
ARC
  5
C1DC
330
BF60
100
AcDbEntity
  8
1
  6
Continuous
100
AcDbCircle
 10
178.751656
 20
73.5
 30
0.0
 40
36.000003
100
AcDbArc
 50
31.01482
 51
162.208411
  0
ARC
  5
C1DD
330
BF60
100
AcDbEntity
  8
1
  6
Continuous
100
AcDbCircle
 10
178.751656
 20
73.5
 30
0.0
 40
32.50000299999999
100
AcDbArc
 50
35.392437
 51
160.216832
  0
ARC
  5
C1DE
330
BF60
100
AcDbEntity
  8
1
  6
Continuous
100
AcDbCircle
 10
178.751656
 20
73.5
 30
0.0
 40
32.50000299999999
100
AcDbArc
 50
199.783168
 51
324.6075629999999
  0
ARC
  5
C1DF
330
BF60
100
AcDbEntity
  8
1
  6
Continuous
100
AcDbCircle
 10
178.751656
 20
73.5
 30
0.0
 40
36.000003
100
AcDbArc
 50
197.791589
 51
328.9851799999999
  0
LINE
  5
C1E0
330
BF60
100
AcDbEntity
  8
2
  6
Continuous
100
AcDbLine
 10
388.7554999999999
 20
177.8038379999999
 30
0.0
 11
389.5675
 21
179.210263
 31
0.0
  0
LINE
  5
C1E1
330
BF60
100
AcDbEntity
  8
2
  6
Continuous
100
AcDbLine
 10
398.7555
 20
177.8038379999999
 30
0.0
 11
397.9434999999999
 21
179.210263
 31
0.0
  0
ARC
  5
C1E2
330
BF60
100
AcDbEntity
  8
1
  6
Continuous
100
AcDbCircle
 10
430.53325
 20
179.304356
 30
0.0
 40
3.751891999999998
100
AcDbArc
 50
206.0909469999999
 51
265.973191
  0
ARC
  5
C1E3
330
BF60
100
AcDbEntity
  8
1
  6
Continuous
100
AcDbCircle
 10
441.118353
 20
178.871678
 30
0.0
 40
4.063601999999998
100
AcDbArc
 50
265.973191
 51
352.345215
  0
LINE
  5
C1E4
330
BF60
100
AcDbEntity
  8
1
  6
Continuous
100
AcDbLine
 10
388.7554999999999
 20
188.910298
 30
0.0
 11
388.7554999999999
 21
176.210263
 31
0.0
  0
LINE
  5
C1E5
330
BF60
100
AcDbEntity
  8
1
  6
Continuous
100
AcDbLine
 10
398.7555
 20
188.910298
 30
0.0
 11
398.7555
 21
176.210263
 31
0.0
  0
ARC
  5
C1E6
330
BF60
100
AcDbEntity
  8
1
  6
Continuous
100
AcDbCircle
 10
440.255519
 20
182.7102629999999
 30
0.0
 40
25.0
100
AcDbArc
 50
153.0920419999999
 51
69.80044000000001
  0
ARC
  5
C1E7
330
BF60
100
AcDbEntity
  8
1
  6
Continuous
100
AcDbCircle
 10
440.255519
 20
182.7102629999999
 30
0.0
 40
8.5
100
AcDbArc
 50
243.108272
 51
42.63791499999999
  0
LINE
  5
C1E8
330
BF60
100
AcDbEntity
  8
4
  6
CENTER
100
AcDbLine
 10
440.255519
 20
154.7102629999999
 30
0.0
 11
440.255519
 21
210.7102629999999
 31
0.0
  0
ARC
  5
C1E9
330
BF60
100
AcDbEntity
  8
1
  6
Continuous
100
AcDbCircle
 10
440.255519
 20
182.7102629999999
 30
0.0
 40
17.5
100
AcDbArc
 50
170.3329479999999
 51
64.268551
  0
LINE
  5
C1EA
330
BF60
100
AcDbEntity
  8
4
  6
CENTER
100
AcDbLine
 10
393.7555
 20
146.005844
 30
0.0
 11
393.7555
 21
225.1405899999999
 31
0.0
  0
LINE
  5
C1EB
330
BF60
100
AcDbEntity
  8
1
  6
Continuous
100
AcDbLine
 10
374.9055
 20
164.210263
 30
0.0
 11
412.6055
 21
164.210263
 31
0.0
  0
LINE
  5
C1EC
330
BF60
100
AcDbEntity
  8
1
  6
Continuous
100
AcDbLine
 10
377.9055
 20
170.2102629999999
 30
0.0
 11
409.6054999999998
 21
170.2102629999999
 31
0.0
  0
LINE
  5
C1ED
330
BF60
100
AcDbEntity
  8
1
  6
Continuous
100
AcDbLine
 10
376.5054999999999
 20
157.7102629999999
 30
0.0
 11
411.0055
 21
157.7102629999999
 31
0.0
  0
LINE
  5
C1EE
330
BF60
100
AcDbEntity
  8
1
  6
Continuous
100
AcDbLine
 10
440.8329929999998
 20
174.818107
 30
0.0
 11
430.2697799999998
 21
175.561726
 31
0.0
  0
ARC
  5
C1EF
330
BF60
100
AcDbEntity
  8
1
  6
Continuous
100
AcDbCircle
 10
409.6054999999998
 20
167.2102629999999
 30
0.0
 40
3.0
100
AcDbArc
 50
0.0
 51
90.0
  0
LINE
  5
C1F0
330
BF60
100
AcDbEntity
  8
1
  6
Continuous
100
AcDbLine
 10
411.0055
 20
164.210263
 30
0.0
 11
411.0055
 21
157.7102629999999
 31
0.0
  0
LINE
  5
C1F1
330
BF60
100
AcDbEntity
  8
1
  6
Continuous
100
AcDbLine
 10
412.6055
 20
164.210263
 30
0.0
 11
412.6055
 21
167.2102629999999
 31
0.0
  0
ARC
  5
C1F2
330
BF60
100
AcDbEntity
  8
1
  6
Continuous
100
AcDbCircle
 10
377.9055
 20
167.2102629999999
 30
0.0
 40
3.0
100
AcDbArc
 50
90.0
 51
180.0
  0
LINE
  5
C1F3
330
BF60
100
AcDbEntity
  8
1
  6
Continuous
100
AcDbLine
 10
383.7555
 20
176.210263
 30
0.0
 11
403.7555
 21
176.210263
 31
0.0
  0
ARC
  5
C1F4
330
BF60
100
AcDbEntity
  8
1
  6
Continuous
100
AcDbCircle
 10
393.7555
 20
181.8352629999999
 30
0.0
 40
10.625
100
AcDbArc
 50
244.942385
 51
295.057615
  0
LINE
  5
C1F5
330
BF60
100
AcDbEntity
  8
1
  6
Continuous
100
AcDbLine
 10
386.5054999999999
 20
171.2102629999999
 30
0.0
 11
401.0054999999998
 21
171.2102629999999
 31
0.0
  0
LINE
  5
C1F6
330
BF60
100
AcDbEntity
  8
1
  6
Continuous
100
AcDbLine
 10
383.2554999999999
 20
170.710263
 30
0.0
 11
404.2555
 21
170.710263
 31
0.0
  0
LINE
  5
C1F7
330
BF60
100
AcDbEntity
  8
1
  6
Continuous
100
AcDbLine
 10
403.7555
 20
176.210263
 30
0.0
 11
403.7555
 21
172.210263
 31
0.0
  0
LINE
  5
C1F8
330
BF60
100
AcDbEntity
  8
1
  6
Continuous
100
AcDbLine
 10
398.2554999999999
 20
176.210263
 30
0.0
 11
398.2554999999999
 21
172.210263
 31
0.0
  0
ARC
  5
C1F9
330
BF60
100
AcDbEntity
  8
1
  6
Continuous
100
AcDbCircle
 10
401.0054999999998
 20
175.491513
 30
0.0
 40
4.28125
100
AcDbArc
 50
230.0337869999999
 51
309.966213
  0
LINE
  5
C1FA
330
BF60
100
AcDbEntity
  8
1
  6
Continuous
100
AcDbLine
 10
397.2554999999999
 20
170.724955
 30
0.0
 11
397.2554999999999
 21
171.2102629999999
 31
0.0
  0
LINE
  5
C1FB
330
BF60
100
AcDbEntity
  8
1
  6
Continuous
100
AcDbLine
 10
404.2555
 20
170.710263
 30
0.0
 11
404.2555
 21
170.2102629999999
 31
0.0
  0
LINE
  5
C1FC
330
BF60
100
AcDbEntity
  8
1
  6
Continuous
100
AcDbLine
 10
383.7555
 20
176.210263
 30
0.0
 11
383.7555
 21
172.210263
 31
0.0
  0
LINE
  5
C1FD
330
BF60
100
AcDbEntity
  8
1
  6
Continuous
100
AcDbLine
 10
389.2554999999999
 20
176.210263
 30
0.0
 11
389.2554999999999
 21
172.210263
 31
0.0
  0
ARC
  5
C1FE
330
BF60
100
AcDbEntity
  8
1
  6
Continuous
100
AcDbCircle
 10
386.5054999999999
 20
175.491513
 30
0.0
 40
4.28125
100
AcDbArc
 50
230.0337869999999
 51
309.966213
  0
LINE
  5
C1FF
330
BF60
100
AcDbEntity
  8
1
  6
Continuous
100
AcDbLine
 10
390.2554999999999
 20
171.2102629999999
 30
0.0
 11
390.2554999999999
 21
170.724955
 31
0.0
  0
LINE
  5
C200
330
BF60
100
AcDbEntity
  8
1
  6
Continuous
100
AcDbLine
 10
383.2554999999999
 20
170.710263
 30
0.0
 11
383.2554999999999
 21
170.2102629999999
 31
0.0
  0
LINE
  5
C201
330
BF60
100
AcDbEntity
  8
1
  6
Continuous
100
AcDbLine
 10
376.5054999999999
 20
164.210263
 30
0.0
 11
376.5054999999999
 21
157.7102629999999
 31
0.0
  0
LINE
  5
C202
330
BF60
100
AcDbEntity
  8
1
  6
Continuous
100
AcDbLine
 10
374.9055
 20
167.2102629999999
 30
0.0
 11
374.9055
 21
164.210263
 31
0.0
  0
LINE
  5
C203
330
BF60
100
AcDbEntity
  8
1
  6
Continuous
100
AcDbLine
 10
405.6120329999997
 20
215.075322
 30
0.0
 11
436.4059899999999
 21
215.075275
 31
0.0
  0
ARC
  5
C204
330
BF60
100
AcDbEntity
  8
1
  6
Continuous
100
AcDbCircle
 10
403.675546
 20
181.3483939999999
 30
0.0
 40
21.51445999999999
100
AcDbArc
 50
75.98355999999998
 51
83.84173500000001
  0
LINE
  5
C205
330
BF60
100
AcDbEntity
  8
1
  6
Continuous
100
AcDbLine
 10
405.189641
 20
218.0743819999999
 30
0.0
 11
437.2611479999997
 21
218.0743819999999
 31
0.0
  0
LINE
  5
C206
330
BF60
100
AcDbEntity
  8
1
  6
Continuous
100
AcDbLine
 10
404.2373719999998
 20
219.210298
 30
0.0
 11
438.2735839999998
 21
219.210298
 31
0.0
  0
LINE
  5
C207
330
BF60
100
AcDbEntity
  8
1
  6
Continuous
100
AcDbLine
 10
386.8226819999999
 20
219.910298
 30
0.0
 11
455.688342
 21
219.910298
 31
0.0
  0
LINE
  5
C208
330
BF60
100
AcDbEntity
  8
1
  6
Continuous
100
AcDbLine
 10
382.255519
 20
220.710298
 30
0.0
 11
460.255519
 21
220.710298
 31
0.0
  0
LINE
  5
C209
330
BF60
100
AcDbEntity
  8
1
  6
Continuous
100
AcDbLine
 10
382.255519
 20
222.710298
 30
0.0
 11
460.255519
 21
222.710298
 31
0.0
  0
LINE
  5
C20A
330
BF60
100
AcDbEntity
  8
1
  6
Continuous
100
AcDbLine
 10
405.933498
 20
219.034686
 30
0.0
 11
436.721391
 21
219.034686
 31
0.0
  0
LINE
  5
C20B
330
BF60
100
AcDbEntity
  8
1
  6
Continuous
100
AcDbLine
 10
405.005242
 20
215.0912959999998
 30
0.0
 11
437.505242
 21
215.0912959999998
 31
0.0
  0
LINE
  5
C20C
330
BF60
100
AcDbEntity
  8
1
  6
Continuous
100
AcDbLine
 10
437.505242
 20
217.1183479999999
 30
0.0
 11
405.005242
 21
217.1183479999999
 31
0.0
  0
LINE
  5
C20D
330
BF60
100
AcDbEntity
  8
1
  6
Continuous
100
AcDbLine
 10
409.160164
 20
215.0912959999998
 30
0.0
 11
407.1331119999999
 21
217.1183479999999
 31
0.0
  0
LINE
  5
C20E
330
BF60
100
AcDbEntity
  8
1
  6
Continuous
100
AcDbLine
 10
407.8944769999997
 20
215.0912959999998
 30
0.0
 11
409.92153
 21
217.1183479999999
 31
0.0
  0
LINE
  5
C20F
330
BF60
100
AcDbEntity
  8
4
  6
CENTER
100
AcDbLine
 10
421.2555189999998
 20
200.065842
 30
0.0
 11
421.2555189999998
 21
225.1361249999999
 31
0.0
  0
LINE
  5
C210
330
BF60
100
AcDbEntity
  8
4
  6
CENTER
100
AcDbLine
 10
453.255519
 20
224.887404
 30
0.0
 11
453.255519
 21
217.514668
 31
0.0
  0
ARC
  5
C211
330
BF60
100
AcDbEntity
  8
1
  6
Continuous
100
AcDbCircle
 10
455.688342
 20
221.845325
 30
0.0
 40
1.935027
100
AcDbArc
 50
270.0
 51
324.086081
  0
ARC
  5
C212
330
BF60
100
AcDbEntity
  8
1
  6
Continuous
100
AcDbCircle
 10
437.360957
 20
164.1543809999998
 30
0.0
 40
47.941747
100
AcDbArc
 50
78.26074300000001
 51
86.47680300000002
  0
ARC
  5
C213
330
BF60
100
AcDbEntity
  8
1
  6
Continuous
100
AcDbCircle
 10
438.2735839999998
 20
223.9602979999999
 30
0.0
 40
4.75
100
AcDbArc
 50
270.0
 51
301.500941
  0
LINE
  5
C214
330
BF60
100
AcDbEntity
  8
4
  6
CENTER
100
AcDbLine
 10
412.2555189999998
 20
182.7102629999999
 30
0.0
 11
468.255519
 21
182.7102629999999
 31
0.0
  0
LINE
  5
C215
330
BF60
100
AcDbEntity
  8
1
  6
Continuous
100
AcDbLine
 10
449.403927
 20
210.012882
 30
0.0
 11
445.1457429999998
 21
178.330389
 31
0.0
  0
ARC
  5
C216
330
BF60
100
AcDbEntity
  8
1
  6
Continuous
100
AcDbCircle
 10
441.9199569999998
 20
186.093254
 30
0.0
 40
25.53418999999999
100
AcDbArc
 50
63.614344
 51
78.26074300000001
  0
ARC
  5
C217
330
BF60
100
AcDbEntity
  8
1
  6
Continuous
100
AcDbCircle
 10
451.4517480000002
 20
206.5352569999999
 30
0.0
 40
3.035225999999998
100
AcDbArc
 50
37.30503200000001
 51
53.25395999999999
  0
ARC
  5
C218
330
BF60
100
AcDbEntity
  8
1
  6
Continuous
100
AcDbCircle
 10
458.3476109999998
 20
221.267236
 30
0.0
 40
15.28686099999998
100
AcDbArc
 50
244.4377759999999
 51
249.886151
  0
ARC
  5
C219
330
BF60
100
AcDbEntity
  8
1
  6
Continuous
100
AcDbCircle
 10
452.825083
 20
207.4596099999999
 30
0.0
 40
0.6079810000000001
100
AcDbArc
 50
295.901379
 51
338.816
  0
ARC
  5
C21A
330
BF60
100
AcDbEntity
  8
1
  6
Continuous
100
AcDbCircle
 10
442.7594809999998
 20
188.677174
 30
0.0
 40
20.83933299999999
100
AcDbArc
 50
64.437776
 51
71.99739100000002
  0
ARC
  5
C21B
330
BF60
100
AcDbEntity
  8
1
  6
Continuous
100
AcDbCircle
 10
475.4908409999998
 20
198.675423
 30
0.0
 40
23.70042399999999
100
AcDbArc
 50
155.842376
 51
158.816
  0
ARC
  5
C21C
330
BF60
100
AcDbEntity
  8
1
  6
Continuous
100
AcDbCircle
 10
365.452541
 20
148.05839
 30
0.0
 40
69.78622699999999
100
AcDbArc
 50
40.62630600000001
 51
49.92724700000001
  0
LINE
  5
C21D
330
BF60
100
AcDbEntity
  8
1
  6
Continuous
100
AcDbLine
 10
433.627928
 20
179.270101
 30
0.0
 11
433.627928
 21
206.524058
 31
0.0
  0
ARC
  5
C21E
330
BF60
100
AcDbEntity
  8
1
  6
Continuous
100
AcDbCircle
 10
261.2201119999999
 20
96.391874
 30
0.0
 40
184.7724259999999
100
AcDbArc
 50
26.09094699999999
 51
31.704827
  0
LINE
  5
C21F
330
BF60
100
AcDbEntity
  8
1
  6
Continuous
100
AcDbLine
 10
423.4508259999998
 20
215.0912959999998
 30
0.0
 11
425.4778789999998
 21
217.1183479999999
 31
0.0
  0
LINE
  5
C220
330
BF60
100
AcDbEntity
  8
1
  6
Continuous
100
AcDbLine
 10
426.1307269999998
 20
215.0912959999998
 30
0.0
 11
424.103675
 21
217.1183479999999
 31
0.0
  0
ARC
  5
C221
330
BF60
100
AcDbEntity
  8
1
  6
Continuous
100
AcDbCircle
 10
436.307379
 20
211.1999049999997
 30
0.0
 40
3.903893
100
AcDbArc
 50
41.642269
 51
57.76027299999999
  0
ARC
  5
C222
330
BF60
100
AcDbEntity
  8
1
  6
Continuous
100
AcDbCircle
 10
436.4059899999999
 20
211.356256
 30
0.0
 40
3.719041999999998
100
AcDbArc
 50
57.76027299999999
 51
89.99995600000003
  0
ARC
  5
C223
330
BF60
100
AcDbEntity
  8
1
  6
Continuous
100
AcDbCircle
 10
435.191508
 20
210.2077149999999
 30
0.0
 40
5.397081
100
AcDbArc
 50
26.2047
 51
41.642269
  0
ARC
  5
C224
330
BF60
100
AcDbEntity
  8
1
  6
Continuous
100
AcDbCircle
 10
442.8128509999998
 20
212.569241
 30
0.0
 40
2.779046999999998
100
AcDbArc
 50
179.5523279999999
 51
189.4887569999999
  0
ARC
  5
C225
330
BF60
100
AcDbEntity
  8
1
  6
Continuous
100
AcDbCircle
 10
440.3295769999998
 20
212.370523
 30
0.0
 40
0.365696
100
AcDbArc
 50
225.1848589999999
 51
266.4768029999997
  0
LINE
  5
C226
330
BF60
100
AcDbEntity
  8
1
  6
Continuous
100
AcDbLine
 10
440.0718259999998
 20
212.111104
 30
0.0
 11
431.2783379999998
 21
212.111104
 31
0.0
  0
ARC
  5
C227
330
BF60
100
AcDbEntity
  8
1
  6
Continuous
100
AcDbCircle
 10
431.2783379999998
 20
214.7626409999999
 30
0.0
 40
2.651536999999998
100
AcDbArc
 50
189.546018
 51
270.0
  0
ARC
  5
C228
330
BF60
100
AcDbEntity
  8
1
  6
Continuous
100
AcDbCircle
 10
436.3857699999998
 20
217.716718
 30
0.0
 40
1.360029999999999
100
AcDbArc
 50
53.71139300000001
 51
75.71328100000002
  0
LINE
  5
C229
330
BF60
100
AcDbEntity
  8
1
  6
Continuous
100
AcDbLine
 10
437.094419
 20
217.557349
 30
0.0
 11
437.3522059999998
 21
218.3567559999999
 31
0.0
  0
ARC
  5
C22A
330
BF60
100
AcDbEntity
  8
1
  6
Continuous
100
AcDbCircle
 10
437.8609329999998
 20
216.6182399999999
 30
0.0
 40
1.212217
100
AcDbArc
 50
129.221821
 51
155.5866799999997
  0
ARC
  5
C22B
330
BF60
100
AcDbEntity
  8
1
  6
Continuous
100
AcDbCircle
 10
436.972754
 20
218.4791189999998
 30
0.0
 40
0.398694
100
AcDbArc
 50
342.126869
 51
56.86115199999999
  0
LINE
  5
C22C
330
BF60
100
AcDbEntity
  8
1
  6
Continuous
100
AcDbLine
 10
431.7875809999998
 20
215.0912959999998
 30
0.0
 11
429.7605289999999
 21
217.1183479999999
 31
0.0
  0
LINE
  5
C22D
330
BF60
100
AcDbEntity
  8
1
  6
Continuous
100
AcDbLine
 10
430.5218939999998
 20
215.0912959999998
 30
0.0
 11
432.548946
 21
217.1183479999999
 31
0.0
  0
LINE
  5
C22E
330
BF60
100
AcDbEntity
  8
1
  6
Continuous
100
AcDbLine
 10
429.1076799999998
 20
215.0912959999998
 30
0.0
 11
431.134733
 21
217.1183479999999
 31
0.0
  0
LINE
  5
C22F
330
BF60
100
AcDbEntity
  8
1
  6
Continuous
100
AcDbLine
 10
434.616008
 20
215.0912959999998
 30
0.0
 11
432.5889559999998
 21
217.1183479999999
 31
0.0
  0
LINE
  5
C230
330
BF60
100
AcDbEntity
  8
1
  6
Continuous
100
AcDbLine
 10
437.4444349999998
 20
215.0912959999998
 30
0.0
 11
435.4173829999998
 21
217.1183479999999
 31
0.0
  0
LINE
  5
C231
330
BF60
100
AcDbEntity
  8
1
  6
Continuous
100
AcDbLine
 10
434.7645349999998
 20
215.0912959999998
 30
0.0
 11
436.791586
 21
217.1183479999999
 31
0.0
  0
LINE
  5
C232
330
BF60
100
AcDbEntity
  8
1
  6
Continuous
100
AcDbLine
 10
433.3503209999998
 20
215.0912959999998
 30
0.0
 11
435.377374
 21
217.1183479999999
 31
0.0
  0
LINE
  5
C233
330
BF60
100
AcDbEntity
  8
1
  6
Continuous
100
AcDbLine
 10
431.936107
 20
215.0912959999998
 30
0.0
 11
433.9631599999997
 21
217.1183479999999
 31
0.0
  0
LINE
  5
C234
330
BF60
100
AcDbEntity
  8
1
  6
Continuous
100
AcDbLine
 10
437.505242
 20
217.1183479999999
 30
0.0
 11
437.505242
 21
215.0912959999998
 31
0.0
  0
LINE
  5
C235
330
BF60
100
AcDbEntity
  8
1
  6
Continuous
100
AcDbLine
 10
436.178748
 20
215.0912959999998
 30
0.0
 11
437.505242
 21
216.4177899999998
 31
0.0
  0
LINE
  5
C236
330
BF60
100
AcDbEntity
  8
1
  6
Continuous
100
AcDbLine
 10
424.86504
 20
215.0912959999998
 30
0.0
 11
426.892092
 21
217.1183479999999
 31
0.0
  0
LINE
  5
C237
330
BF60
100
AcDbEntity
  8
1
  6
Continuous
100
AcDbLine
 10
428.9591539999998
 20
215.0912959999998
 30
0.0
 11
426.9321009999998
 21
217.1183479999999
 31
0.0
  0
LINE
  5
C238
330
BF60
100
AcDbEntity
  8
1
  6
Continuous
100
AcDbLine
 10
427.693467
 20
215.0912959999998
 30
0.0
 11
429.720519
 21
217.1183479999999
 31
0.0
  0
LINE
  5
C239
330
BF60
100
AcDbEntity
  8
1
  6
Continuous
100
AcDbLine
 10
426.2792529999998
 20
215.0912959999998
 30
0.0
 11
428.3063049999998
 21
217.1183479999999
 31
0.0
  0
LINE
  5
C23A
330
BF60
100
AcDbEntity
  8
1
  6
Continuous
100
AcDbLine
 10
413.551331
 20
215.0912959999998
 30
0.0
 11
415.5783829999998
 21
217.1183479999999
 31
0.0
  0
LINE
  5
C23B
330
BF60
100
AcDbEntity
  8
1
  6
Continuous
100
AcDbLine
 10
417.793972
 20
215.0912959999998
 30
0.0
 11
419.8210239999998
 21
217.1183479999999
 31
0.0
  0
LINE
  5
C23C
330
BF60
100
AcDbEntity
  8
1
  6
Continuous
100
AcDbLine
 10
416.3797579999998
 20
215.0912959999998
 30
0.0
 11
418.406811
 21
217.1183479999999
 31
0.0
  0
LINE
  5
C23D
330
BF60
100
AcDbEntity
  8
1
  6
Continuous
100
AcDbLine
 10
420.4738719999999
 20
215.0912959999998
 30
0.0
 11
418.44682
 21
217.1183479999999
 31
0.0
  0
LINE
  5
C23E
330
BF60
100
AcDbEntity
  8
1
  6
Continuous
100
AcDbLine
 10
417.6454449999998
 20
215.0912959999998
 30
0.0
 11
415.618393
 21
217.1183479999999
 31
0.0
  0
LINE
  5
C23F
330
BF60
100
AcDbEntity
  8
1
  6
Continuous
100
AcDbLine
 10
414.965545
 20
215.0912959999998
 30
0.0
 11
416.9925969999998
 21
217.1183479999999
 31
0.0
  0
LINE
  5
C240
330
BF60
100
AcDbEntity
  8
1
  6
Continuous
100
AcDbLine
 10
419.208185
 20
215.0912959999998
 30
0.0
 11
421.2352369999998
 21
217.1183479999999
 31
0.0
  0
LINE
  5
C241
330
BF60
100
AcDbEntity
  8
1
  6
Continuous
100
AcDbLine
 10
411.9885909999998
 20
215.0912959999998
 30
0.0
 11
409.961539
 21
217.1183479999999
 31
0.0
  0
LINE
  5
C242
330
BF60
100
AcDbEntity
  8
1
  6
Continuous
100
AcDbLine
 10
412.1371179999998
 20
215.0912959999998
 30
0.0
 11
414.16417
 21
217.1183479999999
 31
0.0
  0
LINE
  5
C243
330
BF60
100
AcDbEntity
  8
1
  6
Continuous
100
AcDbLine
 10
414.817018
 20
215.0912959999998
 30
0.0
 11
412.7899649999998
 21
217.1183479999999
 31
0.0
  0
LINE
  5
C244
330
BF60
100
AcDbEntity
  8
1
  6
Continuous
100
AcDbLine
 10
410.7229039999998
 20
215.0912959999998
 30
0.0
 11
412.749956
 21
217.1183479999999
 31
0.0
  0
LINE
  5
C245
330
BF60
100
AcDbEntity
  8
1
  6
Continuous
100
AcDbLine
 10
409.30869
 20
215.0912959999998
 30
0.0
 11
411.3357419999998
 21
217.1183479999999
 31
0.0
  0
LINE
  5
C246
330
BF60
100
AcDbEntity
  8
1
  6
Continuous
100
AcDbLine
 10
423.3023
 20
215.0912959999998
 30
0.0
 11
421.2752469999998
 21
217.1183479999999
 31
0.0
  0
LINE
  5
C247
330
BF60
100
AcDbEntity
  8
1
  6
Continuous
100
AcDbLine
 10
422.0366119999998
 20
215.0912959999998
 30
0.0
 11
424.0636649999998
 21
217.1183479999999
 31
0.0
  0
LINE
  5
C248
330
BF60
100
AcDbEntity
  8
1
  6
Continuous
100
AcDbLine
 10
420.6223989999998
 20
215.0912959999998
 30
0.0
 11
422.649451
 21
217.1183479999999
 31
0.0
  0
ARC
  5
C249
330
BF60
100
AcDbEntity
  8
1
  6
Continuous
100
AcDbCircle
 10
407.9866039999997
 20
198.6179939999999
 30
0.0
 40
3.714901999999998
100
AcDbArc
 50
49.92724700000001
 51
75.98355999999998
  0
LINE
  5
C24A
330
BF60
100
AcDbEntity
  8
1
  6
Continuous
100
AcDbLine
 10
460.255519
 20
222.710298
 30
0.0
 11
460.255519
 21
220.710298
 31
0.0
  0
ARC
  5
C24B
330
BF60
100
AcDbEntity
  8
1
  6
Continuous
100
AcDbCircle
 10
386.8226819999999
 20
221.8452979999999
 30
0.0
 40
1.935
100
AcDbArc
 50
215.9135069999999
 51
270.0
  0
LINE
  5
C24C
330
BF60
100
AcDbEntity
  8
4
  6
CENTER
100
AcDbLine
 10
389.2555189999998
 20
218.250827
 30
0.0
 11
389.2555189999998
 21
225.364622
 31
0.0
  0
LINE
  5
C24D
330
BF60
100
AcDbEntity
  8
1
  6
Continuous
100
AcDbLine
 10
386.7554999999999
 20
202.894092
 30
0.0
 11
386.7554999999999
 21
189.410298
 31
0.0
  0
LINE
  5
C24E
330
BF60
100
AcDbEntity
  8
1
  6
Continuous
100
AcDbLine
 10
400.7554999999999
 20
202.894092
 30
0.0
 11
400.7554999999999
 21
189.410298
 31
0.0
  0
LINE
  5
C24F
330
BF60
100
AcDbEntity
  8
1
  6
Continuous
100
AcDbLine
 10
393.7555
 20
202.894092
 30
0.0
 11
393.7555
 21
190.410298
 31
0.0
  0
LINE
  5
C250
330
BF60
100
AcDbEntity
  8
1
  6
Continuous
100
AcDbLine
 10
387.2554999999999
 20
188.910298
 30
0.0
 11
400.2555
 21
188.910298
 31
0.0
  0
ARC
  5
C251
330
BF60
100
AcDbEntity
  8
1
  6
Continuous
100
AcDbCircle
 10
390.2554999999999
 20
193.743631
 30
0.0
 40
4.833332999999997
100
AcDbArc
 50
223.6028189999999
 51
316.397181
  0
LINE
  5
C252
330
BF60
100
AcDbEntity
  8
1
  6
Continuous
100
AcDbLine
 10
388.7554999999999
 20
179.210263
 30
0.0
 11
398.7555
 21
179.210263
 31
0.0
  0
ARC
  5
C253
330
BF60
100
AcDbEntity
  8
1
  6
Continuous
100
AcDbCircle
 10
400.2555
 20
189.410298
 30
0.0
 40
0.5
100
AcDbArc
 50
270.0
 51
0.0
  0
ARC
  5
C254
330
BF60
100
AcDbEntity
  8
1
  6
Continuous
100
AcDbCircle
 10
397.2554999999999
 20
193.743631
 30
0.0
 40
4.833332999999997
100
AcDbArc
 50
223.6028189999999
 51
316.397181
  0
LINE
  5
C255
330
BF60
100
AcDbEntity
  8
2
  6
Continuous
100
AcDbLine
 10
397.9434999999999
 20
179.210263
 30
0.0
 11
397.9434999999999
 21
188.910298
 31
0.0
  0
ARC
  5
C256
330
BF60
100
AcDbEntity
  8
1
  6
Continuous
100
AcDbCircle
 10
387.2554999999999
 20
189.410298
 30
0.0
 40
0.5
100
AcDbArc
 50
180.0
 51
270.0
  0
LINE
  5
C257
330
BF60
100
AcDbEntity
  8
2
  6
Continuous
100
AcDbLine
 10
389.5675
 20
179.210263
 30
0.0
 11
389.5675
 21
188.910298
 31
0.0
  0
ARC
  5
C258
330
BF60
100
AcDbEntity
  8
1
  6
Continuous
100
AcDbCircle
 10
397.513123
 20
686.1225789999997
 30
0.0
 40
471.1497549999998
100
AcDbArc
 50
269.3691529999999
 51
270.0472619999998
  0
LINE
  5
C259
330
BF60
100
AcDbEntity
  8
1
  6
Continuous
100
AcDbLine
 10
393.944161
 20
202.8940579999999
 30
0.0
 11
382.7247729999998
 21
202.8940579999999
 31
0.0
  0
ARC
  5
C25A
330
BF60
100
AcDbEntity
  8
1
  6
Continuous
100
AcDbCircle
 10
397.834383
 20
296.6542029999999
 30
0.0
 40
81.681246
100
AcDbArc
 50
270.0472619999998
 51
272.401985
  0
ARC
  5
C25B
330
BF60
100
AcDbEntity
  8
1
  6
Continuous
100
AcDbCircle
 10
403.881123
 20
152.502723
 30
0.0
 40
62.597
100
AcDbArc
 50
88.33033499999997
 51
92.40198499999999
  0
ARC
  5
C25C
330
BF60
100
AcDbEntity
  8
1
  6
Continuous
100
AcDbCircle
 10
404.2373719999998
 20
223.9600089999999
 30
0.0
 40
4.749710999999998
100
AcDbArc
 50
238.4980759999999
 51
270.0
  0
LINE
  5
C25D
330
BF60
100
AcDbEntity
  8
1
  6
Continuous
100
AcDbLine
 10
405.240831
 20
218.0436959999999
 30
0.0
 11
405.189641
 21
218.0743819999999
 31
0.0
  0
ARC
  5
C25E
330
BF60
100
AcDbEntity
  8
1
  6
Continuous
100
AcDbCircle
 10
407.49924
 20
218.6523799999999
 30
0.0
 40
2.338996999999999
100
AcDbArc
 50
195.0838819999999
 51
220.9841589999999
  0
ARC
  5
C25F
330
BF60
100
AcDbEntity
  8
1
  6
Continuous
100
AcDbCircle
 10
405.933498
 20
218.2664359999999
 30
0.0
 40
0.76825
100
AcDbArc
 50
90.0
 51
194.4768179999998
  0
LINE
  5
C260
330
BF60
100
AcDbEntity
  8
1
  6
Continuous
100
AcDbLine
 10
393.7555
 20
219.910298
 30
0.0
 11
393.7555
 21
218.0879099999999
 31
0.0
  0
LINE
  5
C261
330
BF60
100
AcDbEntity
  8
1
  6
Continuous
100
AcDbLine
 10
394.7554999999999
 20
216.0878779999999
 30
0.0
 11
394.7554999999999
 21
217.08791
 31
0.0
  0
LINE
  5
C262
330
BF60
100
AcDbEntity
  8
1
  6
Continuous
100
AcDbLine
 10
392.7554999999999
 20
216.0878779999999
 30
0.0
 11
392.7554999999999
 21
217.08791
 31
0.0
  0
ARC
  5
C263
330
BF60
100
AcDbEntity
  8
1
  6
Continuous
100
AcDbCircle
 10
393.7555
 20
217.08791
 30
0.0
 40
1.0
100
AcDbArc
 50
0.0
 51
180.0
  0
ARC
  5
C264
330
BF60
100
AcDbEntity
  8
1
  6
Continuous
100
AcDbCircle
 10
393.7555
 20
216.0878779999999
 30
0.0
 40
1.0
100
AcDbArc
 50
180.0
 51
0.0
  0
LINE
  5
C265
330
BF60
100
AcDbEntity
  8
1
  6
Continuous
100
AcDbLine
 10
400.7554999999999
 20
215.025207
 30
0.0
 11
400.7554999999999
 21
219.910298
 31
0.0
  0
LINE
  5
C266
330
BF60
100
AcDbEntity
  8
1
  6
Continuous
100
AcDbLine
 10
405.005242
 20
217.1183479999999
 30
0.0
 11
405.005242
 21
215.091271
 31
0.0
  0
LINE
  5
C267
330
BF60
100
AcDbEntity
  8
1
  6
Continuous
100
AcDbLine
 10
405.005242
 20
216.444702
 30
0.0
 11
405.678888
 21
217.1183479999999
 31
0.0
  0
LINE
  5
C268
330
BF60
100
AcDbEntity
  8
1
  6
Continuous
100
AcDbLine
 10
405.005242
 20
216.4177899999998
 30
0.0
 11
406.331737
 21
215.0912959999998
 31
0.0
  0
LINE
  5
C269
330
BF60
100
AcDbEntity
  8
1
  6
Continuous
100
AcDbLine
 10
406.4802629999999
 20
215.0912959999998
 30
0.0
 11
408.507316
 21
217.1183479999999
 31
0.0
  0
LINE
  5
C26A
330
BF60
100
AcDbEntity
  8
1
  6
Continuous
100
AcDbLine
 10
405.06605
 20
215.0912959999998
 30
0.0
 11
407.0931019999998
 21
217.1183479999999
 31
0.0
  0
ARC
  5
C26B
330
BF60
100
AcDbEntity
  8
1
  6
Continuous
100
AcDbCircle
 10
397.397784
 20
123.84341
 30
0.0
 40
79.35321
100
AcDbArc
 50
83.84173500000001
 51
91.07499500000001
  0
LINE
  5
C26C
330
BF60
100
AcDbEntity
  8
1
  6
Continuous
100
AcDbLine
 10
393.944161
 20
202.8940579999999
 30
0.0
 11
395.909031
 21
203.1826539999999
 31
0.0
  0
ARC
  5
C26D
330
BF60
100
AcDbEntity
  8
1
  6
Continuous
100
AcDbCircle
 10
390.8601049999999
 20
81.89576700000001
 30
0.0
 40
133.113684
100
AcDbArc
 50
89.36915299999999
 51
92.00399799999999
  0
ARC
  5
C26E
330
BF60
100
AcDbEntity
  8
1
  6
Continuous
100
AcDbCircle
 10
386.0795069999999
 20
211.3957259999998
 30
0.0
 40
3.485376999999997
100
AcDbArc
 50
98.6472
 51
156.646057
  0
ARC
  5
C26F
330
BF60
100
AcDbEntity
  8
1
  6
Continuous
100
AcDbCircle
 10
388.7665589999999
 20
210.235499
 30
0.0
 40
6.412213999999998
100
AcDbArc
 50
156.646057
 51
180.3684879999999
  0
ARC
  5
C270
330
BF60
100
AcDbEntity
  8
1
  6
Continuous
100
AcDbCircle
 10
336.462827
 20
209.8991119999999
 30
0.0
 40
45.8926
100
AcDbArc
 50
358.840366
 51
0.3684880000000001
  0
ARC
  5
C271
330
BF60
100
AcDbEntity
  8
1
  6
Continuous
100
AcDbCircle
 10
387.2063529999999
 20
203.5054249999999
 30
0.0
 40
11.4664
100
AcDbArc
 50
95.00886599999999
 51
98.6472
  0
LINE
  5
C272
330
BF60
100
AcDbEntity
  8
1
  6
Continuous
100
AcDbLine
 10
386.7554999999999
 20
214.9461529999999
 30
0.0
 11
386.7554999999999
 21
219.910298
 31
0.0
  0
ARC
  5
C273
330
BF60
100
AcDbEntity
  8
1
  6
Continuous
100
AcDbCircle
 10
386.1047689999999
 20
204.517147
 30
0.0
 40
3.749505
100
AcDbArc
 50
192.321612
 51
205.6505319999998
  0
ARC
  5
C274
330
BF60
100
AcDbEntity
  8
1
  6
Continuous
100
AcDbCircle
 10
369.669868
 20
203.438648
 30
0.0
 40
12.774798
100
AcDbArc
 50
1.248558
 51
5.486861
  0
ARC
  5
C275
330
BF60
100
AcDbEntity
  8
1
  6
Continuous
100
AcDbCircle
 10
455.2897839999998
 20
207.493794
 30
0.0
 40
72.95869999999998
100
AcDbArc
 50
178.8403659999999
 51
182.225878
  0
LINE
  5
C276
330
BF60
100
AcDbEntity
  8
1
  6
Continuous
100
AcDbLine
 10
382.255519
 20
220.710298
 30
0.0
 11
382.255519
 21
222.710298
 31
0.0
  0
CIRCLE
  5
C277
330
BF60
100
AcDbEntity
  8
1
  6
Continuous
100
AcDbCircle
 10
440.255519
 20
182.7102629999999
 30
0.0
 40
4.25
  0
ARC
  5
C278
330
BF60
100
AcDbEntity
  8
1
  6
Continuous
100
AcDbCircle
 10
57.49972299999999
 20
190.6879139999998
 30
0.0
 40
16.8
100
AcDbArc
 50
41.836226
 51
46.59863099999999
  0
ARC
  5
C279
330
BF60
100
AcDbEntity
  8
1
  6
Continuous
100
AcDbCircle
 10
57.49972299999999
 20
190.6879139999998
 30
0.0
 40
16.8
100
AcDbArc
 50
133.4013689999999
 51
138.163778
  0
LINE
  5
C27A
330
BF60
100
AcDbEntity
  8
1
  6
Continuous
100
AcDbLine
 10
45.956361
 20
202.894093
 30
0.0
 11
46.49972299999999
 21
202.894093
 31
0.0
  0
LINE
  5
C27B
330
BF60
100
AcDbEntity
  8
1
  6
Continuous
100
AcDbLine
 10
68.49972300000001
 20
202.894093
 30
0.0
 11
69.04308499999999
 21
202.894093
 31
0.0
  0
LINE
  5
C27C
330
BF60
100
AcDbEntity
  8
5
  6
PHANTOM
100
AcDbLine
 10
225.101678
 20
154.210263
 30
0.0
 11
187.401678
 21
154.210263
 31
0.0
  0
LINE
  5
C27D
330
BF60
100
AcDbEntity
  8
5
  6
PHANTOM
100
AcDbLine
 10
222.1016779999999
 20
160.210263
 30
0.0
 11
190.401678
 21
160.210263
 31
0.0
  0
LINE
  5
C27E
330
BF60
100
AcDbEntity
  8
5
  6
PHANTOM
100
AcDbLine
 10
223.5016779999999
 20
147.710263
 30
0.0
 11
189.001678
 21
147.710263
 31
0.0
  0
LINE
  5
C27F
330
BF60
100
AcDbEntity
  8
5
  6
PHANTOM
100
AcDbLine
 10
189.001678
 20
154.210263
 30
0.0
 11
189.001678
 21
147.710263
 31
0.0
  0
ARC
  5
C280
330
BF60
100
AcDbEntity
  8
5
  6
PHANTOM
100
AcDbCircle
 10
190.401678
 20
157.210263
 30
0.0
 40
3.0
100
AcDbArc
 50
90.0
 51
180.0
  0
LINE
  5
C281
330
BF60
100
AcDbEntity
  8
5
  6
PHANTOM
100
AcDbLine
 10
187.401678
 20
154.210263
 30
0.0
 11
187.401678
 21
157.210263
 31
0.0
  0
LINE
  5
C282
330
BF60
100
AcDbEntity
  8
5
  6
PHANTOM
100
AcDbLine
 10
223.5016779999999
 20
154.210263
 30
0.0
 11
223.5016779999999
 21
147.710263
 31
0.0
  0
ARC
  5
C283
330
BF60
100
AcDbEntity
  8
5
  6
PHANTOM
100
AcDbCircle
 10
222.1016779999999
 20
157.210263
 30
0.0
 40
3.0
100
AcDbArc
 50
0.0
 51
90.0
  0
LINE
  5
C284
330
BF60
100
AcDbEntity
  8
5
  6
PHANTOM
100
AcDbLine
 10
225.101678
 20
157.210263
 30
0.0
 11
225.101678
 21
154.210263
 31
0.0
  0
LINE
  5
C285
330
BF60
100
AcDbEntity
  8
5
  6
PHANTOM
100
AcDbLine
 10
222.1016779999999
 20
180.210263
 30
0.0
 11
190.401678
 21
180.210263
 31
0.0
  0
ARC
  5
C286
330
BF60
100
AcDbEntity
  8
5
  6
PHANTOM
100
AcDbCircle
 10
190.401678
 20
177.210263
 30
0.0
 40
3.0
100
AcDbArc
 50
90.0
 51
180.0
  0
LINE
  5
C287
330
BF60
100
AcDbEntity
  8
5
  6
PHANTOM
100
AcDbLine
 10
223.5016779999999
 20
167.710263
 30
0.0
 11
189.001678
 21
167.710263
 31
0.0
  0
LINE
  5
C288
330
BF60
100
AcDbEntity
  8
5
  6
PHANTOM
100
AcDbLine
 10
225.101678
 20
174.2102629999999
 30
0.0
 11
187.401678
 21
174.2102629999999
 31
0.0
  0
LINE
  5
C289
330
BF60
100
AcDbEntity
  8
5
  6
PHANTOM
100
AcDbLine
 10
189.001678
 20
174.2102629999999
 30
0.0
 11
189.001678
 21
167.710263
 31
0.0
  0
LINE
  5
C28A
330
BF60
100
AcDbEntity
  8
5
  6
PHANTOM
100
AcDbLine
 10
187.401678
 20
174.2102629999999
 30
0.0
 11
187.401678
 21
177.210263
 31
0.0
  0
LINE
  5
C28B
330
BF60
100
AcDbEntity
  8
5
  6
PHANTOM
100
AcDbLine
 10
223.5016779999999
 20
174.2102629999999
 30
0.0
 11
223.5016779999999
 21
167.710263
 31
0.0
  0
LINE
  5
C28C
330
BF60
100
AcDbEntity
  8
5
  6
PHANTOM
100
AcDbLine
 10
225.101678
 20
177.210263
 30
0.0
 11
225.101678
 21
174.2102629999999
 31
0.0
  0
ARC
  5
C28D
330
BF60
100
AcDbEntity
  8
5
  6
PHANTOM
100
AcDbCircle
 10
222.1016779999999
 20
177.210263
 30
0.0
 40
3.0
100
AcDbArc
 50
0.0
 51
90.0
  0
LINE
  5
C28E
330
BF60
100
AcDbEntity
  8
5
  6
PHANTOM
100
AcDbLine
 10
412.6055
 20
174.2102629999999
 30
0.0
 11
374.9054999999998
 21
174.2102629999999
 31
0.0
  0
LINE
  5
C28F
330
BF60
100
AcDbEntity
  8
5
  6
PHANTOM
100
AcDbLine
 10
409.6054999999998
 20
180.210263
 30
0.0
 11
377.9054999999997
 21
180.210263
 31
0.0
  0
LINE
  5
C290
330
BF60
100
AcDbEntity
  8
5
  6
PHANTOM
100
AcDbLine
 10
374.9054999999998
 20
174.2102629999999
 30
0.0
 11
374.9054999999998
 21
177.210263
 31
0.0
  0
LINE
  5
C291
330
BF60
100
AcDbEntity
  8
5
  6
PHANTOM
100
AcDbLine
 10
376.5054999999999
 20
174.2102629999999
 30
0.0
 11
376.5054999999999
 21
167.710263
 31
0.0
  0
ARC
  5
C292
330
BF60
100
AcDbEntity
  8
5
  6
PHANTOM
100
AcDbCircle
 10
377.9054999999997
 20
177.210263
 30
0.0
 40
3.0
100
AcDbArc
 50
90.0
 51
180.0
  0
LINE
  5
C293
330
BF60
100
AcDbEntity
  8
5
  6
PHANTOM
100
AcDbLine
 10
412.6055
 20
177.210263
 30
0.0
 11
412.6055
 21
174.2102629999999
 31
0.0
  0
LINE
  5
C294
330
BF60
100
AcDbEntity
  8
5
  6
PHANTOM
100
AcDbLine
 10
411.0055
 20
174.2102629999999
 30
0.0
 11
411.0055
 21
167.710263
 31
0.0
  0
ARC
  5
C295
330
BF60
100
AcDbEntity
  8
5
  6
PHANTOM
100
AcDbCircle
 10
409.6054999999998
 20
177.210263
 30
0.0
 40
3.0
100
AcDbArc
 50
0.0
 51
90.0
  0
LINE
  5
C296
330
BF60
100
AcDbEntity
  8
5
  6
PHANTOM
100
AcDbLine
 10
411.0055
 20
167.710263
 30
0.0
 11
376.5054999999999
 21
167.710263
 31
0.0
  0
LINE
  5
C297
330
BF60
100
AcDbEntity
  8
5
  6
PHANTOM
100
AcDbLine
 10
412.6055
 20
154.210263
 30
0.0
 11
374.9054999999998
 21
154.210263
 31
0.0
  0
ARC
  5
C298
330
BF60
100
AcDbEntity
  8
5
  6
PHANTOM
100
AcDbCircle
 10
409.6054999999998
 20
157.210263
 30
0.0
 40
3.0
100
AcDbArc
 50
0.0
 51
90.0
  0
LINE
  5
C299
330
BF60
100
AcDbEntity
  8
5
  6
PHANTOM
100
AcDbLine
 10
412.6055
 20
157.210263
 30
0.0
 11
412.6055
 21
154.210263
 31
0.0
  0
LINE
  5
C29A
330
BF60
100
AcDbEntity
  8
5
  6
PHANTOM
100
AcDbLine
 10
411.0055
 20
147.710263
 30
0.0
 11
376.5054999999999
 21
147.710263
 31
0.0
  0
LINE
  5
C29B
330
BF60
100
AcDbEntity
  8
5
  6
PHANTOM
100
AcDbLine
 10
411.0055
 20
154.210263
 30
0.0
 11
411.0055
 21
147.710263
 31
0.0
  0
LINE
  5
C29C
330
BF60
100
AcDbEntity
  8
5
  6
PHANTOM
100
AcDbLine
 10
409.6054999999998
 20
160.210263
 30
0.0
 11
377.9054999999997
 21
160.210263
 31
0.0
  0
LINE
  5
C29D
330
BF60
100
AcDbEntity
  8
5
  6
PHANTOM
100
AcDbLine
 10
374.9054999999998
 20
154.210263
 30
0.0
 11
374.9054999999998
 21
157.210263
 31
0.0
  0
ARC
  5
C29E
330
BF60
100
AcDbEntity
  8
5
  6
PHANTOM
100
AcDbCircle
 10
377.9054999999997
 20
157.210263
 30
0.0
 40
3.0
100
AcDbArc
 50
90.0
 51
180.0
  0
LINE
  5
C29F
330
BF60
100
AcDbEntity
  8
5
  6
PHANTOM
100
AcDbLine
 10
376.5054999999999
 20
154.210263
 30
0.0
 11
376.5054999999999
 21
147.710263
 31
0.0
  0
ENDSEC
  0
SECTION
  2
OBJECTS
  0
DICTIONARY
  5
BF4E
330
0
100
AcDbDictionary
281
     1
  3
ACAD_CIP_PREVIOUS_PRODUCT_INFO
350
C301
  3
ACAD_COLOR
350
C2E3
  3
ACAD_DETAILVIEWSTYLE
350
C2FC
  3
ACAD_GROUP
350
BF4F
  3
ACAD_LAYOUT
350
BF5B
  3
ACAD_MATERIAL
350
C2B1
  3
ACAD_MLEADERSTYLE
350
C2F8
  3
ACAD_MLINESTYLE
350
BF58
  3
ACAD_PLOTSETTINGS
350
BF5A
  3
ACAD_PLOTSTYLENAME
350
C2AF
  3
ACAD_SCALELIST
350
C2E6
  3
ACAD_SECTIONVIEWSTYLE
350
C2FA
  3
ACAD_TABLESTYLE
350
C2E4
  3
ACAD_VISUALSTYLE
350
C2CA
  3
ACDB_RECOMPOSE_DATA
350
C31F
  3
AcDbVariableDictionary
350
C312
  3
DWGPROPS
350
C320
  0
DICTIONARY
  5
C302
330
BF52
100
AcDbDictionary
280
     1
281
     1
  3
ADSK_XREC_LAYER_RECONCILED
360
C303
  0
DICTIONARY
  5
C304
330
BF68
100
AcDbDictionary
280
     1
281
     1
  3
ADSK_XREC_LAYER_RECONCILED
360
C305
  0
DICTIONARY
  5
C306
330
BF69
100
AcDbDictionary
280
     1
281
     1
  3
ADSK_XREC_LAYER_RECONCILED
360
C307
  0
DICTIONARY
  5
C308
330
BF6A
100
AcDbDictionary
280
     1
281
     1
  3
ADSK_XREC_LAYER_RECONCILED
360
C309
  0
DICTIONARY
  5
C30A
330
BF6B
100
AcDbDictionary
280
     1
281
     1
  3
ADSK_XREC_LAYER_RECONCILED
360
C30B
  0
DICTIONARY
  5
C30C
330
BF6C
100
AcDbDictionary
280
     1
281
     1
  3
ADSK_XREC_LAYER_RECONCILED
360
C30D
  0
DICTIONARY
  5
C30E
330
BF6D
100
AcDbDictionary
280
     1
281
     1
  3
ADSK_XREC_LAYER_RECONCILED
360
C30F
  0
DICTIONARY
  5
C310
330
BF6E
100
AcDbDictionary
280
     1
281
     1
  3
ADSK_XREC_LAYER_RECONCILED
360
C311
  0
DICTIONARY
  5
C2AA
330
BF60
100
AcDbDictionary
281
     1
  3
ACAD_LAYOUTSELFREF
350
C2AB
  0
DICTIONARY
  5
C2A8
330
BF5C
100
AcDbDictionary
281
     1
  3
ACAD_LAYOUTSELFREF
350
C2A9
  0
XRECORD
  5
C301
102
{ACAD_REACTORS
330
BF4E
102
}
330
BF4E
100
AcDbXrecord
280
     1
300
ACDLT
300
2014
300
ACDLT_F_S
  0
DICTIONARY
  5
C2E3
102
{ACAD_REACTORS
330
BF4E
102
}
330
BF4E
100
AcDbDictionary
281
     1
  0
DICTIONARY
  5
C2FC
102
{ACAD_REACTORS
330
BF4E
102
}
330
BF4E
100
AcDbDictionary
281
     1
  3
Imperial24
350
C2FD
  0
DICTIONARY
  5
BF4F
102
{ACAD_REACTORS
330
BF4E
102
}
330
BF4E
100
AcDbDictionary
281
     1
  0
DICTIONARY
  5
BF5B
102
{ACAD_REACTORS
330
BF4E
102
}
330
BF4E
100
AcDbDictionary
281
     1
  3
Model
350
C2FE
  3
レイアウト1
350
C2FF
  0
DICTIONARY
  5
C2B1
102
{ACAD_REACTORS
330
BF4E
102
}
330
BF4E
100
AcDbDictionary
281
     1
  3
ByBlock
350
C2BA
  3
ByLayer
350
C2B2
  3
Global
350
C2C2
  0
DICTIONARY
  5
C2F8
102
{ACAD_REACTORS
330
BF4E
102
}
330
BF4E
100
AcDbDictionary
281
     1
  3
Standard
350
C2F9
  0
DICTIONARY
  5
BF58
102
{ACAD_REACTORS
330
BF4E
102
}
330
BF4E
100
AcDbDictionary
281
     1
  3
STANDARD
350
BF59
  0
DICTIONARY
  5
BF5A
102
{ACAD_REACTORS
330
BF4E
102
}
330
BF4E
100
AcDbDictionary
281
     1
  0
ACDBDICTIONARYWDFLT
  5
C2AF
102
{ACAD_REACTORS
330
BF4E
102
}
330
BF4E
100
AcDbDictionary
281
     1
  3
Normal
350
C2B0
100
AcDbDictionaryWithDefault
340
C2B0
  0
DICTIONARY
  5
C2E6
102
{ACAD_REACTORS
330
BF4E
102
}
330
BF4E
100
AcDbDictionary
281
     1
  3
A0
350
C2E7
  3
A1
350
C2E8
  3
A2
350
C2E9
  3
A3
350
C2EA
  3
A4
350
C2EB
  3
A5
350
C2EC
  3
A6
350
C2ED
  3
A7
350
C2EE
  3
A8
350
C2EF
  3
A9
350
C2F0
  3
B0
350
C2F1
  3
B1
350
C2F2
  3
B2
350
C2F3
  3
B3
350
C2F4
  3
B4
350
C2F5
  3
B5
350
C2F6
  3
B6
350
C2F7
  0
DICTIONARY
  5
C2FA
102
{ACAD_REACTORS
330
BF4E
102
}
330
BF4E
100
AcDbDictionary
281
     1
  3
Imperial24
350
C2FB
  0
DICTIONARY
  5
C2E4
102
{ACAD_REACTORS
330
BF4E
102
}
330
BF4E
100
AcDbDictionary
281
     1
  3
Standard
350
C2E5
  0
DICTIONARY
  5
C2CA
102
{ACAD_REACTORS
330
BF4E
102
}
330
BF4E
100
AcDbDictionary
281
     1
  3
2dWireframe
350
C2D0
  3
Basic
350
C2CF
  3
Brighten
350
C2D6
  3
ColorChange
350
C2DA
  3
Conceptual
350
C2D3
  3
Dim
350
C2D5
  3
EdgeColorOff
350
C2E2
  3
Facepattern
350
C2D9
  3
Flat
350
C2CB
  3
FlatWithEdges
350
C2CC
  3
Gouraud
350
C2CD
  3
GouraudWithEdges
350
C2CE
  3
Hidden
350
C2D2
  3
JitterOff
350
C2E0
  3
Linepattern
350
C2D8
  3
OverhangOff
350
C2E1
  3
Realistic
350
C2D4
  3
Shaded
350
C2DF
  3
Shaded with edges
350
C2DE
  3
Shades of Gray
350
C2DB
  3
Sketchy
350
C2DC
  3
Thicken
350
C2D7
  3
Wireframe
350
C2D1
  3
X-Ray
350
C2DD
  0
XRECORD
  5
C31F
102
{ACAD_REACTORS
330
BF4E
102
}
330
BF4E
100
AcDbXrecord
280
     1
 90
        1
330
C2E5
  0
DICTIONARY
  5
C312
102
{ACAD_REACTORS
330
BF4E
102
}
330
BF4E
100
AcDbDictionary
281
     1
  3
CANNOSCALE
350
C317
  3
CMLEADERSTYLE
350
C314
  3
CTABLESTYLE
350
C313
  3
CVIEWDETAILSTYLE
350
C315
  3
CVIEWSECTIONSTYLE
350
C316
  3
DIMASSOC
350
C31A
  3
INDEXCTL
350
C319
  3
SORTENTS
350
C318
  3
XCLIPFRAME
350
C31B
  0
XRECORD
  5
C320
102
{ACAD_REACTORS
330
BF4E
102
}
330
BF4E
100
AcDbXrecord
280
     1
  1
DWGPROPS COOKIE
  2

  3

  4

  6

  7

  8
Yoshitsune
  9

300
=
301
=
302
=
303
=
304
=
305
=
306
=
307
=
308
=
309
=
 40
0.0220933333333333
 41
2451301.396503473
 42
2457192.686517767
  1

 90
        0
  0
XRECORD
  5
C303
102
{ACAD_REACTORS
330
C302
102
}
330
C302
100
AcDbXrecord
280
     1
290
     1
  0
XRECORD
  5
C305
102
{ACAD_REACTORS
330
C304
102
}
330
C304
100
AcDbXrecord
280
     1
290
     1
  0
XRECORD
  5
C307
102
{ACAD_REACTORS
330
C306
102
}
330
C306
100
AcDbXrecord
280
     1
290
     1
  0
XRECORD
  5
C309
102
{ACAD_REACTORS
330
C308
102
}
330
C308
100
AcDbXrecord
280
     1
290
     1
  0
XRECORD
  5
C30B
102
{ACAD_REACTORS
330
C30A
102
}
330
C30A
100
AcDbXrecord
280
     1
290
     1
  0
XRECORD
  5
C30D
102
{ACAD_REACTORS
330
C30C
102
}
330
C30C
100
AcDbXrecord
280
     1
290
     1
  0
XRECORD
  5
C30F
102
{ACAD_REACTORS
330
C30E
102
}
330
C30E
100
AcDbXrecord
280
     1
290
     1
  0
XRECORD
  5
C311
102
{ACAD_REACTORS
330
C310
102
}
330
C310
100
AcDbXrecord
280
     1
290
     1
  0
XRECORD
  5
C2AB
102
{ACAD_REACTORS
330
C2AA
102
}
330
C2AA
100
AcDbXrecord
280
     1
340
BF60
  0
XRECORD
  5
C2A9
102
{ACAD_REACTORS
330
C2A8
102
}
330
C2A8
100
AcDbXrecord
280
     1
340
BF5C
  0
ACDBDETAILVIEWSTYLE
  5
C2FD
102
{ACAD_XDICTIONARY
360
C358
102
}
102
{ACAD_REACTORS
330
C2FC
102
}
330
C2FC
100
AcDbModelDocViewStyle
 70
     0
  3
Imperial24
290
     0
100
AcDbDetailViewStyle
 70
     0
 71
     0
 90
        3
 71
     1
340
BF53
 40
0.24
340
0
 40
0.24
300

 40
0.36
280
     3
 71
     2
340
BF57
 90
       25
 71
     3
340
BF53
 40
0.24
 90
        1
 40
0.75
 90
        1
300
%<\AcVar ViewType \f "%tc1">% %<\AcVar ViewDetailId>%\PSCALE %<\AcVar ViewScale \f "%sn">%
 71
     4
340
BF57
 90
       25
340
BF57
 90
       25
280
     0
  0
LAYOUT
  5
C2FE
102
{ACAD_XDICTIONARY
360
C35A
102
}
102
{ACAD_REACTORS
330
BF5B
102
}
330
BF5B
100
AcDbPlotSettings
  1

  2
Canon LBP9100C
  4

  6

 40
0.0
 41
0.0
 42
0.0
 43
0.0
 44
0.0
 45
0.0
 46
0.0
 47
0.0
 48
0.0
 49
0.0
140
0.0
141
0.0
142
1.0
143
1.0
 70
  1712
 72
     0
 73
     0
 74
     0
  7

 75
     0
147
1.0
148
0.0
149
0.0
100
AcDbLayout
  1
Model
 70
     1
 71
     0
 10
0.0
 20
0.0
 11
12.0
 21
9.0
 12
0.0
 22
0.0
 32
0.0
 14
0.0
 24
0.0
 34
0.0
 15
0.0
 25
0.0
 35
0.0
146
0.0
 13
0.0
 23
0.0
 33
0.0
 16
1.0
 26
0.0
 36
0.0
 17
0.0
 27
1.0
 37
0.0
 76
     0
330
BF60
331
C2A7
  0
LAYOUT
  5
C2FF
102
{ACAD_XDICTIONARY
360
C35C
102
}
102
{ACAD_REACTORS
330
BF5B
102
}
330
BF5B
100
AcDbPlotSettings
  1

  2
Canon LBP9100C
  4

  6

 40
0.0
 41
0.0
 42
0.0
 43
0.0
 44
0.0
 45
0.0
 46
0.0
 47
0.0
 48
0.0
 49
0.0
140
0.0
141
0.0
142
1.0
143
1.0
 70
   688
 72
     0
 73
     0
 74
     5
  7

 75
    16
147
1.0
148
0.0
149
0.0
100
AcDbLayout
  1
レイアウト1
 70
     0
 71
     1
 10
0.0
 20
0.0
 11
420.0
 21
297.0
 12
0.0
 22
0.0
 32
0.0
 14
1.000000000000000E+20
 24
1.000000000000000E+20
 34
1.000000000000000E+20
 15
-1.000000000000000E+20
 25
-1.000000000000000E+20
 35
-1.000000000000000E+20
146
0.0
 13
0.0
 23
0.0
 33
0.0
 16
1.0
 26
0.0
 36
0.0
 17
0.0
 27
1.0
 37
0.0
 76
     0
330
BF5C
  0
MATERIAL
  5
C2BA
102
{ACAD_XDICTIONARY
360
C2BB
102
}
102
{ACAD_REACTORS
330
C2B1
102
}
330
C2B1
100
AcDbMaterial
  1
ByBlock
 72
     0
 43
0.0208333333333333
 43
0.0
 43
0.0
 43
0.0
 43
0.0
 43
0.0208333333333333
 43
0.0
 43
0.0
 43
0.0
 43
0.0
 43
1.0
 43
0.0
 43
0.0
 43
0.0
 43
0.0
 43
1.0
 77
     0
 47
0.0208333333333333
 47
0.0
 47
0.0
 47
0.0
 47
0.0
 47
0.0208333333333333
 47
0.0
 47
0.0
 47
0.0
 47
0.0
 47
1.0
 47
0.0
 47
0.0
 47
0.0
 47
0.0
 47
1.0
171
     0
 49
0.0208333333333333
 49
0.0
 49
0.0
 49
0.0
 49
0.0
 49
0.0208333333333333
 49
0.0
 49
0.0
 49
0.0
 49
0.0
 49
1.0
 49
0.0
 49
0.0
 49
0.0
 49
0.0
 49
1.0
175
     0
142
0.0208333333333333
142
0.0
142
0.0
142
0.0
142
0.0
142
0.0208333333333333
142
0.0
142
0.0
142
0.0
142
0.0
142
1.0
142
0.0
142
0.0
142
0.0
142
0.0
142
1.0
179
     0
144
0.0208333333333333
144
0.0
144
0.0
144
0.0
144
0.0
144
0.0208333333333333
144
0.0
144
0.0
144
0.0
144
0.0
144
1.0
144
0.0
144
0.0
144
0.0
144
0.0
144
1.0
147
0.0208333333333333
147
0.0
147
0.0
147
0.0
147
0.0
147
0.0208333333333333
147
0.0
147
0.0
147
0.0
147
0.0
147
1.0
147
0.0
147
0.0
147
0.0
147
0.0
147
1.0
  0
MATERIAL
  5
C2B2
102
{ACAD_XDICTIONARY
360
C2B3
102
}
102
{ACAD_REACTORS
330
C2B1
102
}
330
C2B1
100
AcDbMaterial
  1
ByLayer
 72
     0
 43
0.0208333333333333
 43
0.0
 43
0.0
 43
0.0
 43
0.0
 43
0.0208333333333333
 43
0.0
 43
0.0
 43
0.0
 43
0.0
 43
1.0
 43
0.0
 43
0.0
 43
0.0
 43
0.0
 43
1.0
 77
     0
 47
0.0208333333333333
 47
0.0
 47
0.0
 47
0.0
 47
0.0
 47
0.0208333333333333
 47
0.0
 47
0.0
 47
0.0
 47
0.0
 47
1.0
 47
0.0
 47
0.0
 47
0.0
 47
0.0
 47
1.0
171
     0
 49
0.0208333333333333
 49
0.0
 49
0.0
 49
0.0
 49
0.0
 49
0.0208333333333333
 49
0.0
 49
0.0
 49
0.0
 49
0.0
 49
1.0
 49
0.0
 49
0.0
 49
0.0
 49
0.0
 49
1.0
175
     0
142
0.0208333333333333
142
0.0
142
0.0
142
0.0
142
0.0
142
0.0208333333333333
142
0.0
142
0.0
142
0.0
142
0.0
142
1.0
142
0.0
142
0.0
142
0.0
142
0.0
142
1.0
179
     0
144
0.0208333333333333
144
0.0
144
0.0
144
0.0
144
0.0
144
0.0208333333333333
144
0.0
144
0.0
144
0.0
144
0.0
144
1.0
144
0.0
144
0.0
144
0.0
144
0.0
144
1.0
147
0.0208333333333333
147
0.0
147
0.0
147
0.0
147
0.0
147
0.0208333333333333
147
0.0
147
0.0
147
0.0
147
0.0
147
1.0
147
0.0
147
0.0
147
0.0
147
0.0
147
1.0
  0
MATERIAL
  5
C2C2
102
{ACAD_XDICTIONARY
360
C2C3
102
}
102
{ACAD_REACTORS
330
C2B1
102
}
330
C2B1
100
AcDbMaterial
  1
Global
 72
     0
 43
0.0208333333333333
 43
0.0
 43
0.0
 43
0.0
 43
0.0
 43
0.0208333333333333
 43
0.0
 43
0.0
 43
0.0
 43
0.0
 43
1.0
 43
0.0
 43
0.0
 43
0.0
 43
0.0
 43
1.0
 77
     0
 47
0.0208333333333333
 47
0.0
 47
0.0
 47
0.0
 47
0.0
 47
0.0208333333333333
 47
0.0
 47
0.0
 47
0.0
 47
0.0
 47
1.0
 47
0.0
 47
0.0
 47
0.0
 47
0.0
 47
1.0
171
     0
 49
0.0208333333333333
 49
0.0
 49
0.0
 49
0.0
 49
0.0
 49
0.0208333333333333
 49
0.0
 49
0.0
 49
0.0
 49
0.0
 49
1.0
 49
0.0
 49
0.0
 49
0.0
 49
0.0
 49
1.0
175
     0
142
0.0208333333333333
142
0.0
142
0.0
142
0.0
142
0.0
142
0.0208333333333333
142
0.0
142
0.0
142
0.0
142
0.0
142
1.0
142
0.0
142
0.0
142
0.0
142
0.0
142
1.0
179
     0
144
0.0208333333333333
144
0.0
144
0.0
144
0.0
144
0.0
144
0.0208333333333333
144
0.0
144
0.0
144
0.0
144
0.0
144
1.0
144
0.0
144
0.0
144
0.0
144
0.0
144
1.0
147
0.0208333333333333
147
0.0
147
0.0
147
0.0
147
0.0
147
0.0208333333333333
147
0.0
147
0.0
147
0.0
147
0.0
147
1.0
147
0.0
147
0.0
147
0.0
147
0.0
147
1.0
  0
MLEADERSTYLE
  5
C2F9
102
{ACAD_REACTORS
330
C2F8
102
}
330
C2F8
100
AcDbMLeaderStyle
170
     2
171
     1
172
     0
 90
        2
 40
0.0
 41
0.0
173
     1
 91
-1056964608
340
BF55
 92
       -2
290
     1
 42
0.09
291
     1
 43
0.36
  3
Standard
 44
0.18
300

342
BF53
174
     1
178
     6
175
     1
176
     0
 93
-1056964608
 45
0.18
292
     0
297
     0
 46
0.18
 94
-1056964608
 47
1.0
 49
1.0
140
1.0
293
     1
141
0.0
294
     1
177
     0
142
1.0
295
     0
296
     0
143
0.125
1001
ACAD_MLEADERVER
1070
     2
  0
MLINESTYLE
  5
BF59
102
{ACAD_REACTORS
330
BF58
102
}
330
BF58
100
AcDbMlineStyle
  2
STANDARD
 70
     0
  3

 62
   256
 51
90.0
 52
90.0
 71
     2
 49
0.5
 62
   256
  6
BYLAYER
 49
-0.5
 62
   256
  6
BYLAYER
  0
ACDBPLACEHOLDER
  5
C2B0
102
{ACAD_REACTORS
330
C2AF
102
}
330
C2AF
  0
SCALE
  5
C2E7
102
{ACAD_REACTORS
330
C2E6
102
}
330
C2E6
100
AcDbScale
 70
     0
300
1:1
140
1.0
141
1.0
290
     1
  0
SCALE
  5
C2E8
102
{ACAD_REACTORS
330
C2E6
102
}
330
C2E6
100
AcDbScale
 70
     0
300
1/128" = 1'-0"
140
0.0078125
141
12.0
290
     0
  0
SCALE
  5
C2E9
102
{ACAD_REACTORS
330
C2E6
102
}
330
C2E6
100
AcDbScale
 70
     0
300
1/64" = 1'-0"
140
0.015625
141
12.0
290
     0
  0
SCALE
  5
C2EA
102
{ACAD_REACTORS
330
C2E6
102
}
330
C2E6
100
AcDbScale
 70
     0
300
1/32" = 1'-0"
140
0.03125
141
12.0
290
     0
  0
SCALE
  5
C2EB
102
{ACAD_REACTORS
330
C2E6
102
}
330
C2E6
100
AcDbScale
 70
     0
300
1/16" = 1'-0"
140
0.0625
141
12.0
290
     0
  0
SCALE
  5
C2EC
102
{ACAD_REACTORS
330
C2E6
102
}
330
C2E6
100
AcDbScale
 70
     0
300
3/32" = 1'-0"
140
0.09375
141
12.0
290
     0
  0
SCALE
  5
C2ED
102
{ACAD_REACTORS
330
C2E6
102
}
330
C2E6
100
AcDbScale
 70
     0
300
1/8" = 1'-0"
140
0.125
141
12.0
290
     0
  0
SCALE
  5
C2EE
102
{ACAD_REACTORS
330
C2E6
102
}
330
C2E6
100
AcDbScale
 70
     0
300
3/16" = 1'-0"
140
0.1875
141
12.0
290
     0
  0
SCALE
  5
C2EF
102
{ACAD_REACTORS
330
C2E6
102
}
330
C2E6
100
AcDbScale
 70
     0
300
1/4" = 1'-0"
140
0.25
141
12.0
290
     0
  0
SCALE
  5
C2F0
102
{ACAD_REACTORS
330
C2E6
102
}
330
C2E6
100
AcDbScale
 70
     0
300
3/8" = 1'-0"
140
0.375
141
12.0
290
     0
  0
SCALE
  5
C2F1
102
{ACAD_REACTORS
330
C2E6
102
}
330
C2E6
100
AcDbScale
 70
     0
300
1/2" = 1'-0"
140
0.5
141
12.0
290
     0
  0
SCALE
  5
C2F2
102
{ACAD_REACTORS
330
C2E6
102
}
330
C2E6
100
AcDbScale
 70
     0
300
3/4" = 1'-0"
140
0.75
141
12.0
290
     0
  0
SCALE
  5
C2F3
102
{ACAD_REACTORS
330
C2E6
102
}
330
C2E6
100
AcDbScale
 70
     0
300
1" = 1'-0"
140
1.0
141
12.0
290
     0
  0
SCALE
  5
C2F4
102
{ACAD_REACTORS
330
C2E6
102
}
330
C2E6
100
AcDbScale
 70
     0
300
1-1/2" = 1'-0"
140
1.5
141
12.0
290
     0
  0
SCALE
  5
C2F5
102
{ACAD_REACTORS
330
C2E6
102
}
330
C2E6
100
AcDbScale
 70
     0
300
3" = 1'-0"
140
3.0
141
12.0
290
     0
  0
SCALE
  5
C2F6
102
{ACAD_REACTORS
330
C2E6
102
}
330
C2E6
100
AcDbScale
 70
     0
300
6" = 1'-0"
140
6.0
141
12.0
290
     0
  0
SCALE
  5
C2F7
102
{ACAD_REACTORS
330
C2E6
102
}
330
C2E6
100
AcDbScale
 70
     0
300
1'-0" = 1'-0"
140
12.0
141
12.0
290
     0
  0
ACDBSECTIONVIEWSTYLE
  5
C2FB
102
{ACAD_XDICTIONARY
360
C356
102
}
102
{ACAD_REACTORS
330
C2FA
102
}
330
C2FA
100
AcDbModelDocViewStyle
 70
     0
  3
Imperial24
290
     0
100
AcDbSectionViewStyle
 70
     0
 71
     0
 90
       78
 71
     1
340
BF53
 40
0.24
340
0
340
0
 40
0.24
300
I, O, Q, S, X, Z
 40
0.48
 90
        3
 40
0.18
 90
        1
 71
     2
340
BF57
 90
       25
340
BF57
 90
       50
 40
0.24
 40
0.0
 40
0.24
 71
     3
340
BF53
 40
0.24
 90
        1
 40
0.75
 90
        1
300
%<\AcVar ViewType \f "%tc1">% %<\AcVar ViewSectionStartId>%-%<\AcVar ViewSectionEndId>%\PSCALE %<\AcVar ViewScale \f "%sn">%
 71
     4
300
ANSI31
 40
1.0
 90
        0
290
     0
290
     0
 90
        6
 40
0.0
 40
1.570796326794896
 40
0.2617993877991494
 40
1.308996938995747
 40
-0.2617993877991494
 40
1.832595714594046
  0
TABLESTYLE
  5
C2E5
102
{ACAD_XDICTIONARY
360
C31D
102
}
102
{ACAD_REACTORS
330
C2E4
102
}
330
C2E4
100
AcDbTableStyle
  3
Standard
 70
     0
 71
     0
 40
0.06
 41
0.06
280
     0
281
     0
  7
STANDARD
140
0.18
170
     2
 62
     0
 63
     7
283
     0
274
    -2
284
     1
 64
     0
275
    -2
285
     1
 65
     0
276
    -2
286
     1
 66
     0
277
    -2
287
     1
 67
     0
278
    -2
288
     1
 68
     0
279
    -2
289
     1
 69
     0
  7
STANDARD
140
0.25
170
     5
 62
     0
 63
     7
283
     0
274
    -2
284
     1
 64
     0
275
    -2
285
     1
 65
     0
276
    -2
286
     1
 66
     0
277
    -2
287
     1
 67
     0
278
    -2
288
     1
 68
     0
279
    -2
289
     1
 69
     0
  7
STANDARD
140
0.18
170
     5
 62
     0
 63
     7
283
     0
274
    -2
284
     1
 64
     0
275
    -2
285
     1
 65
     0
276
    -2
286
     1
 66
     0
277
    -2
287
     1
 67
     0
278
    -2
288
     1
 68
     0
279
    -2
289
     1
 69
     0
  0
VISUALSTYLE
  5
C2D0
102
{ACAD_XDICTIONARY
360
C32E
102
}
102
{ACAD_REACTORS
330
C2CA
102
}
330
C2CA
100
AcDbVisualStyle
  2
2dWireframe
 70
     4
 71
     0
 72
     2
 73
     0
 90
        0
 40
-0.6
 41
-30.0
 62
     5
 63
     7
 74
     1
 91
        4
 64
     7
 65
   257
 75
     1
175
     1
 42
1.0
 92
        0
 66
   257
 43
1.0
 76
     1
 77
     6
 78
     2
 67
     7
 79
     5
170
     0
171
     0
290
     0
174
     0
 93
        1
 44
0.0
173
     0
291
     0
 45
0.0
1001
ACAD
1000
AcDbSavedByObjectVersion
1070
     0
  0
VISUALSTYLE
  5
C2CF
102
{ACAD_XDICTIONARY
360
C32C
102
}
102
{ACAD_REACTORS
330
C2CA
102
}
330
C2CA
100
AcDbVisualStyle
  2
Basic
 70
     7
 71
     1
 72
     0
 73
     1
 90
        0
 40
-0.6
 41
-30.0
 62
     5
 63
     7
 74
     0
 91
        4
 64
     7
 65
   257
 75
     1
175
     1
 42
1.0
 92
        8
 66
     7
 43
1.0
 76
     1
 77
     6
 78
     2
 67
     7
 79
     5
170
     0
171
     0
290
     0
174
     0
 93
        1
 44
0.0
173
     0
291
     1
 45
0.0
1001
ACAD
1000
AcDbSavedByObjectVersion
1070
     0
  0
VISUALSTYLE
  5
C2D6
102
{ACAD_XDICTIONARY
360
C33A
102
}
102
{ACAD_REACTORS
330
C2CA
102
}
330
C2CA
100
AcDbVisualStyle
  2
Brighten
 70
    12
 71
     2
 72
     2
 73
     0
 90
        0
 40
-0.6
 41
-30.0
 62
     5
 63
     7
 74
     1
 91
        4
 64
     7
 65
   257
 75
     1
175
     1
 42
1.0
 92
        8
 66
     7
 43
1.0
 76
     1
 77
     6
 78
     2
 67
     7
 79
     5
170
     0
171
     0
290
     0
174
     0
 93
        1
 44
50.0
173
     0
291
     1
 45
0.0
1001
ACAD
1000
AcDbSavedByObjectVersion
1070
     0
  0
VISUALSTYLE
  5
C2DA
102
{ACAD_XDICTIONARY
360
C342
102
}
102
{ACAD_REACTORS
330
C2CA
102
}
330
C2CA
100
AcDbVisualStyle
  2
ColorChange
 70
    16
 71
     2
 72
     2
 73
     3
 90
        0
 40
-0.6
 41
-30.0
 62
     5
 63
     8
 74
     1
 91
        4
 64
     7
 65
   257
 75
     1
175
     1
 42
1.0
 92
        8
 66
     8
 43
1.0
 76
     1
 77
     6
 78
     2
 67
     7
 79
     5
170
     0
171
     0
290
     0
174
     0
 93
        1
 44
0.0
173
     0
291
     1
 45
0.0
1001
ACAD
1000
AcDbSavedByObjectVersion
1070
     0
  0
VISUALSTYLE
  5
C2D3
102
{ACAD_XDICTIONARY
360
C334
102
}
102
{ACAD_REACTORS
330
C2CA
102
}
330
C2CA
100
AcDbVisualStyle
  2
Conceptual
 70
     9
 71
     3
 72
     2
 73
     0
 90
        0
 40
-0.6
 41
-30.0
 62
     5
 63
     7
 74
     2
 91
        2
 64
     7
 65
   257
 75
     1
175
     1
 42
179.0
 92
        8
 66
     7
 43
1.0
 76
     1
 77
     6
 78
     2
 67
     7
 79
     3
170
     0
171
     0
290
     0
174
     0
 93
        1
 44
0.0
173
     0
291
     0
 45
0.0
1001
ACAD
1000
AcDbSavedByObjectVersion
1070
     0
  0
VISUALSTYLE
  5
C2D5
102
{ACAD_XDICTIONARY
360
C338
102
}
102
{ACAD_REACTORS
330
C2CA
102
}
330
C2CA
100
AcDbVisualStyle
  2
Dim
 70
    11
 71
     2
 72
     2
 73
     0
 90
        0
 40
-0.6
 41
-30.0
 62
     5
 63
     7
 74
     1
 91
        4
 64
     7
 65
   257
 75
     1
175
     1
 42
1.0
 92
        8
 66
     7
 43
1.0
 76
     1
 77
     6
 78
     2
 67
     7
 79
     5
170
     0
171
     0
290
     0
174
     0
 93
        1
 44
-50.0
173
     0
291
     1
 45
0.0
1001
ACAD
1000
AcDbSavedByObjectVersion
1070
     0
  0
VISUALSTYLE
  5
C2E2
102
{ACAD_XDICTIONARY
360
C352
102
}
102
{ACAD_REACTORS
330
C2CA
102
}
330
C2CA
100
AcDbVisualStyle
  2
EdgeColorOff
 70
    22
 71
     2
 72
     2
 73
     0
 90
        0
 40
-0.6
 41
-30.0
 62
     5
 63
     7
 74
     1
 91
        4
 64
     7
 65
   257
 75
     1
175
     1
 42
1.0
 92
        8
 66
     7
 43
1.0
 76
     1
 77
     6
 78
     2
 67
     7
 79
     5
170
     0
171
     0
290
     0
174
     0
 93
        1
 44
0.0
173
     0
291
     1
 45
0.0
1001
ACAD
1000
AcDbSavedByObjectVersion
1070
     0
  0
VISUALSTYLE
  5
C2D9
102
{ACAD_XDICTIONARY
360
C340
102
}
102
{ACAD_REACTORS
330
C2CA
102
}
330
C2CA
100
AcDbVisualStyle
  2
Facepattern
 70
    15
 71
     2
 72
     2
 73
     0
 90
        0
 40
-0.6
 41
-30.0
 62
     5
 63
     7
 74
     1
 91
        4
 64
     7
 65
   257
 75
     1
175
     1
 42
1.0
 92
        8
 66
     7
 43
1.0
 76
     1
 77
     6
 78
     2
 67
     7
 79
     5
170
     0
171
     0
290
     0
174
     0
 93
        1
 44
0.0
173
     0
291
     1
 45
0.0
1001
ACAD
1000
AcDbSavedByObjectVersion
1070
     0
  0
VISUALSTYLE
  5
C2CB
102
{ACAD_XDICTIONARY
360
C324
102
}
102
{ACAD_REACTORS
330
C2CA
102
}
330
C2CA
100
AcDbVisualStyle
  2
Flat
 70
     0
 71
     2
 72
     1
 73
     1
 90
        2
 40
-0.6
 41
30.0
 62
     5
 63
     7
 74
     0
 91
        0
 64
     7
 65
   257
 75
     1
175
     1
 42
1.0
 92
        8
 66
     7
 43
1.0
 76
     1
 77
     6
 78
     2
 67
     7
 79
     5
170
     0
171
     0
290
     0
174
     0
 93
       13
 44
0.0
173
     0
291
     1
 45
0.0
1001
ACAD
1000
AcDbSavedByObjectVersion
1070
     0
  0
VISUALSTYLE
  5
C2CC
102
{ACAD_XDICTIONARY
360
C326
102
}
102
{ACAD_REACTORS
330
C2CA
102
}
330
C2CA
100
AcDbVisualStyle
  2
FlatWithEdges
 70
     1
 71
     2
 72
     1
 73
     1
 90
        2
 40
-0.6
 41
30.0
 62
     5
 63
     7
 74
     1
 91
        0
 64
     7
 65
   257
 75
     1
175
     1
 42
1.0
 92
        0
 66
   257
 43
1.0
 76
     1
 77
     6
 78
     2
 67
     7
 79
     5
170
     0
171
     0
290
     0
174
     0
 93
       13
 44
0.0
173
     0
291
     1
 45
0.0
1001
ACAD
1000
AcDbSavedByObjectVersion
1070
     0
  0
VISUALSTYLE
  5
C2CD
102
{ACAD_XDICTIONARY
360
C328
102
}
102
{ACAD_REACTORS
330
C2CA
102
}
330
C2CA
100
AcDbVisualStyle
  2
Gouraud
 70
     2
 71
     2
 72
     2
 73
     1
 90
        2
 40
-0.6
 41
30.0
 62
     5
 63
     7
 74
     0
 91
        0
 64
     7
 65
   257
 75
     1
175
     1
 42
1.0
 92
        0
 66
     7
 43
1.0
 76
     1
 77
     6
 78
     2
 67
     7
 79
     5
170
     0
171
     0
290
     0
174
     0
 93
       13
 44
0.0
173
     0
291
     1
 45
0.0
1001
ACAD
1000
AcDbSavedByObjectVersion
1070
     0
  0
VISUALSTYLE
  5
C2CE
102
{ACAD_XDICTIONARY
360
C32A
102
}
102
{ACAD_REACTORS
330
C2CA
102
}
330
C2CA
100
AcDbVisualStyle
  2
GouraudWithEdges
 70
     3
 71
     2
 72
     2
 73
     1
 90
        2
 40
-0.6
 41
30.0
 62
     5
 63
     7
 74
     1
 91
        0
 64
     7
 65
   257
 75
     1
175
     1
 42
1.0
 92
        0
 66
   257
 43
1.0
 76
     1
 77
     6
 78
     2
 67
     7
 79
     5
170
     0
171
     0
290
     0
174
     0
 93
       13
 44
0.0
173
     0
291
     1
 45
0.0
1001
ACAD
1000
AcDbSavedByObjectVersion
1070
     0
  0
VISUALSTYLE
  5
C2D2
102
{ACAD_XDICTIONARY
360
C332
102
}
102
{ACAD_REACTORS
330
C2CA
102
}
330
C2CA
100
AcDbVisualStyle
  2
Hidden
 70
     6
 71
     1
 72
     2
 73
     2
 90
        0
 40
-0.6
 41
-30.0
 62
     5
 63
     7
 74
     2
 91
        2
 64
     7
 65
   257
 75
     2
175
     1
 42
40.0
 92
        0
 66
   257
 43
1.0
 76
     1
 77
     6
 78
     2
 67
     7
 79
     3
170
     0
171
     0
290
     0
174
     0
 93
        1
 44
0.0
173
     0
291
     0
 45
0.0
1001
ACAD
1000
AcDbSavedByObjectVersion
1070
     0
  0
VISUALSTYLE
  5
C2E0
102
{ACAD_XDICTIONARY
360
C34E
102
}
102
{ACAD_REACTORS
330
C2CA
102
}
330
C2CA
100
AcDbVisualStyle
  2
JitterOff
 70
    20
 71
     2
 72
     2
 73
     0
 90
        0
 40
-0.6
 41
-30.0
 62
     5
 63
     7
 74
     1
 91
        4
 64
     7
 65
   257
 75
     1
175
     1
 42
1.0
 92
       10
 66
     7
 43
1.0
 76
     1
 77
     6
 78
     2
 67
     7
 79
     5
170
     0
171
     0
290
     0
174
     0
 93
        1
 44
0.0
173
     0
291
     1
 45
0.0
1001
ACAD
1000
AcDbSavedByObjectVersion
1070
     0
  0
VISUALSTYLE
  5
C2D8
102
{ACAD_XDICTIONARY
360
C33E
102
}
102
{ACAD_REACTORS
330
C2CA
102
}
330
C2CA
100
AcDbVisualStyle
  2
Linepattern
 70
    14
 71
     2
 72
     2
 73
     0
 90
        0
 40
-0.6
 41
-30.0
 62
     5
 63
     7
 74
     1
 91
        4
 64
     7
 65
   257
 75
     7
175
     7
 42
1.0
 92
        8
 66
     7
 43
1.0
 76
     1
 77
     6
 78
     2
 67
     7
 79
     5
170
     0
171
     0
290
     0
174
     0
 93
        1
 44
0.0
173
     0
291
     1
 45
0.0
1001
ACAD
1000
AcDbSavedByObjectVersion
1070
     0
  0
VISUALSTYLE
  5
C2E1
102
{ACAD_XDICTIONARY
360
C350
102
}
102
{ACAD_REACTORS
330
C2CA
102
}
330
C2CA
100
AcDbVisualStyle
  2
OverhangOff
 70
    21
 71
     2
 72
     2
 73
     0
 90
        0
 40
-0.6
 41
-30.0
 62
     5
 63
     7
 74
     1
 91
        4
 64
     7
 65
   257
 75
     1
175
     1
 42
1.0
 92
        9
 66
     7
 43
1.0
 76
     1
 77
     6
 78
     2
 67
     7
 79
     5
170
     0
171
     0
290
     0
174
     0
 93
        1
 44
0.0
173
     0
291
     1
 45
0.0
1001
ACAD
1000
AcDbSavedByObjectVersion
1070
     0
  0
VISUALSTYLE
  5
C2D4
102
{ACAD_XDICTIONARY
360
C336
102
}
102
{ACAD_REACTORS
330
C2CA
102
}
330
C2CA
100
AcDbVisualStyle
  2
Realistic
 70
     8
 71
     2
 72
     3
 73
     0
 90
        2
 40
-0.6
 41
30.0
 62
     5
 63
     7
 74
     0
 91
        0
 64
     7
 65
   257
 75
     1
175
     1
 42
1.0
 92
        8
 66
   257
 43
1.0
 76
     1
 77
     6
 78
     2
 67
     7
 79
     3
170
     0
171
     0
290
     0
174
     0
 93
       13
 44
0.0
173
     0
291
     0
 45
0.0
1001
ACAD
1000
AcDbSavedByObjectVersion
1070
     0
  0
VISUALSTYLE
  5
C2DF
102
{ACAD_XDICTIONARY
360
C34C
102
}
102
{ACAD_REACTORS
330
C2CA
102
}
330
C2CA
100
AcDbVisualStyle
  2
Shaded
 70
    27
 71
     2
 72
     2
 73
     1
 90
        2
 40
-0.6
 41
30.0
 62
     5
 63
     7
 74
     0
 91
        4
 64
     7
 65
   257
 75
     1
175
     1
 42
1.0
 92
        8
 66
   257
 43
1.0
 76
     1
 77
     6
 78
     2
 67
     8
 79
     3
170
     0
171
     0
290
     0
174
     0
 93
        5
 44
0.0
173
     0
291
     0
 45
0.0
1001
ACAD
1000
AcDbSavedByObjectVersion
1070
     0
  0
VISUALSTYLE
  5
C2DE
102
{ACAD_XDICTIONARY
360
C34A
102
}
102
{ACAD_REACTORS
330
C2CA
102
}
330
C2CA
100
AcDbVisualStyle
  2
Shaded with edges
 70
    26
 71
     2
 72
     2
 73
     1
 90
        2
 40
-0.6
 41
30.0
 62
     5
 63
     7
 74
     1
 91
       10
 64
     7
 65
   257
 75
     2
175
     1
 42
1.0
 92
        8
 66
   257
 43
1.0
 76
     1
 77
     6
 78
     2
 67
     7
 79
     3
170
     0
171
     0
290
     0
174
     0
 93
        5
 44
0.0
173
     0
291
     0
 45
0.0
1001
ACAD
1000
AcDbSavedByObjectVersion
1070
     0
  0
VISUALSTYLE
  5
C2DB
102
{ACAD_XDICTIONARY
360
C344
102
}
102
{ACAD_REACTORS
330
C2CA
102
}
330
C2CA
100
AcDbVisualStyle
  2
Shades of Gray
 70
    23
 71
     2
 72
     2
 73
     3
 90
        0
 40
-0.6
 41
-30.0
 62
     5
 63
     7
 74
     2
 91
        2
 64
     7
 65
     7
 75
     1
175
     1
 42
40.0
 92
        8
 66
     7
 43
1.0
 76
     1
 77
     6
 78
     2
 67
     7
 79
     3
170
     0
171
     0
290
     0
174
     0
 93
        1
 44
0.0
173
     0
291
     0
 45
0.0
1001
ACAD
1000
AcDbSavedByObjectVersion
1070
     0
  0
VISUALSTYLE
  5
C2DC
102
{ACAD_XDICTIONARY
360
C346
102
}
102
{ACAD_REACTORS
330
C2CA
102
}
330
C2CA
100
AcDbVisualStyle
  2
Sketchy
 70
    24
 71
     1
 72
     2
 73
     2
 90
        0
 40
-0.6
 41
-30.0
 62
     5
 63
     7
 74
     2
 91
        2
 64
     7
 65
     7
 75
     1
175
     1
 42
40.0
 92
       11
 66
     7
 43
1.0
 76
     1
 77
     6
 78
     2
 67
     7
 79
     6
170
     0
171
     0
290
     0
174
     0
 93
        1
 44
0.0
173
     0
291
     0
 45
0.0
1001
ACAD
1000
AcDbSavedByObjectVersion
1070
     0
  0
VISUALSTYLE
  5
C2D7
102
{ACAD_XDICTIONARY
360
C33C
102
}
102
{ACAD_REACTORS
330
C2CA
102
}
330
C2CA
100
AcDbVisualStyle
  2
Thicken
 70
    13
 71
     2
 72
     2
 73
     0
 90
        0
 40
-0.6
 41
-30.0
 62
     5
 63
     7
 74
     1
 91
        4
 64
     7
 65
   257
 75
     1
175
     1
 42
1.0
 92
       12
 66
     7
 43
1.0
 76
     1
 77
     6
 78
     2
 67
     7
 79
     5
170
     0
171
     0
290
     0
174
     0
 93
        1
 44
0.0
173
     0
291
     1
 45
0.0
1001
ACAD
1000
AcDbSavedByObjectVersion
1070
     0
  0
VISUALSTYLE
  5
C2D1
102
{ACAD_XDICTIONARY
360
C330
102
}
102
{ACAD_REACTORS
330
C2CA
102
}
330
C2CA
100
AcDbVisualStyle
  2
Wireframe
 70
     5
 71
     0
 72
     2
 73
     0
 90
        0
 40
-0.6
 41
-30.0
 62
     5
 63
     7
 74
     1
 91
        4
 64
     7
 65
   257
 75
     1
175
     1
 42
1.0
 92
        0
 66
   257
 43
1.0
 76
     1
 77
     6
 78
     2
 67
     7
 79
     3
170
     0
171
     0
290
     0
174
     0
 93
        1
 44
0.0
173
     0
291
     0
 45
0.0
1001
ACAD
1000
AcDbSavedByObjectVersion
1070
     0
  0
VISUALSTYLE
  5
C2DD
102
{ACAD_XDICTIONARY
360
C348
102
}
102
{ACAD_REACTORS
330
C2CA
102
}
330
C2CA
100
AcDbVisualStyle
  2
X-Ray
 70
    25
 71
     2
 72
     2
 73
     1
 90
        1
 40
0.5
 41
-30.0
 62
     5
 63
     7
 74
     1
 91
        0
 64
     7
 65
   257
 75
     1
175
     1
 42
1.0
 92
        8
 66
     7
 43
1.0
 76
     1
 77
     6
 78
     2
 67
     7
 79
     3
170
     0
171
     0
290
     0
174
     0
 93
       13
 44
0.0
173
     0
291
     0
 45
0.0
1001
ACAD
1000
AcDbSavedByObjectVersion
1070
     0
  0
DICTIONARYVAR
  5
C317
102
{ACAD_REACTORS
330
C312
102
}
330
C312
100
DictionaryVariables
280
     0
  1
1:1
  0
DICTIONARYVAR
  5
C314
102
{ACAD_REACTORS
330
C312
102
}
330
C312
100
DictionaryVariables
280
     0
  1
STANDARD
  0
DICTIONARYVAR
  5
C313
102
{ACAD_REACTORS
330
C312
102
}
330
C312
100
DictionaryVariables
280
     0
  1
STANDARD
  0
DICTIONARYVAR
  5
C315
102
{ACAD_REACTORS
330
C312
102
}
330
C312
100
DictionaryVariables
280
     0
  1
Imperial24
  0
DICTIONARYVAR
  5
C316
102
{ACAD_REACTORS
330
C312
102
}
330
C312
100
DictionaryVariables
280
     0
  1
Imperial24
  0
DICTIONARYVAR
  5
C31A
102
{ACAD_REACTORS
330
C312
102
}
330
C312
100
DictionaryVariables
280
     0
  1
1
  0
DICTIONARYVAR
  5
C319
102
{ACAD_REACTORS
330
C312
102
}
330
C312
100
DictionaryVariables
280
     0
  1
0
  0
DICTIONARYVAR
  5
C318
102
{ACAD_REACTORS
330
C312
102
}
330
C312
100
DictionaryVariables
280
     0
  1
127
  0
DICTIONARYVAR
  5
C31B
102
{ACAD_REACTORS
330
C312
102
}
330
C312
100
DictionaryVariables
280
     0
  1
2
  0
DICTIONARY
  5
C358
330
C2FD
100
AcDbDictionary
280
     1
281
     1
  3
ACAD_XREC_ROUNDTRIP
360
C359
  0
DICTIONARY
  5
C35A
330
C2FE
100
AcDbDictionary
280
     1
281
     1
  3
ACAD_XREC_ROUNDTRIP
360
C35B
  0
DICTIONARY
  5
C35C
330
C2FF
100
AcDbDictionary
280
     1
281
     1
  3
ACAD_XREC_ROUNDTRIP
360
C35D
  0
DICTIONARY
  5
C2BB
330
C2BA
100
AcDbDictionary
280
     1
281
     1
  3
ACAD_XREC_ROUNDTRIP
360
C322
  3
BUMPTILE
360
C2BD
  3
DIFFUSETILE
360
C2BC
  3
OPACITYTILE
360
C2C0
  3
REFLECTIONTILE
360
C2BF
  3
REFRACTIONTILE
360
C2C1
  3
SPECULARTILE
360
C2BE
  0
DICTIONARY
  5
C2B3
330
C2B2
100
AcDbDictionary
280
     1
281
     1
  3
ACAD_XREC_ROUNDTRIP
360
C321
  3
BUMPTILE
360
C2B5
  3
DIFFUSETILE
360
C2B4
  3
OPACITYTILE
360
C2B8
  3
REFLECTIONTILE
360
C2B7
  3
REFRACTIONTILE
360
C2B9
  3
SPECULARTILE
360
C2B6
  0
DICTIONARY
  5
C2C3
330
C2C2
100
AcDbDictionary
280
     1
281
     1
  3
ACAD_XREC_ROUNDTRIP
360
C323
  3
BUMPTILE
360
C2C5
  3
DIFFUSETILE
360
C2C4
  3
OPACITYTILE
360
C2C8
  3
REFLECTIONTILE
360
C2C7
  3
REFRACTIONTILE
360
C2C9
  3
SPECULARTILE
360
C2C6
  0
DICTIONARY
  5
C356
330
C2FB
100
AcDbDictionary
280
     1
281
     1
  3
ACAD_XREC_ROUNDTRIP
360
C357
  0
DICTIONARY
  5
C31D
330
C2E5
100
AcDbDictionary
280
     1
281
     1
  3
ACAD_ROUNDTRIP_2008_TABLESTYLE_CELLSTYLEMAP
360
C31E
  3
ACAD_XREC_ROUNDTRIP
360
C354
  0
DICTIONARY
  5
C32E
330
C2D0
100
AcDbDictionary
280
     1
281
     1
  3
ACAD_XREC_ROUNDTRIP
360
C32F
  0
DICTIONARY
  5
C32C
330
C2CF
100
AcDbDictionary
280
     1
281
     1
  3
ACAD_XREC_ROUNDTRIP
360
C32D
  0
DICTIONARY
  5
C33A
330
C2D6
100
AcDbDictionary
280
     1
281
     1
  3
ACAD_XREC_ROUNDTRIP
360
C33B
  0
DICTIONARY
  5
C342
330
C2DA
100
AcDbDictionary
280
     1
281
     1
  3
ACAD_XREC_ROUNDTRIP
360
C343
  0
DICTIONARY
  5
C334
330
C2D3
100
AcDbDictionary
280
     1
281
     1
  3
ACAD_XREC_ROUNDTRIP
360
C335
  0
DICTIONARY
  5
C338
330
C2D5
100
AcDbDictionary
280
     1
281
     1
  3
ACAD_XREC_ROUNDTRIP
360
C339
  0
DICTIONARY
  5
C352
330
C2E2
100
AcDbDictionary
280
     1
281
     1
  3
ACAD_XREC_ROUNDTRIP
360
C353
  0
DICTIONARY
  5
C340
330
C2D9
100
AcDbDictionary
280
     1
281
     1
  3
ACAD_XREC_ROUNDTRIP
360
C341
  0
DICTIONARY
  5
C324
330
C2CB
100
AcDbDictionary
280
     1
281
     1
  3
ACAD_XREC_ROUNDTRIP
360
C325
  0
DICTIONARY
  5
C326
330
C2CC
100
AcDbDictionary
280
     1
281
     1
  3
ACAD_XREC_ROUNDTRIP
360
C327
  0
DICTIONARY
  5
C328
330
C2CD
100
AcDbDictionary
280
     1
281
     1
  3
ACAD_XREC_ROUNDTRIP
360
C329
  0
DICTIONARY
  5
C32A
330
C2CE
100
AcDbDictionary
280
     1
281
     1
  3
ACAD_XREC_ROUNDTRIP
360
C32B
  0
DICTIONARY
  5
C332
330
C2D2
100
AcDbDictionary
280
     1
281
     1
  3
ACAD_XREC_ROUNDTRIP
360
C333
  0
DICTIONARY
  5
C34E
330
C2E0
100
AcDbDictionary
280
     1
281
     1
  3
ACAD_XREC_ROUNDTRIP
360
C34F
  0
DICTIONARY
  5
C33E
330
C2D8
100
AcDbDictionary
280
     1
281
     1
  3
ACAD_XREC_ROUNDTRIP
360
C33F
  0
DICTIONARY
  5
C350
330
C2E1
100
AcDbDictionary
280
     1
281
     1
  3
ACAD_XREC_ROUNDTRIP
360
C351
  0
DICTIONARY
  5
C336
330
C2D4
100
AcDbDictionary
280
     1
281
     1
  3
ACAD_XREC_ROUNDTRIP
360
C337
  0
DICTIONARY
  5
C34C
330
C2DF
100
AcDbDictionary
280
     1
281
     1
  3
ACAD_XREC_ROUNDTRIP
360
C34D
  0
DICTIONARY
  5
C34A
330
C2DE
100
AcDbDictionary
280
     1
281
     1
  3
ACAD_XREC_ROUNDTRIP
360
C34B
  0
DICTIONARY
  5
C344
330
C2DB
100
AcDbDictionary
280
     1
281
     1
  3
ACAD_XREC_ROUNDTRIP
360
C345
  0
DICTIONARY
  5
C346
330
C2DC
100
AcDbDictionary
280
     1
281
     1
  3
ACAD_XREC_ROUNDTRIP
360
C347
  0
DICTIONARY
  5
C33C
330
C2D7
100
AcDbDictionary
280
     1
281
     1
  3
ACAD_XREC_ROUNDTRIP
360
C33D
  0
DICTIONARY
  5
C330
330
C2D1
100
AcDbDictionary
280
     1
281
     1
  3
ACAD_XREC_ROUNDTRIP
360
C331
  0
DICTIONARY
  5
C348
330
C2DD
100
AcDbDictionary
280
     1
281
     1
  3
ACAD_XREC_ROUNDTRIP
360
C349
  0
XRECORD
  5
C359
102
{ACAD_REACTORS
330
C358
102
}
330
C358
100
AcDbXrecord
280
     1
102
DISPLAYNAME
  1
Imperial24
102
FLAGS
 90
        0
  0
XRECORD
  5
C35B
102
{ACAD_REACTORS
330
C35A
102
}
330
C35A
100
AcDbXrecord
280
     1
102
SHADEPLOT
 70
     0
102
SHADEPLOTRESLEVEL
 70
     2
102
SHADEPLOTCUSTOMDPI
 70
   300
  0
XRECORD
  5
C35D
102
{ACAD_REACTORS
330
C35C
102
}
330
C35C
100
AcDbXrecord
280
     1
102
SHADEPLOT
 70
     0
102
SHADEPLOTRESLEVEL
 70
     2
102
SHADEPLOTCUSTOMDPI
 70
   300
  0
XRECORD
  5
C322
102
{ACAD_REACTORS
330
C2BB
102
}
330
C2BB
100
AcDbXrecord
280
     1
102
MATERIAL
148
0.0
149
0.0
149
0.0
 93
        0
 94
      127
282
     0
 72
     0
 77
     0
171
     0
175
     0
179
     0
273
     0
  0
XRECORD
  5
C2BD
102
{ACAD_REACTORS
330
C2BB
102
}
330
C2BB
100
AcDbXrecord
280
     1
270
     1
271
     1
  0
XRECORD
  5
C2BC
102
{ACAD_REACTORS
330
C2BB
102
}
330
C2BB
100
AcDbXrecord
280
     1
270
     1
271
     1
  0
XRECORD
  5
C2C0
102
{ACAD_REACTORS
330
C2BB
102
}
330
C2BB
100
AcDbXrecord
280
     1
270
     1
271
     1
  0
XRECORD
  5
C2BF
102
{ACAD_REACTORS
330
C2BB
102
}
330
C2BB
100
AcDbXrecord
280
     1
270
     1
271
     1
  0
XRECORD
  5
C2C1
102
{ACAD_REACTORS
330
C2BB
102
}
330
C2BB
100
AcDbXrecord
280
     1
270
     1
271
     1
  0
XRECORD
  5
C2BE
102
{ACAD_REACTORS
330
C2BB
102
}
330
C2BB
100
AcDbXrecord
280
     1
270
     1
271
     1
  0
XRECORD
  5
C321
102
{ACAD_REACTORS
330
C2B3
102
}
330
C2B3
100
AcDbXrecord
280
     1
102
MATERIAL
148
0.0
149
0.0
149
0.0
 93
        0
 94
      127
282
     0
 72
     0
 77
     0
171
     0
175
     0
179
     0
273
     0
  0
XRECORD
  5
C2B5
102
{ACAD_REACTORS
330
C2B3
102
}
330
C2B3
100
AcDbXrecord
280
     1
270
     1
271
     1
  0
XRECORD
  5
C2B4
102
{ACAD_REACTORS
330
C2B3
102
}
330
C2B3
100
AcDbXrecord
280
     1
270
     1
271
     1
  0
XRECORD
  5
C2B8
102
{ACAD_REACTORS
330
C2B3
102
}
330
C2B3
100
AcDbXrecord
280
     1
270
     1
271
     1
  0
XRECORD
  5
C2B7
102
{ACAD_REACTORS
330
C2B3
102
}
330
C2B3
100
AcDbXrecord
280
     1
270
     1
271
     1
  0
XRECORD
  5
C2B9
102
{ACAD_REACTORS
330
C2B3
102
}
330
C2B3
100
AcDbXrecord
280
     1
270
     1
271
     1
  0
XRECORD
  5
C2B6
102
{ACAD_REACTORS
330
C2B3
102
}
330
C2B3
100
AcDbXrecord
280
     1
270
     1
271
     1
  0
XRECORD
  5
C323
102
{ACAD_REACTORS
330
C2C3
102
}
330
C2C3
100
AcDbXrecord
280
     1
102
MATERIAL
148
0.0
149
0.0
149
0.0
 93
        0
 94
      127
282
     0
 72
     0
 77
     0
171
     0
175
     0
179
     0
273
     0
  0
XRECORD
  5
C2C5
102
{ACAD_REACTORS
330
C2C3
102
}
330
C2C3
100
AcDbXrecord
280
     1
270
     1
271
     1
  0
XRECORD
  5
C2C4
102
{ACAD_REACTORS
330
C2C3
102
}
330
C2C3
100
AcDbXrecord
280
     1
270
     1
271
     1
  0
XRECORD
  5
C2C8
102
{ACAD_REACTORS
330
C2C3
102
}
330
C2C3
100
AcDbXrecord
280
     1
270
     1
271
     1
  0
XRECORD
  5
C2C7
102
{ACAD_REACTORS
330
C2C3
102
}
330
C2C3
100
AcDbXrecord
280
     1
270
     1
271
     1
  0
XRECORD
  5
C2C9
102
{ACAD_REACTORS
330
C2C3
102
}
330
C2C3
100
AcDbXrecord
280
     1
270
     1
271
     1
  0
XRECORD
  5
C2C6
102
{ACAD_REACTORS
330
C2C3
102
}
330
C2C3
100
AcDbXrecord
280
     1
270
     1
271
     1
  0
XRECORD
  5
C357
102
{ACAD_REACTORS
330
C356
102
}
330
C356
100
AcDbXrecord
280
     1
102
DISPLAYNAME
  1
Imperial24
102
FLAGS
 90
        0
  0
CELLSTYLEMAP
  5
C31E
102
{ACAD_REACTORS
330
C31D
102
}
330
C31D
100
AcDbCellStyleMap
 90
        3
300
CELLSTYLE
  1
TABLEFORMAT_BEGIN
 90
        5
170
     1
 91
        0
 92
    32768
 62
   257
 93
        1
300
CONTENTFORMAT
  1
CONTENTFORMAT_BEGIN
 90
        0
 91
        0
 92
      512
 93
        0
300

 40
0.0
140
1.0
 94
        5
 62
     0
340
BF53
144
0.25
309
CONTENTFORMAT_END
171
     0
 94
        0
309
TABLEFORMAT_END
  1
CELLSTYLE_BEGIN
 90
        1
 91
        1
300
_TITLE
309
CELLSTYLE_END
300
CELLSTYLE
  1
TABLEFORMAT_BEGIN
 90
        5
170
     1
 91
        0
 92
        0
 62
   257
 93
        1
300
CONTENTFORMAT
  1
CONTENTFORMAT_BEGIN
 90
        0
 91
        0
 92
      512
 93
        0
300

 40
0.0
140
1.0
 94
        5
 62
     0
340
BF53
144
0.18
309
CONTENTFORMAT_END
171
     0
 94
        0
309
TABLEFORMAT_END
  1
CELLSTYLE_BEGIN
 90
        2
 91
        1
300
_HEADER
309
CELLSTYLE_END
300
CELLSTYLE
  1
TABLEFORMAT_BEGIN
 90
        5
170
     1
 91
        0
 92
        0
 62
   257
 93
        1
300
CONTENTFORMAT
  1
CONTENTFORMAT_BEGIN
 90
        0
 91
        0
 92
      512
 93
        0
300

 40
0.0
140
1.0
 94
        2
 62
     0
340
BF53
144
0.18
309
CONTENTFORMAT_END
171
     0
 94
        0
309
TABLEFORMAT_END
  1
CELLSTYLE_BEGIN
 90
        3
 91
        2
300
_DATA
309
CELLSTYLE_END
  0
XRECORD
  5
C354
102
{ACAD_REACTORS
330
C31D
102
}
330
C31D
100
AcDbXrecord
280
     1
102
ACAD_ROUNDTRIP_PRE2007_TABLESTYLE
 90
      512
 91
        0
  1

 92
      512
 93
        0
  2

 94
      512
 95
        0
  3

  0
XRECORD
  5
C32F
102
{ACAD_REACTORS
330
C32E
102
}
330
C32E
100
AcDbXrecord
280
     1
102
RTVSPost2010Prop28
280
     1
102
RTVSPost2010PropOp28
 70
     1
102
RTVSPost2010Prop29
280
     1
102
RTVSPost2010PropOp29
 70
     1
102
RTVSPost2010Prop30
280
     0
102
RTVSPost2010PropOp30
 70
     1
102
RTVSPost2010Prop31
280
     0
102
RTVSPost2010PropOp31
 70
     1
102
RTVSPost2010Prop32
280
     0
102
RTVSPost2010PropOp32
 70
     1
102
RTVSPost2010Prop33
280
     0
102
RTVSPost2010PropOp33
 70
     1
102
RTVSPost2010Prop34
280
     0
102
RTVSPost2010PropOp34
 70
     1
102
RTVSPost2010Prop35
280
     0
102
RTVSPost2010PropOp35
 70
     1
102
RTVSPost2010Prop36
280
     0
102
RTVSPost2010PropOp36
 70
     1
102
RTVSPost2010Prop37
 90
       50
102
RTVSPost2010PropOp37
 70
     1
102
RTVSPost2010Prop38
140
0.0
102
RTVSPost2010PropOp38
 70
     1
102
RTVSPost2010Prop39
140
1.0
102
RTVSPost2010PropOp39
 70
     1
102
RTVSPost2010Prop40
 90
        0
102
RTVSPost2010PropOp40
 70
     1
102
RTVSPost2010Prop41ColorIndex
 90
       18
102
RTVSPost2010Prop41ColorRGB
 90
        0
102
RTVSPost2010PropOp41
 70
     1
102
RTVSPost2010Prop42
 90
       50
102
RTVSPost2010PropOp42
 70
     1
102
RTVSPost2010Prop43
 90
        3
102
RTVSPost2010PropOp43
 70
     1
102
RTVSPost2010Prop44ColorIndex
 90
        5
102
RTVSPost2010Prop44ColorRGB
 90
      255
102
RTVSPost2010PropOp44
 70
     1
102
RTVSPost2010Prop45
280
     0
102
RTVSPost2010PropOp45
 70
     1
102
RTVSPost2010Prop46
 90
       50
102
RTVSPost2010PropOp46
 70
     1
102
RTVSPost2010Prop47
 90
       50
102
RTVSPost2010PropOp47
 70
     1
102
RTVSPost2010Prop48
 90
       50
102
RTVSPost2010PropOp48
 70
     1
102
RTVSPost2010Prop49
280
     0
102
RTVSPost2010PropOp49
 70
     1
102
RTVSPost2010Prop50
 90
       50
102
RTVSPost2010PropOp50
 70
     1
102
RTVSPost2010Prop51ColorIndex
 90
      256
102
RTVSPost2010Prop51ColorRGB
 90
-16777216
102
RTVSPost2010PropOp51
 70
     0
102
RTVSPost2010Prop52
140
1.0
102
RTVSPost2010PropOp52
 70
     0
102
RTVSPost2010Prop53
 90
        2
102
RTVSPost2010PropOp53
 70
     1
102
RTVSPost2010Prop54
  1
strokes_ogs.tif
102
RTVSPost2010PropOp54
 70
     1
102
RTVSPost2010Prop55
280
     0
102
RTVSPost2010PropOp55
 70
     1
102
RTVSPost2010Prop56
140
1.0
102
RTVSPost2010PropOp56
 70
     1
102
RTVSPost2010Prop57
140
1.0
102
RTVSPost2010PropOp57
 70
     1
102
RTVSPropertyOp0
 70
     1
102
RTVSPropertyOp1
 70
     1
102
RTVSPropertyOp2
 70
     1
102
RTVSPropertyOp3
 70
     1
102
RTVSPropertyOp4
 70
     1
102
RTVSPropertyOp5
 70
     1
102
RTVSPropertyOp6
 70
     1
102
RTVSPropertyOp7
 70
     1
102
RTVSPropertyOp8
 70
     1
102
RTVSPropertyOp9
 70
     1
102
RTVSPropertyOp10
 70
     1
102
RTVSPropertyOp11
 70
     1
102
RTVSPropertyOp12
 70
     1
102
RTVSPropertyOp13
 70
     1
102
RTVSPropertyOp14
 70
     1
102
RTVSPropertyOp15
 70
     1
102
RTVSPropertyOp16
 70
     1
102
RTVSPropertyOp17
 70
     1
102
RTVSPropertyOp18
 70
     1
102
RTVSPropertyOp19
 70
     1
102
RTVSPropertyOp20
 70
     1
102
RTVSPropertyOp21
 70
     1
102
RTVSPropertyOp22
 70
     1
102
RTVSPropertyOp23
 70
     1
102
RTVSPropertyOp24
 70
     1
102
RTVSPropertyOp25
 70
     1
102
RTVSPropertyOp26
 70
     1
102
RTVSPropertyOp27
 70
     1
102
RTVSPropertyOp28
 70
     1
102
RTVSPropertyOp29
 70
     1
102
RTVSPropertyOp30
 70
     1
102
RTVSPropertyOp31
 70
     1
102
RTVSPropertyOp32
 70
     1
102
RTVSPropertyOp33
 70
     1
102
RTVSPropertyOp34
 70
     1
102
RTVSPropertyOp35
 70
     1
102
RTVSPropertyOp36
 70
     1
102
RTVSPropertyOp37
 70
     1
102
RTVSPropertyOp38
 70
     1
102
RTVSPropertyOp39
 70
     1
102
RTVSPropertyOp40
 70
     1
102
RTVSPropertyOp41
 70
     1
102
RTVSPropertyOp42
 70
     1
102
RTVSPropertyOp43
 70
     1
102
RTVSPropertyOp44
 70
     1
102
RTVSPropertyOp45
 70
     1
102
RTVSPropertyOp46
 70
     1
102
RTVSPropertyOp47
 70
     1
102
RTVSPropertyOp48
 70
     1
102
RTVSPropertyOp49
 70
     1
102
RTVSPropertyOp50
 70
     1
102
RTVSPropertyOp51
 70
     0
102
RTVSPropertyOp52
 70
     0
102
RTVSPropertyOp53
 70
     1
102
RTVSPropertyOp54
 70
     1
102
RTVSPropertyOp55
 70
     1
102
RTVSPropertyOp56
 70
     1
102
RTVSPropertyOp57
 70
     1
102
RTVSPropertyOp58
 70
     1
102
RTVSPropertyOp59
 70
     1
102
RTVSPropertyOp60
 70
     1
102
RTVSPropertyOp61
 70
     1
102
RTVSPropertyOp62
 70
     1
  0
XRECORD
  5
C32D
102
{ACAD_REACTORS
330
C32C
102
}
330
C32C
100
AcDbXrecord
280
     1
102
RTVSPost2010Prop28
280
     0
102
RTVSPost2010PropOp28
 70
     1
102
RTVSPost2010Prop29
280
     1
102
RTVSPost2010PropOp29
 70
     1
102
RTVSPost2010Prop30
280
     1
102
RTVSPost2010PropOp30
 70
     1
102
RTVSPost2010Prop31
280
     0
102
RTVSPost2010PropOp31
 70
     1
102
RTVSPost2010Prop32
280
     0
102
RTVSPost2010PropOp32
 70
     1
102
RTVSPost2010Prop33
280
     0
102
RTVSPost2010PropOp33
 70
     1
102
RTVSPost2010Prop34
280
     0
102
RTVSPost2010PropOp34
 70
     1
102
RTVSPost2010Prop35
280
     0
102
RTVSPost2010PropOp35
 70
     1
102
RTVSPost2010Prop36
280
     0
102
RTVSPost2010PropOp36
 70
     1
102
RTVSPost2010Prop37
 90
       50
102
RTVSPost2010PropOp37
 70
     1
102
RTVSPost2010Prop38
140
0.0
102
RTVSPost2010PropOp38
 70
     1
102
RTVSPost2010Prop39
140
1.0
102
RTVSPost2010PropOp39
 70
     1
102
RTVSPost2010Prop40
 90
        0
102
RTVSPost2010PropOp40
 70
     1
102
RTVSPost2010Prop41ColorIndex
 90
       18
102
RTVSPost2010Prop41ColorRGB
 90
        0
102
RTVSPost2010PropOp41
 70
     1
102
RTVSPost2010Prop42
 90
       50
102
RTVSPost2010PropOp42
 70
     1
102
RTVSPost2010Prop43
 90
        3
102
RTVSPost2010PropOp43
 70
     1
102
RTVSPost2010Prop44ColorIndex
 90
        5
102
RTVSPost2010Prop44ColorRGB
 90
      255
102
RTVSPost2010PropOp44
 70
     1
102
RTVSPost2010Prop45
280
     0
102
RTVSPost2010PropOp45
 70
     1
102
RTVSPost2010Prop46
 90
       50
102
RTVSPost2010PropOp46
 70
     1
102
RTVSPost2010Prop47
 90
       50
102
RTVSPost2010PropOp47
 70
     1
102
RTVSPost2010Prop48
 90
       50
102
RTVSPost2010PropOp48
 70
     1
102
RTVSPost2010Prop49
280
     0
102
RTVSPost2010PropOp49
 70
     1
102
RTVSPost2010Prop50
 90
       50
102
RTVSPost2010PropOp50
 70
     1
102
RTVSPost2010Prop51ColorIndex
 90
      256
102
RTVSPost2010Prop51ColorRGB
 90
-16777216
102
RTVSPost2010PropOp51
 70
     0
102
RTVSPost2010Prop52
140
1.0
102
RTVSPost2010PropOp52
 70
     0
102
RTVSPost2010Prop53
 90
        2
102
RTVSPost2010PropOp53
 70
     1
102
RTVSPost2010Prop54
  1
strokes_ogs.tif
102
RTVSPost2010PropOp54
 70
     1
102
RTVSPost2010Prop55
280
     0
102
RTVSPost2010PropOp55
 70
     1
102
RTVSPost2010Prop56
140
1.0
102
RTVSPost2010PropOp56
 70
     1
102
RTVSPost2010Prop57
140
1.0
102
RTVSPost2010PropOp57
 70
     1
102
RTVSPropertyOp0
 70
     1
102
RTVSPropertyOp1
 70
     1
102
RTVSPropertyOp2
 70
     1
102
RTVSPropertyOp3
 70
     1
102
RTVSPropertyOp4
 70
     1
102
RTVSPropertyOp5
 70
     1
102
RTVSPropertyOp6
 70
     1
102
RTVSPropertyOp7
 70
     1
102
RTVSPropertyOp8
 70
     1
102
RTVSPropertyOp9
 70
     1
102
RTVSPropertyOp10
 70
     1
102
RTVSPropertyOp11
 70
     1
102
RTVSPropertyOp12
 70
     1
102
RTVSPropertyOp13
 70
     1
102
RTVSPropertyOp14
 70
     1
102
RTVSPropertyOp15
 70
     1
102
RTVSPropertyOp16
 70
     1
102
RTVSPropertyOp17
 70
     1
102
RTVSPropertyOp18
 70
     1
102
RTVSPropertyOp19
 70
     1
102
RTVSPropertyOp20
 70
     1
102
RTVSPropertyOp21
 70
     1
102
RTVSPropertyOp22
 70
     1
102
RTVSPropertyOp23
 70
     1
102
RTVSPropertyOp24
 70
     1
102
RTVSPropertyOp25
 70
     1
102
RTVSPropertyOp26
 70
     1
102
RTVSPropertyOp27
 70
     1
102
RTVSPropertyOp28
 70
     1
102
RTVSPropertyOp29
 70
     1
102
RTVSPropertyOp30
 70
     1
102
RTVSPropertyOp31
 70
     1
102
RTVSPropertyOp32
 70
     1
102
RTVSPropertyOp33
 70
     1
102
RTVSPropertyOp34
 70
     1
102
RTVSPropertyOp35
 70
     1
102
RTVSPropertyOp36
 70
     1
102
RTVSPropertyOp37
 70
     1
102
RTVSPropertyOp38
 70
     1
102
RTVSPropertyOp39
 70
     1
102
RTVSPropertyOp40
 70
     1
102
RTVSPropertyOp41
 70
     1
102
RTVSPropertyOp42
 70
     1
102
RTVSPropertyOp43
 70
     1
102
RTVSPropertyOp44
 70
     1
102
RTVSPropertyOp45
 70
     1
102
RTVSPropertyOp46
 70
     1
102
RTVSPropertyOp47
 70
     1
102
RTVSPropertyOp48
 70
     1
102
RTVSPropertyOp49
 70
     1
102
RTVSPropertyOp50
 70
     1
102
RTVSPropertyOp51
 70
     0
102
RTVSPropertyOp52
 70
     0
102
RTVSPropertyOp53
 70
     1
102
RTVSPropertyOp54
 70
     1
102
RTVSPropertyOp55
 70
     1
102
RTVSPropertyOp56
 70
     1
102
RTVSPropertyOp57
 70
     1
102
RTVSPropertyOp58
 70
     1
102
RTVSPropertyOp59
 70
     1
102
RTVSPropertyOp60
 70
     1
102
RTVSPropertyOp61
 70
     1
102
RTVSPropertyOp62
 70
     1
  0
XRECORD
  5
C33B
102
{ACAD_REACTORS
330
C33A
102
}
330
C33A
100
AcDbXrecord
280
     1
102
RTVSPost2010Prop28
280
     0
102
RTVSPost2010PropOp28
 70
     1
102
RTVSPost2010Prop29
280
     1
102
RTVSPost2010PropOp29
 70
     1
102
RTVSPost2010Prop30
280
     1
102
RTVSPost2010PropOp30
 70
     1
102
RTVSPost2010Prop31
280
     0
102
RTVSPost2010PropOp31
 70
     1
102
RTVSPost2010Prop32
280
     0
102
RTVSPost2010PropOp32
 70
     1
102
RTVSPost2010Prop33
280
     0
102
RTVSPost2010PropOp33
 70
     1
102
RTVSPost2010Prop34
280
     0
102
RTVSPost2010PropOp34
 70
     1
102
RTVSPost2010Prop35
280
     0
102
RTVSPost2010PropOp35
 70
     1
102
RTVSPost2010Prop36
280
     0
102
RTVSPost2010PropOp36
 70
     1
102
RTVSPost2010Prop37
 90
       50
102
RTVSPost2010PropOp37
 70
     1
102
RTVSPost2010Prop38
140
0.0
102
RTVSPost2010PropOp38
 70
     1
102
RTVSPost2010Prop39
140
1.0
102
RTVSPost2010PropOp39
 70
     1
102
RTVSPost2010Prop40
 90
        0
102
RTVSPost2010PropOp40
 70
     1
102
RTVSPost2010Prop41ColorIndex
 90
       18
102
RTVSPost2010Prop41ColorRGB
 90
        0
102
RTVSPost2010PropOp41
 70
     1
102
RTVSPost2010Prop42
 90
       50
102
RTVSPost2010PropOp42
 70
     1
102
RTVSPost2010Prop43
 90
        3
102
RTVSPost2010PropOp43
 70
     1
102
RTVSPost2010Prop44ColorIndex
 90
        5
102
RTVSPost2010Prop44ColorRGB
 90
      255
102
RTVSPost2010PropOp44
 70
     1
102
RTVSPost2010Prop45
280
     0
102
RTVSPost2010PropOp45
 70
     1
102
RTVSPost2010Prop46
 90
       50
102
RTVSPost2010PropOp46
 70
     1
102
RTVSPost2010Prop47
 90
       50
102
RTVSPost2010PropOp47
 70
     1
102
RTVSPost2010Prop48
 90
       50
102
RTVSPost2010PropOp48
 70
     1
102
RTVSPost2010Prop49
280
     0
102
RTVSPost2010PropOp49
 70
     1
102
RTVSPost2010Prop50
 90
       50
102
RTVSPost2010PropOp50
 70
     1
102
RTVSPost2010Prop51ColorIndex
 90
      256
102
RTVSPost2010Prop51ColorRGB
 90
-16777216
102
RTVSPost2010PropOp51
 70
     0
102
RTVSPost2010Prop52
140
1.0
102
RTVSPost2010PropOp52
 70
     0
102
RTVSPost2010Prop53
 90
        2
102
RTVSPost2010PropOp53
 70
     1
102
RTVSPost2010Prop54
  1
strokes_ogs.tif
102
RTVSPost2010PropOp54
 70
     1
102
RTVSPost2010Prop55
280
     0
102
RTVSPost2010PropOp55
 70
     1
102
RTVSPost2010Prop56
140
1.0
102
RTVSPost2010PropOp56
 70
     1
102
RTVSPost2010Prop57
140
1.0
102
RTVSPost2010PropOp57
 70
     1
102
RTVSPropertyOp0
 70
     1
102
RTVSPropertyOp1
 70
     1
102
RTVSPropertyOp2
 70
     1
102
RTVSPropertyOp3
 70
     1
102
RTVSPropertyOp4
 70
     1
102
RTVSPropertyOp5
 70
     1
102
RTVSPropertyOp6
 70
     1
102
RTVSPropertyOp7
 70
     1
102
RTVSPropertyOp8
 70
     1
102
RTVSPropertyOp9
 70
     1
102
RTVSPropertyOp10
 70
     1
102
RTVSPropertyOp11
 70
     1
102
RTVSPropertyOp12
 70
     1
102
RTVSPropertyOp13
 70
     1
102
RTVSPropertyOp14
 70
     1
102
RTVSPropertyOp15
 70
     1
102
RTVSPropertyOp16
 70
     1
102
RTVSPropertyOp17
 70
     1
102
RTVSPropertyOp18
 70
     1
102
RTVSPropertyOp19
 70
     1
102
RTVSPropertyOp20
 70
     1
102
RTVSPropertyOp21
 70
     1
102
RTVSPropertyOp22
 70
     1
102
RTVSPropertyOp23
 70
     1
102
RTVSPropertyOp24
 70
     1
102
RTVSPropertyOp25
 70
     1
102
RTVSPropertyOp26
 70
     1
102
RTVSPropertyOp27
 70
     1
102
RTVSPropertyOp28
 70
     1
102
RTVSPropertyOp29
 70
     1
102
RTVSPropertyOp30
 70
     1
102
RTVSPropertyOp31
 70
     1
102
RTVSPropertyOp32
 70
     1
102
RTVSPropertyOp33
 70
     1
102
RTVSPropertyOp34
 70
     1
102
RTVSPropertyOp35
 70
     1
102
RTVSPropertyOp36
 70
     1
102
RTVSPropertyOp37
 70
     1
102
RTVSPropertyOp38
 70
     1
102
RTVSPropertyOp39
 70
     1
102
RTVSPropertyOp40
 70
     1
102
RTVSPropertyOp41
 70
     1
102
RTVSPropertyOp42
 70
     1
102
RTVSPropertyOp43
 70
     1
102
RTVSPropertyOp44
 70
     1
102
RTVSPropertyOp45
 70
     1
102
RTVSPropertyOp46
 70
     1
102
RTVSPropertyOp47
 70
     1
102
RTVSPropertyOp48
 70
     1
102
RTVSPropertyOp49
 70
     1
102
RTVSPropertyOp50
 70
     1
102
RTVSPropertyOp51
 70
     0
102
RTVSPropertyOp52
 70
     0
102
RTVSPropertyOp53
 70
     1
102
RTVSPropertyOp54
 70
     1
102
RTVSPropertyOp55
 70
     1
102
RTVSPropertyOp56
 70
     1
102
RTVSPropertyOp57
 70
     1
102
RTVSPropertyOp58
 70
     1
102
RTVSPropertyOp59
 70
     1
102
RTVSPropertyOp60
 70
     1
102
RTVSPropertyOp61
 70
     1
102
RTVSPropertyOp62
 70
     1
  0
XRECORD
  5
C343
102
{ACAD_REACTORS
330
C342
102
}
330
C342
100
AcDbXrecord
280
     1
102
RTVSPost2010Prop28
280
     0
102
RTVSPost2010PropOp28
 70
     1
102
RTVSPost2010Prop29
280
     1
102
RTVSPost2010PropOp29
 70
     1
102
RTVSPost2010Prop30
280
     1
102
RTVSPost2010PropOp30
 70
     1
102
RTVSPost2010Prop31
280
     0
102
RTVSPost2010PropOp31
 70
     1
102
RTVSPost2010Prop32
280
     0
102
RTVSPost2010PropOp32
 70
     1
102
RTVSPost2010Prop33
280
     0
102
RTVSPost2010PropOp33
 70
     1
102
RTVSPost2010Prop34
280
     0
102
RTVSPost2010PropOp34
 70
     1
102
RTVSPost2010Prop35
280
     0
102
RTVSPost2010PropOp35
 70
     1
102
RTVSPost2010Prop36
280
     0
102
RTVSPost2010PropOp36
 70
     1
102
RTVSPost2010Prop37
 90
       50
102
RTVSPost2010PropOp37
 70
     1
102
RTVSPost2010Prop38
140
0.0
102
RTVSPost2010PropOp38
 70
     1
102
RTVSPost2010Prop39
140
1.0
102
RTVSPost2010PropOp39
 70
     1
102
RTVSPost2010Prop40
 90
        0
102
RTVSPost2010PropOp40
 70
     1
102
RTVSPost2010Prop41ColorIndex
 90
       18
102
RTVSPost2010Prop41ColorRGB
 90
        0
102
RTVSPost2010PropOp41
 70
     1
102
RTVSPost2010Prop42
 90
       50
102
RTVSPost2010PropOp42
 70
     1
102
RTVSPost2010Prop43
 90
        3
102
RTVSPost2010PropOp43
 70
     1
102
RTVSPost2010Prop44ColorIndex
 90
        5
102
RTVSPost2010Prop44ColorRGB
 90
      255
102
RTVSPost2010PropOp44
 70
     1
102
RTVSPost2010Prop45
280
     0
102
RTVSPost2010PropOp45
 70
     1
102
RTVSPost2010Prop46
 90
       50
102
RTVSPost2010PropOp46
 70
     1
102
RTVSPost2010Prop47
 90
       50
102
RTVSPost2010PropOp47
 70
     1
102
RTVSPost2010Prop48
 90
       50
102
RTVSPost2010PropOp48
 70
     1
102
RTVSPost2010Prop49
280
     0
102
RTVSPost2010PropOp49
 70
     1
102
RTVSPost2010Prop50
 90
       50
102
RTVSPost2010PropOp50
 70
     1
102
RTVSPost2010Prop51ColorIndex
 90
      256
102
RTVSPost2010Prop51ColorRGB
 90
-16777216
102
RTVSPost2010PropOp51
 70
     0
102
RTVSPost2010Prop52
140
1.0
102
RTVSPost2010PropOp52
 70
     0
102
RTVSPost2010Prop53
 90
        2
102
RTVSPost2010PropOp53
 70
     1
102
RTVSPost2010Prop54
  1
strokes_ogs.tif
102
RTVSPost2010PropOp54
 70
     1
102
RTVSPost2010Prop55
280
     0
102
RTVSPost2010PropOp55
 70
     1
102
RTVSPost2010Prop56
140
1.0
102
RTVSPost2010PropOp56
 70
     1
102
RTVSPost2010Prop57
140
1.0
102
RTVSPost2010PropOp57
 70
     1
102
RTVSPropertyOp0
 70
     1
102
RTVSPropertyOp1
 70
     1
102
RTVSPropertyOp2
 70
     1
102
RTVSPropertyOp3
 70
     1
102
RTVSPropertyOp4
 70
     1
102
RTVSPropertyOp5
 70
     1
102
RTVSPropertyOp6
 70
     1
102
RTVSPropertyOp7
 70
     1
102
RTVSPropertyOp8
 70
     1
102
RTVSPropertyOp9
 70
     1
102
RTVSPropertyOp10
 70
     1
102
RTVSPropertyOp11
 70
     1
102
RTVSPropertyOp12
 70
     1
102
RTVSPropertyOp13
 70
     1
102
RTVSPropertyOp14
 70
     1
102
RTVSPropertyOp15
 70
     1
102
RTVSPropertyOp16
 70
     1
102
RTVSPropertyOp17
 70
     1
102
RTVSPropertyOp18
 70
     1
102
RTVSPropertyOp19
 70
     1
102
RTVSPropertyOp20
 70
     1
102
RTVSPropertyOp21
 70
     1
102
RTVSPropertyOp22
 70
     1
102
RTVSPropertyOp23
 70
     1
102
RTVSPropertyOp24
 70
     1
102
RTVSPropertyOp25
 70
     1
102
RTVSPropertyOp26
 70
     1
102
RTVSPropertyOp27
 70
     1
102
RTVSPropertyOp28
 70
     1
102
RTVSPropertyOp29
 70
     1
102
RTVSPropertyOp30
 70
     1
102
RTVSPropertyOp31
 70
     1
102
RTVSPropertyOp32
 70
     1
102
RTVSPropertyOp33
 70
     1
102
RTVSPropertyOp34
 70
     1
102
RTVSPropertyOp35
 70
     1
102
RTVSPropertyOp36
 70
     1
102
RTVSPropertyOp37
 70
     1
102
RTVSPropertyOp38
 70
     1
102
RTVSPropertyOp39
 70
     1
102
RTVSPropertyOp40
 70
     1
102
RTVSPropertyOp41
 70
     1
102
RTVSPropertyOp42
 70
     1
102
RTVSPropertyOp43
 70
     1
102
RTVSPropertyOp44
 70
     1
102
RTVSPropertyOp45
 70
     1
102
RTVSPropertyOp46
 70
     1
102
RTVSPropertyOp47
 70
     1
102
RTVSPropertyOp48
 70
     1
102
RTVSPropertyOp49
 70
     1
102
RTVSPropertyOp50
 70
     1
102
RTVSPropertyOp51
 70
     0
102
RTVSPropertyOp52
 70
     0
102
RTVSPropertyOp53
 70
     1
102
RTVSPropertyOp54
 70
     1
102
RTVSPropertyOp55
 70
     1
102
RTVSPropertyOp56
 70
     1
102
RTVSPropertyOp57
 70
     1
102
RTVSPropertyOp58
 70
     1
102
RTVSPropertyOp59
 70
     1
102
RTVSPropertyOp60
 70
     1
102
RTVSPropertyOp61
 70
     1
102
RTVSPropertyOp62
 70
     1
  0
XRECORD
  5
C335
102
{ACAD_REACTORS
330
C334
102
}
330
C334
100
AcDbXrecord
280
     1
102
RTVSPost2010Prop28
280
     0
102
RTVSPost2010PropOp28
 70
     1
102
RTVSPost2010Prop29
280
     1
102
RTVSPost2010PropOp29
 70
     1
102
RTVSPost2010Prop30
280
     1
102
RTVSPost2010PropOp30
 70
     1
102
RTVSPost2010Prop31
280
     0
102
RTVSPost2010PropOp31
 70
     1
102
RTVSPost2010Prop32
280
     0
102
RTVSPost2010PropOp32
 70
     1
102
RTVSPost2010Prop33
280
     0
102
RTVSPost2010PropOp33
 70
     1
102
RTVSPost2010Prop34
280
     0
102
RTVSPost2010PropOp34
 70
     1
102
RTVSPost2010Prop35
280
     0
102
RTVSPost2010PropOp35
 70
     1
102
RTVSPost2010Prop36
280
     0
102
RTVSPost2010PropOp36
 70
     1
102
RTVSPost2010Prop37
 90
       50
102
RTVSPost2010PropOp37
 70
     1
102
RTVSPost2010Prop38
140
0.0
102
RTVSPost2010PropOp38
 70
     1
102
RTVSPost2010Prop39
140
1.0
102
RTVSPost2010PropOp39
 70
     1
102
RTVSPost2010Prop40
 90
        0
102
RTVSPost2010PropOp40
 70
     1
102
RTVSPost2010Prop41ColorIndex
 90
       18
102
RTVSPost2010Prop41ColorRGB
 90
        0
102
RTVSPost2010PropOp41
 70
     1
102
RTVSPost2010Prop42
 90
       50
102
RTVSPost2010PropOp42
 70
     1
102
RTVSPost2010Prop43
 90
        3
102
RTVSPost2010PropOp43
 70
     1
102
RTVSPost2010Prop44ColorIndex
 90
        5
102
RTVSPost2010Prop44ColorRGB
 90
      255
102
RTVSPost2010PropOp44
 70
     1
102
RTVSPost2010Prop45
280
     0
102
RTVSPost2010PropOp45
 70
     1
102
RTVSPost2010Prop46
 90
       50
102
RTVSPost2010PropOp46
 70
     1
102
RTVSPost2010Prop47
 90
       50
102
RTVSPost2010PropOp47
 70
     1
102
RTVSPost2010Prop48
 90
       50
102
RTVSPost2010PropOp48
 70
     1
102
RTVSPost2010Prop49
280
     0
102
RTVSPost2010PropOp49
 70
     1
102
RTVSPost2010Prop50
 90
       50
102
RTVSPost2010PropOp50
 70
     1
102
RTVSPost2010Prop51ColorIndex
 90
      256
102
RTVSPost2010Prop51ColorRGB
 90
-16777216
102
RTVSPost2010PropOp51
 70
     0
102
RTVSPost2010Prop52
140
1.0
102
RTVSPost2010PropOp52
 70
     0
102
RTVSPost2010Prop53
 90
        2
102
RTVSPost2010PropOp53
 70
     1
102
RTVSPost2010Prop54
  1
strokes_ogs.tif
102
RTVSPost2010PropOp54
 70
     1
102
RTVSPost2010Prop55
280
     0
102
RTVSPost2010PropOp55
 70
     1
102
RTVSPost2010Prop56
140
1.0
102
RTVSPost2010PropOp56
 70
     1
102
RTVSPost2010Prop57
140
1.0
102
RTVSPost2010PropOp57
 70
     1
102
RTVSPropertyOp0
 70
     1
102
RTVSPropertyOp1
 70
     1
102
RTVSPropertyOp2
 70
     1
102
RTVSPropertyOp3
 70
     1
102
RTVSPropertyOp4
 70
     1
102
RTVSPropertyOp5
 70
     1
102
RTVSPropertyOp6
 70
     1
102
RTVSPropertyOp7
 70
     1
102
RTVSPropertyOp8
 70
     1
102
RTVSPropertyOp9
 70
     1
102
RTVSPropertyOp10
 70
     1
102
RTVSPropertyOp11
 70
     1
102
RTVSPropertyOp12
 70
     1
102
RTVSPropertyOp13
 70
     1
102
RTVSPropertyOp14
 70
     1
102
RTVSPropertyOp15
 70
     1
102
RTVSPropertyOp16
 70
     1
102
RTVSPropertyOp17
 70
     1
102
RTVSPropertyOp18
 70
     1
102
RTVSPropertyOp19
 70
     1
102
RTVSPropertyOp20
 70
     1
102
RTVSPropertyOp21
 70
     1
102
RTVSPropertyOp22
 70
     1
102
RTVSPropertyOp23
 70
     1
102
RTVSPropertyOp24
 70
     1
102
RTVSPropertyOp25
 70
     1
102
RTVSPropertyOp26
 70
     1
102
RTVSPropertyOp27
 70
     1
102
RTVSPropertyOp28
 70
     1
102
RTVSPropertyOp29
 70
     1
102
RTVSPropertyOp30
 70
     1
102
RTVSPropertyOp31
 70
     1
102
RTVSPropertyOp32
 70
     1
102
RTVSPropertyOp33
 70
     1
102
RTVSPropertyOp34
 70
     1
102
RTVSPropertyOp35
 70
     1
102
RTVSPropertyOp36
 70
     1
102
RTVSPropertyOp37
 70
     1
102
RTVSPropertyOp38
 70
     1
102
RTVSPropertyOp39
 70
     1
102
RTVSPropertyOp40
 70
     1
102
RTVSPropertyOp41
 70
     1
102
RTVSPropertyOp42
 70
     1
102
RTVSPropertyOp43
 70
     1
102
RTVSPropertyOp44
 70
     1
102
RTVSPropertyOp45
 70
     1
102
RTVSPropertyOp46
 70
     1
102
RTVSPropertyOp47
 70
     1
102
RTVSPropertyOp48
 70
     1
102
RTVSPropertyOp49
 70
     1
102
RTVSPropertyOp50
 70
     1
102
RTVSPropertyOp51
 70
     0
102
RTVSPropertyOp52
 70
     0
102
RTVSPropertyOp53
 70
     1
102
RTVSPropertyOp54
 70
     1
102
RTVSPropertyOp55
 70
     1
102
RTVSPropertyOp56
 70
     1
102
RTVSPropertyOp57
 70
     1
102
RTVSPropertyOp58
 70
     1
102
RTVSPropertyOp59
 70
     1
102
RTVSPropertyOp60
 70
     1
102
RTVSPropertyOp61
 70
     1
102
RTVSPropertyOp62
 70
     1
  0
XRECORD
  5
C339
102
{ACAD_REACTORS
330
C338
102
}
330
C338
100
AcDbXrecord
280
     1
102
RTVSPost2010Prop28
280
     0
102
RTVSPost2010PropOp28
 70
     1
102
RTVSPost2010Prop29
280
     1
102
RTVSPost2010PropOp29
 70
     1
102
RTVSPost2010Prop30
280
     1
102
RTVSPost2010PropOp30
 70
     1
102
RTVSPost2010Prop31
280
     0
102
RTVSPost2010PropOp31
 70
     1
102
RTVSPost2010Prop32
280
     0
102
RTVSPost2010PropOp32
 70
     1
102
RTVSPost2010Prop33
280
     0
102
RTVSPost2010PropOp33
 70
     1
102
RTVSPost2010Prop34
280
     0
102
RTVSPost2010PropOp34
 70
     1
102
RTVSPost2010Prop35
280
     0
102
RTVSPost2010PropOp35
 70
     1
102
RTVSPost2010Prop36
280
     0
102
RTVSPost2010PropOp36
 70
     1
102
RTVSPost2010Prop37
 90
       50
102
RTVSPost2010PropOp37
 70
     1
102
RTVSPost2010Prop38
140
0.0
102
RTVSPost2010PropOp38
 70
     1
102
RTVSPost2010Prop39
140
1.0
102
RTVSPost2010PropOp39
 70
     1
102
RTVSPost2010Prop40
 90
        0
102
RTVSPost2010PropOp40
 70
     1
102
RTVSPost2010Prop41ColorIndex
 90
       18
102
RTVSPost2010Prop41ColorRGB
 90
        0
102
RTVSPost2010PropOp41
 70
     1
102
RTVSPost2010Prop42
 90
       50
102
RTVSPost2010PropOp42
 70
     1
102
RTVSPost2010Prop43
 90
        3
102
RTVSPost2010PropOp43
 70
     1
102
RTVSPost2010Prop44ColorIndex
 90
        5
102
RTVSPost2010Prop44ColorRGB
 90
      255
102
RTVSPost2010PropOp44
 70
     1
102
RTVSPost2010Prop45
280
     0
102
RTVSPost2010PropOp45
 70
     1
102
RTVSPost2010Prop46
 90
       50
102
RTVSPost2010PropOp46
 70
     1
102
RTVSPost2010Prop47
 90
       50
102
RTVSPost2010PropOp47
 70
     1
102
RTVSPost2010Prop48
 90
       50
102
RTVSPost2010PropOp48
 70
     1
102
RTVSPost2010Prop49
280
     0
102
RTVSPost2010PropOp49
 70
     1
102
RTVSPost2010Prop50
 90
       50
102
RTVSPost2010PropOp50
 70
     1
102
RTVSPost2010Prop51ColorIndex
 90
      256
102
RTVSPost2010Prop51ColorRGB
 90
-16777216
102
RTVSPost2010PropOp51
 70
     0
102
RTVSPost2010Prop52
140
1.0
102
RTVSPost2010PropOp52
 70
     0
102
RTVSPost2010Prop53
 90
        2
102
RTVSPost2010PropOp53
 70
     1
102
RTVSPost2010Prop54
  1
strokes_ogs.tif
102
RTVSPost2010PropOp54
 70
     1
102
RTVSPost2010Prop55
280
     0
102
RTVSPost2010PropOp55
 70
     1
102
RTVSPost2010Prop56
140
1.0
102
RTVSPost2010PropOp56
 70
     1
102
RTVSPost2010Prop57
140
1.0
102
RTVSPost2010PropOp57
 70
     1
102
RTVSPropertyOp0
 70
     1
102
RTVSPropertyOp1
 70
     1
102
RTVSPropertyOp2
 70
     1
102
RTVSPropertyOp3
 70
     1
102
RTVSPropertyOp4
 70
     1
102
RTVSPropertyOp5
 70
     1
102
RTVSPropertyOp6
 70
     1
102
RTVSPropertyOp7
 70
     1
102
RTVSPropertyOp8
 70
     1
102
RTVSPropertyOp9
 70
     1
102
RTVSPropertyOp10
 70
     1
102
RTVSPropertyOp11
 70
     1
102
RTVSPropertyOp12
 70
     1
102
RTVSPropertyOp13
 70
     1
102
RTVSPropertyOp14
 70
     1
102
RTVSPropertyOp15
 70
     1
102
RTVSPropertyOp16
 70
     1
102
RTVSPropertyOp17
 70
     1
102
RTVSPropertyOp18
 70
     1
102
RTVSPropertyOp19
 70
     1
102
RTVSPropertyOp20
 70
     1
102
RTVSPropertyOp21
 70
     1
102
RTVSPropertyOp22
 70
     1
102
RTVSPropertyOp23
 70
     1
102
RTVSPropertyOp24
 70
     1
102
RTVSPropertyOp25
 70
     1
102
RTVSPropertyOp26
 70
     1
102
RTVSPropertyOp27
 70
     1
102
RTVSPropertyOp28
 70
     1
102
RTVSPropertyOp29
 70
     1
102
RTVSPropertyOp30
 70
     1
102
RTVSPropertyOp31
 70
     1
102
RTVSPropertyOp32
 70
     1
102
RTVSPropertyOp33
 70
     1
102
RTVSPropertyOp34
 70
     1
102
RTVSPropertyOp35
 70
     1
102
RTVSPropertyOp36
 70
     1
102
RTVSPropertyOp37
 70
     1
102
RTVSPropertyOp38
 70
     1
102
RTVSPropertyOp39
 70
     1
102
RTVSPropertyOp40
 70
     1
102
RTVSPropertyOp41
 70
     1
102
RTVSPropertyOp42
 70
     1
102
RTVSPropertyOp43
 70
     1
102
RTVSPropertyOp44
 70
     1
102
RTVSPropertyOp45
 70
     1
102
RTVSPropertyOp46
 70
     1
102
RTVSPropertyOp47
 70
     1
102
RTVSPropertyOp48
 70
     1
102
RTVSPropertyOp49
 70
     1
102
RTVSPropertyOp50
 70
     1
102
RTVSPropertyOp51
 70
     0
102
RTVSPropertyOp52
 70
     0
102
RTVSPropertyOp53
 70
     1
102
RTVSPropertyOp54
 70
     1
102
RTVSPropertyOp55
 70
     1
102
RTVSPropertyOp56
 70
     1
102
RTVSPropertyOp57
 70
     1
102
RTVSPropertyOp58
 70
     1
102
RTVSPropertyOp59
 70
     1
102
RTVSPropertyOp60
 70
     1
102
RTVSPropertyOp61
 70
     1
102
RTVSPropertyOp62
 70
     1
  0
XRECORD
  5
C353
102
{ACAD_REACTORS
330
C352
102
}
330
C352
100
AcDbXrecord
280
     1
102
RTVSPost2010Prop28
280
     0
102
RTVSPost2010PropOp28
 70
     1
102
RTVSPost2010Prop29
280
     1
102
RTVSPost2010PropOp29
 70
     1
102
RTVSPost2010Prop30
280
     1
102
RTVSPost2010PropOp30
 70
     1
102
RTVSPost2010Prop31
280
     0
102
RTVSPost2010PropOp31
 70
     1
102
RTVSPost2010Prop32
280
     0
102
RTVSPost2010PropOp32
 70
     1
102
RTVSPost2010Prop33
280
     0
102
RTVSPost2010PropOp33
 70
     1
102
RTVSPost2010Prop34
280
     0
102
RTVSPost2010PropOp34
 70
     1
102
RTVSPost2010Prop35
280
     0
102
RTVSPost2010PropOp35
 70
     1
102
RTVSPost2010Prop36
280
     0
102
RTVSPost2010PropOp36
 70
     1
102
RTVSPost2010Prop37
 90
       50
102
RTVSPost2010PropOp37
 70
     0
102
RTVSPost2010Prop38
140
0.0
102
RTVSPost2010PropOp38
 70
     0
102
RTVSPost2010Prop39
140
1.0
102
RTVSPost2010PropOp39
 70
     0
102
RTVSPost2010Prop40
 90
        0
102
RTVSPost2010PropOp40
 70
     0
102
RTVSPost2010Prop41ColorIndex
 90
       18
102
RTVSPost2010Prop41ColorRGB
 90
        0
102
RTVSPost2010PropOp41
 70
     0
102
RTVSPost2010Prop42
 90
       50
102
RTVSPost2010PropOp42
 70
     0
102
RTVSPost2010Prop43
 90
        3
102
RTVSPost2010PropOp43
 70
     0
102
RTVSPost2010Prop44ColorIndex
 90
        5
102
RTVSPost2010Prop44ColorRGB
 90
      255
102
RTVSPost2010PropOp44
 70
     0
102
RTVSPost2010Prop45
280
     0
102
RTVSPost2010PropOp45
 70
     1
102
RTVSPost2010Prop46
 90
       50
102
RTVSPost2010PropOp46
 70
     0
102
RTVSPost2010Prop47
 90
       50
102
RTVSPost2010PropOp47
 70
     0
102
RTVSPost2010Prop48
 90
       50
102
RTVSPost2010PropOp48
 70
     0
102
RTVSPost2010Prop49
280
     0
102
RTVSPost2010PropOp49
 70
     1
102
RTVSPost2010Prop50
 90
       50
102
RTVSPost2010PropOp50
 70
     0
102
RTVSPost2010Prop51ColorIndex
 90
      256
102
RTVSPost2010Prop51ColorRGB
 90
-16777216
102
RTVSPost2010PropOp51
 70
     0
102
RTVSPost2010Prop52
140
1.0
102
RTVSPost2010PropOp52
 70
     0
102
RTVSPost2010Prop53
 90
        2
102
RTVSPost2010PropOp53
 70
     0
102
RTVSPost2010Prop54
  1
strokes_ogs.tif
102
RTVSPost2010PropOp54
 70
     0
102
RTVSPost2010Prop55
280
     0
102
RTVSPost2010PropOp55
 70
     1
102
RTVSPost2010Prop56
140
1.0
102
RTVSPost2010PropOp56
 70
     0
102
RTVSPost2010Prop57
140
1.0
102
RTVSPost2010PropOp57
 70
     0
102
RTVSPropertyOp0
 70
     0
102
RTVSPropertyOp1
 70
     0
102
RTVSPropertyOp2
 70
     0
102
RTVSPropertyOp3
 70
     0
102
RTVSPropertyOp4
 70
     0
102
RTVSPropertyOp5
 70
     0
102
RTVSPropertyOp6
 70
     0
102
RTVSPropertyOp7
 70
     0
102
RTVSPropertyOp8
 70
     0
102
RTVSPropertyOp9
 70
     0
102
RTVSPropertyOp10
 70
     0
102
RTVSPropertyOp11
 70
     0
102
RTVSPropertyOp12
 70
     0
102
RTVSPropertyOp13
 70
     0
102
RTVSPropertyOp14
 70
     2
102
RTVSPropertyOp15
 70
     0
102
RTVSPropertyOp16
 70
     0
102
RTVSPropertyOp17
 70
     0
102
RTVSPropertyOp18
 70
     0
102
RTVSPropertyOp19
 70
     0
102
RTVSPropertyOp20
 70
     0
102
RTVSPropertyOp21
 70
     0
102
RTVSPropertyOp22
 70
     0
102
RTVSPropertyOp23
 70
     0
102
RTVSPropertyOp24
 70
     0
102
RTVSPropertyOp25
 70
     0
102
RTVSPropertyOp26
 70
     0
102
RTVSPropertyOp27
 70
     0
102
RTVSPropertyOp28
 70
     1
102
RTVSPropertyOp29
 70
     1
102
RTVSPropertyOp30
 70
     1
102
RTVSPropertyOp31
 70
     1
102
RTVSPropertyOp32
 70
     1
102
RTVSPropertyOp33
 70
     1
102
RTVSPropertyOp34
 70
     1
102
RTVSPropertyOp35
 70
     1
102
RTVSPropertyOp36
 70
     1
102
RTVSPropertyOp37
 70
     0
102
RTVSPropertyOp38
 70
     0
102
RTVSPropertyOp39
 70
     0
102
RTVSPropertyOp40
 70
     0
102
RTVSPropertyOp41
 70
     0
102
RTVSPropertyOp42
 70
     0
102
RTVSPropertyOp43
 70
     0
102
RTVSPropertyOp44
 70
     0
102
RTVSPropertyOp45
 70
     1
102
RTVSPropertyOp46
 70
     0
102
RTVSPropertyOp47
 70
     0
102
RTVSPropertyOp48
 70
     0
102
RTVSPropertyOp49
 70
     1
102
RTVSPropertyOp50
 70
     0
102
RTVSPropertyOp51
 70
     0
102
RTVSPropertyOp52
 70
     0
102
RTVSPropertyOp53
 70
     0
102
RTVSPropertyOp54
 70
     0
102
RTVSPropertyOp55
 70
     1
102
RTVSPropertyOp56
 70
     0
102
RTVSPropertyOp57
 70
     0
102
RTVSPropertyOp58
 70
     0
102
RTVSPropertyOp59
 70
     0
102
RTVSPropertyOp60
 70
     0
102
RTVSPropertyOp61
 70
     0
102
RTVSPropertyOp62
 70
     0
  0
XRECORD
  5
C341
102
{ACAD_REACTORS
330
C340
102
}
330
C340
100
AcDbXrecord
280
     1
102
RTVSPost2010Prop28
280
     0
102
RTVSPost2010PropOp28
 70
     1
102
RTVSPost2010Prop29
280
     1
102
RTVSPost2010PropOp29
 70
     1
102
RTVSPost2010Prop30
280
     1
102
RTVSPost2010PropOp30
 70
     1
102
RTVSPost2010Prop31
280
     0
102
RTVSPost2010PropOp31
 70
     1
102
RTVSPost2010Prop32
280
     0
102
RTVSPost2010PropOp32
 70
     1
102
RTVSPost2010Prop33
280
     0
102
RTVSPost2010PropOp33
 70
     1
102
RTVSPost2010Prop34
280
     0
102
RTVSPost2010PropOp34
 70
     1
102
RTVSPost2010Prop35
280
     0
102
RTVSPost2010PropOp35
 70
     1
102
RTVSPost2010Prop36
280
     0
102
RTVSPost2010PropOp36
 70
     1
102
RTVSPost2010Prop37
 90
       50
102
RTVSPost2010PropOp37
 70
     1
102
RTVSPost2010Prop38
140
0.0
102
RTVSPost2010PropOp38
 70
     1
102
RTVSPost2010Prop39
140
1.0
102
RTVSPost2010PropOp39
 70
     1
102
RTVSPost2010Prop40
 90
        0
102
RTVSPost2010PropOp40
 70
     1
102
RTVSPost2010Prop41ColorIndex
 90
       18
102
RTVSPost2010Prop41ColorRGB
 90
        0
102
RTVSPost2010PropOp41
 70
     1
102
RTVSPost2010Prop42
 90
       50
102
RTVSPost2010PropOp42
 70
     1
102
RTVSPost2010Prop43
 90
        3
102
RTVSPost2010PropOp43
 70
     1
102
RTVSPost2010Prop44ColorIndex
 90
        5
102
RTVSPost2010Prop44ColorRGB
 90
      255
102
RTVSPost2010PropOp44
 70
     1
102
RTVSPost2010Prop45
280
     0
102
RTVSPost2010PropOp45
 70
     1
102
RTVSPost2010Prop46
 90
       50
102
RTVSPost2010PropOp46
 70
     1
102
RTVSPost2010Prop47
 90
       50
102
RTVSPost2010PropOp47
 70
     1
102
RTVSPost2010Prop48
 90
       50
102
RTVSPost2010PropOp48
 70
     1
102
RTVSPost2010Prop49
280
     0
102
RTVSPost2010PropOp49
 70
     1
102
RTVSPost2010Prop50
 90
       50
102
RTVSPost2010PropOp50
 70
     1
102
RTVSPost2010Prop51ColorIndex
 90
      256
102
RTVSPost2010Prop51ColorRGB
 90
-16777216
102
RTVSPost2010PropOp51
 70
     0
102
RTVSPost2010Prop52
140
1.0
102
RTVSPost2010PropOp52
 70
     0
102
RTVSPost2010Prop53
 90
        2
102
RTVSPost2010PropOp53
 70
     1
102
RTVSPost2010Prop54
  1
strokes_ogs.tif
102
RTVSPost2010PropOp54
 70
     1
102
RTVSPost2010Prop55
280
     0
102
RTVSPost2010PropOp55
 70
     1
102
RTVSPost2010Prop56
140
1.0
102
RTVSPost2010PropOp56
 70
     1
102
RTVSPost2010Prop57
140
1.0
102
RTVSPost2010PropOp57
 70
     1
102
RTVSPropertyOp0
 70
     1
102
RTVSPropertyOp1
 70
     1
102
RTVSPropertyOp2
 70
     1
102
RTVSPropertyOp3
 70
     1
102
RTVSPropertyOp4
 70
     1
102
RTVSPropertyOp5
 70
     1
102
RTVSPropertyOp6
 70
     1
102
RTVSPropertyOp7
 70
     1
102
RTVSPropertyOp8
 70
     1
102
RTVSPropertyOp9
 70
     1
102
RTVSPropertyOp10
 70
     1
102
RTVSPropertyOp11
 70
     1
102
RTVSPropertyOp12
 70
     1
102
RTVSPropertyOp13
 70
     1
102
RTVSPropertyOp14
 70
     1
102
RTVSPropertyOp15
 70
     1
102
RTVSPropertyOp16
 70
     1
102
RTVSPropertyOp17
 70
     1
102
RTVSPropertyOp18
 70
     1
102
RTVSPropertyOp19
 70
     1
102
RTVSPropertyOp20
 70
     1
102
RTVSPropertyOp21
 70
     1
102
RTVSPropertyOp22
 70
     1
102
RTVSPropertyOp23
 70
     1
102
RTVSPropertyOp24
 70
     1
102
RTVSPropertyOp25
 70
     1
102
RTVSPropertyOp26
 70
     1
102
RTVSPropertyOp27
 70
     1
102
RTVSPropertyOp28
 70
     1
102
RTVSPropertyOp29
 70
     1
102
RTVSPropertyOp30
 70
     1
102
RTVSPropertyOp31
 70
     1
102
RTVSPropertyOp32
 70
     1
102
RTVSPropertyOp33
 70
     1
102
RTVSPropertyOp34
 70
     1
102
RTVSPropertyOp35
 70
     1
102
RTVSPropertyOp36
 70
     1
102
RTVSPropertyOp37
 70
     1
102
RTVSPropertyOp38
 70
     1
102
RTVSPropertyOp39
 70
     1
102
RTVSPropertyOp40
 70
     1
102
RTVSPropertyOp41
 70
     1
102
RTVSPropertyOp42
 70
     1
102
RTVSPropertyOp43
 70
     1
102
RTVSPropertyOp44
 70
     1
102
RTVSPropertyOp45
 70
     1
102
RTVSPropertyOp46
 70
     1
102
RTVSPropertyOp47
 70
     1
102
RTVSPropertyOp48
 70
     1
102
RTVSPropertyOp49
 70
     1
102
RTVSPropertyOp50
 70
     1
102
RTVSPropertyOp51
 70
     0
102
RTVSPropertyOp52
 70
     0
102
RTVSPropertyOp53
 70
     1
102
RTVSPropertyOp54
 70
     1
102
RTVSPropertyOp55
 70
     1
102
RTVSPropertyOp56
 70
     1
102
RTVSPropertyOp57
 70
     1
102
RTVSPropertyOp58
 70
     1
102
RTVSPropertyOp59
 70
     1
102
RTVSPropertyOp60
 70
     1
102
RTVSPropertyOp61
 70
     1
102
RTVSPropertyOp62
 70
     1
  0
XRECORD
  5
C325
102
{ACAD_REACTORS
330
C324
102
}
330
C324
100
AcDbXrecord
280
     1
102
RTVSPost2010Prop28
280
     0
102
RTVSPost2010PropOp28
 70
     1
102
RTVSPost2010Prop29
280
     1
102
RTVSPost2010PropOp29
 70
     1
102
RTVSPost2010Prop30
280
     1
102
RTVSPost2010PropOp30
 70
     1
102
RTVSPost2010Prop31
280
     0
102
RTVSPost2010PropOp31
 70
     1
102
RTVSPost2010Prop32
280
     0
102
RTVSPost2010PropOp32
 70
     1
102
RTVSPost2010Prop33
280
     0
102
RTVSPost2010PropOp33
 70
     1
102
RTVSPost2010Prop34
280
     0
102
RTVSPost2010PropOp34
 70
     1
102
RTVSPost2010Prop35
280
     0
102
RTVSPost2010PropOp35
 70
     1
102
RTVSPost2010Prop36
280
     0
102
RTVSPost2010PropOp36
 70
     1
102
RTVSPost2010Prop37
 90
       50
102
RTVSPost2010PropOp37
 70
     1
102
RTVSPost2010Prop38
140
0.0
102
RTVSPost2010PropOp38
 70
     1
102
RTVSPost2010Prop39
140
1.0
102
RTVSPost2010PropOp39
 70
     1
102
RTVSPost2010Prop40
 90
        0
102
RTVSPost2010PropOp40
 70
     1
102
RTVSPost2010Prop41ColorIndex
 90
       18
102
RTVSPost2010Prop41ColorRGB
 90
        0
102
RTVSPost2010PropOp41
 70
     1
102
RTVSPost2010Prop42
 90
       50
102
RTVSPost2010PropOp42
 70
     1
102
RTVSPost2010Prop43
 90
        3
102
RTVSPost2010PropOp43
 70
     1
102
RTVSPost2010Prop44ColorIndex
 90
        5
102
RTVSPost2010Prop44ColorRGB
 90
      255
102
RTVSPost2010PropOp44
 70
     1
102
RTVSPost2010Prop45
280
     0
102
RTVSPost2010PropOp45
 70
     1
102
RTVSPost2010Prop46
 90
       50
102
RTVSPost2010PropOp46
 70
     1
102
RTVSPost2010Prop47
 90
       50
102
RTVSPost2010PropOp47
 70
     1
102
RTVSPost2010Prop48
 90
       50
102
RTVSPost2010PropOp48
 70
     1
102
RTVSPost2010Prop49
280
     0
102
RTVSPost2010PropOp49
 70
     1
102
RTVSPost2010Prop50
 90
       50
102
RTVSPost2010PropOp50
 70
     1
102
RTVSPost2010Prop51ColorIndex
 90
      256
102
RTVSPost2010Prop51ColorRGB
 90
-16777216
102
RTVSPost2010PropOp51
 70
     0
102
RTVSPost2010Prop52
140
1.0
102
RTVSPost2010PropOp52
 70
     0
102
RTVSPost2010Prop53
 90
        2
102
RTVSPost2010PropOp53
 70
     1
102
RTVSPost2010Prop54
  1
strokes_ogs.tif
102
RTVSPost2010PropOp54
 70
     1
102
RTVSPost2010Prop55
280
     0
102
RTVSPost2010PropOp55
 70
     1
102
RTVSPost2010Prop56
140
1.0
102
RTVSPost2010PropOp56
 70
     1
102
RTVSPost2010Prop57
140
1.0
102
RTVSPost2010PropOp57
 70
     1
102
RTVSPropertyOp0
 70
     1
102
RTVSPropertyOp1
 70
     1
102
RTVSPropertyOp2
 70
     1
102
RTVSPropertyOp3
 70
     1
102
RTVSPropertyOp4
 70
     1
102
RTVSPropertyOp5
 70
     1
102
RTVSPropertyOp6
 70
     1
102
RTVSPropertyOp7
 70
     1
102
RTVSPropertyOp8
 70
     1
102
RTVSPropertyOp9
 70
     1
102
RTVSPropertyOp10
 70
     1
102
RTVSPropertyOp11
 70
     1
102
RTVSPropertyOp12
 70
     1
102
RTVSPropertyOp13
 70
     1
102
RTVSPropertyOp14
 70
     1
102
RTVSPropertyOp15
 70
     1
102
RTVSPropertyOp16
 70
     1
102
RTVSPropertyOp17
 70
     1
102
RTVSPropertyOp18
 70
     1
102
RTVSPropertyOp19
 70
     1
102
RTVSPropertyOp20
 70
     1
102
RTVSPropertyOp21
 70
     1
102
RTVSPropertyOp22
 70
     1
102
RTVSPropertyOp23
 70
     1
102
RTVSPropertyOp24
 70
     1
102
RTVSPropertyOp25
 70
     1
102
RTVSPropertyOp26
 70
     1
102
RTVSPropertyOp27
 70
     1
102
RTVSPropertyOp28
 70
     1
102
RTVSPropertyOp29
 70
     1
102
RTVSPropertyOp30
 70
     1
102
RTVSPropertyOp31
 70
     1
102
RTVSPropertyOp32
 70
     1
102
RTVSPropertyOp33
 70
     1
102
RTVSPropertyOp34
 70
     1
102
RTVSPropertyOp35
 70
     1
102
RTVSPropertyOp36
 70
     1
102
RTVSPropertyOp37
 70
     1
102
RTVSPropertyOp38
 70
     1
102
RTVSPropertyOp39
 70
     1
102
RTVSPropertyOp40
 70
     1
102
RTVSPropertyOp41
 70
     1
102
RTVSPropertyOp42
 70
     1
102
RTVSPropertyOp43
 70
     1
102
RTVSPropertyOp44
 70
     1
102
RTVSPropertyOp45
 70
     1
102
RTVSPropertyOp46
 70
     1
102
RTVSPropertyOp47
 70
     1
102
RTVSPropertyOp48
 70
     1
102
RTVSPropertyOp49
 70
     1
102
RTVSPropertyOp50
 70
     1
102
RTVSPropertyOp51
 70
     0
102
RTVSPropertyOp52
 70
     0
102
RTVSPropertyOp53
 70
     1
102
RTVSPropertyOp54
 70
     1
102
RTVSPropertyOp55
 70
     1
102
RTVSPropertyOp56
 70
     1
102
RTVSPropertyOp57
 70
     1
102
RTVSPropertyOp58
 70
     1
102
RTVSPropertyOp59
 70
     1
102
RTVSPropertyOp60
 70
     1
102
RTVSPropertyOp61
 70
     1
102
RTVSPropertyOp62
 70
     1
  0
XRECORD
  5
C327
102
{ACAD_REACTORS
330
C326
102
}
330
C326
100
AcDbXrecord
280
     1
102
RTVSPost2010Prop28
280
     0
102
RTVSPost2010PropOp28
 70
     1
102
RTVSPost2010Prop29
280
     1
102
RTVSPost2010PropOp29
 70
     1
102
RTVSPost2010Prop30
280
     1
102
RTVSPost2010PropOp30
 70
     1
102
RTVSPost2010Prop31
280
     0
102
RTVSPost2010PropOp31
 70
     1
102
RTVSPost2010Prop32
280
     0
102
RTVSPost2010PropOp32
 70
     1
102
RTVSPost2010Prop33
280
     0
102
RTVSPost2010PropOp33
 70
     1
102
RTVSPost2010Prop34
280
     0
102
RTVSPost2010PropOp34
 70
     1
102
RTVSPost2010Prop35
280
     0
102
RTVSPost2010PropOp35
 70
     1
102
RTVSPost2010Prop36
280
     0
102
RTVSPost2010PropOp36
 70
     1
102
RTVSPost2010Prop37
 90
       50
102
RTVSPost2010PropOp37
 70
     1
102
RTVSPost2010Prop38
140
0.0
102
RTVSPost2010PropOp38
 70
     1
102
RTVSPost2010Prop39
140
1.0
102
RTVSPost2010PropOp39
 70
     1
102
RTVSPost2010Prop40
 90
        0
102
RTVSPost2010PropOp40
 70
     1
102
RTVSPost2010Prop41ColorIndex
 90
       18
102
RTVSPost2010Prop41ColorRGB
 90
        0
102
RTVSPost2010PropOp41
 70
     1
102
RTVSPost2010Prop42
 90
       50
102
RTVSPost2010PropOp42
 70
     1
102
RTVSPost2010Prop43
 90
        3
102
RTVSPost2010PropOp43
 70
     1
102
RTVSPost2010Prop44ColorIndex
 90
        5
102
RTVSPost2010Prop44ColorRGB
 90
      255
102
RTVSPost2010PropOp44
 70
     1
102
RTVSPost2010Prop45
280
     0
102
RTVSPost2010PropOp45
 70
     1
102
RTVSPost2010Prop46
 90
       50
102
RTVSPost2010PropOp46
 70
     1
102
RTVSPost2010Prop47
 90
       50
102
RTVSPost2010PropOp47
 70
     1
102
RTVSPost2010Prop48
 90
       50
102
RTVSPost2010PropOp48
 70
     1
102
RTVSPost2010Prop49
280
     0
102
RTVSPost2010PropOp49
 70
     1
102
RTVSPost2010Prop50
 90
       50
102
RTVSPost2010PropOp50
 70
     1
102
RTVSPost2010Prop51ColorIndex
 90
      256
102
RTVSPost2010Prop51ColorRGB
 90
-16777216
102
RTVSPost2010PropOp51
 70
     0
102
RTVSPost2010Prop52
140
1.0
102
RTVSPost2010PropOp52
 70
     0
102
RTVSPost2010Prop53
 90
        2
102
RTVSPost2010PropOp53
 70
     1
102
RTVSPost2010Prop54
  1
strokes_ogs.tif
102
RTVSPost2010PropOp54
 70
     1
102
RTVSPost2010Prop55
280
     0
102
RTVSPost2010PropOp55
 70
     1
102
RTVSPost2010Prop56
140
1.0
102
RTVSPost2010PropOp56
 70
     1
102
RTVSPost2010Prop57
140
1.0
102
RTVSPost2010PropOp57
 70
     1
102
RTVSPropertyOp0
 70
     1
102
RTVSPropertyOp1
 70
     1
102
RTVSPropertyOp2
 70
     1
102
RTVSPropertyOp3
 70
     1
102
RTVSPropertyOp4
 70
     1
102
RTVSPropertyOp5
 70
     1
102
RTVSPropertyOp6
 70
     1
102
RTVSPropertyOp7
 70
     1
102
RTVSPropertyOp8
 70
     1
102
RTVSPropertyOp9
 70
     1
102
RTVSPropertyOp10
 70
     1
102
RTVSPropertyOp11
 70
     1
102
RTVSPropertyOp12
 70
     1
102
RTVSPropertyOp13
 70
     1
102
RTVSPropertyOp14
 70
     1
102
RTVSPropertyOp15
 70
     1
102
RTVSPropertyOp16
 70
     1
102
RTVSPropertyOp17
 70
     1
102
RTVSPropertyOp18
 70
     1
102
RTVSPropertyOp19
 70
     1
102
RTVSPropertyOp20
 70
     1
102
RTVSPropertyOp21
 70
     1
102
RTVSPropertyOp22
 70
     1
102
RTVSPropertyOp23
 70
     1
102
RTVSPropertyOp24
 70
     1
102
RTVSPropertyOp25
 70
     1
102
RTVSPropertyOp26
 70
     1
102
RTVSPropertyOp27
 70
     1
102
RTVSPropertyOp28
 70
     1
102
RTVSPropertyOp29
 70
     1
102
RTVSPropertyOp30
 70
     1
102
RTVSPropertyOp31
 70
     1
102
RTVSPropertyOp32
 70
     1
102
RTVSPropertyOp33
 70
     1
102
RTVSPropertyOp34
 70
     1
102
RTVSPropertyOp35
 70
     1
102
RTVSPropertyOp36
 70
     1
102
RTVSPropertyOp37
 70
     1
102
RTVSPropertyOp38
 70
     1
102
RTVSPropertyOp39
 70
     1
102
RTVSPropertyOp40
 70
     1
102
RTVSPropertyOp41
 70
     1
102
RTVSPropertyOp42
 70
     1
102
RTVSPropertyOp43
 70
     1
102
RTVSPropertyOp44
 70
     1
102
RTVSPropertyOp45
 70
     1
102
RTVSPropertyOp46
 70
     1
102
RTVSPropertyOp47
 70
     1
102
RTVSPropertyOp48
 70
     1
102
RTVSPropertyOp49
 70
     1
102
RTVSPropertyOp50
 70
     1
102
RTVSPropertyOp51
 70
     0
102
RTVSPropertyOp52
 70
     0
102
RTVSPropertyOp53
 70
     1
102
RTVSPropertyOp54
 70
     1
102
RTVSPropertyOp55
 70
     1
102
RTVSPropertyOp56
 70
     1
102
RTVSPropertyOp57
 70
     1
102
RTVSPropertyOp58
 70
     1
102
RTVSPropertyOp59
 70
     1
102
RTVSPropertyOp60
 70
     1
102
RTVSPropertyOp61
 70
     1
102
RTVSPropertyOp62
 70
     1
  0
XRECORD
  5
C329
102
{ACAD_REACTORS
330
C328
102
}
330
C328
100
AcDbXrecord
280
     1
102
RTVSPost2010Prop28
280
     0
102
RTVSPost2010PropOp28
 70
     1
102
RTVSPost2010Prop29
280
     1
102
RTVSPost2010PropOp29
 70
     1
102
RTVSPost2010Prop30
280
     1
102
RTVSPost2010PropOp30
 70
     1
102
RTVSPost2010Prop31
280
     0
102
RTVSPost2010PropOp31
 70
     1
102
RTVSPost2010Prop32
280
     0
102
RTVSPost2010PropOp32
 70
     1
102
RTVSPost2010Prop33
280
     0
102
RTVSPost2010PropOp33
 70
     1
102
RTVSPost2010Prop34
280
     0
102
RTVSPost2010PropOp34
 70
     1
102
RTVSPost2010Prop35
280
     0
102
RTVSPost2010PropOp35
 70
     1
102
RTVSPost2010Prop36
280
     0
102
RTVSPost2010PropOp36
 70
     1
102
RTVSPost2010Prop37
 90
       50
102
RTVSPost2010PropOp37
 70
     1
102
RTVSPost2010Prop38
140
0.0
102
RTVSPost2010PropOp38
 70
     1
102
RTVSPost2010Prop39
140
1.0
102
RTVSPost2010PropOp39
 70
     1
102
RTVSPost2010Prop40
 90
        0
102
RTVSPost2010PropOp40
 70
     1
102
RTVSPost2010Prop41ColorIndex
 90
       18
102
RTVSPost2010Prop41ColorRGB
 90
        0
102
RTVSPost2010PropOp41
 70
     1
102
RTVSPost2010Prop42
 90
       50
102
RTVSPost2010PropOp42
 70
     1
102
RTVSPost2010Prop43
 90
        3
102
RTVSPost2010PropOp43
 70
     1
102
RTVSPost2010Prop44ColorIndex
 90
        5
102
RTVSPost2010Prop44ColorRGB
 90
      255
102
RTVSPost2010PropOp44
 70
     1
102
RTVSPost2010Prop45
280
     0
102
RTVSPost2010PropOp45
 70
     1
102
RTVSPost2010Prop46
 90
       50
102
RTVSPost2010PropOp46
 70
     1
102
RTVSPost2010Prop47
 90
       50
102
RTVSPost2010PropOp47
 70
     1
102
RTVSPost2010Prop48
 90
       50
102
RTVSPost2010PropOp48
 70
     1
102
RTVSPost2010Prop49
280
     0
102
RTVSPost2010PropOp49
 70
     1
102
RTVSPost2010Prop50
 90
       50
102
RTVSPost2010PropOp50
 70
     1
102
RTVSPost2010Prop51ColorIndex
 90
      256
102
RTVSPost2010Prop51ColorRGB
 90
-16777216
102
RTVSPost2010PropOp51
 70
     0
102
RTVSPost2010Prop52
140
1.0
102
RTVSPost2010PropOp52
 70
     0
102
RTVSPost2010Prop53
 90
        2
102
RTVSPost2010PropOp53
 70
     1
102
RTVSPost2010Prop54
  1
strokes_ogs.tif
102
RTVSPost2010PropOp54
 70
     1
102
RTVSPost2010Prop55
280
     0
102
RTVSPost2010PropOp55
 70
     1
102
RTVSPost2010Prop56
140
1.0
102
RTVSPost2010PropOp56
 70
     1
102
RTVSPost2010Prop57
140
1.0
102
RTVSPost2010PropOp57
 70
     1
102
RTVSPropertyOp0
 70
     1
102
RTVSPropertyOp1
 70
     1
102
RTVSPropertyOp2
 70
     1
102
RTVSPropertyOp3
 70
     1
102
RTVSPropertyOp4
 70
     1
102
RTVSPropertyOp5
 70
     1
102
RTVSPropertyOp6
 70
     1
102
RTVSPropertyOp7
 70
     1
102
RTVSPropertyOp8
 70
     1
102
RTVSPropertyOp9
 70
     1
102
RTVSPropertyOp10
 70
     1
102
RTVSPropertyOp11
 70
     1
102
RTVSPropertyOp12
 70
     1
102
RTVSPropertyOp13
 70
     1
102
RTVSPropertyOp14
 70
     1
102
RTVSPropertyOp15
 70
     1
102
RTVSPropertyOp16
 70
     1
102
RTVSPropertyOp17
 70
     1
102
RTVSPropertyOp18
 70
     1
102
RTVSPropertyOp19
 70
     1
102
RTVSPropertyOp20
 70
     1
102
RTVSPropertyOp21
 70
     1
102
RTVSPropertyOp22
 70
     1
102
RTVSPropertyOp23
 70
     1
102
RTVSPropertyOp24
 70
     1
102
RTVSPropertyOp25
 70
     1
102
RTVSPropertyOp26
 70
     1
102
RTVSPropertyOp27
 70
     1
102
RTVSPropertyOp28
 70
     1
102
RTVSPropertyOp29
 70
     1
102
RTVSPropertyOp30
 70
     1
102
RTVSPropertyOp31
 70
     1
102
RTVSPropertyOp32
 70
     1
102
RTVSPropertyOp33
 70
     1
102
RTVSPropertyOp34
 70
     1
102
RTVSPropertyOp35
 70
     1
102
RTVSPropertyOp36
 70
     1
102
RTVSPropertyOp37
 70
     1
102
RTVSPropertyOp38
 70
     1
102
RTVSPropertyOp39
 70
     1
102
RTVSPropertyOp40
 70
     1
102
RTVSPropertyOp41
 70
     1
102
RTVSPropertyOp42
 70
     1
102
RTVSPropertyOp43
 70
     1
102
RTVSPropertyOp44
 70
     1
102
RTVSPropertyOp45
 70
     1
102
RTVSPropertyOp46
 70
     1
102
RTVSPropertyOp47
 70
     1
102
RTVSPropertyOp48
 70
     1
102
RTVSPropertyOp49
 70
     1
102
RTVSPropertyOp50
 70
     1
102
RTVSPropertyOp51
 70
     0
102
RTVSPropertyOp52
 70
     0
102
RTVSPropertyOp53
 70
     1
102
RTVSPropertyOp54
 70
     1
102
RTVSPropertyOp55
 70
     1
102
RTVSPropertyOp56
 70
     1
102
RTVSPropertyOp57
 70
     1
102
RTVSPropertyOp58
 70
     1
102
RTVSPropertyOp59
 70
     1
102
RTVSPropertyOp60
 70
     1
102
RTVSPropertyOp61
 70
     1
102
RTVSPropertyOp62
 70
     1
  0
XRECORD
  5
C32B
102
{ACAD_REACTORS
330
C32A
102
}
330
C32A
100
AcDbXrecord
280
     1
102
RTVSPost2010Prop28
280
     0
102
RTVSPost2010PropOp28
 70
     1
102
RTVSPost2010Prop29
280
     1
102
RTVSPost2010PropOp29
 70
     1
102
RTVSPost2010Prop30
280
     1
102
RTVSPost2010PropOp30
 70
     1
102
RTVSPost2010Prop31
280
     0
102
RTVSPost2010PropOp31
 70
     1
102
RTVSPost2010Prop32
280
     0
102
RTVSPost2010PropOp32
 70
     1
102
RTVSPost2010Prop33
280
     0
102
RTVSPost2010PropOp33
 70
     1
102
RTVSPost2010Prop34
280
     0
102
RTVSPost2010PropOp34
 70
     1
102
RTVSPost2010Prop35
280
     0
102
RTVSPost2010PropOp35
 70
     1
102
RTVSPost2010Prop36
280
     0
102
RTVSPost2010PropOp36
 70
     1
102
RTVSPost2010Prop37
 90
       50
102
RTVSPost2010PropOp37
 70
     1
102
RTVSPost2010Prop38
140
0.0
102
RTVSPost2010PropOp38
 70
     1
102
RTVSPost2010Prop39
140
1.0
102
RTVSPost2010PropOp39
 70
     1
102
RTVSPost2010Prop40
 90
        0
102
RTVSPost2010PropOp40
 70
     1
102
RTVSPost2010Prop41ColorIndex
 90
       18
102
RTVSPost2010Prop41ColorRGB
 90
        0
102
RTVSPost2010PropOp41
 70
     1
102
RTVSPost2010Prop42
 90
       50
102
RTVSPost2010PropOp42
 70
     1
102
RTVSPost2010Prop43
 90
        3
102
RTVSPost2010PropOp43
 70
     1
102
RTVSPost2010Prop44ColorIndex
 90
        5
102
RTVSPost2010Prop44ColorRGB
 90
      255
102
RTVSPost2010PropOp44
 70
     1
102
RTVSPost2010Prop45
280
     0
102
RTVSPost2010PropOp45
 70
     1
102
RTVSPost2010Prop46
 90
       50
102
RTVSPost2010PropOp46
 70
     1
102
RTVSPost2010Prop47
 90
       50
102
RTVSPost2010PropOp47
 70
     1
102
RTVSPost2010Prop48
 90
       50
102
RTVSPost2010PropOp48
 70
     1
102
RTVSPost2010Prop49
280
     0
102
RTVSPost2010PropOp49
 70
     1
102
RTVSPost2010Prop50
 90
       50
102
RTVSPost2010PropOp50
 70
     1
102
RTVSPost2010Prop51ColorIndex
 90
      256
102
RTVSPost2010Prop51ColorRGB
 90
-16777216
102
RTVSPost2010PropOp51
 70
     0
102
RTVSPost2010Prop52
140
1.0
102
RTVSPost2010PropOp52
 70
     0
102
RTVSPost2010Prop53
 90
        2
102
RTVSPost2010PropOp53
 70
     1
102
RTVSPost2010Prop54
  1
strokes_ogs.tif
102
RTVSPost2010PropOp54
 70
     1
102
RTVSPost2010Prop55
280
     0
102
RTVSPost2010PropOp55
 70
     1
102
RTVSPost2010Prop56
140
1.0
102
RTVSPost2010PropOp56
 70
     1
102
RTVSPost2010Prop57
140
1.0
102
RTVSPost2010PropOp57
 70
     1
102
RTVSPropertyOp0
 70
     1
102
RTVSPropertyOp1
 70
     1
102
RTVSPropertyOp2
 70
     1
102
RTVSPropertyOp3
 70
     1
102
RTVSPropertyOp4
 70
     1
102
RTVSPropertyOp5
 70
     1
102
RTVSPropertyOp6
 70
     1
102
RTVSPropertyOp7
 70
     1
102
RTVSPropertyOp8
 70
     1
102
RTVSPropertyOp9
 70
     1
102
RTVSPropertyOp10
 70
     1
102
RTVSPropertyOp11
 70
     1
102
RTVSPropertyOp12
 70
     1
102
RTVSPropertyOp13
 70
     1
102
RTVSPropertyOp14
 70
     1
102
RTVSPropertyOp15
 70
     1
102
RTVSPropertyOp16
 70
     1
102
RTVSPropertyOp17
 70
     1
102
RTVSPropertyOp18
 70
     1
102
RTVSPropertyOp19
 70
     1
102
RTVSPropertyOp20
 70
     1
102
RTVSPropertyOp21
 70
     1
102
RTVSPropertyOp22
 70
     1
102
RTVSPropertyOp23
 70
     1
102
RTVSPropertyOp24
 70
     1
102
RTVSPropertyOp25
 70
     1
102
RTVSPropertyOp26
 70
     1
102
RTVSPropertyOp27
 70
     1
102
RTVSPropertyOp28
 70
     1
102
RTVSPropertyOp29
 70
     1
102
RTVSPropertyOp30
 70
     1
102
RTVSPropertyOp31
 70
     1
102
RTVSPropertyOp32
 70
     1
102
RTVSPropertyOp33
 70
     1
102
RTVSPropertyOp34
 70
     1
102
RTVSPropertyOp35
 70
     1
102
RTVSPropertyOp36
 70
     1
102
RTVSPropertyOp37
 70
     1
102
RTVSPropertyOp38
 70
     1
102
RTVSPropertyOp39
 70
     1
102
RTVSPropertyOp40
 70
     1
102
RTVSPropertyOp41
 70
     1
102
RTVSPropertyOp42
 70
     1
102
RTVSPropertyOp43
 70
     1
102
RTVSPropertyOp44
 70
     1
102
RTVSPropertyOp45
 70
     1
102
RTVSPropertyOp46
 70
     1
102
RTVSPropertyOp47
 70
     1
102
RTVSPropertyOp48
 70
     1
102
RTVSPropertyOp49
 70
     1
102
RTVSPropertyOp50
 70
     1
102
RTVSPropertyOp51
 70
     0
102
RTVSPropertyOp52
 70
     0
102
RTVSPropertyOp53
 70
     1
102
RTVSPropertyOp54
 70
     1
102
RTVSPropertyOp55
 70
     1
102
RTVSPropertyOp56
 70
     1
102
RTVSPropertyOp57
 70
     1
102
RTVSPropertyOp58
 70
     1
102
RTVSPropertyOp59
 70
     1
102
RTVSPropertyOp60
 70
     1
102
RTVSPropertyOp61
 70
     1
102
RTVSPropertyOp62
 70
     1
  0
XRECORD
  5
C333
102
{ACAD_REACTORS
330
C332
102
}
330
C332
100
AcDbXrecord
280
     1
102
RTVSPost2010Prop28
280
     0
102
RTVSPost2010PropOp28
 70
     1
102
RTVSPost2010Prop29
280
     1
102
RTVSPost2010PropOp29
 70
     1
102
RTVSPost2010Prop30
280
     1
102
RTVSPost2010PropOp30
 70
     1
102
RTVSPost2010Prop31
280
     0
102
RTVSPost2010PropOp31
 70
     1
102
RTVSPost2010Prop32
280
     0
102
RTVSPost2010PropOp32
 70
     1
102
RTVSPost2010Prop33
280
     0
102
RTVSPost2010PropOp33
 70
     1
102
RTVSPost2010Prop34
280
     0
102
RTVSPost2010PropOp34
 70
     1
102
RTVSPost2010Prop35
280
     0
102
RTVSPost2010PropOp35
 70
     1
102
RTVSPost2010Prop36
280
     0
102
RTVSPost2010PropOp36
 70
     1
102
RTVSPost2010Prop37
 90
       50
102
RTVSPost2010PropOp37
 70
     1
102
RTVSPost2010Prop38
140
0.0
102
RTVSPost2010PropOp38
 70
     1
102
RTVSPost2010Prop39
140
1.0
102
RTVSPost2010PropOp39
 70
     1
102
RTVSPost2010Prop40
 90
        0
102
RTVSPost2010PropOp40
 70
     1
102
RTVSPost2010Prop41ColorIndex
 90
       18
102
RTVSPost2010Prop41ColorRGB
 90
        0
102
RTVSPost2010PropOp41
 70
     1
102
RTVSPost2010Prop42
 90
       50
102
RTVSPost2010PropOp42
 70
     1
102
RTVSPost2010Prop43
 90
        3
102
RTVSPost2010PropOp43
 70
     1
102
RTVSPost2010Prop44ColorIndex
 90
        5
102
RTVSPost2010Prop44ColorRGB
 90
      255
102
RTVSPost2010PropOp44
 70
     1
102
RTVSPost2010Prop45
280
     0
102
RTVSPost2010PropOp45
 70
     1
102
RTVSPost2010Prop46
 90
       50
102
RTVSPost2010PropOp46
 70
     1
102
RTVSPost2010Prop47
 90
       50
102
RTVSPost2010PropOp47
 70
     1
102
RTVSPost2010Prop48
 90
       50
102
RTVSPost2010PropOp48
 70
     1
102
RTVSPost2010Prop49
280
     0
102
RTVSPost2010PropOp49
 70
     1
102
RTVSPost2010Prop50
 90
       50
102
RTVSPost2010PropOp50
 70
     1
102
RTVSPost2010Prop51ColorIndex
 90
      256
102
RTVSPost2010Prop51ColorRGB
 90
-16777216
102
RTVSPost2010PropOp51
 70
     0
102
RTVSPost2010Prop52
140
1.0
102
RTVSPost2010PropOp52
 70
     0
102
RTVSPost2010Prop53
 90
        2
102
RTVSPost2010PropOp53
 70
     1
102
RTVSPost2010Prop54
  1
strokes_ogs.tif
102
RTVSPost2010PropOp54
 70
     1
102
RTVSPost2010Prop55
280
     0
102
RTVSPost2010PropOp55
 70
     1
102
RTVSPost2010Prop56
140
1.0
102
RTVSPost2010PropOp56
 70
     1
102
RTVSPost2010Prop57
140
1.0
102
RTVSPost2010PropOp57
 70
     1
102
RTVSPropertyOp0
 70
     1
102
RTVSPropertyOp1
 70
     1
102
RTVSPropertyOp2
 70
     1
102
RTVSPropertyOp3
 70
     1
102
RTVSPropertyOp4
 70
     1
102
RTVSPropertyOp5
 70
     1
102
RTVSPropertyOp6
 70
     1
102
RTVSPropertyOp7
 70
     1
102
RTVSPropertyOp8
 70
     1
102
RTVSPropertyOp9
 70
     1
102
RTVSPropertyOp10
 70
     1
102
RTVSPropertyOp11
 70
     1
102
RTVSPropertyOp12
 70
     1
102
RTVSPropertyOp13
 70
     1
102
RTVSPropertyOp14
 70
     1
102
RTVSPropertyOp15
 70
     1
102
RTVSPropertyOp16
 70
     1
102
RTVSPropertyOp17
 70
     1
102
RTVSPropertyOp18
 70
     1
102
RTVSPropertyOp19
 70
     1
102
RTVSPropertyOp20
 70
     1
102
RTVSPropertyOp21
 70
     1
102
RTVSPropertyOp22
 70
     1
102
RTVSPropertyOp23
 70
     1
102
RTVSPropertyOp24
 70
     1
102
RTVSPropertyOp25
 70
     1
102
RTVSPropertyOp26
 70
     1
102
RTVSPropertyOp27
 70
     1
102
RTVSPropertyOp28
 70
     1
102
RTVSPropertyOp29
 70
     1
102
RTVSPropertyOp30
 70
     1
102
RTVSPropertyOp31
 70
     1
102
RTVSPropertyOp32
 70
     1
102
RTVSPropertyOp33
 70
     1
102
RTVSPropertyOp34
 70
     1
102
RTVSPropertyOp35
 70
     1
102
RTVSPropertyOp36
 70
     1
102
RTVSPropertyOp37
 70
     1
102
RTVSPropertyOp38
 70
     1
102
RTVSPropertyOp39
 70
     1
102
RTVSPropertyOp40
 70
     1
102
RTVSPropertyOp41
 70
     1
102
RTVSPropertyOp42
 70
     1
102
RTVSPropertyOp43
 70
     1
102
RTVSPropertyOp44
 70
     1
102
RTVSPropertyOp45
 70
     1
102
RTVSPropertyOp46
 70
     1
102
RTVSPropertyOp47
 70
     1
102
RTVSPropertyOp48
 70
     1
102
RTVSPropertyOp49
 70
     1
102
RTVSPropertyOp50
 70
     1
102
RTVSPropertyOp51
 70
     0
102
RTVSPropertyOp52
 70
     0
102
RTVSPropertyOp53
 70
     1
102
RTVSPropertyOp54
 70
     1
102
RTVSPropertyOp55
 70
     1
102
RTVSPropertyOp56
 70
     1
102
RTVSPropertyOp57
 70
     1
102
RTVSPropertyOp58
 70
     1
102
RTVSPropertyOp59
 70
     1
102
RTVSPropertyOp60
 70
     1
102
RTVSPropertyOp61
 70
     1
102
RTVSPropertyOp62
 70
     1
  0
XRECORD
  5
C34F
102
{ACAD_REACTORS
330
C34E
102
}
330
C34E
100
AcDbXrecord
280
     1
102
RTVSPost2010Prop28
280
     0
102
RTVSPost2010PropOp28
 70
     1
102
RTVSPost2010Prop29
280
     1
102
RTVSPost2010PropOp29
 70
     1
102
RTVSPost2010Prop30
280
     1
102
RTVSPost2010PropOp30
 70
     1
102
RTVSPost2010Prop31
280
     0
102
RTVSPost2010PropOp31
 70
     1
102
RTVSPost2010Prop32
280
     0
102
RTVSPost2010PropOp32
 70
     1
102
RTVSPost2010Prop33
280
     0
102
RTVSPost2010PropOp33
 70
     1
102
RTVSPost2010Prop34
280
     0
102
RTVSPost2010PropOp34
 70
     1
102
RTVSPost2010Prop35
280
     0
102
RTVSPost2010PropOp35
 70
     1
102
RTVSPost2010Prop36
280
     0
102
RTVSPost2010PropOp36
 70
     1
102
RTVSPost2010Prop37
 90
       50
102
RTVSPost2010PropOp37
 70
     0
102
RTVSPost2010Prop38
140
0.0
102
RTVSPost2010PropOp38
 70
     0
102
RTVSPost2010Prop39
140
1.0
102
RTVSPost2010PropOp39
 70
     0
102
RTVSPost2010Prop40
 90
        0
102
RTVSPost2010PropOp40
 70
     0
102
RTVSPost2010Prop41ColorIndex
 90
       18
102
RTVSPost2010Prop41ColorRGB
 90
        0
102
RTVSPost2010PropOp41
 70
     0
102
RTVSPost2010Prop42
 90
       50
102
RTVSPost2010PropOp42
 70
     0
102
RTVSPost2010Prop43
 90
        3
102
RTVSPost2010PropOp43
 70
     0
102
RTVSPost2010Prop44ColorIndex
 90
        5
102
RTVSPost2010Prop44ColorRGB
 90
      255
102
RTVSPost2010PropOp44
 70
     0
102
RTVSPost2010Prop45
280
     0
102
RTVSPost2010PropOp45
 70
     1
102
RTVSPost2010Prop46
 90
       50
102
RTVSPost2010PropOp46
 70
     0
102
RTVSPost2010Prop47
 90
       50
102
RTVSPost2010PropOp47
 70
     0
102
RTVSPost2010Prop48
 90
       50
102
RTVSPost2010PropOp48
 70
     0
102
RTVSPost2010Prop49
280
     0
102
RTVSPost2010PropOp49
 70
     1
102
RTVSPost2010Prop50
 90
       50
102
RTVSPost2010PropOp50
 70
     0
102
RTVSPost2010Prop51ColorIndex
 90
      256
102
RTVSPost2010Prop51ColorRGB
 90
-16777216
102
RTVSPost2010PropOp51
 70
     0
102
RTVSPost2010Prop52
140
1.0
102
RTVSPost2010PropOp52
 70
     0
102
RTVSPost2010Prop53
 90
        2
102
RTVSPost2010PropOp53
 70
     0
102
RTVSPost2010Prop54
  1
strokes_ogs.tif
102
RTVSPost2010PropOp54
 70
     0
102
RTVSPost2010Prop55
280
     0
102
RTVSPost2010PropOp55
 70
     1
102
RTVSPost2010Prop56
140
1.0
102
RTVSPost2010PropOp56
 70
     0
102
RTVSPost2010Prop57
140
1.0
102
RTVSPost2010PropOp57
 70
     0
102
RTVSPropertyOp0
 70
     0
102
RTVSPropertyOp1
 70
     0
102
RTVSPropertyOp2
 70
     0
102
RTVSPropertyOp3
 70
     0
102
RTVSPropertyOp4
 70
     0
102
RTVSPropertyOp5
 70
     0
102
RTVSPropertyOp6
 70
     0
102
RTVSPropertyOp7
 70
     0
102
RTVSPropertyOp8
 70
     0
102
RTVSPropertyOp9
 70
     0
102
RTVSPropertyOp10
 70
     0
102
RTVSPropertyOp11
 70
     0
102
RTVSPropertyOp12
 70
     0
102
RTVSPropertyOp13
 70
     0
102
RTVSPropertyOp14
 70
     2
102
RTVSPropertyOp15
 70
     0
102
RTVSPropertyOp16
 70
     0
102
RTVSPropertyOp17
 70
     0
102
RTVSPropertyOp18
 70
     0
102
RTVSPropertyOp19
 70
     0
102
RTVSPropertyOp20
 70
     0
102
RTVSPropertyOp21
 70
     0
102
RTVSPropertyOp22
 70
     0
102
RTVSPropertyOp23
 70
     0
102
RTVSPropertyOp24
 70
     0
102
RTVSPropertyOp25
 70
     0
102
RTVSPropertyOp26
 70
     0
102
RTVSPropertyOp27
 70
     0
102
RTVSPropertyOp28
 70
     1
102
RTVSPropertyOp29
 70
     1
102
RTVSPropertyOp30
 70
     1
102
RTVSPropertyOp31
 70
     1
102
RTVSPropertyOp32
 70
     1
102
RTVSPropertyOp33
 70
     1
102
RTVSPropertyOp34
 70
     1
102
RTVSPropertyOp35
 70
     1
102
RTVSPropertyOp36
 70
     1
102
RTVSPropertyOp37
 70
     0
102
RTVSPropertyOp38
 70
     0
102
RTVSPropertyOp39
 70
     0
102
RTVSPropertyOp40
 70
     0
102
RTVSPropertyOp41
 70
     0
102
RTVSPropertyOp42
 70
     0
102
RTVSPropertyOp43
 70
     0
102
RTVSPropertyOp44
 70
     0
102
RTVSPropertyOp45
 70
     1
102
RTVSPropertyOp46
 70
     0
102
RTVSPropertyOp47
 70
     0
102
RTVSPropertyOp48
 70
     0
102
RTVSPropertyOp49
 70
     1
102
RTVSPropertyOp50
 70
     0
102
RTVSPropertyOp51
 70
     0
102
RTVSPropertyOp52
 70
     0
102
RTVSPropertyOp53
 70
     0
102
RTVSPropertyOp54
 70
     0
102
RTVSPropertyOp55
 70
     1
102
RTVSPropertyOp56
 70
     0
102
RTVSPropertyOp57
 70
     0
102
RTVSPropertyOp58
 70
     0
102
RTVSPropertyOp59
 70
     0
102
RTVSPropertyOp60
 70
     0
102
RTVSPropertyOp61
 70
     0
102
RTVSPropertyOp62
 70
     0
  0
XRECORD
  5
C33F
102
{ACAD_REACTORS
330
C33E
102
}
330
C33E
100
AcDbXrecord
280
     1
102
RTVSPost2010Prop28
280
     0
102
RTVSPost2010PropOp28
 70
     1
102
RTVSPost2010Prop29
280
     1
102
RTVSPost2010PropOp29
 70
     1
102
RTVSPost2010Prop30
280
     1
102
RTVSPost2010PropOp30
 70
     1
102
RTVSPost2010Prop31
280
     0
102
RTVSPost2010PropOp31
 70
     1
102
RTVSPost2010Prop32
280
     0
102
RTVSPost2010PropOp32
 70
     1
102
RTVSPost2010Prop33
280
     0
102
RTVSPost2010PropOp33
 70
     1
102
RTVSPost2010Prop34
280
     0
102
RTVSPost2010PropOp34
 70
     1
102
RTVSPost2010Prop35
280
     0
102
RTVSPost2010PropOp35
 70
     1
102
RTVSPost2010Prop36
280
     0
102
RTVSPost2010PropOp36
 70
     1
102
RTVSPost2010Prop37
 90
       50
102
RTVSPost2010PropOp37
 70
     1
102
RTVSPost2010Prop38
140
0.0
102
RTVSPost2010PropOp38
 70
     1
102
RTVSPost2010Prop39
140
1.0
102
RTVSPost2010PropOp39
 70
     1
102
RTVSPost2010Prop40
 90
        0
102
RTVSPost2010PropOp40
 70
     1
102
RTVSPost2010Prop41ColorIndex
 90
       18
102
RTVSPost2010Prop41ColorRGB
 90
        0
102
RTVSPost2010PropOp41
 70
     1
102
RTVSPost2010Prop42
 90
       50
102
RTVSPost2010PropOp42
 70
     1
102
RTVSPost2010Prop43
 90
        3
102
RTVSPost2010PropOp43
 70
     1
102
RTVSPost2010Prop44ColorIndex
 90
        5
102
RTVSPost2010Prop44ColorRGB
 90
      255
102
RTVSPost2010PropOp44
 70
     1
102
RTVSPost2010Prop45
280
     0
102
RTVSPost2010PropOp45
 70
     1
102
RTVSPost2010Prop46
 90
       50
102
RTVSPost2010PropOp46
 70
     1
102
RTVSPost2010Prop47
 90
       50
102
RTVSPost2010PropOp47
 70
     1
102
RTVSPost2010Prop48
 90
       50
102
RTVSPost2010PropOp48
 70
     1
102
RTVSPost2010Prop49
280
     0
102
RTVSPost2010PropOp49
 70
     1
102
RTVSPost2010Prop50
 90
       50
102
RTVSPost2010PropOp50
 70
     1
102
RTVSPost2010Prop51ColorIndex
 90
      256
102
RTVSPost2010Prop51ColorRGB
 90
-16777216
102
RTVSPost2010PropOp51
 70
     0
102
RTVSPost2010Prop52
140
1.0
102
RTVSPost2010PropOp52
 70
     0
102
RTVSPost2010Prop53
 90
        2
102
RTVSPost2010PropOp53
 70
     1
102
RTVSPost2010Prop54
  1
strokes_ogs.tif
102
RTVSPost2010PropOp54
 70
     1
102
RTVSPost2010Prop55
280
     0
102
RTVSPost2010PropOp55
 70
     1
102
RTVSPost2010Prop56
140
1.0
102
RTVSPost2010PropOp56
 70
     1
102
RTVSPost2010Prop57
140
1.0
102
RTVSPost2010PropOp57
 70
     1
102
RTVSPropertyOp0
 70
     1
102
RTVSPropertyOp1
 70
     1
102
RTVSPropertyOp2
 70
     1
102
RTVSPropertyOp3
 70
     1
102
RTVSPropertyOp4
 70
     1
102
RTVSPropertyOp5
 70
     1
102
RTVSPropertyOp6
 70
     1
102
RTVSPropertyOp7
 70
     1
102
RTVSPropertyOp8
 70
     1
102
RTVSPropertyOp9
 70
     1
102
RTVSPropertyOp10
 70
     1
102
RTVSPropertyOp11
 70
     1
102
RTVSPropertyOp12
 70
     1
102
RTVSPropertyOp13
 70
     1
102
RTVSPropertyOp14
 70
     1
102
RTVSPropertyOp15
 70
     1
102
RTVSPropertyOp16
 70
     1
102
RTVSPropertyOp17
 70
     1
102
RTVSPropertyOp18
 70
     1
102
RTVSPropertyOp19
 70
     1
102
RTVSPropertyOp20
 70
     1
102
RTVSPropertyOp21
 70
     1
102
RTVSPropertyOp22
 70
     1
102
RTVSPropertyOp23
 70
     1
102
RTVSPropertyOp24
 70
     1
102
RTVSPropertyOp25
 70
     1
102
RTVSPropertyOp26
 70
     1
102
RTVSPropertyOp27
 70
     1
102
RTVSPropertyOp28
 70
     1
102
RTVSPropertyOp29
 70
     1
102
RTVSPropertyOp30
 70
     1
102
RTVSPropertyOp31
 70
     1
102
RTVSPropertyOp32
 70
     1
102
RTVSPropertyOp33
 70
     1
102
RTVSPropertyOp34
 70
     1
102
RTVSPropertyOp35
 70
     1
102
RTVSPropertyOp36
 70
     1
102
RTVSPropertyOp37
 70
     1
102
RTVSPropertyOp38
 70
     1
102
RTVSPropertyOp39
 70
     1
102
RTVSPropertyOp40
 70
     1
102
RTVSPropertyOp41
 70
     1
102
RTVSPropertyOp42
 70
     1
102
RTVSPropertyOp43
 70
     1
102
RTVSPropertyOp44
 70
     1
102
RTVSPropertyOp45
 70
     1
102
RTVSPropertyOp46
 70
     1
102
RTVSPropertyOp47
 70
     1
102
RTVSPropertyOp48
 70
     1
102
RTVSPropertyOp49
 70
     1
102
RTVSPropertyOp50
 70
     1
102
RTVSPropertyOp51
 70
     0
102
RTVSPropertyOp52
 70
     0
102
RTVSPropertyOp53
 70
     1
102
RTVSPropertyOp54
 70
     1
102
RTVSPropertyOp55
 70
     1
102
RTVSPropertyOp56
 70
     1
102
RTVSPropertyOp57
 70
     1
102
RTVSPropertyOp58
 70
     1
102
RTVSPropertyOp59
 70
     1
102
RTVSPropertyOp60
 70
     1
102
RTVSPropertyOp61
 70
     1
102
RTVSPropertyOp62
 70
     1
  0
XRECORD
  5
C351
102
{ACAD_REACTORS
330
C350
102
}
330
C350
100
AcDbXrecord
280
     1
102
RTVSPost2010Prop28
280
     0
102
RTVSPost2010PropOp28
 70
     1
102
RTVSPost2010Prop29
280
     1
102
RTVSPost2010PropOp29
 70
     1
102
RTVSPost2010Prop30
280
     1
102
RTVSPost2010PropOp30
 70
     1
102
RTVSPost2010Prop31
280
     0
102
RTVSPost2010PropOp31
 70
     1
102
RTVSPost2010Prop32
280
     0
102
RTVSPost2010PropOp32
 70
     1
102
RTVSPost2010Prop33
280
     0
102
RTVSPost2010PropOp33
 70
     1
102
RTVSPost2010Prop34
280
     0
102
RTVSPost2010PropOp34
 70
     1
102
RTVSPost2010Prop35
280
     0
102
RTVSPost2010PropOp35
 70
     1
102
RTVSPost2010Prop36
280
     0
102
RTVSPost2010PropOp36
 70
     1
102
RTVSPost2010Prop37
 90
       50
102
RTVSPost2010PropOp37
 70
     0
102
RTVSPost2010Prop38
140
0.0
102
RTVSPost2010PropOp38
 70
     0
102
RTVSPost2010Prop39
140
1.0
102
RTVSPost2010PropOp39
 70
     0
102
RTVSPost2010Prop40
 90
        0
102
RTVSPost2010PropOp40
 70
     0
102
RTVSPost2010Prop41ColorIndex
 90
       18
102
RTVSPost2010Prop41ColorRGB
 90
        0
102
RTVSPost2010PropOp41
 70
     0
102
RTVSPost2010Prop42
 90
       50
102
RTVSPost2010PropOp42
 70
     0
102
RTVSPost2010Prop43
 90
        3
102
RTVSPost2010PropOp43
 70
     0
102
RTVSPost2010Prop44ColorIndex
 90
        5
102
RTVSPost2010Prop44ColorRGB
 90
      255
102
RTVSPost2010PropOp44
 70
     0
102
RTVSPost2010Prop45
280
     0
102
RTVSPost2010PropOp45
 70
     1
102
RTVSPost2010Prop46
 90
       50
102
RTVSPost2010PropOp46
 70
     0
102
RTVSPost2010Prop47
 90
       50
102
RTVSPost2010PropOp47
 70
     0
102
RTVSPost2010Prop48
 90
       50
102
RTVSPost2010PropOp48
 70
     0
102
RTVSPost2010Prop49
280
     0
102
RTVSPost2010PropOp49
 70
     1
102
RTVSPost2010Prop50
 90
       50
102
RTVSPost2010PropOp50
 70
     0
102
RTVSPost2010Prop51ColorIndex
 90
      256
102
RTVSPost2010Prop51ColorRGB
 90
-16777216
102
RTVSPost2010PropOp51
 70
     0
102
RTVSPost2010Prop52
140
1.0
102
RTVSPost2010PropOp52
 70
     0
102
RTVSPost2010Prop53
 90
        2
102
RTVSPost2010PropOp53
 70
     0
102
RTVSPost2010Prop54
  1
strokes_ogs.tif
102
RTVSPost2010PropOp54
 70
     0
102
RTVSPost2010Prop55
280
     0
102
RTVSPost2010PropOp55
 70
     1
102
RTVSPost2010Prop56
140
1.0
102
RTVSPost2010PropOp56
 70
     0
102
RTVSPost2010Prop57
140
1.0
102
RTVSPost2010PropOp57
 70
     0
102
RTVSPropertyOp0
 70
     0
102
RTVSPropertyOp1
 70
     0
102
RTVSPropertyOp2
 70
     0
102
RTVSPropertyOp3
 70
     0
102
RTVSPropertyOp4
 70
     0
102
RTVSPropertyOp5
 70
     0
102
RTVSPropertyOp6
 70
     0
102
RTVSPropertyOp7
 70
     0
102
RTVSPropertyOp8
 70
     0
102
RTVSPropertyOp9
 70
     0
102
RTVSPropertyOp10
 70
     0
102
RTVSPropertyOp11
 70
     0
102
RTVSPropertyOp12
 70
     0
102
RTVSPropertyOp13
 70
     0
102
RTVSPropertyOp14
 70
     2
102
RTVSPropertyOp15
 70
     0
102
RTVSPropertyOp16
 70
     0
102
RTVSPropertyOp17
 70
     0
102
RTVSPropertyOp18
 70
     0
102
RTVSPropertyOp19
 70
     0
102
RTVSPropertyOp20
 70
     0
102
RTVSPropertyOp21
 70
     0
102
RTVSPropertyOp22
 70
     0
102
RTVSPropertyOp23
 70
     0
102
RTVSPropertyOp24
 70
     0
102
RTVSPropertyOp25
 70
     0
102
RTVSPropertyOp26
 70
     0
102
RTVSPropertyOp27
 70
     0
102
RTVSPropertyOp28
 70
     1
102
RTVSPropertyOp29
 70
     1
102
RTVSPropertyOp30
 70
     1
102
RTVSPropertyOp31
 70
     1
102
RTVSPropertyOp32
 70
     1
102
RTVSPropertyOp33
 70
     1
102
RTVSPropertyOp34
 70
     1
102
RTVSPropertyOp35
 70
     1
102
RTVSPropertyOp36
 70
     1
102
RTVSPropertyOp37
 70
     0
102
RTVSPropertyOp38
 70
     0
102
RTVSPropertyOp39
 70
     0
102
RTVSPropertyOp40
 70
     0
102
RTVSPropertyOp41
 70
     0
102
RTVSPropertyOp42
 70
     0
102
RTVSPropertyOp43
 70
     0
102
RTVSPropertyOp44
 70
     0
102
RTVSPropertyOp45
 70
     1
102
RTVSPropertyOp46
 70
     0
102
RTVSPropertyOp47
 70
     0
102
RTVSPropertyOp48
 70
     0
102
RTVSPropertyOp49
 70
     1
102
RTVSPropertyOp50
 70
     0
102
RTVSPropertyOp51
 70
     0
102
RTVSPropertyOp52
 70
     0
102
RTVSPropertyOp53
 70
     0
102
RTVSPropertyOp54
 70
     0
102
RTVSPropertyOp55
 70
     1
102
RTVSPropertyOp56
 70
     0
102
RTVSPropertyOp57
 70
     0
102
RTVSPropertyOp58
 70
     0
102
RTVSPropertyOp59
 70
     0
102
RTVSPropertyOp60
 70
     0
102
RTVSPropertyOp61
 70
     0
102
RTVSPropertyOp62
 70
     0
  0
XRECORD
  5
C337
102
{ACAD_REACTORS
330
C336
102
}
330
C336
100
AcDbXrecord
280
     1
102
RTVSPost2010Prop28
280
     0
102
RTVSPost2010PropOp28
 70
     1
102
RTVSPost2010Prop29
280
     1
102
RTVSPost2010PropOp29
 70
     1
102
RTVSPost2010Prop30
280
     1
102
RTVSPost2010PropOp30
 70
     1
102
RTVSPost2010Prop31
280
     0
102
RTVSPost2010PropOp31
 70
     1
102
RTVSPost2010Prop32
280
     0
102
RTVSPost2010PropOp32
 70
     1
102
RTVSPost2010Prop33
280
     0
102
RTVSPost2010PropOp33
 70
     1
102
RTVSPost2010Prop34
280
     0
102
RTVSPost2010PropOp34
 70
     1
102
RTVSPost2010Prop35
280
     0
102
RTVSPost2010PropOp35
 70
     1
102
RTVSPost2010Prop36
280
     0
102
RTVSPost2010PropOp36
 70
     1
102
RTVSPost2010Prop37
 90
       50
102
RTVSPost2010PropOp37
 70
     1
102
RTVSPost2010Prop38
140
0.0
102
RTVSPost2010PropOp38
 70
     1
102
RTVSPost2010Prop39
140
1.0
102
RTVSPost2010PropOp39
 70
     1
102
RTVSPost2010Prop40
 90
        0
102
RTVSPost2010PropOp40
 70
     1
102
RTVSPost2010Prop41ColorIndex
 90
       18
102
RTVSPost2010Prop41ColorRGB
 90
        0
102
RTVSPost2010PropOp41
 70
     1
102
RTVSPost2010Prop42
 90
       50
102
RTVSPost2010PropOp42
 70
     1
102
RTVSPost2010Prop43
 90
        3
102
RTVSPost2010PropOp43
 70
     1
102
RTVSPost2010Prop44ColorIndex
 90
        5
102
RTVSPost2010Prop44ColorRGB
 90
      255
102
RTVSPost2010PropOp44
 70
     1
102
RTVSPost2010Prop45
280
     0
102
RTVSPost2010PropOp45
 70
     1
102
RTVSPost2010Prop46
 90
       50
102
RTVSPost2010PropOp46
 70
     1
102
RTVSPost2010Prop47
 90
       50
102
RTVSPost2010PropOp47
 70
     1
102
RTVSPost2010Prop48
 90
       50
102
RTVSPost2010PropOp48
 70
     1
102
RTVSPost2010Prop49
280
     0
102
RTVSPost2010PropOp49
 70
     1
102
RTVSPost2010Prop50
 90
       50
102
RTVSPost2010PropOp50
 70
     1
102
RTVSPost2010Prop51ColorIndex
 90
      256
102
RTVSPost2010Prop51ColorRGB
 90
-16777216
102
RTVSPost2010PropOp51
 70
     0
102
RTVSPost2010Prop52
140
1.0
102
RTVSPost2010PropOp52
 70
     0
102
RTVSPost2010Prop53
 90
        2
102
RTVSPost2010PropOp53
 70
     1
102
RTVSPost2010Prop54
  1
strokes_ogs.tif
102
RTVSPost2010PropOp54
 70
     1
102
RTVSPost2010Prop55
280
     0
102
RTVSPost2010PropOp55
 70
     1
102
RTVSPost2010Prop56
140
1.0
102
RTVSPost2010PropOp56
 70
     1
102
RTVSPost2010Prop57
140
1.0
102
RTVSPost2010PropOp57
 70
     1
102
RTVSPropertyOp0
 70
     1
102
RTVSPropertyOp1
 70
     1
102
RTVSPropertyOp2
 70
     1
102
RTVSPropertyOp3
 70
     1
102
RTVSPropertyOp4
 70
     1
102
RTVSPropertyOp5
 70
     1
102
RTVSPropertyOp6
 70
     1
102
RTVSPropertyOp7
 70
     1
102
RTVSPropertyOp8
 70
     1
102
RTVSPropertyOp9
 70
     1
102
RTVSPropertyOp10
 70
     1
102
RTVSPropertyOp11
 70
     1
102
RTVSPropertyOp12
 70
     1
102
RTVSPropertyOp13
 70
     1
102
RTVSPropertyOp14
 70
     1
102
RTVSPropertyOp15
 70
     1
102
RTVSPropertyOp16
 70
     1
102
RTVSPropertyOp17
 70
     1
102
RTVSPropertyOp18
 70
     1
102
RTVSPropertyOp19
 70
     1
102
RTVSPropertyOp20
 70
     1
102
RTVSPropertyOp21
 70
     1
102
RTVSPropertyOp22
 70
     1
102
RTVSPropertyOp23
 70
     1
102
RTVSPropertyOp24
 70
     1
102
RTVSPropertyOp25
 70
     1
102
RTVSPropertyOp26
 70
     1
102
RTVSPropertyOp27
 70
     1
102
RTVSPropertyOp28
 70
     1
102
RTVSPropertyOp29
 70
     1
102
RTVSPropertyOp30
 70
     1
102
RTVSPropertyOp31
 70
     1
102
RTVSPropertyOp32
 70
     1
102
RTVSPropertyOp33
 70
     1
102
RTVSPropertyOp34
 70
     1
102
RTVSPropertyOp35
 70
     1
102
RTVSPropertyOp36
 70
     1
102
RTVSPropertyOp37
 70
     1
102
RTVSPropertyOp38
 70
     1
102
RTVSPropertyOp39
 70
     1
102
RTVSPropertyOp40
 70
     1
102
RTVSPropertyOp41
 70
     1
102
RTVSPropertyOp42
 70
     1
102
RTVSPropertyOp43
 70
     1
102
RTVSPropertyOp44
 70
     1
102
RTVSPropertyOp45
 70
     1
102
RTVSPropertyOp46
 70
     1
102
RTVSPropertyOp47
 70
     1
102
RTVSPropertyOp48
 70
     1
102
RTVSPropertyOp49
 70
     1
102
RTVSPropertyOp50
 70
     1
102
RTVSPropertyOp51
 70
     0
102
RTVSPropertyOp52
 70
     0
102
RTVSPropertyOp53
 70
     1
102
RTVSPropertyOp54
 70
     1
102
RTVSPropertyOp55
 70
     1
102
RTVSPropertyOp56
 70
     1
102
RTVSPropertyOp57
 70
     1
102
RTVSPropertyOp58
 70
     1
102
RTVSPropertyOp59
 70
     1
102
RTVSPropertyOp60
 70
     1
102
RTVSPropertyOp61
 70
     1
102
RTVSPropertyOp62
 70
     1
  0
XRECORD
  5
C34D
102
{ACAD_REACTORS
330
C34C
102
}
330
C34C
100
AcDbXrecord
280
     1
102
RTVSPost2010Prop28
280
     0
102
RTVSPost2010PropOp28
 70
     1
102
RTVSPost2010Prop29
280
     1
102
RTVSPost2010PropOp29
 70
     1
102
RTVSPost2010Prop30
280
     1
102
RTVSPost2010PropOp30
 70
     1
102
RTVSPost2010Prop31
280
     0
102
RTVSPost2010PropOp31
 70
     1
102
RTVSPost2010Prop32
280
     0
102
RTVSPost2010PropOp32
 70
     1
102
RTVSPost2010Prop33
280
     0
102
RTVSPost2010PropOp33
 70
     1
102
RTVSPost2010Prop34
280
     0
102
RTVSPost2010PropOp34
 70
     1
102
RTVSPost2010Prop35
280
     0
102
RTVSPost2010PropOp35
 70
     1
102
RTVSPost2010Prop36
280
     0
102
RTVSPost2010PropOp36
 70
     1
102
RTVSPost2010Prop37
 90
       50
102
RTVSPost2010PropOp37
 70
     1
102
RTVSPost2010Prop38
140
0.0
102
RTVSPost2010PropOp38
 70
     1
102
RTVSPost2010Prop39
140
1.0
102
RTVSPost2010PropOp39
 70
     1
102
RTVSPost2010Prop40
 90
        0
102
RTVSPost2010PropOp40
 70
     1
102
RTVSPost2010Prop41ColorIndex
 90
       18
102
RTVSPost2010Prop41ColorRGB
 90
        0
102
RTVSPost2010PropOp41
 70
     1
102
RTVSPost2010Prop42
 90
       50
102
RTVSPost2010PropOp42
 70
     1
102
RTVSPost2010Prop43
 90
        3
102
RTVSPost2010PropOp43
 70
     1
102
RTVSPost2010Prop44ColorIndex
 90
        5
102
RTVSPost2010Prop44ColorRGB
 90
      255
102
RTVSPost2010PropOp44
 70
     1
102
RTVSPost2010Prop45
280
     0
102
RTVSPost2010PropOp45
 70
     1
102
RTVSPost2010Prop46
 90
       50
102
RTVSPost2010PropOp46
 70
     1
102
RTVSPost2010Prop47
 90
       50
102
RTVSPost2010PropOp47
 70
     1
102
RTVSPost2010Prop48
 90
       50
102
RTVSPost2010PropOp48
 70
     1
102
RTVSPost2010Prop49
280
     0
102
RTVSPost2010PropOp49
 70
     1
102
RTVSPost2010Prop50
 90
       50
102
RTVSPost2010PropOp50
 70
     1
102
RTVSPost2010Prop51ColorIndex
 90
      256
102
RTVSPost2010Prop51ColorRGB
 90
-16777216
102
RTVSPost2010PropOp51
 70
     0
102
RTVSPost2010Prop52
140
1.0
102
RTVSPost2010PropOp52
 70
     0
102
RTVSPost2010Prop53
 90
        2
102
RTVSPost2010PropOp53
 70
     1
102
RTVSPost2010Prop54
  1
strokes_ogs.tif
102
RTVSPost2010PropOp54
 70
     1
102
RTVSPost2010Prop55
280
     0
102
RTVSPost2010PropOp55
 70
     1
102
RTVSPost2010Prop56
140
1.0
102
RTVSPost2010PropOp56
 70
     1
102
RTVSPost2010Prop57
140
1.0
102
RTVSPost2010PropOp57
 70
     1
102
RTVSPropertyOp0
 70
     1
102
RTVSPropertyOp1
 70
     1
102
RTVSPropertyOp2
 70
     1
102
RTVSPropertyOp3
 70
     1
102
RTVSPropertyOp4
 70
     1
102
RTVSPropertyOp5
 70
     1
102
RTVSPropertyOp6
 70
     1
102
RTVSPropertyOp7
 70
     1
102
RTVSPropertyOp8
 70
     1
102
RTVSPropertyOp9
 70
     1
102
RTVSPropertyOp10
 70
     1
102
RTVSPropertyOp11
 70
     1
102
RTVSPropertyOp12
 70
     1
102
RTVSPropertyOp13
 70
     1
102
RTVSPropertyOp14
 70
     1
102
RTVSPropertyOp15
 70
     1
102
RTVSPropertyOp16
 70
     1
102
RTVSPropertyOp17
 70
     1
102
RTVSPropertyOp18
 70
     1
102
RTVSPropertyOp19
 70
     1
102
RTVSPropertyOp20
 70
     1
102
RTVSPropertyOp21
 70
     1
102
RTVSPropertyOp22
 70
     1
102
RTVSPropertyOp23
 70
     1
102
RTVSPropertyOp24
 70
     1
102
RTVSPropertyOp25
 70
     1
102
RTVSPropertyOp26
 70
     1
102
RTVSPropertyOp27
 70
     1
102
RTVSPropertyOp28
 70
     1
102
RTVSPropertyOp29
 70
     1
102
RTVSPropertyOp30
 70
     1
102
RTVSPropertyOp31
 70
     1
102
RTVSPropertyOp32
 70
     1
102
RTVSPropertyOp33
 70
     1
102
RTVSPropertyOp34
 70
     1
102
RTVSPropertyOp35
 70
     1
102
RTVSPropertyOp36
 70
     1
102
RTVSPropertyOp37
 70
     1
102
RTVSPropertyOp38
 70
     1
102
RTVSPropertyOp39
 70
     1
102
RTVSPropertyOp40
 70
     1
102
RTVSPropertyOp41
 70
     1
102
RTVSPropertyOp42
 70
     1
102
RTVSPropertyOp43
 70
     1
102
RTVSPropertyOp44
 70
     1
102
RTVSPropertyOp45
 70
     1
102
RTVSPropertyOp46
 70
     1
102
RTVSPropertyOp47
 70
     1
102
RTVSPropertyOp48
 70
     1
102
RTVSPropertyOp49
 70
     1
102
RTVSPropertyOp50
 70
     1
102
RTVSPropertyOp51
 70
     0
102
RTVSPropertyOp52
 70
     0
102
RTVSPropertyOp53
 70
     1
102
RTVSPropertyOp54
 70
     1
102
RTVSPropertyOp55
 70
     1
102
RTVSPropertyOp56
 70
     1
102
RTVSPropertyOp57
 70
     1
102
RTVSPropertyOp58
 70
     1
102
RTVSPropertyOp59
 70
     1
102
RTVSPropertyOp60
 70
     1
102
RTVSPropertyOp61
 70
     1
102
RTVSPropertyOp62
 70
     1
  0
XRECORD
  5
C34B
102
{ACAD_REACTORS
330
C34A
102
}
330
C34A
100
AcDbXrecord
280
     1
102
RTVSPost2010Prop28
280
     0
102
RTVSPost2010PropOp28
 70
     1
102
RTVSPost2010Prop29
280
     1
102
RTVSPost2010PropOp29
 70
     1
102
RTVSPost2010Prop30
280
     1
102
RTVSPost2010PropOp30
 70
     1
102
RTVSPost2010Prop31
280
     0
102
RTVSPost2010PropOp31
 70
     1
102
RTVSPost2010Prop32
280
     0
102
RTVSPost2010PropOp32
 70
     1
102
RTVSPost2010Prop33
280
     0
102
RTVSPost2010PropOp33
 70
     1
102
RTVSPost2010Prop34
280
     0
102
RTVSPost2010PropOp34
 70
     1
102
RTVSPost2010Prop35
280
     0
102
RTVSPost2010PropOp35
 70
     1
102
RTVSPost2010Prop36
280
     0
102
RTVSPost2010PropOp36
 70
     1
102
RTVSPost2010Prop37
 90
       50
102
RTVSPost2010PropOp37
 70
     1
102
RTVSPost2010Prop38
140
0.0
102
RTVSPost2010PropOp38
 70
     1
102
RTVSPost2010Prop39
140
1.0
102
RTVSPost2010PropOp39
 70
     1
102
RTVSPost2010Prop40
 90
        0
102
RTVSPost2010PropOp40
 70
     1
102
RTVSPost2010Prop41ColorIndex
 90
       18
102
RTVSPost2010Prop41ColorRGB
 90
        0
102
RTVSPost2010PropOp41
 70
     1
102
RTVSPost2010Prop42
 90
       50
102
RTVSPost2010PropOp42
 70
     1
102
RTVSPost2010Prop43
 90
        3
102
RTVSPost2010PropOp43
 70
     1
102
RTVSPost2010Prop44ColorIndex
 90
        5
102
RTVSPost2010Prop44ColorRGB
 90
      255
102
RTVSPost2010PropOp44
 70
     1
102
RTVSPost2010Prop45
280
     0
102
RTVSPost2010PropOp45
 70
     1
102
RTVSPost2010Prop46
 90
       50
102
RTVSPost2010PropOp46
 70
     1
102
RTVSPost2010Prop47
 90
       50
102
RTVSPost2010PropOp47
 70
     1
102
RTVSPost2010Prop48
 90
       50
102
RTVSPost2010PropOp48
 70
     1
102
RTVSPost2010Prop49
280
     0
102
RTVSPost2010PropOp49
 70
     1
102
RTVSPost2010Prop50
 90
       50
102
RTVSPost2010PropOp50
 70
     1
102
RTVSPost2010Prop51ColorIndex
 90
      256
102
RTVSPost2010Prop51ColorRGB
 90
-16777216
102
RTVSPost2010PropOp51
 70
     0
102
RTVSPost2010Prop52
140
1.0
102
RTVSPost2010PropOp52
 70
     0
102
RTVSPost2010Prop53
 90
        2
102
RTVSPost2010PropOp53
 70
     1
102
RTVSPost2010Prop54
  1
strokes_ogs.tif
102
RTVSPost2010PropOp54
 70
     1
102
RTVSPost2010Prop55
280
     0
102
RTVSPost2010PropOp55
 70
     1
102
RTVSPost2010Prop56
140
1.0
102
RTVSPost2010PropOp56
 70
     1
102
RTVSPost2010Prop57
140
1.0
102
RTVSPost2010PropOp57
 70
     1
102
RTVSPropertyOp0
 70
     1
102
RTVSPropertyOp1
 70
     1
102
RTVSPropertyOp2
 70
     1
102
RTVSPropertyOp3
 70
     1
102
RTVSPropertyOp4
 70
     1
102
RTVSPropertyOp5
 70
     1
102
RTVSPropertyOp6
 70
     1
102
RTVSPropertyOp7
 70
     1
102
RTVSPropertyOp8
 70
     1
102
RTVSPropertyOp9
 70
     1
102
RTVSPropertyOp10
 70
     1
102
RTVSPropertyOp11
 70
     1
102
RTVSPropertyOp12
 70
     1
102
RTVSPropertyOp13
 70
     1
102
RTVSPropertyOp14
 70
     1
102
RTVSPropertyOp15
 70
     1
102
RTVSPropertyOp16
 70
     1
102
RTVSPropertyOp17
 70
     1
102
RTVSPropertyOp18
 70
     1
102
RTVSPropertyOp19
 70
     1
102
RTVSPropertyOp20
 70
     1
102
RTVSPropertyOp21
 70
     1
102
RTVSPropertyOp22
 70
     1
102
RTVSPropertyOp23
 70
     1
102
RTVSPropertyOp24
 70
     1
102
RTVSPropertyOp25
 70
     1
102
RTVSPropertyOp26
 70
     1
102
RTVSPropertyOp27
 70
     1
102
RTVSPropertyOp28
 70
     1
102
RTVSPropertyOp29
 70
     1
102
RTVSPropertyOp30
 70
     1
102
RTVSPropertyOp31
 70
     1
102
RTVSPropertyOp32
 70
     1
102
RTVSPropertyOp33
 70
     1
102
RTVSPropertyOp34
 70
     1
102
RTVSPropertyOp35
 70
     1
102
RTVSPropertyOp36
 70
     1
102
RTVSPropertyOp37
 70
     1
102
RTVSPropertyOp38
 70
     1
102
RTVSPropertyOp39
 70
     1
102
RTVSPropertyOp40
 70
     1
102
RTVSPropertyOp41
 70
     1
102
RTVSPropertyOp42
 70
     1
102
RTVSPropertyOp43
 70
     1
102
RTVSPropertyOp44
 70
     1
102
RTVSPropertyOp45
 70
     1
102
RTVSPropertyOp46
 70
     1
102
RTVSPropertyOp47
 70
     1
102
RTVSPropertyOp48
 70
     1
102
RTVSPropertyOp49
 70
     1
102
RTVSPropertyOp50
 70
     1
102
RTVSPropertyOp51
 70
     0
102
RTVSPropertyOp52
 70
     0
102
RTVSPropertyOp53
 70
     1
102
RTVSPropertyOp54
 70
     1
102
RTVSPropertyOp55
 70
     1
102
RTVSPropertyOp56
 70
     1
102
RTVSPropertyOp57
 70
     1
102
RTVSPropertyOp58
 70
     1
102
RTVSPropertyOp59
 70
     1
102
RTVSPropertyOp60
 70
     1
102
RTVSPropertyOp61
 70
     1
102
RTVSPropertyOp62
 70
     1
  0
XRECORD
  5
C345
102
{ACAD_REACTORS
330
C344
102
}
330
C344
100
AcDbXrecord
280
     1
102
RTVSPost2010Prop28
280
     0
102
RTVSPost2010PropOp28
 70
     1
102
RTVSPost2010Prop29
280
     1
102
RTVSPost2010PropOp29
 70
     1
102
RTVSPost2010Prop30
280
     1
102
RTVSPost2010PropOp30
 70
     1
102
RTVSPost2010Prop31
280
     0
102
RTVSPost2010PropOp31
 70
     1
102
RTVSPost2010Prop32
280
     0
102
RTVSPost2010PropOp32
 70
     1
102
RTVSPost2010Prop33
280
     0
102
RTVSPost2010PropOp33
 70
     1
102
RTVSPost2010Prop34
280
     0
102
RTVSPost2010PropOp34
 70
     1
102
RTVSPost2010Prop35
280
     0
102
RTVSPost2010PropOp35
 70
     1
102
RTVSPost2010Prop36
280
     0
102
RTVSPost2010PropOp36
 70
     1
102
RTVSPost2010Prop37
 90
       50
102
RTVSPost2010PropOp37
 70
     1
102
RTVSPost2010Prop38
140
0.0
102
RTVSPost2010PropOp38
 70
     1
102
RTVSPost2010Prop39
140
1.0
102
RTVSPost2010PropOp39
 70
     1
102
RTVSPost2010Prop40
 90
        0
102
RTVSPost2010PropOp40
 70
     1
102
RTVSPost2010Prop41ColorIndex
 90
       18
102
RTVSPost2010Prop41ColorRGB
 90
        0
102
RTVSPost2010PropOp41
 70
     1
102
RTVSPost2010Prop42
 90
       50
102
RTVSPost2010PropOp42
 70
     1
102
RTVSPost2010Prop43
 90
        3
102
RTVSPost2010PropOp43
 70
     1
102
RTVSPost2010Prop44ColorIndex
 90
        5
102
RTVSPost2010Prop44ColorRGB
 90
      255
102
RTVSPost2010PropOp44
 70
     1
102
RTVSPost2010Prop45
280
     0
102
RTVSPost2010PropOp45
 70
     1
102
RTVSPost2010Prop46
 90
       50
102
RTVSPost2010PropOp46
 70
     1
102
RTVSPost2010Prop47
 90
       50
102
RTVSPost2010PropOp47
 70
     1
102
RTVSPost2010Prop48
 90
       50
102
RTVSPost2010PropOp48
 70
     1
102
RTVSPost2010Prop49
280
     0
102
RTVSPost2010PropOp49
 70
     1
102
RTVSPost2010Prop50
 90
       50
102
RTVSPost2010PropOp50
 70
     1
102
RTVSPost2010Prop51ColorIndex
 90
      256
102
RTVSPost2010Prop51ColorRGB
 90
-16777216
102
RTVSPost2010PropOp51
 70
     0
102
RTVSPost2010Prop52
140
1.0
102
RTVSPost2010PropOp52
 70
     0
102
RTVSPost2010Prop53
 90
        2
102
RTVSPost2010PropOp53
 70
     1
102
RTVSPost2010Prop54
  1
strokes_ogs.tif
102
RTVSPost2010PropOp54
 70
     1
102
RTVSPost2010Prop55
280
     0
102
RTVSPost2010PropOp55
 70
     1
102
RTVSPost2010Prop56
140
1.0
102
RTVSPost2010PropOp56
 70
     1
102
RTVSPost2010Prop57
140
1.0
102
RTVSPost2010PropOp57
 70
     1
102
RTVSPropertyOp0
 70
     1
102
RTVSPropertyOp1
 70
     1
102
RTVSPropertyOp2
 70
     1
102
RTVSPropertyOp3
 70
     1
102
RTVSPropertyOp4
 70
     1
102
RTVSPropertyOp5
 70
     1
102
RTVSPropertyOp6
 70
     1
102
RTVSPropertyOp7
 70
     1
102
RTVSPropertyOp8
 70
     1
102
RTVSPropertyOp9
 70
     1
102
RTVSPropertyOp10
 70
     1
102
RTVSPropertyOp11
 70
     1
102
RTVSPropertyOp12
 70
     1
102
RTVSPropertyOp13
 70
     1
102
RTVSPropertyOp14
 70
     1
102
RTVSPropertyOp15
 70
     1
102
RTVSPropertyOp16
 70
     1
102
RTVSPropertyOp17
 70
     1
102
RTVSPropertyOp18
 70
     1
102
RTVSPropertyOp19
 70
     1
102
RTVSPropertyOp20
 70
     1
102
RTVSPropertyOp21
 70
     1
102
RTVSPropertyOp22
 70
     1
102
RTVSPropertyOp23
 70
     1
102
RTVSPropertyOp24
 70
     1
102
RTVSPropertyOp25
 70
     1
102
RTVSPropertyOp26
 70
     1
102
RTVSPropertyOp27
 70
     1
102
RTVSPropertyOp28
 70
     1
102
RTVSPropertyOp29
 70
     1
102
RTVSPropertyOp30
 70
     1
102
RTVSPropertyOp31
 70
     1
102
RTVSPropertyOp32
 70
     1
102
RTVSPropertyOp33
 70
     1
102
RTVSPropertyOp34
 70
     1
102
RTVSPropertyOp35
 70
     1
102
RTVSPropertyOp36
 70
     1
102
RTVSPropertyOp37
 70
     1
102
RTVSPropertyOp38
 70
     1
102
RTVSPropertyOp39
 70
     1
102
RTVSPropertyOp40
 70
     1
102
RTVSPropertyOp41
 70
     1
102
RTVSPropertyOp42
 70
     1
102
RTVSPropertyOp43
 70
     1
102
RTVSPropertyOp44
 70
     1
102
RTVSPropertyOp45
 70
     1
102
RTVSPropertyOp46
 70
     1
102
RTVSPropertyOp47
 70
     1
102
RTVSPropertyOp48
 70
     1
102
RTVSPropertyOp49
 70
     1
102
RTVSPropertyOp50
 70
     1
102
RTVSPropertyOp51
 70
     0
102
RTVSPropertyOp52
 70
     0
102
RTVSPropertyOp53
 70
     1
102
RTVSPropertyOp54
 70
     1
102
RTVSPropertyOp55
 70
     1
102
RTVSPropertyOp56
 70
     1
102
RTVSPropertyOp57
 70
     1
102
RTVSPropertyOp58
 70
     1
102
RTVSPropertyOp59
 70
     1
102
RTVSPropertyOp60
 70
     1
102
RTVSPropertyOp61
 70
     1
102
RTVSPropertyOp62
 70
     1
  0
XRECORD
  5
C347
102
{ACAD_REACTORS
330
C346
102
}
330
C346
100
AcDbXrecord
280
     1
102
RTVSPost2010Prop28
280
     0
102
RTVSPost2010PropOp28
 70
     1
102
RTVSPost2010Prop29
280
     1
102
RTVSPost2010PropOp29
 70
     1
102
RTVSPost2010Prop30
280
     1
102
RTVSPost2010PropOp30
 70
     1
102
RTVSPost2010Prop31
280
     0
102
RTVSPost2010PropOp31
 70
     1
102
RTVSPost2010Prop32
280
     0
102
RTVSPost2010PropOp32
 70
     1
102
RTVSPost2010Prop33
280
     0
102
RTVSPost2010PropOp33
 70
     1
102
RTVSPost2010Prop34
280
     0
102
RTVSPost2010PropOp34
 70
     1
102
RTVSPost2010Prop35
280
     0
102
RTVSPost2010PropOp35
 70
     1
102
RTVSPost2010Prop36
280
     0
102
RTVSPost2010PropOp36
 70
     1
102
RTVSPost2010Prop37
 90
       50
102
RTVSPost2010PropOp37
 70
     1
102
RTVSPost2010Prop38
140
0.0
102
RTVSPost2010PropOp38
 70
     1
102
RTVSPost2010Prop39
140
1.0
102
RTVSPost2010PropOp39
 70
     1
102
RTVSPost2010Prop40
 90
        0
102
RTVSPost2010PropOp40
 70
     1
102
RTVSPost2010Prop41ColorIndex
 90
       18
102
RTVSPost2010Prop41ColorRGB
 90
        0
102
RTVSPost2010PropOp41
 70
     1
102
RTVSPost2010Prop42
 90
       50
102
RTVSPost2010PropOp42
 70
     1
102
RTVSPost2010Prop43
 90
        3
102
RTVSPost2010PropOp43
 70
     1
102
RTVSPost2010Prop44ColorIndex
 90
        5
102
RTVSPost2010Prop44ColorRGB
 90
      255
102
RTVSPost2010PropOp44
 70
     1
102
RTVSPost2010Prop45
280
     0
102
RTVSPost2010PropOp45
 70
     1
102
RTVSPost2010Prop46
 90
       50
102
RTVSPost2010PropOp46
 70
     1
102
RTVSPost2010Prop47
 90
       50
102
RTVSPost2010PropOp47
 70
     1
102
RTVSPost2010Prop48
 90
       50
102
RTVSPost2010PropOp48
 70
     1
102
RTVSPost2010Prop49
280
     0
102
RTVSPost2010PropOp49
 70
     1
102
RTVSPost2010Prop50
 90
       50
102
RTVSPost2010PropOp50
 70
     1
102
RTVSPost2010Prop51ColorIndex
 90
      256
102
RTVSPost2010Prop51ColorRGB
 90
-16777216
102
RTVSPost2010PropOp51
 70
     0
102
RTVSPost2010Prop52
140
1.0
102
RTVSPost2010PropOp52
 70
     0
102
RTVSPost2010Prop53
 90
        2
102
RTVSPost2010PropOp53
 70
     1
102
RTVSPost2010Prop54
  1
strokes_ogs.tif
102
RTVSPost2010PropOp54
 70
     1
102
RTVSPost2010Prop55
280
     0
102
RTVSPost2010PropOp55
 70
     1
102
RTVSPost2010Prop56
140
1.0
102
RTVSPost2010PropOp56
 70
     1
102
RTVSPost2010Prop57
140
1.0
102
RTVSPost2010PropOp57
 70
     1
102
RTVSPropertyOp0
 70
     1
102
RTVSPropertyOp1
 70
     1
102
RTVSPropertyOp2
 70
     1
102
RTVSPropertyOp3
 70
     1
102
RTVSPropertyOp4
 70
     1
102
RTVSPropertyOp5
 70
     1
102
RTVSPropertyOp6
 70
     1
102
RTVSPropertyOp7
 70
     1
102
RTVSPropertyOp8
 70
     1
102
RTVSPropertyOp9
 70
     1
102
RTVSPropertyOp10
 70
     1
102
RTVSPropertyOp11
 70
     1
102
RTVSPropertyOp12
 70
     1
102
RTVSPropertyOp13
 70
     1
102
RTVSPropertyOp14
 70
     1
102
RTVSPropertyOp15
 70
     1
102
RTVSPropertyOp16
 70
     1
102
RTVSPropertyOp17
 70
     1
102
RTVSPropertyOp18
 70
     1
102
RTVSPropertyOp19
 70
     1
102
RTVSPropertyOp20
 70
     1
102
RTVSPropertyOp21
 70
     1
102
RTVSPropertyOp22
 70
     1
102
RTVSPropertyOp23
 70
     1
102
RTVSPropertyOp24
 70
     1
102
RTVSPropertyOp25
 70
     1
102
RTVSPropertyOp26
 70
     1
102
RTVSPropertyOp27
 70
     1
102
RTVSPropertyOp28
 70
     1
102
RTVSPropertyOp29
 70
     1
102
RTVSPropertyOp30
 70
     1
102
RTVSPropertyOp31
 70
     1
102
RTVSPropertyOp32
 70
     1
102
RTVSPropertyOp33
 70
     1
102
RTVSPropertyOp34
 70
     1
102
RTVSPropertyOp35
 70
     1
102
RTVSPropertyOp36
 70
     1
102
RTVSPropertyOp37
 70
     1
102
RTVSPropertyOp38
 70
     1
102
RTVSPropertyOp39
 70
     1
102
RTVSPropertyOp40
 70
     1
102
RTVSPropertyOp41
 70
     1
102
RTVSPropertyOp42
 70
     1
102
RTVSPropertyOp43
 70
     1
102
RTVSPropertyOp44
 70
     1
102
RTVSPropertyOp45
 70
     1
102
RTVSPropertyOp46
 70
     1
102
RTVSPropertyOp47
 70
     1
102
RTVSPropertyOp48
 70
     1
102
RTVSPropertyOp49
 70
     1
102
RTVSPropertyOp50
 70
     1
102
RTVSPropertyOp51
 70
     0
102
RTVSPropertyOp52
 70
     0
102
RTVSPropertyOp53
 70
     1
102
RTVSPropertyOp54
 70
     1
102
RTVSPropertyOp55
 70
     1
102
RTVSPropertyOp56
 70
     1
102
RTVSPropertyOp57
 70
     1
102
RTVSPropertyOp58
 70
     1
102
RTVSPropertyOp59
 70
     1
102
RTVSPropertyOp60
 70
     1
102
RTVSPropertyOp61
 70
     1
102
RTVSPropertyOp62
 70
     1
  0
XRECORD
  5
C33D
102
{ACAD_REACTORS
330
C33C
102
}
330
C33C
100
AcDbXrecord
280
     1
102
RTVSPost2010Prop28
280
     0
102
RTVSPost2010PropOp28
 70
     1
102
RTVSPost2010Prop29
280
     1
102
RTVSPost2010PropOp29
 70
     1
102
RTVSPost2010Prop30
280
     1
102
RTVSPost2010PropOp30
 70
     1
102
RTVSPost2010Prop31
280
     0
102
RTVSPost2010PropOp31
 70
     1
102
RTVSPost2010Prop32
280
     0
102
RTVSPost2010PropOp32
 70
     1
102
RTVSPost2010Prop33
280
     0
102
RTVSPost2010PropOp33
 70
     1
102
RTVSPost2010Prop34
280
     0
102
RTVSPost2010PropOp34
 70
     1
102
RTVSPost2010Prop35
280
     0
102
RTVSPost2010PropOp35
 70
     1
102
RTVSPost2010Prop36
280
     0
102
RTVSPost2010PropOp36
 70
     1
102
RTVSPost2010Prop37
 90
       50
102
RTVSPost2010PropOp37
 70
     1
102
RTVSPost2010Prop38
140
0.0
102
RTVSPost2010PropOp38
 70
     1
102
RTVSPost2010Prop39
140
1.0
102
RTVSPost2010PropOp39
 70
     1
102
RTVSPost2010Prop40
 90
        0
102
RTVSPost2010PropOp40
 70
     1
102
RTVSPost2010Prop41ColorIndex
 90
       18
102
RTVSPost2010Prop41ColorRGB
 90
        0
102
RTVSPost2010PropOp41
 70
     1
102
RTVSPost2010Prop42
 90
       50
102
RTVSPost2010PropOp42
 70
     1
102
RTVSPost2010Prop43
 90
        3
102
RTVSPost2010PropOp43
 70
     1
102
RTVSPost2010Prop44ColorIndex
 90
        5
102
RTVSPost2010Prop44ColorRGB
 90
      255
102
RTVSPost2010PropOp44
 70
     1
102
RTVSPost2010Prop45
280
     0
102
RTVSPost2010PropOp45
 70
     1
102
RTVSPost2010Prop46
 90
       50
102
RTVSPost2010PropOp46
 70
     1
102
RTVSPost2010Prop47
 90
       50
102
RTVSPost2010PropOp47
 70
     1
102
RTVSPost2010Prop48
 90
       50
102
RTVSPost2010PropOp48
 70
     1
102
RTVSPost2010Prop49
280
     0
102
RTVSPost2010PropOp49
 70
     1
102
RTVSPost2010Prop50
 90
       50
102
RTVSPost2010PropOp50
 70
     1
102
RTVSPost2010Prop51ColorIndex
 90
      256
102
RTVSPost2010Prop51ColorRGB
 90
-16777216
102
RTVSPost2010PropOp51
 70
     0
102
RTVSPost2010Prop52
140
1.0
102
RTVSPost2010PropOp52
 70
     0
102
RTVSPost2010Prop53
 90
        2
102
RTVSPost2010PropOp53
 70
     1
102
RTVSPost2010Prop54
  1
strokes_ogs.tif
102
RTVSPost2010PropOp54
 70
     1
102
RTVSPost2010Prop55
280
     0
102
RTVSPost2010PropOp55
 70
     1
102
RTVSPost2010Prop56
140
1.0
102
RTVSPost2010PropOp56
 70
     1
102
RTVSPost2010Prop57
140
1.0
102
RTVSPost2010PropOp57
 70
     1
102
RTVSPropertyOp0
 70
     1
102
RTVSPropertyOp1
 70
     1
102
RTVSPropertyOp2
 70
     1
102
RTVSPropertyOp3
 70
     1
102
RTVSPropertyOp4
 70
     1
102
RTVSPropertyOp5
 70
     1
102
RTVSPropertyOp6
 70
     1
102
RTVSPropertyOp7
 70
     1
102
RTVSPropertyOp8
 70
     1
102
RTVSPropertyOp9
 70
     1
102
RTVSPropertyOp10
 70
     1
102
RTVSPropertyOp11
 70
     1
102
RTVSPropertyOp12
 70
     1
102
RTVSPropertyOp13
 70
     1
102
RTVSPropertyOp14
 70
     1
102
RTVSPropertyOp15
 70
     1
102
RTVSPropertyOp16
 70
     1
102
RTVSPropertyOp17
 70
     1
102
RTVSPropertyOp18
 70
     1
102
RTVSPropertyOp19
 70
     1
102
RTVSPropertyOp20
 70
     1
102
RTVSPropertyOp21
 70
     1
102
RTVSPropertyOp22
 70
     1
102
RTVSPropertyOp23
 70
     1
102
RTVSPropertyOp24
 70
     1
102
RTVSPropertyOp25
 70
     1
102
RTVSPropertyOp26
 70
     1
102
RTVSPropertyOp27
 70
     1
102
RTVSPropertyOp28
 70
     1
102
RTVSPropertyOp29
 70
     1
102
RTVSPropertyOp30
 70
     1
102
RTVSPropertyOp31
 70
     1
102
RTVSPropertyOp32
 70
     1
102
RTVSPropertyOp33
 70
     1
102
RTVSPropertyOp34
 70
     1
102
RTVSPropertyOp35
 70
     1
102
RTVSPropertyOp36
 70
     1
102
RTVSPropertyOp37
 70
     1
102
RTVSPropertyOp38
 70
     1
102
RTVSPropertyOp39
 70
     1
102
RTVSPropertyOp40
 70
     1
102
RTVSPropertyOp41
 70
     1
102
RTVSPropertyOp42
 70
     1
102
RTVSPropertyOp43
 70
     1
102
RTVSPropertyOp44
 70
     1
102
RTVSPropertyOp45
 70
     1
102
RTVSPropertyOp46
 70
     1
102
RTVSPropertyOp47
 70
     1
102
RTVSPropertyOp48
 70
     1
102
RTVSPropertyOp49
 70
     1
102
RTVSPropertyOp50
 70
     1
102
RTVSPropertyOp51
 70
     0
102
RTVSPropertyOp52
 70
     0
102
RTVSPropertyOp53
 70
     1
102
RTVSPropertyOp54
 70
     1
102
RTVSPropertyOp55
 70
     1
102
RTVSPropertyOp56
 70
     1
102
RTVSPropertyOp57
 70
     1
102
RTVSPropertyOp58
 70
     1
102
RTVSPropertyOp59
 70
     1
102
RTVSPropertyOp60
 70
     1
102
RTVSPropertyOp61
 70
     1
102
RTVSPropertyOp62
 70
     1
  0
XRECORD
  5
C331
102
{ACAD_REACTORS
330
C330
102
}
330
C330
100
AcDbXrecord
280
     1
102
RTVSPost2010Prop28
280
     0
102
RTVSPost2010PropOp28
 70
     1
102
RTVSPost2010Prop29
280
     1
102
RTVSPost2010PropOp29
 70
     1
102
RTVSPost2010Prop30
280
     1
102
RTVSPost2010PropOp30
 70
     1
102
RTVSPost2010Prop31
280
     0
102
RTVSPost2010PropOp31
 70
     1
102
RTVSPost2010Prop32
280
     0
102
RTVSPost2010PropOp32
 70
     1
102
RTVSPost2010Prop33
280
     0
102
RTVSPost2010PropOp33
 70
     1
102
RTVSPost2010Prop34
280
     0
102
RTVSPost2010PropOp34
 70
     1
102
RTVSPost2010Prop35
280
     0
102
RTVSPost2010PropOp35
 70
     1
102
RTVSPost2010Prop36
280
     0
102
RTVSPost2010PropOp36
 70
     1
102
RTVSPost2010Prop37
 90
       50
102
RTVSPost2010PropOp37
 70
     1
102
RTVSPost2010Prop38
140
0.0
102
RTVSPost2010PropOp38
 70
     1
102
RTVSPost2010Prop39
140
1.0
102
RTVSPost2010PropOp39
 70
     1
102
RTVSPost2010Prop40
 90
        0
102
RTVSPost2010PropOp40
 70
     1
102
RTVSPost2010Prop41ColorIndex
 90
       18
102
RTVSPost2010Prop41ColorRGB
 90
        0
102
RTVSPost2010PropOp41
 70
     1
102
RTVSPost2010Prop42
 90
       50
102
RTVSPost2010PropOp42
 70
     1
102
RTVSPost2010Prop43
 90
        3
102
RTVSPost2010PropOp43
 70
     1
102
RTVSPost2010Prop44ColorIndex
 90
        5
102
RTVSPost2010Prop44ColorRGB
 90
      255
102
RTVSPost2010PropOp44
 70
     1
102
RTVSPost2010Prop45
280
     0
102
RTVSPost2010PropOp45
 70
     1
102
RTVSPost2010Prop46
 90
       50
102
RTVSPost2010PropOp46
 70
     1
102
RTVSPost2010Prop47
 90
       50
102
RTVSPost2010PropOp47
 70
     1
102
RTVSPost2010Prop48
 90
       50
102
RTVSPost2010PropOp48
 70
     1
102
RTVSPost2010Prop49
280
     0
102
RTVSPost2010PropOp49
 70
     1
102
RTVSPost2010Prop50
 90
       50
102
RTVSPost2010PropOp50
 70
     1
102
RTVSPost2010Prop51ColorIndex
 90
      256
102
RTVSPost2010Prop51ColorRGB
 90
-16777216
102
RTVSPost2010PropOp51
 70
     0
102
RTVSPost2010Prop52
140
1.0
102
RTVSPost2010PropOp52
 70
     0
102
RTVSPost2010Prop53
 90
        2
102
RTVSPost2010PropOp53
 70
     1
102
RTVSPost2010Prop54
  1
strokes_ogs.tif
102
RTVSPost2010PropOp54
 70
     1
102
RTVSPost2010Prop55
280
     0
102
RTVSPost2010PropOp55
 70
     1
102
RTVSPost2010Prop56
140
1.0
102
RTVSPost2010PropOp56
 70
     1
102
RTVSPost2010Prop57
140
1.0
102
RTVSPost2010PropOp57
 70
     1
102
RTVSPropertyOp0
 70
     1
102
RTVSPropertyOp1
 70
     1
102
RTVSPropertyOp2
 70
     1
102
RTVSPropertyOp3
 70
     1
102
RTVSPropertyOp4
 70
     1
102
RTVSPropertyOp5
 70
     1
102
RTVSPropertyOp6
 70
     1
102
RTVSPropertyOp7
 70
     1
102
RTVSPropertyOp8
 70
     1
102
RTVSPropertyOp9
 70
     1
102
RTVSPropertyOp10
 70
     1
102
RTVSPropertyOp11
 70
     1
102
RTVSPropertyOp12
 70
     1
102
RTVSPropertyOp13
 70
     1
102
RTVSPropertyOp14
 70
     1
102
RTVSPropertyOp15
 70
     1
102
RTVSPropertyOp16
 70
     1
102
RTVSPropertyOp17
 70
     1
102
RTVSPropertyOp18
 70
     1
102
RTVSPropertyOp19
 70
     1
102
RTVSPropertyOp20
 70
     1
102
RTVSPropertyOp21
 70
     1
102
RTVSPropertyOp22
 70
     1
102
RTVSPropertyOp23
 70
     1
102
RTVSPropertyOp24
 70
     1
102
RTVSPropertyOp25
 70
     1
102
RTVSPropertyOp26
 70
     1
102
RTVSPropertyOp27
 70
     1
102
RTVSPropertyOp28
 70
     1
102
RTVSPropertyOp29
 70
     1
102
RTVSPropertyOp30
 70
     1
102
RTVSPropertyOp31
 70
     1
102
RTVSPropertyOp32
 70
     1
102
RTVSPropertyOp33
 70
     1
102
RTVSPropertyOp34
 70
     1
102
RTVSPropertyOp35
 70
     1
102
RTVSPropertyOp36
 70
     1
102
RTVSPropertyOp37
 70
     1
102
RTVSPropertyOp38
 70
     1
102
RTVSPropertyOp39
 70
     1
102
RTVSPropertyOp40
 70
     1
102
RTVSPropertyOp41
 70
     1
102
RTVSPropertyOp42
 70
     1
102
RTVSPropertyOp43
 70
     1
102
RTVSPropertyOp44
 70
     1
102
RTVSPropertyOp45
 70
     1
102
RTVSPropertyOp46
 70
     1
102
RTVSPropertyOp47
 70
     1
102
RTVSPropertyOp48
 70
     1
102
RTVSPropertyOp49
 70
     1
102
RTVSPropertyOp50
 70
     1
102
RTVSPropertyOp51
 70
     0
102
RTVSPropertyOp52
 70
     0
102
RTVSPropertyOp53
 70
     1
102
RTVSPropertyOp54
 70
     1
102
RTVSPropertyOp55
 70
     1
102
RTVSPropertyOp56
 70
     1
102
RTVSPropertyOp57
 70
     1
102
RTVSPropertyOp58
 70
     1
102
RTVSPropertyOp59
 70
     1
102
RTVSPropertyOp60
 70
     1
102
RTVSPropertyOp61
 70
     1
102
RTVSPropertyOp62
 70
     1
  0
XRECORD
  5
C349
102
{ACAD_REACTORS
330
C348
102
}
330
C348
100
AcDbXrecord
280
     1
102
RTVSPost2010Prop28
280
     0
102
RTVSPost2010PropOp28
 70
     1
102
RTVSPost2010Prop29
280
     1
102
RTVSPost2010PropOp29
 70
     1
102
RTVSPost2010Prop30
280
     1
102
RTVSPost2010PropOp30
 70
     1
102
RTVSPost2010Prop31
280
     0
102
RTVSPost2010PropOp31
 70
     1
102
RTVSPost2010Prop32
280
     0
102
RTVSPost2010PropOp32
 70
     1
102
RTVSPost2010Prop33
280
     0
102
RTVSPost2010PropOp33
 70
     1
102
RTVSPost2010Prop34
280
     0
102
RTVSPost2010PropOp34
 70
     1
102
RTVSPost2010Prop35
280
     0
102
RTVSPost2010PropOp35
 70
     1
102
RTVSPost2010Prop36
280
     0
102
RTVSPost2010PropOp36
 70
     1
102
RTVSPost2010Prop37
 90
       50
102
RTVSPost2010PropOp37
 70
     1
102
RTVSPost2010Prop38
140
0.0
102
RTVSPost2010PropOp38
 70
     1
102
RTVSPost2010Prop39
140
1.0
102
RTVSPost2010PropOp39
 70
     1
102
RTVSPost2010Prop40
 90
        0
102
RTVSPost2010PropOp40
 70
     1
102
RTVSPost2010Prop41ColorIndex
 90
       18
102
RTVSPost2010Prop41ColorRGB
 90
        0
102
RTVSPost2010PropOp41
 70
     1
102
RTVSPost2010Prop42
 90
       50
102
RTVSPost2010PropOp42
 70
     1
102
RTVSPost2010Prop43
 90
        3
102
RTVSPost2010PropOp43
 70
     1
102
RTVSPost2010Prop44ColorIndex
 90
        5
102
RTVSPost2010Prop44ColorRGB
 90
      255
102
RTVSPost2010PropOp44
 70
     1
102
RTVSPost2010Prop45
280
     0
102
RTVSPost2010PropOp45
 70
     1
102
RTVSPost2010Prop46
 90
       50
102
RTVSPost2010PropOp46
 70
     1
102
RTVSPost2010Prop47
 90
       50
102
RTVSPost2010PropOp47
 70
     1
102
RTVSPost2010Prop48
 90
       50
102
RTVSPost2010PropOp48
 70
     1
102
RTVSPost2010Prop49
280
     0
102
RTVSPost2010PropOp49
 70
     1
102
RTVSPost2010Prop50
 90
       50
102
RTVSPost2010PropOp50
 70
     1
102
RTVSPost2010Prop51ColorIndex
 90
      256
102
RTVSPost2010Prop51ColorRGB
 90
-16777216
102
RTVSPost2010PropOp51
 70
     0
102
RTVSPost2010Prop52
140
1.0
102
RTVSPost2010PropOp52
 70
     0
102
RTVSPost2010Prop53
 90
        2
102
RTVSPost2010PropOp53
 70
     1
102
RTVSPost2010Prop54
  1
strokes_ogs.tif
102
RTVSPost2010PropOp54
 70
     1
102
RTVSPost2010Prop55
280
     0
102
RTVSPost2010PropOp55
 70
     1
102
RTVSPost2010Prop56
140
1.0
102
RTVSPost2010PropOp56
 70
     1
102
RTVSPost2010Prop57
140
1.0
102
RTVSPost2010PropOp57
 70
     1
102
RTVSPropertyOp0
 70
     1
102
RTVSPropertyOp1
 70
     1
102
RTVSPropertyOp2
 70
     1
102
RTVSPropertyOp3
 70
     1
102
RTVSPropertyOp4
 70
     1
102
RTVSPropertyOp5
 70
     1
102
RTVSPropertyOp6
 70
     1
102
RTVSPropertyOp7
 70
     1
102
RTVSPropertyOp8
 70
     1
102
RTVSPropertyOp9
 70
     1
102
RTVSPropertyOp10
 70
     1
102
RTVSPropertyOp11
 70
     1
102
RTVSPropertyOp12
 70
     1
102
RTVSPropertyOp13
 70
     1
102
RTVSPropertyOp14
 70
     1
102
RTVSPropertyOp15
 70
     1
102
RTVSPropertyOp16
 70
     1
102
RTVSPropertyOp17
 70
     1
102
RTVSPropertyOp18
 70
     1
102
RTVSPropertyOp19
 70
     1
102
RTVSPropertyOp20
 70
     1
102
RTVSPropertyOp21
 70
     1
102
RTVSPropertyOp22
 70
     1
102
RTVSPropertyOp23
 70
     1
102
RTVSPropertyOp24
 70
     1
102
RTVSPropertyOp25
 70
     1
102
RTVSPropertyOp26
 70
     1
102
RTVSPropertyOp27
 70
     1
102
RTVSPropertyOp28
 70
     1
102
RTVSPropertyOp29
 70
     1
102
RTVSPropertyOp30
 70
     1
102
RTVSPropertyOp31
 70
     1
102
RTVSPropertyOp32
 70
     1
102
RTVSPropertyOp33
 70
     1
102
RTVSPropertyOp34
 70
     1
102
RTVSPropertyOp35
 70
     1
102
RTVSPropertyOp36
 70
     1
102
RTVSPropertyOp37
 70
     1
102
RTVSPropertyOp38
 70
     1
102
RTVSPropertyOp39
 70
     1
102
RTVSPropertyOp40
 70
     1
102
RTVSPropertyOp41
 70
     1
102
RTVSPropertyOp42
 70
     1
102
RTVSPropertyOp43
 70
     1
102
RTVSPropertyOp44
 70
     1
102
RTVSPropertyOp45
 70
     1
102
RTVSPropertyOp46
 70
     1
102
RTVSPropertyOp47
 70
     1
102
RTVSPropertyOp48
 70
     1
102
RTVSPropertyOp49
 70
     1
102
RTVSPropertyOp50
 70
     1
102
RTVSPropertyOp51
 70
     0
102
RTVSPropertyOp52
 70
     0
102
RTVSPropertyOp53
 70
     1
102
RTVSPropertyOp54
 70
     1
102
RTVSPropertyOp55
 70
     1
102
RTVSPropertyOp56
 70
     1
102
RTVSPropertyOp57
 70
     1
102
RTVSPropertyOp58
 70
     1
102
RTVSPropertyOp59
 70
     1
102
RTVSPropertyOp60
 70
     1
102
RTVSPropertyOp61
 70
     1
102
RTVSPropertyOp62
 70
     1
  0
ENDSEC
  0
EOF
