  0
SECTION
  2
HEADER
  9
$ACADVER
  1
AC1015
  9
$ACADMAINTVER
 70
    20
  9
$DWGCODEPAGE
  3
ANSI_932
  9
$INSBASE
 10
0.0
 20
0.0
 30
0.0
  9
$EXTMIN
 10
10.0
 20
9.999999999999998
 30
0.0
  9
$EXTMAX
 10
471.2555189999998
 20
324.5995399999998
 30
0.0
  9
$LIMMIN
 10
0.0
 20
0.0
  9
$LIMMAX
 10
495.0
 20
341.25
  9
$ORTHOMODE
 70
     0
  9
$REGENMODE
 70
     1
  9
$FILLMODE
 70
     1
  9
$QTEXTMODE
 70
     0
  9
$MIRRTEXT
 70
     1
  9
$LTSCALE
 40
20.0
  9
$ATTMODE
 70
     1
  9
$TEXTSIZE
 40
5.0
  9
$TRACEWID
 40
1.0
  9
$TEXTSTYLE
  7
STANDARD
  9
$CLAYER
  8
0
  9
$CELTYPE
  6
BYLAYER
  9
$CECOLOR
 62
   256
  9
$CELTSCALE
 40
1.0
  9
$DISPSILH
 70
     0
  9
$DIMSCALE
 40
1.0
  9
$DIMASZ
 40
3.0
  9
$DIMEXO
 40
1.0
  9
$DIMDLI
 40
10.0
  9
$DIMRND
 40
0.0
  9
$DIMDLE
 40
0.0
  9
$DIMEXE
 40
1.0
  9
$DIMTP
 40
0.0
  9
$DIMTM
 40
0.0
  9
$DIMTXT
 40
2.5
  9
$DIMCEN
 40
0.0
  9
$DIMTSZ
 40
0.0
  9
$DIMTOL
 70
     0
  9
$DIMLIM
 70
     0
  9
$DIMTIH
 70
     0
  9
$DIMTOH
 70
     0
  9
$DIMSE1
 70
     0
  9
$DIMSE2
 70
     0
  9
$DIMTAD
 70
     3
  9
$DIMZIN
 70
     8
  9
$DIMBLK
  1

  9
$DIMASO
 70
     1
  9
$DIMSHO
 70
     1
  9
$DIMPOST
  1

  9
$DIMAPOST
  1

  9
$DIMALT
 70
     0
  9
$DIMALTD
 70
     2
  9
$DIMALTF
 40
25.4
  9
$DIMLFAC
 40
1.0
  9
$DIMTOFL
 70
     1
  9
$DIMTVP
 40
0.0
  9
$DIMTIX
 70
     0
  9
$DIMSOXD
 70
     0
  9
$DIMSAH
 70
     1
  9
$DIMBLK1
  1
OPEN
  9
$DIMBLK2
  1
OPEN
  9
$DIMSTYLE
  2
STANDARD
  9
$DIMCLRD
 70
     0
  9
$DIMCLRE
 70
     0
  9
$DIMCLRT
 70
     0
  9
$DIMTFAC
 40
1.0
  9
$DIMGAP
 40
1.0
  9
$DIMJUST
 70
     0
  9
$DIMSD1
 70
     0
  9
$DIMSD2
 70
     0
  9
$DIMTOLJ
 70
     1
  9
$DIMTZIN
 70
     0
  9
$DIMALTZ
 70
     0
  9
$DIMALTTZ
 70
     0
  9
$DIMUPT
 70
     0
  9
$DIMDEC
 70
     4
  9
$DIMTDEC
 70
     4
  9
$DIMALTU
 70
     2
  9
$DIMALTTD
 70
     2
  9
$DIMTXSTY
  7
STANDARD
  9
$DIMAUNIT
 70
     0
  9
$DIMADEC
 70
     0
  9
$DIMALTRND
 40
0.0
  9
$DIMAZIN
 70
     0
  9
$DIMDSEP
 70
    46
  9
$DIMATFIT
 70
     3
  9
$DIMFRAC
 70
     0
  9
$DIMLDRBLK
  1
OPEN
  9
$DIMLUNIT
 70
     2
  9
$DIMLWD
 70
    -2
  9
$DIMLWE
 70
    -2
  9
$DIMTMOVE
 70
     0
  9
$LUNITS
 70
     2
  9
$LUPREC
 70
     4
  9
$SKETCHINC
 40
1.0
  9
$FILLETRAD
 40
2.0
  9
$AUNITS
 70
     0
  9
$AUPREC
 70
     2
  9
$MENU
  1
.
  9
$ELEVATION
 40
0.0
  9
$PELEVATION
 40
0.0
  9
$THICKNESS
 40
0.0
  9
$LIMCHECK
 70
     0
  9
$CHAMFERA
 40
10.0
  9
$CHAMFERB
 40
10.0
  9
$CHAMFERC
 40
0.0
  9
$CHAMFERD
 40
0.0
  9
$SKPOLY
 70
     0
  9
$TDCREATE
 40
2451301.397526968
  9
$TDUCREATE
 40
2451301.022526968
  9
$TDUPDATE
 40
2457192.686527164
  9
$TDUUPDATE
 40
2457192.311527164
  9
$TDINDWG
 40
0.0000117245
  9
$TDUSRTIMER
 40
0.0000112269
  9
$USRTIMER
 70
     1
  9
$ANGBASE
 50
0.0
  9
$ANGDIR
 70
     0
  9
$PDMODE
 70
     0
  9
$PDSIZE
 40
0.0
  9
$PLINEWID
 40
0.0
  9
$SPLFRAME
 70
     0
  9
$SPLINETYPE
 70
     6
  9
$SPLINESEGS
 70
     8
  9
$HANDSEED
  5
AE9E
  9
$SURFTAB1
 70
     6
  9
$SURFTAB2
 70
     6
  9
$SURFTYPE
 70
     6
  9
$SURFU
 70
     6
  9
$SURFV
 70
     6
  9
$UCSBASE
  2

  9
$UCSNAME
  2

  9
$UCSORG
 10
0.0
 20
0.0
 30
0.0
  9
$UCSXDIR
 10
1.0
 20
0.0
 30
0.0
  9
$UCSYDIR
 10
0.0
 20
1.0
 30
0.0
  9
$UCSORTHOREF
  2

  9
$UCSORTHOVIEW
 70
     0
  9
$UCSORGTOP
 10
0.0
 20
0.0
 30
0.0
  9
$UCSORGBOTTOM
 10
0.0
 20
0.0
 30
0.0
  9
$UCSORGLEFT
 10
0.0
 20
0.0
 30
0.0
  9
$UCSORGRIGHT
 10
0.0
 20
0.0
 30
0.0
  9
$UCSORGFRONT
 10
0.0
 20
0.0
 30
0.0
  9
$UCSORGBACK
 10
0.0
 20
0.0
 30
0.0
  9
$PUCSBASE
  2

  9
$PUCSNAME
  2

  9
$PUCSORG
 10
0.0
 20
0.0
 30
0.0
  9
$PUCSXDIR
 10
1.0
 20
0.0
 30
0.0
  9
$PUCSYDIR
 10
0.0
 20
1.0
 30
0.0
  9
$PUCSORTHOREF
  2

  9
$PUCSORTHOVIEW
 70
     0
  9
$PUCSORGTOP
 10
0.0
 20
0.0
 30
0.0
  9
$PUCSORGBOTTOM
 10
0.0
 20
0.0
 30
0.0
  9
$PUCSORGLEFT
 10
0.0
 20
0.0
 30
0.0
  9
$PUCSORGRIGHT
 10
0.0
 20
0.0
 30
0.0
  9
$PUCSORGFRONT
 10
0.0
 20
0.0
 30
0.0
  9
$PUCSORGBACK
 10
0.0
 20
0.0
 30
0.0
  9
$USERI1
 70
     0
  9
$USERI2
 70
     0
  9
$USERI3
 70
     0
  9
$USERI4
 70
     0
  9
$USERI5
 70
     0
  9
$USERR1
 40
0.0
  9
$USERR2
 40
0.0
  9
$USERR3
 40
0.0
  9
$USERR4
 40
0.0
  9
$USERR5
 40
0.0
  9
$WORLDVIEW
 70
     1
  9
$SHADEDGE
 70
     3
  9
$SHADEDIF
 70
    70
  9
$TILEMODE
 70
     1
  9
$MAXACTVP
 70
    16
  9
$PINSBASE
 10
0.0
 20
0.0
 30
0.0
  9
$PLIMCHECK
 70
     0
  9
$PEXTMIN
 10
1.000000000000000E+20
 20
1.000000000000000E+20
 30
1.000000000000000E+20
  9
$PEXTMAX
 10
-1.000000000000000E+20
 20
-1.000000000000000E+20
 30
-1.000000000000000E+20
  9
$PLIMMIN
 10
0.0
 20
0.0
  9
$PLIMMAX
 10
420.0
 20
297.0
  9
$UNITMODE
 70
     0
  9
$VISRETAIN
 70
     0
  9
$PLINEGEN
 70
     0
  9
$PSLTSCALE
 70
     0
  9
$TREEDEPTH
 70
  3020
  9
$CMLSTYLE
  2
STANDARD
  9
$CMLJUST
 70
     0
  9
$CMLSCALE
 40
1.0
  9
$PROXYGRAPHICS
 70
     1
  9
$MEASUREMENT
 70
     0
  9
$CELWEIGHT
370
    -1
  9
$ENDCAPS
280
     0
  9
$JOINSTYLE
280
     0
  9
$LWDISPLAY
290
     0
  9
$INSUNITS
 70
     0
  9
$HYPERLINKBASE
  1

  9
$STYLESHEET
  1

  9
$XEDIT
290
     1
  9
$CEPSNTYPE
380
     0
  9
$PSTYLEMODE
290
     1
  9
$FINGERPRINTGUID
  2
{CEFE2C50-6117-4AF0-AC15-142F5D436FDB}
  9
$VERSIONGUID
  2
{999D11C2-4CD9-4DCD-82B7-61E7879EEEBA}
  9
$EXTNAMES
290
     1
  9
$PSVPSCALE
 40
0.0
  9
$OLESTARTUP
290
     0
  0
ENDSEC
  0
SECTION
  2
CLASSES
  0
CLASS
  1
ACDBDICTIONARYWDFLT
  2
AcDbDictionaryWithDefault
  3
ObjectDBX Classes
 90
        0
280
     0
281
     0
  0
CLASS
  1
ACDBPLACEHOLDER
  2
AcDbPlaceHolder
  3
ObjectDBX Classes
 90
        0
280
     0
281
     0
  0
CLASS
  1
LAYOUT
  2
AcDbLayout
  3
ObjectDBX Classes
 90
        0
280
     0
281
     0
  0
CLASS
  1
DICTIONARYVAR
  2
AcDbDictionaryVar
  3
ObjectDBX Classes
 90
        0
280
     0
281
     0
  0
CLASS
  1
MATERIAL
  2
AcDbMaterial
  3
ObjectDBX Classes
 90
     1153
280
     0
281
     0
  0
CLASS
  1
VISUALSTYLE
  2
AcDbVisualStyle
  3
ObjectDBX Classes
 90
     4095
280
     0
281
     0
  0
CLASS
  1
TABLESTYLE
  2
AcDbTableStyle
  3
ObjectDBX Classes
 90
     4095
280
     0
281
     0
  0
CLASS
  1
SCALE
  2
AcDbScale
  3
ObjectDBX Classes
 90
     1153
280
     0
281
     0
  0
CLASS
  1
MLEADERSTYLE
  2
AcDbMLeaderStyle
  3
ACDB_MLEADERSTYLE_CLASS
 90
     4095
280
     0
281
     0
  0
CLASS
  1
ACDBSECTIONVIEWSTYLE
  2
AcDbSectionViewStyle
  3
ObjectDBX Classes
 90
     1025
280
     0
281
     0
  0
CLASS
  1
ACDBDETAILVIEWSTYLE
  2
AcDbDetailViewStyle
  3
ObjectDBX Classes
 90
     1025
280
     0
281
     0
  0
CLASS
  1
CELLSTYLEMAP
  2
AcDbCellStyleMap
  3
ObjectDBX Classes
 90
     1152
280
     0
281
     0
  0
ENDSEC
  0
SECTION
  2
TABLES
  0
TABLE
  2
VPORT
  5
AA6F
330
0
100
AcDbSymbolTable
 70
     1
  0
VPORT
  5
ADE7
330
AA6F
100
AcDbSymbolTableRecord
100
AcDbViewportTableRecord
  2
*ACTIVE
 70
     0
 10
0.0
 20
0.0
 11
1.0
 21
1.0
 12
335.9244608758787
 22
167.305498913839
 13
0.0
 23
0.0
 14
10.0
 24
10.0
 15
10.0
 25
10.0
 16
0.0
 26
0.0
 36
1.0
 17
0.0
 27
0.0
 37
0.0
 40
318.1133559740967
 41
2.35006605019815
 42
50.0
 43
0.0
 44
0.0
 50
0.0
 51
0.0
 71
     0
 72
   100
 73
     1
 74
     0
 75
     0
 76
     0
 77
     0
 78
     0
281
     0
 65
     1
110
0.0
120
0.0
130
0.0
111
1.0
121
0.0
131
0.0
112
0.0
122
1.0
132
0.0
 79
     0
146
0.0
1001
ACAD_NAV_VCDISPLAY
1070
     3
  0
ENDTAB
  0
TABLE
  2
LTYPE
  5
AA6C
330
0
100
AcDbSymbolTable
 70
     4
  0
LTYPE
  5
AA7A
330
AA6C
100
AcDbSymbolTableRecord
100
AcDbLinetypeTableRecord
  2
BYBLOCK
 70
     0
  3

 72
    65
 73
     0
 40
0.0
  0
LTYPE
  5
AA7B
330
AA6C
100
AcDbSymbolTableRecord
100
AcDbLinetypeTableRecord
  2
BYLAYER
 70
     0
  3

 72
    65
 73
     0
 40
0.0
  0
LTYPE
  5
AA7C
330
AA6C
100
AcDbSymbolTableRecord
100
AcDbLinetypeTableRecord
  2
CONTINUOUS
 70
     0
  3
Solid line
 72
    65
 73
     0
 40
0.0
  0
LTYPE
  5
AA8A
330
AA6C
100
AcDbSymbolTableRecord
100
AcDbLinetypeTableRecord
  2
DASHED
 70
     0
  3
__ __ __ __ __ __ __ __ __ __ __ __ __ __ __ __
 72
    65
 73
     2
 40
0.75
 49
0.5
 74
     0
 49
-0.25
 74
     0
  0
LTYPE
  5
AA8B
330
AA6C
100
AcDbSymbolTableRecord
100
AcDbLinetypeTableRecord
  2
CENTER
 70
     0
  3
____ _ ____ _ ____ _ ____ _ ____ _ ____ _ ____ 
 72
    65
 73
     4
 40
2.0
 49
1.25
 74
     0
 49
-0.25
 74
     0
 49
0.25
 74
     0
 49
-0.25
 74
     0
  0
LTYPE
  5
AA8C
330
AA6C
100
AcDbSymbolTableRecord
100
AcDbLinetypeTableRecord
  2
PHANTOM
 70
     0
  3
______  __  __  ______  __  __  ______  __  __ 
 72
    65
 73
     6
 40
2.5
 49
1.25
 74
     0
 49
-0.25
 74
     0
 49
0.25
 74
     0
 49
-0.25
 74
     0
 49
0.25
 74
     0
 49
-0.25
 74
     0
  0
ENDTAB
  0
TABLE
  2
LAYER
  5
AA69
330
0
100
AcDbSymbolTable
 70
     8
  0
LAYER
  5
AA77
102
{ACAD_XDICTIONARY
360
AE42
102
}
330
AA69
100
AcDbSymbolTableRecord
100
AcDbLayerTableRecord
  2
0
 70
     0
 62
     7
  6
CONTINUOUS
370
    -3
390
ADF0
  0
LAYER
  5
AA8D
102
{ACAD_XDICTIONARY
360
AE44
102
}
330
AA69
100
AcDbSymbolTableRecord
100
AcDbLayerTableRecord
  2
4
 70
     0
 62
     1
  6
CENTER
370
    -3
390
ADF0
  0
LAYER
  5
AA8E
102
{ACAD_XDICTIONARY
360
AE46
102
}
330
AA69
100
AcDbSymbolTableRecord
100
AcDbLayerTableRecord
  2
5
 70
     0
 62
     6
  6
PHANTOM
370
    -3
390
ADF0
  0
LAYER
  5
AA8F
102
{ACAD_XDICTIONARY
360
AE48
102
}
330
AA69
100
AcDbSymbolTableRecord
100
AcDbLayerTableRecord
  2
1
 70
     0
 62
     7
  6
CONTINUOUS
370
    -3
390
ADF0
  0
LAYER
  5
AA90
102
{ACAD_XDICTIONARY
360
AE4A
102
}
330
AA69
100
AcDbSymbolTableRecord
100
AcDbLayerTableRecord
  2
2
 70
     0
 62
     4
  6
CONTINUOUS
370
    -3
390
ADF0
  0
LAYER
  5
AA91
102
{ACAD_XDICTIONARY
360
AE4C
102
}
330
AA69
100
AcDbSymbolTableRecord
100
AcDbLayerTableRecord
  2
3
 70
     0
 62
     2
  6
DASHED
370
    -3
390
ADF0
  0
LAYER
  5
AA92
102
{ACAD_XDICTIONARY
360
AE4E
102
}
330
AA69
100
AcDbSymbolTableRecord
100
AcDbLayerTableRecord
  2
6
 70
     0
 62
     5
  6
CONTINUOUS
370
    -3
390
ADF0
  0
LAYER
  5
AA93
102
{ACAD_XDICTIONARY
360
AE50
102
}
330
AA69
100
AcDbSymbolTableRecord
100
AcDbLayerTableRecord
  2
7
 70
     0
 62
     3
  6
CONTINUOUS
370
    -3
390
ADF0
  0
ENDTAB
  0
TABLE
  2
STYLE
  5
AA6A
330
0
100
AcDbSymbolTable
 70
     1
  0
STYLE
  5
AA78
330
AA6A
100
AcDbSymbolTableRecord
100
AcDbTextStyleTableRecord
  2
STANDARD
 70
     0
 40
0.0
 41
1.0
 50
0.0
 71
     0
 42
5.0
  3
txt
  4

  0
ENDTAB
  0
TABLE
  2
VIEW
  5
AA6D
330
0
100
AcDbSymbolTable
 70
     0
  0
ENDTAB
  0
TABLE
  2
UCS
  5
AA6E
330
0
100
AcDbSymbolTable
 70
     0
  0
ENDTAB
  0
TABLE
  2
APPID
  5
AA70
330
0
100
AcDbSymbolTable
 70
     3
  0
APPID
  5
AA79
330
AA70
100
AcDbSymbolTableRecord
100
AcDbRegAppTableRecord
  2
ACAD
 70
     0
  0
APPID
  5
AE5C
330
AA70
100
AcDbSymbolTableRecord
100
AcDbRegAppTableRecord
  2
ACAD_NAV_VCDISPLAY
 70
     0
  0
APPID
  5
AE95
330
AA70
100
AcDbSymbolTableRecord
100
AcDbRegAppTableRecord
  2
ACAD_MLEADERVER
 70
     0
  0
ENDTAB
  0
TABLE
  2
DIMSTYLE
  5
AA71
330
0
100
AcDbSymbolTable
 70
     1
100
AcDbDimStyleTable
 71
     0
  0
DIMSTYLE
105
AA95
330
AA71
100
AcDbSymbolTableRecord
100
AcDbDimStyleTableRecord
  2
STANDARD
 70
     0
 41
3.0
 42
1.0
 43
10.0
 44
1.0
 73
     0
 74
     0
 77
     3
 78
     8
140
2.5
141
0.0
147
1.0
172
     1
173
     1
284
     8
285
     8
286
     8
340
AA78
  0
ENDTAB
  0
TABLE
  2
BLOCK_RECORD
  5
AA68
330
0
100
AcDbSymbolTable
 70
     1
  0
BLOCK_RECORD
  5
AA85
102
{ACAD_XDICTIONARY
360
ADEA
102
}
330
AA68
100
AcDbSymbolTableRecord
100
AcDbBlockTableRecord
  2
*MODEL_SPACE
340
AE3E
  0
BLOCK_RECORD
  5
AA81
102
{ACAD_XDICTIONARY
360
ADE8
102
}
330
AA68
100
AcDbSymbolTableRecord
100
AcDbBlockTableRecord
  2
*PAPER_SPACE
340
AE3F
  0
BLOCK_RECORD
  5
AA9D
330
AA68
100
AcDbSymbolTableRecord
100
AcDbBlockTableRecord
  2
_OPEN
340
0
  0
ENDTAB
  0
ENDSEC
  0
SECTION
  2
BLOCKS
  0
BLOCK
  5
AA86
330
AA85
100
AcDbEntity
  8
0
100
AcDbBlockBegin
  2
*MODEL_SPACE
 70
     0
 10
0.0
 20
0.0
 30
0.0
  3
*MODEL_SPACE
  1

  0
ENDBLK
  5
AA87
330
AA85
100
AcDbEntity
  8
0
100
AcDbBlockEnd
  0
BLOCK
  5
AA82
330
AA81
100
AcDbEntity
 67
     1
  8
0
100
AcDbBlockBegin
  2
*PAPER_SPACE
 70
     0
 10
0.0
 20
0.0
 30
0.0
  3
*PAPER_SPACE
  1

  0
ENDBLK
  5
AA83
330
AA81
100
AcDbEntity
 67
     1
  8
0
100
AcDbBlockEnd
  0
BLOCK
  5
AA9E
330
AA9D
100
AcDbEntity
  8
0
100
AcDbBlockBegin
  2
_OPEN
 70
     0
 10
0.0
 20
0.0
 30
0.0
  3
_OPEN
  1

  0
LINE
  5
AA9F
330
AA9D
100
AcDbEntity
  8
0
  6
ByBlock
 62
     0
100
AcDbLine
 10
-1.0
 20
0.166667
 30
0.0
 11
0.0
 21
0.0
 31
0.0
  0
LINE
  5
AAA0
330
AA9D
100
AcDbEntity
  8
0
  6
ByBlock
 62
     0
100
AcDbLine
 10
0.0
 20
0.0
 30
0.0
 11
-1.0
 21
-0.166667
 31
0.0
  0
LINE
  5
AAA1
330
AA9D
100
AcDbEntity
  8
0
  6
ByBlock
 62
     0
100
AcDbLine
 10
0.0
 20
0.0
 30
0.0
 11
-1.0
 21
0.0
 31
0.0
  0
ENDBLK
  5
AAA2
330
AA9D
100
AcDbEntity
  8
0
100
AcDbBlockEnd
  0
ENDSEC
  0
SECTION
  2
ENTITIES
  0
TEXT
  5
AAA3
330
AA85
100
AcDbEntity
  8
7
  6
Continuous
100
AcDbText
 10
10.0
 20
18.0
 30
0.0
 40
3.0
  1
TYPE No.103A.F-N2
100
AcDbText
  0
TEXT
  5
AAA4
330
AA85
100
AcDbEntity
  8
7
  6
Continuous
100
AcDbText
 10
10.0
 20
26.0
 30
0.0
 40
3.0
  1
CODE No.9144
100
AcDbText
  0
TEXT
  5
AAA5
330
AA85
100
AcDbEntity
  8
1
  6
Continuous
100
AcDbText
 10
10.0
 20
10.0
 30
0.0
 40
1.399999999999999
  1
LAYER
100
AcDbText
  0
TEXT
  5
AAA6
330
AA85
100
AcDbEntity
  8
1
  6
Continuous
100
AcDbText
 10
17.97951099999998
 20
10.04873699999998
 30
0.0
 40
1.399999999999999
  1
1
100
AcDbText
  0
TEXT
  5
AAA7
330
AA85
100
AcDbEntity
  8
7
  6
Continuous
100
AcDbText
 10
29.97951099999999
 20
10.04873699999998
 30
0.0
 40
1.399999999999999
  1
7
100
AcDbText
  0
TEXT
  5
AAA8
330
AA85
100
AcDbEntity
  8
4
  6
CENTER
100
AcDbText
 10
23.97951099999999
 20
10.04873699999998
 30
0.0
 40
1.399999999999999
  1
4
100
AcDbText
  0
TEXT
  5
AAA9
330
AA85
100
AcDbEntity
  8
3
  6
DASHED
100
AcDbText
 10
21.979511
 20
10.04873699999998
 30
0.0
 40
1.399999999999999
  1
3
100
AcDbText
  0
TEXT
  5
AAAA
330
AA85
100
AcDbEntity
  8
2
  6
Continuous
100
AcDbText
 10
19.97951099999999
 20
10.04873699999998
 30
0.0
 40
1.399999999999999
  1
2
100
AcDbText
  0
TEXT
  5
AAAB
330
AA85
100
AcDbEntity
  8
6
  6
Continuous
100
AcDbText
 10
27.979511
 20
10.04873699999998
 30
0.0
 40
1.399999999999999
  1
6
100
AcDbText
  0
TEXT
  5
AAAC
330
AA85
100
AcDbEntity
  8
5
  6
PHANTOM
100
AcDbText
 10
25.97951099999999
 20
10.04873699999998
 30
0.0
 40
1.399999999999999
  1
5
100
AcDbText
  0
ARC
  5
AAAD
330
AA85
100
AcDbEntity
  8
1
  6
Continuous
100
AcDbCircle
 10
380.160825
 20
323.164527
 30
0.0
 40
246.4809609999999
100
AcDbArc
 50
206.259985
 51
206.5427459999999
  0
ARC
  5
AAAE
330
AA85
100
AcDbEntity
  8
1
  6
Continuous
100
AcDbCircle
 10
163.2241939999999
 20
213.0648929999999
 30
0.0
 40
3.145614
100
AcDbArc
 50
214.286595
 51
269.872291
  0
ARC
  5
AAAF
330
AA85
100
AcDbEntity
  8
1
  6
Continuous
100
AcDbCircle
 10
169.890008
 20
217.6097179999999
 30
0.0
 40
11.213359
100
AcDbArc
 50
204.157328
 51
214.286595
  0
ARC
  5
AAB0
330
AA85
100
AcDbEntity
  8
1
  6
Continuous
100
AcDbCircle
 10
162.1459679999999
 20
206.99653
 30
0.0
 40
1.212217
100
AcDbArc
 50
24.41332
 51
50.77817899999999
  0
LINE
  5
AAB1
330
AA85
100
AcDbEntity
  8
1
  6
Continuous
100
AcDbLine
 10
162.912483
 20
207.9356399999999
 30
0.0
 11
162.654695
 21
208.7350459999999
 31
0.0
  0
ARC
  5
AAB2
330
AA85
100
AcDbEntity
  8
1
  6
Continuous
100
AcDbCircle
 10
163.0341469999999
 20
208.8574089999999
 30
0.0
 40
0.398694
100
AcDbArc
 50
123.1388479999999
 51
197.873131
  0
ARC
  5
AAB3
330
AA85
100
AcDbEntity
  8
1
  6
Continuous
100
AcDbCircle
 10
163.621131
 20
208.095008
 30
0.0
 40
1.360029999999999
100
AcDbArc
 50
104.2867189999999
 51
126.288607
  0
ARC
  5
AAB4
330
AA85
100
AcDbEntity
  8
1
  6
Continuous
100
AcDbCircle
 10
194.2002629999999
 20
213.0757969999999
 30
0.0
 40
3.225562
100
AcDbArc
 50
269.872291
 51
320.808288
  0
ARC
  5
AAB5
330
AA85
100
AcDbEntity
  8
1
  6
Continuous
100
AcDbCircle
 10
189.0899409999999
 20
217.2424429999999
 30
0.0
 40
9.819221
100
AcDbArc
 50
320.808288
 51
332.322314
  0
LINE
  5
AAB6
330
AA85
100
AcDbEntity
  8
1
  6
Continuous
100
AcDbLine
 10
197.785593
 20
212.681443
 30
0.0
 11
198.3225909999999
 21
213.7052399999999
 31
0.0
  0
ARC
  5
AAB7
330
AA85
100
AcDbEntity
  8
1
  6
Continuous
100
AcDbCircle
 10
199.9251639999999
 20
213.4846609999999
 30
0.0
 40
1.617682
100
AcDbArc
 50
157.24897
 51
172.163023
  0
ARC
  5
AAB8
330
AA85
100
AcDbEntity
  8
1
  6
Continuous
100
AcDbCircle
 10
192.507662
 20
209.0306709999999
 30
0.0
 40
2.338996999999999
100
AcDbArc
 50
320.274448
 51
344.9161179999999
  0
ARC
  5
AAB9
330
AA85
100
AcDbEntity
  8
1
  6
Continuous
100
AcDbCircle
 10
194.073403
 20
208.6447259999999
 30
0.0
 40
0.76825
100
AcDbArc
 50
345.5231819999998
 51
90.0
  0
LINE
  5
AABA
330
AA85
100
AcDbEntity
  8
1
  6
Continuous
100
AcDbLine
 10
194.7660709999999
 20
208.421987
 30
0.0
 11
194.81726
 21
208.4526729999998
 31
0.0
  0
LINE
  5
AABB
330
AA85
100
AcDbEntity
  8
1
  6
Continuous
100
AcDbLine
 10
162.5016589999999
 20
207.4966379999999
 30
0.0
 11
195.0016589999999
 21
207.536648
 31
0.0
  0
LINE
  5
AABC
330
AA85
100
AcDbEntity
  8
1
  6
Continuous
100
AcDbLine
 10
73.75
 20
205.469624
 30
0.0
 11
41.25
 21
205.469624
 31
0.0
  0
LINE
  5
AABD
330
AA85
100
AcDbEntity
  8
1
  6
Continuous
100
AcDbLine
 10
128.7516589999999
 20
216.710263
 30
0.0
 11
228.751659
 21
216.710263
 31
0.0
  0
LINE
  5
AABE
330
AA85
100
AcDbEntity
  8
1
  6
Continuous
100
AcDbLine
 10
228.751659
 20
214.710263
 30
0.0
 11
228.751659
 21
216.710263
 31
0.0
  0
ARC
  5
AABF
330
AA85
100
AcDbEntity
  8
1
  6
Continuous
100
AcDbCircle
 10
216.7620579999999
 20
214.6102629999998
 30
0.0
 40
0.5
100
AcDbArc
 50
270.0
 51
11.53695899999999
  0
ARC
  5
AAC0
330
AA85
100
AcDbEntity
  8
1
  6
Continuous
100
AcDbCircle
 10
195.567031
 20
226.600495
 30
0.0
 40
12.490232
100
AcDbArc
 50
252.168739
 51
287.831261
  0
ARC
  5
AAC1
330
AA85
100
AcDbEntity
  8
1
  6
Continuous
100
AcDbCircle
 10
195.567031
 20
226.600495
 30
0.0
 40
10.490232
100
AcDbArc
 50
250.527901
 51
289.472099
  0
LINE
  5
AAC2
330
AA85
100
AcDbEntity
  8
1
  6
Continuous
100
AcDbLine
 10
228.751659
 20
214.710263
 30
0.0
 11
199.391724
 21
214.710263
 31
0.0
  0
ARC
  5
AAC3
330
AA85
100
AcDbEntity
  8
1
  6
Continuous
100
AcDbCircle
 10
140.7418539999999
 20
214.6102629999998
 30
0.0
 40
0.5
100
AcDbArc
 50
168.463041
 51
270.0
  0
ARC
  5
AAC4
330
AA85
100
AcDbEntity
  8
1
  6
Continuous
100
AcDbCircle
 10
161.936882
 20
226.600495
 30
0.0
 40
12.490232
100
AcDbArc
 50
252.168739
 51
287.831261
  0
LINE
  5
AAC5
330
AA85
100
AcDbEntity
  8
1
  6
Continuous
100
AcDbLine
 10
216.7620579999999
 20
214.1102629999998
 30
0.0
 11
195.567031
 21
214.1102629999998
 31
0.0
  0
LINE
  5
AAC6
330
AA85
100
AcDbEntity
  8
1
  6
Continuous
100
AcDbLine
 10
161.936882
 20
214.1102629999998
 30
0.0
 11
140.7418539999999
 21
214.1102629999998
 31
0.0
  0
LINE
  5
AAC7
330
AA85
100
AcDbEntity
  8
1
  6
Continuous
100
AcDbLine
 10
191.7423369999999
 20
214.710263
 30
0.0
 11
165.7615749999999
 21
214.710263
 31
0.0
  0
LINE
  5
AAC8
330
AA85
100
AcDbEntity
  8
1
  6
Continuous
100
AcDbLine
 10
158.112189
 20
214.710263
 30
0.0
 11
128.7516589999999
 21
214.710263
 31
0.0
  0
ARC
  5
AAC9
330
AA85
100
AcDbEntity
  8
1
  6
Continuous
100
AcDbCircle
 10
161.936882
 20
226.600495
 30
0.0
 40
10.490232
100
AcDbArc
 50
250.527901
 51
289.472099
  0
LINE
  5
AACA
330
AA85
100
AcDbEntity
  8
1
  6
Continuous
100
AcDbLine
 10
194.193074
 20
209.8502429999999
 30
0.0
 11
163.217182
 21
209.919286
 31
0.0
  0
LINE
  5
AACB
330
AA85
100
AcDbEntity
  8
1
  6
Continuous
100
AcDbLine
 10
194.073403
 20
209.4129759999999
 30
0.0
 11
163.28551
 21
209.4129759999999
 31
0.0
  0
LINE
  5
AACC
330
AA85
100
AcDbEntity
  8
1
  6
Continuous
100
AcDbLine
 10
193.2991079999999
 20
209.852235
 30
0.0
 11
193.2991079999999
 21
209.4129759999999
 31
0.0
  0
LINE
  5
AACD
330
AA85
100
AcDbEntity
  8
1
  6
Continuous
100
AcDbLine
 10
164.2042099999999
 20
209.852235
 30
0.0
 11
164.2042099999999
 21
209.4129759999999
 31
0.0
  0
LINE
  5
AACE
330
AA85
100
AcDbEntity
  8
1
  6
Continuous
100
AcDbLine
 10
195.0016589999999
 20
207.536648
 30
0.0
 11
195.0016589999999
 21
205.469924
 31
0.0
  0
LINE
  5
AACF
330
AA85
100
AcDbEntity
  8
1
  6
Continuous
100
AcDbLine
 10
162.5016589999999
 20
207.4966379999999
 30
0.0
 11
162.5016589999999
 21
205.469924
 31
0.0
  0
LINE
  5
AAD0
330
AA85
100
AcDbEntity
  8
1
  6
Continuous
100
AcDbLine
 10
220.2516559999998
 20
257.311343
 30
0.0
 11
137.2516559999999
 21
257.311343
 31
0.0
  0
LINE
  5
AAD1
330
AA85
100
AcDbEntity
  8
1
  6
Continuous
100
AcDbLine
 10
128.751656
 20
265.811343
 30
0.0
 11
128.751656
 21
313.811343
 31
0.0
  0
LINE
  5
AAD2
330
AA85
100
AcDbEntity
  8
1
  6
Continuous
100
AcDbLine
 10
137.2516559999999
 20
322.311343
 30
0.0
 11
220.2516559999998
 21
322.311343
 31
0.0
  0
LINE
  5
AAD3
330
AA85
100
AcDbEntity
  8
1
  6
Continuous
100
AcDbLine
 10
228.7516559999999
 20
313.811343
 30
0.0
 11
228.7516559999999
 21
265.811343
 31
0.0
  0
ARC
  5
AAD4
330
AA85
100
AcDbEntity
  8
1
  6
Continuous
100
AcDbCircle
 10
220.2516559999998
 20
313.811343
 30
0.0
 40
8.5
100
AcDbArc
 50
0.0
 51
90.0
  0
ARC
  5
AAD5
330
AA85
100
AcDbEntity
  8
1
  6
Continuous
100
AcDbCircle
 10
220.2516559999998
 20
265.811343
 30
0.0
 40
8.5
100
AcDbArc
 50
270.0
 51
0.0
  0
ARC
  5
AAD6
330
AA85
100
AcDbEntity
  8
1
  6
Continuous
100
AcDbCircle
 10
137.2516559999999
 20
313.811343
 30
0.0
 40
8.5
100
AcDbArc
 50
90.0
 51
180.0
  0
ARC
  5
AAD7
330
AA85
100
AcDbEntity
  8
1
  6
Continuous
100
AcDbCircle
 10
137.2516559999999
 20
265.811343
 30
0.0
 40
8.5
100
AcDbArc
 50
180.0
 51
270.0
  0
CIRCLE
  5
AAD8
330
AA85
100
AcDbEntity
  8
1
  6
Continuous
100
AcDbCircle
 10
219.7516559999999
 20
310.811343
 30
0.0
 40
2.75
  0
CIRCLE
  5
AAD9
330
AA85
100
AcDbEntity
  8
1
  6
Continuous
100
AcDbCircle
 10
219.7516559999999
 20
268.811343
 30
0.0
 40
2.75
  0
CIRCLE
  5
AADA
330
AA85
100
AcDbEntity
  8
1
  6
Continuous
100
AcDbCircle
 10
137.7516559999999
 20
268.811343
 30
0.0
 40
2.75
  0
CIRCLE
  5
AADB
330
AA85
100
AcDbEntity
  8
1
  6
Continuous
100
AcDbCircle
 10
137.7516559999999
 20
310.811343
 30
0.0
 40
2.75
  0
CIRCLE
  5
AADC
330
AA85
100
AcDbEntity
  8
1
  6
Continuous
100
AcDbCircle
 10
178.751656
 20
289.811343
 30
0.0
 40
8.5
  0
CIRCLE
  5
AADD
330
AA85
100
AcDbEntity
  8
1
  6
Continuous
100
AcDbCircle
 10
178.751656
 20
289.811343
 30
0.0
 40
15.0
  0
ARC
  5
AADE
330
AA85
100
AcDbEntity
  8
1
  6
Continuous
100
AcDbCircle
 10
258.909166
 20
323.1645649999999
 30
0.0
 40
246.4809609999999
100
AcDbArc
 50
206.259985
 51
206.5427459999999
  0
ARC
  5
AADF
330
AA85
100
AcDbEntity
  8
1
  6
Continuous
100
AcDbCircle
 10
41.972534
 20
213.0649309999999
 30
0.0
 40
3.145614
100
AcDbArc
 50
214.286595
 51
269.872291
  0
ARC
  5
AAE0
330
AA85
100
AcDbEntity
  8
1
  6
Continuous
100
AcDbCircle
 10
48.638348
 20
217.609756
 30
0.0
 40
11.213359
100
AcDbArc
 50
204.157328
 51
214.286595
  0
ARC
  5
AAE1
330
AA85
100
AcDbEntity
  8
1
  6
Continuous
100
AcDbCircle
 10
40.89430899999999
 20
206.996568
 30
0.0
 40
1.212217
100
AcDbArc
 50
24.41332
 51
50.77817899999999
  0
LINE
  5
AAE2
330
AA85
100
AcDbEntity
  8
1
  6
Continuous
100
AcDbLine
 10
41.660823
 20
207.9356769999999
 30
0.0
 11
41.403036
 21
208.735084
 31
0.0
  0
ARC
  5
AAE3
330
AA85
100
AcDbEntity
  8
1
  6
Continuous
100
AcDbCircle
 10
41.782488
 20
208.857447
 30
0.0
 40
0.398694
100
AcDbArc
 50
123.1388479999999
 51
197.873131
  0
ARC
  5
AAE4
330
AA85
100
AcDbEntity
  8
1
  6
Continuous
100
AcDbCircle
 10
42.36947199999997
 20
208.0950459999999
 30
0.0
 40
1.360029999999999
100
AcDbArc
 50
104.2867189999999
 51
126.288607
  0
ARC
  5
AAE5
330
AA85
100
AcDbEntity
  8
1
  6
Continuous
100
AcDbCircle
 10
72.94860400000001
 20
213.0758339999999
 30
0.0
 40
3.225562
100
AcDbArc
 50
269.872291
 51
320.808288
  0
ARC
  5
AAE6
330
AA85
100
AcDbEntity
  8
1
  6
Continuous
100
AcDbCircle
 10
67.838281
 20
217.2424809999998
 30
0.0
 40
9.819221
100
AcDbArc
 50
320.808288
 51
332.322314
  0
LINE
  5
AAE7
330
AA85
100
AcDbEntity
  8
1
  6
Continuous
100
AcDbLine
 10
76.533934
 20
212.68148
 30
0.0
 11
77.283372
 21
214.1103009999999
 31
0.0
  0
ARC
  5
AAE8
330
AA85
100
AcDbEntity
  8
1
  6
Continuous
100
AcDbCircle
 10
71.256002
 20
209.030708
 30
0.0
 40
2.338996999999999
100
AcDbArc
 50
320.274448
 51
344.9161179999999
  0
ARC
  5
AAE9
330
AA85
100
AcDbEntity
  8
1
  6
Continuous
100
AcDbCircle
 10
72.82174399999998
 20
208.6447639999999
 30
0.0
 40
0.76825
100
AcDbArc
 50
345.5231819999998
 51
90.0
  0
LINE
  5
AAEA
330
AA85
100
AcDbEntity
  8
1
  6
Continuous
100
AcDbLine
 10
73.51441099999998
 20
208.422024
 30
0.0
 11
73.565601
 21
208.4527099999998
 31
0.0
  0
LINE
  5
AAEB
330
AA85
100
AcDbEntity
  8
1
  6
Continuous
100
AcDbLine
 10
41.25
 20
207.496676
 30
0.0
 11
73.75
 21
207.5366849999999
 31
0.0
  0
LINE
  5
AAEC
330
AA85
100
AcDbEntity
  8
1
  6
Continuous
100
AcDbLine
 10
72.94141399999998
 20
209.8502799999999
 30
0.0
 11
41.96552299999999
 21
209.9193239999999
 31
0.0
  0
LINE
  5
AAED
330
AA85
100
AcDbEntity
  8
1
  6
Continuous
100
AcDbLine
 10
72.82174399999998
 20
209.4130139999998
 30
0.0
 11
42.033851
 21
209.4130139999998
 31
0.0
  0
LINE
  5
AAEE
330
AA85
100
AcDbEntity
  8
1
  6
Continuous
100
AcDbLine
 10
72.047449
 20
209.852273
 30
0.0
 11
72.047449
 21
209.4130139999998
 31
0.0
  0
LINE
  5
AAEF
330
AA85
100
AcDbEntity
  8
1
  6
Continuous
100
AcDbLine
 10
42.95255
 20
209.852273
 30
0.0
 11
42.95255
 21
209.4130139999998
 31
0.0
  0
LINE
  5
AAF0
330
AA85
100
AcDbEntity
  8
1
  6
Continuous
100
AcDbLine
 10
73.75
 20
207.5366849999999
 30
0.0
 11
73.75
 21
205.4695989999999
 31
0.0
  0
LINE
  5
AAF1
330
AA85
100
AcDbEntity
  8
1
  6
Continuous
100
AcDbLine
 10
41.25
 20
207.496676
 30
0.0
 11
41.25
 21
205.454022
 31
0.0
  0
LINE
  5
AAF2
330
AA85
100
AcDbEntity
  8
1
  6
Continuous
100
AcDbLine
 10
128.7516589999999
 20
216.710263
 30
0.0
 11
128.7516589999999
 21
214.710263
 31
0.0
  0
LINE
  5
AAF3
330
AA85
100
AcDbEntity
  8
1
  6
Continuous
100
AcDbLine
 10
90.0
 20
216.7103009999999
 30
0.0
 11
90.0
 21
214.1103009999999
 31
0.0
  0
LINE
  5
AAF4
330
AA85
100
AcDbEntity
  8
1
  6
Continuous
100
AcDbLine
 10
25.0
 20
216.7103009999999
 30
0.0
 11
25.0
 21
214.1103009999999
 31
0.0
  0
LINE
  5
AAF5
330
AA85
100
AcDbEntity
  8
1
  6
Continuous
100
AcDbLine
 10
90.0
 20
216.7103009999999
 30
0.0
 11
25.0
 21
216.7103009999999
 31
0.0
  0
LINE
  5
AAF6
330
AA85
100
AcDbEntity
  8
1
  6
Continuous
100
AcDbLine
 10
90.0
 20
214.7103009999999
 30
0.0
 11
25.0
 21
214.7103009999999
 31
0.0
  0
LINE
  5
AAF7
330
AA85
100
AcDbEntity
  8
1
  6
Continuous
100
AcDbLine
 10
206.251678
 20
208.36657
 30
0.0
 11
206.251678
 21
214.1102629999998
 31
0.0
  0
LINE
  5
AAF8
330
AA85
100
AcDbEntity
  8
1
  6
Continuous
100
AcDbLine
 10
213.1785779999999
 20
204.948387
 30
0.0
 11
213.1785779999999
 21
214.1102629999998
 31
0.0
  0
LINE
  5
AAF9
330
AA85
100
AcDbEntity
  8
1
  6
Continuous
100
AcDbLine
 10
199.251678
 20
205.0252069999999
 30
0.0
 11
199.251678
 21
214.1102629999998
 31
0.0
  0
LINE
  5
AAFA
330
AA85
100
AcDbEntity
  8
1
  6
Continuous
100
AcDbLine
 10
213.2516779999999
 20
192.894058
 30
0.0
 11
213.2516779999999
 21
183.332961
 31
0.0
  0
LINE
  5
AAFB
330
AA85
100
AcDbEntity
  8
1
  6
Continuous
100
AcDbLine
 10
199.251678
 20
193.1255499999998
 30
0.0
 11
199.251678
 21
183.33272
 31
0.0
  0
ARC
  5
AAFC
330
AA85
100
AcDbEntity
  8
1
  6
Continuous
100
AcDbCircle
 10
209.7516779999998
 20
185.8512199999999
 30
0.0
 40
4.0625
100
AcDbArc
 50
210.510237
 51
329.4897629999999
  0
ARC
  5
AAFD
330
AA85
100
AcDbEntity
  8
1
  6
Continuous
100
AcDbCircle
 10
202.751678
 20
185.8512199999999
 30
0.0
 40
4.0625
100
AcDbArc
 50
210.510237
 51
329.4897629999999
  0
LINE
  5
AAFE
330
AA85
100
AcDbEntity
  8
1
  6
Continuous
100
AcDbLine
 10
206.251678
 20
192.894058
 30
0.0
 11
206.251678
 21
183.7887199999999
 31
0.0
  0
LINE
  5
AAFF
330
AA85
100
AcDbEntity
  8
1
  6
Continuous
100
AcDbLine
 10
211.7074359999998
 20
181.7887199999999
 30
0.0
 11
200.795678
 21
181.7887199999999
 31
0.0
  0
LINE
  5
AB00
330
AA85
100
AcDbEntity
  8
1
  6
Continuous
100
AcDbLine
 10
216.2516779999999
 20
163.710263
 30
0.0
 11
216.2516779999999
 21
159.710263
 31
0.0
  0
LINE
  5
AB01
330
AA85
100
AcDbEntity
  8
1
  6
Continuous
100
AcDbLine
 10
196.2516779999999
 20
163.710263
 30
0.0
 11
196.2516779999999
 21
159.710263
 31
0.0
  0
LINE
  5
AB02
330
AA85
100
AcDbEntity
  8
1
  6
Continuous
100
AcDbLine
 10
210.7516779999999
 20
163.710263
 30
0.0
 11
210.7516779999999
 21
159.710263
 31
0.0
  0
LINE
  5
AB03
330
AA85
100
AcDbEntity
  8
1
  6
Continuous
100
AcDbLine
 10
201.751678
 20
163.710263
 30
0.0
 11
201.751678
 21
159.710263
 31
0.0
  0
LINE
  5
AB04
330
AA85
100
AcDbEntity
  8
1
  6
Continuous
100
AcDbLine
 10
216.2516779999999
 20
163.710263
 30
0.0
 11
196.2516779999999
 21
163.710263
 31
0.0
  0
ARC
  5
AB05
330
AA85
100
AcDbEntity
  8
1
  6
Continuous
100
AcDbCircle
 10
213.5016779999999
 20
162.991513
 30
0.0
 40
4.28125
100
AcDbArc
 50
230.0337869999999
 51
309.966213
  0
ARC
  5
AB06
330
AA85
100
AcDbEntity
  8
1
  6
Continuous
100
AcDbCircle
 10
206.251678
 20
169.3352629999999
 30
0.0
 40
10.625
100
AcDbArc
 50
244.942385
 51
295.057615
  0
ARC
  5
AB07
330
AA85
100
AcDbEntity
  8
1
  6
Continuous
100
AcDbCircle
 10
199.0016779999999
 20
162.991513
 30
0.0
 40
4.28125
100
AcDbArc
 50
230.0337869999999
 51
309.966213
  0
LINE
  5
AB08
330
AA85
100
AcDbEntity
  8
1
  6
Continuous
100
AcDbLine
 10
213.5016779999999
 20
158.7102629999999
 30
0.0
 11
199.0016779999999
 21
158.7102629999999
 31
0.0
  0
ARC
  5
AB09
330
AA85
100
AcDbEntity
  8
1
  6
Continuous
100
AcDbCircle
 10
211.7074359999998
 20
183.332961
 30
0.0
 40
1.544240999999999
100
AcDbArc
 50
270.0
 51
0.0
  0
ARC
  5
AB0A
330
AA85
100
AcDbEntity
  8
1
  6
Continuous
100
AcDbCircle
 10
200.795678
 20
183.33272
 30
0.0
 40
1.544
100
AcDbArc
 50
180.0
 51
270.0
  0
LINE
  5
AB0B
330
AA85
100
AcDbEntity
  8
1
  6
Continuous
100
AcDbLine
 10
211.2516779999999
 20
181.7887199999999
 30
0.0
 11
211.2516779999999
 21
163.710263
 31
0.0
  0
LINE
  5
AB0C
330
AA85
100
AcDbEntity
  8
1
  6
Continuous
100
AcDbLine
 10
201.2516779999999
 20
181.7887199999999
 30
0.0
 11
201.2516779999999
 21
163.710263
 31
0.0
  0
LINE
  5
AB0D
330
AA85
100
AcDbEntity
  8
1
  6
Continuous
100
AcDbLine
 10
209.7516779999998
 20
158.7102629999999
 30
0.0
 11
209.7516779999998
 21
158.224955
 31
0.0
  0
LINE
  5
AB0E
330
AA85
100
AcDbEntity
  8
1
  6
Continuous
100
AcDbLine
 10
202.751678
 20
158.224955
 30
0.0
 11
202.751678
 21
158.7102629999999
 31
0.0
  0
LINE
  5
AB0F
330
AA85
100
AcDbEntity
  8
1
  6
Continuous
100
AcDbLine
 10
195.7516779999999
 20
158.210263
 30
0.0
 11
195.7516779999999
 21
157.7102629999999
 31
0.0
  0
LINE
  5
AB10
330
AA85
100
AcDbEntity
  8
1
  6
Continuous
100
AcDbLine
 10
216.7516779999999
 20
158.210263
 30
0.0
 11
216.7516779999999
 21
157.7102629999999
 31
0.0
  0
LINE
  5
AB11
330
AA85
100
AcDbEntity
  8
1
  6
Continuous
100
AcDbLine
 10
225.101678
 20
154.7102629999999
 30
0.0
 11
225.101678
 21
151.710263
 31
0.0
  0
LINE
  5
AB12
330
AA85
100
AcDbEntity
  8
1
  6
Continuous
100
AcDbLine
 10
187.401678
 20
151.710263
 30
0.0
 11
187.401678
 21
154.7102629999999
 31
0.0
  0
LINE
  5
AB13
330
AA85
100
AcDbEntity
  8
1
  6
Continuous
100
AcDbLine
 10
225.101678
 20
151.710263
 30
0.0
 11
187.401678
 21
151.710263
 31
0.0
  0
ARC
  5
AB14
330
AA85
100
AcDbEntity
  8
1
  6
Continuous
100
AcDbCircle
 10
222.1016779999999
 20
154.7102629999999
 30
0.0
 40
3.0
100
AcDbArc
 50
0.0
 51
90.0
  0
ARC
  5
AB15
330
AA85
100
AcDbEntity
  8
1
  6
Continuous
100
AcDbCircle
 10
190.401678
 20
154.7102629999999
 30
0.0
 40
3.0
100
AcDbArc
 50
90.0
 51
180.0
  0
LINE
  5
AB16
330
AA85
100
AcDbEntity
  8
1
  6
Continuous
100
AcDbLine
 10
222.1016779999999
 20
157.7102629999999
 30
0.0
 11
190.401678
 21
157.7102629999999
 31
0.0
  0
LINE
  5
AB17
330
AA85
100
AcDbEntity
  8
1
  6
Continuous
100
AcDbLine
 10
223.5016779999999
 20
151.710263
 30
0.0
 11
223.5016779999999
 21
147.710263
 31
0.0
  0
LINE
  5
AB18
330
AA85
100
AcDbEntity
  8
1
  6
Continuous
100
AcDbLine
 10
189.001678
 20
151.710263
 30
0.0
 11
189.001678
 21
147.710263
 31
0.0
  0
LINE
  5
AB19
330
AA85
100
AcDbEntity
  8
1
  6
Continuous
100
AcDbLine
 10
223.5016779999999
 20
147.710263
 30
0.0
 11
189.001678
 21
147.710263
 31
0.0
  0
LINE
  5
AB1A
330
AA85
100
AcDbEntity
  8
1
  6
Continuous
100
AcDbLine
 10
207.401678
 20
206.448176
 30
0.0
 11
207.401678
 21
207.414201
 31
0.0
  0
LINE
  5
AB1B
330
AA85
100
AcDbEntity
  8
1
  6
Continuous
100
AcDbLine
 10
205.1016779999999
 20
206.3194489999999
 30
0.0
 11
205.1016779999999
 21
207.2073009999999
 31
0.0
  0
ARC
  5
AB1C
330
AA85
100
AcDbEntity
  8
1
  6
Continuous
100
AcDbCircle
 10
206.2609839999999
 20
207.2073009999999
 30
0.0
 40
1.159305999999999
100
AcDbArc
 50
10.280563
 51
180.0
  0
ARC
  5
AB1D
330
AA85
100
AcDbEntity
  8
1
  6
Continuous
100
AcDbCircle
 10
206.242432
 20
206.525683
 30
0.0
 40
1.159245999999998
100
AcDbArc
 50
169.752308
 51
0.0
  0
LINE
  5
AB1E
330
AA85
100
AcDbEntity
  8
1
  6
Continuous
100
AcDbLine
 10
90.0
 20
214.1103009999999
 30
0.0
 11
25.0
 21
214.1103009999999
 31
0.0
  0
ARC
  5
AB1F
330
AA85
100
AcDbEntity
  8
1
  6
Continuous
100
AcDbCircle
 10
163.699799
 20
201.199905
 30
0.0
 40
3.903893
100
AcDbArc
 50
122.2397269999999
 51
138.3577309999998
  0
ARC
  5
AB20
330
AA85
100
AcDbEntity
  8
1
  6
Continuous
100
AcDbCircle
 10
163.6011879999998
 20
201.356256
 30
0.0
 40
3.719041999999998
100
AcDbArc
 50
90.00004399999998
 51
122.2397269999999
  0
ARC
  5
AB21
330
AA85
100
AcDbEntity
  8
1
  6
Continuous
100
AcDbCircle
 10
164.8156699999999
 20
200.2077149999998
 30
0.0
 40
5.397081
100
AcDbArc
 50
138.3577309999998
 51
153.7952999999999
  0
ARC
  5
AB22
330
AA85
100
AcDbEntity
  8
1
  6
Continuous
100
AcDbCircle
 10
157.194327
 20
202.5692409999999
 30
0.0
 40
2.779046999999998
100
AcDbArc
 50
350.511243
 51
0.4476720000000002
  0
ARC
  5
AB23
330
AA85
100
AcDbEntity
  8
1
  6
Continuous
100
AcDbCircle
 10
162.6462209999999
 20
154.154381
 30
0.0
 40
47.941747
100
AcDbArc
 50
93.523197
 51
101.7392569999999
  0
ARC
  5
AB24
330
AA85
100
AcDbEntity
  8
1
  6
Continuous
100
AcDbCircle
 10
159.677601
 20
202.370523
 30
0.0
 40
0.365696
100
AcDbArc
 50
273.523197
 51
314.815141
  0
ARC
  5
AB25
330
AA85
100
AcDbEntity
  8
1
  6
Continuous
100
AcDbCircle
 10
158.087221
 20
176.0932539999998
 30
0.0
 40
25.53418999999999
100
AcDbArc
 50
101.7392569999999
 51
116.385656
  0
ARC
  5
AB26
330
AA85
100
AcDbEntity
  8
1
  6
Continuous
100
AcDbCircle
 10
141.6595669999999
 20
211.2672359999999
 30
0.0
 40
15.28686099999998
100
AcDbArc
 50
290.113849
 51
295.562224
  0
ARC
  5
AB27
330
AA85
100
AcDbEntity
  8
1
  6
Continuous
100
AcDbCircle
 10
157.2476969999998
 20
178.677174
 30
0.0
 40
20.83933299999999
100
AcDbArc
 50
108.002609
 51
115.562224
  0
ARC
  5
AB28
330
AA85
100
AcDbEntity
  8
1
  6
Continuous
100
AcDbCircle
 10
147.182095
 20
197.45961
 30
0.0
 40
0.6079810000000001
100
AcDbArc
 50
201.184
 51
244.098621
  0
ARC
  5
AB29
330
AA85
100
AcDbEntity
  8
1
  6
Continuous
100
AcDbCircle
 10
124.5163369999998
 20
188.675423
 30
0.0
 40
23.70042399999999
100
AcDbArc
 50
21.184
 51
24.157624
  0
ARC
  5
AB2A
330
AA85
100
AcDbEntity
  8
1
  6
Continuous
100
AcDbCircle
 10
148.5554299999998
 20
196.535257
 30
0.0
 40
3.035225999999998
100
AcDbArc
 50
126.74604
 51
142.6949679999998
  0
LINE
  5
AB2B
330
AA85
100
AcDbEntity
  8
1
  6
Continuous
100
AcDbLine
 10
194.3951449999999
 20
205.0753219999998
 30
0.0
 11
163.6011879999998
 21
205.075275
 31
0.0
  0
LINE
  5
AB2C
330
AA85
100
AcDbEntity
  8
1
  6
Continuous
100
AcDbLine
 10
159.174185
 20
164.8181069999999
 30
0.0
 11
169.7373979999998
 21
165.5617259999999
 31
0.0
  0
ARC
  5
AB2D
330
AA85
100
AcDbEntity
  8
1
  6
Continuous
100
AcDbCircle
 10
169.473928
 20
169.304356
 30
0.0
 40
3.751891999999998
100
AcDbArc
 50
274.0268089999999
 51
333.909053
  0
ARC
  5
AB2E
330
AA85
100
AcDbEntity
  8
1
  6
Continuous
100
AcDbCircle
 10
338.7870659999999
 20
86.391874
 30
0.0
 40
184.7724259999999
100
AcDbArc
 50
148.295173
 51
153.909053
  0
ARC
  5
AB2F
330
AA85
100
AcDbEntity
  8
1
  6
Continuous
100
AcDbCircle
 10
196.331632
 20
171.3483939999998
 30
0.0
 40
21.51445999999999
100
AcDbArc
 50
96.15826500000002
 51
104.01644
  0
ARC
  5
AB30
330
AA85
100
AcDbEntity
  8
1
  6
Continuous
100
AcDbCircle
 10
192.020574
 20
188.6179939999999
 30
0.0
 40
3.714901999999998
100
AcDbArc
 50
104.01644
 51
130.072753
  0
ARC
  5
AB31
330
AA85
100
AcDbEntity
  8
1
  6
Continuous
100
AcDbCircle
 10
234.554637
 20
138.0583899999998
 30
0.0
 40
69.78622699999999
100
AcDbArc
 50
130.072753
 51
139.3736939999998
  0
ARC
  5
AB32
330
AA85
100
AcDbEntity
  8
1
  6
Continuous
100
AcDbCircle
 10
202.6093939999999
 20
113.84341
 30
0.0
 40
79.35321
100
AcDbArc
 50
88.925005
 51
96.15826500000002
  0
LINE
  5
AB33
330
AA85
100
AcDbEntity
  8
1
  6
Continuous
100
AcDbLine
 10
150.603251
 20
200.012882
 30
0.0
 11
154.861435
 21
168.3303889999999
 31
0.0
  0
ARC
  5
AB34
330
AA85
100
AcDbEntity
  8
1
  6
Continuous
100
AcDbCircle
 10
158.888825
 20
168.871678
 30
0.0
 40
4.063601999999998
100
AcDbArc
 50
187.654785
 51
274.0268089999999
  0
ARC
  5
AB35
330
AA85
100
AcDbEntity
  8
1
  6
Continuous
100
AcDbCircle
 10
202.494055
 20
676.122579
 30
0.0
 40
471.1497549999998
100
AcDbArc
 50
269.952738
 51
270.630847
  0
ARC
  5
AB36
330
AA85
100
AcDbEntity
  8
1
  6
Continuous
100
AcDbCircle
 10
202.172795
 20
286.654203
 30
0.0
 40
81.681246
100
AcDbArc
 50
267.598015
 51
269.952738
  0
ARC
  5
AB37
330
AA85
100
AcDbEntity
  8
1
  6
Continuous
100
AcDbCircle
 10
209.147073
 20
71.89576700000002
 30
0.0
 40
133.113684
100
AcDbArc
 50
87.996002
 51
90.630847
  0
ARC
  5
AB38
330
AA85
100
AcDbEntity
  8
1
  6
Continuous
100
AcDbCircle
 10
213.927671
 20
201.395726
 30
0.0
 40
3.485376999999998
100
AcDbArc
 50
23.353943
 51
81.35279999999999
  0
ARC
  5
AB39
330
AA85
100
AcDbEntity
  8
1
  6
Continuous
100
AcDbCircle
 10
211.2406189999999
 20
200.235499
 30
0.0
 40
6.412213999999998
100
AcDbArc
 50
359.6315119999999
 51
23.353943
  0
ARC
  5
AB3A
330
AA85
100
AcDbEntity
  8
1
  6
Continuous
100
AcDbCircle
 10
144.7173939999998
 20
197.493794
 30
0.0
 40
72.95869999999998
100
AcDbArc
 50
357.774122
 51
1.159634
  0
ARC
  5
AB3B
330
AA85
100
AcDbEntity
  8
1
  6
Continuous
100
AcDbCircle
 10
213.9024089999999
 20
194.517147
 30
0.0
 40
3.749505
100
AcDbArc
 50
334.349468
 51
347.6783879999999
  0
ARC
  5
AB3C
330
AA85
100
AcDbEntity
  8
1
  6
Continuous
100
AcDbCircle
 10
230.3373099999999
 20
193.438648
 30
0.0
 40
12.774798
100
AcDbArc
 50
174.513139
 51
178.7514419999999
  0
LINE
  5
AB3D
330
AA85
100
AcDbEntity
  8
1
  6
Continuous
100
AcDbLine
 10
206.063017
 20
192.894058
 30
0.0
 11
204.0981469999999
 21
193.182654
 31
0.0
  0
ARC
  5
AB3E
330
AA85
100
AcDbEntity
  8
1
  6
Continuous
100
AcDbCircle
 10
196.126055
 20
142.5027229999998
 30
0.0
 40
62.597
100
AcDbArc
 50
87.598015
 51
91.66966499999999
  0
ARC
  5
AB3F
330
AA85
100
AcDbEntity
  8
1
  6
Continuous
100
AcDbCircle
 10
263.5443509999999
 20
199.899112
 30
0.0
 40
45.8926
100
AcDbArc
 50
179.6315119999999
 51
181.159634
  0
ARC
  5
AB40
330
AA85
100
AcDbEntity
  8
1
  6
Continuous
100
AcDbCircle
 10
212.800825
 20
193.505425
 30
0.0
 40
11.4664
100
AcDbArc
 50
81.35279999999999
 51
84.991134
  0
LINE
  5
AB41
330
AA85
100
AcDbEntity
  8
1
  6
Continuous
100
AcDbLine
 10
159.935352
 20
202.111104
 30
0.0
 11
168.7288399999999
 21
202.111104
 31
0.0
  0
ARC
  5
AB42
330
AA85
100
AcDbEntity
  8
1
  6
Continuous
100
AcDbCircle
 10
168.7288399999999
 20
204.7626409999999
 30
0.0
 40
2.651536999999998
100
AcDbArc
 50
270.0
 51
350.453982
  0
LINE
  5
AB43
330
AA85
100
AcDbEntity
  8
1
  6
Continuous
100
AcDbLine
 10
206.063017
 20
192.894058
 30
0.0
 11
217.282405
 21
192.894058
 31
0.0
  0
ARC
  5
AB44
330
AA85
100
AcDbEntity
  8
1
  6
Continuous
100
AcDbCircle
 10
159.7516589999999
 20
172.710263
 30
0.0
 40
25.0
100
AcDbArc
 50
110.19956
 51
26.907958
  0
ARC
  5
AB45
330
AA85
100
AcDbEntity
  8
1
  6
Continuous
100
AcDbCircle
 10
159.7516589999999
 20
172.710263
 30
0.0
 40
8.5
100
AcDbArc
 50
137.362085
 51
296.8917279999999
  0
LINE
  5
AB46
330
AA85
100
AcDbEntity
  8
1
  6
Continuous
100
AcDbLine
 10
162.5016589999999
 20
205.469924
 30
0.0
 11
195.0016589999999
 21
205.469924
 31
0.0
  0
ARC
  5
AB47
330
AA85
100
AcDbEntity
  8
1
  6
Continuous
100
AcDbCircle
 10
57.49972299999999
 20
260.9244519999999
 30
0.0
 40
64.067327
100
AcDbArc
 50
259.7451689999999
 51
280.254831
  0
ARC
  5
AB48
330
AA85
100
AcDbEntity
  8
1
  6
Continuous
100
AcDbCircle
 10
57.49972299999999
 20
260.9244519999999
 30
0.0
 40
62.646627
100
AcDbArc
 50
259.8436229999999
 51
280.156377
  0
LINE
  5
AB49
330
AA85
100
AcDbEntity
  8
1
  6
Continuous
100
AcDbLine
 10
44.916102
 20
196.883163
 30
0.0
 11
45.34491699999999
 21
164.807778
 31
0.0
  0
LINE
  5
AB4A
330
AA85
100
AcDbEntity
  8
1
  6
Continuous
100
AcDbLine
 10
70.083343
 20
196.883163
 30
0.0
 11
69.65452900000001
 21
164.807778
 31
0.0
  0
LINE
  5
AB4B
330
AA85
100
AcDbEntity
  8
1
  6
Continuous
100
AcDbLine
 10
42.888899
 20
198.904596
 30
0.0
 11
43.34473899999998
 21
164.8077749999998
 31
0.0
  0
LINE
  5
AB4C
330
AA85
100
AcDbEntity
  8
1
  6
Continuous
100
AcDbLine
 10
72.11054699999998
 20
198.904596
 30
0.0
 11
71.654707
 21
164.807778
 31
0.0
  0
LINE
  5
AB4D
330
AA85
100
AcDbEntity
  8
1
  6
Continuous
100
AcDbLine
 10
71.829551
 20
164.807778
 30
0.0
 11
69.65452900000001
 21
164.807778
 31
0.0
  0
LINE
  5
AB4E
330
AA85
100
AcDbEntity
  8
1
  6
Continuous
100
AcDbLine
 10
45.34491699999999
 20
164.807778
 30
0.0
 11
43.169895
 21
164.807778
 31
0.0
  0
LINE
  5
AB4F
330
AA85
100
AcDbEntity
  8
1
  6
Continuous
100
AcDbLine
 10
72.15119
 20
201.944699
 30
0.0
 11
42.848256
 21
201.944699
 31
0.0
  0
ARC
  5
AB50
330
AA85
100
AcDbEntity
  8
1
  6
Continuous
100
AcDbCircle
 10
69.07554499999999
 20
196.306498
 30
0.0
 40
3.0
100
AcDbArc
 50
359.2340599999998
 51
100.156377
  0
ARC
  5
AB51
330
AA85
100
AcDbEntity
  8
1
  6
Continuous
100
AcDbCircle
 10
45.923901
 20
196.306498
 30
0.0
 40
3.0
100
AcDbArc
 50
79.84362299999998
 51
180.76594
  0
ARC
  5
AB52
330
AA85
100
AcDbEntity
  8
1
  6
Continuous
100
AcDbCircle
 10
69.083433
 20
196.896531
 30
0.0
 40
1.0
100
AcDbArc
 50
359.2340599999998
 51
100.254831
  0
ARC
  5
AB53
330
AA85
100
AcDbEntity
  8
1
  6
Continuous
100
AcDbCircle
 10
45.91601299999999
 20
196.896531
 30
0.0
 40
1.0
100
AcDbArc
 50
79.74516899999997
 51
180.76594
  0
ARC
  5
AB54
330
AA85
100
AcDbEntity
  8
1
  6
Continuous
100
AcDbCircle
 10
69.110815
 20
198.9446989999999
 30
0.0
 40
3.0
100
AcDbArc
 50
359.2340599999998
 51
90.0
  0
ARC
  5
AB55
330
AA85
100
AcDbEntity
  8
1
  6
Continuous
100
AcDbCircle
 10
45.888631
 20
198.9446989999999
 30
0.0
 40
3.0
100
AcDbArc
 50
90.0
 51
180.76594
  0
ARC
  5
AB56
330
AA85
100
AcDbEntity
  8
1
  6
Continuous
100
AcDbCircle
 10
50.14623199999999
 20
172.7102979999999
 30
0.0
 40
9.0
100
AcDbArc
 50
151.821357
 51
208.178643
  0
LINE
  5
AB57
330
AA85
100
AcDbEntity
  8
1
  6
Continuous
100
AcDbLine
 10
42.21291599999999
 20
176.9602979999999
 30
0.0
 11
42.21291599999999
 21
168.460298
 31
0.0
  0
LINE
  5
AB58
330
AA85
100
AcDbEntity
  8
1
  6
Continuous
100
AcDbLine
 10
43.14623199999998
 20
176.9602979999999
 30
0.0
 11
42.21291599999999
 21
176.9602979999999
 31
0.0
  0
LINE
  5
AB59
330
AA85
100
AcDbEntity
  8
1
  6
Continuous
100
AcDbLine
 10
43.14623199999998
 20
168.460298
 30
0.0
 11
42.21291599999999
 21
168.460298
 31
0.0
  0
ARC
  5
AB5A
330
AA85
100
AcDbEntity
  8
1
  6
Continuous
100
AcDbCircle
 10
65.70242399999999
 20
172.7102979999999
 30
0.0
 40
7.5
100
AcDbArc
 50
327.769047
 51
32.230953
  0
LINE
  5
AB5B
330
AA85
100
AcDbEntity
  8
1
  6
Continuous
100
AcDbLine
 10
72.04671199999999
 20
176.7102979999999
 30
0.0
 11
72.04671199999999
 21
168.7102979999998
 31
0.0
  0
LINE
  5
AB5C
330
AA85
100
AcDbEntity
  8
1
  6
Continuous
100
AcDbLine
 10
71.813822
 20
176.7102979999999
 30
0.0
 11
72.04671199999999
 21
176.7102979999999
 31
0.0
  0
LINE
  5
AB5D
330
AA85
100
AcDbEntity
  8
1
  6
Continuous
100
AcDbLine
 10
72.04671199999999
 20
168.7102979999998
 30
0.0
 11
71.70687099999998
 21
168.7102979999998
 31
0.0
  0
LINE
  5
AB5E
330
AA85
100
AcDbEntity
  8
1
  6
Continuous
100
AcDbLine
 10
69.720061
 20
169.7102979999999
 30
0.0
 11
69.249723
 21
169.7102979999999
 31
0.0
  0
LINE
  5
AB5F
330
AA85
100
AcDbEntity
  8
1
  6
Continuous
100
AcDbLine
 10
45.279385
 20
169.7102979999999
 30
0.0
 11
45.74972299999997
 21
169.7102979999999
 31
0.0
  0
LINE
  5
AB60
330
AA85
100
AcDbEntity
  8
1
  6
Continuous
100
AcDbLine
 10
43.14623199999998
 20
176.9602979999999
 30
0.0
 11
43.14623199999998
 21
168.460298
 31
0.0
  0
LINE
  5
AB61
330
AA85
100
AcDbEntity
  8
1
  6
Continuous
100
AcDbLine
 10
45.19917099999999
 20
175.7102979999999
 30
0.0
 11
45.74972299999997
 21
175.7102979999999
 31
0.0
  0
LINE
  5
AB62
330
AA85
100
AcDbEntity
  8
1
  6
Continuous
100
AcDbLine
 10
69.249723
 20
175.7102979999999
 30
0.0
 11
69.800275
 21
175.7102979999999
 31
0.0
  0
LINE
  5
AB63
330
AA85
100
AcDbEntity
  8
1
  6
Continuous
100
AcDbLine
 10
46.49972299999999
 20
195.296157
 30
0.0
 11
46.49972299999999
 21
150.1244379999999
 31
0.0
  0
ARC
  5
AB64
330
AA85
100
AcDbEntity
  8
1
  6
Continuous
100
AcDbCircle
 10
48.49972300000001
 20
195.296157
 30
0.0
 40
2.0
100
AcDbArc
 50
95.26928199999998
 51
180.0
  0
ARC
  5
AB65
330
AA85
100
AcDbEntity
  8
1
  6
Continuous
100
AcDbCircle
 10
57.49972299999999
 20
97.710298
 30
0.0
 40
100.0
100
AcDbArc
 50
94.674825
 51
95.26928199999998
  0
ARC
  5
AB66
330
AA85
100
AcDbEntity
  8
1
  6
Continuous
100
AcDbCircle
 10
48.49972300000001
 20
150.1244379999999
 30
0.0
 40
2.0
100
AcDbArc
 50
180.0
 51
264.730718
  0
ARC
  5
AB67
330
AA85
100
AcDbEntity
  8
1
  6
Continuous
100
AcDbCircle
 10
57.49972299999999
 20
247.710298
 30
0.0
 40
100.0
100
AcDbArc
 50
264.730718
 51
275.269983
  0
LINE
  5
AB68
330
AA85
100
AcDbEntity
  8
1
  6
Continuous
100
AcDbLine
 10
69.249723
 20
178.2907139999998
 30
0.0
 11
69.249723
 21
167.1298129999998
 31
0.0
  0
LINE
  5
AB69
330
AA85
100
AcDbEntity
  8
1
  6
Continuous
100
AcDbLine
 10
68.836547
 20
178.783117
 30
0.0
 11
68.49972300000001
 21
178.842509
 31
0.0
  0
ARC
  5
AB6A
330
AA85
100
AcDbEntity
  8
1
  6
Continuous
100
AcDbCircle
 10
68.749723
 20
178.2907139999998
 30
0.0
 40
0.5
100
AcDbArc
 50
0.0
 51
80.0
  0
LINE
  5
AB6B
330
AA85
100
AcDbEntity
  8
1
  6
Continuous
100
AcDbLine
 10
68.836547
 20
166.6374089999999
 30
0.0
 11
68.49972300000001
 21
166.5780179999998
 31
0.0
  0
ARC
  5
AB6C
330
AA85
100
AcDbEntity
  8
1
  6
Continuous
100
AcDbCircle
 10
68.749723
 20
167.1298129999998
 30
0.0
 40
0.5
100
AcDbArc
 50
280.0
 51
0.0
  0
LINE
  5
AB6D
330
AA85
100
AcDbEntity
  8
1
  6
Continuous
100
AcDbLine
 10
68.49972300000001
 20
195.296157
 30
0.0
 11
68.49972300000001
 21
150.1244379999999
 31
0.0
  0
ARC
  5
AB6E
330
AA85
100
AcDbEntity
  8
1
  6
Continuous
100
AcDbCircle
 10
66.499723
 20
195.296157
 30
0.0
 40
2.0
100
AcDbArc
 50
0.0
 51
84.73071800000003
  0
ARC
  5
AB6F
330
AA85
100
AcDbEntity
  8
1
  6
Continuous
100
AcDbCircle
 10
66.499723
 20
150.1244379999999
 30
0.0
 40
2.0
100
AcDbArc
 50
275.2692819999999
 51
0.0
  0
LINE
  5
AB70
330
AA85
100
AcDbEntity
  8
1
  6
Continuous
100
AcDbLine
 10
45.74972299999997
 20
178.2907139999998
 30
0.0
 11
45.74972299999997
 21
167.1298129999998
 31
0.0
  0
LINE
  5
AB71
330
AA85
100
AcDbEntity
  8
1
  6
Continuous
100
AcDbLine
 10
46.16289899999999
 20
178.783117
 30
0.0
 11
46.49972299999999
 21
178.842509
 31
0.0
  0
ARC
  5
AB72
330
AA85
100
AcDbEntity
  8
1
  6
Continuous
100
AcDbCircle
 10
46.24972299999998
 20
178.2907139999998
 30
0.0
 40
0.5
100
AcDbArc
 50
100.0
 51
180.0
  0
LINE
  5
AB73
330
AA85
100
AcDbEntity
  8
1
  6
Continuous
100
AcDbLine
 10
46.16289899999999
 20
166.6374089999999
 30
0.0
 11
46.49972299999999
 21
166.5780179999998
 31
0.0
  0
ARC
  5
AB74
330
AA85
100
AcDbEntity
  8
1
  6
Continuous
100
AcDbCircle
 10
46.24972299999998
 20
167.1298129999998
 30
0.0
 40
0.5
100
AcDbArc
 50
180.0
 51
260.0
  0
ARC
  5
AB75
330
AA85
100
AcDbEntity
  8
1
  6
Continuous
100
AcDbCircle
 10
57.49972299999999
 20
97.710298
 30
0.0
 40
100.0
100
AcDbArc
 50
84.73071800000003
 51
85.325175
  0
ARC
  5
AB76
330
AA85
100
AcDbEntity
  8
1
  6
Continuous
100
AcDbCircle
 10
178.751656
 20
289.811343
 30
0.0
 40
36.25
100
AcDbArc
 50
116.291555
 51
243.708445
  0
ARC
  5
AB77
330
AA85
100
AcDbEntity
  8
1
  6
Continuous
100
AcDbCircle
 10
178.751656
 20
289.811343
 30
0.0
 40
37.25
100
AcDbArc
 50
299.251499
 51
60.748501
  0
ARC
  5
AB78
330
AA85
100
AcDbEntity
  8
1
  6
Continuous
100
AcDbCircle
 10
178.751656
 20
289.811343
 30
0.0
 40
37.25
100
AcDbArc
 50
119.2514989999999
 51
240.7485009999998
  0
ARC
  5
AB79
330
AA85
100
AcDbEntity
  8
1
  6
Continuous
100
AcDbCircle
 10
178.751656
 20
289.811343
 30
0.0
 40
36.25
100
AcDbArc
 50
296.2915549999999
 51
63.708445
  0
LINE
  5
AB7A
330
AA85
100
AcDbEntity
  8
1
  6
Continuous
100
AcDbLine
 10
180.8143179999999
 20
205.4539839999999
 30
0.0
 11
178.7516589999999
 21
207.5166429999999
 31
0.0
  0
LINE
  5
AB7B
330
AA85
100
AcDbEntity
  8
1
  6
Continuous
100
AcDbLine
 10
179.400105
 20
205.4539839999999
 30
0.0
 11
177.3391839999999
 21
207.5149039999999
 31
0.0
  0
LINE
  5
AB7C
330
AA85
100
AcDbEntity
  8
1
  6
Continuous
100
AcDbLine
 10
177.9858909999999
 20
205.4539839999999
 30
0.0
 11
175.92671
 21
207.5131649999999
 31
0.0
  0
LINE
  5
AB7D
330
AA85
100
AcDbEntity
  8
1
  6
Continuous
100
AcDbLine
 10
176.571677
 20
205.4539839999999
 30
0.0
 11
174.514235
 21
207.5114269999999
 31
0.0
  0
LINE
  5
AB7E
330
AA85
100
AcDbEntity
  8
1
  6
Continuous
100
AcDbLine
 10
175.1574639999998
 20
205.4539839999999
 30
0.0
 11
173.10176
 21
207.5096879999999
 31
0.0
  0
LINE
  5
AB7F
330
AA85
100
AcDbEntity
  8
1
  6
Continuous
100
AcDbLine
 10
173.7432499999999
 20
205.4539839999999
 30
0.0
 11
171.689285
 21
207.5079489999999
 31
0.0
  0
LINE
  5
AB80
330
AA85
100
AcDbEntity
  8
1
  6
Continuous
100
AcDbLine
 10
172.3290369999998
 20
205.4539839999999
 30
0.0
 11
170.276811
 21
207.50621
 31
0.0
  0
LINE
  5
AB81
330
AA85
100
AcDbEntity
  8
1
  6
Continuous
100
AcDbLine
 10
170.9148229999998
 20
205.4539839999999
 30
0.0
 11
168.864336
 21
207.5044709999999
 31
0.0
  0
LINE
  5
AB82
330
AA85
100
AcDbEntity
  8
1
  6
Continuous
100
AcDbLine
 10
169.50061
 20
205.4539839999999
 30
0.0
 11
167.4518609999998
 21
207.502732
 31
0.0
  0
LINE
  5
AB83
330
AA85
100
AcDbEntity
  8
1
  6
Continuous
100
AcDbLine
 10
168.086396
 20
205.4539839999999
 30
0.0
 11
166.039386
 21
207.500994
 31
0.0
  0
LINE
  5
AB84
330
AA85
100
AcDbEntity
  8
1
  6
Continuous
100
AcDbLine
 10
166.672182
 20
205.4539839999999
 30
0.0
 11
164.626912
 21
207.499255
 31
0.0
  0
LINE
  5
AB85
330
AA85
100
AcDbEntity
  8
1
  6
Continuous
100
AcDbLine
 10
165.257969
 20
205.4539839999999
 30
0.0
 11
163.2144369999998
 21
207.497516
 31
0.0
  0
LINE
  5
AB86
330
AA85
100
AcDbEntity
  8
1
  6
Continuous
100
AcDbLine
 10
163.8437549999999
 20
205.4539839999999
 30
0.0
 11
162.5016589999999
 21
206.7960799999999
 31
0.0
  0
LINE
  5
AB87
330
AA85
100
AcDbEntity
  8
1
  6
Continuous
100
AcDbLine
 10
182.2285319999998
 20
205.4539839999999
 30
0.0
 11
180.1641339999999
 21
207.5183819999999
 31
0.0
  0
LINE
  5
AB88
330
AA85
100
AcDbEntity
  8
1
  6
Continuous
100
AcDbLine
 10
183.642745
 20
205.4539839999999
 30
0.0
 11
181.5766079999999
 21
207.5201209999999
 31
0.0
  0
LINE
  5
AB89
330
AA85
100
AcDbEntity
  8
1
  6
Continuous
100
AcDbLine
 10
185.056959
 20
205.4539839999999
 30
0.0
 11
182.989083
 21
207.5218599999999
 31
0.0
  0
LINE
  5
AB8A
330
AA85
100
AcDbEntity
  8
1
  6
Continuous
100
AcDbLine
 10
186.471172
 20
205.4539839999999
 30
0.0
 11
184.4015579999999
 21
207.5235979999999
 31
0.0
  0
LINE
  5
AB8B
330
AA85
100
AcDbEntity
  8
1
  6
Continuous
100
AcDbLine
 10
187.885386
 20
205.4539839999999
 30
0.0
 11
185.8140329999999
 21
207.5253369999999
 31
0.0
  0
LINE
  5
AB8C
330
AA85
100
AcDbEntity
  8
1
  6
Continuous
100
AcDbLine
 10
189.299599
 20
205.4539839999999
 30
0.0
 11
187.226507
 21
207.5270759999999
 31
0.0
  0
LINE
  5
AB8D
330
AA85
100
AcDbEntity
  8
1
  6
Continuous
100
AcDbLine
 10
190.7138129999999
 20
205.4539839999999
 30
0.0
 11
188.6389819999999
 21
207.5288149999999
 31
0.0
  0
LINE
  5
AB8E
330
AA85
100
AcDbEntity
  8
1
  6
Continuous
100
AcDbLine
 10
192.128027
 20
205.4539839999999
 30
0.0
 11
190.051457
 21
207.530554
 31
0.0
  0
LINE
  5
AB8F
330
AA85
100
AcDbEntity
  8
1
  6
Continuous
100
AcDbLine
 10
193.54224
 20
205.4539839999999
 30
0.0
 11
191.463932
 21
207.532293
 31
0.0
  0
LINE
  5
AB90
330
AA85
100
AcDbEntity
  8
1
  6
Continuous
100
AcDbLine
 10
194.941908
 20
205.46853
 30
0.0
 11
192.8764059999998
 21
207.534031
 31
0.0
  0
LINE
  5
AB91
330
AA85
100
AcDbEntity
  8
1
  6
Continuous
100
AcDbLine
 10
195.0016589999999
 20
206.8229919999999
 30
0.0
 11
194.288881
 21
207.53577
 31
0.0
  0
LINE
  5
AB92
330
AA85
100
AcDbEntity
  8
1
  6
Continuous
100
AcDbLine
 10
176.689
 20
205.4539839999999
 30
0.0
 11
178.7516589999999
 21
207.5166429999999
 31
0.0
  0
LINE
  5
AB93
330
AA85
100
AcDbEntity
  8
1
  6
Continuous
100
AcDbLine
 10
173.8605729999999
 20
205.4539839999999
 30
0.0
 11
175.919746
 21
207.5131569999999
 31
0.0
  0
LINE
  5
AB94
330
AA85
100
AcDbEntity
  8
1
  6
Continuous
100
AcDbLine
 10
171.0321459999998
 20
205.4539839999999
 30
0.0
 11
173.0878319999999
 21
207.5096709999999
 31
0.0
  0
LINE
  5
AB95
330
AA85
100
AcDbEntity
  8
1
  6
Continuous
100
AcDbLine
 10
168.203719
 20
205.4539839999999
 30
0.0
 11
170.255919
 21
207.506184
 31
0.0
  0
LINE
  5
AB96
330
AA85
100
AcDbEntity
  8
1
  6
Continuous
100
AcDbLine
 10
165.375291
 20
205.4539839999999
 30
0.0
 11
167.4240059999999
 21
207.502698
 31
0.0
  0
LINE
  5
AB97
330
AA85
100
AcDbEntity
  8
1
  6
Continuous
100
AcDbLine
 10
162.546864
 20
205.4539839999999
 30
0.0
 11
164.5920919999998
 21
207.499212
 31
0.0
  0
LINE
  5
AB98
330
AA85
100
AcDbEntity
  8
1
  6
Continuous
100
AcDbLine
 10
179.5174269999999
 20
205.4539839999999
 30
0.0
 11
181.583572
 21
207.5201289999998
 31
0.0
  0
LINE
  5
AB99
330
AA85
100
AcDbEntity
  8
1
  6
Continuous
100
AcDbLine
 10
182.345854
 20
205.4539839999999
 30
0.0
 11
184.4154859999999
 21
207.5236149999998
 31
0.0
  0
LINE
  5
AB9A
330
AA85
100
AcDbEntity
  8
1
  6
Continuous
100
AcDbLine
 10
185.174281
 20
205.4539839999999
 30
0.0
 11
187.2473989999998
 21
207.527102
 31
0.0
  0
LINE
  5
AB9B
330
AA85
100
AcDbEntity
  8
1
  6
Continuous
100
AcDbLine
 10
188.0027079999999
 20
205.4539839999999
 30
0.0
 11
190.0793119999999
 21
207.530588
 31
0.0
  0
LINE
  5
AB9C
330
AA85
100
AcDbEntity
  8
1
  6
Continuous
100
AcDbLine
 10
190.8311359999999
 20
205.4539839999999
 30
0.0
 11
192.911226
 21
207.534074
 31
0.0
  0
LINE
  5
AB9D
330
AA85
100
AcDbEntity
  8
1
  6
Continuous
100
AcDbLine
 10
195.0016589999999
 20
206.7960799999999
 30
0.0
 11
193.659563
 21
205.4539839999999
 31
0.0
  0
LINE
  5
AB9E
330
AA85
100
AcDbEntity
  8
1
  6
Continuous
100
AcDbLine
 10
59.562659
 20
205.454022
 30
0.0
 11
57.5
 21
207.516681
 31
0.0
  0
LINE
  5
AB9F
330
AA85
100
AcDbEntity
  8
1
  6
Continuous
100
AcDbLine
 10
58.14844499999999
 20
205.454022
 30
0.0
 11
56.087525
 21
207.5149419999999
 31
0.0
  0
LINE
  5
ABA0
330
AA85
100
AcDbEntity
  8
1
  6
Continuous
100
AcDbLine
 10
56.73423199999999
 20
205.454022
 30
0.0
 11
54.67505
 21
207.513203
 31
0.0
  0
LINE
  5
ABA1
330
AA85
100
AcDbEntity
  8
1
  6
Continuous
100
AcDbLine
 10
55.32001799999999
 20
205.454022
 30
0.0
 11
53.262575
 21
207.5114639999999
 31
0.0
  0
LINE
  5
ABA2
330
AA85
100
AcDbEntity
  8
1
  6
Continuous
100
AcDbLine
 10
53.90580400000001
 20
205.454022
 30
0.0
 11
51.850101
 21
207.509725
 31
0.0
  0
LINE
  5
ABA3
330
AA85
100
AcDbEntity
  8
1
  6
Continuous
100
AcDbLine
 10
52.491591
 20
205.454022
 30
0.0
 11
50.437626
 21
207.507987
 31
0.0
  0
LINE
  5
ABA4
330
AA85
100
AcDbEntity
  8
1
  6
Continuous
100
AcDbLine
 10
51.077377
 20
205.454022
 30
0.0
 11
49.025151
 21
207.506248
 31
0.0
  0
LINE
  5
ABA5
330
AA85
100
AcDbEntity
  8
1
  6
Continuous
100
AcDbLine
 10
49.663164
 20
205.454022
 30
0.0
 11
47.612676
 21
207.504509
 31
0.0
  0
LINE
  5
ABA6
330
AA85
100
AcDbEntity
  8
1
  6
Continuous
100
AcDbLine
 10
48.24895
 20
205.454022
 30
0.0
 11
46.20020199999999
 21
207.50277
 31
0.0
  0
LINE
  5
ABA7
330
AA85
100
AcDbEntity
  8
1
  6
Continuous
100
AcDbLine
 10
46.83473699999999
 20
205.454022
 30
0.0
 11
44.78772699999999
 21
207.501031
 31
0.0
  0
LINE
  5
ABA8
330
AA85
100
AcDbEntity
  8
1
  6
Continuous
100
AcDbLine
 10
45.42052299999999
 20
205.454022
 30
0.0
 11
43.375252
 21
207.499292
 31
0.0
  0
LINE
  5
ABA9
330
AA85
100
AcDbEntity
  8
1
  6
Continuous
100
AcDbLine
 10
44.006309
 20
205.454022
 30
0.0
 11
41.96277799999999
 21
207.497554
 31
0.0
  0
LINE
  5
ABAA
330
AA85
100
AcDbEntity
  8
1
  6
Continuous
100
AcDbLine
 10
42.59209600000001
 20
205.454022
 30
0.0
 11
41.25
 21
206.796118
 31
0.0
  0
LINE
  5
ABAB
330
AA85
100
AcDbEntity
  8
1
  6
Continuous
100
AcDbLine
 10
60.976872
 20
205.454022
 30
0.0
 11
58.91247400000001
 21
207.5184199999999
 31
0.0
  0
LINE
  5
ABAC
330
AA85
100
AcDbEntity
  8
1
  6
Continuous
100
AcDbLine
 10
62.391086
 20
205.454022
 30
0.0
 11
60.32494899999999
 21
207.520158
 31
0.0
  0
LINE
  5
ABAD
330
AA85
100
AcDbEntity
  8
1
  6
Continuous
100
AcDbLine
 10
63.80529899999999
 20
205.454022
 30
0.0
 11
61.737424
 21
207.5218969999998
 31
0.0
  0
LINE
  5
ABAE
330
AA85
100
AcDbEntity
  8
1
  6
Continuous
100
AcDbLine
 10
65.21951300000001
 20
205.454022
 30
0.0
 11
63.149899
 21
207.523636
 31
0.0
  0
LINE
  5
ABAF
330
AA85
100
AcDbEntity
  8
1
  6
Continuous
100
AcDbLine
 10
66.63372599999999
 20
205.454022
 30
0.0
 11
64.56237299999999
 21
207.5253749999999
 31
0.0
  0
LINE
  5
ABB0
330
AA85
100
AcDbEntity
  8
1
  6
Continuous
100
AcDbLine
 10
68.04794
 20
205.454022
 30
0.0
 11
65.974848
 21
207.5271139999999
 31
0.0
  0
LINE
  5
ABB1
330
AA85
100
AcDbEntity
  8
1
  6
Continuous
100
AcDbLine
 10
69.46215399999998
 20
205.454022
 30
0.0
 11
67.38732299999999
 21
207.5288529999999
 31
0.0
  0
LINE
  5
ABB2
330
AA85
100
AcDbEntity
  8
1
  6
Continuous
100
AcDbLine
 10
70.876367
 20
205.454022
 30
0.0
 11
68.79979699999998
 21
207.5305909999999
 31
0.0
  0
LINE
  5
ABB3
330
AA85
100
AcDbEntity
  8
1
  6
Continuous
100
AcDbLine
 10
72.290581
 20
205.454022
 30
0.0
 11
70.212272
 21
207.5323299999999
 31
0.0
  0
LINE
  5
ABB4
330
AA85
100
AcDbEntity
  8
1
  6
Continuous
100
AcDbLine
 10
73.69024899999998
 20
205.468567
 30
0.0
 11
71.624747
 21
207.5340689999999
 31
0.0
  0
LINE
  5
ABB5
330
AA85
100
AcDbEntity
  8
1
  6
Continuous
100
AcDbLine
 10
73.75
 20
206.8230299999999
 30
0.0
 11
73.037222
 21
207.5358079999999
 31
0.0
  0
LINE
  5
ABB6
330
AA85
100
AcDbEntity
  8
1
  6
Continuous
100
AcDbLine
 10
55.43734
 20
205.454022
 30
0.0
 11
57.5
 21
207.516681
 31
0.0
  0
LINE
  5
ABB7
330
AA85
100
AcDbEntity
  8
1
  6
Continuous
100
AcDbLine
 10
52.608913
 20
205.454022
 30
0.0
 11
54.668086
 21
207.5131949999998
 31
0.0
  0
LINE
  5
ABB8
330
AA85
100
AcDbEntity
  8
1
  6
Continuous
100
AcDbLine
 10
49.78048600000001
 20
205.454022
 30
0.0
 11
51.83617299999998
 21
207.5097079999999
 31
0.0
  0
LINE
  5
ABB9
330
AA85
100
AcDbEntity
  8
1
  6
Continuous
100
AcDbLine
 10
46.952059
 20
205.454022
 30
0.0
 11
49.00425900000001
 21
207.5062219999999
 31
0.0
  0
LINE
  5
ABBA
330
AA85
100
AcDbEntity
  8
1
  6
Continuous
100
AcDbLine
 10
44.123632
 20
205.454022
 30
0.0
 11
46.17234599999998
 21
207.5027359999999
 31
0.0
  0
LINE
  5
ABBB
330
AA85
100
AcDbEntity
  8
1
  6
Continuous
100
AcDbLine
 10
41.29520499999999
 20
205.454022
 30
0.0
 11
43.340433
 21
207.49925
 31
0.0
  0
LINE
  5
ABBC
330
AA85
100
AcDbEntity
  8
1
  6
Continuous
100
AcDbLine
 10
58.26576800000001
 20
205.454022
 30
0.0
 11
60.331913
 21
207.5201669999999
 31
0.0
  0
LINE
  5
ABBD
330
AA85
100
AcDbEntity
  8
1
  6
Continuous
100
AcDbLine
 10
61.09419499999999
 20
205.454022
 30
0.0
 11
63.163826
 21
207.523653
 31
0.0
  0
LINE
  5
ABBE
330
AA85
100
AcDbEntity
  8
1
  6
Continuous
100
AcDbLine
 10
63.922622
 20
205.454022
 30
0.0
 11
65.99574
 21
207.5271389999998
 31
0.0
  0
LINE
  5
ABBF
330
AA85
100
AcDbEntity
  8
1
  6
Continuous
100
AcDbLine
 10
66.751049
 20
205.454022
 30
0.0
 11
68.82765299999999
 21
207.530626
 31
0.0
  0
LINE
  5
ABC0
330
AA85
100
AcDbEntity
  8
1
  6
Continuous
100
AcDbLine
 10
69.579476
 20
205.454022
 30
0.0
 11
71.659566
 21
207.534112
 31
0.0
  0
LINE
  5
ABC1
330
AA85
100
AcDbEntity
  8
1
  6
Continuous
100
AcDbLine
 10
73.75
 20
206.796118
 30
0.0
 11
72.407903
 21
205.454022
 31
0.0
  0
LINE
  5
ABC2
330
AA85
100
AcDbEntity
  8
4
  6
CENTER
100
AcDbLine
 10
178.7516589999999
 20
190.065842
 30
0.0
 11
178.7516589999999
 21
219.1361249999999
 31
0.0
  0
LINE
  5
ABC3
330
AA85
100
AcDbEntity
  8
4
  6
CENTER
100
AcDbLine
 10
57.49972299999999
 20
218.487668
 30
0.0
 11
57.49972299999999
 21
144.823675
 31
0.0
  0
LINE
  5
ABC4
330
AA85
100
AcDbEntity
  8
4
  6
CENTER
100
AcDbLine
 10
231.751656
 20
289.811343
 30
0.0
 11
125.751656
 21
289.811343
 31
0.0
  0
LINE
  5
ABC5
330
AA85
100
AcDbEntity
  8
4
  6
CENTER
100
AcDbLine
 10
178.751656
 20
324.5995399999998
 30
0.0
 11
178.751656
 21
254.5044209999999
 31
0.0
  0
LINE
  5
ABC6
330
AA85
100
AcDbEntity
  8
4
  6
CENTER
100
AcDbLine
 10
219.7519559999999
 20
219.5014679999999
 30
0.0
 11
219.7519559999999
 21
211.8708779999999
 31
0.0
  0
LINE
  5
ABC7
330
AA85
100
AcDbEntity
  8
4
  6
CENTER
100
AcDbLine
 10
137.751956
 20
219.316731
 30
0.0
 11
137.751956
 21
212.4331359999999
 31
0.0
  0
LINE
  5
ABC8
330
AA85
100
AcDbEntity
  8
4
  6
CENTER
100
AcDbLine
 10
78.49972300000001
 20
218.0108119999999
 30
0.0
 11
78.49972300000001
 21
212.529235
 31
0.0
  0
LINE
  5
ABC9
330
AA85
100
AcDbEntity
  8
4
  6
CENTER
100
AcDbLine
 10
36.49972299999999
 20
212.529235
 30
0.0
 11
36.49972299999999
 21
218.066159
 31
0.0
  0
LINE
  5
ABCA
330
AA85
100
AcDbEntity
  8
4
  6
CENTER
100
AcDbLine
 10
206.251678
 20
141.005844
 30
0.0
 11
206.251678
 21
218.6336359999998
 31
0.0
  0
LINE
  5
ABCB
330
AA85
100
AcDbEntity
  8
4
  6
CENTER
100
AcDbLine
 10
143.501656
 20
310.811343
 30
0.0
 11
132.001656
 21
310.811343
 31
0.0
  0
LINE
  5
ABCC
330
AA85
100
AcDbEntity
  8
4
  6
CENTER
100
AcDbLine
 10
137.7516559999999
 20
305.061343
 30
0.0
 11
137.7516559999999
 21
316.561343
 31
0.0
  0
LINE
  5
ABCD
330
AA85
100
AcDbEntity
  8
4
  6
CENTER
100
AcDbLine
 10
225.501656
 20
310.811343
 30
0.0
 11
214.0016559999998
 21
310.811343
 31
0.0
  0
LINE
  5
ABCE
330
AA85
100
AcDbEntity
  8
4
  6
CENTER
100
AcDbLine
 10
219.7516559999999
 20
305.061343
 30
0.0
 11
219.7516559999999
 21
316.561343
 31
0.0
  0
LINE
  5
ABCF
330
AA85
100
AcDbEntity
  8
4
  6
CENTER
100
AcDbLine
 10
225.501656
 20
268.811343
 30
0.0
 11
214.0016559999998
 21
268.811343
 31
0.0
  0
LINE
  5
ABD0
330
AA85
100
AcDbEntity
  8
4
  6
CENTER
100
AcDbLine
 10
219.7516559999999
 20
263.061343
 30
0.0
 11
219.7516559999999
 21
274.561343
 31
0.0
  0
LINE
  5
ABD1
330
AA85
100
AcDbEntity
  8
4
  6
CENTER
100
AcDbLine
 10
143.501656
 20
268.811343
 30
0.0
 11
132.001656
 21
268.811343
 31
0.0
  0
LINE
  5
ABD2
330
AA85
100
AcDbEntity
  8
4
  6
CENTER
100
AcDbLine
 10
137.7516559999999
 20
263.061343
 30
0.0
 11
137.7516559999999
 21
274.561343
 31
0.0
  0
LINE
  5
ABD3
330
AA85
100
AcDbEntity
  8
4
  6
CENTER
100
AcDbLine
 10
187.7516589999999
 20
172.710263
 30
0.0
 11
131.7516589999999
 21
172.710263
 31
0.0
  0
LINE
  5
ABD4
330
AA85
100
AcDbEntity
  8
4
  6
CENTER
100
AcDbLine
 10
159.7516589999999
 20
144.710263
 30
0.0
 11
159.7516589999999
 21
200.7102629999998
 31
0.0
  0
LINE
  5
ABD5
330
AA85
100
AcDbEntity
  8
4
  6
CENTER
100
AcDbLine
 10
74.975502
 20
172.710263
 30
0.0
 11
40.628719
 21
172.710263
 31
0.0
  0
LINE
  5
ABD6
330
AA85
100
AcDbEntity
  8
1
  6
Continuous
100
AcDbLine
 10
216.7516779999999
 20
158.210263
 30
0.0
 11
195.7516779999999
 21
158.210263
 31
0.0
  0
LINE
  5
ABD7
330
AA85
100
AcDbEntity
  8
2
  6
Continuous
100
AcDbLine
 10
211.2516779999999
 20
165.3038379999999
 30
0.0
 11
210.439678
 21
166.710263
 31
0.0
  0
LINE
  5
ABD8
330
AA85
100
AcDbEntity
  8
2
  6
Continuous
100
AcDbLine
 10
201.2516779999999
 20
165.3038379999999
 30
0.0
 11
202.063678
 21
166.710263
 31
0.0
  0
LINE
  5
ABD9
330
AA85
100
AcDbEntity
  8
1
  6
Continuous
100
AcDbLine
 10
211.2516779999999
 20
166.710263
 30
0.0
 11
201.2516779999999
 21
166.710263
 31
0.0
  0
LINE
  5
ABDA
330
AA85
100
AcDbEntity
  8
2
  6
Continuous
100
AcDbLine
 10
210.439678
 20
166.710263
 30
0.0
 11
210.439678
 21
181.7887199999999
 31
0.0
  0
LINE
  5
ABDB
330
AA85
100
AcDbEntity
  8
2
  6
Continuous
100
AcDbLine
 10
202.063678
 20
166.710263
 30
0.0
 11
202.063678
 21
181.7887199999999
 31
0.0
  0
LINE
  5
ABDC
330
AA85
100
AcDbEntity
  8
1
  6
Continuous
100
AcDbLine
 10
73.34972299999998
 20
157.710298
 30
0.0
 11
68.49972300000001
 21
157.710298
 31
0.0
  0
LINE
  5
ABDD
330
AA85
100
AcDbEntity
  8
1
  6
Continuous
100
AcDbLine
 10
76.34972299999998
 20
151.7102979999999
 30
0.0
 11
68.49972300000001
 21
151.7102979999999
 31
0.0
  0
LINE
  5
ABDE
330
AA85
100
AcDbEntity
  8
1
  6
Continuous
100
AcDbLine
 10
74.74972300000001
 20
147.7102979999999
 30
0.0
 11
40.24972299999999
 21
147.7102979999999
 31
0.0
  0
ARC
  5
ABDF
330
AA85
100
AcDbEntity
  8
1
  6
Continuous
100
AcDbCircle
 10
73.34972299999998
 20
154.710298
 30
0.0
 40
3.0
100
AcDbArc
 50
0.0
 51
90.0
  0
LINE
  5
ABE0
330
AA85
100
AcDbEntity
  8
1
  6
Continuous
100
AcDbLine
 10
76.34972299999998
 20
154.710298
 30
0.0
 11
76.34972299999998
 21
151.7102979999999
 31
0.0
  0
LINE
  5
ABE1
330
AA85
100
AcDbEntity
  8
1
  6
Continuous
100
AcDbLine
 10
74.74972300000001
 20
151.7102979999999
 30
0.0
 11
74.74972300000001
 21
147.7102979999999
 31
0.0
  0
LINE
  5
ABE2
330
AA85
100
AcDbEntity
  8
1
  6
Continuous
100
AcDbLine
 10
38.649723
 20
151.7102979999999
 30
0.0
 11
38.649723
 21
154.710298
 31
0.0
  0
ARC
  5
ABE3
330
AA85
100
AcDbEntity
  8
1
  6
Continuous
100
AcDbCircle
 10
41.649723
 20
154.710298
 30
0.0
 40
3.0
100
AcDbArc
 50
90.0
 51
180.0
  0
LINE
  5
ABE4
330
AA85
100
AcDbEntity
  8
1
  6
Continuous
100
AcDbLine
 10
40.24972299999999
 20
151.7102979999999
 30
0.0
 11
40.24972299999999
 21
147.7102979999999
 31
0.0
  0
LINE
  5
ABE5
330
AA85
100
AcDbEntity
  8
1
  6
Continuous
100
AcDbLine
 10
46.49972299999999
 20
151.7102979999999
 30
0.0
 11
38.649723
 21
151.7102979999999
 31
0.0
  0
LINE
  5
ABE6
330
AA85
100
AcDbEntity
  8
1
  6
Continuous
100
AcDbLine
 10
46.49972299999999
 20
157.710298
 30
0.0
 11
41.649723
 21
157.710298
 31
0.0
  0
LINE
  5
ABE7
330
AA85
100
AcDbEntity
  8
5
  6
PHANTOM
100
AcDbLine
 10
222.1016779999999
 20
173.1102629999998
 30
0.0
 11
190.401678
 21
173.1102629999998
 31
0.0
  0
LINE
  5
ABE8
330
AA85
100
AcDbEntity
  8
5
  6
PHANTOM
100
AcDbLine
 10
225.101678
 20
167.1102629999998
 30
0.0
 11
187.401678
 21
167.1102629999998
 31
0.0
  0
LINE
  5
ABE9
330
AA85
100
AcDbEntity
  8
5
  6
PHANTOM
100
AcDbLine
 10
223.5016779999999
 20
163.1102629999998
 30
0.0
 11
189.001678
 21
163.1102629999998
 31
0.0
  0
ARC
  5
ABEA
330
AA85
100
AcDbEntity
  8
5
  6
PHANTOM
100
AcDbCircle
 10
222.1016779999999
 20
170.1102629999998
 30
0.0
 40
3.0
100
AcDbArc
 50
0.0
 51
90.0
  0
LINE
  5
ABEB
330
AA85
100
AcDbEntity
  8
5
  6
PHANTOM
100
AcDbLine
 10
225.101678
 20
170.1102629999998
 30
0.0
 11
225.101678
 21
167.1102629999998
 31
0.0
  0
LINE
  5
ABEC
330
AA85
100
AcDbEntity
  8
5
  6
PHANTOM
100
AcDbLine
 10
223.5016779999999
 20
167.1102629999998
 30
0.0
 11
223.5016779999999
 21
163.1102629999998
 31
0.0
  0
LINE
  5
ABED
330
AA85
100
AcDbEntity
  8
5
  6
PHANTOM
100
AcDbLine
 10
187.401678
 20
167.1102629999998
 30
0.0
 11
187.401678
 21
170.1102629999998
 31
0.0
  0
ARC
  5
ABEE
330
AA85
100
AcDbEntity
  8
5
  6
PHANTOM
100
AcDbCircle
 10
190.401678
 20
170.1102629999998
 30
0.0
 40
3.0
100
AcDbArc
 50
90.0
 51
180.0
  0
LINE
  5
ABEF
330
AA85
100
AcDbEntity
  8
5
  6
PHANTOM
100
AcDbLine
 10
189.001678
 20
167.1102629999998
 30
0.0
 11
189.001678
 21
163.1102629999998
 31
0.0
  0
LINE
  5
ABF0
330
AA85
100
AcDbEntity
  8
5
  6
PHANTOM
100
AcDbLine
 10
222.1016779999999
 20
152.7102629999999
 30
0.0
 11
190.401678
 21
152.7102629999999
 31
0.0
  0
LINE
  5
ABF1
330
AA85
100
AcDbEntity
  8
5
  6
PHANTOM
100
AcDbLine
 10
225.101678
 20
146.710263
 30
0.0
 11
187.401678
 21
146.710263
 31
0.0
  0
LINE
  5
ABF2
330
AA85
100
AcDbEntity
  8
5
  6
PHANTOM
100
AcDbLine
 10
223.5016779999999
 20
142.710263
 30
0.0
 11
189.001678
 21
142.710263
 31
0.0
  0
LINE
  5
ABF3
330
AA85
100
AcDbEntity
  8
5
  6
PHANTOM
100
AcDbLine
 10
223.5016779999999
 20
146.710263
 30
0.0
 11
223.5016779999999
 21
142.710263
 31
0.0
  0
ARC
  5
ABF4
330
AA85
100
AcDbEntity
  8
5
  6
PHANTOM
100
AcDbCircle
 10
222.1016779999999
 20
149.710263
 30
0.0
 40
3.0
100
AcDbArc
 50
0.0
 51
90.0
  0
LINE
  5
ABF5
330
AA85
100
AcDbEntity
  8
5
  6
PHANTOM
100
AcDbLine
 10
225.101678
 20
149.710263
 30
0.0
 11
225.101678
 21
146.710263
 31
0.0
  0
LINE
  5
ABF6
330
AA85
100
AcDbEntity
  8
5
  6
PHANTOM
100
AcDbLine
 10
189.001678
 20
146.710263
 30
0.0
 11
189.001678
 21
142.710263
 31
0.0
  0
LINE
  5
ABF7
330
AA85
100
AcDbEntity
  8
5
  6
PHANTOM
100
AcDbLine
 10
187.401678
 20
146.710263
 30
0.0
 11
187.401678
 21
149.710263
 31
0.0
  0
ARC
  5
ABF8
330
AA85
100
AcDbEntity
  8
5
  6
PHANTOM
100
AcDbCircle
 10
190.401678
 20
149.710263
 30
0.0
 40
3.0
100
AcDbArc
 50
90.0
 51
180.0
  0
LINE
  5
ABF9
330
AA85
100
AcDbEntity
  8
4
  6
CENTER
100
AcDbLine
 10
300.0035889999999
 20
218.487668
 30
0.0
 11
300.0035889999999
 21
144.823675
 31
0.0
  0
LINE
  5
ABFA
330
AA85
100
AcDbEntity
  8
1
  6
Continuous
100
AcDbLine
 10
289.0035889999999
 20
192.8940929999999
 30
0.0
 11
289.0035889999999
 21
157.710298
 31
0.0
  0
LINE
  5
ABFB
330
AA85
100
AcDbEntity
  8
1
  6
Continuous
100
AcDbLine
 10
311.0035889999999
 20
192.8940929999999
 30
0.0
 11
311.0035889999999
 21
157.710298
 31
0.0
  0
LINE
  5
ABFC
330
AA85
100
AcDbEntity
  8
1
  6
Continuous
100
AcDbLine
 10
282.7535889999999
 20
147.7102979999999
 30
0.0
 11
317.2535889999999
 21
147.7102979999999
 31
0.0
  0
LINE
  5
ABFD
330
AA85
100
AcDbEntity
  8
4
  6
CENTER
100
AcDbLine
 10
282.5278099999998
 20
172.710263
 30
0.0
 11
316.874593
 21
172.710263
 31
0.0
  0
LINE
  5
ABFE
330
AA85
100
AcDbEntity
  8
1
  6
Continuous
100
AcDbLine
 10
284.153589
 20
157.710298
 30
0.0
 11
315.853589
 21
157.710298
 31
0.0
  0
LINE
  5
ABFF
330
AA85
100
AcDbEntity
  8
1
  6
Continuous
100
AcDbLine
 10
281.153589
 20
151.7102979999999
 30
0.0
 11
318.853589
 21
151.7102979999999
 31
0.0
  0
LINE
  5
AC00
330
AA85
100
AcDbEntity
  8
1
  6
Continuous
100
AcDbLine
 10
317.2535889999999
 20
151.7102979999999
 30
0.0
 11
317.2535889999999
 21
147.7102979999999
 31
0.0
  0
ARC
  5
AC01
330
AA85
100
AcDbEntity
  8
1
  6
Continuous
100
AcDbCircle
 10
315.853589
 20
154.710298
 30
0.0
 40
3.0
100
AcDbArc
 50
0.0
 51
90.0
  0
LINE
  5
AC02
330
AA85
100
AcDbEntity
  8
1
  6
Continuous
100
AcDbLine
 10
318.853589
 20
151.7102979999999
 30
0.0
 11
318.853589
 21
154.710298
 31
0.0
  0
ARC
  5
AC03
330
AA85
100
AcDbEntity
  8
1
  6
Continuous
100
AcDbCircle
 10
311.2535889999999
 20
167.1298129999998
 30
0.0
 40
0.5
100
AcDbArc
 50
280.0
 51
0.0
  0
LINE
  5
AC04
330
AA85
100
AcDbEntity
  8
1
  6
Continuous
100
AcDbLine
 10
311.340413
 20
166.6374089999999
 30
0.0
 11
311.0035889999999
 21
166.5780179999998
 31
0.0
  0
LINE
  5
AC05
330
AA85
100
AcDbEntity
  8
1
  6
Continuous
100
AcDbLine
 10
311.7535889999999
 20
167.1298129999998
 30
0.0
 11
311.7535889999999
 21
178.2907139999998
 31
0.0
  0
ARC
  5
AC06
330
AA85
100
AcDbEntity
  8
1
  6
Continuous
100
AcDbCircle
 10
311.2535889999999
 20
178.2907139999998
 30
0.0
 40
0.5
100
AcDbArc
 50
0.0
 51
80.0
  0
LINE
  5
AC07
330
AA85
100
AcDbEntity
  8
1
  6
Continuous
100
AcDbLine
 10
311.340413
 20
178.783117
 30
0.0
 11
311.0035889999999
 21
178.842509
 31
0.0
  0
LINE
  5
AC08
330
AA85
100
AcDbEntity
  8
1
  6
Continuous
100
AcDbLine
 10
311.7535889999999
 20
175.7102979999999
 30
0.0
 11
312.304141
 21
175.7102979999999
 31
0.0
  0
LINE
  5
AC09
330
AA85
100
AcDbEntity
  8
1
  6
Continuous
100
AcDbLine
 10
312.223927
 20
169.7102979999999
 30
0.0
 11
311.7535889999999
 21
169.7102979999999
 31
0.0
  0
LINE
  5
AC0A
330
AA85
100
AcDbEntity
  8
1
  6
Continuous
100
AcDbLine
 10
312.1583949999999
 20
164.807778
 30
0.0
 11
314.333417
 21
164.807778
 31
0.0
  0
LINE
  5
AC0B
330
AA85
100
AcDbEntity
  8
1
  6
Continuous
100
AcDbLine
 10
282.7535889999999
 20
151.7102979999999
 30
0.0
 11
282.7535889999999
 21
147.7102979999999
 31
0.0
  0
LINE
  5
AC0C
330
AA85
100
AcDbEntity
  8
1
  6
Continuous
100
AcDbLine
 10
281.153589
 20
154.710298
 30
0.0
 11
281.153589
 21
151.7102979999999
 31
0.0
  0
ARC
  5
AC0D
330
AA85
100
AcDbEntity
  8
1
  6
Continuous
100
AcDbCircle
 10
284.153589
 20
154.710298
 30
0.0
 40
3.0
100
AcDbArc
 50
90.0
 51
180.0
  0
ARC
  5
AC0E
330
AA85
100
AcDbEntity
  8
1
  6
Continuous
100
AcDbCircle
 10
288.7535889999999
 20
167.1298129999998
 30
0.0
 40
0.5
100
AcDbArc
 50
180.0
 51
260.0
  0
ARC
  5
AC0F
330
AA85
100
AcDbEntity
  8
1
  6
Continuous
100
AcDbCircle
 10
288.7535889999999
 20
178.2907139999998
 30
0.0
 40
0.5
100
AcDbArc
 50
100.0
 51
180.0
  0
LINE
  5
AC10
330
AA85
100
AcDbEntity
  8
1
  6
Continuous
100
AcDbLine
 10
288.666765
 20
166.6374089999999
 30
0.0
 11
289.0035889999999
 21
166.5780179999998
 31
0.0
  0
LINE
  5
AC11
330
AA85
100
AcDbEntity
  8
1
  6
Continuous
100
AcDbLine
 10
288.666765
 20
178.783117
 30
0.0
 11
289.0035889999999
 21
178.842509
 31
0.0
  0
LINE
  5
AC12
330
AA85
100
AcDbEntity
  8
1
  6
Continuous
100
AcDbLine
 10
288.2535889999999
 20
167.1298129999998
 30
0.0
 11
288.2535889999999
 21
178.2907139999998
 31
0.0
  0
LINE
  5
AC13
330
AA85
100
AcDbEntity
  8
1
  6
Continuous
100
AcDbLine
 10
287.7030369999999
 20
175.7102979999999
 30
0.0
 11
288.2535889999999
 21
175.7102979999999
 31
0.0
  0
LINE
  5
AC14
330
AA85
100
AcDbEntity
  8
1
  6
Continuous
100
AcDbLine
 10
287.7832509999998
 20
169.7102979999999
 30
0.0
 11
288.2535889999999
 21
169.7102979999999
 31
0.0
  0
LINE
  5
AC15
330
AA85
100
AcDbEntity
  8
1
  6
Continuous
100
AcDbLine
 10
267.503312
 20
214.1103009999999
 30
0.0
 11
332.503312
 21
214.1103009999999
 31
0.0
  0
LINE
  5
AC16
330
AA85
100
AcDbEntity
  8
1
  6
Continuous
100
AcDbLine
 10
267.503312
 20
214.7103009999999
 30
0.0
 11
332.503312
 21
214.7103009999999
 31
0.0
  0
LINE
  5
AC17
330
AA85
100
AcDbEntity
  8
1
  6
Continuous
100
AcDbLine
 10
267.503312
 20
216.7103009999999
 30
0.0
 11
332.503312
 21
216.7103009999999
 31
0.0
  0
LINE
  5
AC18
330
AA85
100
AcDbEntity
  8
1
  6
Continuous
100
AcDbLine
 10
285.203589
 20
205.0749909999999
 30
0.0
 11
291.920685
 21
205.0749909999999
 31
0.0
  0
LINE
  5
AC19
330
AA85
100
AcDbEntity
  8
1
  6
Continuous
100
AcDbLine
 10
284.681568
 20
209.4130139999998
 30
0.0
 11
291.920685
 21
209.4130139999998
 31
0.0
  0
LINE
  5
AC1A
330
AA85
100
AcDbEntity
  8
1
  6
Continuous
100
AcDbLine
 10
284.5618979999999
 20
209.8502799999999
 30
0.0
 11
291.920685
 21
209.8666829999999
 31
0.0
  0
LINE
  5
AC1B
330
AA85
100
AcDbEntity
  8
1
  6
Continuous
100
AcDbLine
 10
316.2533119999999
 20
207.496676
 30
0.0
 11
308.086493
 21
207.50673
 31
0.0
  0
LINE
  5
AC1C
330
AA85
100
AcDbEntity
  8
1
  6
Continuous
100
AcDbLine
 10
283.7533119999998
 20
205.469624
 30
0.0
 11
291.920685
 21
205.469624
 31
0.0
  0
LINE
  5
AC1D
330
AA85
100
AcDbEntity
  8
1
  6
Continuous
100
AcDbLine
 10
315.842489
 20
207.9356769999999
 30
0.0
 11
316.1002759999998
 21
208.735084
 31
0.0
  0
LINE
  5
AC1E
330
AA85
100
AcDbEntity
  8
1
  6
Continuous
100
AcDbLine
 10
316.2081069999999
 20
205.454022
 30
0.0
 11
314.1628789999999
 21
207.49925
 31
0.0
  0
LINE
  5
AC1F
330
AA85
100
AcDbEntity
  8
1
  6
Continuous
100
AcDbLine
 10
313.37968
 20
205.454022
 30
0.0
 11
311.330966
 21
207.5027359999999
 31
0.0
  0
LINE
  5
AC20
330
AA85
100
AcDbEntity
  8
1
  6
Continuous
100
AcDbLine
 10
310.5512529999999
 20
205.454022
 30
0.0
 11
308.499053
 21
207.5062219999999
 31
0.0
  0
LINE
  5
AC21
330
AA85
100
AcDbEntity
  8
1
  6
Continuous
100
AcDbLine
 10
314.911216
 20
205.454022
 30
0.0
 11
316.2533119999999
 21
206.796118
 31
0.0
  0
LINE
  5
AC22
330
AA85
100
AcDbEntity
  8
1
  6
Continuous
100
AcDbLine
 10
313.497003
 20
205.454022
 30
0.0
 11
315.5405339999999
 21
207.497554
 31
0.0
  0
LINE
  5
AC23
330
AA85
100
AcDbEntity
  8
1
  6
Continuous
100
AcDbLine
 10
312.082789
 20
205.454022
 30
0.0
 11
314.1280599999999
 21
207.499292
 31
0.0
  0
LINE
  5
AC24
330
AA85
100
AcDbEntity
  8
1
  6
Continuous
100
AcDbLine
 10
310.668575
 20
205.454022
 30
0.0
 11
312.7155849999998
 21
207.501031
 31
0.0
  0
LINE
  5
AC25
330
AA85
100
AcDbEntity
  8
1
  6
Continuous
100
AcDbLine
 10
309.254362
 20
205.454022
 30
0.0
 11
311.30311
 21
207.50277
 31
0.0
  0
LINE
  5
AC26
330
AA85
100
AcDbEntity
  8
1
  6
Continuous
100
AcDbLine
 10
308.086493
 20
205.7003669999998
 30
0.0
 11
309.8906359999999
 21
207.504509
 31
0.0
  0
LINE
  5
AC27
330
AA85
100
AcDbEntity
  8
1
  6
Continuous
100
AcDbLine
 10
308.086493
 20
207.11458
 30
0.0
 11
308.478161
 21
207.506248
 31
0.0
  0
LINE
  5
AC28
330
AA85
100
AcDbEntity
  8
1
  6
Continuous
100
AcDbLine
 10
316.2533119999999
 20
207.496676
 30
0.0
 11
316.2533119999999
 21
205.454022
 31
0.0
  0
ARC
  5
AC29
330
AA85
100
AcDbEntity
  8
1
  6
Continuous
100
AcDbCircle
 10
316.6090029999999
 20
206.996568
 30
0.0
 40
1.212217
100
AcDbArc
 50
129.221821
 51
155.5866799999998
  0
LINE
  5
AC2A
330
AA85
100
AcDbEntity
  8
4
  6
CENTER
100
AcDbLine
 10
321.0035889999999
 20
212.529235
 30
0.0
 11
321.0035889999999
 21
218.066159
 31
0.0
  0
LINE
  5
AC2B
330
AA85
100
AcDbEntity
  8
1
  6
Continuous
100
AcDbLine
 10
332.503312
 20
216.7103009999999
 30
0.0
 11
332.503312
 21
214.1103009999999
 31
0.0
  0
LINE
  5
AC2C
330
AA85
100
AcDbEntity
  8
1
  6
Continuous
100
AcDbLine
 10
314.550762
 20
209.852273
 30
0.0
 11
314.550762
 21
209.4130139999998
 31
0.0
  0
ARC
  5
AC2D
330
AA85
100
AcDbEntity
  8
1
  6
Continuous
100
AcDbCircle
 10
315.1338399999999
 20
208.0950459999999
 30
0.0
 40
1.360029999999999
100
AcDbArc
 50
53.71139300000001
 51
75.71328100000002
  0
ARC
  5
AC2E
330
AA85
100
AcDbEntity
  8
1
  6
Continuous
100
AcDbCircle
 10
315.720824
 20
208.857447
 30
0.0
 40
0.398694
100
AcDbArc
 50
342.126869
 51
56.86115199999999
  0
ARC
  5
AC2F
330
AA85
100
AcDbEntity
  8
1
  6
Continuous
100
AcDbCircle
 10
308.8649639999998
 20
217.609756
 30
0.0
 40
11.213359
100
AcDbArc
 50
325.713405
 51
335.842672
  0
ARC
  5
AC30
330
AA85
100
AcDbEntity
  8
1
  6
Continuous
100
AcDbCircle
 10
315.530778
 20
213.0649309999999
 30
0.0
 40
3.145614
100
AcDbArc
 50
270.127709
 51
325.713405
  0
ARC
  5
AC31
330
AA85
100
AcDbEntity
  8
1
  6
Continuous
100
AcDbCircle
 10
98.594146
 20
323.1645649999999
 30
0.0
 40
246.4809609999999
100
AcDbArc
 50
333.4572539999999
 51
333.7400149999999
  0
ARC
  5
AC32
330
AA85
100
AcDbEntity
  8
1
  6
Continuous
100
AcDbCircle
 10
286.24731
 20
209.030708
 30
0.0
 40
2.338996999999999
100
AcDbArc
 50
195.0838819999999
 51
219.725552
  0
LINE
  5
AC33
330
AA85
100
AcDbEntity
  8
1
  6
Continuous
100
AcDbLine
 10
286.6269449999998
 20
205.454022
 30
0.0
 11
288.7035149999999
 21
207.5305909999999
 31
0.0
  0
LINE
  5
AC34
330
AA85
100
AcDbEntity
  8
1
  6
Continuous
100
AcDbLine
 10
288.041158
 20
205.454022
 30
0.0
 11
290.115989
 21
207.5288529999999
 31
0.0
  0
LINE
  5
AC35
330
AA85
100
AcDbEntity
  8
1
  6
Continuous
100
AcDbLine
 10
290.7522629999998
 20
205.454022
 30
0.0
 11
288.675659
 21
207.530626
 31
0.0
  0
LINE
  5
AC36
330
AA85
100
AcDbEntity
  8
1
  6
Continuous
100
AcDbLine
 10
291.920685
 20
207.1140259999999
 30
0.0
 11
291.5075719999999
 21
207.5271389999998
 31
0.0
  0
LINE
  5
AC37
330
AA85
100
AcDbEntity
  8
1
  6
Continuous
100
AcDbLine
 10
289.455372
 20
205.454022
 30
0.0
 11
291.5284639999999
 21
207.5271139999999
 31
0.0
  0
LINE
  5
AC38
330
AA85
100
AcDbEntity
  8
1
  6
Continuous
100
AcDbLine
 10
290.8695859999999
 20
205.454022
 30
0.0
 11
291.920685
 21
206.505121
 31
0.0
  0
LINE
  5
AC39
330
AA85
100
AcDbEntity
  8
1
  6
Continuous
100
AcDbLine
 10
283.7533119999998
 20
206.796118
 30
0.0
 11
285.0954089999999
 21
205.454022
 31
0.0
  0
LINE
  5
AC3A
330
AA85
100
AcDbEntity
  8
1
  6
Continuous
100
AcDbLine
 10
287.923836
 20
205.454022
 30
0.0
 11
285.843746
 21
207.534112
 31
0.0
  0
LINE
  5
AC3B
330
AA85
100
AcDbEntity
  8
1
  6
Continuous
100
AcDbLine
 10
283.7533119999998
 20
206.8230299999999
 30
0.0
 11
284.46609
 21
207.5358079999999
 31
0.0
  0
LINE
  5
AC3C
330
AA85
100
AcDbEntity
  8
1
  6
Continuous
100
AcDbLine
 10
283.813063
 20
205.468567
 30
0.0
 11
285.8785649999999
 21
207.5340689999999
 31
0.0
  0
LINE
  5
AC3D
330
AA85
100
AcDbEntity
  8
1
  6
Continuous
100
AcDbLine
 10
285.212731
 20
205.454022
 30
0.0
 11
287.29104
 21
207.5323299999999
 31
0.0
  0
LINE
  5
AC3E
330
AA85
100
AcDbEntity
  8
1
  6
Continuous
100
AcDbLine
 10
283.7533119999998
 20
207.5366849999999
 30
0.0
 11
283.7533119999998
 21
205.4695989999999
 31
0.0
  0
LINE
  5
AC3F
330
AA85
100
AcDbEntity
  8
4
  6
CENTER
100
AcDbLine
 10
279.0035889999999
 20
218.0108119999999
 30
0.0
 11
279.0035889999999
 21
212.529235
 31
0.0
  0
LINE
  5
AC40
330
AA85
100
AcDbEntity
  8
1
  6
Continuous
100
AcDbLine
 10
285.4558629999999
 20
209.852273
 30
0.0
 11
285.4558629999999
 21
209.4130139999998
 31
0.0
  0
LINE
  5
AC41
330
AA85
100
AcDbEntity
  8
1
  6
Continuous
100
AcDbLine
 10
283.9889009999998
 20
208.422024
 30
0.0
 11
283.937711
 21
208.4527099999998
 31
0.0
  0
ARC
  5
AC42
330
AA85
100
AcDbEntity
  8
1
  6
Continuous
100
AcDbCircle
 10
284.681568
 20
208.6447639999999
 30
0.0
 40
0.76825
100
AcDbArc
 50
90.0
 51
194.4768179999998
  0
LINE
  5
AC43
330
AA85
100
AcDbEntity
  8
1
  6
Continuous
100
AcDbLine
 10
280.9693779999999
 20
212.68148
 30
0.0
 11
280.21994
 21
214.1103009999999
 31
0.0
  0
ARC
  5
AC44
330
AA85
100
AcDbEntity
  8
1
  6
Continuous
100
AcDbCircle
 10
289.665031
 20
217.2424809999998
 30
0.0
 40
9.819221
100
AcDbArc
 50
207.6776859999999
 51
219.191712
  0
ARC
  5
AC45
330
AA85
100
AcDbEntity
  8
1
  6
Continuous
100
AcDbCircle
 10
284.554708
 20
213.0758339999999
 30
0.0
 40
3.225562
100
AcDbArc
 50
219.191712
 51
270.127709
  0
LINE
  5
AC46
330
AA85
100
AcDbEntity
  8
1
  6
Continuous
100
AcDbLine
 10
267.503312
 20
216.7103009999999
 30
0.0
 11
267.503312
 21
214.1103009999999
 31
0.0
  0
LINE
  5
AC47
330
AA85
100
AcDbEntity
  8
5
  6
PHANTOM
100
AcDbLine
 10
376.5054999999999
 20
142.710263
 30
0.0
 11
411.0055
 21
142.710263
 31
0.0
  0
LINE
  5
AC48
330
AA85
100
AcDbEntity
  8
5
  6
PHANTOM
100
AcDbLine
 10
374.9055
 20
146.710263
 30
0.0
 11
412.6055
 21
146.710263
 31
0.0
  0
LINE
  5
AC49
330
AA85
100
AcDbEntity
  8
5
  6
PHANTOM
100
AcDbLine
 10
377.9055
 20
152.7102629999999
 30
0.0
 11
409.6054999999998
 21
152.7102629999999
 31
0.0
  0
LINE
  5
AC4A
330
AA85
100
AcDbEntity
  8
5
  6
PHANTOM
100
AcDbLine
 10
377.9055
 20
173.1102629999998
 30
0.0
 11
409.6054999999998
 21
173.1102629999998
 31
0.0
  0
LINE
  5
AC4B
330
AA85
100
AcDbEntity
  8
5
  6
PHANTOM
100
AcDbLine
 10
374.9055
 20
167.1102629999998
 30
0.0
 11
412.6055
 21
167.1102629999998
 31
0.0
  0
LINE
  5
AC4C
330
AA85
100
AcDbEntity
  8
5
  6
PHANTOM
100
AcDbLine
 10
376.5054999999999
 20
163.1102629999998
 30
0.0
 11
411.0055
 21
163.1102629999998
 31
0.0
  0
LINE
  5
AC4D
330
AA85
100
AcDbEntity
  8
1
  6
Continuous
100
AcDbLine
 10
377.9055
 20
157.7102629999999
 30
0.0
 11
409.6054999999998
 21
157.7102629999999
 31
0.0
  0
LINE
  5
AC4E
330
AA85
100
AcDbEntity
  8
1
  6
Continuous
100
AcDbLine
 10
374.9055
 20
151.710263
 30
0.0
 11
412.6055
 21
151.710263
 31
0.0
  0
LINE
  5
AC4F
330
AA85
100
AcDbEntity
  8
1
  6
Continuous
100
AcDbLine
 10
383.7555
 20
163.710263
 30
0.0
 11
403.7555
 21
163.710263
 31
0.0
  0
ARC
  5
AC50
330
AA85
100
AcDbEntity
  8
1
  6
Continuous
100
AcDbCircle
 10
386.5054999999999
 20
162.991513
 30
0.0
 40
4.28125
100
AcDbArc
 50
230.0337869999999
 51
309.966213
  0
LINE
  5
AC51
330
AA85
100
AcDbEntity
  8
1
  6
Continuous
100
AcDbLine
 10
386.5054999999999
 20
158.7102629999999
 30
0.0
 11
401.0054999999998
 21
158.7102629999999
 31
0.0
  0
LINE
  5
AC52
330
AA85
100
AcDbEntity
  8
1
  6
Continuous
100
AcDbLine
 10
383.2554999999999
 20
158.210263
 30
0.0
 11
404.2555
 21
158.210263
 31
0.0
  0
LINE
  5
AC53
330
AA85
100
AcDbEntity
  8
1
  6
Continuous
100
AcDbLine
 10
376.5054999999999
 20
147.710263
 30
0.0
 11
411.0055
 21
147.710263
 31
0.0
  0
LINE
  5
AC54
330
AA85
100
AcDbEntity
  8
1
  6
Continuous
100
AcDbLine
 10
393.944161
 20
192.894058
 30
0.0
 11
382.7247729999998
 21
192.894058
 31
0.0
  0
ARC
  5
AC55
330
AA85
100
AcDbEntity
  8
1
  6
Continuous
100
AcDbCircle
 10
390.8601049999999
 20
71.89576700000002
 30
0.0
 40
133.113684
100
AcDbArc
 50
89.36915299999999
 51
92.00399799999999
  0
ARC
  5
AC56
330
AA85
100
AcDbEntity
  8
1
  6
Continuous
100
AcDbCircle
 10
388.2997419999999
 20
183.332961
 30
0.0
 40
1.544240999999999
100
AcDbArc
 50
180.0
 51
270.0
  0
ARC
  5
AC57
330
AA85
100
AcDbEntity
  8
1
  6
Continuous
100
AcDbCircle
 10
390.2554999999999
 20
185.8512199999999
 30
0.0
 40
4.0625
100
AcDbArc
 50
210.510237
 51
329.4897629999999
  0
LINE
  5
AC58
330
AA85
100
AcDbEntity
  8
1
  6
Continuous
100
AcDbLine
 10
383.2451199999999
 20
214.1102629999998
 30
0.0
 11
404.440147
 21
214.1102629999998
 31
0.0
  0
LINE
  5
AC59
330
AA85
100
AcDbEntity
  8
1
  6
Continuous
100
AcDbLine
 10
371.2555189999998
 20
214.710263
 30
0.0
 11
400.6154539999998
 21
214.710263
 31
0.0
  0
LINE
  5
AC5A
330
AA85
100
AcDbEntity
  8
1
  6
Continuous
100
AcDbLine
 10
471.2555189999998
 20
216.710263
 30
0.0
 11
371.2555189999998
 21
216.710263
 31
0.0
  0
LINE
  5
AC5B
330
AA85
100
AcDbEntity
  8
4
  6
CENTER
100
AcDbLine
 10
440.255519
 20
144.710263
 30
0.0
 11
440.255519
 21
200.7102629999998
 31
0.0
  0
ARC
  5
AC5C
330
AA85
100
AcDbEntity
  8
1
  6
Continuous
100
AcDbCircle
 10
440.255519
 20
172.710263
 30
0.0
 40
25.0
100
AcDbArc
 50
153.0920419999999
 51
69.80044000000001
  0
LINE
  5
AC5D
330
AA85
100
AcDbEntity
  8
1
  6
Continuous
100
AcDbLine
 10
449.403927
 20
200.012882
 30
0.0
 11
445.1457429999998
 21
168.3303889999999
 31
0.0
  0
ARC
  5
AC5E
330
AA85
100
AcDbEntity
  8
1
  6
Continuous
100
AcDbCircle
 10
365.452541
 20
138.0583899999998
 30
0.0
 40
69.78622699999999
100
AcDbArc
 50
40.62630600000001
 51
49.92724700000001
  0
LINE
  5
AC5F
330
AA85
100
AcDbEntity
  8
1
  6
Continuous
100
AcDbLine
 10
393.7555
 20
192.894058
 30
0.0
 11
393.7555
 21
183.7887199999999
 31
0.0
  0
LINE
  5
AC60
330
AA85
100
AcDbEntity
  8
1
  6
Continuous
100
AcDbLine
 10
400.7554999999999
 20
193.1255499999998
 30
0.0
 11
400.7554999999999
 21
183.33272
 31
0.0
  0
LINE
  5
AC61
330
AA85
100
AcDbEntity
  8
4
  6
CENTER
100
AcDbLine
 10
412.2555189999998
 20
172.710263
 30
0.0
 11
468.255519
 21
172.710263
 31
0.0
  0
ARC
  5
AC62
330
AA85
100
AcDbEntity
  8
1
  6
Continuous
100
AcDbCircle
 10
440.255519
 20
172.710263
 30
0.0
 40
8.5
100
AcDbArc
 50
243.108272
 51
42.63791499999999
  0
LINE
  5
AC63
330
AA85
100
AcDbEntity
  8
4
  6
CENTER
100
AcDbLine
 10
393.7555
 20
141.005844
 30
0.0
 11
393.7555
 21
218.6336359999998
 31
0.0
  0
ARC
  5
AC64
330
AA85
100
AcDbEntity
  8
1
  6
Continuous
100
AcDbCircle
 10
261.2201119999999
 20
86.391874
 30
0.0
 40
184.7724259999999
100
AcDbArc
 50
26.09094699999999
 51
31.704827
  0
ARC
  5
AC65
330
AA85
100
AcDbEntity
  8
1
  6
Continuous
100
AcDbCircle
 10
441.118353
 20
168.871678
 30
0.0
 40
4.063601999999998
100
AcDbArc
 50
265.973191
 51
352.345215
  0
LINE
  5
AC66
330
AA85
100
AcDbEntity
  8
1
  6
Continuous
100
AcDbLine
 10
440.8329929999998
 20
164.8181069999999
 30
0.0
 11
430.2697799999998
 21
165.5617259999999
 31
0.0
  0
CIRCLE
  5
AC67
330
AA85
100
AcDbEntity
  8
1
  6
Continuous
100
AcDbCircle
 10
440.255519
 20
172.710263
 30
0.0
 40
4.25
  0
ARC
  5
AC68
330
AA85
100
AcDbEntity
  8
1
  6
Continuous
100
AcDbCircle
 10
430.53325
 20
169.304356
 30
0.0
 40
3.751891999999998
100
AcDbArc
 50
206.0909469999999
 51
265.973191
  0
LINE
  5
AC69
330
AA85
100
AcDbEntity
  8
5
  6
PHANTOM
100
AcDbLine
 10
411.0055
 20
167.1102629999998
 30
0.0
 11
411.0055
 21
163.1102629999998
 31
0.0
  0
LINE
  5
AC6A
330
AA85
100
AcDbEntity
  8
1
  6
Continuous
100
AcDbLine
 10
398.7555
 20
181.7887199999999
 30
0.0
 11
398.7555
 21
163.710263
 31
0.0
  0
LINE
  5
AC6B
330
AA85
100
AcDbEntity
  8
1
  6
Continuous
100
AcDbLine
 10
388.7554999999999
 20
181.7887199999999
 30
0.0
 11
388.7554999999999
 21
163.710263
 31
0.0
  0
ARC
  5
AC6C
330
AA85
100
AcDbEntity
  8
1
  6
Continuous
100
AcDbCircle
 10
401.0054999999998
 20
162.991513
 30
0.0
 40
4.28125
100
AcDbArc
 50
230.0337869999999
 51
309.966213
  0
ARC
  5
AC6D
330
AA85
100
AcDbEntity
  8
5
  6
PHANTOM
100
AcDbCircle
 10
409.6054999999998
 20
149.710263
 30
0.0
 40
3.0
100
AcDbArc
 50
0.0
 51
90.0
  0
LINE
  5
AC6E
330
AA85
100
AcDbEntity
  8
5
  6
PHANTOM
100
AcDbLine
 10
412.6055
 20
146.710263
 30
0.0
 11
412.6055
 21
149.710263
 31
0.0
  0
LINE
  5
AC6F
330
AA85
100
AcDbEntity
  8
5
  6
PHANTOM
100
AcDbLine
 10
411.0055
 20
146.710263
 30
0.0
 11
411.0055
 21
142.710263
 31
0.0
  0
LINE
  5
AC70
330
AA85
100
AcDbEntity
  8
1
  6
Continuous
100
AcDbLine
 10
412.6055
 20
151.710263
 30
0.0
 11
412.6055
 21
154.7102629999999
 31
0.0
  0
ARC
  5
AC71
330
AA85
100
AcDbEntity
  8
1
  6
Continuous
100
AcDbCircle
 10
409.6054999999998
 20
154.7102629999999
 30
0.0
 40
3.0
100
AcDbArc
 50
0.0
 51
90.0
  0
LINE
  5
AC72
330
AA85
100
AcDbEntity
  8
1
  6
Continuous
100
AcDbLine
 10
403.7555
 20
163.710263
 30
0.0
 11
403.7555
 21
159.710263
 31
0.0
  0
LINE
  5
AC73
330
AA85
100
AcDbEntity
  8
1
  6
Continuous
100
AcDbLine
 10
404.2555
 20
158.210263
 30
0.0
 11
404.2555
 21
157.7102629999999
 31
0.0
  0
LINE
  5
AC74
330
AA85
100
AcDbEntity
  8
1
  6
Continuous
100
AcDbLine
 10
411.0055
 20
151.710263
 30
0.0
 11
411.0055
 21
147.710263
 31
0.0
  0
LINE
  5
AC75
330
AA85
100
AcDbEntity
  8
1
  6
Continuous
100
AcDbLine
 10
398.2554999999999
 20
163.710263
 30
0.0
 11
398.2554999999999
 21
159.710263
 31
0.0
  0
LINE
  5
AC76
330
AA85
100
AcDbEntity
  8
1
  6
Continuous
100
AcDbLine
 10
389.2554999999999
 20
163.710263
 30
0.0
 11
389.2554999999999
 21
159.710263
 31
0.0
  0
ARC
  5
AC77
330
AA85
100
AcDbEntity
  8
1
  6
Continuous
100
AcDbCircle
 10
393.7555
 20
169.3352629999999
 30
0.0
 40
10.625
100
AcDbArc
 50
244.942385
 51
295.057615
  0
LINE
  5
AC78
330
AA85
100
AcDbEntity
  8
1
  6
Continuous
100
AcDbLine
 10
397.2554999999999
 20
158.224955
 30
0.0
 11
397.2554999999999
 21
158.7102629999999
 31
0.0
  0
LINE
  5
AC79
330
AA85
100
AcDbEntity
  8
1
  6
Continuous
100
AcDbLine
 10
390.2554999999999
 20
158.7102629999999
 30
0.0
 11
390.2554999999999
 21
158.224955
 31
0.0
  0
LINE
  5
AC7A
330
AA85
100
AcDbEntity
  8
5
  6
PHANTOM
100
AcDbLine
 10
412.6055
 20
167.1102629999998
 30
0.0
 11
412.6055
 21
170.1102629999998
 31
0.0
  0
ARC
  5
AC7B
330
AA85
100
AcDbEntity
  8
5
  6
PHANTOM
100
AcDbCircle
 10
409.6054999999998
 20
170.1102629999998
 30
0.0
 40
3.0
100
AcDbArc
 50
0.0
 51
90.0
  0
LINE
  5
AC7C
330
AA85
100
AcDbEntity
  8
2
  6
Continuous
100
AcDbLine
 10
398.7555
 20
165.3038379999999
 30
0.0
 11
397.9434999999999
 21
166.710263
 31
0.0
  0
LINE
  5
AC7D
330
AA85
100
AcDbEntity
  8
2
  6
Continuous
100
AcDbLine
 10
388.7554999999999
 20
165.3038379999999
 30
0.0
 11
389.5675
 21
166.710263
 31
0.0
  0
LINE
  5
AC7E
330
AA85
100
AcDbEntity
  8
2
  6
Continuous
100
AcDbLine
 10
397.9434999999999
 20
166.710263
 30
0.0
 11
397.9434999999999
 21
181.7887199999999
 31
0.0
  0
LINE
  5
AC7F
330
AA85
100
AcDbEntity
  8
2
  6
Continuous
100
AcDbLine
 10
389.5675
 20
166.710263
 30
0.0
 11
389.5675
 21
181.7887199999999
 31
0.0
  0
LINE
  5
AC80
330
AA85
100
AcDbEntity
  8
1
  6
Continuous
100
AcDbLine
 10
388.7554999999999
 20
166.710263
 30
0.0
 11
398.7555
 21
166.710263
 31
0.0
  0
ARC
  5
AC81
330
AA85
100
AcDbEntity
  8
1
  6
Continuous
100
AcDbCircle
 10
399.2115
 20
183.33272
 30
0.0
 40
1.544
100
AcDbArc
 50
270.0
 51
0.0
  0
LINE
  5
AC82
330
AA85
100
AcDbEntity
  8
1
  6
Continuous
100
AcDbLine
 10
388.2997419999999
 20
181.7887199999999
 30
0.0
 11
399.2115
 21
181.7887199999999
 31
0.0
  0
ARC
  5
AC83
330
AA85
100
AcDbEntity
  8
1
  6
Continuous
100
AcDbCircle
 10
397.2554999999999
 20
185.8512199999999
 30
0.0
 40
4.0625
100
AcDbArc
 50
210.510237
 51
329.4897629999999
  0
ARC
  5
AC84
330
AA85
100
AcDbEntity
  8
1
  6
Continuous
100
AcDbCircle
 10
442.7594809999998
 20
178.677174
 30
0.0
 40
20.83933299999999
100
AcDbArc
 50
64.437776
 51
71.99739100000002
  0
ARC
  5
AC85
330
AA85
100
AcDbEntity
  8
1
  6
Continuous
100
AcDbCircle
 10
441.9199569999998
 20
176.0932539999998
 30
0.0
 40
25.53418999999999
100
AcDbArc
 50
63.614344
 51
78.26074300000001
  0
LINE
  5
AC86
330
AA85
100
AcDbEntity
  8
1
  6
Continuous
100
AcDbLine
 10
441.8949889999998
 20
214.710263
 30
0.0
 11
471.2555189999998
 21
214.710263
 31
0.0
  0
LINE
  5
AC87
330
AA85
100
AcDbEntity
  8
1
  6
Continuous
100
AcDbLine
 10
438.0702959999998
 20
214.1102629999998
 30
0.0
 11
459.265324
 21
214.1102629999998
 31
0.0
  0
ARC
  5
AC88
330
AA85
100
AcDbEntity
  8
1
  6
Continuous
100
AcDbCircle
 10
451.4517480000002
 20
196.535257
 30
0.0
 40
3.035225999999998
100
AcDbArc
 50
37.30503200000001
 51
53.25395999999999
  0
ARC
  5
AC89
330
AA85
100
AcDbEntity
  8
1
  6
Continuous
100
AcDbCircle
 10
475.4908409999998
 20
188.675423
 30
0.0
 40
23.70042399999999
100
AcDbArc
 50
155.842376
 51
158.816
  0
ARC
  5
AC8A
330
AA85
100
AcDbEntity
  8
1
  6
Continuous
100
AcDbCircle
 10
452.825083
 20
197.45961
 30
0.0
 40
0.6079810000000001
100
AcDbArc
 50
295.901379
 51
338.816
  0
ARC
  5
AC8B
330
AA85
100
AcDbEntity
  8
1
  6
Continuous
100
AcDbCircle
 10
458.3476109999998
 20
211.2672359999999
 30
0.0
 40
15.28686099999998
100
AcDbArc
 50
244.4377759999999
 51
249.886151
  0
LINE
  5
AC8C
330
AA85
100
AcDbEntity
  8
1
  6
Continuous
100
AcDbLine
 10
471.2555189999998
 20
216.710263
 30
0.0
 11
471.2555189999998
 21
214.710263
 31
0.0
  0
LINE
  5
AC8D
330
AA85
100
AcDbEntity
  8
4
  6
CENTER
100
AcDbLine
 10
462.2552219999998
 20
219.316731
 30
0.0
 11
462.2552219999998
 21
212.4331359999999
 31
0.0
  0
ARC
  5
AC8E
330
AA85
100
AcDbEntity
  8
1
  6
Continuous
100
AcDbCircle
 10
459.265324
 20
214.6102629999998
 30
0.0
 40
0.5
100
AcDbArc
 50
270.0
 51
11.53695899999999
  0
LINE
  5
AC8F
330
AA85
100
AcDbEntity
  8
1
  6
Continuous
100
AcDbLine
 10
420.4897509999998
 20
205.4539839999999
 30
0.0
 11
418.4236059999998
 21
207.5201289999998
 31
0.0
  0
LINE
  5
AC90
330
AA85
100
AcDbEntity
  8
1
  6
Continuous
100
AcDbLine
 10
417.778646
 20
205.4539839999999
 30
0.0
 11
419.843044
 21
207.5183819999999
 31
0.0
  0
LINE
  5
AC91
330
AA85
100
AcDbEntity
  8
1
  6
Continuous
100
AcDbLine
 10
419.1928599999998
 20
205.4539839999999
 30
0.0
 11
421.2555189999998
 21
207.5166429999999
 31
0.0
  0
LINE
  5
AC92
330
AA85
100
AcDbEntity
  8
1
  6
Continuous
100
AcDbLine
 10
437.505519
 20
205.469924
 30
0.0
 11
405.005519
 21
205.469924
 31
0.0
  0
LINE
  5
AC93
330
AA85
100
AcDbEntity
  8
1
  6
Continuous
100
AcDbLine
 10
405.6120329999997
 20
205.0753219999998
 30
0.0
 11
436.4059899999999
 21
205.075275
 31
0.0
  0
LINE
  5
AC94
330
AA85
100
AcDbEntity
  8
1
  6
Continuous
100
AcDbLine
 10
405.933775
 20
209.4129759999999
 30
0.0
 11
436.7216679999998
 21
209.4129759999999
 31
0.0
  0
LINE
  5
AC95
330
AA85
100
AcDbEntity
  8
1
  6
Continuous
100
AcDbLine
 10
405.8141039999998
 20
209.8502429999999
 30
0.0
 11
436.7899959999999
 21
209.919286
 31
0.0
  0
LINE
  5
AC96
330
AA85
100
AcDbEntity
  8
1
  6
Continuous
100
AcDbLine
 10
408.264841
 20
214.710263
 30
0.0
 11
434.245603
 21
214.710263
 31
0.0
  0
LINE
  5
AC97
330
AA85
100
AcDbEntity
  8
1
  6
Continuous
100
AcDbLine
 10
437.505519
 20
207.4966379999999
 30
0.0
 11
405.005519
 21
207.536648
 31
0.0
  0
LINE
  5
AC98
330
AA85
100
AcDbEntity
  8
4
  6
CENTER
100
AcDbLine
 10
421.2555189999998
 20
190.065842
 30
0.0
 11
421.2555189999998
 21
219.1361249999999
 31
0.0
  0
LINE
  5
AC99
330
AA85
100
AcDbEntity
  8
1
  6
Continuous
100
AcDbLine
 10
437.094695
 20
207.9356399999999
 30
0.0
 11
437.352483
 21
208.7350459999999
 31
0.0
  0
LINE
  5
AC9A
330
AA85
100
AcDbEntity
  8
1
  6
Continuous
100
AcDbLine
 10
434.749209
 20
205.4539839999999
 30
0.0
 11
436.792741
 21
207.497516
 31
0.0
  0
LINE
  5
AC9B
330
AA85
100
AcDbEntity
  8
1
  6
Continuous
100
AcDbLine
 10
433.3349959999998
 20
205.4539839999999
 30
0.0
 11
435.380266
 21
207.499255
 31
0.0
  0
LINE
  5
AC9C
330
AA85
100
AcDbEntity
  8
1
  6
Continuous
100
AcDbLine
 10
440.0718259999998
 20
202.111104
 30
0.0
 11
431.2783379999998
 21
202.111104
 31
0.0
  0
LINE
  5
AC9D
330
AA85
100
AcDbEntity
  8
1
  6
Continuous
100
AcDbLine
 10
437.4603139999998
 20
205.4539839999999
 30
0.0
 11
435.4150859999998
 21
207.499212
 31
0.0
  0
LINE
  5
AC9E
330
AA85
100
AcDbEntity
  8
1
  6
Continuous
100
AcDbLine
 10
436.1634229999999
 20
205.4539839999999
 30
0.0
 11
437.505519
 21
206.7960799999999
 31
0.0
  0
ARC
  5
AC9F
330
AA85
100
AcDbEntity
  8
1
  6
Continuous
100
AcDbCircle
 10
440.3295769999998
 20
202.370523
 30
0.0
 40
0.365696
100
AcDbArc
 50
225.1848589999999
 51
266.4768029999998
  0
ARC
  5
ACA0
330
AA85
100
AcDbEntity
  8
1
  6
Continuous
100
AcDbCircle
 10
437.360957
 20
154.154381
 30
0.0
 40
47.941747
100
AcDbArc
 50
78.26074300000001
 51
86.47680300000002
  0
ARC
  5
ACA1
330
AA85
100
AcDbEntity
  8
1
  6
Continuous
100
AcDbCircle
 10
442.8128509999998
 20
202.5692409999999
 30
0.0
 40
2.779046999999998
100
AcDbArc
 50
179.5523279999999
 51
189.4887569999999
  0
ARC
  5
ACA2
330
AA85
100
AcDbEntity
  8
1
  6
Continuous
100
AcDbCircle
 10
435.191508
 20
200.2077149999998
 30
0.0
 40
5.397081
100
AcDbArc
 50
26.2047
 51
41.642269
  0
ARC
  5
ACA3
330
AA85
100
AcDbEntity
  8
1
  6
Continuous
100
AcDbCircle
 10
436.4059899999999
 20
201.356256
 30
0.0
 40
3.719041999999998
100
AcDbArc
 50
57.76027299999999
 51
89.99995600000003
  0
ARC
  5
ACA4
330
AA85
100
AcDbEntity
  8
1
  6
Continuous
100
AcDbCircle
 10
436.307379
 20
201.199905
 30
0.0
 40
3.903893
100
AcDbArc
 50
41.642269
 51
57.76027299999999
  0
LINE
  5
ACA5
330
AA85
100
AcDbEntity
  8
1
  6
Continuous
100
AcDbLine
 10
437.505519
 20
207.4966379999999
 30
0.0
 11
437.505519
 21
205.469924
 31
0.0
  0
ARC
  5
ACA6
330
AA85
100
AcDbEntity
  8
1
  6
Continuous
100
AcDbCircle
 10
437.8612099999998
 20
206.99653
 30
0.0
 40
1.212217
100
AcDbArc
 50
129.221821
 51
155.5866799999998
  0
LINE
  5
ACA7
330
AA85
100
AcDbEntity
  8
1
  6
Continuous
100
AcDbLine
 10
434.631887
 20
205.4539839999999
 30
0.0
 11
432.583172
 21
207.502698
 31
0.0
  0
LINE
  5
ACA8
330
AA85
100
AcDbEntity
  8
1
  6
Continuous
100
AcDbLine
 10
431.8034589999999
 20
205.4539839999999
 30
0.0
 11
429.751259
 21
207.506184
 31
0.0
  0
LINE
  5
ACA9
330
AA85
100
AcDbEntity
  8
1
  6
Continuous
100
AcDbLine
 10
428.975032
 20
205.4539839999999
 30
0.0
 11
426.919346
 21
207.5096709999999
 31
0.0
  0
LINE
  5
ACAA
330
AA85
100
AcDbEntity
  8
1
  6
Continuous
100
AcDbLine
 10
426.146605
 20
205.4539839999999
 30
0.0
 11
424.0874319999998
 21
207.5131569999999
 31
0.0
  0
LINE
  5
ACAB
330
AA85
100
AcDbEntity
  8
1
  6
Continuous
100
AcDbLine
 10
423.3181779999998
 20
205.4539839999999
 30
0.0
 11
421.2555189999998
 21
207.5166429999999
 31
0.0
  0
LINE
  5
ACAC
330
AA85
100
AcDbEntity
  8
1
  6
Continuous
100
AcDbLine
 10
431.9207819999999
 20
205.4539839999999
 30
0.0
 11
433.9677919999998
 21
207.500994
 31
0.0
  0
LINE
  5
ACAD
330
AA85
100
AcDbEntity
  8
1
  6
Continuous
100
AcDbLine
 10
430.5065679999998
 20
205.4539839999999
 30
0.0
 11
432.555317
 21
207.502732
 31
0.0
  0
LINE
  5
ACAE
330
AA85
100
AcDbEntity
  8
1
  6
Continuous
100
AcDbLine
 10
429.092355
 20
205.4539839999999
 30
0.0
 11
431.1428419999998
 21
207.5044709999999
 31
0.0
  0
LINE
  5
ACAF
330
AA85
100
AcDbEntity
  8
1
  6
Continuous
100
AcDbLine
 10
427.6781409999999
 20
205.4539839999999
 30
0.0
 11
429.7303669999998
 21
207.50621
 31
0.0
  0
LINE
  5
ACB0
330
AA85
100
AcDbEntity
  8
1
  6
Continuous
100
AcDbLine
 10
426.263928
 20
205.4539839999999
 30
0.0
 11
428.317893
 21
207.5079489999999
 31
0.0
  0
LINE
  5
ACB1
330
AA85
100
AcDbEntity
  8
1
  6
Continuous
100
AcDbLine
 10
424.8497139999998
 20
205.4539839999999
 30
0.0
 11
426.905418
 21
207.5096879999999
 31
0.0
  0
LINE
  5
ACB2
330
AA85
100
AcDbEntity
  8
1
  6
Continuous
100
AcDbLine
 10
423.4355009999998
 20
205.4539839999999
 30
0.0
 11
425.4929429999998
 21
207.5114269999999
 31
0.0
  0
LINE
  5
ACB3
330
AA85
100
AcDbEntity
  8
1
  6
Continuous
100
AcDbLine
 10
422.021287
 20
205.4539839999999
 30
0.0
 11
424.080468
 21
207.5131649999999
 31
0.0
  0
LINE
  5
ACB4
330
AA85
100
AcDbEntity
  8
1
  6
Continuous
100
AcDbLine
 10
420.607073
 20
205.4539839999999
 30
0.0
 11
422.667994
 21
207.5149039999999
 31
0.0
  0
ARC
  5
ACB5
330
AA85
100
AcDbEntity
  8
1
  6
Continuous
100
AcDbCircle
 10
431.2783379999998
 20
204.7626409999999
 30
0.0
 40
2.651536999999998
100
AcDbArc
 50
189.546018
 51
270.0
  0
ARC
  5
ACB6
330
AA85
100
AcDbEntity
  8
1
  6
Continuous
100
AcDbCircle
 10
438.0702959999998
 20
226.600495
 30
0.0
 40
10.490232
100
AcDbArc
 50
250.527901
 51
289.472099
  0
ARC
  5
ACB7
330
AA85
100
AcDbEntity
  8
1
  6
Continuous
100
AcDbCircle
 10
438.0702959999998
 20
226.600495
 30
0.0
 40
12.490232
100
AcDbArc
 50
252.168739
 51
287.831261
  0
LINE
  5
ACB8
330
AA85
100
AcDbEntity
  8
1
  6
Continuous
100
AcDbLine
 10
435.8029679999998
 20
209.852235
 30
0.0
 11
435.8029679999998
 21
209.4129759999999
 31
0.0
  0
ARC
  5
ACB9
330
AA85
100
AcDbEntity
  8
1
  6
Continuous
100
AcDbCircle
 10
436.3860469999998
 20
208.095008
 30
0.0
 40
1.360029999999999
100
AcDbArc
 50
53.71139300000001
 51
75.71328100000002
  0
ARC
  5
ACBA
330
AA85
100
AcDbEntity
  8
1
  6
Continuous
100
AcDbCircle
 10
436.9730309999998
 20
208.8574089999999
 30
0.0
 40
0.398694
100
AcDbArc
 50
342.126869
 51
56.86115199999999
  0
ARC
  5
ACBB
330
AA85
100
AcDbEntity
  8
1
  6
Continuous
100
AcDbCircle
 10
430.11717
 20
217.6097179999999
 30
0.0
 40
11.213359
100
AcDbArc
 50
325.713405
 51
335.842672
  0
ARC
  5
ACBC
330
AA85
100
AcDbEntity
  8
1
  6
Continuous
100
AcDbCircle
 10
436.7829839999997
 20
213.0648929999999
 30
0.0
 40
3.145614
100
AcDbArc
 50
270.127709
 51
325.713405
  0
ARC
  5
ACBD
330
AA85
100
AcDbEntity
  8
1
  6
Continuous
100
AcDbCircle
 10
219.846353
 20
323.164527
 30
0.0
 40
246.4809609999999
100
AcDbArc
 50
333.4572539999999
 51
333.7400149999999
  0
ARC
  5
ACBE
330
AA85
100
AcDbEntity
  8
1
  6
Continuous
100
AcDbCircle
 10
393.746194
 20
207.2073009999999
 30
0.0
 40
1.159305999999999
100
AcDbArc
 50
0.0
 51
169.719437
  0
LINE
  5
ACBF
330
AA85
100
AcDbEntity
  8
1
  6
Continuous
100
AcDbLine
 10
400.7554999999999
 20
205.0252069999999
 30
0.0
 11
400.7554999999999
 21
214.1102629999998
 31
0.0
  0
ARC
  5
ACC0
330
AA85
100
AcDbEntity
  8
1
  6
Continuous
100
AcDbCircle
 10
407.499516
 20
209.0306709999999
 30
0.0
 40
2.338996999999999
100
AcDbArc
 50
195.0838819999999
 51
219.725552
  0
ARC
  5
ACC1
330
AA85
100
AcDbEntity
  8
1
  6
Continuous
100
AcDbCircle
 10
403.881123
 20
142.5027229999998
 30
0.0
 40
62.597
100
AcDbArc
 50
88.33033499999997
 51
92.40198499999999
  0
ARC
  5
ACC2
330
AA85
100
AcDbEntity
  8
1
  6
Continuous
100
AcDbCircle
 10
397.397784
 20
113.84341
 30
0.0
 40
79.35321
100
AcDbArc
 50
83.84173500000001
 51
91.07499500000001
  0
LINE
  5
ACC3
330
AA85
100
AcDbEntity
  8
1
  6
Continuous
100
AcDbLine
 10
405.005519
 20
206.7960799999999
 30
0.0
 11
406.347615
 21
205.4539839999999
 31
0.0
  0
LINE
  5
ACC4
330
AA85
100
AcDbEntity
  8
1
  6
Continuous
100
AcDbLine
 10
409.1760419999998
 20
205.4539839999999
 30
0.0
 11
407.095952
 21
207.534074
 31
0.0
  0
LINE
  5
ACC5
330
AA85
100
AcDbEntity
  8
1
  6
Continuous
100
AcDbLine
 10
412.00447
 20
205.4539839999999
 30
0.0
 11
409.927866
 21
207.530588
 31
0.0
  0
LINE
  5
ACC6
330
AA85
100
AcDbEntity
  8
1
  6
Continuous
100
AcDbLine
 10
414.8328969999998
 20
205.4539839999999
 30
0.0
 11
412.759779
 21
207.527102
 31
0.0
  0
LINE
  5
ACC7
330
AA85
100
AcDbEntity
  8
1
  6
Continuous
100
AcDbLine
 10
417.661324
 20
205.4539839999999
 30
0.0
 11
415.591692
 21
207.5236149999998
 31
0.0
  0
LINE
  5
ACC8
330
AA85
100
AcDbEntity
  8
1
  6
Continuous
100
AcDbLine
 10
405.005519
 20
206.8229919999999
 30
0.0
 11
405.718297
 21
207.53577
 31
0.0
  0
LINE
  5
ACC9
330
AA85
100
AcDbEntity
  8
1
  6
Continuous
100
AcDbLine
 10
405.0652699999998
 20
205.46853
 30
0.0
 11
407.130772
 21
207.534031
 31
0.0
  0
LINE
  5
ACCA
330
AA85
100
AcDbEntity
  8
1
  6
Continuous
100
AcDbLine
 10
406.4649379999998
 20
205.4539839999999
 30
0.0
 11
408.5432459999998
 21
207.532293
 31
0.0
  0
LINE
  5
ACCB
330
AA85
100
AcDbEntity
  8
1
  6
Continuous
100
AcDbLine
 10
407.879151
 20
205.4539839999999
 30
0.0
 11
409.9557209999998
 21
207.530554
 31
0.0
  0
LINE
  5
ACCC
330
AA85
100
AcDbEntity
  8
1
  6
Continuous
100
AcDbLine
 10
409.2933649999998
 20
205.4539839999999
 30
0.0
 11
411.368196
 21
207.5288149999999
 31
0.0
  0
LINE
  5
ACCD
330
AA85
100
AcDbEntity
  8
1
  6
Continuous
100
AcDbLine
 10
410.707579
 20
205.4539839999999
 30
0.0
 11
412.7806709999998
 21
207.5270759999999
 31
0.0
  0
LINE
  5
ACCE
330
AA85
100
AcDbEntity
  8
1
  6
Continuous
100
AcDbLine
 10
412.1217919999998
 20
205.4539839999999
 30
0.0
 11
414.193145
 21
207.5253369999999
 31
0.0
  0
LINE
  5
ACCF
330
AA85
100
AcDbEntity
  8
1
  6
Continuous
100
AcDbLine
 10
413.536006
 20
205.4539839999999
 30
0.0
 11
415.60562
 21
207.5235979999999
 31
0.0
  0
LINE
  5
ACD0
330
AA85
100
AcDbEntity
  8
1
  6
Continuous
100
AcDbLine
 10
414.9502189999997
 20
205.4539839999999
 30
0.0
 11
417.018095
 21
207.5218599999999
 31
0.0
  0
LINE
  5
ACD1
330
AA85
100
AcDbEntity
  8
1
  6
Continuous
100
AcDbLine
 10
416.364433
 20
205.4539839999999
 30
0.0
 11
418.43057
 21
207.5201209999999
 31
0.0
  0
ARC
  5
ACD2
330
AA85
100
AcDbEntity
  8
1
  6
Continuous
100
AcDbCircle
 10
407.9866039999997
 20
188.6179939999999
 30
0.0
 40
3.714901999999998
100
AcDbArc
 50
49.92724700000001
 51
75.98355999999998
  0
ARC
  5
ACD3
330
AA85
100
AcDbEntity
  8
1
  6
Continuous
100
AcDbCircle
 10
403.675546
 20
171.3483939999998
 30
0.0
 40
21.51445999999999
100
AcDbArc
 50
75.98355999999998
 51
83.84173500000001
  0
LINE
  5
ACD4
330
AA85
100
AcDbEntity
  8
1
  6
Continuous
100
AcDbLine
 10
405.005519
 20
207.536648
 30
0.0
 11
405.005519
 21
205.469924
 31
0.0
  0
LINE
  5
ACD5
330
AA85
100
AcDbEntity
  8
1
  6
Continuous
100
AcDbLine
 10
393.944161
 20
192.894058
 30
0.0
 11
395.909031
 21
193.182654
 31
0.0
  0
ARC
  5
ACD6
330
AA85
100
AcDbEntity
  8
1
  6
Continuous
100
AcDbCircle
 10
397.834383
 20
286.654203
 30
0.0
 40
81.681246
100
AcDbArc
 50
270.0472619999998
 51
272.401985
  0
ARC
  5
ACD7
330
AA85
100
AcDbEntity
  8
1
  6
Continuous
100
AcDbCircle
 10
397.513123
 20
676.122579
 30
0.0
 40
471.1497549999998
100
AcDbArc
 50
269.3691529999999
 51
270.0472619999998
  0
ARC
  5
ACD8
330
AA85
100
AcDbEntity
  8
1
  6
Continuous
100
AcDbCircle
 10
393.7647459999998
 20
206.525683
 30
0.0
 40
1.159245999999998
100
AcDbArc
 50
180.0
 51
10.247692
  0
LINE
  5
ACD9
330
AA85
100
AcDbEntity
  8
1
  6
Continuous
100
AcDbLine
 10
394.9055
 20
206.3194489999999
 30
0.0
 11
394.9055
 21
207.2073009999999
 31
0.0
  0
LINE
  5
ACDA
330
AA85
100
AcDbEntity
  8
1
  6
Continuous
100
AcDbLine
 10
392.6055
 20
206.448176
 30
0.0
 11
392.6055
 21
207.414201
 31
0.0
  0
ARC
  5
ACDB
330
AA85
100
AcDbEntity
  8
1
  6
Continuous
100
AcDbCircle
 10
404.440147
 20
226.600495
 30
0.0
 40
10.490232
100
AcDbArc
 50
250.527901
 51
289.472099
  0
ARC
  5
ACDC
330
AA85
100
AcDbEntity
  8
1
  6
Continuous
100
AcDbCircle
 10
404.440147
 20
226.600495
 30
0.0
 40
12.490232
100
AcDbArc
 50
252.168739
 51
287.831261
  0
ARC
  5
ACDD
330
AA85
100
AcDbEntity
  8
1
  6
Continuous
100
AcDbCircle
 10
410.917237
 20
217.2424429999999
 30
0.0
 40
9.819221
100
AcDbArc
 50
207.6776859999999
 51
219.191712
  0
ARC
  5
ACDE
330
AA85
100
AcDbEntity
  8
1
  6
Continuous
100
AcDbCircle
 10
405.8069149999998
 20
213.0757969999999
 30
0.0
 40
3.225562
100
AcDbArc
 50
219.191712
 51
270.127709
  0
LINE
  5
ACDF
330
AA85
100
AcDbEntity
  8
1
  6
Continuous
100
AcDbLine
 10
406.7080699999998
 20
209.852235
 30
0.0
 11
406.7080699999998
 21
209.4129759999999
 31
0.0
  0
LINE
  5
ACE0
330
AA85
100
AcDbEntity
  8
1
  6
Continuous
100
AcDbLine
 10
405.2411069999998
 20
208.421987
 30
0.0
 11
405.1899179999998
 21
208.4526729999998
 31
0.0
  0
ARC
  5
ACE1
330
AA85
100
AcDbEntity
  8
1
  6
Continuous
100
AcDbCircle
 10
405.933775
 20
208.6447259999999
 30
0.0
 40
0.76825
100
AcDbArc
 50
90.0
 51
194.4768179999998
  0
LINE
  5
ACE2
330
AA85
100
AcDbEntity
  8
1
  6
Continuous
100
AcDbLine
 10
393.7555
 20
208.36657
 30
0.0
 11
393.7555
 21
214.1102629999998
 31
0.0
  0
ARC
  5
ACE3
330
AA85
100
AcDbEntity
  8
1
  6
Continuous
100
AcDbCircle
 10
400.082014
 20
213.4846609999999
 30
0.0
 40
1.617682
100
AcDbArc
 50
7.836977
 51
22.75103
  0
LINE
  5
ACE4
330
AA85
100
AcDbEntity
  8
1
  6
Continuous
100
AcDbLine
 10
402.221585
 20
212.681443
 30
0.0
 11
401.684587
 21
213.7052399999999
 31
0.0
  0
LINE
  5
ACE5
330
AA85
100
AcDbEntity
  8
1
  6
Continuous
100
AcDbLine
 10
386.7554999999999
 20
192.894058
 30
0.0
 11
386.7554999999999
 21
183.332961
 31
0.0
  0
LINE
  5
ACE6
330
AA85
100
AcDbEntity
  8
5
  6
PHANTOM
100
AcDbLine
 10
376.5054999999999
 20
167.1102629999998
 30
0.0
 11
376.5054999999999
 21
163.1102629999998
 31
0.0
  0
LINE
  5
ACE7
330
AA85
100
AcDbEntity
  8
5
  6
PHANTOM
100
AcDbLine
 10
374.9055
 20
149.710263
 30
0.0
 11
374.9055
 21
146.710263
 31
0.0
  0
ARC
  5
ACE8
330
AA85
100
AcDbEntity
  8
5
  6
PHANTOM
100
AcDbCircle
 10
377.9055
 20
149.710263
 30
0.0
 40
3.0
100
AcDbArc
 50
90.0
 51
180.0
  0
LINE
  5
ACE9
330
AA85
100
AcDbEntity
  8
5
  6
PHANTOM
100
AcDbLine
 10
376.5054999999999
 20
146.710263
 30
0.0
 11
376.5054999999999
 21
142.710263
 31
0.0
  0
ARC
  5
ACEA
330
AA85
100
AcDbEntity
  8
1
  6
Continuous
100
AcDbCircle
 10
377.9055
 20
154.7102629999999
 30
0.0
 40
3.0
100
AcDbArc
 50
90.0
 51
180.0
  0
LINE
  5
ACEB
330
AA85
100
AcDbEntity
  8
1
  6
Continuous
100
AcDbLine
 10
374.9055
 20
154.7102629999999
 30
0.0
 11
374.9055
 21
151.710263
 31
0.0
  0
LINE
  5
ACEC
330
AA85
100
AcDbEntity
  8
1
  6
Continuous
100
AcDbLine
 10
383.7555
 20
163.710263
 30
0.0
 11
383.7555
 21
159.710263
 31
0.0
  0
LINE
  5
ACED
330
AA85
100
AcDbEntity
  8
1
  6
Continuous
100
AcDbLine
 10
383.2554999999999
 20
158.210263
 30
0.0
 11
383.2554999999999
 21
157.7102629999999
 31
0.0
  0
LINE
  5
ACEE
330
AA85
100
AcDbEntity
  8
1
  6
Continuous
100
AcDbLine
 10
376.5054999999999
 20
151.710263
 30
0.0
 11
376.5054999999999
 21
147.710263
 31
0.0
  0
ARC
  5
ACEF
330
AA85
100
AcDbEntity
  8
5
  6
PHANTOM
100
AcDbCircle
 10
377.9055
 20
170.1102629999998
 30
0.0
 40
3.0
100
AcDbArc
 50
90.0
 51
180.0
  0
LINE
  5
ACF0
330
AA85
100
AcDbEntity
  8
5
  6
PHANTOM
100
AcDbLine
 10
374.9055
 20
170.1102629999998
 30
0.0
 11
374.9055
 21
167.1102629999998
 31
0.0
  0
LINE
  5
ACF1
330
AA85
100
AcDbEntity
  8
1
  6
Continuous
100
AcDbLine
 10
386.8285999999998
 20
204.948387
 30
0.0
 11
386.8285999999998
 21
214.1102629999998
 31
0.0
  0
ARC
  5
ACF2
330
AA85
100
AcDbEntity
  8
1
  6
Continuous
100
AcDbCircle
 10
387.2063529999999
 20
193.505425
 30
0.0
 40
11.4664
100
AcDbArc
 50
95.00886599999999
 51
98.6472
  0
ARC
  5
ACF3
330
AA85
100
AcDbEntity
  8
1
  6
Continuous
100
AcDbCircle
 10
336.462827
 20
199.899112
 30
0.0
 40
45.8926
100
AcDbArc
 50
358.840366
 51
0.3684880000000001
  0
ARC
  5
ACF4
330
AA85
100
AcDbEntity
  8
1
  6
Continuous
100
AcDbCircle
 10
369.669868
 20
193.438648
 30
0.0
 40
12.774798
100
AcDbArc
 50
1.248558
 51
5.486861
  0
ARC
  5
ACF5
330
AA85
100
AcDbEntity
  8
1
  6
Continuous
100
AcDbCircle
 10
386.1047689999999
 20
194.517147
 30
0.0
 40
3.749505
100
AcDbArc
 50
192.321612
 51
205.6505319999998
  0
ARC
  5
ACF6
330
AA85
100
AcDbEntity
  8
1
  6
Continuous
100
AcDbCircle
 10
455.2897839999998
 20
197.493794
 30
0.0
 40
72.95869999999998
100
AcDbArc
 50
178.8403659999999
 51
182.225878
  0
ARC
  5
ACF7
330
AA85
100
AcDbEntity
  8
1
  6
Continuous
100
AcDbCircle
 10
388.7665589999999
 20
200.235499
 30
0.0
 40
6.412213999999998
100
AcDbArc
 50
156.646057
 51
180.3684879999999
  0
ARC
  5
ACF8
330
AA85
100
AcDbEntity
  8
1
  6
Continuous
100
AcDbCircle
 10
386.0795069999999
 20
201.395726
 30
0.0
 40
3.485376999999998
100
AcDbArc
 50
98.6472
 51
156.646057
  0
LINE
  5
ACF9
330
AA85
100
AcDbEntity
  8
4
  6
CENTER
100
AcDbLine
 10
380.2552219999999
 20
219.5014679999999
 30
0.0
 11
380.2552219999999
 21
211.8708779999999
 31
0.0
  0
ARC
  5
ACFA
330
AA85
100
AcDbEntity
  8
1
  6
Continuous
100
AcDbCircle
 10
383.2451199999999
 20
214.6102629999998
 30
0.0
 40
0.5
100
AcDbArc
 50
168.463041
 51
270.0
  0
LINE
  5
ACFB
330
AA85
100
AcDbEntity
  8
1
  6
Continuous
100
AcDbLine
 10
371.2555189999998
 20
214.710263
 30
0.0
 11
371.2555189999998
 21
216.710263
 31
0.0
  0
CIRCLE
  5
ACFC
330
AA85
100
AcDbEntity
  8
1
  6
Continuous
100
AcDbCircle
 10
159.7516589999999
 20
172.710263
 30
0.0
 40
4.0
  0
LINE
  5
ACFD
330
AA85
100
AcDbEntity
  8
1
  6
Continuous
100
AcDbLine
 10
220.2516559999998
 20
106.0
 30
0.0
 11
137.2516559999999
 21
106.0
 31
0.0
  0
LINE
  5
ACFE
330
AA85
100
AcDbEntity
  8
1
  6
Continuous
100
AcDbLine
 10
137.2516559999999
 20
41.0
 30
0.0
 11
220.2516559999998
 21
41.0
 31
0.0
  0
LINE
  5
ACFF
330
AA85
100
AcDbEntity
  8
4
  6
CENTER
100
AcDbLine
 10
231.751656
 20
73.5
 30
0.0
 11
125.751656
 21
73.5
 31
0.0
  0
LINE
  5
AD00
330
AA85
100
AcDbEntity
  8
4
  6
CENTER
100
AcDbLine
 10
137.7516559999999
 20
100.2499999999999
 30
0.0
 11
137.7516559999999
 21
88.75
 31
0.0
  0
LINE
  5
AD01
330
AA85
100
AcDbEntity
  8
1
  6
Continuous
100
AcDbLine
 10
128.751656
 20
97.5
 30
0.0
 11
128.751656
 21
49.5
 31
0.0
  0
LINE
  5
AD02
330
AA85
100
AcDbEntity
  8
4
  6
CENTER
100
AcDbLine
 10
178.751656
 20
38.71180300000001
 30
0.0
 11
178.751656
 21
108.8069219999999
 31
0.0
  0
ARC
  5
AD03
330
AA85
100
AcDbEntity
  8
1
  6
Continuous
100
AcDbCircle
 10
137.2516559999999
 20
97.5
 30
0.0
 40
8.5
100
AcDbArc
 50
90.0
 51
180.0
  0
LINE
  5
AD04
330
AA85
100
AcDbEntity
  8
4
  6
CENTER
100
AcDbLine
 10
143.501656
 20
94.50000000000001
 30
0.0
 11
132.001656
 21
94.50000000000001
 31
0.0
  0
CIRCLE
  5
AD05
330
AA85
100
AcDbEntity
  8
1
  6
Continuous
100
AcDbCircle
 10
137.7516559999999
 20
94.50000000000001
 30
0.0
 40
2.75
  0
LINE
  5
AD06
330
AA85
100
AcDbEntity
  8
4
  6
CENTER
100
AcDbLine
 10
137.7516559999999
 20
58.25
 30
0.0
 11
137.7516559999999
 21
46.74999999999999
 31
0.0
  0
ARC
  5
AD07
330
AA85
100
AcDbEntity
  8
1
  6
Continuous
100
AcDbCircle
 10
137.2516559999999
 20
49.5
 30
0.0
 40
8.5
100
AcDbArc
 50
180.0
 51
270.0
  0
LINE
  5
AD08
330
AA85
100
AcDbEntity
  8
4
  6
CENTER
100
AcDbLine
 10
143.501656
 20
52.5
 30
0.0
 11
132.001656
 21
52.5
 31
0.0
  0
CIRCLE
  5
AD09
330
AA85
100
AcDbEntity
  8
1
  6
Continuous
100
AcDbCircle
 10
137.7516559999999
 20
52.5
 30
0.0
 40
2.75
  0
LINE
  5
AD0A
330
AA85
100
AcDbEntity
  8
4
  6
CENTER
100
AcDbLine
 10
219.7516559999999
 20
100.2499999999999
 30
0.0
 11
219.7516559999999
 21
88.75
 31
0.0
  0
LINE
  5
AD0B
330
AA85
100
AcDbEntity
  8
1
  6
Continuous
100
AcDbLine
 10
228.7516559999999
 20
49.5
 30
0.0
 11
228.7516559999999
 21
97.5
 31
0.0
  0
ARC
  5
AD0C
330
AA85
100
AcDbEntity
  8
1
  6
Continuous
100
AcDbCircle
 10
220.2516559999998
 20
97.5
 30
0.0
 40
8.5
100
AcDbArc
 50
0.0
 51
90.0
  0
CIRCLE
  5
AD0D
330
AA85
100
AcDbEntity
  8
1
  6
Continuous
100
AcDbCircle
 10
219.7516559999999
 20
94.50000000000001
 30
0.0
 40
2.75
  0
LINE
  5
AD0E
330
AA85
100
AcDbEntity
  8
4
  6
CENTER
100
AcDbLine
 10
225.501656
 20
94.50000000000001
 30
0.0
 11
214.0016559999998
 21
94.50000000000001
 31
0.0
  0
LINE
  5
AD0F
330
AA85
100
AcDbEntity
  8
4
  6
CENTER
100
AcDbLine
 10
219.7516559999999
 20
58.25
 30
0.0
 11
219.7516559999999
 21
46.74999999999999
 31
0.0
  0
ARC
  5
AD10
330
AA85
100
AcDbEntity
  8
1
  6
Continuous
100
AcDbCircle
 10
220.2516559999998
 20
49.5
 30
0.0
 40
8.5
100
AcDbArc
 50
270.0
 51
0.0
  0
CIRCLE
  5
AD11
330
AA85
100
AcDbEntity
  8
1
  6
Continuous
100
AcDbCircle
 10
219.7516559999999
 20
52.5
 30
0.0
 40
2.75
  0
LINE
  5
AD12
330
AA85
100
AcDbEntity
  8
4
  6
CENTER
100
AcDbLine
 10
225.501656
 20
52.5
 30
0.0
 11
214.0016559999998
 21
52.5
 31
0.0
  0
ARC
  5
AD13
330
AA85
100
AcDbEntity
  8
1
  6
Continuous
100
AcDbCircle
 10
238.469305
 20
197.493829
 30
0.0
 40
72.95869999999998
100
AcDbArc
 50
357.774122
 51
1.159634
  0
LINE
  5
AD14
330
AA85
100
AcDbEntity
  8
1
  6
Continuous
100
AcDbLine
 10
287.4221559999999
 20
192.8940929999999
 30
0.0
 11
312.5850219999999
 21
192.8940929999999
 31
0.0
  0
ARC
  5
AD15
330
AA85
100
AcDbEntity
  8
1
  6
Continuous
100
AcDbCircle
 10
324.089221
 20
193.438683
 30
0.0
 40
12.774798
100
AcDbArc
 50
174.513139
 51
178.7514419999999
  0
ARC
  5
AD16
330
AA85
100
AcDbEntity
  8
1
  6
Continuous
100
AcDbCircle
 10
307.6543199999999
 20
194.5171819999999
 30
0.0
 40
3.749505
100
AcDbArc
 50
334.349468
 51
347.6783879999999
  0
ARC
  5
AD17
330
AA85
100
AcDbEntity
  8
1
  6
Continuous
100
AcDbCircle
 10
357.296262
 20
199.8991469999999
 30
0.0
 40
45.8926
100
AcDbArc
 50
179.6315119999999
 51
181.159634
  0
ARC
  5
AD18
330
AA85
100
AcDbEntity
  8
1
  6
Continuous
100
AcDbCircle
 10
304.9925299999998
 20
200.235534
 30
0.0
 40
6.412213999999998
100
AcDbArc
 50
359.6315119999999
 51
23.353943
  0
ARC
  5
AD19
330
AA85
100
AcDbEntity
  8
1
  6
Continuous
100
AcDbCircle
 10
307.679582
 20
201.3957609999999
 30
0.0
 40
3.485376999999998
100
AcDbArc
 50
23.353943
 51
81.35279999999999
  0
LINE
  5
AD1A
330
AA85
100
AcDbEntity
  8
2
  6
Continuous
100
AcDbLine
 10
295.815589
 20
166.7102979999999
 30
0.0
 11
295.815589
 21
181.788755
 31
0.0
  0
LINE
  5
AD1B
330
AA85
100
AcDbEntity
  8
2
  6
Continuous
100
AcDbLine
 10
304.191589
 20
166.7102979999999
 30
0.0
 11
304.191589
 21
181.788755
 31
0.0
  0
LINE
  5
AD1C
330
AA85
100
AcDbEntity
  8
1
  6
Continuous
100
AcDbLine
 10
295.0035889999999
 20
181.788755
 30
0.0
 11
295.0035889999999
 21
163.7102979999999
 31
0.0
  0
LINE
  5
AD1D
330
AA85
100
AcDbEntity
  8
1
  6
Continuous
100
AcDbLine
 10
305.0035889999999
 20
181.788755
 30
0.0
 11
305.0035889999999
 21
163.7102979999999
 31
0.0
  0
LINE
  5
AD1E
330
AA85
100
AcDbEntity
  8
1
  6
Continuous
100
AcDbLine
 10
305.0035889999999
 20
166.7102979999999
 30
0.0
 11
295.0035889999999
 21
166.7102979999999
 31
0.0
  0
LINE
  5
AD1F
330
AA85
100
AcDbEntity
  8
1
  6
Continuous
100
AcDbLine
 10
310.5035889999999
 20
158.2102979999999
 30
0.0
 11
289.5035889999999
 21
158.2102979999999
 31
0.0
  0
LINE
  5
AD20
330
AA85
100
AcDbEntity
  8
1
  6
Continuous
100
AcDbLine
 10
308.5035889999999
 20
158.710298
 30
0.0
 11
291.503589
 21
158.710298
 31
0.0
  0
LINE
  5
AD21
330
AA85
100
AcDbEntity
  8
1
  6
Continuous
100
AcDbLine
 10
308.5035889999999
 20
163.7102979999999
 30
0.0
 11
291.503589
 21
163.7102979999999
 31
0.0
  0
LINE
  5
AD22
330
AA85
100
AcDbEntity
  8
2
  6
Continuous
100
AcDbLine
 10
295.0035889999999
 20
165.303873
 30
0.0
 11
295.815589
 21
166.7102979999999
 31
0.0
  0
LINE
  5
AD23
330
AA85
100
AcDbEntity
  8
1
  6
Continuous
100
AcDbLine
 10
289.5035889999999
 20
158.2102979999999
 30
0.0
 11
289.5035889999999
 21
157.710298
 31
0.0
  0
LINE
  5
AD24
330
AA85
100
AcDbEntity
  8
1
  6
Continuous
100
AcDbLine
 10
296.5035889999999
 20
158.2249899999998
 30
0.0
 11
296.5035889999999
 21
158.710298
 31
0.0
  0
LINE
  5
AD25
330
AA85
100
AcDbEntity
  8
1
  6
Continuous
100
AcDbLine
 10
300.0035889999999
 20
163.7102979999999
 30
0.0
 11
300.0035889999999
 21
159.710298
 31
0.0
  0
LINE
  5
AD26
330
AA85
100
AcDbEntity
  8
2
  6
Continuous
100
AcDbLine
 10
305.0035889999999
 20
165.303873
 30
0.0
 11
304.191589
 21
166.7102979999999
 31
0.0
  0
LINE
  5
AD27
330
AA85
100
AcDbEntity
  8
1
  6
Continuous
100
AcDbLine
 10
310.5035889999999
 20
158.2102979999999
 30
0.0
 11
310.5035889999999
 21
157.710298
 31
0.0
  0
LINE
  5
AD28
330
AA85
100
AcDbEntity
  8
1
  6
Continuous
100
AcDbLine
 10
303.5035889999999
 20
158.710298
 30
0.0
 11
303.5035889999999
 21
158.2249899999998
 31
0.0
  0
LINE
  5
AD29
330
AA85
100
AcDbEntity
  8
1
  6
Continuous
100
AcDbLine
 10
306.0657669999998
 20
181.788755
 30
0.0
 11
293.9414109999999
 21
181.788755
 31
0.0
  0
LINE
  5
AD2A
330
AA85
100
AcDbEntity
  8
1
  6
Continuous
100
AcDbLine
 10
308.086493
 20
182.6462659999999
 30
0.0
 11
308.086493
 21
192.8940929999999
 31
0.0
  0
LINE
  5
AD2B
330
AA85
100
AcDbEntity
  8
1
  6
Continuous
100
AcDbLine
 10
291.920685
 20
182.6462659999999
 30
0.0
 11
291.920685
 21
192.8940929999999
 31
0.0
  0
ARC
  5
AD2C
330
AA85
100
AcDbEntity
  8
1
  6
Continuous
100
AcDbCircle
 10
361.5378729999998
 20
197.493829
 30
0.0
 40
72.95869999999998
100
AcDbArc
 50
178.8403659999999
 51
182.225878
  0
ARC
  5
AD2D
330
AA85
100
AcDbEntity
  8
1
  6
Continuous
100
AcDbCircle
 10
292.3528580000001
 20
194.5171819999999
 30
0.0
 40
3.749505
100
AcDbArc
 50
192.321612
 51
205.6505319999998
  0
ARC
  5
AD2E
330
AA85
100
AcDbEntity
  8
1
  6
Continuous
100
AcDbCircle
 10
275.917957
 20
193.438683
 30
0.0
 40
12.774798
100
AcDbArc
 50
1.248558
 51
5.486861
  0
ARC
  5
AD2F
330
AA85
100
AcDbEntity
  8
1
  6
Continuous
100
AcDbCircle
 10
242.710916
 20
199.8991469999999
 30
0.0
 40
45.8926
100
AcDbArc
 50
358.840366
 51
0.3684880000000001
  0
ARC
  5
AD30
330
AA85
100
AcDbEntity
  8
1
  6
Continuous
100
AcDbCircle
 10
295.014648
 20
200.235534
 30
0.0
 40
6.412213999999998
100
AcDbArc
 50
156.646057
 51
180.3684879999999
  0
LINE
  5
AD31
330
AA85
100
AcDbEntity
  8
1
  6
Continuous
100
AcDbLine
 10
304.045041
 20
183.7887549999999
 30
0.0
 11
304.045041
 21
192.8940929999999
 31
0.0
  0
LINE
  5
AD32
330
AA85
100
AcDbEntity
  8
1
  6
Continuous
100
AcDbLine
 10
295.9621369999999
 20
183.7887549999999
 30
0.0
 11
295.9621369999999
 21
192.8940929999999
 31
0.0
  0
ARC
  5
AD33
330
AA85
100
AcDbEntity
  8
1
  6
Continuous
100
AcDbCircle
 10
300.0035889999999
 20
186.8720889999999
 30
0.0
 40
5.083332999999998
100
AcDbArc
 50
217.340992
 51
322.6590079999998
  0
ARC
  5
AD34
330
AA85
100
AcDbEntity
  8
1
  6
Continuous
100
AcDbCircle
 10
306.0657669999998
 20
183.8095889999999
 30
0.0
 40
2.020833
100
AcDbArc
 50
180.5906879999998
 51
303.124319
  0
LINE
  5
AD35
330
AA85
100
AcDbEntity
  8
1
  6
Continuous
100
AcDbLine
 10
307.170066
 20
182.117167
 30
0.0
 11
308.086493
 21
182.6462659999999
 31
0.0
  0
LINE
  5
AD36
330
AA85
100
AcDbEntity
  8
1
  6
Continuous
100
AcDbLine
 10
292.8371119999998
 20
182.117167
 30
0.0
 11
291.920685
 21
182.6462659999999
 31
0.0
  0
ARC
  5
AD37
330
AA85
100
AcDbEntity
  8
1
  6
Continuous
100
AcDbCircle
 10
293.9414109999999
 20
183.8095889999999
 30
0.0
 40
2.020833
100
AcDbArc
 50
236.8756809999999
 51
359.409312
  0
LINE
  5
AD38
330
AA85
100
AcDbEntity
  8
1
  6
Continuous
100
AcDbLine
 10
291.920685
 20
204.846056
 30
0.0
 11
291.920685
 21
214.1102979999998
 31
0.0
  0
LINE
  5
AD39
330
AA85
100
AcDbEntity
  8
1
  6
Continuous
100
AcDbLine
 10
295.9621369999999
 20
204.986678
 30
0.0
 11
295.9621369999999
 21
214.1102979999998
 31
0.0
  0
LINE
  5
AD3A
330
AA85
100
AcDbEntity
  8
1
  6
Continuous
100
AcDbLine
 10
304.045041
 20
204.951796
 30
0.0
 11
304.045041
 21
214.1102979999998
 31
0.0
  0
LINE
  5
AD3B
330
AA85
100
AcDbEntity
  8
1
  6
Continuous
100
AcDbLine
 10
308.086493
 20
204.845484
 30
0.0
 11
308.086493
 21
214.1102979999998
 31
0.0
  0
ARC
  5
AD3C
330
AA85
100
AcDbEntity
  8
1
  6
Continuous
100
AcDbCircle
 10
292.3275959999998
 20
201.3957609999999
 30
0.0
 40
3.485376999999998
100
AcDbArc
 50
98.6472
 51
156.646057
  0
ARC
  5
AD3D
330
AA85
100
AcDbEntity
  8
1
  6
Continuous
100
AcDbCircle
 10
300.0035889999999
 20
-5.338138999999999
 30
0.0
 40
210.3395569999999
100
AcDbArc
 50
87.765777
 51
92.23422300000001
  0
LINE
  5
AD3E
330
AA85
100
AcDbEntity
  8
1
  6
Continuous
100
AcDbLine
 10
308.5035889999999
 20
158.710298
 30
0.0
 11
308.5035889999999
 21
163.7102979999999
 31
0.0
  0
LINE
  5
AD3F
330
AA85
100
AcDbEntity
  8
1
  6
Continuous
100
AcDbLine
 10
291.503589
 20
158.710298
 30
0.0
 11
291.503589
 21
163.7102979999999
 31
0.0
  0
ARC
  5
AD40
330
AA85
100
AcDbEntity
  8
1
  6
Continuous
100
AcDbCircle
 10
304.2535889999999
 20
168.2415479999999
 30
0.0
 40
9.53125
100
AcDbArc
 50
243.5189599999999
 51
296.48104
  0
ARC
  5
AD41
330
AA85
100
AcDbEntity
  8
1
  6
Continuous
100
AcDbCircle
 10
295.7535889999999
 20
168.2415479999999
 30
0.0
 40
9.53125
100
AcDbArc
 50
243.5189599999999
 51
296.48104
  0
LINE
  5
AD42
330
AA85
100
AcDbEntity
  8
1
  6
Continuous
100
AcDbLine
 10
308.086493
 20
209.902716
 30
0.0
 11
315.537789
 21
209.9193239999999
 31
0.0
  0
LINE
  5
AD43
330
AA85
100
AcDbEntity
  8
1
  6
Continuous
100
AcDbLine
 10
308.086493
 20
209.4130139999998
 30
0.0
 11
315.4694609999999
 21
209.4130139999998
 31
0.0
  0
LINE
  5
AD44
330
AA85
100
AcDbEntity
  8
1
  6
Continuous
100
AcDbLine
 10
291.920685
 20
207.5266309999999
 30
0.0
 11
283.7533119999998
 21
207.5366849999999
 31
0.0
  0
LINE
  5
AD45
330
AA85
100
AcDbEntity
  8
1
  6
Continuous
100
AcDbLine
 10
308.086493
 20
205.469624
 30
0.0
 11
316.2533119999999
 21
205.469624
 31
0.0
  0
LINE
  5
AD46
330
AA85
100
AcDbEntity
  8
1
  6
Continuous
100
AcDbLine
 10
308.086493
 20
205.0749909999999
 30
0.0
 11
314.803589
 21
205.0749909999999
 31
0.0
  0
CIRCLE
  5
AD47
330
AA85
100
AcDbEntity
  8
1
  6
Continuous
100
AcDbCircle
 10
206.251678
 20
73.5
 30
0.0
 40
18.85
  0
CIRCLE
  5
AD48
330
AA85
100
AcDbEntity
  8
1
  6
Continuous
100
AcDbCircle
 10
206.251678
 20
73.5
 30
0.0
 40
17.25
  0
LINE
  5
AD49
330
AA85
100
AcDbEntity
  8
4
  6
CENTER
100
AcDbLine
 10
206.251678
 20
51.65
 30
0.0
 11
206.251678
 21
95.35
 31
0.0
  0
ARC
  5
AD4A
330
AA85
100
AcDbEntity
  8
1
  6
Continuous
100
AcDbCircle
 10
178.751656
 20
73.5
 30
0.0
 40
34.999889
100
AcDbArc
 50
111.786333
 51
161.682241
  0
ARC
  5
AD4B
330
AA85
100
AcDbEntity
  8
1
  6
Continuous
100
AcDbCircle
 10
178.751656
 20
73.5
 30
0.0
 40
38.499839
100
AcDbArc
 50
122.418019
 51
163.398379
  0
ARC
  5
AD4C
330
AA85
100
AcDbEntity
  8
1
  6
Continuous
100
AcDbCircle
 10
178.751656
 20
73.5
 30
0.0
 40
38.499839
100
AcDbArc
 50
302.418019
 51
332.790146
  0
ARC
  5
AD4D
330
AA85
100
AcDbEntity
  8
1
  6
Continuous
100
AcDbCircle
 10
178.751656
 20
73.5
 30
0.0
 40
34.999889
100
AcDbArc
 50
291.786333
 51
327.6329839999998
  0
ARC
  5
AD4E
330
AA85
100
AcDbEntity
  8
1
  6
Continuous
100
AcDbCircle
 10
178.751656
 20
73.5
 30
0.0
 40
38.499839
100
AcDbArc
 50
27.20985399999998
 51
57.581981
  0
ARC
  5
AD4F
330
AA85
100
AcDbEntity
  8
1
  6
Continuous
100
AcDbCircle
 10
178.751656
 20
73.5
 30
0.0
 40
34.999889
100
AcDbArc
 50
32.36701599999999
 51
68.213667
  0
LINE
  5
AD50
330
AA85
100
AcDbEntity
  8
1
  6
Continuous
100
AcDbLine
 10
205.143339
 20
73.99278599999998
 30
0.0
 11
204.535873
 21
74.621835
 31
0.0
  0
LINE
  5
AD51
330
AA85
100
AcDbEntity
  8
1
  6
Continuous
100
AcDbLine
 10
207.360017
 20
73.99278599999998
 30
0.0
 11
207.967483
 21
74.621835
 31
0.0
  0
LINE
  5
AD52
330
AA85
100
AcDbEntity
  8
1
  6
Continuous
100
AcDbLine
 10
206.251678
 20
74.42898000000003
 30
0.0
 11
206.744464
 21
74.608339
 31
0.0
  0
LINE
  5
AD53
330
AA85
100
AcDbEntity
  8
1
  6
Continuous
100
AcDbLine
 10
206.251678
 20
74.42898000000003
 30
0.0
 11
205.758892
 21
74.608339
 31
0.0
  0
CIRCLE
  5
AD54
330
AA85
100
AcDbEntity
  8
1
  6
Continuous
100
AcDbCircle
 10
206.251678
 20
73.5
 30
0.0
 40
3.5
  0
LINE
  5
AD55
330
AA85
100
AcDbEntity
  8
1
  6
Continuous
100
AcDbLine
 10
200.251678
 20
79.5
 30
0.0
 11
200.251678
 21
73.5
 31
0.0
  0
LINE
  5
AD56
330
AA85
100
AcDbEntity
  8
1
  6
Continuous
100
AcDbLine
 10
212.2516779999999
 20
79.5
 30
0.0
 11
212.2516779999999
 21
73.5
 31
0.0
  0
LINE
  5
AD57
330
AA85
100
AcDbEntity
  8
1
  6
Continuous
100
AcDbLine
 10
206.251678
 20
72.57101999999997
 30
0.0
 11
205.758892
 21
72.391661
 31
0.0
  0
ARC
  5
AD58
330
AA85
100
AcDbEntity
  8
1
  6
Continuous
100
AcDbCircle
 10
206.251678
 20
73.5
 30
0.0
 40
6.0
100
AcDbArc
 50
180.0
 51
0.0
  0
LINE
  5
AD59
330
AA85
100
AcDbEntity
  8
1
  6
Continuous
100
AcDbLine
 10
205.758892
 20
72.391661
 30
0.0
 11
205.129843
 21
71.784195
 31
0.0
  0
LINE
  5
AD5A
330
AA85
100
AcDbEntity
  8
1
  6
Continuous
100
AcDbLine
 10
205.322698
 20
73.5
 30
0.0
 11
205.143339
 21
73.99278599999998
 31
0.0
  0
LINE
  5
AD5B
330
AA85
100
AcDbEntity
  8
1
  6
Continuous
100
AcDbLine
 10
205.322698
 20
73.5
 30
0.0
 11
205.143339
 21
73.007214
 31
0.0
  0
LINE
  5
AD5C
330
AA85
100
AcDbEntity
  8
1
  6
Continuous
100
AcDbLine
 10
205.143339
 20
73.007214
 30
0.0
 11
204.535873
 21
72.37816499999998
 31
0.0
  0
ARC
  5
AD5D
330
AA85
100
AcDbEntity
  8
1
  6
Continuous
100
AcDbCircle
 10
206.251678
 20
73.5
 30
0.0
 40
2.049999999999998
100
AcDbArc
 50
213.17764
 51
236.8223599999998
  0
LINE
  5
AD5E
330
AA85
100
AcDbEntity
  8
1
  6
Continuous
100
AcDbLine
 10
206.744464
 20
72.391661
 30
0.0
 11
207.373513
 21
71.784195
 31
0.0
  0
LINE
  5
AD5F
330
AA85
100
AcDbEntity
  8
1
  6
Continuous
100
AcDbLine
 10
206.251678
 20
72.57101999999997
 30
0.0
 11
206.744464
 21
72.391661
 31
0.0
  0
LINE
  5
AD60
330
AA85
100
AcDbEntity
  8
1
  6
Continuous
100
AcDbLine
 10
207.180658
 20
73.5
 30
0.0
 11
207.360017
 21
73.007214
 31
0.0
  0
LINE
  5
AD61
330
AA85
100
AcDbEntity
  8
1
  6
Continuous
100
AcDbLine
 10
207.360017
 20
73.007214
 30
0.0
 11
207.967483
 21
72.37816499999998
 31
0.0
  0
LINE
  5
AD62
330
AA85
100
AcDbEntity
  8
1
  6
Continuous
100
AcDbLine
 10
207.180658
 20
73.5
 30
0.0
 11
207.360017
 21
73.99278599999998
 31
0.0
  0
ARC
  5
AD63
330
AA85
100
AcDbEntity
  8
1
  6
Continuous
100
AcDbCircle
 10
206.251678
 20
73.5
 30
0.0
 40
2.049999999999998
100
AcDbArc
 50
303.17764
 51
326.82236
  0
ARC
  5
AD64
330
AA85
100
AcDbEntity
  8
1
  6
Continuous
100
AcDbCircle
 10
206.251678
 20
79.5
 30
0.0
 40
6.0
100
AcDbArc
 50
0.0
 51
180.0
  0
LINE
  5
AD65
330
AA85
100
AcDbEntity
  8
1
  6
Continuous
100
AcDbLine
 10
205.758892
 20
74.608339
 30
0.0
 11
205.129843
 21
75.215805
 31
0.0
  0
ARC
  5
AD66
330
AA85
100
AcDbEntity
  8
1
  6
Continuous
100
AcDbCircle
 10
206.251678
 20
73.5
 30
0.0
 40
2.049999999999998
100
AcDbArc
 50
123.1776399999999
 51
146.8223599999998
  0
LINE
  5
AD67
330
AA85
100
AcDbEntity
  8
1
  6
Continuous
100
AcDbLine
 10
206.744464
 20
74.608339
 30
0.0
 11
207.373513
 21
75.215805
 31
0.0
  0
ARC
  5
AD68
330
AA85
100
AcDbEntity
  8
1
  6
Continuous
100
AcDbCircle
 10
206.251678
 20
73.5
 30
0.0
 40
2.049999999999998
100
AcDbArc
 50
33.17763999999999
 51
56.82235999999999
  0
ARC
  5
AD69
330
AA85
100
AcDbEntity
  8
1
  6
Continuous
100
AcDbCircle
 10
206.251678
 20
73.5
 30
0.0
 40
5.5
100
AcDbArc
 50
318.5691279999999
 51
221.430826
  0
ARC
  5
AD6A
330
AA85
100
AcDbEntity
  8
1
  6
Continuous
100
AcDbCircle
 10
206.251678
 20
73.5
 30
0.0
 40
4.299999999999998
100
AcDbArc
 50
115.8868629999999
 51
174.113188
  0
ARC
  5
AD6B
330
AA85
100
AcDbEntity
  8
1
  6
Continuous
100
AcDbCircle
 10
204.5489569999999
 20
77.008667
 30
0.0
 40
0.4
100
AcDbArc
 50
20.000122
 51
115.886945
  0
LINE
  5
AD6C
330
AA85
100
AcDbEntity
  8
1
  6
Continuous
100
AcDbLine
 10
204.924833
 20
77.145477
 30
0.0
 11
205.054608
 21
76.78892399999998
 31
0.0
  0
LINE
  5
AD6D
330
AA85
100
AcDbEntity
  8
1
  6
Continuous
100
AcDbLine
 10
207.448747
 20
76.788925
 30
0.0
 11
207.5785209999998
 21
77.145477
 31
0.0
  0
ARC
  5
AD6E
330
AA85
100
AcDbEntity
  8
1
  6
Continuous
100
AcDbCircle
 10
207.9543989999999
 20
77.008667
 30
0.0
 40
0.4
100
AcDbArc
 50
64.113073
 51
159.9999949999999
  0
ARC
  5
AD6F
330
AA85
100
AcDbEntity
  8
1
  6
Continuous
100
AcDbCircle
 10
206.251678
 20
73.5
 30
0.0
 40
4.299999999999998
100
AcDbArc
 50
5.886828999999999
 51
64.113162
  0
ARC
  5
AD70
330
AA85
100
AcDbEntity
  8
1
  6
Continuous
100
AcDbCircle
 10
210.1311109999998
 20
73.900002
 30
0.0
 40
0.4
100
AcDbArc
 50
270.0000179999999
 51
5.886752999999998
  0
ARC
  5
AD71
330
AA85
100
AcDbEntity
  8
1
  6
Continuous
100
AcDbCircle
 10
210.0754279999999
 20
70.125252
 30
0.0
 40
0.4
100
AcDbArc
 50
209.999934
 51
318.568933
  0
LINE
  5
AD72
330
AA85
100
AcDbEntity
  8
1
  6
Continuous
100
AcDbLine
 10
208.951255
 20
71.27238100000003
 30
0.0
 11
209.7290189999999
 21
69.92525500000001
 31
0.0
  0
LINE
  5
AD73
330
AA85
100
AcDbEntity
  8
1
  6
Continuous
100
AcDbLine
 10
202.7743389999999
 20
69.92525500000001
 30
0.0
 11
203.552104
 21
71.272378
 31
0.0
  0
ARC
  5
AD74
330
AA85
100
AcDbEntity
  8
1
  6
Continuous
100
AcDbCircle
 10
202.427928
 20
70.125252
 30
0.0
 40
0.4
100
AcDbArc
 50
221.430871
 51
329.999948
  0
ARC
  5
AD75
330
AA85
100
AcDbEntity
  8
1
  6
Continuous
100
AcDbCircle
 10
202.372245
 20
73.900002
 30
0.0
 40
0.4
100
AcDbArc
 50
174.1132429999999
 51
270.000001
  0
LINE
  5
AD76
330
AA85
100
AcDbEntity
  8
1
  6
Continuous
100
AcDbLine
 10
202.372245
 20
73.50000199999998
 30
0.0
 11
202.7242939999999
 21
73.50000199999998
 31
0.0
  0
LINE
  5
AD77
330
AA85
100
AcDbEntity
  8
1
  6
Continuous
100
AcDbLine
 10
210.1311109999998
 20
73.50000199999998
 30
0.0
 11
209.7516779999998
 21
73.5
 31
0.0
  0
ARC
  5
AD78
330
AA85
100
AcDbEntity
  8
1
  6
Continuous
100
AcDbCircle
 10
178.751656
 20
73.5
 30
0.0
 40
19.5
100
AcDbArc
 50
43.24998299999999
 51
133.195908
  0
LINE
  5
AD79
330
AA85
100
AcDbEntity
  8
1
  6
Continuous
100
AcDbLine
 10
165.33211
 20
61.75
 30
0.0
 11
159.7516589999999
 21
61.75
 31
0.0
  0
LINE
  5
AD7A
330
AA85
100
AcDbEntity
  8
1
  6
Continuous
100
AcDbLine
 10
182.337553
 20
62.5
 30
0.0
 11
137.1658339999999
 21
62.5
 31
0.0
  0
LINE
  5
AD7B
330
AA85
100
AcDbEntity
  8
1
  6
Continuous
100
AcDbLine
 10
165.33211
 20
85.25
 30
0.0
 11
159.7516589999999
 21
85.25
 31
0.0
  0
LINE
  5
AD7C
330
AA85
100
AcDbEntity
  8
1
  6
Continuous
100
AcDbLine
 10
182.337553
 20
84.50000000000001
 30
0.0
 11
137.1658339999999
 21
84.50000000000001
 31
0.0
  0
LINE
  5
AD7D
330
AA85
100
AcDbEntity
  8
1
  6
Continuous
100
AcDbLine
 10
164.0016939999999
 20
59.14650899999998
 30
0.0
 11
155.5016939999999
 21
59.14650899999998
 31
0.0
  0
LINE
  5
AD7E
330
AA85
100
AcDbEntity
  8
1
  6
Continuous
100
AcDbLine
 10
163.7516939999999
 20
88.04698899999998
 30
0.0
 11
155.751694
 21
88.04698899999998
 31
0.0
  0
ARC
  5
AD7F
330
AA85
100
AcDbEntity
  8
1
  6
Continuous
100
AcDbCircle
 10
159.751694
 20
81.70270100000001
 30
0.0
 40
7.5
100
AcDbArc
 50
57.76904700000001
 51
122.230953
  0
LINE
  5
AD80
330
AA85
100
AcDbEntity
  8
1
  6
Continuous
100
AcDbLine
 10
164.0016939999999
 20
58.21319299999998
 30
0.0
 11
155.5016939999999
 21
58.21319299999998
 31
0.0
  0
ARC
  5
AD81
330
AA85
100
AcDbEntity
  8
1
  6
Continuous
100
AcDbCircle
 10
159.751694
 20
66.146509
 30
0.0
 40
9.0
100
AcDbArc
 50
241.8213569999999
 51
298.178643
  0
ARC
  5
AD82
330
AA85
100
AcDbEntity
  8
1
  6
Continuous
100
AcDbCircle
 10
234.7516939999999
 20
73.5
 30
0.0
 40
100.0
100
AcDbArc
 50
174.730718
 51
185.269983
  0
ARC
  5
AD83
330
AA85
100
AcDbEntity
  8
1
  6
Continuous
100
AcDbCircle
 10
137.1658339999999
 20
82.5
 30
0.0
 40
2.0
100
AcDbArc
 50
90.0
 51
174.730718
  0
ARC
  5
AD84
330
AA85
100
AcDbEntity
  8
1
  6
Continuous
100
AcDbCircle
 10
154.171209
 20
84.74999999999999
 30
0.0
 40
0.5
100
AcDbArc
 50
90.0
 51
170.0
  0
LINE
  5
AD85
330
AA85
100
AcDbEntity
  8
1
  6
Continuous
100
AcDbLine
 10
153.678805
 20
84.83682399999997
 30
0.0
 11
153.6194139999998
 21
84.50000000000001
 31
0.0
  0
LINE
  5
AD86
330
AA85
100
AcDbEntity
  8
1
  6
Continuous
100
AcDbLine
 10
154.171209
 20
85.25
 30
0.0
 11
159.7516589999999
 21
85.25
 31
0.0
  0
LINE
  5
AD87
330
AA85
100
AcDbEntity
  8
1
  6
Continuous
100
AcDbLine
 10
162.7516939999999
 20
85.25
 30
0.0
 11
162.7516939999999
 21
85.654984
 31
0.0
  0
LINE
  5
AD88
330
AA85
100
AcDbEntity
  8
1
  6
Continuous
100
AcDbLine
 10
156.7516939999999
 20
85.654984
 30
0.0
 11
156.7516939999999
 21
85.25
 31
0.0
  0
LINE
  5
AD89
330
AA85
100
AcDbEntity
  8
1
  6
Continuous
100
AcDbLine
 10
155.751694
 20
88.04698899999998
 30
0.0
 11
155.751694
 21
87.654984
 31
0.0
  0
ARC
  5
AD8A
330
AA85
100
AcDbEntity
  8
1
  6
Continuous
100
AcDbCircle
 10
137.1658339999999
 20
64.5
 30
0.0
 40
2.0
100
AcDbArc
 50
185.269282
 51
270.0
  0
ARC
  5
AD8B
330
AA85
100
AcDbEntity
  8
1
  6
Continuous
100
AcDbCircle
 10
154.171209
 20
62.25
 30
0.0
 40
0.5
100
AcDbArc
 50
190.0
 51
270.0
  0
LINE
  5
AD8C
330
AA85
100
AcDbEntity
  8
1
  6
Continuous
100
AcDbLine
 10
153.678805
 20
62.16317599999999
 30
0.0
 11
153.6194139999998
 21
62.5
 31
0.0
  0
LINE
  5
AD8D
330
AA85
100
AcDbEntity
  8
1
  6
Continuous
100
AcDbLine
 10
154.171209
 20
61.75
 30
0.0
 11
159.7516589999999
 21
61.75
 31
0.0
  0
LINE
  5
AD8E
330
AA85
100
AcDbEntity
  8
1
  6
Continuous
100
AcDbLine
 10
155.5016939999999
 20
59.14650899999998
 30
0.0
 11
155.5016939999999
 21
58.21319299999998
 31
0.0
  0
ARC
  5
AD8F
330
AA85
100
AcDbEntity
  8
1
  6
Continuous
100
AcDbCircle
 10
165.33211
 20
84.74999999999999
 30
0.0
 40
0.5
100
AcDbArc
 50
10.0
 51
90.0
  0
LINE
  5
AD90
330
AA85
100
AcDbEntity
  8
1
  6
Continuous
100
AcDbLine
 10
165.824513
 20
84.83682399999997
 30
0.0
 11
165.883905
 21
84.50000000000001
 31
0.0
  0
LINE
  5
AD91
330
AA85
100
AcDbEntity
  8
1
  6
Continuous
100
AcDbLine
 10
163.7516939999999
 20
87.654984
 30
0.0
 11
163.7516939999999
 21
88.04698899999998
 31
0.0
  0
ARC
  5
AD92
330
AA85
100
AcDbEntity
  8
1
  6
Continuous
100
AcDbCircle
 10
165.33211
 20
62.25
 30
0.0
 40
0.5
100
AcDbArc
 50
270.0
 51
350.0
  0
LINE
  5
AD93
330
AA85
100
AcDbEntity
  8
1
  6
Continuous
100
AcDbLine
 10
165.824513
 20
62.16317599999999
 30
0.0
 11
165.883905
 21
62.5
 31
0.0
  0
LINE
  5
AD94
330
AA85
100
AcDbEntity
  8
1
  6
Continuous
100
AcDbLine
 10
164.0016939999999
 20
59.14650899999998
 30
0.0
 11
164.0016939999999
 21
58.21319299999998
 31
0.0
  0
LINE
  5
AD95
330
AA85
100
AcDbEntity
  8
4
  6
CENTER
100
AcDbLine
 10
159.7516589999999
 20
54.14650899999998
 30
0.0
 11
159.7516589999999
 21
92.202701
 31
0.0
  0
ARC
  5
AD96
330
AA85
100
AcDbEntity
  8
1
  6
Continuous
100
AcDbCircle
 10
178.751656
 20
73.5
 30
0.0
 40
19.5
100
AcDbArc
 50
226.5434909999999
 51
316.750017
  0
ARC
  5
AD97
330
AA85
100
AcDbEntity
  8
1
  6
Continuous
100
AcDbCircle
 10
84.751624
 20
73.5
 30
0.0
 40
100.0
100
AcDbArc
 50
354.7300169999999
 51
5.269281999999998
  0
ARC
  5
AD98
330
AA85
100
AcDbEntity
  8
1
  6
Continuous
100
AcDbCircle
 10
182.3374839999999
 20
64.5
 30
0.0
 40
2.0
100
AcDbArc
 50
270.0
 51
354.730718
  0
ARC
  5
AD99
330
AA85
100
AcDbEntity
  8
1
  6
Continuous
100
AcDbCircle
 10
182.3374839999999
 20
82.5
 30
0.0
 40
2.0
100
AcDbArc
 50
5.269281999999998
 51
90.0
  0
LINE
  5
AD9A
330
AA85
100
AcDbEntity
  8
1
  6
Continuous
100
AcDbLine
 10
151.6196699999998
 20
87.654984
 30
0.0
 11
164.6262679999999
 21
87.654984
 31
0.0
  0
LINE
  5
AD9B
330
AA85
100
AcDbEntity
  8
1
  6
Continuous
100
AcDbLine
 10
156.7516939999999
 20
59.14650899999998
 30
0.0
 11
156.7516939999999
 21
59.34501499999999
 31
0.0
  0
LINE
  5
AD9C
330
AA85
100
AcDbEntity
  8
1
  6
Continuous
100
AcDbLine
 10
162.7516939999999
 20
59.14650899999998
 30
0.0
 11
162.7516939999999
 21
59.34501499999999
 31
0.0
  0
ARC
  5
AD9D
330
AA85
100
AcDbEntity
  8
1
  6
Continuous
100
AcDbCircle
 10
178.751656
 20
73.5
 30
0.0
 40
34.999889
100
AcDbArc
 50
198.3177589999998
 51
248.213667
  0
ARC
  5
AD9E
330
AA85
100
AcDbEntity
  8
1
  6
Continuous
100
AcDbCircle
 10
178.751656
 20
73.5
 30
0.0
 40
38.499839
100
AcDbArc
 50
196.601621
 51
237.581981
  0
LINE
  5
AD9F
330
AA85
100
AcDbEntity
  8
1
  6
Continuous
100
AcDbLine
 10
318.803589
 20
178.357845
 30
0.0
 11
318.803589
 21
201.0749909999999
 31
0.0
  0
ARC
  5
ADA0
330
AA85
100
AcDbEntity
  8
1
  6
Continuous
100
AcDbCircle
 10
314.803589
 20
201.0749909999999
 30
0.0
 40
4.0
100
AcDbArc
 50
0.0
 51
90.0
  0
ARC
  5
ADA1
330
AA85
100
AcDbEntity
  8
1
  6
Continuous
100
AcDbCircle
 10
262.763906
 20
178.357845
 30
0.0
 40
56.039683
100
AcDbArc
 50
348.9721999999999
 51
0.0
  0
ARC
  5
ADA2
330
AA85
100
AcDbEntity
  8
1
  6
Continuous
100
AcDbCircle
 10
300.0035889999999
 20
180.6879139999999
 30
0.0
 40
18.8
100
AcDbArc
 50
0.0
 51
34.682702
  0
LINE
  5
ADA3
330
AA85
100
AcDbEntity
  8
1
  6
Continuous
100
AcDbLine
 10
312.520504
 20
191.8935749999999
 30
0.0
 11
312.1583949999999
 21
164.807778
 31
0.0
  0
ARC
  5
ADA4
330
AA85
100
AcDbEntity
  8
1
  6
Continuous
100
AcDbCircle
 10
314.333417
 20
168.307778
 30
0.0
 40
3.5
100
AcDbArc
 50
270.0
 51
348.9721999999999
  0
ARC
  5
ADA5
330
AA85
100
AcDbEntity
  8
1
  6
Continuous
100
AcDbCircle
 10
262.763906
 20
178.357845
 30
0.0
 40
54.03968299999998
100
AcDbArc
 50
345.5713600000001
 51
0.0
  0
ARC
  5
ADA6
330
AA85
100
AcDbEntity
  8
1
  6
Continuous
100
AcDbCircle
 10
300.0035889999999
 20
180.6879139999999
 30
0.0
 40
16.8
100
AcDbArc
 50
0.0
 51
46.59863099999999
  0
LINE
  5
ADA7
330
AA85
100
AcDbEntity
  8
1
  6
Continuous
100
AcDbLine
 10
316.803589
 20
178.357845
 30
0.0
 11
316.803589
 21
180.6879139999999
 31
0.0
  0
ARC
  5
ADA8
330
AA85
100
AcDbEntity
  8
1
  6
Continuous
100
AcDbCircle
 10
312.5850219999999
 20
189.394093
 30
0.0
 40
3.5
100
AcDbArc
 50
34.682702
 51
90.0
  0
ARC
  5
ADA9
330
AA85
100
AcDbEntity
  8
1
  6
Continuous
100
AcDbCircle
 10
285.203589
 20
201.0749909999999
 30
0.0
 40
4.0
100
AcDbArc
 50
90.0
 51
180.0
  0
LINE
  5
ADAA
330
AA85
100
AcDbEntity
  8
1
  6
Continuous
100
AcDbLine
 10
281.203589
 20
178.357845
 30
0.0
 11
281.203589
 21
201.0749909999999
 31
0.0
  0
ARC
  5
ADAB
330
AA85
100
AcDbEntity
  8
1
  6
Continuous
100
AcDbCircle
 10
337.2432719999999
 20
178.357845
 30
0.0
 40
56.039683
100
AcDbArc
 50
180.0
 51
191.0278
  0
ARC
  5
ADAC
330
AA85
100
AcDbEntity
  8
1
  6
Continuous
100
AcDbCircle
 10
285.673761
 20
168.307778
 30
0.0
 40
3.5
100
AcDbArc
 50
191.0278
 51
270.0
  0
LINE
  5
ADAD
330
AA85
100
AcDbEntity
  8
1
  6
Continuous
100
AcDbLine
 10
287.848783
 20
164.807778
 30
0.0
 11
285.673761
 21
164.807778
 31
0.0
  0
LINE
  5
ADAE
330
AA85
100
AcDbEntity
  8
1
  6
Continuous
100
AcDbLine
 10
287.4866739999999
 20
191.8935749999999
 30
0.0
 11
287.848783
 21
164.807778
 31
0.0
  0
ARC
  5
ADAF
330
AA85
100
AcDbEntity
  8
1
  6
Continuous
100
AcDbCircle
 10
300.0035889999999
 20
180.6879139999999
 30
0.0
 40
18.8
100
AcDbArc
 50
145.3172979999999
 51
180.0
  0
ARC
  5
ADB0
330
AA85
100
AcDbEntity
  8
1
  6
Continuous
100
AcDbCircle
 10
300.0035889999999
 20
180.6879139999999
 30
0.0
 40
16.8
100
AcDbArc
 50
133.4013689999999
 51
180.0
  0
ARC
  5
ADB1
330
AA85
100
AcDbEntity
  8
1
  6
Continuous
100
AcDbCircle
 10
337.2432719999999
 20
178.357845
 30
0.0
 40
54.03968299999998
100
AcDbArc
 50
180.0
 51
194.4286399999998
  0
LINE
  5
ADB2
330
AA85
100
AcDbEntity
  8
1
  6
Continuous
100
AcDbLine
 10
283.203589
 20
178.357845
 30
0.0
 11
283.203589
 21
180.6879139999999
 31
0.0
  0
ARC
  5
ADB3
330
AA85
100
AcDbEntity
  8
1
  6
Continuous
100
AcDbCircle
 10
287.4221559999999
 20
189.394093
 30
0.0
 40
3.5
100
AcDbArc
 50
90.0
 51
145.3172979999999
  0
ARC
  5
ADB4
330
AA85
100
AcDbEntity
  8
1
  6
Continuous
100
AcDbCircle
 10
94.739406
 20
178.357845
 30
0.0
 40
56.039683
100
AcDbArc
 50
180.0
 51
191.0278
  0
ARC
  5
ADB5
330
AA85
100
AcDbEntity
  8
1
  6
Continuous
100
AcDbCircle
 10
20.26003999999999
 20
178.357845
 30
0.0
 40
56.039683
100
AcDbArc
 50
348.9721999999999
 51
0.0
  0
ARC
  5
ADB6
330
AA85
100
AcDbEntity
  8
1
  6
Continuous
100
AcDbCircle
 10
43.169895
 20
168.307778
 30
0.0
 40
3.5
100
AcDbArc
 50
191.0278
 51
270.0
  0
ARC
  5
ADB7
330
AA85
100
AcDbEntity
  8
1
  6
Continuous
100
AcDbCircle
 10
71.829551
 20
168.307778
 30
0.0
 40
3.5
100
AcDbArc
 50
270.0
 51
348.9721999999999
  0
ARC
  5
ADB8
330
AA85
100
AcDbEntity
  8
1
  6
Continuous
100
AcDbCircle
 10
72.299723
 20
201.0749909999999
 30
0.0
 40
4.0
100
AcDbArc
 50
0.0
 51
90.0
  0
LINE
  5
ADB9
330
AA85
100
AcDbEntity
  8
1
  6
Continuous
100
AcDbLine
 10
38.699723
 20
178.357845
 30
0.0
 11
38.699723
 21
201.0749909999999
 31
0.0
  0
ARC
  5
ADBA
330
AA85
100
AcDbEntity
  8
1
  6
Continuous
100
AcDbCircle
 10
42.699723
 20
201.0749909999999
 30
0.0
 40
4.0
100
AcDbArc
 50
90.0
 51
180.0
  0
LINE
  5
ADBB
330
AA85
100
AcDbEntity
  8
1
  6
Continuous
100
AcDbLine
 10
76.299723
 20
178.357845
 30
0.0
 11
76.299723
 21
201.0749909999999
 31
0.0
  0
LINE
  5
ADBC
330
AA85
100
AcDbEntity
  8
1
  6
Continuous
100
AcDbLine
 10
42.699723
 20
205.0749909999999
 30
0.0
 11
72.299723
 21
205.0749909999999
 31
0.0
  0
ARC
  5
ADBD
330
AA85
100
AcDbEntity
  8
1
  6
Continuous
100
AcDbCircle
 10
178.751656
 20
73.5
 30
0.0
 40
18.8
100
AcDbArc
 50
43.638145
 51
126.406038
  0
LINE
  5
ADBE
330
AA85
100
AcDbEntity
  8
1
  6
Continuous
100
AcDbLine
 10
166.37925
 20
169.270101
 30
0.0
 11
166.37925
 21
196.5240579999999
 31
0.0
  0
LINE
  5
ADBF
330
AA85
100
AcDbEntity
  8
1
  6
Continuous
100
AcDbLine
 10
433.627928
 20
169.270101
 30
0.0
 11
433.627928
 21
196.5240579999999
 31
0.0
  0
ARC
  5
ADC0
330
AA85
100
AcDbEntity
  8
1
  6
Continuous
100
AcDbCircle
 10
195.9760159999999
 20
89.92441599999997
 30
0.0
 40
5.0
100
AcDbArc
 50
223.638145
 51
225.4708149999999
  0
ARC
  5
ADC1
330
AA85
100
AcDbEntity
  8
1
  6
Continuous
100
AcDbCircle
 10
164.6262679999999
 20
92.65498400000002
 30
0.0
 40
5.0
100
AcDbArc
 50
270.0
 51
306.4060379999999
  0
ARC
  5
ADC2
330
AA85
100
AcDbEntity
  8
1
  6
Continuous
100
AcDbCircle
 10
178.751656
 20
73.5
 30
0.0
 40
16.8
100
AcDbArc
 50
43.638145
 51
126.406038
  0
ARC
  5
ADC3
330
AA85
100
AcDbEntity
  8
1
  6
Continuous
100
AcDbCircle
 10
164.6262679999999
 20
92.65498400000002
 30
0.0
 40
7.0
100
AcDbArc
 50
270.0
 51
306.4060379999999
  0
ARC
  5
ADC4
330
AA85
100
AcDbEntity
  8
1
  6
Continuous
100
AcDbCircle
 10
195.9760159999999
 20
89.92441599999997
 30
0.0
 40
7.0
100
AcDbArc
 50
223.638145
 51
226.775152
  0
LINE
  5
ADC5
330
AA85
100
AcDbEntity
  8
1
  6
Continuous
100
AcDbLine
 10
150.807086
 20
85.654984
 30
0.0
 11
164.6262679999999
 21
85.654984
 31
0.0
  0
LINE
  5
ADC6
330
AA85
100
AcDbEntity
  8
1
  6
Continuous
100
AcDbLine
 10
156.7516939999999
 20
61.345016
 30
0.0
 11
156.7516939999999
 21
61.75
 31
0.0
  0
LINE
  5
ADC7
330
AA85
100
AcDbEntity
  8
1
  6
Continuous
100
AcDbLine
 10
162.7516939999999
 20
61.75
 30
0.0
 11
162.7516939999999
 21
61.345016
 31
0.0
  0
ARC
  5
ADC8
330
AA85
100
AcDbEntity
  8
1
  6
Continuous
100
AcDbCircle
 10
164.6262679999999
 20
54.345016
 30
0.0
 40
7.0
100
AcDbArc
 50
53.59396199999999
 51
90.0
  0
ARC
  5
ADC9
330
AA85
100
AcDbEntity
  8
1
  6
Continuous
100
AcDbCircle
 10
178.751656
 20
73.5
 30
0.0
 40
16.8
100
AcDbArc
 50
233.5939619999999
 51
316.3618549999998
  0
ARC
  5
ADCA
330
AA85
100
AcDbEntity
  8
1
  6
Continuous
100
AcDbCircle
 10
178.751656
 20
73.5
 30
0.0
 40
18.8
100
AcDbArc
 50
233.5939619999999
 51
316.3618549999998
  0
ARC
  5
ADCB
330
AA85
100
AcDbEntity
  8
1
  6
Continuous
100
AcDbCircle
 10
164.6262679999999
 20
54.345016
 30
0.0
 40
5.0
100
AcDbArc
 50
53.59396199999999
 51
90.0
  0
LINE
  5
ADCC
330
AA85
100
AcDbEntity
  8
1
  6
Continuous
100
AcDbLine
 10
151.6196699999998
 20
59.345016
 30
0.0
 11
164.6262679999999
 21
59.345016
 31
0.0
  0
LINE
  5
ADCD
330
AA85
100
AcDbEntity
  8
1
  6
Continuous
100
AcDbLine
 10
150.807086
 20
61.345016
 30
0.0
 11
164.6262679999999
 21
61.345016
 31
0.0
  0
ARC
  5
ADCE
330
AA85
100
AcDbEntity
  8
1
  6
Continuous
100
AcDbCircle
 10
195.9760159999999
 20
57.07558399999999
 30
0.0
 40
7.0
100
AcDbArc
 50
133.224848
 51
136.3618549999999
  0
ARC
  5
ADCF
330
AA85
100
AcDbEntity
  8
1
  6
Continuous
100
AcDbCircle
 10
195.9760159999999
 20
57.07558399999999
 30
0.0
 40
5.0
100
AcDbArc
 50
134.529185
 51
136.3618549999999
  0
ARC
  5
ADD0
330
AA85
100
AcDbEntity
  8
1
  6
Continuous
100
AcDbCircle
 10
171.1169759999999
 20
73.5
 30
0.0
 40
24.975827
100
AcDbArc
 50
148.059819
 51
153.8689439999999
  0
ARC
  5
ADD1
330
AA85
100
AcDbEntity
  8
1
  6
Continuous
100
AcDbCircle
 10
167.849195
 20
73.5
 30
0.0
 40
20.93267999999999
100
AcDbArc
 50
144.502303
 51
148.2984879999999
  0
ARC
  5
ADD2
330
AA85
100
AcDbEntity
  8
1
  6
Continuous
100
AcDbCircle
 10
151.6196699999998
 20
85.654984
 30
0.0
 40
2.0
100
AcDbArc
 50
90.0
 51
148.059819
  0
ARC
  5
ADD3
330
AA85
100
AcDbEntity
  8
1
  6
Continuous
100
AcDbCircle
 10
151.6196699999998
 20
61.345016
 30
0.0
 40
2.0
100
AcDbArc
 50
211.9401809999998
 51
270.0
  0
ARC
  5
ADD4
330
AA85
100
AcDbEntity
  8
1
  6
Continuous
100
AcDbCircle
 10
167.849195
 20
73.5
 30
0.0
 40
20.93267999999999
100
AcDbArc
 50
211.701512
 51
215.4976969999999
  0
ARC
  5
ADD5
330
AA85
100
AcDbEntity
  8
1
  6
Continuous
100
AcDbCircle
 10
171.1169759999999
 20
73.5
 30
0.0
 40
24.975827
100
AcDbArc
 50
206.1310559999999
 51
211.9401809999998
  0
LINE
  5
ADD6
330
AA85
100
AcDbEntity
  8
1
  6
Continuous
100
AcDbLine
 10
43.14623199999998
 20
169.7102979999999
 30
0.0
 11
43.27919699999998
 21
169.7102979999999
 31
0.0
  0
LINE
  5
ADD7
330
AA85
100
AcDbEntity
  8
1
  6
Continuous
100
AcDbLine
 10
43.14623199999998
 20
175.7102979999999
 30
0.0
 11
43.198983
 21
175.7102979999999
 31
0.0
  0
ARC
  5
ADD8
330
AA85
100
AcDbEntity
  8
1
  6
Continuous
100
AcDbCircle
 10
159.7516589999999
 20
172.710263
 30
0.0
 40
17.5
100
AcDbArc
 50
115.731449
 51
9.667051999999998
  0
ARC
  5
ADD9
330
AA85
100
AcDbEntity
  8
1
  6
Continuous
100
AcDbCircle
 10
440.255519
 20
172.710263
 30
0.0
 40
17.5
100
AcDbArc
 50
170.3329479999999
 51
64.268551
  0
LINE
  5
ADDA
330
AA85
100
AcDbEntity
  8
4
  6
CENTER
100
AcDbLine
 10
206.251678
 20
267.9613429999998
 30
0.0
 11
206.251678
 21
311.6613430000001
 31
0.0
  0
LINE
  5
ADDB
330
AA85
100
AcDbEntity
  8
4
  6
CENTER
100
AcDbLine
 10
159.7516589999999
 20
270.457852
 30
0.0
 11
159.7516589999999
 21
308.5140439999999
 31
0.0
  0
ARC
  5
ADDC
330
AA85
100
AcDbEntity
  8
1
  6
Continuous
100
AcDbCircle
 10
57.49972299999999
 20
180.6879139999999
 30
0.0
 40
16.8
100
AcDbArc
 50
41.836226
 51
46.59863099999999
  0
ARC
  5
ADDD
330
AA85
100
AcDbEntity
  8
1
  6
Continuous
100
AcDbCircle
 10
57.49972299999999
 20
180.6879139999999
 30
0.0
 40
16.8
100
AcDbArc
 50
133.4013689999999
 51
138.163778
  0
LINE
  5
ADDE
330
AA85
100
AcDbEntity
  8
1
  6
Continuous
100
AcDbLine
 10
45.956361
 20
192.8940929999999
 30
0.0
 11
46.49972299999999
 21
192.8940929999999
 31
0.0
  0
LINE
  5
ADDF
330
AA85
100
AcDbEntity
  8
1
  6
Continuous
100
AcDbLine
 10
68.49972300000001
 20
192.8940929999999
 30
0.0
 11
69.04308499999999
 21
192.8940929999999
 31
0.0
  0
ENDSEC
  0
SECTION
  2
OBJECTS
  0
DICTIONARY
  5
AA73
330
0
100
AcDbDictionary
281
     1
  3
ACAD_CIP_PREVIOUS_PRODUCT_INFO
350
AE41
  3
ACAD_COLOR
350
AE23
  3
ACAD_DETAILVIEWSTYLE
350
AE3C
  3
ACAD_GROUP
350
AA74
  3
ACAD_LAYOUT
350
AA80
  3
ACAD_MATERIAL
350
ADF1
  3
ACAD_MLEADERSTYLE
350
AE38
  3
ACAD_MLINESTYLE
350
AA7D
  3
ACAD_PLOTSETTINGS
350
AA7F
  3
ACAD_PLOTSTYLENAME
350
ADEF
  3
ACAD_SCALELIST
350
AE26
  3
ACAD_SECTIONVIEWSTYLE
350
AE3A
  3
ACAD_TABLESTYLE
350
AE24
  3
ACAD_VISUALSTYLE
350
AE0A
  3
ACDB_RECOMPOSE_DATA
350
AE5F
  3
AcDbVariableDictionary
350
AE52
  3
DWGPROPS
350
AE60
  0
DICTIONARY
  5
AE42
330
AA77
100
AcDbDictionary
280
     1
281
     1
  3
ADSK_XREC_LAYER_RECONCILED
360
AE43
  0
DICTIONARY
  5
AE44
330
AA8D
100
AcDbDictionary
280
     1
281
     1
  3
ADSK_XREC_LAYER_RECONCILED
360
AE45
  0
DICTIONARY
  5
AE46
330
AA8E
100
AcDbDictionary
280
     1
281
     1
  3
ADSK_XREC_LAYER_RECONCILED
360
AE47
  0
DICTIONARY
  5
AE48
330
AA8F
100
AcDbDictionary
280
     1
281
     1
  3
ADSK_XREC_LAYER_RECONCILED
360
AE49
  0
DICTIONARY
  5
AE4A
330
AA90
100
AcDbDictionary
280
     1
281
     1
  3
ADSK_XREC_LAYER_RECONCILED
360
AE4B
  0
DICTIONARY
  5
AE4C
330
AA91
100
AcDbDictionary
280
     1
281
     1
  3
ADSK_XREC_LAYER_RECONCILED
360
AE4D
  0
DICTIONARY
  5
AE4E
330
AA92
100
AcDbDictionary
280
     1
281
     1
  3
ADSK_XREC_LAYER_RECONCILED
360
AE4F
  0
DICTIONARY
  5
AE50
330
AA93
100
AcDbDictionary
280
     1
281
     1
  3
ADSK_XREC_LAYER_RECONCILED
360
AE51
  0
DICTIONARY
  5
ADEA
330
AA85
100
AcDbDictionary
281
     1
  3
ACAD_LAYOUTSELFREF
350
ADEB
  0
DICTIONARY
  5
ADE8
330
AA81
100
AcDbDictionary
281
     1
  3
ACAD_LAYOUTSELFREF
350
ADE9
  0
XRECORD
  5
AE41
102
{ACAD_REACTORS
330
AA73
102
}
330
AA73
100
AcDbXrecord
280
     1
300
ACDLT
300
2014
300
ACDLT_F_S
  0
DICTIONARY
  5
AE23
102
{ACAD_REACTORS
330
AA73
102
}
330
AA73
100
AcDbDictionary
281
     1
  0
DICTIONARY
  5
AE3C
102
{ACAD_REACTORS
330
AA73
102
}
330
AA73
100
AcDbDictionary
281
     1
  3
Imperial24
350
AE3D
  0
DICTIONARY
  5
AA74
102
{ACAD_REACTORS
330
AA73
102
}
330
AA73
100
AcDbDictionary
281
     1
  0
DICTIONARY
  5
AA80
102
{ACAD_REACTORS
330
AA73
102
}
330
AA73
100
AcDbDictionary
281
     1
  3
Model
350
AE3E
  3
レイアウト1
350
AE3F
  0
DICTIONARY
  5
ADF1
102
{ACAD_REACTORS
330
AA73
102
}
330
AA73
100
AcDbDictionary
281
     1
  3
ByBlock
350
ADFA
  3
ByLayer
350
ADF2
  3
Global
350
AE02
  0
DICTIONARY
  5
AE38
102
{ACAD_REACTORS
330
AA73
102
}
330
AA73
100
AcDbDictionary
281
     1
  3
Standard
350
AE39
  0
DICTIONARY
  5
AA7D
102
{ACAD_REACTORS
330
AA73
102
}
330
AA73
100
AcDbDictionary
281
     1
  3
STANDARD
350
AA7E
  0
DICTIONARY
  5
AA7F
102
{ACAD_REACTORS
330
AA73
102
}
330
AA73
100
AcDbDictionary
281
     1
  0
ACDBDICTIONARYWDFLT
  5
ADEF
102
{ACAD_REACTORS
330
AA73
102
}
330
AA73
100
AcDbDictionary
281
     1
  3
Normal
350
ADF0
100
AcDbDictionaryWithDefault
340
ADF0
  0
DICTIONARY
  5
AE26
102
{ACAD_REACTORS
330
AA73
102
}
330
AA73
100
AcDbDictionary
281
     1
  3
A0
350
AE27
  3
A1
350
AE28
  3
A2
350
AE29
  3
A3
350
AE2A
  3
A4
350
AE2B
  3
A5
350
AE2C
  3
A6
350
AE2D
  3
A7
350
AE2E
  3
A8
350
AE2F
  3
A9
350
AE30
  3
B0
350
AE31
  3
B1
350
AE32
  3
B2
350
AE33
  3
B3
350
AE34
  3
B4
350
AE35
  3
B5
350
AE36
  3
B6
350
AE37
  0
DICTIONARY
  5
AE3A
102
{ACAD_REACTORS
330
AA73
102
}
330
AA73
100
AcDbDictionary
281
     1
  3
Imperial24
350
AE3B
  0
DICTIONARY
  5
AE24
102
{ACAD_REACTORS
330
AA73
102
}
330
AA73
100
AcDbDictionary
281
     1
  3
Standard
350
AE25
  0
DICTIONARY
  5
AE0A
102
{ACAD_REACTORS
330
AA73
102
}
330
AA73
100
AcDbDictionary
281
     1
  3
2dWireframe
350
AE10
  3
Basic
350
AE0F
  3
Brighten
350
AE16
  3
ColorChange
350
AE1A
  3
Conceptual
350
AE13
  3
Dim
350
AE15
  3
EdgeColorOff
350
AE22
  3
Facepattern
350
AE19
  3
Flat
350
AE0B
  3
FlatWithEdges
350
AE0C
  3
Gouraud
350
AE0D
  3
GouraudWithEdges
350
AE0E
  3
Hidden
350
AE12
  3
JitterOff
350
AE20
  3
Linepattern
350
AE18
  3
OverhangOff
350
AE21
  3
Realistic
350
AE14
  3
Shaded
350
AE1F
  3
Shaded with edges
350
AE1E
  3
Shades of Gray
350
AE1B
  3
Sketchy
350
AE1C
  3
Thicken
350
AE17
  3
Wireframe
350
AE11
  3
X-Ray
350
AE1D
  0
XRECORD
  5
AE5F
102
{ACAD_REACTORS
330
AA73
102
}
330
AA73
100
AcDbXrecord
280
     1
 90
        1
330
AE25
  0
DICTIONARY
  5
AE52
102
{ACAD_REACTORS
330
AA73
102
}
330
AA73
100
AcDbDictionary
281
     1
  3
CANNOSCALE
350
AE57
  3
CMLEADERSTYLE
350
AE54
  3
CTABLESTYLE
350
AE53
  3
CVIEWDETAILSTYLE
350
AE55
  3
CVIEWSECTIONSTYLE
350
AE56
  3
DIMASSOC
350
AE5A
  3
INDEXCTL
350
AE59
  3
SORTENTS
350
AE58
  3
XCLIPFRAME
350
AE5B
  0
XRECORD
  5
AE60
102
{ACAD_REACTORS
330
AA73
102
}
330
AA73
100
AcDbXrecord
280
     1
  1
DWGPROPS COOKIE
  2

  3

  4

  6

  7

  8
Yoshitsune
  9

300
=
301
=
302
=
303
=
304
=
305
=
306
=
307
=
308
=
309
=
 40
0.0000110532407407
 41
2451301.397526968
 42
2457192.686527164
  1

 90
        0
  0
XRECORD
  5
AE43
102
{ACAD_REACTORS
330
AE42
102
}
330
AE42
100
AcDbXrecord
280
     1
290
     1
  0
XRECORD
  5
AE45
102
{ACAD_REACTORS
330
AE44
102
}
330
AE44
100
AcDbXrecord
280
     1
290
     1
  0
XRECORD
  5
AE47
102
{ACAD_REACTORS
330
AE46
102
}
330
AE46
100
AcDbXrecord
280
     1
290
     1
  0
XRECORD
  5
AE49
102
{ACAD_REACTORS
330
AE48
102
}
330
AE48
100
AcDbXrecord
280
     1
290
     1
  0
XRECORD
  5
AE4B
102
{ACAD_REACTORS
330
AE4A
102
}
330
AE4A
100
AcDbXrecord
280
     1
290
     1
  0
XRECORD
  5
AE4D
102
{ACAD_REACTORS
330
AE4C
102
}
330
AE4C
100
AcDbXrecord
280
     1
290
     1
  0
XRECORD
  5
AE4F
102
{ACAD_REACTORS
330
AE4E
102
}
330
AE4E
100
AcDbXrecord
280
     1
290
     1
  0
XRECORD
  5
AE51
102
{ACAD_REACTORS
330
AE50
102
}
330
AE50
100
AcDbXrecord
280
     1
290
     1
  0
XRECORD
  5
ADEB
102
{ACAD_REACTORS
330
ADEA
102
}
330
ADEA
100
AcDbXrecord
280
     1
340
AA85
  0
XRECORD
  5
ADE9
102
{ACAD_REACTORS
330
ADE8
102
}
330
ADE8
100
AcDbXrecord
280
     1
340
AA81
  0
ACDBDETAILVIEWSTYLE
  5
AE3D
102
{ACAD_XDICTIONARY
360
AE98
102
}
102
{ACAD_REACTORS
330
AE3C
102
}
330
AE3C
100
AcDbModelDocViewStyle
 70
     0
  3
Imperial24
290
     0
100
AcDbDetailViewStyle
 70
     0
 71
     0
 90
        3
 71
     1
340
AA78
 40
0.24
340
0
 40
0.24
300

 40
0.36
280
     3
 71
     2
340
AA7C
 90
       25
 71
     3
340
AA78
 40
0.24
 90
        1
 40
0.75
 90
        1
300
%<\AcVar ViewType \f "%tc1">% %<\AcVar ViewDetailId>%\PSCALE %<\AcVar ViewScale \f "%sn">%
 71
     4
340
AA7C
 90
       25
340
AA7C
 90
       25
280
     0
  0
LAYOUT
  5
AE3E
102
{ACAD_XDICTIONARY
360
AE9A
102
}
102
{ACAD_REACTORS
330
AA80
102
}
330
AA80
100
AcDbPlotSettings
  1

  2
Canon LBP9100C
  4

  6

 40
0.0
 41
0.0
 42
0.0
 43
0.0
 44
0.0
 45
0.0
 46
0.0
 47
0.0
 48
0.0
 49
0.0
140
0.0
141
0.0
142
1.0
143
1.0
 70
  1712
 72
     0
 73
     0
 74
     0
  7

 75
     0
147
1.0
148
0.0
149
0.0
100
AcDbLayout
  1
Model
 70
     1
 71
     0
 10
0.0
 20
0.0
 11
12.0
 21
9.0
 12
0.0
 22
0.0
 32
0.0
 14
0.0
 24
0.0
 34
0.0
 15
0.0
 25
0.0
 35
0.0
146
0.0
 13
0.0
 23
0.0
 33
0.0
 16
1.0
 26
0.0
 36
0.0
 17
0.0
 27
1.0
 37
0.0
 76
     0
330
AA85
331
ADE7
  0
LAYOUT
  5
AE3F
102
{ACAD_XDICTIONARY
360
AE9C
102
}
102
{ACAD_REACTORS
330
AA80
102
}
330
AA80
100
AcDbPlotSettings
  1

  2
Canon LBP9100C
  4

  6

 40
0.0
 41
0.0
 42
0.0
 43
0.0
 44
0.0
 45
0.0
 46
0.0
 47
0.0
 48
0.0
 49
0.0
140
0.0
141
0.0
142
1.0
143
1.0
 70
   688
 72
     0
 73
     0
 74
     5
  7

 75
    16
147
1.0
148
0.0
149
0.0
100
AcDbLayout
  1
レイアウト1
 70
     0
 71
     1
 10
0.0
 20
0.0
 11
420.0
 21
297.0
 12
0.0
 22
0.0
 32
0.0
 14
1.000000000000000E+20
 24
1.000000000000000E+20
 34
1.000000000000000E+20
 15
-1.000000000000000E+20
 25
-1.000000000000000E+20
 35
-1.000000000000000E+20
146
0.0
 13
0.0
 23
0.0
 33
0.0
 16
1.0
 26
0.0
 36
0.0
 17
0.0
 27
1.0
 37
0.0
 76
     0
330
AA81
  0
MATERIAL
  5
ADFA
102
{ACAD_XDICTIONARY
360
ADFB
102
}
102
{ACAD_REACTORS
330
ADF1
102
}
330
ADF1
100
AcDbMaterial
  1
ByBlock
 72
     0
 43
0.0208333333333333
 43
0.0
 43
0.0
 43
0.0
 43
0.0
 43
0.0208333333333333
 43
0.0
 43
0.0
 43
0.0
 43
0.0
 43
1.0
 43
0.0
 43
0.0
 43
0.0
 43
0.0
 43
1.0
 77
     0
 47
0.0208333333333333
 47
0.0
 47
0.0
 47
0.0
 47
0.0
 47
0.0208333333333333
 47
0.0
 47
0.0
 47
0.0
 47
0.0
 47
1.0
 47
0.0
 47
0.0
 47
0.0
 47
0.0
 47
1.0
171
     0
 49
0.0208333333333333
 49
0.0
 49
0.0
 49
0.0
 49
0.0
 49
0.0208333333333333
 49
0.0
 49
0.0
 49
0.0
 49
0.0
 49
1.0
 49
0.0
 49
0.0
 49
0.0
 49
0.0
 49
1.0
175
     0
142
0.0208333333333333
142
0.0
142
0.0
142
0.0
142
0.0
142
0.0208333333333333
142
0.0
142
0.0
142
0.0
142
0.0
142
1.0
142
0.0
142
0.0
142
0.0
142
0.0
142
1.0
179
     0
144
0.0208333333333333
144
0.0
144
0.0
144
0.0
144
0.0
144
0.0208333333333333
144
0.0
144
0.0
144
0.0
144
0.0
144
1.0
144
0.0
144
0.0
144
0.0
144
0.0
144
1.0
147
0.0208333333333333
147
0.0
147
0.0
147
0.0
147
0.0
147
0.0208333333333333
147
0.0
147
0.0
147
0.0
147
0.0
147
1.0
147
0.0
147
0.0
147
0.0
147
0.0
147
1.0
  0
MATERIAL
  5
ADF2
102
{ACAD_XDICTIONARY
360
ADF3
102
}
102
{ACAD_REACTORS
330
ADF1
102
}
330
ADF1
100
AcDbMaterial
  1
ByLayer
 72
     0
 43
0.0208333333333333
 43
0.0
 43
0.0
 43
0.0
 43
0.0
 43
0.0208333333333333
 43
0.0
 43
0.0
 43
0.0
 43
0.0
 43
1.0
 43
0.0
 43
0.0
 43
0.0
 43
0.0
 43
1.0
 77
     0
 47
0.0208333333333333
 47
0.0
 47
0.0
 47
0.0
 47
0.0
 47
0.0208333333333333
 47
0.0
 47
0.0
 47
0.0
 47
0.0
 47
1.0
 47
0.0
 47
0.0
 47
0.0
 47
0.0
 47
1.0
171
     0
 49
0.0208333333333333
 49
0.0
 49
0.0
 49
0.0
 49
0.0
 49
0.0208333333333333
 49
0.0
 49
0.0
 49
0.0
 49
0.0
 49
1.0
 49
0.0
 49
0.0
 49
0.0
 49
0.0
 49
1.0
175
     0
142
0.0208333333333333
142
0.0
142
0.0
142
0.0
142
0.0
142
0.0208333333333333
142
0.0
142
0.0
142
0.0
142
0.0
142
1.0
142
0.0
142
0.0
142
0.0
142
0.0
142
1.0
179
     0
144
0.0208333333333333
144
0.0
144
0.0
144
0.0
144
0.0
144
0.0208333333333333
144
0.0
144
0.0
144
0.0
144
0.0
144
1.0
144
0.0
144
0.0
144
0.0
144
0.0
144
1.0
147
0.0208333333333333
147
0.0
147
0.0
147
0.0
147
0.0
147
0.0208333333333333
147
0.0
147
0.0
147
0.0
147
0.0
147
1.0
147
0.0
147
0.0
147
0.0
147
0.0
147
1.0
  0
MATERIAL
  5
AE02
102
{ACAD_XDICTIONARY
360
AE03
102
}
102
{ACAD_REACTORS
330
ADF1
102
}
330
ADF1
100
AcDbMaterial
  1
Global
 72
     0
 43
0.0208333333333333
 43
0.0
 43
0.0
 43
0.0
 43
0.0
 43
0.0208333333333333
 43
0.0
 43
0.0
 43
0.0
 43
0.0
 43
1.0
 43
0.0
 43
0.0
 43
0.0
 43
0.0
 43
1.0
 77
     0
 47
0.0208333333333333
 47
0.0
 47
0.0
 47
0.0
 47
0.0
 47
0.0208333333333333
 47
0.0
 47
0.0
 47
0.0
 47
0.0
 47
1.0
 47
0.0
 47
0.0
 47
0.0
 47
0.0
 47
1.0
171
     0
 49
0.0208333333333333
 49
0.0
 49
0.0
 49
0.0
 49
0.0
 49
0.0208333333333333
 49
0.0
 49
0.0
 49
0.0
 49
0.0
 49
1.0
 49
0.0
 49
0.0
 49
0.0
 49
0.0
 49
1.0
175
     0
142
0.0208333333333333
142
0.0
142
0.0
142
0.0
142
0.0
142
0.0208333333333333
142
0.0
142
0.0
142
0.0
142
0.0
142
1.0
142
0.0
142
0.0
142
0.0
142
0.0
142
1.0
179
     0
144
0.0208333333333333
144
0.0
144
0.0
144
0.0
144
0.0
144
0.0208333333333333
144
0.0
144
0.0
144
0.0
144
0.0
144
1.0
144
0.0
144
0.0
144
0.0
144
0.0
144
1.0
147
0.0208333333333333
147
0.0
147
0.0
147
0.0
147
0.0
147
0.0208333333333333
147
0.0
147
0.0
147
0.0
147
0.0
147
1.0
147
0.0
147
0.0
147
0.0
147
0.0
147
1.0
  0
MLEADERSTYLE
  5
AE39
102
{ACAD_REACTORS
330
AE38
102
}
330
AE38
100
AcDbMLeaderStyle
170
     2
171
     1
172
     0
 90
        2
 40
0.0
 41
0.0
173
     1
 91
-1056964608
340
AA7A
 92
       -2
290
     1
 42
0.09
291
     1
 43
0.36
  3
Standard
 44
0.18
300

342
AA78
174
     1
178
     6
175
     1
176
     0
 93
-1056964608
 45
0.18
292
     0
297
     0
 46
0.18
 94
-1056964608
 47
1.0
 49
1.0
140
1.0
293
     1
141
0.0
294
     1
177
     0
142
1.0
295
     0
296
     0
143
0.125
1001
ACAD_MLEADERVER
1070
     2
  0
MLINESTYLE
  5
AA7E
102
{ACAD_REACTORS
330
AA7D
102
}
330
AA7D
100
AcDbMlineStyle
  2
STANDARD
 70
     0
  3

 62
   256
 51
90.0
 52
90.0
 71
     2
 49
0.5
 62
   256
  6
BYLAYER
 49
-0.5
 62
   256
  6
BYLAYER
  0
ACDBPLACEHOLDER
  5
ADF0
102
{ACAD_REACTORS
330
ADEF
102
}
330
ADEF
  0
SCALE
  5
AE27
102
{ACAD_REACTORS
330
AE26
102
}
330
AE26
100
AcDbScale
 70
     0
300
1:1
140
1.0
141
1.0
290
     1
  0
SCALE
  5
AE28
102
{ACAD_REACTORS
330
AE26
102
}
330
AE26
100
AcDbScale
 70
     0
300
1/128" = 1'-0"
140
0.0078125
141
12.0
290
     0
  0
SCALE
  5
AE29
102
{ACAD_REACTORS
330
AE26
102
}
330
AE26
100
AcDbScale
 70
     0
300
1/64" = 1'-0"
140
0.015625
141
12.0
290
     0
  0
SCALE
  5
AE2A
102
{ACAD_REACTORS
330
AE26
102
}
330
AE26
100
AcDbScale
 70
     0
300
1/32" = 1'-0"
140
0.03125
141
12.0
290
     0
  0
SCALE
  5
AE2B
102
{ACAD_REACTORS
330
AE26
102
}
330
AE26
100
AcDbScale
 70
     0
300
1/16" = 1'-0"
140
0.0625
141
12.0
290
     0
  0
SCALE
  5
AE2C
102
{ACAD_REACTORS
330
AE26
102
}
330
AE26
100
AcDbScale
 70
     0
300
3/32" = 1'-0"
140
0.09375
141
12.0
290
     0
  0
SCALE
  5
AE2D
102
{ACAD_REACTORS
330
AE26
102
}
330
AE26
100
AcDbScale
 70
     0
300
1/8" = 1'-0"
140
0.125
141
12.0
290
     0
  0
SCALE
  5
AE2E
102
{ACAD_REACTORS
330
AE26
102
}
330
AE26
100
AcDbScale
 70
     0
300
3/16" = 1'-0"
140
0.1875
141
12.0
290
     0
  0
SCALE
  5
AE2F
102
{ACAD_REACTORS
330
AE26
102
}
330
AE26
100
AcDbScale
 70
     0
300
1/4" = 1'-0"
140
0.25
141
12.0
290
     0
  0
SCALE
  5
AE30
102
{ACAD_REACTORS
330
AE26
102
}
330
AE26
100
AcDbScale
 70
     0
300
3/8" = 1'-0"
140
0.375
141
12.0
290
     0
  0
SCALE
  5
AE31
102
{ACAD_REACTORS
330
AE26
102
}
330
AE26
100
AcDbScale
 70
     0
300
1/2" = 1'-0"
140
0.5
141
12.0
290
     0
  0
SCALE
  5
AE32
102
{ACAD_REACTORS
330
AE26
102
}
330
AE26
100
AcDbScale
 70
     0
300
3/4" = 1'-0"
140
0.75
141
12.0
290
     0
  0
SCALE
  5
AE33
102
{ACAD_REACTORS
330
AE26
102
}
330
AE26
100
AcDbScale
 70
     0
300
1" = 1'-0"
140
1.0
141
12.0
290
     0
  0
SCALE
  5
AE34
102
{ACAD_REACTORS
330
AE26
102
}
330
AE26
100
AcDbScale
 70
     0
300
1-1/2" = 1'-0"
140
1.5
141
12.0
290
     0
  0
SCALE
  5
AE35
102
{ACAD_REACTORS
330
AE26
102
}
330
AE26
100
AcDbScale
 70
     0
300
3" = 1'-0"
140
3.0
141
12.0
290
     0
  0
SCALE
  5
AE36
102
{ACAD_REACTORS
330
AE26
102
}
330
AE26
100
AcDbScale
 70
     0
300
6" = 1'-0"
140
6.0
141
12.0
290
     0
  0
SCALE
  5
AE37
102
{ACAD_REACTORS
330
AE26
102
}
330
AE26
100
AcDbScale
 70
     0
300
1'-0" = 1'-0"
140
12.0
141
12.0
290
     0
  0
ACDBSECTIONVIEWSTYLE
  5
AE3B
102
{ACAD_XDICTIONARY
360
AE96
102
}
102
{ACAD_REACTORS
330
AE3A
102
}
330
AE3A
100
AcDbModelDocViewStyle
 70
     0
  3
Imperial24
290
     0
100
AcDbSectionViewStyle
 70
     0
 71
     0
 90
       78
 71
     1
340
AA78
 40
0.24
340
0
340
0
 40
0.24
300
I, O, Q, S, X, Z
 40
0.48
 90
        3
 40
0.18
 90
        1
 71
     2
340
AA7C
 90
       25
340
AA7C
 90
       50
 40
0.24
 40
0.0
 40
0.24
 71
     3
340
AA78
 40
0.24
 90
        1
 40
0.75
 90
        1
300
%<\AcVar ViewType \f "%tc1">% %<\AcVar ViewSectionStartId>%-%<\AcVar ViewSectionEndId>%\PSCALE %<\AcVar ViewScale \f "%sn">%
 71
     4
300
ANSI31
 40
1.0
 90
        0
290
     0
290
     0
 90
        6
 40
0.0
 40
1.570796326794896
 40
0.2617993877991494
 40
1.308996938995747
 40
-0.2617993877991494
 40
1.832595714594046
  0
TABLESTYLE
  5
AE25
102
{ACAD_XDICTIONARY
360
AE5D
102
}
102
{ACAD_REACTORS
330
AE24
102
}
330
AE24
100
AcDbTableStyle
  3
Standard
 70
     0
 71
     0
 40
0.06
 41
0.06
280
     0
281
     0
  7
STANDARD
140
0.18
170
     2
 62
     0
 63
     7
283
     0
274
    -2
284
     1
 64
     0
275
    -2
285
     1
 65
     0
276
    -2
286
     1
 66
     0
277
    -2
287
     1
 67
     0
278
    -2
288
     1
 68
     0
279
    -2
289
     1
 69
     0
  7
STANDARD
140
0.25
170
     5
 62
     0
 63
     7
283
     0
274
    -2
284
     1
 64
     0
275
    -2
285
     1
 65
     0
276
    -2
286
     1
 66
     0
277
    -2
287
     1
 67
     0
278
    -2
288
     1
 68
     0
279
    -2
289
     1
 69
     0
  7
STANDARD
140
0.18
170
     5
 62
     0
 63
     7
283
     0
274
    -2
284
     1
 64
     0
275
    -2
285
     1
 65
     0
276
    -2
286
     1
 66
     0
277
    -2
287
     1
 67
     0
278
    -2
288
     1
 68
     0
279
    -2
289
     1
 69
     0
  0
VISUALSTYLE
  5
AE10
102
{ACAD_XDICTIONARY
360
AE6E
102
}
102
{ACAD_REACTORS
330
AE0A
102
}
330
AE0A
100
AcDbVisualStyle
  2
2dWireframe
 70
     4
 71
     0
 72
     2
 73
     0
 90
        0
 40
-0.6
 41
-30.0
 62
     5
 63
     7
 74
     1
 91
        4
 64
     7
 65
   257
 75
     1
175
     1
 42
1.0
 92
        0
 66
   257
 43
1.0
 76
     1
 77
     6
 78
     2
 67
     7
 79
     5
170
     0
171
     0
290
     0
174
     0
 93
        1
 44
0.0
173
     0
291
     0
 45
0.0
1001
ACAD
1000
AcDbSavedByObjectVersion
1070
     0
  0
VISUALSTYLE
  5
AE0F
102
{ACAD_XDICTIONARY
360
AE6C
102
}
102
{ACAD_REACTORS
330
AE0A
102
}
330
AE0A
100
AcDbVisualStyle
  2
Basic
 70
     7
 71
     1
 72
     0
 73
     1
 90
        0
 40
-0.6
 41
-30.0
 62
     5
 63
     7
 74
     0
 91
        4
 64
     7
 65
   257
 75
     1
175
     1
 42
1.0
 92
        8
 66
     7
 43
1.0
 76
     1
 77
     6
 78
     2
 67
     7
 79
     5
170
     0
171
     0
290
     0
174
     0
 93
        1
 44
0.0
173
     0
291
     1
 45
0.0
1001
ACAD
1000
AcDbSavedByObjectVersion
1070
     0
  0
VISUALSTYLE
  5
AE16
102
{ACAD_XDICTIONARY
360
AE7A
102
}
102
{ACAD_REACTORS
330
AE0A
102
}
330
AE0A
100
AcDbVisualStyle
  2
Brighten
 70
    12
 71
     2
 72
     2
 73
     0
 90
        0
 40
-0.6
 41
-30.0
 62
     5
 63
     7
 74
     1
 91
        4
 64
     7
 65
   257
 75
     1
175
     1
 42
1.0
 92
        8
 66
     7
 43
1.0
 76
     1
 77
     6
 78
     2
 67
     7
 79
     5
170
     0
171
     0
290
     0
174
     0
 93
        1
 44
50.0
173
     0
291
     1
 45
0.0
1001
ACAD
1000
AcDbSavedByObjectVersion
1070
     0
  0
VISUALSTYLE
  5
AE1A
102
{ACAD_XDICTIONARY
360
AE82
102
}
102
{ACAD_REACTORS
330
AE0A
102
}
330
AE0A
100
AcDbVisualStyle
  2
ColorChange
 70
    16
 71
     2
 72
     2
 73
     3
 90
        0
 40
-0.6
 41
-30.0
 62
     5
 63
     8
 74
     1
 91
        4
 64
     7
 65
   257
 75
     1
175
     1
 42
1.0
 92
        8
 66
     8
 43
1.0
 76
     1
 77
     6
 78
     2
 67
     7
 79
     5
170
     0
171
     0
290
     0
174
     0
 93
        1
 44
0.0
173
     0
291
     1
 45
0.0
1001
ACAD
1000
AcDbSavedByObjectVersion
1070
     0
  0
VISUALSTYLE
  5
AE13
102
{ACAD_XDICTIONARY
360
AE74
102
}
102
{ACAD_REACTORS
330
AE0A
102
}
330
AE0A
100
AcDbVisualStyle
  2
Conceptual
 70
     9
 71
     3
 72
     2
 73
     0
 90
        0
 40
-0.6
 41
-30.0
 62
     5
 63
     7
 74
     2
 91
        2
 64
     7
 65
   257
 75
     1
175
     1
 42
179.0
 92
        8
 66
     7
 43
1.0
 76
     1
 77
     6
 78
     2
 67
     7
 79
     3
170
     0
171
     0
290
     0
174
     0
 93
        1
 44
0.0
173
     0
291
     0
 45
0.0
1001
ACAD
1000
AcDbSavedByObjectVersion
1070
     0
  0
VISUALSTYLE
  5
AE15
102
{ACAD_XDICTIONARY
360
AE78
102
}
102
{ACAD_REACTORS
330
AE0A
102
}
330
AE0A
100
AcDbVisualStyle
  2
Dim
 70
    11
 71
     2
 72
     2
 73
     0
 90
        0
 40
-0.6
 41
-30.0
 62
     5
 63
     7
 74
     1
 91
        4
 64
     7
 65
   257
 75
     1
175
     1
 42
1.0
 92
        8
 66
     7
 43
1.0
 76
     1
 77
     6
 78
     2
 67
     7
 79
     5
170
     0
171
     0
290
     0
174
     0
 93
        1
 44
-50.0
173
     0
291
     1
 45
0.0
1001
ACAD
1000
AcDbSavedByObjectVersion
1070
     0
  0
VISUALSTYLE
  5
AE22
102
{ACAD_XDICTIONARY
360
AE92
102
}
102
{ACAD_REACTORS
330
AE0A
102
}
330
AE0A
100
AcDbVisualStyle
  2
EdgeColorOff
 70
    22
 71
     2
 72
     2
 73
     0
 90
        0
 40
-0.6
 41
-30.0
 62
     5
 63
     7
 74
     1
 91
        4
 64
     7
 65
   257
 75
     1
175
     1
 42
1.0
 92
        8
 66
     7
 43
1.0
 76
     1
 77
     6
 78
     2
 67
     7
 79
     5
170
     0
171
     0
290
     0
174
     0
 93
        1
 44
0.0
173
     0
291
     1
 45
0.0
1001
ACAD
1000
AcDbSavedByObjectVersion
1070
     0
  0
VISUALSTYLE
  5
AE19
102
{ACAD_XDICTIONARY
360
AE80
102
}
102
{ACAD_REACTORS
330
AE0A
102
}
330
AE0A
100
AcDbVisualStyle
  2
Facepattern
 70
    15
 71
     2
 72
     2
 73
     0
 90
        0
 40
-0.6
 41
-30.0
 62
     5
 63
     7
 74
     1
 91
        4
 64
     7
 65
   257
 75
     1
175
     1
 42
1.0
 92
        8
 66
     7
 43
1.0
 76
     1
 77
     6
 78
     2
 67
     7
 79
     5
170
     0
171
     0
290
     0
174
     0
 93
        1
 44
0.0
173
     0
291
     1
 45
0.0
1001
ACAD
1000
AcDbSavedByObjectVersion
1070
     0
  0
VISUALSTYLE
  5
AE0B
102
{ACAD_XDICTIONARY
360
AE64
102
}
102
{ACAD_REACTORS
330
AE0A
102
}
330
AE0A
100
AcDbVisualStyle
  2
Flat
 70
     0
 71
     2
 72
     1
 73
     1
 90
        2
 40
-0.6
 41
30.0
 62
     5
 63
     7
 74
     0
 91
        0
 64
     7
 65
   257
 75
     1
175
     1
 42
1.0
 92
        8
 66
     7
 43
1.0
 76
     1
 77
     6
 78
     2
 67
     7
 79
     5
170
     0
171
     0
290
     0
174
     0
 93
       13
 44
0.0
173
     0
291
     1
 45
0.0
1001
ACAD
1000
AcDbSavedByObjectVersion
1070
     0
  0
VISUALSTYLE
  5
AE0C
102
{ACAD_XDICTIONARY
360
AE66
102
}
102
{ACAD_REACTORS
330
AE0A
102
}
330
AE0A
100
AcDbVisualStyle
  2
FlatWithEdges
 70
     1
 71
     2
 72
     1
 73
     1
 90
        2
 40
-0.6
 41
30.0
 62
     5
 63
     7
 74
     1
 91
        0
 64
     7
 65
   257
 75
     1
175
     1
 42
1.0
 92
        0
 66
   257
 43
1.0
 76
     1
 77
     6
 78
     2
 67
     7
 79
     5
170
     0
171
     0
290
     0
174
     0
 93
       13
 44
0.0
173
     0
291
     1
 45
0.0
1001
ACAD
1000
AcDbSavedByObjectVersion
1070
     0
  0
VISUALSTYLE
  5
AE0D
102
{ACAD_XDICTIONARY
360
AE68
102
}
102
{ACAD_REACTORS
330
AE0A
102
}
330
AE0A
100
AcDbVisualStyle
  2
Gouraud
 70
     2
 71
     2
 72
     2
 73
     1
 90
        2
 40
-0.6
 41
30.0
 62
     5
 63
     7
 74
     0
 91
        0
 64
     7
 65
   257
 75
     1
175
     1
 42
1.0
 92
        0
 66
     7
 43
1.0
 76
     1
 77
     6
 78
     2
 67
     7
 79
     5
170
     0
171
     0
290
     0
174
     0
 93
       13
 44
0.0
173
     0
291
     1
 45
0.0
1001
ACAD
1000
AcDbSavedByObjectVersion
1070
     0
  0
VISUALSTYLE
  5
AE0E
102
{ACAD_XDICTIONARY
360
AE6A
102
}
102
{ACAD_REACTORS
330
AE0A
102
}
330
AE0A
100
AcDbVisualStyle
  2
GouraudWithEdges
 70
     3
 71
     2
 72
     2
 73
     1
 90
        2
 40
-0.6
 41
30.0
 62
     5
 63
     7
 74
     1
 91
        0
 64
     7
 65
   257
 75
     1
175
     1
 42
1.0
 92
        0
 66
   257
 43
1.0
 76
     1
 77
     6
 78
     2
 67
     7
 79
     5
170
     0
171
     0
290
     0
174
     0
 93
       13
 44
0.0
173
     0
291
     1
 45
0.0
1001
ACAD
1000
AcDbSavedByObjectVersion
1070
     0
  0
VISUALSTYLE
  5
AE12
102
{ACAD_XDICTIONARY
360
AE72
102
}
102
{ACAD_REACTORS
330
AE0A
102
}
330
AE0A
100
AcDbVisualStyle
  2
Hidden
 70
     6
 71
     1
 72
     2
 73
     2
 90
        0
 40
-0.6
 41
-30.0
 62
     5
 63
     7
 74
     2
 91
        2
 64
     7
 65
   257
 75
     2
175
     1
 42
40.0
 92
        0
 66
   257
 43
1.0
 76
     1
 77
     6
 78
     2
 67
     7
 79
     3
170
     0
171
     0
290
     0
174
     0
 93
        1
 44
0.0
173
     0
291
     0
 45
0.0
1001
ACAD
1000
AcDbSavedByObjectVersion
1070
     0
  0
VISUALSTYLE
  5
AE20
102
{ACAD_XDICTIONARY
360
AE8E
102
}
102
{ACAD_REACTORS
330
AE0A
102
}
330
AE0A
100
AcDbVisualStyle
  2
JitterOff
 70
    20
 71
     2
 72
     2
 73
     0
 90
        0
 40
-0.6
 41
-30.0
 62
     5
 63
     7
 74
     1
 91
        4
 64
     7
 65
   257
 75
     1
175
     1
 42
1.0
 92
       10
 66
     7
 43
1.0
 76
     1
 77
     6
 78
     2
 67
     7
 79
     5
170
     0
171
     0
290
     0
174
     0
 93
        1
 44
0.0
173
     0
291
     1
 45
0.0
1001
ACAD
1000
AcDbSavedByObjectVersion
1070
     0
  0
VISUALSTYLE
  5
AE18
102
{ACAD_XDICTIONARY
360
AE7E
102
}
102
{ACAD_REACTORS
330
AE0A
102
}
330
AE0A
100
AcDbVisualStyle
  2
Linepattern
 70
    14
 71
     2
 72
     2
 73
     0
 90
        0
 40
-0.6
 41
-30.0
 62
     5
 63
     7
 74
     1
 91
        4
 64
     7
 65
   257
 75
     7
175
     7
 42
1.0
 92
        8
 66
     7
 43
1.0
 76
     1
 77
     6
 78
     2
 67
     7
 79
     5
170
     0
171
     0
290
     0
174
     0
 93
        1
 44
0.0
173
     0
291
     1
 45
0.0
1001
ACAD
1000
AcDbSavedByObjectVersion
1070
     0
  0
VISUALSTYLE
  5
AE21
102
{ACAD_XDICTIONARY
360
AE90
102
}
102
{ACAD_REACTORS
330
AE0A
102
}
330
AE0A
100
AcDbVisualStyle
  2
OverhangOff
 70
    21
 71
     2
 72
     2
 73
     0
 90
        0
 40
-0.6
 41
-30.0
 62
     5
 63
     7
 74
     1
 91
        4
 64
     7
 65
   257
 75
     1
175
     1
 42
1.0
 92
        9
 66
     7
 43
1.0
 76
     1
 77
     6
 78
     2
 67
     7
 79
     5
170
     0
171
     0
290
     0
174
     0
 93
        1
 44
0.0
173
     0
291
     1
 45
0.0
1001
ACAD
1000
AcDbSavedByObjectVersion
1070
     0
  0
VISUALSTYLE
  5
AE14
102
{ACAD_XDICTIONARY
360
AE76
102
}
102
{ACAD_REACTORS
330
AE0A
102
}
330
AE0A
100
AcDbVisualStyle
  2
Realistic
 70
     8
 71
     2
 72
     3
 73
     0
 90
        2
 40
-0.6
 41
30.0
 62
     5
 63
     7
 74
     0
 91
        0
 64
     7
 65
   257
 75
     1
175
     1
 42
1.0
 92
        8
 66
   257
 43
1.0
 76
     1
 77
     6
 78
     2
 67
     7
 79
     3
170
     0
171
     0
290
     0
174
     0
 93
       13
 44
0.0
173
     0
291
     0
 45
0.0
1001
ACAD
1000
AcDbSavedByObjectVersion
1070
     0
  0
VISUALSTYLE
  5
AE1F
102
{ACAD_XDICTIONARY
360
AE8C
102
}
102
{ACAD_REACTORS
330
AE0A
102
}
330
AE0A
100
AcDbVisualStyle
  2
Shaded
 70
    27
 71
     2
 72
     2
 73
     1
 90
        2
 40
-0.6
 41
30.0
 62
     5
 63
     7
 74
     0
 91
        4
 64
     7
 65
   257
 75
     1
175
     1
 42
1.0
 92
        8
 66
   257
 43
1.0
 76
     1
 77
     6
 78
     2
 67
     8
 79
     3
170
     0
171
     0
290
     0
174
     0
 93
        5
 44
0.0
173
     0
291
     0
 45
0.0
1001
ACAD
1000
AcDbSavedByObjectVersion
1070
     0
  0
VISUALSTYLE
  5
AE1E
102
{ACAD_XDICTIONARY
360
AE8A
102
}
102
{ACAD_REACTORS
330
AE0A
102
}
330
AE0A
100
AcDbVisualStyle
  2
Shaded with edges
 70
    26
 71
     2
 72
     2
 73
     1
 90
        2
 40
-0.6
 41
30.0
 62
     5
 63
     7
 74
     1
 91
       10
 64
     7
 65
   257
 75
     2
175
     1
 42
1.0
 92
        8
 66
   257
 43
1.0
 76
     1
 77
     6
 78
     2
 67
     7
 79
     3
170
     0
171
     0
290
     0
174
     0
 93
        5
 44
0.0
173
     0
291
     0
 45
0.0
1001
ACAD
1000
AcDbSavedByObjectVersion
1070
     0
  0
VISUALSTYLE
  5
AE1B
102
{ACAD_XDICTIONARY
360
AE84
102
}
102
{ACAD_REACTORS
330
AE0A
102
}
330
AE0A
100
AcDbVisualStyle
  2
Shades of Gray
 70
    23
 71
     2
 72
     2
 73
     3
 90
        0
 40
-0.6
 41
-30.0
 62
     5
 63
     7
 74
     2
 91
        2
 64
     7
 65
     7
 75
     1
175
     1
 42
40.0
 92
        8
 66
     7
 43
1.0
 76
     1
 77
     6
 78
     2
 67
     7
 79
     3
170
     0
171
     0
290
     0
174
     0
 93
        1
 44
0.0
173
     0
291
     0
 45
0.0
1001
ACAD
1000
AcDbSavedByObjectVersion
1070
     0
  0
VISUALSTYLE
  5
AE1C
102
{ACAD_XDICTIONARY
360
AE86
102
}
102
{ACAD_REACTORS
330
AE0A
102
}
330
AE0A
100
AcDbVisualStyle
  2
Sketchy
 70
    24
 71
     1
 72
     2
 73
     2
 90
        0
 40
-0.6
 41
-30.0
 62
     5
 63
     7
 74
     2
 91
        2
 64
     7
 65
     7
 75
     1
175
     1
 42
40.0
 92
       11
 66
     7
 43
1.0
 76
     1
 77
     6
 78
     2
 67
     7
 79
     6
170
     0
171
     0
290
     0
174
     0
 93
        1
 44
0.0
173
     0
291
     0
 45
0.0
1001
ACAD
1000
AcDbSavedByObjectVersion
1070
     0
  0
VISUALSTYLE
  5
AE17
102
{ACAD_XDICTIONARY
360
AE7C
102
}
102
{ACAD_REACTORS
330
AE0A
102
}
330
AE0A
100
AcDbVisualStyle
  2
Thicken
 70
    13
 71
     2
 72
     2
 73
     0
 90
        0
 40
-0.6
 41
-30.0
 62
     5
 63
     7
 74
     1
 91
        4
 64
     7
 65
   257
 75
     1
175
     1
 42
1.0
 92
       12
 66
     7
 43
1.0
 76
     1
 77
     6
 78
     2
 67
     7
 79
     5
170
     0
171
     0
290
     0
174
     0
 93
        1
 44
0.0
173
     0
291
     1
 45
0.0
1001
ACAD
1000
AcDbSavedByObjectVersion
1070
     0
  0
VISUALSTYLE
  5
AE11
102
{ACAD_XDICTIONARY
360
AE70
102
}
102
{ACAD_REACTORS
330
AE0A
102
}
330
AE0A
100
AcDbVisualStyle
  2
Wireframe
 70
     5
 71
     0
 72
     2
 73
     0
 90
        0
 40
-0.6
 41
-30.0
 62
     5
 63
     7
 74
     1
 91
        4
 64
     7
 65
   257
 75
     1
175
     1
 42
1.0
 92
        0
 66
   257
 43
1.0
 76
     1
 77
     6
 78
     2
 67
     7
 79
     3
170
     0
171
     0
290
     0
174
     0
 93
        1
 44
0.0
173
     0
291
     0
 45
0.0
1001
ACAD
1000
AcDbSavedByObjectVersion
1070
     0
  0
VISUALSTYLE
  5
AE1D
102
{ACAD_XDICTIONARY
360
AE88
102
}
102
{ACAD_REACTORS
330
AE0A
102
}
330
AE0A
100
AcDbVisualStyle
  2
X-Ray
 70
    25
 71
     2
 72
     2
 73
     1
 90
        1
 40
0.5
 41
-30.0
 62
     5
 63
     7
 74
     1
 91
        0
 64
     7
 65
   257
 75
     1
175
     1
 42
1.0
 92
        8
 66
     7
 43
1.0
 76
     1
 77
     6
 78
     2
 67
     7
 79
     3
170
     0
171
     0
290
     0
174
     0
 93
       13
 44
0.0
173
     0
291
     0
 45
0.0
1001
ACAD
1000
AcDbSavedByObjectVersion
1070
     0
  0
DICTIONARYVAR
  5
AE57
102
{ACAD_REACTORS
330
AE52
102
}
330
AE52
100
DictionaryVariables
280
     0
  1
1:1
  0
DICTIONARYVAR
  5
AE54
102
{ACAD_REACTORS
330
AE52
102
}
330
AE52
100
DictionaryVariables
280
     0
  1
STANDARD
  0
DICTIONARYVAR
  5
AE53
102
{ACAD_REACTORS
330
AE52
102
}
330
AE52
100
DictionaryVariables
280
     0
  1
STANDARD
  0
DICTIONARYVAR
  5
AE55
102
{ACAD_REACTORS
330
AE52
102
}
330
AE52
100
DictionaryVariables
280
     0
  1
Imperial24
  0
DICTIONARYVAR
  5
AE56
102
{ACAD_REACTORS
330
AE52
102
}
330
AE52
100
DictionaryVariables
280
     0
  1
Imperial24
  0
DICTIONARYVAR
  5
AE5A
102
{ACAD_REACTORS
330
AE52
102
}
330
AE52
100
DictionaryVariables
280
     0
  1
1
  0
DICTIONARYVAR
  5
AE59
102
{ACAD_REACTORS
330
AE52
102
}
330
AE52
100
DictionaryVariables
280
     0
  1
0
  0
DICTIONARYVAR
  5
AE58
102
{ACAD_REACTORS
330
AE52
102
}
330
AE52
100
DictionaryVariables
280
     0
  1
127
  0
DICTIONARYVAR
  5
AE5B
102
{ACAD_REACTORS
330
AE52
102
}
330
AE52
100
DictionaryVariables
280
     0
  1
2
  0
DICTIONARY
  5
AE98
330
AE3D
100
AcDbDictionary
280
     1
281
     1
  3
ACAD_XREC_ROUNDTRIP
360
AE99
  0
DICTIONARY
  5
AE9A
330
AE3E
100
AcDbDictionary
280
     1
281
     1
  3
ACAD_XREC_ROUNDTRIP
360
AE9B
  0
DICTIONARY
  5
AE9C
330
AE3F
100
AcDbDictionary
280
     1
281
     1
  3
ACAD_XREC_ROUNDTRIP
360
AE9D
  0
DICTIONARY
  5
ADFB
330
ADFA
100
AcDbDictionary
280
     1
281
     1
  3
ACAD_XREC_ROUNDTRIP
360
AE62
  3
BUMPTILE
360
ADFD
  3
DIFFUSETILE
360
ADFC
  3
OPACITYTILE
360
AE00
  3
REFLECTIONTILE
360
ADFF
  3
REFRACTIONTILE
360
AE01
  3
SPECULARTILE
360
ADFE
  0
DICTIONARY
  5
ADF3
330
ADF2
100
AcDbDictionary
280
     1
281
     1
  3
ACAD_XREC_ROUNDTRIP
360
AE61
  3
BUMPTILE
360
ADF5
  3
DIFFUSETILE
360
ADF4
  3
OPACITYTILE
360
ADF8
  3
REFLECTIONTILE
360
ADF7
  3
REFRACTIONTILE
360
ADF9
  3
SPECULARTILE
360
ADF6
  0
DICTIONARY
  5
AE03
330
AE02
100
AcDbDictionary
280
     1
281
     1
  3
ACAD_XREC_ROUNDTRIP
360
AE63
  3
BUMPTILE
360
AE05
  3
DIFFUSETILE
360
AE04
  3
OPACITYTILE
360
AE08
  3
REFLECTIONTILE
360
AE07
  3
REFRACTIONTILE
360
AE09
  3
SPECULARTILE
360
AE06
  0
DICTIONARY
  5
AE96
330
AE3B
100
AcDbDictionary
280
     1
281
     1
  3
ACAD_XREC_ROUNDTRIP
360
AE97
  0
DICTIONARY
  5
AE5D
330
AE25
100
AcDbDictionary
280
     1
281
     1
  3
ACAD_ROUNDTRIP_2008_TABLESTYLE_CELLSTYLEMAP
360
AE5E
  3
ACAD_XREC_ROUNDTRIP
360
AE94
  0
DICTIONARY
  5
AE6E
330
AE10
100
AcDbDictionary
280
     1
281
     1
  3
ACAD_XREC_ROUNDTRIP
360
AE6F
  0
DICTIONARY
  5
AE6C
330
AE0F
100
AcDbDictionary
280
     1
281
     1
  3
ACAD_XREC_ROUNDTRIP
360
AE6D
  0
DICTIONARY
  5
AE7A
330
AE16
100
AcDbDictionary
280
     1
281
     1
  3
ACAD_XREC_ROUNDTRIP
360
AE7B
  0
DICTIONARY
  5
AE82
330
AE1A
100
AcDbDictionary
280
     1
281
     1
  3
ACAD_XREC_ROUNDTRIP
360
AE83
  0
DICTIONARY
  5
AE74
330
AE13
100
AcDbDictionary
280
     1
281
     1
  3
ACAD_XREC_ROUNDTRIP
360
AE75
  0
DICTIONARY
  5
AE78
330
AE15
100
AcDbDictionary
280
     1
281
     1
  3
ACAD_XREC_ROUNDTRIP
360
AE79
  0
DICTIONARY
  5
AE92
330
AE22
100
AcDbDictionary
280
     1
281
     1
  3
ACAD_XREC_ROUNDTRIP
360
AE93
  0
DICTIONARY
  5
AE80
330
AE19
100
AcDbDictionary
280
     1
281
     1
  3
ACAD_XREC_ROUNDTRIP
360
AE81
  0
DICTIONARY
  5
AE64
330
AE0B
100
AcDbDictionary
280
     1
281
     1
  3
ACAD_XREC_ROUNDTRIP
360
AE65
  0
DICTIONARY
  5
AE66
330
AE0C
100
AcDbDictionary
280
     1
281
     1
  3
ACAD_XREC_ROUNDTRIP
360
AE67
  0
DICTIONARY
  5
AE68
330
AE0D
100
AcDbDictionary
280
     1
281
     1
  3
ACAD_XREC_ROUNDTRIP
360
AE69
  0
DICTIONARY
  5
AE6A
330
AE0E
100
AcDbDictionary
280
     1
281
     1
  3
ACAD_XREC_ROUNDTRIP
360
AE6B
  0
DICTIONARY
  5
AE72
330
AE12
100
AcDbDictionary
280
     1
281
     1
  3
ACAD_XREC_ROUNDTRIP
360
AE73
  0
DICTIONARY
  5
AE8E
330
AE20
100
AcDbDictionary
280
     1
281
     1
  3
ACAD_XREC_ROUNDTRIP
360
AE8F
  0
DICTIONARY
  5
AE7E
330
AE18
100
AcDbDictionary
280
     1
281
     1
  3
ACAD_XREC_ROUNDTRIP
360
AE7F
  0
DICTIONARY
  5
AE90
330
AE21
100
AcDbDictionary
280
     1
281
     1
  3
ACAD_XREC_ROUNDTRIP
360
AE91
  0
DICTIONARY
  5
AE76
330
AE14
100
AcDbDictionary
280
     1
281
     1
  3
ACAD_XREC_ROUNDTRIP
360
AE77
  0
DICTIONARY
  5
AE8C
330
AE1F
100
AcDbDictionary
280
     1
281
     1
  3
ACAD_XREC_ROUNDTRIP
360
AE8D
  0
DICTIONARY
  5
AE8A
330
AE1E
100
AcDbDictionary
280
     1
281
     1
  3
ACAD_XREC_ROUNDTRIP
360
AE8B
  0
DICTIONARY
  5
AE84
330
AE1B
100
AcDbDictionary
280
     1
281
     1
  3
ACAD_XREC_ROUNDTRIP
360
AE85
  0
DICTIONARY
  5
AE86
330
AE1C
100
AcDbDictionary
280
     1
281
     1
  3
ACAD_XREC_ROUNDTRIP
360
AE87
  0
DICTIONARY
  5
AE7C
330
AE17
100
AcDbDictionary
280
     1
281
     1
  3
ACAD_XREC_ROUNDTRIP
360
AE7D
  0
DICTIONARY
  5
AE70
330
AE11
100
AcDbDictionary
280
     1
281
     1
  3
ACAD_XREC_ROUNDTRIP
360
AE71
  0
DICTIONARY
  5
AE88
330
AE1D
100
AcDbDictionary
280
     1
281
     1
  3
ACAD_XREC_ROUNDTRIP
360
AE89
  0
XRECORD
  5
AE99
102
{ACAD_REACTORS
330
AE98
102
}
330
AE98
100
AcDbXrecord
280
     1
102
DISPLAYNAME
  1
Imperial24
102
FLAGS
 90
        0
  0
XRECORD
  5
AE9B
102
{ACAD_REACTORS
330
AE9A
102
}
330
AE9A
100
AcDbXrecord
280
     1
102
SHADEPLOT
 70
     0
102
SHADEPLOTRESLEVEL
 70
     2
102
SHADEPLOTCUSTOMDPI
 70
   300
  0
XRECORD
  5
AE9D
102
{ACAD_REACTORS
330
AE9C
102
}
330
AE9C
100
AcDbXrecord
280
     1
102
SHADEPLOT
 70
     0
102
SHADEPLOTRESLEVEL
 70
     2
102
SHADEPLOTCUSTOMDPI
 70
   300
  0
XRECORD
  5
AE62
102
{ACAD_REACTORS
330
ADFB
102
}
330
ADFB
100
AcDbXrecord
280
     1
102
MATERIAL
148
0.0
149
0.0
149
0.0
 93
        0
 94
      127
282
     0
 72
     0
 77
     0
171
     0
175
     0
179
     0
273
     0
  0
XRECORD
  5
ADFD
102
{ACAD_REACTORS
330
ADFB
102
}
330
ADFB
100
AcDbXrecord
280
     1
270
     1
271
     1
  0
XRECORD
  5
ADFC
102
{ACAD_REACTORS
330
ADFB
102
}
330
ADFB
100
AcDbXrecord
280
     1
270
     1
271
     1
  0
XRECORD
  5
AE00
102
{ACAD_REACTORS
330
ADFB
102
}
330
ADFB
100
AcDbXrecord
280
     1
270
     1
271
     1
  0
XRECORD
  5
ADFF
102
{ACAD_REACTORS
330
ADFB
102
}
330
ADFB
100
AcDbXrecord
280
     1
270
     1
271
     1
  0
XRECORD
  5
AE01
102
{ACAD_REACTORS
330
ADFB
102
}
330
ADFB
100
AcDbXrecord
280
     1
270
     1
271
     1
  0
XRECORD
  5
ADFE
102
{ACAD_REACTORS
330
ADFB
102
}
330
ADFB
100
AcDbXrecord
280
     1
270
     1
271
     1
  0
XRECORD
  5
AE61
102
{ACAD_REACTORS
330
ADF3
102
}
330
ADF3
100
AcDbXrecord
280
     1
102
MATERIAL
148
0.0
149
0.0
149
0.0
 93
        0
 94
      127
282
     0
 72
     0
 77
     0
171
     0
175
     0
179
     0
273
     0
  0
XRECORD
  5
ADF5
102
{ACAD_REACTORS
330
ADF3
102
}
330
ADF3
100
AcDbXrecord
280
     1
270
     1
271
     1
  0
XRECORD
  5
ADF4
102
{ACAD_REACTORS
330
ADF3
102
}
330
ADF3
100
AcDbXrecord
280
     1
270
     1
271
     1
  0
XRECORD
  5
ADF8
102
{ACAD_REACTORS
330
ADF3
102
}
330
ADF3
100
AcDbXrecord
280
     1
270
     1
271
     1
  0
XRECORD
  5
ADF7
102
{ACAD_REACTORS
330
ADF3
102
}
330
ADF3
100
AcDbXrecord
280
     1
270
     1
271
     1
  0
XRECORD
  5
ADF9
102
{ACAD_REACTORS
330
ADF3
102
}
330
ADF3
100
AcDbXrecord
280
     1
270
     1
271
     1
  0
XRECORD
  5
ADF6
102
{ACAD_REACTORS
330
ADF3
102
}
330
ADF3
100
AcDbXrecord
280
     1
270
     1
271
     1
  0
XRECORD
  5
AE63
102
{ACAD_REACTORS
330
AE03
102
}
330
AE03
100
AcDbXrecord
280
     1
102
MATERIAL
148
0.0
149
0.0
149
0.0
 93
        0
 94
      127
282
     0
 72
     0
 77
     0
171
     0
175
     0
179
     0
273
     0
  0
XRECORD
  5
AE05
102
{ACAD_REACTORS
330
AE03
102
}
330
AE03
100
AcDbXrecord
280
     1
270
     1
271
     1
  0
XRECORD
  5
AE04
102
{ACAD_REACTORS
330
AE03
102
}
330
AE03
100
AcDbXrecord
280
     1
270
     1
271
     1
  0
XRECORD
  5
AE08
102
{ACAD_REACTORS
330
AE03
102
}
330
AE03
100
AcDbXrecord
280
     1
270
     1
271
     1
  0
XRECORD
  5
AE07
102
{ACAD_REACTORS
330
AE03
102
}
330
AE03
100
AcDbXrecord
280
     1
270
     1
271
     1
  0
XRECORD
  5
AE09
102
{ACAD_REACTORS
330
AE03
102
}
330
AE03
100
AcDbXrecord
280
     1
270
     1
271
     1
  0
XRECORD
  5
AE06
102
{ACAD_REACTORS
330
AE03
102
}
330
AE03
100
AcDbXrecord
280
     1
270
     1
271
     1
  0
XRECORD
  5
AE97
102
{ACAD_REACTORS
330
AE96
102
}
330
AE96
100
AcDbXrecord
280
     1
102
DISPLAYNAME
  1
Imperial24
102
FLAGS
 90
        0
  0
CELLSTYLEMAP
  5
AE5E
102
{ACAD_REACTORS
330
AE5D
102
}
330
AE5D
100
AcDbCellStyleMap
 90
        3
300
CELLSTYLE
  1
TABLEFORMAT_BEGIN
 90
        5
170
     1
 91
        0
 92
    32768
 62
   257
 93
        1
300
CONTENTFORMAT
  1
CONTENTFORMAT_BEGIN
 90
        0
 91
        0
 92
      512
 93
        0
300

 40
0.0
140
1.0
 94
        5
 62
     0
340
AA78
144
0.25
309
CONTENTFORMAT_END
171
     0
 94
        0
309
TABLEFORMAT_END
  1
CELLSTYLE_BEGIN
 90
        1
 91
        1
300
_TITLE
309
CELLSTYLE_END
300
CELLSTYLE
  1
TABLEFORMAT_BEGIN
 90
        5
170
     1
 91
        0
 92
        0
 62
   257
 93
        1
300
CONTENTFORMAT
  1
CONTENTFORMAT_BEGIN
 90
        0
 91
        0
 92
      512
 93
        0
300

 40
0.0
140
1.0
 94
        5
 62
     0
340
AA78
144
0.18
309
CONTENTFORMAT_END
171
     0
 94
        0
309
TABLEFORMAT_END
  1
CELLSTYLE_BEGIN
 90
        2
 91
        1
300
_HEADER
309
CELLSTYLE_END
300
CELLSTYLE
  1
TABLEFORMAT_BEGIN
 90
        5
170
     1
 91
        0
 92
        0
 62
   257
 93
        1
300
CONTENTFORMAT
  1
CONTENTFORMAT_BEGIN
 90
        0
 91
        0
 92
      512
 93
        0
300

 40
0.0
140
1.0
 94
        2
 62
     0
340
AA78
144
0.18
309
CONTENTFORMAT_END
171
     0
 94
        0
309
TABLEFORMAT_END
  1
CELLSTYLE_BEGIN
 90
        3
 91
        2
300
_DATA
309
CELLSTYLE_END
  0
XRECORD
  5
AE94
102
{ACAD_REACTORS
330
AE5D
102
}
330
AE5D
100
AcDbXrecord
280
     1
102
ACAD_ROUNDTRIP_PRE2007_TABLESTYLE
 90
      512
 91
        0
  1

 92
      512
 93
        0
  2

 94
      512
 95
        0
  3

  0
XRECORD
  5
AE6F
102
{ACAD_REACTORS
330
AE6E
102
}
330
AE6E
100
AcDbXrecord
280
     1
102
RTVSPost2010Prop28
280
     1
102
RTVSPost2010PropOp28
 70
     1
102
RTVSPost2010Prop29
280
     1
102
RTVSPost2010PropOp29
 70
     1
102
RTVSPost2010Prop30
280
     0
102
RTVSPost2010PropOp30
 70
     1
102
RTVSPost2010Prop31
280
     0
102
RTVSPost2010PropOp31
 70
     1
102
RTVSPost2010Prop32
280
     0
102
RTVSPost2010PropOp32
 70
     1
102
RTVSPost2010Prop33
280
     0
102
RTVSPost2010PropOp33
 70
     1
102
RTVSPost2010Prop34
280
     0
102
RTVSPost2010PropOp34
 70
     1
102
RTVSPost2010Prop35
280
     0
102
RTVSPost2010PropOp35
 70
     1
102
RTVSPost2010Prop36
280
     0
102
RTVSPost2010PropOp36
 70
     1
102
RTVSPost2010Prop37
 90
       50
102
RTVSPost2010PropOp37
 70
     1
102
RTVSPost2010Prop38
140
0.0
102
RTVSPost2010PropOp38
 70
     1
102
RTVSPost2010Prop39
140
1.0
102
RTVSPost2010PropOp39
 70
     1
102
RTVSPost2010Prop40
 90
        0
102
RTVSPost2010PropOp40
 70
     1
102
RTVSPost2010Prop41ColorIndex
 90
       18
102
RTVSPost2010Prop41ColorRGB
 90
        0
102
RTVSPost2010PropOp41
 70
     1
102
RTVSPost2010Prop42
 90
       50
102
RTVSPost2010PropOp42
 70
     1
102
RTVSPost2010Prop43
 90
        3
102
RTVSPost2010PropOp43
 70
     1
102
RTVSPost2010Prop44ColorIndex
 90
        5
102
RTVSPost2010Prop44ColorRGB
 90
      255
102
RTVSPost2010PropOp44
 70
     1
102
RTVSPost2010Prop45
280
     0
102
RTVSPost2010PropOp45
 70
     1
102
RTVSPost2010Prop46
 90
       50
102
RTVSPost2010PropOp46
 70
     1
102
RTVSPost2010Prop47
 90
       50
102
RTVSPost2010PropOp47
 70
     1
102
RTVSPost2010Prop48
 90
       50
102
RTVSPost2010PropOp48
 70
     1
102
RTVSPost2010Prop49
280
     0
102
RTVSPost2010PropOp49
 70
     1
102
RTVSPost2010Prop50
 90
       50
102
RTVSPost2010PropOp50
 70
     1
102
RTVSPost2010Prop51ColorIndex
 90
      256
102
RTVSPost2010Prop51ColorRGB
 90
-16777216
102
RTVSPost2010PropOp51
 70
     0
102
RTVSPost2010Prop52
140
1.0
102
RTVSPost2010PropOp52
 70
     0
102
RTVSPost2010Prop53
 90
        2
102
RTVSPost2010PropOp53
 70
     1
102
RTVSPost2010Prop54
  1
strokes_ogs.tif
102
RTVSPost2010PropOp54
 70
     1
102
RTVSPost2010Prop55
280
     0
102
RTVSPost2010PropOp55
 70
     1
102
RTVSPost2010Prop56
140
1.0
102
RTVSPost2010PropOp56
 70
     1
102
RTVSPost2010Prop57
140
1.0
102
RTVSPost2010PropOp57
 70
     1
102
RTVSPropertyOp0
 70
     1
102
RTVSPropertyOp1
 70
     1
102
RTVSPropertyOp2
 70
     1
102
RTVSPropertyOp3
 70
     1
102
RTVSPropertyOp4
 70
     1
102
RTVSPropertyOp5
 70
     1
102
RTVSPropertyOp6
 70
     1
102
RTVSPropertyOp7
 70
     1
102
RTVSPropertyOp8
 70
     1
102
RTVSPropertyOp9
 70
     1
102
RTVSPropertyOp10
 70
     1
102
RTVSPropertyOp11
 70
     1
102
RTVSPropertyOp12
 70
     1
102
RTVSPropertyOp13
 70
     1
102
RTVSPropertyOp14
 70
     1
102
RTVSPropertyOp15
 70
     1
102
RTVSPropertyOp16
 70
     1
102
RTVSPropertyOp17
 70
     1
102
RTVSPropertyOp18
 70
     1
102
RTVSPropertyOp19
 70
     1
102
RTVSPropertyOp20
 70
     1
102
RTVSPropertyOp21
 70
     1
102
RTVSPropertyOp22
 70
     1
102
RTVSPropertyOp23
 70
     1
102
RTVSPropertyOp24
 70
     1
102
RTVSPropertyOp25
 70
     1
102
RTVSPropertyOp26
 70
     1
102
RTVSPropertyOp27
 70
     1
102
RTVSPropertyOp28
 70
     1
102
RTVSPropertyOp29
 70
     1
102
RTVSPropertyOp30
 70
     1
102
RTVSPropertyOp31
 70
     1
102
RTVSPropertyOp32
 70
     1
102
RTVSPropertyOp33
 70
     1
102
RTVSPropertyOp34
 70
     1
102
RTVSPropertyOp35
 70
     1
102
RTVSPropertyOp36
 70
     1
102
RTVSPropertyOp37
 70
     1
102
RTVSPropertyOp38
 70
     1
102
RTVSPropertyOp39
 70
     1
102
RTVSPropertyOp40
 70
     1
102
RTVSPropertyOp41
 70
     1
102
RTVSPropertyOp42
 70
     1
102
RTVSPropertyOp43
 70
     1
102
RTVSPropertyOp44
 70
     1
102
RTVSPropertyOp45
 70
     1
102
RTVSPropertyOp46
 70
     1
102
RTVSPropertyOp47
 70
     1
102
RTVSPropertyOp48
 70
     1
102
RTVSPropertyOp49
 70
     1
102
RTVSPropertyOp50
 70
     1
102
RTVSPropertyOp51
 70
     0
102
RTVSPropertyOp52
 70
     0
102
RTVSPropertyOp53
 70
     1
102
RTVSPropertyOp54
 70
     1
102
RTVSPropertyOp55
 70
     1
102
RTVSPropertyOp56
 70
     1
102
RTVSPropertyOp57
 70
     1
102
RTVSPropertyOp58
 70
     1
102
RTVSPropertyOp59
 70
     1
102
RTVSPropertyOp60
 70
     1
102
RTVSPropertyOp61
 70
     1
102
RTVSPropertyOp62
 70
     1
  0
XRECORD
  5
AE6D
102
{ACAD_REACTORS
330
AE6C
102
}
330
AE6C
100
AcDbXrecord
280
     1
102
RTVSPost2010Prop28
280
     0
102
RTVSPost2010PropOp28
 70
     1
102
RTVSPost2010Prop29
280
     1
102
RTVSPost2010PropOp29
 70
     1
102
RTVSPost2010Prop30
280
     1
102
RTVSPost2010PropOp30
 70
     1
102
RTVSPost2010Prop31
280
     0
102
RTVSPost2010PropOp31
 70
     1
102
RTVSPost2010Prop32
280
     0
102
RTVSPost2010PropOp32
 70
     1
102
RTVSPost2010Prop33
280
     0
102
RTVSPost2010PropOp33
 70
     1
102
RTVSPost2010Prop34
280
     0
102
RTVSPost2010PropOp34
 70
     1
102
RTVSPost2010Prop35
280
     0
102
RTVSPost2010PropOp35
 70
     1
102
RTVSPost2010Prop36
280
     0
102
RTVSPost2010PropOp36
 70
     1
102
RTVSPost2010Prop37
 90
       50
102
RTVSPost2010PropOp37
 70
     1
102
RTVSPost2010Prop38
140
0.0
102
RTVSPost2010PropOp38
 70
     1
102
RTVSPost2010Prop39
140
1.0
102
RTVSPost2010PropOp39
 70
     1
102
RTVSPost2010Prop40
 90
        0
102
RTVSPost2010PropOp40
 70
     1
102
RTVSPost2010Prop41ColorIndex
 90
       18
102
RTVSPost2010Prop41ColorRGB
 90
        0
102
RTVSPost2010PropOp41
 70
     1
102
RTVSPost2010Prop42
 90
       50
102
RTVSPost2010PropOp42
 70
     1
102
RTVSPost2010Prop43
 90
        3
102
RTVSPost2010PropOp43
 70
     1
102
RTVSPost2010Prop44ColorIndex
 90
        5
102
RTVSPost2010Prop44ColorRGB
 90
      255
102
RTVSPost2010PropOp44
 70
     1
102
RTVSPost2010Prop45
280
     0
102
RTVSPost2010PropOp45
 70
     1
102
RTVSPost2010Prop46
 90
       50
102
RTVSPost2010PropOp46
 70
     1
102
RTVSPost2010Prop47
 90
       50
102
RTVSPost2010PropOp47
 70
     1
102
RTVSPost2010Prop48
 90
       50
102
RTVSPost2010PropOp48
 70
     1
102
RTVSPost2010Prop49
280
     0
102
RTVSPost2010PropOp49
 70
     1
102
RTVSPost2010Prop50
 90
       50
102
RTVSPost2010PropOp50
 70
     1
102
RTVSPost2010Prop51ColorIndex
 90
      256
102
RTVSPost2010Prop51ColorRGB
 90
-16777216
102
RTVSPost2010PropOp51
 70
     0
102
RTVSPost2010Prop52
140
1.0
102
RTVSPost2010PropOp52
 70
     0
102
RTVSPost2010Prop53
 90
        2
102
RTVSPost2010PropOp53
 70
     1
102
RTVSPost2010Prop54
  1
strokes_ogs.tif
102
RTVSPost2010PropOp54
 70
     1
102
RTVSPost2010Prop55
280
     0
102
RTVSPost2010PropOp55
 70
     1
102
RTVSPost2010Prop56
140
1.0
102
RTVSPost2010PropOp56
 70
     1
102
RTVSPost2010Prop57
140
1.0
102
RTVSPost2010PropOp57
 70
     1
102
RTVSPropertyOp0
 70
     1
102
RTVSPropertyOp1
 70
     1
102
RTVSPropertyOp2
 70
     1
102
RTVSPropertyOp3
 70
     1
102
RTVSPropertyOp4
 70
     1
102
RTVSPropertyOp5
 70
     1
102
RTVSPropertyOp6
 70
     1
102
RTVSPropertyOp7
 70
     1
102
RTVSPropertyOp8
 70
     1
102
RTVSPropertyOp9
 70
     1
102
RTVSPropertyOp10
 70
     1
102
RTVSPropertyOp11
 70
     1
102
RTVSPropertyOp12
 70
     1
102
RTVSPropertyOp13
 70
     1
102
RTVSPropertyOp14
 70
     1
102
RTVSPropertyOp15
 70
     1
102
RTVSPropertyOp16
 70
     1
102
RTVSPropertyOp17
 70
     1
102
RTVSPropertyOp18
 70
     1
102
RTVSPropertyOp19
 70
     1
102
RTVSPropertyOp20
 70
     1
102
RTVSPropertyOp21
 70
     1
102
RTVSPropertyOp22
 70
     1
102
RTVSPropertyOp23
 70
     1
102
RTVSPropertyOp24
 70
     1
102
RTVSPropertyOp25
 70
     1
102
RTVSPropertyOp26
 70
     1
102
RTVSPropertyOp27
 70
     1
102
RTVSPropertyOp28
 70
     1
102
RTVSPropertyOp29
 70
     1
102
RTVSPropertyOp30
 70
     1
102
RTVSPropertyOp31
 70
     1
102
RTVSPropertyOp32
 70
     1
102
RTVSPropertyOp33
 70
     1
102
RTVSPropertyOp34
 70
     1
102
RTVSPropertyOp35
 70
     1
102
RTVSPropertyOp36
 70
     1
102
RTVSPropertyOp37
 70
     1
102
RTVSPropertyOp38
 70
     1
102
RTVSPropertyOp39
 70
     1
102
RTVSPropertyOp40
 70
     1
102
RTVSPropertyOp41
 70
     1
102
RTVSPropertyOp42
 70
     1
102
RTVSPropertyOp43
 70
     1
102
RTVSPropertyOp44
 70
     1
102
RTVSPropertyOp45
 70
     1
102
RTVSPropertyOp46
 70
     1
102
RTVSPropertyOp47
 70
     1
102
RTVSPropertyOp48
 70
     1
102
RTVSPropertyOp49
 70
     1
102
RTVSPropertyOp50
 70
     1
102
RTVSPropertyOp51
 70
     0
102
RTVSPropertyOp52
 70
     0
102
RTVSPropertyOp53
 70
     1
102
RTVSPropertyOp54
 70
     1
102
RTVSPropertyOp55
 70
     1
102
RTVSPropertyOp56
 70
     1
102
RTVSPropertyOp57
 70
     1
102
RTVSPropertyOp58
 70
     1
102
RTVSPropertyOp59
 70
     1
102
RTVSPropertyOp60
 70
     1
102
RTVSPropertyOp61
 70
     1
102
RTVSPropertyOp62
 70
     1
  0
XRECORD
  5
AE7B
102
{ACAD_REACTORS
330
AE7A
102
}
330
AE7A
100
AcDbXrecord
280
     1
102
RTVSPost2010Prop28
280
     0
102
RTVSPost2010PropOp28
 70
     1
102
RTVSPost2010Prop29
280
     1
102
RTVSPost2010PropOp29
 70
     1
102
RTVSPost2010Prop30
280
     1
102
RTVSPost2010PropOp30
 70
     1
102
RTVSPost2010Prop31
280
     0
102
RTVSPost2010PropOp31
 70
     1
102
RTVSPost2010Prop32
280
     0
102
RTVSPost2010PropOp32
 70
     1
102
RTVSPost2010Prop33
280
     0
102
RTVSPost2010PropOp33
 70
     1
102
RTVSPost2010Prop34
280
     0
102
RTVSPost2010PropOp34
 70
     1
102
RTVSPost2010Prop35
280
     0
102
RTVSPost2010PropOp35
 70
     1
102
RTVSPost2010Prop36
280
     0
102
RTVSPost2010PropOp36
 70
     1
102
RTVSPost2010Prop37
 90
       50
102
RTVSPost2010PropOp37
 70
     1
102
RTVSPost2010Prop38
140
0.0
102
RTVSPost2010PropOp38
 70
     1
102
RTVSPost2010Prop39
140
1.0
102
RTVSPost2010PropOp39
 70
     1
102
RTVSPost2010Prop40
 90
        0
102
RTVSPost2010PropOp40
 70
     1
102
RTVSPost2010Prop41ColorIndex
 90
       18
102
RTVSPost2010Prop41ColorRGB
 90
        0
102
RTVSPost2010PropOp41
 70
     1
102
RTVSPost2010Prop42
 90
       50
102
RTVSPost2010PropOp42
 70
     1
102
RTVSPost2010Prop43
 90
        3
102
RTVSPost2010PropOp43
 70
     1
102
RTVSPost2010Prop44ColorIndex
 90
        5
102
RTVSPost2010Prop44ColorRGB
 90
      255
102
RTVSPost2010PropOp44
 70
     1
102
RTVSPost2010Prop45
280
     0
102
RTVSPost2010PropOp45
 70
     1
102
RTVSPost2010Prop46
 90
       50
102
RTVSPost2010PropOp46
 70
     1
102
RTVSPost2010Prop47
 90
       50
102
RTVSPost2010PropOp47
 70
     1
102
RTVSPost2010Prop48
 90
       50
102
RTVSPost2010PropOp48
 70
     1
102
RTVSPost2010Prop49
280
     0
102
RTVSPost2010PropOp49
 70
     1
102
RTVSPost2010Prop50
 90
       50
102
RTVSPost2010PropOp50
 70
     1
102
RTVSPost2010Prop51ColorIndex
 90
      256
102
RTVSPost2010Prop51ColorRGB
 90
-16777216
102
RTVSPost2010PropOp51
 70
     0
102
RTVSPost2010Prop52
140
1.0
102
RTVSPost2010PropOp52
 70
     0
102
RTVSPost2010Prop53
 90
        2
102
RTVSPost2010PropOp53
 70
     1
102
RTVSPost2010Prop54
  1
strokes_ogs.tif
102
RTVSPost2010PropOp54
 70
     1
102
RTVSPost2010Prop55
280
     0
102
RTVSPost2010PropOp55
 70
     1
102
RTVSPost2010Prop56
140
1.0
102
RTVSPost2010PropOp56
 70
     1
102
RTVSPost2010Prop57
140
1.0
102
RTVSPost2010PropOp57
 70
     1
102
RTVSPropertyOp0
 70
     1
102
RTVSPropertyOp1
 70
     1
102
RTVSPropertyOp2
 70
     1
102
RTVSPropertyOp3
 70
     1
102
RTVSPropertyOp4
 70
     1
102
RTVSPropertyOp5
 70
     1
102
RTVSPropertyOp6
 70
     1
102
RTVSPropertyOp7
 70
     1
102
RTVSPropertyOp8
 70
     1
102
RTVSPropertyOp9
 70
     1
102
RTVSPropertyOp10
 70
     1
102
RTVSPropertyOp11
 70
     1
102
RTVSPropertyOp12
 70
     1
102
RTVSPropertyOp13
 70
     1
102
RTVSPropertyOp14
 70
     1
102
RTVSPropertyOp15
 70
     1
102
RTVSPropertyOp16
 70
     1
102
RTVSPropertyOp17
 70
     1
102
RTVSPropertyOp18
 70
     1
102
RTVSPropertyOp19
 70
     1
102
RTVSPropertyOp20
 70
     1
102
RTVSPropertyOp21
 70
     1
102
RTVSPropertyOp22
 70
     1
102
RTVSPropertyOp23
 70
     1
102
RTVSPropertyOp24
 70
     1
102
RTVSPropertyOp25
 70
     1
102
RTVSPropertyOp26
 70
     1
102
RTVSPropertyOp27
 70
     1
102
RTVSPropertyOp28
 70
     1
102
RTVSPropertyOp29
 70
     1
102
RTVSPropertyOp30
 70
     1
102
RTVSPropertyOp31
 70
     1
102
RTVSPropertyOp32
 70
     1
102
RTVSPropertyOp33
 70
     1
102
RTVSPropertyOp34
 70
     1
102
RTVSPropertyOp35
 70
     1
102
RTVSPropertyOp36
 70
     1
102
RTVSPropertyOp37
 70
     1
102
RTVSPropertyOp38
 70
     1
102
RTVSPropertyOp39
 70
     1
102
RTVSPropertyOp40
 70
     1
102
RTVSPropertyOp41
 70
     1
102
RTVSPropertyOp42
 70
     1
102
RTVSPropertyOp43
 70
     1
102
RTVSPropertyOp44
 70
     1
102
RTVSPropertyOp45
 70
     1
102
RTVSPropertyOp46
 70
     1
102
RTVSPropertyOp47
 70
     1
102
RTVSPropertyOp48
 70
     1
102
RTVSPropertyOp49
 70
     1
102
RTVSPropertyOp50
 70
     1
102
RTVSPropertyOp51
 70
     0
102
RTVSPropertyOp52
 70
     0
102
RTVSPropertyOp53
 70
     1
102
RTVSPropertyOp54
 70
     1
102
RTVSPropertyOp55
 70
     1
102
RTVSPropertyOp56
 70
     1
102
RTVSPropertyOp57
 70
     1
102
RTVSPropertyOp58
 70
     1
102
RTVSPropertyOp59
 70
     1
102
RTVSPropertyOp60
 70
     1
102
RTVSPropertyOp61
 70
     1
102
RTVSPropertyOp62
 70
     1
  0
XRECORD
  5
AE83
102
{ACAD_REACTORS
330
AE82
102
}
330
AE82
100
AcDbXrecord
280
     1
102
RTVSPost2010Prop28
280
     0
102
RTVSPost2010PropOp28
 70
     1
102
RTVSPost2010Prop29
280
     1
102
RTVSPost2010PropOp29
 70
     1
102
RTVSPost2010Prop30
280
     1
102
RTVSPost2010PropOp30
 70
     1
102
RTVSPost2010Prop31
280
     0
102
RTVSPost2010PropOp31
 70
     1
102
RTVSPost2010Prop32
280
     0
102
RTVSPost2010PropOp32
 70
     1
102
RTVSPost2010Prop33
280
     0
102
RTVSPost2010PropOp33
 70
     1
102
RTVSPost2010Prop34
280
     0
102
RTVSPost2010PropOp34
 70
     1
102
RTVSPost2010Prop35
280
     0
102
RTVSPost2010PropOp35
 70
     1
102
RTVSPost2010Prop36
280
     0
102
RTVSPost2010PropOp36
 70
     1
102
RTVSPost2010Prop37
 90
       50
102
RTVSPost2010PropOp37
 70
     1
102
RTVSPost2010Prop38
140
0.0
102
RTVSPost2010PropOp38
 70
     1
102
RTVSPost2010Prop39
140
1.0
102
RTVSPost2010PropOp39
 70
     1
102
RTVSPost2010Prop40
 90
        0
102
RTVSPost2010PropOp40
 70
     1
102
RTVSPost2010Prop41ColorIndex
 90
       18
102
RTVSPost2010Prop41ColorRGB
 90
        0
102
RTVSPost2010PropOp41
 70
     1
102
RTVSPost2010Prop42
 90
       50
102
RTVSPost2010PropOp42
 70
     1
102
RTVSPost2010Prop43
 90
        3
102
RTVSPost2010PropOp43
 70
     1
102
RTVSPost2010Prop44ColorIndex
 90
        5
102
RTVSPost2010Prop44ColorRGB
 90
      255
102
RTVSPost2010PropOp44
 70
     1
102
RTVSPost2010Prop45
280
     0
102
RTVSPost2010PropOp45
 70
     1
102
RTVSPost2010Prop46
 90
       50
102
RTVSPost2010PropOp46
 70
     1
102
RTVSPost2010Prop47
 90
       50
102
RTVSPost2010PropOp47
 70
     1
102
RTVSPost2010Prop48
 90
       50
102
RTVSPost2010PropOp48
 70
     1
102
RTVSPost2010Prop49
280
     0
102
RTVSPost2010PropOp49
 70
     1
102
RTVSPost2010Prop50
 90
       50
102
RTVSPost2010PropOp50
 70
     1
102
RTVSPost2010Prop51ColorIndex
 90
      256
102
RTVSPost2010Prop51ColorRGB
 90
-16777216
102
RTVSPost2010PropOp51
 70
     0
102
RTVSPost2010Prop52
140
1.0
102
RTVSPost2010PropOp52
 70
     0
102
RTVSPost2010Prop53
 90
        2
102
RTVSPost2010PropOp53
 70
     1
102
RTVSPost2010Prop54
  1
strokes_ogs.tif
102
RTVSPost2010PropOp54
 70
     1
102
RTVSPost2010Prop55
280
     0
102
RTVSPost2010PropOp55
 70
     1
102
RTVSPost2010Prop56
140
1.0
102
RTVSPost2010PropOp56
 70
     1
102
RTVSPost2010Prop57
140
1.0
102
RTVSPost2010PropOp57
 70
     1
102
RTVSPropertyOp0
 70
     1
102
RTVSPropertyOp1
 70
     1
102
RTVSPropertyOp2
 70
     1
102
RTVSPropertyOp3
 70
     1
102
RTVSPropertyOp4
 70
     1
102
RTVSPropertyOp5
 70
     1
102
RTVSPropertyOp6
 70
     1
102
RTVSPropertyOp7
 70
     1
102
RTVSPropertyOp8
 70
     1
102
RTVSPropertyOp9
 70
     1
102
RTVSPropertyOp10
 70
     1
102
RTVSPropertyOp11
 70
     1
102
RTVSPropertyOp12
 70
     1
102
RTVSPropertyOp13
 70
     1
102
RTVSPropertyOp14
 70
     1
102
RTVSPropertyOp15
 70
     1
102
RTVSPropertyOp16
 70
     1
102
RTVSPropertyOp17
 70
     1
102
RTVSPropertyOp18
 70
     1
102
RTVSPropertyOp19
 70
     1
102
RTVSPropertyOp20
 70
     1
102
RTVSPropertyOp21
 70
     1
102
RTVSPropertyOp22
 70
     1
102
RTVSPropertyOp23
 70
     1
102
RTVSPropertyOp24
 70
     1
102
RTVSPropertyOp25
 70
     1
102
RTVSPropertyOp26
 70
     1
102
RTVSPropertyOp27
 70
     1
102
RTVSPropertyOp28
 70
     1
102
RTVSPropertyOp29
 70
     1
102
RTVSPropertyOp30
 70
     1
102
RTVSPropertyOp31
 70
     1
102
RTVSPropertyOp32
 70
     1
102
RTVSPropertyOp33
 70
     1
102
RTVSPropertyOp34
 70
     1
102
RTVSPropertyOp35
 70
     1
102
RTVSPropertyOp36
 70
     1
102
RTVSPropertyOp37
 70
     1
102
RTVSPropertyOp38
 70
     1
102
RTVSPropertyOp39
 70
     1
102
RTVSPropertyOp40
 70
     1
102
RTVSPropertyOp41
 70
     1
102
RTVSPropertyOp42
 70
     1
102
RTVSPropertyOp43
 70
     1
102
RTVSPropertyOp44
 70
     1
102
RTVSPropertyOp45
 70
     1
102
RTVSPropertyOp46
 70
     1
102
RTVSPropertyOp47
 70
     1
102
RTVSPropertyOp48
 70
     1
102
RTVSPropertyOp49
 70
     1
102
RTVSPropertyOp50
 70
     1
102
RTVSPropertyOp51
 70
     0
102
RTVSPropertyOp52
 70
     0
102
RTVSPropertyOp53
 70
     1
102
RTVSPropertyOp54
 70
     1
102
RTVSPropertyOp55
 70
     1
102
RTVSPropertyOp56
 70
     1
102
RTVSPropertyOp57
 70
     1
102
RTVSPropertyOp58
 70
     1
102
RTVSPropertyOp59
 70
     1
102
RTVSPropertyOp60
 70
     1
102
RTVSPropertyOp61
 70
     1
102
RTVSPropertyOp62
 70
     1
  0
XRECORD
  5
AE75
102
{ACAD_REACTORS
330
AE74
102
}
330
AE74
100
AcDbXrecord
280
     1
102
RTVSPost2010Prop28
280
     0
102
RTVSPost2010PropOp28
 70
     1
102
RTVSPost2010Prop29
280
     1
102
RTVSPost2010PropOp29
 70
     1
102
RTVSPost2010Prop30
280
     1
102
RTVSPost2010PropOp30
 70
     1
102
RTVSPost2010Prop31
280
     0
102
RTVSPost2010PropOp31
 70
     1
102
RTVSPost2010Prop32
280
     0
102
RTVSPost2010PropOp32
 70
     1
102
RTVSPost2010Prop33
280
     0
102
RTVSPost2010PropOp33
 70
     1
102
RTVSPost2010Prop34
280
     0
102
RTVSPost2010PropOp34
 70
     1
102
RTVSPost2010Prop35
280
     0
102
RTVSPost2010PropOp35
 70
     1
102
RTVSPost2010Prop36
280
     0
102
RTVSPost2010PropOp36
 70
     1
102
RTVSPost2010Prop37
 90
       50
102
RTVSPost2010PropOp37
 70
     1
102
RTVSPost2010Prop38
140
0.0
102
RTVSPost2010PropOp38
 70
     1
102
RTVSPost2010Prop39
140
1.0
102
RTVSPost2010PropOp39
 70
     1
102
RTVSPost2010Prop40
 90
        0
102
RTVSPost2010PropOp40
 70
     1
102
RTVSPost2010Prop41ColorIndex
 90
       18
102
RTVSPost2010Prop41ColorRGB
 90
        0
102
RTVSPost2010PropOp41
 70
     1
102
RTVSPost2010Prop42
 90
       50
102
RTVSPost2010PropOp42
 70
     1
102
RTVSPost2010Prop43
 90
        3
102
RTVSPost2010PropOp43
 70
     1
102
RTVSPost2010Prop44ColorIndex
 90
        5
102
RTVSPost2010Prop44ColorRGB
 90
      255
102
RTVSPost2010PropOp44
 70
     1
102
RTVSPost2010Prop45
280
     0
102
RTVSPost2010PropOp45
 70
     1
102
RTVSPost2010Prop46
 90
       50
102
RTVSPost2010PropOp46
 70
     1
102
RTVSPost2010Prop47
 90
       50
102
RTVSPost2010PropOp47
 70
     1
102
RTVSPost2010Prop48
 90
       50
102
RTVSPost2010PropOp48
 70
     1
102
RTVSPost2010Prop49
280
     0
102
RTVSPost2010PropOp49
 70
     1
102
RTVSPost2010Prop50
 90
       50
102
RTVSPost2010PropOp50
 70
     1
102
RTVSPost2010Prop51ColorIndex
 90
      256
102
RTVSPost2010Prop51ColorRGB
 90
-16777216
102
RTVSPost2010PropOp51
 70
     0
102
RTVSPost2010Prop52
140
1.0
102
RTVSPost2010PropOp52
 70
     0
102
RTVSPost2010Prop53
 90
        2
102
RTVSPost2010PropOp53
 70
     1
102
RTVSPost2010Prop54
  1
strokes_ogs.tif
102
RTVSPost2010PropOp54
 70
     1
102
RTVSPost2010Prop55
280
     0
102
RTVSPost2010PropOp55
 70
     1
102
RTVSPost2010Prop56
140
1.0
102
RTVSPost2010PropOp56
 70
     1
102
RTVSPost2010Prop57
140
1.0
102
RTVSPost2010PropOp57
 70
     1
102
RTVSPropertyOp0
 70
     1
102
RTVSPropertyOp1
 70
     1
102
RTVSPropertyOp2
 70
     1
102
RTVSPropertyOp3
 70
     1
102
RTVSPropertyOp4
 70
     1
102
RTVSPropertyOp5
 70
     1
102
RTVSPropertyOp6
 70
     1
102
RTVSPropertyOp7
 70
     1
102
RTVSPropertyOp8
 70
     1
102
RTVSPropertyOp9
 70
     1
102
RTVSPropertyOp10
 70
     1
102
RTVSPropertyOp11
 70
     1
102
RTVSPropertyOp12
 70
     1
102
RTVSPropertyOp13
 70
     1
102
RTVSPropertyOp14
 70
     1
102
RTVSPropertyOp15
 70
     1
102
RTVSPropertyOp16
 70
     1
102
RTVSPropertyOp17
 70
     1
102
RTVSPropertyOp18
 70
     1
102
RTVSPropertyOp19
 70
     1
102
RTVSPropertyOp20
 70
     1
102
RTVSPropertyOp21
 70
     1
102
RTVSPropertyOp22
 70
     1
102
RTVSPropertyOp23
 70
     1
102
RTVSPropertyOp24
 70
     1
102
RTVSPropertyOp25
 70
     1
102
RTVSPropertyOp26
 70
     1
102
RTVSPropertyOp27
 70
     1
102
RTVSPropertyOp28
 70
     1
102
RTVSPropertyOp29
 70
     1
102
RTVSPropertyOp30
 70
     1
102
RTVSPropertyOp31
 70
     1
102
RTVSPropertyOp32
 70
     1
102
RTVSPropertyOp33
 70
     1
102
RTVSPropertyOp34
 70
     1
102
RTVSPropertyOp35
 70
     1
102
RTVSPropertyOp36
 70
     1
102
RTVSPropertyOp37
 70
     1
102
RTVSPropertyOp38
 70
     1
102
RTVSPropertyOp39
 70
     1
102
RTVSPropertyOp40
 70
     1
102
RTVSPropertyOp41
 70
     1
102
RTVSPropertyOp42
 70
     1
102
RTVSPropertyOp43
 70
     1
102
RTVSPropertyOp44
 70
     1
102
RTVSPropertyOp45
 70
     1
102
RTVSPropertyOp46
 70
     1
102
RTVSPropertyOp47
 70
     1
102
RTVSPropertyOp48
 70
     1
102
RTVSPropertyOp49
 70
     1
102
RTVSPropertyOp50
 70
     1
102
RTVSPropertyOp51
 70
     0
102
RTVSPropertyOp52
 70
     0
102
RTVSPropertyOp53
 70
     1
102
RTVSPropertyOp54
 70
     1
102
RTVSPropertyOp55
 70
     1
102
RTVSPropertyOp56
 70
     1
102
RTVSPropertyOp57
 70
     1
102
RTVSPropertyOp58
 70
     1
102
RTVSPropertyOp59
 70
     1
102
RTVSPropertyOp60
 70
     1
102
RTVSPropertyOp61
 70
     1
102
RTVSPropertyOp62
 70
     1
  0
XRECORD
  5
AE79
102
{ACAD_REACTORS
330
AE78
102
}
330
AE78
100
AcDbXrecord
280
     1
102
RTVSPost2010Prop28
280
     0
102
RTVSPost2010PropOp28
 70
     1
102
RTVSPost2010Prop29
280
     1
102
RTVSPost2010PropOp29
 70
     1
102
RTVSPost2010Prop30
280
     1
102
RTVSPost2010PropOp30
 70
     1
102
RTVSPost2010Prop31
280
     0
102
RTVSPost2010PropOp31
 70
     1
102
RTVSPost2010Prop32
280
     0
102
RTVSPost2010PropOp32
 70
     1
102
RTVSPost2010Prop33
280
     0
102
RTVSPost2010PropOp33
 70
     1
102
RTVSPost2010Prop34
280
     0
102
RTVSPost2010PropOp34
 70
     1
102
RTVSPost2010Prop35
280
     0
102
RTVSPost2010PropOp35
 70
     1
102
RTVSPost2010Prop36
280
     0
102
RTVSPost2010PropOp36
 70
     1
102
RTVSPost2010Prop37
 90
       50
102
RTVSPost2010PropOp37
 70
     1
102
RTVSPost2010Prop38
140
0.0
102
RTVSPost2010PropOp38
 70
     1
102
RTVSPost2010Prop39
140
1.0
102
RTVSPost2010PropOp39
 70
     1
102
RTVSPost2010Prop40
 90
        0
102
RTVSPost2010PropOp40
 70
     1
102
RTVSPost2010Prop41ColorIndex
 90
       18
102
RTVSPost2010Prop41ColorRGB
 90
        0
102
RTVSPost2010PropOp41
 70
     1
102
RTVSPost2010Prop42
 90
       50
102
RTVSPost2010PropOp42
 70
     1
102
RTVSPost2010Prop43
 90
        3
102
RTVSPost2010PropOp43
 70
     1
102
RTVSPost2010Prop44ColorIndex
 90
        5
102
RTVSPost2010Prop44ColorRGB
 90
      255
102
RTVSPost2010PropOp44
 70
     1
102
RTVSPost2010Prop45
280
     0
102
RTVSPost2010PropOp45
 70
     1
102
RTVSPost2010Prop46
 90
       50
102
RTVSPost2010PropOp46
 70
     1
102
RTVSPost2010Prop47
 90
       50
102
RTVSPost2010PropOp47
 70
     1
102
RTVSPost2010Prop48
 90
       50
102
RTVSPost2010PropOp48
 70
     1
102
RTVSPost2010Prop49
280
     0
102
RTVSPost2010PropOp49
 70
     1
102
RTVSPost2010Prop50
 90
       50
102
RTVSPost2010PropOp50
 70
     1
102
RTVSPost2010Prop51ColorIndex
 90
      256
102
RTVSPost2010Prop51ColorRGB
 90
-16777216
102
RTVSPost2010PropOp51
 70
     0
102
RTVSPost2010Prop52
140
1.0
102
RTVSPost2010PropOp52
 70
     0
102
RTVSPost2010Prop53
 90
        2
102
RTVSPost2010PropOp53
 70
     1
102
RTVSPost2010Prop54
  1
strokes_ogs.tif
102
RTVSPost2010PropOp54
 70
     1
102
RTVSPost2010Prop55
280
     0
102
RTVSPost2010PropOp55
 70
     1
102
RTVSPost2010Prop56
140
1.0
102
RTVSPost2010PropOp56
 70
     1
102
RTVSPost2010Prop57
140
1.0
102
RTVSPost2010PropOp57
 70
     1
102
RTVSPropertyOp0
 70
     1
102
RTVSPropertyOp1
 70
     1
102
RTVSPropertyOp2
 70
     1
102
RTVSPropertyOp3
 70
     1
102
RTVSPropertyOp4
 70
     1
102
RTVSPropertyOp5
 70
     1
102
RTVSPropertyOp6
 70
     1
102
RTVSPropertyOp7
 70
     1
102
RTVSPropertyOp8
 70
     1
102
RTVSPropertyOp9
 70
     1
102
RTVSPropertyOp10
 70
     1
102
RTVSPropertyOp11
 70
     1
102
RTVSPropertyOp12
 70
     1
102
RTVSPropertyOp13
 70
     1
102
RTVSPropertyOp14
 70
     1
102
RTVSPropertyOp15
 70
     1
102
RTVSPropertyOp16
 70
     1
102
RTVSPropertyOp17
 70
     1
102
RTVSPropertyOp18
 70
     1
102
RTVSPropertyOp19
 70
     1
102
RTVSPropertyOp20
 70
     1
102
RTVSPropertyOp21
 70
     1
102
RTVSPropertyOp22
 70
     1
102
RTVSPropertyOp23
 70
     1
102
RTVSPropertyOp24
 70
     1
102
RTVSPropertyOp25
 70
     1
102
RTVSPropertyOp26
 70
     1
102
RTVSPropertyOp27
 70
     1
102
RTVSPropertyOp28
 70
     1
102
RTVSPropertyOp29
 70
     1
102
RTVSPropertyOp30
 70
     1
102
RTVSPropertyOp31
 70
     1
102
RTVSPropertyOp32
 70
     1
102
RTVSPropertyOp33
 70
     1
102
RTVSPropertyOp34
 70
     1
102
RTVSPropertyOp35
 70
     1
102
RTVSPropertyOp36
 70
     1
102
RTVSPropertyOp37
 70
     1
102
RTVSPropertyOp38
 70
     1
102
RTVSPropertyOp39
 70
     1
102
RTVSPropertyOp40
 70
     1
102
RTVSPropertyOp41
 70
     1
102
RTVSPropertyOp42
 70
     1
102
RTVSPropertyOp43
 70
     1
102
RTVSPropertyOp44
 70
     1
102
RTVSPropertyOp45
 70
     1
102
RTVSPropertyOp46
 70
     1
102
RTVSPropertyOp47
 70
     1
102
RTVSPropertyOp48
 70
     1
102
RTVSPropertyOp49
 70
     1
102
RTVSPropertyOp50
 70
     1
102
RTVSPropertyOp51
 70
     0
102
RTVSPropertyOp52
 70
     0
102
RTVSPropertyOp53
 70
     1
102
RTVSPropertyOp54
 70
     1
102
RTVSPropertyOp55
 70
     1
102
RTVSPropertyOp56
 70
     1
102
RTVSPropertyOp57
 70
     1
102
RTVSPropertyOp58
 70
     1
102
RTVSPropertyOp59
 70
     1
102
RTVSPropertyOp60
 70
     1
102
RTVSPropertyOp61
 70
     1
102
RTVSPropertyOp62
 70
     1
  0
XRECORD
  5
AE93
102
{ACAD_REACTORS
330
AE92
102
}
330
AE92
100
AcDbXrecord
280
     1
102
RTVSPost2010Prop28
280
     0
102
RTVSPost2010PropOp28
 70
     1
102
RTVSPost2010Prop29
280
     1
102
RTVSPost2010PropOp29
 70
     1
102
RTVSPost2010Prop30
280
     1
102
RTVSPost2010PropOp30
 70
     1
102
RTVSPost2010Prop31
280
     0
102
RTVSPost2010PropOp31
 70
     1
102
RTVSPost2010Prop32
280
     0
102
RTVSPost2010PropOp32
 70
     1
102
RTVSPost2010Prop33
280
     0
102
RTVSPost2010PropOp33
 70
     1
102
RTVSPost2010Prop34
280
     0
102
RTVSPost2010PropOp34
 70
     1
102
RTVSPost2010Prop35
280
     0
102
RTVSPost2010PropOp35
 70
     1
102
RTVSPost2010Prop36
280
     0
102
RTVSPost2010PropOp36
 70
     1
102
RTVSPost2010Prop37
 90
       50
102
RTVSPost2010PropOp37
 70
     0
102
RTVSPost2010Prop38
140
0.0
102
RTVSPost2010PropOp38
 70
     0
102
RTVSPost2010Prop39
140
1.0
102
RTVSPost2010PropOp39
 70
     0
102
RTVSPost2010Prop40
 90
        0
102
RTVSPost2010PropOp40
 70
     0
102
RTVSPost2010Prop41ColorIndex
 90
       18
102
RTVSPost2010Prop41ColorRGB
 90
        0
102
RTVSPost2010PropOp41
 70
     0
102
RTVSPost2010Prop42
 90
       50
102
RTVSPost2010PropOp42
 70
     0
102
RTVSPost2010Prop43
 90
        3
102
RTVSPost2010PropOp43
 70
     0
102
RTVSPost2010Prop44ColorIndex
 90
        5
102
RTVSPost2010Prop44ColorRGB
 90
      255
102
RTVSPost2010PropOp44
 70
     0
102
RTVSPost2010Prop45
280
     0
102
RTVSPost2010PropOp45
 70
     1
102
RTVSPost2010Prop46
 90
       50
102
RTVSPost2010PropOp46
 70
     0
102
RTVSPost2010Prop47
 90
       50
102
RTVSPost2010PropOp47
 70
     0
102
RTVSPost2010Prop48
 90
       50
102
RTVSPost2010PropOp48
 70
     0
102
RTVSPost2010Prop49
280
     0
102
RTVSPost2010PropOp49
 70
     1
102
RTVSPost2010Prop50
 90
       50
102
RTVSPost2010PropOp50
 70
     0
102
RTVSPost2010Prop51ColorIndex
 90
      256
102
RTVSPost2010Prop51ColorRGB
 90
-16777216
102
RTVSPost2010PropOp51
 70
     0
102
RTVSPost2010Prop52
140
1.0
102
RTVSPost2010PropOp52
 70
     0
102
RTVSPost2010Prop53
 90
        2
102
RTVSPost2010PropOp53
 70
     0
102
RTVSPost2010Prop54
  1
strokes_ogs.tif
102
RTVSPost2010PropOp54
 70
     0
102
RTVSPost2010Prop55
280
     0
102
RTVSPost2010PropOp55
 70
     1
102
RTVSPost2010Prop56
140
1.0
102
RTVSPost2010PropOp56
 70
     0
102
RTVSPost2010Prop57
140
1.0
102
RTVSPost2010PropOp57
 70
     0
102
RTVSPropertyOp0
 70
     0
102
RTVSPropertyOp1
 70
     0
102
RTVSPropertyOp2
 70
     0
102
RTVSPropertyOp3
 70
     0
102
RTVSPropertyOp4
 70
     0
102
RTVSPropertyOp5
 70
     0
102
RTVSPropertyOp6
 70
     0
102
RTVSPropertyOp7
 70
     0
102
RTVSPropertyOp8
 70
     0
102
RTVSPropertyOp9
 70
     0
102
RTVSPropertyOp10
 70
     0
102
RTVSPropertyOp11
 70
     0
102
RTVSPropertyOp12
 70
     0
102
RTVSPropertyOp13
 70
     0
102
RTVSPropertyOp14
 70
     2
102
RTVSPropertyOp15
 70
     0
102
RTVSPropertyOp16
 70
     0
102
RTVSPropertyOp17
 70
     0
102
RTVSPropertyOp18
 70
     0
102
RTVSPropertyOp19
 70
     0
102
RTVSPropertyOp20
 70
     0
102
RTVSPropertyOp21
 70
     0
102
RTVSPropertyOp22
 70
     0
102
RTVSPropertyOp23
 70
     0
102
RTVSPropertyOp24
 70
     0
102
RTVSPropertyOp25
 70
     0
102
RTVSPropertyOp26
 70
     0
102
RTVSPropertyOp27
 70
     0
102
RTVSPropertyOp28
 70
     1
102
RTVSPropertyOp29
 70
     1
102
RTVSPropertyOp30
 70
     1
102
RTVSPropertyOp31
 70
     1
102
RTVSPropertyOp32
 70
     1
102
RTVSPropertyOp33
 70
     1
102
RTVSPropertyOp34
 70
     1
102
RTVSPropertyOp35
 70
     1
102
RTVSPropertyOp36
 70
     1
102
RTVSPropertyOp37
 70
     0
102
RTVSPropertyOp38
 70
     0
102
RTVSPropertyOp39
 70
     0
102
RTVSPropertyOp40
 70
     0
102
RTVSPropertyOp41
 70
     0
102
RTVSPropertyOp42
 70
     0
102
RTVSPropertyOp43
 70
     0
102
RTVSPropertyOp44
 70
     0
102
RTVSPropertyOp45
 70
     1
102
RTVSPropertyOp46
 70
     0
102
RTVSPropertyOp47
 70
     0
102
RTVSPropertyOp48
 70
     0
102
RTVSPropertyOp49
 70
     1
102
RTVSPropertyOp50
 70
     0
102
RTVSPropertyOp51
 70
     0
102
RTVSPropertyOp52
 70
     0
102
RTVSPropertyOp53
 70
     0
102
RTVSPropertyOp54
 70
     0
102
RTVSPropertyOp55
 70
     1
102
RTVSPropertyOp56
 70
     0
102
RTVSPropertyOp57
 70
     0
102
RTVSPropertyOp58
 70
     0
102
RTVSPropertyOp59
 70
     0
102
RTVSPropertyOp60
 70
     0
102
RTVSPropertyOp61
 70
     0
102
RTVSPropertyOp62
 70
     0
  0
XRECORD
  5
AE81
102
{ACAD_REACTORS
330
AE80
102
}
330
AE80
100
AcDbXrecord
280
     1
102
RTVSPost2010Prop28
280
     0
102
RTVSPost2010PropOp28
 70
     1
102
RTVSPost2010Prop29
280
     1
102
RTVSPost2010PropOp29
 70
     1
102
RTVSPost2010Prop30
280
     1
102
RTVSPost2010PropOp30
 70
     1
102
RTVSPost2010Prop31
280
     0
102
RTVSPost2010PropOp31
 70
     1
102
RTVSPost2010Prop32
280
     0
102
RTVSPost2010PropOp32
 70
     1
102
RTVSPost2010Prop33
280
     0
102
RTVSPost2010PropOp33
 70
     1
102
RTVSPost2010Prop34
280
     0
102
RTVSPost2010PropOp34
 70
     1
102
RTVSPost2010Prop35
280
     0
102
RTVSPost2010PropOp35
 70
     1
102
RTVSPost2010Prop36
280
     0
102
RTVSPost2010PropOp36
 70
     1
102
RTVSPost2010Prop37
 90
       50
102
RTVSPost2010PropOp37
 70
     1
102
RTVSPost2010Prop38
140
0.0
102
RTVSPost2010PropOp38
 70
     1
102
RTVSPost2010Prop39
140
1.0
102
RTVSPost2010PropOp39
 70
     1
102
RTVSPost2010Prop40
 90
        0
102
RTVSPost2010PropOp40
 70
     1
102
RTVSPost2010Prop41ColorIndex
 90
       18
102
RTVSPost2010Prop41ColorRGB
 90
        0
102
RTVSPost2010PropOp41
 70
     1
102
RTVSPost2010Prop42
 90
       50
102
RTVSPost2010PropOp42
 70
     1
102
RTVSPost2010Prop43
 90
        3
102
RTVSPost2010PropOp43
 70
     1
102
RTVSPost2010Prop44ColorIndex
 90
        5
102
RTVSPost2010Prop44ColorRGB
 90
      255
102
RTVSPost2010PropOp44
 70
     1
102
RTVSPost2010Prop45
280
     0
102
RTVSPost2010PropOp45
 70
     1
102
RTVSPost2010Prop46
 90
       50
102
RTVSPost2010PropOp46
 70
     1
102
RTVSPost2010Prop47
 90
       50
102
RTVSPost2010PropOp47
 70
     1
102
RTVSPost2010Prop48
 90
       50
102
RTVSPost2010PropOp48
 70
     1
102
RTVSPost2010Prop49
280
     0
102
RTVSPost2010PropOp49
 70
     1
102
RTVSPost2010Prop50
 90
       50
102
RTVSPost2010PropOp50
 70
     1
102
RTVSPost2010Prop51ColorIndex
 90
      256
102
RTVSPost2010Prop51ColorRGB
 90
-16777216
102
RTVSPost2010PropOp51
 70
     0
102
RTVSPost2010Prop52
140
1.0
102
RTVSPost2010PropOp52
 70
     0
102
RTVSPost2010Prop53
 90
        2
102
RTVSPost2010PropOp53
 70
     1
102
RTVSPost2010Prop54
  1
strokes_ogs.tif
102
RTVSPost2010PropOp54
 70
     1
102
RTVSPost2010Prop55
280
     0
102
RTVSPost2010PropOp55
 70
     1
102
RTVSPost2010Prop56
140
1.0
102
RTVSPost2010PropOp56
 70
     1
102
RTVSPost2010Prop57
140
1.0
102
RTVSPost2010PropOp57
 70
     1
102
RTVSPropertyOp0
 70
     1
102
RTVSPropertyOp1
 70
     1
102
RTVSPropertyOp2
 70
     1
102
RTVSPropertyOp3
 70
     1
102
RTVSPropertyOp4
 70
     1
102
RTVSPropertyOp5
 70
     1
102
RTVSPropertyOp6
 70
     1
102
RTVSPropertyOp7
 70
     1
102
RTVSPropertyOp8
 70
     1
102
RTVSPropertyOp9
 70
     1
102
RTVSPropertyOp10
 70
     1
102
RTVSPropertyOp11
 70
     1
102
RTVSPropertyOp12
 70
     1
102
RTVSPropertyOp13
 70
     1
102
RTVSPropertyOp14
 70
     1
102
RTVSPropertyOp15
 70
     1
102
RTVSPropertyOp16
 70
     1
102
RTVSPropertyOp17
 70
     1
102
RTVSPropertyOp18
 70
     1
102
RTVSPropertyOp19
 70
     1
102
RTVSPropertyOp20
 70
     1
102
RTVSPropertyOp21
 70
     1
102
RTVSPropertyOp22
 70
     1
102
RTVSPropertyOp23
 70
     1
102
RTVSPropertyOp24
 70
     1
102
RTVSPropertyOp25
 70
     1
102
RTVSPropertyOp26
 70
     1
102
RTVSPropertyOp27
 70
     1
102
RTVSPropertyOp28
 70
     1
102
RTVSPropertyOp29
 70
     1
102
RTVSPropertyOp30
 70
     1
102
RTVSPropertyOp31
 70
     1
102
RTVSPropertyOp32
 70
     1
102
RTVSPropertyOp33
 70
     1
102
RTVSPropertyOp34
 70
     1
102
RTVSPropertyOp35
 70
     1
102
RTVSPropertyOp36
 70
     1
102
RTVSPropertyOp37
 70
     1
102
RTVSPropertyOp38
 70
     1
102
RTVSPropertyOp39
 70
     1
102
RTVSPropertyOp40
 70
     1
102
RTVSPropertyOp41
 70
     1
102
RTVSPropertyOp42
 70
     1
102
RTVSPropertyOp43
 70
     1
102
RTVSPropertyOp44
 70
     1
102
RTVSPropertyOp45
 70
     1
102
RTVSPropertyOp46
 70
     1
102
RTVSPropertyOp47
 70
     1
102
RTVSPropertyOp48
 70
     1
102
RTVSPropertyOp49
 70
     1
102
RTVSPropertyOp50
 70
     1
102
RTVSPropertyOp51
 70
     0
102
RTVSPropertyOp52
 70
     0
102
RTVSPropertyOp53
 70
     1
102
RTVSPropertyOp54
 70
     1
102
RTVSPropertyOp55
 70
     1
102
RTVSPropertyOp56
 70
     1
102
RTVSPropertyOp57
 70
     1
102
RTVSPropertyOp58
 70
     1
102
RTVSPropertyOp59
 70
     1
102
RTVSPropertyOp60
 70
     1
102
RTVSPropertyOp61
 70
     1
102
RTVSPropertyOp62
 70
     1
  0
XRECORD
  5
AE65
102
{ACAD_REACTORS
330
AE64
102
}
330
AE64
100
AcDbXrecord
280
     1
102
RTVSPost2010Prop28
280
     0
102
RTVSPost2010PropOp28
 70
     1
102
RTVSPost2010Prop29
280
     1
102
RTVSPost2010PropOp29
 70
     1
102
RTVSPost2010Prop30
280
     1
102
RTVSPost2010PropOp30
 70
     1
102
RTVSPost2010Prop31
280
     0
102
RTVSPost2010PropOp31
 70
     1
102
RTVSPost2010Prop32
280
     0
102
RTVSPost2010PropOp32
 70
     1
102
RTVSPost2010Prop33
280
     0
102
RTVSPost2010PropOp33
 70
     1
102
RTVSPost2010Prop34
280
     0
102
RTVSPost2010PropOp34
 70
     1
102
RTVSPost2010Prop35
280
     0
102
RTVSPost2010PropOp35
 70
     1
102
RTVSPost2010Prop36
280
     0
102
RTVSPost2010PropOp36
 70
     1
102
RTVSPost2010Prop37
 90
       50
102
RTVSPost2010PropOp37
 70
     1
102
RTVSPost2010Prop38
140
0.0
102
RTVSPost2010PropOp38
 70
     1
102
RTVSPost2010Prop39
140
1.0
102
RTVSPost2010PropOp39
 70
     1
102
RTVSPost2010Prop40
 90
        0
102
RTVSPost2010PropOp40
 70
     1
102
RTVSPost2010Prop41ColorIndex
 90
       18
102
RTVSPost2010Prop41ColorRGB
 90
        0
102
RTVSPost2010PropOp41
 70
     1
102
RTVSPost2010Prop42
 90
       50
102
RTVSPost2010PropOp42
 70
     1
102
RTVSPost2010Prop43
 90
        3
102
RTVSPost2010PropOp43
 70
     1
102
RTVSPost2010Prop44ColorIndex
 90
        5
102
RTVSPost2010Prop44ColorRGB
 90
      255
102
RTVSPost2010PropOp44
 70
     1
102
RTVSPost2010Prop45
280
     0
102
RTVSPost2010PropOp45
 70
     1
102
RTVSPost2010Prop46
 90
       50
102
RTVSPost2010PropOp46
 70
     1
102
RTVSPost2010Prop47
 90
       50
102
RTVSPost2010PropOp47
 70
     1
102
RTVSPost2010Prop48
 90
       50
102
RTVSPost2010PropOp48
 70
     1
102
RTVSPost2010Prop49
280
     0
102
RTVSPost2010PropOp49
 70
     1
102
RTVSPost2010Prop50
 90
       50
102
RTVSPost2010PropOp50
 70
     1
102
RTVSPost2010Prop51ColorIndex
 90
      256
102
RTVSPost2010Prop51ColorRGB
 90
-16777216
102
RTVSPost2010PropOp51
 70
     0
102
RTVSPost2010Prop52
140
1.0
102
RTVSPost2010PropOp52
 70
     0
102
RTVSPost2010Prop53
 90
        2
102
RTVSPost2010PropOp53
 70
     1
102
RTVSPost2010Prop54
  1
strokes_ogs.tif
102
RTVSPost2010PropOp54
 70
     1
102
RTVSPost2010Prop55
280
     0
102
RTVSPost2010PropOp55
 70
     1
102
RTVSPost2010Prop56
140
1.0
102
RTVSPost2010PropOp56
 70
     1
102
RTVSPost2010Prop57
140
1.0
102
RTVSPost2010PropOp57
 70
     1
102
RTVSPropertyOp0
 70
     1
102
RTVSPropertyOp1
 70
     1
102
RTVSPropertyOp2
 70
     1
102
RTVSPropertyOp3
 70
     1
102
RTVSPropertyOp4
 70
     1
102
RTVSPropertyOp5
 70
     1
102
RTVSPropertyOp6
 70
     1
102
RTVSPropertyOp7
 70
     1
102
RTVSPropertyOp8
 70
     1
102
RTVSPropertyOp9
 70
     1
102
RTVSPropertyOp10
 70
     1
102
RTVSPropertyOp11
 70
     1
102
RTVSPropertyOp12
 70
     1
102
RTVSPropertyOp13
 70
     1
102
RTVSPropertyOp14
 70
     1
102
RTVSPropertyOp15
 70
     1
102
RTVSPropertyOp16
 70
     1
102
RTVSPropertyOp17
 70
     1
102
RTVSPropertyOp18
 70
     1
102
RTVSPropertyOp19
 70
     1
102
RTVSPropertyOp20
 70
     1
102
RTVSPropertyOp21
 70
     1
102
RTVSPropertyOp22
 70
     1
102
RTVSPropertyOp23
 70
     1
102
RTVSPropertyOp24
 70
     1
102
RTVSPropertyOp25
 70
     1
102
RTVSPropertyOp26
 70
     1
102
RTVSPropertyOp27
 70
     1
102
RTVSPropertyOp28
 70
     1
102
RTVSPropertyOp29
 70
     1
102
RTVSPropertyOp30
 70
     1
102
RTVSPropertyOp31
 70
     1
102
RTVSPropertyOp32
 70
     1
102
RTVSPropertyOp33
 70
     1
102
RTVSPropertyOp34
 70
     1
102
RTVSPropertyOp35
 70
     1
102
RTVSPropertyOp36
 70
     1
102
RTVSPropertyOp37
 70
     1
102
RTVSPropertyOp38
 70
     1
102
RTVSPropertyOp39
 70
     1
102
RTVSPropertyOp40
 70
     1
102
RTVSPropertyOp41
 70
     1
102
RTVSPropertyOp42
 70
     1
102
RTVSPropertyOp43
 70
     1
102
RTVSPropertyOp44
 70
     1
102
RTVSPropertyOp45
 70
     1
102
RTVSPropertyOp46
 70
     1
102
RTVSPropertyOp47
 70
     1
102
RTVSPropertyOp48
 70
     1
102
RTVSPropertyOp49
 70
     1
102
RTVSPropertyOp50
 70
     1
102
RTVSPropertyOp51
 70
     0
102
RTVSPropertyOp52
 70
     0
102
RTVSPropertyOp53
 70
     1
102
RTVSPropertyOp54
 70
     1
102
RTVSPropertyOp55
 70
     1
102
RTVSPropertyOp56
 70
     1
102
RTVSPropertyOp57
 70
     1
102
RTVSPropertyOp58
 70
     1
102
RTVSPropertyOp59
 70
     1
102
RTVSPropertyOp60
 70
     1
102
RTVSPropertyOp61
 70
     1
102
RTVSPropertyOp62
 70
     1
  0
XRECORD
  5
AE67
102
{ACAD_REACTORS
330
AE66
102
}
330
AE66
100
AcDbXrecord
280
     1
102
RTVSPost2010Prop28
280
     0
102
RTVSPost2010PropOp28
 70
     1
102
RTVSPost2010Prop29
280
     1
102
RTVSPost2010PropOp29
 70
     1
102
RTVSPost2010Prop30
280
     1
102
RTVSPost2010PropOp30
 70
     1
102
RTVSPost2010Prop31
280
     0
102
RTVSPost2010PropOp31
 70
     1
102
RTVSPost2010Prop32
280
     0
102
RTVSPost2010PropOp32
 70
     1
102
RTVSPost2010Prop33
280
     0
102
RTVSPost2010PropOp33
 70
     1
102
RTVSPost2010Prop34
280
     0
102
RTVSPost2010PropOp34
 70
     1
102
RTVSPost2010Prop35
280
     0
102
RTVSPost2010PropOp35
 70
     1
102
RTVSPost2010Prop36
280
     0
102
RTVSPost2010PropOp36
 70
     1
102
RTVSPost2010Prop37
 90
       50
102
RTVSPost2010PropOp37
 70
     1
102
RTVSPost2010Prop38
140
0.0
102
RTVSPost2010PropOp38
 70
     1
102
RTVSPost2010Prop39
140
1.0
102
RTVSPost2010PropOp39
 70
     1
102
RTVSPost2010Prop40
 90
        0
102
RTVSPost2010PropOp40
 70
     1
102
RTVSPost2010Prop41ColorIndex
 90
       18
102
RTVSPost2010Prop41ColorRGB
 90
        0
102
RTVSPost2010PropOp41
 70
     1
102
RTVSPost2010Prop42
 90
       50
102
RTVSPost2010PropOp42
 70
     1
102
RTVSPost2010Prop43
 90
        3
102
RTVSPost2010PropOp43
 70
     1
102
RTVSPost2010Prop44ColorIndex
 90
        5
102
RTVSPost2010Prop44ColorRGB
 90
      255
102
RTVSPost2010PropOp44
 70
     1
102
RTVSPost2010Prop45
280
     0
102
RTVSPost2010PropOp45
 70
     1
102
RTVSPost2010Prop46
 90
       50
102
RTVSPost2010PropOp46
 70
     1
102
RTVSPost2010Prop47
 90
       50
102
RTVSPost2010PropOp47
 70
     1
102
RTVSPost2010Prop48
 90
       50
102
RTVSPost2010PropOp48
 70
     1
102
RTVSPost2010Prop49
280
     0
102
RTVSPost2010PropOp49
 70
     1
102
RTVSPost2010Prop50
 90
       50
102
RTVSPost2010PropOp50
 70
     1
102
RTVSPost2010Prop51ColorIndex
 90
      256
102
RTVSPost2010Prop51ColorRGB
 90
-16777216
102
RTVSPost2010PropOp51
 70
     0
102
RTVSPost2010Prop52
140
1.0
102
RTVSPost2010PropOp52
 70
     0
102
RTVSPost2010Prop53
 90
        2
102
RTVSPost2010PropOp53
 70
     1
102
RTVSPost2010Prop54
  1
strokes_ogs.tif
102
RTVSPost2010PropOp54
 70
     1
102
RTVSPost2010Prop55
280
     0
102
RTVSPost2010PropOp55
 70
     1
102
RTVSPost2010Prop56
140
1.0
102
RTVSPost2010PropOp56
 70
     1
102
RTVSPost2010Prop57
140
1.0
102
RTVSPost2010PropOp57
 70
     1
102
RTVSPropertyOp0
 70
     1
102
RTVSPropertyOp1
 70
     1
102
RTVSPropertyOp2
 70
     1
102
RTVSPropertyOp3
 70
     1
102
RTVSPropertyOp4
 70
     1
102
RTVSPropertyOp5
 70
     1
102
RTVSPropertyOp6
 70
     1
102
RTVSPropertyOp7
 70
     1
102
RTVSPropertyOp8
 70
     1
102
RTVSPropertyOp9
 70
     1
102
RTVSPropertyOp10
 70
     1
102
RTVSPropertyOp11
 70
     1
102
RTVSPropertyOp12
 70
     1
102
RTVSPropertyOp13
 70
     1
102
RTVSPropertyOp14
 70
     1
102
RTVSPropertyOp15
 70
     1
102
RTVSPropertyOp16
 70
     1
102
RTVSPropertyOp17
 70
     1
102
RTVSPropertyOp18
 70
     1
102
RTVSPropertyOp19
 70
     1
102
RTVSPropertyOp20
 70
     1
102
RTVSPropertyOp21
 70
     1
102
RTVSPropertyOp22
 70
     1
102
RTVSPropertyOp23
 70
     1
102
RTVSPropertyOp24
 70
     1
102
RTVSPropertyOp25
 70
     1
102
RTVSPropertyOp26
 70
     1
102
RTVSPropertyOp27
 70
     1
102
RTVSPropertyOp28
 70
     1
102
RTVSPropertyOp29
 70
     1
102
RTVSPropertyOp30
 70
     1
102
RTVSPropertyOp31
 70
     1
102
RTVSPropertyOp32
 70
     1
102
RTVSPropertyOp33
 70
     1
102
RTVSPropertyOp34
 70
     1
102
RTVSPropertyOp35
 70
     1
102
RTVSPropertyOp36
 70
     1
102
RTVSPropertyOp37
 70
     1
102
RTVSPropertyOp38
 70
     1
102
RTVSPropertyOp39
 70
     1
102
RTVSPropertyOp40
 70
     1
102
RTVSPropertyOp41
 70
     1
102
RTVSPropertyOp42
 70
     1
102
RTVSPropertyOp43
 70
     1
102
RTVSPropertyOp44
 70
     1
102
RTVSPropertyOp45
 70
     1
102
RTVSPropertyOp46
 70
     1
102
RTVSPropertyOp47
 70
     1
102
RTVSPropertyOp48
 70
     1
102
RTVSPropertyOp49
 70
     1
102
RTVSPropertyOp50
 70
     1
102
RTVSPropertyOp51
 70
     0
102
RTVSPropertyOp52
 70
     0
102
RTVSPropertyOp53
 70
     1
102
RTVSPropertyOp54
 70
     1
102
RTVSPropertyOp55
 70
     1
102
RTVSPropertyOp56
 70
     1
102
RTVSPropertyOp57
 70
     1
102
RTVSPropertyOp58
 70
     1
102
RTVSPropertyOp59
 70
     1
102
RTVSPropertyOp60
 70
     1
102
RTVSPropertyOp61
 70
     1
102
RTVSPropertyOp62
 70
     1
  0
XRECORD
  5
AE69
102
{ACAD_REACTORS
330
AE68
102
}
330
AE68
100
AcDbXrecord
280
     1
102
RTVSPost2010Prop28
280
     0
102
RTVSPost2010PropOp28
 70
     1
102
RTVSPost2010Prop29
280
     1
102
RTVSPost2010PropOp29
 70
     1
102
RTVSPost2010Prop30
280
     1
102
RTVSPost2010PropOp30
 70
     1
102
RTVSPost2010Prop31
280
     0
102
RTVSPost2010PropOp31
 70
     1
102
RTVSPost2010Prop32
280
     0
102
RTVSPost2010PropOp32
 70
     1
102
RTVSPost2010Prop33
280
     0
102
RTVSPost2010PropOp33
 70
     1
102
RTVSPost2010Prop34
280
     0
102
RTVSPost2010PropOp34
 70
     1
102
RTVSPost2010Prop35
280
     0
102
RTVSPost2010PropOp35
 70
     1
102
RTVSPost2010Prop36
280
     0
102
RTVSPost2010PropOp36
 70
     1
102
RTVSPost2010Prop37
 90
       50
102
RTVSPost2010PropOp37
 70
     1
102
RTVSPost2010Prop38
140
0.0
102
RTVSPost2010PropOp38
 70
     1
102
RTVSPost2010Prop39
140
1.0
102
RTVSPost2010PropOp39
 70
     1
102
RTVSPost2010Prop40
 90
        0
102
RTVSPost2010PropOp40
 70
     1
102
RTVSPost2010Prop41ColorIndex
 90
       18
102
RTVSPost2010Prop41ColorRGB
 90
        0
102
RTVSPost2010PropOp41
 70
     1
102
RTVSPost2010Prop42
 90
       50
102
RTVSPost2010PropOp42
 70
     1
102
RTVSPost2010Prop43
 90
        3
102
RTVSPost2010PropOp43
 70
     1
102
RTVSPost2010Prop44ColorIndex
 90
        5
102
RTVSPost2010Prop44ColorRGB
 90
      255
102
RTVSPost2010PropOp44
 70
     1
102
RTVSPost2010Prop45
280
     0
102
RTVSPost2010PropOp45
 70
     1
102
RTVSPost2010Prop46
 90
       50
102
RTVSPost2010PropOp46
 70
     1
102
RTVSPost2010Prop47
 90
       50
102
RTVSPost2010PropOp47
 70
     1
102
RTVSPost2010Prop48
 90
       50
102
RTVSPost2010PropOp48
 70
     1
102
RTVSPost2010Prop49
280
     0
102
RTVSPost2010PropOp49
 70
     1
102
RTVSPost2010Prop50
 90
       50
102
RTVSPost2010PropOp50
 70
     1
102
RTVSPost2010Prop51ColorIndex
 90
      256
102
RTVSPost2010Prop51ColorRGB
 90
-16777216
102
RTVSPost2010PropOp51
 70
     0
102
RTVSPost2010Prop52
140
1.0
102
RTVSPost2010PropOp52
 70
     0
102
RTVSPost2010Prop53
 90
        2
102
RTVSPost2010PropOp53
 70
     1
102
RTVSPost2010Prop54
  1
strokes_ogs.tif
102
RTVSPost2010PropOp54
 70
     1
102
RTVSPost2010Prop55
280
     0
102
RTVSPost2010PropOp55
 70
     1
102
RTVSPost2010Prop56
140
1.0
102
RTVSPost2010PropOp56
 70
     1
102
RTVSPost2010Prop57
140
1.0
102
RTVSPost2010PropOp57
 70
     1
102
RTVSPropertyOp0
 70
     1
102
RTVSPropertyOp1
 70
     1
102
RTVSPropertyOp2
 70
     1
102
RTVSPropertyOp3
 70
     1
102
RTVSPropertyOp4
 70
     1
102
RTVSPropertyOp5
 70
     1
102
RTVSPropertyOp6
 70
     1
102
RTVSPropertyOp7
 70
     1
102
RTVSPropertyOp8
 70
     1
102
RTVSPropertyOp9
 70
     1
102
RTVSPropertyOp10
 70
     1
102
RTVSPropertyOp11
 70
     1
102
RTVSPropertyOp12
 70
     1
102
RTVSPropertyOp13
 70
     1
102
RTVSPropertyOp14
 70
     1
102
RTVSPropertyOp15
 70
     1
102
RTVSPropertyOp16
 70
     1
102
RTVSPropertyOp17
 70
     1
102
RTVSPropertyOp18
 70
     1
102
RTVSPropertyOp19
 70
     1
102
RTVSPropertyOp20
 70
     1
102
RTVSPropertyOp21
 70
     1
102
RTVSPropertyOp22
 70
     1
102
RTVSPropertyOp23
 70
     1
102
RTVSPropertyOp24
 70
     1
102
RTVSPropertyOp25
 70
     1
102
RTVSPropertyOp26
 70
     1
102
RTVSPropertyOp27
 70
     1
102
RTVSPropertyOp28
 70
     1
102
RTVSPropertyOp29
 70
     1
102
RTVSPropertyOp30
 70
     1
102
RTVSPropertyOp31
 70
     1
102
RTVSPropertyOp32
 70
     1
102
RTVSPropertyOp33
 70
     1
102
RTVSPropertyOp34
 70
     1
102
RTVSPropertyOp35
 70
     1
102
RTVSPropertyOp36
 70
     1
102
RTVSPropertyOp37
 70
     1
102
RTVSPropertyOp38
 70
     1
102
RTVSPropertyOp39
 70
     1
102
RTVSPropertyOp40
 70
     1
102
RTVSPropertyOp41
 70
     1
102
RTVSPropertyOp42
 70
     1
102
RTVSPropertyOp43
 70
     1
102
RTVSPropertyOp44
 70
     1
102
RTVSPropertyOp45
 70
     1
102
RTVSPropertyOp46
 70
     1
102
RTVSPropertyOp47
 70
     1
102
RTVSPropertyOp48
 70
     1
102
RTVSPropertyOp49
 70
     1
102
RTVSPropertyOp50
 70
     1
102
RTVSPropertyOp51
 70
     0
102
RTVSPropertyOp52
 70
     0
102
RTVSPropertyOp53
 70
     1
102
RTVSPropertyOp54
 70
     1
102
RTVSPropertyOp55
 70
     1
102
RTVSPropertyOp56
 70
     1
102
RTVSPropertyOp57
 70
     1
102
RTVSPropertyOp58
 70
     1
102
RTVSPropertyOp59
 70
     1
102
RTVSPropertyOp60
 70
     1
102
RTVSPropertyOp61
 70
     1
102
RTVSPropertyOp62
 70
     1
  0
XRECORD
  5
AE6B
102
{ACAD_REACTORS
330
AE6A
102
}
330
AE6A
100
AcDbXrecord
280
     1
102
RTVSPost2010Prop28
280
     0
102
RTVSPost2010PropOp28
 70
     1
102
RTVSPost2010Prop29
280
     1
102
RTVSPost2010PropOp29
 70
     1
102
RTVSPost2010Prop30
280
     1
102
RTVSPost2010PropOp30
 70
     1
102
RTVSPost2010Prop31
280
     0
102
RTVSPost2010PropOp31
 70
     1
102
RTVSPost2010Prop32
280
     0
102
RTVSPost2010PropOp32
 70
     1
102
RTVSPost2010Prop33
280
     0
102
RTVSPost2010PropOp33
 70
     1
102
RTVSPost2010Prop34
280
     0
102
RTVSPost2010PropOp34
 70
     1
102
RTVSPost2010Prop35
280
     0
102
RTVSPost2010PropOp35
 70
     1
102
RTVSPost2010Prop36
280
     0
102
RTVSPost2010PropOp36
 70
     1
102
RTVSPost2010Prop37
 90
       50
102
RTVSPost2010PropOp37
 70
     1
102
RTVSPost2010Prop38
140
0.0
102
RTVSPost2010PropOp38
 70
     1
102
RTVSPost2010Prop39
140
1.0
102
RTVSPost2010PropOp39
 70
     1
102
RTVSPost2010Prop40
 90
        0
102
RTVSPost2010PropOp40
 70
     1
102
RTVSPost2010Prop41ColorIndex
 90
       18
102
RTVSPost2010Prop41ColorRGB
 90
        0
102
RTVSPost2010PropOp41
 70
     1
102
RTVSPost2010Prop42
 90
       50
102
RTVSPost2010PropOp42
 70
     1
102
RTVSPost2010Prop43
 90
        3
102
RTVSPost2010PropOp43
 70
     1
102
RTVSPost2010Prop44ColorIndex
 90
        5
102
RTVSPost2010Prop44ColorRGB
 90
      255
102
RTVSPost2010PropOp44
 70
     1
102
RTVSPost2010Prop45
280
     0
102
RTVSPost2010PropOp45
 70
     1
102
RTVSPost2010Prop46
 90
       50
102
RTVSPost2010PropOp46
 70
     1
102
RTVSPost2010Prop47
 90
       50
102
RTVSPost2010PropOp47
 70
     1
102
RTVSPost2010Prop48
 90
       50
102
RTVSPost2010PropOp48
 70
     1
102
RTVSPost2010Prop49
280
     0
102
RTVSPost2010PropOp49
 70
     1
102
RTVSPost2010Prop50
 90
       50
102
RTVSPost2010PropOp50
 70
     1
102
RTVSPost2010Prop51ColorIndex
 90
      256
102
RTVSPost2010Prop51ColorRGB
 90
-16777216
102
RTVSPost2010PropOp51
 70
     0
102
RTVSPost2010Prop52
140
1.0
102
RTVSPost2010PropOp52
 70
     0
102
RTVSPost2010Prop53
 90
        2
102
RTVSPost2010PropOp53
 70
     1
102
RTVSPost2010Prop54
  1
strokes_ogs.tif
102
RTVSPost2010PropOp54
 70
     1
102
RTVSPost2010Prop55
280
     0
102
RTVSPost2010PropOp55
 70
     1
102
RTVSPost2010Prop56
140
1.0
102
RTVSPost2010PropOp56
 70
     1
102
RTVSPost2010Prop57
140
1.0
102
RTVSPost2010PropOp57
 70
     1
102
RTVSPropertyOp0
 70
     1
102
RTVSPropertyOp1
 70
     1
102
RTVSPropertyOp2
 70
     1
102
RTVSPropertyOp3
 70
     1
102
RTVSPropertyOp4
 70
     1
102
RTVSPropertyOp5
 70
     1
102
RTVSPropertyOp6
 70
     1
102
RTVSPropertyOp7
 70
     1
102
RTVSPropertyOp8
 70
     1
102
RTVSPropertyOp9
 70
     1
102
RTVSPropertyOp10
 70
     1
102
RTVSPropertyOp11
 70
     1
102
RTVSPropertyOp12
 70
     1
102
RTVSPropertyOp13
 70
     1
102
RTVSPropertyOp14
 70
     1
102
RTVSPropertyOp15
 70
     1
102
RTVSPropertyOp16
 70
     1
102
RTVSPropertyOp17
 70
     1
102
RTVSPropertyOp18
 70
     1
102
RTVSPropertyOp19
 70
     1
102
RTVSPropertyOp20
 70
     1
102
RTVSPropertyOp21
 70
     1
102
RTVSPropertyOp22
 70
     1
102
RTVSPropertyOp23
 70
     1
102
RTVSPropertyOp24
 70
     1
102
RTVSPropertyOp25
 70
     1
102
RTVSPropertyOp26
 70
     1
102
RTVSPropertyOp27
 70
     1
102
RTVSPropertyOp28
 70
     1
102
RTVSPropertyOp29
 70
     1
102
RTVSPropertyOp30
 70
     1
102
RTVSPropertyOp31
 70
     1
102
RTVSPropertyOp32
 70
     1
102
RTVSPropertyOp33
 70
     1
102
RTVSPropertyOp34
 70
     1
102
RTVSPropertyOp35
 70
     1
102
RTVSPropertyOp36
 70
     1
102
RTVSPropertyOp37
 70
     1
102
RTVSPropertyOp38
 70
     1
102
RTVSPropertyOp39
 70
     1
102
RTVSPropertyOp40
 70
     1
102
RTVSPropertyOp41
 70
     1
102
RTVSPropertyOp42
 70
     1
102
RTVSPropertyOp43
 70
     1
102
RTVSPropertyOp44
 70
     1
102
RTVSPropertyOp45
 70
     1
102
RTVSPropertyOp46
 70
     1
102
RTVSPropertyOp47
 70
     1
102
RTVSPropertyOp48
 70
     1
102
RTVSPropertyOp49
 70
     1
102
RTVSPropertyOp50
 70
     1
102
RTVSPropertyOp51
 70
     0
102
RTVSPropertyOp52
 70
     0
102
RTVSPropertyOp53
 70
     1
102
RTVSPropertyOp54
 70
     1
102
RTVSPropertyOp55
 70
     1
102
RTVSPropertyOp56
 70
     1
102
RTVSPropertyOp57
 70
     1
102
RTVSPropertyOp58
 70
     1
102
RTVSPropertyOp59
 70
     1
102
RTVSPropertyOp60
 70
     1
102
RTVSPropertyOp61
 70
     1
102
RTVSPropertyOp62
 70
     1
  0
XRECORD
  5
AE73
102
{ACAD_REACTORS
330
AE72
102
}
330
AE72
100
AcDbXrecord
280
     1
102
RTVSPost2010Prop28
280
     0
102
RTVSPost2010PropOp28
 70
     1
102
RTVSPost2010Prop29
280
     1
102
RTVSPost2010PropOp29
 70
     1
102
RTVSPost2010Prop30
280
     1
102
RTVSPost2010PropOp30
 70
     1
102
RTVSPost2010Prop31
280
     0
102
RTVSPost2010PropOp31
 70
     1
102
RTVSPost2010Prop32
280
     0
102
RTVSPost2010PropOp32
 70
     1
102
RTVSPost2010Prop33
280
     0
102
RTVSPost2010PropOp33
 70
     1
102
RTVSPost2010Prop34
280
     0
102
RTVSPost2010PropOp34
 70
     1
102
RTVSPost2010Prop35
280
     0
102
RTVSPost2010PropOp35
 70
     1
102
RTVSPost2010Prop36
280
     0
102
RTVSPost2010PropOp36
 70
     1
102
RTVSPost2010Prop37
 90
       50
102
RTVSPost2010PropOp37
 70
     1
102
RTVSPost2010Prop38
140
0.0
102
RTVSPost2010PropOp38
 70
     1
102
RTVSPost2010Prop39
140
1.0
102
RTVSPost2010PropOp39
 70
     1
102
RTVSPost2010Prop40
 90
        0
102
RTVSPost2010PropOp40
 70
     1
102
RTVSPost2010Prop41ColorIndex
 90
       18
102
RTVSPost2010Prop41ColorRGB
 90
        0
102
RTVSPost2010PropOp41
 70
     1
102
RTVSPost2010Prop42
 90
       50
102
RTVSPost2010PropOp42
 70
     1
102
RTVSPost2010Prop43
 90
        3
102
RTVSPost2010PropOp43
 70
     1
102
RTVSPost2010Prop44ColorIndex
 90
        5
102
RTVSPost2010Prop44ColorRGB
 90
      255
102
RTVSPost2010PropOp44
 70
     1
102
RTVSPost2010Prop45
280
     0
102
RTVSPost2010PropOp45
 70
     1
102
RTVSPost2010Prop46
 90
       50
102
RTVSPost2010PropOp46
 70
     1
102
RTVSPost2010Prop47
 90
       50
102
RTVSPost2010PropOp47
 70
     1
102
RTVSPost2010Prop48
 90
       50
102
RTVSPost2010PropOp48
 70
     1
102
RTVSPost2010Prop49
280
     0
102
RTVSPost2010PropOp49
 70
     1
102
RTVSPost2010Prop50
 90
       50
102
RTVSPost2010PropOp50
 70
     1
102
RTVSPost2010Prop51ColorIndex
 90
      256
102
RTVSPost2010Prop51ColorRGB
 90
-16777216
102
RTVSPost2010PropOp51
 70
     0
102
RTVSPost2010Prop52
140
1.0
102
RTVSPost2010PropOp52
 70
     0
102
RTVSPost2010Prop53
 90
        2
102
RTVSPost2010PropOp53
 70
     1
102
RTVSPost2010Prop54
  1
strokes_ogs.tif
102
RTVSPost2010PropOp54
 70
     1
102
RTVSPost2010Prop55
280
     0
102
RTVSPost2010PropOp55
 70
     1
102
RTVSPost2010Prop56
140
1.0
102
RTVSPost2010PropOp56
 70
     1
102
RTVSPost2010Prop57
140
1.0
102
RTVSPost2010PropOp57
 70
     1
102
RTVSPropertyOp0
 70
     1
102
RTVSPropertyOp1
 70
     1
102
RTVSPropertyOp2
 70
     1
102
RTVSPropertyOp3
 70
     1
102
RTVSPropertyOp4
 70
     1
102
RTVSPropertyOp5
 70
     1
102
RTVSPropertyOp6
 70
     1
102
RTVSPropertyOp7
 70
     1
102
RTVSPropertyOp8
 70
     1
102
RTVSPropertyOp9
 70
     1
102
RTVSPropertyOp10
 70
     1
102
RTVSPropertyOp11
 70
     1
102
RTVSPropertyOp12
 70
     1
102
RTVSPropertyOp13
 70
     1
102
RTVSPropertyOp14
 70
     1
102
RTVSPropertyOp15
 70
     1
102
RTVSPropertyOp16
 70
     1
102
RTVSPropertyOp17
 70
     1
102
RTVSPropertyOp18
 70
     1
102
RTVSPropertyOp19
 70
     1
102
RTVSPropertyOp20
 70
     1
102
RTVSPropertyOp21
 70
     1
102
RTVSPropertyOp22
 70
     1
102
RTVSPropertyOp23
 70
     1
102
RTVSPropertyOp24
 70
     1
102
RTVSPropertyOp25
 70
     1
102
RTVSPropertyOp26
 70
     1
102
RTVSPropertyOp27
 70
     1
102
RTVSPropertyOp28
 70
     1
102
RTVSPropertyOp29
 70
     1
102
RTVSPropertyOp30
 70
     1
102
RTVSPropertyOp31
 70
     1
102
RTVSPropertyOp32
 70
     1
102
RTVSPropertyOp33
 70
     1
102
RTVSPropertyOp34
 70
     1
102
RTVSPropertyOp35
 70
     1
102
RTVSPropertyOp36
 70
     1
102
RTVSPropertyOp37
 70
     1
102
RTVSPropertyOp38
 70
     1
102
RTVSPropertyOp39
 70
     1
102
RTVSPropertyOp40
 70
     1
102
RTVSPropertyOp41
 70
     1
102
RTVSPropertyOp42
 70
     1
102
RTVSPropertyOp43
 70
     1
102
RTVSPropertyOp44
 70
     1
102
RTVSPropertyOp45
 70
     1
102
RTVSPropertyOp46
 70
     1
102
RTVSPropertyOp47
 70
     1
102
RTVSPropertyOp48
 70
     1
102
RTVSPropertyOp49
 70
     1
102
RTVSPropertyOp50
 70
     1
102
RTVSPropertyOp51
 70
     0
102
RTVSPropertyOp52
 70
     0
102
RTVSPropertyOp53
 70
     1
102
RTVSPropertyOp54
 70
     1
102
RTVSPropertyOp55
 70
     1
102
RTVSPropertyOp56
 70
     1
102
RTVSPropertyOp57
 70
     1
102
RTVSPropertyOp58
 70
     1
102
RTVSPropertyOp59
 70
     1
102
RTVSPropertyOp60
 70
     1
102
RTVSPropertyOp61
 70
     1
102
RTVSPropertyOp62
 70
     1
  0
XRECORD
  5
AE8F
102
{ACAD_REACTORS
330
AE8E
102
}
330
AE8E
100
AcDbXrecord
280
     1
102
RTVSPost2010Prop28
280
     0
102
RTVSPost2010PropOp28
 70
     1
102
RTVSPost2010Prop29
280
     1
102
RTVSPost2010PropOp29
 70
     1
102
RTVSPost2010Prop30
280
     1
102
RTVSPost2010PropOp30
 70
     1
102
RTVSPost2010Prop31
280
     0
102
RTVSPost2010PropOp31
 70
     1
102
RTVSPost2010Prop32
280
     0
102
RTVSPost2010PropOp32
 70
     1
102
RTVSPost2010Prop33
280
     0
102
RTVSPost2010PropOp33
 70
     1
102
RTVSPost2010Prop34
280
     0
102
RTVSPost2010PropOp34
 70
     1
102
RTVSPost2010Prop35
280
     0
102
RTVSPost2010PropOp35
 70
     1
102
RTVSPost2010Prop36
280
     0
102
RTVSPost2010PropOp36
 70
     1
102
RTVSPost2010Prop37
 90
       50
102
RTVSPost2010PropOp37
 70
     0
102
RTVSPost2010Prop38
140
0.0
102
RTVSPost2010PropOp38
 70
     0
102
RTVSPost2010Prop39
140
1.0
102
RTVSPost2010PropOp39
 70
     0
102
RTVSPost2010Prop40
 90
        0
102
RTVSPost2010PropOp40
 70
     0
102
RTVSPost2010Prop41ColorIndex
 90
       18
102
RTVSPost2010Prop41ColorRGB
 90
        0
102
RTVSPost2010PropOp41
 70
     0
102
RTVSPost2010Prop42
 90
       50
102
RTVSPost2010PropOp42
 70
     0
102
RTVSPost2010Prop43
 90
        3
102
RTVSPost2010PropOp43
 70
     0
102
RTVSPost2010Prop44ColorIndex
 90
        5
102
RTVSPost2010Prop44ColorRGB
 90
      255
102
RTVSPost2010PropOp44
 70
     0
102
RTVSPost2010Prop45
280
     0
102
RTVSPost2010PropOp45
 70
     1
102
RTVSPost2010Prop46
 90
       50
102
RTVSPost2010PropOp46
 70
     0
102
RTVSPost2010Prop47
 90
       50
102
RTVSPost2010PropOp47
 70
     0
102
RTVSPost2010Prop48
 90
       50
102
RTVSPost2010PropOp48
 70
     0
102
RTVSPost2010Prop49
280
     0
102
RTVSPost2010PropOp49
 70
     1
102
RTVSPost2010Prop50
 90
       50
102
RTVSPost2010PropOp50
 70
     0
102
RTVSPost2010Prop51ColorIndex
 90
      256
102
RTVSPost2010Prop51ColorRGB
 90
-16777216
102
RTVSPost2010PropOp51
 70
     0
102
RTVSPost2010Prop52
140
1.0
102
RTVSPost2010PropOp52
 70
     0
102
RTVSPost2010Prop53
 90
        2
102
RTVSPost2010PropOp53
 70
     0
102
RTVSPost2010Prop54
  1
strokes_ogs.tif
102
RTVSPost2010PropOp54
 70
     0
102
RTVSPost2010Prop55
280
     0
102
RTVSPost2010PropOp55
 70
     1
102
RTVSPost2010Prop56
140
1.0
102
RTVSPost2010PropOp56
 70
     0
102
RTVSPost2010Prop57
140
1.0
102
RTVSPost2010PropOp57
 70
     0
102
RTVSPropertyOp0
 70
     0
102
RTVSPropertyOp1
 70
     0
102
RTVSPropertyOp2
 70
     0
102
RTVSPropertyOp3
 70
     0
102
RTVSPropertyOp4
 70
     0
102
RTVSPropertyOp5
 70
     0
102
RTVSPropertyOp6
 70
     0
102
RTVSPropertyOp7
 70
     0
102
RTVSPropertyOp8
 70
     0
102
RTVSPropertyOp9
 70
     0
102
RTVSPropertyOp10
 70
     0
102
RTVSPropertyOp11
 70
     0
102
RTVSPropertyOp12
 70
     0
102
RTVSPropertyOp13
 70
     0
102
RTVSPropertyOp14
 70
     2
102
RTVSPropertyOp15
 70
     0
102
RTVSPropertyOp16
 70
     0
102
RTVSPropertyOp17
 70
     0
102
RTVSPropertyOp18
 70
     0
102
RTVSPropertyOp19
 70
     0
102
RTVSPropertyOp20
 70
     0
102
RTVSPropertyOp21
 70
     0
102
RTVSPropertyOp22
 70
     0
102
RTVSPropertyOp23
 70
     0
102
RTVSPropertyOp24
 70
     0
102
RTVSPropertyOp25
 70
     0
102
RTVSPropertyOp26
 70
     0
102
RTVSPropertyOp27
 70
     0
102
RTVSPropertyOp28
 70
     1
102
RTVSPropertyOp29
 70
     1
102
RTVSPropertyOp30
 70
     1
102
RTVSPropertyOp31
 70
     1
102
RTVSPropertyOp32
 70
     1
102
RTVSPropertyOp33
 70
     1
102
RTVSPropertyOp34
 70
     1
102
RTVSPropertyOp35
 70
     1
102
RTVSPropertyOp36
 70
     1
102
RTVSPropertyOp37
 70
     0
102
RTVSPropertyOp38
 70
     0
102
RTVSPropertyOp39
 70
     0
102
RTVSPropertyOp40
 70
     0
102
RTVSPropertyOp41
 70
     0
102
RTVSPropertyOp42
 70
     0
102
RTVSPropertyOp43
 70
     0
102
RTVSPropertyOp44
 70
     0
102
RTVSPropertyOp45
 70
     1
102
RTVSPropertyOp46
 70
     0
102
RTVSPropertyOp47
 70
     0
102
RTVSPropertyOp48
 70
     0
102
RTVSPropertyOp49
 70
     1
102
RTVSPropertyOp50
 70
     0
102
RTVSPropertyOp51
 70
     0
102
RTVSPropertyOp52
 70
     0
102
RTVSPropertyOp53
 70
     0
102
RTVSPropertyOp54
 70
     0
102
RTVSPropertyOp55
 70
     1
102
RTVSPropertyOp56
 70
     0
102
RTVSPropertyOp57
 70
     0
102
RTVSPropertyOp58
 70
     0
102
RTVSPropertyOp59
 70
     0
102
RTVSPropertyOp60
 70
     0
102
RTVSPropertyOp61
 70
     0
102
RTVSPropertyOp62
 70
     0
  0
XRECORD
  5
AE7F
102
{ACAD_REACTORS
330
AE7E
102
}
330
AE7E
100
AcDbXrecord
280
     1
102
RTVSPost2010Prop28
280
     0
102
RTVSPost2010PropOp28
 70
     1
102
RTVSPost2010Prop29
280
     1
102
RTVSPost2010PropOp29
 70
     1
102
RTVSPost2010Prop30
280
     1
102
RTVSPost2010PropOp30
 70
     1
102
RTVSPost2010Prop31
280
     0
102
RTVSPost2010PropOp31
 70
     1
102
RTVSPost2010Prop32
280
     0
102
RTVSPost2010PropOp32
 70
     1
102
RTVSPost2010Prop33
280
     0
102
RTVSPost2010PropOp33
 70
     1
102
RTVSPost2010Prop34
280
     0
102
RTVSPost2010PropOp34
 70
     1
102
RTVSPost2010Prop35
280
     0
102
RTVSPost2010PropOp35
 70
     1
102
RTVSPost2010Prop36
280
     0
102
RTVSPost2010PropOp36
 70
     1
102
RTVSPost2010Prop37
 90
       50
102
RTVSPost2010PropOp37
 70
     1
102
RTVSPost2010Prop38
140
0.0
102
RTVSPost2010PropOp38
 70
     1
102
RTVSPost2010Prop39
140
1.0
102
RTVSPost2010PropOp39
 70
     1
102
RTVSPost2010Prop40
 90
        0
102
RTVSPost2010PropOp40
 70
     1
102
RTVSPost2010Prop41ColorIndex
 90
       18
102
RTVSPost2010Prop41ColorRGB
 90
        0
102
RTVSPost2010PropOp41
 70
     1
102
RTVSPost2010Prop42
 90
       50
102
RTVSPost2010PropOp42
 70
     1
102
RTVSPost2010Prop43
 90
        3
102
RTVSPost2010PropOp43
 70
     1
102
RTVSPost2010Prop44ColorIndex
 90
        5
102
RTVSPost2010Prop44ColorRGB
 90
      255
102
RTVSPost2010PropOp44
 70
     1
102
RTVSPost2010Prop45
280
     0
102
RTVSPost2010PropOp45
 70
     1
102
RTVSPost2010Prop46
 90
       50
102
RTVSPost2010PropOp46
 70
     1
102
RTVSPost2010Prop47
 90
       50
102
RTVSPost2010PropOp47
 70
     1
102
RTVSPost2010Prop48
 90
       50
102
RTVSPost2010PropOp48
 70
     1
102
RTVSPost2010Prop49
280
     0
102
RTVSPost2010PropOp49
 70
     1
102
RTVSPost2010Prop50
 90
       50
102
RTVSPost2010PropOp50
 70
     1
102
RTVSPost2010Prop51ColorIndex
 90
      256
102
RTVSPost2010Prop51ColorRGB
 90
-16777216
102
RTVSPost2010PropOp51
 70
     0
102
RTVSPost2010Prop52
140
1.0
102
RTVSPost2010PropOp52
 70
     0
102
RTVSPost2010Prop53
 90
        2
102
RTVSPost2010PropOp53
 70
     1
102
RTVSPost2010Prop54
  1
strokes_ogs.tif
102
RTVSPost2010PropOp54
 70
     1
102
RTVSPost2010Prop55
280
     0
102
RTVSPost2010PropOp55
 70
     1
102
RTVSPost2010Prop56
140
1.0
102
RTVSPost2010PropOp56
 70
     1
102
RTVSPost2010Prop57
140
1.0
102
RTVSPost2010PropOp57
 70
     1
102
RTVSPropertyOp0
 70
     1
102
RTVSPropertyOp1
 70
     1
102
RTVSPropertyOp2
 70
     1
102
RTVSPropertyOp3
 70
     1
102
RTVSPropertyOp4
 70
     1
102
RTVSPropertyOp5
 70
     1
102
RTVSPropertyOp6
 70
     1
102
RTVSPropertyOp7
 70
     1
102
RTVSPropertyOp8
 70
     1
102
RTVSPropertyOp9
 70
     1
102
RTVSPropertyOp10
 70
     1
102
RTVSPropertyOp11
 70
     1
102
RTVSPropertyOp12
 70
     1
102
RTVSPropertyOp13
 70
     1
102
RTVSPropertyOp14
 70
     1
102
RTVSPropertyOp15
 70
     1
102
RTVSPropertyOp16
 70
     1
102
RTVSPropertyOp17
 70
     1
102
RTVSPropertyOp18
 70
     1
102
RTVSPropertyOp19
 70
     1
102
RTVSPropertyOp20
 70
     1
102
RTVSPropertyOp21
 70
     1
102
RTVSPropertyOp22
 70
     1
102
RTVSPropertyOp23
 70
     1
102
RTVSPropertyOp24
 70
     1
102
RTVSPropertyOp25
 70
     1
102
RTVSPropertyOp26
 70
     1
102
RTVSPropertyOp27
 70
     1
102
RTVSPropertyOp28
 70
     1
102
RTVSPropertyOp29
 70
     1
102
RTVSPropertyOp30
 70
     1
102
RTVSPropertyOp31
 70
     1
102
RTVSPropertyOp32
 70
     1
102
RTVSPropertyOp33
 70
     1
102
RTVSPropertyOp34
 70
     1
102
RTVSPropertyOp35
 70
     1
102
RTVSPropertyOp36
 70
     1
102
RTVSPropertyOp37
 70
     1
102
RTVSPropertyOp38
 70
     1
102
RTVSPropertyOp39
 70
     1
102
RTVSPropertyOp40
 70
     1
102
RTVSPropertyOp41
 70
     1
102
RTVSPropertyOp42
 70
     1
102
RTVSPropertyOp43
 70
     1
102
RTVSPropertyOp44
 70
     1
102
RTVSPropertyOp45
 70
     1
102
RTVSPropertyOp46
 70
     1
102
RTVSPropertyOp47
 70
     1
102
RTVSPropertyOp48
 70
     1
102
RTVSPropertyOp49
 70
     1
102
RTVSPropertyOp50
 70
     1
102
RTVSPropertyOp51
 70
     0
102
RTVSPropertyOp52
 70
     0
102
RTVSPropertyOp53
 70
     1
102
RTVSPropertyOp54
 70
     1
102
RTVSPropertyOp55
 70
     1
102
RTVSPropertyOp56
 70
     1
102
RTVSPropertyOp57
 70
     1
102
RTVSPropertyOp58
 70
     1
102
RTVSPropertyOp59
 70
     1
102
RTVSPropertyOp60
 70
     1
102
RTVSPropertyOp61
 70
     1
102
RTVSPropertyOp62
 70
     1
  0
XRECORD
  5
AE91
102
{ACAD_REACTORS
330
AE90
102
}
330
AE90
100
AcDbXrecord
280
     1
102
RTVSPost2010Prop28
280
     0
102
RTVSPost2010PropOp28
 70
     1
102
RTVSPost2010Prop29
280
     1
102
RTVSPost2010PropOp29
 70
     1
102
RTVSPost2010Prop30
280
     1
102
RTVSPost2010PropOp30
 70
     1
102
RTVSPost2010Prop31
280
     0
102
RTVSPost2010PropOp31
 70
     1
102
RTVSPost2010Prop32
280
     0
102
RTVSPost2010PropOp32
 70
     1
102
RTVSPost2010Prop33
280
     0
102
RTVSPost2010PropOp33
 70
     1
102
RTVSPost2010Prop34
280
     0
102
RTVSPost2010PropOp34
 70
     1
102
RTVSPost2010Prop35
280
     0
102
RTVSPost2010PropOp35
 70
     1
102
RTVSPost2010Prop36
280
     0
102
RTVSPost2010PropOp36
 70
     1
102
RTVSPost2010Prop37
 90
       50
102
RTVSPost2010PropOp37
 70
     0
102
RTVSPost2010Prop38
140
0.0
102
RTVSPost2010PropOp38
 70
     0
102
RTVSPost2010Prop39
140
1.0
102
RTVSPost2010PropOp39
 70
     0
102
RTVSPost2010Prop40
 90
        0
102
RTVSPost2010PropOp40
 70
     0
102
RTVSPost2010Prop41ColorIndex
 90
       18
102
RTVSPost2010Prop41ColorRGB
 90
        0
102
RTVSPost2010PropOp41
 70
     0
102
RTVSPost2010Prop42
 90
       50
102
RTVSPost2010PropOp42
 70
     0
102
RTVSPost2010Prop43
 90
        3
102
RTVSPost2010PropOp43
 70
     0
102
RTVSPost2010Prop44ColorIndex
 90
        5
102
RTVSPost2010Prop44ColorRGB
 90
      255
102
RTVSPost2010PropOp44
 70
     0
102
RTVSPost2010Prop45
280
     0
102
RTVSPost2010PropOp45
 70
     1
102
RTVSPost2010Prop46
 90
       50
102
RTVSPost2010PropOp46
 70
     0
102
RTVSPost2010Prop47
 90
       50
102
RTVSPost2010PropOp47
 70
     0
102
RTVSPost2010Prop48
 90
       50
102
RTVSPost2010PropOp48
 70
     0
102
RTVSPost2010Prop49
280
     0
102
RTVSPost2010PropOp49
 70
     1
102
RTVSPost2010Prop50
 90
       50
102
RTVSPost2010PropOp50
 70
     0
102
RTVSPost2010Prop51ColorIndex
 90
      256
102
RTVSPost2010Prop51ColorRGB
 90
-16777216
102
RTVSPost2010PropOp51
 70
     0
102
RTVSPost2010Prop52
140
1.0
102
RTVSPost2010PropOp52
 70
     0
102
RTVSPost2010Prop53
 90
        2
102
RTVSPost2010PropOp53
 70
     0
102
RTVSPost2010Prop54
  1
strokes_ogs.tif
102
RTVSPost2010PropOp54
 70
     0
102
RTVSPost2010Prop55
280
     0
102
RTVSPost2010PropOp55
 70
     1
102
RTVSPost2010Prop56
140
1.0
102
RTVSPost2010PropOp56
 70
     0
102
RTVSPost2010Prop57
140
1.0
102
RTVSPost2010PropOp57
 70
     0
102
RTVSPropertyOp0
 70
     0
102
RTVSPropertyOp1
 70
     0
102
RTVSPropertyOp2
 70
     0
102
RTVSPropertyOp3
 70
     0
102
RTVSPropertyOp4
 70
     0
102
RTVSPropertyOp5
 70
     0
102
RTVSPropertyOp6
 70
     0
102
RTVSPropertyOp7
 70
     0
102
RTVSPropertyOp8
 70
     0
102
RTVSPropertyOp9
 70
     0
102
RTVSPropertyOp10
 70
     0
102
RTVSPropertyOp11
 70
     0
102
RTVSPropertyOp12
 70
     0
102
RTVSPropertyOp13
 70
     0
102
RTVSPropertyOp14
 70
     2
102
RTVSPropertyOp15
 70
     0
102
RTVSPropertyOp16
 70
     0
102
RTVSPropertyOp17
 70
     0
102
RTVSPropertyOp18
 70
     0
102
RTVSPropertyOp19
 70
     0
102
RTVSPropertyOp20
 70
     0
102
RTVSPropertyOp21
 70
     0
102
RTVSPropertyOp22
 70
     0
102
RTVSPropertyOp23
 70
     0
102
RTVSPropertyOp24
 70
     0
102
RTVSPropertyOp25
 70
     0
102
RTVSPropertyOp26
 70
     0
102
RTVSPropertyOp27
 70
     0
102
RTVSPropertyOp28
 70
     1
102
RTVSPropertyOp29
 70
     1
102
RTVSPropertyOp30
 70
     1
102
RTVSPropertyOp31
 70
     1
102
RTVSPropertyOp32
 70
     1
102
RTVSPropertyOp33
 70
     1
102
RTVSPropertyOp34
 70
     1
102
RTVSPropertyOp35
 70
     1
102
RTVSPropertyOp36
 70
     1
102
RTVSPropertyOp37
 70
     0
102
RTVSPropertyOp38
 70
     0
102
RTVSPropertyOp39
 70
     0
102
RTVSPropertyOp40
 70
     0
102
RTVSPropertyOp41
 70
     0
102
RTVSPropertyOp42
 70
     0
102
RTVSPropertyOp43
 70
     0
102
RTVSPropertyOp44
 70
     0
102
RTVSPropertyOp45
 70
     1
102
RTVSPropertyOp46
 70
     0
102
RTVSPropertyOp47
 70
     0
102
RTVSPropertyOp48
 70
     0
102
RTVSPropertyOp49
 70
     1
102
RTVSPropertyOp50
 70
     0
102
RTVSPropertyOp51
 70
     0
102
RTVSPropertyOp52
 70
     0
102
RTVSPropertyOp53
 70
     0
102
RTVSPropertyOp54
 70
     0
102
RTVSPropertyOp55
 70
     1
102
RTVSPropertyOp56
 70
     0
102
RTVSPropertyOp57
 70
     0
102
RTVSPropertyOp58
 70
     0
102
RTVSPropertyOp59
 70
     0
102
RTVSPropertyOp60
 70
     0
102
RTVSPropertyOp61
 70
     0
102
RTVSPropertyOp62
 70
     0
  0
XRECORD
  5
AE77
102
{ACAD_REACTORS
330
AE76
102
}
330
AE76
100
AcDbXrecord
280
     1
102
RTVSPost2010Prop28
280
     0
102
RTVSPost2010PropOp28
 70
     1
102
RTVSPost2010Prop29
280
     1
102
RTVSPost2010PropOp29
 70
     1
102
RTVSPost2010Prop30
280
     1
102
RTVSPost2010PropOp30
 70
     1
102
RTVSPost2010Prop31
280
     0
102
RTVSPost2010PropOp31
 70
     1
102
RTVSPost2010Prop32
280
     0
102
RTVSPost2010PropOp32
 70
     1
102
RTVSPost2010Prop33
280
     0
102
RTVSPost2010PropOp33
 70
     1
102
RTVSPost2010Prop34
280
     0
102
RTVSPost2010PropOp34
 70
     1
102
RTVSPost2010Prop35
280
     0
102
RTVSPost2010PropOp35
 70
     1
102
RTVSPost2010Prop36
280
     0
102
RTVSPost2010PropOp36
 70
     1
102
RTVSPost2010Prop37
 90
       50
102
RTVSPost2010PropOp37
 70
     1
102
RTVSPost2010Prop38
140
0.0
102
RTVSPost2010PropOp38
 70
     1
102
RTVSPost2010Prop39
140
1.0
102
RTVSPost2010PropOp39
 70
     1
102
RTVSPost2010Prop40
 90
        0
102
RTVSPost2010PropOp40
 70
     1
102
RTVSPost2010Prop41ColorIndex
 90
       18
102
RTVSPost2010Prop41ColorRGB
 90
        0
102
RTVSPost2010PropOp41
 70
     1
102
RTVSPost2010Prop42
 90
       50
102
RTVSPost2010PropOp42
 70
     1
102
RTVSPost2010Prop43
 90
        3
102
RTVSPost2010PropOp43
 70
     1
102
RTVSPost2010Prop44ColorIndex
 90
        5
102
RTVSPost2010Prop44ColorRGB
 90
      255
102
RTVSPost2010PropOp44
 70
     1
102
RTVSPost2010Prop45
280
     0
102
RTVSPost2010PropOp45
 70
     1
102
RTVSPost2010Prop46
 90
       50
102
RTVSPost2010PropOp46
 70
     1
102
RTVSPost2010Prop47
 90
       50
102
RTVSPost2010PropOp47
 70
     1
102
RTVSPost2010Prop48
 90
       50
102
RTVSPost2010PropOp48
 70
     1
102
RTVSPost2010Prop49
280
     0
102
RTVSPost2010PropOp49
 70
     1
102
RTVSPost2010Prop50
 90
       50
102
RTVSPost2010PropOp50
 70
     1
102
RTVSPost2010Prop51ColorIndex
 90
      256
102
RTVSPost2010Prop51ColorRGB
 90
-16777216
102
RTVSPost2010PropOp51
 70
     0
102
RTVSPost2010Prop52
140
1.0
102
RTVSPost2010PropOp52
 70
     0
102
RTVSPost2010Prop53
 90
        2
102
RTVSPost2010PropOp53
 70
     1
102
RTVSPost2010Prop54
  1
strokes_ogs.tif
102
RTVSPost2010PropOp54
 70
     1
102
RTVSPost2010Prop55
280
     0
102
RTVSPost2010PropOp55
 70
     1
102
RTVSPost2010Prop56
140
1.0
102
RTVSPost2010PropOp56
 70
     1
102
RTVSPost2010Prop57
140
1.0
102
RTVSPost2010PropOp57
 70
     1
102
RTVSPropertyOp0
 70
     1
102
RTVSPropertyOp1
 70
     1
102
RTVSPropertyOp2
 70
     1
102
RTVSPropertyOp3
 70
     1
102
RTVSPropertyOp4
 70
     1
102
RTVSPropertyOp5
 70
     1
102
RTVSPropertyOp6
 70
     1
102
RTVSPropertyOp7
 70
     1
102
RTVSPropertyOp8
 70
     1
102
RTVSPropertyOp9
 70
     1
102
RTVSPropertyOp10
 70
     1
102
RTVSPropertyOp11
 70
     1
102
RTVSPropertyOp12
 70
     1
102
RTVSPropertyOp13
 70
     1
102
RTVSPropertyOp14
 70
     1
102
RTVSPropertyOp15
 70
     1
102
RTVSPropertyOp16
 70
     1
102
RTVSPropertyOp17
 70
     1
102
RTVSPropertyOp18
 70
     1
102
RTVSPropertyOp19
 70
     1
102
RTVSPropertyOp20
 70
     1
102
RTVSPropertyOp21
 70
     1
102
RTVSPropertyOp22
 70
     1
102
RTVSPropertyOp23
 70
     1
102
RTVSPropertyOp24
 70
     1
102
RTVSPropertyOp25
 70
     1
102
RTVSPropertyOp26
 70
     1
102
RTVSPropertyOp27
 70
     1
102
RTVSPropertyOp28
 70
     1
102
RTVSPropertyOp29
 70
     1
102
RTVSPropertyOp30
 70
     1
102
RTVSPropertyOp31
 70
     1
102
RTVSPropertyOp32
 70
     1
102
RTVSPropertyOp33
 70
     1
102
RTVSPropertyOp34
 70
     1
102
RTVSPropertyOp35
 70
     1
102
RTVSPropertyOp36
 70
     1
102
RTVSPropertyOp37
 70
     1
102
RTVSPropertyOp38
 70
     1
102
RTVSPropertyOp39
 70
     1
102
RTVSPropertyOp40
 70
     1
102
RTVSPropertyOp41
 70
     1
102
RTVSPropertyOp42
 70
     1
102
RTVSPropertyOp43
 70
     1
102
RTVSPropertyOp44
 70
     1
102
RTVSPropertyOp45
 70
     1
102
RTVSPropertyOp46
 70
     1
102
RTVSPropertyOp47
 70
     1
102
RTVSPropertyOp48
 70
     1
102
RTVSPropertyOp49
 70
     1
102
RTVSPropertyOp50
 70
     1
102
RTVSPropertyOp51
 70
     0
102
RTVSPropertyOp52
 70
     0
102
RTVSPropertyOp53
 70
     1
102
RTVSPropertyOp54
 70
     1
102
RTVSPropertyOp55
 70
     1
102
RTVSPropertyOp56
 70
     1
102
RTVSPropertyOp57
 70
     1
102
RTVSPropertyOp58
 70
     1
102
RTVSPropertyOp59
 70
     1
102
RTVSPropertyOp60
 70
     1
102
RTVSPropertyOp61
 70
     1
102
RTVSPropertyOp62
 70
     1
  0
XRECORD
  5
AE8D
102
{ACAD_REACTORS
330
AE8C
102
}
330
AE8C
100
AcDbXrecord
280
     1
102
RTVSPost2010Prop28
280
     0
102
RTVSPost2010PropOp28
 70
     1
102
RTVSPost2010Prop29
280
     1
102
RTVSPost2010PropOp29
 70
     1
102
RTVSPost2010Prop30
280
     1
102
RTVSPost2010PropOp30
 70
     1
102
RTVSPost2010Prop31
280
     0
102
RTVSPost2010PropOp31
 70
     1
102
RTVSPost2010Prop32
280
     0
102
RTVSPost2010PropOp32
 70
     1
102
RTVSPost2010Prop33
280
     0
102
RTVSPost2010PropOp33
 70
     1
102
RTVSPost2010Prop34
280
     0
102
RTVSPost2010PropOp34
 70
     1
102
RTVSPost2010Prop35
280
     0
102
RTVSPost2010PropOp35
 70
     1
102
RTVSPost2010Prop36
280
     0
102
RTVSPost2010PropOp36
 70
     1
102
RTVSPost2010Prop37
 90
       50
102
RTVSPost2010PropOp37
 70
     1
102
RTVSPost2010Prop38
140
0.0
102
RTVSPost2010PropOp38
 70
     1
102
RTVSPost2010Prop39
140
1.0
102
RTVSPost2010PropOp39
 70
     1
102
RTVSPost2010Prop40
 90
        0
102
RTVSPost2010PropOp40
 70
     1
102
RTVSPost2010Prop41ColorIndex
 90
       18
102
RTVSPost2010Prop41ColorRGB
 90
        0
102
RTVSPost2010PropOp41
 70
     1
102
RTVSPost2010Prop42
 90
       50
102
RTVSPost2010PropOp42
 70
     1
102
RTVSPost2010Prop43
 90
        3
102
RTVSPost2010PropOp43
 70
     1
102
RTVSPost2010Prop44ColorIndex
 90
        5
102
RTVSPost2010Prop44ColorRGB
 90
      255
102
RTVSPost2010PropOp44
 70
     1
102
RTVSPost2010Prop45
280
     0
102
RTVSPost2010PropOp45
 70
     1
102
RTVSPost2010Prop46
 90
       50
102
RTVSPost2010PropOp46
 70
     1
102
RTVSPost2010Prop47
 90
       50
102
RTVSPost2010PropOp47
 70
     1
102
RTVSPost2010Prop48
 90
       50
102
RTVSPost2010PropOp48
 70
     1
102
RTVSPost2010Prop49
280
     0
102
RTVSPost2010PropOp49
 70
     1
102
RTVSPost2010Prop50
 90
       50
102
RTVSPost2010PropOp50
 70
     1
102
RTVSPost2010Prop51ColorIndex
 90
      256
102
RTVSPost2010Prop51ColorRGB
 90
-16777216
102
RTVSPost2010PropOp51
 70
     0
102
RTVSPost2010Prop52
140
1.0
102
RTVSPost2010PropOp52
 70
     0
102
RTVSPost2010Prop53
 90
        2
102
RTVSPost2010PropOp53
 70
     1
102
RTVSPost2010Prop54
  1
strokes_ogs.tif
102
RTVSPost2010PropOp54
 70
     1
102
RTVSPost2010Prop55
280
     0
102
RTVSPost2010PropOp55
 70
     1
102
RTVSPost2010Prop56
140
1.0
102
RTVSPost2010PropOp56
 70
     1
102
RTVSPost2010Prop57
140
1.0
102
RTVSPost2010PropOp57
 70
     1
102
RTVSPropertyOp0
 70
     1
102
RTVSPropertyOp1
 70
     1
102
RTVSPropertyOp2
 70
     1
102
RTVSPropertyOp3
 70
     1
102
RTVSPropertyOp4
 70
     1
102
RTVSPropertyOp5
 70
     1
102
RTVSPropertyOp6
 70
     1
102
RTVSPropertyOp7
 70
     1
102
RTVSPropertyOp8
 70
     1
102
RTVSPropertyOp9
 70
     1
102
RTVSPropertyOp10
 70
     1
102
RTVSPropertyOp11
 70
     1
102
RTVSPropertyOp12
 70
     1
102
RTVSPropertyOp13
 70
     1
102
RTVSPropertyOp14
 70
     1
102
RTVSPropertyOp15
 70
     1
102
RTVSPropertyOp16
 70
     1
102
RTVSPropertyOp17
 70
     1
102
RTVSPropertyOp18
 70
     1
102
RTVSPropertyOp19
 70
     1
102
RTVSPropertyOp20
 70
     1
102
RTVSPropertyOp21
 70
     1
102
RTVSPropertyOp22
 70
     1
102
RTVSPropertyOp23
 70
     1
102
RTVSPropertyOp24
 70
     1
102
RTVSPropertyOp25
 70
     1
102
RTVSPropertyOp26
 70
     1
102
RTVSPropertyOp27
 70
     1
102
RTVSPropertyOp28
 70
     1
102
RTVSPropertyOp29
 70
     1
102
RTVSPropertyOp30
 70
     1
102
RTVSPropertyOp31
 70
     1
102
RTVSPropertyOp32
 70
     1
102
RTVSPropertyOp33
 70
     1
102
RTVSPropertyOp34
 70
     1
102
RTVSPropertyOp35
 70
     1
102
RTVSPropertyOp36
 70
     1
102
RTVSPropertyOp37
 70
     1
102
RTVSPropertyOp38
 70
     1
102
RTVSPropertyOp39
 70
     1
102
RTVSPropertyOp40
 70
     1
102
RTVSPropertyOp41
 70
     1
102
RTVSPropertyOp42
 70
     1
102
RTVSPropertyOp43
 70
     1
102
RTVSPropertyOp44
 70
     1
102
RTVSPropertyOp45
 70
     1
102
RTVSPropertyOp46
 70
     1
102
RTVSPropertyOp47
 70
     1
102
RTVSPropertyOp48
 70
     1
102
RTVSPropertyOp49
 70
     1
102
RTVSPropertyOp50
 70
     1
102
RTVSPropertyOp51
 70
     0
102
RTVSPropertyOp52
 70
     0
102
RTVSPropertyOp53
 70
     1
102
RTVSPropertyOp54
 70
     1
102
RTVSPropertyOp55
 70
     1
102
RTVSPropertyOp56
 70
     1
102
RTVSPropertyOp57
 70
     1
102
RTVSPropertyOp58
 70
     1
102
RTVSPropertyOp59
 70
     1
102
RTVSPropertyOp60
 70
     1
102
RTVSPropertyOp61
 70
     1
102
RTVSPropertyOp62
 70
     1
  0
XRECORD
  5
AE8B
102
{ACAD_REACTORS
330
AE8A
102
}
330
AE8A
100
AcDbXrecord
280
     1
102
RTVSPost2010Prop28
280
     0
102
RTVSPost2010PropOp28
 70
     1
102
RTVSPost2010Prop29
280
     1
102
RTVSPost2010PropOp29
 70
     1
102
RTVSPost2010Prop30
280
     1
102
RTVSPost2010PropOp30
 70
     1
102
RTVSPost2010Prop31
280
     0
102
RTVSPost2010PropOp31
 70
     1
102
RTVSPost2010Prop32
280
     0
102
RTVSPost2010PropOp32
 70
     1
102
RTVSPost2010Prop33
280
     0
102
RTVSPost2010PropOp33
 70
     1
102
RTVSPost2010Prop34
280
     0
102
RTVSPost2010PropOp34
 70
     1
102
RTVSPost2010Prop35
280
     0
102
RTVSPost2010PropOp35
 70
     1
102
RTVSPost2010Prop36
280
     0
102
RTVSPost2010PropOp36
 70
     1
102
RTVSPost2010Prop37
 90
       50
102
RTVSPost2010PropOp37
 70
     1
102
RTVSPost2010Prop38
140
0.0
102
RTVSPost2010PropOp38
 70
     1
102
RTVSPost2010Prop39
140
1.0
102
RTVSPost2010PropOp39
 70
     1
102
RTVSPost2010Prop40
 90
        0
102
RTVSPost2010PropOp40
 70
     1
102
RTVSPost2010Prop41ColorIndex
 90
       18
102
RTVSPost2010Prop41ColorRGB
 90
        0
102
RTVSPost2010PropOp41
 70
     1
102
RTVSPost2010Prop42
 90
       50
102
RTVSPost2010PropOp42
 70
     1
102
RTVSPost2010Prop43
 90
        3
102
RTVSPost2010PropOp43
 70
     1
102
RTVSPost2010Prop44ColorIndex
 90
        5
102
RTVSPost2010Prop44ColorRGB
 90
      255
102
RTVSPost2010PropOp44
 70
     1
102
RTVSPost2010Prop45
280
     0
102
RTVSPost2010PropOp45
 70
     1
102
RTVSPost2010Prop46
 90
       50
102
RTVSPost2010PropOp46
 70
     1
102
RTVSPost2010Prop47
 90
       50
102
RTVSPost2010PropOp47
 70
     1
102
RTVSPost2010Prop48
 90
       50
102
RTVSPost2010PropOp48
 70
     1
102
RTVSPost2010Prop49
280
     0
102
RTVSPost2010PropOp49
 70
     1
102
RTVSPost2010Prop50
 90
       50
102
RTVSPost2010PropOp50
 70
     1
102
RTVSPost2010Prop51ColorIndex
 90
      256
102
RTVSPost2010Prop51ColorRGB
 90
-16777216
102
RTVSPost2010PropOp51
 70
     0
102
RTVSPost2010Prop52
140
1.0
102
RTVSPost2010PropOp52
 70
     0
102
RTVSPost2010Prop53
 90
        2
102
RTVSPost2010PropOp53
 70
     1
102
RTVSPost2010Prop54
  1
strokes_ogs.tif
102
RTVSPost2010PropOp54
 70
     1
102
RTVSPost2010Prop55
280
     0
102
RTVSPost2010PropOp55
 70
     1
102
RTVSPost2010Prop56
140
1.0
102
RTVSPost2010PropOp56
 70
     1
102
RTVSPost2010Prop57
140
1.0
102
RTVSPost2010PropOp57
 70
     1
102
RTVSPropertyOp0
 70
     1
102
RTVSPropertyOp1
 70
     1
102
RTVSPropertyOp2
 70
     1
102
RTVSPropertyOp3
 70
     1
102
RTVSPropertyOp4
 70
     1
102
RTVSPropertyOp5
 70
     1
102
RTVSPropertyOp6
 70
     1
102
RTVSPropertyOp7
 70
     1
102
RTVSPropertyOp8
 70
     1
102
RTVSPropertyOp9
 70
     1
102
RTVSPropertyOp10
 70
     1
102
RTVSPropertyOp11
 70
     1
102
RTVSPropertyOp12
 70
     1
102
RTVSPropertyOp13
 70
     1
102
RTVSPropertyOp14
 70
     1
102
RTVSPropertyOp15
 70
     1
102
RTVSPropertyOp16
 70
     1
102
RTVSPropertyOp17
 70
     1
102
RTVSPropertyOp18
 70
     1
102
RTVSPropertyOp19
 70
     1
102
RTVSPropertyOp20
 70
     1
102
RTVSPropertyOp21
 70
     1
102
RTVSPropertyOp22
 70
     1
102
RTVSPropertyOp23
 70
     1
102
RTVSPropertyOp24
 70
     1
102
RTVSPropertyOp25
 70
     1
102
RTVSPropertyOp26
 70
     1
102
RTVSPropertyOp27
 70
     1
102
RTVSPropertyOp28
 70
     1
102
RTVSPropertyOp29
 70
     1
102
RTVSPropertyOp30
 70
     1
102
RTVSPropertyOp31
 70
     1
102
RTVSPropertyOp32
 70
     1
102
RTVSPropertyOp33
 70
     1
102
RTVSPropertyOp34
 70
     1
102
RTVSPropertyOp35
 70
     1
102
RTVSPropertyOp36
 70
     1
102
RTVSPropertyOp37
 70
     1
102
RTVSPropertyOp38
 70
     1
102
RTVSPropertyOp39
 70
     1
102
RTVSPropertyOp40
 70
     1
102
RTVSPropertyOp41
 70
     1
102
RTVSPropertyOp42
 70
     1
102
RTVSPropertyOp43
 70
     1
102
RTVSPropertyOp44
 70
     1
102
RTVSPropertyOp45
 70
     1
102
RTVSPropertyOp46
 70
     1
102
RTVSPropertyOp47
 70
     1
102
RTVSPropertyOp48
 70
     1
102
RTVSPropertyOp49
 70
     1
102
RTVSPropertyOp50
 70
     1
102
RTVSPropertyOp51
 70
     0
102
RTVSPropertyOp52
 70
     0
102
RTVSPropertyOp53
 70
     1
102
RTVSPropertyOp54
 70
     1
102
RTVSPropertyOp55
 70
     1
102
RTVSPropertyOp56
 70
     1
102
RTVSPropertyOp57
 70
     1
102
RTVSPropertyOp58
 70
     1
102
RTVSPropertyOp59
 70
     1
102
RTVSPropertyOp60
 70
     1
102
RTVSPropertyOp61
 70
     1
102
RTVSPropertyOp62
 70
     1
  0
XRECORD
  5
AE85
102
{ACAD_REACTORS
330
AE84
102
}
330
AE84
100
AcDbXrecord
280
     1
102
RTVSPost2010Prop28
280
     0
102
RTVSPost2010PropOp28
 70
     1
102
RTVSPost2010Prop29
280
     1
102
RTVSPost2010PropOp29
 70
     1
102
RTVSPost2010Prop30
280
     1
102
RTVSPost2010PropOp30
 70
     1
102
RTVSPost2010Prop31
280
     0
102
RTVSPost2010PropOp31
 70
     1
102
RTVSPost2010Prop32
280
     0
102
RTVSPost2010PropOp32
 70
     1
102
RTVSPost2010Prop33
280
     0
102
RTVSPost2010PropOp33
 70
     1
102
RTVSPost2010Prop34
280
     0
102
RTVSPost2010PropOp34
 70
     1
102
RTVSPost2010Prop35
280
     0
102
RTVSPost2010PropOp35
 70
     1
102
RTVSPost2010Prop36
280
     0
102
RTVSPost2010PropOp36
 70
     1
102
RTVSPost2010Prop37
 90
       50
102
RTVSPost2010PropOp37
 70
     1
102
RTVSPost2010Prop38
140
0.0
102
RTVSPost2010PropOp38
 70
     1
102
RTVSPost2010Prop39
140
1.0
102
RTVSPost2010PropOp39
 70
     1
102
RTVSPost2010Prop40
 90
        0
102
RTVSPost2010PropOp40
 70
     1
102
RTVSPost2010Prop41ColorIndex
 90
       18
102
RTVSPost2010Prop41ColorRGB
 90
        0
102
RTVSPost2010PropOp41
 70
     1
102
RTVSPost2010Prop42
 90
       50
102
RTVSPost2010PropOp42
 70
     1
102
RTVSPost2010Prop43
 90
        3
102
RTVSPost2010PropOp43
 70
     1
102
RTVSPost2010Prop44ColorIndex
 90
        5
102
RTVSPost2010Prop44ColorRGB
 90
      255
102
RTVSPost2010PropOp44
 70
     1
102
RTVSPost2010Prop45
280
     0
102
RTVSPost2010PropOp45
 70
     1
102
RTVSPost2010Prop46
 90
       50
102
RTVSPost2010PropOp46
 70
     1
102
RTVSPost2010Prop47
 90
       50
102
RTVSPost2010PropOp47
 70
     1
102
RTVSPost2010Prop48
 90
       50
102
RTVSPost2010PropOp48
 70
     1
102
RTVSPost2010Prop49
280
     0
102
RTVSPost2010PropOp49
 70
     1
102
RTVSPost2010Prop50
 90
       50
102
RTVSPost2010PropOp50
 70
     1
102
RTVSPost2010Prop51ColorIndex
 90
      256
102
RTVSPost2010Prop51ColorRGB
 90
-16777216
102
RTVSPost2010PropOp51
 70
     0
102
RTVSPost2010Prop52
140
1.0
102
RTVSPost2010PropOp52
 70
     0
102
RTVSPost2010Prop53
 90
        2
102
RTVSPost2010PropOp53
 70
     1
102
RTVSPost2010Prop54
  1
strokes_ogs.tif
102
RTVSPost2010PropOp54
 70
     1
102
RTVSPost2010Prop55
280
     0
102
RTVSPost2010PropOp55
 70
     1
102
RTVSPost2010Prop56
140
1.0
102
RTVSPost2010PropOp56
 70
     1
102
RTVSPost2010Prop57
140
1.0
102
RTVSPost2010PropOp57
 70
     1
102
RTVSPropertyOp0
 70
     1
102
RTVSPropertyOp1
 70
     1
102
RTVSPropertyOp2
 70
     1
102
RTVSPropertyOp3
 70
     1
102
RTVSPropertyOp4
 70
     1
102
RTVSPropertyOp5
 70
     1
102
RTVSPropertyOp6
 70
     1
102
RTVSPropertyOp7
 70
     1
102
RTVSPropertyOp8
 70
     1
102
RTVSPropertyOp9
 70
     1
102
RTVSPropertyOp10
 70
     1
102
RTVSPropertyOp11
 70
     1
102
RTVSPropertyOp12
 70
     1
102
RTVSPropertyOp13
 70
     1
102
RTVSPropertyOp14
 70
     1
102
RTVSPropertyOp15
 70
     1
102
RTVSPropertyOp16
 70
     1
102
RTVSPropertyOp17
 70
     1
102
RTVSPropertyOp18
 70
     1
102
RTVSPropertyOp19
 70
     1
102
RTVSPropertyOp20
 70
     1
102
RTVSPropertyOp21
 70
     1
102
RTVSPropertyOp22
 70
     1
102
RTVSPropertyOp23
 70
     1
102
RTVSPropertyOp24
 70
     1
102
RTVSPropertyOp25
 70
     1
102
RTVSPropertyOp26
 70
     1
102
RTVSPropertyOp27
 70
     1
102
RTVSPropertyOp28
 70
     1
102
RTVSPropertyOp29
 70
     1
102
RTVSPropertyOp30
 70
     1
102
RTVSPropertyOp31
 70
     1
102
RTVSPropertyOp32
 70
     1
102
RTVSPropertyOp33
 70
     1
102
RTVSPropertyOp34
 70
     1
102
RTVSPropertyOp35
 70
     1
102
RTVSPropertyOp36
 70
     1
102
RTVSPropertyOp37
 70
     1
102
RTVSPropertyOp38
 70
     1
102
RTVSPropertyOp39
 70
     1
102
RTVSPropertyOp40
 70
     1
102
RTVSPropertyOp41
 70
     1
102
RTVSPropertyOp42
 70
     1
102
RTVSPropertyOp43
 70
     1
102
RTVSPropertyOp44
 70
     1
102
RTVSPropertyOp45
 70
     1
102
RTVSPropertyOp46
 70
     1
102
RTVSPropertyOp47
 70
     1
102
RTVSPropertyOp48
 70
     1
102
RTVSPropertyOp49
 70
     1
102
RTVSPropertyOp50
 70
     1
102
RTVSPropertyOp51
 70
     0
102
RTVSPropertyOp52
 70
     0
102
RTVSPropertyOp53
 70
     1
102
RTVSPropertyOp54
 70
     1
102
RTVSPropertyOp55
 70
     1
102
RTVSPropertyOp56
 70
     1
102
RTVSPropertyOp57
 70
     1
102
RTVSPropertyOp58
 70
     1
102
RTVSPropertyOp59
 70
     1
102
RTVSPropertyOp60
 70
     1
102
RTVSPropertyOp61
 70
     1
102
RTVSPropertyOp62
 70
     1
  0
XRECORD
  5
AE87
102
{ACAD_REACTORS
330
AE86
102
}
330
AE86
100
AcDbXrecord
280
     1
102
RTVSPost2010Prop28
280
     0
102
RTVSPost2010PropOp28
 70
     1
102
RTVSPost2010Prop29
280
     1
102
RTVSPost2010PropOp29
 70
     1
102
RTVSPost2010Prop30
280
     1
102
RTVSPost2010PropOp30
 70
     1
102
RTVSPost2010Prop31
280
     0
102
RTVSPost2010PropOp31
 70
     1
102
RTVSPost2010Prop32
280
     0
102
RTVSPost2010PropOp32
 70
     1
102
RTVSPost2010Prop33
280
     0
102
RTVSPost2010PropOp33
 70
     1
102
RTVSPost2010Prop34
280
     0
102
RTVSPost2010PropOp34
 70
     1
102
RTVSPost2010Prop35
280
     0
102
RTVSPost2010PropOp35
 70
     1
102
RTVSPost2010Prop36
280
     0
102
RTVSPost2010PropOp36
 70
     1
102
RTVSPost2010Prop37
 90
       50
102
RTVSPost2010PropOp37
 70
     1
102
RTVSPost2010Prop38
140
0.0
102
RTVSPost2010PropOp38
 70
     1
102
RTVSPost2010Prop39
140
1.0
102
RTVSPost2010PropOp39
 70
     1
102
RTVSPost2010Prop40
 90
        0
102
RTVSPost2010PropOp40
 70
     1
102
RTVSPost2010Prop41ColorIndex
 90
       18
102
RTVSPost2010Prop41ColorRGB
 90
        0
102
RTVSPost2010PropOp41
 70
     1
102
RTVSPost2010Prop42
 90
       50
102
RTVSPost2010PropOp42
 70
     1
102
RTVSPost2010Prop43
 90
        3
102
RTVSPost2010PropOp43
 70
     1
102
RTVSPost2010Prop44ColorIndex
 90
        5
102
RTVSPost2010Prop44ColorRGB
 90
      255
102
RTVSPost2010PropOp44
 70
     1
102
RTVSPost2010Prop45
280
     0
102
RTVSPost2010PropOp45
 70
     1
102
RTVSPost2010Prop46
 90
       50
102
RTVSPost2010PropOp46
 70
     1
102
RTVSPost2010Prop47
 90
       50
102
RTVSPost2010PropOp47
 70
     1
102
RTVSPost2010Prop48
 90
       50
102
RTVSPost2010PropOp48
 70
     1
102
RTVSPost2010Prop49
280
     0
102
RTVSPost2010PropOp49
 70
     1
102
RTVSPost2010Prop50
 90
       50
102
RTVSPost2010PropOp50
 70
     1
102
RTVSPost2010Prop51ColorIndex
 90
      256
102
RTVSPost2010Prop51ColorRGB
 90
-16777216
102
RTVSPost2010PropOp51
 70
     0
102
RTVSPost2010Prop52
140
1.0
102
RTVSPost2010PropOp52
 70
     0
102
RTVSPost2010Prop53
 90
        2
102
RTVSPost2010PropOp53
 70
     1
102
RTVSPost2010Prop54
  1
strokes_ogs.tif
102
RTVSPost2010PropOp54
 70
     1
102
RTVSPost2010Prop55
280
     0
102
RTVSPost2010PropOp55
 70
     1
102
RTVSPost2010Prop56
140
1.0
102
RTVSPost2010PropOp56
 70
     1
102
RTVSPost2010Prop57
140
1.0
102
RTVSPost2010PropOp57
 70
     1
102
RTVSPropertyOp0
 70
     1
102
RTVSPropertyOp1
 70
     1
102
RTVSPropertyOp2
 70
     1
102
RTVSPropertyOp3
 70
     1
102
RTVSPropertyOp4
 70
     1
102
RTVSPropertyOp5
 70
     1
102
RTVSPropertyOp6
 70
     1
102
RTVSPropertyOp7
 70
     1
102
RTVSPropertyOp8
 70
     1
102
RTVSPropertyOp9
 70
     1
102
RTVSPropertyOp10
 70
     1
102
RTVSPropertyOp11
 70
     1
102
RTVSPropertyOp12
 70
     1
102
RTVSPropertyOp13
 70
     1
102
RTVSPropertyOp14
 70
     1
102
RTVSPropertyOp15
 70
     1
102
RTVSPropertyOp16
 70
     1
102
RTVSPropertyOp17
 70
     1
102
RTVSPropertyOp18
 70
     1
102
RTVSPropertyOp19
 70
     1
102
RTVSPropertyOp20
 70
     1
102
RTVSPropertyOp21
 70
     1
102
RTVSPropertyOp22
 70
     1
102
RTVSPropertyOp23
 70
     1
102
RTVSPropertyOp24
 70
     1
102
RTVSPropertyOp25
 70
     1
102
RTVSPropertyOp26
 70
     1
102
RTVSPropertyOp27
 70
     1
102
RTVSPropertyOp28
 70
     1
102
RTVSPropertyOp29
 70
     1
102
RTVSPropertyOp30
 70
     1
102
RTVSPropertyOp31
 70
     1
102
RTVSPropertyOp32
 70
     1
102
RTVSPropertyOp33
 70
     1
102
RTVSPropertyOp34
 70
     1
102
RTVSPropertyOp35
 70
     1
102
RTVSPropertyOp36
 70
     1
102
RTVSPropertyOp37
 70
     1
102
RTVSPropertyOp38
 70
     1
102
RTVSPropertyOp39
 70
     1
102
RTVSPropertyOp40
 70
     1
102
RTVSPropertyOp41
 70
     1
102
RTVSPropertyOp42
 70
     1
102
RTVSPropertyOp43
 70
     1
102
RTVSPropertyOp44
 70
     1
102
RTVSPropertyOp45
 70
     1
102
RTVSPropertyOp46
 70
     1
102
RTVSPropertyOp47
 70
     1
102
RTVSPropertyOp48
 70
     1
102
RTVSPropertyOp49
 70
     1
102
RTVSPropertyOp50
 70
     1
102
RTVSPropertyOp51
 70
     0
102
RTVSPropertyOp52
 70
     0
102
RTVSPropertyOp53
 70
     1
102
RTVSPropertyOp54
 70
     1
102
RTVSPropertyOp55
 70
     1
102
RTVSPropertyOp56
 70
     1
102
RTVSPropertyOp57
 70
     1
102
RTVSPropertyOp58
 70
     1
102
RTVSPropertyOp59
 70
     1
102
RTVSPropertyOp60
 70
     1
102
RTVSPropertyOp61
 70
     1
102
RTVSPropertyOp62
 70
     1
  0
XRECORD
  5
AE7D
102
{ACAD_REACTORS
330
AE7C
102
}
330
AE7C
100
AcDbXrecord
280
     1
102
RTVSPost2010Prop28
280
     0
102
RTVSPost2010PropOp28
 70
     1
102
RTVSPost2010Prop29
280
     1
102
RTVSPost2010PropOp29
 70
     1
102
RTVSPost2010Prop30
280
     1
102
RTVSPost2010PropOp30
 70
     1
102
RTVSPost2010Prop31
280
     0
102
RTVSPost2010PropOp31
 70
     1
102
RTVSPost2010Prop32
280
     0
102
RTVSPost2010PropOp32
 70
     1
102
RTVSPost2010Prop33
280
     0
102
RTVSPost2010PropOp33
 70
     1
102
RTVSPost2010Prop34
280
     0
102
RTVSPost2010PropOp34
 70
     1
102
RTVSPost2010Prop35
280
     0
102
RTVSPost2010PropOp35
 70
     1
102
RTVSPost2010Prop36
280
     0
102
RTVSPost2010PropOp36
 70
     1
102
RTVSPost2010Prop37
 90
       50
102
RTVSPost2010PropOp37
 70
     1
102
RTVSPost2010Prop38
140
0.0
102
RTVSPost2010PropOp38
 70
     1
102
RTVSPost2010Prop39
140
1.0
102
RTVSPost2010PropOp39
 70
     1
102
RTVSPost2010Prop40
 90
        0
102
RTVSPost2010PropOp40
 70
     1
102
RTVSPost2010Prop41ColorIndex
 90
       18
102
RTVSPost2010Prop41ColorRGB
 90
        0
102
RTVSPost2010PropOp41
 70
     1
102
RTVSPost2010Prop42
 90
       50
102
RTVSPost2010PropOp42
 70
     1
102
RTVSPost2010Prop43
 90
        3
102
RTVSPost2010PropOp43
 70
     1
102
RTVSPost2010Prop44ColorIndex
 90
        5
102
RTVSPost2010Prop44ColorRGB
 90
      255
102
RTVSPost2010PropOp44
 70
     1
102
RTVSPost2010Prop45
280
     0
102
RTVSPost2010PropOp45
 70
     1
102
RTVSPost2010Prop46
 90
       50
102
RTVSPost2010PropOp46
 70
     1
102
RTVSPost2010Prop47
 90
       50
102
RTVSPost2010PropOp47
 70
     1
102
RTVSPost2010Prop48
 90
       50
102
RTVSPost2010PropOp48
 70
     1
102
RTVSPost2010Prop49
280
     0
102
RTVSPost2010PropOp49
 70
     1
102
RTVSPost2010Prop50
 90
       50
102
RTVSPost2010PropOp50
 70
     1
102
RTVSPost2010Prop51ColorIndex
 90
      256
102
RTVSPost2010Prop51ColorRGB
 90
-16777216
102
RTVSPost2010PropOp51
 70
     0
102
RTVSPost2010Prop52
140
1.0
102
RTVSPost2010PropOp52
 70
     0
102
RTVSPost2010Prop53
 90
        2
102
RTVSPost2010PropOp53
 70
     1
102
RTVSPost2010Prop54
  1
strokes_ogs.tif
102
RTVSPost2010PropOp54
 70
     1
102
RTVSPost2010Prop55
280
     0
102
RTVSPost2010PropOp55
 70
     1
102
RTVSPost2010Prop56
140
1.0
102
RTVSPost2010PropOp56
 70
     1
102
RTVSPost2010Prop57
140
1.0
102
RTVSPost2010PropOp57
 70
     1
102
RTVSPropertyOp0
 70
     1
102
RTVSPropertyOp1
 70
     1
102
RTVSPropertyOp2
 70
     1
102
RTVSPropertyOp3
 70
     1
102
RTVSPropertyOp4
 70
     1
102
RTVSPropertyOp5
 70
     1
102
RTVSPropertyOp6
 70
     1
102
RTVSPropertyOp7
 70
     1
102
RTVSPropertyOp8
 70
     1
102
RTVSPropertyOp9
 70
     1
102
RTVSPropertyOp10
 70
     1
102
RTVSPropertyOp11
 70
     1
102
RTVSPropertyOp12
 70
     1
102
RTVSPropertyOp13
 70
     1
102
RTVSPropertyOp14
 70
     1
102
RTVSPropertyOp15
 70
     1
102
RTVSPropertyOp16
 70
     1
102
RTVSPropertyOp17
 70
     1
102
RTVSPropertyOp18
 70
     1
102
RTVSPropertyOp19
 70
     1
102
RTVSPropertyOp20
 70
     1
102
RTVSPropertyOp21
 70
     1
102
RTVSPropertyOp22
 70
     1
102
RTVSPropertyOp23
 70
     1
102
RTVSPropertyOp24
 70
     1
102
RTVSPropertyOp25
 70
     1
102
RTVSPropertyOp26
 70
     1
102
RTVSPropertyOp27
 70
     1
102
RTVSPropertyOp28
 70
     1
102
RTVSPropertyOp29
 70
     1
102
RTVSPropertyOp30
 70
     1
102
RTVSPropertyOp31
 70
     1
102
RTVSPropertyOp32
 70
     1
102
RTVSPropertyOp33
 70
     1
102
RTVSPropertyOp34
 70
     1
102
RTVSPropertyOp35
 70
     1
102
RTVSPropertyOp36
 70
     1
102
RTVSPropertyOp37
 70
     1
102
RTVSPropertyOp38
 70
     1
102
RTVSPropertyOp39
 70
     1
102
RTVSPropertyOp40
 70
     1
102
RTVSPropertyOp41
 70
     1
102
RTVSPropertyOp42
 70
     1
102
RTVSPropertyOp43
 70
     1
102
RTVSPropertyOp44
 70
     1
102
RTVSPropertyOp45
 70
     1
102
RTVSPropertyOp46
 70
     1
102
RTVSPropertyOp47
 70
     1
102
RTVSPropertyOp48
 70
     1
102
RTVSPropertyOp49
 70
     1
102
RTVSPropertyOp50
 70
     1
102
RTVSPropertyOp51
 70
     0
102
RTVSPropertyOp52
 70
     0
102
RTVSPropertyOp53
 70
     1
102
RTVSPropertyOp54
 70
     1
102
RTVSPropertyOp55
 70
     1
102
RTVSPropertyOp56
 70
     1
102
RTVSPropertyOp57
 70
     1
102
RTVSPropertyOp58
 70
     1
102
RTVSPropertyOp59
 70
     1
102
RTVSPropertyOp60
 70
     1
102
RTVSPropertyOp61
 70
     1
102
RTVSPropertyOp62
 70
     1
  0
XRECORD
  5
AE71
102
{ACAD_REACTORS
330
AE70
102
}
330
AE70
100
AcDbXrecord
280
     1
102
RTVSPost2010Prop28
280
     0
102
RTVSPost2010PropOp28
 70
     1
102
RTVSPost2010Prop29
280
     1
102
RTVSPost2010PropOp29
 70
     1
102
RTVSPost2010Prop30
280
     1
102
RTVSPost2010PropOp30
 70
     1
102
RTVSPost2010Prop31
280
     0
102
RTVSPost2010PropOp31
 70
     1
102
RTVSPost2010Prop32
280
     0
102
RTVSPost2010PropOp32
 70
     1
102
RTVSPost2010Prop33
280
     0
102
RTVSPost2010PropOp33
 70
     1
102
RTVSPost2010Prop34
280
     0
102
RTVSPost2010PropOp34
 70
     1
102
RTVSPost2010Prop35
280
     0
102
RTVSPost2010PropOp35
 70
     1
102
RTVSPost2010Prop36
280
     0
102
RTVSPost2010PropOp36
 70
     1
102
RTVSPost2010Prop37
 90
       50
102
RTVSPost2010PropOp37
 70
     1
102
RTVSPost2010Prop38
140
0.0
102
RTVSPost2010PropOp38
 70
     1
102
RTVSPost2010Prop39
140
1.0
102
RTVSPost2010PropOp39
 70
     1
102
RTVSPost2010Prop40
 90
        0
102
RTVSPost2010PropOp40
 70
     1
102
RTVSPost2010Prop41ColorIndex
 90
       18
102
RTVSPost2010Prop41ColorRGB
 90
        0
102
RTVSPost2010PropOp41
 70
     1
102
RTVSPost2010Prop42
 90
       50
102
RTVSPost2010PropOp42
 70
     1
102
RTVSPost2010Prop43
 90
        3
102
RTVSPost2010PropOp43
 70
     1
102
RTVSPost2010Prop44ColorIndex
 90
        5
102
RTVSPost2010Prop44ColorRGB
 90
      255
102
RTVSPost2010PropOp44
 70
     1
102
RTVSPost2010Prop45
280
     0
102
RTVSPost2010PropOp45
 70
     1
102
RTVSPost2010Prop46
 90
       50
102
RTVSPost2010PropOp46
 70
     1
102
RTVSPost2010Prop47
 90
       50
102
RTVSPost2010PropOp47
 70
     1
102
RTVSPost2010Prop48
 90
       50
102
RTVSPost2010PropOp48
 70
     1
102
RTVSPost2010Prop49
280
     0
102
RTVSPost2010PropOp49
 70
     1
102
RTVSPost2010Prop50
 90
       50
102
RTVSPost2010PropOp50
 70
     1
102
RTVSPost2010Prop51ColorIndex
 90
      256
102
RTVSPost2010Prop51ColorRGB
 90
-16777216
102
RTVSPost2010PropOp51
 70
     0
102
RTVSPost2010Prop52
140
1.0
102
RTVSPost2010PropOp52
 70
     0
102
RTVSPost2010Prop53
 90
        2
102
RTVSPost2010PropOp53
 70
     1
102
RTVSPost2010Prop54
  1
strokes_ogs.tif
102
RTVSPost2010PropOp54
 70
     1
102
RTVSPost2010Prop55
280
     0
102
RTVSPost2010PropOp55
 70
     1
102
RTVSPost2010Prop56
140
1.0
102
RTVSPost2010PropOp56
 70
     1
102
RTVSPost2010Prop57
140
1.0
102
RTVSPost2010PropOp57
 70
     1
102
RTVSPropertyOp0
 70
     1
102
RTVSPropertyOp1
 70
     1
102
RTVSPropertyOp2
 70
     1
102
RTVSPropertyOp3
 70
     1
102
RTVSPropertyOp4
 70
     1
102
RTVSPropertyOp5
 70
     1
102
RTVSPropertyOp6
 70
     1
102
RTVSPropertyOp7
 70
     1
102
RTVSPropertyOp8
 70
     1
102
RTVSPropertyOp9
 70
     1
102
RTVSPropertyOp10
 70
     1
102
RTVSPropertyOp11
 70
     1
102
RTVSPropertyOp12
 70
     1
102
RTVSPropertyOp13
 70
     1
102
RTVSPropertyOp14
 70
     1
102
RTVSPropertyOp15
 70
     1
102
RTVSPropertyOp16
 70
     1
102
RTVSPropertyOp17
 70
     1
102
RTVSPropertyOp18
 70
     1
102
RTVSPropertyOp19
 70
     1
102
RTVSPropertyOp20
 70
     1
102
RTVSPropertyOp21
 70
     1
102
RTVSPropertyOp22
 70
     1
102
RTVSPropertyOp23
 70
     1
102
RTVSPropertyOp24
 70
     1
102
RTVSPropertyOp25
 70
     1
102
RTVSPropertyOp26
 70
     1
102
RTVSPropertyOp27
 70
     1
102
RTVSPropertyOp28
 70
     1
102
RTVSPropertyOp29
 70
     1
102
RTVSPropertyOp30
 70
     1
102
RTVSPropertyOp31
 70
     1
102
RTVSPropertyOp32
 70
     1
102
RTVSPropertyOp33
 70
     1
102
RTVSPropertyOp34
 70
     1
102
RTVSPropertyOp35
 70
     1
102
RTVSPropertyOp36
 70
     1
102
RTVSPropertyOp37
 70
     1
102
RTVSPropertyOp38
 70
     1
102
RTVSPropertyOp39
 70
     1
102
RTVSPropertyOp40
 70
     1
102
RTVSPropertyOp41
 70
     1
102
RTVSPropertyOp42
 70
     1
102
RTVSPropertyOp43
 70
     1
102
RTVSPropertyOp44
 70
     1
102
RTVSPropertyOp45
 70
     1
102
RTVSPropertyOp46
 70
     1
102
RTVSPropertyOp47
 70
     1
102
RTVSPropertyOp48
 70
     1
102
RTVSPropertyOp49
 70
     1
102
RTVSPropertyOp50
 70
     1
102
RTVSPropertyOp51
 70
     0
102
RTVSPropertyOp52
 70
     0
102
RTVSPropertyOp53
 70
     1
102
RTVSPropertyOp54
 70
     1
102
RTVSPropertyOp55
 70
     1
102
RTVSPropertyOp56
 70
     1
102
RTVSPropertyOp57
 70
     1
102
RTVSPropertyOp58
 70
     1
102
RTVSPropertyOp59
 70
     1
102
RTVSPropertyOp60
 70
     1
102
RTVSPropertyOp61
 70
     1
102
RTVSPropertyOp62
 70
     1
  0
XRECORD
  5
AE89
102
{ACAD_REACTORS
330
AE88
102
}
330
AE88
100
AcDbXrecord
280
     1
102
RTVSPost2010Prop28
280
     0
102
RTVSPost2010PropOp28
 70
     1
102
RTVSPost2010Prop29
280
     1
102
RTVSPost2010PropOp29
 70
     1
102
RTVSPost2010Prop30
280
     1
102
RTVSPost2010PropOp30
 70
     1
102
RTVSPost2010Prop31
280
     0
102
RTVSPost2010PropOp31
 70
     1
102
RTVSPost2010Prop32
280
     0
102
RTVSPost2010PropOp32
 70
     1
102
RTVSPost2010Prop33
280
     0
102
RTVSPost2010PropOp33
 70
     1
102
RTVSPost2010Prop34
280
     0
102
RTVSPost2010PropOp34
 70
     1
102
RTVSPost2010Prop35
280
     0
102
RTVSPost2010PropOp35
 70
     1
102
RTVSPost2010Prop36
280
     0
102
RTVSPost2010PropOp36
 70
     1
102
RTVSPost2010Prop37
 90
       50
102
RTVSPost2010PropOp37
 70
     1
102
RTVSPost2010Prop38
140
0.0
102
RTVSPost2010PropOp38
 70
     1
102
RTVSPost2010Prop39
140
1.0
102
RTVSPost2010PropOp39
 70
     1
102
RTVSPost2010Prop40
 90
        0
102
RTVSPost2010PropOp40
 70
     1
102
RTVSPost2010Prop41ColorIndex
 90
       18
102
RTVSPost2010Prop41ColorRGB
 90
        0
102
RTVSPost2010PropOp41
 70
     1
102
RTVSPost2010Prop42
 90
       50
102
RTVSPost2010PropOp42
 70
     1
102
RTVSPost2010Prop43
 90
        3
102
RTVSPost2010PropOp43
 70
     1
102
RTVSPost2010Prop44ColorIndex
 90
        5
102
RTVSPost2010Prop44ColorRGB
 90
      255
102
RTVSPost2010PropOp44
 70
     1
102
RTVSPost2010Prop45
280
     0
102
RTVSPost2010PropOp45
 70
     1
102
RTVSPost2010Prop46
 90
       50
102
RTVSPost2010PropOp46
 70
     1
102
RTVSPost2010Prop47
 90
       50
102
RTVSPost2010PropOp47
 70
     1
102
RTVSPost2010Prop48
 90
       50
102
RTVSPost2010PropOp48
 70
     1
102
RTVSPost2010Prop49
280
     0
102
RTVSPost2010PropOp49
 70
     1
102
RTVSPost2010Prop50
 90
       50
102
RTVSPost2010PropOp50
 70
     1
102
RTVSPost2010Prop51ColorIndex
 90
      256
102
RTVSPost2010Prop51ColorRGB
 90
-16777216
102
RTVSPost2010PropOp51
 70
     0
102
RTVSPost2010Prop52
140
1.0
102
RTVSPost2010PropOp52
 70
     0
102
RTVSPost2010Prop53
 90
        2
102
RTVSPost2010PropOp53
 70
     1
102
RTVSPost2010Prop54
  1
strokes_ogs.tif
102
RTVSPost2010PropOp54
 70
     1
102
RTVSPost2010Prop55
280
     0
102
RTVSPost2010PropOp55
 70
     1
102
RTVSPost2010Prop56
140
1.0
102
RTVSPost2010PropOp56
 70
     1
102
RTVSPost2010Prop57
140
1.0
102
RTVSPost2010PropOp57
 70
     1
102
RTVSPropertyOp0
 70
     1
102
RTVSPropertyOp1
 70
     1
102
RTVSPropertyOp2
 70
     1
102
RTVSPropertyOp3
 70
     1
102
RTVSPropertyOp4
 70
     1
102
RTVSPropertyOp5
 70
     1
102
RTVSPropertyOp6
 70
     1
102
RTVSPropertyOp7
 70
     1
102
RTVSPropertyOp8
 70
     1
102
RTVSPropertyOp9
 70
     1
102
RTVSPropertyOp10
 70
     1
102
RTVSPropertyOp11
 70
     1
102
RTVSPropertyOp12
 70
     1
102
RTVSPropertyOp13
 70
     1
102
RTVSPropertyOp14
 70
     1
102
RTVSPropertyOp15
 70
     1
102
RTVSPropertyOp16
 70
     1
102
RTVSPropertyOp17
 70
     1
102
RTVSPropertyOp18
 70
     1
102
RTVSPropertyOp19
 70
     1
102
RTVSPropertyOp20
 70
     1
102
RTVSPropertyOp21
 70
     1
102
RTVSPropertyOp22
 70
     1
102
RTVSPropertyOp23
 70
     1
102
RTVSPropertyOp24
 70
     1
102
RTVSPropertyOp25
 70
     1
102
RTVSPropertyOp26
 70
     1
102
RTVSPropertyOp27
 70
     1
102
RTVSPropertyOp28
 70
     1
102
RTVSPropertyOp29
 70
     1
102
RTVSPropertyOp30
 70
     1
102
RTVSPropertyOp31
 70
     1
102
RTVSPropertyOp32
 70
     1
102
RTVSPropertyOp33
 70
     1
102
RTVSPropertyOp34
 70
     1
102
RTVSPropertyOp35
 70
     1
102
RTVSPropertyOp36
 70
     1
102
RTVSPropertyOp37
 70
     1
102
RTVSPropertyOp38
 70
     1
102
RTVSPropertyOp39
 70
     1
102
RTVSPropertyOp40
 70
     1
102
RTVSPropertyOp41
 70
     1
102
RTVSPropertyOp42
 70
     1
102
RTVSPropertyOp43
 70
     1
102
RTVSPropertyOp44
 70
     1
102
RTVSPropertyOp45
 70
     1
102
RTVSPropertyOp46
 70
     1
102
RTVSPropertyOp47
 70
     1
102
RTVSPropertyOp48
 70
     1
102
RTVSPropertyOp49
 70
     1
102
RTVSPropertyOp50
 70
     1
102
RTVSPropertyOp51
 70
     0
102
RTVSPropertyOp52
 70
     0
102
RTVSPropertyOp53
 70
     1
102
RTVSPropertyOp54
 70
     1
102
RTVSPropertyOp55
 70
     1
102
RTVSPropertyOp56
 70
     1
102
RTVSPropertyOp57
 70
     1
102
RTVSPropertyOp58
 70
     1
102
RTVSPropertyOp59
 70
     1
102
RTVSPropertyOp60
 70
     1
102
RTVSPropertyOp61
 70
     1
102
RTVSPropertyOp62
 70
     1
  0
ENDSEC
  0
EOF
