  0
SECTION
  2
HEADER
  9
$ACADVER
  1
AC1015
  9
$ACADMAINTVER
 70
    20
  9
$DWGCODEPAGE
  3
ANSI_932
  9
$INSBASE
 10
0.0
 20
0.0
 30
0.0
  9
$EXTMIN
 10
10.0
 20
9.999999999999998
 30
0.0
  9
$EXTMAX
 10
385.56178
 20
285.2174619999999
 30
0.0
  9
$LIMMIN
 10
0.0
 20
0.0
  9
$LIMMAX
 10
495.0
 20
341.25
  9
$ORTHOMODE
 70
     1
  9
$REGENMODE
 70
     1
  9
$FILLMODE
 70
     1
  9
$QTEXTMODE
 70
     0
  9
$MIRRTEXT
 70
     1
  9
$LTSCALE
 40
20.0
  9
$ATTMODE
 70
     1
  9
$TEXTSIZE
 40
5.0
  9
$TRACEWID
 40
1.0
  9
$TEXTSTYLE
  7
STANDARD
  9
$CLAYER
  8
0
  9
$CELTYPE
  6
BYLAYER
  9
$CECOLOR
 62
   256
  9
$CELTSCALE
 40
1.0
  9
$DISPSILH
 70
     0
  9
$DIMSCALE
 40
1.0
  9
$DIMASZ
 40
3.0
  9
$DIMEXO
 40
1.0
  9
$DIMDLI
 40
10.0
  9
$DIMRND
 40
0.0
  9
$DIMDLE
 40
0.0
  9
$DIMEXE
 40
1.0
  9
$DIMTP
 40
0.0
  9
$DIMTM
 40
0.0
  9
$DIMTXT
 40
3.2
  9
$DIMCEN
 40
0.0
  9
$DIMTSZ
 40
0.0
  9
$DIMTOL
 70
     0
  9
$DIMLIM
 70
     0
  9
$DIMTIH
 70
     0
  9
$DIMTOH
 70
     0
  9
$DIMSE1
 70
     0
  9
$DIMSE2
 70
     0
  9
$DIMTAD
 70
     3
  9
$DIMZIN
 70
     8
  9
$DIMBLK
  1

  9
$DIMASO
 70
     1
  9
$DIMSHO
 70
     1
  9
$DIMPOST
  1

  9
$DIMAPOST
  1

  9
$DIMALT
 70
     0
  9
$DIMALTD
 70
     2
  9
$DIMALTF
 40
25.4
  9
$DIMLFAC
 40
1.0
  9
$DIMTOFL
 70
     1
  9
$DIMTVP
 40
0.0
  9
$DIMTIX
 70
     0
  9
$DIMSOXD
 70
     0
  9
$DIMSAH
 70
     1
  9
$DIMBLK1
  1
OPEN
  9
$DIMBLK2
  1
OPEN
  9
$DIMSTYLE
  2
STANDARD
  9
$DIMCLRD
 70
     0
  9
$DIMCLRE
 70
     0
  9
$DIMCLRT
 70
     0
  9
$DIMTFAC
 40
1.0
  9
$DIMGAP
 40
1.0
  9
$DIMJUST
 70
     0
  9
$DIMSD1
 70
     0
  9
$DIMSD2
 70
     0
  9
$DIMTOLJ
 70
     1
  9
$DIMTZIN
 70
     0
  9
$DIMALTZ
 70
     0
  9
$DIMALTTZ
 70
     0
  9
$DIMUPT
 70
     0
  9
$DIMDEC
 70
     4
  9
$DIMTDEC
 70
     4
  9
$DIMALTU
 70
     2
  9
$DIMALTTD
 70
     2
  9
$DIMTXSTY
  7
STANDARD
  9
$DIMAUNIT
 70
     0
  9
$DIMADEC
 70
     0
  9
$DIMALTRND
 40
0.0
  9
$DIMAZIN
 70
     0
  9
$DIMDSEP
 70
    46
  9
$DIMATFIT
 70
     3
  9
$DIMFRAC
 70
     0
  9
$DIMLDRBLK
  1
OPEN
  9
$DIMLUNIT
 70
     2
  9
$DIMLWD
 70
    -2
  9
$DIMLWE
 70
    -2
  9
$DIMTMOVE
 70
     0
  9
$LUNITS
 70
     2
  9
$LUPREC
 70
     4
  9
$SKETCHINC
 40
1.0
  9
$FILLETRAD
 40
0.0
  9
$AUNITS
 70
     0
  9
$AUPREC
 70
     2
  9
$MENU
  1
.
  9
$ELEVATION
 40
0.0
  9
$PELEVATION
 40
0.0
  9
$THICKNESS
 40
0.0
  9
$LIMCHECK
 70
     0
  9
$CHAMFERA
 40
10.0
  9
$CHAMFERB
 40
10.0
  9
$CHAMFERC
 40
0.0
  9
$CHAMFERD
 40
0.0
  9
$SKPOLY
 70
     0
  9
$TDCREATE
 40
2451302.633749884
  9
$TDUCREATE
 40
2451302.258749884
  9
$TDUPDATE
 40
2457192.686554340
  9
$TDUUPDATE
 40
2457192.311554340
  9
$TDINDWG
 40
0.0000119560
  9
$TDUSRTIMER
 40
0.0000114699
  9
$USRTIMER
 70
     1
  9
$ANGBASE
 50
0.0
  9
$ANGDIR
 70
     0
  9
$PDMODE
 70
     0
  9
$PDSIZE
 40
0.0
  9
$PLINEWID
 40
0.0
  9
$SPLFRAME
 70
     0
  9
$SPLINETYPE
 70
     6
  9
$SPLINESEGS
 70
     8
  9
$HANDSEED
  5
A7E3
  9
$SURFTAB1
 70
     6
  9
$SURFTAB2
 70
     6
  9
$SURFTYPE
 70
     6
  9
$SURFU
 70
     6
  9
$SURFV
 70
     6
  9
$UCSBASE
  2

  9
$UCSNAME
  2

  9
$UCSORG
 10
0.0
 20
0.0
 30
0.0
  9
$UCSXDIR
 10
1.0
 20
0.0
 30
0.0
  9
$UCSYDIR
 10
0.0
 20
1.0
 30
0.0
  9
$UCSORTHOREF
  2

  9
$UCSORTHOVIEW
 70
     0
  9
$UCSORGTOP
 10
0.0
 20
0.0
 30
0.0
  9
$UCSORGBOTTOM
 10
0.0
 20
0.0
 30
0.0
  9
$UCSORGLEFT
 10
0.0
 20
0.0
 30
0.0
  9
$UCSORGRIGHT
 10
0.0
 20
0.0
 30
0.0
  9
$UCSORGFRONT
 10
0.0
 20
0.0
 30
0.0
  9
$UCSORGBACK
 10
0.0
 20
0.0
 30
0.0
  9
$PUCSBASE
  2

  9
$PUCSNAME
  2

  9
$PUCSORG
 10
0.0
 20
0.0
 30
0.0
  9
$PUCSXDIR
 10
1.0
 20
0.0
 30
0.0
  9
$PUCSYDIR
 10
0.0
 20
1.0
 30
0.0
  9
$PUCSORTHOREF
  2

  9
$PUCSORTHOVIEW
 70
     0
  9
$PUCSORGTOP
 10
0.0
 20
0.0
 30
0.0
  9
$PUCSORGBOTTOM
 10
0.0
 20
0.0
 30
0.0
  9
$PUCSORGLEFT
 10
0.0
 20
0.0
 30
0.0
  9
$PUCSORGRIGHT
 10
0.0
 20
0.0
 30
0.0
  9
$PUCSORGFRONT
 10
0.0
 20
0.0
 30
0.0
  9
$PUCSORGBACK
 10
0.0
 20
0.0
 30
0.0
  9
$USERI1
 70
     0
  9
$USERI2
 70
     0
  9
$USERI3
 70
     0
  9
$USERI4
 70
     0
  9
$USERI5
 70
     0
  9
$USERR1
 40
0.0
  9
$USERR2
 40
0.0
  9
$USERR3
 40
0.0
  9
$USERR4
 40
0.0
  9
$USERR5
 40
0.0
  9
$WORLDVIEW
 70
     1
  9
$SHADEDGE
 70
     3
  9
$SHADEDIF
 70
    70
  9
$TILEMODE
 70
     1
  9
$MAXACTVP
 70
    16
  9
$PINSBASE
 10
0.0
 20
0.0
 30
0.0
  9
$PLIMCHECK
 70
     0
  9
$PEXTMIN
 10
1.000000000000000E+20
 20
1.000000000000000E+20
 30
1.000000000000000E+20
  9
$PEXTMAX
 10
-1.000000000000000E+20
 20
-1.000000000000000E+20
 30
-1.000000000000000E+20
  9
$PLIMMIN
 10
0.0
 20
0.0
  9
$PLIMMAX
 10
420.0
 20
297.0
  9
$UNITMODE
 70
     0
  9
$VISRETAIN
 70
     0
  9
$PLINEGEN
 70
     0
  9
$PSLTSCALE
 70
     0
  9
$TREEDEPTH
 70
  3020
  9
$CMLSTYLE
  2
STANDARD
  9
$CMLJUST
 70
     0
  9
$CMLSCALE
 40
1.0
  9
$PROXYGRAPHICS
 70
     1
  9
$MEASUREMENT
 70
     0
  9
$CELWEIGHT
370
    -1
  9
$ENDCAPS
280
     0
  9
$JOINSTYLE
280
     0
  9
$LWDISPLAY
290
     0
  9
$INSUNITS
 70
     0
  9
$HYPERLINKBASE
  1

  9
$STYLESHEET
  1

  9
$XEDIT
290
     1
  9
$CEPSNTYPE
380
     0
  9
$PSTYLEMODE
290
     1
  9
$FINGERPRINTGUID
  2
{F74869E0-29F3-4AD5-BC06-07A943BD6978}
  9
$VERSIONGUID
  2
{97E27BE5-7A9D-44D7-98DB-4C908340613C}
  9
$EXTNAMES
290
     1
  9
$PSVPSCALE
 40
0.0
  9
$OLESTARTUP
290
     0
  0
ENDSEC
  0
SECTION
  2
CLASSES
  0
CLASS
  1
ACDBDICTIONARYWDFLT
  2
AcDbDictionaryWithDefault
  3
ObjectDBX Classes
 90
        0
280
     0
281
     0
  0
CLASS
  1
ACDBPLACEHOLDER
  2
AcDbPlaceHolder
  3
ObjectDBX Classes
 90
        0
280
     0
281
     0
  0
CLASS
  1
LAYOUT
  2
AcDbLayout
  3
ObjectDBX Classes
 90
        0
280
     0
281
     0
  0
CLASS
  1
DICTIONARYVAR
  2
AcDbDictionaryVar
  3
ObjectDBX Classes
 90
        0
280
     0
281
     0
  0
CLASS
  1
MATERIAL
  2
AcDbMaterial
  3
ObjectDBX Classes
 90
     1153
280
     0
281
     0
  0
CLASS
  1
VISUALSTYLE
  2
AcDbVisualStyle
  3
ObjectDBX Classes
 90
     4095
280
     0
281
     0
  0
CLASS
  1
TABLESTYLE
  2
AcDbTableStyle
  3
ObjectDBX Classes
 90
     4095
280
     0
281
     0
  0
CLASS
  1
SCALE
  2
AcDbScale
  3
ObjectDBX Classes
 90
     1153
280
     0
281
     0
  0
CLASS
  1
MLEADERSTYLE
  2
AcDbMLeaderStyle
  3
ACDB_MLEADERSTYLE_CLASS
 90
     4095
280
     0
281
     0
  0
CLASS
  1
ACDBSECTIONVIEWSTYLE
  2
AcDbSectionViewStyle
  3
ObjectDBX Classes
 90
     1025
280
     0
281
     0
  0
CLASS
  1
ACDBDETAILVIEWSTYLE
  2
AcDbDetailViewStyle
  3
ObjectDBX Classes
 90
     1025
280
     0
281
     0
  0
CLASS
  1
CELLSTYLEMAP
  2
AcDbCellStyleMap
  3
ObjectDBX Classes
 90
     1152
280
     0
281
     0
  0
ENDSEC
  0
SECTION
  2
TABLES
  0
TABLE
  2
VPORT
  5
A4C9
330
0
100
AcDbSymbolTable
 70
     1
  0
VPORT
  5
A72C
330
A4C9
100
AcDbSymbolTableRecord
100
AcDbViewportTableRecord
  2
*ACTIVE
 70
     0
 10
0.0
 20
0.0
 11
1.0
 21
1.0
 12
281.1485467191423
 22
147.609787755046
 13
0.0
 23
0.0
 14
10.0
 24
10.0
 15
10.0
 25
10.0
 16
0.0
 26
0.0
 36
1.0
 17
0.0
 27
0.0
 37
0.0
 40
278.2866693215096
 41
2.35006605019815
 42
50.0
 43
0.0
 44
0.0
 50
0.0
 51
0.0
 71
     0
 72
   100
 73
     1
 74
     0
 75
     0
 76
     0
 77
     0
 78
     0
281
     0
 65
     1
110
0.0
120
0.0
130
0.0
111
1.0
121
0.0
131
0.0
112
0.0
122
1.0
132
0.0
 79
     0
146
0.0
1001
ACAD_NAV_VCDISPLAY
1070
     3
  0
ENDTAB
  0
TABLE
  2
LTYPE
  5
A4C6
330
0
100
AcDbSymbolTable
 70
     4
  0
LTYPE
  5
A4D4
330
A4C6
100
AcDbSymbolTableRecord
100
AcDbLinetypeTableRecord
  2
BYBLOCK
 70
     0
  3

 72
    65
 73
     0
 40
0.0
  0
LTYPE
  5
A4D5
330
A4C6
100
AcDbSymbolTableRecord
100
AcDbLinetypeTableRecord
  2
BYLAYER
 70
     0
  3

 72
    65
 73
     0
 40
0.0
  0
LTYPE
  5
A4D6
330
A4C6
100
AcDbSymbolTableRecord
100
AcDbLinetypeTableRecord
  2
CONTINUOUS
 70
     0
  3
Solid line
 72
    65
 73
     0
 40
0.0
  0
LTYPE
  5
A4E4
330
A4C6
100
AcDbSymbolTableRecord
100
AcDbLinetypeTableRecord
  2
DASHED
 70
     0
  3
__ __ __ __ __ __ __ __ __ __ __ __ __ __ __ __
 72
    65
 73
     2
 40
0.75
 49
0.5
 74
     0
 49
-0.25
 74
     0
  0
LTYPE
  5
A4E5
330
A4C6
100
AcDbSymbolTableRecord
100
AcDbLinetypeTableRecord
  2
CENTER
 70
     0
  3
____ _ ____ _ ____ _ ____ _ ____ _ ____ _ ____ 
 72
    65
 73
     4
 40
2.0
 49
1.25
 74
     0
 49
-0.25
 74
     0
 49
0.25
 74
     0
 49
-0.25
 74
     0
  0
LTYPE
  5
A4E6
330
A4C6
100
AcDbSymbolTableRecord
100
AcDbLinetypeTableRecord
  2
PHANTOM
 70
     0
  3
______  __  __  ______  __  __  ______  __  __ 
 72
    65
 73
     6
 40
2.5
 49
1.25
 74
     0
 49
-0.25
 74
     0
 49
0.25
 74
     0
 49
-0.25
 74
     0
 49
0.25
 74
     0
 49
-0.25
 74
     0
  0
ENDTAB
  0
TABLE
  2
LAYER
  5
A4C3
330
0
100
AcDbSymbolTable
 70
     8
  0
LAYER
  5
A4D1
102
{ACAD_XDICTIONARY
360
A787
102
}
330
A4C3
100
AcDbSymbolTableRecord
100
AcDbLayerTableRecord
  2
0
 70
     0
 62
     7
  6
CONTINUOUS
370
    -3
390
A735
  0
LAYER
  5
A4E7
102
{ACAD_XDICTIONARY
360
A789
102
}
330
A4C3
100
AcDbSymbolTableRecord
100
AcDbLayerTableRecord
  2
4
 70
     0
 62
     1
  6
CENTER
370
    -3
390
A735
  0
LAYER
  5
A4E8
102
{ACAD_XDICTIONARY
360
A78B
102
}
330
A4C3
100
AcDbSymbolTableRecord
100
AcDbLayerTableRecord
  2
5
 70
     0
 62
     6
  6
PHANTOM
370
    -3
390
A735
  0
LAYER
  5
A4E9
102
{ACAD_XDICTIONARY
360
A78D
102
}
330
A4C3
100
AcDbSymbolTableRecord
100
AcDbLayerTableRecord
  2
1
 70
     0
 62
     7
  6
CONTINUOUS
370
    -3
390
A735
  0
LAYER
  5
A4EA
102
{ACAD_XDICTIONARY
360
A78F
102
}
330
A4C3
100
AcDbSymbolTableRecord
100
AcDbLayerTableRecord
  2
2
 70
     0
 62
     4
  6
CONTINUOUS
370
    -3
390
A735
  0
LAYER
  5
A4EB
102
{ACAD_XDICTIONARY
360
A791
102
}
330
A4C3
100
AcDbSymbolTableRecord
100
AcDbLayerTableRecord
  2
3
 70
     0
 62
     2
  6
DASHED
370
    -3
390
A735
  0
LAYER
  5
A4EC
102
{ACAD_XDICTIONARY
360
A793
102
}
330
A4C3
100
AcDbSymbolTableRecord
100
AcDbLayerTableRecord
  2
6
 70
     0
 62
     5
  6
CONTINUOUS
370
    -3
390
A735
  0
LAYER
  5
A4ED
102
{ACAD_XDICTIONARY
360
A795
102
}
330
A4C3
100
AcDbSymbolTableRecord
100
AcDbLayerTableRecord
  2
7
 70
     0
 62
     3
  6
CONTINUOUS
370
    -3
390
A735
  0
ENDTAB
  0
TABLE
  2
STYLE
  5
A4C4
330
0
100
AcDbSymbolTable
 70
     1
  0
STYLE
  5
A4D2
330
A4C4
100
AcDbSymbolTableRecord
100
AcDbTextStyleTableRecord
  2
STANDARD
 70
     0
 40
0.0
 41
1.0
 50
0.0
 71
     0
 42
5.0
  3
txt
  4

  0
ENDTAB
  0
TABLE
  2
VIEW
  5
A4C7
330
0
100
AcDbSymbolTable
 70
     0
  0
ENDTAB
  0
TABLE
  2
UCS
  5
A4C8
330
0
100
AcDbSymbolTable
 70
     0
  0
ENDTAB
  0
TABLE
  2
APPID
  5
A4CA
330
0
100
AcDbSymbolTable
 70
     3
  0
APPID
  5
A4D3
330
A4CA
100
AcDbSymbolTableRecord
100
AcDbRegAppTableRecord
  2
ACAD
 70
     0
  0
APPID
  5
A7A1
330
A4CA
100
AcDbSymbolTableRecord
100
AcDbRegAppTableRecord
  2
ACAD_NAV_VCDISPLAY
 70
     0
  0
APPID
  5
A7DA
330
A4CA
100
AcDbSymbolTableRecord
100
AcDbRegAppTableRecord
  2
ACAD_MLEADERVER
 70
     0
  0
ENDTAB
  0
TABLE
  2
DIMSTYLE
  5
A4CB
330
0
100
AcDbSymbolTable
 70
     1
100
AcDbDimStyleTable
 71
     0
  0
DIMSTYLE
105
A4EF
330
A4CB
100
AcDbSymbolTableRecord
100
AcDbDimStyleTableRecord
  2
STANDARD
 70
     0
 41
3.0
 42
1.0
 43
10.0
 44
1.0
 73
     0
 74
     0
 77
     3
 78
     8
140
3.2
141
0.0
147
1.0
172
     1
173
     1
284
     8
285
     8
286
     8
340
A4D2
  0
ENDTAB
  0
TABLE
  2
BLOCK_RECORD
  5
A4C2
330
0
100
AcDbSymbolTable
 70
     1
  0
BLOCK_RECORD
  5
A4DF
102
{ACAD_XDICTIONARY
360
A72F
102
}
330
A4C2
100
AcDbSymbolTableRecord
100
AcDbBlockTableRecord
  2
*MODEL_SPACE
340
A783
  0
BLOCK_RECORD
  5
A4DB
102
{ACAD_XDICTIONARY
360
A72D
102
}
330
A4C2
100
AcDbSymbolTableRecord
100
AcDbBlockTableRecord
  2
*PAPER_SPACE
340
A784
  0
BLOCK_RECORD
  5
A4F7
330
A4C2
100
AcDbSymbolTableRecord
100
AcDbBlockTableRecord
  2
_OPEN
340
0
  0
ENDTAB
  0
ENDSEC
  0
SECTION
  2
BLOCKS
  0
BLOCK
  5
A4E0
330
A4DF
100
AcDbEntity
  8
0
100
AcDbBlockBegin
  2
*MODEL_SPACE
 70
     0
 10
0.0
 20
0.0
 30
0.0
  3
*MODEL_SPACE
  1

  0
ENDBLK
  5
A4E1
330
A4DF
100
AcDbEntity
  8
0
100
AcDbBlockEnd
  0
BLOCK
  5
A4DC
330
A4DB
100
AcDbEntity
 67
     1
  8
0
100
AcDbBlockBegin
  2
*PAPER_SPACE
 70
     0
 10
0.0
 20
0.0
 30
0.0
  3
*PAPER_SPACE
  1

  0
ENDBLK
  5
A4DD
330
A4DB
100
AcDbEntity
 67
     1
  8
0
100
AcDbBlockEnd
  0
BLOCK
  5
A4F8
330
A4F7
100
AcDbEntity
  8
0
100
AcDbBlockBegin
  2
_OPEN
 70
     0
 10
0.0
 20
0.0
 30
0.0
  3
_OPEN
  1

  0
LINE
  5
A4F9
330
A4F7
100
AcDbEntity
  8
0
  6
ByBlock
 62
     0
100
AcDbLine
 10
-1.0
 20
0.166667
 30
0.0
 11
0.0
 21
0.0
 31
0.0
  0
LINE
  5
A4FA
330
A4F7
100
AcDbEntity
  8
0
  6
ByBlock
 62
     0
100
AcDbLine
 10
0.0
 20
0.0
 30
0.0
 11
-1.0
 21
-0.166667
 31
0.0
  0
LINE
  5
A4FB
330
A4F7
100
AcDbEntity
  8
0
  6
ByBlock
 62
     0
100
AcDbLine
 10
0.0
 20
0.0
 30
0.0
 11
-1.0
 21
0.0
 31
0.0
  0
ENDBLK
  5
A4FC
330
A4F7
100
AcDbEntity
  8
0
100
AcDbBlockEnd
  0
ENDSEC
  0
SECTION
  2
ENTITIES
  0
TEXT
  5
A4FD
330
A4DF
100
AcDbEntity
  8
7
  6
Continuous
100
AcDbText
 10
10.0
 20
18.0
 30
0.0
 40
3.0
  1
TYPE No.103-N
100
AcDbText
  0
TEXT
  5
A4FE
330
A4DF
100
AcDbEntity
  8
7
  6
Continuous
100
AcDbText
 10
10.0
 20
26.0
 30
0.0
 40
3.0
  1
CODE No.9052
100
AcDbText
  0
TEXT
  5
A4FF
330
A4DF
100
AcDbEntity
  8
1
  6
Continuous
100
AcDbText
 10
10.0
 20
10.0
 30
0.0
 40
1.399999999999999
  1
LAYER
100
AcDbText
  0
TEXT
  5
A500
330
A4DF
100
AcDbEntity
  8
1
  6
Continuous
100
AcDbText
 10
17.97951099999998
 20
10.04873699999998
 30
0.0
 40
1.399999999999999
  1
1
100
AcDbText
  0
TEXT
  5
A501
330
A4DF
100
AcDbEntity
  8
7
  6
Continuous
100
AcDbText
 10
29.97951099999999
 20
10.04873699999998
 30
0.0
 40
1.399999999999999
  1
7
100
AcDbText
  0
TEXT
  5
A502
330
A4DF
100
AcDbEntity
  8
4
  6
CENTER
100
AcDbText
 10
23.97951099999999
 20
10.04873699999998
 30
0.0
 40
1.399999999999999
  1
4
100
AcDbText
  0
TEXT
  5
A503
330
A4DF
100
AcDbEntity
  8
3
  6
DASHED
100
AcDbText
 10
21.979511
 20
10.04873699999998
 30
0.0
 40
1.399999999999999
  1
3
100
AcDbText
  0
TEXT
  5
A504
330
A4DF
100
AcDbEntity
  8
2
  6
Continuous
100
AcDbText
 10
19.97951099999999
 20
10.04873699999998
 30
0.0
 40
1.399999999999999
  1
2
100
AcDbText
  0
TEXT
  5
A505
330
A4DF
100
AcDbEntity
  8
6
  6
Continuous
100
AcDbText
 10
27.979511
 20
10.04873699999998
 30
0.0
 40
1.399999999999999
  1
6
100
AcDbText
  0
TEXT
  5
A506
330
A4DF
100
AcDbEntity
  8
5
  6
PHANTOM
100
AcDbText
 10
25.97951099999999
 20
10.04873699999998
 30
0.0
 40
1.399999999999999
  1
5
100
AcDbText
  0
LINE
  5
A507
330
A4DF
100
AcDbEntity
  8
1
  6
Continuous
100
AcDbLine
 10
179.6646189999999
 20
238.217462
 30
0.0
 11
124.6646189999998
 21
238.217462
 31
0.0
  0
LINE
  5
A508
330
A4DF
100
AcDbEntity
  8
1
  6
Continuous
100
AcDbLine
 10
122.1646189999999
 20
240.717462
 30
0.0
 11
122.1646189999999
 21
277.717462
 31
0.0
  0
LINE
  5
A509
330
A4DF
100
AcDbEntity
  8
1
  6
Continuous
100
AcDbLine
 10
124.6646189999998
 20
280.217462
 30
0.0
 11
179.6646189999999
 21
280.217462
 31
0.0
  0
LINE
  5
A50A
330
A4DF
100
AcDbEntity
  8
1
  6
Continuous
100
AcDbLine
 10
182.1646189999999
 20
277.717462
 30
0.0
 11
182.1646189999999
 21
240.717462
 31
0.0
  0
CIRCLE
  5
A50B
330
A4DF
100
AcDbEntity
  8
1
  6
Continuous
100
AcDbCircle
 10
152.164619
 20
259.217462
 30
0.0
 40
8.5
  0
CIRCLE
  5
A50C
330
A4DF
100
AcDbEntity
  8
1
  6
Continuous
100
AcDbCircle
 10
175.6646189999999
 20
273.717462
 30
0.0
 40
3.25
  0
CIRCLE
  5
A50D
330
A4DF
100
AcDbEntity
  8
1
  6
Continuous
100
AcDbCircle
 10
175.6646189999999
 20
244.717462
 30
0.0
 40
3.25
  0
CIRCLE
  5
A50E
330
A4DF
100
AcDbEntity
  8
1
  6
Continuous
100
AcDbCircle
 10
128.6646189999999
 20
244.717462
 30
0.0
 40
3.25
  0
CIRCLE
  5
A50F
330
A4DF
100
AcDbEntity
  8
1
  6
Continuous
100
AcDbCircle
 10
128.6646189999999
 20
273.717462
 30
0.0
 40
3.25
  0
ARC
  5
A510
330
A4DF
100
AcDbEntity
  8
1
  6
Continuous
100
AcDbCircle
 10
179.6646189999999
 20
277.717462
 30
0.0
 40
2.5
100
AcDbArc
 50
0.0
 51
90.0
  0
ARC
  5
A511
330
A4DF
100
AcDbEntity
  8
1
  6
Continuous
100
AcDbCircle
 10
179.6646189999999
 20
240.717462
 30
0.0
 40
2.5
100
AcDbArc
 50
270.0
 51
0.0
  0
ARC
  5
A512
330
A4DF
100
AcDbEntity
  8
1
  6
Continuous
100
AcDbCircle
 10
124.6646189999998
 20
277.717462
 30
0.0
 40
2.5
100
AcDbArc
 50
90.0
 51
180.0
  0
ARC
  5
A513
330
A4DF
100
AcDbEntity
  8
1
  6
Continuous
100
AcDbCircle
 10
124.6646189999998
 20
240.717462
 30
0.0
 40
2.5
100
AcDbArc
 50
180.0
 51
270.0
  0
LINE
  5
A514
330
A4DF
100
AcDbEntity
  8
1
  6
Continuous
100
AcDbLine
 10
263.2132029999999
 20
186.8011789999999
 30
0.0
 11
263.2132029999999
 21
166.401179
 31
0.0
  0
ARC
  5
A515
330
A4DF
100
AcDbEntity
  8
1
  6
Continuous
100
AcDbCircle
 10
228.5132029999998
 20
186.8011789999999
 30
0.0
 40
3.0
100
AcDbArc
 50
90.0
 51
180.0
  0
ARC
  5
A516
330
A4DF
100
AcDbEntity
  8
1
  6
Continuous
100
AcDbCircle
 10
260.2132029999999
 20
186.8011789999999
 30
0.0
 40
3.0
100
AcDbArc
 50
0.0
 51
90.0
  0
LINE
  5
A517
330
A4DF
100
AcDbEntity
  8
1
  6
Continuous
100
AcDbLine
 10
228.1362479999998
 20
193.145533
 30
0.0
 11
260.5899609999998
 21
193.145533
 31
0.0
  0
ARC
  5
A518
330
A4DF
100
AcDbEntity
  8
1
  6
Continuous
100
AcDbCircle
 10
228.1362479999998
 20
196.324106
 30
0.0
 40
3.178573
100
AcDbArc
 50
236.7899089999999
 51
270.0
  0
LINE
  5
A519
330
A4DF
100
AcDbEntity
  8
1
  6
Continuous
100
AcDbLine
 10
224.5976069999999
 20
194.865533
 30
0.0
 11
224.4094409999999
 21
195.113571
 31
0.0
  0
LINE
  5
A51A
330
A4DF
100
AcDbEntity
  8
1
  6
Continuous
100
AcDbLine
 10
223.3632029999998
 20
197.1135329999999
 30
0.0
 11
265.363203
 21
197.1135329999999
 31
0.0
  0
ARC
  5
A51B
330
A4DF
100
AcDbEntity
  8
1
  6
Continuous
100
AcDbCircle
 10
290.1340339999998
 20
291.0302449999999
 30
0.0
 40
116.3729999999999
100
AcDbArc
 50
235.7254979999999
 51
236.7899089999999
  0
ARC
  5
A51C
330
A4DF
100
AcDbEntity
  8
1
  6
Continuous
100
AcDbCircle
 10
230.6688359999998
 20
192.7040129999998
 30
0.0
 40
2.371570999999998
100
AcDbArc
 50
188.020211
 51
218.050809
  0
ARC
  5
A51D
330
A4DF
100
AcDbEntity
  8
1
  6
Continuous
100
AcDbCircle
 10
229.350973
 20
191.991802
 30
0.0
 40
1.098799999999998
100
AcDbArc
 50
121.214655
 51
159.693839
  0
LINE
  5
A51E
330
A4DF
100
AcDbEntity
  8
1
  6
Continuous
100
AcDbLine
 10
228.1131039999999
 20
189.801237
 30
0.0
 11
260.613104
 21
189.801043
 31
0.0
  0
LINE
  5
A51F
330
A4DF
100
AcDbEntity
  8
1
  6
Continuous
100
AcDbLine
 10
223.3632029999998
 20
195.113571
 30
0.0
 11
265.363203
 21
195.113571
 31
0.0
  0
LINE
  5
A520
330
A4DF
100
AcDbEntity
  8
1
  6
Continuous
100
AcDbLine
 10
260.613104
 20
191.2421929999999
 30
0.0
 11
228.1131039999999
 21
191.242273
 31
0.0
  0
LINE
  5
A521
330
A4DF
100
AcDbEntity
  8
1
  6
Continuous
100
AcDbLine
 10
228.1131039999999
 20
191.242233
 30
0.0
 11
228.1131039999999
 21
189.801237
 31
0.0
  0
LINE
  5
A522
330
A4DF
100
AcDbEntity
  8
1
  6
Continuous
100
AcDbLine
 10
228.781524
 20
192.93153
 30
0.0
 11
229.1346809999998
 21
193.145533
 31
0.0
  0
ARC
  5
A523
330
A4DF
100
AcDbEntity
  8
1
  6
Continuous
100
AcDbCircle
 10
260.5899609999998
 20
196.324106
 30
0.0
 40
3.178573
100
AcDbArc
 50
270.0
 51
303.210091
  0
LINE
  5
A524
330
A4DF
100
AcDbEntity
  8
1
  6
Continuous
100
AcDbLine
 10
264.1286009999999
 20
194.865533
 30
0.0
 11
264.316768
 21
195.113571
 31
0.0
  0
ARC
  5
A525
330
A4DF
100
AcDbEntity
  8
1
  6
Continuous
100
AcDbCircle
 10
198.592174
 20
291.0302449999999
 30
0.0
 40
116.3729999999999
100
AcDbArc
 50
303.210091
 51
304.2745019999999
  0
ARC
  5
A526
330
A4DF
100
AcDbEntity
  8
1
  6
Continuous
100
AcDbCircle
 10
258.0573719999999
 20
192.7040129999998
 30
0.0
 40
2.371570999999998
100
AcDbArc
 50
321.9491909999999
 51
351.9797889999999
  0
ARC
  5
A527
330
A4DF
100
AcDbEntity
  8
1
  6
Continuous
100
AcDbCircle
 10
259.3752359999999
 20
191.991802
 30
0.0
 40
1.098799999999998
100
AcDbArc
 50
20.306161
 51
58.785345
  0
LINE
  5
A528
330
A4DF
100
AcDbEntity
  8
1
  6
Continuous
100
AcDbLine
 10
260.613104
 20
191.242233
 30
0.0
 11
260.613104
 21
189.801237
 31
0.0
  0
LINE
  5
A529
330
A4DF
100
AcDbEntity
  8
1
  6
Continuous
100
AcDbLine
 10
259.944684
 20
192.93153
 30
0.0
 11
259.5915279999999
 21
193.145533
 31
0.0
  0
LINE
  5
A52A
330
A4DF
100
AcDbEntity
  8
1
  6
Continuous
100
AcDbLine
 10
223.3632029999998
 20
197.1135329999999
 30
0.0
 11
223.3632029999998
 21
195.113571
 31
0.0
  0
LINE
  5
A52B
330
A4DF
100
AcDbEntity
  8
1
  6
Continuous
100
AcDbLine
 10
265.363203
 20
197.1135329999999
 30
0.0
 11
265.363203
 21
195.113571
 31
0.0
  0
LINE
  5
A52C
330
A4DF
100
AcDbEntity
  8
1
  6
Continuous
100
AcDbLine
 10
231.1158789999999
 20
183.097428
 30
0.0
 11
257.6105279999998
 21
183.097428
 31
0.0
  0
ARC
  5
A52D
330
A4DF
100
AcDbEntity
  8
1
  6
Continuous
100
AcDbCircle
 10
257.6105279999998
 20
179.1487379999999
 30
0.0
 40
3.94869
100
AcDbArc
 50
33.136856
 51
90.0
  0
ARC
  5
A52E
330
A4DF
100
AcDbEntity
  8
1
  6
Continuous
100
AcDbCircle
 10
249.094448
 20
173.5893659999999
 30
0.0
 40
14.11875499999999
100
AcDbArc
 50
0.0
 51
33.136856
  0
ARC
  5
A52F
330
A4DF
100
AcDbEntity
  8
1
  6
Continuous
100
AcDbCircle
 10
247.9536839999999
 20
173.5058109999999
 30
0.0
 40
13.262575
100
AcDbArc
 50
4.189117999999997
 51
46.32007700000001
  0
ARC
  5
A530
330
A4DF
100
AcDbEntity
  8
1
  6
Continuous
100
AcDbCircle
 10
231.1158789999999
 20
179.1487379999999
 30
0.0
 40
3.94869
100
AcDbArc
 50
90.0
 51
146.863144
  0
ARC
  5
A531
330
A4DF
100
AcDbEntity
  8
1
  6
Continuous
100
AcDbCircle
 10
239.631959
 20
173.5893659999999
 30
0.0
 40
14.11875499999999
100
AcDbArc
 50
146.863144
 51
180.0
  0
CIRCLE
  5
A532
330
A4DF
100
AcDbEntity
  8
1
  6
Continuous
100
AcDbCircle
 10
152.164619
 20
259.217462
 30
0.0
 40
16.89999999999999
  0
CIRCLE
  5
A533
330
A4DF
100
AcDbEntity
  8
1
  6
Continuous
100
AcDbCircle
 10
152.164619
 20
259.217462
 30
0.0
 40
15.25
  0
LINE
  5
A534
330
A4DF
100
AcDbEntity
  8
1
  6
Continuous
100
AcDbLine
 10
231.8632029999999
 20
160.1130379999998
 30
0.0
 11
232.6132029999999
 21
160.1130379999998
 31
0.0
  0
LINE
  5
A535
330
A4DF
100
AcDbEntity
  8
1
  6
Continuous
100
AcDbLine
 10
256.113203
 20
160.1130379999998
 30
0.0
 11
256.8632029999998
 21
160.1130379999998
 31
0.0
  0
LINE
  5
A536
330
A4DF
100
AcDbEntity
  8
1
  6
Continuous
100
AcDbLine
 10
231.8632029999999
 20
154.113038
 30
0.0
 11
232.6132029999999
 21
154.113038
 31
0.0
  0
LINE
  5
A537
330
A4DF
100
AcDbEntity
  8
1
  6
Continuous
100
AcDbLine
 10
256.113203
 20
154.113038
 30
0.0
 11
256.8632029999998
 21
154.113038
 31
0.0
  0
LINE
  5
A538
330
A4DF
100
AcDbEntity
  8
1
  6
Continuous
100
AcDbLine
 10
229.1131029999998
 20
191.242233
 30
0.0
 11
228.1131039999999
 21
190.2422349999999
 31
0.0
  0
LINE
  5
A539
330
A4DF
100
AcDbEntity
  8
1
  6
Continuous
100
AcDbLine
 10
230.527316
 20
191.242233
 30
0.0
 11
228.52732
 21
189.801237
 31
0.0
  0
LINE
  5
A53A
330
A4DF
100
AcDbEntity
  8
1
  6
Continuous
100
AcDbLine
 10
231.9415299999998
 20
191.242233
 30
0.0
 11
229.9415329999999
 21
189.801237
 31
0.0
  0
LINE
  5
A53B
330
A4DF
100
AcDbEntity
  8
1
  6
Continuous
100
AcDbLine
 10
233.3557429999999
 20
191.242233
 30
0.0
 11
231.355747
 21
189.801237
 31
0.0
  0
LINE
  5
A53C
330
A4DF
100
AcDbEntity
  8
1
  6
Continuous
100
AcDbLine
 10
234.7699569999999
 20
191.242233
 30
0.0
 11
232.7699599999998
 21
189.801237
 31
0.0
  0
LINE
  5
A53D
330
A4DF
100
AcDbEntity
  8
1
  6
Continuous
100
AcDbLine
 10
236.1841699999999
 20
191.242233
 30
0.0
 11
234.184174
 21
189.801237
 31
0.0
  0
LINE
  5
A53E
330
A4DF
100
AcDbEntity
  8
1
  6
Continuous
100
AcDbLine
 10
237.5983839999999
 20
191.242233
 30
0.0
 11
235.598387
 21
189.801237
 31
0.0
  0
LINE
  5
A53F
330
A4DF
100
AcDbEntity
  8
1
  6
Continuous
100
AcDbLine
 10
239.012597
 20
191.242233
 30
0.0
 11
237.0126009999999
 21
189.801237
 31
0.0
  0
LINE
  5
A540
330
A4DF
100
AcDbEntity
  8
1
  6
Continuous
100
AcDbLine
 10
240.4268109999999
 20
191.242233
 30
0.0
 11
238.426815
 21
189.801237
 31
0.0
  0
LINE
  5
A541
330
A4DF
100
AcDbEntity
  8
1
  6
Continuous
100
AcDbLine
 10
241.8410249999999
 20
191.242233
 30
0.0
 11
239.8410279999999
 21
189.801237
 31
0.0
  0
LINE
  5
A542
330
A4DF
100
AcDbEntity
  8
1
  6
Continuous
100
AcDbLine
 10
243.255238
 20
191.242233
 30
0.0
 11
241.2552419999999
 21
189.801237
 31
0.0
  0
LINE
  5
A543
330
A4DF
100
AcDbEntity
  8
1
  6
Continuous
100
AcDbLine
 10
244.669452
 20
191.242233
 30
0.0
 11
242.6694549999999
 21
189.801237
 31
0.0
  0
LINE
  5
A544
330
A4DF
100
AcDbEntity
  8
1
  6
Continuous
100
AcDbLine
 10
246.083665
 20
191.242233
 30
0.0
 11
244.0836689999999
 21
189.801237
 31
0.0
  0
LINE
  5
A545
330
A4DF
100
AcDbEntity
  8
1
  6
Continuous
100
AcDbLine
 10
247.497879
 20
191.242233
 30
0.0
 11
245.497882
 21
189.801237
 31
0.0
  0
LINE
  5
A546
330
A4DF
100
AcDbEntity
  8
1
  6
Continuous
100
AcDbLine
 10
248.9120919999999
 20
191.242233
 30
0.0
 11
246.912096
 21
189.801237
 31
0.0
  0
LINE
  5
A547
330
A4DF
100
AcDbEntity
  8
1
  6
Continuous
100
AcDbLine
 10
250.326306
 20
191.242233
 30
0.0
 11
248.32631
 21
189.801237
 31
0.0
  0
LINE
  5
A548
330
A4DF
100
AcDbEntity
  8
1
  6
Continuous
100
AcDbLine
 10
251.74052
 20
191.242233
 30
0.0
 11
249.740523
 21
189.801237
 31
0.0
  0
LINE
  5
A549
330
A4DF
100
AcDbEntity
  8
1
  6
Continuous
100
AcDbLine
 10
253.1547329999999
 20
191.242233
 30
0.0
 11
251.154737
 21
189.801237
 31
0.0
  0
LINE
  5
A54A
330
A4DF
100
AcDbEntity
  8
1
  6
Continuous
100
AcDbLine
 10
254.568947
 20
191.242233
 30
0.0
 11
252.5689499999999
 21
189.801237
 31
0.0
  0
LINE
  5
A54B
330
A4DF
100
AcDbEntity
  8
1
  6
Continuous
100
AcDbLine
 10
255.9831599999998
 20
191.242233
 30
0.0
 11
253.983164
 21
189.801237
 31
0.0
  0
LINE
  5
A54C
330
A4DF
100
AcDbEntity
  8
1
  6
Continuous
100
AcDbLine
 10
257.397374
 20
191.242233
 30
0.0
 11
255.397377
 21
189.801237
 31
0.0
  0
LINE
  5
A54D
330
A4DF
100
AcDbEntity
  8
1
  6
Continuous
100
AcDbLine
 10
258.8115869999999
 20
191.242233
 30
0.0
 11
256.811591
 21
189.801237
 31
0.0
  0
LINE
  5
A54E
330
A4DF
100
AcDbEntity
  8
1
  6
Continuous
100
AcDbLine
 10
260.2258009999999
 20
191.242233
 30
0.0
 11
258.2258039999999
 21
189.801237
 31
0.0
  0
LINE
  5
A54F
330
A4DF
100
AcDbEntity
  8
1
  6
Continuous
100
AcDbLine
 10
260.613104
 20
190.215323
 30
0.0
 11
259.6400179999998
 21
189.801237
 31
0.0
  0
LINE
  5
A550
330
A4DF
100
AcDbEntity
  8
1
  6
Continuous
100
AcDbLine
 10
229.1131029999998
 20
189.801237
 30
0.0
 11
228.1131039999999
 21
190.2422349999999
 31
0.0
  0
LINE
  5
A551
330
A4DF
100
AcDbEntity
  8
1
  6
Continuous
100
AcDbLine
 10
229.9415329999999
 20
191.242233
 30
0.0
 11
231.9415299999998
 21
189.801237
 31
0.0
  0
LINE
  5
A552
330
A4DF
100
AcDbEntity
  8
1
  6
Continuous
100
AcDbLine
 10
232.7699599999998
 20
191.242233
 30
0.0
 11
234.7699569999999
 21
189.801237
 31
0.0
  0
LINE
  5
A553
330
A4DF
100
AcDbEntity
  8
1
  6
Continuous
100
AcDbLine
 10
235.598387
 20
191.242233
 30
0.0
 11
237.5983839999999
 21
189.801237
 31
0.0
  0
LINE
  5
A554
330
A4DF
100
AcDbEntity
  8
1
  6
Continuous
100
AcDbLine
 10
238.426815
 20
191.242233
 30
0.0
 11
240.4268109999999
 21
189.801237
 31
0.0
  0
LINE
  5
A555
330
A4DF
100
AcDbEntity
  8
1
  6
Continuous
100
AcDbLine
 10
241.2552419999999
 20
191.242233
 30
0.0
 11
243.255238
 21
189.801237
 31
0.0
  0
LINE
  5
A556
330
A4DF
100
AcDbEntity
  8
1
  6
Continuous
100
AcDbLine
 10
244.0836689999999
 20
191.242233
 30
0.0
 11
246.083665
 21
189.801237
 31
0.0
  0
LINE
  5
A557
330
A4DF
100
AcDbEntity
  8
1
  6
Continuous
100
AcDbLine
 10
246.912096
 20
191.242233
 30
0.0
 11
248.9120919999999
 21
189.801237
 31
0.0
  0
LINE
  5
A558
330
A4DF
100
AcDbEntity
  8
1
  6
Continuous
100
AcDbLine
 10
249.740523
 20
191.242233
 30
0.0
 11
251.74052
 21
189.801237
 31
0.0
  0
LINE
  5
A559
330
A4DF
100
AcDbEntity
  8
1
  6
Continuous
100
AcDbLine
 10
252.5689499999999
 20
191.242233
 30
0.0
 11
254.568947
 21
189.801237
 31
0.0
  0
LINE
  5
A55A
330
A4DF
100
AcDbEntity
  8
1
  6
Continuous
100
AcDbLine
 10
255.397377
 20
191.242233
 30
0.0
 11
257.397374
 21
189.801237
 31
0.0
  0
LINE
  5
A55B
330
A4DF
100
AcDbEntity
  8
1
  6
Continuous
100
AcDbLine
 10
258.2258039999999
 20
191.242233
 30
0.0
 11
260.2258009999999
 21
189.801237
 31
0.0
  0
LINE
  5
A55C
330
A4DF
100
AcDbEntity
  8
4
  6
CENTER
100
AcDbLine
 10
187.1646189999999
 20
259.217462
 30
0.0
 11
103.164626
 21
259.217462
 31
0.0
  0
LINE
  5
A55D
330
A4DF
100
AcDbEntity
  8
4
  6
CENTER
100
AcDbLine
 10
152.164619
 20
285.2174619999999
 30
0.0
 11
152.164619
 21
233.2174619999999
 31
0.0
  0
LINE
  5
A55E
330
A4DF
100
AcDbEntity
  8
4
  6
CENTER
100
AcDbLine
 10
181.9146189999999
 20
273.717462
 30
0.0
 11
169.4146189999998
 21
273.717462
 31
0.0
  0
LINE
  5
A55F
330
A4DF
100
AcDbEntity
  8
4
  6
CENTER
100
AcDbLine
 10
175.6646189999999
 20
267.467462
 30
0.0
 11
175.6646189999999
 21
279.967462
 31
0.0
  0
LINE
  5
A560
330
A4DF
100
AcDbEntity
  8
4
  6
CENTER
100
AcDbLine
 10
181.9146189999999
 20
244.717462
 30
0.0
 11
169.4146189999998
 21
244.717462
 31
0.0
  0
LINE
  5
A561
330
A4DF
100
AcDbEntity
  8
4
  6
CENTER
100
AcDbLine
 10
175.6646189999999
 20
238.467462
 30
0.0
 11
175.6646189999999
 21
250.967462
 31
0.0
  0
LINE
  5
A562
330
A4DF
100
AcDbEntity
  8
4
  6
CENTER
100
AcDbLine
 10
134.9146189999999
 20
244.717462
 30
0.0
 11
122.4146189999999
 21
244.717462
 31
0.0
  0
LINE
  5
A563
330
A4DF
100
AcDbEntity
  8
4
  6
CENTER
100
AcDbLine
 10
128.6646189999999
 20
238.467462
 30
0.0
 11
128.6646189999999
 21
250.967462
 31
0.0
  0
LINE
  5
A564
330
A4DF
100
AcDbEntity
  8
4
  6
CENTER
100
AcDbLine
 10
134.9146189999999
 20
273.717462
 30
0.0
 11
122.4146189999999
 21
273.717462
 31
0.0
  0
LINE
  5
A565
330
A4DF
100
AcDbEntity
  8
4
  6
CENTER
100
AcDbLine
 10
128.6646189999999
 20
267.467462
 30
0.0
 11
128.6646189999999
 21
279.967462
 31
0.0
  0
LINE
  5
A566
330
A4DF
100
AcDbEntity
  8
4
  6
CENTER
100
AcDbLine
 10
244.3632029999999
 20
202.113537
 30
0.0
 11
244.3632029999999
 21
127.113038
 31
0.0
  0
LINE
  5
A567
330
A4DF
100
AcDbEntity
  8
4
  6
CENTER
100
AcDbLine
 10
222.6129629999999
 20
157.1130379999999
 30
0.0
 11
265.863443
 21
157.1130379999999
 31
0.0
  0
LINE
  5
A568
330
A4DF
100
AcDbEntity
  8
4
  6
CENTER
100
AcDbLine
 10
103.164626
 20
157.1132369999999
 30
0.0
 11
163.164626
 21
157.1132369999999
 31
0.0
  0
LINE
  5
A569
330
A4DF
100
AcDbEntity
  8
1
  6
Continuous
100
AcDbLine
 10
122.1646259999999
 20
197.113537
 30
0.0
 11
182.1646259999999
 21
197.113537
 31
0.0
  0
LINE
  5
A56A
330
A4DF
100
AcDbEntity
  8
1
  6
Continuous
100
AcDbLine
 10
135.717126
 20
186.9818379999999
 30
0.0
 11
132.0371259999998
 21
186.938028
 31
0.0
  0
ARC
  5
A56B
330
A4DF
100
AcDbEntity
  8
1
  6
Continuous
100
AcDbCircle
 10
197.9355559999999
 20
291.030249
 30
0.0
 40
116.3729999999999
100
AcDbArc
 50
235.7254979999999
 51
236.7899089999999
  0
LINE
  5
A56C
330
A4DF
100
AcDbEntity
  8
1
  6
Continuous
100
AcDbLine
 10
122.1646259999999
 20
195.1135739999998
 30
0.0
 11
182.1646259999999
 21
195.1135739999998
 31
0.0
  0
ARC
  5
A56D
330
A4DF
100
AcDbEntity
  8
1
  6
Continuous
100
AcDbCircle
 10
133.5146259999999
 20
156.163237
 30
0.0
 40
7.5
100
AcDbArc
 50
174.673297
 51
295.9209009999998
  0
LINE
  5
A56E
330
A4DF
100
AcDbEntity
  8
1
  6
Continuous
100
AcDbLine
 10
141.0146259999999
 20
186.064782
 30
0.0
 11
141.0146259999999
 21
155.880475
 31
0.0
  0
ARC
  5
A56F
330
A4DF
100
AcDbEntity
  8
1
  6
Continuous
100
AcDbCircle
 10
205.7691629999999
 20
135.989325
 30
0.0
 40
63.35981999999999
100
AcDbArc
 50
134.0470019999999
 51
143.333821
  0
LINE
  5
A570
330
A4DF
100
AcDbEntity
  8
4
  6
CENTER
100
AcDbLine
 10
152.1646259999999
 20
202.113537
 30
0.0
 11
152.1646259999999
 21
166.57326
 31
0.0
  0
ARC
  5
A571
330
A4DF
100
AcDbEntity
  8
1
  6
Continuous
100
AcDbCircle
 10
91.122744
 20
191.822394
 30
0.0
 40
63.31738699999998
100
AcDbArc
 50
321.97488
 51
329.982574
  0
ARC
  5
A572
330
A4DF
100
AcDbEntity
  8
1
  6
Continuous
100
AcDbCircle
 10
268.1828499999999
 20
89.52488199999995
 30
0.0
 40
141.169928
100
AcDbArc
 50
143.333821
 51
149.982574
  0
ARC
  5
A573
330
A4DF
100
AcDbEntity
  8
1
  6
Continuous
100
AcDbCircle
 10
165.5442449999999
 20
177.575123
 30
0.0
 40
5.502905999999999
100
AcDbArc
 50
90.0
 51
134.0470019999999
  0
LINE
  5
A574
330
A4DF
100
AcDbEntity
  8
1
  6
Continuous
100
AcDbLine
 10
163.1719869999998
 20
191.2422369999999
 30
0.0
 11
165.4078309999999
 21
189.801237
 31
0.0
  0
LINE
  5
A575
330
A4DF
100
AcDbEntity
  8
1
  6
Continuous
100
AcDbLine
 10
182.1646259999999
 20
197.113537
 30
0.0
 11
182.1646259999999
 21
195.1135739999998
 31
0.0
  0
ARC
  5
A576
330
A4DF
100
AcDbEntity
  8
1
  6
Continuous
100
AcDbCircle
 10
165.858894
 20
192.7040159999999
 30
0.0
 40
2.371570999999998
100
AcDbArc
 50
321.9491909999999
 51
351.9797889999999
  0
ARC
  5
A577
330
A4DF
100
AcDbEntity
  8
1
  6
Continuous
100
AcDbCircle
 10
167.176758
 20
191.9918049999999
 30
0.0
 40
1.098799999999998
100
AcDbArc
 50
20.306161
 51
58.785345
  0
LINE
  5
A578
330
A4DF
100
AcDbEntity
  8
1
  6
Continuous
100
AcDbLine
 10
169.3501259999998
 20
183.018028
 30
0.0
 11
169.127126
 21
183.0780279999999
 31
0.0
  0
LINE
  5
A579
330
A4DF
100
AcDbEntity
  8
1
  6
Continuous
100
AcDbLine
 10
169.127126
 20
183.0780279999999
 30
0.0
 11
165.5442449999999
 21
183.0780279999999
 31
0.0
  0
LINE
  5
A57A
330
A4DF
100
AcDbEntity
  8
1
  6
Continuous
100
AcDbLine
 10
168.414626
 20
191.2422369999999
 30
0.0
 11
168.414626
 21
189.801237
 31
0.0
  0
LINE
  5
A57B
330
A4DF
100
AcDbEntity
  8
1
  6
Continuous
100
AcDbLine
 10
167.746206
 20
192.931534
 30
0.0
 11
167.393049
 21
193.1455369999999
 31
0.0
  0
LINE
  5
A57C
330
A4DF
100
AcDbEntity
  8
1
  6
Continuous
100
AcDbLine
 10
167.4146279999999
 20
191.2422369999999
 30
0.0
 11
168.414626
 21
190.2422389999999
 31
0.0
  0
LINE
  5
A57D
330
A4DF
100
AcDbEntity
  8
1
  6
Continuous
100
AcDbLine
 10
166.0004139999998
 20
191.2422369999999
 30
0.0
 11
168.2362579999999
 21
189.801237
 31
0.0
  0
LINE
  5
A57E
330
A4DF
100
AcDbEntity
  8
1
  6
Continuous
100
AcDbLine
 10
164.5862009999999
 20
191.2422369999999
 30
0.0
 11
166.8220439999998
 21
189.801237
 31
0.0
  0
LINE
  5
A57F
330
A4DF
100
AcDbEntity
  8
1
  6
Continuous
100
AcDbLine
 10
166.888666
 20
189.801237
 30
0.0
 11
168.414626
 21
190.2422389999999
 31
0.0
  0
LINE
  5
A580
330
A4DF
100
AcDbEntity
  8
1
  6
Continuous
100
AcDbLine
 10
166.5861969999999
 20
191.2422369999999
 30
0.0
 11
164.350355
 21
189.801237
 31
0.0
  0
LINE
  5
A581
330
A4DF
100
AcDbEntity
  8
1
  6
Continuous
100
AcDbLine
 10
171.930123
 20
194.8655369999999
 30
0.0
 11
172.11829
 21
195.1135739999998
 31
0.0
  0
ARC
  5
A582
330
A4DF
100
AcDbEntity
  8
1
  6
Continuous
100
AcDbCircle
 10
106.3936959999999
 20
291.030249
 30
0.0
 40
116.3729999999999
100
AcDbArc
 50
303.210091
 51
304.2745019999999
  0
LINE
  5
A583
330
A4DF
100
AcDbEntity
  8
1
  6
Continuous
100
AcDbLine
 10
170.764126
 20
183.105367
 30
0.0
 11
170.015126
 21
183.063028
 31
0.0
  0
ARC
  5
A584
330
A4DF
100
AcDbEntity
  8
1
  6
Continuous
100
AcDbCircle
 10
168.391482
 20
196.3241099999999
 30
0.0
 40
3.178573
100
AcDbArc
 50
270.0
 51
303.210091
  0
ARC
  5
A585
330
A4DF
100
AcDbEntity
  8
1
  6
Continuous
100
AcDbCircle
 10
168.1584149999999
 20
187.293586
 30
0.0
 40
2.520706
100
AcDbArc
 50
358.3271199999999
 51
84.16621999999998
  0
LINE
  5
A586
330
A4DF
100
AcDbEntity
  8
1
  6
Continuous
100
AcDbLine
 10
170.015126
 20
183.063028
 30
0.0
 11
169.3501259999998
 21
183.018028
 31
0.0
  0
LINE
  5
A587
330
A4DF
100
AcDbEntity
  8
1
  6
Continuous
100
AcDbLine
 10
147.6156379999999
 20
191.2422369999999
 30
0.0
 11
149.851481
 21
189.801237
 31
0.0
  0
LINE
  5
A588
330
A4DF
100
AcDbEntity
  8
1
  6
Continuous
100
AcDbLine
 10
149.6156339999998
 20
191.2422369999999
 30
0.0
 11
147.3797919999998
 21
189.801237
 31
0.0
  0
LINE
  5
A589
330
A4DF
100
AcDbEntity
  8
1
  6
Continuous
100
AcDbLine
 10
135.93777
 20
193.1455369999999
 30
0.0
 11
168.391482
 21
193.1455369999999
 31
0.0
  0
LINE
  5
A58A
330
A4DF
100
AcDbEntity
  8
1
  6
Continuous
100
AcDbLine
 10
168.414626
 20
191.2421979999998
 30
0.0
 11
135.9146259999999
 21
191.242276
 31
0.0
  0
LINE
  5
A58B
330
A4DF
100
AcDbEntity
  8
1
  6
Continuous
100
AcDbLine
 10
151.858279
 20
191.2422369999999
 30
0.0
 11
154.094122
 21
189.801237
 31
0.0
  0
LINE
  5
A58C
330
A4DF
100
AcDbEntity
  8
1
  6
Continuous
100
AcDbLine
 10
150.444065
 20
191.2422369999999
 30
0.0
 11
152.679908
 21
189.801237
 31
0.0
  0
LINE
  5
A58D
330
A4DF
100
AcDbEntity
  8
1
  6
Continuous
100
AcDbLine
 10
149.029852
 20
191.2422369999999
 30
0.0
 11
151.265695
 21
189.801237
 31
0.0
  0
LINE
  5
A58E
330
A4DF
100
AcDbEntity
  8
1
  6
Continuous
100
AcDbLine
 10
152.444061
 20
191.2422369999999
 30
0.0
 11
150.2082189999998
 21
189.801237
 31
0.0
  0
LINE
  5
A58F
330
A4DF
100
AcDbEntity
  8
1
  6
Continuous
100
AcDbLine
 10
161.757774
 20
191.2422369999999
 30
0.0
 11
163.993617
 21
189.801237
 31
0.0
  0
LINE
  5
A590
330
A4DF
100
AcDbEntity
  8
1
  6
Continuous
100
AcDbLine
 10
160.34356
 20
191.2422369999999
 30
0.0
 11
162.579403
 21
189.801237
 31
0.0
  0
LINE
  5
A591
330
A4DF
100
AcDbEntity
  8
1
  6
Continuous
100
AcDbLine
 10
158.929346
 20
191.2422369999999
 30
0.0
 11
161.16519
 21
189.801237
 31
0.0
  0
LINE
  5
A592
330
A4DF
100
AcDbEntity
  8
1
  6
Continuous
100
AcDbLine
 10
157.5151329999999
 20
191.2422369999999
 30
0.0
 11
159.750976
 21
189.801237
 31
0.0
  0
LINE
  5
A593
330
A4DF
100
AcDbEntity
  8
1
  6
Continuous
100
AcDbLine
 10
156.100919
 20
191.2422369999999
 30
0.0
 11
158.3367629999998
 21
189.801237
 31
0.0
  0
LINE
  5
A594
330
A4DF
100
AcDbEntity
  8
1
  6
Continuous
100
AcDbLine
 10
154.6867059999999
 20
191.2422369999999
 30
0.0
 11
156.922549
 21
189.801237
 31
0.0
  0
LINE
  5
A595
330
A4DF
100
AcDbEntity
  8
1
  6
Continuous
100
AcDbLine
 10
163.75777
 20
191.2422369999999
 30
0.0
 11
161.5219279999998
 21
189.801237
 31
0.0
  0
LINE
  5
A596
330
A4DF
100
AcDbEntity
  8
1
  6
Continuous
100
AcDbLine
 10
160.9293429999999
 20
191.2422369999999
 30
0.0
 11
158.6934999999998
 21
189.801237
 31
0.0
  0
LINE
  5
A597
330
A4DF
100
AcDbEntity
  8
1
  6
Continuous
100
AcDbLine
 10
158.1009159999998
 20
191.2422369999999
 30
0.0
 11
155.865073
 21
189.801237
 31
0.0
  0
LINE
  5
A598
330
A4DF
100
AcDbEntity
  8
1
  6
Continuous
100
AcDbLine
 10
153.2724919999998
 20
191.2422369999999
 30
0.0
 11
155.508336
 21
189.801237
 31
0.0
  0
LINE
  5
A599
330
A4DF
100
AcDbEntity
  8
1
  6
Continuous
100
AcDbLine
 10
155.2724889999998
 20
191.2422369999999
 30
0.0
 11
153.0366459999999
 21
189.801237
 31
0.0
  0
ARC
  5
A59A
330
A4DF
100
AcDbEntity
  8
1
  6
Continuous
100
AcDbCircle
 10
136.8794169999999
 20
186.686869
 30
0.0
 40
3.266183999999998
100
AcDbArc
 50
107.537707
 51
141.743298
  0
ARC
  5
A59B
330
A4DF
100
AcDbEntity
  8
1
  6
Continuous
100
AcDbCircle
 10
137.810311
 20
185.9528349999999
 30
0.0
 40
4.451666999999998
100
AcDbArc
 50
141.743298
 51
156.849068
  0
LINE
  5
A59C
330
A4DF
100
AcDbEntity
  8
1
  6
Continuous
100
AcDbLine
 10
133.717126
 20
187.7030279999999
 30
0.0
 11
133.5721259999999
 21
187.2680279999999
 31
0.0
  0
LINE
  5
A59D
330
A4DF
100
AcDbEntity
  8
1
  6
Continuous
100
AcDbLine
 10
133.5721259999999
 20
187.2680279999999
 30
0.0
 11
133.232126
 21
187.068028
 31
0.0
  0
LINE
  5
A59E
330
A4DF
100
AcDbEntity
  8
1
  6
Continuous
100
AcDbLine
 10
133.232126
 20
187.068028
 30
0.0
 11
133.062126
 21
186.983028
 31
0.0
  0
LINE
  5
A59F
330
A4DF
100
AcDbEntity
  8
1
  6
Continuous
100
AcDbLine
 10
133.062126
 20
186.983028
 30
0.0
 11
132.877126
 21
186.9480279999999
 31
0.0
  0
ARC
  5
A5A0
330
A4DF
100
AcDbEntity
  8
1
  6
Continuous
100
AcDbCircle
 10
135.93777
 20
196.3241099999999
 30
0.0
 40
3.178573
100
AcDbArc
 50
236.7899089999999
 51
270.0
  0
ARC
  5
A5A1
330
A4DF
100
AcDbEntity
  8
1
  6
Continuous
100
AcDbCircle
 10
138.470358
 20
192.7040159999999
 30
0.0
 40
2.371570999999998
100
AcDbArc
 50
188.020211
 51
218.050809
  0
ARC
  5
A5A2
330
A4DF
100
AcDbEntity
  8
1
  6
Continuous
100
AcDbCircle
 10
137.152494
 20
191.9918049999999
 30
0.0
 40
1.098799999999998
100
AcDbArc
 50
121.214655
 51
159.693839
  0
LINE
  5
A5A3
330
A4DF
100
AcDbEntity
  8
1
  6
Continuous
100
AcDbLine
 10
135.9146259999999
 20
191.2422369999999
 30
0.0
 11
135.9146259999999
 21
189.801237
 31
0.0
  0
LINE
  5
A5A4
330
A4DF
100
AcDbEntity
  8
1
  6
Continuous
100
AcDbLine
 10
136.5830459999999
 20
192.931534
 30
0.0
 11
136.936203
 21
193.1455369999999
 31
0.0
  0
ARC
  5
A5A5
330
A4DF
100
AcDbEntity
  8
1
  6
Continuous
100
AcDbCircle
 10
135.6928139999999
 20
189.0240619999999
 30
0.0
 40
2.042368999999998
100
AcDbArc
 50
270.6820599999999
 51
340.178191
  0
LINE
  5
A5A6
330
A4DF
100
AcDbEntity
  8
1
  6
Continuous
100
AcDbLine
 10
135.9146259999999
 20
190.215327
 30
0.0
 11
137.452075
 21
189.801237
 31
0.0
  0
LINE
  5
A5A7
330
A4DF
100
AcDbEntity
  8
1
  6
Continuous
100
AcDbLine
 10
146.201424
 20
191.2422369999999
 30
0.0
 11
148.4372679999999
 21
189.801237
 31
0.0
  0
LINE
  5
A5A8
330
A4DF
100
AcDbEntity
  8
1
  6
Continuous
100
AcDbLine
 10
144.787211
 20
191.2422369999999
 30
0.0
 11
147.023054
 21
189.801237
 31
0.0
  0
LINE
  5
A5A9
330
A4DF
100
AcDbEntity
  8
1
  6
Continuous
100
AcDbLine
 10
143.3729969999999
 20
191.2422369999999
 30
0.0
 11
145.6088409999999
 21
189.801237
 31
0.0
  0
LINE
  5
A5AA
330
A4DF
100
AcDbEntity
  8
1
  6
Continuous
100
AcDbLine
 10
141.958784
 20
191.2422369999999
 30
0.0
 11
144.194627
 21
189.801237
 31
0.0
  0
LINE
  5
A5AB
330
A4DF
100
AcDbEntity
  8
1
  6
Continuous
100
AcDbLine
 10
140.54457
 20
191.2422369999999
 30
0.0
 11
142.7804139999998
 21
189.801237
 31
0.0
  0
LINE
  5
A5AC
330
A4DF
100
AcDbEntity
  8
1
  6
Continuous
100
AcDbLine
 10
139.130357
 20
191.2422369999999
 30
0.0
 11
141.3661999999999
 21
189.801237
 31
0.0
  0
LINE
  5
A5AD
330
A4DF
100
AcDbEntity
  8
1
  6
Continuous
100
AcDbLine
 10
146.787207
 20
191.2422369999999
 30
0.0
 11
144.551365
 21
189.801237
 31
0.0
  0
LINE
  5
A5AE
330
A4DF
100
AcDbEntity
  8
1
  6
Continuous
100
AcDbLine
 10
143.9587799999999
 20
191.2422369999999
 30
0.0
 11
141.722938
 21
189.801237
 31
0.0
  0
LINE
  5
A5AF
330
A4DF
100
AcDbEntity
  8
1
  6
Continuous
100
AcDbLine
 10
141.130353
 20
191.2422369999999
 30
0.0
 11
138.8945109999999
 21
189.801237
 31
0.0
  0
LINE
  5
A5B0
330
A4DF
100
AcDbEntity
  8
1
  6
Continuous
100
AcDbLine
 10
137.7161429999999
 20
191.2422369999999
 30
0.0
 11
139.951986
 21
189.801237
 31
0.0
  0
LINE
  5
A5B1
330
A4DF
100
AcDbEntity
  8
1
  6
Continuous
100
AcDbLine
 10
136.3019289999998
 20
191.2422369999999
 30
0.0
 11
138.5377729999998
 21
189.801237
 31
0.0
  0
LINE
  5
A5B2
330
A4DF
100
AcDbEntity
  8
1
  6
Continuous
100
AcDbLine
 10
138.301926
 20
191.2422369999999
 30
0.0
 11
136.066083
 21
189.801237
 31
0.0
  0
LINE
  5
A5B3
330
A4DF
100
AcDbEntity
  8
1
  6
Continuous
100
AcDbLine
 10
130.877126
 20
186.928028
 30
0.0
 11
127.658798
 21
186.992395
 31
0.0
  0
LINE
  5
A5B4
330
A4DF
100
AcDbEntity
  8
1
  6
Continuous
100
AcDbLine
 10
132.0371259999998
 20
186.938028
 30
0.0
 11
131.442126
 21
186.9180279999999
 31
0.0
  0
LINE
  5
A5B5
330
A4DF
100
AcDbEntity
  8
1
  6
Continuous
100
AcDbLine
 10
131.442126
 20
186.9180279999999
 30
0.0
 11
130.877126
 21
186.928028
 31
0.0
  0
ARC
  5
A5B6
330
A4DF
100
AcDbEntity
  8
1
  6
Continuous
100
AcDbCircle
 10
127.631779
 20
185.6414879999999
 30
0.0
 40
1.351175999999999
100
AcDbArc
 50
88.85423700000002
 51
129.236686
  0
LINE
  5
A5B7
330
A4DF
100
AcDbEntity
  8
1
  6
Continuous
100
AcDbLine
 10
129.217126
 20
184.961041
 30
0.0
 11
126.9481689999998
 21
184.9947979999998
 31
0.0
  0
LINE
  5
A5B8
330
A4DF
100
AcDbEntity
  8
1
  6
Continuous
100
AcDbLine
 10
126.7771259999999
 20
186.688028
 30
0.0
 11
126.717126
 21
185.773028
 31
0.0
  0
LINE
  5
A5B9
330
A4DF
100
AcDbEntity
  8
1
  6
Continuous
100
AcDbLine
 10
126.717126
 20
185.773028
 30
0.0
 11
126.717126
 21
185.088028
 31
0.0
  0
ARC
  5
A5BA
330
A4DF
100
AcDbEntity
  8
1
  6
Continuous
100
AcDbCircle
 10
126.953311
 20
185.340442
 30
0.0
 40
0.345682
100
AcDbArc
 50
226.9023309999998
 51
269.1476279999998
  0
LINE
  5
A5BB
330
A4DF
100
AcDbEntity
  8
1
  6
Continuous
100
AcDbLine
 10
132.3991289999999
 20
194.8655369999999
 30
0.0
 11
132.2109619999999
 21
195.1135739999998
 31
0.0
  0
LINE
  5
A5BC
330
A4DF
100
AcDbEntity
  8
1
  6
Continuous
100
AcDbLine
 10
122.1646259999999
 20
197.113537
 30
0.0
 11
122.1646259999999
 21
195.1135739999998
 31
0.0
  0
LINE
  5
A5BD
330
A4DF
100
AcDbEntity
  8
1
  6
Continuous
100
AcDbLine
 10
225.5132029999999
 20
186.8011789999999
 30
0.0
 11
225.5132029999999
 21
166.401179
 31
0.0
  0
LINE
  5
A5BE
330
A4DF
100
AcDbEntity
  8
4
  6
CENTER
100
AcDbLine
 10
68.822001
 20
157.1130379999999
 30
0.0
 11
26.365809
 21
157.1130379999999
 31
0.0
  0
LINE
  5
A5BF
330
A4DF
100
AcDbEntity
  8
1
  6
Continuous
100
AcDbLine
 10
59.86604899999999
 20
154.113038
 30
0.0
 11
59.616049
 21
154.113038
 31
0.0
  0
LINE
  5
A5C0
330
A4DF
100
AcDbEntity
  8
1
  6
Continuous
100
AcDbLine
 10
59.96955299999999
 20
160.1130379999998
 30
0.0
 11
59.616049
 21
160.1130379999998
 31
0.0
  0
LINE
  5
A5C1
330
A4DF
100
AcDbEntity
  8
1
  6
Continuous
100
AcDbLine
 10
26.866049
 20
197.1135329999999
 30
0.0
 11
68.866049
 21
197.1135329999999
 31
0.0
  0
LINE
  5
A5C2
330
A4DF
100
AcDbEntity
  8
4
  6
CENTER
100
AcDbLine
 10
47.86604899999999
 20
202.113537
 30
0.0
 11
47.86604899999999
 21
127.113038
 31
0.0
  0
LINE
  5
A5C3
330
A4DF
100
AcDbEntity
  8
1
  6
Continuous
100
AcDbLine
 10
31.61595
 20
189.801237
 30
0.0
 11
64.11595
 21
189.801044
 31
0.0
  0
ARC
  5
A5C4
330
A4DF
100
AcDbEntity
  8
1
  6
Continuous
100
AcDbCircle
 10
37.11580899999999
 20
183.0120179999999
 30
0.0
 40
3.75
100
AcDbArc
 50
90.0
 51
180.0
  0
LINE
  5
A5C5
330
A4DF
100
AcDbEntity
  8
1
  6
Continuous
100
AcDbLine
 10
35.444376
 20
191.242233
 30
0.0
 11
33.44437899999999
 21
189.801237
 31
0.0
  0
LINE
  5
A5C6
330
A4DF
100
AcDbEntity
  8
1
  6
Continuous
100
AcDbLine
 10
36.858589
 20
191.242233
 30
0.0
 11
34.85859299999999
 21
189.801237
 31
0.0
  0
LINE
  5
A5C7
330
A4DF
100
AcDbEntity
  8
1
  6
Continuous
100
AcDbLine
 10
33.44437899999999
 20
191.242233
 30
0.0
 11
35.444376
 21
189.801237
 31
0.0
  0
LINE
  5
A5C8
330
A4DF
100
AcDbEntity
  8
1
  6
Continuous
100
AcDbLine
 10
33.36580899999999
 20
148.6763159999999
 30
0.0
 11
35.36604899999999
 21
148.6763159999999
 31
0.0
  0
LINE
  5
A5C9
330
A4DF
100
AcDbEntity
  8
1
  6
Continuous
100
AcDbLine
 10
26.866049
 20
195.113571
 30
0.0
 11
68.866049
 21
195.113571
 31
0.0
  0
LINE
  5
A5CA
330
A4DF
100
AcDbEntity
  8
1
  6
Continuous
100
AcDbLine
 10
31.639094
 20
193.145533
 30
0.0
 11
64.092807
 21
193.145533
 31
0.0
  0
LINE
  5
A5CB
330
A4DF
100
AcDbEntity
  8
1
  6
Continuous
100
AcDbLine
 10
64.11595
 20
191.2421929999999
 30
0.0
 11
31.61595
 21
191.242273
 31
0.0
  0
ARC
  5
A5CC
330
A4DF
100
AcDbEntity
  8
1
  6
Continuous
100
AcDbCircle
 10
55.731462
 20
167.03323
 30
0.0
 40
26.722888
100
AcDbArc
 50
181.355289
 51
204.692905
  0
LINE
  5
A5CD
330
A4DF
100
AcDbEntity
  8
1
  6
Continuous
100
AcDbLine
 10
33.36580899999999
 20
183.0120179999999
 30
0.0
 11
33.36580899999999
 21
148.6763159999999
 31
0.0
  0
LINE
  5
A5CE
330
A4DF
100
AcDbEntity
  8
1
  6
Continuous
100
AcDbLine
 10
32.432493
 20
161.363038
 30
0.0
 11
32.432493
 21
152.8630379999999
 31
0.0
  0
ARC
  5
A5CF
330
A4DF
100
AcDbEntity
  8
1
  6
Continuous
100
AcDbCircle
 10
40.36580899999999
 20
157.1130379999999
 30
0.0
 40
9.0
100
AcDbArc
 50
151.821357
 51
208.178643
  0
LINE
  5
A5D0
330
A4DF
100
AcDbEntity
  8
1
  6
Continuous
100
AcDbLine
 10
33.36580899999999
 20
152.8630379999999
 30
0.0
 11
32.432493
 21
152.8630379999999
 31
0.0
  0
LINE
  5
A5D1
330
A4DF
100
AcDbEntity
  8
1
  6
Continuous
100
AcDbLine
 10
29.016049
 20
186.8011789999999
 30
0.0
 11
29.016049
 21
166.401179
 31
0.0
  0
LINE
  5
A5D2
330
A4DF
100
AcDbEntity
  8
1
  6
Continuous
100
AcDbLine
 10
33.36580899999999
 20
161.363038
 30
0.0
 11
32.432493
 21
161.363038
 31
0.0
  0
LINE
  5
A5D3
330
A4DF
100
AcDbEntity
  8
1
  6
Continuous
100
AcDbLine
 10
34.03016199999999
 20
191.242233
 30
0.0
 11
32.03016599999998
 21
189.801237
 31
0.0
  0
ARC
  5
A5D4
330
A4DF
100
AcDbEntity
  8
1
  6
Continuous
100
AcDbCircle
 10
32.23066699999999
 20
186.579094
 30
0.0
 40
3.22228
100
AcDbArc
 50
89.37084
 51
176.0479389999999
  0
LINE
  5
A5D5
330
A4DF
100
AcDbEntity
  8
1
  6
Continuous
100
AcDbLine
 10
31.61595
 20
191.242233
 30
0.0
 11
31.61595
 21
189.801237
 31
0.0
  0
LINE
  5
A5D6
330
A4DF
100
AcDbEntity
  8
1
  6
Continuous
100
AcDbLine
 10
32.615949
 20
191.242233
 30
0.0
 11
31.61595
 21
190.8012349999999
 31
0.0
  0
LINE
  5
A5D7
330
A4DF
100
AcDbEntity
  8
1
  6
Continuous
100
AcDbLine
 10
32.615949
 20
189.801237
 30
0.0
 11
31.61595
 21
190.8012349999999
 31
0.0
  0
LINE
  5
A5D8
330
A4DF
100
AcDbEntity
  8
1
  6
Continuous
100
AcDbLine
 10
26.866049
 20
197.1135329999999
 30
0.0
 11
26.866049
 21
195.113571
 31
0.0
  0
LINE
  5
A5D9
330
A4DF
100
AcDbEntity
  8
1
  6
Continuous
100
AcDbLine
 10
32.28437
 20
192.93153
 30
0.0
 11
32.63752699999999
 21
193.145533
 31
0.0
  0
ARC
  5
A5DA
330
A4DF
100
AcDbEntity
  8
1
  6
Continuous
100
AcDbCircle
 10
32.853819
 20
191.991802
 30
0.0
 40
1.098799999999998
100
AcDbArc
 50
121.214655
 51
159.693839
  0
ARC
  5
A5DB
330
A4DF
100
AcDbEntity
  8
1
  6
Continuous
100
AcDbCircle
 10
34.17168199999999
 20
192.7040129999998
 30
0.0
 40
2.371570999999998
100
AcDbArc
 50
188.020211
 51
218.050809
  0
ARC
  5
A5DC
330
A4DF
100
AcDbEntity
  8
1
  6
Continuous
100
AcDbCircle
 10
93.63688000000001
 20
291.0302449999999
 30
0.0
 40
116.3729999999999
100
AcDbArc
 50
235.7254979999999
 51
236.7899089999999
  0
LINE
  5
A5DD
330
A4DF
100
AcDbEntity
  8
1
  6
Continuous
100
AcDbLine
 10
28.100453
 20
194.865533
 30
0.0
 11
27.912287
 21
195.113571
 31
0.0
  0
ARC
  5
A5DE
330
A4DF
100
AcDbEntity
  8
1
  6
Continuous
100
AcDbCircle
 10
31.639094
 20
196.324106
 30
0.0
 40
3.178573
100
AcDbArc
 50
236.7899089999999
 51
270.0
  0
ARC
  5
A5DF
330
A4DF
100
AcDbEntity
  8
1
  6
Continuous
100
AcDbCircle
 10
40.006289
 20
166.870484
 30
0.0
 40
26.713884
100
AcDbArc
 50
326.8265529999998
 51
358.9933849999999
  0
LINE
  5
A5E0
330
A4DF
100
AcDbEntity
  8
1
  6
Continuous
100
AcDbLine
 10
35.36604899999999
 20
183.020424
 30
0.0
 11
35.36604899999999
 21
148.6763159999999
 31
0.0
  0
LINE
  5
A5E1
330
A4DF
100
AcDbEntity
  8
1
  6
Continuous
100
AcDbLine
 10
60.366049
 20
183.020424
 30
0.0
 11
60.366049
 21
148.6763159999999
 31
0.0
  0
LINE
  5
A5E2
330
A4DF
100
AcDbEntity
  8
1
  6
Continuous
100
AcDbLine
 10
62.366289
 20
183.0120179999999
 30
0.0
 11
62.366289
 21
148.6763159999999
 31
0.0
  0
LINE
  5
A5E3
330
A4DF
100
AcDbEntity
  8
1
  6
Continuous
100
AcDbLine
 10
35.36604899999999
 20
154.113038
 30
0.0
 11
36.11604899999999
 21
154.113038
 31
0.0
  0
LINE
  5
A5E4
330
A4DF
100
AcDbEntity
  8
1
  6
Continuous
100
AcDbLine
 10
60.366049
 20
148.6763159999999
 30
0.0
 11
62.366289
 21
148.6763159999999
 31
0.0
  0
LINE
  5
A5E5
330
A4DF
100
AcDbEntity
  8
1
  6
Continuous
100
AcDbLine
 10
60.366049
 20
154.113038
 30
0.0
 11
59.616049
 21
154.113038
 31
0.0
  0
ARC
  5
A5E6
330
A4DF
100
AcDbEntity
  8
1
  6
Continuous
100
AcDbCircle
 10
63.50143199999997
 20
186.579094
 30
0.0
 40
3.22228
100
AcDbArc
 50
3.952061
 51
90.62915999999999
  0
ARC
  5
A5E7
330
A4DF
100
AcDbEntity
  8
1
  6
Continuous
100
AcDbCircle
 10
2.095019999999998
 20
291.0302449999999
 30
0.0
 40
116.3729999999999
100
AcDbArc
 50
303.210091
 51
304.2745019999999
  0
LINE
  5
A5E8
330
A4DF
100
AcDbEntity
  8
1
  6
Continuous
100
AcDbLine
 10
66.716049
 20
186.8011789999999
 30
0.0
 11
66.716049
 21
166.401179
 31
0.0
  0
LINE
  5
A5E9
330
A4DF
100
AcDbEntity
  8
1
  6
Continuous
100
AcDbLine
 10
35.36604899999999
 20
160.1130379999998
 30
0.0
 11
36.11604899999999
 21
160.1130379999998
 31
0.0
  0
LINE
  5
A5EA
330
A4DF
100
AcDbEntity
  8
1
  6
Continuous
100
AcDbLine
 10
59.616049
 20
160.1130379999998
 30
0.0
 11
60.366049
 21
160.1130379999998
 31
0.0
  0
LINE
  5
A5EB
330
A4DF
100
AcDbEntity
  8
1
  6
Continuous
100
AcDbLine
 10
37.11604899999999
 20
184.7704239999999
 30
0.0
 11
58.61604899999999
 21
184.7704239999999
 31
0.0
  0
LINE
  5
A5EC
330
A4DF
100
AcDbEntity
  8
1
  6
Continuous
100
AcDbLine
 10
37.11580899999999
 20
186.7620179999999
 30
0.0
 11
58.616289
 21
186.7620179999999
 31
0.0
  0
LINE
  5
A5ED
330
A4DF
100
AcDbEntity
  8
1
  6
Continuous
100
AcDbLine
 10
51.000725
 20
191.242233
 30
0.0
 11
49.000728
 21
189.801237
 31
0.0
  0
LINE
  5
A5EE
330
A4DF
100
AcDbEntity
  8
1
  6
Continuous
100
AcDbLine
 10
52.414938
 20
191.242233
 30
0.0
 11
50.41494199999998
 21
189.801237
 31
0.0
  0
LINE
  5
A5EF
330
A4DF
100
AcDbEntity
  8
1
  6
Continuous
100
AcDbLine
 10
50.41494199999998
 20
191.242233
 30
0.0
 11
52.414938
 21
189.801237
 31
0.0
  0
LINE
  5
A5F0
330
A4DF
100
AcDbEntity
  8
1
  6
Continuous
100
AcDbLine
 10
49.586511
 20
191.242233
 30
0.0
 11
47.586515
 21
189.801237
 31
0.0
  0
LINE
  5
A5F1
330
A4DF
100
AcDbEntity
  8
1
  6
Continuous
100
AcDbLine
 10
47.586515
 20
191.242233
 30
0.0
 11
49.586511
 21
189.801237
 31
0.0
  0
ARC
  5
A5F2
330
A4DF
100
AcDbEntity
  8
1
  6
Continuous
100
AcDbCircle
 10
37.11604899999999
 20
183.020424
 30
0.0
 40
1.75
100
AcDbArc
 50
90.0
 51
180.0
  0
LINE
  5
A5F3
330
A4DF
100
AcDbEntity
  8
1
  6
Continuous
100
AcDbLine
 10
39.687016
 20
191.242233
 30
0.0
 11
37.68701999999999
 21
189.801237
 31
0.0
  0
LINE
  5
A5F4
330
A4DF
100
AcDbEntity
  8
1
  6
Continuous
100
AcDbLine
 10
41.10123
 20
191.242233
 30
0.0
 11
39.101233
 21
189.801237
 31
0.0
  0
LINE
  5
A5F5
330
A4DF
100
AcDbEntity
  8
1
  6
Continuous
100
AcDbLine
 10
42.51544299999999
 20
191.242233
 30
0.0
 11
40.51544699999999
 21
189.801237
 31
0.0
  0
LINE
  5
A5F6
330
A4DF
100
AcDbEntity
  8
1
  6
Continuous
100
AcDbLine
 10
43.929657
 20
191.242233
 30
0.0
 11
41.92966099999997
 21
189.801237
 31
0.0
  0
LINE
  5
A5F7
330
A4DF
100
AcDbEntity
  8
1
  6
Continuous
100
AcDbLine
 10
45.343871
 20
191.242233
 30
0.0
 11
43.34387399999999
 21
189.801237
 31
0.0
  0
LINE
  5
A5F8
330
A4DF
100
AcDbEntity
  8
1
  6
Continuous
100
AcDbLine
 10
46.758084
 20
191.242233
 30
0.0
 11
44.758088
 21
189.801237
 31
0.0
  0
LINE
  5
A5F9
330
A4DF
100
AcDbEntity
  8
1
  6
Continuous
100
AcDbLine
 10
48.17229799999999
 20
191.242233
 30
0.0
 11
46.17230099999999
 21
189.801237
 31
0.0
  0
LINE
  5
A5FA
330
A4DF
100
AcDbEntity
  8
1
  6
Continuous
100
AcDbLine
 10
39.101233
 20
191.242233
 30
0.0
 11
41.10123
 21
189.801237
 31
0.0
  0
LINE
  5
A5FB
330
A4DF
100
AcDbEntity
  8
1
  6
Continuous
100
AcDbLine
 10
41.92966099999997
 20
191.242233
 30
0.0
 11
43.929657
 21
189.801237
 31
0.0
  0
LINE
  5
A5FC
330
A4DF
100
AcDbEntity
  8
1
  6
Continuous
100
AcDbLine
 10
44.758088
 20
191.242233
 30
0.0
 11
46.758084
 21
189.801237
 31
0.0
  0
LINE
  5
A5FD
330
A4DF
100
AcDbEntity
  8
1
  6
Continuous
100
AcDbLine
 10
38.272803
 20
191.242233
 30
0.0
 11
36.27280600000001
 21
189.801237
 31
0.0
  0
LINE
  5
A5FE
330
A4DF
100
AcDbEntity
  8
1
  6
Continuous
100
AcDbLine
 10
36.27280600000001
 20
191.242233
 30
0.0
 11
38.272803
 21
189.801237
 31
0.0
  0
ARC
  5
A5FF
330
A4DF
100
AcDbEntity
  8
1
  6
Continuous
100
AcDbCircle
 10
58.616289
 20
183.0120179999999
 30
0.0
 40
3.75
100
AcDbArc
 50
0.0
 51
90.0
  0
ARC
  5
A600
330
A4DF
100
AcDbEntity
  8
1
  6
Continuous
100
AcDbCircle
 10
58.61604899999999
 20
183.020424
 30
0.0
 40
1.75
100
AcDbArc
 50
0.0
 51
90.0
  0
LINE
  5
A601
330
A4DF
100
AcDbEntity
  8
1
  6
Continuous
100
AcDbLine
 10
64.11595
 20
191.242233
 30
0.0
 11
64.11595
 21
189.801237
 31
0.0
  0
LINE
  5
A602
330
A4DF
100
AcDbEntity
  8
1
  6
Continuous
100
AcDbLine
 10
56.657579
 20
191.242233
 30
0.0
 11
54.657583
 21
189.801237
 31
0.0
  0
LINE
  5
A603
330
A4DF
100
AcDbEntity
  8
1
  6
Continuous
100
AcDbLine
 10
58.07179300000001
 20
191.242233
 30
0.0
 11
56.071796
 21
189.801237
 31
0.0
  0
LINE
  5
A604
330
A4DF
100
AcDbEntity
  8
1
  6
Continuous
100
AcDbLine
 10
59.486006
 20
191.242233
 30
0.0
 11
57.48601
 21
189.801237
 31
0.0
  0
LINE
  5
A605
330
A4DF
100
AcDbEntity
  8
1
  6
Continuous
100
AcDbLine
 10
60.90022
 20
191.242233
 30
0.0
 11
58.900223
 21
189.801237
 31
0.0
  0
LINE
  5
A606
330
A4DF
100
AcDbEntity
  8
1
  6
Continuous
100
AcDbLine
 10
62.31443299999999
 20
191.242233
 30
0.0
 11
60.314437
 21
189.801237
 31
0.0
  0
LINE
  5
A607
330
A4DF
100
AcDbEntity
  8
1
  6
Continuous
100
AcDbLine
 10
63.728647
 20
191.242233
 30
0.0
 11
61.72865
 21
189.801237
 31
0.0
  0
LINE
  5
A608
330
A4DF
100
AcDbEntity
  8
1
  6
Continuous
100
AcDbLine
 10
64.11595
 20
190.774323
 30
0.0
 11
63.142864
 21
189.801237
 31
0.0
  0
LINE
  5
A609
330
A4DF
100
AcDbEntity
  8
1
  6
Continuous
100
AcDbLine
 10
56.071796
 20
191.242233
 30
0.0
 11
58.07179300000001
 21
189.801237
 31
0.0
  0
LINE
  5
A60A
330
A4DF
100
AcDbEntity
  8
1
  6
Continuous
100
AcDbLine
 10
58.900223
 20
191.242233
 30
0.0
 11
60.90022
 21
189.801237
 31
0.0
  0
LINE
  5
A60B
330
A4DF
100
AcDbEntity
  8
1
  6
Continuous
100
AcDbLine
 10
61.72865
 20
191.242233
 30
0.0
 11
63.728647
 21
189.801237
 31
0.0
  0
LINE
  5
A60C
330
A4DF
100
AcDbEntity
  8
1
  6
Continuous
100
AcDbLine
 10
55.243366
 20
191.242233
 30
0.0
 11
53.24336899999998
 21
189.801237
 31
0.0
  0
LINE
  5
A60D
330
A4DF
100
AcDbEntity
  8
1
  6
Continuous
100
AcDbLine
 10
53.24336899999998
 20
191.242233
 30
0.0
 11
55.243366
 21
189.801237
 31
0.0
  0
LINE
  5
A60E
330
A4DF
100
AcDbEntity
  8
1
  6
Continuous
100
AcDbLine
 10
53.829152
 20
191.242233
 30
0.0
 11
51.829156
 21
189.801237
 31
0.0
  0
LINE
  5
A60F
330
A4DF
100
AcDbEntity
  8
1
  6
Continuous
100
AcDbLine
 10
63.44753
 20
192.93153
 30
0.0
 11
63.094374
 21
193.145533
 31
0.0
  0
ARC
  5
A610
330
A4DF
100
AcDbEntity
  8
1
  6
Continuous
100
AcDbCircle
 10
62.87808199999999
 20
191.991802
 30
0.0
 40
1.098799999999998
100
AcDbArc
 50
20.306161
 51
58.785345
  0
ARC
  5
A611
330
A4DF
100
AcDbEntity
  8
1
  6
Continuous
100
AcDbCircle
 10
61.56021800000001
 20
192.7040129999998
 30
0.0
 40
2.371570999999998
100
AcDbArc
 50
321.9491909999999
 51
351.9797889999999
  0
ARC
  5
A612
330
A4DF
100
AcDbEntity
  8
1
  6
Continuous
100
AcDbCircle
 10
64.092807
 20
196.324106
 30
0.0
 40
3.178573
100
AcDbArc
 50
270.0
 51
303.210091
  0
LINE
  5
A613
330
A4DF
100
AcDbEntity
  8
1
  6
Continuous
100
AcDbLine
 10
68.866049
 20
197.1135329999999
 30
0.0
 11
68.866049
 21
195.113571
 31
0.0
  0
LINE
  5
A614
330
A4DF
100
AcDbEntity
  8
1
  6
Continuous
100
AcDbLine
 10
67.63144699999999
 20
194.865533
 30
0.0
 11
67.819614
 21
195.113571
 31
0.0
  0
LINE
  5
A615
330
A4DF
100
AcDbEntity
  8
1
  6
Continuous
100
AcDbLine
 10
256.8632029999998
 20
183.020424
 30
0.0
 11
256.8632029999998
 21
148.6763159999999
 31
0.0
  0
LINE
  5
A616
330
A4DF
100
AcDbEntity
  8
1
  6
Continuous
100
AcDbLine
 10
231.8632029999999
 20
183.020424
 30
0.0
 11
231.8632029999999
 21
148.6763159999999
 31
0.0
  0
LINE
  5
A617
330
A4DF
100
AcDbEntity
  8
4
  6
CENTER
100
AcDbLine
 10
33.36604899999999
 20
202.113537
 30
0.0
 11
33.36604899999999
 21
190.1135739999998
 31
0.0
  0
LINE
  5
A618
330
A4DF
100
AcDbEntity
  8
4
  6
CENTER
100
AcDbLine
 10
62.36604899999999
 20
202.113537
 30
0.0
 11
62.36604899999999
 21
190.1135739999998
 31
0.0
  0
LINE
  5
A619
330
A4DF
100
AcDbEntity
  8
4
  6
CENTER
100
AcDbLine
 10
229.8632029999999
 20
202.113537
 30
0.0
 11
229.8632029999999
 21
190.1135739999998
 31
0.0
  0
LINE
  5
A61A
330
A4DF
100
AcDbEntity
  8
4
  6
CENTER
100
AcDbLine
 10
258.8632029999998
 20
202.113537
 30
0.0
 11
258.8632029999998
 21
190.1135739999998
 31
0.0
  0
ARC
  5
A61B
330
A4DF
100
AcDbEntity
  8
1
  6
Continuous
100
AcDbCircle
 10
252.113443
 20
157.1130379999999
 30
0.0
 40
9.0
100
AcDbArc
 50
331.8213569999999
 51
355.5531859999998
  0
LINE
  5
A61C
330
A4DF
100
AcDbEntity
  8
1
  6
Continuous
100
AcDbLine
 10
260.046759
 20
154.2473369999999
 30
0.0
 11
260.046759
 21
152.8630379999999
 31
0.0
  0
LINE
  5
A61D
330
A4DF
100
AcDbEntity
  8
1
  6
Continuous
100
AcDbLine
 10
259.4357299999999
 20
152.8630379999999
 30
0.0
 11
260.046759
 21
152.8630379999999
 31
0.0
  0
LINE
  5
A61E
330
A4DF
100
AcDbEntity
  8
1
  6
Continuous
100
AcDbLine
 10
129.4032709999999
 20
186.9575049999999
 30
0.0
 11
126.0470149999999
 21
156.859497
 31
0.0
  0
ARC
  5
A61F
330
A4DF
100
AcDbEntity
  8
1
  6
Continuous
100
AcDbCircle
 10
131.547542
 20
160.21053
 30
0.0
 40
12.0
100
AcDbArc
 50
295.9209009999998
 51
321.97488
  0
LINE
  5
A620
330
A4DF
100
AcDbEntity
  8
4
  6
CENTER
100
AcDbLine
 10
128.6646259999999
 20
202.113537
 30
0.0
 11
128.6646259999999
 21
190.1135739999998
 31
0.0
  0
LINE
  5
A621
330
A4DF
100
AcDbEntity
  8
4
  6
CENTER
100
AcDbLine
 10
175.664626
 20
202.113537
 30
0.0
 11
175.664626
 21
190.1135739999998
 31
0.0
  0
LINE
  5
A622
330
A4DF
100
AcDbEntity
  8
4
  6
CENTER
100
AcDbLine
 10
181.9146189999999
 20
55.50961199999999
 30
0.0
 11
169.4146189999998
 21
55.50961199999999
 31
0.0
  0
LINE
  5
A623
330
A4DF
100
AcDbEntity
  8
4
  6
CENTER
100
AcDbLine
 10
181.9146189999999
 20
84.509612
 30
0.0
 11
169.4146189999998
 21
84.509612
 31
0.0
  0
LINE
  5
A624
330
A4DF
100
AcDbEntity
  8
4
  6
CENTER
100
AcDbLine
 10
187.1646189999999
 20
70.009612
 30
0.0
 11
103.164626
 21
70.009612
 31
0.0
  0
LINE
  5
A625
330
A4DF
100
AcDbEntity
  8
1
  6
Continuous
100
AcDbLine
 10
124.6646189999998
 20
49.009612
 30
0.0
 11
179.6646189999999
 21
49.009612
 31
0.0
  0
LINE
  5
A626
330
A4DF
100
AcDbEntity
  8
1
  6
Continuous
100
AcDbLine
 10
179.6646189999999
 20
91.009612
 30
0.0
 11
124.6646189999998
 21
91.009612
 31
0.0
  0
LINE
  5
A627
330
A4DF
100
AcDbEntity
  8
4
  6
CENTER
100
AcDbLine
 10
152.164619
 20
44.009612
 30
0.0
 11
152.164619
 21
96.009612
 31
0.0
  0
LINE
  5
A628
330
A4DF
100
AcDbEntity
  8
4
  6
CENTER
100
AcDbLine
 10
128.6646189999999
 20
61.75961199999999
 30
0.0
 11
128.6646189999999
 21
49.25961199999999
 31
0.0
  0
LINE
  5
A629
330
A4DF
100
AcDbEntity
  8
1
  6
Continuous
100
AcDbLine
 10
122.1646189999999
 20
88.509612
 30
0.0
 11
122.1646189999999
 21
81.009612
 31
0.0
  0
LINE
  5
A62A
330
A4DF
100
AcDbEntity
  8
4
  6
CENTER
100
AcDbLine
 10
128.6646189999999
 20
90.759612
 30
0.0
 11
128.6646189999999
 21
78.259612
 31
0.0
  0
ARC
  5
A62B
330
A4DF
100
AcDbEntity
  8
1
  6
Continuous
100
AcDbCircle
 10
128.6646189999999
 20
84.509612
 30
0.0
 40
3.25
100
AcDbArc
 50
23.57455199999999
 51
217.182865
  0
ARC
  5
A62C
330
A4DF
100
AcDbEntity
  8
1
  6
Continuous
100
AcDbCircle
 10
124.6646189999998
 20
88.509612
 30
0.0
 40
2.5
100
AcDbArc
 50
90.0
 51
180.0
  0
LINE
  5
A62D
330
A4DF
100
AcDbEntity
  8
4
  6
CENTER
100
AcDbLine
 10
134.9146189999999
 20
84.509612
 30
0.0
 11
122.4146189999999
 21
84.509612
 31
0.0
  0
ARC
  5
A62E
330
A4DF
100
AcDbEntity
  8
1
  6
Continuous
100
AcDbCircle
 10
124.6646189999998
 20
51.509612
 30
0.0
 40
2.5
100
AcDbArc
 50
180.0
 51
270.0
  0
LINE
  5
A62F
330
A4DF
100
AcDbEntity
  8
4
  6
CENTER
100
AcDbLine
 10
134.9146189999999
 20
55.50961199999999
 30
0.0
 11
122.4146189999999
 21
55.50961199999999
 31
0.0
  0
LINE
  5
A630
330
A4DF
100
AcDbEntity
  8
4
  6
CENTER
100
AcDbLine
 10
175.6646189999999
 20
61.75961199999999
 30
0.0
 11
175.6646189999999
 21
49.25961199999999
 31
0.0
  0
LINE
  5
A631
330
A4DF
100
AcDbEntity
  8
1
  6
Continuous
100
AcDbLine
 10
182.1646189999999
 20
51.509612
 30
0.0
 11
182.1646189999999
 21
88.509612
 31
0.0
  0
LINE
  5
A632
330
A4DF
100
AcDbEntity
  8
4
  6
CENTER
100
AcDbLine
 10
175.6646189999999
 20
90.759612
 30
0.0
 11
175.6646189999999
 21
78.259612
 31
0.0
  0
CIRCLE
  5
A633
330
A4DF
100
AcDbEntity
  8
1
  6
Continuous
100
AcDbCircle
 10
175.6646189999999
 20
84.509612
 30
0.0
 40
3.25
  0
ARC
  5
A634
330
A4DF
100
AcDbEntity
  8
1
  6
Continuous
100
AcDbCircle
 10
179.6646189999999
 20
88.509612
 30
0.0
 40
2.5
100
AcDbArc
 50
0.0
 51
90.0
  0
ARC
  5
A635
330
A4DF
100
AcDbEntity
  8
1
  6
Continuous
100
AcDbCircle
 10
179.6646189999999
 20
51.509612
 30
0.0
 40
2.5
100
AcDbArc
 50
270.0
 51
0.0
  0
CIRCLE
  5
A636
330
A4DF
100
AcDbEntity
  8
1
  6
Continuous
100
AcDbCircle
 10
175.6646189999999
 20
55.50961199999999
 30
0.0
 40
3.25
  0
LINE
  5
A637
330
A4DF
100
AcDbEntity
  8
1
  6
Continuous
100
AcDbLine
 10
137.5129129999999
 20
57.50961199999998
 30
0.0
 11
126.07531
 21
57.50961199999998
 31
0.0
  0
LINE
  5
A638
330
A4DF
100
AcDbEntity
  8
1
  6
Continuous
100
AcDbLine
 10
136.931079
 20
55.50937199999999
 30
0.0
 11
126.07531
 21
55.50937199999999
 31
0.0
  0
LINE
  5
A639
330
A4DF
100
AcDbEntity
  8
1
  6
Continuous
100
AcDbLine
 10
136.931079
 20
84.50985199999998
 30
0.0
 11
126.07531
 21
84.50985199999998
 31
0.0
  0
LINE
  5
A63A
330
A4DF
100
AcDbEntity
  8
1
  6
Continuous
100
AcDbLine
 10
137.5129129999999
 20
82.509612
 30
0.0
 11
126.07531
 21
82.509612
 31
0.0
  0
LINE
  5
A63B
330
A4DF
100
AcDbEntity
  8
1
  6
Continuous
100
AcDbLine
 10
122.1646189999999
 20
59.009612
 30
0.0
 11
122.1646189999999
 21
51.509612
 31
0.0
  0
ARC
  5
A63C
330
A4DF
100
AcDbEntity
  8
1
  6
Continuous
100
AcDbCircle
 10
128.6646189999999
 20
55.50961199999999
 30
0.0
 40
3.25
100
AcDbArc
 50
116.440034
 51
142.020128
  0
LINE
  5
A63D
330
A4DF
100
AcDbEntity
  8
4
  6
CENTER
100
AcDbLine
 10
133.164626
 20
127.113237
 30
0.0
 11
133.164626
 21
185.113237
 31
0.0
  0
LINE
  5
A63E
330
A4DF
100
AcDbEntity
  8
1
  6
Continuous
100
AcDbLine
 10
126.07531
 20
55.50937199999999
 30
0.0
 11
126.07531
 21
57.50961199999998
 31
0.0
  0
LINE
  5
A63F
330
A4DF
100
AcDbEntity
  8
1
  6
Continuous
100
AcDbLine
 10
126.07531
 20
82.509612
 30
0.0
 11
126.07531
 21
84.50985199999998
 31
0.0
  0
ARC
  5
A640
330
A4DF
100
AcDbEntity
  8
1
  6
Continuous
100
AcDbCircle
 10
152.164619
 20
70.009612
 30
0.0
 40
19.953671
100
AcDbArc
 50
227.2057859999999
 51
132.7942139999999
  0
ARC
  5
A641
330
A4DF
100
AcDbEntity
  8
1
  6
Continuous
100
AcDbCircle
 10
152.164619
 20
70.009612
 30
0.0
 40
13.6
100
AcDbArc
 50
233.9811459999999
 51
126.0188539999999
  0
ARC
  5
A642
330
A4DF
100
AcDbEntity
  8
1
  6
Continuous
100
AcDbCircle
 10
152.164619
 20
70.009612
 30
0.0
 40
12.0
100
AcDbArc
 50
246.4435359999999
 51
113.556464
  0
LINE
  5
A643
330
A4DF
100
AcDbEntity
  8
4
  6
CENTER
100
AcDbLine
 10
133.164626
 20
95.81078899999999
 30
0.0
 11
133.164626
 21
44.009612
 31
0.0
  0
ARC
  5
A644
330
A4DF
100
AcDbEntity
  8
1
  6
Continuous
100
AcDbCircle
 10
133.164626
 20
62.509372
 30
0.0
 40
9.0
100
AcDbArc
 50
241.8213569999999
 51
298.178643
  0
LINE
  5
A645
330
A4DF
100
AcDbEntity
  8
1
  6
Continuous
100
AcDbLine
 10
128.914626
 20
54.576056
 30
0.0
 11
137.414626
 21
54.576056
 31
0.0
  0
LINE
  5
A646
330
A4DF
100
AcDbEntity
  8
1
  6
Continuous
100
AcDbLine
 10
136.164626
 20
57.50961199999998
 30
0.0
 11
136.164626
 21
58.109612
 31
0.0
  0
LINE
  5
A647
330
A4DF
100
AcDbEntity
  8
1
  6
Continuous
100
AcDbLine
 10
137.414626
 20
55.50937199999999
 30
0.0
 11
137.414626
 21
54.576056
 31
0.0
  0
LINE
  5
A648
330
A4DF
100
AcDbEntity
  8
1
  6
Continuous
100
AcDbLine
 10
136.164626
 20
58.259612
 30
0.0
 11
136.164626
 21
58.00961199999999
 31
0.0
  0
LINE
  5
A649
330
A4DF
100
AcDbEntity
  8
1
  6
Continuous
100
AcDbLine
 10
136.164626
 20
82.509612
 30
0.0
 11
136.164626
 21
81.75961200000001
 31
0.0
  0
LINE
  5
A64A
330
A4DF
100
AcDbEntity
  8
1
  6
Continuous
100
AcDbLine
 10
130.164626
 20
57.50961199999998
 30
0.0
 11
130.164626
 21
58.109612
 31
0.0
  0
LINE
  5
A64B
330
A4DF
100
AcDbEntity
  8
1
  6
Continuous
100
AcDbLine
 10
128.914626
 20
55.50937199999999
 30
0.0
 11
128.914626
 21
54.576056
 31
0.0
  0
LINE
  5
A64C
330
A4DF
100
AcDbEntity
  8
1
  6
Continuous
100
AcDbLine
 10
130.164626
 20
58.259612
 30
0.0
 11
130.164626
 21
57.90610799999999
 31
0.0
  0
LINE
  5
A64D
330
A4DF
100
AcDbEntity
  8
1
  6
Continuous
100
AcDbLine
 10
130.164626
 20
82.509612
 30
0.0
 11
130.164626
 21
81.75961200000001
 31
0.0
  0
ARC
  5
A64E
330
A4DF
100
AcDbEntity
  8
1
  6
Continuous
100
AcDbCircle
 10
128.6646189999999
 20
55.50961199999999
 30
0.0
 40
3.25
100
AcDbArc
 50
142.817135
 51
326.0023529999998
  0
LINE
  5
A64F
330
A4DF
100
AcDbEntity
  8
1
  6
Continuous
100
AcDbLine
 10
126.07531
 20
246.681635
 30
0.0
 11
126.07531
 21
244.717222
 31
0.0
  0
LINE
  5
A650
330
A4DF
100
AcDbEntity
  8
1
  6
Continuous
100
AcDbLine
 10
128.694865
 20
246.717462
 30
0.0
 11
126.1028819999999
 21
246.717462
 31
0.0
  0
LINE
  5
A651
330
A4DF
100
AcDbEntity
  8
1
  6
Continuous
100
AcDbLine
 10
131.9146189999998
 20
244.717222
 30
0.0
 11
126.07531
 21
244.717222
 31
0.0
  0
LINE
  5
A652
330
A4DF
100
AcDbEntity
  8
1
  6
Continuous
100
AcDbLine
 10
126.07531
 20
273.7177019999999
 30
0.0
 11
126.07531
 21
271.753289
 31
0.0
  0
LINE
  5
A653
330
A4DF
100
AcDbEntity
  8
1
  6
Continuous
100
AcDbLine
 10
128.914626
 20
273.7177019999999
 30
0.0
 11
128.914626
 21
274.651018
 31
0.0
  0
LINE
  5
A654
330
A4DF
100
AcDbEntity
  8
1
  6
Continuous
100
AcDbLine
 10
131.9146189999998
 20
273.7177019999999
 30
0.0
 11
126.07531
 21
273.7177019999999
 31
0.0
  0
LINE
  5
A655
330
A4DF
100
AcDbEntity
  8
1
  6
Continuous
100
AcDbLine
 10
128.694865
 20
271.717462
 30
0.0
 11
126.1028819999999
 21
271.717462
 31
0.0
  0
LINE
  5
A656
330
A4DF
100
AcDbEntity
  8
1
  6
Continuous
100
AcDbLine
 10
128.914626
 20
274.651018
 30
0.0
 11
131.777652
 21
274.651018
 31
0.0
  0
ARC
  5
A657
330
A4DF
100
AcDbEntity
  8
1
  6
Continuous
100
AcDbCircle
 10
133.164626
 20
266.717702
 30
0.0
 40
9.0
100
AcDbArc
 50
101.5730889999999
 51
118.178643
  0
ARC
  5
A658
330
A4DF
100
AcDbEntity
  8
1
  6
Continuous
100
AcDbCircle
 10
167.167723
 20
70.009612
 30
0.0
 40
40.45257399999999
100
AcDbArc
 50
162.0007939999998
 51
163.1142869999999
  0
ARC
  5
A659
330
A4DF
100
AcDbEntity
  8
1
  6
Continuous
100
AcDbCircle
 10
167.167723
 20
70.009612
 30
0.0
 40
40.45257399999999
100
AcDbArc
 50
196.8857129999999
 51
197.9992059999999
  0
ARC
  5
A65A
330
A4DF
100
AcDbEntity
  8
1
  6
Continuous
100
AcDbCircle
 10
167.167723
 20
259.217462
 30
0.0
 40
40.45257399999999
100
AcDbArc
 50
196.174637
 51
201.005058
  0
ARC
  5
A65B
330
A4DF
100
AcDbEntity
  8
1
  6
Continuous
100
AcDbCircle
 10
167.167723
 20
259.217462
 30
0.0
 40
40.45257399999999
100
AcDbArc
 50
158.9949419999999
 51
163.8253629999999
  0
LINE
  5
A65C
330
A4DF
100
AcDbEntity
  8
1
  6
Continuous
100
AcDbLine
 10
170.764126
 20
183.105367
 30
0.0
 11
171.0146259999999
 21
183.105367
 31
0.0
  0
LINE
  5
A65D
330
A4DF
100
AcDbEntity
  8
1
  6
Continuous
100
AcDbLine
 10
171.0146259999999
 20
183.105367
 30
0.0
 11
170.6780469999999
 21
187.2199979999998
 31
0.0
  0
ARC
  5
A65E
330
A4DF
100
AcDbEntity
  8
1
  6
Continuous
100
AcDbCircle
 10
152.164619
 20
70.009612
 30
0.0
 40
18.85
100
AcDbArc
 50
238.127847
 51
121.872153
  0
ARC
  5
A65F
330
A4DF
100
AcDbEntity
  8
1
  6
Continuous
100
AcDbCircle
 10
152.164619
 20
70.009612
 30
0.0
 40
16.85
100
AcDbArc
 50
236.92835
 51
123.07165
  0
ARC
  5
A660
330
A4DF
100
AcDbEntity
  8
1
  6
Continuous
100
AcDbCircle
 10
136.931079
 20
94.50985199999999
 30
0.0
 40
10.0
100
AcDbArc
 50
270.0
 51
301.8721529999999
  0
ARC
  5
A661
330
A4DF
100
AcDbEntity
  8
1
  6
Continuous
100
AcDbCircle
 10
137.5129129999999
 20
92.509612
 30
0.0
 40
10.0
100
AcDbArc
 50
270.0
 51
303.07165
  0
ARC
  5
A662
330
A4DF
100
AcDbEntity
  8
1
  6
Continuous
100
AcDbCircle
 10
137.5129129999999
 20
47.50961199999998
 30
0.0
 40
10.0
100
AcDbArc
 50
56.92835
 51
90.0
  0
ARC
  5
A663
330
A4DF
100
AcDbEntity
  8
1
  6
Continuous
100
AcDbCircle
 10
136.931079
 20
45.50937199999999
 30
0.0
 40
10.0
100
AcDbArc
 50
58.12784699999998
 51
90.0
  0
ARC
  5
A664
330
A4DF
100
AcDbEntity
  8
1
  6
Continuous
100
AcDbCircle
 10
133.164626
 20
250.76175
 30
0.0
 40
7.5
100
AcDbArc
 50
237.769047
 51
258.297302
  0
LINE
  5
A665
330
A4DF
100
AcDbEntity
  8
1
  6
Continuous
100
AcDbLine
 10
131.900744
 20
244.417462
 30
0.0
 11
129.164626
 21
244.417462
 31
0.0
  0
LINE
  5
A666
330
A4DF
100
AcDbEntity
  8
1
  6
Continuous
100
AcDbLine
 10
129.164626
 20
244.417462
 30
0.0
 11
129.164626
 21
244.717462
 31
0.0
  0
LINE
  5
A667
330
A4DF
100
AcDbEntity
  8
1
  6
Continuous
100
AcDbLine
 10
62.666289
 20
161.1130379999998
 30
0.0
 11
62.666289
 21
153.113038
 31
0.0
  0
ARC
  5
A668
330
A4DF
100
AcDbEntity
  8
1
  6
Continuous
100
AcDbCircle
 10
56.322001
 20
157.1130379999999
 30
0.0
 40
7.5
100
AcDbArc
 50
327.769047
 51
32.230953
  0
LINE
  5
A669
330
A4DF
100
AcDbEntity
  8
1
  6
Continuous
100
AcDbLine
 10
62.666289
 20
153.113038
 30
0.0
 11
62.366289
 21
153.113038
 31
0.0
  0
LINE
  5
A66A
330
A4DF
100
AcDbEntity
  8
1
  6
Continuous
100
AcDbLine
 10
62.666289
 20
161.1130379999998
 30
0.0
 11
62.366289
 21
161.1130379999998
 31
0.0
  0
LINE
  5
A66B
330
A4DF
100
AcDbEntity
  8
1
  6
Continuous
100
AcDbLine
 10
137.164626
 20
84.80961200000001
 30
0.0
 11
137.164626
 21
84.509612
 31
0.0
  0
LINE
  5
A66C
330
A4DF
100
AcDbEntity
  8
1
  6
Continuous
100
AcDbLine
 10
129.164626
 20
84.80961200000001
 30
0.0
 11
129.164626
 21
84.509612
 31
0.0
  0
LINE
  5
A66D
330
A4DF
100
AcDbEntity
  8
1
  6
Continuous
100
AcDbLine
 10
137.164626
 20
84.80961200000001
 30
0.0
 11
129.164626
 21
84.80961200000001
 31
0.0
  0
ARC
  5
A66E
330
A4DF
100
AcDbEntity
  8
1
  6
Continuous
100
AcDbCircle
 10
133.164626
 20
78.46532399999998
 30
0.0
 40
7.5
100
AcDbArc
 50
57.76904700000001
 51
122.230953
  0
ARC
  5
A66F
330
A4DF
100
AcDbEntity
  8
1
  6
Continuous
100
AcDbCircle
 10
128.6646189999999
 20
84.509612
 30
0.0
 40
3.25
100
AcDbArc
 50
217.9798719999999
 51
243.5599659999998
  0
ARC
  5
A670
330
A4DF
100
AcDbEntity
  8
1
  6
Continuous
100
AcDbCircle
 10
55.731462
 20
167.03323
 30
0.0
 40
26.722888
100
AcDbArc
 50
212.0233099999999
 51
213.180835
  0
LINE
  5
A671
330
A4DF
100
AcDbEntity
  8
1
  6
Continuous
100
AcDbLine
 10
258.863443
 20
149.528637
 30
0.0
 11
258.863443
 21
148.6763159999999
 31
0.0
  0
ARC
  5
A672
330
A4DF
100
AcDbEntity
  8
1
  6
Continuous
100
AcDbCircle
 10
236.503443
 20
166.870484
 30
0.0
 40
26.713884
100
AcDbArc
 50
331.812974
 51
358.9933849999999
  0
LINE
  5
A673
330
A4DF
100
AcDbEntity
  8
1
  6
Continuous
100
AcDbLine
 10
256.8632029999998
 20
148.6763159999999
 30
0.0
 11
258.863443
 21
148.6763159999999
 31
0.0
  0
ARC
  5
A674
330
A4DF
100
AcDbEntity
  8
1
  6
Continuous
100
AcDbCircle
 10
268.863443
 20
149.528637
 30
0.0
 40
10.0
100
AcDbArc
 50
151.812974
 51
180.0
  0
LINE
  5
A675
330
A4DF
100
AcDbEntity
  8
1
  6
Continuous
100
AcDbLine
 10
261.180827
 20
174.474628
 30
0.0
 11
261.180827
 21
167.2864389999998
 31
0.0
  0
ARC
  5
A676
330
A4DF
100
AcDbEntity
  8
1
  6
Continuous
100
AcDbCircle
 10
234.4710669999999
 20
167.7557439999999
 30
0.0
 40
26.713884
100
AcDbArc
 50
331.812974
 51
358.9933849999999
  0
ARC
  5
A677
330
A4DF
100
AcDbEntity
  8
1
  6
Continuous
100
AcDbCircle
 10
266.831067
 20
150.413898
 30
0.0
 40
10.0
100
AcDbArc
 50
151.812974
 51
175.405317
  0
ARC
  5
A678
330
A4DF
100
AcDbEntity
  8
1
  6
Continuous
100
AcDbCircle
 10
252.222963
 20
166.870484
 30
0.0
 40
26.713884
100
AcDbArc
 50
181.006615
 51
208.187026
  0
ARC
  5
A679
330
A4DF
100
AcDbEntity
  8
1
  6
Continuous
100
AcDbCircle
 10
219.8629629999998
 20
149.528637
 30
0.0
 40
10.0
100
AcDbArc
 50
0.0
 51
28.18702599999999
  0
LINE
  5
A67A
330
A4DF
100
AcDbEntity
  8
1
  6
Continuous
100
AcDbLine
 10
231.8632029999999
 20
148.6763159999999
 30
0.0
 11
229.8629629999998
 21
148.6763159999999
 31
0.0
  0
LINE
  5
A67B
330
A4DF
100
AcDbEntity
  8
1
  6
Continuous
100
AcDbLine
 10
229.8629629999998
 20
149.528637
 30
0.0
 11
229.8629629999998
 21
148.6763159999999
 31
0.0
  0
ARC
  5
A67C
330
A4DF
100
AcDbEntity
  8
1
  6
Continuous
100
AcDbCircle
 10
221.89534
 20
150.413898
 30
0.0
 40
10.0
100
AcDbArc
 50
4.594682999999998
 51
28.18702599999999
  0
ARC
  5
A67D
330
A4DF
100
AcDbEntity
  8
1
  6
Continuous
100
AcDbCircle
 10
254.25534
 20
167.7557439999999
 30
0.0
 40
26.713884
100
AcDbArc
 50
181.006615
 51
208.187026
  0
LINE
  5
A67E
330
A4DF
100
AcDbEntity
  8
1
  6
Continuous
100
AcDbLine
 10
227.5455799999999
 20
174.474628
 30
0.0
 11
227.5455799999999
 21
167.2864389999998
 31
0.0
  0
ARC
  5
A67F
330
A4DF
100
AcDbEntity
  8
1
  6
Continuous
100
AcDbCircle
 10
240.7727219999999
 20
173.5058109999999
 30
0.0
 40
13.262575
100
AcDbArc
 50
133.679923
 51
175.810882
  0
ARC
  5
A680
330
A4DF
100
AcDbEntity
  8
1
  6
Continuous
100
AcDbCircle
 10
133.164626
 20
157.1132369999999
 30
0.0
 40
25.0
100
AcDbArc
 50
100.00639
 51
35.83806699999998
  0
ARC
  5
A681
330
A4DF
100
AcDbEntity
  8
1
  6
Continuous
100
AcDbCircle
 10
133.164626
 20
157.1132369999999
 30
0.0
 40
19.5
100
AcDbArc
 50
104.8181719999998
 51
29.916719
  0
LINE
  5
A682
330
A4DF
100
AcDbEntity
  8
1
  6
Continuous
100
AcDbLine
 10
127.5841689999999
 20
247.467462
 30
0.0
 11
128.4592189999999
 21
247.467462
 31
0.0
  0
LINE
  5
A683
330
A4DF
100
AcDbEntity
  8
1
  6
Continuous
100
AcDbLine
 10
110.5787599999999
 20
248.217462
 30
0.0
 11
122.1646189999999
 21
248.217462
 31
0.0
  0
ARC
  5
A684
330
A4DF
100
AcDbEntity
  8
1
  6
Continuous
100
AcDbCircle
 10
127.5841689999999
 20
247.967462
 30
0.0
 40
0.5
100
AcDbArc
 50
222.835763
 51
270.0
  0
LINE
  5
A685
330
A4DF
100
AcDbEntity
  8
1
  6
Continuous
100
AcDbLine
 10
127.5841689999999
 20
270.967462
 30
0.0
 11
128.4592189999999
 21
270.967462
 31
0.0
  0
LINE
  5
A686
330
A4DF
100
AcDbEntity
  8
1
  6
Continuous
100
AcDbLine
 10
110.5787599999999
 20
270.217462
 30
0.0
 11
122.1646189999999
 21
270.217462
 31
0.0
  0
ARC
  5
A687
330
A4DF
100
AcDbEntity
  8
1
  6
Continuous
100
AcDbCircle
 10
127.5841689999999
 20
270.467462
 30
0.0
 40
0.5
100
AcDbArc
 50
90.0
 51
137.164237
  0
ARC
  5
A688
330
A4DF
100
AcDbEntity
  8
1
  6
Continuous
100
AcDbCircle
 10
208.1646189999999
 20
259.217462
 30
0.0
 40
100.0
100
AcDbArc
 50
174.730718
 51
185.269282
  0
ARC
  5
A689
330
A4DF
100
AcDbEntity
  8
1
  6
Continuous
100
AcDbCircle
 10
110.5787599999999
 20
250.217462
 30
0.0
 40
2.0
100
AcDbArc
 50
185.269282
 51
270.0
  0
ARC
  5
A68A
330
A4DF
100
AcDbEntity
  8
1
  6
Continuous
100
AcDbCircle
 10
110.5787599999999
 20
268.217462
 30
0.0
 40
2.0
100
AcDbArc
 50
90.0
 51
174.730718
  0
LINE
  5
A68B
330
A4DF
100
AcDbEntity
  8
1
  6
Continuous
100
AcDbLine
 10
58.866049
 20
179.6988969999999
 30
0.0
 11
58.866049
 21
134.527178
 31
0.0
  0
LINE
  5
A68C
330
A4DF
100
AcDbEntity
  8
1
  6
Continuous
100
AcDbLine
 10
36.86604899999998
 20
179.6988969999999
 30
0.0
 11
36.86604899999998
 21
134.527178
 31
0.0
  0
LINE
  5
A68D
330
A4DF
100
AcDbEntity
  8
1
  6
Continuous
100
AcDbLine
 10
36.52922499999998
 20
163.1858919999999
 30
0.0
 11
36.86604899999998
 21
163.245283
 31
0.0
  0
LINE
  5
A68E
330
A4DF
100
AcDbEntity
  8
1
  6
Continuous
100
AcDbLine
 10
36.52922499999998
 20
151.040184
 30
0.0
 11
36.86604899999998
 21
150.980793
 31
0.0
  0
ARC
  5
A68F
330
A4DF
100
AcDbEntity
  8
1
  6
Continuous
100
AcDbCircle
 10
38.866049
 20
134.527178
 30
0.0
 40
2.0
100
AcDbArc
 50
180.0
 51
264.730718
  0
ARC
  5
A690
330
A4DF
100
AcDbEntity
  8
1
  6
Continuous
100
AcDbCircle
 10
36.61604899999999
 20
162.693488
 30
0.0
 40
0.5
100
AcDbArc
 50
100.0
 51
180.0
  0
ARC
  5
A691
330
A4DF
100
AcDbEntity
  8
1
  6
Continuous
100
AcDbCircle
 10
36.61604899999999
 20
151.5325879999998
 30
0.0
 40
0.5
100
AcDbArc
 50
180.0
 51
260.0
  0
LINE
  5
A692
330
A4DF
100
AcDbEntity
  8
1
  6
Continuous
100
AcDbLine
 10
36.11604899999999
 20
162.693488
 30
0.0
 11
36.11604899999999
 21
151.5325879999998
 31
0.0
  0
ARC
  5
A693
330
A4DF
100
AcDbEntity
  8
1
  6
Continuous
100
AcDbCircle
 10
47.86604899999999
 20
232.113038
 30
0.0
 40
100.0
100
AcDbArc
 50
264.730718
 51
275.2692819999999
  0
ARC
  5
A694
330
A4DF
100
AcDbEntity
  8
1
  6
Continuous
100
AcDbCircle
 10
56.86604899999998
 20
134.527178
 30
0.0
 40
2.0
100
AcDbArc
 50
275.2692819999999
 51
0.0
  0
LINE
  5
A695
330
A4DF
100
AcDbEntity
  8
1
  6
Continuous
100
AcDbLine
 10
59.202873
 20
163.1858919999999
 30
0.0
 11
58.866049
 21
163.245283
 31
0.0
  0
ARC
  5
A696
330
A4DF
100
AcDbEntity
  8
1
  6
Continuous
100
AcDbCircle
 10
59.116049
 20
162.693488
 30
0.0
 40
0.5
100
AcDbArc
 50
0.0
 51
80.0
  0
LINE
  5
A697
330
A4DF
100
AcDbEntity
  8
1
  6
Continuous
100
AcDbLine
 10
59.202873
 20
151.040184
 30
0.0
 11
58.866049
 21
150.980793
 31
0.0
  0
ARC
  5
A698
330
A4DF
100
AcDbEntity
  8
1
  6
Continuous
100
AcDbCircle
 10
59.116049
 20
151.5325879999998
 30
0.0
 40
0.5
100
AcDbArc
 50
280.0
 51
0.0
  0
LINE
  5
A699
330
A4DF
100
AcDbEntity
  8
1
  6
Continuous
100
AcDbLine
 10
59.616049
 20
162.693488
 30
0.0
 11
59.616049
 21
151.5325879999998
 31
0.0
  0
ARC
  5
A69A
330
A4DF
100
AcDbEntity
  8
1
  6
Continuous
100
AcDbCircle
 10
38.866049
 20
179.6988969999999
 30
0.0
 40
2.0
100
AcDbArc
 50
95.26928199999998
 51
180.0
  0
ARC
  5
A69B
330
A4DF
100
AcDbEntity
  8
1
  6
Continuous
100
AcDbCircle
 10
47.86604899999999
 20
82.11303800000001
 30
0.0
 40
100.0
100
AcDbArc
 50
84.73071800000003
 51
95.26928199999998
  0
ARC
  5
A69C
330
A4DF
100
AcDbEntity
  8
1
  6
Continuous
100
AcDbCircle
 10
56.86604899999998
 20
179.6988969999999
 30
0.0
 40
2.0
100
AcDbArc
 50
0.0
 51
84.73071800000003
  0
LINE
  5
A69D
330
A4DF
100
AcDbEntity
  8
1
  6
Continuous
100
AcDbLine
 10
233.3632029999999
 20
179.6988969999999
 30
0.0
 11
233.3632029999999
 21
134.527178
 31
0.0
  0
LINE
  5
A69E
330
A4DF
100
AcDbEntity
  8
1
  6
Continuous
100
AcDbLine
 10
255.3632029999999
 20
179.6988969999999
 30
0.0
 11
255.3632029999999
 21
134.527178
 31
0.0
  0
ARC
  5
A69F
330
A4DF
100
AcDbEntity
  8
1
  6
Continuous
100
AcDbCircle
 10
235.3632029999999
 20
134.527178
 30
0.0
 40
2.0
100
AcDbArc
 50
180.0
 51
264.730718
  0
LINE
  5
A6A0
330
A4DF
100
AcDbEntity
  8
1
  6
Continuous
100
AcDbLine
 10
232.6132029999999
 20
162.693488
 30
0.0
 11
232.6132029999999
 21
151.5325879999998
 31
0.0
  0
ARC
  5
A6A1
330
A4DF
100
AcDbEntity
  8
1
  6
Continuous
100
AcDbCircle
 10
233.1132029999999
 20
151.5325879999998
 30
0.0
 40
0.5
100
AcDbArc
 50
180.0
 51
260.0
  0
LINE
  5
A6A2
330
A4DF
100
AcDbEntity
  8
1
  6
Continuous
100
AcDbLine
 10
233.026379
 20
151.040184
 30
0.0
 11
233.3632029999999
 21
150.980793
 31
0.0
  0
ARC
  5
A6A3
330
A4DF
100
AcDbEntity
  8
1
  6
Continuous
100
AcDbCircle
 10
233.1132029999999
 20
162.693488
 30
0.0
 40
0.5
100
AcDbArc
 50
100.0
 51
180.0
  0
LINE
  5
A6A4
330
A4DF
100
AcDbEntity
  8
1
  6
Continuous
100
AcDbLine
 10
233.026379
 20
163.1858919999999
 30
0.0
 11
233.3632029999999
 21
163.245283
 31
0.0
  0
ARC
  5
A6A5
330
A4DF
100
AcDbEntity
  8
1
  6
Continuous
100
AcDbCircle
 10
253.3632029999999
 20
134.527178
 30
0.0
 40
2.0
100
AcDbArc
 50
275.2692819999999
 51
0.0
  0
ARC
  5
A6A6
330
A4DF
100
AcDbEntity
  8
1
  6
Continuous
100
AcDbCircle
 10
244.3632029999999
 20
232.113038
 30
0.0
 40
100.0
100
AcDbArc
 50
264.730718
 51
275.2692819999999
  0
LINE
  5
A6A7
330
A4DF
100
AcDbEntity
  8
1
  6
Continuous
100
AcDbLine
 10
256.113203
 20
162.693488
 30
0.0
 11
256.113203
 21
151.5325879999998
 31
0.0
  0
ARC
  5
A6A8
330
A4DF
100
AcDbEntity
  8
1
  6
Continuous
100
AcDbCircle
 10
255.6132029999999
 20
151.5325879999998
 30
0.0
 40
0.5
100
AcDbArc
 50
280.0
 51
0.0
  0
LINE
  5
A6A9
330
A4DF
100
AcDbEntity
  8
1
  6
Continuous
100
AcDbLine
 10
255.700027
 20
151.040184
 30
0.0
 11
255.3632029999999
 21
150.980793
 31
0.0
  0
ARC
  5
A6AA
330
A4DF
100
AcDbEntity
  8
1
  6
Continuous
100
AcDbCircle
 10
255.6132029999999
 20
162.693488
 30
0.0
 40
0.5
100
AcDbArc
 50
0.0
 51
80.0
  0
LINE
  5
A6AB
330
A4DF
100
AcDbEntity
  8
1
  6
Continuous
100
AcDbLine
 10
255.700027
 20
163.1858919999999
 30
0.0
 11
255.3632029999999
 21
163.245283
 31
0.0
  0
ARC
  5
A6AC
330
A4DF
100
AcDbEntity
  8
1
  6
Continuous
100
AcDbCircle
 10
235.3632029999999
 20
179.6988969999999
 30
0.0
 40
2.0
100
AcDbArc
 50
95.26928199999998
 51
180.0
  0
ARC
  5
A6AD
330
A4DF
100
AcDbEntity
  8
1
  6
Continuous
100
AcDbCircle
 10
244.3632029999999
 20
82.11303800000001
 30
0.0
 40
100.0
100
AcDbArc
 50
84.73071800000003
 51
95.26928199999998
  0
ARC
  5
A6AE
330
A4DF
100
AcDbEntity
  8
1
  6
Continuous
100
AcDbCircle
 10
253.3632029999999
 20
179.6988969999999
 30
0.0
 40
2.0
100
AcDbArc
 50
0.0
 51
84.73071800000003
  0
LINE
  5
A6AF
330
A4DF
100
AcDbEntity
  8
1
  6
Continuous
100
AcDbLine
 10
110.578767
 20
59.009612
 30
0.0
 11
155.750486
 21
59.009612
 31
0.0
  0
LINE
  5
A6B0
330
A4DF
100
AcDbEntity
  8
1
  6
Continuous
100
AcDbLine
 10
110.578767
 20
81.009612
 30
0.0
 11
155.750486
 21
81.009612
 31
0.0
  0
ARC
  5
A6B1
330
A4DF
100
AcDbEntity
  8
1
  6
Continuous
100
AcDbCircle
 10
208.1646259999998
 20
70.009612
 30
0.0
 40
100.0
100
AcDbArc
 50
174.730718
 51
185.269282
  0
ARC
  5
A6B2
330
A4DF
100
AcDbEntity
  8
1
  6
Continuous
100
AcDbCircle
 10
110.578767
 20
61.009612
 30
0.0
 40
2.0
100
AcDbArc
 50
185.269282
 51
270.0
  0
ARC
  5
A6B3
330
A4DF
100
AcDbEntity
  8
1
  6
Continuous
100
AcDbCircle
 10
110.578767
 20
79.00961200000002
 30
0.0
 40
2.0
100
AcDbArc
 50
90.0
 51
174.730718
  0
LINE
  5
A6B4
330
A4DF
100
AcDbEntity
  8
1
  6
Continuous
100
AcDbLine
 10
127.584176
 20
58.259612
 30
0.0
 11
138.745076
 21
58.259612
 31
0.0
  0
ARC
  5
A6B5
330
A4DF
100
AcDbEntity
  8
1
  6
Continuous
100
AcDbCircle
 10
127.584176
 20
58.75961199999998
 30
0.0
 40
0.5
100
AcDbArc
 50
190.0
 51
270.0
  0
LINE
  5
A6B6
330
A4DF
100
AcDbEntity
  8
1
  6
Continuous
100
AcDbLine
 10
127.0917719999999
 20
58.672788
 30
0.0
 11
127.032381
 21
59.009612
 31
0.0
  0
ARC
  5
A6B7
330
A4DF
100
AcDbEntity
  8
1
  6
Continuous
100
AcDbCircle
 10
138.745076
 20
58.75961199999998
 30
0.0
 40
0.5
100
AcDbArc
 50
270.0
 51
350.0
  0
LINE
  5
A6B8
330
A4DF
100
AcDbEntity
  8
1
  6
Continuous
100
AcDbLine
 10
139.23748
 20
58.672788
 30
0.0
 11
139.296871
 21
59.009612
 31
0.0
  0
LINE
  5
A6B9
330
A4DF
100
AcDbEntity
  8
1
  6
Continuous
100
AcDbLine
 10
127.584176
 20
81.75961200000001
 30
0.0
 11
138.745076
 21
81.75961200000001
 31
0.0
  0
ARC
  5
A6BA
330
A4DF
100
AcDbEntity
  8
1
  6
Continuous
100
AcDbCircle
 10
127.584176
 20
81.259612
 30
0.0
 40
0.5
100
AcDbArc
 50
90.0
 51
170.0
  0
LINE
  5
A6BB
330
A4DF
100
AcDbEntity
  8
1
  6
Continuous
100
AcDbLine
 10
127.0917719999999
 20
81.34643599999998
 30
0.0
 11
127.032381
 21
81.009612
 31
0.0
  0
ARC
  5
A6BC
330
A4DF
100
AcDbEntity
  8
1
  6
Continuous
100
AcDbCircle
 10
138.745076
 20
81.259612
 30
0.0
 40
0.5
100
AcDbArc
 50
10.0
 51
90.0
  0
LINE
  5
A6BD
330
A4DF
100
AcDbEntity
  8
1
  6
Continuous
100
AcDbLine
 10
139.23748
 20
81.34643599999998
 30
0.0
 11
139.296871
 21
81.009612
 31
0.0
  0
ARC
  5
A6BE
330
A4DF
100
AcDbEntity
  8
1
  6
Continuous
100
AcDbCircle
 10
58.164626
 20
70.009612
 30
0.0
 40
100.0
100
AcDbArc
 50
354.730718
 51
5.269281999999998
  0
ARC
  5
A6BF
330
A4DF
100
AcDbEntity
  8
1
  6
Continuous
100
AcDbCircle
 10
155.750486
 20
61.009612
 30
0.0
 40
2.0
100
AcDbArc
 50
270.0
 51
354.730718
  0
ARC
  5
A6C0
330
A4DF
100
AcDbEntity
  8
1
  6
Continuous
100
AcDbCircle
 10
155.750486
 20
79.00961200000002
 30
0.0
 40
2.0
100
AcDbArc
 50
5.269281999999998
 51
90.0
  0
LINE
  5
A6C1
330
A4DF
100
AcDbEntity
  8
1
  6
Continuous
100
AcDbLine
 10
135.8952069999999
 20
189.801237
 30
0.0
 11
168.414626
 21
189.801237
 31
0.0
  0
ARC
  5
A6C2
330
A4DF
100
AcDbEntity
  8
1
  6
Continuous
100
AcDbCircle
 10
355.56178
 20
157.1132369999999
 30
0.0
 40
19.5
100
AcDbArc
 50
150.083281
 51
75.18182799999998
  0
ARC
  5
A6C3
330
A4DF
100
AcDbEntity
  8
1
  6
Continuous
100
AcDbCircle
 10
355.56178
 20
157.1132369999999
 30
0.0
 40
25.0
100
AcDbArc
 50
144.1619329999998
 51
79.99361000000003
  0
LINE
  5
A6C4
330
A4DF
100
AcDbEntity
  8
4
  6
CENTER
100
AcDbLine
 10
355.56178
 20
127.113237
 30
0.0
 11
355.56178
 21
185.113237
 31
0.0
  0
LINE
  5
A6C5
330
A4DF
100
AcDbEntity
  8
1
  6
Continuous
100
AcDbLine
 10
359.3231349999999
 20
186.9575049999999
 30
0.0
 11
362.679392
 21
156.859497
 31
0.0
  0
LINE
  5
A6C6
330
A4DF
100
AcDbEntity
  8
4
  6
CENTER
100
AcDbLine
 10
336.5617799999998
 20
202.113537
 30
0.0
 11
336.5617799999998
 21
166.57326
 31
0.0
  0
ARC
  5
A6C7
330
A4DF
100
AcDbEntity
  8
1
  6
Continuous
100
AcDbCircle
 10
282.957243
 20
135.989325
 30
0.0
 40
63.35981999999999
100
AcDbArc
 50
36.666179
 51
45.952998
  0
LINE
  5
A6C8
330
A4DF
100
AcDbEntity
  8
1
  6
Continuous
100
AcDbLine
 10
347.7117799999998
 20
186.064782
 30
0.0
 11
347.7117799999998
 21
155.880475
 31
0.0
  0
ARC
  5
A6C9
330
A4DF
100
AcDbEntity
  8
1
  6
Continuous
100
AcDbCircle
 10
355.2117799999999
 20
156.163237
 30
0.0
 40
7.5
100
AcDbArc
 50
244.0790989999999
 51
5.326703
  0
LINE
  5
A6CA
330
A4DF
100
AcDbEntity
  8
4
  6
CENTER
100
AcDbLine
 10
385.56178
 20
157.1132369999999
 30
0.0
 11
325.56178
 21
157.1132369999999
 31
0.0
  0
ARC
  5
A6CB
330
A4DF
100
AcDbEntity
  8
1
  6
Continuous
100
AcDbCircle
 10
397.6036619999999
 20
191.822394
 30
0.0
 40
63.31738699999998
100
AcDbArc
 50
210.0174259999998
 51
218.02512
  0
ARC
  5
A6CC
330
A4DF
100
AcDbEntity
  8
1
  6
Continuous
100
AcDbCircle
 10
357.1788649999998
 20
160.21053
 30
0.0
 40
12.0
100
AcDbArc
 50
218.02512
 51
244.0790989999999
  0
ARC
  5
A6CD
330
A4DF
100
AcDbEntity
  8
1
  6
Continuous
100
AcDbCircle
 10
220.543556
 20
89.52488199999995
 30
0.0
 40
141.169928
100
AcDbArc
 50
30.017426
 51
36.666179
  0
LINE
  5
A6CE
330
A4DF
100
AcDbEntity
  8
1
  6
Continuous
100
AcDbLine
 10
359.5092799999998
 20
184.961041
 30
0.0
 11
361.778237
 21
184.9947979999998
 31
0.0
  0
ARC
  5
A6CF
330
A4DF
100
AcDbEntity
  8
1
  6
Continuous
100
AcDbCircle
 10
361.0946269999999
 20
185.6414879999999
 30
0.0
 40
1.351175999999999
100
AcDbArc
 50
50.763314
 51
91.14576300000001
  0
LINE
  5
A6D0
330
A4DF
100
AcDbEntity
  8
1
  6
Continuous
100
AcDbLine
 10
366.56178
 20
195.1135739999998
 30
0.0
 11
306.56178
 21
195.1135739999998
 31
0.0
  0
LINE
  5
A6D1
330
A4DF
100
AcDbEntity
  8
1
  6
Continuous
100
AcDbLine
 10
366.56178
 20
197.113537
 30
0.0
 11
306.56178
 21
197.113537
 31
0.0
  0
LINE
  5
A6D2
330
A4DF
100
AcDbEntity
  8
1
  6
Continuous
100
AcDbLine
 10
366.56178
 20
197.113537
 30
0.0
 11
366.56178
 21
195.1135739999998
 31
0.0
  0
ARC
  5
A6D3
330
A4DF
100
AcDbEntity
  8
1
  6
Continuous
100
AcDbCircle
 10
361.773095
 20
185.340442
 30
0.0
 40
0.345682
100
AcDbArc
 50
270.852372
 51
313.097669
  0
LINE
  5
A6D4
330
A4DF
100
AcDbEntity
  8
1
  6
Continuous
100
AcDbLine
 10
362.00928
 20
185.773028
 30
0.0
 11
362.00928
 21
185.088028
 31
0.0
  0
LINE
  5
A6D5
330
A4DF
100
AcDbEntity
  8
1
  6
Continuous
100
AcDbLine
 10
361.9492799999999
 20
186.688028
 30
0.0
 11
362.00928
 21
185.773028
 31
0.0
  0
LINE
  5
A6D6
330
A4DF
100
AcDbEntity
  8
1
  6
Continuous
100
AcDbLine
 10
352.8117799999998
 20
189.801237
 30
0.0
 11
319.883502
 21
189.801237
 31
0.0
  0
LINE
  5
A6D7
330
A4DF
100
AcDbEntity
  8
1
  6
Continuous
100
AcDbLine
 10
329.7970599999998
 20
191.2422369999999
 30
0.0
 11
327.561217
 21
189.801237
 31
0.0
  0
LINE
  5
A6D8
330
A4DF
100
AcDbEntity
  8
1
  6
Continuous
100
AcDbLine
 10
331.2112729999999
 20
191.2422369999999
 30
0.0
 11
328.975431
 21
189.801237
 31
0.0
  0
LINE
  5
A6D9
330
A4DF
100
AcDbEntity
  8
1
  6
Continuous
100
AcDbLine
 10
327.7970629999999
 20
191.2422369999999
 30
0.0
 11
330.0329069999999
 21
189.801237
 31
0.0
  0
LINE
  5
A6DA
330
A4DF
100
AcDbEntity
  8
1
  6
Continuous
100
AcDbLine
 10
320.31178
 20
191.2421979999998
 30
0.0
 11
352.8117799999998
 21
191.242276
 31
0.0
  0
LINE
  5
A6DB
330
A4DF
100
AcDbEntity
  8
1
  6
Continuous
100
AcDbLine
 10
352.788636
 20
193.1455369999999
 30
0.0
 11
320.334924
 21
193.1455369999999
 31
0.0
  0
LINE
  5
A6DC
330
A4DF
100
AcDbEntity
  8
4
  6
CENTER
100
AcDbLine
 10
360.06178
 20
202.113537
 30
0.0
 11
360.06178
 21
190.1135739999998
 31
0.0
  0
LINE
  5
A6DD
330
A4DF
100
AcDbEntity
  8
1
  6
Continuous
100
AcDbLine
 10
345.353409
 20
191.2422369999999
 30
0.0
 11
343.117566
 21
189.801237
 31
0.0
  0
LINE
  5
A6DE
330
A4DF
100
AcDbEntity
  8
1
  6
Continuous
100
AcDbLine
 10
346.767622
 20
191.2422369999999
 30
0.0
 11
344.5317799999998
 21
189.801237
 31
0.0
  0
LINE
  5
A6DF
330
A4DF
100
AcDbEntity
  8
1
  6
Continuous
100
AcDbLine
 10
344.7676259999998
 20
191.2422369999999
 30
0.0
 11
347.0034689999998
 21
189.801237
 31
0.0
  0
LINE
  5
A6E0
330
A4DF
100
AcDbEntity
  8
1
  6
Continuous
100
AcDbLine
 10
348.1818359999999
 20
191.2422369999999
 30
0.0
 11
345.9459929999999
 21
189.801237
 31
0.0
  0
LINE
  5
A6E1
330
A4DF
100
AcDbEntity
  8
1
  6
Continuous
100
AcDbLine
 10
349.5960489999998
 20
191.2422369999999
 30
0.0
 11
347.360207
 21
189.801237
 31
0.0
  0
LINE
  5
A6E2
330
A4DF
100
AcDbEntity
  8
1
  6
Continuous
100
AcDbLine
 10
350.4244799999999
 20
191.2422369999999
 30
0.0
 11
352.660324
 21
189.801237
 31
0.0
  0
LINE
  5
A6E3
330
A4DF
100
AcDbEntity
  8
1
  6
Continuous
100
AcDbLine
 10
352.8117799999998
 20
190.215327
 30
0.0
 11
351.2743319999998
 21
189.801237
 31
0.0
  0
LINE
  5
A6E4
330
A4DF
100
AcDbEntity
  8
1
  6
Continuous
100
AcDbLine
 10
352.424477
 20
191.2422369999999
 30
0.0
 11
350.1886339999999
 21
189.801237
 31
0.0
  0
LINE
  5
A6E5
330
A4DF
100
AcDbEntity
  8
1
  6
Continuous
100
AcDbLine
 10
347.596053
 20
191.2422369999999
 30
0.0
 11
349.8318959999999
 21
189.801237
 31
0.0
  0
LINE
  5
A6E6
330
A4DF
100
AcDbEntity
  8
1
  6
Continuous
100
AcDbLine
 10
351.010263
 20
191.2422369999999
 30
0.0
 11
348.774421
 21
189.801237
 31
0.0
  0
ARC
  5
A6E7
330
A4DF
100
AcDbEntity
  8
1
  6
Continuous
100
AcDbCircle
 10
351.8469889999999
 20
186.686869
 30
0.0
 40
3.266183999999998
100
AcDbArc
 50
38.25670199999999
 51
72.462293
  0
LINE
  5
A6E8
330
A4DF
100
AcDbEntity
  8
1
  6
Continuous
100
AcDbLine
 10
352.8117799999998
 20
191.2422369999999
 30
0.0
 11
352.8117799999998
 21
189.801237
 31
0.0
  0
LINE
  5
A6E9
330
A4DF
100
AcDbEntity
  8
1
  6
Continuous
100
AcDbLine
 10
356.3272769999999
 20
194.8655369999999
 30
0.0
 11
356.515444
 21
195.1135739999998
 31
0.0
  0
LINE
  5
A6EA
330
A4DF
100
AcDbEntity
  8
1
  6
Continuous
100
AcDbLine
 10
357.2842799999999
 20
186.9180279999999
 30
0.0
 11
357.8492799999998
 21
186.928028
 31
0.0
  0
LINE
  5
A6EB
330
A4DF
100
AcDbEntity
  8
1
  6
Continuous
100
AcDbLine
 10
356.68928
 20
186.938028
 30
0.0
 11
357.2842799999999
 21
186.9180279999999
 31
0.0
  0
LINE
  5
A6EC
330
A4DF
100
AcDbEntity
  8
1
  6
Continuous
100
AcDbLine
 10
357.8492799999998
 20
186.928028
 30
0.0
 11
361.067608
 21
186.992395
 31
0.0
  0
ARC
  5
A6ED
330
A4DF
100
AcDbEntity
  8
1
  6
Continuous
100
AcDbCircle
 10
353.033592
 20
189.0240619999999
 30
0.0
 40
2.042368999999998
100
AcDbArc
 50
199.821809
 51
269.3179399999999
  0
LINE
  5
A6EE
330
A4DF
100
AcDbEntity
  8
1
  6
Continuous
100
AcDbLine
 10
352.1433599999999
 20
192.931534
 30
0.0
 11
351.7902029999998
 21
193.1455369999999
 31
0.0
  0
ARC
  5
A6EF
330
A4DF
100
AcDbEntity
  8
1
  6
Continuous
100
AcDbCircle
 10
351.573912
 20
191.9918049999999
 30
0.0
 40
1.098799999999998
100
AcDbArc
 50
20.306161
 51
58.785345
  0
ARC
  5
A6F0
330
A4DF
100
AcDbEntity
  8
1
  6
Continuous
100
AcDbCircle
 10
350.256048
 20
192.7040159999999
 30
0.0
 40
2.371570999999998
100
AcDbArc
 50
321.9491909999999
 51
351.9797889999999
  0
ARC
  5
A6F1
330
A4DF
100
AcDbEntity
  8
1
  6
Continuous
100
AcDbCircle
 10
352.788636
 20
196.3241099999999
 30
0.0
 40
3.178573
100
AcDbArc
 50
270.0
 51
303.210091
  0
LINE
  5
A6F2
330
A4DF
100
AcDbEntity
  8
1
  6
Continuous
100
AcDbLine
 10
355.6642799999999
 20
186.983028
 30
0.0
 11
355.8492799999998
 21
186.9480279999999
 31
0.0
  0
LINE
  5
A6F3
330
A4DF
100
AcDbEntity
  8
1
  6
Continuous
100
AcDbLine
 10
355.49428
 20
187.068028
 30
0.0
 11
355.6642799999999
 21
186.983028
 31
0.0
  0
LINE
  5
A6F4
330
A4DF
100
AcDbEntity
  8
1
  6
Continuous
100
AcDbLine
 10
355.1542799999999
 20
187.2680279999999
 30
0.0
 11
355.49428
 21
187.068028
 31
0.0
  0
LINE
  5
A6F5
330
A4DF
100
AcDbEntity
  8
1
  6
Continuous
100
AcDbLine
 10
355.0092799999998
 20
187.7030279999999
 30
0.0
 11
355.1542799999999
 21
187.2680279999999
 31
0.0
  0
ARC
  5
A6F6
330
A4DF
100
AcDbEntity
  8
1
  6
Continuous
100
AcDbCircle
 10
350.916095
 20
185.9528349999999
 30
0.0
 40
4.451666999999998
100
AcDbArc
 50
23.150932
 51
38.25670199999999
  0
ARC
  5
A6F7
330
A4DF
100
AcDbEntity
  8
1
  6
Continuous
100
AcDbCircle
 10
290.7908499999999
 20
291.030249
 30
0.0
 40
116.3729999999999
100
AcDbArc
 50
303.210091
 51
304.2745019999999
  0
LINE
  5
A6F8
330
A4DF
100
AcDbEntity
  8
1
  6
Continuous
100
AcDbLine
 10
353.0092799999998
 20
186.9818379999999
 30
0.0
 11
356.68928
 21
186.938028
 31
0.0
  0
LINE
  5
A6F9
330
A4DF
100
AcDbEntity
  8
1
  6
Continuous
100
AcDbLine
 10
341.110768
 20
191.2422369999999
 30
0.0
 11
338.8749259999999
 21
189.801237
 31
0.0
  0
LINE
  5
A6FA
330
A4DF
100
AcDbEntity
  8
1
  6
Continuous
100
AcDbLine
 10
338.2823409999998
 20
191.2422369999999
 30
0.0
 11
336.046499
 21
189.801237
 31
0.0
  0
LINE
  5
A6FB
330
A4DF
100
AcDbEntity
  8
1
  6
Continuous
100
AcDbLine
 10
336.282345
 20
191.2422369999999
 30
0.0
 11
338.518188
 21
189.801237
 31
0.0
  0
LINE
  5
A6FC
330
A4DF
100
AcDbEntity
  8
1
  6
Continuous
100
AcDbLine
 10
339.696554
 20
191.2422369999999
 30
0.0
 11
337.460712
 21
189.801237
 31
0.0
  0
LINE
  5
A6FD
330
A4DF
100
AcDbEntity
  8
1
  6
Continuous
100
AcDbLine
 10
332.625487
 20
191.2422369999999
 30
0.0
 11
330.3896439999999
 21
189.801237
 31
0.0
  0
LINE
  5
A6FE
330
A4DF
100
AcDbEntity
  8
1
  6
Continuous
100
AcDbLine
 10
330.62549
 20
191.2422369999999
 30
0.0
 11
332.8613339999999
 21
189.801237
 31
0.0
  0
LINE
  5
A6FF
330
A4DF
100
AcDbEntity
  8
1
  6
Continuous
100
AcDbLine
 10
334.0396999999999
 20
191.2422369999999
 30
0.0
 11
331.803858
 21
189.801237
 31
0.0
  0
LINE
  5
A700
330
A4DF
100
AcDbEntity
  8
1
  6
Continuous
100
AcDbLine
 10
335.4539139999999
 20
191.2422369999999
 30
0.0
 11
333.218071
 21
189.801237
 31
0.0
  0
LINE
  5
A701
330
A4DF
100
AcDbEntity
  8
1
  6
Continuous
100
AcDbLine
 10
333.4539169999998
 20
191.2422369999999
 30
0.0
 11
335.6897609999998
 21
189.801237
 31
0.0
  0
LINE
  5
A702
330
A4DF
100
AcDbEntity
  8
1
  6
Continuous
100
AcDbLine
 10
336.868127
 20
191.2422369999999
 30
0.0
 11
334.632285
 21
189.801237
 31
0.0
  0
LINE
  5
A703
330
A4DF
100
AcDbEntity
  8
1
  6
Continuous
100
AcDbLine
 10
342.5249819999999
 20
191.2422369999999
 30
0.0
 11
340.2891389999999
 21
189.801237
 31
0.0
  0
LINE
  5
A704
330
A4DF
100
AcDbEntity
  8
1
  6
Continuous
100
AcDbLine
 10
339.1107719999999
 20
191.2422369999999
 30
0.0
 11
341.346615
 21
189.801237
 31
0.0
  0
LINE
  5
A705
330
A4DF
100
AcDbEntity
  8
1
  6
Continuous
100
AcDbLine
 10
343.939195
 20
191.2422369999999
 30
0.0
 11
341.7033529999998
 21
189.801237
 31
0.0
  0
LINE
  5
A706
330
A4DF
100
AcDbEntity
  8
1
  6
Continuous
100
AcDbLine
 10
341.9391989999998
 20
191.2422369999999
 30
0.0
 11
344.175042
 21
189.801237
 31
0.0
  0
LINE
  5
A707
330
A4DF
100
AcDbEntity
  8
4
  6
CENTER
100
AcDbLine
 10
313.06178
 20
202.113537
 30
0.0
 11
313.06178
 21
190.1135739999998
 31
0.0
  0
LINE
  5
A708
330
A4DF
100
AcDbEntity
  8
1
  6
Continuous
100
AcDbLine
 10
322.725992
 20
191.2422369999999
 30
0.0
 11
320.4901489999999
 21
189.801237
 31
0.0
  0
ARC
  5
A709
330
A4DF
100
AcDbEntity
  8
1
  6
Continuous
100
AcDbCircle
 10
320.9200329999998
 20
185.9734399999999
 30
0.0
 40
3.979796999999998
100
AcDbArc
 50
98.79126499999999
 51
101.496245
  0
LINE
  5
A70A
330
A4DF
100
AcDbEntity
  8
1
  6
Continuous
100
AcDbLine
 10
320.31178
 20
191.2422369999999
 30
0.0
 11
320.31178
 21
189.801237
 31
0.0
  0
LINE
  5
A70B
330
A4DF
100
AcDbEntity
  8
1
  6
Continuous
100
AcDbLine
 10
328.3828459999999
 20
191.2422369999999
 30
0.0
 11
326.1470039999999
 21
189.801237
 31
0.0
  0
LINE
  5
A70C
330
A4DF
100
AcDbEntity
  8
1
  6
Continuous
100
AcDbLine
 10
324.968636
 20
191.2422369999999
 30
0.0
 11
327.2044789999998
 21
189.801237
 31
0.0
  0
LINE
  5
A70D
330
A4DF
100
AcDbEntity
  8
1
  6
Continuous
100
AcDbLine
 10
326.9686319999999
 20
191.2422369999999
 30
0.0
 11
324.7327899999999
 21
189.801237
 31
0.0
  0
LINE
  5
A70E
330
A4DF
100
AcDbEntity
  8
1
  6
Continuous
100
AcDbLine
 10
322.1402089999999
 20
191.2422369999999
 30
0.0
 11
324.376052
 21
189.801237
 31
0.0
  0
LINE
  5
A70F
330
A4DF
100
AcDbEntity
  8
1
  6
Continuous
100
AcDbLine
 10
325.554419
 20
191.2422369999999
 30
0.0
 11
323.3185759999999
 21
189.801237
 31
0.0
  0
LINE
  5
A710
330
A4DF
100
AcDbEntity
  8
1
  6
Continuous
100
AcDbLine
 10
321.8377409999998
 20
189.801237
 30
0.0
 11
320.31178
 21
190.2422389999999
 31
0.0
  0
LINE
  5
A711
330
A4DF
100
AcDbEntity
  8
1
  6
Continuous
100
AcDbLine
 10
324.140205
 20
191.2422369999999
 30
0.0
 11
321.9043629999998
 21
189.801237
 31
0.0
  0
LINE
  5
A712
330
A4DF
100
AcDbEntity
  8
1
  6
Continuous
100
AcDbLine
 10
317.7117799999999
 20
183.105367
 30
0.0
 11
318.04836
 21
187.2199979999998
 31
0.0
  0
LINE
  5
A713
330
A4DF
100
AcDbEntity
  8
1
  6
Continuous
100
AcDbLine
 10
317.9622799999999
 20
183.105367
 30
0.0
 11
317.7117799999999
 21
183.105367
 31
0.0
  0
LINE
  5
A714
330
A4DF
100
AcDbEntity
  8
1
  6
Continuous
100
AcDbLine
 10
318.7112799999998
 20
183.063028
 30
0.0
 11
319.37628
 21
183.018028
 31
0.0
  0
ARC
  5
A715
330
A4DF
100
AcDbEntity
  8
1
  6
Continuous
100
AcDbCircle
 10
320.781266
 20
187.2199979999998
 30
0.0
 40
2.732905
100
AcDbArc
 50
103.8546479999999
 51
180.0
  0
ARC
  5
A716
330
A4DF
100
AcDbEntity
  8
1
  6
Continuous
100
AcDbCircle
 10
320.334924
 20
196.3241099999999
 30
0.0
 40
3.178573
100
AcDbArc
 50
236.7899089999999
 51
270.0
  0
LINE
  5
A717
330
A4DF
100
AcDbEntity
  8
1
  6
Continuous
100
AcDbLine
 10
317.9622799999999
 20
183.105367
 30
0.0
 11
318.7112799999998
 21
183.063028
 31
0.0
  0
ARC
  5
A718
330
A4DF
100
AcDbEntity
  8
1
  6
Continuous
100
AcDbCircle
 10
382.33271
 20
291.030249
 30
0.0
 40
116.3729999999999
100
AcDbArc
 50
235.7254979999999
 51
236.7899089999999
  0
LINE
  5
A719
330
A4DF
100
AcDbEntity
  8
1
  6
Continuous
100
AcDbLine
 10
316.796283
 20
194.8655369999999
 30
0.0
 11
316.608116
 21
195.1135739999998
 31
0.0
  0
LINE
  5
A71A
330
A4DF
100
AcDbEntity
  8
1
  6
Continuous
100
AcDbLine
 10
321.311778
 20
191.2422369999999
 30
0.0
 11
320.31178
 21
190.2422389999999
 31
0.0
  0
LINE
  5
A71B
330
A4DF
100
AcDbEntity
  8
1
  6
Continuous
100
AcDbLine
 10
320.9802
 20
192.931534
 30
0.0
 11
321.3333569999999
 21
193.1455369999999
 31
0.0
  0
LINE
  5
A71C
330
A4DF
100
AcDbEntity
  8
1
  6
Continuous
100
AcDbLine
 10
319.5992799999999
 20
183.0780279999999
 30
0.0
 11
323.182161
 21
183.0780279999999
 31
0.0
  0
LINE
  5
A71D
330
A4DF
100
AcDbEntity
  8
1
  6
Continuous
100
AcDbLine
 10
319.37628
 20
183.018028
 30
0.0
 11
319.5992799999999
 21
183.0780279999999
 31
0.0
  0
ARC
  5
A71E
330
A4DF
100
AcDbEntity
  8
1
  6
Continuous
100
AcDbCircle
 10
321.549648
 20
191.9918049999999
 30
0.0
 40
1.098799999999998
100
AcDbArc
 50
121.214655
 51
159.693839
  0
ARC
  5
A71F
330
A4DF
100
AcDbEntity
  8
1
  6
Continuous
100
AcDbCircle
 10
322.8675119999999
 20
192.7040159999999
 30
0.0
 40
2.371570999999998
100
AcDbArc
 50
188.020211
 51
218.050809
  0
ARC
  5
A720
330
A4DF
100
AcDbEntity
  8
1
  6
Continuous
100
AcDbCircle
 10
323.182161
 20
177.575123
 30
0.0
 40
5.502905999999999
100
AcDbArc
 50
45.952998
 51
90.0
  0
LINE
  5
A721
330
A4DF
100
AcDbEntity
  8
1
  6
Continuous
100
AcDbLine
 10
306.56178
 20
197.113537
 30
0.0
 11
306.56178
 21
195.1135739999998
 31
0.0
  0
CIRCLE
  5
A722
330
A4DF
100
AcDbEntity
  8
1
  6
Continuous
100
AcDbCircle
 10
133.164626
 20
157.1132369999999
 30
0.0
 40
4.0
  0
CIRCLE
  5
A723
330
A4DF
100
AcDbEntity
  8
1
  6
Continuous
100
AcDbCircle
 10
355.56178
 20
157.1132369999999
 30
0.0
 40
4.25
  0
LINE
  5
A724
330
A4DF
100
AcDbEntity
  8
4
  6
CENTER
100
AcDbLine
 10
133.1646189999998
 20
285.2174619999999
 30
0.0
 11
133.1646189999998
 21
233.2174619999999
 31
0.0
  0
ENDSEC
  0
SECTION
  2
OBJECTS
  0
DICTIONARY
  5
A4CD
330
0
100
AcDbDictionary
281
     1
  3
ACAD_CIP_PREVIOUS_PRODUCT_INFO
350
A786
  3
ACAD_COLOR
350
A768
  3
ACAD_DETAILVIEWSTYLE
350
A781
  3
ACAD_GROUP
350
A4CE
  3
ACAD_LAYOUT
350
A4DA
  3
ACAD_MATERIAL
350
A736
  3
ACAD_MLEADERSTYLE
350
A77D
  3
ACAD_MLINESTYLE
350
A4D7
  3
ACAD_PLOTSETTINGS
350
A4D9
  3
ACAD_PLOTSTYLENAME
350
A734
  3
ACAD_SCALELIST
350
A76B
  3
ACAD_SECTIONVIEWSTYLE
350
A77F
  3
ACAD_TABLESTYLE
350
A769
  3
ACAD_VISUALSTYLE
350
A74F
  3
ACDB_RECOMPOSE_DATA
350
A7A4
  3
AcDbVariableDictionary
350
A797
  3
DWGPROPS
350
A7A5
  0
DICTIONARY
  5
A787
330
A4D1
100
AcDbDictionary
280
     1
281
     1
  3
ADSK_XREC_LAYER_RECONCILED
360
A788
  0
DICTIONARY
  5
A789
330
A4E7
100
AcDbDictionary
280
     1
281
     1
  3
ADSK_XREC_LAYER_RECONCILED
360
A78A
  0
DICTIONARY
  5
A78B
330
A4E8
100
AcDbDictionary
280
     1
281
     1
  3
ADSK_XREC_LAYER_RECONCILED
360
A78C
  0
DICTIONARY
  5
A78D
330
A4E9
100
AcDbDictionary
280
     1
281
     1
  3
ADSK_XREC_LAYER_RECONCILED
360
A78E
  0
DICTIONARY
  5
A78F
330
A4EA
100
AcDbDictionary
280
     1
281
     1
  3
ADSK_XREC_LAYER_RECONCILED
360
A790
  0
DICTIONARY
  5
A791
330
A4EB
100
AcDbDictionary
280
     1
281
     1
  3
ADSK_XREC_LAYER_RECONCILED
360
A792
  0
DICTIONARY
  5
A793
330
A4EC
100
AcDbDictionary
280
     1
281
     1
  3
ADSK_XREC_LAYER_RECONCILED
360
A794
  0
DICTIONARY
  5
A795
330
A4ED
100
AcDbDictionary
280
     1
281
     1
  3
ADSK_XREC_LAYER_RECONCILED
360
A796
  0
DICTIONARY
  5
A72F
330
A4DF
100
AcDbDictionary
281
     1
  3
ACAD_LAYOUTSELFREF
350
A730
  0
DICTIONARY
  5
A72D
330
A4DB
100
AcDbDictionary
281
     1
  3
ACAD_LAYOUTSELFREF
350
A72E
  0
XRECORD
  5
A786
102
{ACAD_REACTORS
330
A4CD
102
}
330
A4CD
100
AcDbXrecord
280
     1
300
ACDLT
300
2014
300
ACDLT_F_S
  0
DICTIONARY
  5
A768
102
{ACAD_REACTORS
330
A4CD
102
}
330
A4CD
100
AcDbDictionary
281
     1
  0
DICTIONARY
  5
A781
102
{ACAD_REACTORS
330
A4CD
102
}
330
A4CD
100
AcDbDictionary
281
     1
  3
Imperial24
350
A782
  0
DICTIONARY
  5
A4CE
102
{ACAD_REACTORS
330
A4CD
102
}
330
A4CD
100
AcDbDictionary
281
     1
  0
DICTIONARY
  5
A4DA
102
{ACAD_REACTORS
330
A4CD
102
}
330
A4CD
100
AcDbDictionary
281
     1
  3
Model
350
A783
  3
レイアウト1
350
A784
  0
DICTIONARY
  5
A736
102
{ACAD_REACTORS
330
A4CD
102
}
330
A4CD
100
AcDbDictionary
281
     1
  3
ByBlock
350
A73F
  3
ByLayer
350
A737
  3
Global
350
A747
  0
DICTIONARY
  5
A77D
102
{ACAD_REACTORS
330
A4CD
102
}
330
A4CD
100
AcDbDictionary
281
     1
  3
Standard
350
A77E
  0
DICTIONARY
  5
A4D7
102
{ACAD_REACTORS
330
A4CD
102
}
330
A4CD
100
AcDbDictionary
281
     1
  3
STANDARD
350
A4D8
  0
DICTIONARY
  5
A4D9
102
{ACAD_REACTORS
330
A4CD
102
}
330
A4CD
100
AcDbDictionary
281
     1
  0
ACDBDICTIONARYWDFLT
  5
A734
102
{ACAD_REACTORS
330
A4CD
102
}
330
A4CD
100
AcDbDictionary
281
     1
  3
Normal
350
A735
100
AcDbDictionaryWithDefault
340
A735
  0
DICTIONARY
  5
A76B
102
{ACAD_REACTORS
330
A4CD
102
}
330
A4CD
100
AcDbDictionary
281
     1
  3
A0
350
A76C
  3
A1
350
A76D
  3
A2
350
A76E
  3
A3
350
A76F
  3
A4
350
A770
  3
A5
350
A771
  3
A6
350
A772
  3
A7
350
A773
  3
A8
350
A774
  3
A9
350
A775
  3
B0
350
A776
  3
B1
350
A777
  3
B2
350
A778
  3
B3
350
A779
  3
B4
350
A77A
  3
B5
350
A77B
  3
B6
350
A77C
  0
DICTIONARY
  5
A77F
102
{ACAD_REACTORS
330
A4CD
102
}
330
A4CD
100
AcDbDictionary
281
     1
  3
Imperial24
350
A780
  0
DICTIONARY
  5
A769
102
{ACAD_REACTORS
330
A4CD
102
}
330
A4CD
100
AcDbDictionary
281
     1
  3
Standard
350
A76A
  0
DICTIONARY
  5
A74F
102
{ACAD_REACTORS
330
A4CD
102
}
330
A4CD
100
AcDbDictionary
281
     1
  3
2dWireframe
350
A755
  3
Basic
350
A754
  3
Brighten
350
A75B
  3
ColorChange
350
A75F
  3
Conceptual
350
A758
  3
Dim
350
A75A
  3
EdgeColorOff
350
A767
  3
Facepattern
350
A75E
  3
Flat
350
A750
  3
FlatWithEdges
350
A751
  3
Gouraud
350
A752
  3
GouraudWithEdges
350
A753
  3
Hidden
350
A757
  3
JitterOff
350
A765
  3
Linepattern
350
A75D
  3
OverhangOff
350
A766
  3
Realistic
350
A759
  3
Shaded
350
A764
  3
Shaded with edges
350
A763
  3
Shades of Gray
350
A760
  3
Sketchy
350
A761
  3
Thicken
350
A75C
  3
Wireframe
350
A756
  3
X-Ray
350
A762
  0
XRECORD
  5
A7A4
102
{ACAD_REACTORS
330
A4CD
102
}
330
A4CD
100
AcDbXrecord
280
     1
 90
        1
330
A76A
  0
DICTIONARY
  5
A797
102
{ACAD_REACTORS
330
A4CD
102
}
330
A4CD
100
AcDbDictionary
281
     1
  3
CANNOSCALE
350
A79C
  3
CMLEADERSTYLE
350
A799
  3
CTABLESTYLE
350
A798
  3
CVIEWDETAILSTYLE
350
A79A
  3
CVIEWSECTIONSTYLE
350
A79B
  3
DIMASSOC
350
A79F
  3
INDEXCTL
350
A79E
  3
SORTENTS
350
A79D
  3
XCLIPFRAME
350
A7A0
  0
XRECORD
  5
A7A5
102
{ACAD_REACTORS
330
A4CD
102
}
330
A4CD
100
AcDbXrecord
280
     1
  1
DWGPROPS COOKIE
  2

  3

  4

  6

  7

  8
Yoshitsune
  9

300
=
301
=
302
=
303
=
304
=
305
=
306
=
307
=
308
=
309
=
 40
0.0000112847222222
 41
2451302.633749884
 42
2457192.68655434
  1

 90
        0
  0
XRECORD
  5
A788
102
{ACAD_REACTORS
330
A787
102
}
330
A787
100
AcDbXrecord
280
     1
290
     1
  0
XRECORD
  5
A78A
102
{ACAD_REACTORS
330
A789
102
}
330
A789
100
AcDbXrecord
280
     1
290
     1
  0
XRECORD
  5
A78C
102
{ACAD_REACTORS
330
A78B
102
}
330
A78B
100
AcDbXrecord
280
     1
290
     1
  0
XRECORD
  5
A78E
102
{ACAD_REACTORS
330
A78D
102
}
330
A78D
100
AcDbXrecord
280
     1
290
     1
  0
XRECORD
  5
A790
102
{ACAD_REACTORS
330
A78F
102
}
330
A78F
100
AcDbXrecord
280
     1
290
     1
  0
XRECORD
  5
A792
102
{ACAD_REACTORS
330
A791
102
}
330
A791
100
AcDbXrecord
280
     1
290
     1
  0
XRECORD
  5
A794
102
{ACAD_REACTORS
330
A793
102
}
330
A793
100
AcDbXrecord
280
     1
290
     1
  0
XRECORD
  5
A796
102
{ACAD_REACTORS
330
A795
102
}
330
A795
100
AcDbXrecord
280
     1
290
     1
  0
XRECORD
  5
A730
102
{ACAD_REACTORS
330
A72F
102
}
330
A72F
100
AcDbXrecord
280
     1
340
A4DF
  0
XRECORD
  5
A72E
102
{ACAD_REACTORS
330
A72D
102
}
330
A72D
100
AcDbXrecord
280
     1
340
A4DB
  0
ACDBDETAILVIEWSTYLE
  5
A782
102
{ACAD_XDICTIONARY
360
A7DD
102
}
102
{ACAD_REACTORS
330
A781
102
}
330
A781
100
AcDbModelDocViewStyle
 70
     0
  3
Imperial24
290
     0
100
AcDbDetailViewStyle
 70
     0
 71
     0
 90
        3
 71
     1
340
A4D2
 40
0.24
340
0
 40
0.24
300

 40
0.36
280
     3
 71
     2
340
A4D6
 90
       25
 71
     3
340
A4D2
 40
0.24
 90
        1
 40
0.75
 90
        1
300
%<\AcVar ViewType \f "%tc1">% %<\AcVar ViewDetailId>%\PSCALE %<\AcVar ViewScale \f "%sn">%
 71
     4
340
A4D6
 90
       25
340
A4D6
 90
       25
280
     0
  0
LAYOUT
  5
A783
102
{ACAD_XDICTIONARY
360
A7DF
102
}
102
{ACAD_REACTORS
330
A4DA
102
}
330
A4DA
100
AcDbPlotSettings
  1

  2
Canon LBP9100C
  4

  6

 40
0.0
 41
0.0
 42
0.0
 43
0.0
 44
0.0
 45
0.0
 46
0.0
 47
0.0
 48
0.0
 49
0.0
140
0.0
141
0.0
142
1.0
143
1.0
 70
  1712
 72
     0
 73
     0
 74
     0
  7

 75
     0
147
1.0
148
0.0
149
0.0
100
AcDbLayout
  1
Model
 70
     1
 71
     0
 10
0.0
 20
0.0
 11
12.0
 21
9.0
 12
0.0
 22
0.0
 32
0.0
 14
0.0
 24
0.0
 34
0.0
 15
0.0
 25
0.0
 35
0.0
146
0.0
 13
0.0
 23
0.0
 33
0.0
 16
1.0
 26
0.0
 36
0.0
 17
0.0
 27
1.0
 37
0.0
 76
     0
330
A4DF
331
A72C
  0
LAYOUT
  5
A784
102
{ACAD_XDICTIONARY
360
A7E1
102
}
102
{ACAD_REACTORS
330
A4DA
102
}
330
A4DA
100
AcDbPlotSettings
  1

  2
Canon LBP9100C
  4

  6

 40
0.0
 41
0.0
 42
0.0
 43
0.0
 44
0.0
 45
0.0
 46
0.0
 47
0.0
 48
0.0
 49
0.0
140
0.0
141
0.0
142
1.0
143
1.0
 70
   688
 72
     0
 73
     0
 74
     5
  7

 75
    16
147
1.0
148
0.0
149
0.0
100
AcDbLayout
  1
レイアウト1
 70
     0
 71
     1
 10
0.0
 20
0.0
 11
420.0
 21
297.0
 12
0.0
 22
0.0
 32
0.0
 14
1.000000000000000E+20
 24
1.000000000000000E+20
 34
1.000000000000000E+20
 15
-1.000000000000000E+20
 25
-1.000000000000000E+20
 35
-1.000000000000000E+20
146
0.0
 13
0.0
 23
0.0
 33
0.0
 16
1.0
 26
0.0
 36
0.0
 17
0.0
 27
1.0
 37
0.0
 76
     0
330
A4DB
  0
MATERIAL
  5
A73F
102
{ACAD_XDICTIONARY
360
A740
102
}
102
{ACAD_REACTORS
330
A736
102
}
330
A736
100
AcDbMaterial
  1
ByBlock
 72
     0
 43
0.0208333333333333
 43
0.0
 43
0.0
 43
0.0
 43
0.0
 43
0.0208333333333333
 43
0.0
 43
0.0
 43
0.0
 43
0.0
 43
1.0
 43
0.0
 43
0.0
 43
0.0
 43
0.0
 43
1.0
 77
     0
 47
0.0208333333333333
 47
0.0
 47
0.0
 47
0.0
 47
0.0
 47
0.0208333333333333
 47
0.0
 47
0.0
 47
0.0
 47
0.0
 47
1.0
 47
0.0
 47
0.0
 47
0.0
 47
0.0
 47
1.0
171
     0
 49
0.0208333333333333
 49
0.0
 49
0.0
 49
0.0
 49
0.0
 49
0.0208333333333333
 49
0.0
 49
0.0
 49
0.0
 49
0.0
 49
1.0
 49
0.0
 49
0.0
 49
0.0
 49
0.0
 49
1.0
175
     0
142
0.0208333333333333
142
0.0
142
0.0
142
0.0
142
0.0
142
0.0208333333333333
142
0.0
142
0.0
142
0.0
142
0.0
142
1.0
142
0.0
142
0.0
142
0.0
142
0.0
142
1.0
179
     0
144
0.0208333333333333
144
0.0
144
0.0
144
0.0
144
0.0
144
0.0208333333333333
144
0.0
144
0.0
144
0.0
144
0.0
144
1.0
144
0.0
144
0.0
144
0.0
144
0.0
144
1.0
147
0.0208333333333333
147
0.0
147
0.0
147
0.0
147
0.0
147
0.0208333333333333
147
0.0
147
0.0
147
0.0
147
0.0
147
1.0
147
0.0
147
0.0
147
0.0
147
0.0
147
1.0
  0
MATERIAL
  5
A737
102
{ACAD_XDICTIONARY
360
A738
102
}
102
{ACAD_REACTORS
330
A736
102
}
330
A736
100
AcDbMaterial
  1
ByLayer
 72
     0
 43
0.0208333333333333
 43
0.0
 43
0.0
 43
0.0
 43
0.0
 43
0.0208333333333333
 43
0.0
 43
0.0
 43
0.0
 43
0.0
 43
1.0
 43
0.0
 43
0.0
 43
0.0
 43
0.0
 43
1.0
 77
     0
 47
0.0208333333333333
 47
0.0
 47
0.0
 47
0.0
 47
0.0
 47
0.0208333333333333
 47
0.0
 47
0.0
 47
0.0
 47
0.0
 47
1.0
 47
0.0
 47
0.0
 47
0.0
 47
0.0
 47
1.0
171
     0
 49
0.0208333333333333
 49
0.0
 49
0.0
 49
0.0
 49
0.0
 49
0.0208333333333333
 49
0.0
 49
0.0
 49
0.0
 49
0.0
 49
1.0
 49
0.0
 49
0.0
 49
0.0
 49
0.0
 49
1.0
175
     0
142
0.0208333333333333
142
0.0
142
0.0
142
0.0
142
0.0
142
0.0208333333333333
142
0.0
142
0.0
142
0.0
142
0.0
142
1.0
142
0.0
142
0.0
142
0.0
142
0.0
142
1.0
179
     0
144
0.0208333333333333
144
0.0
144
0.0
144
0.0
144
0.0
144
0.0208333333333333
144
0.0
144
0.0
144
0.0
144
0.0
144
1.0
144
0.0
144
0.0
144
0.0
144
0.0
144
1.0
147
0.0208333333333333
147
0.0
147
0.0
147
0.0
147
0.0
147
0.0208333333333333
147
0.0
147
0.0
147
0.0
147
0.0
147
1.0
147
0.0
147
0.0
147
0.0
147
0.0
147
1.0
  0
MATERIAL
  5
A747
102
{ACAD_XDICTIONARY
360
A748
102
}
102
{ACAD_REACTORS
330
A736
102
}
330
A736
100
AcDbMaterial
  1
Global
 72
     0
 43
0.0208333333333333
 43
0.0
 43
0.0
 43
0.0
 43
0.0
 43
0.0208333333333333
 43
0.0
 43
0.0
 43
0.0
 43
0.0
 43
1.0
 43
0.0
 43
0.0
 43
0.0
 43
0.0
 43
1.0
 77
     0
 47
0.0208333333333333
 47
0.0
 47
0.0
 47
0.0
 47
0.0
 47
0.0208333333333333
 47
0.0
 47
0.0
 47
0.0
 47
0.0
 47
1.0
 47
0.0
 47
0.0
 47
0.0
 47
0.0
 47
1.0
171
     0
 49
0.0208333333333333
 49
0.0
 49
0.0
 49
0.0
 49
0.0
 49
0.0208333333333333
 49
0.0
 49
0.0
 49
0.0
 49
0.0
 49
1.0
 49
0.0
 49
0.0
 49
0.0
 49
0.0
 49
1.0
175
     0
142
0.0208333333333333
142
0.0
142
0.0
142
0.0
142
0.0
142
0.0208333333333333
142
0.0
142
0.0
142
0.0
142
0.0
142
1.0
142
0.0
142
0.0
142
0.0
142
0.0
142
1.0
179
     0
144
0.0208333333333333
144
0.0
144
0.0
144
0.0
144
0.0
144
0.0208333333333333
144
0.0
144
0.0
144
0.0
144
0.0
144
1.0
144
0.0
144
0.0
144
0.0
144
0.0
144
1.0
147
0.0208333333333333
147
0.0
147
0.0
147
0.0
147
0.0
147
0.0208333333333333
147
0.0
147
0.0
147
0.0
147
0.0
147
1.0
147
0.0
147
0.0
147
0.0
147
0.0
147
1.0
  0
MLEADERSTYLE
  5
A77E
102
{ACAD_REACTORS
330
A77D
102
}
330
A77D
100
AcDbMLeaderStyle
170
     2
171
     1
172
     0
 90
        2
 40
0.0
 41
0.0
173
     1
 91
-1056964608
340
A4D4
 92
       -2
290
     1
 42
0.09
291
     1
 43
0.36
  3
Standard
 44
0.18
300

342
A4D2
174
     1
178
     6
175
     1
176
     0
 93
-1056964608
 45
0.18
292
     0
297
     0
 46
0.18
 94
-1056964608
 47
1.0
 49
1.0
140
1.0
293
     1
141
0.0
294
     1
177
     0
142
1.0
295
     0
296
     0
143
0.125
1001
ACAD_MLEADERVER
1070
     2
  0
MLINESTYLE
  5
A4D8
102
{ACAD_REACTORS
330
A4D7
102
}
330
A4D7
100
AcDbMlineStyle
  2
STANDARD
 70
     0
  3

 62
   256
 51
90.0
 52
90.0
 71
     2
 49
0.5
 62
   256
  6
BYLAYER
 49
-0.5
 62
   256
  6
BYLAYER
  0
ACDBPLACEHOLDER
  5
A735
102
{ACAD_REACTORS
330
A734
102
}
330
A734
  0
SCALE
  5
A76C
102
{ACAD_REACTORS
330
A76B
102
}
330
A76B
100
AcDbScale
 70
     0
300
1:1
140
1.0
141
1.0
290
     1
  0
SCALE
  5
A76D
102
{ACAD_REACTORS
330
A76B
102
}
330
A76B
100
AcDbScale
 70
     0
300
1/128" = 1'-0"
140
0.0078125
141
12.0
290
     0
  0
SCALE
  5
A76E
102
{ACAD_REACTORS
330
A76B
102
}
330
A76B
100
AcDbScale
 70
     0
300
1/64" = 1'-0"
140
0.015625
141
12.0
290
     0
  0
SCALE
  5
A76F
102
{ACAD_REACTORS
330
A76B
102
}
330
A76B
100
AcDbScale
 70
     0
300
1/32" = 1'-0"
140
0.03125
141
12.0
290
     0
  0
SCALE
  5
A770
102
{ACAD_REACTORS
330
A76B
102
}
330
A76B
100
AcDbScale
 70
     0
300
1/16" = 1'-0"
140
0.0625
141
12.0
290
     0
  0
SCALE
  5
A771
102
{ACAD_REACTORS
330
A76B
102
}
330
A76B
100
AcDbScale
 70
     0
300
3/32" = 1'-0"
140
0.09375
141
12.0
290
     0
  0
SCALE
  5
A772
102
{ACAD_REACTORS
330
A76B
102
}
330
A76B
100
AcDbScale
 70
     0
300
1/8" = 1'-0"
140
0.125
141
12.0
290
     0
  0
SCALE
  5
A773
102
{ACAD_REACTORS
330
A76B
102
}
330
A76B
100
AcDbScale
 70
     0
300
3/16" = 1'-0"
140
0.1875
141
12.0
290
     0
  0
SCALE
  5
A774
102
{ACAD_REACTORS
330
A76B
102
}
330
A76B
100
AcDbScale
 70
     0
300
1/4" = 1'-0"
140
0.25
141
12.0
290
     0
  0
SCALE
  5
A775
102
{ACAD_REACTORS
330
A76B
102
}
330
A76B
100
AcDbScale
 70
     0
300
3/8" = 1'-0"
140
0.375
141
12.0
290
     0
  0
SCALE
  5
A776
102
{ACAD_REACTORS
330
A76B
102
}
330
A76B
100
AcDbScale
 70
     0
300
1/2" = 1'-0"
140
0.5
141
12.0
290
     0
  0
SCALE
  5
A777
102
{ACAD_REACTORS
330
A76B
102
}
330
A76B
100
AcDbScale
 70
     0
300
3/4" = 1'-0"
140
0.75
141
12.0
290
     0
  0
SCALE
  5
A778
102
{ACAD_REACTORS
330
A76B
102
}
330
A76B
100
AcDbScale
 70
     0
300
1" = 1'-0"
140
1.0
141
12.0
290
     0
  0
SCALE
  5
A779
102
{ACAD_REACTORS
330
A76B
102
}
330
A76B
100
AcDbScale
 70
     0
300
1-1/2" = 1'-0"
140
1.5
141
12.0
290
     0
  0
SCALE
  5
A77A
102
{ACAD_REACTORS
330
A76B
102
}
330
A76B
100
AcDbScale
 70
     0
300
3" = 1'-0"
140
3.0
141
12.0
290
     0
  0
SCALE
  5
A77B
102
{ACAD_REACTORS
330
A76B
102
}
330
A76B
100
AcDbScale
 70
     0
300
6" = 1'-0"
140
6.0
141
12.0
290
     0
  0
SCALE
  5
A77C
102
{ACAD_REACTORS
330
A76B
102
}
330
A76B
100
AcDbScale
 70
     0
300
1'-0" = 1'-0"
140
12.0
141
12.0
290
     0
  0
ACDBSECTIONVIEWSTYLE
  5
A780
102
{ACAD_XDICTIONARY
360
A7DB
102
}
102
{ACAD_REACTORS
330
A77F
102
}
330
A77F
100
AcDbModelDocViewStyle
 70
     0
  3
Imperial24
290
     0
100
AcDbSectionViewStyle
 70
     0
 71
     0
 90
       78
 71
     1
340
A4D2
 40
0.24
340
0
340
0
 40
0.24
300
I, O, Q, S, X, Z
 40
0.48
 90
        3
 40
0.18
 90
        1
 71
     2
340
A4D6
 90
       25
340
A4D6
 90
       50
 40
0.24
 40
0.0
 40
0.24
 71
     3
340
A4D2
 40
0.24
 90
        1
 40
0.75
 90
        1
300
%<\AcVar ViewType \f "%tc1">% %<\AcVar ViewSectionStartId>%-%<\AcVar ViewSectionEndId>%\PSCALE %<\AcVar ViewScale \f "%sn">%
 71
     4
300
ANSI31
 40
1.0
 90
        0
290
     0
290
     0
 90
        6
 40
0.0
 40
1.570796326794896
 40
0.2617993877991494
 40
1.308996938995747
 40
-0.2617993877991494
 40
1.832595714594046
  0
TABLESTYLE
  5
A76A
102
{ACAD_XDICTIONARY
360
A7A2
102
}
102
{ACAD_REACTORS
330
A769
102
}
330
A769
100
AcDbTableStyle
  3
Standard
 70
     0
 71
     0
 40
0.06
 41
0.06
280
     0
281
     0
  7
STANDARD
140
0.18
170
     2
 62
     0
 63
     7
283
     0
274
    -2
284
     1
 64
     0
275
    -2
285
     1
 65
     0
276
    -2
286
     1
 66
     0
277
    -2
287
     1
 67
     0
278
    -2
288
     1
 68
     0
279
    -2
289
     1
 69
     0
  7
STANDARD
140
0.25
170
     5
 62
     0
 63
     7
283
     0
274
    -2
284
     1
 64
     0
275
    -2
285
     1
 65
     0
276
    -2
286
     1
 66
     0
277
    -2
287
     1
 67
     0
278
    -2
288
     1
 68
     0
279
    -2
289
     1
 69
     0
  7
STANDARD
140
0.18
170
     5
 62
     0
 63
     7
283
     0
274
    -2
284
     1
 64
     0
275
    -2
285
     1
 65
     0
276
    -2
286
     1
 66
     0
277
    -2
287
     1
 67
     0
278
    -2
288
     1
 68
     0
279
    -2
289
     1
 69
     0
  0
VISUALSTYLE
  5
A755
102
{ACAD_XDICTIONARY
360
A7B3
102
}
102
{ACAD_REACTORS
330
A74F
102
}
330
A74F
100
AcDbVisualStyle
  2
2dWireframe
 70
     4
 71
     0
 72
     2
 73
     0
 90
        0
 40
-0.6
 41
-30.0
 62
     5
 63
     7
 74
     1
 91
        4
 64
     7
 65
   257
 75
     1
175
     1
 42
1.0
 92
        0
 66
   257
 43
1.0
 76
     1
 77
     6
 78
     2
 67
     7
 79
     5
170
     0
171
     0
290
     0
174
     0
 93
        1
 44
0.0
173
     0
291
     0
 45
0.0
1001
ACAD
1000
AcDbSavedByObjectVersion
1070
     0
  0
VISUALSTYLE
  5
A754
102
{ACAD_XDICTIONARY
360
A7B1
102
}
102
{ACAD_REACTORS
330
A74F
102
}
330
A74F
100
AcDbVisualStyle
  2
Basic
 70
     7
 71
     1
 72
     0
 73
     1
 90
        0
 40
-0.6
 41
-30.0
 62
     5
 63
     7
 74
     0
 91
        4
 64
     7
 65
   257
 75
     1
175
     1
 42
1.0
 92
        8
 66
     7
 43
1.0
 76
     1
 77
     6
 78
     2
 67
     7
 79
     5
170
     0
171
     0
290
     0
174
     0
 93
        1
 44
0.0
173
     0
291
     1
 45
0.0
1001
ACAD
1000
AcDbSavedByObjectVersion
1070
     0
  0
VISUALSTYLE
  5
A75B
102
{ACAD_XDICTIONARY
360
A7BF
102
}
102
{ACAD_REACTORS
330
A74F
102
}
330
A74F
100
AcDbVisualStyle
  2
Brighten
 70
    12
 71
     2
 72
     2
 73
     0
 90
        0
 40
-0.6
 41
-30.0
 62
     5
 63
     7
 74
     1
 91
        4
 64
     7
 65
   257
 75
     1
175
     1
 42
1.0
 92
        8
 66
     7
 43
1.0
 76
     1
 77
     6
 78
     2
 67
     7
 79
     5
170
     0
171
     0
290
     0
174
     0
 93
        1
 44
50.0
173
     0
291
     1
 45
0.0
1001
ACAD
1000
AcDbSavedByObjectVersion
1070
     0
  0
VISUALSTYLE
  5
A75F
102
{ACAD_XDICTIONARY
360
A7C7
102
}
102
{ACAD_REACTORS
330
A74F
102
}
330
A74F
100
AcDbVisualStyle
  2
ColorChange
 70
    16
 71
     2
 72
     2
 73
     3
 90
        0
 40
-0.6
 41
-30.0
 62
     5
 63
     8
 74
     1
 91
        4
 64
     7
 65
   257
 75
     1
175
     1
 42
1.0
 92
        8
 66
     8
 43
1.0
 76
     1
 77
     6
 78
     2
 67
     7
 79
     5
170
     0
171
     0
290
     0
174
     0
 93
        1
 44
0.0
173
     0
291
     1
 45
0.0
1001
ACAD
1000
AcDbSavedByObjectVersion
1070
     0
  0
VISUALSTYLE
  5
A758
102
{ACAD_XDICTIONARY
360
A7B9
102
}
102
{ACAD_REACTORS
330
A74F
102
}
330
A74F
100
AcDbVisualStyle
  2
Conceptual
 70
     9
 71
     3
 72
     2
 73
     0
 90
        0
 40
-0.6
 41
-30.0
 62
     5
 63
     7
 74
     2
 91
        2
 64
     7
 65
   257
 75
     1
175
     1
 42
179.0
 92
        8
 66
     7
 43
1.0
 76
     1
 77
     6
 78
     2
 67
     7
 79
     3
170
     0
171
     0
290
     0
174
     0
 93
        1
 44
0.0
173
     0
291
     0
 45
0.0
1001
ACAD
1000
AcDbSavedByObjectVersion
1070
     0
  0
VISUALSTYLE
  5
A75A
102
{ACAD_XDICTIONARY
360
A7BD
102
}
102
{ACAD_REACTORS
330
A74F
102
}
330
A74F
100
AcDbVisualStyle
  2
Dim
 70
    11
 71
     2
 72
     2
 73
     0
 90
        0
 40
-0.6
 41
-30.0
 62
     5
 63
     7
 74
     1
 91
        4
 64
     7
 65
   257
 75
     1
175
     1
 42
1.0
 92
        8
 66
     7
 43
1.0
 76
     1
 77
     6
 78
     2
 67
     7
 79
     5
170
     0
171
     0
290
     0
174
     0
 93
        1
 44
-50.0
173
     0
291
     1
 45
0.0
1001
ACAD
1000
AcDbSavedByObjectVersion
1070
     0
  0
VISUALSTYLE
  5
A767
102
{ACAD_XDICTIONARY
360
A7D7
102
}
102
{ACAD_REACTORS
330
A74F
102
}
330
A74F
100
AcDbVisualStyle
  2
EdgeColorOff
 70
    22
 71
     2
 72
     2
 73
     0
 90
        0
 40
-0.6
 41
-30.0
 62
     5
 63
     7
 74
     1
 91
        4
 64
     7
 65
   257
 75
     1
175
     1
 42
1.0
 92
        8
 66
     7
 43
1.0
 76
     1
 77
     6
 78
     2
 67
     7
 79
     5
170
     0
171
     0
290
     0
174
     0
 93
        1
 44
0.0
173
     0
291
     1
 45
0.0
1001
ACAD
1000
AcDbSavedByObjectVersion
1070
     0
  0
VISUALSTYLE
  5
A75E
102
{ACAD_XDICTIONARY
360
A7C5
102
}
102
{ACAD_REACTORS
330
A74F
102
}
330
A74F
100
AcDbVisualStyle
  2
Facepattern
 70
    15
 71
     2
 72
     2
 73
     0
 90
        0
 40
-0.6
 41
-30.0
 62
     5
 63
     7
 74
     1
 91
        4
 64
     7
 65
   257
 75
     1
175
     1
 42
1.0
 92
        8
 66
     7
 43
1.0
 76
     1
 77
     6
 78
     2
 67
     7
 79
     5
170
     0
171
     0
290
     0
174
     0
 93
        1
 44
0.0
173
     0
291
     1
 45
0.0
1001
ACAD
1000
AcDbSavedByObjectVersion
1070
     0
  0
VISUALSTYLE
  5
A750
102
{ACAD_XDICTIONARY
360
A7A9
102
}
102
{ACAD_REACTORS
330
A74F
102
}
330
A74F
100
AcDbVisualStyle
  2
Flat
 70
     0
 71
     2
 72
     1
 73
     1
 90
        2
 40
-0.6
 41
30.0
 62
     5
 63
     7
 74
     0
 91
        0
 64
     7
 65
   257
 75
     1
175
     1
 42
1.0
 92
        8
 66
     7
 43
1.0
 76
     1
 77
     6
 78
     2
 67
     7
 79
     5
170
     0
171
     0
290
     0
174
     0
 93
       13
 44
0.0
173
     0
291
     1
 45
0.0
1001
ACAD
1000
AcDbSavedByObjectVersion
1070
     0
  0
VISUALSTYLE
  5
A751
102
{ACAD_XDICTIONARY
360
A7AB
102
}
102
{ACAD_REACTORS
330
A74F
102
}
330
A74F
100
AcDbVisualStyle
  2
FlatWithEdges
 70
     1
 71
     2
 72
     1
 73
     1
 90
        2
 40
-0.6
 41
30.0
 62
     5
 63
     7
 74
     1
 91
        0
 64
     7
 65
   257
 75
     1
175
     1
 42
1.0
 92
        0
 66
   257
 43
1.0
 76
     1
 77
     6
 78
     2
 67
     7
 79
     5
170
     0
171
     0
290
     0
174
     0
 93
       13
 44
0.0
173
     0
291
     1
 45
0.0
1001
ACAD
1000
AcDbSavedByObjectVersion
1070
     0
  0
VISUALSTYLE
  5
A752
102
{ACAD_XDICTIONARY
360
A7AD
102
}
102
{ACAD_REACTORS
330
A74F
102
}
330
A74F
100
AcDbVisualStyle
  2
Gouraud
 70
     2
 71
     2
 72
     2
 73
     1
 90
        2
 40
-0.6
 41
30.0
 62
     5
 63
     7
 74
     0
 91
        0
 64
     7
 65
   257
 75
     1
175
     1
 42
1.0
 92
        0
 66
     7
 43
1.0
 76
     1
 77
     6
 78
     2
 67
     7
 79
     5
170
     0
171
     0
290
     0
174
     0
 93
       13
 44
0.0
173
     0
291
     1
 45
0.0
1001
ACAD
1000
AcDbSavedByObjectVersion
1070
     0
  0
VISUALSTYLE
  5
A753
102
{ACAD_XDICTIONARY
360
A7AF
102
}
102
{ACAD_REACTORS
330
A74F
102
}
330
A74F
100
AcDbVisualStyle
  2
GouraudWithEdges
 70
     3
 71
     2
 72
     2
 73
     1
 90
        2
 40
-0.6
 41
30.0
 62
     5
 63
     7
 74
     1
 91
        0
 64
     7
 65
   257
 75
     1
175
     1
 42
1.0
 92
        0
 66
   257
 43
1.0
 76
     1
 77
     6
 78
     2
 67
     7
 79
     5
170
     0
171
     0
290
     0
174
     0
 93
       13
 44
0.0
173
     0
291
     1
 45
0.0
1001
ACAD
1000
AcDbSavedByObjectVersion
1070
     0
  0
VISUALSTYLE
  5
A757
102
{ACAD_XDICTIONARY
360
A7B7
102
}
102
{ACAD_REACTORS
330
A74F
102
}
330
A74F
100
AcDbVisualStyle
  2
Hidden
 70
     6
 71
     1
 72
     2
 73
     2
 90
        0
 40
-0.6
 41
-30.0
 62
     5
 63
     7
 74
     2
 91
        2
 64
     7
 65
   257
 75
     2
175
     1
 42
40.0
 92
        0
 66
   257
 43
1.0
 76
     1
 77
     6
 78
     2
 67
     7
 79
     3
170
     0
171
     0
290
     0
174
     0
 93
        1
 44
0.0
173
     0
291
     0
 45
0.0
1001
ACAD
1000
AcDbSavedByObjectVersion
1070
     0
  0
VISUALSTYLE
  5
A765
102
{ACAD_XDICTIONARY
360
A7D3
102
}
102
{ACAD_REACTORS
330
A74F
102
}
330
A74F
100
AcDbVisualStyle
  2
JitterOff
 70
    20
 71
     2
 72
     2
 73
     0
 90
        0
 40
-0.6
 41
-30.0
 62
     5
 63
     7
 74
     1
 91
        4
 64
     7
 65
   257
 75
     1
175
     1
 42
1.0
 92
       10
 66
     7
 43
1.0
 76
     1
 77
     6
 78
     2
 67
     7
 79
     5
170
     0
171
     0
290
     0
174
     0
 93
        1
 44
0.0
173
     0
291
     1
 45
0.0
1001
ACAD
1000
AcDbSavedByObjectVersion
1070
     0
  0
VISUALSTYLE
  5
A75D
102
{ACAD_XDICTIONARY
360
A7C3
102
}
102
{ACAD_REACTORS
330
A74F
102
}
330
A74F
100
AcDbVisualStyle
  2
Linepattern
 70
    14
 71
     2
 72
     2
 73
     0
 90
        0
 40
-0.6
 41
-30.0
 62
     5
 63
     7
 74
     1
 91
        4
 64
     7
 65
   257
 75
     7
175
     7
 42
1.0
 92
        8
 66
     7
 43
1.0
 76
     1
 77
     6
 78
     2
 67
     7
 79
     5
170
     0
171
     0
290
     0
174
     0
 93
        1
 44
0.0
173
     0
291
     1
 45
0.0
1001
ACAD
1000
AcDbSavedByObjectVersion
1070
     0
  0
VISUALSTYLE
  5
A766
102
{ACAD_XDICTIONARY
360
A7D5
102
}
102
{ACAD_REACTORS
330
A74F
102
}
330
A74F
100
AcDbVisualStyle
  2
OverhangOff
 70
    21
 71
     2
 72
     2
 73
     0
 90
        0
 40
-0.6
 41
-30.0
 62
     5
 63
     7
 74
     1
 91
        4
 64
     7
 65
   257
 75
     1
175
     1
 42
1.0
 92
        9
 66
     7
 43
1.0
 76
     1
 77
     6
 78
     2
 67
     7
 79
     5
170
     0
171
     0
290
     0
174
     0
 93
        1
 44
0.0
173
     0
291
     1
 45
0.0
1001
ACAD
1000
AcDbSavedByObjectVersion
1070
     0
  0
VISUALSTYLE
  5
A759
102
{ACAD_XDICTIONARY
360
A7BB
102
}
102
{ACAD_REACTORS
330
A74F
102
}
330
A74F
100
AcDbVisualStyle
  2
Realistic
 70
     8
 71
     2
 72
     3
 73
     0
 90
        2
 40
-0.6
 41
30.0
 62
     5
 63
     7
 74
     0
 91
        0
 64
     7
 65
   257
 75
     1
175
     1
 42
1.0
 92
        8
 66
   257
 43
1.0
 76
     1
 77
     6
 78
     2
 67
     7
 79
     3
170
     0
171
     0
290
     0
174
     0
 93
       13
 44
0.0
173
     0
291
     0
 45
0.0
1001
ACAD
1000
AcDbSavedByObjectVersion
1070
     0
  0
VISUALSTYLE
  5
A764
102
{ACAD_XDICTIONARY
360
A7D1
102
}
102
{ACAD_REACTORS
330
A74F
102
}
330
A74F
100
AcDbVisualStyle
  2
Shaded
 70
    27
 71
     2
 72
     2
 73
     1
 90
        2
 40
-0.6
 41
30.0
 62
     5
 63
     7
 74
     0
 91
        4
 64
     7
 65
   257
 75
     1
175
     1
 42
1.0
 92
        8
 66
   257
 43
1.0
 76
     1
 77
     6
 78
     2
 67
     8
 79
     3
170
     0
171
     0
290
     0
174
     0
 93
        5
 44
0.0
173
     0
291
     0
 45
0.0
1001
ACAD
1000
AcDbSavedByObjectVersion
1070
     0
  0
VISUALSTYLE
  5
A763
102
{ACAD_XDICTIONARY
360
A7CF
102
}
102
{ACAD_REACTORS
330
A74F
102
}
330
A74F
100
AcDbVisualStyle
  2
Shaded with edges
 70
    26
 71
     2
 72
     2
 73
     1
 90
        2
 40
-0.6
 41
30.0
 62
     5
 63
     7
 74
     1
 91
       10
 64
     7
 65
   257
 75
     2
175
     1
 42
1.0
 92
        8
 66
   257
 43
1.0
 76
     1
 77
     6
 78
     2
 67
     7
 79
     3
170
     0
171
     0
290
     0
174
     0
 93
        5
 44
0.0
173
     0
291
     0
 45
0.0
1001
ACAD
1000
AcDbSavedByObjectVersion
1070
     0
  0
VISUALSTYLE
  5
A760
102
{ACAD_XDICTIONARY
360
A7C9
102
}
102
{ACAD_REACTORS
330
A74F
102
}
330
A74F
100
AcDbVisualStyle
  2
Shades of Gray
 70
    23
 71
     2
 72
     2
 73
     3
 90
        0
 40
-0.6
 41
-30.0
 62
     5
 63
     7
 74
     2
 91
        2
 64
     7
 65
     7
 75
     1
175
     1
 42
40.0
 92
        8
 66
     7
 43
1.0
 76
     1
 77
     6
 78
     2
 67
     7
 79
     3
170
     0
171
     0
290
     0
174
     0
 93
        1
 44
0.0
173
     0
291
     0
 45
0.0
1001
ACAD
1000
AcDbSavedByObjectVersion
1070
     0
  0
VISUALSTYLE
  5
A761
102
{ACAD_XDICTIONARY
360
A7CB
102
}
102
{ACAD_REACTORS
330
A74F
102
}
330
A74F
100
AcDbVisualStyle
  2
Sketchy
 70
    24
 71
     1
 72
     2
 73
     2
 90
        0
 40
-0.6
 41
-30.0
 62
     5
 63
     7
 74
     2
 91
        2
 64
     7
 65
     7
 75
     1
175
     1
 42
40.0
 92
       11
 66
     7
 43
1.0
 76
     1
 77
     6
 78
     2
 67
     7
 79
     6
170
     0
171
     0
290
     0
174
     0
 93
        1
 44
0.0
173
     0
291
     0
 45
0.0
1001
ACAD
1000
AcDbSavedByObjectVersion
1070
     0
  0
VISUALSTYLE
  5
A75C
102
{ACAD_XDICTIONARY
360
A7C1
102
}
102
{ACAD_REACTORS
330
A74F
102
}
330
A74F
100
AcDbVisualStyle
  2
Thicken
 70
    13
 71
     2
 72
     2
 73
     0
 90
        0
 40
-0.6
 41
-30.0
 62
     5
 63
     7
 74
     1
 91
        4
 64
     7
 65
   257
 75
     1
175
     1
 42
1.0
 92
       12
 66
     7
 43
1.0
 76
     1
 77
     6
 78
     2
 67
     7
 79
     5
170
     0
171
     0
290
     0
174
     0
 93
        1
 44
0.0
173
     0
291
     1
 45
0.0
1001
ACAD
1000
AcDbSavedByObjectVersion
1070
     0
  0
VISUALSTYLE
  5
A756
102
{ACAD_XDICTIONARY
360
A7B5
102
}
102
{ACAD_REACTORS
330
A74F
102
}
330
A74F
100
AcDbVisualStyle
  2
Wireframe
 70
     5
 71
     0
 72
     2
 73
     0
 90
        0
 40
-0.6
 41
-30.0
 62
     5
 63
     7
 74
     1
 91
        4
 64
     7
 65
   257
 75
     1
175
     1
 42
1.0
 92
        0
 66
   257
 43
1.0
 76
     1
 77
     6
 78
     2
 67
     7
 79
     3
170
     0
171
     0
290
     0
174
     0
 93
        1
 44
0.0
173
     0
291
     0
 45
0.0
1001
ACAD
1000
AcDbSavedByObjectVersion
1070
     0
  0
VISUALSTYLE
  5
A762
102
{ACAD_XDICTIONARY
360
A7CD
102
}
102
{ACAD_REACTORS
330
A74F
102
}
330
A74F
100
AcDbVisualStyle
  2
X-Ray
 70
    25
 71
     2
 72
     2
 73
     1
 90
        1
 40
0.5
 41
-30.0
 62
     5
 63
     7
 74
     1
 91
        0
 64
     7
 65
   257
 75
     1
175
     1
 42
1.0
 92
        8
 66
     7
 43
1.0
 76
     1
 77
     6
 78
     2
 67
     7
 79
     3
170
     0
171
     0
290
     0
174
     0
 93
       13
 44
0.0
173
     0
291
     0
 45
0.0
1001
ACAD
1000
AcDbSavedByObjectVersion
1070
     0
  0
DICTIONARYVAR
  5
A79C
102
{ACAD_REACTORS
330
A797
102
}
330
A797
100
DictionaryVariables
280
     0
  1
1:1
  0
DICTIONARYVAR
  5
A799
102
{ACAD_REACTORS
330
A797
102
}
330
A797
100
DictionaryVariables
280
     0
  1
STANDARD
  0
DICTIONARYVAR
  5
A798
102
{ACAD_REACTORS
330
A797
102
}
330
A797
100
DictionaryVariables
280
     0
  1
STANDARD
  0
DICTIONARYVAR
  5
A79A
102
{ACAD_REACTORS
330
A797
102
}
330
A797
100
DictionaryVariables
280
     0
  1
Imperial24
  0
DICTIONARYVAR
  5
A79B
102
{ACAD_REACTORS
330
A797
102
}
330
A797
100
DictionaryVariables
280
     0
  1
Imperial24
  0
DICTIONARYVAR
  5
A79F
102
{ACAD_REACTORS
330
A797
102
}
330
A797
100
DictionaryVariables
280
     0
  1
1
  0
DICTIONARYVAR
  5
A79E
102
{ACAD_REACTORS
330
A797
102
}
330
A797
100
DictionaryVariables
280
     0
  1
0
  0
DICTIONARYVAR
  5
A79D
102
{ACAD_REACTORS
330
A797
102
}
330
A797
100
DictionaryVariables
280
     0
  1
127
  0
DICTIONARYVAR
  5
A7A0
102
{ACAD_REACTORS
330
A797
102
}
330
A797
100
DictionaryVariables
280
     0
  1
2
  0
DICTIONARY
  5
A7DD
330
A782
100
AcDbDictionary
280
     1
281
     1
  3
ACAD_XREC_ROUNDTRIP
360
A7DE
  0
DICTIONARY
  5
A7DF
330
A783
100
AcDbDictionary
280
     1
281
     1
  3
ACAD_XREC_ROUNDTRIP
360
A7E0
  0
DICTIONARY
  5
A7E1
330
A784
100
AcDbDictionary
280
     1
281
     1
  3
ACAD_XREC_ROUNDTRIP
360
A7E2
  0
DICTIONARY
  5
A740
330
A73F
100
AcDbDictionary
280
     1
281
     1
  3
ACAD_XREC_ROUNDTRIP
360
A7A7
  3
BUMPTILE
360
A742
  3
DIFFUSETILE
360
A741
  3
OPACITYTILE
360
A745
  3
REFLECTIONTILE
360
A744
  3
REFRACTIONTILE
360
A746
  3
SPECULARTILE
360
A743
  0
DICTIONARY
  5
A738
330
A737
100
AcDbDictionary
280
     1
281
     1
  3
ACAD_XREC_ROUNDTRIP
360
A7A6
  3
BUMPTILE
360
A73A
  3
DIFFUSETILE
360
A739
  3
OPACITYTILE
360
A73D
  3
REFLECTIONTILE
360
A73C
  3
REFRACTIONTILE
360
A73E
  3
SPECULARTILE
360
A73B
  0
DICTIONARY
  5
A748
330
A747
100
AcDbDictionary
280
     1
281
     1
  3
ACAD_XREC_ROUNDTRIP
360
A7A8
  3
BUMPTILE
360
A74A
  3
DIFFUSETILE
360
A749
  3
OPACITYTILE
360
A74D
  3
REFLECTIONTILE
360
A74C
  3
REFRACTIONTILE
360
A74E
  3
SPECULARTILE
360
A74B
  0
DICTIONARY
  5
A7DB
330
A780
100
AcDbDictionary
280
     1
281
     1
  3
ACAD_XREC_ROUNDTRIP
360
A7DC
  0
DICTIONARY
  5
A7A2
330
A76A
100
AcDbDictionary
280
     1
281
     1
  3
ACAD_ROUNDTRIP_2008_TABLESTYLE_CELLSTYLEMAP
360
A7A3
  3
ACAD_XREC_ROUNDTRIP
360
A7D9
  0
DICTIONARY
  5
A7B3
330
A755
100
AcDbDictionary
280
     1
281
     1
  3
ACAD_XREC_ROUNDTRIP
360
A7B4
  0
DICTIONARY
  5
A7B1
330
A754
100
AcDbDictionary
280
     1
281
     1
  3
ACAD_XREC_ROUNDTRIP
360
A7B2
  0
DICTIONARY
  5
A7BF
330
A75B
100
AcDbDictionary
280
     1
281
     1
  3
ACAD_XREC_ROUNDTRIP
360
A7C0
  0
DICTIONARY
  5
A7C7
330
A75F
100
AcDbDictionary
280
     1
281
     1
  3
ACAD_XREC_ROUNDTRIP
360
A7C8
  0
DICTIONARY
  5
A7B9
330
A758
100
AcDbDictionary
280
     1
281
     1
  3
ACAD_XREC_ROUNDTRIP
360
A7BA
  0
DICTIONARY
  5
A7BD
330
A75A
100
AcDbDictionary
280
     1
281
     1
  3
ACAD_XREC_ROUNDTRIP
360
A7BE
  0
DICTIONARY
  5
A7D7
330
A767
100
AcDbDictionary
280
     1
281
     1
  3
ACAD_XREC_ROUNDTRIP
360
A7D8
  0
DICTIONARY
  5
A7C5
330
A75E
100
AcDbDictionary
280
     1
281
     1
  3
ACAD_XREC_ROUNDTRIP
360
A7C6
  0
DICTIONARY
  5
A7A9
330
A750
100
AcDbDictionary
280
     1
281
     1
  3
ACAD_XREC_ROUNDTRIP
360
A7AA
  0
DICTIONARY
  5
A7AB
330
A751
100
AcDbDictionary
280
     1
281
     1
  3
ACAD_XREC_ROUNDTRIP
360
A7AC
  0
DICTIONARY
  5
A7AD
330
A752
100
AcDbDictionary
280
     1
281
     1
  3
ACAD_XREC_ROUNDTRIP
360
A7AE
  0
DICTIONARY
  5
A7AF
330
A753
100
AcDbDictionary
280
     1
281
     1
  3
ACAD_XREC_ROUNDTRIP
360
A7B0
  0
DICTIONARY
  5
A7B7
330
A757
100
AcDbDictionary
280
     1
281
     1
  3
ACAD_XREC_ROUNDTRIP
360
A7B8
  0
DICTIONARY
  5
A7D3
330
A765
100
AcDbDictionary
280
     1
281
     1
  3
ACAD_XREC_ROUNDTRIP
360
A7D4
  0
DICTIONARY
  5
A7C3
330
A75D
100
AcDbDictionary
280
     1
281
     1
  3
ACAD_XREC_ROUNDTRIP
360
A7C4
  0
DICTIONARY
  5
A7D5
330
A766
100
AcDbDictionary
280
     1
281
     1
  3
ACAD_XREC_ROUNDTRIP
360
A7D6
  0
DICTIONARY
  5
A7BB
330
A759
100
AcDbDictionary
280
     1
281
     1
  3
ACAD_XREC_ROUNDTRIP
360
A7BC
  0
DICTIONARY
  5
A7D1
330
A764
100
AcDbDictionary
280
     1
281
     1
  3
ACAD_XREC_ROUNDTRIP
360
A7D2
  0
DICTIONARY
  5
A7CF
330
A763
100
AcDbDictionary
280
     1
281
     1
  3
ACAD_XREC_ROUNDTRIP
360
A7D0
  0
DICTIONARY
  5
A7C9
330
A760
100
AcDbDictionary
280
     1
281
     1
  3
ACAD_XREC_ROUNDTRIP
360
A7CA
  0
DICTIONARY
  5
A7CB
330
A761
100
AcDbDictionary
280
     1
281
     1
  3
ACAD_XREC_ROUNDTRIP
360
A7CC
  0
DICTIONARY
  5
A7C1
330
A75C
100
AcDbDictionary
280
     1
281
     1
  3
ACAD_XREC_ROUNDTRIP
360
A7C2
  0
DICTIONARY
  5
A7B5
330
A756
100
AcDbDictionary
280
     1
281
     1
  3
ACAD_XREC_ROUNDTRIP
360
A7B6
  0
DICTIONARY
  5
A7CD
330
A762
100
AcDbDictionary
280
     1
281
     1
  3
ACAD_XREC_ROUNDTRIP
360
A7CE
  0
XRECORD
  5
A7DE
102
{ACAD_REACTORS
330
A7DD
102
}
330
A7DD
100
AcDbXrecord
280
     1
102
DISPLAYNAME
  1
Imperial24
102
FLAGS
 90
        0
  0
XRECORD
  5
A7E0
102
{ACAD_REACTORS
330
A7DF
102
}
330
A7DF
100
AcDbXrecord
280
     1
102
SHADEPLOT
 70
     0
102
SHADEPLOTRESLEVEL
 70
     2
102
SHADEPLOTCUSTOMDPI
 70
   300
  0
XRECORD
  5
A7E2
102
{ACAD_REACTORS
330
A7E1
102
}
330
A7E1
100
AcDbXrecord
280
     1
102
SHADEPLOT
 70
     0
102
SHADEPLOTRESLEVEL
 70
     2
102
SHADEPLOTCUSTOMDPI
 70
   300
  0
XRECORD
  5
A7A7
102
{ACAD_REACTORS
330
A740
102
}
330
A740
100
AcDbXrecord
280
     1
102
MATERIAL
148
0.0
149
0.0
149
0.0
 93
        0
 94
      127
282
     0
 72
     0
 77
     0
171
     0
175
     0
179
     0
273
     0
  0
XRECORD
  5
A742
102
{ACAD_REACTORS
330
A740
102
}
330
A740
100
AcDbXrecord
280
     1
270
     1
271
     1
  0
XRECORD
  5
A741
102
{ACAD_REACTORS
330
A740
102
}
330
A740
100
AcDbXrecord
280
     1
270
     1
271
     1
  0
XRECORD
  5
A745
102
{ACAD_REACTORS
330
A740
102
}
330
A740
100
AcDbXrecord
280
     1
270
     1
271
     1
  0
XRECORD
  5
A744
102
{ACAD_REACTORS
330
A740
102
}
330
A740
100
AcDbXrecord
280
     1
270
     1
271
     1
  0
XRECORD
  5
A746
102
{ACAD_REACTORS
330
A740
102
}
330
A740
100
AcDbXrecord
280
     1
270
     1
271
     1
  0
XRECORD
  5
A743
102
{ACAD_REACTORS
330
A740
102
}
330
A740
100
AcDbXrecord
280
     1
270
     1
271
     1
  0
XRECORD
  5
A7A6
102
{ACAD_REACTORS
330
A738
102
}
330
A738
100
AcDbXrecord
280
     1
102
MATERIAL
148
0.0
149
0.0
149
0.0
 93
        0
 94
      127
282
     0
 72
     0
 77
     0
171
     0
175
     0
179
     0
273
     0
  0
XRECORD
  5
A73A
102
{ACAD_REACTORS
330
A738
102
}
330
A738
100
AcDbXrecord
280
     1
270
     1
271
     1
  0
XRECORD
  5
A739
102
{ACAD_REACTORS
330
A738
102
}
330
A738
100
AcDbXrecord
280
     1
270
     1
271
     1
  0
XRECORD
  5
A73D
102
{ACAD_REACTORS
330
A738
102
}
330
A738
100
AcDbXrecord
280
     1
270
     1
271
     1
  0
XRECORD
  5
A73C
102
{ACAD_REACTORS
330
A738
102
}
330
A738
100
AcDbXrecord
280
     1
270
     1
271
     1
  0
XRECORD
  5
A73E
102
{ACAD_REACTORS
330
A738
102
}
330
A738
100
AcDbXrecord
280
     1
270
     1
271
     1
  0
XRECORD
  5
A73B
102
{ACAD_REACTORS
330
A738
102
}
330
A738
100
AcDbXrecord
280
     1
270
     1
271
     1
  0
XRECORD
  5
A7A8
102
{ACAD_REACTORS
330
A748
102
}
330
A748
100
AcDbXrecord
280
     1
102
MATERIAL
148
0.0
149
0.0
149
0.0
 93
        0
 94
      127
282
     0
 72
     0
 77
     0
171
     0
175
     0
179
     0
273
     0
  0
XRECORD
  5
A74A
102
{ACAD_REACTORS
330
A748
102
}
330
A748
100
AcDbXrecord
280
     1
270
     1
271
     1
  0
XRECORD
  5
A749
102
{ACAD_REACTORS
330
A748
102
}
330
A748
100
AcDbXrecord
280
     1
270
     1
271
     1
  0
XRECORD
  5
A74D
102
{ACAD_REACTORS
330
A748
102
}
330
A748
100
AcDbXrecord
280
     1
270
     1
271
     1
  0
XRECORD
  5
A74C
102
{ACAD_REACTORS
330
A748
102
}
330
A748
100
AcDbXrecord
280
     1
270
     1
271
     1
  0
XRECORD
  5
A74E
102
{ACAD_REACTORS
330
A748
102
}
330
A748
100
AcDbXrecord
280
     1
270
     1
271
     1
  0
XRECORD
  5
A74B
102
{ACAD_REACTORS
330
A748
102
}
330
A748
100
AcDbXrecord
280
     1
270
     1
271
     1
  0
XRECORD
  5
A7DC
102
{ACAD_REACTORS
330
A7DB
102
}
330
A7DB
100
AcDbXrecord
280
     1
102
DISPLAYNAME
  1
Imperial24
102
FLAGS
 90
        0
  0
CELLSTYLEMAP
  5
A7A3
102
{ACAD_REACTORS
330
A7A2
102
}
330
A7A2
100
AcDbCellStyleMap
 90
        3
300
CELLSTYLE
  1
TABLEFORMAT_BEGIN
 90
        5
170
     1
 91
        0
 92
    32768
 62
   257
 93
        1
300
CONTENTFORMAT
  1
CONTENTFORMAT_BEGIN
 90
        0
 91
        0
 92
      512
 93
        0
300

 40
0.0
140
1.0
 94
        5
 62
     0
340
A4D2
144
0.25
309
CONTENTFORMAT_END
171
     0
 94
        0
309
TABLEFORMAT_END
  1
CELLSTYLE_BEGIN
 90
        1
 91
        1
300
_TITLE
309
CELLSTYLE_END
300
CELLSTYLE
  1
TABLEFORMAT_BEGIN
 90
        5
170
     1
 91
        0
 92
        0
 62
   257
 93
        1
300
CONTENTFORMAT
  1
CONTENTFORMAT_BEGIN
 90
        0
 91
        0
 92
      512
 93
        0
300

 40
0.0
140
1.0
 94
        5
 62
     0
340
A4D2
144
0.18
309
CONTENTFORMAT_END
171
     0
 94
        0
309
TABLEFORMAT_END
  1
CELLSTYLE_BEGIN
 90
        2
 91
        1
300
_HEADER
309
CELLSTYLE_END
300
CELLSTYLE
  1
TABLEFORMAT_BEGIN
 90
        5
170
     1
 91
        0
 92
        0
 62
   257
 93
        1
300
CONTENTFORMAT
  1
CONTENTFORMAT_BEGIN
 90
        0
 91
        0
 92
      512
 93
        0
300

 40
0.0
140
1.0
 94
        2
 62
     0
340
A4D2
144
0.18
309
CONTENTFORMAT_END
171
     0
 94
        0
309
TABLEFORMAT_END
  1
CELLSTYLE_BEGIN
 90
        3
 91
        2
300
_DATA
309
CELLSTYLE_END
  0
XRECORD
  5
A7D9
102
{ACAD_REACTORS
330
A7A2
102
}
330
A7A2
100
AcDbXrecord
280
     1
102
ACAD_ROUNDTRIP_PRE2007_TABLESTYLE
 90
      512
 91
        0
  1

 92
      512
 93
        0
  2

 94
      512
 95
        0
  3

  0
XRECORD
  5
A7B4
102
{ACAD_REACTORS
330
A7B3
102
}
330
A7B3
100
AcDbXrecord
280
     1
102
RTVSPost2010Prop28
280
     1
102
RTVSPost2010PropOp28
 70
     1
102
RTVSPost2010Prop29
280
     1
102
RTVSPost2010PropOp29
 70
     1
102
RTVSPost2010Prop30
280
     0
102
RTVSPost2010PropOp30
 70
     1
102
RTVSPost2010Prop31
280
     0
102
RTVSPost2010PropOp31
 70
     1
102
RTVSPost2010Prop32
280
     0
102
RTVSPost2010PropOp32
 70
     1
102
RTVSPost2010Prop33
280
     0
102
RTVSPost2010PropOp33
 70
     1
102
RTVSPost2010Prop34
280
     0
102
RTVSPost2010PropOp34
 70
     1
102
RTVSPost2010Prop35
280
     0
102
RTVSPost2010PropOp35
 70
     1
102
RTVSPost2010Prop36
280
     0
102
RTVSPost2010PropOp36
 70
     1
102
RTVSPost2010Prop37
 90
       50
102
RTVSPost2010PropOp37
 70
     1
102
RTVSPost2010Prop38
140
0.0
102
RTVSPost2010PropOp38
 70
     1
102
RTVSPost2010Prop39
140
1.0
102
RTVSPost2010PropOp39
 70
     1
102
RTVSPost2010Prop40
 90
        0
102
RTVSPost2010PropOp40
 70
     1
102
RTVSPost2010Prop41ColorIndex
 90
       18
102
RTVSPost2010Prop41ColorRGB
 90
        0
102
RTVSPost2010PropOp41
 70
     1
102
RTVSPost2010Prop42
 90
       50
102
RTVSPost2010PropOp42
 70
     1
102
RTVSPost2010Prop43
 90
        3
102
RTVSPost2010PropOp43
 70
     1
102
RTVSPost2010Prop44ColorIndex
 90
        5
102
RTVSPost2010Prop44ColorRGB
 90
      255
102
RTVSPost2010PropOp44
 70
     1
102
RTVSPost2010Prop45
280
     0
102
RTVSPost2010PropOp45
 70
     1
102
RTVSPost2010Prop46
 90
       50
102
RTVSPost2010PropOp46
 70
     1
102
RTVSPost2010Prop47
 90
       50
102
RTVSPost2010PropOp47
 70
     1
102
RTVSPost2010Prop48
 90
       50
102
RTVSPost2010PropOp48
 70
     1
102
RTVSPost2010Prop49
280
     0
102
RTVSPost2010PropOp49
 70
     1
102
RTVSPost2010Prop50
 90
       50
102
RTVSPost2010PropOp50
 70
     1
102
RTVSPost2010Prop51ColorIndex
 90
      256
102
RTVSPost2010Prop51ColorRGB
 90
-16777216
102
RTVSPost2010PropOp51
 70
     0
102
RTVSPost2010Prop52
140
1.0
102
RTVSPost2010PropOp52
 70
     0
102
RTVSPost2010Prop53
 90
        2
102
RTVSPost2010PropOp53
 70
     1
102
RTVSPost2010Prop54
  1
strokes_ogs.tif
102
RTVSPost2010PropOp54
 70
     1
102
RTVSPost2010Prop55
280
     0
102
RTVSPost2010PropOp55
 70
     1
102
RTVSPost2010Prop56
140
1.0
102
RTVSPost2010PropOp56
 70
     1
102
RTVSPost2010Prop57
140
1.0
102
RTVSPost2010PropOp57
 70
     1
102
RTVSPropertyOp0
 70
     1
102
RTVSPropertyOp1
 70
     1
102
RTVSPropertyOp2
 70
     1
102
RTVSPropertyOp3
 70
     1
102
RTVSPropertyOp4
 70
     1
102
RTVSPropertyOp5
 70
     1
102
RTVSPropertyOp6
 70
     1
102
RTVSPropertyOp7
 70
     1
102
RTVSPropertyOp8
 70
     1
102
RTVSPropertyOp9
 70
     1
102
RTVSPropertyOp10
 70
     1
102
RTVSPropertyOp11
 70
     1
102
RTVSPropertyOp12
 70
     1
102
RTVSPropertyOp13
 70
     1
102
RTVSPropertyOp14
 70
     1
102
RTVSPropertyOp15
 70
     1
102
RTVSPropertyOp16
 70
     1
102
RTVSPropertyOp17
 70
     1
102
RTVSPropertyOp18
 70
     1
102
RTVSPropertyOp19
 70
     1
102
RTVSPropertyOp20
 70
     1
102
RTVSPropertyOp21
 70
     1
102
RTVSPropertyOp22
 70
     1
102
RTVSPropertyOp23
 70
     1
102
RTVSPropertyOp24
 70
     1
102
RTVSPropertyOp25
 70
     1
102
RTVSPropertyOp26
 70
     1
102
RTVSPropertyOp27
 70
     1
102
RTVSPropertyOp28
 70
     1
102
RTVSPropertyOp29
 70
     1
102
RTVSPropertyOp30
 70
     1
102
RTVSPropertyOp31
 70
     1
102
RTVSPropertyOp32
 70
     1
102
RTVSPropertyOp33
 70
     1
102
RTVSPropertyOp34
 70
     1
102
RTVSPropertyOp35
 70
     1
102
RTVSPropertyOp36
 70
     1
102
RTVSPropertyOp37
 70
     1
102
RTVSPropertyOp38
 70
     1
102
RTVSPropertyOp39
 70
     1
102
RTVSPropertyOp40
 70
     1
102
RTVSPropertyOp41
 70
     1
102
RTVSPropertyOp42
 70
     1
102
RTVSPropertyOp43
 70
     1
102
RTVSPropertyOp44
 70
     1
102
RTVSPropertyOp45
 70
     1
102
RTVSPropertyOp46
 70
     1
102
RTVSPropertyOp47
 70
     1
102
RTVSPropertyOp48
 70
     1
102
RTVSPropertyOp49
 70
     1
102
RTVSPropertyOp50
 70
     1
102
RTVSPropertyOp51
 70
     0
102
RTVSPropertyOp52
 70
     0
102
RTVSPropertyOp53
 70
     1
102
RTVSPropertyOp54
 70
     1
102
RTVSPropertyOp55
 70
     1
102
RTVSPropertyOp56
 70
     1
102
RTVSPropertyOp57
 70
     1
102
RTVSPropertyOp58
 70
     1
102
RTVSPropertyOp59
 70
     1
102
RTVSPropertyOp60
 70
     1
102
RTVSPropertyOp61
 70
     1
102
RTVSPropertyOp62
 70
     1
  0
XRECORD
  5
A7B2
102
{ACAD_REACTORS
330
A7B1
102
}
330
A7B1
100
AcDbXrecord
280
     1
102
RTVSPost2010Prop28
280
     0
102
RTVSPost2010PropOp28
 70
     1
102
RTVSPost2010Prop29
280
     1
102
RTVSPost2010PropOp29
 70
     1
102
RTVSPost2010Prop30
280
     1
102
RTVSPost2010PropOp30
 70
     1
102
RTVSPost2010Prop31
280
     0
102
RTVSPost2010PropOp31
 70
     1
102
RTVSPost2010Prop32
280
     0
102
RTVSPost2010PropOp32
 70
     1
102
RTVSPost2010Prop33
280
     0
102
RTVSPost2010PropOp33
 70
     1
102
RTVSPost2010Prop34
280
     0
102
RTVSPost2010PropOp34
 70
     1
102
RTVSPost2010Prop35
280
     0
102
RTVSPost2010PropOp35
 70
     1
102
RTVSPost2010Prop36
280
     0
102
RTVSPost2010PropOp36
 70
     1
102
RTVSPost2010Prop37
 90
       50
102
RTVSPost2010PropOp37
 70
     1
102
RTVSPost2010Prop38
140
0.0
102
RTVSPost2010PropOp38
 70
     1
102
RTVSPost2010Prop39
140
1.0
102
RTVSPost2010PropOp39
 70
     1
102
RTVSPost2010Prop40
 90
        0
102
RTVSPost2010PropOp40
 70
     1
102
RTVSPost2010Prop41ColorIndex
 90
       18
102
RTVSPost2010Prop41ColorRGB
 90
        0
102
RTVSPost2010PropOp41
 70
     1
102
RTVSPost2010Prop42
 90
       50
102
RTVSPost2010PropOp42
 70
     1
102
RTVSPost2010Prop43
 90
        3
102
RTVSPost2010PropOp43
 70
     1
102
RTVSPost2010Prop44ColorIndex
 90
        5
102
RTVSPost2010Prop44ColorRGB
 90
      255
102
RTVSPost2010PropOp44
 70
     1
102
RTVSPost2010Prop45
280
     0
102
RTVSPost2010PropOp45
 70
     1
102
RTVSPost2010Prop46
 90
       50
102
RTVSPost2010PropOp46
 70
     1
102
RTVSPost2010Prop47
 90
       50
102
RTVSPost2010PropOp47
 70
     1
102
RTVSPost2010Prop48
 90
       50
102
RTVSPost2010PropOp48
 70
     1
102
RTVSPost2010Prop49
280
     0
102
RTVSPost2010PropOp49
 70
     1
102
RTVSPost2010Prop50
 90
       50
102
RTVSPost2010PropOp50
 70
     1
102
RTVSPost2010Prop51ColorIndex
 90
      256
102
RTVSPost2010Prop51ColorRGB
 90
-16777216
102
RTVSPost2010PropOp51
 70
     0
102
RTVSPost2010Prop52
140
1.0
102
RTVSPost2010PropOp52
 70
     0
102
RTVSPost2010Prop53
 90
        2
102
RTVSPost2010PropOp53
 70
     1
102
RTVSPost2010Prop54
  1
strokes_ogs.tif
102
RTVSPost2010PropOp54
 70
     1
102
RTVSPost2010Prop55
280
     0
102
RTVSPost2010PropOp55
 70
     1
102
RTVSPost2010Prop56
140
1.0
102
RTVSPost2010PropOp56
 70
     1
102
RTVSPost2010Prop57
140
1.0
102
RTVSPost2010PropOp57
 70
     1
102
RTVSPropertyOp0
 70
     1
102
RTVSPropertyOp1
 70
     1
102
RTVSPropertyOp2
 70
     1
102
RTVSPropertyOp3
 70
     1
102
RTVSPropertyOp4
 70
     1
102
RTVSPropertyOp5
 70
     1
102
RTVSPropertyOp6
 70
     1
102
RTVSPropertyOp7
 70
     1
102
RTVSPropertyOp8
 70
     1
102
RTVSPropertyOp9
 70
     1
102
RTVSPropertyOp10
 70
     1
102
RTVSPropertyOp11
 70
     1
102
RTVSPropertyOp12
 70
     1
102
RTVSPropertyOp13
 70
     1
102
RTVSPropertyOp14
 70
     1
102
RTVSPropertyOp15
 70
     1
102
RTVSPropertyOp16
 70
     1
102
RTVSPropertyOp17
 70
     1
102
RTVSPropertyOp18
 70
     1
102
RTVSPropertyOp19
 70
     1
102
RTVSPropertyOp20
 70
     1
102
RTVSPropertyOp21
 70
     1
102
RTVSPropertyOp22
 70
     1
102
RTVSPropertyOp23
 70
     1
102
RTVSPropertyOp24
 70
     1
102
RTVSPropertyOp25
 70
     1
102
RTVSPropertyOp26
 70
     1
102
RTVSPropertyOp27
 70
     1
102
RTVSPropertyOp28
 70
     1
102
RTVSPropertyOp29
 70
     1
102
RTVSPropertyOp30
 70
     1
102
RTVSPropertyOp31
 70
     1
102
RTVSPropertyOp32
 70
     1
102
RTVSPropertyOp33
 70
     1
102
RTVSPropertyOp34
 70
     1
102
RTVSPropertyOp35
 70
     1
102
RTVSPropertyOp36
 70
     1
102
RTVSPropertyOp37
 70
     1
102
RTVSPropertyOp38
 70
     1
102
RTVSPropertyOp39
 70
     1
102
RTVSPropertyOp40
 70
     1
102
RTVSPropertyOp41
 70
     1
102
RTVSPropertyOp42
 70
     1
102
RTVSPropertyOp43
 70
     1
102
RTVSPropertyOp44
 70
     1
102
RTVSPropertyOp45
 70
     1
102
RTVSPropertyOp46
 70
     1
102
RTVSPropertyOp47
 70
     1
102
RTVSPropertyOp48
 70
     1
102
RTVSPropertyOp49
 70
     1
102
RTVSPropertyOp50
 70
     1
102
RTVSPropertyOp51
 70
     0
102
RTVSPropertyOp52
 70
     0
102
RTVSPropertyOp53
 70
     1
102
RTVSPropertyOp54
 70
     1
102
RTVSPropertyOp55
 70
     1
102
RTVSPropertyOp56
 70
     1
102
RTVSPropertyOp57
 70
     1
102
RTVSPropertyOp58
 70
     1
102
RTVSPropertyOp59
 70
     1
102
RTVSPropertyOp60
 70
     1
102
RTVSPropertyOp61
 70
     1
102
RTVSPropertyOp62
 70
     1
  0
XRECORD
  5
A7C0
102
{ACAD_REACTORS
330
A7BF
102
}
330
A7BF
100
AcDbXrecord
280
     1
102
RTVSPost2010Prop28
280
     0
102
RTVSPost2010PropOp28
 70
     1
102
RTVSPost2010Prop29
280
     1
102
RTVSPost2010PropOp29
 70
     1
102
RTVSPost2010Prop30
280
     1
102
RTVSPost2010PropOp30
 70
     1
102
RTVSPost2010Prop31
280
     0
102
RTVSPost2010PropOp31
 70
     1
102
RTVSPost2010Prop32
280
     0
102
RTVSPost2010PropOp32
 70
     1
102
RTVSPost2010Prop33
280
     0
102
RTVSPost2010PropOp33
 70
     1
102
RTVSPost2010Prop34
280
     0
102
RTVSPost2010PropOp34
 70
     1
102
RTVSPost2010Prop35
280
     0
102
RTVSPost2010PropOp35
 70
     1
102
RTVSPost2010Prop36
280
     0
102
RTVSPost2010PropOp36
 70
     1
102
RTVSPost2010Prop37
 90
       50
102
RTVSPost2010PropOp37
 70
     1
102
RTVSPost2010Prop38
140
0.0
102
RTVSPost2010PropOp38
 70
     1
102
RTVSPost2010Prop39
140
1.0
102
RTVSPost2010PropOp39
 70
     1
102
RTVSPost2010Prop40
 90
        0
102
RTVSPost2010PropOp40
 70
     1
102
RTVSPost2010Prop41ColorIndex
 90
       18
102
RTVSPost2010Prop41ColorRGB
 90
        0
102
RTVSPost2010PropOp41
 70
     1
102
RTVSPost2010Prop42
 90
       50
102
RTVSPost2010PropOp42
 70
     1
102
RTVSPost2010Prop43
 90
        3
102
RTVSPost2010PropOp43
 70
     1
102
RTVSPost2010Prop44ColorIndex
 90
        5
102
RTVSPost2010Prop44ColorRGB
 90
      255
102
RTVSPost2010PropOp44
 70
     1
102
RTVSPost2010Prop45
280
     0
102
RTVSPost2010PropOp45
 70
     1
102
RTVSPost2010Prop46
 90
       50
102
RTVSPost2010PropOp46
 70
     1
102
RTVSPost2010Prop47
 90
       50
102
RTVSPost2010PropOp47
 70
     1
102
RTVSPost2010Prop48
 90
       50
102
RTVSPost2010PropOp48
 70
     1
102
RTVSPost2010Prop49
280
     0
102
RTVSPost2010PropOp49
 70
     1
102
RTVSPost2010Prop50
 90
       50
102
RTVSPost2010PropOp50
 70
     1
102
RTVSPost2010Prop51ColorIndex
 90
      256
102
RTVSPost2010Prop51ColorRGB
 90
-16777216
102
RTVSPost2010PropOp51
 70
     0
102
RTVSPost2010Prop52
140
1.0
102
RTVSPost2010PropOp52
 70
     0
102
RTVSPost2010Prop53
 90
        2
102
RTVSPost2010PropOp53
 70
     1
102
RTVSPost2010Prop54
  1
strokes_ogs.tif
102
RTVSPost2010PropOp54
 70
     1
102
RTVSPost2010Prop55
280
     0
102
RTVSPost2010PropOp55
 70
     1
102
RTVSPost2010Prop56
140
1.0
102
RTVSPost2010PropOp56
 70
     1
102
RTVSPost2010Prop57
140
1.0
102
RTVSPost2010PropOp57
 70
     1
102
RTVSPropertyOp0
 70
     1
102
RTVSPropertyOp1
 70
     1
102
RTVSPropertyOp2
 70
     1
102
RTVSPropertyOp3
 70
     1
102
RTVSPropertyOp4
 70
     1
102
RTVSPropertyOp5
 70
     1
102
RTVSPropertyOp6
 70
     1
102
RTVSPropertyOp7
 70
     1
102
RTVSPropertyOp8
 70
     1
102
RTVSPropertyOp9
 70
     1
102
RTVSPropertyOp10
 70
     1
102
RTVSPropertyOp11
 70
     1
102
RTVSPropertyOp12
 70
     1
102
RTVSPropertyOp13
 70
     1
102
RTVSPropertyOp14
 70
     1
102
RTVSPropertyOp15
 70
     1
102
RTVSPropertyOp16
 70
     1
102
RTVSPropertyOp17
 70
     1
102
RTVSPropertyOp18
 70
     1
102
RTVSPropertyOp19
 70
     1
102
RTVSPropertyOp20
 70
     1
102
RTVSPropertyOp21
 70
     1
102
RTVSPropertyOp22
 70
     1
102
RTVSPropertyOp23
 70
     1
102
RTVSPropertyOp24
 70
     1
102
RTVSPropertyOp25
 70
     1
102
RTVSPropertyOp26
 70
     1
102
RTVSPropertyOp27
 70
     1
102
RTVSPropertyOp28
 70
     1
102
RTVSPropertyOp29
 70
     1
102
RTVSPropertyOp30
 70
     1
102
RTVSPropertyOp31
 70
     1
102
RTVSPropertyOp32
 70
     1
102
RTVSPropertyOp33
 70
     1
102
RTVSPropertyOp34
 70
     1
102
RTVSPropertyOp35
 70
     1
102
RTVSPropertyOp36
 70
     1
102
RTVSPropertyOp37
 70
     1
102
RTVSPropertyOp38
 70
     1
102
RTVSPropertyOp39
 70
     1
102
RTVSPropertyOp40
 70
     1
102
RTVSPropertyOp41
 70
     1
102
RTVSPropertyOp42
 70
     1
102
RTVSPropertyOp43
 70
     1
102
RTVSPropertyOp44
 70
     1
102
RTVSPropertyOp45
 70
     1
102
RTVSPropertyOp46
 70
     1
102
RTVSPropertyOp47
 70
     1
102
RTVSPropertyOp48
 70
     1
102
RTVSPropertyOp49
 70
     1
102
RTVSPropertyOp50
 70
     1
102
RTVSPropertyOp51
 70
     0
102
RTVSPropertyOp52
 70
     0
102
RTVSPropertyOp53
 70
     1
102
RTVSPropertyOp54
 70
     1
102
RTVSPropertyOp55
 70
     1
102
RTVSPropertyOp56
 70
     1
102
RTVSPropertyOp57
 70
     1
102
RTVSPropertyOp58
 70
     1
102
RTVSPropertyOp59
 70
     1
102
RTVSPropertyOp60
 70
     1
102
RTVSPropertyOp61
 70
     1
102
RTVSPropertyOp62
 70
     1
  0
XRECORD
  5
A7C8
102
{ACAD_REACTORS
330
A7C7
102
}
330
A7C7
100
AcDbXrecord
280
     1
102
RTVSPost2010Prop28
280
     0
102
RTVSPost2010PropOp28
 70
     1
102
RTVSPost2010Prop29
280
     1
102
RTVSPost2010PropOp29
 70
     1
102
RTVSPost2010Prop30
280
     1
102
RTVSPost2010PropOp30
 70
     1
102
RTVSPost2010Prop31
280
     0
102
RTVSPost2010PropOp31
 70
     1
102
RTVSPost2010Prop32
280
     0
102
RTVSPost2010PropOp32
 70
     1
102
RTVSPost2010Prop33
280
     0
102
RTVSPost2010PropOp33
 70
     1
102
RTVSPost2010Prop34
280
     0
102
RTVSPost2010PropOp34
 70
     1
102
RTVSPost2010Prop35
280
     0
102
RTVSPost2010PropOp35
 70
     1
102
RTVSPost2010Prop36
280
     0
102
RTVSPost2010PropOp36
 70
     1
102
RTVSPost2010Prop37
 90
       50
102
RTVSPost2010PropOp37
 70
     1
102
RTVSPost2010Prop38
140
0.0
102
RTVSPost2010PropOp38
 70
     1
102
RTVSPost2010Prop39
140
1.0
102
RTVSPost2010PropOp39
 70
     1
102
RTVSPost2010Prop40
 90
        0
102
RTVSPost2010PropOp40
 70
     1
102
RTVSPost2010Prop41ColorIndex
 90
       18
102
RTVSPost2010Prop41ColorRGB
 90
        0
102
RTVSPost2010PropOp41
 70
     1
102
RTVSPost2010Prop42
 90
       50
102
RTVSPost2010PropOp42
 70
     1
102
RTVSPost2010Prop43
 90
        3
102
RTVSPost2010PropOp43
 70
     1
102
RTVSPost2010Prop44ColorIndex
 90
        5
102
RTVSPost2010Prop44ColorRGB
 90
      255
102
RTVSPost2010PropOp44
 70
     1
102
RTVSPost2010Prop45
280
     0
102
RTVSPost2010PropOp45
 70
     1
102
RTVSPost2010Prop46
 90
       50
102
RTVSPost2010PropOp46
 70
     1
102
RTVSPost2010Prop47
 90
       50
102
RTVSPost2010PropOp47
 70
     1
102
RTVSPost2010Prop48
 90
       50
102
RTVSPost2010PropOp48
 70
     1
102
RTVSPost2010Prop49
280
     0
102
RTVSPost2010PropOp49
 70
     1
102
RTVSPost2010Prop50
 90
       50
102
RTVSPost2010PropOp50
 70
     1
102
RTVSPost2010Prop51ColorIndex
 90
      256
102
RTVSPost2010Prop51ColorRGB
 90
-16777216
102
RTVSPost2010PropOp51
 70
     0
102
RTVSPost2010Prop52
140
1.0
102
RTVSPost2010PropOp52
 70
     0
102
RTVSPost2010Prop53
 90
        2
102
RTVSPost2010PropOp53
 70
     1
102
RTVSPost2010Prop54
  1
strokes_ogs.tif
102
RTVSPost2010PropOp54
 70
     1
102
RTVSPost2010Prop55
280
     0
102
RTVSPost2010PropOp55
 70
     1
102
RTVSPost2010Prop56
140
1.0
102
RTVSPost2010PropOp56
 70
     1
102
RTVSPost2010Prop57
140
1.0
102
RTVSPost2010PropOp57
 70
     1
102
RTVSPropertyOp0
 70
     1
102
RTVSPropertyOp1
 70
     1
102
RTVSPropertyOp2
 70
     1
102
RTVSPropertyOp3
 70
     1
102
RTVSPropertyOp4
 70
     1
102
RTVSPropertyOp5
 70
     1
102
RTVSPropertyOp6
 70
     1
102
RTVSPropertyOp7
 70
     1
102
RTVSPropertyOp8
 70
     1
102
RTVSPropertyOp9
 70
     1
102
RTVSPropertyOp10
 70
     1
102
RTVSPropertyOp11
 70
     1
102
RTVSPropertyOp12
 70
     1
102
RTVSPropertyOp13
 70
     1
102
RTVSPropertyOp14
 70
     1
102
RTVSPropertyOp15
 70
     1
102
RTVSPropertyOp16
 70
     1
102
RTVSPropertyOp17
 70
     1
102
RTVSPropertyOp18
 70
     1
102
RTVSPropertyOp19
 70
     1
102
RTVSPropertyOp20
 70
     1
102
RTVSPropertyOp21
 70
     1
102
RTVSPropertyOp22
 70
     1
102
RTVSPropertyOp23
 70
     1
102
RTVSPropertyOp24
 70
     1
102
RTVSPropertyOp25
 70
     1
102
RTVSPropertyOp26
 70
     1
102
RTVSPropertyOp27
 70
     1
102
RTVSPropertyOp28
 70
     1
102
RTVSPropertyOp29
 70
     1
102
RTVSPropertyOp30
 70
     1
102
RTVSPropertyOp31
 70
     1
102
RTVSPropertyOp32
 70
     1
102
RTVSPropertyOp33
 70
     1
102
RTVSPropertyOp34
 70
     1
102
RTVSPropertyOp35
 70
     1
102
RTVSPropertyOp36
 70
     1
102
RTVSPropertyOp37
 70
     1
102
RTVSPropertyOp38
 70
     1
102
RTVSPropertyOp39
 70
     1
102
RTVSPropertyOp40
 70
     1
102
RTVSPropertyOp41
 70
     1
102
RTVSPropertyOp42
 70
     1
102
RTVSPropertyOp43
 70
     1
102
RTVSPropertyOp44
 70
     1
102
RTVSPropertyOp45
 70
     1
102
RTVSPropertyOp46
 70
     1
102
RTVSPropertyOp47
 70
     1
102
RTVSPropertyOp48
 70
     1
102
RTVSPropertyOp49
 70
     1
102
RTVSPropertyOp50
 70
     1
102
RTVSPropertyOp51
 70
     0
102
RTVSPropertyOp52
 70
     0
102
RTVSPropertyOp53
 70
     1
102
RTVSPropertyOp54
 70
     1
102
RTVSPropertyOp55
 70
     1
102
RTVSPropertyOp56
 70
     1
102
RTVSPropertyOp57
 70
     1
102
RTVSPropertyOp58
 70
     1
102
RTVSPropertyOp59
 70
     1
102
RTVSPropertyOp60
 70
     1
102
RTVSPropertyOp61
 70
     1
102
RTVSPropertyOp62
 70
     1
  0
XRECORD
  5
A7BA
102
{ACAD_REACTORS
330
A7B9
102
}
330
A7B9
100
AcDbXrecord
280
     1
102
RTVSPost2010Prop28
280
     0
102
RTVSPost2010PropOp28
 70
     1
102
RTVSPost2010Prop29
280
     1
102
RTVSPost2010PropOp29
 70
     1
102
RTVSPost2010Prop30
280
     1
102
RTVSPost2010PropOp30
 70
     1
102
RTVSPost2010Prop31
280
     0
102
RTVSPost2010PropOp31
 70
     1
102
RTVSPost2010Prop32
280
     0
102
RTVSPost2010PropOp32
 70
     1
102
RTVSPost2010Prop33
280
     0
102
RTVSPost2010PropOp33
 70
     1
102
RTVSPost2010Prop34
280
     0
102
RTVSPost2010PropOp34
 70
     1
102
RTVSPost2010Prop35
280
     0
102
RTVSPost2010PropOp35
 70
     1
102
RTVSPost2010Prop36
280
     0
102
RTVSPost2010PropOp36
 70
     1
102
RTVSPost2010Prop37
 90
       50
102
RTVSPost2010PropOp37
 70
     1
102
RTVSPost2010Prop38
140
0.0
102
RTVSPost2010PropOp38
 70
     1
102
RTVSPost2010Prop39
140
1.0
102
RTVSPost2010PropOp39
 70
     1
102
RTVSPost2010Prop40
 90
        0
102
RTVSPost2010PropOp40
 70
     1
102
RTVSPost2010Prop41ColorIndex
 90
       18
102
RTVSPost2010Prop41ColorRGB
 90
        0
102
RTVSPost2010PropOp41
 70
     1
102
RTVSPost2010Prop42
 90
       50
102
RTVSPost2010PropOp42
 70
     1
102
RTVSPost2010Prop43
 90
        3
102
RTVSPost2010PropOp43
 70
     1
102
RTVSPost2010Prop44ColorIndex
 90
        5
102
RTVSPost2010Prop44ColorRGB
 90
      255
102
RTVSPost2010PropOp44
 70
     1
102
RTVSPost2010Prop45
280
     0
102
RTVSPost2010PropOp45
 70
     1
102
RTVSPost2010Prop46
 90
       50
102
RTVSPost2010PropOp46
 70
     1
102
RTVSPost2010Prop47
 90
       50
102
RTVSPost2010PropOp47
 70
     1
102
RTVSPost2010Prop48
 90
       50
102
RTVSPost2010PropOp48
 70
     1
102
RTVSPost2010Prop49
280
     0
102
RTVSPost2010PropOp49
 70
     1
102
RTVSPost2010Prop50
 90
       50
102
RTVSPost2010PropOp50
 70
     1
102
RTVSPost2010Prop51ColorIndex
 90
      256
102
RTVSPost2010Prop51ColorRGB
 90
-16777216
102
RTVSPost2010PropOp51
 70
     0
102
RTVSPost2010Prop52
140
1.0
102
RTVSPost2010PropOp52
 70
     0
102
RTVSPost2010Prop53
 90
        2
102
RTVSPost2010PropOp53
 70
     1
102
RTVSPost2010Prop54
  1
strokes_ogs.tif
102
RTVSPost2010PropOp54
 70
     1
102
RTVSPost2010Prop55
280
     0
102
RTVSPost2010PropOp55
 70
     1
102
RTVSPost2010Prop56
140
1.0
102
RTVSPost2010PropOp56
 70
     1
102
RTVSPost2010Prop57
140
1.0
102
RTVSPost2010PropOp57
 70
     1
102
RTVSPropertyOp0
 70
     1
102
RTVSPropertyOp1
 70
     1
102
RTVSPropertyOp2
 70
     1
102
RTVSPropertyOp3
 70
     1
102
RTVSPropertyOp4
 70
     1
102
RTVSPropertyOp5
 70
     1
102
RTVSPropertyOp6
 70
     1
102
RTVSPropertyOp7
 70
     1
102
RTVSPropertyOp8
 70
     1
102
RTVSPropertyOp9
 70
     1
102
RTVSPropertyOp10
 70
     1
102
RTVSPropertyOp11
 70
     1
102
RTVSPropertyOp12
 70
     1
102
RTVSPropertyOp13
 70
     1
102
RTVSPropertyOp14
 70
     1
102
RTVSPropertyOp15
 70
     1
102
RTVSPropertyOp16
 70
     1
102
RTVSPropertyOp17
 70
     1
102
RTVSPropertyOp18
 70
     1
102
RTVSPropertyOp19
 70
     1
102
RTVSPropertyOp20
 70
     1
102
RTVSPropertyOp21
 70
     1
102
RTVSPropertyOp22
 70
     1
102
RTVSPropertyOp23
 70
     1
102
RTVSPropertyOp24
 70
     1
102
RTVSPropertyOp25
 70
     1
102
RTVSPropertyOp26
 70
     1
102
RTVSPropertyOp27
 70
     1
102
RTVSPropertyOp28
 70
     1
102
RTVSPropertyOp29
 70
     1
102
RTVSPropertyOp30
 70
     1
102
RTVSPropertyOp31
 70
     1
102
RTVSPropertyOp32
 70
     1
102
RTVSPropertyOp33
 70
     1
102
RTVSPropertyOp34
 70
     1
102
RTVSPropertyOp35
 70
     1
102
RTVSPropertyOp36
 70
     1
102
RTVSPropertyOp37
 70
     1
102
RTVSPropertyOp38
 70
     1
102
RTVSPropertyOp39
 70
     1
102
RTVSPropertyOp40
 70
     1
102
RTVSPropertyOp41
 70
     1
102
RTVSPropertyOp42
 70
     1
102
RTVSPropertyOp43
 70
     1
102
RTVSPropertyOp44
 70
     1
102
RTVSPropertyOp45
 70
     1
102
RTVSPropertyOp46
 70
     1
102
RTVSPropertyOp47
 70
     1
102
RTVSPropertyOp48
 70
     1
102
RTVSPropertyOp49
 70
     1
102
RTVSPropertyOp50
 70
     1
102
RTVSPropertyOp51
 70
     0
102
RTVSPropertyOp52
 70
     0
102
RTVSPropertyOp53
 70
     1
102
RTVSPropertyOp54
 70
     1
102
RTVSPropertyOp55
 70
     1
102
RTVSPropertyOp56
 70
     1
102
RTVSPropertyOp57
 70
     1
102
RTVSPropertyOp58
 70
     1
102
RTVSPropertyOp59
 70
     1
102
RTVSPropertyOp60
 70
     1
102
RTVSPropertyOp61
 70
     1
102
RTVSPropertyOp62
 70
     1
  0
XRECORD
  5
A7BE
102
{ACAD_REACTORS
330
A7BD
102
}
330
A7BD
100
AcDbXrecord
280
     1
102
RTVSPost2010Prop28
280
     0
102
RTVSPost2010PropOp28
 70
     1
102
RTVSPost2010Prop29
280
     1
102
RTVSPost2010PropOp29
 70
     1
102
RTVSPost2010Prop30
280
     1
102
RTVSPost2010PropOp30
 70
     1
102
RTVSPost2010Prop31
280
     0
102
RTVSPost2010PropOp31
 70
     1
102
RTVSPost2010Prop32
280
     0
102
RTVSPost2010PropOp32
 70
     1
102
RTVSPost2010Prop33
280
     0
102
RTVSPost2010PropOp33
 70
     1
102
RTVSPost2010Prop34
280
     0
102
RTVSPost2010PropOp34
 70
     1
102
RTVSPost2010Prop35
280
     0
102
RTVSPost2010PropOp35
 70
     1
102
RTVSPost2010Prop36
280
     0
102
RTVSPost2010PropOp36
 70
     1
102
RTVSPost2010Prop37
 90
       50
102
RTVSPost2010PropOp37
 70
     1
102
RTVSPost2010Prop38
140
0.0
102
RTVSPost2010PropOp38
 70
     1
102
RTVSPost2010Prop39
140
1.0
102
RTVSPost2010PropOp39
 70
     1
102
RTVSPost2010Prop40
 90
        0
102
RTVSPost2010PropOp40
 70
     1
102
RTVSPost2010Prop41ColorIndex
 90
       18
102
RTVSPost2010Prop41ColorRGB
 90
        0
102
RTVSPost2010PropOp41
 70
     1
102
RTVSPost2010Prop42
 90
       50
102
RTVSPost2010PropOp42
 70
     1
102
RTVSPost2010Prop43
 90
        3
102
RTVSPost2010PropOp43
 70
     1
102
RTVSPost2010Prop44ColorIndex
 90
        5
102
RTVSPost2010Prop44ColorRGB
 90
      255
102
RTVSPost2010PropOp44
 70
     1
102
RTVSPost2010Prop45
280
     0
102
RTVSPost2010PropOp45
 70
     1
102
RTVSPost2010Prop46
 90
       50
102
RTVSPost2010PropOp46
 70
     1
102
RTVSPost2010Prop47
 90
       50
102
RTVSPost2010PropOp47
 70
     1
102
RTVSPost2010Prop48
 90
       50
102
RTVSPost2010PropOp48
 70
     1
102
RTVSPost2010Prop49
280
     0
102
RTVSPost2010PropOp49
 70
     1
102
RTVSPost2010Prop50
 90
       50
102
RTVSPost2010PropOp50
 70
     1
102
RTVSPost2010Prop51ColorIndex
 90
      256
102
RTVSPost2010Prop51ColorRGB
 90
-16777216
102
RTVSPost2010PropOp51
 70
     0
102
RTVSPost2010Prop52
140
1.0
102
RTVSPost2010PropOp52
 70
     0
102
RTVSPost2010Prop53
 90
        2
102
RTVSPost2010PropOp53
 70
     1
102
RTVSPost2010Prop54
  1
strokes_ogs.tif
102
RTVSPost2010PropOp54
 70
     1
102
RTVSPost2010Prop55
280
     0
102
RTVSPost2010PropOp55
 70
     1
102
RTVSPost2010Prop56
140
1.0
102
RTVSPost2010PropOp56
 70
     1
102
RTVSPost2010Prop57
140
1.0
102
RTVSPost2010PropOp57
 70
     1
102
RTVSPropertyOp0
 70
     1
102
RTVSPropertyOp1
 70
     1
102
RTVSPropertyOp2
 70
     1
102
RTVSPropertyOp3
 70
     1
102
RTVSPropertyOp4
 70
     1
102
RTVSPropertyOp5
 70
     1
102
RTVSPropertyOp6
 70
     1
102
RTVSPropertyOp7
 70
     1
102
RTVSPropertyOp8
 70
     1
102
RTVSPropertyOp9
 70
     1
102
RTVSPropertyOp10
 70
     1
102
RTVSPropertyOp11
 70
     1
102
RTVSPropertyOp12
 70
     1
102
RTVSPropertyOp13
 70
     1
102
RTVSPropertyOp14
 70
     1
102
RTVSPropertyOp15
 70
     1
102
RTVSPropertyOp16
 70
     1
102
RTVSPropertyOp17
 70
     1
102
RTVSPropertyOp18
 70
     1
102
RTVSPropertyOp19
 70
     1
102
RTVSPropertyOp20
 70
     1
102
RTVSPropertyOp21
 70
     1
102
RTVSPropertyOp22
 70
     1
102
RTVSPropertyOp23
 70
     1
102
RTVSPropertyOp24
 70
     1
102
RTVSPropertyOp25
 70
     1
102
RTVSPropertyOp26
 70
     1
102
RTVSPropertyOp27
 70
     1
102
RTVSPropertyOp28
 70
     1
102
RTVSPropertyOp29
 70
     1
102
RTVSPropertyOp30
 70
     1
102
RTVSPropertyOp31
 70
     1
102
RTVSPropertyOp32
 70
     1
102
RTVSPropertyOp33
 70
     1
102
RTVSPropertyOp34
 70
     1
102
RTVSPropertyOp35
 70
     1
102
RTVSPropertyOp36
 70
     1
102
RTVSPropertyOp37
 70
     1
102
RTVSPropertyOp38
 70
     1
102
RTVSPropertyOp39
 70
     1
102
RTVSPropertyOp40
 70
     1
102
RTVSPropertyOp41
 70
     1
102
RTVSPropertyOp42
 70
     1
102
RTVSPropertyOp43
 70
     1
102
RTVSPropertyOp44
 70
     1
102
RTVSPropertyOp45
 70
     1
102
RTVSPropertyOp46
 70
     1
102
RTVSPropertyOp47
 70
     1
102
RTVSPropertyOp48
 70
     1
102
RTVSPropertyOp49
 70
     1
102
RTVSPropertyOp50
 70
     1
102
RTVSPropertyOp51
 70
     0
102
RTVSPropertyOp52
 70
     0
102
RTVSPropertyOp53
 70
     1
102
RTVSPropertyOp54
 70
     1
102
RTVSPropertyOp55
 70
     1
102
RTVSPropertyOp56
 70
     1
102
RTVSPropertyOp57
 70
     1
102
RTVSPropertyOp58
 70
     1
102
RTVSPropertyOp59
 70
     1
102
RTVSPropertyOp60
 70
     1
102
RTVSPropertyOp61
 70
     1
102
RTVSPropertyOp62
 70
     1
  0
XRECORD
  5
A7D8
102
{ACAD_REACTORS
330
A7D7
102
}
330
A7D7
100
AcDbXrecord
280
     1
102
RTVSPost2010Prop28
280
     0
102
RTVSPost2010PropOp28
 70
     1
102
RTVSPost2010Prop29
280
     1
102
RTVSPost2010PropOp29
 70
     1
102
RTVSPost2010Prop30
280
     1
102
RTVSPost2010PropOp30
 70
     1
102
RTVSPost2010Prop31
280
     0
102
RTVSPost2010PropOp31
 70
     1
102
RTVSPost2010Prop32
280
     0
102
RTVSPost2010PropOp32
 70
     1
102
RTVSPost2010Prop33
280
     0
102
RTVSPost2010PropOp33
 70
     1
102
RTVSPost2010Prop34
280
     0
102
RTVSPost2010PropOp34
 70
     1
102
RTVSPost2010Prop35
280
     0
102
RTVSPost2010PropOp35
 70
     1
102
RTVSPost2010Prop36
280
     0
102
RTVSPost2010PropOp36
 70
     1
102
RTVSPost2010Prop37
 90
       50
102
RTVSPost2010PropOp37
 70
     0
102
RTVSPost2010Prop38
140
0.0
102
RTVSPost2010PropOp38
 70
     0
102
RTVSPost2010Prop39
140
1.0
102
RTVSPost2010PropOp39
 70
     0
102
RTVSPost2010Prop40
 90
        0
102
RTVSPost2010PropOp40
 70
     0
102
RTVSPost2010Prop41ColorIndex
 90
       18
102
RTVSPost2010Prop41ColorRGB
 90
        0
102
RTVSPost2010PropOp41
 70
     0
102
RTVSPost2010Prop42
 90
       50
102
RTVSPost2010PropOp42
 70
     0
102
RTVSPost2010Prop43
 90
        3
102
RTVSPost2010PropOp43
 70
     0
102
RTVSPost2010Prop44ColorIndex
 90
        5
102
RTVSPost2010Prop44ColorRGB
 90
      255
102
RTVSPost2010PropOp44
 70
     0
102
RTVSPost2010Prop45
280
     0
102
RTVSPost2010PropOp45
 70
     1
102
RTVSPost2010Prop46
 90
       50
102
RTVSPost2010PropOp46
 70
     0
102
RTVSPost2010Prop47
 90
       50
102
RTVSPost2010PropOp47
 70
     0
102
RTVSPost2010Prop48
 90
       50
102
RTVSPost2010PropOp48
 70
     0
102
RTVSPost2010Prop49
280
     0
102
RTVSPost2010PropOp49
 70
     1
102
RTVSPost2010Prop50
 90
       50
102
RTVSPost2010PropOp50
 70
     0
102
RTVSPost2010Prop51ColorIndex
 90
      256
102
RTVSPost2010Prop51ColorRGB
 90
-16777216
102
RTVSPost2010PropOp51
 70
     0
102
RTVSPost2010Prop52
140
1.0
102
RTVSPost2010PropOp52
 70
     0
102
RTVSPost2010Prop53
 90
        2
102
RTVSPost2010PropOp53
 70
     0
102
RTVSPost2010Prop54
  1
strokes_ogs.tif
102
RTVSPost2010PropOp54
 70
     0
102
RTVSPost2010Prop55
280
     0
102
RTVSPost2010PropOp55
 70
     1
102
RTVSPost2010Prop56
140
1.0
102
RTVSPost2010PropOp56
 70
     0
102
RTVSPost2010Prop57
140
1.0
102
RTVSPost2010PropOp57
 70
     0
102
RTVSPropertyOp0
 70
     0
102
RTVSPropertyOp1
 70
     0
102
RTVSPropertyOp2
 70
     0
102
RTVSPropertyOp3
 70
     0
102
RTVSPropertyOp4
 70
     0
102
RTVSPropertyOp5
 70
     0
102
RTVSPropertyOp6
 70
     0
102
RTVSPropertyOp7
 70
     0
102
RTVSPropertyOp8
 70
     0
102
RTVSPropertyOp9
 70
     0
102
RTVSPropertyOp10
 70
     0
102
RTVSPropertyOp11
 70
     0
102
RTVSPropertyOp12
 70
     0
102
RTVSPropertyOp13
 70
     0
102
RTVSPropertyOp14
 70
     2
102
RTVSPropertyOp15
 70
     0
102
RTVSPropertyOp16
 70
     0
102
RTVSPropertyOp17
 70
     0
102
RTVSPropertyOp18
 70
     0
102
RTVSPropertyOp19
 70
     0
102
RTVSPropertyOp20
 70
     0
102
RTVSPropertyOp21
 70
     0
102
RTVSPropertyOp22
 70
     0
102
RTVSPropertyOp23
 70
     0
102
RTVSPropertyOp24
 70
     0
102
RTVSPropertyOp25
 70
     0
102
RTVSPropertyOp26
 70
     0
102
RTVSPropertyOp27
 70
     0
102
RTVSPropertyOp28
 70
     1
102
RTVSPropertyOp29
 70
     1
102
RTVSPropertyOp30
 70
     1
102
RTVSPropertyOp31
 70
     1
102
RTVSPropertyOp32
 70
     1
102
RTVSPropertyOp33
 70
     1
102
RTVSPropertyOp34
 70
     1
102
RTVSPropertyOp35
 70
     1
102
RTVSPropertyOp36
 70
     1
102
RTVSPropertyOp37
 70
     0
102
RTVSPropertyOp38
 70
     0
102
RTVSPropertyOp39
 70
     0
102
RTVSPropertyOp40
 70
     0
102
RTVSPropertyOp41
 70
     0
102
RTVSPropertyOp42
 70
     0
102
RTVSPropertyOp43
 70
     0
102
RTVSPropertyOp44
 70
     0
102
RTVSPropertyOp45
 70
     1
102
RTVSPropertyOp46
 70
     0
102
RTVSPropertyOp47
 70
     0
102
RTVSPropertyOp48
 70
     0
102
RTVSPropertyOp49
 70
     1
102
RTVSPropertyOp50
 70
     0
102
RTVSPropertyOp51
 70
     0
102
RTVSPropertyOp52
 70
     0
102
RTVSPropertyOp53
 70
     0
102
RTVSPropertyOp54
 70
     0
102
RTVSPropertyOp55
 70
     1
102
RTVSPropertyOp56
 70
     0
102
RTVSPropertyOp57
 70
     0
102
RTVSPropertyOp58
 70
     0
102
RTVSPropertyOp59
 70
     0
102
RTVSPropertyOp60
 70
     0
102
RTVSPropertyOp61
 70
     0
102
RTVSPropertyOp62
 70
     0
  0
XRECORD
  5
A7C6
102
{ACAD_REACTORS
330
A7C5
102
}
330
A7C5
100
AcDbXrecord
280
     1
102
RTVSPost2010Prop28
280
     0
102
RTVSPost2010PropOp28
 70
     1
102
RTVSPost2010Prop29
280
     1
102
RTVSPost2010PropOp29
 70
     1
102
RTVSPost2010Prop30
280
     1
102
RTVSPost2010PropOp30
 70
     1
102
RTVSPost2010Prop31
280
     0
102
RTVSPost2010PropOp31
 70
     1
102
RTVSPost2010Prop32
280
     0
102
RTVSPost2010PropOp32
 70
     1
102
RTVSPost2010Prop33
280
     0
102
RTVSPost2010PropOp33
 70
     1
102
RTVSPost2010Prop34
280
     0
102
RTVSPost2010PropOp34
 70
     1
102
RTVSPost2010Prop35
280
     0
102
RTVSPost2010PropOp35
 70
     1
102
RTVSPost2010Prop36
280
     0
102
RTVSPost2010PropOp36
 70
     1
102
RTVSPost2010Prop37
 90
       50
102
RTVSPost2010PropOp37
 70
     1
102
RTVSPost2010Prop38
140
0.0
102
RTVSPost2010PropOp38
 70
     1
102
RTVSPost2010Prop39
140
1.0
102
RTVSPost2010PropOp39
 70
     1
102
RTVSPost2010Prop40
 90
        0
102
RTVSPost2010PropOp40
 70
     1
102
RTVSPost2010Prop41ColorIndex
 90
       18
102
RTVSPost2010Prop41ColorRGB
 90
        0
102
RTVSPost2010PropOp41
 70
     1
102
RTVSPost2010Prop42
 90
       50
102
RTVSPost2010PropOp42
 70
     1
102
RTVSPost2010Prop43
 90
        3
102
RTVSPost2010PropOp43
 70
     1
102
RTVSPost2010Prop44ColorIndex
 90
        5
102
RTVSPost2010Prop44ColorRGB
 90
      255
102
RTVSPost2010PropOp44
 70
     1
102
RTVSPost2010Prop45
280
     0
102
RTVSPost2010PropOp45
 70
     1
102
RTVSPost2010Prop46
 90
       50
102
RTVSPost2010PropOp46
 70
     1
102
RTVSPost2010Prop47
 90
       50
102
RTVSPost2010PropOp47
 70
     1
102
RTVSPost2010Prop48
 90
       50
102
RTVSPost2010PropOp48
 70
     1
102
RTVSPost2010Prop49
280
     0
102
RTVSPost2010PropOp49
 70
     1
102
RTVSPost2010Prop50
 90
       50
102
RTVSPost2010PropOp50
 70
     1
102
RTVSPost2010Prop51ColorIndex
 90
      256
102
RTVSPost2010Prop51ColorRGB
 90
-16777216
102
RTVSPost2010PropOp51
 70
     0
102
RTVSPost2010Prop52
140
1.0
102
RTVSPost2010PropOp52
 70
     0
102
RTVSPost2010Prop53
 90
        2
102
RTVSPost2010PropOp53
 70
     1
102
RTVSPost2010Prop54
  1
strokes_ogs.tif
102
RTVSPost2010PropOp54
 70
     1
102
RTVSPost2010Prop55
280
     0
102
RTVSPost2010PropOp55
 70
     1
102
RTVSPost2010Prop56
140
1.0
102
RTVSPost2010PropOp56
 70
     1
102
RTVSPost2010Prop57
140
1.0
102
RTVSPost2010PropOp57
 70
     1
102
RTVSPropertyOp0
 70
     1
102
RTVSPropertyOp1
 70
     1
102
RTVSPropertyOp2
 70
     1
102
RTVSPropertyOp3
 70
     1
102
RTVSPropertyOp4
 70
     1
102
RTVSPropertyOp5
 70
     1
102
RTVSPropertyOp6
 70
     1
102
RTVSPropertyOp7
 70
     1
102
RTVSPropertyOp8
 70
     1
102
RTVSPropertyOp9
 70
     1
102
RTVSPropertyOp10
 70
     1
102
RTVSPropertyOp11
 70
     1
102
RTVSPropertyOp12
 70
     1
102
RTVSPropertyOp13
 70
     1
102
RTVSPropertyOp14
 70
     1
102
RTVSPropertyOp15
 70
     1
102
RTVSPropertyOp16
 70
     1
102
RTVSPropertyOp17
 70
     1
102
RTVSPropertyOp18
 70
     1
102
RTVSPropertyOp19
 70
     1
102
RTVSPropertyOp20
 70
     1
102
RTVSPropertyOp21
 70
     1
102
RTVSPropertyOp22
 70
     1
102
RTVSPropertyOp23
 70
     1
102
RTVSPropertyOp24
 70
     1
102
RTVSPropertyOp25
 70
     1
102
RTVSPropertyOp26
 70
     1
102
RTVSPropertyOp27
 70
     1
102
RTVSPropertyOp28
 70
     1
102
RTVSPropertyOp29
 70
     1
102
RTVSPropertyOp30
 70
     1
102
RTVSPropertyOp31
 70
     1
102
RTVSPropertyOp32
 70
     1
102
RTVSPropertyOp33
 70
     1
102
RTVSPropertyOp34
 70
     1
102
RTVSPropertyOp35
 70
     1
102
RTVSPropertyOp36
 70
     1
102
RTVSPropertyOp37
 70
     1
102
RTVSPropertyOp38
 70
     1
102
RTVSPropertyOp39
 70
     1
102
RTVSPropertyOp40
 70
     1
102
RTVSPropertyOp41
 70
     1
102
RTVSPropertyOp42
 70
     1
102
RTVSPropertyOp43
 70
     1
102
RTVSPropertyOp44
 70
     1
102
RTVSPropertyOp45
 70
     1
102
RTVSPropertyOp46
 70
     1
102
RTVSPropertyOp47
 70
     1
102
RTVSPropertyOp48
 70
     1
102
RTVSPropertyOp49
 70
     1
102
RTVSPropertyOp50
 70
     1
102
RTVSPropertyOp51
 70
     0
102
RTVSPropertyOp52
 70
     0
102
RTVSPropertyOp53
 70
     1
102
RTVSPropertyOp54
 70
     1
102
RTVSPropertyOp55
 70
     1
102
RTVSPropertyOp56
 70
     1
102
RTVSPropertyOp57
 70
     1
102
RTVSPropertyOp58
 70
     1
102
RTVSPropertyOp59
 70
     1
102
RTVSPropertyOp60
 70
     1
102
RTVSPropertyOp61
 70
     1
102
RTVSPropertyOp62
 70
     1
  0
XRECORD
  5
A7AA
102
{ACAD_REACTORS
330
A7A9
102
}
330
A7A9
100
AcDbXrecord
280
     1
102
RTVSPost2010Prop28
280
     0
102
RTVSPost2010PropOp28
 70
     1
102
RTVSPost2010Prop29
280
     1
102
RTVSPost2010PropOp29
 70
     1
102
RTVSPost2010Prop30
280
     1
102
RTVSPost2010PropOp30
 70
     1
102
RTVSPost2010Prop31
280
     0
102
RTVSPost2010PropOp31
 70
     1
102
RTVSPost2010Prop32
280
     0
102
RTVSPost2010PropOp32
 70
     1
102
RTVSPost2010Prop33
280
     0
102
RTVSPost2010PropOp33
 70
     1
102
RTVSPost2010Prop34
280
     0
102
RTVSPost2010PropOp34
 70
     1
102
RTVSPost2010Prop35
280
     0
102
RTVSPost2010PropOp35
 70
     1
102
RTVSPost2010Prop36
280
     0
102
RTVSPost2010PropOp36
 70
     1
102
RTVSPost2010Prop37
 90
       50
102
RTVSPost2010PropOp37
 70
     1
102
RTVSPost2010Prop38
140
0.0
102
RTVSPost2010PropOp38
 70
     1
102
RTVSPost2010Prop39
140
1.0
102
RTVSPost2010PropOp39
 70
     1
102
RTVSPost2010Prop40
 90
        0
102
RTVSPost2010PropOp40
 70
     1
102
RTVSPost2010Prop41ColorIndex
 90
       18
102
RTVSPost2010Prop41ColorRGB
 90
        0
102
RTVSPost2010PropOp41
 70
     1
102
RTVSPost2010Prop42
 90
       50
102
RTVSPost2010PropOp42
 70
     1
102
RTVSPost2010Prop43
 90
        3
102
RTVSPost2010PropOp43
 70
     1
102
RTVSPost2010Prop44ColorIndex
 90
        5
102
RTVSPost2010Prop44ColorRGB
 90
      255
102
RTVSPost2010PropOp44
 70
     1
102
RTVSPost2010Prop45
280
     0
102
RTVSPost2010PropOp45
 70
     1
102
RTVSPost2010Prop46
 90
       50
102
RTVSPost2010PropOp46
 70
     1
102
RTVSPost2010Prop47
 90
       50
102
RTVSPost2010PropOp47
 70
     1
102
RTVSPost2010Prop48
 90
       50
102
RTVSPost2010PropOp48
 70
     1
102
RTVSPost2010Prop49
280
     0
102
RTVSPost2010PropOp49
 70
     1
102
RTVSPost2010Prop50
 90
       50
102
RTVSPost2010PropOp50
 70
     1
102
RTVSPost2010Prop51ColorIndex
 90
      256
102
RTVSPost2010Prop51ColorRGB
 90
-16777216
102
RTVSPost2010PropOp51
 70
     0
102
RTVSPost2010Prop52
140
1.0
102
RTVSPost2010PropOp52
 70
     0
102
RTVSPost2010Prop53
 90
        2
102
RTVSPost2010PropOp53
 70
     1
102
RTVSPost2010Prop54
  1
strokes_ogs.tif
102
RTVSPost2010PropOp54
 70
     1
102
RTVSPost2010Prop55
280
     0
102
RTVSPost2010PropOp55
 70
     1
102
RTVSPost2010Prop56
140
1.0
102
RTVSPost2010PropOp56
 70
     1
102
RTVSPost2010Prop57
140
1.0
102
RTVSPost2010PropOp57
 70
     1
102
RTVSPropertyOp0
 70
     1
102
RTVSPropertyOp1
 70
     1
102
RTVSPropertyOp2
 70
     1
102
RTVSPropertyOp3
 70
     1
102
RTVSPropertyOp4
 70
     1
102
RTVSPropertyOp5
 70
     1
102
RTVSPropertyOp6
 70
     1
102
RTVSPropertyOp7
 70
     1
102
RTVSPropertyOp8
 70
     1
102
RTVSPropertyOp9
 70
     1
102
RTVSPropertyOp10
 70
     1
102
RTVSPropertyOp11
 70
     1
102
RTVSPropertyOp12
 70
     1
102
RTVSPropertyOp13
 70
     1
102
RTVSPropertyOp14
 70
     1
102
RTVSPropertyOp15
 70
     1
102
RTVSPropertyOp16
 70
     1
102
RTVSPropertyOp17
 70
     1
102
RTVSPropertyOp18
 70
     1
102
RTVSPropertyOp19
 70
     1
102
RTVSPropertyOp20
 70
     1
102
RTVSPropertyOp21
 70
     1
102
RTVSPropertyOp22
 70
     1
102
RTVSPropertyOp23
 70
     1
102
RTVSPropertyOp24
 70
     1
102
RTVSPropertyOp25
 70
     1
102
RTVSPropertyOp26
 70
     1
102
RTVSPropertyOp27
 70
     1
102
RTVSPropertyOp28
 70
     1
102
RTVSPropertyOp29
 70
     1
102
RTVSPropertyOp30
 70
     1
102
RTVSPropertyOp31
 70
     1
102
RTVSPropertyOp32
 70
     1
102
RTVSPropertyOp33
 70
     1
102
RTVSPropertyOp34
 70
     1
102
RTVSPropertyOp35
 70
     1
102
RTVSPropertyOp36
 70
     1
102
RTVSPropertyOp37
 70
     1
102
RTVSPropertyOp38
 70
     1
102
RTVSPropertyOp39
 70
     1
102
RTVSPropertyOp40
 70
     1
102
RTVSPropertyOp41
 70
     1
102
RTVSPropertyOp42
 70
     1
102
RTVSPropertyOp43
 70
     1
102
RTVSPropertyOp44
 70
     1
102
RTVSPropertyOp45
 70
     1
102
RTVSPropertyOp46
 70
     1
102
RTVSPropertyOp47
 70
     1
102
RTVSPropertyOp48
 70
     1
102
RTVSPropertyOp49
 70
     1
102
RTVSPropertyOp50
 70
     1
102
RTVSPropertyOp51
 70
     0
102
RTVSPropertyOp52
 70
     0
102
RTVSPropertyOp53
 70
     1
102
RTVSPropertyOp54
 70
     1
102
RTVSPropertyOp55
 70
     1
102
RTVSPropertyOp56
 70
     1
102
RTVSPropertyOp57
 70
     1
102
RTVSPropertyOp58
 70
     1
102
RTVSPropertyOp59
 70
     1
102
RTVSPropertyOp60
 70
     1
102
RTVSPropertyOp61
 70
     1
102
RTVSPropertyOp62
 70
     1
  0
XRECORD
  5
A7AC
102
{ACAD_REACTORS
330
A7AB
102
}
330
A7AB
100
AcDbXrecord
280
     1
102
RTVSPost2010Prop28
280
     0
102
RTVSPost2010PropOp28
 70
     1
102
RTVSPost2010Prop29
280
     1
102
RTVSPost2010PropOp29
 70
     1
102
RTVSPost2010Prop30
280
     1
102
RTVSPost2010PropOp30
 70
     1
102
RTVSPost2010Prop31
280
     0
102
RTVSPost2010PropOp31
 70
     1
102
RTVSPost2010Prop32
280
     0
102
RTVSPost2010PropOp32
 70
     1
102
RTVSPost2010Prop33
280
     0
102
RTVSPost2010PropOp33
 70
     1
102
RTVSPost2010Prop34
280
     0
102
RTVSPost2010PropOp34
 70
     1
102
RTVSPost2010Prop35
280
     0
102
RTVSPost2010PropOp35
 70
     1
102
RTVSPost2010Prop36
280
     0
102
RTVSPost2010PropOp36
 70
     1
102
RTVSPost2010Prop37
 90
       50
102
RTVSPost2010PropOp37
 70
     1
102
RTVSPost2010Prop38
140
0.0
102
RTVSPost2010PropOp38
 70
     1
102
RTVSPost2010Prop39
140
1.0
102
RTVSPost2010PropOp39
 70
     1
102
RTVSPost2010Prop40
 90
        0
102
RTVSPost2010PropOp40
 70
     1
102
RTVSPost2010Prop41ColorIndex
 90
       18
102
RTVSPost2010Prop41ColorRGB
 90
        0
102
RTVSPost2010PropOp41
 70
     1
102
RTVSPost2010Prop42
 90
       50
102
RTVSPost2010PropOp42
 70
     1
102
RTVSPost2010Prop43
 90
        3
102
RTVSPost2010PropOp43
 70
     1
102
RTVSPost2010Prop44ColorIndex
 90
        5
102
RTVSPost2010Prop44ColorRGB
 90
      255
102
RTVSPost2010PropOp44
 70
     1
102
RTVSPost2010Prop45
280
     0
102
RTVSPost2010PropOp45
 70
     1
102
RTVSPost2010Prop46
 90
       50
102
RTVSPost2010PropOp46
 70
     1
102
RTVSPost2010Prop47
 90
       50
102
RTVSPost2010PropOp47
 70
     1
102
RTVSPost2010Prop48
 90
       50
102
RTVSPost2010PropOp48
 70
     1
102
RTVSPost2010Prop49
280
     0
102
RTVSPost2010PropOp49
 70
     1
102
RTVSPost2010Prop50
 90
       50
102
RTVSPost2010PropOp50
 70
     1
102
RTVSPost2010Prop51ColorIndex
 90
      256
102
RTVSPost2010Prop51ColorRGB
 90
-16777216
102
RTVSPost2010PropOp51
 70
     0
102
RTVSPost2010Prop52
140
1.0
102
RTVSPost2010PropOp52
 70
     0
102
RTVSPost2010Prop53
 90
        2
102
RTVSPost2010PropOp53
 70
     1
102
RTVSPost2010Prop54
  1
strokes_ogs.tif
102
RTVSPost2010PropOp54
 70
     1
102
RTVSPost2010Prop55
280
     0
102
RTVSPost2010PropOp55
 70
     1
102
RTVSPost2010Prop56
140
1.0
102
RTVSPost2010PropOp56
 70
     1
102
RTVSPost2010Prop57
140
1.0
102
RTVSPost2010PropOp57
 70
     1
102
RTVSPropertyOp0
 70
     1
102
RTVSPropertyOp1
 70
     1
102
RTVSPropertyOp2
 70
     1
102
RTVSPropertyOp3
 70
     1
102
RTVSPropertyOp4
 70
     1
102
RTVSPropertyOp5
 70
     1
102
RTVSPropertyOp6
 70
     1
102
RTVSPropertyOp7
 70
     1
102
RTVSPropertyOp8
 70
     1
102
RTVSPropertyOp9
 70
     1
102
RTVSPropertyOp10
 70
     1
102
RTVSPropertyOp11
 70
     1
102
RTVSPropertyOp12
 70
     1
102
RTVSPropertyOp13
 70
     1
102
RTVSPropertyOp14
 70
     1
102
RTVSPropertyOp15
 70
     1
102
RTVSPropertyOp16
 70
     1
102
RTVSPropertyOp17
 70
     1
102
RTVSPropertyOp18
 70
     1
102
RTVSPropertyOp19
 70
     1
102
RTVSPropertyOp20
 70
     1
102
RTVSPropertyOp21
 70
     1
102
RTVSPropertyOp22
 70
     1
102
RTVSPropertyOp23
 70
     1
102
RTVSPropertyOp24
 70
     1
102
RTVSPropertyOp25
 70
     1
102
RTVSPropertyOp26
 70
     1
102
RTVSPropertyOp27
 70
     1
102
RTVSPropertyOp28
 70
     1
102
RTVSPropertyOp29
 70
     1
102
RTVSPropertyOp30
 70
     1
102
RTVSPropertyOp31
 70
     1
102
RTVSPropertyOp32
 70
     1
102
RTVSPropertyOp33
 70
     1
102
RTVSPropertyOp34
 70
     1
102
RTVSPropertyOp35
 70
     1
102
RTVSPropertyOp36
 70
     1
102
RTVSPropertyOp37
 70
     1
102
RTVSPropertyOp38
 70
     1
102
RTVSPropertyOp39
 70
     1
102
RTVSPropertyOp40
 70
     1
102
RTVSPropertyOp41
 70
     1
102
RTVSPropertyOp42
 70
     1
102
RTVSPropertyOp43
 70
     1
102
RTVSPropertyOp44
 70
     1
102
RTVSPropertyOp45
 70
     1
102
RTVSPropertyOp46
 70
     1
102
RTVSPropertyOp47
 70
     1
102
RTVSPropertyOp48
 70
     1
102
RTVSPropertyOp49
 70
     1
102
RTVSPropertyOp50
 70
     1
102
RTVSPropertyOp51
 70
     0
102
RTVSPropertyOp52
 70
     0
102
RTVSPropertyOp53
 70
     1
102
RTVSPropertyOp54
 70
     1
102
RTVSPropertyOp55
 70
     1
102
RTVSPropertyOp56
 70
     1
102
RTVSPropertyOp57
 70
     1
102
RTVSPropertyOp58
 70
     1
102
RTVSPropertyOp59
 70
     1
102
RTVSPropertyOp60
 70
     1
102
RTVSPropertyOp61
 70
     1
102
RTVSPropertyOp62
 70
     1
  0
XRECORD
  5
A7AE
102
{ACAD_REACTORS
330
A7AD
102
}
330
A7AD
100
AcDbXrecord
280
     1
102
RTVSPost2010Prop28
280
     0
102
RTVSPost2010PropOp28
 70
     1
102
RTVSPost2010Prop29
280
     1
102
RTVSPost2010PropOp29
 70
     1
102
RTVSPost2010Prop30
280
     1
102
RTVSPost2010PropOp30
 70
     1
102
RTVSPost2010Prop31
280
     0
102
RTVSPost2010PropOp31
 70
     1
102
RTVSPost2010Prop32
280
     0
102
RTVSPost2010PropOp32
 70
     1
102
RTVSPost2010Prop33
280
     0
102
RTVSPost2010PropOp33
 70
     1
102
RTVSPost2010Prop34
280
     0
102
RTVSPost2010PropOp34
 70
     1
102
RTVSPost2010Prop35
280
     0
102
RTVSPost2010PropOp35
 70
     1
102
RTVSPost2010Prop36
280
     0
102
RTVSPost2010PropOp36
 70
     1
102
RTVSPost2010Prop37
 90
       50
102
RTVSPost2010PropOp37
 70
     1
102
RTVSPost2010Prop38
140
0.0
102
RTVSPost2010PropOp38
 70
     1
102
RTVSPost2010Prop39
140
1.0
102
RTVSPost2010PropOp39
 70
     1
102
RTVSPost2010Prop40
 90
        0
102
RTVSPost2010PropOp40
 70
     1
102
RTVSPost2010Prop41ColorIndex
 90
       18
102
RTVSPost2010Prop41ColorRGB
 90
        0
102
RTVSPost2010PropOp41
 70
     1
102
RTVSPost2010Prop42
 90
       50
102
RTVSPost2010PropOp42
 70
     1
102
RTVSPost2010Prop43
 90
        3
102
RTVSPost2010PropOp43
 70
     1
102
RTVSPost2010Prop44ColorIndex
 90
        5
102
RTVSPost2010Prop44ColorRGB
 90
      255
102
RTVSPost2010PropOp44
 70
     1
102
RTVSPost2010Prop45
280
     0
102
RTVSPost2010PropOp45
 70
     1
102
RTVSPost2010Prop46
 90
       50
102
RTVSPost2010PropOp46
 70
     1
102
RTVSPost2010Prop47
 90
       50
102
RTVSPost2010PropOp47
 70
     1
102
RTVSPost2010Prop48
 90
       50
102
RTVSPost2010PropOp48
 70
     1
102
RTVSPost2010Prop49
280
     0
102
RTVSPost2010PropOp49
 70
     1
102
RTVSPost2010Prop50
 90
       50
102
RTVSPost2010PropOp50
 70
     1
102
RTVSPost2010Prop51ColorIndex
 90
      256
102
RTVSPost2010Prop51ColorRGB
 90
-16777216
102
RTVSPost2010PropOp51
 70
     0
102
RTVSPost2010Prop52
140
1.0
102
RTVSPost2010PropOp52
 70
     0
102
RTVSPost2010Prop53
 90
        2
102
RTVSPost2010PropOp53
 70
     1
102
RTVSPost2010Prop54
  1
strokes_ogs.tif
102
RTVSPost2010PropOp54
 70
     1
102
RTVSPost2010Prop55
280
     0
102
RTVSPost2010PropOp55
 70
     1
102
RTVSPost2010Prop56
140
1.0
102
RTVSPost2010PropOp56
 70
     1
102
RTVSPost2010Prop57
140
1.0
102
RTVSPost2010PropOp57
 70
     1
102
RTVSPropertyOp0
 70
     1
102
RTVSPropertyOp1
 70
     1
102
RTVSPropertyOp2
 70
     1
102
RTVSPropertyOp3
 70
     1
102
RTVSPropertyOp4
 70
     1
102
RTVSPropertyOp5
 70
     1
102
RTVSPropertyOp6
 70
     1
102
RTVSPropertyOp7
 70
     1
102
RTVSPropertyOp8
 70
     1
102
RTVSPropertyOp9
 70
     1
102
RTVSPropertyOp10
 70
     1
102
RTVSPropertyOp11
 70
     1
102
RTVSPropertyOp12
 70
     1
102
RTVSPropertyOp13
 70
     1
102
RTVSPropertyOp14
 70
     1
102
RTVSPropertyOp15
 70
     1
102
RTVSPropertyOp16
 70
     1
102
RTVSPropertyOp17
 70
     1
102
RTVSPropertyOp18
 70
     1
102
RTVSPropertyOp19
 70
     1
102
RTVSPropertyOp20
 70
     1
102
RTVSPropertyOp21
 70
     1
102
RTVSPropertyOp22
 70
     1
102
RTVSPropertyOp23
 70
     1
102
RTVSPropertyOp24
 70
     1
102
RTVSPropertyOp25
 70
     1
102
RTVSPropertyOp26
 70
     1
102
RTVSPropertyOp27
 70
     1
102
RTVSPropertyOp28
 70
     1
102
RTVSPropertyOp29
 70
     1
102
RTVSPropertyOp30
 70
     1
102
RTVSPropertyOp31
 70
     1
102
RTVSPropertyOp32
 70
     1
102
RTVSPropertyOp33
 70
     1
102
RTVSPropertyOp34
 70
     1
102
RTVSPropertyOp35
 70
     1
102
RTVSPropertyOp36
 70
     1
102
RTVSPropertyOp37
 70
     1
102
RTVSPropertyOp38
 70
     1
102
RTVSPropertyOp39
 70
     1
102
RTVSPropertyOp40
 70
     1
102
RTVSPropertyOp41
 70
     1
102
RTVSPropertyOp42
 70
     1
102
RTVSPropertyOp43
 70
     1
102
RTVSPropertyOp44
 70
     1
102
RTVSPropertyOp45
 70
     1
102
RTVSPropertyOp46
 70
     1
102
RTVSPropertyOp47
 70
     1
102
RTVSPropertyOp48
 70
     1
102
RTVSPropertyOp49
 70
     1
102
RTVSPropertyOp50
 70
     1
102
RTVSPropertyOp51
 70
     0
102
RTVSPropertyOp52
 70
     0
102
RTVSPropertyOp53
 70
     1
102
RTVSPropertyOp54
 70
     1
102
RTVSPropertyOp55
 70
     1
102
RTVSPropertyOp56
 70
     1
102
RTVSPropertyOp57
 70
     1
102
RTVSPropertyOp58
 70
     1
102
RTVSPropertyOp59
 70
     1
102
RTVSPropertyOp60
 70
     1
102
RTVSPropertyOp61
 70
     1
102
RTVSPropertyOp62
 70
     1
  0
XRECORD
  5
A7B0
102
{ACAD_REACTORS
330
A7AF
102
}
330
A7AF
100
AcDbXrecord
280
     1
102
RTVSPost2010Prop28
280
     0
102
RTVSPost2010PropOp28
 70
     1
102
RTVSPost2010Prop29
280
     1
102
RTVSPost2010PropOp29
 70
     1
102
RTVSPost2010Prop30
280
     1
102
RTVSPost2010PropOp30
 70
     1
102
RTVSPost2010Prop31
280
     0
102
RTVSPost2010PropOp31
 70
     1
102
RTVSPost2010Prop32
280
     0
102
RTVSPost2010PropOp32
 70
     1
102
RTVSPost2010Prop33
280
     0
102
RTVSPost2010PropOp33
 70
     1
102
RTVSPost2010Prop34
280
     0
102
RTVSPost2010PropOp34
 70
     1
102
RTVSPost2010Prop35
280
     0
102
RTVSPost2010PropOp35
 70
     1
102
RTVSPost2010Prop36
280
     0
102
RTVSPost2010PropOp36
 70
     1
102
RTVSPost2010Prop37
 90
       50
102
RTVSPost2010PropOp37
 70
     1
102
RTVSPost2010Prop38
140
0.0
102
RTVSPost2010PropOp38
 70
     1
102
RTVSPost2010Prop39
140
1.0
102
RTVSPost2010PropOp39
 70
     1
102
RTVSPost2010Prop40
 90
        0
102
RTVSPost2010PropOp40
 70
     1
102
RTVSPost2010Prop41ColorIndex
 90
       18
102
RTVSPost2010Prop41ColorRGB
 90
        0
102
RTVSPost2010PropOp41
 70
     1
102
RTVSPost2010Prop42
 90
       50
102
RTVSPost2010PropOp42
 70
     1
102
RTVSPost2010Prop43
 90
        3
102
RTVSPost2010PropOp43
 70
     1
102
RTVSPost2010Prop44ColorIndex
 90
        5
102
RTVSPost2010Prop44ColorRGB
 90
      255
102
RTVSPost2010PropOp44
 70
     1
102
RTVSPost2010Prop45
280
     0
102
RTVSPost2010PropOp45
 70
     1
102
RTVSPost2010Prop46
 90
       50
102
RTVSPost2010PropOp46
 70
     1
102
RTVSPost2010Prop47
 90
       50
102
RTVSPost2010PropOp47
 70
     1
102
RTVSPost2010Prop48
 90
       50
102
RTVSPost2010PropOp48
 70
     1
102
RTVSPost2010Prop49
280
     0
102
RTVSPost2010PropOp49
 70
     1
102
RTVSPost2010Prop50
 90
       50
102
RTVSPost2010PropOp50
 70
     1
102
RTVSPost2010Prop51ColorIndex
 90
      256
102
RTVSPost2010Prop51ColorRGB
 90
-16777216
102
RTVSPost2010PropOp51
 70
     0
102
RTVSPost2010Prop52
140
1.0
102
RTVSPost2010PropOp52
 70
     0
102
RTVSPost2010Prop53
 90
        2
102
RTVSPost2010PropOp53
 70
     1
102
RTVSPost2010Prop54
  1
strokes_ogs.tif
102
RTVSPost2010PropOp54
 70
     1
102
RTVSPost2010Prop55
280
     0
102
RTVSPost2010PropOp55
 70
     1
102
RTVSPost2010Prop56
140
1.0
102
RTVSPost2010PropOp56
 70
     1
102
RTVSPost2010Prop57
140
1.0
102
RTVSPost2010PropOp57
 70
     1
102
RTVSPropertyOp0
 70
     1
102
RTVSPropertyOp1
 70
     1
102
RTVSPropertyOp2
 70
     1
102
RTVSPropertyOp3
 70
     1
102
RTVSPropertyOp4
 70
     1
102
RTVSPropertyOp5
 70
     1
102
RTVSPropertyOp6
 70
     1
102
RTVSPropertyOp7
 70
     1
102
RTVSPropertyOp8
 70
     1
102
RTVSPropertyOp9
 70
     1
102
RTVSPropertyOp10
 70
     1
102
RTVSPropertyOp11
 70
     1
102
RTVSPropertyOp12
 70
     1
102
RTVSPropertyOp13
 70
     1
102
RTVSPropertyOp14
 70
     1
102
RTVSPropertyOp15
 70
     1
102
RTVSPropertyOp16
 70
     1
102
RTVSPropertyOp17
 70
     1
102
RTVSPropertyOp18
 70
     1
102
RTVSPropertyOp19
 70
     1
102
RTVSPropertyOp20
 70
     1
102
RTVSPropertyOp21
 70
     1
102
RTVSPropertyOp22
 70
     1
102
RTVSPropertyOp23
 70
     1
102
RTVSPropertyOp24
 70
     1
102
RTVSPropertyOp25
 70
     1
102
RTVSPropertyOp26
 70
     1
102
RTVSPropertyOp27
 70
     1
102
RTVSPropertyOp28
 70
     1
102
RTVSPropertyOp29
 70
     1
102
RTVSPropertyOp30
 70
     1
102
RTVSPropertyOp31
 70
     1
102
RTVSPropertyOp32
 70
     1
102
RTVSPropertyOp33
 70
     1
102
RTVSPropertyOp34
 70
     1
102
RTVSPropertyOp35
 70
     1
102
RTVSPropertyOp36
 70
     1
102
RTVSPropertyOp37
 70
     1
102
RTVSPropertyOp38
 70
     1
102
RTVSPropertyOp39
 70
     1
102
RTVSPropertyOp40
 70
     1
102
RTVSPropertyOp41
 70
     1
102
RTVSPropertyOp42
 70
     1
102
RTVSPropertyOp43
 70
     1
102
RTVSPropertyOp44
 70
     1
102
RTVSPropertyOp45
 70
     1
102
RTVSPropertyOp46
 70
     1
102
RTVSPropertyOp47
 70
     1
102
RTVSPropertyOp48
 70
     1
102
RTVSPropertyOp49
 70
     1
102
RTVSPropertyOp50
 70
     1
102
RTVSPropertyOp51
 70
     0
102
RTVSPropertyOp52
 70
     0
102
RTVSPropertyOp53
 70
     1
102
RTVSPropertyOp54
 70
     1
102
RTVSPropertyOp55
 70
     1
102
RTVSPropertyOp56
 70
     1
102
RTVSPropertyOp57
 70
     1
102
RTVSPropertyOp58
 70
     1
102
RTVSPropertyOp59
 70
     1
102
RTVSPropertyOp60
 70
     1
102
RTVSPropertyOp61
 70
     1
102
RTVSPropertyOp62
 70
     1
  0
XRECORD
  5
A7B8
102
{ACAD_REACTORS
330
A7B7
102
}
330
A7B7
100
AcDbXrecord
280
     1
102
RTVSPost2010Prop28
280
     0
102
RTVSPost2010PropOp28
 70
     1
102
RTVSPost2010Prop29
280
     1
102
RTVSPost2010PropOp29
 70
     1
102
RTVSPost2010Prop30
280
     1
102
RTVSPost2010PropOp30
 70
     1
102
RTVSPost2010Prop31
280
     0
102
RTVSPost2010PropOp31
 70
     1
102
RTVSPost2010Prop32
280
     0
102
RTVSPost2010PropOp32
 70
     1
102
RTVSPost2010Prop33
280
     0
102
RTVSPost2010PropOp33
 70
     1
102
RTVSPost2010Prop34
280
     0
102
RTVSPost2010PropOp34
 70
     1
102
RTVSPost2010Prop35
280
     0
102
RTVSPost2010PropOp35
 70
     1
102
RTVSPost2010Prop36
280
     0
102
RTVSPost2010PropOp36
 70
     1
102
RTVSPost2010Prop37
 90
       50
102
RTVSPost2010PropOp37
 70
     1
102
RTVSPost2010Prop38
140
0.0
102
RTVSPost2010PropOp38
 70
     1
102
RTVSPost2010Prop39
140
1.0
102
RTVSPost2010PropOp39
 70
     1
102
RTVSPost2010Prop40
 90
        0
102
RTVSPost2010PropOp40
 70
     1
102
RTVSPost2010Prop41ColorIndex
 90
       18
102
RTVSPost2010Prop41ColorRGB
 90
        0
102
RTVSPost2010PropOp41
 70
     1
102
RTVSPost2010Prop42
 90
       50
102
RTVSPost2010PropOp42
 70
     1
102
RTVSPost2010Prop43
 90
        3
102
RTVSPost2010PropOp43
 70
     1
102
RTVSPost2010Prop44ColorIndex
 90
        5
102
RTVSPost2010Prop44ColorRGB
 90
      255
102
RTVSPost2010PropOp44
 70
     1
102
RTVSPost2010Prop45
280
     0
102
RTVSPost2010PropOp45
 70
     1
102
RTVSPost2010Prop46
 90
       50
102
RTVSPost2010PropOp46
 70
     1
102
RTVSPost2010Prop47
 90
       50
102
RTVSPost2010PropOp47
 70
     1
102
RTVSPost2010Prop48
 90
       50
102
RTVSPost2010PropOp48
 70
     1
102
RTVSPost2010Prop49
280
     0
102
RTVSPost2010PropOp49
 70
     1
102
RTVSPost2010Prop50
 90
       50
102
RTVSPost2010PropOp50
 70
     1
102
RTVSPost2010Prop51ColorIndex
 90
      256
102
RTVSPost2010Prop51ColorRGB
 90
-16777216
102
RTVSPost2010PropOp51
 70
     0
102
RTVSPost2010Prop52
140
1.0
102
RTVSPost2010PropOp52
 70
     0
102
RTVSPost2010Prop53
 90
        2
102
RTVSPost2010PropOp53
 70
     1
102
RTVSPost2010Prop54
  1
strokes_ogs.tif
102
RTVSPost2010PropOp54
 70
     1
102
RTVSPost2010Prop55
280
     0
102
RTVSPost2010PropOp55
 70
     1
102
RTVSPost2010Prop56
140
1.0
102
RTVSPost2010PropOp56
 70
     1
102
RTVSPost2010Prop57
140
1.0
102
RTVSPost2010PropOp57
 70
     1
102
RTVSPropertyOp0
 70
     1
102
RTVSPropertyOp1
 70
     1
102
RTVSPropertyOp2
 70
     1
102
RTVSPropertyOp3
 70
     1
102
RTVSPropertyOp4
 70
     1
102
RTVSPropertyOp5
 70
     1
102
RTVSPropertyOp6
 70
     1
102
RTVSPropertyOp7
 70
     1
102
RTVSPropertyOp8
 70
     1
102
RTVSPropertyOp9
 70
     1
102
RTVSPropertyOp10
 70
     1
102
RTVSPropertyOp11
 70
     1
102
RTVSPropertyOp12
 70
     1
102
RTVSPropertyOp13
 70
     1
102
RTVSPropertyOp14
 70
     1
102
RTVSPropertyOp15
 70
     1
102
RTVSPropertyOp16
 70
     1
102
RTVSPropertyOp17
 70
     1
102
RTVSPropertyOp18
 70
     1
102
RTVSPropertyOp19
 70
     1
102
RTVSPropertyOp20
 70
     1
102
RTVSPropertyOp21
 70
     1
102
RTVSPropertyOp22
 70
     1
102
RTVSPropertyOp23
 70
     1
102
RTVSPropertyOp24
 70
     1
102
RTVSPropertyOp25
 70
     1
102
RTVSPropertyOp26
 70
     1
102
RTVSPropertyOp27
 70
     1
102
RTVSPropertyOp28
 70
     1
102
RTVSPropertyOp29
 70
     1
102
RTVSPropertyOp30
 70
     1
102
RTVSPropertyOp31
 70
     1
102
RTVSPropertyOp32
 70
     1
102
RTVSPropertyOp33
 70
     1
102
RTVSPropertyOp34
 70
     1
102
RTVSPropertyOp35
 70
     1
102
RTVSPropertyOp36
 70
     1
102
RTVSPropertyOp37
 70
     1
102
RTVSPropertyOp38
 70
     1
102
RTVSPropertyOp39
 70
     1
102
RTVSPropertyOp40
 70
     1
102
RTVSPropertyOp41
 70
     1
102
RTVSPropertyOp42
 70
     1
102
RTVSPropertyOp43
 70
     1
102
RTVSPropertyOp44
 70
     1
102
RTVSPropertyOp45
 70
     1
102
RTVSPropertyOp46
 70
     1
102
RTVSPropertyOp47
 70
     1
102
RTVSPropertyOp48
 70
     1
102
RTVSPropertyOp49
 70
     1
102
RTVSPropertyOp50
 70
     1
102
RTVSPropertyOp51
 70
     0
102
RTVSPropertyOp52
 70
     0
102
RTVSPropertyOp53
 70
     1
102
RTVSPropertyOp54
 70
     1
102
RTVSPropertyOp55
 70
     1
102
RTVSPropertyOp56
 70
     1
102
RTVSPropertyOp57
 70
     1
102
RTVSPropertyOp58
 70
     1
102
RTVSPropertyOp59
 70
     1
102
RTVSPropertyOp60
 70
     1
102
RTVSPropertyOp61
 70
     1
102
RTVSPropertyOp62
 70
     1
  0
XRECORD
  5
A7D4
102
{ACAD_REACTORS
330
A7D3
102
}
330
A7D3
100
AcDbXrecord
280
     1
102
RTVSPost2010Prop28
280
     0
102
RTVSPost2010PropOp28
 70
     1
102
RTVSPost2010Prop29
280
     1
102
RTVSPost2010PropOp29
 70
     1
102
RTVSPost2010Prop30
280
     1
102
RTVSPost2010PropOp30
 70
     1
102
RTVSPost2010Prop31
280
     0
102
RTVSPost2010PropOp31
 70
     1
102
RTVSPost2010Prop32
280
     0
102
RTVSPost2010PropOp32
 70
     1
102
RTVSPost2010Prop33
280
     0
102
RTVSPost2010PropOp33
 70
     1
102
RTVSPost2010Prop34
280
     0
102
RTVSPost2010PropOp34
 70
     1
102
RTVSPost2010Prop35
280
     0
102
RTVSPost2010PropOp35
 70
     1
102
RTVSPost2010Prop36
280
     0
102
RTVSPost2010PropOp36
 70
     1
102
RTVSPost2010Prop37
 90
       50
102
RTVSPost2010PropOp37
 70
     0
102
RTVSPost2010Prop38
140
0.0
102
RTVSPost2010PropOp38
 70
     0
102
RTVSPost2010Prop39
140
1.0
102
RTVSPost2010PropOp39
 70
     0
102
RTVSPost2010Prop40
 90
        0
102
RTVSPost2010PropOp40
 70
     0
102
RTVSPost2010Prop41ColorIndex
 90
       18
102
RTVSPost2010Prop41ColorRGB
 90
        0
102
RTVSPost2010PropOp41
 70
     0
102
RTVSPost2010Prop42
 90
       50
102
RTVSPost2010PropOp42
 70
     0
102
RTVSPost2010Prop43
 90
        3
102
RTVSPost2010PropOp43
 70
     0
102
RTVSPost2010Prop44ColorIndex
 90
        5
102
RTVSPost2010Prop44ColorRGB
 90
      255
102
RTVSPost2010PropOp44
 70
     0
102
RTVSPost2010Prop45
280
     0
102
RTVSPost2010PropOp45
 70
     1
102
RTVSPost2010Prop46
 90
       50
102
RTVSPost2010PropOp46
 70
     0
102
RTVSPost2010Prop47
 90
       50
102
RTVSPost2010PropOp47
 70
     0
102
RTVSPost2010Prop48
 90
       50
102
RTVSPost2010PropOp48
 70
     0
102
RTVSPost2010Prop49
280
     0
102
RTVSPost2010PropOp49
 70
     1
102
RTVSPost2010Prop50
 90
       50
102
RTVSPost2010PropOp50
 70
     0
102
RTVSPost2010Prop51ColorIndex
 90
      256
102
RTVSPost2010Prop51ColorRGB
 90
-16777216
102
RTVSPost2010PropOp51
 70
     0
102
RTVSPost2010Prop52
140
1.0
102
RTVSPost2010PropOp52
 70
     0
102
RTVSPost2010Prop53
 90
        2
102
RTVSPost2010PropOp53
 70
     0
102
RTVSPost2010Prop54
  1
strokes_ogs.tif
102
RTVSPost2010PropOp54
 70
     0
102
RTVSPost2010Prop55
280
     0
102
RTVSPost2010PropOp55
 70
     1
102
RTVSPost2010Prop56
140
1.0
102
RTVSPost2010PropOp56
 70
     0
102
RTVSPost2010Prop57
140
1.0
102
RTVSPost2010PropOp57
 70
     0
102
RTVSPropertyOp0
 70
     0
102
RTVSPropertyOp1
 70
     0
102
RTVSPropertyOp2
 70
     0
102
RTVSPropertyOp3
 70
     0
102
RTVSPropertyOp4
 70
     0
102
RTVSPropertyOp5
 70
     0
102
RTVSPropertyOp6
 70
     0
102
RTVSPropertyOp7
 70
     0
102
RTVSPropertyOp8
 70
     0
102
RTVSPropertyOp9
 70
     0
102
RTVSPropertyOp10
 70
     0
102
RTVSPropertyOp11
 70
     0
102
RTVSPropertyOp12
 70
     0
102
RTVSPropertyOp13
 70
     0
102
RTVSPropertyOp14
 70
     2
102
RTVSPropertyOp15
 70
     0
102
RTVSPropertyOp16
 70
     0
102
RTVSPropertyOp17
 70
     0
102
RTVSPropertyOp18
 70
     0
102
RTVSPropertyOp19
 70
     0
102
RTVSPropertyOp20
 70
     0
102
RTVSPropertyOp21
 70
     0
102
RTVSPropertyOp22
 70
     0
102
RTVSPropertyOp23
 70
     0
102
RTVSPropertyOp24
 70
     0
102
RTVSPropertyOp25
 70
     0
102
RTVSPropertyOp26
 70
     0
102
RTVSPropertyOp27
 70
     0
102
RTVSPropertyOp28
 70
     1
102
RTVSPropertyOp29
 70
     1
102
RTVSPropertyOp30
 70
     1
102
RTVSPropertyOp31
 70
     1
102
RTVSPropertyOp32
 70
     1
102
RTVSPropertyOp33
 70
     1
102
RTVSPropertyOp34
 70
     1
102
RTVSPropertyOp35
 70
     1
102
RTVSPropertyOp36
 70
     1
102
RTVSPropertyOp37
 70
     0
102
RTVSPropertyOp38
 70
     0
102
RTVSPropertyOp39
 70
     0
102
RTVSPropertyOp40
 70
     0
102
RTVSPropertyOp41
 70
     0
102
RTVSPropertyOp42
 70
     0
102
RTVSPropertyOp43
 70
     0
102
RTVSPropertyOp44
 70
     0
102
RTVSPropertyOp45
 70
     1
102
RTVSPropertyOp46
 70
     0
102
RTVSPropertyOp47
 70
     0
102
RTVSPropertyOp48
 70
     0
102
RTVSPropertyOp49
 70
     1
102
RTVSPropertyOp50
 70
     0
102
RTVSPropertyOp51
 70
     0
102
RTVSPropertyOp52
 70
     0
102
RTVSPropertyOp53
 70
     0
102
RTVSPropertyOp54
 70
     0
102
RTVSPropertyOp55
 70
     1
102
RTVSPropertyOp56
 70
     0
102
RTVSPropertyOp57
 70
     0
102
RTVSPropertyOp58
 70
     0
102
RTVSPropertyOp59
 70
     0
102
RTVSPropertyOp60
 70
     0
102
RTVSPropertyOp61
 70
     0
102
RTVSPropertyOp62
 70
     0
  0
XRECORD
  5
A7C4
102
{ACAD_REACTORS
330
A7C3
102
}
330
A7C3
100
AcDbXrecord
280
     1
102
RTVSPost2010Prop28
280
     0
102
RTVSPost2010PropOp28
 70
     1
102
RTVSPost2010Prop29
280
     1
102
RTVSPost2010PropOp29
 70
     1
102
RTVSPost2010Prop30
280
     1
102
RTVSPost2010PropOp30
 70
     1
102
RTVSPost2010Prop31
280
     0
102
RTVSPost2010PropOp31
 70
     1
102
RTVSPost2010Prop32
280
     0
102
RTVSPost2010PropOp32
 70
     1
102
RTVSPost2010Prop33
280
     0
102
RTVSPost2010PropOp33
 70
     1
102
RTVSPost2010Prop34
280
     0
102
RTVSPost2010PropOp34
 70
     1
102
RTVSPost2010Prop35
280
     0
102
RTVSPost2010PropOp35
 70
     1
102
RTVSPost2010Prop36
280
     0
102
RTVSPost2010PropOp36
 70
     1
102
RTVSPost2010Prop37
 90
       50
102
RTVSPost2010PropOp37
 70
     1
102
RTVSPost2010Prop38
140
0.0
102
RTVSPost2010PropOp38
 70
     1
102
RTVSPost2010Prop39
140
1.0
102
RTVSPost2010PropOp39
 70
     1
102
RTVSPost2010Prop40
 90
        0
102
RTVSPost2010PropOp40
 70
     1
102
RTVSPost2010Prop41ColorIndex
 90
       18
102
RTVSPost2010Prop41ColorRGB
 90
        0
102
RTVSPost2010PropOp41
 70
     1
102
RTVSPost2010Prop42
 90
       50
102
RTVSPost2010PropOp42
 70
     1
102
RTVSPost2010Prop43
 90
        3
102
RTVSPost2010PropOp43
 70
     1
102
RTVSPost2010Prop44ColorIndex
 90
        5
102
RTVSPost2010Prop44ColorRGB
 90
      255
102
RTVSPost2010PropOp44
 70
     1
102
RTVSPost2010Prop45
280
     0
102
RTVSPost2010PropOp45
 70
     1
102
RTVSPost2010Prop46
 90
       50
102
RTVSPost2010PropOp46
 70
     1
102
RTVSPost2010Prop47
 90
       50
102
RTVSPost2010PropOp47
 70
     1
102
RTVSPost2010Prop48
 90
       50
102
RTVSPost2010PropOp48
 70
     1
102
RTVSPost2010Prop49
280
     0
102
RTVSPost2010PropOp49
 70
     1
102
RTVSPost2010Prop50
 90
       50
102
RTVSPost2010PropOp50
 70
     1
102
RTVSPost2010Prop51ColorIndex
 90
      256
102
RTVSPost2010Prop51ColorRGB
 90
-16777216
102
RTVSPost2010PropOp51
 70
     0
102
RTVSPost2010Prop52
140
1.0
102
RTVSPost2010PropOp52
 70
     0
102
RTVSPost2010Prop53
 90
        2
102
RTVSPost2010PropOp53
 70
     1
102
RTVSPost2010Prop54
  1
strokes_ogs.tif
102
RTVSPost2010PropOp54
 70
     1
102
RTVSPost2010Prop55
280
     0
102
RTVSPost2010PropOp55
 70
     1
102
RTVSPost2010Prop56
140
1.0
102
RTVSPost2010PropOp56
 70
     1
102
RTVSPost2010Prop57
140
1.0
102
RTVSPost2010PropOp57
 70
     1
102
RTVSPropertyOp0
 70
     1
102
RTVSPropertyOp1
 70
     1
102
RTVSPropertyOp2
 70
     1
102
RTVSPropertyOp3
 70
     1
102
RTVSPropertyOp4
 70
     1
102
RTVSPropertyOp5
 70
     1
102
RTVSPropertyOp6
 70
     1
102
RTVSPropertyOp7
 70
     1
102
RTVSPropertyOp8
 70
     1
102
RTVSPropertyOp9
 70
     1
102
RTVSPropertyOp10
 70
     1
102
RTVSPropertyOp11
 70
     1
102
RTVSPropertyOp12
 70
     1
102
RTVSPropertyOp13
 70
     1
102
RTVSPropertyOp14
 70
     1
102
RTVSPropertyOp15
 70
     1
102
RTVSPropertyOp16
 70
     1
102
RTVSPropertyOp17
 70
     1
102
RTVSPropertyOp18
 70
     1
102
RTVSPropertyOp19
 70
     1
102
RTVSPropertyOp20
 70
     1
102
RTVSPropertyOp21
 70
     1
102
RTVSPropertyOp22
 70
     1
102
RTVSPropertyOp23
 70
     1
102
RTVSPropertyOp24
 70
     1
102
RTVSPropertyOp25
 70
     1
102
RTVSPropertyOp26
 70
     1
102
RTVSPropertyOp27
 70
     1
102
RTVSPropertyOp28
 70
     1
102
RTVSPropertyOp29
 70
     1
102
RTVSPropertyOp30
 70
     1
102
RTVSPropertyOp31
 70
     1
102
RTVSPropertyOp32
 70
     1
102
RTVSPropertyOp33
 70
     1
102
RTVSPropertyOp34
 70
     1
102
RTVSPropertyOp35
 70
     1
102
RTVSPropertyOp36
 70
     1
102
RTVSPropertyOp37
 70
     1
102
RTVSPropertyOp38
 70
     1
102
RTVSPropertyOp39
 70
     1
102
RTVSPropertyOp40
 70
     1
102
RTVSPropertyOp41
 70
     1
102
RTVSPropertyOp42
 70
     1
102
RTVSPropertyOp43
 70
     1
102
RTVSPropertyOp44
 70
     1
102
RTVSPropertyOp45
 70
     1
102
RTVSPropertyOp46
 70
     1
102
RTVSPropertyOp47
 70
     1
102
RTVSPropertyOp48
 70
     1
102
RTVSPropertyOp49
 70
     1
102
RTVSPropertyOp50
 70
     1
102
RTVSPropertyOp51
 70
     0
102
RTVSPropertyOp52
 70
     0
102
RTVSPropertyOp53
 70
     1
102
RTVSPropertyOp54
 70
     1
102
RTVSPropertyOp55
 70
     1
102
RTVSPropertyOp56
 70
     1
102
RTVSPropertyOp57
 70
     1
102
RTVSPropertyOp58
 70
     1
102
RTVSPropertyOp59
 70
     1
102
RTVSPropertyOp60
 70
     1
102
RTVSPropertyOp61
 70
     1
102
RTVSPropertyOp62
 70
     1
  0
XRECORD
  5
A7D6
102
{ACAD_REACTORS
330
A7D5
102
}
330
A7D5
100
AcDbXrecord
280
     1
102
RTVSPost2010Prop28
280
     0
102
RTVSPost2010PropOp28
 70
     1
102
RTVSPost2010Prop29
280
     1
102
RTVSPost2010PropOp29
 70
     1
102
RTVSPost2010Prop30
280
     1
102
RTVSPost2010PropOp30
 70
     1
102
RTVSPost2010Prop31
280
     0
102
RTVSPost2010PropOp31
 70
     1
102
RTVSPost2010Prop32
280
     0
102
RTVSPost2010PropOp32
 70
     1
102
RTVSPost2010Prop33
280
     0
102
RTVSPost2010PropOp33
 70
     1
102
RTVSPost2010Prop34
280
     0
102
RTVSPost2010PropOp34
 70
     1
102
RTVSPost2010Prop35
280
     0
102
RTVSPost2010PropOp35
 70
     1
102
RTVSPost2010Prop36
280
     0
102
RTVSPost2010PropOp36
 70
     1
102
RTVSPost2010Prop37
 90
       50
102
RTVSPost2010PropOp37
 70
     0
102
RTVSPost2010Prop38
140
0.0
102
RTVSPost2010PropOp38
 70
     0
102
RTVSPost2010Prop39
140
1.0
102
RTVSPost2010PropOp39
 70
     0
102
RTVSPost2010Prop40
 90
        0
102
RTVSPost2010PropOp40
 70
     0
102
RTVSPost2010Prop41ColorIndex
 90
       18
102
RTVSPost2010Prop41ColorRGB
 90
        0
102
RTVSPost2010PropOp41
 70
     0
102
RTVSPost2010Prop42
 90
       50
102
RTVSPost2010PropOp42
 70
     0
102
RTVSPost2010Prop43
 90
        3
102
RTVSPost2010PropOp43
 70
     0
102
RTVSPost2010Prop44ColorIndex
 90
        5
102
RTVSPost2010Prop44ColorRGB
 90
      255
102
RTVSPost2010PropOp44
 70
     0
102
RTVSPost2010Prop45
280
     0
102
RTVSPost2010PropOp45
 70
     1
102
RTVSPost2010Prop46
 90
       50
102
RTVSPost2010PropOp46
 70
     0
102
RTVSPost2010Prop47
 90
       50
102
RTVSPost2010PropOp47
 70
     0
102
RTVSPost2010Prop48
 90
       50
102
RTVSPost2010PropOp48
 70
     0
102
RTVSPost2010Prop49
280
     0
102
RTVSPost2010PropOp49
 70
     1
102
RTVSPost2010Prop50
 90
       50
102
RTVSPost2010PropOp50
 70
     0
102
RTVSPost2010Prop51ColorIndex
 90
      256
102
RTVSPost2010Prop51ColorRGB
 90
-16777216
102
RTVSPost2010PropOp51
 70
     0
102
RTVSPost2010Prop52
140
1.0
102
RTVSPost2010PropOp52
 70
     0
102
RTVSPost2010Prop53
 90
        2
102
RTVSPost2010PropOp53
 70
     0
102
RTVSPost2010Prop54
  1
strokes_ogs.tif
102
RTVSPost2010PropOp54
 70
     0
102
RTVSPost2010Prop55
280
     0
102
RTVSPost2010PropOp55
 70
     1
102
RTVSPost2010Prop56
140
1.0
102
RTVSPost2010PropOp56
 70
     0
102
RTVSPost2010Prop57
140
1.0
102
RTVSPost2010PropOp57
 70
     0
102
RTVSPropertyOp0
 70
     0
102
RTVSPropertyOp1
 70
     0
102
RTVSPropertyOp2
 70
     0
102
RTVSPropertyOp3
 70
     0
102
RTVSPropertyOp4
 70
     0
102
RTVSPropertyOp5
 70
     0
102
RTVSPropertyOp6
 70
     0
102
RTVSPropertyOp7
 70
     0
102
RTVSPropertyOp8
 70
     0
102
RTVSPropertyOp9
 70
     0
102
RTVSPropertyOp10
 70
     0
102
RTVSPropertyOp11
 70
     0
102
RTVSPropertyOp12
 70
     0
102
RTVSPropertyOp13
 70
     0
102
RTVSPropertyOp14
 70
     2
102
RTVSPropertyOp15
 70
     0
102
RTVSPropertyOp16
 70
     0
102
RTVSPropertyOp17
 70
     0
102
RTVSPropertyOp18
 70
     0
102
RTVSPropertyOp19
 70
     0
102
RTVSPropertyOp20
 70
     0
102
RTVSPropertyOp21
 70
     0
102
RTVSPropertyOp22
 70
     0
102
RTVSPropertyOp23
 70
     0
102
RTVSPropertyOp24
 70
     0
102
RTVSPropertyOp25
 70
     0
102
RTVSPropertyOp26
 70
     0
102
RTVSPropertyOp27
 70
     0
102
RTVSPropertyOp28
 70
     1
102
RTVSPropertyOp29
 70
     1
102
RTVSPropertyOp30
 70
     1
102
RTVSPropertyOp31
 70
     1
102
RTVSPropertyOp32
 70
     1
102
RTVSPropertyOp33
 70
     1
102
RTVSPropertyOp34
 70
     1
102
RTVSPropertyOp35
 70
     1
102
RTVSPropertyOp36
 70
     1
102
RTVSPropertyOp37
 70
     0
102
RTVSPropertyOp38
 70
     0
102
RTVSPropertyOp39
 70
     0
102
RTVSPropertyOp40
 70
     0
102
RTVSPropertyOp41
 70
     0
102
RTVSPropertyOp42
 70
     0
102
RTVSPropertyOp43
 70
     0
102
RTVSPropertyOp44
 70
     0
102
RTVSPropertyOp45
 70
     1
102
RTVSPropertyOp46
 70
     0
102
RTVSPropertyOp47
 70
     0
102
RTVSPropertyOp48
 70
     0
102
RTVSPropertyOp49
 70
     1
102
RTVSPropertyOp50
 70
     0
102
RTVSPropertyOp51
 70
     0
102
RTVSPropertyOp52
 70
     0
102
RTVSPropertyOp53
 70
     0
102
RTVSPropertyOp54
 70
     0
102
RTVSPropertyOp55
 70
     1
102
RTVSPropertyOp56
 70
     0
102
RTVSPropertyOp57
 70
     0
102
RTVSPropertyOp58
 70
     0
102
RTVSPropertyOp59
 70
     0
102
RTVSPropertyOp60
 70
     0
102
RTVSPropertyOp61
 70
     0
102
RTVSPropertyOp62
 70
     0
  0
XRECORD
  5
A7BC
102
{ACAD_REACTORS
330
A7BB
102
}
330
A7BB
100
AcDbXrecord
280
     1
102
RTVSPost2010Prop28
280
     0
102
RTVSPost2010PropOp28
 70
     1
102
RTVSPost2010Prop29
280
     1
102
RTVSPost2010PropOp29
 70
     1
102
RTVSPost2010Prop30
280
     1
102
RTVSPost2010PropOp30
 70
     1
102
RTVSPost2010Prop31
280
     0
102
RTVSPost2010PropOp31
 70
     1
102
RTVSPost2010Prop32
280
     0
102
RTVSPost2010PropOp32
 70
     1
102
RTVSPost2010Prop33
280
     0
102
RTVSPost2010PropOp33
 70
     1
102
RTVSPost2010Prop34
280
     0
102
RTVSPost2010PropOp34
 70
     1
102
RTVSPost2010Prop35
280
     0
102
RTVSPost2010PropOp35
 70
     1
102
RTVSPost2010Prop36
280
     0
102
RTVSPost2010PropOp36
 70
     1
102
RTVSPost2010Prop37
 90
       50
102
RTVSPost2010PropOp37
 70
     1
102
RTVSPost2010Prop38
140
0.0
102
RTVSPost2010PropOp38
 70
     1
102
RTVSPost2010Prop39
140
1.0
102
RTVSPost2010PropOp39
 70
     1
102
RTVSPost2010Prop40
 90
        0
102
RTVSPost2010PropOp40
 70
     1
102
RTVSPost2010Prop41ColorIndex
 90
       18
102
RTVSPost2010Prop41ColorRGB
 90
        0
102
RTVSPost2010PropOp41
 70
     1
102
RTVSPost2010Prop42
 90
       50
102
RTVSPost2010PropOp42
 70
     1
102
RTVSPost2010Prop43
 90
        3
102
RTVSPost2010PropOp43
 70
     1
102
RTVSPost2010Prop44ColorIndex
 90
        5
102
RTVSPost2010Prop44ColorRGB
 90
      255
102
RTVSPost2010PropOp44
 70
     1
102
RTVSPost2010Prop45
280
     0
102
RTVSPost2010PropOp45
 70
     1
102
RTVSPost2010Prop46
 90
       50
102
RTVSPost2010PropOp46
 70
     1
102
RTVSPost2010Prop47
 90
       50
102
RTVSPost2010PropOp47
 70
     1
102
RTVSPost2010Prop48
 90
       50
102
RTVSPost2010PropOp48
 70
     1
102
RTVSPost2010Prop49
280
     0
102
RTVSPost2010PropOp49
 70
     1
102
RTVSPost2010Prop50
 90
       50
102
RTVSPost2010PropOp50
 70
     1
102
RTVSPost2010Prop51ColorIndex
 90
      256
102
RTVSPost2010Prop51ColorRGB
 90
-16777216
102
RTVSPost2010PropOp51
 70
     0
102
RTVSPost2010Prop52
140
1.0
102
RTVSPost2010PropOp52
 70
     0
102
RTVSPost2010Prop53
 90
        2
102
RTVSPost2010PropOp53
 70
     1
102
RTVSPost2010Prop54
  1
strokes_ogs.tif
102
RTVSPost2010PropOp54
 70
     1
102
RTVSPost2010Prop55
280
     0
102
RTVSPost2010PropOp55
 70
     1
102
RTVSPost2010Prop56
140
1.0
102
RTVSPost2010PropOp56
 70
     1
102
RTVSPost2010Prop57
140
1.0
102
RTVSPost2010PropOp57
 70
     1
102
RTVSPropertyOp0
 70
     1
102
RTVSPropertyOp1
 70
     1
102
RTVSPropertyOp2
 70
     1
102
RTVSPropertyOp3
 70
     1
102
RTVSPropertyOp4
 70
     1
102
RTVSPropertyOp5
 70
     1
102
RTVSPropertyOp6
 70
     1
102
RTVSPropertyOp7
 70
     1
102
RTVSPropertyOp8
 70
     1
102
RTVSPropertyOp9
 70
     1
102
RTVSPropertyOp10
 70
     1
102
RTVSPropertyOp11
 70
     1
102
RTVSPropertyOp12
 70
     1
102
RTVSPropertyOp13
 70
     1
102
RTVSPropertyOp14
 70
     1
102
RTVSPropertyOp15
 70
     1
102
RTVSPropertyOp16
 70
     1
102
RTVSPropertyOp17
 70
     1
102
RTVSPropertyOp18
 70
     1
102
RTVSPropertyOp19
 70
     1
102
RTVSPropertyOp20
 70
     1
102
RTVSPropertyOp21
 70
     1
102
RTVSPropertyOp22
 70
     1
102
RTVSPropertyOp23
 70
     1
102
RTVSPropertyOp24
 70
     1
102
RTVSPropertyOp25
 70
     1
102
RTVSPropertyOp26
 70
     1
102
RTVSPropertyOp27
 70
     1
102
RTVSPropertyOp28
 70
     1
102
RTVSPropertyOp29
 70
     1
102
RTVSPropertyOp30
 70
     1
102
RTVSPropertyOp31
 70
     1
102
RTVSPropertyOp32
 70
     1
102
RTVSPropertyOp33
 70
     1
102
RTVSPropertyOp34
 70
     1
102
RTVSPropertyOp35
 70
     1
102
RTVSPropertyOp36
 70
     1
102
RTVSPropertyOp37
 70
     1
102
RTVSPropertyOp38
 70
     1
102
RTVSPropertyOp39
 70
     1
102
RTVSPropertyOp40
 70
     1
102
RTVSPropertyOp41
 70
     1
102
RTVSPropertyOp42
 70
     1
102
RTVSPropertyOp43
 70
     1
102
RTVSPropertyOp44
 70
     1
102
RTVSPropertyOp45
 70
     1
102
RTVSPropertyOp46
 70
     1
102
RTVSPropertyOp47
 70
     1
102
RTVSPropertyOp48
 70
     1
102
RTVSPropertyOp49
 70
     1
102
RTVSPropertyOp50
 70
     1
102
RTVSPropertyOp51
 70
     0
102
RTVSPropertyOp52
 70
     0
102
RTVSPropertyOp53
 70
     1
102
RTVSPropertyOp54
 70
     1
102
RTVSPropertyOp55
 70
     1
102
RTVSPropertyOp56
 70
     1
102
RTVSPropertyOp57
 70
     1
102
RTVSPropertyOp58
 70
     1
102
RTVSPropertyOp59
 70
     1
102
RTVSPropertyOp60
 70
     1
102
RTVSPropertyOp61
 70
     1
102
RTVSPropertyOp62
 70
     1
  0
XRECORD
  5
A7D2
102
{ACAD_REACTORS
330
A7D1
102
}
330
A7D1
100
AcDbXrecord
280
     1
102
RTVSPost2010Prop28
280
     0
102
RTVSPost2010PropOp28
 70
     1
102
RTVSPost2010Prop29
280
     1
102
RTVSPost2010PropOp29
 70
     1
102
RTVSPost2010Prop30
280
     1
102
RTVSPost2010PropOp30
 70
     1
102
RTVSPost2010Prop31
280
     0
102
RTVSPost2010PropOp31
 70
     1
102
RTVSPost2010Prop32
280
     0
102
RTVSPost2010PropOp32
 70
     1
102
RTVSPost2010Prop33
280
     0
102
RTVSPost2010PropOp33
 70
     1
102
RTVSPost2010Prop34
280
     0
102
RTVSPost2010PropOp34
 70
     1
102
RTVSPost2010Prop35
280
     0
102
RTVSPost2010PropOp35
 70
     1
102
RTVSPost2010Prop36
280
     0
102
RTVSPost2010PropOp36
 70
     1
102
RTVSPost2010Prop37
 90
       50
102
RTVSPost2010PropOp37
 70
     1
102
RTVSPost2010Prop38
140
0.0
102
RTVSPost2010PropOp38
 70
     1
102
RTVSPost2010Prop39
140
1.0
102
RTVSPost2010PropOp39
 70
     1
102
RTVSPost2010Prop40
 90
        0
102
RTVSPost2010PropOp40
 70
     1
102
RTVSPost2010Prop41ColorIndex
 90
       18
102
RTVSPost2010Prop41ColorRGB
 90
        0
102
RTVSPost2010PropOp41
 70
     1
102
RTVSPost2010Prop42
 90
       50
102
RTVSPost2010PropOp42
 70
     1
102
RTVSPost2010Prop43
 90
        3
102
RTVSPost2010PropOp43
 70
     1
102
RTVSPost2010Prop44ColorIndex
 90
        5
102
RTVSPost2010Prop44ColorRGB
 90
      255
102
RTVSPost2010PropOp44
 70
     1
102
RTVSPost2010Prop45
280
     0
102
RTVSPost2010PropOp45
 70
     1
102
RTVSPost2010Prop46
 90
       50
102
RTVSPost2010PropOp46
 70
     1
102
RTVSPost2010Prop47
 90
       50
102
RTVSPost2010PropOp47
 70
     1
102
RTVSPost2010Prop48
 90
       50
102
RTVSPost2010PropOp48
 70
     1
102
RTVSPost2010Prop49
280
     0
102
RTVSPost2010PropOp49
 70
     1
102
RTVSPost2010Prop50
 90
       50
102
RTVSPost2010PropOp50
 70
     1
102
RTVSPost2010Prop51ColorIndex
 90
      256
102
RTVSPost2010Prop51ColorRGB
 90
-16777216
102
RTVSPost2010PropOp51
 70
     0
102
RTVSPost2010Prop52
140
1.0
102
RTVSPost2010PropOp52
 70
     0
102
RTVSPost2010Prop53
 90
        2
102
RTVSPost2010PropOp53
 70
     1
102
RTVSPost2010Prop54
  1
strokes_ogs.tif
102
RTVSPost2010PropOp54
 70
     1
102
RTVSPost2010Prop55
280
     0
102
RTVSPost2010PropOp55
 70
     1
102
RTVSPost2010Prop56
140
1.0
102
RTVSPost2010PropOp56
 70
     1
102
RTVSPost2010Prop57
140
1.0
102
RTVSPost2010PropOp57
 70
     1
102
RTVSPropertyOp0
 70
     1
102
RTVSPropertyOp1
 70
     1
102
RTVSPropertyOp2
 70
     1
102
RTVSPropertyOp3
 70
     1
102
RTVSPropertyOp4
 70
     1
102
RTVSPropertyOp5
 70
     1
102
RTVSPropertyOp6
 70
     1
102
RTVSPropertyOp7
 70
     1
102
RTVSPropertyOp8
 70
     1
102
RTVSPropertyOp9
 70
     1
102
RTVSPropertyOp10
 70
     1
102
RTVSPropertyOp11
 70
     1
102
RTVSPropertyOp12
 70
     1
102
RTVSPropertyOp13
 70
     1
102
RTVSPropertyOp14
 70
     1
102
RTVSPropertyOp15
 70
     1
102
RTVSPropertyOp16
 70
     1
102
RTVSPropertyOp17
 70
     1
102
RTVSPropertyOp18
 70
     1
102
RTVSPropertyOp19
 70
     1
102
RTVSPropertyOp20
 70
     1
102
RTVSPropertyOp21
 70
     1
102
RTVSPropertyOp22
 70
     1
102
RTVSPropertyOp23
 70
     1
102
RTVSPropertyOp24
 70
     1
102
RTVSPropertyOp25
 70
     1
102
RTVSPropertyOp26
 70
     1
102
RTVSPropertyOp27
 70
     1
102
RTVSPropertyOp28
 70
     1
102
RTVSPropertyOp29
 70
     1
102
RTVSPropertyOp30
 70
     1
102
RTVSPropertyOp31
 70
     1
102
RTVSPropertyOp32
 70
     1
102
RTVSPropertyOp33
 70
     1
102
RTVSPropertyOp34
 70
     1
102
RTVSPropertyOp35
 70
     1
102
RTVSPropertyOp36
 70
     1
102
RTVSPropertyOp37
 70
     1
102
RTVSPropertyOp38
 70
     1
102
RTVSPropertyOp39
 70
     1
102
RTVSPropertyOp40
 70
     1
102
RTVSPropertyOp41
 70
     1
102
RTVSPropertyOp42
 70
     1
102
RTVSPropertyOp43
 70
     1
102
RTVSPropertyOp44
 70
     1
102
RTVSPropertyOp45
 70
     1
102
RTVSPropertyOp46
 70
     1
102
RTVSPropertyOp47
 70
     1
102
RTVSPropertyOp48
 70
     1
102
RTVSPropertyOp49
 70
     1
102
RTVSPropertyOp50
 70
     1
102
RTVSPropertyOp51
 70
     0
102
RTVSPropertyOp52
 70
     0
102
RTVSPropertyOp53
 70
     1
102
RTVSPropertyOp54
 70
     1
102
RTVSPropertyOp55
 70
     1
102
RTVSPropertyOp56
 70
     1
102
RTVSPropertyOp57
 70
     1
102
RTVSPropertyOp58
 70
     1
102
RTVSPropertyOp59
 70
     1
102
RTVSPropertyOp60
 70
     1
102
RTVSPropertyOp61
 70
     1
102
RTVSPropertyOp62
 70
     1
  0
XRECORD
  5
A7D0
102
{ACAD_REACTORS
330
A7CF
102
}
330
A7CF
100
AcDbXrecord
280
     1
102
RTVSPost2010Prop28
280
     0
102
RTVSPost2010PropOp28
 70
     1
102
RTVSPost2010Prop29
280
     1
102
RTVSPost2010PropOp29
 70
     1
102
RTVSPost2010Prop30
280
     1
102
RTVSPost2010PropOp30
 70
     1
102
RTVSPost2010Prop31
280
     0
102
RTVSPost2010PropOp31
 70
     1
102
RTVSPost2010Prop32
280
     0
102
RTVSPost2010PropOp32
 70
     1
102
RTVSPost2010Prop33
280
     0
102
RTVSPost2010PropOp33
 70
     1
102
RTVSPost2010Prop34
280
     0
102
RTVSPost2010PropOp34
 70
     1
102
RTVSPost2010Prop35
280
     0
102
RTVSPost2010PropOp35
 70
     1
102
RTVSPost2010Prop36
280
     0
102
RTVSPost2010PropOp36
 70
     1
102
RTVSPost2010Prop37
 90
       50
102
RTVSPost2010PropOp37
 70
     1
102
RTVSPost2010Prop38
140
0.0
102
RTVSPost2010PropOp38
 70
     1
102
RTVSPost2010Prop39
140
1.0
102
RTVSPost2010PropOp39
 70
     1
102
RTVSPost2010Prop40
 90
        0
102
RTVSPost2010PropOp40
 70
     1
102
RTVSPost2010Prop41ColorIndex
 90
       18
102
RTVSPost2010Prop41ColorRGB
 90
        0
102
RTVSPost2010PropOp41
 70
     1
102
RTVSPost2010Prop42
 90
       50
102
RTVSPost2010PropOp42
 70
     1
102
RTVSPost2010Prop43
 90
        3
102
RTVSPost2010PropOp43
 70
     1
102
RTVSPost2010Prop44ColorIndex
 90
        5
102
RTVSPost2010Prop44ColorRGB
 90
      255
102
RTVSPost2010PropOp44
 70
     1
102
RTVSPost2010Prop45
280
     0
102
RTVSPost2010PropOp45
 70
     1
102
RTVSPost2010Prop46
 90
       50
102
RTVSPost2010PropOp46
 70
     1
102
RTVSPost2010Prop47
 90
       50
102
RTVSPost2010PropOp47
 70
     1
102
RTVSPost2010Prop48
 90
       50
102
RTVSPost2010PropOp48
 70
     1
102
RTVSPost2010Prop49
280
     0
102
RTVSPost2010PropOp49
 70
     1
102
RTVSPost2010Prop50
 90
       50
102
RTVSPost2010PropOp50
 70
     1
102
RTVSPost2010Prop51ColorIndex
 90
      256
102
RTVSPost2010Prop51ColorRGB
 90
-16777216
102
RTVSPost2010PropOp51
 70
     0
102
RTVSPost2010Prop52
140
1.0
102
RTVSPost2010PropOp52
 70
     0
102
RTVSPost2010Prop53
 90
        2
102
RTVSPost2010PropOp53
 70
     1
102
RTVSPost2010Prop54
  1
strokes_ogs.tif
102
RTVSPost2010PropOp54
 70
     1
102
RTVSPost2010Prop55
280
     0
102
RTVSPost2010PropOp55
 70
     1
102
RTVSPost2010Prop56
140
1.0
102
RTVSPost2010PropOp56
 70
     1
102
RTVSPost2010Prop57
140
1.0
102
RTVSPost2010PropOp57
 70
     1
102
RTVSPropertyOp0
 70
     1
102
RTVSPropertyOp1
 70
     1
102
RTVSPropertyOp2
 70
     1
102
RTVSPropertyOp3
 70
     1
102
RTVSPropertyOp4
 70
     1
102
RTVSPropertyOp5
 70
     1
102
RTVSPropertyOp6
 70
     1
102
RTVSPropertyOp7
 70
     1
102
RTVSPropertyOp8
 70
     1
102
RTVSPropertyOp9
 70
     1
102
RTVSPropertyOp10
 70
     1
102
RTVSPropertyOp11
 70
     1
102
RTVSPropertyOp12
 70
     1
102
RTVSPropertyOp13
 70
     1
102
RTVSPropertyOp14
 70
     1
102
RTVSPropertyOp15
 70
     1
102
RTVSPropertyOp16
 70
     1
102
RTVSPropertyOp17
 70
     1
102
RTVSPropertyOp18
 70
     1
102
RTVSPropertyOp19
 70
     1
102
RTVSPropertyOp20
 70
     1
102
RTVSPropertyOp21
 70
     1
102
RTVSPropertyOp22
 70
     1
102
RTVSPropertyOp23
 70
     1
102
RTVSPropertyOp24
 70
     1
102
RTVSPropertyOp25
 70
     1
102
RTVSPropertyOp26
 70
     1
102
RTVSPropertyOp27
 70
     1
102
RTVSPropertyOp28
 70
     1
102
RTVSPropertyOp29
 70
     1
102
RTVSPropertyOp30
 70
     1
102
RTVSPropertyOp31
 70
     1
102
RTVSPropertyOp32
 70
     1
102
RTVSPropertyOp33
 70
     1
102
RTVSPropertyOp34
 70
     1
102
RTVSPropertyOp35
 70
     1
102
RTVSPropertyOp36
 70
     1
102
RTVSPropertyOp37
 70
     1
102
RTVSPropertyOp38
 70
     1
102
RTVSPropertyOp39
 70
     1
102
RTVSPropertyOp40
 70
     1
102
RTVSPropertyOp41
 70
     1
102
RTVSPropertyOp42
 70
     1
102
RTVSPropertyOp43
 70
     1
102
RTVSPropertyOp44
 70
     1
102
RTVSPropertyOp45
 70
     1
102
RTVSPropertyOp46
 70
     1
102
RTVSPropertyOp47
 70
     1
102
RTVSPropertyOp48
 70
     1
102
RTVSPropertyOp49
 70
     1
102
RTVSPropertyOp50
 70
     1
102
RTVSPropertyOp51
 70
     0
102
RTVSPropertyOp52
 70
     0
102
RTVSPropertyOp53
 70
     1
102
RTVSPropertyOp54
 70
     1
102
RTVSPropertyOp55
 70
     1
102
RTVSPropertyOp56
 70
     1
102
RTVSPropertyOp57
 70
     1
102
RTVSPropertyOp58
 70
     1
102
RTVSPropertyOp59
 70
     1
102
RTVSPropertyOp60
 70
     1
102
RTVSPropertyOp61
 70
     1
102
RTVSPropertyOp62
 70
     1
  0
XRECORD
  5
A7CA
102
{ACAD_REACTORS
330
A7C9
102
}
330
A7C9
100
AcDbXrecord
280
     1
102
RTVSPost2010Prop28
280
     0
102
RTVSPost2010PropOp28
 70
     1
102
RTVSPost2010Prop29
280
     1
102
RTVSPost2010PropOp29
 70
     1
102
RTVSPost2010Prop30
280
     1
102
RTVSPost2010PropOp30
 70
     1
102
RTVSPost2010Prop31
280
     0
102
RTVSPost2010PropOp31
 70
     1
102
RTVSPost2010Prop32
280
     0
102
RTVSPost2010PropOp32
 70
     1
102
RTVSPost2010Prop33
280
     0
102
RTVSPost2010PropOp33
 70
     1
102
RTVSPost2010Prop34
280
     0
102
RTVSPost2010PropOp34
 70
     1
102
RTVSPost2010Prop35
280
     0
102
RTVSPost2010PropOp35
 70
     1
102
RTVSPost2010Prop36
280
     0
102
RTVSPost2010PropOp36
 70
     1
102
RTVSPost2010Prop37
 90
       50
102
RTVSPost2010PropOp37
 70
     1
102
RTVSPost2010Prop38
140
0.0
102
RTVSPost2010PropOp38
 70
     1
102
RTVSPost2010Prop39
140
1.0
102
RTVSPost2010PropOp39
 70
     1
102
RTVSPost2010Prop40
 90
        0
102
RTVSPost2010PropOp40
 70
     1
102
RTVSPost2010Prop41ColorIndex
 90
       18
102
RTVSPost2010Prop41ColorRGB
 90
        0
102
RTVSPost2010PropOp41
 70
     1
102
RTVSPost2010Prop42
 90
       50
102
RTVSPost2010PropOp42
 70
     1
102
RTVSPost2010Prop43
 90
        3
102
RTVSPost2010PropOp43
 70
     1
102
RTVSPost2010Prop44ColorIndex
 90
        5
102
RTVSPost2010Prop44ColorRGB
 90
      255
102
RTVSPost2010PropOp44
 70
     1
102
RTVSPost2010Prop45
280
     0
102
RTVSPost2010PropOp45
 70
     1
102
RTVSPost2010Prop46
 90
       50
102
RTVSPost2010PropOp46
 70
     1
102
RTVSPost2010Prop47
 90
       50
102
RTVSPost2010PropOp47
 70
     1
102
RTVSPost2010Prop48
 90
       50
102
RTVSPost2010PropOp48
 70
     1
102
RTVSPost2010Prop49
280
     0
102
RTVSPost2010PropOp49
 70
     1
102
RTVSPost2010Prop50
 90
       50
102
RTVSPost2010PropOp50
 70
     1
102
RTVSPost2010Prop51ColorIndex
 90
      256
102
RTVSPost2010Prop51ColorRGB
 90
-16777216
102
RTVSPost2010PropOp51
 70
     0
102
RTVSPost2010Prop52
140
1.0
102
RTVSPost2010PropOp52
 70
     0
102
RTVSPost2010Prop53
 90
        2
102
RTVSPost2010PropOp53
 70
     1
102
RTVSPost2010Prop54
  1
strokes_ogs.tif
102
RTVSPost2010PropOp54
 70
     1
102
RTVSPost2010Prop55
280
     0
102
RTVSPost2010PropOp55
 70
     1
102
RTVSPost2010Prop56
140
1.0
102
RTVSPost2010PropOp56
 70
     1
102
RTVSPost2010Prop57
140
1.0
102
RTVSPost2010PropOp57
 70
     1
102
RTVSPropertyOp0
 70
     1
102
RTVSPropertyOp1
 70
     1
102
RTVSPropertyOp2
 70
     1
102
RTVSPropertyOp3
 70
     1
102
RTVSPropertyOp4
 70
     1
102
RTVSPropertyOp5
 70
     1
102
RTVSPropertyOp6
 70
     1
102
RTVSPropertyOp7
 70
     1
102
RTVSPropertyOp8
 70
     1
102
RTVSPropertyOp9
 70
     1
102
RTVSPropertyOp10
 70
     1
102
RTVSPropertyOp11
 70
     1
102
RTVSPropertyOp12
 70
     1
102
RTVSPropertyOp13
 70
     1
102
RTVSPropertyOp14
 70
     1
102
RTVSPropertyOp15
 70
     1
102
RTVSPropertyOp16
 70
     1
102
RTVSPropertyOp17
 70
     1
102
RTVSPropertyOp18
 70
     1
102
RTVSPropertyOp19
 70
     1
102
RTVSPropertyOp20
 70
     1
102
RTVSPropertyOp21
 70
     1
102
RTVSPropertyOp22
 70
     1
102
RTVSPropertyOp23
 70
     1
102
RTVSPropertyOp24
 70
     1
102
RTVSPropertyOp25
 70
     1
102
RTVSPropertyOp26
 70
     1
102
RTVSPropertyOp27
 70
     1
102
RTVSPropertyOp28
 70
     1
102
RTVSPropertyOp29
 70
     1
102
RTVSPropertyOp30
 70
     1
102
RTVSPropertyOp31
 70
     1
102
RTVSPropertyOp32
 70
     1
102
RTVSPropertyOp33
 70
     1
102
RTVSPropertyOp34
 70
     1
102
RTVSPropertyOp35
 70
     1
102
RTVSPropertyOp36
 70
     1
102
RTVSPropertyOp37
 70
     1
102
RTVSPropertyOp38
 70
     1
102
RTVSPropertyOp39
 70
     1
102
RTVSPropertyOp40
 70
     1
102
RTVSPropertyOp41
 70
     1
102
RTVSPropertyOp42
 70
     1
102
RTVSPropertyOp43
 70
     1
102
RTVSPropertyOp44
 70
     1
102
RTVSPropertyOp45
 70
     1
102
RTVSPropertyOp46
 70
     1
102
RTVSPropertyOp47
 70
     1
102
RTVSPropertyOp48
 70
     1
102
RTVSPropertyOp49
 70
     1
102
RTVSPropertyOp50
 70
     1
102
RTVSPropertyOp51
 70
     0
102
RTVSPropertyOp52
 70
     0
102
RTVSPropertyOp53
 70
     1
102
RTVSPropertyOp54
 70
     1
102
RTVSPropertyOp55
 70
     1
102
RTVSPropertyOp56
 70
     1
102
RTVSPropertyOp57
 70
     1
102
RTVSPropertyOp58
 70
     1
102
RTVSPropertyOp59
 70
     1
102
RTVSPropertyOp60
 70
     1
102
RTVSPropertyOp61
 70
     1
102
RTVSPropertyOp62
 70
     1
  0
XRECORD
  5
A7CC
102
{ACAD_REACTORS
330
A7CB
102
}
330
A7CB
100
AcDbXrecord
280
     1
102
RTVSPost2010Prop28
280
     0
102
RTVSPost2010PropOp28
 70
     1
102
RTVSPost2010Prop29
280
     1
102
RTVSPost2010PropOp29
 70
     1
102
RTVSPost2010Prop30
280
     1
102
RTVSPost2010PropOp30
 70
     1
102
RTVSPost2010Prop31
280
     0
102
RTVSPost2010PropOp31
 70
     1
102
RTVSPost2010Prop32
280
     0
102
RTVSPost2010PropOp32
 70
     1
102
RTVSPost2010Prop33
280
     0
102
RTVSPost2010PropOp33
 70
     1
102
RTVSPost2010Prop34
280
     0
102
RTVSPost2010PropOp34
 70
     1
102
RTVSPost2010Prop35
280
     0
102
RTVSPost2010PropOp35
 70
     1
102
RTVSPost2010Prop36
280
     0
102
RTVSPost2010PropOp36
 70
     1
102
RTVSPost2010Prop37
 90
       50
102
RTVSPost2010PropOp37
 70
     1
102
RTVSPost2010Prop38
140
0.0
102
RTVSPost2010PropOp38
 70
     1
102
RTVSPost2010Prop39
140
1.0
102
RTVSPost2010PropOp39
 70
     1
102
RTVSPost2010Prop40
 90
        0
102
RTVSPost2010PropOp40
 70
     1
102
RTVSPost2010Prop41ColorIndex
 90
       18
102
RTVSPost2010Prop41ColorRGB
 90
        0
102
RTVSPost2010PropOp41
 70
     1
102
RTVSPost2010Prop42
 90
       50
102
RTVSPost2010PropOp42
 70
     1
102
RTVSPost2010Prop43
 90
        3
102
RTVSPost2010PropOp43
 70
     1
102
RTVSPost2010Prop44ColorIndex
 90
        5
102
RTVSPost2010Prop44ColorRGB
 90
      255
102
RTVSPost2010PropOp44
 70
     1
102
RTVSPost2010Prop45
280
     0
102
RTVSPost2010PropOp45
 70
     1
102
RTVSPost2010Prop46
 90
       50
102
RTVSPost2010PropOp46
 70
     1
102
RTVSPost2010Prop47
 90
       50
102
RTVSPost2010PropOp47
 70
     1
102
RTVSPost2010Prop48
 90
       50
102
RTVSPost2010PropOp48
 70
     1
102
RTVSPost2010Prop49
280
     0
102
RTVSPost2010PropOp49
 70
     1
102
RTVSPost2010Prop50
 90
       50
102
RTVSPost2010PropOp50
 70
     1
102
RTVSPost2010Prop51ColorIndex
 90
      256
102
RTVSPost2010Prop51ColorRGB
 90
-16777216
102
RTVSPost2010PropOp51
 70
     0
102
RTVSPost2010Prop52
140
1.0
102
RTVSPost2010PropOp52
 70
     0
102
RTVSPost2010Prop53
 90
        2
102
RTVSPost2010PropOp53
 70
     1
102
RTVSPost2010Prop54
  1
strokes_ogs.tif
102
RTVSPost2010PropOp54
 70
     1
102
RTVSPost2010Prop55
280
     0
102
RTVSPost2010PropOp55
 70
     1
102
RTVSPost2010Prop56
140
1.0
102
RTVSPost2010PropOp56
 70
     1
102
RTVSPost2010Prop57
140
1.0
102
RTVSPost2010PropOp57
 70
     1
102
RTVSPropertyOp0
 70
     1
102
RTVSPropertyOp1
 70
     1
102
RTVSPropertyOp2
 70
     1
102
RTVSPropertyOp3
 70
     1
102
RTVSPropertyOp4
 70
     1
102
RTVSPropertyOp5
 70
     1
102
RTVSPropertyOp6
 70
     1
102
RTVSPropertyOp7
 70
     1
102
RTVSPropertyOp8
 70
     1
102
RTVSPropertyOp9
 70
     1
102
RTVSPropertyOp10
 70
     1
102
RTVSPropertyOp11
 70
     1
102
RTVSPropertyOp12
 70
     1
102
RTVSPropertyOp13
 70
     1
102
RTVSPropertyOp14
 70
     1
102
RTVSPropertyOp15
 70
     1
102
RTVSPropertyOp16
 70
     1
102
RTVSPropertyOp17
 70
     1
102
RTVSPropertyOp18
 70
     1
102
RTVSPropertyOp19
 70
     1
102
RTVSPropertyOp20
 70
     1
102
RTVSPropertyOp21
 70
     1
102
RTVSPropertyOp22
 70
     1
102
RTVSPropertyOp23
 70
     1
102
RTVSPropertyOp24
 70
     1
102
RTVSPropertyOp25
 70
     1
102
RTVSPropertyOp26
 70
     1
102
RTVSPropertyOp27
 70
     1
102
RTVSPropertyOp28
 70
     1
102
RTVSPropertyOp29
 70
     1
102
RTVSPropertyOp30
 70
     1
102
RTVSPropertyOp31
 70
     1
102
RTVSPropertyOp32
 70
     1
102
RTVSPropertyOp33
 70
     1
102
RTVSPropertyOp34
 70
     1
102
RTVSPropertyOp35
 70
     1
102
RTVSPropertyOp36
 70
     1
102
RTVSPropertyOp37
 70
     1
102
RTVSPropertyOp38
 70
     1
102
RTVSPropertyOp39
 70
     1
102
RTVSPropertyOp40
 70
     1
102
RTVSPropertyOp41
 70
     1
102
RTVSPropertyOp42
 70
     1
102
RTVSPropertyOp43
 70
     1
102
RTVSPropertyOp44
 70
     1
102
RTVSPropertyOp45
 70
     1
102
RTVSPropertyOp46
 70
     1
102
RTVSPropertyOp47
 70
     1
102
RTVSPropertyOp48
 70
     1
102
RTVSPropertyOp49
 70
     1
102
RTVSPropertyOp50
 70
     1
102
RTVSPropertyOp51
 70
     0
102
RTVSPropertyOp52
 70
     0
102
RTVSPropertyOp53
 70
     1
102
RTVSPropertyOp54
 70
     1
102
RTVSPropertyOp55
 70
     1
102
RTVSPropertyOp56
 70
     1
102
RTVSPropertyOp57
 70
     1
102
RTVSPropertyOp58
 70
     1
102
RTVSPropertyOp59
 70
     1
102
RTVSPropertyOp60
 70
     1
102
RTVSPropertyOp61
 70
     1
102
RTVSPropertyOp62
 70
     1
  0
XRECORD
  5
A7C2
102
{ACAD_REACTORS
330
A7C1
102
}
330
A7C1
100
AcDbXrecord
280
     1
102
RTVSPost2010Prop28
280
     0
102
RTVSPost2010PropOp28
 70
     1
102
RTVSPost2010Prop29
280
     1
102
RTVSPost2010PropOp29
 70
     1
102
RTVSPost2010Prop30
280
     1
102
RTVSPost2010PropOp30
 70
     1
102
RTVSPost2010Prop31
280
     0
102
RTVSPost2010PropOp31
 70
     1
102
RTVSPost2010Prop32
280
     0
102
RTVSPost2010PropOp32
 70
     1
102
RTVSPost2010Prop33
280
     0
102
RTVSPost2010PropOp33
 70
     1
102
RTVSPost2010Prop34
280
     0
102
RTVSPost2010PropOp34
 70
     1
102
RTVSPost2010Prop35
280
     0
102
RTVSPost2010PropOp35
 70
     1
102
RTVSPost2010Prop36
280
     0
102
RTVSPost2010PropOp36
 70
     1
102
RTVSPost2010Prop37
 90
       50
102
RTVSPost2010PropOp37
 70
     1
102
RTVSPost2010Prop38
140
0.0
102
RTVSPost2010PropOp38
 70
     1
102
RTVSPost2010Prop39
140
1.0
102
RTVSPost2010PropOp39
 70
     1
102
RTVSPost2010Prop40
 90
        0
102
RTVSPost2010PropOp40
 70
     1
102
RTVSPost2010Prop41ColorIndex
 90
       18
102
RTVSPost2010Prop41ColorRGB
 90
        0
102
RTVSPost2010PropOp41
 70
     1
102
RTVSPost2010Prop42
 90
       50
102
RTVSPost2010PropOp42
 70
     1
102
RTVSPost2010Prop43
 90
        3
102
RTVSPost2010PropOp43
 70
     1
102
RTVSPost2010Prop44ColorIndex
 90
        5
102
RTVSPost2010Prop44ColorRGB
 90
      255
102
RTVSPost2010PropOp44
 70
     1
102
RTVSPost2010Prop45
280
     0
102
RTVSPost2010PropOp45
 70
     1
102
RTVSPost2010Prop46
 90
       50
102
RTVSPost2010PropOp46
 70
     1
102
RTVSPost2010Prop47
 90
       50
102
RTVSPost2010PropOp47
 70
     1
102
RTVSPost2010Prop48
 90
       50
102
RTVSPost2010PropOp48
 70
     1
102
RTVSPost2010Prop49
280
     0
102
RTVSPost2010PropOp49
 70
     1
102
RTVSPost2010Prop50
 90
       50
102
RTVSPost2010PropOp50
 70
     1
102
RTVSPost2010Prop51ColorIndex
 90
      256
102
RTVSPost2010Prop51ColorRGB
 90
-16777216
102
RTVSPost2010PropOp51
 70
     0
102
RTVSPost2010Prop52
140
1.0
102
RTVSPost2010PropOp52
 70
     0
102
RTVSPost2010Prop53
 90
        2
102
RTVSPost2010PropOp53
 70
     1
102
RTVSPost2010Prop54
  1
strokes_ogs.tif
102
RTVSPost2010PropOp54
 70
     1
102
RTVSPost2010Prop55
280
     0
102
RTVSPost2010PropOp55
 70
     1
102
RTVSPost2010Prop56
140
1.0
102
RTVSPost2010PropOp56
 70
     1
102
RTVSPost2010Prop57
140
1.0
102
RTVSPost2010PropOp57
 70
     1
102
RTVSPropertyOp0
 70
     1
102
RTVSPropertyOp1
 70
     1
102
RTVSPropertyOp2
 70
     1
102
RTVSPropertyOp3
 70
     1
102
RTVSPropertyOp4
 70
     1
102
RTVSPropertyOp5
 70
     1
102
RTVSPropertyOp6
 70
     1
102
RTVSPropertyOp7
 70
     1
102
RTVSPropertyOp8
 70
     1
102
RTVSPropertyOp9
 70
     1
102
RTVSPropertyOp10
 70
     1
102
RTVSPropertyOp11
 70
     1
102
RTVSPropertyOp12
 70
     1
102
RTVSPropertyOp13
 70
     1
102
RTVSPropertyOp14
 70
     1
102
RTVSPropertyOp15
 70
     1
102
RTVSPropertyOp16
 70
     1
102
RTVSPropertyOp17
 70
     1
102
RTVSPropertyOp18
 70
     1
102
RTVSPropertyOp19
 70
     1
102
RTVSPropertyOp20
 70
     1
102
RTVSPropertyOp21
 70
     1
102
RTVSPropertyOp22
 70
     1
102
RTVSPropertyOp23
 70
     1
102
RTVSPropertyOp24
 70
     1
102
RTVSPropertyOp25
 70
     1
102
RTVSPropertyOp26
 70
     1
102
RTVSPropertyOp27
 70
     1
102
RTVSPropertyOp28
 70
     1
102
RTVSPropertyOp29
 70
     1
102
RTVSPropertyOp30
 70
     1
102
RTVSPropertyOp31
 70
     1
102
RTVSPropertyOp32
 70
     1
102
RTVSPropertyOp33
 70
     1
102
RTVSPropertyOp34
 70
     1
102
RTVSPropertyOp35
 70
     1
102
RTVSPropertyOp36
 70
     1
102
RTVSPropertyOp37
 70
     1
102
RTVSPropertyOp38
 70
     1
102
RTVSPropertyOp39
 70
     1
102
RTVSPropertyOp40
 70
     1
102
RTVSPropertyOp41
 70
     1
102
RTVSPropertyOp42
 70
     1
102
RTVSPropertyOp43
 70
     1
102
RTVSPropertyOp44
 70
     1
102
RTVSPropertyOp45
 70
     1
102
RTVSPropertyOp46
 70
     1
102
RTVSPropertyOp47
 70
     1
102
RTVSPropertyOp48
 70
     1
102
RTVSPropertyOp49
 70
     1
102
RTVSPropertyOp50
 70
     1
102
RTVSPropertyOp51
 70
     0
102
RTVSPropertyOp52
 70
     0
102
RTVSPropertyOp53
 70
     1
102
RTVSPropertyOp54
 70
     1
102
RTVSPropertyOp55
 70
     1
102
RTVSPropertyOp56
 70
     1
102
RTVSPropertyOp57
 70
     1
102
RTVSPropertyOp58
 70
     1
102
RTVSPropertyOp59
 70
     1
102
RTVSPropertyOp60
 70
     1
102
RTVSPropertyOp61
 70
     1
102
RTVSPropertyOp62
 70
     1
  0
XRECORD
  5
A7B6
102
{ACAD_REACTORS
330
A7B5
102
}
330
A7B5
100
AcDbXrecord
280
     1
102
RTVSPost2010Prop28
280
     0
102
RTVSPost2010PropOp28
 70
     1
102
RTVSPost2010Prop29
280
     1
102
RTVSPost2010PropOp29
 70
     1
102
RTVSPost2010Prop30
280
     1
102
RTVSPost2010PropOp30
 70
     1
102
RTVSPost2010Prop31
280
     0
102
RTVSPost2010PropOp31
 70
     1
102
RTVSPost2010Prop32
280
     0
102
RTVSPost2010PropOp32
 70
     1
102
RTVSPost2010Prop33
280
     0
102
RTVSPost2010PropOp33
 70
     1
102
RTVSPost2010Prop34
280
     0
102
RTVSPost2010PropOp34
 70
     1
102
RTVSPost2010Prop35
280
     0
102
RTVSPost2010PropOp35
 70
     1
102
RTVSPost2010Prop36
280
     0
102
RTVSPost2010PropOp36
 70
     1
102
RTVSPost2010Prop37
 90
       50
102
RTVSPost2010PropOp37
 70
     1
102
RTVSPost2010Prop38
140
0.0
102
RTVSPost2010PropOp38
 70
     1
102
RTVSPost2010Prop39
140
1.0
102
RTVSPost2010PropOp39
 70
     1
102
RTVSPost2010Prop40
 90
        0
102
RTVSPost2010PropOp40
 70
     1
102
RTVSPost2010Prop41ColorIndex
 90
       18
102
RTVSPost2010Prop41ColorRGB
 90
        0
102
RTVSPost2010PropOp41
 70
     1
102
RTVSPost2010Prop42
 90
       50
102
RTVSPost2010PropOp42
 70
     1
102
RTVSPost2010Prop43
 90
        3
102
RTVSPost2010PropOp43
 70
     1
102
RTVSPost2010Prop44ColorIndex
 90
        5
102
RTVSPost2010Prop44ColorRGB
 90
      255
102
RTVSPost2010PropOp44
 70
     1
102
RTVSPost2010Prop45
280
     0
102
RTVSPost2010PropOp45
 70
     1
102
RTVSPost2010Prop46
 90
       50
102
RTVSPost2010PropOp46
 70
     1
102
RTVSPost2010Prop47
 90
       50
102
RTVSPost2010PropOp47
 70
     1
102
RTVSPost2010Prop48
 90
       50
102
RTVSPost2010PropOp48
 70
     1
102
RTVSPost2010Prop49
280
     0
102
RTVSPost2010PropOp49
 70
     1
102
RTVSPost2010Prop50
 90
       50
102
RTVSPost2010PropOp50
 70
     1
102
RTVSPost2010Prop51ColorIndex
 90
      256
102
RTVSPost2010Prop51ColorRGB
 90
-16777216
102
RTVSPost2010PropOp51
 70
     0
102
RTVSPost2010Prop52
140
1.0
102
RTVSPost2010PropOp52
 70
     0
102
RTVSPost2010Prop53
 90
        2
102
RTVSPost2010PropOp53
 70
     1
102
RTVSPost2010Prop54
  1
strokes_ogs.tif
102
RTVSPost2010PropOp54
 70
     1
102
RTVSPost2010Prop55
280
     0
102
RTVSPost2010PropOp55
 70
     1
102
RTVSPost2010Prop56
140
1.0
102
RTVSPost2010PropOp56
 70
     1
102
RTVSPost2010Prop57
140
1.0
102
RTVSPost2010PropOp57
 70
     1
102
RTVSPropertyOp0
 70
     1
102
RTVSPropertyOp1
 70
     1
102
RTVSPropertyOp2
 70
     1
102
RTVSPropertyOp3
 70
     1
102
RTVSPropertyOp4
 70
     1
102
RTVSPropertyOp5
 70
     1
102
RTVSPropertyOp6
 70
     1
102
RTVSPropertyOp7
 70
     1
102
RTVSPropertyOp8
 70
     1
102
RTVSPropertyOp9
 70
     1
102
RTVSPropertyOp10
 70
     1
102
RTVSPropertyOp11
 70
     1
102
RTVSPropertyOp12
 70
     1
102
RTVSPropertyOp13
 70
     1
102
RTVSPropertyOp14
 70
     1
102
RTVSPropertyOp15
 70
     1
102
RTVSPropertyOp16
 70
     1
102
RTVSPropertyOp17
 70
     1
102
RTVSPropertyOp18
 70
     1
102
RTVSPropertyOp19
 70
     1
102
RTVSPropertyOp20
 70
     1
102
RTVSPropertyOp21
 70
     1
102
RTVSPropertyOp22
 70
     1
102
RTVSPropertyOp23
 70
     1
102
RTVSPropertyOp24
 70
     1
102
RTVSPropertyOp25
 70
     1
102
RTVSPropertyOp26
 70
     1
102
RTVSPropertyOp27
 70
     1
102
RTVSPropertyOp28
 70
     1
102
RTVSPropertyOp29
 70
     1
102
RTVSPropertyOp30
 70
     1
102
RTVSPropertyOp31
 70
     1
102
RTVSPropertyOp32
 70
     1
102
RTVSPropertyOp33
 70
     1
102
RTVSPropertyOp34
 70
     1
102
RTVSPropertyOp35
 70
     1
102
RTVSPropertyOp36
 70
     1
102
RTVSPropertyOp37
 70
     1
102
RTVSPropertyOp38
 70
     1
102
RTVSPropertyOp39
 70
     1
102
RTVSPropertyOp40
 70
     1
102
RTVSPropertyOp41
 70
     1
102
RTVSPropertyOp42
 70
     1
102
RTVSPropertyOp43
 70
     1
102
RTVSPropertyOp44
 70
     1
102
RTVSPropertyOp45
 70
     1
102
RTVSPropertyOp46
 70
     1
102
RTVSPropertyOp47
 70
     1
102
RTVSPropertyOp48
 70
     1
102
RTVSPropertyOp49
 70
     1
102
RTVSPropertyOp50
 70
     1
102
RTVSPropertyOp51
 70
     0
102
RTVSPropertyOp52
 70
     0
102
RTVSPropertyOp53
 70
     1
102
RTVSPropertyOp54
 70
     1
102
RTVSPropertyOp55
 70
     1
102
RTVSPropertyOp56
 70
     1
102
RTVSPropertyOp57
 70
     1
102
RTVSPropertyOp58
 70
     1
102
RTVSPropertyOp59
 70
     1
102
RTVSPropertyOp60
 70
     1
102
RTVSPropertyOp61
 70
     1
102
RTVSPropertyOp62
 70
     1
  0
XRECORD
  5
A7CE
102
{ACAD_REACTORS
330
A7CD
102
}
330
A7CD
100
AcDbXrecord
280
     1
102
RTVSPost2010Prop28
280
     0
102
RTVSPost2010PropOp28
 70
     1
102
RTVSPost2010Prop29
280
     1
102
RTVSPost2010PropOp29
 70
     1
102
RTVSPost2010Prop30
280
     1
102
RTVSPost2010PropOp30
 70
     1
102
RTVSPost2010Prop31
280
     0
102
RTVSPost2010PropOp31
 70
     1
102
RTVSPost2010Prop32
280
     0
102
RTVSPost2010PropOp32
 70
     1
102
RTVSPost2010Prop33
280
     0
102
RTVSPost2010PropOp33
 70
     1
102
RTVSPost2010Prop34
280
     0
102
RTVSPost2010PropOp34
 70
     1
102
RTVSPost2010Prop35
280
     0
102
RTVSPost2010PropOp35
 70
     1
102
RTVSPost2010Prop36
280
     0
102
RTVSPost2010PropOp36
 70
     1
102
RTVSPost2010Prop37
 90
       50
102
RTVSPost2010PropOp37
 70
     1
102
RTVSPost2010Prop38
140
0.0
102
RTVSPost2010PropOp38
 70
     1
102
RTVSPost2010Prop39
140
1.0
102
RTVSPost2010PropOp39
 70
     1
102
RTVSPost2010Prop40
 90
        0
102
RTVSPost2010PropOp40
 70
     1
102
RTVSPost2010Prop41ColorIndex
 90
       18
102
RTVSPost2010Prop41ColorRGB
 90
        0
102
RTVSPost2010PropOp41
 70
     1
102
RTVSPost2010Prop42
 90
       50
102
RTVSPost2010PropOp42
 70
     1
102
RTVSPost2010Prop43
 90
        3
102
RTVSPost2010PropOp43
 70
     1
102
RTVSPost2010Prop44ColorIndex
 90
        5
102
RTVSPost2010Prop44ColorRGB
 90
      255
102
RTVSPost2010PropOp44
 70
     1
102
RTVSPost2010Prop45
280
     0
102
RTVSPost2010PropOp45
 70
     1
102
RTVSPost2010Prop46
 90
       50
102
RTVSPost2010PropOp46
 70
     1
102
RTVSPost2010Prop47
 90
       50
102
RTVSPost2010PropOp47
 70
     1
102
RTVSPost2010Prop48
 90
       50
102
RTVSPost2010PropOp48
 70
     1
102
RTVSPost2010Prop49
280
     0
102
RTVSPost2010PropOp49
 70
     1
102
RTVSPost2010Prop50
 90
       50
102
RTVSPost2010PropOp50
 70
     1
102
RTVSPost2010Prop51ColorIndex
 90
      256
102
RTVSPost2010Prop51ColorRGB
 90
-16777216
102
RTVSPost2010PropOp51
 70
     0
102
RTVSPost2010Prop52
140
1.0
102
RTVSPost2010PropOp52
 70
     0
102
RTVSPost2010Prop53
 90
        2
102
RTVSPost2010PropOp53
 70
     1
102
RTVSPost2010Prop54
  1
strokes_ogs.tif
102
RTVSPost2010PropOp54
 70
     1
102
RTVSPost2010Prop55
280
     0
102
RTVSPost2010PropOp55
 70
     1
102
RTVSPost2010Prop56
140
1.0
102
RTVSPost2010PropOp56
 70
     1
102
RTVSPost2010Prop57
140
1.0
102
RTVSPost2010PropOp57
 70
     1
102
RTVSPropertyOp0
 70
     1
102
RTVSPropertyOp1
 70
     1
102
RTVSPropertyOp2
 70
     1
102
RTVSPropertyOp3
 70
     1
102
RTVSPropertyOp4
 70
     1
102
RTVSPropertyOp5
 70
     1
102
RTVSPropertyOp6
 70
     1
102
RTVSPropertyOp7
 70
     1
102
RTVSPropertyOp8
 70
     1
102
RTVSPropertyOp9
 70
     1
102
RTVSPropertyOp10
 70
     1
102
RTVSPropertyOp11
 70
     1
102
RTVSPropertyOp12
 70
     1
102
RTVSPropertyOp13
 70
     1
102
RTVSPropertyOp14
 70
     1
102
RTVSPropertyOp15
 70
     1
102
RTVSPropertyOp16
 70
     1
102
RTVSPropertyOp17
 70
     1
102
RTVSPropertyOp18
 70
     1
102
RTVSPropertyOp19
 70
     1
102
RTVSPropertyOp20
 70
     1
102
RTVSPropertyOp21
 70
     1
102
RTVSPropertyOp22
 70
     1
102
RTVSPropertyOp23
 70
     1
102
RTVSPropertyOp24
 70
     1
102
RTVSPropertyOp25
 70
     1
102
RTVSPropertyOp26
 70
     1
102
RTVSPropertyOp27
 70
     1
102
RTVSPropertyOp28
 70
     1
102
RTVSPropertyOp29
 70
     1
102
RTVSPropertyOp30
 70
     1
102
RTVSPropertyOp31
 70
     1
102
RTVSPropertyOp32
 70
     1
102
RTVSPropertyOp33
 70
     1
102
RTVSPropertyOp34
 70
     1
102
RTVSPropertyOp35
 70
     1
102
RTVSPropertyOp36
 70
     1
102
RTVSPropertyOp37
 70
     1
102
RTVSPropertyOp38
 70
     1
102
RTVSPropertyOp39
 70
     1
102
RTVSPropertyOp40
 70
     1
102
RTVSPropertyOp41
 70
     1
102
RTVSPropertyOp42
 70
     1
102
RTVSPropertyOp43
 70
     1
102
RTVSPropertyOp44
 70
     1
102
RTVSPropertyOp45
 70
     1
102
RTVSPropertyOp46
 70
     1
102
RTVSPropertyOp47
 70
     1
102
RTVSPropertyOp48
 70
     1
102
RTVSPropertyOp49
 70
     1
102
RTVSPropertyOp50
 70
     1
102
RTVSPropertyOp51
 70
     0
102
RTVSPropertyOp52
 70
     0
102
RTVSPropertyOp53
 70
     1
102
RTVSPropertyOp54
 70
     1
102
RTVSPropertyOp55
 70
     1
102
RTVSPropertyOp56
 70
     1
102
RTVSPropertyOp57
 70
     1
102
RTVSPropertyOp58
 70
     1
102
RTVSPropertyOp59
 70
     1
102
RTVSPropertyOp60
 70
     1
102
RTVSPropertyOp61
 70
     1
102
RTVSPropertyOp62
 70
     1
  0
ENDSEC
  0
EOF
