  0
SECTION
  2
HEADER
  9
$ACADVER
  1
AC1015
  9
$ACADMAINTVER
 70
    20
  9
$DWGCODEPAGE
  3
ANSI_932
  9
$INSBASE
 10
0.0
 20
0.0
 30
0.0
  9
$EXTMIN
 10
10.0
 20
9.999999999999998
 30
0.0
  9
$EXTMAX
 10
385.9486319999999
 20
285.2174619999999
 30
0.0
  9
$LIMMIN
 10
0.0
 20
0.0
  9
$LIMMAX
 10
495.0
 20
341.25
  9
$ORTHOMODE
 70
     0
  9
$REGENMODE
 70
     1
  9
$FILLMODE
 70
     1
  9
$QTEXTMODE
 70
     0
  9
$MIRRTEXT
 70
     1
  9
$LTSCALE
 40
20.0
  9
$ATTMODE
 70
     1
  9
$TEXTSIZE
 40
5.0
  9
$TRACEWID
 40
1.0
  9
$TEXTSTYLE
  7
STANDARD
  9
$CLAYER
  8
0
  9
$CELTYPE
  6
BYLAYER
  9
$CECOLOR
 62
   256
  9
$CELTSCALE
 40
1.0
  9
$DISPSILH
 70
     0
  9
$DIMSCALE
 40
1.0
  9
$DIMASZ
 40
3.0
  9
$DIMEXO
 40
1.0
  9
$DIMDLI
 40
10.0
  9
$DIMRND
 40
0.0
  9
$DIMDLE
 40
0.0
  9
$DIMEXE
 40
1.0
  9
$DIMTP
 40
0.0
  9
$DIMTM
 40
0.0
  9
$DIMTXT
 40
3.2
  9
$DIMCEN
 40
0.0
  9
$DIMTSZ
 40
0.0
  9
$DIMTOL
 70
     0
  9
$DIMLIM
 70
     0
  9
$DIMTIH
 70
     0
  9
$DIMTOH
 70
     0
  9
$DIMSE1
 70
     0
  9
$DIMSE2
 70
     0
  9
$DIMTAD
 70
     3
  9
$DIMZIN
 70
     8
  9
$DIMBLK
  1

  9
$DIMASO
 70
     1
  9
$DIMSHO
 70
     1
  9
$DIMPOST
  1

  9
$DIMAPOST
  1

  9
$DIMALT
 70
     0
  9
$DIMALTD
 70
     2
  9
$DIMALTF
 40
25.4
  9
$DIMLFAC
 40
1.0
  9
$DIMTOFL
 70
     1
  9
$DIMTVP
 40
0.0
  9
$DIMTIX
 70
     0
  9
$DIMSOXD
 70
     0
  9
$DIMSAH
 70
     1
  9
$DIMBLK1
  1
OPEN
  9
$DIMBLK2
  1
OPEN
  9
$DIMSTYLE
  2
STANDARD
  9
$DIMCLRD
 70
     0
  9
$DIMCLRE
 70
     0
  9
$DIMCLRT
 70
     0
  9
$DIMTFAC
 40
1.0
  9
$DIMGAP
 40
1.0
  9
$DIMJUST
 70
     0
  9
$DIMSD1
 70
     0
  9
$DIMSD2
 70
     0
  9
$DIMTOLJ
 70
     1
  9
$DIMTZIN
 70
     0
  9
$DIMALTZ
 70
     0
  9
$DIMALTTZ
 70
     0
  9
$DIMUPT
 70
     0
  9
$DIMDEC
 70
     4
  9
$DIMTDEC
 70
     4
  9
$DIMALTU
 70
     2
  9
$DIMALTTD
 70
     2
  9
$DIMTXSTY
  7
STANDARD
  9
$DIMAUNIT
 70
     0
  9
$DIMADEC
 70
     0
  9
$DIMALTRND
 40
0.0
  9
$DIMAZIN
 70
     0
  9
$DIMDSEP
 70
    46
  9
$DIMATFIT
 70
     3
  9
$DIMFRAC
 70
     0
  9
$DIMLDRBLK
  1
OPEN
  9
$DIMLUNIT
 70
     2
  9
$DIMLWD
 70
    -2
  9
$DIMLWE
 70
    -2
  9
$DIMTMOVE
 70
     0
  9
$LUNITS
 70
     2
  9
$LUPREC
 70
     4
  9
$SKETCHINC
 40
1.0
  9
$FILLETRAD
 40
0.5
  9
$AUNITS
 70
     0
  9
$AUPREC
 70
     2
  9
$MENU
  1
.
  9
$ELEVATION
 40
0.0
  9
$PELEVATION
 40
0.0
  9
$THICKNESS
 40
0.0
  9
$LIMCHECK
 70
     0
  9
$CHAMFERA
 40
10.0
  9
$CHAMFERB
 40
10.0
  9
$CHAMFERC
 40
0.0
  9
$CHAMFERD
 40
0.0
  9
$SKPOLY
 70
     0
  9
$TDCREATE
 40
2451302.634368403
  9
$TDUCREATE
 40
2451302.259368403
  9
$TDUPDATE
 40
2457192.686562500
  9
$TDUUPDATE
 40
2457192.311562500
  9
$TDINDWG
 40
0.0000124769
  9
$TDUSRTIMER
 40
0.0000121759
  9
$USRTIMER
 70
     1
  9
$ANGBASE
 50
0.0
  9
$ANGDIR
 70
     0
  9
$PDMODE
 70
     0
  9
$PDSIZE
 40
0.0
  9
$PLINEWID
 40
0.0
  9
$SPLFRAME
 70
     0
  9
$SPLINETYPE
 70
     6
  9
$SPLINESEGS
 70
     8
  9
$HANDSEED
  5
B463
  9
$SURFTAB1
 70
     6
  9
$SURFTAB2
 70
     6
  9
$SURFTYPE
 70
     6
  9
$SURFU
 70
     6
  9
$SURFV
 70
     6
  9
$UCSBASE
  2

  9
$UCSNAME
  2

  9
$UCSORG
 10
0.0
 20
0.0
 30
0.0
  9
$UCSXDIR
 10
1.0
 20
0.0
 30
0.0
  9
$UCSYDIR
 10
0.0
 20
1.0
 30
0.0
  9
$UCSORTHOREF
  2

  9
$UCSORTHOVIEW
 70
     0
  9
$UCSORGTOP
 10
0.0
 20
0.0
 30
0.0
  9
$UCSORGBOTTOM
 10
0.0
 20
0.0
 30
0.0
  9
$UCSORGLEFT
 10
0.0
 20
0.0
 30
0.0
  9
$UCSORGRIGHT
 10
0.0
 20
0.0
 30
0.0
  9
$UCSORGFRONT
 10
0.0
 20
0.0
 30
0.0
  9
$UCSORGBACK
 10
0.0
 20
0.0
 30
0.0
  9
$PUCSBASE
  2

  9
$PUCSNAME
  2

  9
$PUCSORG
 10
0.0
 20
0.0
 30
0.0
  9
$PUCSXDIR
 10
1.0
 20
0.0
 30
0.0
  9
$PUCSYDIR
 10
0.0
 20
1.0
 30
0.0
  9
$PUCSORTHOREF
  2

  9
$PUCSORTHOVIEW
 70
     0
  9
$PUCSORGTOP
 10
0.0
 20
0.0
 30
0.0
  9
$PUCSORGBOTTOM
 10
0.0
 20
0.0
 30
0.0
  9
$PUCSORGLEFT
 10
0.0
 20
0.0
 30
0.0
  9
$PUCSORGRIGHT
 10
0.0
 20
0.0
 30
0.0
  9
$PUCSORGFRONT
 10
0.0
 20
0.0
 30
0.0
  9
$PUCSORGBACK
 10
0.0
 20
0.0
 30
0.0
  9
$USERI1
 70
     0
  9
$USERI2
 70
     0
  9
$USERI3
 70
     0
  9
$USERI4
 70
     0
  9
$USERI5
 70
     0
  9
$USERR1
 40
0.0
  9
$USERR2
 40
0.0
  9
$USERR3
 40
0.0
  9
$USERR4
 40
0.0
  9
$USERR5
 40
0.0
  9
$WORLDVIEW
 70
     1
  9
$SHADEDGE
 70
     3
  9
$SHADEDIF
 70
    70
  9
$TILEMODE
 70
     1
  9
$MAXACTVP
 70
    16
  9
$PINSBASE
 10
0.0
 20
0.0
 30
0.0
  9
$PLIMCHECK
 70
     0
  9
$PEXTMIN
 10
1.000000000000000E+20
 20
1.000000000000000E+20
 30
1.000000000000000E+20
  9
$PEXTMAX
 10
-1.000000000000000E+20
 20
-1.000000000000000E+20
 30
-1.000000000000000E+20
  9
$PLIMMIN
 10
0.0
 20
0.0
  9
$PLIMMAX
 10
420.0
 20
297.0
  9
$UNITMODE
 70
     0
  9
$VISRETAIN
 70
     0
  9
$PLINEGEN
 70
     0
  9
$PSLTSCALE
 70
     0
  9
$TREEDEPTH
 70
  3020
  9
$CMLSTYLE
  2
STANDARD
  9
$CMLJUST
 70
     0
  9
$CMLSCALE
 40
1.0
  9
$PROXYGRAPHICS
 70
     1
  9
$MEASUREMENT
 70
     0
  9
$CELWEIGHT
370
    -1
  9
$ENDCAPS
280
     0
  9
$JOINSTYLE
280
     0
  9
$LWDISPLAY
290
     0
  9
$INSUNITS
 70
     0
  9
$HYPERLINKBASE
  1

  9
$STYLESHEET
  1

  9
$XEDIT
290
     1
  9
$CEPSNTYPE
380
     0
  9
$PSTYLEMODE
290
     1
  9
$FINGERPRINTGUID
  2
{213BF447-460F-4049-986F-8115C54A8345}
  9
$VERSIONGUID
  2
{70BCE9D4-C208-45DA-A00A-1995BA684313}
  9
$EXTNAMES
290
     1
  9
$PSVPSCALE
 40
0.0
  9
$OLESTARTUP
290
     0
  0
ENDSEC
  0
SECTION
  2
CLASSES
  0
CLASS
  1
ACDBDICTIONARYWDFLT
  2
AcDbDictionaryWithDefault
  3
ObjectDBX Classes
 90
        0
280
     0
281
     0
  0
CLASS
  1
ACDBPLACEHOLDER
  2
AcDbPlaceHolder
  3
ObjectDBX Classes
 90
        0
280
     0
281
     0
  0
CLASS
  1
LAYOUT
  2
AcDbLayout
  3
ObjectDBX Classes
 90
        0
280
     0
281
     0
  0
CLASS
  1
DICTIONARYVAR
  2
AcDbDictionaryVar
  3
ObjectDBX Classes
 90
        0
280
     0
281
     0
  0
CLASS
  1
MATERIAL
  2
AcDbMaterial
  3
ObjectDBX Classes
 90
     1153
280
     0
281
     0
  0
CLASS
  1
VISUALSTYLE
  2
AcDbVisualStyle
  3
ObjectDBX Classes
 90
     4095
280
     0
281
     0
  0
CLASS
  1
TABLESTYLE
  2
AcDbTableStyle
  3
ObjectDBX Classes
 90
     4095
280
     0
281
     0
  0
CLASS
  1
SCALE
  2
AcDbScale
  3
ObjectDBX Classes
 90
     1153
280
     0
281
     0
  0
CLASS
  1
MLEADERSTYLE
  2
AcDbMLeaderStyle
  3
ACDB_MLEADERSTYLE_CLASS
 90
     4095
280
     0
281
     0
  0
CLASS
  1
ACDBSECTIONVIEWSTYLE
  2
AcDbSectionViewStyle
  3
ObjectDBX Classes
 90
     1025
280
     0
281
     0
  0
CLASS
  1
ACDBDETAILVIEWSTYLE
  2
AcDbDetailViewStyle
  3
ObjectDBX Classes
 90
     1025
280
     0
281
     0
  0
CLASS
  1
CELLSTYLEMAP
  2
AcDbCellStyleMap
  3
ObjectDBX Classes
 90
     1152
280
     0
281
     0
  0
ENDSEC
  0
SECTION
  2
TABLES
  0
TABLE
  2
VPORT
  5
AFCF
330
0
100
AcDbSymbolTable
 70
     1
  0
VPORT
  5
B3AC
330
AFCF
100
AcDbSymbolTableRecord
100
AcDbViewportTableRecord
  2
*ACTIVE
 70
     0
 10
0.0
 20
0.0
 11
1.0
 21
1.0
 12
281.3562569854974
 22
147.609787755046
 13
0.0
 23
0.0
 14
10.0
 24
10.0
 15
10.0
 25
10.0
 16
0.0
 26
0.0
 36
1.0
 17
0.0
 27
0.0
 37
0.0
 40
278.2866693215096
 41
2.35006605019815
 42
50.0
 43
0.0
 44
0.0
 50
0.0
 51
0.0
 71
     0
 72
   100
 73
     1
 74
     0
 75
     0
 76
     0
 77
     0
 78
     0
281
     0
 65
     1
110
0.0
120
0.0
130
0.0
111
1.0
121
0.0
131
0.0
112
0.0
122
1.0
132
0.0
 79
     0
146
0.0
1001
ACAD_NAV_VCDISPLAY
1070
     3
  0
ENDTAB
  0
TABLE
  2
LTYPE
  5
AFCC
330
0
100
AcDbSymbolTable
 70
     4
  0
LTYPE
  5
AFDA
330
AFCC
100
AcDbSymbolTableRecord
100
AcDbLinetypeTableRecord
  2
BYBLOCK
 70
     0
  3

 72
    65
 73
     0
 40
0.0
  0
LTYPE
  5
AFDB
330
AFCC
100
AcDbSymbolTableRecord
100
AcDbLinetypeTableRecord
  2
BYLAYER
 70
     0
  3

 72
    65
 73
     0
 40
0.0
  0
LTYPE
  5
AFDC
330
AFCC
100
AcDbSymbolTableRecord
100
AcDbLinetypeTableRecord
  2
CONTINUOUS
 70
     0
  3
Solid line
 72
    65
 73
     0
 40
0.0
  0
LTYPE
  5
AFEA
330
AFCC
100
AcDbSymbolTableRecord
100
AcDbLinetypeTableRecord
  2
DASHED
 70
     0
  3
__ __ __ __ __ __ __ __ __ __ __ __ __ __ __ __
 72
    65
 73
     2
 40
0.75
 49
0.5
 74
     0
 49
-0.25
 74
     0
  0
LTYPE
  5
AFEB
330
AFCC
100
AcDbSymbolTableRecord
100
AcDbLinetypeTableRecord
  2
CENTER
 70
     0
  3
____ _ ____ _ ____ _ ____ _ ____ _ ____ _ ____ 
 72
    65
 73
     4
 40
2.0
 49
1.25
 74
     0
 49
-0.25
 74
     0
 49
0.25
 74
     0
 49
-0.25
 74
     0
  0
LTYPE
  5
AFEC
330
AFCC
100
AcDbSymbolTableRecord
100
AcDbLinetypeTableRecord
  2
PHANTOM
 70
     0
  3
______  __  __  ______  __  __  ______  __  __ 
 72
    65
 73
     6
 40
2.5
 49
1.25
 74
     0
 49
-0.25
 74
     0
 49
0.25
 74
     0
 49
-0.25
 74
     0
 49
0.25
 74
     0
 49
-0.25
 74
     0
  0
ENDTAB
  0
TABLE
  2
LAYER
  5
AFC9
330
0
100
AcDbSymbolTable
 70
     8
  0
LAYER
  5
AFD7
102
{ACAD_XDICTIONARY
360
B407
102
}
330
AFC9
100
AcDbSymbolTableRecord
100
AcDbLayerTableRecord
  2
0
 70
     0
 62
     7
  6
CONTINUOUS
370
    -3
390
B3B5
  0
LAYER
  5
AFED
102
{ACAD_XDICTIONARY
360
B409
102
}
330
AFC9
100
AcDbSymbolTableRecord
100
AcDbLayerTableRecord
  2
4
 70
     0
 62
     1
  6
CENTER
370
    -3
390
B3B5
  0
LAYER
  5
AFEE
102
{ACAD_XDICTIONARY
360
B40B
102
}
330
AFC9
100
AcDbSymbolTableRecord
100
AcDbLayerTableRecord
  2
5
 70
     0
 62
     6
  6
PHANTOM
370
    -3
390
B3B5
  0
LAYER
  5
AFEF
102
{ACAD_XDICTIONARY
360
B40D
102
}
330
AFC9
100
AcDbSymbolTableRecord
100
AcDbLayerTableRecord
  2
1
 70
     0
 62
     7
  6
CONTINUOUS
370
    -3
390
B3B5
  0
LAYER
  5
AFF0
102
{ACAD_XDICTIONARY
360
B40F
102
}
330
AFC9
100
AcDbSymbolTableRecord
100
AcDbLayerTableRecord
  2
2
 70
     0
 62
     4
  6
CONTINUOUS
370
    -3
390
B3B5
  0
LAYER
  5
AFF1
102
{ACAD_XDICTIONARY
360
B411
102
}
330
AFC9
100
AcDbSymbolTableRecord
100
AcDbLayerTableRecord
  2
3
 70
     0
 62
     2
  6
DASHED
370
    -3
390
B3B5
  0
LAYER
  5
AFF2
102
{ACAD_XDICTIONARY
360
B413
102
}
330
AFC9
100
AcDbSymbolTableRecord
100
AcDbLayerTableRecord
  2
6
 70
     0
 62
     5
  6
CONTINUOUS
370
    -3
390
B3B5
  0
LAYER
  5
AFF3
102
{ACAD_XDICTIONARY
360
B415
102
}
330
AFC9
100
AcDbSymbolTableRecord
100
AcDbLayerTableRecord
  2
7
 70
     0
 62
     3
  6
CONTINUOUS
370
    -3
390
B3B5
  0
ENDTAB
  0
TABLE
  2
STYLE
  5
AFCA
330
0
100
AcDbSymbolTable
 70
     1
  0
STYLE
  5
AFD8
330
AFCA
100
AcDbSymbolTableRecord
100
AcDbTextStyleTableRecord
  2
STANDARD
 70
     0
 40
0.0
 41
1.0
 50
0.0
 71
     0
 42
5.0
  3
txt
  4

  0
ENDTAB
  0
TABLE
  2
VIEW
  5
AFCD
330
0
100
AcDbSymbolTable
 70
     0
  0
ENDTAB
  0
TABLE
  2
UCS
  5
AFCE
330
0
100
AcDbSymbolTable
 70
     0
  0
ENDTAB
  0
TABLE
  2
APPID
  5
AFD0
330
0
100
AcDbSymbolTable
 70
     3
  0
APPID
  5
AFD9
330
AFD0
100
AcDbSymbolTableRecord
100
AcDbRegAppTableRecord
  2
ACAD
 70
     0
  0
APPID
  5
B421
330
AFD0
100
AcDbSymbolTableRecord
100
AcDbRegAppTableRecord
  2
ACAD_NAV_VCDISPLAY
 70
     0
  0
APPID
  5
B45A
330
AFD0
100
AcDbSymbolTableRecord
100
AcDbRegAppTableRecord
  2
ACAD_MLEADERVER
 70
     0
  0
ENDTAB
  0
TABLE
  2
DIMSTYLE
  5
AFD1
330
0
100
AcDbSymbolTable
 70
     1
100
AcDbDimStyleTable
 71
     0
  0
DIMSTYLE
105
AFF5
330
AFD1
100
AcDbSymbolTableRecord
100
AcDbDimStyleTableRecord
  2
STANDARD
 70
     0
 41
3.0
 42
1.0
 43
10.0
 44
1.0
 73
     0
 74
     0
 77
     3
 78
     8
140
3.2
141
0.0
147
1.0
172
     1
173
     1
284
     8
285
     8
286
     8
340
AFD8
  0
ENDTAB
  0
TABLE
  2
BLOCK_RECORD
  5
AFC8
330
0
100
AcDbSymbolTable
 70
     1
  0
BLOCK_RECORD
  5
AFE5
102
{ACAD_XDICTIONARY
360
B3AF
102
}
330
AFC8
100
AcDbSymbolTableRecord
100
AcDbBlockTableRecord
  2
*MODEL_SPACE
340
B403
  0
BLOCK_RECORD
  5
AFE1
102
{ACAD_XDICTIONARY
360
B3AD
102
}
330
AFC8
100
AcDbSymbolTableRecord
100
AcDbBlockTableRecord
  2
*PAPER_SPACE
340
B404
  0
BLOCK_RECORD
  5
AFFD
330
AFC8
100
AcDbSymbolTableRecord
100
AcDbBlockTableRecord
  2
_OPEN
340
0
  0
ENDTAB
  0
ENDSEC
  0
SECTION
  2
BLOCKS
  0
BLOCK
  5
AFE6
330
AFE5
100
AcDbEntity
  8
0
100
AcDbBlockBegin
  2
*MODEL_SPACE
 70
     0
 10
0.0
 20
0.0
 30
0.0
  3
*MODEL_SPACE
  1

  0
ENDBLK
  5
AFE7
330
AFE5
100
AcDbEntity
  8
0
100
AcDbBlockEnd
  0
BLOCK
  5
AFE2
330
AFE1
100
AcDbEntity
 67
     1
  8
0
100
AcDbBlockBegin
  2
*PAPER_SPACE
 70
     0
 10
0.0
 20
0.0
 30
0.0
  3
*PAPER_SPACE
  1

  0
ENDBLK
  5
AFE3
330
AFE1
100
AcDbEntity
 67
     1
  8
0
100
AcDbBlockEnd
  0
BLOCK
  5
AFFE
330
AFFD
100
AcDbEntity
  8
0
100
AcDbBlockBegin
  2
_OPEN
 70
     0
 10
0.0
 20
0.0
 30
0.0
  3
_OPEN
  1

  0
LINE
  5
AFFF
330
AFFD
100
AcDbEntity
  8
0
  6
ByBlock
 62
     0
100
AcDbLine
 10
-1.0
 20
0.166667
 30
0.0
 11
0.0
 21
0.0
 31
0.0
  0
LINE
  5
B000
330
AFFD
100
AcDbEntity
  8
0
  6
ByBlock
 62
     0
100
AcDbLine
 10
0.0
 20
0.0
 30
0.0
 11
-1.0
 21
-0.166667
 31
0.0
  0
LINE
  5
B001
330
AFFD
100
AcDbEntity
  8
0
  6
ByBlock
 62
     0
100
AcDbLine
 10
0.0
 20
0.0
 30
0.0
 11
-1.0
 21
0.0
 31
0.0
  0
ENDBLK
  5
B002
330
AFFD
100
AcDbEntity
  8
0
100
AcDbBlockEnd
  0
ENDSEC
  0
SECTION
  2
ENTITIES
  0
TEXT
  5
B003
330
AFE5
100
AcDbEntity
  8
7
  6
Continuous
100
AcDbText
 10
10.0
 20
18.0
 30
0.0
 40
3.0
  1
TYPE No.103-NS
100
AcDbText
  0
TEXT
  5
B004
330
AFE5
100
AcDbEntity
  8
7
  6
Continuous
100
AcDbText
 10
10.0
 20
26.0
 30
0.0
 40
3.0
  1
CODE No.9055
100
AcDbText
  0
TEXT
  5
B005
330
AFE5
100
AcDbEntity
  8
1
  6
Continuous
100
AcDbText
 10
10.0
 20
10.0
 30
0.0
 40
1.399999999999999
  1
LAYER
100
AcDbText
  0
TEXT
  5
B006
330
AFE5
100
AcDbEntity
  8
1
  6
Continuous
100
AcDbText
 10
17.97951099999998
 20
10.04873699999998
 30
0.0
 40
1.399999999999999
  1
1
100
AcDbText
  0
TEXT
  5
B007
330
AFE5
100
AcDbEntity
  8
7
  6
Continuous
100
AcDbText
 10
29.97951099999999
 20
10.04873699999998
 30
0.0
 40
1.399999999999999
  1
7
100
AcDbText
  0
TEXT
  5
B008
330
AFE5
100
AcDbEntity
  8
4
  6
CENTER
100
AcDbText
 10
23.97951099999999
 20
10.04873699999998
 30
0.0
 40
1.399999999999999
  1
4
100
AcDbText
  0
TEXT
  5
B009
330
AFE5
100
AcDbEntity
  8
3
  6
DASHED
100
AcDbText
 10
21.979511
 20
10.04873699999998
 30
0.0
 40
1.399999999999999
  1
3
100
AcDbText
  0
TEXT
  5
B00A
330
AFE5
100
AcDbEntity
  8
2
  6
Continuous
100
AcDbText
 10
19.97951099999999
 20
10.04873699999998
 30
0.0
 40
1.399999999999999
  1
2
100
AcDbText
  0
TEXT
  5
B00B
330
AFE5
100
AcDbEntity
  8
6
  6
Continuous
100
AcDbText
 10
27.979511
 20
10.04873699999998
 30
0.0
 40
1.399999999999999
  1
6
100
AcDbText
  0
TEXT
  5
B00C
330
AFE5
100
AcDbEntity
  8
5
  6
PHANTOM
100
AcDbText
 10
25.97951099999999
 20
10.04873699999998
 30
0.0
 40
1.399999999999999
  1
5
100
AcDbText
  0
LINE
  5
B00D
330
AFE5
100
AcDbEntity
  8
1
  6
Continuous
100
AcDbLine
 10
179.6646189999999
 20
238.217462
 30
0.0
 11
124.6646189999998
 21
238.217462
 31
0.0
  0
LINE
  5
B00E
330
AFE5
100
AcDbEntity
  8
1
  6
Continuous
100
AcDbLine
 10
122.1646189999999
 20
240.717462
 30
0.0
 11
122.1646189999999
 21
277.717462
 31
0.0
  0
LINE
  5
B00F
330
AFE5
100
AcDbEntity
  8
1
  6
Continuous
100
AcDbLine
 10
124.6646189999998
 20
280.217462
 30
0.0
 11
179.6646189999999
 21
280.217462
 31
0.0
  0
LINE
  5
B010
330
AFE5
100
AcDbEntity
  8
1
  6
Continuous
100
AcDbLine
 10
182.1646189999999
 20
277.717462
 30
0.0
 11
182.1646189999999
 21
240.717462
 31
0.0
  0
CIRCLE
  5
B011
330
AFE5
100
AcDbEntity
  8
1
  6
Continuous
100
AcDbCircle
 10
152.164619
 20
259.217462
 30
0.0
 40
8.5
  0
CIRCLE
  5
B012
330
AFE5
100
AcDbEntity
  8
1
  6
Continuous
100
AcDbCircle
 10
175.6646189999999
 20
273.717462
 30
0.0
 40
3.25
  0
CIRCLE
  5
B013
330
AFE5
100
AcDbEntity
  8
1
  6
Continuous
100
AcDbCircle
 10
175.6646189999999
 20
244.717462
 30
0.0
 40
3.25
  0
CIRCLE
  5
B014
330
AFE5
100
AcDbEntity
  8
1
  6
Continuous
100
AcDbCircle
 10
128.6646189999999
 20
244.717462
 30
0.0
 40
3.25
  0
CIRCLE
  5
B015
330
AFE5
100
AcDbEntity
  8
1
  6
Continuous
100
AcDbCircle
 10
128.6646189999999
 20
273.717462
 30
0.0
 40
3.25
  0
ARC
  5
B016
330
AFE5
100
AcDbEntity
  8
1
  6
Continuous
100
AcDbCircle
 10
179.6646189999999
 20
277.717462
 30
0.0
 40
2.5
100
AcDbArc
 50
0.0
 51
90.0
  0
ARC
  5
B017
330
AFE5
100
AcDbEntity
  8
1
  6
Continuous
100
AcDbCircle
 10
179.6646189999999
 20
240.717462
 30
0.0
 40
2.5
100
AcDbArc
 50
270.0
 51
0.0
  0
ARC
  5
B018
330
AFE5
100
AcDbEntity
  8
1
  6
Continuous
100
AcDbCircle
 10
124.6646189999998
 20
277.717462
 30
0.0
 40
2.5
100
AcDbArc
 50
90.0
 51
180.0
  0
ARC
  5
B019
330
AFE5
100
AcDbEntity
  8
1
  6
Continuous
100
AcDbCircle
 10
124.6646189999998
 20
240.717462
 30
0.0
 40
2.5
100
AcDbArc
 50
180.0
 51
270.0
  0
LINE
  5
B01A
330
AFE5
100
AcDbEntity
  8
1
  6
Continuous
100
AcDbLine
 10
263.2132029999999
 20
186.8011789999999
 30
0.0
 11
263.2132029999999
 21
166.401179
 31
0.0
  0
ARC
  5
B01B
330
AFE5
100
AcDbEntity
  8
1
  6
Continuous
100
AcDbCircle
 10
228.5132029999998
 20
186.8011789999999
 30
0.0
 40
3.0
100
AcDbArc
 50
90.0
 51
180.0
  0
ARC
  5
B01C
330
AFE5
100
AcDbEntity
  8
1
  6
Continuous
100
AcDbCircle
 10
260.2132029999999
 20
186.8011789999999
 30
0.0
 40
3.0
100
AcDbArc
 50
0.0
 51
90.0
  0
LINE
  5
B01D
330
AFE5
100
AcDbEntity
  8
1
  6
Continuous
100
AcDbLine
 10
228.1362479999998
 20
193.145533
 30
0.0
 11
260.5899609999998
 21
193.145533
 31
0.0
  0
ARC
  5
B01E
330
AFE5
100
AcDbEntity
  8
1
  6
Continuous
100
AcDbCircle
 10
228.1362479999998
 20
196.324106
 30
0.0
 40
3.178573
100
AcDbArc
 50
236.7899089999999
 51
270.0
  0
LINE
  5
B01F
330
AFE5
100
AcDbEntity
  8
1
  6
Continuous
100
AcDbLine
 10
224.5976069999999
 20
194.865533
 30
0.0
 11
224.4094409999999
 21
195.113571
 31
0.0
  0
LINE
  5
B020
330
AFE5
100
AcDbEntity
  8
1
  6
Continuous
100
AcDbLine
 10
223.3632029999998
 20
197.1135329999999
 30
0.0
 11
265.363203
 21
197.1135329999999
 31
0.0
  0
ARC
  5
B021
330
AFE5
100
AcDbEntity
  8
1
  6
Continuous
100
AcDbCircle
 10
290.1340339999998
 20
291.0302449999999
 30
0.0
 40
116.3729999999999
100
AcDbArc
 50
235.7254979999999
 51
236.7899089999999
  0
ARC
  5
B022
330
AFE5
100
AcDbEntity
  8
1
  6
Continuous
100
AcDbCircle
 10
230.6688359999998
 20
192.7040129999998
 30
0.0
 40
2.371570999999998
100
AcDbArc
 50
188.020211
 51
218.050809
  0
ARC
  5
B023
330
AFE5
100
AcDbEntity
  8
1
  6
Continuous
100
AcDbCircle
 10
229.350973
 20
191.991802
 30
0.0
 40
1.098799999999998
100
AcDbArc
 50
121.214655
 51
159.693839
  0
LINE
  5
B024
330
AFE5
100
AcDbEntity
  8
1
  6
Continuous
100
AcDbLine
 10
228.1131039999999
 20
189.801237
 30
0.0
 11
260.613104
 21
189.801043
 31
0.0
  0
LINE
  5
B025
330
AFE5
100
AcDbEntity
  8
1
  6
Continuous
100
AcDbLine
 10
223.3632029999998
 20
195.113571
 30
0.0
 11
265.363203
 21
195.113571
 31
0.0
  0
LINE
  5
B026
330
AFE5
100
AcDbEntity
  8
1
  6
Continuous
100
AcDbLine
 10
260.613104
 20
191.2421929999999
 30
0.0
 11
228.1131039999999
 21
191.242273
 31
0.0
  0
LINE
  5
B027
330
AFE5
100
AcDbEntity
  8
1
  6
Continuous
100
AcDbLine
 10
228.1131039999999
 20
191.242233
 30
0.0
 11
228.1131039999999
 21
189.801237
 31
0.0
  0
LINE
  5
B028
330
AFE5
100
AcDbEntity
  8
1
  6
Continuous
100
AcDbLine
 10
228.781524
 20
192.93153
 30
0.0
 11
229.1346809999998
 21
193.145533
 31
0.0
  0
ARC
  5
B029
330
AFE5
100
AcDbEntity
  8
1
  6
Continuous
100
AcDbCircle
 10
260.5899609999998
 20
196.324106
 30
0.0
 40
3.178573
100
AcDbArc
 50
270.0
 51
303.210091
  0
LINE
  5
B02A
330
AFE5
100
AcDbEntity
  8
1
  6
Continuous
100
AcDbLine
 10
264.1286009999999
 20
194.865533
 30
0.0
 11
264.316768
 21
195.113571
 31
0.0
  0
ARC
  5
B02B
330
AFE5
100
AcDbEntity
  8
1
  6
Continuous
100
AcDbCircle
 10
198.592174
 20
291.0302449999999
 30
0.0
 40
116.3729999999999
100
AcDbArc
 50
303.210091
 51
304.2745019999999
  0
ARC
  5
B02C
330
AFE5
100
AcDbEntity
  8
1
  6
Continuous
100
AcDbCircle
 10
258.0573719999999
 20
192.7040129999998
 30
0.0
 40
2.371570999999998
100
AcDbArc
 50
321.9491909999999
 51
351.9797889999999
  0
ARC
  5
B02D
330
AFE5
100
AcDbEntity
  8
1
  6
Continuous
100
AcDbCircle
 10
259.3752359999999
 20
191.991802
 30
0.0
 40
1.098799999999998
100
AcDbArc
 50
20.306161
 51
58.785345
  0
LINE
  5
B02E
330
AFE5
100
AcDbEntity
  8
1
  6
Continuous
100
AcDbLine
 10
260.613104
 20
191.242233
 30
0.0
 11
260.613104
 21
189.801237
 31
0.0
  0
LINE
  5
B02F
330
AFE5
100
AcDbEntity
  8
1
  6
Continuous
100
AcDbLine
 10
259.944684
 20
192.93153
 30
0.0
 11
259.5915279999999
 21
193.145533
 31
0.0
  0
LINE
  5
B030
330
AFE5
100
AcDbEntity
  8
1
  6
Continuous
100
AcDbLine
 10
223.3632029999998
 20
197.1135329999999
 30
0.0
 11
223.3632029999998
 21
195.113571
 31
0.0
  0
LINE
  5
B031
330
AFE5
100
AcDbEntity
  8
1
  6
Continuous
100
AcDbLine
 10
265.363203
 20
197.1135329999999
 30
0.0
 11
265.363203
 21
195.113571
 31
0.0
  0
LINE
  5
B032
330
AFE5
100
AcDbEntity
  8
1
  6
Continuous
100
AcDbLine
 10
231.1158789999999
 20
183.097428
 30
0.0
 11
257.6105279999998
 21
183.097428
 31
0.0
  0
ARC
  5
B033
330
AFE5
100
AcDbEntity
  8
1
  6
Continuous
100
AcDbCircle
 10
257.6105279999998
 20
179.1487379999999
 30
0.0
 40
3.94869
100
AcDbArc
 50
33.136856
 51
90.0
  0
ARC
  5
B034
330
AFE5
100
AcDbEntity
  8
1
  6
Continuous
100
AcDbCircle
 10
249.094448
 20
173.5893659999999
 30
0.0
 40
14.11875499999999
100
AcDbArc
 50
0.0
 51
33.136856
  0
ARC
  5
B035
330
AFE5
100
AcDbEntity
  8
1
  6
Continuous
100
AcDbCircle
 10
247.9536839999999
 20
173.5058109999999
 30
0.0
 40
13.262575
100
AcDbArc
 50
4.189117999999997
 51
46.32007700000001
  0
ARC
  5
B036
330
AFE5
100
AcDbEntity
  8
1
  6
Continuous
100
AcDbCircle
 10
231.1158789999999
 20
179.1487379999999
 30
0.0
 40
3.94869
100
AcDbArc
 50
90.0
 51
146.863144
  0
ARC
  5
B037
330
AFE5
100
AcDbEntity
  8
1
  6
Continuous
100
AcDbCircle
 10
239.631959
 20
173.5893659999999
 30
0.0
 40
14.11875499999999
100
AcDbArc
 50
146.863144
 51
180.0
  0
CIRCLE
  5
B038
330
AFE5
100
AcDbEntity
  8
1
  6
Continuous
100
AcDbCircle
 10
152.164619
 20
259.217462
 30
0.0
 40
16.89999999999999
  0
CIRCLE
  5
B039
330
AFE5
100
AcDbEntity
  8
1
  6
Continuous
100
AcDbCircle
 10
152.164619
 20
259.217462
 30
0.0
 40
15.25
  0
LINE
  5
B03A
330
AFE5
100
AcDbEntity
  8
1
  6
Continuous
100
AcDbLine
 10
231.8632029999999
 20
160.1130379999998
 30
0.0
 11
232.6132029999999
 21
160.1130379999998
 31
0.0
  0
LINE
  5
B03B
330
AFE5
100
AcDbEntity
  8
1
  6
Continuous
100
AcDbLine
 10
256.113203
 20
160.1130379999998
 30
0.0
 11
256.8632029999998
 21
160.1130379999998
 31
0.0
  0
LINE
  5
B03C
330
AFE5
100
AcDbEntity
  8
1
  6
Continuous
100
AcDbLine
 10
231.8632029999999
 20
154.113038
 30
0.0
 11
232.6132029999999
 21
154.113038
 31
0.0
  0
LINE
  5
B03D
330
AFE5
100
AcDbEntity
  8
1
  6
Continuous
100
AcDbLine
 10
256.113203
 20
154.113038
 30
0.0
 11
256.8632029999998
 21
154.113038
 31
0.0
  0
LINE
  5
B03E
330
AFE5
100
AcDbEntity
  8
1
  6
Continuous
100
AcDbLine
 10
229.1131029999998
 20
191.242233
 30
0.0
 11
228.1131039999999
 21
190.2422349999999
 31
0.0
  0
LINE
  5
B03F
330
AFE5
100
AcDbEntity
  8
1
  6
Continuous
100
AcDbLine
 10
230.527316
 20
191.242233
 30
0.0
 11
228.52732
 21
189.801237
 31
0.0
  0
LINE
  5
B040
330
AFE5
100
AcDbEntity
  8
1
  6
Continuous
100
AcDbLine
 10
231.9415299999998
 20
191.242233
 30
0.0
 11
229.9415329999999
 21
189.801237
 31
0.0
  0
LINE
  5
B041
330
AFE5
100
AcDbEntity
  8
1
  6
Continuous
100
AcDbLine
 10
233.3557429999999
 20
191.242233
 30
0.0
 11
231.355747
 21
189.801237
 31
0.0
  0
LINE
  5
B042
330
AFE5
100
AcDbEntity
  8
1
  6
Continuous
100
AcDbLine
 10
234.7699569999999
 20
191.242233
 30
0.0
 11
232.7699599999998
 21
189.801237
 31
0.0
  0
LINE
  5
B043
330
AFE5
100
AcDbEntity
  8
1
  6
Continuous
100
AcDbLine
 10
236.1841699999999
 20
191.242233
 30
0.0
 11
234.184174
 21
189.801237
 31
0.0
  0
LINE
  5
B044
330
AFE5
100
AcDbEntity
  8
1
  6
Continuous
100
AcDbLine
 10
237.5983839999999
 20
191.242233
 30
0.0
 11
235.598387
 21
189.801237
 31
0.0
  0
LINE
  5
B045
330
AFE5
100
AcDbEntity
  8
1
  6
Continuous
100
AcDbLine
 10
239.012597
 20
191.242233
 30
0.0
 11
237.0126009999999
 21
189.801237
 31
0.0
  0
LINE
  5
B046
330
AFE5
100
AcDbEntity
  8
1
  6
Continuous
100
AcDbLine
 10
240.4268109999999
 20
191.242233
 30
0.0
 11
238.426815
 21
189.801237
 31
0.0
  0
LINE
  5
B047
330
AFE5
100
AcDbEntity
  8
1
  6
Continuous
100
AcDbLine
 10
241.8410249999999
 20
191.242233
 30
0.0
 11
239.8410279999999
 21
189.801237
 31
0.0
  0
LINE
  5
B048
330
AFE5
100
AcDbEntity
  8
1
  6
Continuous
100
AcDbLine
 10
243.255238
 20
191.242233
 30
0.0
 11
241.2552419999999
 21
189.801237
 31
0.0
  0
LINE
  5
B049
330
AFE5
100
AcDbEntity
  8
1
  6
Continuous
100
AcDbLine
 10
244.669452
 20
191.242233
 30
0.0
 11
242.6694549999999
 21
189.801237
 31
0.0
  0
LINE
  5
B04A
330
AFE5
100
AcDbEntity
  8
1
  6
Continuous
100
AcDbLine
 10
246.083665
 20
191.242233
 30
0.0
 11
244.0836689999999
 21
189.801237
 31
0.0
  0
LINE
  5
B04B
330
AFE5
100
AcDbEntity
  8
1
  6
Continuous
100
AcDbLine
 10
247.497879
 20
191.242233
 30
0.0
 11
245.497882
 21
189.801237
 31
0.0
  0
LINE
  5
B04C
330
AFE5
100
AcDbEntity
  8
1
  6
Continuous
100
AcDbLine
 10
248.9120919999999
 20
191.242233
 30
0.0
 11
246.912096
 21
189.801237
 31
0.0
  0
LINE
  5
B04D
330
AFE5
100
AcDbEntity
  8
1
  6
Continuous
100
AcDbLine
 10
250.326306
 20
191.242233
 30
0.0
 11
248.32631
 21
189.801237
 31
0.0
  0
LINE
  5
B04E
330
AFE5
100
AcDbEntity
  8
1
  6
Continuous
100
AcDbLine
 10
251.74052
 20
191.242233
 30
0.0
 11
249.740523
 21
189.801237
 31
0.0
  0
LINE
  5
B04F
330
AFE5
100
AcDbEntity
  8
1
  6
Continuous
100
AcDbLine
 10
253.1547329999999
 20
191.242233
 30
0.0
 11
251.154737
 21
189.801237
 31
0.0
  0
LINE
  5
B050
330
AFE5
100
AcDbEntity
  8
1
  6
Continuous
100
AcDbLine
 10
254.568947
 20
191.242233
 30
0.0
 11
252.5689499999999
 21
189.801237
 31
0.0
  0
LINE
  5
B051
330
AFE5
100
AcDbEntity
  8
1
  6
Continuous
100
AcDbLine
 10
255.9831599999998
 20
191.242233
 30
0.0
 11
253.983164
 21
189.801237
 31
0.0
  0
LINE
  5
B052
330
AFE5
100
AcDbEntity
  8
1
  6
Continuous
100
AcDbLine
 10
257.397374
 20
191.242233
 30
0.0
 11
255.397377
 21
189.801237
 31
0.0
  0
LINE
  5
B053
330
AFE5
100
AcDbEntity
  8
1
  6
Continuous
100
AcDbLine
 10
258.8115869999999
 20
191.242233
 30
0.0
 11
256.811591
 21
189.801237
 31
0.0
  0
LINE
  5
B054
330
AFE5
100
AcDbEntity
  8
1
  6
Continuous
100
AcDbLine
 10
260.2258009999999
 20
191.242233
 30
0.0
 11
258.2258039999999
 21
189.801237
 31
0.0
  0
LINE
  5
B055
330
AFE5
100
AcDbEntity
  8
1
  6
Continuous
100
AcDbLine
 10
260.613104
 20
190.215323
 30
0.0
 11
259.6400179999998
 21
189.801237
 31
0.0
  0
LINE
  5
B056
330
AFE5
100
AcDbEntity
  8
1
  6
Continuous
100
AcDbLine
 10
229.1131029999998
 20
189.801237
 30
0.0
 11
228.1131039999999
 21
190.2422349999999
 31
0.0
  0
LINE
  5
B057
330
AFE5
100
AcDbEntity
  8
1
  6
Continuous
100
AcDbLine
 10
229.9415329999999
 20
191.242233
 30
0.0
 11
231.9415299999998
 21
189.801237
 31
0.0
  0
LINE
  5
B058
330
AFE5
100
AcDbEntity
  8
1
  6
Continuous
100
AcDbLine
 10
232.7699599999998
 20
191.242233
 30
0.0
 11
234.7699569999999
 21
189.801237
 31
0.0
  0
LINE
  5
B059
330
AFE5
100
AcDbEntity
  8
1
  6
Continuous
100
AcDbLine
 10
235.598387
 20
191.242233
 30
0.0
 11
237.5983839999999
 21
189.801237
 31
0.0
  0
LINE
  5
B05A
330
AFE5
100
AcDbEntity
  8
1
  6
Continuous
100
AcDbLine
 10
238.426815
 20
191.242233
 30
0.0
 11
240.4268109999999
 21
189.801237
 31
0.0
  0
LINE
  5
B05B
330
AFE5
100
AcDbEntity
  8
1
  6
Continuous
100
AcDbLine
 10
241.2552419999999
 20
191.242233
 30
0.0
 11
243.255238
 21
189.801237
 31
0.0
  0
LINE
  5
B05C
330
AFE5
100
AcDbEntity
  8
1
  6
Continuous
100
AcDbLine
 10
244.0836689999999
 20
191.242233
 30
0.0
 11
246.083665
 21
189.801237
 31
0.0
  0
LINE
  5
B05D
330
AFE5
100
AcDbEntity
  8
1
  6
Continuous
100
AcDbLine
 10
246.912096
 20
191.242233
 30
0.0
 11
248.9120919999999
 21
189.801237
 31
0.0
  0
LINE
  5
B05E
330
AFE5
100
AcDbEntity
  8
1
  6
Continuous
100
AcDbLine
 10
249.740523
 20
191.242233
 30
0.0
 11
251.74052
 21
189.801237
 31
0.0
  0
LINE
  5
B05F
330
AFE5
100
AcDbEntity
  8
1
  6
Continuous
100
AcDbLine
 10
252.5689499999999
 20
191.242233
 30
0.0
 11
254.568947
 21
189.801237
 31
0.0
  0
LINE
  5
B060
330
AFE5
100
AcDbEntity
  8
1
  6
Continuous
100
AcDbLine
 10
255.397377
 20
191.242233
 30
0.0
 11
257.397374
 21
189.801237
 31
0.0
  0
LINE
  5
B061
330
AFE5
100
AcDbEntity
  8
1
  6
Continuous
100
AcDbLine
 10
258.2258039999999
 20
191.242233
 30
0.0
 11
260.2258009999999
 21
189.801237
 31
0.0
  0
LINE
  5
B062
330
AFE5
100
AcDbEntity
  8
4
  6
CENTER
100
AcDbLine
 10
187.1646189999999
 20
259.217462
 30
0.0
 11
103.164626
 21
259.217462
 31
0.0
  0
LINE
  5
B063
330
AFE5
100
AcDbEntity
  8
4
  6
CENTER
100
AcDbLine
 10
152.164619
 20
285.2174619999999
 30
0.0
 11
152.164619
 21
233.2174619999999
 31
0.0
  0
LINE
  5
B064
330
AFE5
100
AcDbEntity
  8
4
  6
CENTER
100
AcDbLine
 10
181.9146189999999
 20
273.717462
 30
0.0
 11
169.4146189999998
 21
273.717462
 31
0.0
  0
LINE
  5
B065
330
AFE5
100
AcDbEntity
  8
4
  6
CENTER
100
AcDbLine
 10
175.6646189999999
 20
267.467462
 30
0.0
 11
175.6646189999999
 21
279.967462
 31
0.0
  0
LINE
  5
B066
330
AFE5
100
AcDbEntity
  8
4
  6
CENTER
100
AcDbLine
 10
181.9146189999999
 20
244.717462
 30
0.0
 11
169.4146189999998
 21
244.717462
 31
0.0
  0
LINE
  5
B067
330
AFE5
100
AcDbEntity
  8
4
  6
CENTER
100
AcDbLine
 10
175.6646189999999
 20
238.467462
 30
0.0
 11
175.6646189999999
 21
250.967462
 31
0.0
  0
LINE
  5
B068
330
AFE5
100
AcDbEntity
  8
4
  6
CENTER
100
AcDbLine
 10
134.9146189999999
 20
244.717462
 30
0.0
 11
122.4146189999999
 21
244.717462
 31
0.0
  0
LINE
  5
B069
330
AFE5
100
AcDbEntity
  8
4
  6
CENTER
100
AcDbLine
 10
128.6646189999999
 20
238.467462
 30
0.0
 11
128.6646189999999
 21
250.967462
 31
0.0
  0
LINE
  5
B06A
330
AFE5
100
AcDbEntity
  8
4
  6
CENTER
100
AcDbLine
 10
134.9146189999999
 20
273.717462
 30
0.0
 11
122.4146189999999
 21
273.717462
 31
0.0
  0
LINE
  5
B06B
330
AFE5
100
AcDbEntity
  8
4
  6
CENTER
100
AcDbLine
 10
128.6646189999999
 20
267.467462
 30
0.0
 11
128.6646189999999
 21
279.967462
 31
0.0
  0
LINE
  5
B06C
330
AFE5
100
AcDbEntity
  8
4
  6
CENTER
100
AcDbLine
 10
244.3632029999999
 20
202.113537
 30
0.0
 11
244.3632029999999
 21
127.113038
 31
0.0
  0
LINE
  5
B06D
330
AFE5
100
AcDbEntity
  8
4
  6
CENTER
100
AcDbLine
 10
222.6129629999999
 20
157.1130379999999
 30
0.0
 11
265.863443
 21
157.1130379999999
 31
0.0
  0
LINE
  5
B06E
330
AFE5
100
AcDbEntity
  8
4
  6
CENTER
100
AcDbLine
 10
103.164626
 20
157.1132369999999
 30
0.0
 11
163.164626
 21
157.1132369999999
 31
0.0
  0
LINE
  5
B06F
330
AFE5
100
AcDbEntity
  8
1
  6
Continuous
100
AcDbLine
 10
122.1646259999999
 20
197.113537
 30
0.0
 11
182.1646259999999
 21
197.113537
 31
0.0
  0
LINE
  5
B070
330
AFE5
100
AcDbEntity
  8
1
  6
Continuous
100
AcDbLine
 10
135.717126
 20
186.9818379999999
 30
0.0
 11
132.0371259999998
 21
186.938028
 31
0.0
  0
ARC
  5
B071
330
AFE5
100
AcDbEntity
  8
1
  6
Continuous
100
AcDbCircle
 10
197.9355559999999
 20
291.030249
 30
0.0
 40
116.3729999999999
100
AcDbArc
 50
235.7254979999999
 51
236.7899089999999
  0
LINE
  5
B072
330
AFE5
100
AcDbEntity
  8
1
  6
Continuous
100
AcDbLine
 10
122.1646259999999
 20
195.1135739999998
 30
0.0
 11
182.1646259999999
 21
195.1135739999998
 31
0.0
  0
ARC
  5
B073
330
AFE5
100
AcDbEntity
  8
1
  6
Continuous
100
AcDbCircle
 10
133.5146259999999
 20
156.163237
 30
0.0
 40
7.5
100
AcDbArc
 50
248.502562
 51
280.7439129999999
  0
LINE
  5
B074
330
AFE5
100
AcDbEntity
  8
1
  6
Continuous
100
AcDbLine
 10
141.0146259999999
 20
186.064782
 30
0.0
 11
141.0146259999999
 21
171.0473029999999
 31
0.0
  0
ARC
  5
B075
330
AFE5
100
AcDbEntity
  8
1
  6
Continuous
100
AcDbCircle
 10
205.7691629999999
 20
135.989325
 30
0.0
 40
63.35981999999999
100
AcDbArc
 50
134.0470019999999
 51
143.333821
  0
LINE
  5
B076
330
AFE5
100
AcDbEntity
  8
4
  6
CENTER
100
AcDbLine
 10
152.1646259999999
 20
202.113537
 30
0.0
 11
152.1646259999999
 21
166.57326
 31
0.0
  0
ARC
  5
B077
330
AFE5
100
AcDbEntity
  8
1
  6
Continuous
100
AcDbCircle
 10
268.1828499999999
 20
89.52488199999995
 30
0.0
 40
141.169928
100
AcDbArc
 50
143.333821
 51
148.1523589999999
  0
ARC
  5
B078
330
AFE5
100
AcDbEntity
  8
1
  6
Continuous
100
AcDbCircle
 10
165.5442449999999
 20
177.575123
 30
0.0
 40
5.502905999999999
100
AcDbArc
 50
90.0
 51
134.0470019999999
  0
LINE
  5
B079
330
AFE5
100
AcDbEntity
  8
1
  6
Continuous
100
AcDbLine
 10
163.1719869999998
 20
191.2422369999999
 30
0.0
 11
165.4078309999999
 21
189.801237
 31
0.0
  0
LINE
  5
B07A
330
AFE5
100
AcDbEntity
  8
1
  6
Continuous
100
AcDbLine
 10
182.1646259999999
 20
197.113537
 30
0.0
 11
182.1646259999999
 21
195.1135739999998
 31
0.0
  0
ARC
  5
B07B
330
AFE5
100
AcDbEntity
  8
1
  6
Continuous
100
AcDbCircle
 10
165.858894
 20
192.7040159999999
 30
0.0
 40
2.371570999999998
100
AcDbArc
 50
321.9491909999999
 51
351.9797889999999
  0
ARC
  5
B07C
330
AFE5
100
AcDbEntity
  8
1
  6
Continuous
100
AcDbCircle
 10
167.176758
 20
191.9918049999999
 30
0.0
 40
1.098799999999998
100
AcDbArc
 50
20.306161
 51
58.785345
  0
LINE
  5
B07D
330
AFE5
100
AcDbEntity
  8
1
  6
Continuous
100
AcDbLine
 10
169.3501259999998
 20
183.018028
 30
0.0
 11
169.127126
 21
183.0780279999999
 31
0.0
  0
LINE
  5
B07E
330
AFE5
100
AcDbEntity
  8
1
  6
Continuous
100
AcDbLine
 10
169.127126
 20
183.0780279999999
 30
0.0
 11
165.5442449999999
 21
183.0780279999999
 31
0.0
  0
LINE
  5
B07F
330
AFE5
100
AcDbEntity
  8
1
  6
Continuous
100
AcDbLine
 10
168.414626
 20
191.2422369999999
 30
0.0
 11
168.414626
 21
189.801237
 31
0.0
  0
LINE
  5
B080
330
AFE5
100
AcDbEntity
  8
1
  6
Continuous
100
AcDbLine
 10
167.746206
 20
192.931534
 30
0.0
 11
167.393049
 21
193.1455369999999
 31
0.0
  0
LINE
  5
B081
330
AFE5
100
AcDbEntity
  8
1
  6
Continuous
100
AcDbLine
 10
167.4146279999999
 20
191.2422369999999
 30
0.0
 11
168.414626
 21
190.2422389999999
 31
0.0
  0
LINE
  5
B082
330
AFE5
100
AcDbEntity
  8
1
  6
Continuous
100
AcDbLine
 10
166.0004139999998
 20
191.2422369999999
 30
0.0
 11
168.2362579999999
 21
189.801237
 31
0.0
  0
LINE
  5
B083
330
AFE5
100
AcDbEntity
  8
1
  6
Continuous
100
AcDbLine
 10
164.5862009999999
 20
191.2422369999999
 30
0.0
 11
166.8220439999998
 21
189.801237
 31
0.0
  0
LINE
  5
B084
330
AFE5
100
AcDbEntity
  8
1
  6
Continuous
100
AcDbLine
 10
166.888666
 20
189.801237
 30
0.0
 11
168.414626
 21
190.2422389999999
 31
0.0
  0
LINE
  5
B085
330
AFE5
100
AcDbEntity
  8
1
  6
Continuous
100
AcDbLine
 10
166.5861969999999
 20
191.2422369999999
 30
0.0
 11
164.350355
 21
189.801237
 31
0.0
  0
LINE
  5
B086
330
AFE5
100
AcDbEntity
  8
1
  6
Continuous
100
AcDbLine
 10
171.930123
 20
194.8655369999999
 30
0.0
 11
172.11829
 21
195.1135739999998
 31
0.0
  0
ARC
  5
B087
330
AFE5
100
AcDbEntity
  8
1
  6
Continuous
100
AcDbCircle
 10
106.3936959999999
 20
291.030249
 30
0.0
 40
116.3729999999999
100
AcDbArc
 50
303.210091
 51
304.2745019999999
  0
LINE
  5
B088
330
AFE5
100
AcDbEntity
  8
1
  6
Continuous
100
AcDbLine
 10
170.764126
 20
183.105367
 30
0.0
 11
170.015126
 21
183.063028
 31
0.0
  0
ARC
  5
B089
330
AFE5
100
AcDbEntity
  8
1
  6
Continuous
100
AcDbCircle
 10
168.391482
 20
196.3241099999999
 30
0.0
 40
3.178573
100
AcDbArc
 50
270.0
 51
303.210091
  0
ARC
  5
B08A
330
AFE5
100
AcDbEntity
  8
1
  6
Continuous
100
AcDbCircle
 10
168.1584149999999
 20
187.293586
 30
0.0
 40
2.520706
100
AcDbArc
 50
358.3271199999999
 51
84.16621999999998
  0
LINE
  5
B08B
330
AFE5
100
AcDbEntity
  8
1
  6
Continuous
100
AcDbLine
 10
170.015126
 20
183.063028
 30
0.0
 11
169.3501259999998
 21
183.018028
 31
0.0
  0
LINE
  5
B08C
330
AFE5
100
AcDbEntity
  8
1
  6
Continuous
100
AcDbLine
 10
147.6156379999999
 20
191.2422369999999
 30
0.0
 11
149.851481
 21
189.801237
 31
0.0
  0
LINE
  5
B08D
330
AFE5
100
AcDbEntity
  8
1
  6
Continuous
100
AcDbLine
 10
149.6156339999998
 20
191.2422369999999
 30
0.0
 11
147.3797919999998
 21
189.801237
 31
0.0
  0
LINE
  5
B08E
330
AFE5
100
AcDbEntity
  8
1
  6
Continuous
100
AcDbLine
 10
135.93777
 20
193.1455369999999
 30
0.0
 11
168.391482
 21
193.1455369999999
 31
0.0
  0
LINE
  5
B08F
330
AFE5
100
AcDbEntity
  8
1
  6
Continuous
100
AcDbLine
 10
168.414626
 20
191.2421979999998
 30
0.0
 11
135.9146259999999
 21
191.242276
 31
0.0
  0
LINE
  5
B090
330
AFE5
100
AcDbEntity
  8
1
  6
Continuous
100
AcDbLine
 10
151.858279
 20
191.2422369999999
 30
0.0
 11
154.094122
 21
189.801237
 31
0.0
  0
LINE
  5
B091
330
AFE5
100
AcDbEntity
  8
1
  6
Continuous
100
AcDbLine
 10
150.444065
 20
191.2422369999999
 30
0.0
 11
152.679908
 21
189.801237
 31
0.0
  0
LINE
  5
B092
330
AFE5
100
AcDbEntity
  8
1
  6
Continuous
100
AcDbLine
 10
149.029852
 20
191.2422369999999
 30
0.0
 11
151.265695
 21
189.801237
 31
0.0
  0
LINE
  5
B093
330
AFE5
100
AcDbEntity
  8
1
  6
Continuous
100
AcDbLine
 10
152.444061
 20
191.2422369999999
 30
0.0
 11
150.2082189999998
 21
189.801237
 31
0.0
  0
LINE
  5
B094
330
AFE5
100
AcDbEntity
  8
1
  6
Continuous
100
AcDbLine
 10
161.757774
 20
191.2422369999999
 30
0.0
 11
163.993617
 21
189.801237
 31
0.0
  0
LINE
  5
B095
330
AFE5
100
AcDbEntity
  8
1
  6
Continuous
100
AcDbLine
 10
160.34356
 20
191.2422369999999
 30
0.0
 11
162.579403
 21
189.801237
 31
0.0
  0
LINE
  5
B096
330
AFE5
100
AcDbEntity
  8
1
  6
Continuous
100
AcDbLine
 10
158.929346
 20
191.2422369999999
 30
0.0
 11
161.16519
 21
189.801237
 31
0.0
  0
LINE
  5
B097
330
AFE5
100
AcDbEntity
  8
1
  6
Continuous
100
AcDbLine
 10
157.5151329999999
 20
191.2422369999999
 30
0.0
 11
159.750976
 21
189.801237
 31
0.0
  0
LINE
  5
B098
330
AFE5
100
AcDbEntity
  8
1
  6
Continuous
100
AcDbLine
 10
156.100919
 20
191.2422369999999
 30
0.0
 11
158.3367629999998
 21
189.801237
 31
0.0
  0
LINE
  5
B099
330
AFE5
100
AcDbEntity
  8
1
  6
Continuous
100
AcDbLine
 10
154.6867059999999
 20
191.2422369999999
 30
0.0
 11
156.922549
 21
189.801237
 31
0.0
  0
LINE
  5
B09A
330
AFE5
100
AcDbEntity
  8
1
  6
Continuous
100
AcDbLine
 10
163.75777
 20
191.2422369999999
 30
0.0
 11
161.5219279999998
 21
189.801237
 31
0.0
  0
LINE
  5
B09B
330
AFE5
100
AcDbEntity
  8
1
  6
Continuous
100
AcDbLine
 10
160.9293429999999
 20
191.2422369999999
 30
0.0
 11
158.6934999999998
 21
189.801237
 31
0.0
  0
LINE
  5
B09C
330
AFE5
100
AcDbEntity
  8
1
  6
Continuous
100
AcDbLine
 10
158.1009159999998
 20
191.2422369999999
 30
0.0
 11
155.865073
 21
189.801237
 31
0.0
  0
LINE
  5
B09D
330
AFE5
100
AcDbEntity
  8
1
  6
Continuous
100
AcDbLine
 10
153.2724919999998
 20
191.2422369999999
 30
0.0
 11
155.508336
 21
189.801237
 31
0.0
  0
LINE
  5
B09E
330
AFE5
100
AcDbEntity
  8
1
  6
Continuous
100
AcDbLine
 10
155.2724889999998
 20
191.2422369999999
 30
0.0
 11
153.0366459999999
 21
189.801237
 31
0.0
  0
ARC
  5
B09F
330
AFE5
100
AcDbEntity
  8
1
  6
Continuous
100
AcDbCircle
 10
136.8794169999999
 20
186.686869
 30
0.0
 40
3.266183999999998
100
AcDbArc
 50
107.537707
 51
141.743298
  0
ARC
  5
B0A0
330
AFE5
100
AcDbEntity
  8
1
  6
Continuous
100
AcDbCircle
 10
137.810311
 20
185.9528349999999
 30
0.0
 40
4.451666999999998
100
AcDbArc
 50
141.743298
 51
156.849068
  0
LINE
  5
B0A1
330
AFE5
100
AcDbEntity
  8
1
  6
Continuous
100
AcDbLine
 10
133.717126
 20
187.7030279999999
 30
0.0
 11
133.5721259999999
 21
187.2680279999999
 31
0.0
  0
LINE
  5
B0A2
330
AFE5
100
AcDbEntity
  8
1
  6
Continuous
100
AcDbLine
 10
133.5721259999999
 20
187.2680279999999
 30
0.0
 11
133.232126
 21
187.068028
 31
0.0
  0
LINE
  5
B0A3
330
AFE5
100
AcDbEntity
  8
1
  6
Continuous
100
AcDbLine
 10
133.232126
 20
187.068028
 30
0.0
 11
133.062126
 21
186.983028
 31
0.0
  0
LINE
  5
B0A4
330
AFE5
100
AcDbEntity
  8
1
  6
Continuous
100
AcDbLine
 10
133.062126
 20
186.983028
 30
0.0
 11
132.877126
 21
186.9480279999999
 31
0.0
  0
ARC
  5
B0A5
330
AFE5
100
AcDbEntity
  8
1
  6
Continuous
100
AcDbCircle
 10
135.93777
 20
196.3241099999999
 30
0.0
 40
3.178573
100
AcDbArc
 50
236.7899089999999
 51
270.0
  0
ARC
  5
B0A6
330
AFE5
100
AcDbEntity
  8
1
  6
Continuous
100
AcDbCircle
 10
138.470358
 20
192.7040159999999
 30
0.0
 40
2.371570999999998
100
AcDbArc
 50
188.020211
 51
218.050809
  0
ARC
  5
B0A7
330
AFE5
100
AcDbEntity
  8
1
  6
Continuous
100
AcDbCircle
 10
137.152494
 20
191.9918049999999
 30
0.0
 40
1.098799999999998
100
AcDbArc
 50
121.214655
 51
159.693839
  0
LINE
  5
B0A8
330
AFE5
100
AcDbEntity
  8
1
  6
Continuous
100
AcDbLine
 10
135.9146259999999
 20
191.2422369999999
 30
0.0
 11
135.9146259999999
 21
189.801237
 31
0.0
  0
LINE
  5
B0A9
330
AFE5
100
AcDbEntity
  8
1
  6
Continuous
100
AcDbLine
 10
136.5830459999999
 20
192.931534
 30
0.0
 11
136.936203
 21
193.1455369999999
 31
0.0
  0
ARC
  5
B0AA
330
AFE5
100
AcDbEntity
  8
1
  6
Continuous
100
AcDbCircle
 10
135.6928139999999
 20
189.0240619999999
 30
0.0
 40
2.042368999999998
100
AcDbArc
 50
270.6820599999999
 51
340.178191
  0
LINE
  5
B0AB
330
AFE5
100
AcDbEntity
  8
1
  6
Continuous
100
AcDbLine
 10
135.9146259999999
 20
190.215327
 30
0.0
 11
137.452075
 21
189.801237
 31
0.0
  0
LINE
  5
B0AC
330
AFE5
100
AcDbEntity
  8
1
  6
Continuous
100
AcDbLine
 10
146.201424
 20
191.2422369999999
 30
0.0
 11
148.4372679999999
 21
189.801237
 31
0.0
  0
LINE
  5
B0AD
330
AFE5
100
AcDbEntity
  8
1
  6
Continuous
100
AcDbLine
 10
144.787211
 20
191.2422369999999
 30
0.0
 11
147.023054
 21
189.801237
 31
0.0
  0
LINE
  5
B0AE
330
AFE5
100
AcDbEntity
  8
1
  6
Continuous
100
AcDbLine
 10
143.3729969999999
 20
191.2422369999999
 30
0.0
 11
145.6088409999999
 21
189.801237
 31
0.0
  0
LINE
  5
B0AF
330
AFE5
100
AcDbEntity
  8
1
  6
Continuous
100
AcDbLine
 10
141.958784
 20
191.2422369999999
 30
0.0
 11
144.194627
 21
189.801237
 31
0.0
  0
LINE
  5
B0B0
330
AFE5
100
AcDbEntity
  8
1
  6
Continuous
100
AcDbLine
 10
140.54457
 20
191.2422369999999
 30
0.0
 11
142.7804139999998
 21
189.801237
 31
0.0
  0
LINE
  5
B0B1
330
AFE5
100
AcDbEntity
  8
1
  6
Continuous
100
AcDbLine
 10
139.130357
 20
191.2422369999999
 30
0.0
 11
141.3661999999999
 21
189.801237
 31
0.0
  0
LINE
  5
B0B2
330
AFE5
100
AcDbEntity
  8
1
  6
Continuous
100
AcDbLine
 10
146.787207
 20
191.2422369999999
 30
0.0
 11
144.551365
 21
189.801237
 31
0.0
  0
LINE
  5
B0B3
330
AFE5
100
AcDbEntity
  8
1
  6
Continuous
100
AcDbLine
 10
143.9587799999999
 20
191.2422369999999
 30
0.0
 11
141.722938
 21
189.801237
 31
0.0
  0
LINE
  5
B0B4
330
AFE5
100
AcDbEntity
  8
1
  6
Continuous
100
AcDbLine
 10
141.130353
 20
191.2422369999999
 30
0.0
 11
138.8945109999999
 21
189.801237
 31
0.0
  0
LINE
  5
B0B5
330
AFE5
100
AcDbEntity
  8
1
  6
Continuous
100
AcDbLine
 10
137.7161429999999
 20
191.2422369999999
 30
0.0
 11
139.951986
 21
189.801237
 31
0.0
  0
LINE
  5
B0B6
330
AFE5
100
AcDbEntity
  8
1
  6
Continuous
100
AcDbLine
 10
136.3019289999998
 20
191.2422369999999
 30
0.0
 11
138.5377729999998
 21
189.801237
 31
0.0
  0
LINE
  5
B0B7
330
AFE5
100
AcDbEntity
  8
1
  6
Continuous
100
AcDbLine
 10
138.301926
 20
191.2422369999999
 30
0.0
 11
136.066083
 21
189.801237
 31
0.0
  0
LINE
  5
B0B8
330
AFE5
100
AcDbEntity
  8
1
  6
Continuous
100
AcDbLine
 10
130.877126
 20
186.928028
 30
0.0
 11
127.658798
 21
186.992395
 31
0.0
  0
LINE
  5
B0B9
330
AFE5
100
AcDbEntity
  8
1
  6
Continuous
100
AcDbLine
 10
132.0371259999998
 20
186.938028
 30
0.0
 11
131.442126
 21
186.9180279999999
 31
0.0
  0
LINE
  5
B0BA
330
AFE5
100
AcDbEntity
  8
1
  6
Continuous
100
AcDbLine
 10
131.442126
 20
186.9180279999999
 30
0.0
 11
130.877126
 21
186.928028
 31
0.0
  0
ARC
  5
B0BB
330
AFE5
100
AcDbEntity
  8
1
  6
Continuous
100
AcDbCircle
 10
127.631779
 20
185.6414879999999
 30
0.0
 40
1.351175999999999
100
AcDbArc
 50
88.85423700000002
 51
129.236686
  0
LINE
  5
B0BC
330
AFE5
100
AcDbEntity
  8
1
  6
Continuous
100
AcDbLine
 10
129.217126
 20
184.961041
 30
0.0
 11
126.9481689999998
 21
184.9947979999998
 31
0.0
  0
LINE
  5
B0BD
330
AFE5
100
AcDbEntity
  8
1
  6
Continuous
100
AcDbLine
 10
126.7771259999999
 20
186.688028
 30
0.0
 11
126.717126
 21
185.773028
 31
0.0
  0
LINE
  5
B0BE
330
AFE5
100
AcDbEntity
  8
1
  6
Continuous
100
AcDbLine
 10
126.717126
 20
185.773028
 30
0.0
 11
126.717126
 21
185.088028
 31
0.0
  0
ARC
  5
B0BF
330
AFE5
100
AcDbEntity
  8
1
  6
Continuous
100
AcDbCircle
 10
126.953311
 20
185.340442
 30
0.0
 40
0.345682
100
AcDbArc
 50
226.9023309999998
 51
269.1476279999998
  0
LINE
  5
B0C0
330
AFE5
100
AcDbEntity
  8
1
  6
Continuous
100
AcDbLine
 10
132.3991289999999
 20
194.8655369999999
 30
0.0
 11
132.2109619999999
 21
195.1135739999998
 31
0.0
  0
LINE
  5
B0C1
330
AFE5
100
AcDbEntity
  8
1
  6
Continuous
100
AcDbLine
 10
122.1646259999999
 20
197.113537
 30
0.0
 11
122.1646259999999
 21
195.1135739999998
 31
0.0
  0
LINE
  5
B0C2
330
AFE5
100
AcDbEntity
  8
1
  6
Continuous
100
AcDbLine
 10
225.5132029999999
 20
186.8011789999999
 30
0.0
 11
225.5132029999999
 21
166.401179
 31
0.0
  0
LINE
  5
B0C3
330
AFE5
100
AcDbEntity
  8
4
  6
CENTER
100
AcDbLine
 10
75.70246899999998
 20
157.1130379999999
 30
0.0
 11
26.365809
 21
157.1130379999999
 31
0.0
  0
LINE
  5
B0C4
330
AFE5
100
AcDbEntity
  8
1
  6
Continuous
100
AcDbLine
 10
59.86604899999999
 20
154.113038
 30
0.0
 11
59.616049
 21
154.113038
 31
0.0
  0
LINE
  5
B0C5
330
AFE5
100
AcDbEntity
  8
1
  6
Continuous
100
AcDbLine
 10
59.96955299999999
 20
160.1130379999998
 30
0.0
 11
59.616049
 21
160.1130379999998
 31
0.0
  0
LINE
  5
B0C6
330
AFE5
100
AcDbEntity
  8
1
  6
Continuous
100
AcDbLine
 10
26.866049
 20
197.1135329999999
 30
0.0
 11
68.866049
 21
197.1135329999999
 31
0.0
  0
LINE
  5
B0C7
330
AFE5
100
AcDbEntity
  8
4
  6
CENTER
100
AcDbLine
 10
47.86604899999999
 20
202.113537
 30
0.0
 11
47.86604899999999
 21
127.113038
 31
0.0
  0
LINE
  5
B0C8
330
AFE5
100
AcDbEntity
  8
1
  6
Continuous
100
AcDbLine
 10
31.61595
 20
189.801237
 30
0.0
 11
64.11595
 21
189.801044
 31
0.0
  0
ARC
  5
B0C9
330
AFE5
100
AcDbEntity
  8
1
  6
Continuous
100
AcDbCircle
 10
37.11580899999999
 20
183.0120179999999
 30
0.0
 40
3.75
100
AcDbArc
 50
90.0
 51
180.0
  0
LINE
  5
B0CA
330
AFE5
100
AcDbEntity
  8
1
  6
Continuous
100
AcDbLine
 10
35.444376
 20
191.242233
 30
0.0
 11
33.44437899999999
 21
189.801237
 31
0.0
  0
LINE
  5
B0CB
330
AFE5
100
AcDbEntity
  8
1
  6
Continuous
100
AcDbLine
 10
36.858589
 20
191.242233
 30
0.0
 11
34.85859299999999
 21
189.801237
 31
0.0
  0
LINE
  5
B0CC
330
AFE5
100
AcDbEntity
  8
1
  6
Continuous
100
AcDbLine
 10
33.44437899999999
 20
191.242233
 30
0.0
 11
35.444376
 21
189.801237
 31
0.0
  0
LINE
  5
B0CD
330
AFE5
100
AcDbEntity
  8
1
  6
Continuous
100
AcDbLine
 10
33.36580899999999
 20
148.6763159999999
 30
0.0
 11
35.36604899999999
 21
148.6763159999999
 31
0.0
  0
LINE
  5
B0CE
330
AFE5
100
AcDbEntity
  8
1
  6
Continuous
100
AcDbLine
 10
26.866049
 20
195.113571
 30
0.0
 11
68.866049
 21
195.113571
 31
0.0
  0
LINE
  5
B0CF
330
AFE5
100
AcDbEntity
  8
1
  6
Continuous
100
AcDbLine
 10
31.639094
 20
193.145533
 30
0.0
 11
64.092807
 21
193.145533
 31
0.0
  0
LINE
  5
B0D0
330
AFE5
100
AcDbEntity
  8
1
  6
Continuous
100
AcDbLine
 10
64.11595
 20
191.2421929999999
 30
0.0
 11
31.61595
 21
191.242273
 31
0.0
  0
ARC
  5
B0D1
330
AFE5
100
AcDbEntity
  8
1
  6
Continuous
100
AcDbCircle
 10
55.731462
 20
167.03323
 30
0.0
 40
26.722888
100
AcDbArc
 50
181.355289
 51
204.692905
  0
LINE
  5
B0D2
330
AFE5
100
AcDbEntity
  8
1
  6
Continuous
100
AcDbLine
 10
33.36580899999999
 20
183.0120179999999
 30
0.0
 11
33.36580899999999
 21
148.6763159999999
 31
0.0
  0
LINE
  5
B0D3
330
AFE5
100
AcDbEntity
  8
1
  6
Continuous
100
AcDbLine
 10
32.432493
 20
161.363038
 30
0.0
 11
32.432493
 21
152.8630379999999
 31
0.0
  0
ARC
  5
B0D4
330
AFE5
100
AcDbEntity
  8
1
  6
Continuous
100
AcDbCircle
 10
40.36580899999999
 20
157.1130379999999
 30
0.0
 40
9.0
100
AcDbArc
 50
151.821357
 51
208.178643
  0
LINE
  5
B0D5
330
AFE5
100
AcDbEntity
  8
1
  6
Continuous
100
AcDbLine
 10
33.36580899999999
 20
152.8630379999999
 30
0.0
 11
32.432493
 21
152.8630379999999
 31
0.0
  0
LINE
  5
B0D6
330
AFE5
100
AcDbEntity
  8
1
  6
Continuous
100
AcDbLine
 10
29.016049
 20
186.8011789999999
 30
0.0
 11
29.016049
 21
166.401179
 31
0.0
  0
LINE
  5
B0D7
330
AFE5
100
AcDbEntity
  8
1
  6
Continuous
100
AcDbLine
 10
33.36580899999999
 20
161.363038
 30
0.0
 11
32.432493
 21
161.363038
 31
0.0
  0
LINE
  5
B0D8
330
AFE5
100
AcDbEntity
  8
1
  6
Continuous
100
AcDbLine
 10
34.03016199999999
 20
191.242233
 30
0.0
 11
32.03016599999998
 21
189.801237
 31
0.0
  0
ARC
  5
B0D9
330
AFE5
100
AcDbEntity
  8
1
  6
Continuous
100
AcDbCircle
 10
32.23066699999999
 20
186.579094
 30
0.0
 40
3.22228
100
AcDbArc
 50
89.37084
 51
176.0479389999999
  0
LINE
  5
B0DA
330
AFE5
100
AcDbEntity
  8
1
  6
Continuous
100
AcDbLine
 10
31.61595
 20
191.242233
 30
0.0
 11
31.61595
 21
189.801237
 31
0.0
  0
LINE
  5
B0DB
330
AFE5
100
AcDbEntity
  8
1
  6
Continuous
100
AcDbLine
 10
32.615949
 20
191.242233
 30
0.0
 11
31.61595
 21
190.8012349999999
 31
0.0
  0
LINE
  5
B0DC
330
AFE5
100
AcDbEntity
  8
1
  6
Continuous
100
AcDbLine
 10
32.615949
 20
189.801237
 30
0.0
 11
31.61595
 21
190.8012349999999
 31
0.0
  0
LINE
  5
B0DD
330
AFE5
100
AcDbEntity
  8
1
  6
Continuous
100
AcDbLine
 10
26.866049
 20
197.1135329999999
 30
0.0
 11
26.866049
 21
195.113571
 31
0.0
  0
LINE
  5
B0DE
330
AFE5
100
AcDbEntity
  8
1
  6
Continuous
100
AcDbLine
 10
32.28437
 20
192.93153
 30
0.0
 11
32.63752699999999
 21
193.145533
 31
0.0
  0
ARC
  5
B0DF
330
AFE5
100
AcDbEntity
  8
1
  6
Continuous
100
AcDbCircle
 10
32.853819
 20
191.991802
 30
0.0
 40
1.098799999999998
100
AcDbArc
 50
121.214655
 51
159.693839
  0
ARC
  5
B0E0
330
AFE5
100
AcDbEntity
  8
1
  6
Continuous
100
AcDbCircle
 10
34.17168199999999
 20
192.7040129999998
 30
0.0
 40
2.371570999999998
100
AcDbArc
 50
188.020211
 51
218.050809
  0
ARC
  5
B0E1
330
AFE5
100
AcDbEntity
  8
1
  6
Continuous
100
AcDbCircle
 10
93.63688000000001
 20
291.0302449999999
 30
0.0
 40
116.3729999999999
100
AcDbArc
 50
235.7254979999999
 51
236.7899089999999
  0
LINE
  5
B0E2
330
AFE5
100
AcDbEntity
  8
1
  6
Continuous
100
AcDbLine
 10
28.100453
 20
194.865533
 30
0.0
 11
27.912287
 21
195.113571
 31
0.0
  0
ARC
  5
B0E3
330
AFE5
100
AcDbEntity
  8
1
  6
Continuous
100
AcDbCircle
 10
31.639094
 20
196.324106
 30
0.0
 40
3.178573
100
AcDbArc
 50
236.7899089999999
 51
270.0
  0
LINE
  5
B0E4
330
AFE5
100
AcDbEntity
  8
1
  6
Continuous
100
AcDbLine
 10
35.36604899999999
 20
183.020424
 30
0.0
 11
35.36604899999999
 21
148.6763159999999
 31
0.0
  0
LINE
  5
B0E5
330
AFE5
100
AcDbEntity
  8
1
  6
Continuous
100
AcDbLine
 10
60.366049
 20
183.020424
 30
0.0
 11
60.366049
 21
148.6763159999999
 31
0.0
  0
LINE
  5
B0E6
330
AFE5
100
AcDbEntity
  8
1
  6
Continuous
100
AcDbLine
 10
62.366289
 20
183.0120179999999
 30
0.0
 11
62.366289
 21
167.429059
 31
0.0
  0
LINE
  5
B0E7
330
AFE5
100
AcDbEntity
  8
1
  6
Continuous
100
AcDbLine
 10
35.36604899999999
 20
154.113038
 30
0.0
 11
36.11604899999999
 21
154.113038
 31
0.0
  0
LINE
  5
B0E8
330
AFE5
100
AcDbEntity
  8
1
  6
Continuous
100
AcDbLine
 10
60.366049
 20
148.6763159999999
 30
0.0
 11
62.366289
 21
148.6763159999999
 31
0.0
  0
LINE
  5
B0E9
330
AFE5
100
AcDbEntity
  8
1
  6
Continuous
100
AcDbLine
 10
60.366049
 20
154.113038
 30
0.0
 11
59.616049
 21
154.113038
 31
0.0
  0
ARC
  5
B0EA
330
AFE5
100
AcDbEntity
  8
1
  6
Continuous
100
AcDbCircle
 10
63.50143199999997
 20
186.579094
 30
0.0
 40
3.22228
100
AcDbArc
 50
3.952061
 51
90.62915999999999
  0
ARC
  5
B0EB
330
AFE5
100
AcDbEntity
  8
1
  6
Continuous
100
AcDbCircle
 10
2.095019999999998
 20
291.0302449999999
 30
0.0
 40
116.3729999999999
100
AcDbArc
 50
303.210091
 51
304.2745019999999
  0
LINE
  5
B0EC
330
AFE5
100
AcDbEntity
  8
1
  6
Continuous
100
AcDbLine
 10
66.716049
 20
186.8011789999999
 30
0.0
 11
66.716049
 21
168.1061879999998
 31
0.0
  0
LINE
  5
B0ED
330
AFE5
100
AcDbEntity
  8
1
  6
Continuous
100
AcDbLine
 10
35.36604899999999
 20
160.1130379999998
 30
0.0
 11
36.11604899999999
 21
160.1130379999998
 31
0.0
  0
LINE
  5
B0EE
330
AFE5
100
AcDbEntity
  8
1
  6
Continuous
100
AcDbLine
 10
59.616049
 20
160.1130379999998
 30
0.0
 11
60.366049
 21
160.1130379999998
 31
0.0
  0
LINE
  5
B0EF
330
AFE5
100
AcDbEntity
  8
1
  6
Continuous
100
AcDbLine
 10
37.11604899999999
 20
184.7704239999999
 30
0.0
 11
58.61604899999999
 21
184.7704239999999
 31
0.0
  0
LINE
  5
B0F0
330
AFE5
100
AcDbEntity
  8
1
  6
Continuous
100
AcDbLine
 10
37.11580899999999
 20
186.7620179999999
 30
0.0
 11
58.616289
 21
186.7620179999999
 31
0.0
  0
LINE
  5
B0F1
330
AFE5
100
AcDbEntity
  8
1
  6
Continuous
100
AcDbLine
 10
51.000725
 20
191.242233
 30
0.0
 11
49.000728
 21
189.801237
 31
0.0
  0
LINE
  5
B0F2
330
AFE5
100
AcDbEntity
  8
1
  6
Continuous
100
AcDbLine
 10
52.414938
 20
191.242233
 30
0.0
 11
50.41494199999998
 21
189.801237
 31
0.0
  0
LINE
  5
B0F3
330
AFE5
100
AcDbEntity
  8
1
  6
Continuous
100
AcDbLine
 10
50.41494199999998
 20
191.242233
 30
0.0
 11
52.414938
 21
189.801237
 31
0.0
  0
LINE
  5
B0F4
330
AFE5
100
AcDbEntity
  8
1
  6
Continuous
100
AcDbLine
 10
49.586511
 20
191.242233
 30
0.0
 11
47.586515
 21
189.801237
 31
0.0
  0
LINE
  5
B0F5
330
AFE5
100
AcDbEntity
  8
1
  6
Continuous
100
AcDbLine
 10
47.586515
 20
191.242233
 30
0.0
 11
49.586511
 21
189.801237
 31
0.0
  0
ARC
  5
B0F6
330
AFE5
100
AcDbEntity
  8
1
  6
Continuous
100
AcDbCircle
 10
37.11604899999999
 20
183.020424
 30
0.0
 40
1.75
100
AcDbArc
 50
90.0
 51
180.0
  0
LINE
  5
B0F7
330
AFE5
100
AcDbEntity
  8
1
  6
Continuous
100
AcDbLine
 10
39.687016
 20
191.242233
 30
0.0
 11
37.68701999999999
 21
189.801237
 31
0.0
  0
LINE
  5
B0F8
330
AFE5
100
AcDbEntity
  8
1
  6
Continuous
100
AcDbLine
 10
41.10123
 20
191.242233
 30
0.0
 11
39.101233
 21
189.801237
 31
0.0
  0
LINE
  5
B0F9
330
AFE5
100
AcDbEntity
  8
1
  6
Continuous
100
AcDbLine
 10
42.51544299999999
 20
191.242233
 30
0.0
 11
40.51544699999999
 21
189.801237
 31
0.0
  0
LINE
  5
B0FA
330
AFE5
100
AcDbEntity
  8
1
  6
Continuous
100
AcDbLine
 10
43.929657
 20
191.242233
 30
0.0
 11
41.92966099999997
 21
189.801237
 31
0.0
  0
LINE
  5
B0FB
330
AFE5
100
AcDbEntity
  8
1
  6
Continuous
100
AcDbLine
 10
45.343871
 20
191.242233
 30
0.0
 11
43.34387399999999
 21
189.801237
 31
0.0
  0
LINE
  5
B0FC
330
AFE5
100
AcDbEntity
  8
1
  6
Continuous
100
AcDbLine
 10
46.758084
 20
191.242233
 30
0.0
 11
44.758088
 21
189.801237
 31
0.0
  0
LINE
  5
B0FD
330
AFE5
100
AcDbEntity
  8
1
  6
Continuous
100
AcDbLine
 10
48.17229799999999
 20
191.242233
 30
0.0
 11
46.17230099999999
 21
189.801237
 31
0.0
  0
LINE
  5
B0FE
330
AFE5
100
AcDbEntity
  8
1
  6
Continuous
100
AcDbLine
 10
39.101233
 20
191.242233
 30
0.0
 11
41.10123
 21
189.801237
 31
0.0
  0
LINE
  5
B0FF
330
AFE5
100
AcDbEntity
  8
1
  6
Continuous
100
AcDbLine
 10
41.92966099999997
 20
191.242233
 30
0.0
 11
43.929657
 21
189.801237
 31
0.0
  0
LINE
  5
B100
330
AFE5
100
AcDbEntity
  8
1
  6
Continuous
100
AcDbLine
 10
44.758088
 20
191.242233
 30
0.0
 11
46.758084
 21
189.801237
 31
0.0
  0
LINE
  5
B101
330
AFE5
100
AcDbEntity
  8
1
  6
Continuous
100
AcDbLine
 10
38.272803
 20
191.242233
 30
0.0
 11
36.27280600000001
 21
189.801237
 31
0.0
  0
LINE
  5
B102
330
AFE5
100
AcDbEntity
  8
1
  6
Continuous
100
AcDbLine
 10
36.27280600000001
 20
191.242233
 30
0.0
 11
38.272803
 21
189.801237
 31
0.0
  0
ARC
  5
B103
330
AFE5
100
AcDbEntity
  8
1
  6
Continuous
100
AcDbCircle
 10
58.616289
 20
183.0120179999999
 30
0.0
 40
3.75
100
AcDbArc
 50
0.0
 51
90.0
  0
ARC
  5
B104
330
AFE5
100
AcDbEntity
  8
1
  6
Continuous
100
AcDbCircle
 10
58.61604899999999
 20
183.020424
 30
0.0
 40
1.75
100
AcDbArc
 50
0.0
 51
90.0
  0
LINE
  5
B105
330
AFE5
100
AcDbEntity
  8
1
  6
Continuous
100
AcDbLine
 10
64.11595
 20
191.242233
 30
0.0
 11
64.11595
 21
189.801237
 31
0.0
  0
LINE
  5
B106
330
AFE5
100
AcDbEntity
  8
1
  6
Continuous
100
AcDbLine
 10
56.657579
 20
191.242233
 30
0.0
 11
54.657583
 21
189.801237
 31
0.0
  0
LINE
  5
B107
330
AFE5
100
AcDbEntity
  8
1
  6
Continuous
100
AcDbLine
 10
58.07179300000001
 20
191.242233
 30
0.0
 11
56.071796
 21
189.801237
 31
0.0
  0
LINE
  5
B108
330
AFE5
100
AcDbEntity
  8
1
  6
Continuous
100
AcDbLine
 10
59.486006
 20
191.242233
 30
0.0
 11
57.48601
 21
189.801237
 31
0.0
  0
LINE
  5
B109
330
AFE5
100
AcDbEntity
  8
1
  6
Continuous
100
AcDbLine
 10
60.90022
 20
191.242233
 30
0.0
 11
58.900223
 21
189.801237
 31
0.0
  0
LINE
  5
B10A
330
AFE5
100
AcDbEntity
  8
1
  6
Continuous
100
AcDbLine
 10
62.31443299999999
 20
191.242233
 30
0.0
 11
60.314437
 21
189.801237
 31
0.0
  0
LINE
  5
B10B
330
AFE5
100
AcDbEntity
  8
1
  6
Continuous
100
AcDbLine
 10
63.728647
 20
191.242233
 30
0.0
 11
61.72865
 21
189.801237
 31
0.0
  0
LINE
  5
B10C
330
AFE5
100
AcDbEntity
  8
1
  6
Continuous
100
AcDbLine
 10
64.11595
 20
190.774323
 30
0.0
 11
63.142864
 21
189.801237
 31
0.0
  0
LINE
  5
B10D
330
AFE5
100
AcDbEntity
  8
1
  6
Continuous
100
AcDbLine
 10
56.071796
 20
191.242233
 30
0.0
 11
58.07179300000001
 21
189.801237
 31
0.0
  0
LINE
  5
B10E
330
AFE5
100
AcDbEntity
  8
1
  6
Continuous
100
AcDbLine
 10
58.900223
 20
191.242233
 30
0.0
 11
60.90022
 21
189.801237
 31
0.0
  0
LINE
  5
B10F
330
AFE5
100
AcDbEntity
  8
1
  6
Continuous
100
AcDbLine
 10
61.72865
 20
191.242233
 30
0.0
 11
63.728647
 21
189.801237
 31
0.0
  0
LINE
  5
B110
330
AFE5
100
AcDbEntity
  8
1
  6
Continuous
100
AcDbLine
 10
55.243366
 20
191.242233
 30
0.0
 11
53.24336899999998
 21
189.801237
 31
0.0
  0
LINE
  5
B111
330
AFE5
100
AcDbEntity
  8
1
  6
Continuous
100
AcDbLine
 10
53.24336899999998
 20
191.242233
 30
0.0
 11
55.243366
 21
189.801237
 31
0.0
  0
LINE
  5
B112
330
AFE5
100
AcDbEntity
  8
1
  6
Continuous
100
AcDbLine
 10
53.829152
 20
191.242233
 30
0.0
 11
51.829156
 21
189.801237
 31
0.0
  0
LINE
  5
B113
330
AFE5
100
AcDbEntity
  8
1
  6
Continuous
100
AcDbLine
 10
63.44753
 20
192.93153
 30
0.0
 11
63.094374
 21
193.145533
 31
0.0
  0
ARC
  5
B114
330
AFE5
100
AcDbEntity
  8
1
  6
Continuous
100
AcDbCircle
 10
62.87808199999999
 20
191.991802
 30
0.0
 40
1.098799999999998
100
AcDbArc
 50
20.306161
 51
58.785345
  0
ARC
  5
B115
330
AFE5
100
AcDbEntity
  8
1
  6
Continuous
100
AcDbCircle
 10
61.56021800000001
 20
192.7040129999998
 30
0.0
 40
2.371570999999998
100
AcDbArc
 50
321.9491909999999
 51
351.9797889999999
  0
ARC
  5
B116
330
AFE5
100
AcDbEntity
  8
1
  6
Continuous
100
AcDbCircle
 10
64.092807
 20
196.324106
 30
0.0
 40
3.178573
100
AcDbArc
 50
270.0
 51
303.210091
  0
LINE
  5
B117
330
AFE5
100
AcDbEntity
  8
1
  6
Continuous
100
AcDbLine
 10
68.866049
 20
197.1135329999999
 30
0.0
 11
68.866049
 21
195.113571
 31
0.0
  0
LINE
  5
B118
330
AFE5
100
AcDbEntity
  8
1
  6
Continuous
100
AcDbLine
 10
67.63144699999999
 20
194.865533
 30
0.0
 11
67.819614
 21
195.113571
 31
0.0
  0
LINE
  5
B119
330
AFE5
100
AcDbEntity
  8
1
  6
Continuous
100
AcDbLine
 10
256.8632029999998
 20
183.020424
 30
0.0
 11
256.8632029999998
 21
148.6763159999999
 31
0.0
  0
LINE
  5
B11A
330
AFE5
100
AcDbEntity
  8
1
  6
Continuous
100
AcDbLine
 10
231.8632029999999
 20
183.020424
 30
0.0
 11
231.8632029999999
 21
148.6763159999999
 31
0.0
  0
LINE
  5
B11B
330
AFE5
100
AcDbEntity
  8
4
  6
CENTER
100
AcDbLine
 10
33.36604899999999
 20
202.113537
 30
0.0
 11
33.36604899999999
 21
190.1135739999998
 31
0.0
  0
LINE
  5
B11C
330
AFE5
100
AcDbEntity
  8
4
  6
CENTER
100
AcDbLine
 10
62.36604899999999
 20
202.113537
 30
0.0
 11
62.36604899999999
 21
190.1135739999998
 31
0.0
  0
LINE
  5
B11D
330
AFE5
100
AcDbEntity
  8
4
  6
CENTER
100
AcDbLine
 10
229.8632029999999
 20
202.113537
 30
0.0
 11
229.8632029999999
 21
190.1135739999998
 31
0.0
  0
LINE
  5
B11E
330
AFE5
100
AcDbEntity
  8
4
  6
CENTER
100
AcDbLine
 10
258.8632029999998
 20
202.113537
 30
0.0
 11
258.8632029999998
 21
190.1135739999998
 31
0.0
  0
ARC
  5
B11F
330
AFE5
100
AcDbEntity
  8
1
  6
Continuous
100
AcDbCircle
 10
252.113443
 20
157.1130379999999
 30
0.0
 40
9.0
100
AcDbArc
 50
331.8213569999999
 51
355.5531859999998
  0
LINE
  5
B120
330
AFE5
100
AcDbEntity
  8
1
  6
Continuous
100
AcDbLine
 10
260.046759
 20
154.2473369999999
 30
0.0
 11
260.046759
 21
152.8630379999999
 31
0.0
  0
LINE
  5
B121
330
AFE5
100
AcDbEntity
  8
1
  6
Continuous
100
AcDbLine
 10
259.4357299999999
 20
152.8630379999999
 30
0.0
 11
260.046759
 21
152.8630379999999
 31
0.0
  0
LINE
  5
B122
330
AFE5
100
AcDbEntity
  8
1
  6
Continuous
100
AcDbLine
 10
129.4032709999999
 20
186.9575049999999
 30
0.0
 11
127.85872
 21
173.1063819999999
 31
0.0
  0
LINE
  5
B123
330
AFE5
100
AcDbEntity
  8
4
  6
CENTER
100
AcDbLine
 10
128.6646259999999
 20
202.113537
 30
0.0
 11
128.6646259999999
 21
190.1135739999998
 31
0.0
  0
LINE
  5
B124
330
AFE5
100
AcDbEntity
  8
4
  6
CENTER
100
AcDbLine
 10
175.664626
 20
202.113537
 30
0.0
 11
175.664626
 21
190.1135739999998
 31
0.0
  0
LINE
  5
B125
330
AFE5
100
AcDbEntity
  8
4
  6
CENTER
100
AcDbLine
 10
181.9146189999999
 20
55.50961199999999
 30
0.0
 11
169.4146189999998
 21
55.50961199999999
 31
0.0
  0
LINE
  5
B126
330
AFE5
100
AcDbEntity
  8
4
  6
CENTER
100
AcDbLine
 10
181.9146189999999
 20
84.509612
 30
0.0
 11
169.4146189999998
 21
84.509612
 31
0.0
  0
LINE
  5
B127
330
AFE5
100
AcDbEntity
  8
4
  6
CENTER
100
AcDbLine
 10
187.1646189999999
 20
70.009612
 30
0.0
 11
103.164626
 21
70.009612
 31
0.0
  0
LINE
  5
B128
330
AFE5
100
AcDbEntity
  8
1
  6
Continuous
100
AcDbLine
 10
124.6646189999998
 20
49.009612
 30
0.0
 11
179.6646189999999
 21
49.009612
 31
0.0
  0
LINE
  5
B129
330
AFE5
100
AcDbEntity
  8
4
  6
CENTER
100
AcDbLine
 10
152.164619
 20
44.009612
 30
0.0
 11
152.164619
 21
96.009612
 31
0.0
  0
LINE
  5
B12A
330
AFE5
100
AcDbEntity
  8
4
  6
CENTER
100
AcDbLine
 10
128.6646189999999
 20
61.75961199999999
 30
0.0
 11
128.6646189999999
 21
49.25961199999999
 31
0.0
  0
LINE
  5
B12B
330
AFE5
100
AcDbEntity
  8
1
  6
Continuous
100
AcDbLine
 10
122.1646189999999
 20
84.889808
 30
0.0
 11
122.1646189999999
 21
83.03544499999999
 31
0.0
  0
LINE
  5
B12C
330
AFE5
100
AcDbEntity
  8
4
  6
CENTER
100
AcDbLine
 10
128.6646189999999
 20
90.759612
 30
0.0
 11
128.6646189999999
 21
78.259612
 31
0.0
  0
ARC
  5
B12D
330
AFE5
100
AcDbEntity
  8
1
  6
Continuous
100
AcDbCircle
 10
128.6646189999999
 20
84.509612
 30
0.0
 40
3.25
100
AcDbArc
 50
193.0495389999999
 51
217.182865
  0
LINE
  5
B12E
330
AFE5
100
AcDbEntity
  8
4
  6
CENTER
100
AcDbLine
 10
134.9146189999999
 20
84.509612
 30
0.0
 11
122.4146189999999
 21
84.509612
 31
0.0
  0
ARC
  5
B12F
330
AFE5
100
AcDbEntity
  8
1
  6
Continuous
100
AcDbCircle
 10
124.6646189999998
 20
51.509612
 30
0.0
 40
2.5
100
AcDbArc
 50
180.0
 51
270.0
  0
LINE
  5
B130
330
AFE5
100
AcDbEntity
  8
4
  6
CENTER
100
AcDbLine
 10
134.9146189999999
 20
55.50961199999999
 30
0.0
 11
122.4146189999999
 21
55.50961199999999
 31
0.0
  0
LINE
  5
B131
330
AFE5
100
AcDbEntity
  8
4
  6
CENTER
100
AcDbLine
 10
175.6646189999999
 20
61.75961199999999
 30
0.0
 11
175.6646189999999
 21
49.25961199999999
 31
0.0
  0
LINE
  5
B132
330
AFE5
100
AcDbEntity
  8
1
  6
Continuous
100
AcDbLine
 10
182.1646189999999
 20
51.509612
 30
0.0
 11
182.1646189999999
 21
88.509612
 31
0.0
  0
LINE
  5
B133
330
AFE5
100
AcDbEntity
  8
4
  6
CENTER
100
AcDbLine
 10
175.6646189999999
 20
90.759612
 30
0.0
 11
175.6646189999999
 21
78.259612
 31
0.0
  0
CIRCLE
  5
B134
330
AFE5
100
AcDbEntity
  8
1
  6
Continuous
100
AcDbCircle
 10
175.6646189999999
 20
84.509612
 30
0.0
 40
3.25
  0
ARC
  5
B135
330
AFE5
100
AcDbEntity
  8
1
  6
Continuous
100
AcDbCircle
 10
179.6646189999999
 20
88.509612
 30
0.0
 40
2.5
100
AcDbArc
 50
0.0
 51
60.306518
  0
ARC
  5
B136
330
AFE5
100
AcDbEntity
  8
1
  6
Continuous
100
AcDbCircle
 10
179.6646189999999
 20
51.509612
 30
0.0
 40
2.5
100
AcDbArc
 50
270.0
 51
0.0
  0
CIRCLE
  5
B137
330
AFE5
100
AcDbEntity
  8
1
  6
Continuous
100
AcDbCircle
 10
175.6646189999999
 20
55.50961199999999
 30
0.0
 40
3.25
  0
LINE
  5
B138
330
AFE5
100
AcDbEntity
  8
1
  6
Continuous
100
AcDbLine
 10
137.5129129999999
 20
57.50961199999998
 30
0.0
 11
126.07531
 21
57.50961199999998
 31
0.0
  0
LINE
  5
B139
330
AFE5
100
AcDbEntity
  8
1
  6
Continuous
100
AcDbLine
 10
136.931079
 20
55.50937199999999
 30
0.0
 11
126.07531
 21
55.50937199999999
 31
0.0
  0
LINE
  5
B13A
330
AFE5
100
AcDbEntity
  8
1
  6
Continuous
100
AcDbLine
 10
136.931079
 20
84.50985199999998
 30
0.0
 11
126.07531
 21
84.50985199999998
 31
0.0
  0
LINE
  5
B13B
330
AFE5
100
AcDbEntity
  8
1
  6
Continuous
100
AcDbLine
 10
137.5129129999999
 20
82.509612
 30
0.0
 11
126.07531
 21
82.509612
 31
0.0
  0
LINE
  5
B13C
330
AFE5
100
AcDbEntity
  8
1
  6
Continuous
100
AcDbLine
 10
122.1646189999999
 20
59.009612
 30
0.0
 11
122.1646189999999
 21
51.509612
 31
0.0
  0
ARC
  5
B13D
330
AFE5
100
AcDbEntity
  8
1
  6
Continuous
100
AcDbCircle
 10
128.6646189999999
 20
55.50961199999999
 30
0.0
 40
3.25
100
AcDbArc
 50
116.440034
 51
142.020128
  0
LINE
  5
B13E
330
AFE5
100
AcDbEntity
  8
4
  6
CENTER
100
AcDbLine
 10
133.164626
 20
127.113237
 30
0.0
 11
133.164626
 21
185.113237
 31
0.0
  0
LINE
  5
B13F
330
AFE5
100
AcDbEntity
  8
1
  6
Continuous
100
AcDbLine
 10
126.07531
 20
55.50937199999999
 30
0.0
 11
126.07531
 21
57.50961199999998
 31
0.0
  0
LINE
  5
B140
330
AFE5
100
AcDbEntity
  8
1
  6
Continuous
100
AcDbLine
 10
126.07531
 20
82.509612
 30
0.0
 11
126.07531
 21
84.50985199999998
 31
0.0
  0
ARC
  5
B141
330
AFE5
100
AcDbEntity
  8
1
  6
Continuous
100
AcDbCircle
 10
152.164619
 20
70.009612
 30
0.0
 40
19.953671
100
AcDbArc
 50
227.2057859999999
 51
64.30641999999997
  0
ARC
  5
B142
330
AFE5
100
AcDbEntity
  8
1
  6
Continuous
100
AcDbCircle
 10
152.164619
 20
70.009612
 30
0.0
 40
13.6
100
AcDbArc
 50
233.9811459999999
 51
126.0188539999999
  0
ARC
  5
B143
330
AFE5
100
AcDbEntity
  8
1
  6
Continuous
100
AcDbCircle
 10
152.164619
 20
70.009612
 30
0.0
 40
12.0
100
AcDbArc
 50
246.4435359999999
 51
113.556464
  0
LINE
  5
B144
330
AFE5
100
AcDbEntity
  8
4
  6
CENTER
100
AcDbLine
 10
133.164626
 20
98.20961500000001
 30
0.0
 11
133.164626
 21
44.009612
 31
0.0
  0
ARC
  5
B145
330
AFE5
100
AcDbEntity
  8
1
  6
Continuous
100
AcDbCircle
 10
133.164626
 20
62.509372
 30
0.0
 40
9.0
100
AcDbArc
 50
241.8213569999999
 51
298.178643
  0
LINE
  5
B146
330
AFE5
100
AcDbEntity
  8
1
  6
Continuous
100
AcDbLine
 10
128.914626
 20
54.576056
 30
0.0
 11
137.414626
 21
54.576056
 31
0.0
  0
LINE
  5
B147
330
AFE5
100
AcDbEntity
  8
1
  6
Continuous
100
AcDbLine
 10
136.164626
 20
57.50961199999998
 30
0.0
 11
136.164626
 21
58.109612
 31
0.0
  0
LINE
  5
B148
330
AFE5
100
AcDbEntity
  8
1
  6
Continuous
100
AcDbLine
 10
137.414626
 20
55.50937199999999
 30
0.0
 11
137.414626
 21
54.576056
 31
0.0
  0
LINE
  5
B149
330
AFE5
100
AcDbEntity
  8
1
  6
Continuous
100
AcDbLine
 10
136.164626
 20
58.259612
 30
0.0
 11
136.164626
 21
58.00961199999999
 31
0.0
  0
LINE
  5
B14A
330
AFE5
100
AcDbEntity
  8
1
  6
Continuous
100
AcDbLine
 10
136.164626
 20
82.509612
 30
0.0
 11
136.164626
 21
81.75961200000001
 31
0.0
  0
LINE
  5
B14B
330
AFE5
100
AcDbEntity
  8
1
  6
Continuous
100
AcDbLine
 10
130.164626
 20
57.50961199999998
 30
0.0
 11
130.164626
 21
58.109612
 31
0.0
  0
LINE
  5
B14C
330
AFE5
100
AcDbEntity
  8
1
  6
Continuous
100
AcDbLine
 10
128.914626
 20
55.50937199999999
 30
0.0
 11
128.914626
 21
54.576056
 31
0.0
  0
LINE
  5
B14D
330
AFE5
100
AcDbEntity
  8
1
  6
Continuous
100
AcDbLine
 10
130.164626
 20
58.259612
 30
0.0
 11
130.164626
 21
57.90610799999999
 31
0.0
  0
LINE
  5
B14E
330
AFE5
100
AcDbEntity
  8
1
  6
Continuous
100
AcDbLine
 10
130.164626
 20
82.509612
 30
0.0
 11
130.164626
 21
81.75961200000001
 31
0.0
  0
ARC
  5
B14F
330
AFE5
100
AcDbEntity
  8
1
  6
Continuous
100
AcDbCircle
 10
128.6646189999999
 20
55.50961199999999
 30
0.0
 40
3.25
100
AcDbArc
 50
142.817135
 51
326.0023529999998
  0
LINE
  5
B150
330
AFE5
100
AcDbEntity
  8
1
  6
Continuous
100
AcDbLine
 10
126.07531
 20
246.681635
 30
0.0
 11
126.07531
 21
244.717222
 31
0.0
  0
LINE
  5
B151
330
AFE5
100
AcDbEntity
  8
1
  6
Continuous
100
AcDbLine
 10
128.694865
 20
246.717462
 30
0.0
 11
126.1028819999999
 21
246.717462
 31
0.0
  0
LINE
  5
B152
330
AFE5
100
AcDbEntity
  8
1
  6
Continuous
100
AcDbLine
 10
131.9146189999998
 20
244.717222
 30
0.0
 11
126.07531
 21
244.717222
 31
0.0
  0
LINE
  5
B153
330
AFE5
100
AcDbEntity
  8
1
  6
Continuous
100
AcDbLine
 10
126.07531
 20
273.7177019999999
 30
0.0
 11
126.07531
 21
271.753289
 31
0.0
  0
LINE
  5
B154
330
AFE5
100
AcDbEntity
  8
1
  6
Continuous
100
AcDbLine
 10
128.914626
 20
273.7177019999999
 30
0.0
 11
128.914626
 21
274.651018
 31
0.0
  0
LINE
  5
B155
330
AFE5
100
AcDbEntity
  8
1
  6
Continuous
100
AcDbLine
 10
131.9146189999998
 20
273.7177019999999
 30
0.0
 11
126.07531
 21
273.7177019999999
 31
0.0
  0
LINE
  5
B156
330
AFE5
100
AcDbEntity
  8
1
  6
Continuous
100
AcDbLine
 10
128.694865
 20
271.717462
 30
0.0
 11
126.1028819999999
 21
271.717462
 31
0.0
  0
LINE
  5
B157
330
AFE5
100
AcDbEntity
  8
1
  6
Continuous
100
AcDbLine
 10
128.914626
 20
274.651018
 30
0.0
 11
131.777652
 21
274.651018
 31
0.0
  0
ARC
  5
B158
330
AFE5
100
AcDbEntity
  8
1
  6
Continuous
100
AcDbCircle
 10
133.164626
 20
266.717702
 30
0.0
 40
9.0
100
AcDbArc
 50
101.5730889999999
 51
118.178643
  0
ARC
  5
B159
330
AFE5
100
AcDbEntity
  8
1
  6
Continuous
100
AcDbCircle
 10
167.167723
 20
70.009612
 30
0.0
 40
40.45257399999999
100
AcDbArc
 50
162.0007939999998
 51
163.1142869999999
  0
ARC
  5
B15A
330
AFE5
100
AcDbEntity
  8
1
  6
Continuous
100
AcDbCircle
 10
167.167723
 20
70.009612
 30
0.0
 40
40.45257399999999
100
AcDbArc
 50
196.8857129999999
 51
197.9992059999999
  0
ARC
  5
B15B
330
AFE5
100
AcDbEntity
  8
1
  6
Continuous
100
AcDbCircle
 10
167.167723
 20
259.217462
 30
0.0
 40
40.45257399999999
100
AcDbArc
 50
196.174637
 51
201.005058
  0
ARC
  5
B15C
330
AFE5
100
AcDbEntity
  8
1
  6
Continuous
100
AcDbCircle
 10
167.167723
 20
259.217462
 30
0.0
 40
40.45257399999999
100
AcDbArc
 50
158.9949419999999
 51
163.8253629999999
  0
LINE
  5
B15D
330
AFE5
100
AcDbEntity
  8
1
  6
Continuous
100
AcDbLine
 10
170.764126
 20
183.105367
 30
0.0
 11
171.0146259999999
 21
183.105367
 31
0.0
  0
LINE
  5
B15E
330
AFE5
100
AcDbEntity
  8
1
  6
Continuous
100
AcDbLine
 10
171.0146259999999
 20
183.105367
 30
0.0
 11
170.6780469999999
 21
187.2199979999998
 31
0.0
  0
ARC
  5
B15F
330
AFE5
100
AcDbEntity
  8
1
  6
Continuous
100
AcDbCircle
 10
152.164619
 20
70.009612
 30
0.0
 40
18.85
100
AcDbArc
 50
238.127847
 51
63.63670400000001
  0
ARC
  5
B160
330
AFE5
100
AcDbEntity
  8
1
  6
Continuous
100
AcDbCircle
 10
152.164619
 20
70.009612
 30
0.0
 40
16.85
100
AcDbArc
 50
236.92835
 51
94.64328800000002
  0
ARC
  5
B161
330
AFE5
100
AcDbEntity
  8
1
  6
Continuous
100
AcDbCircle
 10
136.931079
 20
94.50985199999999
 30
0.0
 40
10.0
100
AcDbArc
 50
270.0
 51
301.8721529999999
  0
ARC
  5
B162
330
AFE5
100
AcDbEntity
  8
1
  6
Continuous
100
AcDbCircle
 10
137.5129129999999
 20
92.509612
 30
0.0
 40
10.0
100
AcDbArc
 50
270.0
 51
303.07165
  0
ARC
  5
B163
330
AFE5
100
AcDbEntity
  8
1
  6
Continuous
100
AcDbCircle
 10
137.5129129999999
 20
47.50961199999998
 30
0.0
 40
10.0
100
AcDbArc
 50
56.92835
 51
90.0
  0
ARC
  5
B164
330
AFE5
100
AcDbEntity
  8
1
  6
Continuous
100
AcDbCircle
 10
136.931079
 20
45.50937199999999
 30
0.0
 40
10.0
100
AcDbArc
 50
58.12784699999998
 51
90.0
  0
ARC
  5
B165
330
AFE5
100
AcDbEntity
  8
1
  6
Continuous
100
AcDbCircle
 10
128.6646189999999
 20
84.509612
 30
0.0
 40
3.25
100
AcDbArc
 50
217.9798719999999
 51
243.5599659999998
  0
ARC
  5
B166
330
AFE5
100
AcDbEntity
  8
1
  6
Continuous
100
AcDbCircle
 10
55.731462
 20
167.03323
 30
0.0
 40
26.722888
100
AcDbArc
 50
212.0233099999999
 51
213.180835
  0
LINE
  5
B167
330
AFE5
100
AcDbEntity
  8
1
  6
Continuous
100
AcDbLine
 10
258.863443
 20
149.528637
 30
0.0
 11
258.863443
 21
148.6763159999999
 31
0.0
  0
ARC
  5
B168
330
AFE5
100
AcDbEntity
  8
1
  6
Continuous
100
AcDbCircle
 10
236.503443
 20
166.870484
 30
0.0
 40
26.713884
100
AcDbArc
 50
331.812974
 51
358.9933849999999
  0
LINE
  5
B169
330
AFE5
100
AcDbEntity
  8
1
  6
Continuous
100
AcDbLine
 10
256.8632029999998
 20
148.6763159999999
 30
0.0
 11
258.863443
 21
148.6763159999999
 31
0.0
  0
ARC
  5
B16A
330
AFE5
100
AcDbEntity
  8
1
  6
Continuous
100
AcDbCircle
 10
268.863443
 20
149.528637
 30
0.0
 40
10.0
100
AcDbArc
 50
151.812974
 51
180.0
  0
LINE
  5
B16B
330
AFE5
100
AcDbEntity
  8
1
  6
Continuous
100
AcDbLine
 10
261.180827
 20
174.474628
 30
0.0
 11
261.180827
 21
167.2864389999998
 31
0.0
  0
ARC
  5
B16C
330
AFE5
100
AcDbEntity
  8
1
  6
Continuous
100
AcDbCircle
 10
234.4710669999999
 20
167.7557439999999
 30
0.0
 40
26.713884
100
AcDbArc
 50
331.812974
 51
358.9933849999999
  0
ARC
  5
B16D
330
AFE5
100
AcDbEntity
  8
1
  6
Continuous
100
AcDbCircle
 10
266.831067
 20
150.413898
 30
0.0
 40
10.0
100
AcDbArc
 50
151.812974
 51
175.405317
  0
ARC
  5
B16E
330
AFE5
100
AcDbEntity
  8
1
  6
Continuous
100
AcDbCircle
 10
252.222963
 20
166.870484
 30
0.0
 40
26.713884
100
AcDbArc
 50
181.006615
 51
185.7080609999999
  0
ARC
  5
B16F
330
AFE5
100
AcDbEntity
  8
1
  6
Continuous
100
AcDbCircle
 10
219.8629629999998
 20
149.528637
 30
0.0
 40
10.0
100
AcDbArc
 50
0.0
 51
28.18702599999999
  0
LINE
  5
B170
330
AFE5
100
AcDbEntity
  8
1
  6
Continuous
100
AcDbLine
 10
231.8632029999999
 20
148.6763159999999
 30
0.0
 11
229.8629629999998
 21
148.6763159999999
 31
0.0
  0
LINE
  5
B171
330
AFE5
100
AcDbEntity
  8
1
  6
Continuous
100
AcDbLine
 10
229.8629629999998
 20
149.528637
 30
0.0
 11
229.8629629999998
 21
148.6763159999999
 31
0.0
  0
ARC
  5
B172
330
AFE5
100
AcDbEntity
  8
1
  6
Continuous
100
AcDbCircle
 10
221.89534
 20
150.413898
 30
0.0
 40
10.0
100
AcDbArc
 50
4.594682999999998
 51
28.18702599999999
  0
ARC
  5
B173
330
AFE5
100
AcDbEntity
  8
1
  6
Continuous
100
AcDbCircle
 10
254.25534
 20
167.7557439999999
 30
0.0
 40
26.713884
100
AcDbArc
 50
181.006615
 51
208.187026
  0
LINE
  5
B174
330
AFE5
100
AcDbEntity
  8
1
  6
Continuous
100
AcDbLine
 10
227.5455799999999
 20
174.474628
 30
0.0
 11
227.5455799999999
 21
167.2864389999998
 31
0.0
  0
ARC
  5
B175
330
AFE5
100
AcDbEntity
  8
1
  6
Continuous
100
AcDbCircle
 10
240.7727219999999
 20
173.5058109999999
 30
0.0
 40
13.262575
100
AcDbArc
 50
133.679923
 51
175.810882
  0
ARC
  5
B176
330
AFE5
100
AcDbEntity
  8
1
  6
Continuous
100
AcDbCircle
 10
133.164626
 20
157.1132369999999
 30
0.0
 40
25.0
100
AcDbArc
 50
100.00639
 51
153.913614
  0
ARC
  5
B177
330
AFE5
100
AcDbEntity
  8
1
  6
Continuous
100
AcDbCircle
 10
133.164626
 20
157.1132369999999
 30
0.0
 40
19.5
100
AcDbArc
 50
104.8181719999998
 51
145.684396
  0
LINE
  5
B178
330
AFE5
100
AcDbEntity
  8
1
  6
Continuous
100
AcDbLine
 10
127.5841689999999
 20
247.467462
 30
0.0
 11
128.4592189999999
 21
247.467462
 31
0.0
  0
LINE
  5
B179
330
AFE5
100
AcDbEntity
  8
1
  6
Continuous
100
AcDbLine
 10
110.5787599999999
 20
248.217462
 30
0.0
 11
122.1646189999999
 21
248.217462
 31
0.0
  0
ARC
  5
B17A
330
AFE5
100
AcDbEntity
  8
1
  6
Continuous
100
AcDbCircle
 10
127.5841689999999
 20
247.967462
 30
0.0
 40
0.5
100
AcDbArc
 50
222.835763
 51
270.0
  0
LINE
  5
B17B
330
AFE5
100
AcDbEntity
  8
1
  6
Continuous
100
AcDbLine
 10
127.5841689999999
 20
270.967462
 30
0.0
 11
128.4592189999999
 21
270.967462
 31
0.0
  0
LINE
  5
B17C
330
AFE5
100
AcDbEntity
  8
1
  6
Continuous
100
AcDbLine
 10
110.5787599999999
 20
270.217462
 30
0.0
 11
122.1646189999999
 21
270.217462
 31
0.0
  0
ARC
  5
B17D
330
AFE5
100
AcDbEntity
  8
1
  6
Continuous
100
AcDbCircle
 10
127.5841689999999
 20
270.467462
 30
0.0
 40
0.5
100
AcDbArc
 50
90.0
 51
137.164237
  0
ARC
  5
B17E
330
AFE5
100
AcDbEntity
  8
1
  6
Continuous
100
AcDbCircle
 10
208.1646189999999
 20
259.217462
 30
0.0
 40
100.0
100
AcDbArc
 50
174.730718
 51
185.269282
  0
ARC
  5
B17F
330
AFE5
100
AcDbEntity
  8
1
  6
Continuous
100
AcDbCircle
 10
110.5787599999999
 20
250.217462
 30
0.0
 40
2.0
100
AcDbArc
 50
185.269282
 51
270.0
  0
ARC
  5
B180
330
AFE5
100
AcDbEntity
  8
1
  6
Continuous
100
AcDbCircle
 10
110.5787599999999
 20
268.217462
 30
0.0
 40
2.0
100
AcDbArc
 50
90.0
 51
174.730718
  0
LINE
  5
B181
330
AFE5
100
AcDbEntity
  8
1
  6
Continuous
100
AcDbLine
 10
58.866049
 20
179.6988969999999
 30
0.0
 11
58.866049
 21
134.527178
 31
0.0
  0
LINE
  5
B182
330
AFE5
100
AcDbEntity
  8
1
  6
Continuous
100
AcDbLine
 10
36.86604899999998
 20
179.6988969999999
 30
0.0
 11
36.86604899999998
 21
134.527178
 31
0.0
  0
LINE
  5
B183
330
AFE5
100
AcDbEntity
  8
1
  6
Continuous
100
AcDbLine
 10
36.52922499999998
 20
163.1858919999999
 30
0.0
 11
36.86604899999998
 21
163.245283
 31
0.0
  0
LINE
  5
B184
330
AFE5
100
AcDbEntity
  8
1
  6
Continuous
100
AcDbLine
 10
36.52922499999998
 20
151.040184
 30
0.0
 11
36.86604899999998
 21
150.980793
 31
0.0
  0
ARC
  5
B185
330
AFE5
100
AcDbEntity
  8
1
  6
Continuous
100
AcDbCircle
 10
38.866049
 20
134.527178
 30
0.0
 40
2.0
100
AcDbArc
 50
180.0
 51
264.730718
  0
ARC
  5
B186
330
AFE5
100
AcDbEntity
  8
1
  6
Continuous
100
AcDbCircle
 10
36.61604899999999
 20
162.693488
 30
0.0
 40
0.5
100
AcDbArc
 50
100.0
 51
180.0
  0
ARC
  5
B187
330
AFE5
100
AcDbEntity
  8
1
  6
Continuous
100
AcDbCircle
 10
36.61604899999999
 20
151.5325879999998
 30
0.0
 40
0.5
100
AcDbArc
 50
180.0
 51
260.0
  0
LINE
  5
B188
330
AFE5
100
AcDbEntity
  8
1
  6
Continuous
100
AcDbLine
 10
36.11604899999999
 20
162.693488
 30
0.0
 11
36.11604899999999
 21
151.5325879999998
 31
0.0
  0
ARC
  5
B189
330
AFE5
100
AcDbEntity
  8
1
  6
Continuous
100
AcDbCircle
 10
47.86604899999999
 20
232.113038
 30
0.0
 40
100.0
100
AcDbArc
 50
264.730718
 51
275.2692819999999
  0
ARC
  5
B18A
330
AFE5
100
AcDbEntity
  8
1
  6
Continuous
100
AcDbCircle
 10
56.86604899999998
 20
134.527178
 30
0.0
 40
2.0
100
AcDbArc
 50
275.2692819999999
 51
0.0
  0
LINE
  5
B18B
330
AFE5
100
AcDbEntity
  8
1
  6
Continuous
100
AcDbLine
 10
59.202873
 20
163.1858919999999
 30
0.0
 11
58.866049
 21
163.245283
 31
0.0
  0
ARC
  5
B18C
330
AFE5
100
AcDbEntity
  8
1
  6
Continuous
100
AcDbCircle
 10
59.116049
 20
162.693488
 30
0.0
 40
0.5
100
AcDbArc
 50
0.0
 51
80.0
  0
LINE
  5
B18D
330
AFE5
100
AcDbEntity
  8
1
  6
Continuous
100
AcDbLine
 10
59.202873
 20
151.040184
 30
0.0
 11
58.866049
 21
150.980793
 31
0.0
  0
ARC
  5
B18E
330
AFE5
100
AcDbEntity
  8
1
  6
Continuous
100
AcDbCircle
 10
59.116049
 20
151.5325879999998
 30
0.0
 40
0.5
100
AcDbArc
 50
280.0
 51
0.0
  0
LINE
  5
B18F
330
AFE5
100
AcDbEntity
  8
1
  6
Continuous
100
AcDbLine
 10
59.616049
 20
162.693488
 30
0.0
 11
59.616049
 21
151.5325879999998
 31
0.0
  0
ARC
  5
B190
330
AFE5
100
AcDbEntity
  8
1
  6
Continuous
100
AcDbCircle
 10
38.866049
 20
179.6988969999999
 30
0.0
 40
2.0
100
AcDbArc
 50
95.26928199999998
 51
180.0
  0
ARC
  5
B191
330
AFE5
100
AcDbEntity
  8
1
  6
Continuous
100
AcDbCircle
 10
47.86604899999999
 20
82.11303800000001
 30
0.0
 40
100.0
100
AcDbArc
 50
84.73071800000003
 51
95.26928199999998
  0
ARC
  5
B192
330
AFE5
100
AcDbEntity
  8
1
  6
Continuous
100
AcDbCircle
 10
56.86604899999998
 20
179.6988969999999
 30
0.0
 40
2.0
100
AcDbArc
 50
0.0
 51
84.73071800000003
  0
LINE
  5
B193
330
AFE5
100
AcDbEntity
  8
1
  6
Continuous
100
AcDbLine
 10
233.3632029999999
 20
179.6988969999999
 30
0.0
 11
233.3632029999999
 21
134.527178
 31
0.0
  0
LINE
  5
B194
330
AFE5
100
AcDbEntity
  8
1
  6
Continuous
100
AcDbLine
 10
255.3632029999999
 20
179.6988969999999
 30
0.0
 11
255.3632029999999
 21
134.527178
 31
0.0
  0
ARC
  5
B195
330
AFE5
100
AcDbEntity
  8
1
  6
Continuous
100
AcDbCircle
 10
235.3632029999999
 20
134.527178
 30
0.0
 40
2.0
100
AcDbArc
 50
180.0
 51
264.730718
  0
LINE
  5
B196
330
AFE5
100
AcDbEntity
  8
1
  6
Continuous
100
AcDbLine
 10
232.6132029999999
 20
162.693488
 30
0.0
 11
232.6132029999999
 21
151.5325879999998
 31
0.0
  0
ARC
  5
B197
330
AFE5
100
AcDbEntity
  8
1
  6
Continuous
100
AcDbCircle
 10
233.1132029999999
 20
151.5325879999998
 30
0.0
 40
0.5
100
AcDbArc
 50
180.0
 51
260.0
  0
LINE
  5
B198
330
AFE5
100
AcDbEntity
  8
1
  6
Continuous
100
AcDbLine
 10
233.026379
 20
151.040184
 30
0.0
 11
233.3632029999999
 21
150.980793
 31
0.0
  0
ARC
  5
B199
330
AFE5
100
AcDbEntity
  8
1
  6
Continuous
100
AcDbCircle
 10
233.1132029999999
 20
162.693488
 30
0.0
 40
0.5
100
AcDbArc
 50
100.0
 51
180.0
  0
LINE
  5
B19A
330
AFE5
100
AcDbEntity
  8
1
  6
Continuous
100
AcDbLine
 10
233.026379
 20
163.1858919999999
 30
0.0
 11
233.3632029999999
 21
163.245283
 31
0.0
  0
ARC
  5
B19B
330
AFE5
100
AcDbEntity
  8
1
  6
Continuous
100
AcDbCircle
 10
253.3632029999999
 20
134.527178
 30
0.0
 40
2.0
100
AcDbArc
 50
275.2692819999999
 51
0.0
  0
ARC
  5
B19C
330
AFE5
100
AcDbEntity
  8
1
  6
Continuous
100
AcDbCircle
 10
244.3632029999999
 20
232.113038
 30
0.0
 40
100.0
100
AcDbArc
 50
264.730718
 51
275.2692819999999
  0
LINE
  5
B19D
330
AFE5
100
AcDbEntity
  8
1
  6
Continuous
100
AcDbLine
 10
256.113203
 20
162.693488
 30
0.0
 11
256.113203
 21
151.5325879999998
 31
0.0
  0
ARC
  5
B19E
330
AFE5
100
AcDbEntity
  8
1
  6
Continuous
100
AcDbCircle
 10
255.6132029999999
 20
151.5325879999998
 30
0.0
 40
0.5
100
AcDbArc
 50
280.0
 51
0.0
  0
LINE
  5
B19F
330
AFE5
100
AcDbEntity
  8
1
  6
Continuous
100
AcDbLine
 10
255.700027
 20
151.040184
 30
0.0
 11
255.3632029999999
 21
150.980793
 31
0.0
  0
ARC
  5
B1A0
330
AFE5
100
AcDbEntity
  8
1
  6
Continuous
100
AcDbCircle
 10
255.6132029999999
 20
162.693488
 30
0.0
 40
0.5
100
AcDbArc
 50
0.0
 51
80.0
  0
LINE
  5
B1A1
330
AFE5
100
AcDbEntity
  8
1
  6
Continuous
100
AcDbLine
 10
255.700027
 20
163.1858919999999
 30
0.0
 11
255.3632029999999
 21
163.245283
 31
0.0
  0
ARC
  5
B1A2
330
AFE5
100
AcDbEntity
  8
1
  6
Continuous
100
AcDbCircle
 10
235.3632029999999
 20
179.6988969999999
 30
0.0
 40
2.0
100
AcDbArc
 50
95.26928199999998
 51
180.0
  0
ARC
  5
B1A3
330
AFE5
100
AcDbEntity
  8
1
  6
Continuous
100
AcDbCircle
 10
244.3632029999999
 20
82.11303800000001
 30
0.0
 40
100.0
100
AcDbArc
 50
84.73071800000003
 51
95.26928199999998
  0
ARC
  5
B1A4
330
AFE5
100
AcDbEntity
  8
1
  6
Continuous
100
AcDbCircle
 10
253.3632029999999
 20
179.6988969999999
 30
0.0
 40
2.0
100
AcDbArc
 50
0.0
 51
84.73071800000003
  0
LINE
  5
B1A5
330
AFE5
100
AcDbEntity
  8
1
  6
Continuous
100
AcDbLine
 10
110.578767
 20
59.009612
 30
0.0
 11
155.750486
 21
59.009612
 31
0.0
  0
LINE
  5
B1A6
330
AFE5
100
AcDbEntity
  8
1
  6
Continuous
100
AcDbLine
 10
110.578767
 20
81.009612
 30
0.0
 11
155.750486
 21
81.009612
 31
0.0
  0
ARC
  5
B1A7
330
AFE5
100
AcDbEntity
  8
1
  6
Continuous
100
AcDbCircle
 10
208.1646259999998
 20
70.009612
 30
0.0
 40
100.0
100
AcDbArc
 50
174.730718
 51
185.269282
  0
ARC
  5
B1A8
330
AFE5
100
AcDbEntity
  8
1
  6
Continuous
100
AcDbCircle
 10
110.578767
 20
61.009612
 30
0.0
 40
2.0
100
AcDbArc
 50
185.269282
 51
270.0
  0
ARC
  5
B1A9
330
AFE5
100
AcDbEntity
  8
1
  6
Continuous
100
AcDbCircle
 10
110.578767
 20
79.00961200000002
 30
0.0
 40
2.0
100
AcDbArc
 50
90.0
 51
174.730718
  0
LINE
  5
B1AA
330
AFE5
100
AcDbEntity
  8
1
  6
Continuous
100
AcDbLine
 10
127.584176
 20
58.259612
 30
0.0
 11
138.745076
 21
58.259612
 31
0.0
  0
ARC
  5
B1AB
330
AFE5
100
AcDbEntity
  8
1
  6
Continuous
100
AcDbCircle
 10
127.584176
 20
58.75961199999998
 30
0.0
 40
0.5
100
AcDbArc
 50
190.0
 51
270.0
  0
LINE
  5
B1AC
330
AFE5
100
AcDbEntity
  8
1
  6
Continuous
100
AcDbLine
 10
127.0917719999999
 20
58.672788
 30
0.0
 11
127.032381
 21
59.009612
 31
0.0
  0
ARC
  5
B1AD
330
AFE5
100
AcDbEntity
  8
1
  6
Continuous
100
AcDbCircle
 10
138.745076
 20
58.75961199999998
 30
0.0
 40
0.5
100
AcDbArc
 50
270.0
 51
350.0
  0
LINE
  5
B1AE
330
AFE5
100
AcDbEntity
  8
1
  6
Continuous
100
AcDbLine
 10
139.23748
 20
58.672788
 30
0.0
 11
139.296871
 21
59.009612
 31
0.0
  0
LINE
  5
B1AF
330
AFE5
100
AcDbEntity
  8
1
  6
Continuous
100
AcDbLine
 10
127.584176
 20
81.75961200000001
 30
0.0
 11
138.745076
 21
81.75961200000001
 31
0.0
  0
ARC
  5
B1B0
330
AFE5
100
AcDbEntity
  8
1
  6
Continuous
100
AcDbCircle
 10
127.584176
 20
81.259612
 30
0.0
 40
0.5
100
AcDbArc
 50
90.0
 51
170.0
  0
LINE
  5
B1B1
330
AFE5
100
AcDbEntity
  8
1
  6
Continuous
100
AcDbLine
 10
127.0917719999999
 20
81.34643599999998
 30
0.0
 11
127.032381
 21
81.009612
 31
0.0
  0
ARC
  5
B1B2
330
AFE5
100
AcDbEntity
  8
1
  6
Continuous
100
AcDbCircle
 10
138.745076
 20
81.259612
 30
0.0
 40
0.5
100
AcDbArc
 50
10.0
 51
90.0
  0
LINE
  5
B1B3
330
AFE5
100
AcDbEntity
  8
1
  6
Continuous
100
AcDbLine
 10
139.23748
 20
81.34643599999998
 30
0.0
 11
139.296871
 21
81.009612
 31
0.0
  0
ARC
  5
B1B4
330
AFE5
100
AcDbEntity
  8
1
  6
Continuous
100
AcDbCircle
 10
58.164626
 20
70.009612
 30
0.0
 40
100.0
100
AcDbArc
 50
354.730718
 51
5.269281999999998
  0
ARC
  5
B1B5
330
AFE5
100
AcDbEntity
  8
1
  6
Continuous
100
AcDbCircle
 10
155.750486
 20
61.009612
 30
0.0
 40
2.0
100
AcDbArc
 50
270.0
 51
354.730718
  0
ARC
  5
B1B6
330
AFE5
100
AcDbEntity
  8
1
  6
Continuous
100
AcDbCircle
 10
155.750486
 20
79.00961200000002
 30
0.0
 40
2.0
100
AcDbArc
 50
5.269281999999998
 51
90.0
  0
LINE
  5
B1B7
330
AFE5
100
AcDbEntity
  8
1
  6
Continuous
100
AcDbLine
 10
135.8952069999999
 20
189.801237
 30
0.0
 11
168.414626
 21
189.801237
 31
0.0
  0
LINE
  5
B1B8
330
AFE5
100
AcDbEntity
  8
4
  6
CENTER
100
AcDbLine
 10
133.1646189999998
 20
285.2174619999999
 30
0.0
 11
133.1646189999998
 21
231.0174589999999
 31
0.0
  0
ARC
  5
B1B9
330
AFE5
100
AcDbEntity
  8
1
  6
Continuous
100
AcDbCircle
 10
143.993505
 20
85.879317
 30
0.0
 40
1.0
100
AcDbArc
 50
39.805571
 51
117.2430099999999
  0
ARC
  5
B1BA
330
AFE5
100
AcDbEntity
  8
1
  6
Continuous
100
AcDbCircle
 10
152.1646179999999
 20
70.00936800000001
 30
0.0
 40
16.35
100
AcDbArc
 50
94.469398
 51
112.43071
  0
ARC
  5
B1BB
330
AFE5
100
AcDbEntity
  8
1
  6
Continuous
100
AcDbCircle
 10
136.931083
 20
94.509612
 30
0.0
 40
9.5
100
AcDbArc
 50
270.0
 51
301.8721499999998
  0
ARC
  5
B1BC
330
AFE5
100
AcDbEntity
  8
1
  6
Continuous
100
AcDbCircle
 10
152.1646179999999
 20
70.00936800000001
 30
0.0
 40
19.35
100
AcDbArc
 50
95.376563
 51
121.87216
  0
ARC
  5
B1BD
330
AFE5
100
AcDbEntity
  8
1
  6
Continuous
100
AcDbCircle
 10
152.1646179999999
 20
70.00936800000001
 30
0.0
 40
18.85
100
AcDbArc
 50
117.2430099999999
 51
121.87216
  0
ARC
  5
B1BE
330
AFE5
100
AcDbEntity
  8
1
  6
Continuous
100
AcDbCircle
 10
142.999662
 20
88.152907
 30
0.0
 40
2.0
100
AcDbArc
 50
90.00000300000001
 51
135.0
  0
ARC
  5
B1BF
330
AFE5
100
AcDbEntity
  8
1
  6
Continuous
100
AcDbCircle
 10
135.2468169999999
 20
89.30961499999998
 30
0.0
 40
4.299999999999998
100
AcDbArc
 50
270.0
 51
315.0
  0
ARC
  5
B1C0
330
AFE5
100
AcDbEntity
  8
1
  6
Continuous
100
AcDbCircle
 10
116.198605
 20
85.03544499999998
 30
0.0
 40
2.0
100
AcDbArc
 50
224.1068299999998
 51
270.0
  0
ARC
  5
B1C1
330
AFE5
100
AcDbEntity
  8
1
  6
Continuous
100
AcDbCircle
 10
107.8664899999999
 20
85.03544499999998
 30
0.0
 40
2.0
100
AcDbArc
 50
270.0
 51
315.89317
  0
ARC
  5
B1C2
330
AFE5
100
AcDbEntity
  8
1
  6
Continuous
100
AcDbCircle
 10
112.0325519999999
 20
84.768752
 30
0.0
 40
1.177035
100
AcDbArc
 50
44.10683099999999
 51
135.89317
  0
ARC
  5
B1C3
330
AFE5
100
AcDbEntity
  8
1
  6
Continuous
100
AcDbCircle
 10
124.4446919999999
 20
83.53544499999998
 30
0.0
 40
1.0
100
AcDbArc
 50
270.0
 51
350.5376799999999
  0
ARC
  5
B1C4
330
AFE5
100
AcDbEntity
  8
1
  6
Continuous
100
AcDbCircle
 10
126.0444169999999
 20
84.00961200000002
 30
0.0
 40
0.5
100
AcDbArc
 50
90.00000300000001
 51
170.5376799999999
  0
ARC
  5
B1C5
330
AFE5
100
AcDbEntity
  8
1
  6
Continuous
100
AcDbCircle
 10
126.0444169999999
 20
84.00961200000002
 30
0.0
 40
1.0
100
AcDbArc
 50
90.00000300000001
 51
170.5376799999999
  0
ARC
  5
B1C6
330
AFE5
100
AcDbEntity
  8
1
  6
Continuous
100
AcDbCircle
 10
123.7079059999999
 20
75.009612
 30
0.0
 40
10.0
100
AcDbArc
 50
90.00000300000001
 51
100.0097299999999
  0
ARC
  5
B1C7
330
AFE5
100
AcDbEntity
  8
1
  6
Continuous
100
AcDbCircle
 10
116.2907679999999
 20
94.00961200000001
 30
0.0
 40
10.0
100
AcDbArc
 50
270.0
 51
280.00973
  0
ARC
  5
B1C8
330
AFE5
100
AcDbEntity
  8
1
  6
Continuous
100
AcDbCircle
 10
121.8321659999999
 20
99.50961200000001
 30
0.0
 40
1.0
100
AcDbArc
 50
0.0
 51
90.00000300000001
  0
ARC
  5
B1C9
330
AFE5
100
AcDbEntity
  8
1
  6
Continuous
100
AcDbCircle
 10
114.8321659999999
 20
90.50961200000001
 30
0.0
 40
10.0
100
AcDbArc
 50
90.00000300000001
 51
180.00001
  0
ARC
  5
B1CA
330
AFE5
100
AcDbEntity
  8
1
  6
Continuous
100
AcDbCircle
 10
158.00537
 20
87.59365799999995
 30
0.0
 40
1.0
100
AcDbArc
 50
179.9999899999999
 51
270.0
  0
ARC
  5
B1CB
330
AFE5
100
AcDbEntity
  8
1
  6
Continuous
100
AcDbCircle
 10
159.815695
 20
87.59365799999995
 30
0.0
 40
1.0
100
AcDbArc
 50
270.0
 51
0.0
  0
ARC
  5
B1CC
330
AFE5
100
AcDbEntity
  8
1
  6
Continuous
100
AcDbCircle
 10
168.6743139999999
 20
92.45290999999999
 30
0.0
 40
0.8
100
AcDbArc
 50
0.0
 51
90.00000300000001
  0
ARC
  5
B1CD
330
AFE5
100
AcDbEntity
  8
1
  6
Continuous
100
AcDbCircle
 10
150.105277
 20
92.45290999999999
 30
0.0
 40
0.8
100
AcDbArc
 50
90.00000300000001
 51
180.00001
  0
ARC
  5
B1CE
330
AFE5
100
AcDbEntity
  8
1
  6
Continuous
100
AcDbCircle
 10
113.0601469999999
 20
85.22329599999997
 30
0.0
 40
8.230753999999999
100
AcDbArc
 50
158.4558
 51
178.5123399999999
  0
ARC
  5
B1CF
330
AFE5
100
AcDbEntity
  8
1
  6
Continuous
100
AcDbCircle
 10
139.163878
 20
79.51657
 30
0.0
 40
13.493044
100
AcDbArc
 50
73.48426999999998
 51
90.00000300000001
  0
ARC
  5
B1D0
330
AFE5
100
AcDbEntity
  8
1
  6
Continuous
100
AcDbCircle
 10
123.8321659999999
 20
94.00961200000001
 30
0.0
 40
1.0
100
AcDbArc
 50
179.9999899999999
 51
270.0
  0
ARC
  5
B1D1
330
AFE5
100
AcDbEntity
  8
1
  6
Continuous
100
AcDbCircle
 10
179.339541
 20
104.1529069999999
 30
0.0
 40
1.0
100
AcDbArc
 50
0.0
 51
90.00000300000001
  0
ARC
  5
B1D2
330
AFE5
100
AcDbEntity
  8
1
  6
Continuous
100
AcDbCircle
 10
179.548594
 20
92.15290700000002
 30
0.0
 40
2.0
100
AcDbArc
 50
270.0
 51
0.0
  0
ARC
  5
B1D3
330
AFE5
100
AcDbEntity
  8
1
  6
Continuous
100
AcDbCircle
 10
166.027205
 20
104.1529069999999
 30
0.0
 40
1.0
100
AcDbArc
 50
90.00000300000001
 51
180.00001
  0
ARC
  5
B1D4
330
AFE5
100
AcDbEntity
  8
1
  6
Continuous
100
AcDbCircle
 10
180.548594
 20
104.1529069999999
 30
0.0
 40
1.0
100
AcDbArc
 50
0.0
 51
90.00000300000001
  0
ARC
  5
B1D5
330
AFE5
100
AcDbEntity
  8
1
  6
Continuous
100
AcDbCircle
 10
142.999662
 20
88.152907
 30
0.0
 40
4.299999999999998
100
AcDbArc
 50
90.00000300000001
 51
135.0
  0
ARC
  5
B1D6
330
AFE5
100
AcDbEntity
  8
1
  6
Continuous
100
AcDbCircle
 10
146.356481
 20
88.152907
 30
0.0
 40
2.0
100
AcDbArc
 50
90.00000300000001
 51
135.0
  0
ARC
  5
B1D7
330
AFE5
100
AcDbEntity
  8
1
  6
Continuous
100
AcDbCircle
 10
135.2468169999999
 20
89.30961499999998
 30
0.0
 40
2.0
100
AcDbArc
 50
270.0
 51
315.0
  0
ARC
  5
B1D8
330
AFE5
100
AcDbEntity
  8
1
  6
Continuous
100
AcDbCircle
 10
123.552884
 20
89.30961499999998
 30
0.0
 40
2.0
100
AcDbArc
 50
229.99218
 51
270.0
  0
ARC
  5
B1D9
330
AFE5
100
AcDbEntity
  8
1
  6
Continuous
100
AcDbCircle
 10
122.6216479999998
 20
87.009612
 30
0.0
 40
2.0
100
AcDbArc
 50
225.0
 51
270.0
  0
ARC
  5
B1DA
330
AFE5
100
AcDbEntity
  8
1
  6
Continuous
100
AcDbCircle
 10
120.9813129999999
 20
86.245788
 30
0.0
 40
2.0
100
AcDbArc
 50
49.992187
 51
90.00000300000001
  0
ARC
  5
B1DB
330
AFE5
100
AcDbEntity
  8
1
  6
Continuous
100
AcDbCircle
 10
126.04441
 20
245.217222
 30
0.0
 40
0.5
100
AcDbArc
 50
189.46232
 51
270.0
  0
ARC
  5
B1DC
330
AFE5
100
AcDbEntity
  8
1
  6
Continuous
100
AcDbCircle
 10
126.04441
 20
245.217222
 30
0.0
 40
1.0
100
AcDbArc
 50
231.8966629999999
 51
270.0
  0
ARC
  5
B1DD
330
AFE5
100
AcDbEntity
  8
1
  6
Continuous
100
AcDbCircle
 10
116.1985999999999
 20
244.191385
 30
0.0
 40
2.0
100
AcDbArc
 50
90.00000300000001
 51
149.14148
  0
ARC
  5
B1DE
330
AFE5
100
AcDbEntity
  8
1
  6
Continuous
100
AcDbCircle
 10
107.866485
 20
244.191385
 30
0.0
 40
2.0
100
AcDbArc
 50
30.85851099999999
 51
90.00000300000001
  0
ARC
  5
B1DF
330
AFE5
100
AcDbEntity
  8
1
  6
Continuous
100
AcDbCircle
 10
144.516983
 20
237.073919
 30
0.0
 40
2.0
100
AcDbArc
 50
145.12615
 51
154.61745
  0
ARC
  5
B1E0
330
AFE5
100
AcDbEntity
  8
1
  6
Continuous
100
AcDbCircle
 10
142.2924879999999
 20
234.77392
 30
0.0
 40
2.0
100
AcDbArc
 50
90.00000300000001
 51
117.2946499999999
  0
ARC
  5
B1E1
330
AFE5
100
AcDbEntity
  8
1
  6
Continuous
100
AcDbCircle
 10
139.9996559999999
 20
239.2172219999999
 30
0.0
 40
3.0
100
AcDbArc
 50
270.0
 51
334.61745
  0
ARC
  5
B1E2
330
AFE5
100
AcDbEntity
  8
1
  6
Continuous
100
AcDbCircle
 10
161.8156889999999
 20
237.77392
 30
0.0
 40
1.0
100
AcDbArc
 50
179.9999899999999
 51
270.0
  0
ARC
  5
B1E3
330
AFE5
100
AcDbEntity
  8
1
  6
Continuous
100
AcDbCircle
 10
156.0053629999998
 20
237.77392
 30
0.0
 40
1.0
100
AcDbArc
 50
270.0
 51
0.0
  0
ARC
  5
B1E4
330
AFE5
100
AcDbEntity
  8
1
  6
Continuous
100
AcDbCircle
 10
164.236252
 20
237.073919
 30
0.0
 40
2.0
100
AcDbArc
 50
0.0
 51
34.87385
  0
ARC
  5
B1E5
330
AFE5
100
AcDbEntity
  8
1
  6
Continuous
100
AcDbCircle
 10
164.027199
 20
235.7739200000001
 30
0.0
 40
1.0
100
AcDbArc
 50
0.0
 51
90.00000300000001
  0
ARC
  5
B1E6
330
AFE5
100
AcDbEntity
  8
1
  6
Continuous
100
AcDbCircle
 10
179.548587
 20
237.073919
 30
0.0
 40
2.0
100
AcDbArc
 50
0.0
 51
47.380188
  0
ARC
  5
B1E7
330
AFE5
100
AcDbEntity
  8
1
  6
Continuous
100
AcDbCircle
 10
123.707901
 20
254.217218
 30
0.0
 40
10.0
100
AcDbArc
 50
259.99027
 51
261.122164
  0
ARC
  5
B1E8
330
AFE5
100
AcDbEntity
  8
1
  6
Continuous
100
AcDbCircle
 10
116.2907629999998
 20
235.2172219999999
 30
0.0
 40
10.0
100
AcDbArc
 50
79.99027099999998
 51
90.00000300000001
  0
ARC
  5
B1E9
330
AFE5
100
AcDbEntity
  8
1
  6
Continuous
100
AcDbCircle
 10
121.832161
 20
229.7172219999999
 30
0.0
 40
1.0
100
AcDbArc
 50
270.0
 51
0.0
  0
ARC
  5
B1EA
330
AFE5
100
AcDbEntity
  8
1
  6
Continuous
100
AcDbCircle
 10
114.832161
 20
238.717222
 30
0.0
 40
10.0
100
AcDbArc
 50
179.9999899999999
 51
270.0
  0
ARC
  5
B1EB
330
AFE5
100
AcDbEntity
  8
1
  6
Continuous
100
AcDbCircle
 10
150.1052699999999
 20
236.77392
 30
0.0
 40
0.8
100
AcDbArc
 50
179.9999899999999
 51
270.0
  0
ARC
  5
B1EC
330
AFE5
100
AcDbEntity
  8
1
  6
Continuous
100
AcDbCircle
 10
123.832161
 20
235.2172219999999
 30
0.0
 40
1.0
100
AcDbArc
 50
90.00000300000001
 51
180.00001
  0
ARC
  5
B1ED
330
AFE5
100
AcDbEntity
  8
1
  6
Continuous
100
AcDbCircle
 10
167.236251
 20
225.073919
 30
0.0
 40
1.0
100
AcDbArc
 50
180.00001
 51
270.0
  0
ARC
  5
B1EE
330
AFE5
100
AcDbEntity
  8
1
  6
Continuous
100
AcDbCircle
 10
180.548587
 20
225.073919
 30
0.0
 40
1.0
100
AcDbArc
 50
270.0
 51
0.0
  0
ARC
  5
B1EF
330
AFE5
100
AcDbEntity
  8
1
  6
Continuous
100
AcDbCircle
 10
166.027198
 20
225.073919
 30
0.0
 40
1.0
100
AcDbArc
 50
180.00001
 51
270.0
  0
ARC
  5
B1F0
330
AFE5
100
AcDbEntity
  8
1
  6
Continuous
100
AcDbCircle
 10
62.89212599999999
 20
161.2790979999998
 30
0.0
 40
2.0
100
AcDbArc
 50
180.0
 51
225.89317
  0
ARC
  5
B1F1
330
AFE5
100
AcDbEntity
  8
1
  6
Continuous
100
AcDbCircle
 10
62.89212599999999
 20
152.946978
 30
0.0
 40
2.0
100
AcDbArc
 50
134.10683
 51
180.0
  0
ARC
  5
B1F2
330
AFE5
100
AcDbEntity
  8
1
  6
Continuous
100
AcDbCircle
 10
62.62543299999999
 20
157.1130379999999
 30
0.0
 40
1.177035
100
AcDbArc
 50
314.106828
 51
45.89317
  0
ARC
  5
B1F3
330
AFE5
100
AcDbEntity
  8
1
  6
Continuous
100
AcDbCircle
 10
67.102469
 20
164.8061779999999
 30
0.0
 40
1.0
100
AcDbArc
 50
90.00001000000002
 51
180.0
  0
ARC
  5
B1F4
330
AFE5
100
AcDbEntity
  8
1
  6
Continuous
100
AcDbCircle
 10
64.102469
 20
157.4444279999999
 30
0.0
 40
2.0
100
AcDbArc
 50
0.000003
 51
36.96994
  0
ARC
  5
B1F5
330
AFE5
100
AcDbEntity
  8
1
  6
Continuous
100
AcDbCircle
 10
61.802466
 20
157.418598
 30
0.0
 40
2.0
100
AcDbArc
 50
0.000003
 51
38.29625
  0
ARC
  5
B1F6
330
AFE5
100
AcDbEntity
  8
1
  6
Continuous
100
AcDbCircle
 10
65.166296
 20
161.0195479999999
 30
0.0
 40
1.0
100
AcDbArc
 50
180.0
 51
216.9699399999998
  0
ARC
  5
B1F7
330
AFE5
100
AcDbEntity
  8
1
  6
Continuous
100
AcDbCircle
 10
63.866293
 20
161.259428
 30
0.0
 40
2.0
100
AcDbArc
 50
180.0
 51
218.2962499999999
  0
ARC
  5
B1F8
330
AFE5
100
AcDbEntity
  8
1
  6
Continuous
100
AcDbCircle
 10
82.00958799999998
 20
164.8061779999999
 30
0.0
 40
1.0
100
AcDbArc
 50
0.000003
 51
90.00001000000002
  0
ARC
  5
B1F9
330
AFE5
100
AcDbEntity
  8
1
  6
Continuous
100
AcDbCircle
 10
64.666296
 20
165.3061779999999
 30
0.0
 40
0.5
100
AcDbArc
 50
90.00001000000002
 51
180.0
  0
ARC
  5
B1FA
330
AFE5
100
AcDbEntity
  8
1
  6
Continuous
100
AcDbCircle
 10
63.866293
 20
166.1061879999998
 30
0.0
 40
2.0
100
AcDbArc
 50
90.00001000000002
 51
180.0
  0
ARC
  5
B1FB
330
AFE5
100
AcDbEntity
  8
1
  6
Continuous
100
AcDbCircle
 10
70.309591
 20
150.9829179999998
 30
0.0
 40
0.8
100
AcDbArc
 50
270.0
 51
0.000003
  0
ARC
  5
B1FC
330
AFE5
100
AcDbEntity
  8
1
  6
Continuous
100
AcDbCircle
 10
82.00958799999998
 20
155.347318
 30
0.0
 40
1.0
100
AcDbArc
 50
270.0
 51
0.000003
  0
ARC
  5
B1FD
330
AFE5
100
AcDbEntity
  8
1
  6
Continuous
100
AcDbCircle
 10
82.00958799999998
 20
162.809478
 30
0.0
 40
1.0
100
AcDbArc
 50
0.000003
 51
90.00001000000002
  0
ARC
  5
B1FE
330
AFE5
100
AcDbEntity
  8
1
  6
Continuous
100
AcDbCircle
 10
222.2196649999999
 20
166.1061879999998
 30
0.0
 40
2.0
100
AcDbArc
 50
0.0
 51
90.00000300000001
  0
ARC
  5
B1FF
330
AFE5
100
AcDbEntity
  8
1
  6
Continuous
100
AcDbCircle
 10
226.2196649999999
 20
166.1061879999998
 30
0.0
 40
2.0
100
AcDbArc
 50
116.433237
 51
157.445721
  0
ARC
  5
B200
330
AFE5
100
AcDbEntity
  8
1
  6
Continuous
100
AcDbCircle
 10
221.919664
 20
150.982911
 30
0.0
 40
0.8
100
AcDbArc
 50
179.999989
 51
270.00001
  0
ARC
  5
B201
330
AFE5
100
AcDbEntity
  8
1
  6
Continuous
100
AcDbCircle
 10
220.919664
 20
153.347318
 30
0.0
 40
1.0
100
AcDbArc
 50
0.0
 51
90.00000300000001
  0
ARC
  5
B202
330
AFE5
100
AcDbEntity
  8
1
  6
Continuous
100
AcDbCircle
 10
222.2196649999999
 20
163.7660579999999
 30
0.0
 40
2.0
100
AcDbArc
 50
0.0
 51
90.00000300000001
  0
ARC
  5
B203
330
AFE5
100
AcDbEntity
  8
1
  6
Continuous
100
AcDbCircle
 10
222.2196649999999
 20
154.303898
 30
0.0
 40
2.0
100
AcDbArc
 50
0.0
 51
90.00000300000001
  0
ARC
  5
B204
330
AFE5
100
AcDbEntity
  8
1
  6
Continuous
100
AcDbCircle
 10
210.2196649999999
 20
164.7660579999999
 30
0.0
 40
1.0
100
AcDbArc
 50
90.00000300000001
 51
180.0000029999999
  0
ARC
  5
B205
330
AFE5
100
AcDbEntity
  8
1
  6
Continuous
100
AcDbCircle
 10
210.2196649999999
 20
155.347318
 30
0.0
 40
1.0
100
AcDbArc
 50
179.999989
 51
270.00001
  0
ARC
  5
B206
330
AFE5
100
AcDbEntity
  8
1
  6
Continuous
100
AcDbCircle
 10
210.2196649999999
 20
157.3038979999998
 30
0.0
 40
1.0
100
AcDbArc
 50
179.999989
 51
270.00001
  0
ARC
  5
B207
330
AFE5
100
AcDbEntity
  8
1
  6
Continuous
100
AcDbCircle
 10
114.8321689999998
 20
158.879029
 30
0.0
 40
10.0
100
AcDbArc
 50
179.9999899999999
 51
229.90876
  0
ARC
  5
B208
330
AFE5
100
AcDbEntity
  8
1
  6
Continuous
100
AcDbCircle
 10
164.354309
 20
164.2098169999998
 30
0.0
 40
18.795586
100
AcDbArc
 50
283.80891
 51
316.17282
  0
ARC
  5
B209
330
AFE5
100
AcDbEntity
  8
1
  6
Continuous
100
AcDbCircle
 10
159.0598599999999
 20
185.750481
 30
0.0
 40
40.977364
100
AcDbArc
 50
258.6759699999999
 51
283.80891
  0
ARC
  5
B20A
330
AFE5
100
AcDbEntity
  8
1
  6
Continuous
100
AcDbCircle
 10
108.0312889999998
 20
560.84644
 30
0.0
 40
412.95325
100
AcDbArc
 50
271.32217
 51
272.05682
  0
ARC
  5
B20B
330
AFE5
100
AcDbEntity
  8
1
  6
Continuous
100
AcDbCircle
 10
130.8440389999999
 20
127.7885539999999
 30
0.0
 40
21.39657
100
AcDbArc
 50
78.675972
 51
99.39294700000001
  0
ARC
  5
B20C
330
AFE5
100
AcDbEntity
  8
1
  6
Continuous
100
AcDbCircle
 10
-194.1541699999999
 20
2092.44457
 30
0.0
 40
1969.958999999998
100
AcDbArc
 50
279.2603199999999
 51
279.3929499999999
  0
ARC
  5
B20D
330
AFE5
100
AcDbEntity
  8
1
  6
Continuous
100
AcDbCircle
 10
117.242738
 20
161.7425619999999
 30
0.0
 40
13.74308
100
AcDbArc
 50
229.90876
 51
271.32217
  0
ARC
  5
B20E
330
AFE5
100
AcDbEntity
  8
1
  6
Continuous
100
AcDbCircle
 10
129.565673
 20
157.9780139999998
 30
0.0
 40
10.716144
100
AcDbArc
 50
300.7517399999999
 51
46.93008999999999
  0
ARC
  5
B20F
330
AFE5
100
AcDbEntity
  8
1
  6
Continuous
100
AcDbCircle
 10
117.167672
 20
160.864495
 30
0.0
 40
0.175048
100
AcDbArc
 50
269.62066
 51
2.214106
  0
ARC
  5
B210
330
AFE5
100
AcDbEntity
  8
1
  6
Continuous
100
AcDbCircle
 10
115.7885669999999
 20
151.555711
 30
0.0
 40
8.751058
100
AcDbArc
 50
46.52395300000001
 51
73.49569699999998
  0
ARC
  5
B211
330
AFE5
100
AcDbEntity
  8
1
  6
Continuous
100
AcDbCircle
 10
45.30691
 20
152.227899
 30
0.0
 40
76.713257
100
AcDbArc
 50
356.9352799999998
 51
4.244775999999998
  0
LINE
  5
B212
330
AFE5
100
AcDbEntity
  8
1
  6
Continuous
100
AcDbLine
 10
114.407605
 20
84.00961200000002
 30
0.0
 11
116.2907679999999
 21
84.00961200000002
 31
0.0
  0
LINE
  5
B213
330
AFE5
100
AcDbEntity
  8
1
  6
Continuous
100
AcDbLine
 10
112.8777129999999
 20
85.58796200000001
 30
0.0
 11
114.7625239999999
 21
83.64345099999999
 31
0.0
  0
LINE
  5
B214
330
AFE5
100
AcDbEntity
  8
1
  6
Continuous
100
AcDbLine
 10
111.1873859999999
 20
85.58795499999998
 30
0.0
 11
109.302575
 21
83.643443
 31
0.0
  0
LINE
  5
B215
330
AFE5
100
AcDbEntity
  8
1
  6
Continuous
100
AcDbLine
 10
138.2873749999999
 20
86.26904999999998
 30
0.0
 11
141.585441
 21
89.567115
 31
0.0
  0
LINE
  5
B216
330
AFE5
100
AcDbEntity
  8
1
  6
Continuous
100
AcDbLine
 10
106.811169
 20
83.03544499999999
 30
0.0
 11
106.811169
 21
82.53544499999998
 31
0.0
  0
LINE
  5
B217
330
AFE5
100
AcDbEntity
  8
1
  6
Continuous
100
AcDbLine
 10
125.551221
 20
84.09181099999996
 30
0.0
 11
125.4310919999998
 21
83.37103899999998
 31
0.0
  0
LINE
  5
B218
330
AFE5
100
AcDbEntity
  8
1
  6
Continuous
100
AcDbLine
 10
125.058022
 20
84.17400999999998
 30
0.0
 11
124.937896
 21
83.45324599999996
 31
0.0
  0
LINE
  5
B219
330
AFE5
100
AcDbEntity
  8
1
  6
Continuous
100
AcDbLine
 10
106.811169
 20
83.03544499999999
 30
0.0
 11
124.4446979999999
 21
83.03544499999999
 31
0.0
  0
LINE
  5
B21A
330
AFE5
100
AcDbEntity
  8
1
  6
Continuous
100
AcDbLine
 10
106.811169
 20
82.53544499999998
 30
0.0
 11
124.4446919999999
 21
82.53544499999998
 31
0.0
  0
LINE
  5
B21B
330
AFE5
100
AcDbEntity
  8
1
  6
Continuous
100
AcDbLine
 10
126.0444169999999
 20
85.009612
 30
0.0
 11
136.931083
 21
85.009612
 31
0.0
  0
LINE
  5
B21C
330
AFE5
100
AcDbEntity
  8
1
  6
Continuous
100
AcDbLine
 10
145.9260209999999
 20
85.12235600000002
 30
0.0
 11
144.761731
 21
86.519504
 31
0.0
  0
LINE
  5
B21D
330
AFE5
100
AcDbEntity
  8
1
  6
Continuous
100
AcDbLine
 10
149.8999799999999
 20
90.15290699999999
 30
0.0
 11
144.4350629999999
 21
89.05992399999998
 31
0.0
  0
LINE
  5
B21E
330
AFE5
100
AcDbEntity
  8
1
  6
Continuous
100
AcDbLine
 10
150.3514999999999
 20
89.274242
 30
0.0
 11
150.890517
 21
86.309646
 31
0.0
  0
LINE
  5
B21F
330
AFE5
100
AcDbEntity
  8
1
  6
Continuous
100
AcDbLine
 10
121.969758
 20
84.857387
 30
0.0
 11
118.028916
 21
84.16181899999996
 31
0.0
  0
LINE
  5
B220
330
AFE5
100
AcDbEntity
  8
1
  6
Continuous
100
AcDbLine
 10
104.832166
 20
84.00961200000002
 30
0.0
 11
109.6574909999998
 21
84.00961200000002
 31
0.0
  0
LINE
  5
B221
330
AFE5
100
AcDbEntity
  8
1
  6
Continuous
100
AcDbLine
 10
114.8321659999999
 20
100.509612
 30
0.0
 11
121.8321659999999
 21
100.509612
 31
0.0
  0
LINE
  5
B222
330
AFE5
100
AcDbEntity
  8
1
  6
Continuous
100
AcDbLine
 10
160.815695
 20
87.59365799999995
 30
0.0
 11
160.815695
 21
90.15290699999999
 31
0.0
  0
LINE
  5
B223
330
AFE5
100
AcDbEntity
  8
1
  6
Continuous
100
AcDbLine
 10
157.00537
 20
87.59365799999995
 30
0.0
 11
157.00537
 21
90.15290699999999
 31
0.0
  0
LINE
  5
B224
330
AFE5
100
AcDbEntity
  8
1
  6
Continuous
100
AcDbLine
 10
158.00537
 20
86.59365799999998
 30
0.0
 11
159.815695
 21
86.59365799999998
 31
0.0
  0
LINE
  5
B225
330
AFE5
100
AcDbEntity
  8
1
  6
Continuous
100
AcDbLine
 10
150.105277
 20
93.25291400000001
 30
0.0
 11
168.6743139999999
 21
93.25291400000001
 31
0.0
  0
LINE
  5
B226
330
AFE5
100
AcDbEntity
  8
1
  6
Continuous
100
AcDbLine
 10
123.8321659999999
 20
93.00961200000001
 30
0.0
 11
130.964623
 21
93.00961200000001
 31
0.0
  0
LINE
  5
B227
330
AFE5
100
AcDbEntity
  8
1
  6
Continuous
100
AcDbLine
 10
181.548594
 20
92.15290700000002
 30
0.0
 11
181.548594
 21
104.1529069999999
 31
0.0
  0
LINE
  5
B228
330
AFE5
100
AcDbEntity
  8
1
  6
Continuous
100
AcDbLine
 10
166.027205
 20
105.152907
 30
0.0
 11
180.548594
 21
105.152907
 31
0.0
  0
LINE
  5
B229
330
AFE5
100
AcDbEntity
  8
1
  6
Continuous
100
AcDbLine
 10
165.027205
 20
93.25291400000001
 30
0.0
 11
165.027205
 21
104.1529069999999
 31
0.0
  0
LINE
  5
B22A
330
AFE5
100
AcDbEntity
  8
1
  6
Continuous
100
AcDbLine
 10
180.339541
 20
92.45290999999999
 30
0.0
 11
180.339541
 21
104.1529069999999
 31
0.0
  0
LINE
  5
B22B
330
AFE5
100
AcDbEntity
  8
1
  6
Continuous
100
AcDbLine
 10
141.6441909999998
 20
86.26904999999998
 30
0.0
 11
144.9422559999999
 21
89.567115
 31
0.0
  0
LINE
  5
B22C
330
AFE5
100
AcDbEntity
  8
1
  6
Continuous
100
AcDbLine
 10
142.999662
 20
92.45290999999999
 30
0.0
 11
180.339541
 21
92.45290999999999
 31
0.0
  0
LINE
  5
B22D
330
AFE5
100
AcDbEntity
  8
1
  6
Continuous
100
AcDbLine
 10
142.999662
 20
90.15290699999999
 30
0.0
 11
179.548594
 21
90.15290699999999
 31
0.0
  0
LINE
  5
B22E
330
AFE5
100
AcDbEntity
  8
1
  6
Continuous
100
AcDbLine
 10
123.552884
 20
87.30961499999997
 30
0.0
 11
135.2468169999999
 21
87.30961499999997
 31
0.0
  0
LINE
  5
B22F
330
AFE5
100
AcDbEntity
  8
1
  6
Continuous
100
AcDbLine
 10
120.857049
 20
85.94576899999998
 30
0.0
 11
121.2074329999999
 21
85.59538600000001
 31
0.0
  0
LINE
  5
B230
330
AFE5
100
AcDbEntity
  8
1
  6
Continuous
100
AcDbLine
 10
104.832166
 20
85.945785
 30
0.0
 11
120.857045
 21
85.945785
 31
0.0
  0
LINE
  5
B231
330
AFE5
100
AcDbEntity
  8
1
  6
Continuous
100
AcDbLine
 10
136.661033
 20
87.895392
 30
0.0
 11
139.9591
 21
91.19345800000001
 31
0.0
  0
LINE
  5
B232
330
AFE5
100
AcDbEntity
  8
1
  6
Continuous
100
AcDbLine
 10
122.8321659999999
 20
94.00961200000001
 30
0.0
 11
122.8321659999999
 21
99.50961200000001
 31
0.0
  0
LINE
  5
B233
330
AFE5
100
AcDbEntity
  8
1
  6
Continuous
100
AcDbLine
 10
104.832166
 20
84.00961200000002
 30
0.0
 11
104.832166
 21
90.50961200000001
 31
0.0
  0
LINE
  5
B234
330
AFE5
100
AcDbEntity
  8
1
  6
Continuous
100
AcDbLine
 10
105.404439
 20
88.24578800000002
 30
0.0
 11
120.9813129999999
 21
88.24578800000002
 31
0.0
  0
LINE
  5
B235
330
AFE5
100
AcDbEntity
  8
1
  6
Continuous
100
AcDbLine
 10
122.6216479999998
 20
85.009612
 30
0.0
 11
135.2468169999999
 21
85.009612
 31
0.0
  0
LINE
  5
B236
330
AFE5
100
AcDbEntity
  8
1
  6
Continuous
100
AcDbLine
 10
125.551212
 20
245.1350259999999
 30
0.0
 11
125.498522
 21
245.451168
 31
0.0
  0
LINE
  5
B237
330
AFE5
100
AcDbEntity
  8
1
  6
Continuous
100
AcDbLine
 10
106.8111639999999
 20
246.691385
 30
0.0
 11
122.1646189999999
 21
246.691385
 31
0.0
  0
LINE
  5
B238
330
AFE5
100
AcDbEntity
  8
1
  6
Continuous
100
AcDbLine
 10
106.8111639999999
 20
246.191385
 30
0.0
 11
106.8111639999999
 21
246.691385
 31
0.0
  0
LINE
  5
B239
330
AFE5
100
AcDbEntity
  8
1
  6
Continuous
100
AcDbLine
 10
106.8111639999999
 20
246.191385
 30
0.0
 11
122.1646189999999
 21
246.191385
 31
0.0
  0
LINE
  5
B23A
330
AFE5
100
AcDbEntity
  8
1
  6
Continuous
100
AcDbLine
 10
125.453349
 20
244.2172219999999
 30
0.0
 11
131.8758899999999
 21
244.2172219999999
 31
0.0
  0
LINE
  5
B23B
330
AFE5
100
AcDbEntity
  8
1
  6
Continuous
100
AcDbLine
 10
121.9697489999998
 20
244.36944
 30
0.0
 11
118.0289189999998
 21
245.0650039999999
 31
0.0
  0
LINE
  5
B23C
330
AFE5
100
AcDbEntity
  8
1
  6
Continuous
100
AcDbLine
 10
104.8321609999999
 20
245.217222
 30
0.0
 11
116.2907629999998
 21
245.217222
 31
0.0
  0
LINE
  5
B23D
330
AFE5
100
AcDbEntity
  8
1
  6
Continuous
100
AcDbLine
 10
114.832161
 20
228.7172219999999
 30
0.0
 11
121.832161
 21
228.7172219999999
 31
0.0
  0
LINE
  5
B23E
330
AFE5
100
AcDbEntity
  8
1
  6
Continuous
100
AcDbLine
 10
160.815689
 20
238.217462
 30
0.0
 11
160.815689
 21
237.77392
 31
0.0
  0
LINE
  5
B23F
330
AFE5
100
AcDbEntity
  8
1
  6
Continuous
100
AcDbLine
 10
157.0053629999998
 20
238.217462
 30
0.0
 11
157.0053629999998
 21
237.77392
 31
0.0
  0
LINE
  5
B240
330
AFE5
100
AcDbEntity
  8
1
  6
Continuous
100
AcDbLine
 10
150.1052699999999
 20
235.9739199999999
 30
0.0
 11
165.027199
 21
235.9739199999999
 31
0.0
  0
LINE
  5
B241
330
AFE5
100
AcDbEntity
  8
1
  6
Continuous
100
AcDbLine
 10
123.832161
 20
236.217222
 30
0.0
 11
139.9996559999999
 21
236.217222
 31
0.0
  0
LINE
  5
B242
330
AFE5
100
AcDbEntity
  8
1
  6
Continuous
100
AcDbLine
 10
165.027199
 20
235.7739200000001
 30
0.0
 11
165.027199
 21
225.073919
 31
0.0
  0
LINE
  5
B243
330
AFE5
100
AcDbEntity
  8
1
  6
Continuous
100
AcDbLine
 10
180.548587
 20
224.0739189999999
 30
0.0
 11
166.027198
 21
224.0739189999999
 31
0.0
  0
LINE
  5
B244
330
AFE5
100
AcDbEntity
  8
1
  6
Continuous
100
AcDbLine
 10
181.548587
 20
237.073919
 30
0.0
 11
181.548587
 21
225.073919
 31
0.0
  0
LINE
  5
B245
330
AFE5
100
AcDbEntity
  8
1
  6
Continuous
100
AcDbLine
 10
166.236251
 20
237.073919
 30
0.0
 11
166.236251
 21
225.073919
 31
0.0
  0
LINE
  5
B246
330
AFE5
100
AcDbEntity
  8
1
  6
Continuous
100
AcDbLine
 10
142.2924879999999
 20
236.77392
 30
0.0
 11
164.027199
 21
236.77392
 31
0.0
  0
LINE
  5
B247
330
AFE5
100
AcDbEntity
  8
1
  6
Continuous
100
AcDbLine
 10
122.832161
 20
235.2172219999999
 30
0.0
 11
122.832161
 21
229.7172219999999
 31
0.0
  0
LINE
  5
B248
330
AFE5
100
AcDbEntity
  8
1
  6
Continuous
100
AcDbLine
 10
104.8321609999999
 20
245.217222
 30
0.0
 11
104.8321609999999
 21
238.717222
 31
0.0
  0
LINE
  5
B249
330
AFE5
100
AcDbEntity
  8
1
  6
Continuous
100
AcDbLine
 10
60.39212599999999
 20
173.1061879999998
 30
0.0
 11
62.366289
 21
173.1061879999998
 31
0.0
  0
LINE
  5
B24A
330
AFE5
100
AcDbEntity
  8
1
  6
Continuous
100
AcDbLine
 10
60.89212599999999
 20
149.522778
 30
0.0
 11
60.39212599999999
 21
149.522778
 31
0.0
  0
LINE
  5
B24B
330
AFE5
100
AcDbEntity
  8
1
  6
Continuous
100
AcDbLine
 10
60.39212599999999
 20
173.1061879999998
 30
0.0
 11
60.39212599999999
 21
149.522778
 31
0.0
  0
LINE
  5
B24C
330
AFE5
100
AcDbEntity
  8
1
  6
Continuous
100
AcDbLine
 10
60.89212599999999
 20
173.1061879999998
 30
0.0
 11
60.89212599999999
 21
149.522778
 31
0.0
  0
LINE
  5
B24D
330
AFE5
100
AcDbEntity
  8
1
  6
Continuous
100
AcDbLine
 10
63.44464099999999
 20
156.2678779999999
 30
0.0
 11
61.500132
 21
154.3830679999998
 31
0.0
  0
LINE
  5
B24E
330
AFE5
100
AcDbEntity
  8
1
  6
Continuous
100
AcDbLine
 10
63.44464300000001
 20
157.958208
 30
0.0
 11
61.50013399999998
 21
159.843018
 31
0.0
  0
LINE
  5
B24F
330
AFE5
100
AcDbEntity
  8
1
  6
Continuous
100
AcDbLine
 10
62.29666700000001
 20
160.0199879999999
 30
0.0
 11
63.37210699999999
 21
158.658048
 31
0.0
  0
LINE
  5
B250
330
AFE5
100
AcDbEntity
  8
1
  6
Continuous
100
AcDbLine
 10
65.70036899999999
 20
158.647228
 30
0.0
 11
64.367342
 21
160.4181379999999
 31
0.0
  0
LINE
  5
B251
330
AFE5
100
AcDbEntity
  8
1
  6
Continuous
100
AcDbLine
 10
66.10246899999999
 20
164.8061779999999
 30
0.0
 11
66.10246899999999
 21
147.893008
 31
0.0
  0
LINE
  5
B252
330
AFE5
100
AcDbEntity
  8
1
  6
Continuous
100
AcDbLine
 10
63.802466
 20
157.418598
 30
0.0
 11
63.802466
 21
147.893008
 31
0.0
  0
LINE
  5
B253
330
AFE5
100
AcDbEntity
  8
1
  6
Continuous
100
AcDbLine
 10
68.009588
 20
165.8061779999999
 30
0.0
 11
70.309588
 21
163.809478
 31
0.0
  0
LINE
  5
B254
330
AFE5
100
AcDbEntity
  8
1
  6
Continuous
100
AcDbLine
 10
64.666296
 20
165.8061779999999
 30
0.0
 11
82.00958799999998
 21
165.8061779999999
 31
0.0
  0
LINE
  5
B255
330
AFE5
100
AcDbEntity
  8
1
  6
Continuous
100
AcDbLine
 10
64.166296
 20
161.0195479999999
 30
0.0
 11
64.166296
 21
165.3061779999999
 31
0.0
  0
LINE
  5
B256
330
AFE5
100
AcDbEntity
  8
1
  6
Continuous
100
AcDbLine
 10
63.802466
 20
147.893008
 30
0.0
 11
68.009588
 21
147.893008
 31
0.0
  0
LINE
  5
B257
330
AFE5
100
AcDbEntity
  8
1
  6
Continuous
100
AcDbLine
 10
78.366293
 20
165.766048
 30
0.0
 11
78.366293
 21
168.1061879999998
 31
0.0
  0
LINE
  5
B258
330
AFE5
100
AcDbEntity
  8
1
  6
Continuous
100
AcDbLine
 10
61.86629299999999
 20
161.259428
 30
0.0
 11
61.86629299999999
 21
166.1061879999998
 31
0.0
  0
LINE
  5
B259
330
AFE5
100
AcDbEntity
  8
1
  6
Continuous
100
AcDbLine
 10
63.866293
 20
168.1061879999998
 30
0.0
 11
78.366293
 21
168.1061879999998
 31
0.0
  0
LINE
  5
B25A
330
AFE5
100
AcDbEntity
  8
1
  6
Continuous
100
AcDbLine
 10
71.10959499999998
 20
150.9829179999998
 30
0.0
 11
71.10959499999998
 21
154.2201639999998
 31
0.0
  0
LINE
  5
B25B
330
AFE5
100
AcDbEntity
  8
1
  6
Continuous
100
AcDbLine
 10
70.309591
 20
144.772928
 30
0.0
 11
70.309591
 21
151.4320529999999
 31
0.0
  0
LINE
  5
B25C
330
AFE5
100
AcDbEntity
  8
1
  6
Continuous
100
AcDbLine
 10
68.009588
 20
144.772928
 30
0.0
 11
70.309591
 21
144.772928
 31
0.0
  0
LINE
  5
B25D
330
AFE5
100
AcDbEntity
  8
1
  6
Continuous
100
AcDbLine
 10
70.309591
 20
163.809478
 30
0.0
 11
82.00958799999998
 21
163.809478
 31
0.0
  0
LINE
  5
B25E
330
AFE5
100
AcDbEntity
  8
1
  6
Continuous
100
AcDbLine
 10
71.23674900000001
 20
154.347318
 30
0.0
 11
82.00958799999998
 21
154.347318
 31
0.0
  0
LINE
  5
B25F
330
AFE5
100
AcDbEntity
  8
1
  6
Continuous
100
AcDbLine
 10
68.009588
 20
144.772928
 30
0.0
 11
68.009588
 21
151.3395379999998
 31
0.0
  0
LINE
  5
B260
330
AFE5
100
AcDbEntity
  8
1
  6
Continuous
100
AcDbLine
 10
83.00958799999998
 20
164.8061779999999
 30
0.0
 11
83.00958799999998
 21
155.347318
 31
0.0
  0
LINE
  5
B261
330
AFE5
100
AcDbEntity
  8
1
  6
Continuous
100
AcDbLine
 10
224.142694
 20
148.024804
 30
0.0
 11
229.188149
 21
148.024804
 31
0.0
  0
LINE
  5
B262
330
AFE5
100
AcDbEntity
  8
1
  6
Continuous
100
AcDbLine
 10
229.362965
 20
147.893006
 30
0.0
 11
229.3245119999999
 21
148.024804
 31
0.0
  0
LINE
  5
B263
330
AFE5
100
AcDbEntity
  8
1
  6
Continuous
100
AcDbLine
 10
221.362965
 20
165.8061879999999
 30
0.0
 11
221.362965
 21
168.1061879999998
 31
0.0
  0
LINE
  5
B264
330
AFE5
100
AcDbEntity
  8
1
  6
Continuous
100
AcDbLine
 10
213.862966
 20
165.7660579999999
 30
0.0
 11
213.862966
 21
168.1061879999998
 31
0.0
  0
LINE
  5
B265
330
AFE5
100
AcDbEntity
  8
1
  6
Continuous
100
AcDbLine
 10
229.362965
 20
147.893006
 30
0.0
 11
229.362965
 21
152.651132
 31
0.0
  0
LINE
  5
B266
330
AFE5
100
AcDbEntity
  8
1
  6
Continuous
100
AcDbLine
 10
225.5132029999999
 20
168.1061879999998
 30
0.0
 11
213.862966
 21
168.1061879999998
 31
0.0
  0
LINE
  5
B267
330
AFE5
100
AcDbEntity
  8
1
  6
Continuous
100
AcDbLine
 10
221.119664
 20
150.982911
 30
0.0
 11
221.119664
 21
154.347318
 31
0.0
  0
LINE
  5
B268
330
AFE5
100
AcDbEntity
  8
1
  6
Continuous
100
AcDbLine
 10
227.7789229999999
 20
161.913528
 30
0.0
 11
224.2196649999999
 21
161.913528
 31
0.0
  0
LINE
  5
B269
330
AFE5
100
AcDbEntity
  8
1
  6
Continuous
100
AcDbLine
 10
227.7789229999999
 20
164.2135279999999
 30
0.0
 11
224.2196649999999
 21
164.2135279999999
 31
0.0
  0
LINE
  5
B26A
330
AFE5
100
AcDbEntity
  8
1
  6
Continuous
100
AcDbLine
 10
221.919664
 20
144.7729199999999
 30
0.0
 11
221.919664
 21
153.347318
 31
0.0
  0
LINE
  5
B26B
330
AFE5
100
AcDbEntity
  8
1
  6
Continuous
100
AcDbLine
 10
224.2196649999999
 20
144.7729199999999
 30
0.0
 11
221.919664
 21
144.7729199999999
 31
0.0
  0
LINE
  5
B26C
330
AFE5
100
AcDbEntity
  8
1
  6
Continuous
100
AcDbLine
 10
220.919664
 20
154.347318
 30
0.0
 11
210.2196649999999
 21
154.347318
 31
0.0
  0
LINE
  5
B26D
330
AFE5
100
AcDbEntity
  8
1
  6
Continuous
100
AcDbLine
 10
222.2196649999999
 20
156.3038979999998
 30
0.0
 11
210.2196649999999
 21
156.3038979999998
 31
0.0
  0
LINE
  5
B26E
330
AFE5
100
AcDbEntity
  8
1
  6
Continuous
100
AcDbLine
 10
222.2196649999999
 20
165.7660579999999
 30
0.0
 11
210.2196649999999
 21
165.7660579999999
 31
0.0
  0
LINE
  5
B26F
330
AFE5
100
AcDbEntity
  8
1
  6
Continuous
100
AcDbLine
 10
227.7789229999999
 20
161.913528
 30
0.0
 11
227.7789229999999
 21
164.2135279999999
 31
0.0
  0
LINE
  5
B270
330
AFE5
100
AcDbEntity
  8
1
  6
Continuous
100
AcDbLine
 10
224.2196649999999
 20
144.7729199999999
 30
0.0
 11
224.2196649999999
 21
166.1061879999998
 31
0.0
  0
LINE
  5
B271
330
AFE5
100
AcDbEntity
  8
1
  6
Continuous
100
AcDbLine
 10
209.2196649999999
 20
155.347318
 30
0.0
 11
209.2196649999999
 21
164.7660579999999
 31
0.0
  0
LINE
  5
B272
330
AFE5
100
AcDbEntity
  8
1
  6
Continuous
100
AcDbLine
 10
127.3556219999999
 20
173.1063819999999
 30
0.0
 11
122.832169
 21
168.1063809999999
 31
0.0
  0
LINE
  5
B273
330
AFE5
100
AcDbEntity
  8
1
  6
Continuous
100
AcDbLine
 10
127.35562
 20
173.1063819999999
 30
0.0
 11
126.7980659999999
 21
168.106382
 31
0.0
  0
LINE
  5
B274
330
AFE5
100
AcDbEntity
  8
1
  6
Continuous
100
AcDbLine
 10
127.3556219999999
 20
173.1063819999999
 30
0.0
 11
133.164626
 21
173.1063819999999
 31
0.0
  0
LINE
  5
B275
330
AFE5
100
AcDbEntity
  8
1
  6
Continuous
100
AcDbLine
 10
122.832169
 20
168.106382
 30
0.0
 11
122.832169
 21
165.806382
 31
0.0
  0
LINE
  5
B276
330
AFE5
100
AcDbEntity
  8
1
  6
Continuous
100
AcDbLine
 10
135.0454169999999
 20
148.768582
 30
0.0
 11
151.013652
 21
145.570849
 31
0.0
  0
LINE
  5
B277
330
AFE5
100
AcDbEntity
  8
1
  6
Continuous
100
AcDbLine
 10
122.5721709999999
 20
160.0432659999999
 30
0.0
 11
125.5512949999999
 21
159.689964
 31
0.0
  0
LINE
  5
B278
330
AFE5
100
AcDbEntity
  8
1
  6
Continuous
100
AcDbLine
 10
123.1153209999998
 20
164.6232249999999
 30
0.0
 11
126.0944449999998
 21
164.269923
 31
0.0
  0
LINE
  5
B279
330
AFE5
100
AcDbEntity
  8
1
  6
Continuous
100
AcDbLine
 10
125.5512949999999
 20
159.689964
 30
0.0
 11
126.0944449999998
 21
164.269923
 31
0.0
  0
LINE
  5
B27A
330
AFE5
100
AcDbEntity
  8
1
  6
Continuous
100
AcDbLine
 10
117.3425909999999
 20
165.806382
 30
0.0
 11
117.3425909999999
 21
160.864495
 31
0.0
  0
LINE
  5
B27B
330
AFE5
100
AcDbEntity
  8
1
  6
Continuous
100
AcDbLine
 10
104.8321689999998
 20
160.689447
 30
0.0
 11
117.166512
 21
160.689447
 31
0.0
  0
LINE
  5
B27C
330
AFE5
100
AcDbEntity
  8
1
  6
Continuous
100
AcDbLine
 10
104.8321689999998
 20
165.806382
 30
0.0
 11
135.9975799999999
 21
165.806382
 31
0.0
  0
LINE
  5
B27D
330
AFE5
100
AcDbEntity
  8
1
  6
Continuous
100
AcDbLine
 10
122.5721709999999
 20
160.0432659999999
 30
0.0
 11
123.1153209999998
 21
164.6232249999999
 31
0.0
  0
LINE
  5
B27E
330
AFE5
100
AcDbEntity
  8
1
  6
Continuous
100
AcDbLine
 10
104.8321689999998
 20
168.106382
 30
0.0
 11
104.8321689999998
 21
158.879029
 31
0.0
  0
LINE
  5
B27F
330
AFE5
100
AcDbEntity
  8
1
  6
Continuous
100
AcDbLine
 10
118.274632
 20
159.9462189999998
 30
0.0
 11
117.166509
 21
160.689456
 31
0.0
  0
LINE
  5
B280
330
AFE5
100
AcDbEntity
  8
1
  6
Continuous
100
AcDbLine
 10
104.8321689999998
 20
168.106382
 30
0.0
 11
139.9025879999998
 21
168.106382
 31
0.0
  0
ARC
  5
B281
330
AFE5
100
AcDbEntity
  8
1
  6
Continuous
100
AcDbCircle
 10
163.492089
 20
164.282823
 30
0.0
 40
2.677283
100
AcDbArc
 50
181.47881
 51
207.74731
  0
LINE
  5
B282
330
AFE5
100
AcDbEntity
  8
1
  6
Continuous
100
AcDbLine
 10
153.411087
 20
150.1831139999999
 30
0.0
 11
165.3685
 21
150.1831139999999
 31
0.0
  0
LINE
  5
B283
330
AFE5
100
AcDbEntity
  8
1
  6
Continuous
100
AcDbLine
 10
153.411087
 20
158.3943649999999
 30
0.0
 11
165.3685
 21
158.3943649999999
 31
0.0
  0
ARC
  5
B284
330
AFE5
100
AcDbEntity
  8
1
  6
Continuous
100
AcDbCircle
 10
133.164626
 20
157.1132369999999
 30
0.0
 40
15.993145
100
AcDbArc
 50
28.17520699999999
 51
90.00000300000001
  0
LINE
  5
B285
330
AFE5
100
AcDbEntity
  8
1
  6
Continuous
100
AcDbLine
 10
142.083902
 20
166.1249369999999
 30
0.0
 11
147.618427
 21
163.742041
 31
0.0
  0
LINE
  5
B286
330
AFE5
100
AcDbEntity
  8
1
  6
Continuous
100
AcDbLine
 10
142.4233139999998
 20
167.4235499999998
 30
0.0
 11
148.013755
 21
164.1549819999999
 31
0.0
  0
ARC
  5
B287
330
AFE5
100
AcDbEntity
  8
1
  6
Continuous
100
AcDbCircle
 10
135.9975799999999
 20
193.1606679999999
 30
0.0
 40
27.354286
100
AcDbArc
 50
270.00035
 51
280.3928499999999
  0
ARC
  5
B288
330
AFE5
100
AcDbEntity
  8
1
  6
Continuous
100
AcDbCircle
 10
139.9025879999998
 20
163.1121879999998
 30
0.0
 40
4.994184999999998
100
AcDbArc
 50
59.686421
 51
90.00000300000001
  0
ARC
  5
B289
330
AFE5
100
AcDbEntity
  8
1
  6
Continuous
100
AcDbCircle
 10
141.292992
 20
164.287969
 30
0.0
 40
2.0
100
AcDbArc
 50
66.705642
 51
100.39285
  0
ARC
  5
B28A
330
AFE5
100
AcDbEntity
  8
1
  6
Continuous
100
AcDbCircle
 10
153.411087
 20
154.2889189999999
 30
0.0
 40
4.105809999999999
100
AcDbArc
 50
89.230821
 51
270.0
  0
LINE
  5
B28B
330
AFE5
100
AcDbEntity
  8
1
  6
Continuous
100
AcDbLine
 10
150.639126
 20
163.2768529999999
 30
0.0
 11
156.334033
 21
162.610446
 31
0.0
  0
ARC
  5
B28C
330
AFE5
100
AcDbEntity
  8
1
  6
Continuous
100
AcDbCircle
 10
151.4245299999998
 20
169.9886449999999
 30
0.0
 40
6.757590999999998
100
AcDbArc
 50
239.68642
 51
263.32571
  0
ARC
  5
B28D
330
AFE5
100
AcDbEntity
  8
1
  6
Continuous
100
AcDbCircle
 10
150.4984659999998
 20
170.4312379999998
 30
0.0
 40
7.282853
100
AcDbArc
 50
246.70564
 51
276.5559399999999
  0
LINE
  5
B28E
330
AFE5
100
AcDbEntity
  8
1
  6
Continuous
100
AcDbLine
 10
157.005371
 20
164.213731
 30
0.0
 11
160.815696
 21
164.213731
 31
0.0
  0
ARC
  5
B28F
330
AFE5
100
AcDbEntity
  8
1
  6
Continuous
100
AcDbCircle
 10
155.3314819999999
 20
164.1144229999999
 30
0.0
 40
1.676834999999999
100
AcDbArc
 50
325.6073399999999
 51
3.395193999999998
  0
LINE
  5
B290
330
AFE5
100
AcDbEntity
  8
1
  6
Continuous
100
AcDbLine
 10
156.7151849999999
 20
163.1672479999998
 30
0.0
 11
156.334035
 21
162.6104399999999
 31
0.0
  0
LINE
  5
B291
330
AFE5
100
AcDbEntity
  8
1
  6
Continuous
100
AcDbLine
 10
165.027203
 20
163.8096669999999
 30
0.0
 11
180.339541
 21
154.3475169999998
 31
0.0
  0
LINE
  5
B292
330
AFE5
100
AcDbEntity
  8
1
  6
Continuous
100
AcDbLine
 10
166.2362579999999
 20
165.766246
 30
0.0
 11
181.548594
 21
156.3040959999999
 31
0.0
  0
ARC
  5
B293
330
AFE5
100
AcDbEntity
  8
1
  6
Continuous
100
AcDbCircle
 10
165.3685
 20
154.2889189999999
 30
0.0
 40
4.105809999999999
100
AcDbArc
 50
270.0
 51
90.00000300000001
  0
LINE
  5
B294
330
AFE5
100
AcDbEntity
  8
1
  6
Continuous
100
AcDbLine
 10
166.2362579999999
 20
165.766246
 30
0.0
 11
164.480758
 21
162.9253689999998
 31
0.0
  0
ARC
  5
B295
330
AFE5
100
AcDbEntity
  8
1
  6
Continuous
100
AcDbCircle
 10
163.630074
 20
163.4510429999999
 30
0.0
 40
1.0
100
AcDbArc
 50
263.9426899999999
 51
328.2863
  0
LINE
  5
B296
330
AFE5
100
AcDbEntity
  8
1
  6
Continuous
100
AcDbLine
 10
161.690248
 20
162.651275
 30
0.0
 11
163.5245469999999
 21
162.456627
 31
0.0
  0
ARC
  5
B297
330
AFE5
100
AcDbEntity
  8
1
  6
Continuous
100
AcDbCircle
 10
161.7670819999999
 20
163.37536
 30
0.0
 40
0.7281490000000001
100
AcDbArc
 50
207.74731
 51
263.94267
  0
LINE
  5
B298
330
AFE5
100
AcDbEntity
  8
1
  6
Continuous
100
AcDbLine
 10
181.548594
 20
156.3040959999999
 30
0.0
 11
179.493581
 21
152.9785229999999
 31
0.0
  0
ARC
  5
B299
330
AFE5
100
AcDbEntity
  8
1
  6
Continuous
100
AcDbCircle
 10
156.6025239999999
 20
171.650575
 30
0.0
 40
29.540583
100
AcDbArc
 50
316.17282
 51
320.79615
  0
ARC
  5
B29A
330
AFE5
100
AcDbEntity
  8
5
  6
PHANTOM
100
AcDbCircle
 10
129.4894089999999
 20
156.67383
 30
0.0
 40
10.716144
100
AcDbArc
 50
321.0808399999999
 51
67.25919000000001
  0
LINE
  5
B29B
330
AFE5
100
AcDbEntity
  8
5
  6
PHANTOM
100
AcDbLine
 10
137.827301
 20
149.941758
 30
0.0
 11
153.911846
 21
152.4907589999999
 31
0.0
  0
LINE
  5
B29C
330
AFE5
100
AcDbEntity
  8
5
  6
PHANTOM
100
AcDbLine
 10
103.576822
 20
155.4218749999998
 30
0.0
 11
132.80102
 21
166.2491109999999
 31
0.0
  0
LINE
  5
B29D
330
AFE5
100
AcDbEntity
  8
5
  6
PHANTOM
100
AcDbLine
 10
102.7777739999998
 20
157.578613
 30
0.0
 11
135.663748
 21
169.7624959999999
 31
0.0
  0
LINE
  5
B29E
330
AFE5
100
AcDbEntity
  8
5
  6
PHANTOM
100
AcDbLine
 10
125.130324
 20
156.884504
 30
0.0
 11
124.0485099999999
 21
161.367886
 31
0.0
  0
LINE
  5
B29F
330
AFE5
100
AcDbEntity
  8
5
  6
PHANTOM
100
AcDbLine
 10
115.3080019999999
 20
159.768145
 30
0.0
 11
117.0248729999999
 21
155.134075
 31
0.0
  0
LINE
  5
B2A0
330
AFE5
100
AcDbEntity
  8
5
  6
PHANTOM
100
AcDbLine
 10
122.214021
 20
156.1808169999999
 30
0.0
 11
121.132207
 21
160.6641989999999
 31
0.0
  0
LINE
  5
B2A1
330
AFE5
100
AcDbEntity
  8
5
  6
PHANTOM
100
AcDbLine
 10
102.7777739999998
 20
157.578613
 30
0.0
 11
105.9834669999999
 21
148.9260089999999
 31
0.0
  0
ARC
  5
B2A2
330
AFE5
100
AcDbEntity
  8
5
  6
PHANTOM
100
AcDbCircle
 10
-30.664961
 20
526.96733
 30
0.0
 40
412.95325
100
AcDbArc
 50
291.65127
 51
292.3859199999998
  0
ARC
  5
B2A3
330
AFE5
100
AcDbEntity
  8
5
  6
PHANTOM
100
AcDbCircle
 10
118.801628
 20
145.865224
 30
0.0
 40
8.751058
100
AcDbArc
 50
66.853053
 51
93.82479700000001
  0
ARC
  5
B2A4
330
AFE5
100
AcDbEntity
  8
5
  6
PHANTOM
100
AcDbCircle
 10
115.3605929999998
 20
152.400128
 30
0.0
 40
10.0
100
AcDbArc
 50
200.3290899999998
 51
250.23786
  0
ARC
  5
B2A5
330
AFE5
100
AcDbEntity
  8
5
  6
PHANTOM
100
AcDbCircle
 10
116.6261879999999
 20
155.92276
 30
0.0
 40
13.74308
100
AcDbArc
 50
250.23786
 51
291.65127
  0
ARC
  5
B2A6
330
AFE5
100
AcDbEntity
  8
5
  6
PHANTOM
100
AcDbCircle
 10
116.8608489999999
 20
155.0733059999998
 30
0.0
 40
0.175048
100
AcDbArc
 50
289.9497600000001
 51
22.543206
  0
LINE
  5
B2A7
330
AFE5
100
AcDbEntity
  8
5
  6
PHANTOM
100
AcDbLine
 10
105.354506
 20
150.62366
 30
0.0
 11
116.9205749999999
 21
154.908758
 31
0.0
  0
LINE
  5
B2A8
330
AFE5
100
AcDbEntity
  8
5
  6
PHANTOM
100
AcDbLine
 10
118.217879
 20
154.596798
 30
0.0
 11
116.920569
 21
154.9087649999998
 31
0.0
  0
ARC
  5
B2A9
330
AFE5
100
AcDbEntity
  8
5
  6
PHANTOM
100
AcDbCircle
 10
141.176328
 20
128.8089119999999
 30
0.0
 40
21.39657
100
AcDbArc
 50
99.00507199999999
 51
119.722047
  0
ARC
  5
B2AA
330
AFE5
100
AcDbEntity
  8
5
  6
PHANTOM
100
AcDbCircle
 10
-846.1235719999999
 20
1858.183367
 30
0.0
 40
1969.958999999998
100
AcDbArc
 50
299.58942
 51
299.72205
  0
ARC
  5
B2AB
330
AFE5
100
AcDbEntity
  8
5
  6
PHANTOM
100
AcDbCircle
 10
52.476563
 20
122.009373
 30
0.0
 40
76.713257
100
AcDbArc
 50
17.26437999999999
 51
24.57387600000001
  0
LINE
  5
B2AC
330
AFE5
100
AcDbEntity
  8
5
  6
PHANTOM
100
AcDbLine
 10
122.214021
 20
156.1808169999999
 30
0.0
 11
125.130324
 21
156.884504
 31
0.0
  0
LINE
  5
B2AD
330
AFE5
100
AcDbEntity
  8
5
  6
PHANTOM
100
AcDbLine
 10
119.6566009999999
 20
163.832028
 30
0.0
 11
120.4556489999998
 21
161.6752899999999
 31
0.0
  0
LINE
  5
B2AE
330
AFE5
100
AcDbEntity
  8
5
  6
PHANTOM
100
AcDbLine
 10
121.132207
 20
160.6641989999999
 30
0.0
 11
124.0485099999999
 21
161.367886
 31
0.0
  0
ARC
  5
B2AF
330
AFE5
100
AcDbEntity
  8
5
  6
PHANTOM
100
AcDbCircle
 10
147.4979929999998
 20
192.9630549999999
 30
0.0
 40
40.977364
100
AcDbArc
 50
279.00507
 51
304.13801
  0
LINE
  5
B2B0
330
AFE5
100
AcDbEntity
  8
5
  6
PHANTOM
100
AcDbLine
 10
160.716147
 20
174.462004
 30
0.0
 11
178.361983
 21
170.9089159999998
 31
0.0
  0
LINE
  5
B2B1
330
AFE5
100
AcDbEntity
  8
5
  6
PHANTOM
100
AcDbLine
 10
161.170154
 20
176.716753
 30
0.0
 11
178.8159879999998
 21
173.1636639999999
 31
0.0
  0
ARC
  5
B2B2
330
AFE5
100
AcDbEntity
  8
5
  6
PHANTOM
100
AcDbCircle
 10
164.343807
 20
165.652849
 30
0.0
 40
4.105809999999999
100
AcDbArc
 50
290.3290999999999
 51
110.329103
  0
LINE
  5
B2B3
330
AFE5
100
AcDbEntity
  8
5
  6
PHANTOM
100
AcDbLine
 10
147.409371
 20
168.963787
 30
0.0
 11
152.981075
 21
170.3173679999999
 31
0.0
  0
ARC
  5
B2B4
330
AFE5
100
AcDbEntity
  8
5
  6
PHANTOM
100
AcDbCircle
 10
159.5306309999998
 20
173.6403389999999
 30
0.0
 40
1.0
100
AcDbArc
 50
284.27179
 51
348.6154
  0
LINE
  5
B2B5
330
AFE5
100
AcDbEntity
  8
5
  6
PHANTOM
100
AcDbLine
 10
157.989481
 20
172.2164669999999
 30
0.0
 11
159.777149
 21
172.6712
 31
0.0
  0
ARC
  5
B2B6
330
AFE5
100
AcDbEntity
  8
5
  6
PHANTOM
100
AcDbCircle
 10
157.8099729999999
 20
172.922144
 30
0.0
 40
0.7281490000000001
100
AcDbArc
 50
228.0764099999999
 51
284.27177
  0
LINE
  5
B2B7
330
AFE5
100
AcDbEntity
  8
5
  6
PHANTOM
100
AcDbLine
 10
153.145046
 20
170.9719049999999
 30
0.0
 11
152.9810789999999
 21
170.317363
 31
0.0
  0
ARC
  5
B2B8
330
AFE5
100
AcDbEntity
  8
5
  6
PHANTOM
100
AcDbCircle
 10
153.13119
 20
161.498701
 30
0.0
 40
4.105809999999999
100
AcDbArc
 50
109.559921
 51
290.3290999999999
  0
LINE
  5
B2B9
330
AFE5
100
AcDbEntity
  8
5
  6
PHANTOM
100
AcDbLine
 10
154.5575949999999
 20
157.648636
 30
0.0
 11
165.7702129999998
 21
161.802784
 31
0.0
  0
LINE
  5
B2BA
330
AFE5
100
AcDbEntity
  8
5
  6
PHANTOM
100
AcDbLine
 10
151.7049089999999
 20
165.348429
 30
0.0
 11
162.917526
 21
169.5025779999998
 31
0.0
  0
LINE
  5
B2BB
330
AFE5
100
AcDbEntity
  8
5
  6
PHANTOM
100
AcDbLine
 10
138.397572
 20
168.662285
 30
0.0
 11
144.415212
 21
168.350573
 31
0.0
  0
LINE
  5
B2BC
330
AFE5
100
AcDbEntity
  8
5
  6
PHANTOM
100
AcDbLine
 10
138.2646889999997
 20
169.997927
 30
0.0
 11
144.642455
 21
168.8751349999998
 31
0.0
  0
ARC
  5
B2BD
330
AFE5
100
AcDbEntity
  8
5
  6
PHANTOM
100
AcDbCircle
 10
123.2978149999998
 20
191.8995699999999
 30
0.0
 40
27.354286
100
AcDbArc
 50
290.32945
 51
300.72195
  0
ARC
  5
B2BE
330
AFE5
100
AcDbEntity
  8
5
  6
PHANTOM
100
AcDbCircle
 10
137.3987909999998
 20
165.0793769999999
 30
0.0
 40
4.994184999999998
100
AcDbArc
 50
80.01552099999997
 51
110.329103
  0
ARC
  5
B2BF
330
AFE5
100
AcDbEntity
  8
5
  6
PHANTOM
100
AcDbCircle
 10
138.2941099999999
 20
166.664965
 30
0.0
 40
2.0
100
AcDbArc
 50
87.03474200000002
 51
120.7219499999998
  0
ARC
  5
B2C0
330
AFE5
100
AcDbEntity
  8
5
  6
PHANTOM
100
AcDbCircle
 10
145.814098
 20
175.530378
 30
0.0
 40
6.757590999999998
100
AcDbArc
 50
260.0155199999999
 51
283.6548099999999
  0
ARC
  5
B2C1
330
AFE5
100
AcDbEntity
  8
5
  6
PHANTOM
100
AcDbCircle
 10
144.791954
 20
175.6236769999999
 30
0.0
 40
7.282853
100
AcDbArc
 50
267.03474
 51
296.88504
  0
ARC
  5
B2C2
330
AFE5
100
AcDbEntity
  8
5
  6
PHANTOM
100
AcDbCircle
 10
159.1122699999999
 20
174.3723709999999
 30
0.0
 40
2.677283
100
AcDbArc
 50
201.80791
 51
228.0764099999999
  0
LINE
  5
B2C3
330
AFE5
100
AcDbEntity
  8
5
  6
PHANTOM
100
AcDbLine
 10
153.053597
 20
172.05402
 30
0.0
 11
156.626587
 21
173.3777719999999
 31
0.0
  0
ARC
  5
B2C4
330
AFE5
100
AcDbEntity
  8
5
  6
PHANTOM
100
AcDbCircle
 10
151.5184709999998
 20
171.379368
 30
0.0
 40
1.676834999999999
100
AcDbArc
 50
345.93644
 51
23.724294
  0
LINE
  5
B2C5
330
AFE5
100
AcDbEntity
  8
5
  6
PHANTOM
100
AcDbLine
 10
161.170154
 20
176.716753
 30
0.0
 11
160.5109539999999
 21
173.442945
 31
0.0
  0
ARC
  5
B2C6
330
AFE5
100
AcDbEntity
  8
5
  6
PHANTOM
100
AcDbCircle
 10
159.9461489999999
 20
174.6034579999999
 30
0.0
 40
18.795586
100
AcDbArc
 50
304.13801
 51
336.5019199999999
  0
LINE
  5
B2C7
330
AFE5
100
AcDbEntity
  8
5
  6
PHANTOM
100
AcDbLine
 10
178.8159879999998
 20
173.1636639999999
 30
0.0
 11
178.044321
 21
169.331296
 31
0.0
  0
ARC
  5
B2C8
330
AFE5
100
AcDbEntity
  8
5
  6
PHANTOM
100
AcDbCircle
 10
150.0921929999998
 20
178.887688
 30
0.0
 40
29.540583
100
AcDbArc
 50
336.5019199999999
 51
341.1252499999998
  0
LINE
  5
B2C9
330
AFE5
100
AcDbEntity
  8
1
  6
Continuous
100
AcDbLine
 10
226.098056
 20
161.291883
 30
0.0
 11
228.335269
 21
161.291883
 31
0.0
  0
LINE
  5
B2CA
330
AFE5
100
AcDbEntity
  8
1
  6
Continuous
100
AcDbLine
 10
228.148754
 20
155.291883
 30
0.0
 11
230.6273109999999
 21
155.291883
 31
0.0
  0
ARC
  5
B2CB
330
AFE5
100
AcDbEntity
  8
1
  6
Continuous
100
AcDbCircle
 10
252.222963
 20
166.870484
 30
0.0
 40
26.713884
100
AcDbArc
 50
205.68544
 51
208.187026
  0
ARC
  5
B2CC
330
AFE5
100
AcDbEntity
  8
1
  6
Continuous
100
AcDbCircle
 10
252.222963
 20
166.870484
 30
0.0
 40
26.713884
100
AcDbArc
 50
190.693626
 51
192.0536659999999
  0
LINE
  5
B2CD
330
AFE5
100
AcDbEntity
  8
1
  6
Continuous
100
AcDbLine
 10
60.89212599999999
 20
152.946978
 30
0.0
 11
63.802466
 21
152.946978
 31
0.0
  0
LINE
  5
B2CE
330
AFE5
100
AcDbEntity
  8
1
  6
Continuous
100
AcDbLine
 10
62.366289
 20
152.946978
 30
0.0
 11
62.366289
 21
148.6763159999999
 31
0.0
  0
ARC
  5
B2CF
330
AFE5
100
AcDbEntity
  8
1
  6
Continuous
100
AcDbCircle
 10
124.4446979999999
 20
83.53544499999998
 30
0.0
 40
0.5
100
AcDbArc
 50
270.0
 51
350.537716
  0
LINE
  5
B2D0
330
AFE5
100
AcDbEntity
  8
1
  6
Continuous
100
AcDbLine
 10
122.1646189999999
 20
82.53544499999998
 30
0.0
 11
122.1646189999999
 21
81.009612
 31
0.0
  0
ARC
  5
B2D1
330
AFE5
100
AcDbEntity
  8
1
  6
Continuous
100
AcDbCircle
 10
152.164619
 20
70.009612
 30
0.0
 40
16.85
100
AcDbArc
 50
112.9624689999999
 51
123.07165
  0
ARC
  5
B2D2
330
AFE5
100
AcDbEntity
  8
1
  6
Continuous
100
AcDbCircle
 10
152.164619
 20
70.009612
 30
0.0
 40
18.85
100
AcDbArc
 50
75.11950899999998
 51
95.245644
  0
ARC
  5
B2D3
330
AFE5
100
AcDbEntity
  8
1
  6
Continuous
100
AcDbCircle
 10
152.164619
 20
70.009612
 30
0.0
 40
19.953671
100
AcDbArc
 50
75.959985
 51
116.6242599999998
  0
ARC
  5
B2D4
330
AFE5
100
AcDbEntity
  8
1
  6
Continuous
100
AcDbCircle
 10
130.6646259999999
 20
95.53490700000001
 30
0.0
 40
7.225291999999997
100
AcDbArc
 50
249.7567339999999
 51
290.243266
  0
LINE
  5
B2D5
330
AFE5
100
AcDbEntity
  8
1
  6
Continuous
100
AcDbLine
 10
138.1646259999999
 20
91.909615
 30
0.0
 11
128.164626
 21
91.909615
 31
0.0
  0
LINE
  5
B2D6
330
AFE5
100
AcDbEntity
  8
1
  6
Continuous
100
AcDbLine
 10
137.0752559999999
 20
88.30961499999999
 30
0.0
 11
127.564626
 21
88.30961499999999
 31
0.0
  0
ARC
  5
B2D7
330
AFE5
100
AcDbEntity
  8
1
  6
Continuous
100
AcDbCircle
 10
130.6646259999999
 20
84.68432299999998
 30
0.0
 40
7.225291999999997
100
AcDbArc
 50
69.75673399999999
 51
110.2432659999999
  0
LINE
  5
B2D8
330
AFE5
100
AcDbEntity
  8
1
  6
Continuous
100
AcDbLine
 10
128.164626
 20
88.30961499999999
 30
0.0
 11
128.164626
 21
91.909615
 31
0.0
  0
ARC
  5
B2D9
330
AFE5
100
AcDbEntity
  8
1
  6
Continuous
100
AcDbCircle
 10
135.6646259999999
 20
95.53490700000001
 30
0.0
 40
7.225291999999997
100
AcDbArc
 50
249.7567339999999
 51
282.6889549999999
  0
ARC
  5
B2DA
330
AFE5
100
AcDbEntity
  8
1
  6
Continuous
100
AcDbCircle
 10
135.6646259999999
 20
84.68432299999998
 30
0.0
 40
7.225291999999997
100
AcDbArc
 50
69.75673399999999
 51
110.2432659999999
  0
LINE
  5
B2DB
330
AFE5
100
AcDbEntity
  8
1
  6
Continuous
100
AcDbLine
 10
133.164626
 20
91.463323
 30
0.0
 11
133.164626
 21
88.75590699999998
 31
0.0
  0
LINE
  5
B2DC
330
AFE5
100
AcDbEntity
  8
1
  6
Continuous
100
AcDbLine
 10
138.1646259999999
 20
89.39898499999998
 30
0.0
 11
138.1646259999999
 21
91.909615
 31
0.0
  0
LINE
  5
B2DD
330
AFE5
100
AcDbEntity
  8
1
  6
Continuous
100
AcDbLine
 10
70.70246899999998
 20
162.1135379999998
 30
0.0
 11
70.70246899999998
 21
152.1125379999998
 31
0.0
  0
ARC
  5
B2DE
330
AFE5
100
AcDbEntity
  8
1
  6
Continuous
100
AcDbCircle
 10
61.141521
 20
157.1135379999998
 30
0.0
 40
9.560949
100
AcDbArc
 50
342.4247879999999
 51
17.575212
  0
ARC
  5
B2DF
330
AFE5
100
AcDbEntity
  8
1
  6
Continuous
100
AcDbCircle
 10
76.66341799999997
 20
157.1135379999998
 30
0.0
 40
9.560949
100
AcDbArc
 50
162.4247879999998
 51
197.5752119999999
  0
LINE
  5
B2E0
330
AFE5
100
AcDbEntity
  8
1
  6
Continuous
100
AcDbLine
 10
67.102469
 20
162.7130379999998
 30
0.0
 11
67.102469
 21
151.5130379999999
 31
0.0
  0
LINE
  5
B2E1
330
AFE5
100
AcDbEntity
  8
1
  6
Continuous
100
AcDbLine
 10
67.548761
 20
154.2265379999998
 30
0.0
 11
70.256178
 21
154.2265379999998
 31
0.0
  0
LINE
  5
B2E2
330
AFE5
100
AcDbEntity
  8
1
  6
Continuous
100
AcDbLine
 10
67.548761
 20
151.3395379999998
 30
0.0
 11
70.256178
 21
151.3395379999998
 31
0.0
  0
ARC
  5
B2E3
330
AFE5
100
AcDbEntity
  8
1
  6
Continuous
100
AcDbCircle
 10
69.65846899999999
 20
152.7835379999999
 30
0.0
 40
2.55582
100
AcDbArc
 50
214.3528569999999
 51
214.3839999999999
  0
ARC
  5
B2E4
330
AFE5
100
AcDbEntity
  8
1
  6
Continuous
100
AcDbCircle
 10
69.658449
 20
152.7825379999999
 30
0.0
 40
2.555979999999999
100
AcDbArc
 50
145.6283629999998
 51
205.6283629999998
  0
LINE
  5
B2E5
330
AFE5
100
AcDbEntity
  8
1
  6
Continuous
100
AcDbLine
 10
67.102469
 20
152.1125379999998
 30
0.0
 11
67.548761
 21
151.3395379999998
 31
0.0
  0
ARC
  5
B2E6
330
AFE5
100
AcDbEntity
  8
1
  6
Continuous
100
AcDbCircle
 10
68.14649
 20
152.7825379999999
 30
0.0
 40
2.555979999999999
100
AcDbArc
 50
334.371637
 51
34.371637
  0
LINE
  5
B2E7
330
AFE5
100
AcDbEntity
  8
1
  6
Continuous
100
AcDbLine
 10
70.70246899999998
 20
152.1125379999998
 30
0.0
 11
70.256178
 21
151.3395379999998
 31
0.0
  0
ARC
  5
B2E8
330
AFE5
100
AcDbEntity
  8
1
  6
Continuous
100
AcDbCircle
 10
68.14646899999999
 20
152.7835379999999
 30
0.0
 40
2.55582
100
AcDbArc
 50
325.6159999999998
 51
325.647143
  0
ARC
  5
B2E9
330
AFE5
100
AcDbEntity
  8
1
  6
Continuous
100
AcDbCircle
 10
69.658449
 20
161.4435379999999
 30
0.0
 40
2.555979999999999
100
AcDbArc
 50
154.371637
 51
214.371637
  0
ARC
  5
B2EA
330
AFE5
100
AcDbEntity
  8
1
  6
Continuous
100
AcDbCircle
 10
68.14649
 20
161.4435379999999
 30
0.0
 40
2.555979999999999
100
AcDbArc
 50
325.6283629999999
 51
25.628363
  0
LINE
  5
B2EB
330
AFE5
100
AcDbEntity
  8
1
  6
Continuous
100
AcDbLine
 10
67.548761
 20
160.0005379999998
 30
0.0
 11
70.256178
 21
160.0005379999998
 31
0.0
  0
LINE
  5
B2EC
330
AFE5
100
AcDbEntity
  8
1
  6
Continuous
100
AcDbLine
 10
67.548761
 20
162.886538
 30
0.0
 11
70.256178
 21
162.886538
 31
0.0
  0
LINE
  5
B2ED
330
AFE5
100
AcDbEntity
  8
1
  6
Continuous
100
AcDbLine
 10
67.102469
 20
162.1135379999998
 30
0.0
 11
67.548761
 21
162.886538
 31
0.0
  0
LINE
  5
B2EE
330
AFE5
100
AcDbEntity
  8
1
  6
Continuous
100
AcDbLine
 10
70.70246899999998
 20
162.1135379999998
 30
0.0
 11
70.256178
 21
162.886538
 31
0.0
  0
LINE
  5
B2EF
330
AFE5
100
AcDbEntity
  8
1
  6
Continuous
100
AcDbLine
 10
138.1646259999999
 20
154.2262369999999
 30
0.0
 11
138.1646259999999
 21
160.000237
 31
0.0
  0
LINE
  5
B2F0
330
AFE5
100
AcDbEntity
  8
1
  6
Continuous
100
AcDbLine
 10
128.164626
 20
154.2262369999999
 30
0.0
 11
128.164626
 21
160.000237
 31
0.0
  0
CIRCLE
  5
B2F1
330
AFE5
100
AcDbEntity
  8
1
  6
Continuous
100
AcDbCircle
 10
133.164626
 20
157.1132369999999
 30
0.0
 40
5.0
  0
LINE
  5
B2F2
330
AFE5
100
AcDbEntity
  8
1
  6
Continuous
100
AcDbLine
 10
138.1646259999999
 20
154.2262369999999
 30
0.0
 11
133.164626
 21
151.339237
 31
0.0
  0
LINE
  5
B2F3
330
AFE5
100
AcDbEntity
  8
1
  6
Continuous
100
AcDbLine
 10
128.164626
 20
154.2262369999999
 30
0.0
 11
133.164626
 21
151.339237
 31
0.0
  0
LINE
  5
B2F4
330
AFE5
100
AcDbEntity
  8
1
  6
Continuous
100
AcDbLine
 10
133.164626
 20
162.886237
 30
0.0
 11
138.1646259999999
 21
160.000237
 31
0.0
  0
LINE
  5
B2F5
330
AFE5
100
AcDbEntity
  8
1
  6
Continuous
100
AcDbLine
 10
133.164626
 20
162.886237
 30
0.0
 11
128.164626
 21
160.000237
 31
0.0
  0
CIRCLE
  5
B2F6
330
AFE5
100
AcDbEntity
  8
1
  6
Continuous
100
AcDbCircle
 10
133.164626
 20
157.1132369999999
 30
0.0
 40
3.0
  0
CIRCLE
  5
B2F7
330
AFE5
100
AcDbEntity
  8
2
  6
Continuous
100
AcDbCircle
 10
133.164626
 20
157.1132369999999
 30
0.0
 40
2.458499999999999
  0
LINE
  5
B2F8
330
AFE5
100
AcDbEntity
  8
5
  6
PHANTOM
100
AcDbLine
 10
327.5562529999999
 20
176.716753
 30
0.0
 11
328.2154529999999
 21
173.442945
 31
0.0
  0
LINE
  5
B2F9
330
AFE5
100
AcDbEntity
  8
5
  6
PHANTOM
100
AcDbLine
 10
327.5562529999999
 20
176.716753
 30
0.0
 11
309.9104179999998
 21
173.1636639999999
 31
0.0
  0
ARC
  5
B2FA
330
AFE5
100
AcDbEntity
  8
1
  6
Continuous
100
AcDbCircle
 10
355.56178
 20
157.1132369999999
 30
0.0
 40
19.5
100
AcDbArc
 50
150.083281
 51
75.18182799999998
  0
ARC
  5
B2FB
330
AFE5
100
AcDbEntity
  8
1
  6
Continuous
100
AcDbCircle
 10
355.56178
 20
157.1132369999999
 30
0.0
 40
25.0
100
AcDbArc
 50
144.1619329999998
 51
79.99361000000003
  0
LINE
  5
B2FC
330
AFE5
100
AcDbEntity
  8
4
  6
CENTER
100
AcDbLine
 10
355.56178
 20
127.113237
 30
0.0
 11
355.56178
 21
185.113237
 31
0.0
  0
LINE
  5
B2FD
330
AFE5
100
AcDbEntity
  8
1
  6
Continuous
100
AcDbLine
 10
359.3231349999999
 20
186.9575049999999
 30
0.0
 11
362.679392
 21
156.859497
 31
0.0
  0
LINE
  5
B2FE
330
AFE5
100
AcDbEntity
  8
4
  6
CENTER
100
AcDbLine
 10
336.5617799999998
 20
202.113537
 30
0.0
 11
336.5617799999998
 21
166.57326
 31
0.0
  0
ARC
  5
B2FF
330
AFE5
100
AcDbEntity
  8
1
  6
Continuous
100
AcDbCircle
 10
282.957243
 20
135.989325
 30
0.0
 40
63.35981999999999
100
AcDbArc
 50
36.666179
 51
45.952998
  0
LINE
  5
B300
330
AFE5
100
AcDbEntity
  8
1
  6
Continuous
100
AcDbLine
 10
347.7117799999998
 20
186.064782
 30
0.0
 11
347.7117799999998
 21
155.880475
 31
0.0
  0
ARC
  5
B301
330
AFE5
100
AcDbEntity
  8
1
  6
Continuous
100
AcDbCircle
 10
220.543556
 20
89.52488199999995
 30
0.0
 40
141.169928
100
AcDbArc
 50
30.017426
 51
36.666179
  0
LINE
  5
B302
330
AFE5
100
AcDbEntity
  8
4
  6
CENTER
100
AcDbLine
 10
385.56178
 20
157.1132369999999
 30
0.0
 11
325.56178
 21
157.1132369999999
 31
0.0
  0
ARC
  5
B303
330
AFE5
100
AcDbEntity
  8
1
  6
Continuous
100
AcDbCircle
 10
371.483668
 20
161.7425619999999
 30
0.0
 40
13.74308
100
AcDbArc
 50
306.924395
 51
310.0912399999999
  0
ARC
  5
B304
330
AFE5
100
AcDbEntity
  8
5
  6
PHANTOM
100
AcDbCircle
 10
372.1002179999999
 20
155.92276
 30
0.0
 40
13.74308
100
AcDbArc
 50
286.595295
 51
289.7621399999999
  0
LINE
  5
B305
330
AFE5
100
AcDbEntity
  8
5
  6
PHANTOM
100
AcDbLine
 10
385.9486319999999
 20
157.578613
 30
0.0
 11
380.435675
 21
159.621102
 31
0.0
  0
LINE
  5
B306
330
AFE5
100
AcDbEntity
  8
1
  6
Continuous
100
AcDbLine
 10
383.8942369999998
 20
168.106382
 30
0.0
 11
378.015082
 21
168.106382
 31
0.0
  0
LINE
  5
B307
330
AFE5
100
AcDbEntity
  8
5
  6
PHANTOM
100
AcDbLine
 10
385.9486319999999
 20
157.578613
 30
0.0
 11
382.7429399999999
 21
148.9260089999999
 31
0.0
  0
ARC
  5
B308
330
AFE5
100
AcDbEntity
  8
1
  6
Continuous
100
AcDbCircle
 10
373.8942369999999
 20
158.879029
 30
0.0
 40
10.0
100
AcDbArc
 50
310.0912399999999
 51
0.00001
  0
ARC
  5
B309
330
AFE5
100
AcDbEntity
  8
5
  6
PHANTOM
100
AcDbCircle
 10
373.365814
 20
152.400128
 30
0.0
 40
10.0
100
AcDbArc
 50
289.7621399999999
 51
339.6709099999998
  0
LINE
  5
B30A
330
AFE5
100
AcDbEntity
  8
1
  6
Continuous
100
AcDbLine
 10
383.8942369999998
 20
168.106382
 30
0.0
 11
383.8942369999998
 21
158.879029
 31
0.0
  0
ARC
  5
B30B
330
AFE5
100
AcDbEntity
  8
1
  6
Continuous
100
AcDbCircle
 10
397.6036619999999
 20
191.822394
 30
0.0
 40
63.31738699999998
100
AcDbArc
 50
210.0174259999998
 51
218.02512
  0
ARC
  5
B30C
330
AFE5
100
AcDbEntity
  8
1
  6
Continuous
100
AcDbCircle
 10
355.2117799999999
 20
156.163237
 30
0.0
 40
7.5
100
AcDbArc
 50
244.0790989999999
 51
5.326703
  0
ARC
  5
B30D
330
AFE5
100
AcDbEntity
  8
1
  6
Continuous
100
AcDbCircle
 10
357.1788649999998
 20
160.21053
 30
0.0
 40
12.0
100
AcDbArc
 50
218.02512
 51
244.0790989999999
  0
LINE
  5
B30E
330
AFE5
100
AcDbEntity
  8
1
  6
Continuous
100
AcDbLine
 10
307.177812
 20
156.3040959999999
 30
0.0
 11
309.232825
 21
152.9785229999999
 31
0.0
  0
LINE
  5
B30F
330
AFE5
100
AcDbEntity
  8
1
  6
Continuous
100
AcDbLine
 10
322.4901479999999
 20
165.766246
 30
0.0
 11
307.177812
 21
156.3040959999999
 31
0.0
  0
ARC
  5
B310
330
AFE5
100
AcDbEntity
  8
1
  6
Continuous
100
AcDbCircle
 10
323.357906
 20
154.2889189999999
 30
0.0
 40
4.105809999999999
100
AcDbArc
 50
89.99999700000001
 51
270.0
  0
ARC
  5
B311
330
AFE5
100
AcDbEntity
  8
5
  6
PHANTOM
100
AcDbCircle
 10
341.228414
 20
192.9630549999999
 30
0.0
 40
40.977364
100
AcDbArc
 50
235.86199
 51
255.330235
  0
ARC
  5
B312
330
AFE5
100
AcDbEntity
  8
1
  6
Continuous
100
AcDbCircle
 10
329.6665469999999
 20
185.750481
 30
0.0
 40
40.977364
100
AcDbArc
 50
256.1910899999999
 51
275.659335
  0
LINE
  5
B313
330
AFE5
100
AcDbEntity
  8
1
  6
Continuous
100
AcDbLine
 10
331.54151
 20
150.1831139999999
 30
0.0
 11
323.357906
 21
150.1831139999999
 31
0.0
  0
ARC
  5
B314
330
AFE5
100
AcDbEntity
  8
1
  6
Continuous
100
AcDbCircle
 10
332.1238829999999
 20
171.650575
 30
0.0
 40
29.540583
100
AcDbArc
 50
219.2038499999999
 51
223.8271799999998
  0
ARC
  5
B315
330
AFE5
100
AcDbEntity
  8
1
  6
Continuous
100
AcDbCircle
 10
324.372097
 20
164.2098169999998
 30
0.0
 40
18.795586
100
AcDbArc
 50
223.8271799999998
 51
256.1910899999999
  0
ARC
  5
B316
330
AFE5
100
AcDbEntity
  8
1
  6
Continuous
100
AcDbCircle
 10
325.096333
 20
163.4510429999999
 30
0.0
 40
1.0
100
AcDbArc
 50
211.7136999999999
 51
276.0573099999999
  0
LINE
  5
B317
330
AFE5
100
AcDbEntity
  8
5
  6
PHANTOM
100
AcDbLine
 10
330.630062
 20
158.959702
 30
0.0
 11
322.9561939999999
 21
161.802784
 31
0.0
  0
ARC
  5
B318
330
AFE5
100
AcDbEntity
  8
5
  6
PHANTOM
100
AcDbCircle
 10
324.3826
 20
165.652849
 30
0.0
 40
4.105809999999999
100
AcDbArc
 50
69.67089699999999
 51
249.6709
  0
LINE
  5
B319
330
AFE5
100
AcDbEntity
  8
1
  6
Continuous
100
AcDbLine
 10
330.594628
 20
158.3943649999999
 30
0.0
 11
323.357906
 21
158.3943649999999
 31
0.0
  0
ARC
  5
B31A
330
AFE5
100
AcDbEntity
  8
5
  6
PHANTOM
100
AcDbCircle
 10
329.614137
 20
174.3723709999999
 30
0.0
 40
2.677283
100
AcDbArc
 50
311.92359
 51
338.19209
  0
ARC
  5
B31B
330
AFE5
100
AcDbEntity
  8
5
  6
PHANTOM
100
AcDbCircle
 10
330.9164329999999
 20
172.922144
 30
0.0
 40
0.7281490000000001
100
AcDbArc
 50
255.7282299999999
 51
311.92359
  0
LINE
  5
B31C
330
AFE5
100
AcDbEntity
  8
5
  6
PHANTOM
100
AcDbLine
 10
330.7369259999999
 20
172.2164669999999
 30
0.0
 11
328.949258
 21
172.6712
 31
0.0
  0
ARC
  5
B31D
330
AFE5
100
AcDbEntity
  8
5
  6
PHANTOM
100
AcDbCircle
 10
329.1957759999998
 20
173.6403389999999
 30
0.0
 40
1.0
100
AcDbArc
 50
191.3846
 51
255.72821
  0
LINE
  5
B31E
330
AFE5
100
AcDbEntity
  8
1
  6
Continuous
100
AcDbLine
 10
327.0361579999998
 20
162.651275
 30
0.0
 11
325.2018599999999
 21
162.456627
 31
0.0
  0
ARC
  5
B31F
330
AFE5
100
AcDbEntity
  8
1
  6
Continuous
100
AcDbCircle
 10
326.9593249999999
 20
163.37536
 30
0.0
 40
0.7281490000000001
100
AcDbArc
 50
276.0573299999999
 51
332.2526899999999
  0
ARC
  5
B320
330
AFE5
100
AcDbEntity
  8
1
  6
Continuous
100
AcDbCircle
 10
325.234318
 20
164.282823
 30
0.0
 40
2.677283
100
AcDbArc
 50
332.2526899999999
 51
358.52119
  0
LINE
  5
B321
330
AFE5
100
AcDbEntity
  8
1
  6
Continuous
100
AcDbLine
 10
331.7210359999999
 20
164.213731
 30
0.0
 11
327.91071
 21
164.213731
 31
0.0
  0
LINE
  5
B322
330
AFE5
100
AcDbEntity
  8
5
  6
PHANTOM
100
AcDbLine
 10
332.594846
 20
166.9884539999999
 30
0.0
 11
325.8088809999998
 21
169.5025779999998
 31
0.0
  0
LINE
  5
B323
330
AFE5
100
AcDbEntity
  8
5
  6
PHANTOM
100
AcDbLine
 10
334.859073
 20
172.3555
 30
0.0
 11
332.09982
 21
173.3777719999999
 31
0.0
  0
ARC
  5
B324
330
AFE5
100
AcDbEntity
  8
5
  6
PHANTOM
100
AcDbCircle
 10
338.634213
 20
178.887688
 30
0.0
 40
29.540583
100
AcDbArc
 50
198.87475
 51
203.49808
  0
LINE
  5
B325
330
AFE5
100
AcDbEntity
  8
5
  6
PHANTOM
100
AcDbLine
 10
309.9104179999998
 20
173.1636639999999
 30
0.0
 11
310.6820859999999
 21
169.331296
 31
0.0
  0
LINE
  5
B326
330
AFE5
100
AcDbEntity
  8
1
  6
Continuous
100
AcDbLine
 10
322.4901479999999
 20
165.766246
 30
0.0
 11
324.245649
 21
162.9253689999998
 31
0.0
  0
ARC
  5
B327
330
AFE5
100
AcDbEntity
  8
5
  6
PHANTOM
100
AcDbCircle
 10
328.780258
 20
174.6034579999999
 30
0.0
 40
18.795586
100
AcDbArc
 50
203.49808
 51
235.86199
  0
LINE
  5
B328
330
AFE5
100
AcDbEntity
  8
1
  6
Continuous
100
AcDbLine
 10
352.8312
 20
189.801237
 30
0.0
 11
320.31178
 21
189.801237
 31
0.0
  0
LINE
  5
B329
330
AFE5
100
AcDbEntity
  8
1
  6
Continuous
100
AcDbLine
 10
342.5249819999999
 20
191.2422369999999
 30
0.0
 11
340.2891389999999
 21
189.801237
 31
0.0
  0
LINE
  5
B32A
330
AFE5
100
AcDbEntity
  8
1
  6
Continuous
100
AcDbLine
 10
320.31178
 20
191.2421979999998
 30
0.0
 11
352.8117799999998
 21
191.242276
 31
0.0
  0
LINE
  5
B32B
330
AFE5
100
AcDbEntity
  8
1
  6
Continuous
100
AcDbLine
 10
352.788636
 20
193.1455369999999
 30
0.0
 11
320.334924
 21
193.1455369999999
 31
0.0
  0
LINE
  5
B32C
330
AFE5
100
AcDbEntity
  8
1
  6
Continuous
100
AcDbLine
 10
339.1107719999999
 20
191.2422369999999
 30
0.0
 11
341.346615
 21
189.801237
 31
0.0
  0
LINE
  5
B32D
330
AFE5
100
AcDbEntity
  8
1
  6
Continuous
100
AcDbLine
 10
341.110768
 20
191.2422369999999
 30
0.0
 11
338.8749259999999
 21
189.801237
 31
0.0
  0
LINE
  5
B32E
330
AFE5
100
AcDbEntity
  8
1
  6
Continuous
100
AcDbLine
 10
366.56178
 20
195.1135739999998
 30
0.0
 11
306.56178
 21
195.1135739999998
 31
0.0
  0
LINE
  5
B32F
330
AFE5
100
AcDbEntity
  8
1
  6
Continuous
100
AcDbLine
 10
366.56178
 20
197.113537
 30
0.0
 11
306.56178
 21
197.113537
 31
0.0
  0
LINE
  5
B330
330
AFE5
100
AcDbEntity
  8
4
  6
CENTER
100
AcDbLine
 10
360.06178
 20
202.113537
 30
0.0
 11
360.06178
 21
190.1135739999998
 31
0.0
  0
LINE
  5
B331
330
AFE5
100
AcDbEntity
  8
1
  6
Continuous
100
AcDbLine
 10
356.68928
 20
186.938028
 30
0.0
 11
357.2842799999999
 21
186.9180279999999
 31
0.0
  0
LINE
  5
B332
330
AFE5
100
AcDbEntity
  8
1
  6
Continuous
100
AcDbLine
 10
366.56178
 20
197.113537
 30
0.0
 11
366.56178
 21
195.1135739999998
 31
0.0
  0
ARC
  5
B333
330
AFE5
100
AcDbEntity
  8
1
  6
Continuous
100
AcDbCircle
 10
361.773095
 20
185.340442
 30
0.0
 40
0.345682
100
AcDbArc
 50
270.852372
 51
313.097669
  0
LINE
  5
B334
330
AFE5
100
AcDbEntity
  8
1
  6
Continuous
100
AcDbLine
 10
362.00928
 20
185.773028
 30
0.0
 11
362.00928
 21
185.088028
 31
0.0
  0
LINE
  5
B335
330
AFE5
100
AcDbEntity
  8
1
  6
Continuous
100
AcDbLine
 10
361.9492799999999
 20
186.688028
 30
0.0
 11
362.00928
 21
185.773028
 31
0.0
  0
LINE
  5
B336
330
AFE5
100
AcDbEntity
  8
1
  6
Continuous
100
AcDbLine
 10
359.5092799999998
 20
184.961041
 30
0.0
 11
361.778237
 21
184.9947979999998
 31
0.0
  0
ARC
  5
B337
330
AFE5
100
AcDbEntity
  8
1
  6
Continuous
100
AcDbCircle
 10
361.0946269999999
 20
185.6414879999999
 30
0.0
 40
1.351175999999999
100
AcDbArc
 50
50.763314
 51
91.14576300000001
  0
LINE
  5
B338
330
AFE5
100
AcDbEntity
  8
1
  6
Continuous
100
AcDbLine
 10
357.2842799999999
 20
186.9180279999999
 30
0.0
 11
357.8492799999998
 21
186.928028
 31
0.0
  0
LINE
  5
B339
330
AFE5
100
AcDbEntity
  8
1
  6
Continuous
100
AcDbLine
 10
357.8492799999998
 20
186.928028
 30
0.0
 11
361.067608
 21
186.992395
 31
0.0
  0
LINE
  5
B33A
330
AFE5
100
AcDbEntity
  8
1
  6
Continuous
100
AcDbLine
 10
356.3272769999999
 20
194.8655369999999
 30
0.0
 11
356.515444
 21
195.1135739999998
 31
0.0
  0
LINE
  5
B33B
330
AFE5
100
AcDbEntity
  8
1
  6
Continuous
100
AcDbLine
 10
350.4244799999999
 20
191.2422369999999
 30
0.0
 11
352.660324
 21
189.801237
 31
0.0
  0
LINE
  5
B33C
330
AFE5
100
AcDbEntity
  8
1
  6
Continuous
100
AcDbLine
 10
352.424477
 20
191.2422369999999
 30
0.0
 11
350.1886339999999
 21
189.801237
 31
0.0
  0
LINE
  5
B33D
330
AFE5
100
AcDbEntity
  8
1
  6
Continuous
100
AcDbLine
 10
351.010263
 20
191.2422369999999
 30
0.0
 11
348.774421
 21
189.801237
 31
0.0
  0
LINE
  5
B33E
330
AFE5
100
AcDbEntity
  8
1
  6
Continuous
100
AcDbLine
 10
347.596053
 20
191.2422369999999
 30
0.0
 11
349.8318959999999
 21
189.801237
 31
0.0
  0
LINE
  5
B33F
330
AFE5
100
AcDbEntity
  8
1
  6
Continuous
100
AcDbLine
 10
344.7676259999998
 20
191.2422369999999
 30
0.0
 11
347.0034689999998
 21
189.801237
 31
0.0
  0
LINE
  5
B340
330
AFE5
100
AcDbEntity
  8
1
  6
Continuous
100
AcDbLine
 10
341.9391989999998
 20
191.2422369999999
 30
0.0
 11
344.175042
 21
189.801237
 31
0.0
  0
LINE
  5
B341
330
AFE5
100
AcDbEntity
  8
1
  6
Continuous
100
AcDbLine
 10
349.5960489999998
 20
191.2422369999999
 30
0.0
 11
347.360207
 21
189.801237
 31
0.0
  0
LINE
  5
B342
330
AFE5
100
AcDbEntity
  8
1
  6
Continuous
100
AcDbLine
 10
348.1818359999999
 20
191.2422369999999
 30
0.0
 11
345.9459929999999
 21
189.801237
 31
0.0
  0
LINE
  5
B343
330
AFE5
100
AcDbEntity
  8
1
  6
Continuous
100
AcDbLine
 10
346.767622
 20
191.2422369999999
 30
0.0
 11
344.5317799999998
 21
189.801237
 31
0.0
  0
LINE
  5
B344
330
AFE5
100
AcDbEntity
  8
1
  6
Continuous
100
AcDbLine
 10
345.353409
 20
191.2422369999999
 30
0.0
 11
343.117566
 21
189.801237
 31
0.0
  0
LINE
  5
B345
330
AFE5
100
AcDbEntity
  8
1
  6
Continuous
100
AcDbLine
 10
343.939195
 20
191.2422369999999
 30
0.0
 11
341.7033529999998
 21
189.801237
 31
0.0
  0
LINE
  5
B346
330
AFE5
100
AcDbEntity
  8
1
  6
Continuous
100
AcDbLine
 10
352.8117799999998
 20
190.215327
 30
0.0
 11
351.2743319999998
 21
189.801237
 31
0.0
  0
ARC
  5
B347
330
AFE5
100
AcDbEntity
  8
1
  6
Continuous
100
AcDbCircle
 10
353.033592
 20
189.0240619999999
 30
0.0
 40
2.042368999999998
100
AcDbArc
 50
199.821809
 51
269.3179399999999
  0
LINE
  5
B348
330
AFE5
100
AcDbEntity
  8
1
  6
Continuous
100
AcDbLine
 10
352.1433599999999
 20
192.931534
 30
0.0
 11
351.7902029999998
 21
193.1455369999999
 31
0.0
  0
LINE
  5
B349
330
AFE5
100
AcDbEntity
  8
1
  6
Continuous
100
AcDbLine
 10
352.8117799999998
 20
191.2422369999999
 30
0.0
 11
352.8117799999998
 21
189.801237
 31
0.0
  0
ARC
  5
B34A
330
AFE5
100
AcDbEntity
  8
1
  6
Continuous
100
AcDbCircle
 10
351.573912
 20
191.9918049999999
 30
0.0
 40
1.098799999999998
100
AcDbArc
 50
20.306161
 51
58.785345
  0
ARC
  5
B34B
330
AFE5
100
AcDbEntity
  8
1
  6
Continuous
100
AcDbCircle
 10
350.256048
 20
192.7040159999999
 30
0.0
 40
2.371570999999998
100
AcDbArc
 50
321.9491909999999
 51
351.9797889999999
  0
ARC
  5
B34C
330
AFE5
100
AcDbEntity
  8
1
  6
Continuous
100
AcDbCircle
 10
352.788636
 20
196.3241099999999
 30
0.0
 40
3.178573
100
AcDbArc
 50
270.0
 51
303.210091
  0
LINE
  5
B34D
330
AFE5
100
AcDbEntity
  8
1
  6
Continuous
100
AcDbLine
 10
355.6642799999999
 20
186.983028
 30
0.0
 11
355.8492799999998
 21
186.9480279999999
 31
0.0
  0
LINE
  5
B34E
330
AFE5
100
AcDbEntity
  8
1
  6
Continuous
100
AcDbLine
 10
355.49428
 20
187.068028
 30
0.0
 11
355.6642799999999
 21
186.983028
 31
0.0
  0
LINE
  5
B34F
330
AFE5
100
AcDbEntity
  8
1
  6
Continuous
100
AcDbLine
 10
355.1542799999999
 20
187.2680279999999
 30
0.0
 11
355.49428
 21
187.068028
 31
0.0
  0
LINE
  5
B350
330
AFE5
100
AcDbEntity
  8
1
  6
Continuous
100
AcDbLine
 10
355.0092799999998
 20
187.7030279999999
 30
0.0
 11
355.1542799999999
 21
187.2680279999999
 31
0.0
  0
ARC
  5
B351
330
AFE5
100
AcDbEntity
  8
1
  6
Continuous
100
AcDbCircle
 10
350.916095
 20
185.9528349999999
 30
0.0
 40
4.451666999999998
100
AcDbArc
 50
23.150932
 51
38.25670199999999
  0
ARC
  5
B352
330
AFE5
100
AcDbEntity
  8
1
  6
Continuous
100
AcDbCircle
 10
351.8469889999999
 20
186.686869
 30
0.0
 40
3.266183999999998
100
AcDbArc
 50
38.25670199999999
 51
72.462293
  0
ARC
  5
B353
330
AFE5
100
AcDbEntity
  8
1
  6
Continuous
100
AcDbCircle
 10
290.7908499999999
 20
291.030249
 30
0.0
 40
116.3729999999999
100
AcDbArc
 50
303.210091
 51
304.2745019999999
  0
LINE
  5
B354
330
AFE5
100
AcDbEntity
  8
1
  6
Continuous
100
AcDbLine
 10
353.0092799999998
 20
186.9818379999999
 30
0.0
 11
356.68928
 21
186.938028
 31
0.0
  0
LINE
  5
B355
330
AFE5
100
AcDbEntity
  8
4
  6
CENTER
100
AcDbLine
 10
313.06178
 20
202.113537
 30
0.0
 11
313.06178
 21
190.1135739999998
 31
0.0
  0
LINE
  5
B356
330
AFE5
100
AcDbEntity
  8
1
  6
Continuous
100
AcDbLine
 10
325.554419
 20
191.2422369999999
 30
0.0
 11
323.3185759999999
 21
189.801237
 31
0.0
  0
ARC
  5
B357
330
AFE5
100
AcDbEntity
  8
1
  6
Continuous
100
AcDbCircle
 10
323.182161
 20
177.575123
 30
0.0
 40
5.502905999999999
100
AcDbArc
 50
45.952998
 51
90.0
  0
LINE
  5
B358
330
AFE5
100
AcDbEntity
  8
1
  6
Continuous
100
AcDbLine
 10
333.4539169999998
 20
191.2422369999999
 30
0.0
 11
335.6897609999998
 21
189.801237
 31
0.0
  0
LINE
  5
B359
330
AFE5
100
AcDbEntity
  8
1
  6
Continuous
100
AcDbLine
 10
335.4539139999999
 20
191.2422369999999
 30
0.0
 11
333.218071
 21
189.801237
 31
0.0
  0
LINE
  5
B35A
330
AFE5
100
AcDbEntity
  8
1
  6
Continuous
100
AcDbLine
 10
330.62549
 20
191.2422369999999
 30
0.0
 11
332.8613339999999
 21
189.801237
 31
0.0
  0
LINE
  5
B35B
330
AFE5
100
AcDbEntity
  8
1
  6
Continuous
100
AcDbLine
 10
327.7970629999999
 20
191.2422369999999
 30
0.0
 11
330.0329069999999
 21
189.801237
 31
0.0
  0
LINE
  5
B35C
330
AFE5
100
AcDbEntity
  8
1
  6
Continuous
100
AcDbLine
 10
324.968636
 20
191.2422369999999
 30
0.0
 11
327.2044789999998
 21
189.801237
 31
0.0
  0
LINE
  5
B35D
330
AFE5
100
AcDbEntity
  8
1
  6
Continuous
100
AcDbLine
 10
334.0396999999999
 20
191.2422369999999
 30
0.0
 11
331.803858
 21
189.801237
 31
0.0
  0
LINE
  5
B35E
330
AFE5
100
AcDbEntity
  8
1
  6
Continuous
100
AcDbLine
 10
332.625487
 20
191.2422369999999
 30
0.0
 11
330.3896439999999
 21
189.801237
 31
0.0
  0
LINE
  5
B35F
330
AFE5
100
AcDbEntity
  8
1
  6
Continuous
100
AcDbLine
 10
331.2112729999999
 20
191.2422369999999
 30
0.0
 11
328.975431
 21
189.801237
 31
0.0
  0
LINE
  5
B360
330
AFE5
100
AcDbEntity
  8
1
  6
Continuous
100
AcDbLine
 10
329.7970599999998
 20
191.2422369999999
 30
0.0
 11
327.561217
 21
189.801237
 31
0.0
  0
LINE
  5
B361
330
AFE5
100
AcDbEntity
  8
1
  6
Continuous
100
AcDbLine
 10
328.3828459999999
 20
191.2422369999999
 30
0.0
 11
326.1470039999999
 21
189.801237
 31
0.0
  0
LINE
  5
B362
330
AFE5
100
AcDbEntity
  8
1
  6
Continuous
100
AcDbLine
 10
326.9686319999999
 20
191.2422369999999
 30
0.0
 11
324.7327899999999
 21
189.801237
 31
0.0
  0
LINE
  5
B363
330
AFE5
100
AcDbEntity
  8
1
  6
Continuous
100
AcDbLine
 10
336.282345
 20
191.2422369999999
 30
0.0
 11
338.518188
 21
189.801237
 31
0.0
  0
LINE
  5
B364
330
AFE5
100
AcDbEntity
  8
1
  6
Continuous
100
AcDbLine
 10
339.696554
 20
191.2422369999999
 30
0.0
 11
337.460712
 21
189.801237
 31
0.0
  0
LINE
  5
B365
330
AFE5
100
AcDbEntity
  8
1
  6
Continuous
100
AcDbLine
 10
338.2823409999998
 20
191.2422369999999
 30
0.0
 11
336.046499
 21
189.801237
 31
0.0
  0
LINE
  5
B366
330
AFE5
100
AcDbEntity
  8
1
  6
Continuous
100
AcDbLine
 10
336.868127
 20
191.2422369999999
 30
0.0
 11
334.632285
 21
189.801237
 31
0.0
  0
LINE
  5
B367
330
AFE5
100
AcDbEntity
  8
1
  6
Continuous
100
AcDbLine
 10
317.7117799999999
 20
183.105367
 30
0.0
 11
318.04836
 21
187.2199979999998
 31
0.0
  0
LINE
  5
B368
330
AFE5
100
AcDbEntity
  8
1
  6
Continuous
100
AcDbLine
 10
317.9622799999999
 20
183.105367
 30
0.0
 11
317.7117799999999
 21
183.105367
 31
0.0
  0
LINE
  5
B369
330
AFE5
100
AcDbEntity
  8
1
  6
Continuous
100
AcDbLine
 10
318.7112799999998
 20
183.063028
 30
0.0
 11
319.37628
 21
183.018028
 31
0.0
  0
ARC
  5
B36A
330
AFE5
100
AcDbEntity
  8
1
  6
Continuous
100
AcDbCircle
 10
320.567992
 20
187.293586
 30
0.0
 40
2.520706
100
AcDbArc
 50
95.83378000000001
 51
181.6728799999999
  0
ARC
  5
B36B
330
AFE5
100
AcDbEntity
  8
1
  6
Continuous
100
AcDbCircle
 10
320.334924
 20
196.3241099999999
 30
0.0
 40
3.178573
100
AcDbArc
 50
236.7899089999999
 51
270.0
  0
LINE
  5
B36C
330
AFE5
100
AcDbEntity
  8
1
  6
Continuous
100
AcDbLine
 10
317.9622799999999
 20
183.105367
 30
0.0
 11
318.7112799999998
 21
183.063028
 31
0.0
  0
ARC
  5
B36D
330
AFE5
100
AcDbEntity
  8
1
  6
Continuous
100
AcDbCircle
 10
382.33271
 20
291.030249
 30
0.0
 40
116.3729999999999
100
AcDbArc
 50
235.7254979999999
 51
236.7899089999999
  0
LINE
  5
B36E
330
AFE5
100
AcDbEntity
  8
1
  6
Continuous
100
AcDbLine
 10
316.796283
 20
194.8655369999999
 30
0.0
 11
316.608116
 21
195.1135739999998
 31
0.0
  0
LINE
  5
B36F
330
AFE5
100
AcDbEntity
  8
1
  6
Continuous
100
AcDbLine
 10
322.1402089999999
 20
191.2422369999999
 30
0.0
 11
324.376052
 21
189.801237
 31
0.0
  0
LINE
  5
B370
330
AFE5
100
AcDbEntity
  8
1
  6
Continuous
100
AcDbLine
 10
321.8377409999998
 20
189.801237
 30
0.0
 11
320.31178
 21
190.2422389999999
 31
0.0
  0
LINE
  5
B371
330
AFE5
100
AcDbEntity
  8
1
  6
Continuous
100
AcDbLine
 10
324.140205
 20
191.2422369999999
 30
0.0
 11
321.9043629999998
 21
189.801237
 31
0.0
  0
LINE
  5
B372
330
AFE5
100
AcDbEntity
  8
1
  6
Continuous
100
AcDbLine
 10
322.725992
 20
191.2422369999999
 30
0.0
 11
320.4901489999999
 21
189.801237
 31
0.0
  0
LINE
  5
B373
330
AFE5
100
AcDbEntity
  8
1
  6
Continuous
100
AcDbLine
 10
321.311778
 20
191.2422369999999
 30
0.0
 11
320.31178
 21
190.2422389999999
 31
0.0
  0
LINE
  5
B374
330
AFE5
100
AcDbEntity
  8
1
  6
Continuous
100
AcDbLine
 10
320.9802
 20
192.931534
 30
0.0
 11
321.3333569999999
 21
193.1455369999999
 31
0.0
  0
LINE
  5
B375
330
AFE5
100
AcDbEntity
  8
1
  6
Continuous
100
AcDbLine
 10
320.31178
 20
191.2422369999999
 30
0.0
 11
320.31178
 21
189.801237
 31
0.0
  0
LINE
  5
B376
330
AFE5
100
AcDbEntity
  8
1
  6
Continuous
100
AcDbLine
 10
319.5992799999999
 20
183.0780279999999
 30
0.0
 11
323.182161
 21
183.0780279999999
 31
0.0
  0
LINE
  5
B377
330
AFE5
100
AcDbEntity
  8
1
  6
Continuous
100
AcDbLine
 10
319.37628
 20
183.018028
 30
0.0
 11
319.5992799999999
 21
183.0780279999999
 31
0.0
  0
ARC
  5
B378
330
AFE5
100
AcDbEntity
  8
1
  6
Continuous
100
AcDbCircle
 10
321.549648
 20
191.9918049999999
 30
0.0
 40
1.098799999999998
100
AcDbArc
 50
121.214655
 51
159.693839
  0
ARC
  5
B379
330
AFE5
100
AcDbEntity
  8
1
  6
Continuous
100
AcDbCircle
 10
322.8675119999999
 20
192.7040159999999
 30
0.0
 40
2.371570999999998
100
AcDbArc
 50
188.020211
 51
218.050809
  0
LINE
  5
B37A
330
AFE5
100
AcDbEntity
  8
1
  6
Continuous
100
AcDbLine
 10
306.56178
 20
197.113537
 30
0.0
 11
306.56178
 21
195.1135739999998
 31
0.0
  0
LINE
  5
B37B
330
AFE5
100
AcDbEntity
  8
1
  6
Continuous
100
AcDbLine
 10
68.009588
 20
162.886538
 30
0.0
 11
68.009588
 21
165.8061779999999
 31
0.0
  0
LINE
  5
B37C
330
AFE5
100
AcDbEntity
  8
1
  6
Continuous
100
AcDbLine
 10
70.309591
 20
162.794023
 30
0.0
 11
70.309591
 21
163.809478
 31
0.0
  0
CIRCLE
  5
B37D
330
AFE5
100
AcDbEntity
  8
1
  6
Continuous
100
AcDbCircle
 10
355.56178
 20
157.1132369999999
 30
0.0
 40
4.25
  0
LINE
  5
B37E
330
AFE5
100
AcDbEntity
  8
1
  6
Continuous
100
AcDbLine
 10
72.00246899999998
 20
159.1130379999999
 30
0.0
 11
72.00246899999998
 21
155.113038
 31
0.0
  0
LINE
  5
B37F
330
AFE5
100
AcDbEntity
  8
1
  6
Continuous
100
AcDbLine
 10
71.00246899999998
 20
160.1130379999998
 30
0.0
 11
70.70246899999998
 21
160.1130379999998
 31
0.0
  0
LINE
  5
B380
330
AFE5
100
AcDbEntity
  8
1
  6
Continuous
100
AcDbLine
 10
71.00246899999998
 20
154.113038
 30
0.0
 11
70.70246899999998
 21
154.113038
 31
0.0
  0
LINE
  5
B381
330
AFE5
100
AcDbEntity
  8
2
  6
Continuous
100
AcDbLine
 10
71.54396899999998
 20
159.5715379999998
 30
0.0
 11
70.70246899999998
 21
159.5715379999998
 31
0.0
  0
LINE
  5
B382
330
AFE5
100
AcDbEntity
  8
2
  6
Continuous
100
AcDbLine
 10
71.54396899999998
 20
154.6545379999998
 30
0.0
 11
70.70246899999998
 21
154.6545379999998
 31
0.0
  0
LINE
  5
B383
330
AFE5
100
AcDbEntity
  8
1
  6
Continuous
100
AcDbLine
 10
71.00246899999998
 20
160.1130379999998
 30
0.0
 11
71.00246899999998
 21
154.113038
 31
0.0
  0
LINE
  5
B384
330
AFE5
100
AcDbEntity
  8
1
  6
Continuous
100
AcDbLine
 10
72.00246899999998
 20
155.113038
 30
0.0
 11
71.00246899999998
 21
154.113038
 31
0.0
  0
LINE
  5
B385
330
AFE5
100
AcDbEntity
  8
1
  6
Continuous
100
AcDbLine
 10
72.00246899999998
 20
159.1130379999999
 30
0.0
 11
71.00246899999998
 21
160.1130379999998
 31
0.0
  0
LINE
  5
B386
330
AFE5
100
AcDbEntity
  8
1
  6
Continuous
100
AcDbLine
 10
135.164626
 20
93.20961500000001
 30
0.0
 11
136.164626
 21
92.20961499999999
 31
0.0
  0
LINE
  5
B387
330
AFE5
100
AcDbEntity
  8
1
  6
Continuous
100
AcDbLine
 10
131.164626
 20
93.20961500000001
 30
0.0
 11
130.164626
 21
92.20961499999999
 31
0.0
  0
LINE
  5
B388
330
AFE5
100
AcDbEntity
  8
2
  6
Continuous
100
AcDbLine
 10
135.623126
 20
92.75111499999999
 30
0.0
 11
135.623126
 21
91.909615
 31
0.0
  0
LINE
  5
B389
330
AFE5
100
AcDbEntity
  8
1
  6
Continuous
100
AcDbLine
 10
131.164626
 20
93.20961500000001
 30
0.0
 11
135.164626
 21
93.20961500000001
 31
0.0
  0
LINE
  5
B38A
330
AFE5
100
AcDbEntity
  8
1
  6
Continuous
100
AcDbLine
 10
136.164626
 20
92.20961499999999
 30
0.0
 11
136.164626
 21
91.909615
 31
0.0
  0
LINE
  5
B38B
330
AFE5
100
AcDbEntity
  8
1
  6
Continuous
100
AcDbLine
 10
130.164626
 20
92.20961499999999
 30
0.0
 11
136.164626
 21
92.20961499999999
 31
0.0
  0
LINE
  5
B38C
330
AFE5
100
AcDbEntity
  8
2
  6
Continuous
100
AcDbLine
 10
130.706126
 20
92.75111499999999
 30
0.0
 11
130.706126
 21
91.909615
 31
0.0
  0
LINE
  5
B38D
330
AFE5
100
AcDbEntity
  8
1
  6
Continuous
100
AcDbLine
 10
130.164626
 20
92.20961499999999
 30
0.0
 11
130.164626
 21
91.909615
 31
0.0
  0
LINE
  5
B38E
330
AFE5
100
AcDbEntity
  8
1
  6
Continuous
100
AcDbLine
 10
135.364629
 20
93.00961200000001
 30
0.0
 11
139.163878
 21
93.00961200000001
 31
0.0
  0
LINE
  5
B38F
330
AFE5
100
AcDbEntity
  8
1
  6
Continuous
100
AcDbLine
 10
131.164626
 20
236.0174589999998
 30
0.0
 11
135.164626
 21
236.0174589999998
 31
0.0
  0
LINE
  5
B390
330
AFE5
100
AcDbEntity
  8
1
  6
Continuous
100
AcDbLine
 10
131.164626
 20
236.0174589999998
 30
0.0
 11
130.9648629999998
 21
236.217222
 31
0.0
  0
LINE
  5
B391
330
AFE5
100
AcDbEntity
  8
1
  6
Continuous
100
AcDbLine
 10
135.164626
 20
236.0174589999998
 30
0.0
 11
135.3643889999998
 21
236.217222
 31
0.0
  0
ARC
  5
B392
330
AFE5
100
AcDbEntity
  8
1
  6
Continuous
100
AcDbCircle
 10
133.164626
 20
157.1132369999999
 30
0.0
 40
25.0
100
AcDbArc
 50
194.7316149999998
 51
330.9471909999999
  0
ARC
  5
B393
330
AFE5
100
AcDbEntity
  8
1
  6
Continuous
100
AcDbCircle
 10
133.164626
 20
157.1132369999999
 30
0.0
 40
19.5
100
AcDbArc
 50
207.6423759999999
 51
325.056438
  0
ARC
  5
B394
330
AFE5
100
AcDbEntity
  8
1
  6
Continuous
100
AcDbCircle
 10
133.164626
 20
157.1132369999999
 30
0.0
 40
19.5
100
AcDbArc
 50
18.039978
 51
29.916719
  0
ARC
  5
B395
330
AFE5
100
AcDbEntity
  8
1
  6
Continuous
100
AcDbCircle
 10
133.164626
 20
157.1132369999999
 30
0.0
 40
25.0
100
AcDbArc
 50
16.500264
 51
35.83806699999998
  0
ARC
  5
B396
330
AFE5
100
AcDbEntity
  8
1
  6
Continuous
100
AcDbCircle
 10
133.164626
 20
157.1132369999999
 30
0.0
 40
5.599999999999997
100
AcDbArc
 50
33.23845699999999
 51
86.77445799999999
  0
ARC
  5
B397
330
AFE5
100
AcDbEntity
  8
1
  6
Continuous
100
AcDbCircle
 10
133.164626
 20
157.1132369999999
 30
0.0
 40
5.599999999999997
100
AcDbArc
 50
93.23845699999999
 51
146.774458
  0
ARC
  5
B398
330
AFE5
100
AcDbEntity
  8
1
  6
Continuous
100
AcDbCircle
 10
133.164626
 20
157.1132369999999
 30
0.0
 40
5.599999999999997
100
AcDbArc
 50
153.238457
 51
206.774458
  0
ARC
  5
B399
330
AFE5
100
AcDbEntity
  8
1
  6
Continuous
100
AcDbCircle
 10
133.164626
 20
157.1132369999999
 30
0.0
 40
5.599999999999997
100
AcDbArc
 50
213.238457
 51
266.7744579999999
  0
ARC
  5
B39A
330
AFE5
100
AcDbEntity
  8
1
  6
Continuous
100
AcDbCircle
 10
133.164626
 20
157.1132369999999
 30
0.0
 40
5.599999999999997
100
AcDbArc
 50
273.2384569999999
 51
326.774458
  0
ARC
  5
B39B
330
AFE5
100
AcDbEntity
  8
1
  6
Continuous
100
AcDbCircle
 10
133.164626
 20
157.1132369999999
 30
0.0
 40
5.599999999999997
100
AcDbArc
 50
333.2384569999998
 51
26.774458
  0
LINE
  5
B39C
330
AFE5
100
AcDbEntity
  8
1
  6
Continuous
100
AcDbLine
 10
67.102469
 20
162.7130379999998
 30
0.0
 11
66.10246899999999
 21
162.7130379999998
 31
0.0
  0
LINE
  5
B39D
330
AFE5
100
AcDbEntity
  8
1
  6
Continuous
100
AcDbLine
 10
67.102469
 20
151.5130379999999
 30
0.0
 11
66.10246899999999
 21
151.5130379999999
 31
0.0
  0
LINE
  5
B39E
330
AFE5
100
AcDbEntity
  8
1
  6
Continuous
100
AcDbLine
 10
127.564626
 20
88.30961499999999
 30
0.0
 11
127.564626
 21
87.30961499999997
 31
0.0
  0
LINE
  5
B39F
330
AFE5
100
AcDbEntity
  8
1
  6
Continuous
100
AcDbLine
 10
62.366289
 20
173.1061879999998
 30
0.0
 11
66.716049
 21
168.1061879999998
 31
0.0
  0
ARC
  5
B3A0
330
AFE5
100
AcDbEntity
  8
1
  6
Continuous
100
AcDbCircle
 10
252.222963
 20
166.870484
 30
0.0
 40
26.713884
100
AcDbArc
 50
192.0536659999999
 51
205.68544
  0
LINE
  5
B3A1
330
AFE5
100
AcDbEntity
  8
1
  6
Continuous
100
AcDbLine
 10
383.8942369999998
 20
160.689447
 30
0.0
 11
380.3046729999999
 21
160.689447
 31
0.0
  0
LINE
  5
B3A2
330
AFE5
100
AcDbEntity
  8
5
  6
PHANTOM
100
AcDbLine
 10
383.3718999999998
 20
150.62366
 30
0.0
 11
380.00592
 21
151.8707169999998
 31
0.0
  0
LINE
  5
B3A3
330
AFE5
100
AcDbEntity
  8
1
  6
Continuous
100
AcDbLine
 10
331.155102
 20
162.527482
 30
0.0
 11
327.1252819999999
 21
162.527482
 31
0.0
  0
LINE
  5
B3A4
330
AFE5
100
AcDbEntity
  8
5
  6
PHANTOM
100
AcDbLine
 10
334.625373
 20
170.775844
 30
0.0
 11
330.7369299999999
 21
172.2164679999999
 31
0.0
  0
ENDSEC
  0
SECTION
  2
OBJECTS
  0
DICTIONARY
  5
AFD3
330
0
100
AcDbDictionary
281
     1
  3
ACAD_CIP_PREVIOUS_PRODUCT_INFO
350
B406
  3
ACAD_COLOR
350
B3E8
  3
ACAD_DETAILVIEWSTYLE
350
B401
  3
ACAD_GROUP
350
AFD4
  3
ACAD_LAYOUT
350
AFE0
  3
ACAD_MATERIAL
350
B3B6
  3
ACAD_MLEADERSTYLE
350
B3FD
  3
ACAD_MLINESTYLE
350
AFDD
  3
ACAD_PLOTSETTINGS
350
AFDF
  3
ACAD_PLOTSTYLENAME
350
B3B4
  3
ACAD_SCALELIST
350
B3EB
  3
ACAD_SECTIONVIEWSTYLE
350
B3FF
  3
ACAD_TABLESTYLE
350
B3E9
  3
ACAD_VISUALSTYLE
350
B3CF
  3
ACDB_RECOMPOSE_DATA
350
B424
  3
AcDbVariableDictionary
350
B417
  3
DWGPROPS
350
B425
  0
DICTIONARY
  5
B407
330
AFD7
100
AcDbDictionary
280
     1
281
     1
  3
ADSK_XREC_LAYER_RECONCILED
360
B408
  0
DICTIONARY
  5
B409
330
AFED
100
AcDbDictionary
280
     1
281
     1
  3
ADSK_XREC_LAYER_RECONCILED
360
B40A
  0
DICTIONARY
  5
B40B
330
AFEE
100
AcDbDictionary
280
     1
281
     1
  3
ADSK_XREC_LAYER_RECONCILED
360
B40C
  0
DICTIONARY
  5
B40D
330
AFEF
100
AcDbDictionary
280
     1
281
     1
  3
ADSK_XREC_LAYER_RECONCILED
360
B40E
  0
DICTIONARY
  5
B40F
330
AFF0
100
AcDbDictionary
280
     1
281
     1
  3
ADSK_XREC_LAYER_RECONCILED
360
B410
  0
DICTIONARY
  5
B411
330
AFF1
100
AcDbDictionary
280
     1
281
     1
  3
ADSK_XREC_LAYER_RECONCILED
360
B412
  0
DICTIONARY
  5
B413
330
AFF2
100
AcDbDictionary
280
     1
281
     1
  3
ADSK_XREC_LAYER_RECONCILED
360
B414
  0
DICTIONARY
  5
B415
330
AFF3
100
AcDbDictionary
280
     1
281
     1
  3
ADSK_XREC_LAYER_RECONCILED
360
B416
  0
DICTIONARY
  5
B3AF
330
AFE5
100
AcDbDictionary
281
     1
  3
ACAD_LAYOUTSELFREF
350
B3B0
  0
DICTIONARY
  5
B3AD
330
AFE1
100
AcDbDictionary
281
     1
  3
ACAD_LAYOUTSELFREF
350
B3AE
  0
XRECORD
  5
B406
102
{ACAD_REACTORS
330
AFD3
102
}
330
AFD3
100
AcDbXrecord
280
     1
300
ACDLT
300
2014
300
ACDLT_F_S
  0
DICTIONARY
  5
B3E8
102
{ACAD_REACTORS
330
AFD3
102
}
330
AFD3
100
AcDbDictionary
281
     1
  0
DICTIONARY
  5
B401
102
{ACAD_REACTORS
330
AFD3
102
}
330
AFD3
100
AcDbDictionary
281
     1
  3
Imperial24
350
B402
  0
DICTIONARY
  5
AFD4
102
{ACAD_REACTORS
330
AFD3
102
}
330
AFD3
100
AcDbDictionary
281
     1
  0
DICTIONARY
  5
AFE0
102
{ACAD_REACTORS
330
AFD3
102
}
330
AFD3
100
AcDbDictionary
281
     1
  3
Model
350
B403
  3
レイアウト1
350
B404
  0
DICTIONARY
  5
B3B6
102
{ACAD_REACTORS
330
AFD3
102
}
330
AFD3
100
AcDbDictionary
281
     1
  3
ByBlock
350
B3BF
  3
ByLayer
350
B3B7
  3
Global
350
B3C7
  0
DICTIONARY
  5
B3FD
102
{ACAD_REACTORS
330
AFD3
102
}
330
AFD3
100
AcDbDictionary
281
     1
  3
Standard
350
B3FE
  0
DICTIONARY
  5
AFDD
102
{ACAD_REACTORS
330
AFD3
102
}
330
AFD3
100
AcDbDictionary
281
     1
  3
STANDARD
350
AFDE
  0
DICTIONARY
  5
AFDF
102
{ACAD_REACTORS
330
AFD3
102
}
330
AFD3
100
AcDbDictionary
281
     1
  0
ACDBDICTIONARYWDFLT
  5
B3B4
102
{ACAD_REACTORS
330
AFD3
102
}
330
AFD3
100
AcDbDictionary
281
     1
  3
Normal
350
B3B5
100
AcDbDictionaryWithDefault
340
B3B5
  0
DICTIONARY
  5
B3EB
102
{ACAD_REACTORS
330
AFD3
102
}
330
AFD3
100
AcDbDictionary
281
     1
  3
A0
350
B3EC
  3
A1
350
B3ED
  3
A2
350
B3EE
  3
A3
350
B3EF
  3
A4
350
B3F0
  3
A5
350
B3F1
  3
A6
350
B3F2
  3
A7
350
B3F3
  3
A8
350
B3F4
  3
A9
350
B3F5
  3
B0
350
B3F6
  3
B1
350
B3F7
  3
B2
350
B3F8
  3
B3
350
B3F9
  3
B4
350
B3FA
  3
B5
350
B3FB
  3
B6
350
B3FC
  0
DICTIONARY
  5
B3FF
102
{ACAD_REACTORS
330
AFD3
102
}
330
AFD3
100
AcDbDictionary
281
     1
  3
Imperial24
350
B400
  0
DICTIONARY
  5
B3E9
102
{ACAD_REACTORS
330
AFD3
102
}
330
AFD3
100
AcDbDictionary
281
     1
  3
Standard
350
B3EA
  0
DICTIONARY
  5
B3CF
102
{ACAD_REACTORS
330
AFD3
102
}
330
AFD3
100
AcDbDictionary
281
     1
  3
2dWireframe
350
B3D5
  3
Basic
350
B3D4
  3
Brighten
350
B3DB
  3
ColorChange
350
B3DF
  3
Conceptual
350
B3D8
  3
Dim
350
B3DA
  3
EdgeColorOff
350
B3E7
  3
Facepattern
350
B3DE
  3
Flat
350
B3D0
  3
FlatWithEdges
350
B3D1
  3
Gouraud
350
B3D2
  3
GouraudWithEdges
350
B3D3
  3
Hidden
350
B3D7
  3
JitterOff
350
B3E5
  3
Linepattern
350
B3DD
  3
OverhangOff
350
B3E6
  3
Realistic
350
B3D9
  3
Shaded
350
B3E4
  3
Shaded with edges
350
B3E3
  3
Shades of Gray
350
B3E0
  3
Sketchy
350
B3E1
  3
Thicken
350
B3DC
  3
Wireframe
350
B3D6
  3
X-Ray
350
B3E2
  0
XRECORD
  5
B424
102
{ACAD_REACTORS
330
AFD3
102
}
330
AFD3
100
AcDbXrecord
280
     1
 90
        1
330
B3EA
  0
DICTIONARY
  5
B417
102
{ACAD_REACTORS
330
AFD3
102
}
330
AFD3
100
AcDbDictionary
281
     1
  3
CANNOSCALE
350
B41C
  3
CMLEADERSTYLE
350
B419
  3
CTABLESTYLE
350
B418
  3
CVIEWDETAILSTYLE
350
B41A
  3
CVIEWSECTIONSTYLE
350
B41B
  3
DIMASSOC
350
B41F
  3
INDEXCTL
350
B41E
  3
SORTENTS
350
B41D
  3
XCLIPFRAME
350
B420
  0
XRECORD
  5
B425
102
{ACAD_REACTORS
330
AFD3
102
}
330
AFD3
100
AcDbXrecord
280
     1
  1
DWGPROPS COOKIE
  2

  3

  4

  6

  7

  8
Yoshitsune
  9

300
=
301
=
302
=
303
=
304
=
305
=
306
=
307
=
308
=
309
=
 40
0.0000118171296296
 41
2451302.634368403
 42
2457192.6865625
  1

 90
        0
  0
XRECORD
  5
B408
102
{ACAD_REACTORS
330
B407
102
}
330
B407
100
AcDbXrecord
280
     1
290
     1
  0
XRECORD
  5
B40A
102
{ACAD_REACTORS
330
B409
102
}
330
B409
100
AcDbXrecord
280
     1
290
     1
  0
XRECORD
  5
B40C
102
{ACAD_REACTORS
330
B40B
102
}
330
B40B
100
AcDbXrecord
280
     1
290
     1
  0
XRECORD
  5
B40E
102
{ACAD_REACTORS
330
B40D
102
}
330
B40D
100
AcDbXrecord
280
     1
290
     1
  0
XRECORD
  5
B410
102
{ACAD_REACTORS
330
B40F
102
}
330
B40F
100
AcDbXrecord
280
     1
290
     1
  0
XRECORD
  5
B412
102
{ACAD_REACTORS
330
B411
102
}
330
B411
100
AcDbXrecord
280
     1
290
     1
  0
XRECORD
  5
B414
102
{ACAD_REACTORS
330
B413
102
}
330
B413
100
AcDbXrecord
280
     1
290
     1
  0
XRECORD
  5
B416
102
{ACAD_REACTORS
330
B415
102
}
330
B415
100
AcDbXrecord
280
     1
290
     1
  0
XRECORD
  5
B3B0
102
{ACAD_REACTORS
330
B3AF
102
}
330
B3AF
100
AcDbXrecord
280
     1
340
AFE5
  0
XRECORD
  5
B3AE
102
{ACAD_REACTORS
330
B3AD
102
}
330
B3AD
100
AcDbXrecord
280
     1
340
AFE1
  0
ACDBDETAILVIEWSTYLE
  5
B402
102
{ACAD_XDICTIONARY
360
B45D
102
}
102
{ACAD_REACTORS
330
B401
102
}
330
B401
100
AcDbModelDocViewStyle
 70
     0
  3
Imperial24
290
     0
100
AcDbDetailViewStyle
 70
     0
 71
     0
 90
        3
 71
     1
340
AFD8
 40
0.24
340
0
 40
0.24
300

 40
0.36
280
     3
 71
     2
340
AFDC
 90
       25
 71
     3
340
AFD8
 40
0.24
 90
        1
 40
0.75
 90
        1
300
%<\AcVar ViewType \f "%tc1">% %<\AcVar ViewDetailId>%\PSCALE %<\AcVar ViewScale \f "%sn">%
 71
     4
340
AFDC
 90
       25
340
AFDC
 90
       25
280
     0
  0
LAYOUT
  5
B403
102
{ACAD_XDICTIONARY
360
B45F
102
}
102
{ACAD_REACTORS
330
AFE0
102
}
330
AFE0
100
AcDbPlotSettings
  1

  2
Canon LBP9100C
  4

  6

 40
0.0
 41
0.0
 42
0.0
 43
0.0
 44
0.0
 45
0.0
 46
0.0
 47
0.0
 48
0.0
 49
0.0
140
0.0
141
0.0
142
1.0
143
1.0
 70
  1712
 72
     0
 73
     0
 74
     0
  7

 75
     0
147
1.0
148
0.0
149
0.0
100
AcDbLayout
  1
Model
 70
     1
 71
     0
 10
0.0
 20
0.0
 11
12.0
 21
9.0
 12
0.0
 22
0.0
 32
0.0
 14
0.0
 24
0.0
 34
0.0
 15
0.0
 25
0.0
 35
0.0
146
0.0
 13
0.0
 23
0.0
 33
0.0
 16
1.0
 26
0.0
 36
0.0
 17
0.0
 27
1.0
 37
0.0
 76
     0
330
AFE5
331
B3AC
  0
LAYOUT
  5
B404
102
{ACAD_XDICTIONARY
360
B461
102
}
102
{ACAD_REACTORS
330
AFE0
102
}
330
AFE0
100
AcDbPlotSettings
  1

  2
Canon LBP9100C
  4

  6

 40
0.0
 41
0.0
 42
0.0
 43
0.0
 44
0.0
 45
0.0
 46
0.0
 47
0.0
 48
0.0
 49
0.0
140
0.0
141
0.0
142
1.0
143
1.0
 70
   688
 72
     0
 73
     0
 74
     5
  7

 75
    16
147
1.0
148
0.0
149
0.0
100
AcDbLayout
  1
レイアウト1
 70
     0
 71
     1
 10
0.0
 20
0.0
 11
420.0
 21
297.0
 12
0.0
 22
0.0
 32
0.0
 14
1.000000000000000E+20
 24
1.000000000000000E+20
 34
1.000000000000000E+20
 15
-1.000000000000000E+20
 25
-1.000000000000000E+20
 35
-1.000000000000000E+20
146
0.0
 13
0.0
 23
0.0
 33
0.0
 16
1.0
 26
0.0
 36
0.0
 17
0.0
 27
1.0
 37
0.0
 76
     0
330
AFE1
  0
MATERIAL
  5
B3BF
102
{ACAD_XDICTIONARY
360
B3C0
102
}
102
{ACAD_REACTORS
330
B3B6
102
}
330
B3B6
100
AcDbMaterial
  1
ByBlock
 72
     0
 43
0.0208333333333333
 43
0.0
 43
0.0
 43
0.0
 43
0.0
 43
0.0208333333333333
 43
0.0
 43
0.0
 43
0.0
 43
0.0
 43
1.0
 43
0.0
 43
0.0
 43
0.0
 43
0.0
 43
1.0
 77
     0
 47
0.0208333333333333
 47
0.0
 47
0.0
 47
0.0
 47
0.0
 47
0.0208333333333333
 47
0.0
 47
0.0
 47
0.0
 47
0.0
 47
1.0
 47
0.0
 47
0.0
 47
0.0
 47
0.0
 47
1.0
171
     0
 49
0.0208333333333333
 49
0.0
 49
0.0
 49
0.0
 49
0.0
 49
0.0208333333333333
 49
0.0
 49
0.0
 49
0.0
 49
0.0
 49
1.0
 49
0.0
 49
0.0
 49
0.0
 49
0.0
 49
1.0
175
     0
142
0.0208333333333333
142
0.0
142
0.0
142
0.0
142
0.0
142
0.0208333333333333
142
0.0
142
0.0
142
0.0
142
0.0
142
1.0
142
0.0
142
0.0
142
0.0
142
0.0
142
1.0
179
     0
144
0.0208333333333333
144
0.0
144
0.0
144
0.0
144
0.0
144
0.0208333333333333
144
0.0
144
0.0
144
0.0
144
0.0
144
1.0
144
0.0
144
0.0
144
0.0
144
0.0
144
1.0
147
0.0208333333333333
147
0.0
147
0.0
147
0.0
147
0.0
147
0.0208333333333333
147
0.0
147
0.0
147
0.0
147
0.0
147
1.0
147
0.0
147
0.0
147
0.0
147
0.0
147
1.0
  0
MATERIAL
  5
B3B7
102
{ACAD_XDICTIONARY
360
B3B8
102
}
102
{ACAD_REACTORS
330
B3B6
102
}
330
B3B6
100
AcDbMaterial
  1
ByLayer
 72
     0
 43
0.0208333333333333
 43
0.0
 43
0.0
 43
0.0
 43
0.0
 43
0.0208333333333333
 43
0.0
 43
0.0
 43
0.0
 43
0.0
 43
1.0
 43
0.0
 43
0.0
 43
0.0
 43
0.0
 43
1.0
 77
     0
 47
0.0208333333333333
 47
0.0
 47
0.0
 47
0.0
 47
0.0
 47
0.0208333333333333
 47
0.0
 47
0.0
 47
0.0
 47
0.0
 47
1.0
 47
0.0
 47
0.0
 47
0.0
 47
0.0
 47
1.0
171
     0
 49
0.0208333333333333
 49
0.0
 49
0.0
 49
0.0
 49
0.0
 49
0.0208333333333333
 49
0.0
 49
0.0
 49
0.0
 49
0.0
 49
1.0
 49
0.0
 49
0.0
 49
0.0
 49
0.0
 49
1.0
175
     0
142
0.0208333333333333
142
0.0
142
0.0
142
0.0
142
0.0
142
0.0208333333333333
142
0.0
142
0.0
142
0.0
142
0.0
142
1.0
142
0.0
142
0.0
142
0.0
142
0.0
142
1.0
179
     0
144
0.0208333333333333
144
0.0
144
0.0
144
0.0
144
0.0
144
0.0208333333333333
144
0.0
144
0.0
144
0.0
144
0.0
144
1.0
144
0.0
144
0.0
144
0.0
144
0.0
144
1.0
147
0.0208333333333333
147
0.0
147
0.0
147
0.0
147
0.0
147
0.0208333333333333
147
0.0
147
0.0
147
0.0
147
0.0
147
1.0
147
0.0
147
0.0
147
0.0
147
0.0
147
1.0
  0
MATERIAL
  5
B3C7
102
{ACAD_XDICTIONARY
360
B3C8
102
}
102
{ACAD_REACTORS
330
B3B6
102
}
330
B3B6
100
AcDbMaterial
  1
Global
 72
     0
 43
0.0208333333333333
 43
0.0
 43
0.0
 43
0.0
 43
0.0
 43
0.0208333333333333
 43
0.0
 43
0.0
 43
0.0
 43
0.0
 43
1.0
 43
0.0
 43
0.0
 43
0.0
 43
0.0
 43
1.0
 77
     0
 47
0.0208333333333333
 47
0.0
 47
0.0
 47
0.0
 47
0.0
 47
0.0208333333333333
 47
0.0
 47
0.0
 47
0.0
 47
0.0
 47
1.0
 47
0.0
 47
0.0
 47
0.0
 47
0.0
 47
1.0
171
     0
 49
0.0208333333333333
 49
0.0
 49
0.0
 49
0.0
 49
0.0
 49
0.0208333333333333
 49
0.0
 49
0.0
 49
0.0
 49
0.0
 49
1.0
 49
0.0
 49
0.0
 49
0.0
 49
0.0
 49
1.0
175
     0
142
0.0208333333333333
142
0.0
142
0.0
142
0.0
142
0.0
142
0.0208333333333333
142
0.0
142
0.0
142
0.0
142
0.0
142
1.0
142
0.0
142
0.0
142
0.0
142
0.0
142
1.0
179
     0
144
0.0208333333333333
144
0.0
144
0.0
144
0.0
144
0.0
144
0.0208333333333333
144
0.0
144
0.0
144
0.0
144
0.0
144
1.0
144
0.0
144
0.0
144
0.0
144
0.0
144
1.0
147
0.0208333333333333
147
0.0
147
0.0
147
0.0
147
0.0
147
0.0208333333333333
147
0.0
147
0.0
147
0.0
147
0.0
147
1.0
147
0.0
147
0.0
147
0.0
147
0.0
147
1.0
  0
MLEADERSTYLE
  5
B3FE
102
{ACAD_REACTORS
330
B3FD
102
}
330
B3FD
100
AcDbMLeaderStyle
170
     2
171
     1
172
     0
 90
        2
 40
0.0
 41
0.0
173
     1
 91
-1056964608
340
AFDA
 92
       -2
290
     1
 42
0.09
291
     1
 43
0.36
  3
Standard
 44
0.18
300

342
AFD8
174
     1
178
     6
175
     1
176
     0
 93
-1056964608
 45
0.18
292
     0
297
     0
 46
0.18
 94
-1056964608
 47
1.0
 49
1.0
140
1.0
293
     1
141
0.0
294
     1
177
     0
142
1.0
295
     0
296
     0
143
0.125
1001
ACAD_MLEADERVER
1070
     2
  0
MLINESTYLE
  5
AFDE
102
{ACAD_REACTORS
330
AFDD
102
}
330
AFDD
100
AcDbMlineStyle
  2
STANDARD
 70
     0
  3

 62
   256
 51
90.0
 52
90.0
 71
     2
 49
0.5
 62
   256
  6
BYLAYER
 49
-0.5
 62
   256
  6
BYLAYER
  0
ACDBPLACEHOLDER
  5
B3B5
102
{ACAD_REACTORS
330
B3B4
102
}
330
B3B4
  0
SCALE
  5
B3EC
102
{ACAD_REACTORS
330
B3EB
102
}
330
B3EB
100
AcDbScale
 70
     0
300
1:1
140
1.0
141
1.0
290
     1
  0
SCALE
  5
B3ED
102
{ACAD_REACTORS
330
B3EB
102
}
330
B3EB
100
AcDbScale
 70
     0
300
1/128" = 1'-0"
140
0.0078125
141
12.0
290
     0
  0
SCALE
  5
B3EE
102
{ACAD_REACTORS
330
B3EB
102
}
330
B3EB
100
AcDbScale
 70
     0
300
1/64" = 1'-0"
140
0.015625
141
12.0
290
     0
  0
SCALE
  5
B3EF
102
{ACAD_REACTORS
330
B3EB
102
}
330
B3EB
100
AcDbScale
 70
     0
300
1/32" = 1'-0"
140
0.03125
141
12.0
290
     0
  0
SCALE
  5
B3F0
102
{ACAD_REACTORS
330
B3EB
102
}
330
B3EB
100
AcDbScale
 70
     0
300
1/16" = 1'-0"
140
0.0625
141
12.0
290
     0
  0
SCALE
  5
B3F1
102
{ACAD_REACTORS
330
B3EB
102
}
330
B3EB
100
AcDbScale
 70
     0
300
3/32" = 1'-0"
140
0.09375
141
12.0
290
     0
  0
SCALE
  5
B3F2
102
{ACAD_REACTORS
330
B3EB
102
}
330
B3EB
100
AcDbScale
 70
     0
300
1/8" = 1'-0"
140
0.125
141
12.0
290
     0
  0
SCALE
  5
B3F3
102
{ACAD_REACTORS
330
B3EB
102
}
330
B3EB
100
AcDbScale
 70
     0
300
3/16" = 1'-0"
140
0.1875
141
12.0
290
     0
  0
SCALE
  5
B3F4
102
{ACAD_REACTORS
330
B3EB
102
}
330
B3EB
100
AcDbScale
 70
     0
300
1/4" = 1'-0"
140
0.25
141
12.0
290
     0
  0
SCALE
  5
B3F5
102
{ACAD_REACTORS
330
B3EB
102
}
330
B3EB
100
AcDbScale
 70
     0
300
3/8" = 1'-0"
140
0.375
141
12.0
290
     0
  0
SCALE
  5
B3F6
102
{ACAD_REACTORS
330
B3EB
102
}
330
B3EB
100
AcDbScale
 70
     0
300
1/2" = 1'-0"
140
0.5
141
12.0
290
     0
  0
SCALE
  5
B3F7
102
{ACAD_REACTORS
330
B3EB
102
}
330
B3EB
100
AcDbScale
 70
     0
300
3/4" = 1'-0"
140
0.75
141
12.0
290
     0
  0
SCALE
  5
B3F8
102
{ACAD_REACTORS
330
B3EB
102
}
330
B3EB
100
AcDbScale
 70
     0
300
1" = 1'-0"
140
1.0
141
12.0
290
     0
  0
SCALE
  5
B3F9
102
{ACAD_REACTORS
330
B3EB
102
}
330
B3EB
100
AcDbScale
 70
     0
300
1-1/2" = 1'-0"
140
1.5
141
12.0
290
     0
  0
SCALE
  5
B3FA
102
{ACAD_REACTORS
330
B3EB
102
}
330
B3EB
100
AcDbScale
 70
     0
300
3" = 1'-0"
140
3.0
141
12.0
290
     0
  0
SCALE
  5
B3FB
102
{ACAD_REACTORS
330
B3EB
102
}
330
B3EB
100
AcDbScale
 70
     0
300
6" = 1'-0"
140
6.0
141
12.0
290
     0
  0
SCALE
  5
B3FC
102
{ACAD_REACTORS
330
B3EB
102
}
330
B3EB
100
AcDbScale
 70
     0
300
1'-0" = 1'-0"
140
12.0
141
12.0
290
     0
  0
ACDBSECTIONVIEWSTYLE
  5
B400
102
{ACAD_XDICTIONARY
360
B45B
102
}
102
{ACAD_REACTORS
330
B3FF
102
}
330
B3FF
100
AcDbModelDocViewStyle
 70
     0
  3
Imperial24
290
     0
100
AcDbSectionViewStyle
 70
     0
 71
     0
 90
       78
 71
     1
340
AFD8
 40
0.24
340
0
340
0
 40
0.24
300
I, O, Q, S, X, Z
 40
0.48
 90
        3
 40
0.18
 90
        1
 71
     2
340
AFDC
 90
       25
340
AFDC
 90
       50
 40
0.24
 40
0.0
 40
0.24
 71
     3
340
AFD8
 40
0.24
 90
        1
 40
0.75
 90
        1
300
%<\AcVar ViewType \f "%tc1">% %<\AcVar ViewSectionStartId>%-%<\AcVar ViewSectionEndId>%\PSCALE %<\AcVar ViewScale \f "%sn">%
 71
     4
300
ANSI31
 40
1.0
 90
        0
290
     0
290
     0
 90
        6
 40
0.0
 40
1.570796326794896
 40
0.2617993877991494
 40
1.308996938995747
 40
-0.2617993877991494
 40
1.832595714594046
  0
TABLESTYLE
  5
B3EA
102
{ACAD_XDICTIONARY
360
B422
102
}
102
{ACAD_REACTORS
330
B3E9
102
}
330
B3E9
100
AcDbTableStyle
  3
Standard
 70
     0
 71
     0
 40
0.06
 41
0.06
280
     0
281
     0
  7
STANDARD
140
0.18
170
     2
 62
     0
 63
     7
283
     0
274
    -2
284
     1
 64
     0
275
    -2
285
     1
 65
     0
276
    -2
286
     1
 66
     0
277
    -2
287
     1
 67
     0
278
    -2
288
     1
 68
     0
279
    -2
289
     1
 69
     0
  7
STANDARD
140
0.25
170
     5
 62
     0
 63
     7
283
     0
274
    -2
284
     1
 64
     0
275
    -2
285
     1
 65
     0
276
    -2
286
     1
 66
     0
277
    -2
287
     1
 67
     0
278
    -2
288
     1
 68
     0
279
    -2
289
     1
 69
     0
  7
STANDARD
140
0.18
170
     5
 62
     0
 63
     7
283
     0
274
    -2
284
     1
 64
     0
275
    -2
285
     1
 65
     0
276
    -2
286
     1
 66
     0
277
    -2
287
     1
 67
     0
278
    -2
288
     1
 68
     0
279
    -2
289
     1
 69
     0
  0
VISUALSTYLE
  5
B3D5
102
{ACAD_XDICTIONARY
360
B433
102
}
102
{ACAD_REACTORS
330
B3CF
102
}
330
B3CF
100
AcDbVisualStyle
  2
2dWireframe
 70
     4
 71
     0
 72
     2
 73
     0
 90
        0
 40
-0.6
 41
-30.0
 62
     5
 63
     7
 74
     1
 91
        4
 64
     7
 65
   257
 75
     1
175
     1
 42
1.0
 92
        0
 66
   257
 43
1.0
 76
     1
 77
     6
 78
     2
 67
     7
 79
     5
170
     0
171
     0
290
     0
174
     0
 93
        1
 44
0.0
173
     0
291
     0
 45
0.0
1001
ACAD
1000
AcDbSavedByObjectVersion
1070
     0
  0
VISUALSTYLE
  5
B3D4
102
{ACAD_XDICTIONARY
360
B431
102
}
102
{ACAD_REACTORS
330
B3CF
102
}
330
B3CF
100
AcDbVisualStyle
  2
Basic
 70
     7
 71
     1
 72
     0
 73
     1
 90
        0
 40
-0.6
 41
-30.0
 62
     5
 63
     7
 74
     0
 91
        4
 64
     7
 65
   257
 75
     1
175
     1
 42
1.0
 92
        8
 66
     7
 43
1.0
 76
     1
 77
     6
 78
     2
 67
     7
 79
     5
170
     0
171
     0
290
     0
174
     0
 93
        1
 44
0.0
173
     0
291
     1
 45
0.0
1001
ACAD
1000
AcDbSavedByObjectVersion
1070
     0
  0
VISUALSTYLE
  5
B3DB
102
{ACAD_XDICTIONARY
360
B43F
102
}
102
{ACAD_REACTORS
330
B3CF
102
}
330
B3CF
100
AcDbVisualStyle
  2
Brighten
 70
    12
 71
     2
 72
     2
 73
     0
 90
        0
 40
-0.6
 41
-30.0
 62
     5
 63
     7
 74
     1
 91
        4
 64
     7
 65
   257
 75
     1
175
     1
 42
1.0
 92
        8
 66
     7
 43
1.0
 76
     1
 77
     6
 78
     2
 67
     7
 79
     5
170
     0
171
     0
290
     0
174
     0
 93
        1
 44
50.0
173
     0
291
     1
 45
0.0
1001
ACAD
1000
AcDbSavedByObjectVersion
1070
     0
  0
VISUALSTYLE
  5
B3DF
102
{ACAD_XDICTIONARY
360
B447
102
}
102
{ACAD_REACTORS
330
B3CF
102
}
330
B3CF
100
AcDbVisualStyle
  2
ColorChange
 70
    16
 71
     2
 72
     2
 73
     3
 90
        0
 40
-0.6
 41
-30.0
 62
     5
 63
     8
 74
     1
 91
        4
 64
     7
 65
   257
 75
     1
175
     1
 42
1.0
 92
        8
 66
     8
 43
1.0
 76
     1
 77
     6
 78
     2
 67
     7
 79
     5
170
     0
171
     0
290
     0
174
     0
 93
        1
 44
0.0
173
     0
291
     1
 45
0.0
1001
ACAD
1000
AcDbSavedByObjectVersion
1070
     0
  0
VISUALSTYLE
  5
B3D8
102
{ACAD_XDICTIONARY
360
B439
102
}
102
{ACAD_REACTORS
330
B3CF
102
}
330
B3CF
100
AcDbVisualStyle
  2
Conceptual
 70
     9
 71
     3
 72
     2
 73
     0
 90
        0
 40
-0.6
 41
-30.0
 62
     5
 63
     7
 74
     2
 91
        2
 64
     7
 65
   257
 75
     1
175
     1
 42
179.0
 92
        8
 66
     7
 43
1.0
 76
     1
 77
     6
 78
     2
 67
     7
 79
     3
170
     0
171
     0
290
     0
174
     0
 93
        1
 44
0.0
173
     0
291
     0
 45
0.0
1001
ACAD
1000
AcDbSavedByObjectVersion
1070
     0
  0
VISUALSTYLE
  5
B3DA
102
{ACAD_XDICTIONARY
360
B43D
102
}
102
{ACAD_REACTORS
330
B3CF
102
}
330
B3CF
100
AcDbVisualStyle
  2
Dim
 70
    11
 71
     2
 72
     2
 73
     0
 90
        0
 40
-0.6
 41
-30.0
 62
     5
 63
     7
 74
     1
 91
        4
 64
     7
 65
   257
 75
     1
175
     1
 42
1.0
 92
        8
 66
     7
 43
1.0
 76
     1
 77
     6
 78
     2
 67
     7
 79
     5
170
     0
171
     0
290
     0
174
     0
 93
        1
 44
-50.0
173
     0
291
     1
 45
0.0
1001
ACAD
1000
AcDbSavedByObjectVersion
1070
     0
  0
VISUALSTYLE
  5
B3E7
102
{ACAD_XDICTIONARY
360
B457
102
}
102
{ACAD_REACTORS
330
B3CF
102
}
330
B3CF
100
AcDbVisualStyle
  2
EdgeColorOff
 70
    22
 71
     2
 72
     2
 73
     0
 90
        0
 40
-0.6
 41
-30.0
 62
     5
 63
     7
 74
     1
 91
        4
 64
     7
 65
   257
 75
     1
175
     1
 42
1.0
 92
        8
 66
     7
 43
1.0
 76
     1
 77
     6
 78
     2
 67
     7
 79
     5
170
     0
171
     0
290
     0
174
     0
 93
        1
 44
0.0
173
     0
291
     1
 45
0.0
1001
ACAD
1000
AcDbSavedByObjectVersion
1070
     0
  0
VISUALSTYLE
  5
B3DE
102
{ACAD_XDICTIONARY
360
B445
102
}
102
{ACAD_REACTORS
330
B3CF
102
}
330
B3CF
100
AcDbVisualStyle
  2
Facepattern
 70
    15
 71
     2
 72
     2
 73
     0
 90
        0
 40
-0.6
 41
-30.0
 62
     5
 63
     7
 74
     1
 91
        4
 64
     7
 65
   257
 75
     1
175
     1
 42
1.0
 92
        8
 66
     7
 43
1.0
 76
     1
 77
     6
 78
     2
 67
     7
 79
     5
170
     0
171
     0
290
     0
174
     0
 93
        1
 44
0.0
173
     0
291
     1
 45
0.0
1001
ACAD
1000
AcDbSavedByObjectVersion
1070
     0
  0
VISUALSTYLE
  5
B3D0
102
{ACAD_XDICTIONARY
360
B429
102
}
102
{ACAD_REACTORS
330
B3CF
102
}
330
B3CF
100
AcDbVisualStyle
  2
Flat
 70
     0
 71
     2
 72
     1
 73
     1
 90
        2
 40
-0.6
 41
30.0
 62
     5
 63
     7
 74
     0
 91
        0
 64
     7
 65
   257
 75
     1
175
     1
 42
1.0
 92
        8
 66
     7
 43
1.0
 76
     1
 77
     6
 78
     2
 67
     7
 79
     5
170
     0
171
     0
290
     0
174
     0
 93
       13
 44
0.0
173
     0
291
     1
 45
0.0
1001
ACAD
1000
AcDbSavedByObjectVersion
1070
     0
  0
VISUALSTYLE
  5
B3D1
102
{ACAD_XDICTIONARY
360
B42B
102
}
102
{ACAD_REACTORS
330
B3CF
102
}
330
B3CF
100
AcDbVisualStyle
  2
FlatWithEdges
 70
     1
 71
     2
 72
     1
 73
     1
 90
        2
 40
-0.6
 41
30.0
 62
     5
 63
     7
 74
     1
 91
        0
 64
     7
 65
   257
 75
     1
175
     1
 42
1.0
 92
        0
 66
   257
 43
1.0
 76
     1
 77
     6
 78
     2
 67
     7
 79
     5
170
     0
171
     0
290
     0
174
     0
 93
       13
 44
0.0
173
     0
291
     1
 45
0.0
1001
ACAD
1000
AcDbSavedByObjectVersion
1070
     0
  0
VISUALSTYLE
  5
B3D2
102
{ACAD_XDICTIONARY
360
B42D
102
}
102
{ACAD_REACTORS
330
B3CF
102
}
330
B3CF
100
AcDbVisualStyle
  2
Gouraud
 70
     2
 71
     2
 72
     2
 73
     1
 90
        2
 40
-0.6
 41
30.0
 62
     5
 63
     7
 74
     0
 91
        0
 64
     7
 65
   257
 75
     1
175
     1
 42
1.0
 92
        0
 66
     7
 43
1.0
 76
     1
 77
     6
 78
     2
 67
     7
 79
     5
170
     0
171
     0
290
     0
174
     0
 93
       13
 44
0.0
173
     0
291
     1
 45
0.0
1001
ACAD
1000
AcDbSavedByObjectVersion
1070
     0
  0
VISUALSTYLE
  5
B3D3
102
{ACAD_XDICTIONARY
360
B42F
102
}
102
{ACAD_REACTORS
330
B3CF
102
}
330
B3CF
100
AcDbVisualStyle
  2
GouraudWithEdges
 70
     3
 71
     2
 72
     2
 73
     1
 90
        2
 40
-0.6
 41
30.0
 62
     5
 63
     7
 74
     1
 91
        0
 64
     7
 65
   257
 75
     1
175
     1
 42
1.0
 92
        0
 66
   257
 43
1.0
 76
     1
 77
     6
 78
     2
 67
     7
 79
     5
170
     0
171
     0
290
     0
174
     0
 93
       13
 44
0.0
173
     0
291
     1
 45
0.0
1001
ACAD
1000
AcDbSavedByObjectVersion
1070
     0
  0
VISUALSTYLE
  5
B3D7
102
{ACAD_XDICTIONARY
360
B437
102
}
102
{ACAD_REACTORS
330
B3CF
102
}
330
B3CF
100
AcDbVisualStyle
  2
Hidden
 70
     6
 71
     1
 72
     2
 73
     2
 90
        0
 40
-0.6
 41
-30.0
 62
     5
 63
     7
 74
     2
 91
        2
 64
     7
 65
   257
 75
     2
175
     1
 42
40.0
 92
        0
 66
   257
 43
1.0
 76
     1
 77
     6
 78
     2
 67
     7
 79
     3
170
     0
171
     0
290
     0
174
     0
 93
        1
 44
0.0
173
     0
291
     0
 45
0.0
1001
ACAD
1000
AcDbSavedByObjectVersion
1070
     0
  0
VISUALSTYLE
  5
B3E5
102
{ACAD_XDICTIONARY
360
B453
102
}
102
{ACAD_REACTORS
330
B3CF
102
}
330
B3CF
100
AcDbVisualStyle
  2
JitterOff
 70
    20
 71
     2
 72
     2
 73
     0
 90
        0
 40
-0.6
 41
-30.0
 62
     5
 63
     7
 74
     1
 91
        4
 64
     7
 65
   257
 75
     1
175
     1
 42
1.0
 92
       10
 66
     7
 43
1.0
 76
     1
 77
     6
 78
     2
 67
     7
 79
     5
170
     0
171
     0
290
     0
174
     0
 93
        1
 44
0.0
173
     0
291
     1
 45
0.0
1001
ACAD
1000
AcDbSavedByObjectVersion
1070
     0
  0
VISUALSTYLE
  5
B3DD
102
{ACAD_XDICTIONARY
360
B443
102
}
102
{ACAD_REACTORS
330
B3CF
102
}
330
B3CF
100
AcDbVisualStyle
  2
Linepattern
 70
    14
 71
     2
 72
     2
 73
     0
 90
        0
 40
-0.6
 41
-30.0
 62
     5
 63
     7
 74
     1
 91
        4
 64
     7
 65
   257
 75
     7
175
     7
 42
1.0
 92
        8
 66
     7
 43
1.0
 76
     1
 77
     6
 78
     2
 67
     7
 79
     5
170
     0
171
     0
290
     0
174
     0
 93
        1
 44
0.0
173
     0
291
     1
 45
0.0
1001
ACAD
1000
AcDbSavedByObjectVersion
1070
     0
  0
VISUALSTYLE
  5
B3E6
102
{ACAD_XDICTIONARY
360
B455
102
}
102
{ACAD_REACTORS
330
B3CF
102
}
330
B3CF
100
AcDbVisualStyle
  2
OverhangOff
 70
    21
 71
     2
 72
     2
 73
     0
 90
        0
 40
-0.6
 41
-30.0
 62
     5
 63
     7
 74
     1
 91
        4
 64
     7
 65
   257
 75
     1
175
     1
 42
1.0
 92
        9
 66
     7
 43
1.0
 76
     1
 77
     6
 78
     2
 67
     7
 79
     5
170
     0
171
     0
290
     0
174
     0
 93
        1
 44
0.0
173
     0
291
     1
 45
0.0
1001
ACAD
1000
AcDbSavedByObjectVersion
1070
     0
  0
VISUALSTYLE
  5
B3D9
102
{ACAD_XDICTIONARY
360
B43B
102
}
102
{ACAD_REACTORS
330
B3CF
102
}
330
B3CF
100
AcDbVisualStyle
  2
Realistic
 70
     8
 71
     2
 72
     3
 73
     0
 90
        2
 40
-0.6
 41
30.0
 62
     5
 63
     7
 74
     0
 91
        0
 64
     7
 65
   257
 75
     1
175
     1
 42
1.0
 92
        8
 66
   257
 43
1.0
 76
     1
 77
     6
 78
     2
 67
     7
 79
     3
170
     0
171
     0
290
     0
174
     0
 93
       13
 44
0.0
173
     0
291
     0
 45
0.0
1001
ACAD
1000
AcDbSavedByObjectVersion
1070
     0
  0
VISUALSTYLE
  5
B3E4
102
{ACAD_XDICTIONARY
360
B451
102
}
102
{ACAD_REACTORS
330
B3CF
102
}
330
B3CF
100
AcDbVisualStyle
  2
Shaded
 70
    27
 71
     2
 72
     2
 73
     1
 90
        2
 40
-0.6
 41
30.0
 62
     5
 63
     7
 74
     0
 91
        4
 64
     7
 65
   257
 75
     1
175
     1
 42
1.0
 92
        8
 66
   257
 43
1.0
 76
     1
 77
     6
 78
     2
 67
     8
 79
     3
170
     0
171
     0
290
     0
174
     0
 93
        5
 44
0.0
173
     0
291
     0
 45
0.0
1001
ACAD
1000
AcDbSavedByObjectVersion
1070
     0
  0
VISUALSTYLE
  5
B3E3
102
{ACAD_XDICTIONARY
360
B44F
102
}
102
{ACAD_REACTORS
330
B3CF
102
}
330
B3CF
100
AcDbVisualStyle
  2
Shaded with edges
 70
    26
 71
     2
 72
     2
 73
     1
 90
        2
 40
-0.6
 41
30.0
 62
     5
 63
     7
 74
     1
 91
       10
 64
     7
 65
   257
 75
     2
175
     1
 42
1.0
 92
        8
 66
   257
 43
1.0
 76
     1
 77
     6
 78
     2
 67
     7
 79
     3
170
     0
171
     0
290
     0
174
     0
 93
        5
 44
0.0
173
     0
291
     0
 45
0.0
1001
ACAD
1000
AcDbSavedByObjectVersion
1070
     0
  0
VISUALSTYLE
  5
B3E0
102
{ACAD_XDICTIONARY
360
B449
102
}
102
{ACAD_REACTORS
330
B3CF
102
}
330
B3CF
100
AcDbVisualStyle
  2
Shades of Gray
 70
    23
 71
     2
 72
     2
 73
     3
 90
        0
 40
-0.6
 41
-30.0
 62
     5
 63
     7
 74
     2
 91
        2
 64
     7
 65
     7
 75
     1
175
     1
 42
40.0
 92
        8
 66
     7
 43
1.0
 76
     1
 77
     6
 78
     2
 67
     7
 79
     3
170
     0
171
     0
290
     0
174
     0
 93
        1
 44
0.0
173
     0
291
     0
 45
0.0
1001
ACAD
1000
AcDbSavedByObjectVersion
1070
     0
  0
VISUALSTYLE
  5
B3E1
102
{ACAD_XDICTIONARY
360
B44B
102
}
102
{ACAD_REACTORS
330
B3CF
102
}
330
B3CF
100
AcDbVisualStyle
  2
Sketchy
 70
    24
 71
     1
 72
     2
 73
     2
 90
        0
 40
-0.6
 41
-30.0
 62
     5
 63
     7
 74
     2
 91
        2
 64
     7
 65
     7
 75
     1
175
     1
 42
40.0
 92
       11
 66
     7
 43
1.0
 76
     1
 77
     6
 78
     2
 67
     7
 79
     6
170
     0
171
     0
290
     0
174
     0
 93
        1
 44
0.0
173
     0
291
     0
 45
0.0
1001
ACAD
1000
AcDbSavedByObjectVersion
1070
     0
  0
VISUALSTYLE
  5
B3DC
102
{ACAD_XDICTIONARY
360
B441
102
}
102
{ACAD_REACTORS
330
B3CF
102
}
330
B3CF
100
AcDbVisualStyle
  2
Thicken
 70
    13
 71
     2
 72
     2
 73
     0
 90
        0
 40
-0.6
 41
-30.0
 62
     5
 63
     7
 74
     1
 91
        4
 64
     7
 65
   257
 75
     1
175
     1
 42
1.0
 92
       12
 66
     7
 43
1.0
 76
     1
 77
     6
 78
     2
 67
     7
 79
     5
170
     0
171
     0
290
     0
174
     0
 93
        1
 44
0.0
173
     0
291
     1
 45
0.0
1001
ACAD
1000
AcDbSavedByObjectVersion
1070
     0
  0
VISUALSTYLE
  5
B3D6
102
{ACAD_XDICTIONARY
360
B435
102
}
102
{ACAD_REACTORS
330
B3CF
102
}
330
B3CF
100
AcDbVisualStyle
  2
Wireframe
 70
     5
 71
     0
 72
     2
 73
     0
 90
        0
 40
-0.6
 41
-30.0
 62
     5
 63
     7
 74
     1
 91
        4
 64
     7
 65
   257
 75
     1
175
     1
 42
1.0
 92
        0
 66
   257
 43
1.0
 76
     1
 77
     6
 78
     2
 67
     7
 79
     3
170
     0
171
     0
290
     0
174
     0
 93
        1
 44
0.0
173
     0
291
     0
 45
0.0
1001
ACAD
1000
AcDbSavedByObjectVersion
1070
     0
  0
VISUALSTYLE
  5
B3E2
102
{ACAD_XDICTIONARY
360
B44D
102
}
102
{ACAD_REACTORS
330
B3CF
102
}
330
B3CF
100
AcDbVisualStyle
  2
X-Ray
 70
    25
 71
     2
 72
     2
 73
     1
 90
        1
 40
0.5
 41
-30.0
 62
     5
 63
     7
 74
     1
 91
        0
 64
     7
 65
   257
 75
     1
175
     1
 42
1.0
 92
        8
 66
     7
 43
1.0
 76
     1
 77
     6
 78
     2
 67
     7
 79
     3
170
     0
171
     0
290
     0
174
     0
 93
       13
 44
0.0
173
     0
291
     0
 45
0.0
1001
ACAD
1000
AcDbSavedByObjectVersion
1070
     0
  0
DICTIONARYVAR
  5
B41C
102
{ACAD_REACTORS
330
B417
102
}
330
B417
100
DictionaryVariables
280
     0
  1
1:1
  0
DICTIONARYVAR
  5
B419
102
{ACAD_REACTORS
330
B417
102
}
330
B417
100
DictionaryVariables
280
     0
  1
STANDARD
  0
DICTIONARYVAR
  5
B418
102
{ACAD_REACTORS
330
B417
102
}
330
B417
100
DictionaryVariables
280
     0
  1
STANDARD
  0
DICTIONARYVAR
  5
B41A
102
{ACAD_REACTORS
330
B417
102
}
330
B417
100
DictionaryVariables
280
     0
  1
Imperial24
  0
DICTIONARYVAR
  5
B41B
102
{ACAD_REACTORS
330
B417
102
}
330
B417
100
DictionaryVariables
280
     0
  1
Imperial24
  0
DICTIONARYVAR
  5
B41F
102
{ACAD_REACTORS
330
B417
102
}
330
B417
100
DictionaryVariables
280
     0
  1
1
  0
DICTIONARYVAR
  5
B41E
102
{ACAD_REACTORS
330
B417
102
}
330
B417
100
DictionaryVariables
280
     0
  1
0
  0
DICTIONARYVAR
  5
B41D
102
{ACAD_REACTORS
330
B417
102
}
330
B417
100
DictionaryVariables
280
     0
  1
127
  0
DICTIONARYVAR
  5
B420
102
{ACAD_REACTORS
330
B417
102
}
330
B417
100
DictionaryVariables
280
     0
  1
2
  0
DICTIONARY
  5
B45D
330
B402
100
AcDbDictionary
280
     1
281
     1
  3
ACAD_XREC_ROUNDTRIP
360
B45E
  0
DICTIONARY
  5
B45F
330
B403
100
AcDbDictionary
280
     1
281
     1
  3
ACAD_XREC_ROUNDTRIP
360
B460
  0
DICTIONARY
  5
B461
330
B404
100
AcDbDictionary
280
     1
281
     1
  3
ACAD_XREC_ROUNDTRIP
360
B462
  0
DICTIONARY
  5
B3C0
330
B3BF
100
AcDbDictionary
280
     1
281
     1
  3
ACAD_XREC_ROUNDTRIP
360
B427
  3
BUMPTILE
360
B3C2
  3
DIFFUSETILE
360
B3C1
  3
OPACITYTILE
360
B3C5
  3
REFLECTIONTILE
360
B3C4
  3
REFRACTIONTILE
360
B3C6
  3
SPECULARTILE
360
B3C3
  0
DICTIONARY
  5
B3B8
330
B3B7
100
AcDbDictionary
280
     1
281
     1
  3
ACAD_XREC_ROUNDTRIP
360
B426
  3
BUMPTILE
360
B3BA
  3
DIFFUSETILE
360
B3B9
  3
OPACITYTILE
360
B3BD
  3
REFLECTIONTILE
360
B3BC
  3
REFRACTIONTILE
360
B3BE
  3
SPECULARTILE
360
B3BB
  0
DICTIONARY
  5
B3C8
330
B3C7
100
AcDbDictionary
280
     1
281
     1
  3
ACAD_XREC_ROUNDTRIP
360
B428
  3
BUMPTILE
360
B3CA
  3
DIFFUSETILE
360
B3C9
  3
OPACITYTILE
360
B3CD
  3
REFLECTIONTILE
360
B3CC
  3
REFRACTIONTILE
360
B3CE
  3
SPECULARTILE
360
B3CB
  0
DICTIONARY
  5
B45B
330
B400
100
AcDbDictionary
280
     1
281
     1
  3
ACAD_XREC_ROUNDTRIP
360
B45C
  0
DICTIONARY
  5
B422
330
B3EA
100
AcDbDictionary
280
     1
281
     1
  3
ACAD_ROUNDTRIP_2008_TABLESTYLE_CELLSTYLEMAP
360
B423
  3
ACAD_XREC_ROUNDTRIP
360
B459
  0
DICTIONARY
  5
B433
330
B3D5
100
AcDbDictionary
280
     1
281
     1
  3
ACAD_XREC_ROUNDTRIP
360
B434
  0
DICTIONARY
  5
B431
330
B3D4
100
AcDbDictionary
280
     1
281
     1
  3
ACAD_XREC_ROUNDTRIP
360
B432
  0
DICTIONARY
  5
B43F
330
B3DB
100
AcDbDictionary
280
     1
281
     1
  3
ACAD_XREC_ROUNDTRIP
360
B440
  0
DICTIONARY
  5
B447
330
B3DF
100
AcDbDictionary
280
     1
281
     1
  3
ACAD_XREC_ROUNDTRIP
360
B448
  0
DICTIONARY
  5
B439
330
B3D8
100
AcDbDictionary
280
     1
281
     1
  3
ACAD_XREC_ROUNDTRIP
360
B43A
  0
DICTIONARY
  5
B43D
330
B3DA
100
AcDbDictionary
280
     1
281
     1
  3
ACAD_XREC_ROUNDTRIP
360
B43E
  0
DICTIONARY
  5
B457
330
B3E7
100
AcDbDictionary
280
     1
281
     1
  3
ACAD_XREC_ROUNDTRIP
360
B458
  0
DICTIONARY
  5
B445
330
B3DE
100
AcDbDictionary
280
     1
281
     1
  3
ACAD_XREC_ROUNDTRIP
360
B446
  0
DICTIONARY
  5
B429
330
B3D0
100
AcDbDictionary
280
     1
281
     1
  3
ACAD_XREC_ROUNDTRIP
360
B42A
  0
DICTIONARY
  5
B42B
330
B3D1
100
AcDbDictionary
280
     1
281
     1
  3
ACAD_XREC_ROUNDTRIP
360
B42C
  0
DICTIONARY
  5
B42D
330
B3D2
100
AcDbDictionary
280
     1
281
     1
  3
ACAD_XREC_ROUNDTRIP
360
B42E
  0
DICTIONARY
  5
B42F
330
B3D3
100
AcDbDictionary
280
     1
281
     1
  3
ACAD_XREC_ROUNDTRIP
360
B430
  0
DICTIONARY
  5
B437
330
B3D7
100
AcDbDictionary
280
     1
281
     1
  3
ACAD_XREC_ROUNDTRIP
360
B438
  0
DICTIONARY
  5
B453
330
B3E5
100
AcDbDictionary
280
     1
281
     1
  3
ACAD_XREC_ROUNDTRIP
360
B454
  0
DICTIONARY
  5
B443
330
B3DD
100
AcDbDictionary
280
     1
281
     1
  3
ACAD_XREC_ROUNDTRIP
360
B444
  0
DICTIONARY
  5
B455
330
B3E6
100
AcDbDictionary
280
     1
281
     1
  3
ACAD_XREC_ROUNDTRIP
360
B456
  0
DICTIONARY
  5
B43B
330
B3D9
100
AcDbDictionary
280
     1
281
     1
  3
ACAD_XREC_ROUNDTRIP
360
B43C
  0
DICTIONARY
  5
B451
330
B3E4
100
AcDbDictionary
280
     1
281
     1
  3
ACAD_XREC_ROUNDTRIP
360
B452
  0
DICTIONARY
  5
B44F
330
B3E3
100
AcDbDictionary
280
     1
281
     1
  3
ACAD_XREC_ROUNDTRIP
360
B450
  0
DICTIONARY
  5
B449
330
B3E0
100
AcDbDictionary
280
     1
281
     1
  3
ACAD_XREC_ROUNDTRIP
360
B44A
  0
DICTIONARY
  5
B44B
330
B3E1
100
AcDbDictionary
280
     1
281
     1
  3
ACAD_XREC_ROUNDTRIP
360
B44C
  0
DICTIONARY
  5
B441
330
B3DC
100
AcDbDictionary
280
     1
281
     1
  3
ACAD_XREC_ROUNDTRIP
360
B442
  0
DICTIONARY
  5
B435
330
B3D6
100
AcDbDictionary
280
     1
281
     1
  3
ACAD_XREC_ROUNDTRIP
360
B436
  0
DICTIONARY
  5
B44D
330
B3E2
100
AcDbDictionary
280
     1
281
     1
  3
ACAD_XREC_ROUNDTRIP
360
B44E
  0
XRECORD
  5
B45E
102
{ACAD_REACTORS
330
B45D
102
}
330
B45D
100
AcDbXrecord
280
     1
102
DISPLAYNAME
  1
Imperial24
102
FLAGS
 90
        0
  0
XRECORD
  5
B460
102
{ACAD_REACTORS
330
B45F
102
}
330
B45F
100
AcDbXrecord
280
     1
102
SHADEPLOT
 70
     0
102
SHADEPLOTRESLEVEL
 70
     2
102
SHADEPLOTCUSTOMDPI
 70
   300
  0
XRECORD
  5
B462
102
{ACAD_REACTORS
330
B461
102
}
330
B461
100
AcDbXrecord
280
     1
102
SHADEPLOT
 70
     0
102
SHADEPLOTRESLEVEL
 70
     2
102
SHADEPLOTCUSTOMDPI
 70
   300
  0
XRECORD
  5
B427
102
{ACAD_REACTORS
330
B3C0
102
}
330
B3C0
100
AcDbXrecord
280
     1
102
MATERIAL
148
0.0
149
0.0
149
0.0
 93
        0
 94
      127
282
     0
 72
     0
 77
     0
171
     0
175
     0
179
     0
273
     0
  0
XRECORD
  5
B3C2
102
{ACAD_REACTORS
330
B3C0
102
}
330
B3C0
100
AcDbXrecord
280
     1
270
     1
271
     1
  0
XRECORD
  5
B3C1
102
{ACAD_REACTORS
330
B3C0
102
}
330
B3C0
100
AcDbXrecord
280
     1
270
     1
271
     1
  0
XRECORD
  5
B3C5
102
{ACAD_REACTORS
330
B3C0
102
}
330
B3C0
100
AcDbXrecord
280
     1
270
     1
271
     1
  0
XRECORD
  5
B3C4
102
{ACAD_REACTORS
330
B3C0
102
}
330
B3C0
100
AcDbXrecord
280
     1
270
     1
271
     1
  0
XRECORD
  5
B3C6
102
{ACAD_REACTORS
330
B3C0
102
}
330
B3C0
100
AcDbXrecord
280
     1
270
     1
271
     1
  0
XRECORD
  5
B3C3
102
{ACAD_REACTORS
330
B3C0
102
}
330
B3C0
100
AcDbXrecord
280
     1
270
     1
271
     1
  0
XRECORD
  5
B426
102
{ACAD_REACTORS
330
B3B8
102
}
330
B3B8
100
AcDbXrecord
280
     1
102
MATERIAL
148
0.0
149
0.0
149
0.0
 93
        0
 94
      127
282
     0
 72
     0
 77
     0
171
     0
175
     0
179
     0
273
     0
  0
XRECORD
  5
B3BA
102
{ACAD_REACTORS
330
B3B8
102
}
330
B3B8
100
AcDbXrecord
280
     1
270
     1
271
     1
  0
XRECORD
  5
B3B9
102
{ACAD_REACTORS
330
B3B8
102
}
330
B3B8
100
AcDbXrecord
280
     1
270
     1
271
     1
  0
XRECORD
  5
B3BD
102
{ACAD_REACTORS
330
B3B8
102
}
330
B3B8
100
AcDbXrecord
280
     1
270
     1
271
     1
  0
XRECORD
  5
B3BC
102
{ACAD_REACTORS
330
B3B8
102
}
330
B3B8
100
AcDbXrecord
280
     1
270
     1
271
     1
  0
XRECORD
  5
B3BE
102
{ACAD_REACTORS
330
B3B8
102
}
330
B3B8
100
AcDbXrecord
280
     1
270
     1
271
     1
  0
XRECORD
  5
B3BB
102
{ACAD_REACTORS
330
B3B8
102
}
330
B3B8
100
AcDbXrecord
280
     1
270
     1
271
     1
  0
XRECORD
  5
B428
102
{ACAD_REACTORS
330
B3C8
102
}
330
B3C8
100
AcDbXrecord
280
     1
102
MATERIAL
148
0.0
149
0.0
149
0.0
 93
        0
 94
      127
282
     0
 72
     0
 77
     0
171
     0
175
     0
179
     0
273
     0
  0
XRECORD
  5
B3CA
102
{ACAD_REACTORS
330
B3C8
102
}
330
B3C8
100
AcDbXrecord
280
     1
270
     1
271
     1
  0
XRECORD
  5
B3C9
102
{ACAD_REACTORS
330
B3C8
102
}
330
B3C8
100
AcDbXrecord
280
     1
270
     1
271
     1
  0
XRECORD
  5
B3CD
102
{ACAD_REACTORS
330
B3C8
102
}
330
B3C8
100
AcDbXrecord
280
     1
270
     1
271
     1
  0
XRECORD
  5
B3CC
102
{ACAD_REACTORS
330
B3C8
102
}
330
B3C8
100
AcDbXrecord
280
     1
270
     1
271
     1
  0
XRECORD
  5
B3CE
102
{ACAD_REACTORS
330
B3C8
102
}
330
B3C8
100
AcDbXrecord
280
     1
270
     1
271
     1
  0
XRECORD
  5
B3CB
102
{ACAD_REACTORS
330
B3C8
102
}
330
B3C8
100
AcDbXrecord
280
     1
270
     1
271
     1
  0
XRECORD
  5
B45C
102
{ACAD_REACTORS
330
B45B
102
}
330
B45B
100
AcDbXrecord
280
     1
102
DISPLAYNAME
  1
Imperial24
102
FLAGS
 90
        0
  0
CELLSTYLEMAP
  5
B423
102
{ACAD_REACTORS
330
B422
102
}
330
B422
100
AcDbCellStyleMap
 90
        3
300
CELLSTYLE
  1
TABLEFORMAT_BEGIN
 90
        5
170
     1
 91
        0
 92
    32768
 62
   257
 93
        1
300
CONTENTFORMAT
  1
CONTENTFORMAT_BEGIN
 90
        0
 91
        0
 92
      512
 93
        0
300

 40
0.0
140
1.0
 94
        5
 62
     0
340
AFD8
144
0.25
309
CONTENTFORMAT_END
171
     0
 94
        0
309
TABLEFORMAT_END
  1
CELLSTYLE_BEGIN
 90
        1
 91
        1
300
_TITLE
309
CELLSTYLE_END
300
CELLSTYLE
  1
TABLEFORMAT_BEGIN
 90
        5
170
     1
 91
        0
 92
        0
 62
   257
 93
        1
300
CONTENTFORMAT
  1
CONTENTFORMAT_BEGIN
 90
        0
 91
        0
 92
      512
 93
        0
300

 40
0.0
140
1.0
 94
        5
 62
     0
340
AFD8
144
0.18
309
CONTENTFORMAT_END
171
     0
 94
        0
309
TABLEFORMAT_END
  1
CELLSTYLE_BEGIN
 90
        2
 91
        1
300
_HEADER
309
CELLSTYLE_END
300
CELLSTYLE
  1
TABLEFORMAT_BEGIN
 90
        5
170
     1
 91
        0
 92
        0
 62
   257
 93
        1
300
CONTENTFORMAT
  1
CONTENTFORMAT_BEGIN
 90
        0
 91
        0
 92
      512
 93
        0
300

 40
0.0
140
1.0
 94
        2
 62
     0
340
AFD8
144
0.18
309
CONTENTFORMAT_END
171
     0
 94
        0
309
TABLEFORMAT_END
  1
CELLSTYLE_BEGIN
 90
        3
 91
        2
300
_DATA
309
CELLSTYLE_END
  0
XRECORD
  5
B459
102
{ACAD_REACTORS
330
B422
102
}
330
B422
100
AcDbXrecord
280
     1
102
ACAD_ROUNDTRIP_PRE2007_TABLESTYLE
 90
      512
 91
        0
  1

 92
      512
 93
        0
  2

 94
      512
 95
        0
  3

  0
XRECORD
  5
B434
102
{ACAD_REACTORS
330
B433
102
}
330
B433
100
AcDbXrecord
280
     1
102
RTVSPost2010Prop28
280
     1
102
RTVSPost2010PropOp28
 70
     1
102
RTVSPost2010Prop29
280
     1
102
RTVSPost2010PropOp29
 70
     1
102
RTVSPost2010Prop30
280
     0
102
RTVSPost2010PropOp30
 70
     1
102
RTVSPost2010Prop31
280
     0
102
RTVSPost2010PropOp31
 70
     1
102
RTVSPost2010Prop32
280
     0
102
RTVSPost2010PropOp32
 70
     1
102
RTVSPost2010Prop33
280
     0
102
RTVSPost2010PropOp33
 70
     1
102
RTVSPost2010Prop34
280
     0
102
RTVSPost2010PropOp34
 70
     1
102
RTVSPost2010Prop35
280
     0
102
RTVSPost2010PropOp35
 70
     1
102
RTVSPost2010Prop36
280
     0
102
RTVSPost2010PropOp36
 70
     1
102
RTVSPost2010Prop37
 90
       50
102
RTVSPost2010PropOp37
 70
     1
102
RTVSPost2010Prop38
140
0.0
102
RTVSPost2010PropOp38
 70
     1
102
RTVSPost2010Prop39
140
1.0
102
RTVSPost2010PropOp39
 70
     1
102
RTVSPost2010Prop40
 90
        0
102
RTVSPost2010PropOp40
 70
     1
102
RTVSPost2010Prop41ColorIndex
 90
       18
102
RTVSPost2010Prop41ColorRGB
 90
        0
102
RTVSPost2010PropOp41
 70
     1
102
RTVSPost2010Prop42
 90
       50
102
RTVSPost2010PropOp42
 70
     1
102
RTVSPost2010Prop43
 90
        3
102
RTVSPost2010PropOp43
 70
     1
102
RTVSPost2010Prop44ColorIndex
 90
        5
102
RTVSPost2010Prop44ColorRGB
 90
      255
102
RTVSPost2010PropOp44
 70
     1
102
RTVSPost2010Prop45
280
     0
102
RTVSPost2010PropOp45
 70
     1
102
RTVSPost2010Prop46
 90
       50
102
RTVSPost2010PropOp46
 70
     1
102
RTVSPost2010Prop47
 90
       50
102
RTVSPost2010PropOp47
 70
     1
102
RTVSPost2010Prop48
 90
       50
102
RTVSPost2010PropOp48
 70
     1
102
RTVSPost2010Prop49
280
     0
102
RTVSPost2010PropOp49
 70
     1
102
RTVSPost2010Prop50
 90
       50
102
RTVSPost2010PropOp50
 70
     1
102
RTVSPost2010Prop51ColorIndex
 90
      256
102
RTVSPost2010Prop51ColorRGB
 90
-16777216
102
RTVSPost2010PropOp51
 70
     0
102
RTVSPost2010Prop52
140
1.0
102
RTVSPost2010PropOp52
 70
     0
102
RTVSPost2010Prop53
 90
        2
102
RTVSPost2010PropOp53
 70
     1
102
RTVSPost2010Prop54
  1
strokes_ogs.tif
102
RTVSPost2010PropOp54
 70
     1
102
RTVSPost2010Prop55
280
     0
102
RTVSPost2010PropOp55
 70
     1
102
RTVSPost2010Prop56
140
1.0
102
RTVSPost2010PropOp56
 70
     1
102
RTVSPost2010Prop57
140
1.0
102
RTVSPost2010PropOp57
 70
     1
102
RTVSPropertyOp0
 70
     1
102
RTVSPropertyOp1
 70
     1
102
RTVSPropertyOp2
 70
     1
102
RTVSPropertyOp3
 70
     1
102
RTVSPropertyOp4
 70
     1
102
RTVSPropertyOp5
 70
     1
102
RTVSPropertyOp6
 70
     1
102
RTVSPropertyOp7
 70
     1
102
RTVSPropertyOp8
 70
     1
102
RTVSPropertyOp9
 70
     1
102
RTVSPropertyOp10
 70
     1
102
RTVSPropertyOp11
 70
     1
102
RTVSPropertyOp12
 70
     1
102
RTVSPropertyOp13
 70
     1
102
RTVSPropertyOp14
 70
     1
102
RTVSPropertyOp15
 70
     1
102
RTVSPropertyOp16
 70
     1
102
RTVSPropertyOp17
 70
     1
102
RTVSPropertyOp18
 70
     1
102
RTVSPropertyOp19
 70
     1
102
RTVSPropertyOp20
 70
     1
102
RTVSPropertyOp21
 70
     1
102
RTVSPropertyOp22
 70
     1
102
RTVSPropertyOp23
 70
     1
102
RTVSPropertyOp24
 70
     1
102
RTVSPropertyOp25
 70
     1
102
RTVSPropertyOp26
 70
     1
102
RTVSPropertyOp27
 70
     1
102
RTVSPropertyOp28
 70
     1
102
RTVSPropertyOp29
 70
     1
102
RTVSPropertyOp30
 70
     1
102
RTVSPropertyOp31
 70
     1
102
RTVSPropertyOp32
 70
     1
102
RTVSPropertyOp33
 70
     1
102
RTVSPropertyOp34
 70
     1
102
RTVSPropertyOp35
 70
     1
102
RTVSPropertyOp36
 70
     1
102
RTVSPropertyOp37
 70
     1
102
RTVSPropertyOp38
 70
     1
102
RTVSPropertyOp39
 70
     1
102
RTVSPropertyOp40
 70
     1
102
RTVSPropertyOp41
 70
     1
102
RTVSPropertyOp42
 70
     1
102
RTVSPropertyOp43
 70
     1
102
RTVSPropertyOp44
 70
     1
102
RTVSPropertyOp45
 70
     1
102
RTVSPropertyOp46
 70
     1
102
RTVSPropertyOp47
 70
     1
102
RTVSPropertyOp48
 70
     1
102
RTVSPropertyOp49
 70
     1
102
RTVSPropertyOp50
 70
     1
102
RTVSPropertyOp51
 70
     0
102
RTVSPropertyOp52
 70
     0
102
RTVSPropertyOp53
 70
     1
102
RTVSPropertyOp54
 70
     1
102
RTVSPropertyOp55
 70
     1
102
RTVSPropertyOp56
 70
     1
102
RTVSPropertyOp57
 70
     1
102
RTVSPropertyOp58
 70
     1
102
RTVSPropertyOp59
 70
     1
102
RTVSPropertyOp60
 70
     1
102
RTVSPropertyOp61
 70
     1
102
RTVSPropertyOp62
 70
     1
  0
XRECORD
  5
B432
102
{ACAD_REACTORS
330
B431
102
}
330
B431
100
AcDbXrecord
280
     1
102
RTVSPost2010Prop28
280
     0
102
RTVSPost2010PropOp28
 70
     1
102
RTVSPost2010Prop29
280
     1
102
RTVSPost2010PropOp29
 70
     1
102
RTVSPost2010Prop30
280
     1
102
RTVSPost2010PropOp30
 70
     1
102
RTVSPost2010Prop31
280
     0
102
RTVSPost2010PropOp31
 70
     1
102
RTVSPost2010Prop32
280
     0
102
RTVSPost2010PropOp32
 70
     1
102
RTVSPost2010Prop33
280
     0
102
RTVSPost2010PropOp33
 70
     1
102
RTVSPost2010Prop34
280
     0
102
RTVSPost2010PropOp34
 70
     1
102
RTVSPost2010Prop35
280
     0
102
RTVSPost2010PropOp35
 70
     1
102
RTVSPost2010Prop36
280
     0
102
RTVSPost2010PropOp36
 70
     1
102
RTVSPost2010Prop37
 90
       50
102
RTVSPost2010PropOp37
 70
     1
102
RTVSPost2010Prop38
140
0.0
102
RTVSPost2010PropOp38
 70
     1
102
RTVSPost2010Prop39
140
1.0
102
RTVSPost2010PropOp39
 70
     1
102
RTVSPost2010Prop40
 90
        0
102
RTVSPost2010PropOp40
 70
     1
102
RTVSPost2010Prop41ColorIndex
 90
       18
102
RTVSPost2010Prop41ColorRGB
 90
        0
102
RTVSPost2010PropOp41
 70
     1
102
RTVSPost2010Prop42
 90
       50
102
RTVSPost2010PropOp42
 70
     1
102
RTVSPost2010Prop43
 90
        3
102
RTVSPost2010PropOp43
 70
     1
102
RTVSPost2010Prop44ColorIndex
 90
        5
102
RTVSPost2010Prop44ColorRGB
 90
      255
102
RTVSPost2010PropOp44
 70
     1
102
RTVSPost2010Prop45
280
     0
102
RTVSPost2010PropOp45
 70
     1
102
RTVSPost2010Prop46
 90
       50
102
RTVSPost2010PropOp46
 70
     1
102
RTVSPost2010Prop47
 90
       50
102
RTVSPost2010PropOp47
 70
     1
102
RTVSPost2010Prop48
 90
       50
102
RTVSPost2010PropOp48
 70
     1
102
RTVSPost2010Prop49
280
     0
102
RTVSPost2010PropOp49
 70
     1
102
RTVSPost2010Prop50
 90
       50
102
RTVSPost2010PropOp50
 70
     1
102
RTVSPost2010Prop51ColorIndex
 90
      256
102
RTVSPost2010Prop51ColorRGB
 90
-16777216
102
RTVSPost2010PropOp51
 70
     0
102
RTVSPost2010Prop52
140
1.0
102
RTVSPost2010PropOp52
 70
     0
102
RTVSPost2010Prop53
 90
        2
102
RTVSPost2010PropOp53
 70
     1
102
RTVSPost2010Prop54
  1
strokes_ogs.tif
102
RTVSPost2010PropOp54
 70
     1
102
RTVSPost2010Prop55
280
     0
102
RTVSPost2010PropOp55
 70
     1
102
RTVSPost2010Prop56
140
1.0
102
RTVSPost2010PropOp56
 70
     1
102
RTVSPost2010Prop57
140
1.0
102
RTVSPost2010PropOp57
 70
     1
102
RTVSPropertyOp0
 70
     1
102
RTVSPropertyOp1
 70
     1
102
RTVSPropertyOp2
 70
     1
102
RTVSPropertyOp3
 70
     1
102
RTVSPropertyOp4
 70
     1
102
RTVSPropertyOp5
 70
     1
102
RTVSPropertyOp6
 70
     1
102
RTVSPropertyOp7
 70
     1
102
RTVSPropertyOp8
 70
     1
102
RTVSPropertyOp9
 70
     1
102
RTVSPropertyOp10
 70
     1
102
RTVSPropertyOp11
 70
     1
102
RTVSPropertyOp12
 70
     1
102
RTVSPropertyOp13
 70
     1
102
RTVSPropertyOp14
 70
     1
102
RTVSPropertyOp15
 70
     1
102
RTVSPropertyOp16
 70
     1
102
RTVSPropertyOp17
 70
     1
102
RTVSPropertyOp18
 70
     1
102
RTVSPropertyOp19
 70
     1
102
RTVSPropertyOp20
 70
     1
102
RTVSPropertyOp21
 70
     1
102
RTVSPropertyOp22
 70
     1
102
RTVSPropertyOp23
 70
     1
102
RTVSPropertyOp24
 70
     1
102
RTVSPropertyOp25
 70
     1
102
RTVSPropertyOp26
 70
     1
102
RTVSPropertyOp27
 70
     1
102
RTVSPropertyOp28
 70
     1
102
RTVSPropertyOp29
 70
     1
102
RTVSPropertyOp30
 70
     1
102
RTVSPropertyOp31
 70
     1
102
RTVSPropertyOp32
 70
     1
102
RTVSPropertyOp33
 70
     1
102
RTVSPropertyOp34
 70
     1
102
RTVSPropertyOp35
 70
     1
102
RTVSPropertyOp36
 70
     1
102
RTVSPropertyOp37
 70
     1
102
RTVSPropertyOp38
 70
     1
102
RTVSPropertyOp39
 70
     1
102
RTVSPropertyOp40
 70
     1
102
RTVSPropertyOp41
 70
     1
102
RTVSPropertyOp42
 70
     1
102
RTVSPropertyOp43
 70
     1
102
RTVSPropertyOp44
 70
     1
102
RTVSPropertyOp45
 70
     1
102
RTVSPropertyOp46
 70
     1
102
RTVSPropertyOp47
 70
     1
102
RTVSPropertyOp48
 70
     1
102
RTVSPropertyOp49
 70
     1
102
RTVSPropertyOp50
 70
     1
102
RTVSPropertyOp51
 70
     0
102
RTVSPropertyOp52
 70
     0
102
RTVSPropertyOp53
 70
     1
102
RTVSPropertyOp54
 70
     1
102
RTVSPropertyOp55
 70
     1
102
RTVSPropertyOp56
 70
     1
102
RTVSPropertyOp57
 70
     1
102
RTVSPropertyOp58
 70
     1
102
RTVSPropertyOp59
 70
     1
102
RTVSPropertyOp60
 70
     1
102
RTVSPropertyOp61
 70
     1
102
RTVSPropertyOp62
 70
     1
  0
XRECORD
  5
B440
102
{ACAD_REACTORS
330
B43F
102
}
330
B43F
100
AcDbXrecord
280
     1
102
RTVSPost2010Prop28
280
     0
102
RTVSPost2010PropOp28
 70
     1
102
RTVSPost2010Prop29
280
     1
102
RTVSPost2010PropOp29
 70
     1
102
RTVSPost2010Prop30
280
     1
102
RTVSPost2010PropOp30
 70
     1
102
RTVSPost2010Prop31
280
     0
102
RTVSPost2010PropOp31
 70
     1
102
RTVSPost2010Prop32
280
     0
102
RTVSPost2010PropOp32
 70
     1
102
RTVSPost2010Prop33
280
     0
102
RTVSPost2010PropOp33
 70
     1
102
RTVSPost2010Prop34
280
     0
102
RTVSPost2010PropOp34
 70
     1
102
RTVSPost2010Prop35
280
     0
102
RTVSPost2010PropOp35
 70
     1
102
RTVSPost2010Prop36
280
     0
102
RTVSPost2010PropOp36
 70
     1
102
RTVSPost2010Prop37
 90
       50
102
RTVSPost2010PropOp37
 70
     1
102
RTVSPost2010Prop38
140
0.0
102
RTVSPost2010PropOp38
 70
     1
102
RTVSPost2010Prop39
140
1.0
102
RTVSPost2010PropOp39
 70
     1
102
RTVSPost2010Prop40
 90
        0
102
RTVSPost2010PropOp40
 70
     1
102
RTVSPost2010Prop41ColorIndex
 90
       18
102
RTVSPost2010Prop41ColorRGB
 90
        0
102
RTVSPost2010PropOp41
 70
     1
102
RTVSPost2010Prop42
 90
       50
102
RTVSPost2010PropOp42
 70
     1
102
RTVSPost2010Prop43
 90
        3
102
RTVSPost2010PropOp43
 70
     1
102
RTVSPost2010Prop44ColorIndex
 90
        5
102
RTVSPost2010Prop44ColorRGB
 90
      255
102
RTVSPost2010PropOp44
 70
     1
102
RTVSPost2010Prop45
280
     0
102
RTVSPost2010PropOp45
 70
     1
102
RTVSPost2010Prop46
 90
       50
102
RTVSPost2010PropOp46
 70
     1
102
RTVSPost2010Prop47
 90
       50
102
RTVSPost2010PropOp47
 70
     1
102
RTVSPost2010Prop48
 90
       50
102
RTVSPost2010PropOp48
 70
     1
102
RTVSPost2010Prop49
280
     0
102
RTVSPost2010PropOp49
 70
     1
102
RTVSPost2010Prop50
 90
       50
102
RTVSPost2010PropOp50
 70
     1
102
RTVSPost2010Prop51ColorIndex
 90
      256
102
RTVSPost2010Prop51ColorRGB
 90
-16777216
102
RTVSPost2010PropOp51
 70
     0
102
RTVSPost2010Prop52
140
1.0
102
RTVSPost2010PropOp52
 70
     0
102
RTVSPost2010Prop53
 90
        2
102
RTVSPost2010PropOp53
 70
     1
102
RTVSPost2010Prop54
  1
strokes_ogs.tif
102
RTVSPost2010PropOp54
 70
     1
102
RTVSPost2010Prop55
280
     0
102
RTVSPost2010PropOp55
 70
     1
102
RTVSPost2010Prop56
140
1.0
102
RTVSPost2010PropOp56
 70
     1
102
RTVSPost2010Prop57
140
1.0
102
RTVSPost2010PropOp57
 70
     1
102
RTVSPropertyOp0
 70
     1
102
RTVSPropertyOp1
 70
     1
102
RTVSPropertyOp2
 70
     1
102
RTVSPropertyOp3
 70
     1
102
RTVSPropertyOp4
 70
     1
102
RTVSPropertyOp5
 70
     1
102
RTVSPropertyOp6
 70
     1
102
RTVSPropertyOp7
 70
     1
102
RTVSPropertyOp8
 70
     1
102
RTVSPropertyOp9
 70
     1
102
RTVSPropertyOp10
 70
     1
102
RTVSPropertyOp11
 70
     1
102
RTVSPropertyOp12
 70
     1
102
RTVSPropertyOp13
 70
     1
102
RTVSPropertyOp14
 70
     1
102
RTVSPropertyOp15
 70
     1
102
RTVSPropertyOp16
 70
     1
102
RTVSPropertyOp17
 70
     1
102
RTVSPropertyOp18
 70
     1
102
RTVSPropertyOp19
 70
     1
102
RTVSPropertyOp20
 70
     1
102
RTVSPropertyOp21
 70
     1
102
RTVSPropertyOp22
 70
     1
102
RTVSPropertyOp23
 70
     1
102
RTVSPropertyOp24
 70
     1
102
RTVSPropertyOp25
 70
     1
102
RTVSPropertyOp26
 70
     1
102
RTVSPropertyOp27
 70
     1
102
RTVSPropertyOp28
 70
     1
102
RTVSPropertyOp29
 70
     1
102
RTVSPropertyOp30
 70
     1
102
RTVSPropertyOp31
 70
     1
102
RTVSPropertyOp32
 70
     1
102
RTVSPropertyOp33
 70
     1
102
RTVSPropertyOp34
 70
     1
102
RTVSPropertyOp35
 70
     1
102
RTVSPropertyOp36
 70
     1
102
RTVSPropertyOp37
 70
     1
102
RTVSPropertyOp38
 70
     1
102
RTVSPropertyOp39
 70
     1
102
RTVSPropertyOp40
 70
     1
102
RTVSPropertyOp41
 70
     1
102
RTVSPropertyOp42
 70
     1
102
RTVSPropertyOp43
 70
     1
102
RTVSPropertyOp44
 70
     1
102
RTVSPropertyOp45
 70
     1
102
RTVSPropertyOp46
 70
     1
102
RTVSPropertyOp47
 70
     1
102
RTVSPropertyOp48
 70
     1
102
RTVSPropertyOp49
 70
     1
102
RTVSPropertyOp50
 70
     1
102
RTVSPropertyOp51
 70
     0
102
RTVSPropertyOp52
 70
     0
102
RTVSPropertyOp53
 70
     1
102
RTVSPropertyOp54
 70
     1
102
RTVSPropertyOp55
 70
     1
102
RTVSPropertyOp56
 70
     1
102
RTVSPropertyOp57
 70
     1
102
RTVSPropertyOp58
 70
     1
102
RTVSPropertyOp59
 70
     1
102
RTVSPropertyOp60
 70
     1
102
RTVSPropertyOp61
 70
     1
102
RTVSPropertyOp62
 70
     1
  0
XRECORD
  5
B448
102
{ACAD_REACTORS
330
B447
102
}
330
B447
100
AcDbXrecord
280
     1
102
RTVSPost2010Prop28
280
     0
102
RTVSPost2010PropOp28
 70
     1
102
RTVSPost2010Prop29
280
     1
102
RTVSPost2010PropOp29
 70
     1
102
RTVSPost2010Prop30
280
     1
102
RTVSPost2010PropOp30
 70
     1
102
RTVSPost2010Prop31
280
     0
102
RTVSPost2010PropOp31
 70
     1
102
RTVSPost2010Prop32
280
     0
102
RTVSPost2010PropOp32
 70
     1
102
RTVSPost2010Prop33
280
     0
102
RTVSPost2010PropOp33
 70
     1
102
RTVSPost2010Prop34
280
     0
102
RTVSPost2010PropOp34
 70
     1
102
RTVSPost2010Prop35
280
     0
102
RTVSPost2010PropOp35
 70
     1
102
RTVSPost2010Prop36
280
     0
102
RTVSPost2010PropOp36
 70
     1
102
RTVSPost2010Prop37
 90
       50
102
RTVSPost2010PropOp37
 70
     1
102
RTVSPost2010Prop38
140
0.0
102
RTVSPost2010PropOp38
 70
     1
102
RTVSPost2010Prop39
140
1.0
102
RTVSPost2010PropOp39
 70
     1
102
RTVSPost2010Prop40
 90
        0
102
RTVSPost2010PropOp40
 70
     1
102
RTVSPost2010Prop41ColorIndex
 90
       18
102
RTVSPost2010Prop41ColorRGB
 90
        0
102
RTVSPost2010PropOp41
 70
     1
102
RTVSPost2010Prop42
 90
       50
102
RTVSPost2010PropOp42
 70
     1
102
RTVSPost2010Prop43
 90
        3
102
RTVSPost2010PropOp43
 70
     1
102
RTVSPost2010Prop44ColorIndex
 90
        5
102
RTVSPost2010Prop44ColorRGB
 90
      255
102
RTVSPost2010PropOp44
 70
     1
102
RTVSPost2010Prop45
280
     0
102
RTVSPost2010PropOp45
 70
     1
102
RTVSPost2010Prop46
 90
       50
102
RTVSPost2010PropOp46
 70
     1
102
RTVSPost2010Prop47
 90
       50
102
RTVSPost2010PropOp47
 70
     1
102
RTVSPost2010Prop48
 90
       50
102
RTVSPost2010PropOp48
 70
     1
102
RTVSPost2010Prop49
280
     0
102
RTVSPost2010PropOp49
 70
     1
102
RTVSPost2010Prop50
 90
       50
102
RTVSPost2010PropOp50
 70
     1
102
RTVSPost2010Prop51ColorIndex
 90
      256
102
RTVSPost2010Prop51ColorRGB
 90
-16777216
102
RTVSPost2010PropOp51
 70
     0
102
RTVSPost2010Prop52
140
1.0
102
RTVSPost2010PropOp52
 70
     0
102
RTVSPost2010Prop53
 90
        2
102
RTVSPost2010PropOp53
 70
     1
102
RTVSPost2010Prop54
  1
strokes_ogs.tif
102
RTVSPost2010PropOp54
 70
     1
102
RTVSPost2010Prop55
280
     0
102
RTVSPost2010PropOp55
 70
     1
102
RTVSPost2010Prop56
140
1.0
102
RTVSPost2010PropOp56
 70
     1
102
RTVSPost2010Prop57
140
1.0
102
RTVSPost2010PropOp57
 70
     1
102
RTVSPropertyOp0
 70
     1
102
RTVSPropertyOp1
 70
     1
102
RTVSPropertyOp2
 70
     1
102
RTVSPropertyOp3
 70
     1
102
RTVSPropertyOp4
 70
     1
102
RTVSPropertyOp5
 70
     1
102
RTVSPropertyOp6
 70
     1
102
RTVSPropertyOp7
 70
     1
102
RTVSPropertyOp8
 70
     1
102
RTVSPropertyOp9
 70
     1
102
RTVSPropertyOp10
 70
     1
102
RTVSPropertyOp11
 70
     1
102
RTVSPropertyOp12
 70
     1
102
RTVSPropertyOp13
 70
     1
102
RTVSPropertyOp14
 70
     1
102
RTVSPropertyOp15
 70
     1
102
RTVSPropertyOp16
 70
     1
102
RTVSPropertyOp17
 70
     1
102
RTVSPropertyOp18
 70
     1
102
RTVSPropertyOp19
 70
     1
102
RTVSPropertyOp20
 70
     1
102
RTVSPropertyOp21
 70
     1
102
RTVSPropertyOp22
 70
     1
102
RTVSPropertyOp23
 70
     1
102
RTVSPropertyOp24
 70
     1
102
RTVSPropertyOp25
 70
     1
102
RTVSPropertyOp26
 70
     1
102
RTVSPropertyOp27
 70
     1
102
RTVSPropertyOp28
 70
     1
102
RTVSPropertyOp29
 70
     1
102
RTVSPropertyOp30
 70
     1
102
RTVSPropertyOp31
 70
     1
102
RTVSPropertyOp32
 70
     1
102
RTVSPropertyOp33
 70
     1
102
RTVSPropertyOp34
 70
     1
102
RTVSPropertyOp35
 70
     1
102
RTVSPropertyOp36
 70
     1
102
RTVSPropertyOp37
 70
     1
102
RTVSPropertyOp38
 70
     1
102
RTVSPropertyOp39
 70
     1
102
RTVSPropertyOp40
 70
     1
102
RTVSPropertyOp41
 70
     1
102
RTVSPropertyOp42
 70
     1
102
RTVSPropertyOp43
 70
     1
102
RTVSPropertyOp44
 70
     1
102
RTVSPropertyOp45
 70
     1
102
RTVSPropertyOp46
 70
     1
102
RTVSPropertyOp47
 70
     1
102
RTVSPropertyOp48
 70
     1
102
RTVSPropertyOp49
 70
     1
102
RTVSPropertyOp50
 70
     1
102
RTVSPropertyOp51
 70
     0
102
RTVSPropertyOp52
 70
     0
102
RTVSPropertyOp53
 70
     1
102
RTVSPropertyOp54
 70
     1
102
RTVSPropertyOp55
 70
     1
102
RTVSPropertyOp56
 70
     1
102
RTVSPropertyOp57
 70
     1
102
RTVSPropertyOp58
 70
     1
102
RTVSPropertyOp59
 70
     1
102
RTVSPropertyOp60
 70
     1
102
RTVSPropertyOp61
 70
     1
102
RTVSPropertyOp62
 70
     1
  0
XRECORD
  5
B43A
102
{ACAD_REACTORS
330
B439
102
}
330
B439
100
AcDbXrecord
280
     1
102
RTVSPost2010Prop28
280
     0
102
RTVSPost2010PropOp28
 70
     1
102
RTVSPost2010Prop29
280
     1
102
RTVSPost2010PropOp29
 70
     1
102
RTVSPost2010Prop30
280
     1
102
RTVSPost2010PropOp30
 70
     1
102
RTVSPost2010Prop31
280
     0
102
RTVSPost2010PropOp31
 70
     1
102
RTVSPost2010Prop32
280
     0
102
RTVSPost2010PropOp32
 70
     1
102
RTVSPost2010Prop33
280
     0
102
RTVSPost2010PropOp33
 70
     1
102
RTVSPost2010Prop34
280
     0
102
RTVSPost2010PropOp34
 70
     1
102
RTVSPost2010Prop35
280
     0
102
RTVSPost2010PropOp35
 70
     1
102
RTVSPost2010Prop36
280
     0
102
RTVSPost2010PropOp36
 70
     1
102
RTVSPost2010Prop37
 90
       50
102
RTVSPost2010PropOp37
 70
     1
102
RTVSPost2010Prop38
140
0.0
102
RTVSPost2010PropOp38
 70
     1
102
RTVSPost2010Prop39
140
1.0
102
RTVSPost2010PropOp39
 70
     1
102
RTVSPost2010Prop40
 90
        0
102
RTVSPost2010PropOp40
 70
     1
102
RTVSPost2010Prop41ColorIndex
 90
       18
102
RTVSPost2010Prop41ColorRGB
 90
        0
102
RTVSPost2010PropOp41
 70
     1
102
RTVSPost2010Prop42
 90
       50
102
RTVSPost2010PropOp42
 70
     1
102
RTVSPost2010Prop43
 90
        3
102
RTVSPost2010PropOp43
 70
     1
102
RTVSPost2010Prop44ColorIndex
 90
        5
102
RTVSPost2010Prop44ColorRGB
 90
      255
102
RTVSPost2010PropOp44
 70
     1
102
RTVSPost2010Prop45
280
     0
102
RTVSPost2010PropOp45
 70
     1
102
RTVSPost2010Prop46
 90
       50
102
RTVSPost2010PropOp46
 70
     1
102
RTVSPost2010Prop47
 90
       50
102
RTVSPost2010PropOp47
 70
     1
102
RTVSPost2010Prop48
 90
       50
102
RTVSPost2010PropOp48
 70
     1
102
RTVSPost2010Prop49
280
     0
102
RTVSPost2010PropOp49
 70
     1
102
RTVSPost2010Prop50
 90
       50
102
RTVSPost2010PropOp50
 70
     1
102
RTVSPost2010Prop51ColorIndex
 90
      256
102
RTVSPost2010Prop51ColorRGB
 90
-16777216
102
RTVSPost2010PropOp51
 70
     0
102
RTVSPost2010Prop52
140
1.0
102
RTVSPost2010PropOp52
 70
     0
102
RTVSPost2010Prop53
 90
        2
102
RTVSPost2010PropOp53
 70
     1
102
RTVSPost2010Prop54
  1
strokes_ogs.tif
102
RTVSPost2010PropOp54
 70
     1
102
RTVSPost2010Prop55
280
     0
102
RTVSPost2010PropOp55
 70
     1
102
RTVSPost2010Prop56
140
1.0
102
RTVSPost2010PropOp56
 70
     1
102
RTVSPost2010Prop57
140
1.0
102
RTVSPost2010PropOp57
 70
     1
102
RTVSPropertyOp0
 70
     1
102
RTVSPropertyOp1
 70
     1
102
RTVSPropertyOp2
 70
     1
102
RTVSPropertyOp3
 70
     1
102
RTVSPropertyOp4
 70
     1
102
RTVSPropertyOp5
 70
     1
102
RTVSPropertyOp6
 70
     1
102
RTVSPropertyOp7
 70
     1
102
RTVSPropertyOp8
 70
     1
102
RTVSPropertyOp9
 70
     1
102
RTVSPropertyOp10
 70
     1
102
RTVSPropertyOp11
 70
     1
102
RTVSPropertyOp12
 70
     1
102
RTVSPropertyOp13
 70
     1
102
RTVSPropertyOp14
 70
     1
102
RTVSPropertyOp15
 70
     1
102
RTVSPropertyOp16
 70
     1
102
RTVSPropertyOp17
 70
     1
102
RTVSPropertyOp18
 70
     1
102
RTVSPropertyOp19
 70
     1
102
RTVSPropertyOp20
 70
     1
102
RTVSPropertyOp21
 70
     1
102
RTVSPropertyOp22
 70
     1
102
RTVSPropertyOp23
 70
     1
102
RTVSPropertyOp24
 70
     1
102
RTVSPropertyOp25
 70
     1
102
RTVSPropertyOp26
 70
     1
102
RTVSPropertyOp27
 70
     1
102
RTVSPropertyOp28
 70
     1
102
RTVSPropertyOp29
 70
     1
102
RTVSPropertyOp30
 70
     1
102
RTVSPropertyOp31
 70
     1
102
RTVSPropertyOp32
 70
     1
102
RTVSPropertyOp33
 70
     1
102
RTVSPropertyOp34
 70
     1
102
RTVSPropertyOp35
 70
     1
102
RTVSPropertyOp36
 70
     1
102
RTVSPropertyOp37
 70
     1
102
RTVSPropertyOp38
 70
     1
102
RTVSPropertyOp39
 70
     1
102
RTVSPropertyOp40
 70
     1
102
RTVSPropertyOp41
 70
     1
102
RTVSPropertyOp42
 70
     1
102
RTVSPropertyOp43
 70
     1
102
RTVSPropertyOp44
 70
     1
102
RTVSPropertyOp45
 70
     1
102
RTVSPropertyOp46
 70
     1
102
RTVSPropertyOp47
 70
     1
102
RTVSPropertyOp48
 70
     1
102
RTVSPropertyOp49
 70
     1
102
RTVSPropertyOp50
 70
     1
102
RTVSPropertyOp51
 70
     0
102
RTVSPropertyOp52
 70
     0
102
RTVSPropertyOp53
 70
     1
102
RTVSPropertyOp54
 70
     1
102
RTVSPropertyOp55
 70
     1
102
RTVSPropertyOp56
 70
     1
102
RTVSPropertyOp57
 70
     1
102
RTVSPropertyOp58
 70
     1
102
RTVSPropertyOp59
 70
     1
102
RTVSPropertyOp60
 70
     1
102
RTVSPropertyOp61
 70
     1
102
RTVSPropertyOp62
 70
     1
  0
XRECORD
  5
B43E
102
{ACAD_REACTORS
330
B43D
102
}
330
B43D
100
AcDbXrecord
280
     1
102
RTVSPost2010Prop28
280
     0
102
RTVSPost2010PropOp28
 70
     1
102
RTVSPost2010Prop29
280
     1
102
RTVSPost2010PropOp29
 70
     1
102
RTVSPost2010Prop30
280
     1
102
RTVSPost2010PropOp30
 70
     1
102
RTVSPost2010Prop31
280
     0
102
RTVSPost2010PropOp31
 70
     1
102
RTVSPost2010Prop32
280
     0
102
RTVSPost2010PropOp32
 70
     1
102
RTVSPost2010Prop33
280
     0
102
RTVSPost2010PropOp33
 70
     1
102
RTVSPost2010Prop34
280
     0
102
RTVSPost2010PropOp34
 70
     1
102
RTVSPost2010Prop35
280
     0
102
RTVSPost2010PropOp35
 70
     1
102
RTVSPost2010Prop36
280
     0
102
RTVSPost2010PropOp36
 70
     1
102
RTVSPost2010Prop37
 90
       50
102
RTVSPost2010PropOp37
 70
     1
102
RTVSPost2010Prop38
140
0.0
102
RTVSPost2010PropOp38
 70
     1
102
RTVSPost2010Prop39
140
1.0
102
RTVSPost2010PropOp39
 70
     1
102
RTVSPost2010Prop40
 90
        0
102
RTVSPost2010PropOp40
 70
     1
102
RTVSPost2010Prop41ColorIndex
 90
       18
102
RTVSPost2010Prop41ColorRGB
 90
        0
102
RTVSPost2010PropOp41
 70
     1
102
RTVSPost2010Prop42
 90
       50
102
RTVSPost2010PropOp42
 70
     1
102
RTVSPost2010Prop43
 90
        3
102
RTVSPost2010PropOp43
 70
     1
102
RTVSPost2010Prop44ColorIndex
 90
        5
102
RTVSPost2010Prop44ColorRGB
 90
      255
102
RTVSPost2010PropOp44
 70
     1
102
RTVSPost2010Prop45
280
     0
102
RTVSPost2010PropOp45
 70
     1
102
RTVSPost2010Prop46
 90
       50
102
RTVSPost2010PropOp46
 70
     1
102
RTVSPost2010Prop47
 90
       50
102
RTVSPost2010PropOp47
 70
     1
102
RTVSPost2010Prop48
 90
       50
102
RTVSPost2010PropOp48
 70
     1
102
RTVSPost2010Prop49
280
     0
102
RTVSPost2010PropOp49
 70
     1
102
RTVSPost2010Prop50
 90
       50
102
RTVSPost2010PropOp50
 70
     1
102
RTVSPost2010Prop51ColorIndex
 90
      256
102
RTVSPost2010Prop51ColorRGB
 90
-16777216
102
RTVSPost2010PropOp51
 70
     0
102
RTVSPost2010Prop52
140
1.0
102
RTVSPost2010PropOp52
 70
     0
102
RTVSPost2010Prop53
 90
        2
102
RTVSPost2010PropOp53
 70
     1
102
RTVSPost2010Prop54
  1
strokes_ogs.tif
102
RTVSPost2010PropOp54
 70
     1
102
RTVSPost2010Prop55
280
     0
102
RTVSPost2010PropOp55
 70
     1
102
RTVSPost2010Prop56
140
1.0
102
RTVSPost2010PropOp56
 70
     1
102
RTVSPost2010Prop57
140
1.0
102
RTVSPost2010PropOp57
 70
     1
102
RTVSPropertyOp0
 70
     1
102
RTVSPropertyOp1
 70
     1
102
RTVSPropertyOp2
 70
     1
102
RTVSPropertyOp3
 70
     1
102
RTVSPropertyOp4
 70
     1
102
RTVSPropertyOp5
 70
     1
102
RTVSPropertyOp6
 70
     1
102
RTVSPropertyOp7
 70
     1
102
RTVSPropertyOp8
 70
     1
102
RTVSPropertyOp9
 70
     1
102
RTVSPropertyOp10
 70
     1
102
RTVSPropertyOp11
 70
     1
102
RTVSPropertyOp12
 70
     1
102
RTVSPropertyOp13
 70
     1
102
RTVSPropertyOp14
 70
     1
102
RTVSPropertyOp15
 70
     1
102
RTVSPropertyOp16
 70
     1
102
RTVSPropertyOp17
 70
     1
102
RTVSPropertyOp18
 70
     1
102
RTVSPropertyOp19
 70
     1
102
RTVSPropertyOp20
 70
     1
102
RTVSPropertyOp21
 70
     1
102
RTVSPropertyOp22
 70
     1
102
RTVSPropertyOp23
 70
     1
102
RTVSPropertyOp24
 70
     1
102
RTVSPropertyOp25
 70
     1
102
RTVSPropertyOp26
 70
     1
102
RTVSPropertyOp27
 70
     1
102
RTVSPropertyOp28
 70
     1
102
RTVSPropertyOp29
 70
     1
102
RTVSPropertyOp30
 70
     1
102
RTVSPropertyOp31
 70
     1
102
RTVSPropertyOp32
 70
     1
102
RTVSPropertyOp33
 70
     1
102
RTVSPropertyOp34
 70
     1
102
RTVSPropertyOp35
 70
     1
102
RTVSPropertyOp36
 70
     1
102
RTVSPropertyOp37
 70
     1
102
RTVSPropertyOp38
 70
     1
102
RTVSPropertyOp39
 70
     1
102
RTVSPropertyOp40
 70
     1
102
RTVSPropertyOp41
 70
     1
102
RTVSPropertyOp42
 70
     1
102
RTVSPropertyOp43
 70
     1
102
RTVSPropertyOp44
 70
     1
102
RTVSPropertyOp45
 70
     1
102
RTVSPropertyOp46
 70
     1
102
RTVSPropertyOp47
 70
     1
102
RTVSPropertyOp48
 70
     1
102
RTVSPropertyOp49
 70
     1
102
RTVSPropertyOp50
 70
     1
102
RTVSPropertyOp51
 70
     0
102
RTVSPropertyOp52
 70
     0
102
RTVSPropertyOp53
 70
     1
102
RTVSPropertyOp54
 70
     1
102
RTVSPropertyOp55
 70
     1
102
RTVSPropertyOp56
 70
     1
102
RTVSPropertyOp57
 70
     1
102
RTVSPropertyOp58
 70
     1
102
RTVSPropertyOp59
 70
     1
102
RTVSPropertyOp60
 70
     1
102
RTVSPropertyOp61
 70
     1
102
RTVSPropertyOp62
 70
     1
  0
XRECORD
  5
B458
102
{ACAD_REACTORS
330
B457
102
}
330
B457
100
AcDbXrecord
280
     1
102
RTVSPost2010Prop28
280
     0
102
RTVSPost2010PropOp28
 70
     1
102
RTVSPost2010Prop29
280
     1
102
RTVSPost2010PropOp29
 70
     1
102
RTVSPost2010Prop30
280
     1
102
RTVSPost2010PropOp30
 70
     1
102
RTVSPost2010Prop31
280
     0
102
RTVSPost2010PropOp31
 70
     1
102
RTVSPost2010Prop32
280
     0
102
RTVSPost2010PropOp32
 70
     1
102
RTVSPost2010Prop33
280
     0
102
RTVSPost2010PropOp33
 70
     1
102
RTVSPost2010Prop34
280
     0
102
RTVSPost2010PropOp34
 70
     1
102
RTVSPost2010Prop35
280
     0
102
RTVSPost2010PropOp35
 70
     1
102
RTVSPost2010Prop36
280
     0
102
RTVSPost2010PropOp36
 70
     1
102
RTVSPost2010Prop37
 90
       50
102
RTVSPost2010PropOp37
 70
     0
102
RTVSPost2010Prop38
140
0.0
102
RTVSPost2010PropOp38
 70
     0
102
RTVSPost2010Prop39
140
1.0
102
RTVSPost2010PropOp39
 70
     0
102
RTVSPost2010Prop40
 90
        0
102
RTVSPost2010PropOp40
 70
     0
102
RTVSPost2010Prop41ColorIndex
 90
       18
102
RTVSPost2010Prop41ColorRGB
 90
        0
102
RTVSPost2010PropOp41
 70
     0
102
RTVSPost2010Prop42
 90
       50
102
RTVSPost2010PropOp42
 70
     0
102
RTVSPost2010Prop43
 90
        3
102
RTVSPost2010PropOp43
 70
     0
102
RTVSPost2010Prop44ColorIndex
 90
        5
102
RTVSPost2010Prop44ColorRGB
 90
      255
102
RTVSPost2010PropOp44
 70
     0
102
RTVSPost2010Prop45
280
     0
102
RTVSPost2010PropOp45
 70
     1
102
RTVSPost2010Prop46
 90
       50
102
RTVSPost2010PropOp46
 70
     0
102
RTVSPost2010Prop47
 90
       50
102
RTVSPost2010PropOp47
 70
     0
102
RTVSPost2010Prop48
 90
       50
102
RTVSPost2010PropOp48
 70
     0
102
RTVSPost2010Prop49
280
     0
102
RTVSPost2010PropOp49
 70
     1
102
RTVSPost2010Prop50
 90
       50
102
RTVSPost2010PropOp50
 70
     0
102
RTVSPost2010Prop51ColorIndex
 90
      256
102
RTVSPost2010Prop51ColorRGB
 90
-16777216
102
RTVSPost2010PropOp51
 70
     0
102
RTVSPost2010Prop52
140
1.0
102
RTVSPost2010PropOp52
 70
     0
102
RTVSPost2010Prop53
 90
        2
102
RTVSPost2010PropOp53
 70
     0
102
RTVSPost2010Prop54
  1
strokes_ogs.tif
102
RTVSPost2010PropOp54
 70
     0
102
RTVSPost2010Prop55
280
     0
102
RTVSPost2010PropOp55
 70
     1
102
RTVSPost2010Prop56
140
1.0
102
RTVSPost2010PropOp56
 70
     0
102
RTVSPost2010Prop57
140
1.0
102
RTVSPost2010PropOp57
 70
     0
102
RTVSPropertyOp0
 70
     0
102
RTVSPropertyOp1
 70
     0
102
RTVSPropertyOp2
 70
     0
102
RTVSPropertyOp3
 70
     0
102
RTVSPropertyOp4
 70
     0
102
RTVSPropertyOp5
 70
     0
102
RTVSPropertyOp6
 70
     0
102
RTVSPropertyOp7
 70
     0
102
RTVSPropertyOp8
 70
     0
102
RTVSPropertyOp9
 70
     0
102
RTVSPropertyOp10
 70
     0
102
RTVSPropertyOp11
 70
     0
102
RTVSPropertyOp12
 70
     0
102
RTVSPropertyOp13
 70
     0
102
RTVSPropertyOp14
 70
     2
102
RTVSPropertyOp15
 70
     0
102
RTVSPropertyOp16
 70
     0
102
RTVSPropertyOp17
 70
     0
102
RTVSPropertyOp18
 70
     0
102
RTVSPropertyOp19
 70
     0
102
RTVSPropertyOp20
 70
     0
102
RTVSPropertyOp21
 70
     0
102
RTVSPropertyOp22
 70
     0
102
RTVSPropertyOp23
 70
     0
102
RTVSPropertyOp24
 70
     0
102
RTVSPropertyOp25
 70
     0
102
RTVSPropertyOp26
 70
     0
102
RTVSPropertyOp27
 70
     0
102
RTVSPropertyOp28
 70
     1
102
RTVSPropertyOp29
 70
     1
102
RTVSPropertyOp30
 70
     1
102
RTVSPropertyOp31
 70
     1
102
RTVSPropertyOp32
 70
     1
102
RTVSPropertyOp33
 70
     1
102
RTVSPropertyOp34
 70
     1
102
RTVSPropertyOp35
 70
     1
102
RTVSPropertyOp36
 70
     1
102
RTVSPropertyOp37
 70
     0
102
RTVSPropertyOp38
 70
     0
102
RTVSPropertyOp39
 70
     0
102
RTVSPropertyOp40
 70
     0
102
RTVSPropertyOp41
 70
     0
102
RTVSPropertyOp42
 70
     0
102
RTVSPropertyOp43
 70
     0
102
RTVSPropertyOp44
 70
     0
102
RTVSPropertyOp45
 70
     1
102
RTVSPropertyOp46
 70
     0
102
RTVSPropertyOp47
 70
     0
102
RTVSPropertyOp48
 70
     0
102
RTVSPropertyOp49
 70
     1
102
RTVSPropertyOp50
 70
     0
102
RTVSPropertyOp51
 70
     0
102
RTVSPropertyOp52
 70
     0
102
RTVSPropertyOp53
 70
     0
102
RTVSPropertyOp54
 70
     0
102
RTVSPropertyOp55
 70
     1
102
RTVSPropertyOp56
 70
     0
102
RTVSPropertyOp57
 70
     0
102
RTVSPropertyOp58
 70
     0
102
RTVSPropertyOp59
 70
     0
102
RTVSPropertyOp60
 70
     0
102
RTVSPropertyOp61
 70
     0
102
RTVSPropertyOp62
 70
     0
  0
XRECORD
  5
B446
102
{ACAD_REACTORS
330
B445
102
}
330
B445
100
AcDbXrecord
280
     1
102
RTVSPost2010Prop28
280
     0
102
RTVSPost2010PropOp28
 70
     1
102
RTVSPost2010Prop29
280
     1
102
RTVSPost2010PropOp29
 70
     1
102
RTVSPost2010Prop30
280
     1
102
RTVSPost2010PropOp30
 70
     1
102
RTVSPost2010Prop31
280
     0
102
RTVSPost2010PropOp31
 70
     1
102
RTVSPost2010Prop32
280
     0
102
RTVSPost2010PropOp32
 70
     1
102
RTVSPost2010Prop33
280
     0
102
RTVSPost2010PropOp33
 70
     1
102
RTVSPost2010Prop34
280
     0
102
RTVSPost2010PropOp34
 70
     1
102
RTVSPost2010Prop35
280
     0
102
RTVSPost2010PropOp35
 70
     1
102
RTVSPost2010Prop36
280
     0
102
RTVSPost2010PropOp36
 70
     1
102
RTVSPost2010Prop37
 90
       50
102
RTVSPost2010PropOp37
 70
     1
102
RTVSPost2010Prop38
140
0.0
102
RTVSPost2010PropOp38
 70
     1
102
RTVSPost2010Prop39
140
1.0
102
RTVSPost2010PropOp39
 70
     1
102
RTVSPost2010Prop40
 90
        0
102
RTVSPost2010PropOp40
 70
     1
102
RTVSPost2010Prop41ColorIndex
 90
       18
102
RTVSPost2010Prop41ColorRGB
 90
        0
102
RTVSPost2010PropOp41
 70
     1
102
RTVSPost2010Prop42
 90
       50
102
RTVSPost2010PropOp42
 70
     1
102
RTVSPost2010Prop43
 90
        3
102
RTVSPost2010PropOp43
 70
     1
102
RTVSPost2010Prop44ColorIndex
 90
        5
102
RTVSPost2010Prop44ColorRGB
 90
      255
102
RTVSPost2010PropOp44
 70
     1
102
RTVSPost2010Prop45
280
     0
102
RTVSPost2010PropOp45
 70
     1
102
RTVSPost2010Prop46
 90
       50
102
RTVSPost2010PropOp46
 70
     1
102
RTVSPost2010Prop47
 90
       50
102
RTVSPost2010PropOp47
 70
     1
102
RTVSPost2010Prop48
 90
       50
102
RTVSPost2010PropOp48
 70
     1
102
RTVSPost2010Prop49
280
     0
102
RTVSPost2010PropOp49
 70
     1
102
RTVSPost2010Prop50
 90
       50
102
RTVSPost2010PropOp50
 70
     1
102
RTVSPost2010Prop51ColorIndex
 90
      256
102
RTVSPost2010Prop51ColorRGB
 90
-16777216
102
RTVSPost2010PropOp51
 70
     0
102
RTVSPost2010Prop52
140
1.0
102
RTVSPost2010PropOp52
 70
     0
102
RTVSPost2010Prop53
 90
        2
102
RTVSPost2010PropOp53
 70
     1
102
RTVSPost2010Prop54
  1
strokes_ogs.tif
102
RTVSPost2010PropOp54
 70
     1
102
RTVSPost2010Prop55
280
     0
102
RTVSPost2010PropOp55
 70
     1
102
RTVSPost2010Prop56
140
1.0
102
RTVSPost2010PropOp56
 70
     1
102
RTVSPost2010Prop57
140
1.0
102
RTVSPost2010PropOp57
 70
     1
102
RTVSPropertyOp0
 70
     1
102
RTVSPropertyOp1
 70
     1
102
RTVSPropertyOp2
 70
     1
102
RTVSPropertyOp3
 70
     1
102
RTVSPropertyOp4
 70
     1
102
RTVSPropertyOp5
 70
     1
102
RTVSPropertyOp6
 70
     1
102
RTVSPropertyOp7
 70
     1
102
RTVSPropertyOp8
 70
     1
102
RTVSPropertyOp9
 70
     1
102
RTVSPropertyOp10
 70
     1
102
RTVSPropertyOp11
 70
     1
102
RTVSPropertyOp12
 70
     1
102
RTVSPropertyOp13
 70
     1
102
RTVSPropertyOp14
 70
     1
102
RTVSPropertyOp15
 70
     1
102
RTVSPropertyOp16
 70
     1
102
RTVSPropertyOp17
 70
     1
102
RTVSPropertyOp18
 70
     1
102
RTVSPropertyOp19
 70
     1
102
RTVSPropertyOp20
 70
     1
102
RTVSPropertyOp21
 70
     1
102
RTVSPropertyOp22
 70
     1
102
RTVSPropertyOp23
 70
     1
102
RTVSPropertyOp24
 70
     1
102
RTVSPropertyOp25
 70
     1
102
RTVSPropertyOp26
 70
     1
102
RTVSPropertyOp27
 70
     1
102
RTVSPropertyOp28
 70
     1
102
RTVSPropertyOp29
 70
     1
102
RTVSPropertyOp30
 70
     1
102
RTVSPropertyOp31
 70
     1
102
RTVSPropertyOp32
 70
     1
102
RTVSPropertyOp33
 70
     1
102
RTVSPropertyOp34
 70
     1
102
RTVSPropertyOp35
 70
     1
102
RTVSPropertyOp36
 70
     1
102
RTVSPropertyOp37
 70
     1
102
RTVSPropertyOp38
 70
     1
102
RTVSPropertyOp39
 70
     1
102
RTVSPropertyOp40
 70
     1
102
RTVSPropertyOp41
 70
     1
102
RTVSPropertyOp42
 70
     1
102
RTVSPropertyOp43
 70
     1
102
RTVSPropertyOp44
 70
     1
102
RTVSPropertyOp45
 70
     1
102
RTVSPropertyOp46
 70
     1
102
RTVSPropertyOp47
 70
     1
102
RTVSPropertyOp48
 70
     1
102
RTVSPropertyOp49
 70
     1
102
RTVSPropertyOp50
 70
     1
102
RTVSPropertyOp51
 70
     0
102
RTVSPropertyOp52
 70
     0
102
RTVSPropertyOp53
 70
     1
102
RTVSPropertyOp54
 70
     1
102
RTVSPropertyOp55
 70
     1
102
RTVSPropertyOp56
 70
     1
102
RTVSPropertyOp57
 70
     1
102
RTVSPropertyOp58
 70
     1
102
RTVSPropertyOp59
 70
     1
102
RTVSPropertyOp60
 70
     1
102
RTVSPropertyOp61
 70
     1
102
RTVSPropertyOp62
 70
     1
  0
XRECORD
  5
B42A
102
{ACAD_REACTORS
330
B429
102
}
330
B429
100
AcDbXrecord
280
     1
102
RTVSPost2010Prop28
280
     0
102
RTVSPost2010PropOp28
 70
     1
102
RTVSPost2010Prop29
280
     1
102
RTVSPost2010PropOp29
 70
     1
102
RTVSPost2010Prop30
280
     1
102
RTVSPost2010PropOp30
 70
     1
102
RTVSPost2010Prop31
280
     0
102
RTVSPost2010PropOp31
 70
     1
102
RTVSPost2010Prop32
280
     0
102
RTVSPost2010PropOp32
 70
     1
102
RTVSPost2010Prop33
280
     0
102
RTVSPost2010PropOp33
 70
     1
102
RTVSPost2010Prop34
280
     0
102
RTVSPost2010PropOp34
 70
     1
102
RTVSPost2010Prop35
280
     0
102
RTVSPost2010PropOp35
 70
     1
102
RTVSPost2010Prop36
280
     0
102
RTVSPost2010PropOp36
 70
     1
102
RTVSPost2010Prop37
 90
       50
102
RTVSPost2010PropOp37
 70
     1
102
RTVSPost2010Prop38
140
0.0
102
RTVSPost2010PropOp38
 70
     1
102
RTVSPost2010Prop39
140
1.0
102
RTVSPost2010PropOp39
 70
     1
102
RTVSPost2010Prop40
 90
        0
102
RTVSPost2010PropOp40
 70
     1
102
RTVSPost2010Prop41ColorIndex
 90
       18
102
RTVSPost2010Prop41ColorRGB
 90
        0
102
RTVSPost2010PropOp41
 70
     1
102
RTVSPost2010Prop42
 90
       50
102
RTVSPost2010PropOp42
 70
     1
102
RTVSPost2010Prop43
 90
        3
102
RTVSPost2010PropOp43
 70
     1
102
RTVSPost2010Prop44ColorIndex
 90
        5
102
RTVSPost2010Prop44ColorRGB
 90
      255
102
RTVSPost2010PropOp44
 70
     1
102
RTVSPost2010Prop45
280
     0
102
RTVSPost2010PropOp45
 70
     1
102
RTVSPost2010Prop46
 90
       50
102
RTVSPost2010PropOp46
 70
     1
102
RTVSPost2010Prop47
 90
       50
102
RTVSPost2010PropOp47
 70
     1
102
RTVSPost2010Prop48
 90
       50
102
RTVSPost2010PropOp48
 70
     1
102
RTVSPost2010Prop49
280
     0
102
RTVSPost2010PropOp49
 70
     1
102
RTVSPost2010Prop50
 90
       50
102
RTVSPost2010PropOp50
 70
     1
102
RTVSPost2010Prop51ColorIndex
 90
      256
102
RTVSPost2010Prop51ColorRGB
 90
-16777216
102
RTVSPost2010PropOp51
 70
     0
102
RTVSPost2010Prop52
140
1.0
102
RTVSPost2010PropOp52
 70
     0
102
RTVSPost2010Prop53
 90
        2
102
RTVSPost2010PropOp53
 70
     1
102
RTVSPost2010Prop54
  1
strokes_ogs.tif
102
RTVSPost2010PropOp54
 70
     1
102
RTVSPost2010Prop55
280
     0
102
RTVSPost2010PropOp55
 70
     1
102
RTVSPost2010Prop56
140
1.0
102
RTVSPost2010PropOp56
 70
     1
102
RTVSPost2010Prop57
140
1.0
102
RTVSPost2010PropOp57
 70
     1
102
RTVSPropertyOp0
 70
     1
102
RTVSPropertyOp1
 70
     1
102
RTVSPropertyOp2
 70
     1
102
RTVSPropertyOp3
 70
     1
102
RTVSPropertyOp4
 70
     1
102
RTVSPropertyOp5
 70
     1
102
RTVSPropertyOp6
 70
     1
102
RTVSPropertyOp7
 70
     1
102
RTVSPropertyOp8
 70
     1
102
RTVSPropertyOp9
 70
     1
102
RTVSPropertyOp10
 70
     1
102
RTVSPropertyOp11
 70
     1
102
RTVSPropertyOp12
 70
     1
102
RTVSPropertyOp13
 70
     1
102
RTVSPropertyOp14
 70
     1
102
RTVSPropertyOp15
 70
     1
102
RTVSPropertyOp16
 70
     1
102
RTVSPropertyOp17
 70
     1
102
RTVSPropertyOp18
 70
     1
102
RTVSPropertyOp19
 70
     1
102
RTVSPropertyOp20
 70
     1
102
RTVSPropertyOp21
 70
     1
102
RTVSPropertyOp22
 70
     1
102
RTVSPropertyOp23
 70
     1
102
RTVSPropertyOp24
 70
     1
102
RTVSPropertyOp25
 70
     1
102
RTVSPropertyOp26
 70
     1
102
RTVSPropertyOp27
 70
     1
102
RTVSPropertyOp28
 70
     1
102
RTVSPropertyOp29
 70
     1
102
RTVSPropertyOp30
 70
     1
102
RTVSPropertyOp31
 70
     1
102
RTVSPropertyOp32
 70
     1
102
RTVSPropertyOp33
 70
     1
102
RTVSPropertyOp34
 70
     1
102
RTVSPropertyOp35
 70
     1
102
RTVSPropertyOp36
 70
     1
102
RTVSPropertyOp37
 70
     1
102
RTVSPropertyOp38
 70
     1
102
RTVSPropertyOp39
 70
     1
102
RTVSPropertyOp40
 70
     1
102
RTVSPropertyOp41
 70
     1
102
RTVSPropertyOp42
 70
     1
102
RTVSPropertyOp43
 70
     1
102
RTVSPropertyOp44
 70
     1
102
RTVSPropertyOp45
 70
     1
102
RTVSPropertyOp46
 70
     1
102
RTVSPropertyOp47
 70
     1
102
RTVSPropertyOp48
 70
     1
102
RTVSPropertyOp49
 70
     1
102
RTVSPropertyOp50
 70
     1
102
RTVSPropertyOp51
 70
     0
102
RTVSPropertyOp52
 70
     0
102
RTVSPropertyOp53
 70
     1
102
RTVSPropertyOp54
 70
     1
102
RTVSPropertyOp55
 70
     1
102
RTVSPropertyOp56
 70
     1
102
RTVSPropertyOp57
 70
     1
102
RTVSPropertyOp58
 70
     1
102
RTVSPropertyOp59
 70
     1
102
RTVSPropertyOp60
 70
     1
102
RTVSPropertyOp61
 70
     1
102
RTVSPropertyOp62
 70
     1
  0
XRECORD
  5
B42C
102
{ACAD_REACTORS
330
B42B
102
}
330
B42B
100
AcDbXrecord
280
     1
102
RTVSPost2010Prop28
280
     0
102
RTVSPost2010PropOp28
 70
     1
102
RTVSPost2010Prop29
280
     1
102
RTVSPost2010PropOp29
 70
     1
102
RTVSPost2010Prop30
280
     1
102
RTVSPost2010PropOp30
 70
     1
102
RTVSPost2010Prop31
280
     0
102
RTVSPost2010PropOp31
 70
     1
102
RTVSPost2010Prop32
280
     0
102
RTVSPost2010PropOp32
 70
     1
102
RTVSPost2010Prop33
280
     0
102
RTVSPost2010PropOp33
 70
     1
102
RTVSPost2010Prop34
280
     0
102
RTVSPost2010PropOp34
 70
     1
102
RTVSPost2010Prop35
280
     0
102
RTVSPost2010PropOp35
 70
     1
102
RTVSPost2010Prop36
280
     0
102
RTVSPost2010PropOp36
 70
     1
102
RTVSPost2010Prop37
 90
       50
102
RTVSPost2010PropOp37
 70
     1
102
RTVSPost2010Prop38
140
0.0
102
RTVSPost2010PropOp38
 70
     1
102
RTVSPost2010Prop39
140
1.0
102
RTVSPost2010PropOp39
 70
     1
102
RTVSPost2010Prop40
 90
        0
102
RTVSPost2010PropOp40
 70
     1
102
RTVSPost2010Prop41ColorIndex
 90
       18
102
RTVSPost2010Prop41ColorRGB
 90
        0
102
RTVSPost2010PropOp41
 70
     1
102
RTVSPost2010Prop42
 90
       50
102
RTVSPost2010PropOp42
 70
     1
102
RTVSPost2010Prop43
 90
        3
102
RTVSPost2010PropOp43
 70
     1
102
RTVSPost2010Prop44ColorIndex
 90
        5
102
RTVSPost2010Prop44ColorRGB
 90
      255
102
RTVSPost2010PropOp44
 70
     1
102
RTVSPost2010Prop45
280
     0
102
RTVSPost2010PropOp45
 70
     1
102
RTVSPost2010Prop46
 90
       50
102
RTVSPost2010PropOp46
 70
     1
102
RTVSPost2010Prop47
 90
       50
102
RTVSPost2010PropOp47
 70
     1
102
RTVSPost2010Prop48
 90
       50
102
RTVSPost2010PropOp48
 70
     1
102
RTVSPost2010Prop49
280
     0
102
RTVSPost2010PropOp49
 70
     1
102
RTVSPost2010Prop50
 90
       50
102
RTVSPost2010PropOp50
 70
     1
102
RTVSPost2010Prop51ColorIndex
 90
      256
102
RTVSPost2010Prop51ColorRGB
 90
-16777216
102
RTVSPost2010PropOp51
 70
     0
102
RTVSPost2010Prop52
140
1.0
102
RTVSPost2010PropOp52
 70
     0
102
RTVSPost2010Prop53
 90
        2
102
RTVSPost2010PropOp53
 70
     1
102
RTVSPost2010Prop54
  1
strokes_ogs.tif
102
RTVSPost2010PropOp54
 70
     1
102
RTVSPost2010Prop55
280
     0
102
RTVSPost2010PropOp55
 70
     1
102
RTVSPost2010Prop56
140
1.0
102
RTVSPost2010PropOp56
 70
     1
102
RTVSPost2010Prop57
140
1.0
102
RTVSPost2010PropOp57
 70
     1
102
RTVSPropertyOp0
 70
     1
102
RTVSPropertyOp1
 70
     1
102
RTVSPropertyOp2
 70
     1
102
RTVSPropertyOp3
 70
     1
102
RTVSPropertyOp4
 70
     1
102
RTVSPropertyOp5
 70
     1
102
RTVSPropertyOp6
 70
     1
102
RTVSPropertyOp7
 70
     1
102
RTVSPropertyOp8
 70
     1
102
RTVSPropertyOp9
 70
     1
102
RTVSPropertyOp10
 70
     1
102
RTVSPropertyOp11
 70
     1
102
RTVSPropertyOp12
 70
     1
102
RTVSPropertyOp13
 70
     1
102
RTVSPropertyOp14
 70
     1
102
RTVSPropertyOp15
 70
     1
102
RTVSPropertyOp16
 70
     1
102
RTVSPropertyOp17
 70
     1
102
RTVSPropertyOp18
 70
     1
102
RTVSPropertyOp19
 70
     1
102
RTVSPropertyOp20
 70
     1
102
RTVSPropertyOp21
 70
     1
102
RTVSPropertyOp22
 70
     1
102
RTVSPropertyOp23
 70
     1
102
RTVSPropertyOp24
 70
     1
102
RTVSPropertyOp25
 70
     1
102
RTVSPropertyOp26
 70
     1
102
RTVSPropertyOp27
 70
     1
102
RTVSPropertyOp28
 70
     1
102
RTVSPropertyOp29
 70
     1
102
RTVSPropertyOp30
 70
     1
102
RTVSPropertyOp31
 70
     1
102
RTVSPropertyOp32
 70
     1
102
RTVSPropertyOp33
 70
     1
102
RTVSPropertyOp34
 70
     1
102
RTVSPropertyOp35
 70
     1
102
RTVSPropertyOp36
 70
     1
102
RTVSPropertyOp37
 70
     1
102
RTVSPropertyOp38
 70
     1
102
RTVSPropertyOp39
 70
     1
102
RTVSPropertyOp40
 70
     1
102
RTVSPropertyOp41
 70
     1
102
RTVSPropertyOp42
 70
     1
102
RTVSPropertyOp43
 70
     1
102
RTVSPropertyOp44
 70
     1
102
RTVSPropertyOp45
 70
     1
102
RTVSPropertyOp46
 70
     1
102
RTVSPropertyOp47
 70
     1
102
RTVSPropertyOp48
 70
     1
102
RTVSPropertyOp49
 70
     1
102
RTVSPropertyOp50
 70
     1
102
RTVSPropertyOp51
 70
     0
102
RTVSPropertyOp52
 70
     0
102
RTVSPropertyOp53
 70
     1
102
RTVSPropertyOp54
 70
     1
102
RTVSPropertyOp55
 70
     1
102
RTVSPropertyOp56
 70
     1
102
RTVSPropertyOp57
 70
     1
102
RTVSPropertyOp58
 70
     1
102
RTVSPropertyOp59
 70
     1
102
RTVSPropertyOp60
 70
     1
102
RTVSPropertyOp61
 70
     1
102
RTVSPropertyOp62
 70
     1
  0
XRECORD
  5
B42E
102
{ACAD_REACTORS
330
B42D
102
}
330
B42D
100
AcDbXrecord
280
     1
102
RTVSPost2010Prop28
280
     0
102
RTVSPost2010PropOp28
 70
     1
102
RTVSPost2010Prop29
280
     1
102
RTVSPost2010PropOp29
 70
     1
102
RTVSPost2010Prop30
280
     1
102
RTVSPost2010PropOp30
 70
     1
102
RTVSPost2010Prop31
280
     0
102
RTVSPost2010PropOp31
 70
     1
102
RTVSPost2010Prop32
280
     0
102
RTVSPost2010PropOp32
 70
     1
102
RTVSPost2010Prop33
280
     0
102
RTVSPost2010PropOp33
 70
     1
102
RTVSPost2010Prop34
280
     0
102
RTVSPost2010PropOp34
 70
     1
102
RTVSPost2010Prop35
280
     0
102
RTVSPost2010PropOp35
 70
     1
102
RTVSPost2010Prop36
280
     0
102
RTVSPost2010PropOp36
 70
     1
102
RTVSPost2010Prop37
 90
       50
102
RTVSPost2010PropOp37
 70
     1
102
RTVSPost2010Prop38
140
0.0
102
RTVSPost2010PropOp38
 70
     1
102
RTVSPost2010Prop39
140
1.0
102
RTVSPost2010PropOp39
 70
     1
102
RTVSPost2010Prop40
 90
        0
102
RTVSPost2010PropOp40
 70
     1
102
RTVSPost2010Prop41ColorIndex
 90
       18
102
RTVSPost2010Prop41ColorRGB
 90
        0
102
RTVSPost2010PropOp41
 70
     1
102
RTVSPost2010Prop42
 90
       50
102
RTVSPost2010PropOp42
 70
     1
102
RTVSPost2010Prop43
 90
        3
102
RTVSPost2010PropOp43
 70
     1
102
RTVSPost2010Prop44ColorIndex
 90
        5
102
RTVSPost2010Prop44ColorRGB
 90
      255
102
RTVSPost2010PropOp44
 70
     1
102
RTVSPost2010Prop45
280
     0
102
RTVSPost2010PropOp45
 70
     1
102
RTVSPost2010Prop46
 90
       50
102
RTVSPost2010PropOp46
 70
     1
102
RTVSPost2010Prop47
 90
       50
102
RTVSPost2010PropOp47
 70
     1
102
RTVSPost2010Prop48
 90
       50
102
RTVSPost2010PropOp48
 70
     1
102
RTVSPost2010Prop49
280
     0
102
RTVSPost2010PropOp49
 70
     1
102
RTVSPost2010Prop50
 90
       50
102
RTVSPost2010PropOp50
 70
     1
102
RTVSPost2010Prop51ColorIndex
 90
      256
102
RTVSPost2010Prop51ColorRGB
 90
-16777216
102
RTVSPost2010PropOp51
 70
     0
102
RTVSPost2010Prop52
140
1.0
102
RTVSPost2010PropOp52
 70
     0
102
RTVSPost2010Prop53
 90
        2
102
RTVSPost2010PropOp53
 70
     1
102
RTVSPost2010Prop54
  1
strokes_ogs.tif
102
RTVSPost2010PropOp54
 70
     1
102
RTVSPost2010Prop55
280
     0
102
RTVSPost2010PropOp55
 70
     1
102
RTVSPost2010Prop56
140
1.0
102
RTVSPost2010PropOp56
 70
     1
102
RTVSPost2010Prop57
140
1.0
102
RTVSPost2010PropOp57
 70
     1
102
RTVSPropertyOp0
 70
     1
102
RTVSPropertyOp1
 70
     1
102
RTVSPropertyOp2
 70
     1
102
RTVSPropertyOp3
 70
     1
102
RTVSPropertyOp4
 70
     1
102
RTVSPropertyOp5
 70
     1
102
RTVSPropertyOp6
 70
     1
102
RTVSPropertyOp7
 70
     1
102
RTVSPropertyOp8
 70
     1
102
RTVSPropertyOp9
 70
     1
102
RTVSPropertyOp10
 70
     1
102
RTVSPropertyOp11
 70
     1
102
RTVSPropertyOp12
 70
     1
102
RTVSPropertyOp13
 70
     1
102
RTVSPropertyOp14
 70
     1
102
RTVSPropertyOp15
 70
     1
102
RTVSPropertyOp16
 70
     1
102
RTVSPropertyOp17
 70
     1
102
RTVSPropertyOp18
 70
     1
102
RTVSPropertyOp19
 70
     1
102
RTVSPropertyOp20
 70
     1
102
RTVSPropertyOp21
 70
     1
102
RTVSPropertyOp22
 70
     1
102
RTVSPropertyOp23
 70
     1
102
RTVSPropertyOp24
 70
     1
102
RTVSPropertyOp25
 70
     1
102
RTVSPropertyOp26
 70
     1
102
RTVSPropertyOp27
 70
     1
102
RTVSPropertyOp28
 70
     1
102
RTVSPropertyOp29
 70
     1
102
RTVSPropertyOp30
 70
     1
102
RTVSPropertyOp31
 70
     1
102
RTVSPropertyOp32
 70
     1
102
RTVSPropertyOp33
 70
     1
102
RTVSPropertyOp34
 70
     1
102
RTVSPropertyOp35
 70
     1
102
RTVSPropertyOp36
 70
     1
102
RTVSPropertyOp37
 70
     1
102
RTVSPropertyOp38
 70
     1
102
RTVSPropertyOp39
 70
     1
102
RTVSPropertyOp40
 70
     1
102
RTVSPropertyOp41
 70
     1
102
RTVSPropertyOp42
 70
     1
102
RTVSPropertyOp43
 70
     1
102
RTVSPropertyOp44
 70
     1
102
RTVSPropertyOp45
 70
     1
102
RTVSPropertyOp46
 70
     1
102
RTVSPropertyOp47
 70
     1
102
RTVSPropertyOp48
 70
     1
102
RTVSPropertyOp49
 70
     1
102
RTVSPropertyOp50
 70
     1
102
RTVSPropertyOp51
 70
     0
102
RTVSPropertyOp52
 70
     0
102
RTVSPropertyOp53
 70
     1
102
RTVSPropertyOp54
 70
     1
102
RTVSPropertyOp55
 70
     1
102
RTVSPropertyOp56
 70
     1
102
RTVSPropertyOp57
 70
     1
102
RTVSPropertyOp58
 70
     1
102
RTVSPropertyOp59
 70
     1
102
RTVSPropertyOp60
 70
     1
102
RTVSPropertyOp61
 70
     1
102
RTVSPropertyOp62
 70
     1
  0
XRECORD
  5
B430
102
{ACAD_REACTORS
330
B42F
102
}
330
B42F
100
AcDbXrecord
280
     1
102
RTVSPost2010Prop28
280
     0
102
RTVSPost2010PropOp28
 70
     1
102
RTVSPost2010Prop29
280
     1
102
RTVSPost2010PropOp29
 70
     1
102
RTVSPost2010Prop30
280
     1
102
RTVSPost2010PropOp30
 70
     1
102
RTVSPost2010Prop31
280
     0
102
RTVSPost2010PropOp31
 70
     1
102
RTVSPost2010Prop32
280
     0
102
RTVSPost2010PropOp32
 70
     1
102
RTVSPost2010Prop33
280
     0
102
RTVSPost2010PropOp33
 70
     1
102
RTVSPost2010Prop34
280
     0
102
RTVSPost2010PropOp34
 70
     1
102
RTVSPost2010Prop35
280
     0
102
RTVSPost2010PropOp35
 70
     1
102
RTVSPost2010Prop36
280
     0
102
RTVSPost2010PropOp36
 70
     1
102
RTVSPost2010Prop37
 90
       50
102
RTVSPost2010PropOp37
 70
     1
102
RTVSPost2010Prop38
140
0.0
102
RTVSPost2010PropOp38
 70
     1
102
RTVSPost2010Prop39
140
1.0
102
RTVSPost2010PropOp39
 70
     1
102
RTVSPost2010Prop40
 90
        0
102
RTVSPost2010PropOp40
 70
     1
102
RTVSPost2010Prop41ColorIndex
 90
       18
102
RTVSPost2010Prop41ColorRGB
 90
        0
102
RTVSPost2010PropOp41
 70
     1
102
RTVSPost2010Prop42
 90
       50
102
RTVSPost2010PropOp42
 70
     1
102
RTVSPost2010Prop43
 90
        3
102
RTVSPost2010PropOp43
 70
     1
102
RTVSPost2010Prop44ColorIndex
 90
        5
102
RTVSPost2010Prop44ColorRGB
 90
      255
102
RTVSPost2010PropOp44
 70
     1
102
RTVSPost2010Prop45
280
     0
102
RTVSPost2010PropOp45
 70
     1
102
RTVSPost2010Prop46
 90
       50
102
RTVSPost2010PropOp46
 70
     1
102
RTVSPost2010Prop47
 90
       50
102
RTVSPost2010PropOp47
 70
     1
102
RTVSPost2010Prop48
 90
       50
102
RTVSPost2010PropOp48
 70
     1
102
RTVSPost2010Prop49
280
     0
102
RTVSPost2010PropOp49
 70
     1
102
RTVSPost2010Prop50
 90
       50
102
RTVSPost2010PropOp50
 70
     1
102
RTVSPost2010Prop51ColorIndex
 90
      256
102
RTVSPost2010Prop51ColorRGB
 90
-16777216
102
RTVSPost2010PropOp51
 70
     0
102
RTVSPost2010Prop52
140
1.0
102
RTVSPost2010PropOp52
 70
     0
102
RTVSPost2010Prop53
 90
        2
102
RTVSPost2010PropOp53
 70
     1
102
RTVSPost2010Prop54
  1
strokes_ogs.tif
102
RTVSPost2010PropOp54
 70
     1
102
RTVSPost2010Prop55
280
     0
102
RTVSPost2010PropOp55
 70
     1
102
RTVSPost2010Prop56
140
1.0
102
RTVSPost2010PropOp56
 70
     1
102
RTVSPost2010Prop57
140
1.0
102
RTVSPost2010PropOp57
 70
     1
102
RTVSPropertyOp0
 70
     1
102
RTVSPropertyOp1
 70
     1
102
RTVSPropertyOp2
 70
     1
102
RTVSPropertyOp3
 70
     1
102
RTVSPropertyOp4
 70
     1
102
RTVSPropertyOp5
 70
     1
102
RTVSPropertyOp6
 70
     1
102
RTVSPropertyOp7
 70
     1
102
RTVSPropertyOp8
 70
     1
102
RTVSPropertyOp9
 70
     1
102
RTVSPropertyOp10
 70
     1
102
RTVSPropertyOp11
 70
     1
102
RTVSPropertyOp12
 70
     1
102
RTVSPropertyOp13
 70
     1
102
RTVSPropertyOp14
 70
     1
102
RTVSPropertyOp15
 70
     1
102
RTVSPropertyOp16
 70
     1
102
RTVSPropertyOp17
 70
     1
102
RTVSPropertyOp18
 70
     1
102
RTVSPropertyOp19
 70
     1
102
RTVSPropertyOp20
 70
     1
102
RTVSPropertyOp21
 70
     1
102
RTVSPropertyOp22
 70
     1
102
RTVSPropertyOp23
 70
     1
102
RTVSPropertyOp24
 70
     1
102
RTVSPropertyOp25
 70
     1
102
RTVSPropertyOp26
 70
     1
102
RTVSPropertyOp27
 70
     1
102
RTVSPropertyOp28
 70
     1
102
RTVSPropertyOp29
 70
     1
102
RTVSPropertyOp30
 70
     1
102
RTVSPropertyOp31
 70
     1
102
RTVSPropertyOp32
 70
     1
102
RTVSPropertyOp33
 70
     1
102
RTVSPropertyOp34
 70
     1
102
RTVSPropertyOp35
 70
     1
102
RTVSPropertyOp36
 70
     1
102
RTVSPropertyOp37
 70
     1
102
RTVSPropertyOp38
 70
     1
102
RTVSPropertyOp39
 70
     1
102
RTVSPropertyOp40
 70
     1
102
RTVSPropertyOp41
 70
     1
102
RTVSPropertyOp42
 70
     1
102
RTVSPropertyOp43
 70
     1
102
RTVSPropertyOp44
 70
     1
102
RTVSPropertyOp45
 70
     1
102
RTVSPropertyOp46
 70
     1
102
RTVSPropertyOp47
 70
     1
102
RTVSPropertyOp48
 70
     1
102
RTVSPropertyOp49
 70
     1
102
RTVSPropertyOp50
 70
     1
102
RTVSPropertyOp51
 70
     0
102
RTVSPropertyOp52
 70
     0
102
RTVSPropertyOp53
 70
     1
102
RTVSPropertyOp54
 70
     1
102
RTVSPropertyOp55
 70
     1
102
RTVSPropertyOp56
 70
     1
102
RTVSPropertyOp57
 70
     1
102
RTVSPropertyOp58
 70
     1
102
RTVSPropertyOp59
 70
     1
102
RTVSPropertyOp60
 70
     1
102
RTVSPropertyOp61
 70
     1
102
RTVSPropertyOp62
 70
     1
  0
XRECORD
  5
B438
102
{ACAD_REACTORS
330
B437
102
}
330
B437
100
AcDbXrecord
280
     1
102
RTVSPost2010Prop28
280
     0
102
RTVSPost2010PropOp28
 70
     1
102
RTVSPost2010Prop29
280
     1
102
RTVSPost2010PropOp29
 70
     1
102
RTVSPost2010Prop30
280
     1
102
RTVSPost2010PropOp30
 70
     1
102
RTVSPost2010Prop31
280
     0
102
RTVSPost2010PropOp31
 70
     1
102
RTVSPost2010Prop32
280
     0
102
RTVSPost2010PropOp32
 70
     1
102
RTVSPost2010Prop33
280
     0
102
RTVSPost2010PropOp33
 70
     1
102
RTVSPost2010Prop34
280
     0
102
RTVSPost2010PropOp34
 70
     1
102
RTVSPost2010Prop35
280
     0
102
RTVSPost2010PropOp35
 70
     1
102
RTVSPost2010Prop36
280
     0
102
RTVSPost2010PropOp36
 70
     1
102
RTVSPost2010Prop37
 90
       50
102
RTVSPost2010PropOp37
 70
     1
102
RTVSPost2010Prop38
140
0.0
102
RTVSPost2010PropOp38
 70
     1
102
RTVSPost2010Prop39
140
1.0
102
RTVSPost2010PropOp39
 70
     1
102
RTVSPost2010Prop40
 90
        0
102
RTVSPost2010PropOp40
 70
     1
102
RTVSPost2010Prop41ColorIndex
 90
       18
102
RTVSPost2010Prop41ColorRGB
 90
        0
102
RTVSPost2010PropOp41
 70
     1
102
RTVSPost2010Prop42
 90
       50
102
RTVSPost2010PropOp42
 70
     1
102
RTVSPost2010Prop43
 90
        3
102
RTVSPost2010PropOp43
 70
     1
102
RTVSPost2010Prop44ColorIndex
 90
        5
102
RTVSPost2010Prop44ColorRGB
 90
      255
102
RTVSPost2010PropOp44
 70
     1
102
RTVSPost2010Prop45
280
     0
102
RTVSPost2010PropOp45
 70
     1
102
RTVSPost2010Prop46
 90
       50
102
RTVSPost2010PropOp46
 70
     1
102
RTVSPost2010Prop47
 90
       50
102
RTVSPost2010PropOp47
 70
     1
102
RTVSPost2010Prop48
 90
       50
102
RTVSPost2010PropOp48
 70
     1
102
RTVSPost2010Prop49
280
     0
102
RTVSPost2010PropOp49
 70
     1
102
RTVSPost2010Prop50
 90
       50
102
RTVSPost2010PropOp50
 70
     1
102
RTVSPost2010Prop51ColorIndex
 90
      256
102
RTVSPost2010Prop51ColorRGB
 90
-16777216
102
RTVSPost2010PropOp51
 70
     0
102
RTVSPost2010Prop52
140
1.0
102
RTVSPost2010PropOp52
 70
     0
102
RTVSPost2010Prop53
 90
        2
102
RTVSPost2010PropOp53
 70
     1
102
RTVSPost2010Prop54
  1
strokes_ogs.tif
102
RTVSPost2010PropOp54
 70
     1
102
RTVSPost2010Prop55
280
     0
102
RTVSPost2010PropOp55
 70
     1
102
RTVSPost2010Prop56
140
1.0
102
RTVSPost2010PropOp56
 70
     1
102
RTVSPost2010Prop57
140
1.0
102
RTVSPost2010PropOp57
 70
     1
102
RTVSPropertyOp0
 70
     1
102
RTVSPropertyOp1
 70
     1
102
RTVSPropertyOp2
 70
     1
102
RTVSPropertyOp3
 70
     1
102
RTVSPropertyOp4
 70
     1
102
RTVSPropertyOp5
 70
     1
102
RTVSPropertyOp6
 70
     1
102
RTVSPropertyOp7
 70
     1
102
RTVSPropertyOp8
 70
     1
102
RTVSPropertyOp9
 70
     1
102
RTVSPropertyOp10
 70
     1
102
RTVSPropertyOp11
 70
     1
102
RTVSPropertyOp12
 70
     1
102
RTVSPropertyOp13
 70
     1
102
RTVSPropertyOp14
 70
     1
102
RTVSPropertyOp15
 70
     1
102
RTVSPropertyOp16
 70
     1
102
RTVSPropertyOp17
 70
     1
102
RTVSPropertyOp18
 70
     1
102
RTVSPropertyOp19
 70
     1
102
RTVSPropertyOp20
 70
     1
102
RTVSPropertyOp21
 70
     1
102
RTVSPropertyOp22
 70
     1
102
RTVSPropertyOp23
 70
     1
102
RTVSPropertyOp24
 70
     1
102
RTVSPropertyOp25
 70
     1
102
RTVSPropertyOp26
 70
     1
102
RTVSPropertyOp27
 70
     1
102
RTVSPropertyOp28
 70
     1
102
RTVSPropertyOp29
 70
     1
102
RTVSPropertyOp30
 70
     1
102
RTVSPropertyOp31
 70
     1
102
RTVSPropertyOp32
 70
     1
102
RTVSPropertyOp33
 70
     1
102
RTVSPropertyOp34
 70
     1
102
RTVSPropertyOp35
 70
     1
102
RTVSPropertyOp36
 70
     1
102
RTVSPropertyOp37
 70
     1
102
RTVSPropertyOp38
 70
     1
102
RTVSPropertyOp39
 70
     1
102
RTVSPropertyOp40
 70
     1
102
RTVSPropertyOp41
 70
     1
102
RTVSPropertyOp42
 70
     1
102
RTVSPropertyOp43
 70
     1
102
RTVSPropertyOp44
 70
     1
102
RTVSPropertyOp45
 70
     1
102
RTVSPropertyOp46
 70
     1
102
RTVSPropertyOp47
 70
     1
102
RTVSPropertyOp48
 70
     1
102
RTVSPropertyOp49
 70
     1
102
RTVSPropertyOp50
 70
     1
102
RTVSPropertyOp51
 70
     0
102
RTVSPropertyOp52
 70
     0
102
RTVSPropertyOp53
 70
     1
102
RTVSPropertyOp54
 70
     1
102
RTVSPropertyOp55
 70
     1
102
RTVSPropertyOp56
 70
     1
102
RTVSPropertyOp57
 70
     1
102
RTVSPropertyOp58
 70
     1
102
RTVSPropertyOp59
 70
     1
102
RTVSPropertyOp60
 70
     1
102
RTVSPropertyOp61
 70
     1
102
RTVSPropertyOp62
 70
     1
  0
XRECORD
  5
B454
102
{ACAD_REACTORS
330
B453
102
}
330
B453
100
AcDbXrecord
280
     1
102
RTVSPost2010Prop28
280
     0
102
RTVSPost2010PropOp28
 70
     1
102
RTVSPost2010Prop29
280
     1
102
RTVSPost2010PropOp29
 70
     1
102
RTVSPost2010Prop30
280
     1
102
RTVSPost2010PropOp30
 70
     1
102
RTVSPost2010Prop31
280
     0
102
RTVSPost2010PropOp31
 70
     1
102
RTVSPost2010Prop32
280
     0
102
RTVSPost2010PropOp32
 70
     1
102
RTVSPost2010Prop33
280
     0
102
RTVSPost2010PropOp33
 70
     1
102
RTVSPost2010Prop34
280
     0
102
RTVSPost2010PropOp34
 70
     1
102
RTVSPost2010Prop35
280
     0
102
RTVSPost2010PropOp35
 70
     1
102
RTVSPost2010Prop36
280
     0
102
RTVSPost2010PropOp36
 70
     1
102
RTVSPost2010Prop37
 90
       50
102
RTVSPost2010PropOp37
 70
     0
102
RTVSPost2010Prop38
140
0.0
102
RTVSPost2010PropOp38
 70
     0
102
RTVSPost2010Prop39
140
1.0
102
RTVSPost2010PropOp39
 70
     0
102
RTVSPost2010Prop40
 90
        0
102
RTVSPost2010PropOp40
 70
     0
102
RTVSPost2010Prop41ColorIndex
 90
       18
102
RTVSPost2010Prop41ColorRGB
 90
        0
102
RTVSPost2010PropOp41
 70
     0
102
RTVSPost2010Prop42
 90
       50
102
RTVSPost2010PropOp42
 70
     0
102
RTVSPost2010Prop43
 90
        3
102
RTVSPost2010PropOp43
 70
     0
102
RTVSPost2010Prop44ColorIndex
 90
        5
102
RTVSPost2010Prop44ColorRGB
 90
      255
102
RTVSPost2010PropOp44
 70
     0
102
RTVSPost2010Prop45
280
     0
102
RTVSPost2010PropOp45
 70
     1
102
RTVSPost2010Prop46
 90
       50
102
RTVSPost2010PropOp46
 70
     0
102
RTVSPost2010Prop47
 90
       50
102
RTVSPost2010PropOp47
 70
     0
102
RTVSPost2010Prop48
 90
       50
102
RTVSPost2010PropOp48
 70
     0
102
RTVSPost2010Prop49
280
     0
102
RTVSPost2010PropOp49
 70
     1
102
RTVSPost2010Prop50
 90
       50
102
RTVSPost2010PropOp50
 70
     0
102
RTVSPost2010Prop51ColorIndex
 90
      256
102
RTVSPost2010Prop51ColorRGB
 90
-16777216
102
RTVSPost2010PropOp51
 70
     0
102
RTVSPost2010Prop52
140
1.0
102
RTVSPost2010PropOp52
 70
     0
102
RTVSPost2010Prop53
 90
        2
102
RTVSPost2010PropOp53
 70
     0
102
RTVSPost2010Prop54
  1
strokes_ogs.tif
102
RTVSPost2010PropOp54
 70
     0
102
RTVSPost2010Prop55
280
     0
102
RTVSPost2010PropOp55
 70
     1
102
RTVSPost2010Prop56
140
1.0
102
RTVSPost2010PropOp56
 70
     0
102
RTVSPost2010Prop57
140
1.0
102
RTVSPost2010PropOp57
 70
     0
102
RTVSPropertyOp0
 70
     0
102
RTVSPropertyOp1
 70
     0
102
RTVSPropertyOp2
 70
     0
102
RTVSPropertyOp3
 70
     0
102
RTVSPropertyOp4
 70
     0
102
RTVSPropertyOp5
 70
     0
102
RTVSPropertyOp6
 70
     0
102
RTVSPropertyOp7
 70
     0
102
RTVSPropertyOp8
 70
     0
102
RTVSPropertyOp9
 70
     0
102
RTVSPropertyOp10
 70
     0
102
RTVSPropertyOp11
 70
     0
102
RTVSPropertyOp12
 70
     0
102
RTVSPropertyOp13
 70
     0
102
RTVSPropertyOp14
 70
     2
102
RTVSPropertyOp15
 70
     0
102
RTVSPropertyOp16
 70
     0
102
RTVSPropertyOp17
 70
     0
102
RTVSPropertyOp18
 70
     0
102
RTVSPropertyOp19
 70
     0
102
RTVSPropertyOp20
 70
     0
102
RTVSPropertyOp21
 70
     0
102
RTVSPropertyOp22
 70
     0
102
RTVSPropertyOp23
 70
     0
102
RTVSPropertyOp24
 70
     0
102
RTVSPropertyOp25
 70
     0
102
RTVSPropertyOp26
 70
     0
102
RTVSPropertyOp27
 70
     0
102
RTVSPropertyOp28
 70
     1
102
RTVSPropertyOp29
 70
     1
102
RTVSPropertyOp30
 70
     1
102
RTVSPropertyOp31
 70
     1
102
RTVSPropertyOp32
 70
     1
102
RTVSPropertyOp33
 70
     1
102
RTVSPropertyOp34
 70
     1
102
RTVSPropertyOp35
 70
     1
102
RTVSPropertyOp36
 70
     1
102
RTVSPropertyOp37
 70
     0
102
RTVSPropertyOp38
 70
     0
102
RTVSPropertyOp39
 70
     0
102
RTVSPropertyOp40
 70
     0
102
RTVSPropertyOp41
 70
     0
102
RTVSPropertyOp42
 70
     0
102
RTVSPropertyOp43
 70
     0
102
RTVSPropertyOp44
 70
     0
102
RTVSPropertyOp45
 70
     1
102
RTVSPropertyOp46
 70
     0
102
RTVSPropertyOp47
 70
     0
102
RTVSPropertyOp48
 70
     0
102
RTVSPropertyOp49
 70
     1
102
RTVSPropertyOp50
 70
     0
102
RTVSPropertyOp51
 70
     0
102
RTVSPropertyOp52
 70
     0
102
RTVSPropertyOp53
 70
     0
102
RTVSPropertyOp54
 70
     0
102
RTVSPropertyOp55
 70
     1
102
RTVSPropertyOp56
 70
     0
102
RTVSPropertyOp57
 70
     0
102
RTVSPropertyOp58
 70
     0
102
RTVSPropertyOp59
 70
     0
102
RTVSPropertyOp60
 70
     0
102
RTVSPropertyOp61
 70
     0
102
RTVSPropertyOp62
 70
     0
  0
XRECORD
  5
B444
102
{ACAD_REACTORS
330
B443
102
}
330
B443
100
AcDbXrecord
280
     1
102
RTVSPost2010Prop28
280
     0
102
RTVSPost2010PropOp28
 70
     1
102
RTVSPost2010Prop29
280
     1
102
RTVSPost2010PropOp29
 70
     1
102
RTVSPost2010Prop30
280
     1
102
RTVSPost2010PropOp30
 70
     1
102
RTVSPost2010Prop31
280
     0
102
RTVSPost2010PropOp31
 70
     1
102
RTVSPost2010Prop32
280
     0
102
RTVSPost2010PropOp32
 70
     1
102
RTVSPost2010Prop33
280
     0
102
RTVSPost2010PropOp33
 70
     1
102
RTVSPost2010Prop34
280
     0
102
RTVSPost2010PropOp34
 70
     1
102
RTVSPost2010Prop35
280
     0
102
RTVSPost2010PropOp35
 70
     1
102
RTVSPost2010Prop36
280
     0
102
RTVSPost2010PropOp36
 70
     1
102
RTVSPost2010Prop37
 90
       50
102
RTVSPost2010PropOp37
 70
     1
102
RTVSPost2010Prop38
140
0.0
102
RTVSPost2010PropOp38
 70
     1
102
RTVSPost2010Prop39
140
1.0
102
RTVSPost2010PropOp39
 70
     1
102
RTVSPost2010Prop40
 90
        0
102
RTVSPost2010PropOp40
 70
     1
102
RTVSPost2010Prop41ColorIndex
 90
       18
102
RTVSPost2010Prop41ColorRGB
 90
        0
102
RTVSPost2010PropOp41
 70
     1
102
RTVSPost2010Prop42
 90
       50
102
RTVSPost2010PropOp42
 70
     1
102
RTVSPost2010Prop43
 90
        3
102
RTVSPost2010PropOp43
 70
     1
102
RTVSPost2010Prop44ColorIndex
 90
        5
102
RTVSPost2010Prop44ColorRGB
 90
      255
102
RTVSPost2010PropOp44
 70
     1
102
RTVSPost2010Prop45
280
     0
102
RTVSPost2010PropOp45
 70
     1
102
RTVSPost2010Prop46
 90
       50
102
RTVSPost2010PropOp46
 70
     1
102
RTVSPost2010Prop47
 90
       50
102
RTVSPost2010PropOp47
 70
     1
102
RTVSPost2010Prop48
 90
       50
102
RTVSPost2010PropOp48
 70
     1
102
RTVSPost2010Prop49
280
     0
102
RTVSPost2010PropOp49
 70
     1
102
RTVSPost2010Prop50
 90
       50
102
RTVSPost2010PropOp50
 70
     1
102
RTVSPost2010Prop51ColorIndex
 90
      256
102
RTVSPost2010Prop51ColorRGB
 90
-16777216
102
RTVSPost2010PropOp51
 70
     0
102
RTVSPost2010Prop52
140
1.0
102
RTVSPost2010PropOp52
 70
     0
102
RTVSPost2010Prop53
 90
        2
102
RTVSPost2010PropOp53
 70
     1
102
RTVSPost2010Prop54
  1
strokes_ogs.tif
102
RTVSPost2010PropOp54
 70
     1
102
RTVSPost2010Prop55
280
     0
102
RTVSPost2010PropOp55
 70
     1
102
RTVSPost2010Prop56
140
1.0
102
RTVSPost2010PropOp56
 70
     1
102
RTVSPost2010Prop57
140
1.0
102
RTVSPost2010PropOp57
 70
     1
102
RTVSPropertyOp0
 70
     1
102
RTVSPropertyOp1
 70
     1
102
RTVSPropertyOp2
 70
     1
102
RTVSPropertyOp3
 70
     1
102
RTVSPropertyOp4
 70
     1
102
RTVSPropertyOp5
 70
     1
102
RTVSPropertyOp6
 70
     1
102
RTVSPropertyOp7
 70
     1
102
RTVSPropertyOp8
 70
     1
102
RTVSPropertyOp9
 70
     1
102
RTVSPropertyOp10
 70
     1
102
RTVSPropertyOp11
 70
     1
102
RTVSPropertyOp12
 70
     1
102
RTVSPropertyOp13
 70
     1
102
RTVSPropertyOp14
 70
     1
102
RTVSPropertyOp15
 70
     1
102
RTVSPropertyOp16
 70
     1
102
RTVSPropertyOp17
 70
     1
102
RTVSPropertyOp18
 70
     1
102
RTVSPropertyOp19
 70
     1
102
RTVSPropertyOp20
 70
     1
102
RTVSPropertyOp21
 70
     1
102
RTVSPropertyOp22
 70
     1
102
RTVSPropertyOp23
 70
     1
102
RTVSPropertyOp24
 70
     1
102
RTVSPropertyOp25
 70
     1
102
RTVSPropertyOp26
 70
     1
102
RTVSPropertyOp27
 70
     1
102
RTVSPropertyOp28
 70
     1
102
RTVSPropertyOp29
 70
     1
102
RTVSPropertyOp30
 70
     1
102
RTVSPropertyOp31
 70
     1
102
RTVSPropertyOp32
 70
     1
102
RTVSPropertyOp33
 70
     1
102
RTVSPropertyOp34
 70
     1
102
RTVSPropertyOp35
 70
     1
102
RTVSPropertyOp36
 70
     1
102
RTVSPropertyOp37
 70
     1
102
RTVSPropertyOp38
 70
     1
102
RTVSPropertyOp39
 70
     1
102
RTVSPropertyOp40
 70
     1
102
RTVSPropertyOp41
 70
     1
102
RTVSPropertyOp42
 70
     1
102
RTVSPropertyOp43
 70
     1
102
RTVSPropertyOp44
 70
     1
102
RTVSPropertyOp45
 70
     1
102
RTVSPropertyOp46
 70
     1
102
RTVSPropertyOp47
 70
     1
102
RTVSPropertyOp48
 70
     1
102
RTVSPropertyOp49
 70
     1
102
RTVSPropertyOp50
 70
     1
102
RTVSPropertyOp51
 70
     0
102
RTVSPropertyOp52
 70
     0
102
RTVSPropertyOp53
 70
     1
102
RTVSPropertyOp54
 70
     1
102
RTVSPropertyOp55
 70
     1
102
RTVSPropertyOp56
 70
     1
102
RTVSPropertyOp57
 70
     1
102
RTVSPropertyOp58
 70
     1
102
RTVSPropertyOp59
 70
     1
102
RTVSPropertyOp60
 70
     1
102
RTVSPropertyOp61
 70
     1
102
RTVSPropertyOp62
 70
     1
  0
XRECORD
  5
B456
102
{ACAD_REACTORS
330
B455
102
}
330
B455
100
AcDbXrecord
280
     1
102
RTVSPost2010Prop28
280
     0
102
RTVSPost2010PropOp28
 70
     1
102
RTVSPost2010Prop29
280
     1
102
RTVSPost2010PropOp29
 70
     1
102
RTVSPost2010Prop30
280
     1
102
RTVSPost2010PropOp30
 70
     1
102
RTVSPost2010Prop31
280
     0
102
RTVSPost2010PropOp31
 70
     1
102
RTVSPost2010Prop32
280
     0
102
RTVSPost2010PropOp32
 70
     1
102
RTVSPost2010Prop33
280
     0
102
RTVSPost2010PropOp33
 70
     1
102
RTVSPost2010Prop34
280
     0
102
RTVSPost2010PropOp34
 70
     1
102
RTVSPost2010Prop35
280
     0
102
RTVSPost2010PropOp35
 70
     1
102
RTVSPost2010Prop36
280
     0
102
RTVSPost2010PropOp36
 70
     1
102
RTVSPost2010Prop37
 90
       50
102
RTVSPost2010PropOp37
 70
     0
102
RTVSPost2010Prop38
140
0.0
102
RTVSPost2010PropOp38
 70
     0
102
RTVSPost2010Prop39
140
1.0
102
RTVSPost2010PropOp39
 70
     0
102
RTVSPost2010Prop40
 90
        0
102
RTVSPost2010PropOp40
 70
     0
102
RTVSPost2010Prop41ColorIndex
 90
       18
102
RTVSPost2010Prop41ColorRGB
 90
        0
102
RTVSPost2010PropOp41
 70
     0
102
RTVSPost2010Prop42
 90
       50
102
RTVSPost2010PropOp42
 70
     0
102
RTVSPost2010Prop43
 90
        3
102
RTVSPost2010PropOp43
 70
     0
102
RTVSPost2010Prop44ColorIndex
 90
        5
102
RTVSPost2010Prop44ColorRGB
 90
      255
102
RTVSPost2010PropOp44
 70
     0
102
RTVSPost2010Prop45
280
     0
102
RTVSPost2010PropOp45
 70
     1
102
RTVSPost2010Prop46
 90
       50
102
RTVSPost2010PropOp46
 70
     0
102
RTVSPost2010Prop47
 90
       50
102
RTVSPost2010PropOp47
 70
     0
102
RTVSPost2010Prop48
 90
       50
102
RTVSPost2010PropOp48
 70
     0
102
RTVSPost2010Prop49
280
     0
102
RTVSPost2010PropOp49
 70
     1
102
RTVSPost2010Prop50
 90
       50
102
RTVSPost2010PropOp50
 70
     0
102
RTVSPost2010Prop51ColorIndex
 90
      256
102
RTVSPost2010Prop51ColorRGB
 90
-16777216
102
RTVSPost2010PropOp51
 70
     0
102
RTVSPost2010Prop52
140
1.0
102
RTVSPost2010PropOp52
 70
     0
102
RTVSPost2010Prop53
 90
        2
102
RTVSPost2010PropOp53
 70
     0
102
RTVSPost2010Prop54
  1
strokes_ogs.tif
102
RTVSPost2010PropOp54
 70
     0
102
RTVSPost2010Prop55
280
     0
102
RTVSPost2010PropOp55
 70
     1
102
RTVSPost2010Prop56
140
1.0
102
RTVSPost2010PropOp56
 70
     0
102
RTVSPost2010Prop57
140
1.0
102
RTVSPost2010PropOp57
 70
     0
102
RTVSPropertyOp0
 70
     0
102
RTVSPropertyOp1
 70
     0
102
RTVSPropertyOp2
 70
     0
102
RTVSPropertyOp3
 70
     0
102
RTVSPropertyOp4
 70
     0
102
RTVSPropertyOp5
 70
     0
102
RTVSPropertyOp6
 70
     0
102
RTVSPropertyOp7
 70
     0
102
RTVSPropertyOp8
 70
     0
102
RTVSPropertyOp9
 70
     0
102
RTVSPropertyOp10
 70
     0
102
RTVSPropertyOp11
 70
     0
102
RTVSPropertyOp12
 70
     0
102
RTVSPropertyOp13
 70
     0
102
RTVSPropertyOp14
 70
     2
102
RTVSPropertyOp15
 70
     0
102
RTVSPropertyOp16
 70
     0
102
RTVSPropertyOp17
 70
     0
102
RTVSPropertyOp18
 70
     0
102
RTVSPropertyOp19
 70
     0
102
RTVSPropertyOp20
 70
     0
102
RTVSPropertyOp21
 70
     0
102
RTVSPropertyOp22
 70
     0
102
RTVSPropertyOp23
 70
     0
102
RTVSPropertyOp24
 70
     0
102
RTVSPropertyOp25
 70
     0
102
RTVSPropertyOp26
 70
     0
102
RTVSPropertyOp27
 70
     0
102
RTVSPropertyOp28
 70
     1
102
RTVSPropertyOp29
 70
     1
102
RTVSPropertyOp30
 70
     1
102
RTVSPropertyOp31
 70
     1
102
RTVSPropertyOp32
 70
     1
102
RTVSPropertyOp33
 70
     1
102
RTVSPropertyOp34
 70
     1
102
RTVSPropertyOp35
 70
     1
102
RTVSPropertyOp36
 70
     1
102
RTVSPropertyOp37
 70
     0
102
RTVSPropertyOp38
 70
     0
102
RTVSPropertyOp39
 70
     0
102
RTVSPropertyOp40
 70
     0
102
RTVSPropertyOp41
 70
     0
102
RTVSPropertyOp42
 70
     0
102
RTVSPropertyOp43
 70
     0
102
RTVSPropertyOp44
 70
     0
102
RTVSPropertyOp45
 70
     1
102
RTVSPropertyOp46
 70
     0
102
RTVSPropertyOp47
 70
     0
102
RTVSPropertyOp48
 70
     0
102
RTVSPropertyOp49
 70
     1
102
RTVSPropertyOp50
 70
     0
102
RTVSPropertyOp51
 70
     0
102
RTVSPropertyOp52
 70
     0
102
RTVSPropertyOp53
 70
     0
102
RTVSPropertyOp54
 70
     0
102
RTVSPropertyOp55
 70
     1
102
RTVSPropertyOp56
 70
     0
102
RTVSPropertyOp57
 70
     0
102
RTVSPropertyOp58
 70
     0
102
RTVSPropertyOp59
 70
     0
102
RTVSPropertyOp60
 70
     0
102
RTVSPropertyOp61
 70
     0
102
RTVSPropertyOp62
 70
     0
  0
XRECORD
  5
B43C
102
{ACAD_REACTORS
330
B43B
102
}
330
B43B
100
AcDbXrecord
280
     1
102
RTVSPost2010Prop28
280
     0
102
RTVSPost2010PropOp28
 70
     1
102
RTVSPost2010Prop29
280
     1
102
RTVSPost2010PropOp29
 70
     1
102
RTVSPost2010Prop30
280
     1
102
RTVSPost2010PropOp30
 70
     1
102
RTVSPost2010Prop31
280
     0
102
RTVSPost2010PropOp31
 70
     1
102
RTVSPost2010Prop32
280
     0
102
RTVSPost2010PropOp32
 70
     1
102
RTVSPost2010Prop33
280
     0
102
RTVSPost2010PropOp33
 70
     1
102
RTVSPost2010Prop34
280
     0
102
RTVSPost2010PropOp34
 70
     1
102
RTVSPost2010Prop35
280
     0
102
RTVSPost2010PropOp35
 70
     1
102
RTVSPost2010Prop36
280
     0
102
RTVSPost2010PropOp36
 70
     1
102
RTVSPost2010Prop37
 90
       50
102
RTVSPost2010PropOp37
 70
     1
102
RTVSPost2010Prop38
140
0.0
102
RTVSPost2010PropOp38
 70
     1
102
RTVSPost2010Prop39
140
1.0
102
RTVSPost2010PropOp39
 70
     1
102
RTVSPost2010Prop40
 90
        0
102
RTVSPost2010PropOp40
 70
     1
102
RTVSPost2010Prop41ColorIndex
 90
       18
102
RTVSPost2010Prop41ColorRGB
 90
        0
102
RTVSPost2010PropOp41
 70
     1
102
RTVSPost2010Prop42
 90
       50
102
RTVSPost2010PropOp42
 70
     1
102
RTVSPost2010Prop43
 90
        3
102
RTVSPost2010PropOp43
 70
     1
102
RTVSPost2010Prop44ColorIndex
 90
        5
102
RTVSPost2010Prop44ColorRGB
 90
      255
102
RTVSPost2010PropOp44
 70
     1
102
RTVSPost2010Prop45
280
     0
102
RTVSPost2010PropOp45
 70
     1
102
RTVSPost2010Prop46
 90
       50
102
RTVSPost2010PropOp46
 70
     1
102
RTVSPost2010Prop47
 90
       50
102
RTVSPost2010PropOp47
 70
     1
102
RTVSPost2010Prop48
 90
       50
102
RTVSPost2010PropOp48
 70
     1
102
RTVSPost2010Prop49
280
     0
102
RTVSPost2010PropOp49
 70
     1
102
RTVSPost2010Prop50
 90
       50
102
RTVSPost2010PropOp50
 70
     1
102
RTVSPost2010Prop51ColorIndex
 90
      256
102
RTVSPost2010Prop51ColorRGB
 90
-16777216
102
RTVSPost2010PropOp51
 70
     0
102
RTVSPost2010Prop52
140
1.0
102
RTVSPost2010PropOp52
 70
     0
102
RTVSPost2010Prop53
 90
        2
102
RTVSPost2010PropOp53
 70
     1
102
RTVSPost2010Prop54
  1
strokes_ogs.tif
102
RTVSPost2010PropOp54
 70
     1
102
RTVSPost2010Prop55
280
     0
102
RTVSPost2010PropOp55
 70
     1
102
RTVSPost2010Prop56
140
1.0
102
RTVSPost2010PropOp56
 70
     1
102
RTVSPost2010Prop57
140
1.0
102
RTVSPost2010PropOp57
 70
     1
102
RTVSPropertyOp0
 70
     1
102
RTVSPropertyOp1
 70
     1
102
RTVSPropertyOp2
 70
     1
102
RTVSPropertyOp3
 70
     1
102
RTVSPropertyOp4
 70
     1
102
RTVSPropertyOp5
 70
     1
102
RTVSPropertyOp6
 70
     1
102
RTVSPropertyOp7
 70
     1
102
RTVSPropertyOp8
 70
     1
102
RTVSPropertyOp9
 70
     1
102
RTVSPropertyOp10
 70
     1
102
RTVSPropertyOp11
 70
     1
102
RTVSPropertyOp12
 70
     1
102
RTVSPropertyOp13
 70
     1
102
RTVSPropertyOp14
 70
     1
102
RTVSPropertyOp15
 70
     1
102
RTVSPropertyOp16
 70
     1
102
RTVSPropertyOp17
 70
     1
102
RTVSPropertyOp18
 70
     1
102
RTVSPropertyOp19
 70
     1
102
RTVSPropertyOp20
 70
     1
102
RTVSPropertyOp21
 70
     1
102
RTVSPropertyOp22
 70
     1
102
RTVSPropertyOp23
 70
     1
102
RTVSPropertyOp24
 70
     1
102
RTVSPropertyOp25
 70
     1
102
RTVSPropertyOp26
 70
     1
102
RTVSPropertyOp27
 70
     1
102
RTVSPropertyOp28
 70
     1
102
RTVSPropertyOp29
 70
     1
102
RTVSPropertyOp30
 70
     1
102
RTVSPropertyOp31
 70
     1
102
RTVSPropertyOp32
 70
     1
102
RTVSPropertyOp33
 70
     1
102
RTVSPropertyOp34
 70
     1
102
RTVSPropertyOp35
 70
     1
102
RTVSPropertyOp36
 70
     1
102
RTVSPropertyOp37
 70
     1
102
RTVSPropertyOp38
 70
     1
102
RTVSPropertyOp39
 70
     1
102
RTVSPropertyOp40
 70
     1
102
RTVSPropertyOp41
 70
     1
102
RTVSPropertyOp42
 70
     1
102
RTVSPropertyOp43
 70
     1
102
RTVSPropertyOp44
 70
     1
102
RTVSPropertyOp45
 70
     1
102
RTVSPropertyOp46
 70
     1
102
RTVSPropertyOp47
 70
     1
102
RTVSPropertyOp48
 70
     1
102
RTVSPropertyOp49
 70
     1
102
RTVSPropertyOp50
 70
     1
102
RTVSPropertyOp51
 70
     0
102
RTVSPropertyOp52
 70
     0
102
RTVSPropertyOp53
 70
     1
102
RTVSPropertyOp54
 70
     1
102
RTVSPropertyOp55
 70
     1
102
RTVSPropertyOp56
 70
     1
102
RTVSPropertyOp57
 70
     1
102
RTVSPropertyOp58
 70
     1
102
RTVSPropertyOp59
 70
     1
102
RTVSPropertyOp60
 70
     1
102
RTVSPropertyOp61
 70
     1
102
RTVSPropertyOp62
 70
     1
  0
XRECORD
  5
B452
102
{ACAD_REACTORS
330
B451
102
}
330
B451
100
AcDbXrecord
280
     1
102
RTVSPost2010Prop28
280
     0
102
RTVSPost2010PropOp28
 70
     1
102
RTVSPost2010Prop29
280
     1
102
RTVSPost2010PropOp29
 70
     1
102
RTVSPost2010Prop30
280
     1
102
RTVSPost2010PropOp30
 70
     1
102
RTVSPost2010Prop31
280
     0
102
RTVSPost2010PropOp31
 70
     1
102
RTVSPost2010Prop32
280
     0
102
RTVSPost2010PropOp32
 70
     1
102
RTVSPost2010Prop33
280
     0
102
RTVSPost2010PropOp33
 70
     1
102
RTVSPost2010Prop34
280
     0
102
RTVSPost2010PropOp34
 70
     1
102
RTVSPost2010Prop35
280
     0
102
RTVSPost2010PropOp35
 70
     1
102
RTVSPost2010Prop36
280
     0
102
RTVSPost2010PropOp36
 70
     1
102
RTVSPost2010Prop37
 90
       50
102
RTVSPost2010PropOp37
 70
     1
102
RTVSPost2010Prop38
140
0.0
102
RTVSPost2010PropOp38
 70
     1
102
RTVSPost2010Prop39
140
1.0
102
RTVSPost2010PropOp39
 70
     1
102
RTVSPost2010Prop40
 90
        0
102
RTVSPost2010PropOp40
 70
     1
102
RTVSPost2010Prop41ColorIndex
 90
       18
102
RTVSPost2010Prop41ColorRGB
 90
        0
102
RTVSPost2010PropOp41
 70
     1
102
RTVSPost2010Prop42
 90
       50
102
RTVSPost2010PropOp42
 70
     1
102
RTVSPost2010Prop43
 90
        3
102
RTVSPost2010PropOp43
 70
     1
102
RTVSPost2010Prop44ColorIndex
 90
        5
102
RTVSPost2010Prop44ColorRGB
 90
      255
102
RTVSPost2010PropOp44
 70
     1
102
RTVSPost2010Prop45
280
     0
102
RTVSPost2010PropOp45
 70
     1
102
RTVSPost2010Prop46
 90
       50
102
RTVSPost2010PropOp46
 70
     1
102
RTVSPost2010Prop47
 90
       50
102
RTVSPost2010PropOp47
 70
     1
102
RTVSPost2010Prop48
 90
       50
102
RTVSPost2010PropOp48
 70
     1
102
RTVSPost2010Prop49
280
     0
102
RTVSPost2010PropOp49
 70
     1
102
RTVSPost2010Prop50
 90
       50
102
RTVSPost2010PropOp50
 70
     1
102
RTVSPost2010Prop51ColorIndex
 90
      256
102
RTVSPost2010Prop51ColorRGB
 90
-16777216
102
RTVSPost2010PropOp51
 70
     0
102
RTVSPost2010Prop52
140
1.0
102
RTVSPost2010PropOp52
 70
     0
102
RTVSPost2010Prop53
 90
        2
102
RTVSPost2010PropOp53
 70
     1
102
RTVSPost2010Prop54
  1
strokes_ogs.tif
102
RTVSPost2010PropOp54
 70
     1
102
RTVSPost2010Prop55
280
     0
102
RTVSPost2010PropOp55
 70
     1
102
RTVSPost2010Prop56
140
1.0
102
RTVSPost2010PropOp56
 70
     1
102
RTVSPost2010Prop57
140
1.0
102
RTVSPost2010PropOp57
 70
     1
102
RTVSPropertyOp0
 70
     1
102
RTVSPropertyOp1
 70
     1
102
RTVSPropertyOp2
 70
     1
102
RTVSPropertyOp3
 70
     1
102
RTVSPropertyOp4
 70
     1
102
RTVSPropertyOp5
 70
     1
102
RTVSPropertyOp6
 70
     1
102
RTVSPropertyOp7
 70
     1
102
RTVSPropertyOp8
 70
     1
102
RTVSPropertyOp9
 70
     1
102
RTVSPropertyOp10
 70
     1
102
RTVSPropertyOp11
 70
     1
102
RTVSPropertyOp12
 70
     1
102
RTVSPropertyOp13
 70
     1
102
RTVSPropertyOp14
 70
     1
102
RTVSPropertyOp15
 70
     1
102
RTVSPropertyOp16
 70
     1
102
RTVSPropertyOp17
 70
     1
102
RTVSPropertyOp18
 70
     1
102
RTVSPropertyOp19
 70
     1
102
RTVSPropertyOp20
 70
     1
102
RTVSPropertyOp21
 70
     1
102
RTVSPropertyOp22
 70
     1
102
RTVSPropertyOp23
 70
     1
102
RTVSPropertyOp24
 70
     1
102
RTVSPropertyOp25
 70
     1
102
RTVSPropertyOp26
 70
     1
102
RTVSPropertyOp27
 70
     1
102
RTVSPropertyOp28
 70
     1
102
RTVSPropertyOp29
 70
     1
102
RTVSPropertyOp30
 70
     1
102
RTVSPropertyOp31
 70
     1
102
RTVSPropertyOp32
 70
     1
102
RTVSPropertyOp33
 70
     1
102
RTVSPropertyOp34
 70
     1
102
RTVSPropertyOp35
 70
     1
102
RTVSPropertyOp36
 70
     1
102
RTVSPropertyOp37
 70
     1
102
RTVSPropertyOp38
 70
     1
102
RTVSPropertyOp39
 70
     1
102
RTVSPropertyOp40
 70
     1
102
RTVSPropertyOp41
 70
     1
102
RTVSPropertyOp42
 70
     1
102
RTVSPropertyOp43
 70
     1
102
RTVSPropertyOp44
 70
     1
102
RTVSPropertyOp45
 70
     1
102
RTVSPropertyOp46
 70
     1
102
RTVSPropertyOp47
 70
     1
102
RTVSPropertyOp48
 70
     1
102
RTVSPropertyOp49
 70
     1
102
RTVSPropertyOp50
 70
     1
102
RTVSPropertyOp51
 70
     0
102
RTVSPropertyOp52
 70
     0
102
RTVSPropertyOp53
 70
     1
102
RTVSPropertyOp54
 70
     1
102
RTVSPropertyOp55
 70
     1
102
RTVSPropertyOp56
 70
     1
102
RTVSPropertyOp57
 70
     1
102
RTVSPropertyOp58
 70
     1
102
RTVSPropertyOp59
 70
     1
102
RTVSPropertyOp60
 70
     1
102
RTVSPropertyOp61
 70
     1
102
RTVSPropertyOp62
 70
     1
  0
XRECORD
  5
B450
102
{ACAD_REACTORS
330
B44F
102
}
330
B44F
100
AcDbXrecord
280
     1
102
RTVSPost2010Prop28
280
     0
102
RTVSPost2010PropOp28
 70
     1
102
RTVSPost2010Prop29
280
     1
102
RTVSPost2010PropOp29
 70
     1
102
RTVSPost2010Prop30
280
     1
102
RTVSPost2010PropOp30
 70
     1
102
RTVSPost2010Prop31
280
     0
102
RTVSPost2010PropOp31
 70
     1
102
RTVSPost2010Prop32
280
     0
102
RTVSPost2010PropOp32
 70
     1
102
RTVSPost2010Prop33
280
     0
102
RTVSPost2010PropOp33
 70
     1
102
RTVSPost2010Prop34
280
     0
102
RTVSPost2010PropOp34
 70
     1
102
RTVSPost2010Prop35
280
     0
102
RTVSPost2010PropOp35
 70
     1
102
RTVSPost2010Prop36
280
     0
102
RTVSPost2010PropOp36
 70
     1
102
RTVSPost2010Prop37
 90
       50
102
RTVSPost2010PropOp37
 70
     1
102
RTVSPost2010Prop38
140
0.0
102
RTVSPost2010PropOp38
 70
     1
102
RTVSPost2010Prop39
140
1.0
102
RTVSPost2010PropOp39
 70
     1
102
RTVSPost2010Prop40
 90
        0
102
RTVSPost2010PropOp40
 70
     1
102
RTVSPost2010Prop41ColorIndex
 90
       18
102
RTVSPost2010Prop41ColorRGB
 90
        0
102
RTVSPost2010PropOp41
 70
     1
102
RTVSPost2010Prop42
 90
       50
102
RTVSPost2010PropOp42
 70
     1
102
RTVSPost2010Prop43
 90
        3
102
RTVSPost2010PropOp43
 70
     1
102
RTVSPost2010Prop44ColorIndex
 90
        5
102
RTVSPost2010Prop44ColorRGB
 90
      255
102
RTVSPost2010PropOp44
 70
     1
102
RTVSPost2010Prop45
280
     0
102
RTVSPost2010PropOp45
 70
     1
102
RTVSPost2010Prop46
 90
       50
102
RTVSPost2010PropOp46
 70
     1
102
RTVSPost2010Prop47
 90
       50
102
RTVSPost2010PropOp47
 70
     1
102
RTVSPost2010Prop48
 90
       50
102
RTVSPost2010PropOp48
 70
     1
102
RTVSPost2010Prop49
280
     0
102
RTVSPost2010PropOp49
 70
     1
102
RTVSPost2010Prop50
 90
       50
102
RTVSPost2010PropOp50
 70
     1
102
RTVSPost2010Prop51ColorIndex
 90
      256
102
RTVSPost2010Prop51ColorRGB
 90
-16777216
102
RTVSPost2010PropOp51
 70
     0
102
RTVSPost2010Prop52
140
1.0
102
RTVSPost2010PropOp52
 70
     0
102
RTVSPost2010Prop53
 90
        2
102
RTVSPost2010PropOp53
 70
     1
102
RTVSPost2010Prop54
  1
strokes_ogs.tif
102
RTVSPost2010PropOp54
 70
     1
102
RTVSPost2010Prop55
280
     0
102
RTVSPost2010PropOp55
 70
     1
102
RTVSPost2010Prop56
140
1.0
102
RTVSPost2010PropOp56
 70
     1
102
RTVSPost2010Prop57
140
1.0
102
RTVSPost2010PropOp57
 70
     1
102
RTVSPropertyOp0
 70
     1
102
RTVSPropertyOp1
 70
     1
102
RTVSPropertyOp2
 70
     1
102
RTVSPropertyOp3
 70
     1
102
RTVSPropertyOp4
 70
     1
102
RTVSPropertyOp5
 70
     1
102
RTVSPropertyOp6
 70
     1
102
RTVSPropertyOp7
 70
     1
102
RTVSPropertyOp8
 70
     1
102
RTVSPropertyOp9
 70
     1
102
RTVSPropertyOp10
 70
     1
102
RTVSPropertyOp11
 70
     1
102
RTVSPropertyOp12
 70
     1
102
RTVSPropertyOp13
 70
     1
102
RTVSPropertyOp14
 70
     1
102
RTVSPropertyOp15
 70
     1
102
RTVSPropertyOp16
 70
     1
102
RTVSPropertyOp17
 70
     1
102
RTVSPropertyOp18
 70
     1
102
RTVSPropertyOp19
 70
     1
102
RTVSPropertyOp20
 70
     1
102
RTVSPropertyOp21
 70
     1
102
RTVSPropertyOp22
 70
     1
102
RTVSPropertyOp23
 70
     1
102
RTVSPropertyOp24
 70
     1
102
RTVSPropertyOp25
 70
     1
102
RTVSPropertyOp26
 70
     1
102
RTVSPropertyOp27
 70
     1
102
RTVSPropertyOp28
 70
     1
102
RTVSPropertyOp29
 70
     1
102
RTVSPropertyOp30
 70
     1
102
RTVSPropertyOp31
 70
     1
102
RTVSPropertyOp32
 70
     1
102
RTVSPropertyOp33
 70
     1
102
RTVSPropertyOp34
 70
     1
102
RTVSPropertyOp35
 70
     1
102
RTVSPropertyOp36
 70
     1
102
RTVSPropertyOp37
 70
     1
102
RTVSPropertyOp38
 70
     1
102
RTVSPropertyOp39
 70
     1
102
RTVSPropertyOp40
 70
     1
102
RTVSPropertyOp41
 70
     1
102
RTVSPropertyOp42
 70
     1
102
RTVSPropertyOp43
 70
     1
102
RTVSPropertyOp44
 70
     1
102
RTVSPropertyOp45
 70
     1
102
RTVSPropertyOp46
 70
     1
102
RTVSPropertyOp47
 70
     1
102
RTVSPropertyOp48
 70
     1
102
RTVSPropertyOp49
 70
     1
102
RTVSPropertyOp50
 70
     1
102
RTVSPropertyOp51
 70
     0
102
RTVSPropertyOp52
 70
     0
102
RTVSPropertyOp53
 70
     1
102
RTVSPropertyOp54
 70
     1
102
RTVSPropertyOp55
 70
     1
102
RTVSPropertyOp56
 70
     1
102
RTVSPropertyOp57
 70
     1
102
RTVSPropertyOp58
 70
     1
102
RTVSPropertyOp59
 70
     1
102
RTVSPropertyOp60
 70
     1
102
RTVSPropertyOp61
 70
     1
102
RTVSPropertyOp62
 70
     1
  0
XRECORD
  5
B44A
102
{ACAD_REACTORS
330
B449
102
}
330
B449
100
AcDbXrecord
280
     1
102
RTVSPost2010Prop28
280
     0
102
RTVSPost2010PropOp28
 70
     1
102
RTVSPost2010Prop29
280
     1
102
RTVSPost2010PropOp29
 70
     1
102
RTVSPost2010Prop30
280
     1
102
RTVSPost2010PropOp30
 70
     1
102
RTVSPost2010Prop31
280
     0
102
RTVSPost2010PropOp31
 70
     1
102
RTVSPost2010Prop32
280
     0
102
RTVSPost2010PropOp32
 70
     1
102
RTVSPost2010Prop33
280
     0
102
RTVSPost2010PropOp33
 70
     1
102
RTVSPost2010Prop34
280
     0
102
RTVSPost2010PropOp34
 70
     1
102
RTVSPost2010Prop35
280
     0
102
RTVSPost2010PropOp35
 70
     1
102
RTVSPost2010Prop36
280
     0
102
RTVSPost2010PropOp36
 70
     1
102
RTVSPost2010Prop37
 90
       50
102
RTVSPost2010PropOp37
 70
     1
102
RTVSPost2010Prop38
140
0.0
102
RTVSPost2010PropOp38
 70
     1
102
RTVSPost2010Prop39
140
1.0
102
RTVSPost2010PropOp39
 70
     1
102
RTVSPost2010Prop40
 90
        0
102
RTVSPost2010PropOp40
 70
     1
102
RTVSPost2010Prop41ColorIndex
 90
       18
102
RTVSPost2010Prop41ColorRGB
 90
        0
102
RTVSPost2010PropOp41
 70
     1
102
RTVSPost2010Prop42
 90
       50
102
RTVSPost2010PropOp42
 70
     1
102
RTVSPost2010Prop43
 90
        3
102
RTVSPost2010PropOp43
 70
     1
102
RTVSPost2010Prop44ColorIndex
 90
        5
102
RTVSPost2010Prop44ColorRGB
 90
      255
102
RTVSPost2010PropOp44
 70
     1
102
RTVSPost2010Prop45
280
     0
102
RTVSPost2010PropOp45
 70
     1
102
RTVSPost2010Prop46
 90
       50
102
RTVSPost2010PropOp46
 70
     1
102
RTVSPost2010Prop47
 90
       50
102
RTVSPost2010PropOp47
 70
     1
102
RTVSPost2010Prop48
 90
       50
102
RTVSPost2010PropOp48
 70
     1
102
RTVSPost2010Prop49
280
     0
102
RTVSPost2010PropOp49
 70
     1
102
RTVSPost2010Prop50
 90
       50
102
RTVSPost2010PropOp50
 70
     1
102
RTVSPost2010Prop51ColorIndex
 90
      256
102
RTVSPost2010Prop51ColorRGB
 90
-16777216
102
RTVSPost2010PropOp51
 70
     0
102
RTVSPost2010Prop52
140
1.0
102
RTVSPost2010PropOp52
 70
     0
102
RTVSPost2010Prop53
 90
        2
102
RTVSPost2010PropOp53
 70
     1
102
RTVSPost2010Prop54
  1
strokes_ogs.tif
102
RTVSPost2010PropOp54
 70
     1
102
RTVSPost2010Prop55
280
     0
102
RTVSPost2010PropOp55
 70
     1
102
RTVSPost2010Prop56
140
1.0
102
RTVSPost2010PropOp56
 70
     1
102
RTVSPost2010Prop57
140
1.0
102
RTVSPost2010PropOp57
 70
     1
102
RTVSPropertyOp0
 70
     1
102
RTVSPropertyOp1
 70
     1
102
RTVSPropertyOp2
 70
     1
102
RTVSPropertyOp3
 70
     1
102
RTVSPropertyOp4
 70
     1
102
RTVSPropertyOp5
 70
     1
102
RTVSPropertyOp6
 70
     1
102
RTVSPropertyOp7
 70
     1
102
RTVSPropertyOp8
 70
     1
102
RTVSPropertyOp9
 70
     1
102
RTVSPropertyOp10
 70
     1
102
RTVSPropertyOp11
 70
     1
102
RTVSPropertyOp12
 70
     1
102
RTVSPropertyOp13
 70
     1
102
RTVSPropertyOp14
 70
     1
102
RTVSPropertyOp15
 70
     1
102
RTVSPropertyOp16
 70
     1
102
RTVSPropertyOp17
 70
     1
102
RTVSPropertyOp18
 70
     1
102
RTVSPropertyOp19
 70
     1
102
RTVSPropertyOp20
 70
     1
102
RTVSPropertyOp21
 70
     1
102
RTVSPropertyOp22
 70
     1
102
RTVSPropertyOp23
 70
     1
102
RTVSPropertyOp24
 70
     1
102
RTVSPropertyOp25
 70
     1
102
RTVSPropertyOp26
 70
     1
102
RTVSPropertyOp27
 70
     1
102
RTVSPropertyOp28
 70
     1
102
RTVSPropertyOp29
 70
     1
102
RTVSPropertyOp30
 70
     1
102
RTVSPropertyOp31
 70
     1
102
RTVSPropertyOp32
 70
     1
102
RTVSPropertyOp33
 70
     1
102
RTVSPropertyOp34
 70
     1
102
RTVSPropertyOp35
 70
     1
102
RTVSPropertyOp36
 70
     1
102
RTVSPropertyOp37
 70
     1
102
RTVSPropertyOp38
 70
     1
102
RTVSPropertyOp39
 70
     1
102
RTVSPropertyOp40
 70
     1
102
RTVSPropertyOp41
 70
     1
102
RTVSPropertyOp42
 70
     1
102
RTVSPropertyOp43
 70
     1
102
RTVSPropertyOp44
 70
     1
102
RTVSPropertyOp45
 70
     1
102
RTVSPropertyOp46
 70
     1
102
RTVSPropertyOp47
 70
     1
102
RTVSPropertyOp48
 70
     1
102
RTVSPropertyOp49
 70
     1
102
RTVSPropertyOp50
 70
     1
102
RTVSPropertyOp51
 70
     0
102
RTVSPropertyOp52
 70
     0
102
RTVSPropertyOp53
 70
     1
102
RTVSPropertyOp54
 70
     1
102
RTVSPropertyOp55
 70
     1
102
RTVSPropertyOp56
 70
     1
102
RTVSPropertyOp57
 70
     1
102
RTVSPropertyOp58
 70
     1
102
RTVSPropertyOp59
 70
     1
102
RTVSPropertyOp60
 70
     1
102
RTVSPropertyOp61
 70
     1
102
RTVSPropertyOp62
 70
     1
  0
XRECORD
  5
B44C
102
{ACAD_REACTORS
330
B44B
102
}
330
B44B
100
AcDbXrecord
280
     1
102
RTVSPost2010Prop28
280
     0
102
RTVSPost2010PropOp28
 70
     1
102
RTVSPost2010Prop29
280
     1
102
RTVSPost2010PropOp29
 70
     1
102
RTVSPost2010Prop30
280
     1
102
RTVSPost2010PropOp30
 70
     1
102
RTVSPost2010Prop31
280
     0
102
RTVSPost2010PropOp31
 70
     1
102
RTVSPost2010Prop32
280
     0
102
RTVSPost2010PropOp32
 70
     1
102
RTVSPost2010Prop33
280
     0
102
RTVSPost2010PropOp33
 70
     1
102
RTVSPost2010Prop34
280
     0
102
RTVSPost2010PropOp34
 70
     1
102
RTVSPost2010Prop35
280
     0
102
RTVSPost2010PropOp35
 70
     1
102
RTVSPost2010Prop36
280
     0
102
RTVSPost2010PropOp36
 70
     1
102
RTVSPost2010Prop37
 90
       50
102
RTVSPost2010PropOp37
 70
     1
102
RTVSPost2010Prop38
140
0.0
102
RTVSPost2010PropOp38
 70
     1
102
RTVSPost2010Prop39
140
1.0
102
RTVSPost2010PropOp39
 70
     1
102
RTVSPost2010Prop40
 90
        0
102
RTVSPost2010PropOp40
 70
     1
102
RTVSPost2010Prop41ColorIndex
 90
       18
102
RTVSPost2010Prop41ColorRGB
 90
        0
102
RTVSPost2010PropOp41
 70
     1
102
RTVSPost2010Prop42
 90
       50
102
RTVSPost2010PropOp42
 70
     1
102
RTVSPost2010Prop43
 90
        3
102
RTVSPost2010PropOp43
 70
     1
102
RTVSPost2010Prop44ColorIndex
 90
        5
102
RTVSPost2010Prop44ColorRGB
 90
      255
102
RTVSPost2010PropOp44
 70
     1
102
RTVSPost2010Prop45
280
     0
102
RTVSPost2010PropOp45
 70
     1
102
RTVSPost2010Prop46
 90
       50
102
RTVSPost2010PropOp46
 70
     1
102
RTVSPost2010Prop47
 90
       50
102
RTVSPost2010PropOp47
 70
     1
102
RTVSPost2010Prop48
 90
       50
102
RTVSPost2010PropOp48
 70
     1
102
RTVSPost2010Prop49
280
     0
102
RTVSPost2010PropOp49
 70
     1
102
RTVSPost2010Prop50
 90
       50
102
RTVSPost2010PropOp50
 70
     1
102
RTVSPost2010Prop51ColorIndex
 90
      256
102
RTVSPost2010Prop51ColorRGB
 90
-16777216
102
RTVSPost2010PropOp51
 70
     0
102
RTVSPost2010Prop52
140
1.0
102
RTVSPost2010PropOp52
 70
     0
102
RTVSPost2010Prop53
 90
        2
102
RTVSPost2010PropOp53
 70
     1
102
RTVSPost2010Prop54
  1
strokes_ogs.tif
102
RTVSPost2010PropOp54
 70
     1
102
RTVSPost2010Prop55
280
     0
102
RTVSPost2010PropOp55
 70
     1
102
RTVSPost2010Prop56
140
1.0
102
RTVSPost2010PropOp56
 70
     1
102
RTVSPost2010Prop57
140
1.0
102
RTVSPost2010PropOp57
 70
     1
102
RTVSPropertyOp0
 70
     1
102
RTVSPropertyOp1
 70
     1
102
RTVSPropertyOp2
 70
     1
102
RTVSPropertyOp3
 70
     1
102
RTVSPropertyOp4
 70
     1
102
RTVSPropertyOp5
 70
     1
102
RTVSPropertyOp6
 70
     1
102
RTVSPropertyOp7
 70
     1
102
RTVSPropertyOp8
 70
     1
102
RTVSPropertyOp9
 70
     1
102
RTVSPropertyOp10
 70
     1
102
RTVSPropertyOp11
 70
     1
102
RTVSPropertyOp12
 70
     1
102
RTVSPropertyOp13
 70
     1
102
RTVSPropertyOp14
 70
     1
102
RTVSPropertyOp15
 70
     1
102
RTVSPropertyOp16
 70
     1
102
RTVSPropertyOp17
 70
     1
102
RTVSPropertyOp18
 70
     1
102
RTVSPropertyOp19
 70
     1
102
RTVSPropertyOp20
 70
     1
102
RTVSPropertyOp21
 70
     1
102
RTVSPropertyOp22
 70
     1
102
RTVSPropertyOp23
 70
     1
102
RTVSPropertyOp24
 70
     1
102
RTVSPropertyOp25
 70
     1
102
RTVSPropertyOp26
 70
     1
102
RTVSPropertyOp27
 70
     1
102
RTVSPropertyOp28
 70
     1
102
RTVSPropertyOp29
 70
     1
102
RTVSPropertyOp30
 70
     1
102
RTVSPropertyOp31
 70
     1
102
RTVSPropertyOp32
 70
     1
102
RTVSPropertyOp33
 70
     1
102
RTVSPropertyOp34
 70
     1
102
RTVSPropertyOp35
 70
     1
102
RTVSPropertyOp36
 70
     1
102
RTVSPropertyOp37
 70
     1
102
RTVSPropertyOp38
 70
     1
102
RTVSPropertyOp39
 70
     1
102
RTVSPropertyOp40
 70
     1
102
RTVSPropertyOp41
 70
     1
102
RTVSPropertyOp42
 70
     1
102
RTVSPropertyOp43
 70
     1
102
RTVSPropertyOp44
 70
     1
102
RTVSPropertyOp45
 70
     1
102
RTVSPropertyOp46
 70
     1
102
RTVSPropertyOp47
 70
     1
102
RTVSPropertyOp48
 70
     1
102
RTVSPropertyOp49
 70
     1
102
RTVSPropertyOp50
 70
     1
102
RTVSPropertyOp51
 70
     0
102
RTVSPropertyOp52
 70
     0
102
RTVSPropertyOp53
 70
     1
102
RTVSPropertyOp54
 70
     1
102
RTVSPropertyOp55
 70
     1
102
RTVSPropertyOp56
 70
     1
102
RTVSPropertyOp57
 70
     1
102
RTVSPropertyOp58
 70
     1
102
RTVSPropertyOp59
 70
     1
102
RTVSPropertyOp60
 70
     1
102
RTVSPropertyOp61
 70
     1
102
RTVSPropertyOp62
 70
     1
  0
XRECORD
  5
B442
102
{ACAD_REACTORS
330
B441
102
}
330
B441
100
AcDbXrecord
280
     1
102
RTVSPost2010Prop28
280
     0
102
RTVSPost2010PropOp28
 70
     1
102
RTVSPost2010Prop29
280
     1
102
RTVSPost2010PropOp29
 70
     1
102
RTVSPost2010Prop30
280
     1
102
RTVSPost2010PropOp30
 70
     1
102
RTVSPost2010Prop31
280
     0
102
RTVSPost2010PropOp31
 70
     1
102
RTVSPost2010Prop32
280
     0
102
RTVSPost2010PropOp32
 70
     1
102
RTVSPost2010Prop33
280
     0
102
RTVSPost2010PropOp33
 70
     1
102
RTVSPost2010Prop34
280
     0
102
RTVSPost2010PropOp34
 70
     1
102
RTVSPost2010Prop35
280
     0
102
RTVSPost2010PropOp35
 70
     1
102
RTVSPost2010Prop36
280
     0
102
RTVSPost2010PropOp36
 70
     1
102
RTVSPost2010Prop37
 90
       50
102
RTVSPost2010PropOp37
 70
     1
102
RTVSPost2010Prop38
140
0.0
102
RTVSPost2010PropOp38
 70
     1
102
RTVSPost2010Prop39
140
1.0
102
RTVSPost2010PropOp39
 70
     1
102
RTVSPost2010Prop40
 90
        0
102
RTVSPost2010PropOp40
 70
     1
102
RTVSPost2010Prop41ColorIndex
 90
       18
102
RTVSPost2010Prop41ColorRGB
 90
        0
102
RTVSPost2010PropOp41
 70
     1
102
RTVSPost2010Prop42
 90
       50
102
RTVSPost2010PropOp42
 70
     1
102
RTVSPost2010Prop43
 90
        3
102
RTVSPost2010PropOp43
 70
     1
102
RTVSPost2010Prop44ColorIndex
 90
        5
102
RTVSPost2010Prop44ColorRGB
 90
      255
102
RTVSPost2010PropOp44
 70
     1
102
RTVSPost2010Prop45
280
     0
102
RTVSPost2010PropOp45
 70
     1
102
RTVSPost2010Prop46
 90
       50
102
RTVSPost2010PropOp46
 70
     1
102
RTVSPost2010Prop47
 90
       50
102
RTVSPost2010PropOp47
 70
     1
102
RTVSPost2010Prop48
 90
       50
102
RTVSPost2010PropOp48
 70
     1
102
RTVSPost2010Prop49
280
     0
102
RTVSPost2010PropOp49
 70
     1
102
RTVSPost2010Prop50
 90
       50
102
RTVSPost2010PropOp50
 70
     1
102
RTVSPost2010Prop51ColorIndex
 90
      256
102
RTVSPost2010Prop51ColorRGB
 90
-16777216
102
RTVSPost2010PropOp51
 70
     0
102
RTVSPost2010Prop52
140
1.0
102
RTVSPost2010PropOp52
 70
     0
102
RTVSPost2010Prop53
 90
        2
102
RTVSPost2010PropOp53
 70
     1
102
RTVSPost2010Prop54
  1
strokes_ogs.tif
102
RTVSPost2010PropOp54
 70
     1
102
RTVSPost2010Prop55
280
     0
102
RTVSPost2010PropOp55
 70
     1
102
RTVSPost2010Prop56
140
1.0
102
RTVSPost2010PropOp56
 70
     1
102
RTVSPost2010Prop57
140
1.0
102
RTVSPost2010PropOp57
 70
     1
102
RTVSPropertyOp0
 70
     1
102
RTVSPropertyOp1
 70
     1
102
RTVSPropertyOp2
 70
     1
102
RTVSPropertyOp3
 70
     1
102
RTVSPropertyOp4
 70
     1
102
RTVSPropertyOp5
 70
     1
102
RTVSPropertyOp6
 70
     1
102
RTVSPropertyOp7
 70
     1
102
RTVSPropertyOp8
 70
     1
102
RTVSPropertyOp9
 70
     1
102
RTVSPropertyOp10
 70
     1
102
RTVSPropertyOp11
 70
     1
102
RTVSPropertyOp12
 70
     1
102
RTVSPropertyOp13
 70
     1
102
RTVSPropertyOp14
 70
     1
102
RTVSPropertyOp15
 70
     1
102
RTVSPropertyOp16
 70
     1
102
RTVSPropertyOp17
 70
     1
102
RTVSPropertyOp18
 70
     1
102
RTVSPropertyOp19
 70
     1
102
RTVSPropertyOp20
 70
     1
102
RTVSPropertyOp21
 70
     1
102
RTVSPropertyOp22
 70
     1
102
RTVSPropertyOp23
 70
     1
102
RTVSPropertyOp24
 70
     1
102
RTVSPropertyOp25
 70
     1
102
RTVSPropertyOp26
 70
     1
102
RTVSPropertyOp27
 70
     1
102
RTVSPropertyOp28
 70
     1
102
RTVSPropertyOp29
 70
     1
102
RTVSPropertyOp30
 70
     1
102
RTVSPropertyOp31
 70
     1
102
RTVSPropertyOp32
 70
     1
102
RTVSPropertyOp33
 70
     1
102
RTVSPropertyOp34
 70
     1
102
RTVSPropertyOp35
 70
     1
102
RTVSPropertyOp36
 70
     1
102
RTVSPropertyOp37
 70
     1
102
RTVSPropertyOp38
 70
     1
102
RTVSPropertyOp39
 70
     1
102
RTVSPropertyOp40
 70
     1
102
RTVSPropertyOp41
 70
     1
102
RTVSPropertyOp42
 70
     1
102
RTVSPropertyOp43
 70
     1
102
RTVSPropertyOp44
 70
     1
102
RTVSPropertyOp45
 70
     1
102
RTVSPropertyOp46
 70
     1
102
RTVSPropertyOp47
 70
     1
102
RTVSPropertyOp48
 70
     1
102
RTVSPropertyOp49
 70
     1
102
RTVSPropertyOp50
 70
     1
102
RTVSPropertyOp51
 70
     0
102
RTVSPropertyOp52
 70
     0
102
RTVSPropertyOp53
 70
     1
102
RTVSPropertyOp54
 70
     1
102
RTVSPropertyOp55
 70
     1
102
RTVSPropertyOp56
 70
     1
102
RTVSPropertyOp57
 70
     1
102
RTVSPropertyOp58
 70
     1
102
RTVSPropertyOp59
 70
     1
102
RTVSPropertyOp60
 70
     1
102
RTVSPropertyOp61
 70
     1
102
RTVSPropertyOp62
 70
     1
  0
XRECORD
  5
B436
102
{ACAD_REACTORS
330
B435
102
}
330
B435
100
AcDbXrecord
280
     1
102
RTVSPost2010Prop28
280
     0
102
RTVSPost2010PropOp28
 70
     1
102
RTVSPost2010Prop29
280
     1
102
RTVSPost2010PropOp29
 70
     1
102
RTVSPost2010Prop30
280
     1
102
RTVSPost2010PropOp30
 70
     1
102
RTVSPost2010Prop31
280
     0
102
RTVSPost2010PropOp31
 70
     1
102
RTVSPost2010Prop32
280
     0
102
RTVSPost2010PropOp32
 70
     1
102
RTVSPost2010Prop33
280
     0
102
RTVSPost2010PropOp33
 70
     1
102
RTVSPost2010Prop34
280
     0
102
RTVSPost2010PropOp34
 70
     1
102
RTVSPost2010Prop35
280
     0
102
RTVSPost2010PropOp35
 70
     1
102
RTVSPost2010Prop36
280
     0
102
RTVSPost2010PropOp36
 70
     1
102
RTVSPost2010Prop37
 90
       50
102
RTVSPost2010PropOp37
 70
     1
102
RTVSPost2010Prop38
140
0.0
102
RTVSPost2010PropOp38
 70
     1
102
RTVSPost2010Prop39
140
1.0
102
RTVSPost2010PropOp39
 70
     1
102
RTVSPost2010Prop40
 90
        0
102
RTVSPost2010PropOp40
 70
     1
102
RTVSPost2010Prop41ColorIndex
 90
       18
102
RTVSPost2010Prop41ColorRGB
 90
        0
102
RTVSPost2010PropOp41
 70
     1
102
RTVSPost2010Prop42
 90
       50
102
RTVSPost2010PropOp42
 70
     1
102
RTVSPost2010Prop43
 90
        3
102
RTVSPost2010PropOp43
 70
     1
102
RTVSPost2010Prop44ColorIndex
 90
        5
102
RTVSPost2010Prop44ColorRGB
 90
      255
102
RTVSPost2010PropOp44
 70
     1
102
RTVSPost2010Prop45
280
     0
102
RTVSPost2010PropOp45
 70
     1
102
RTVSPost2010Prop46
 90
       50
102
RTVSPost2010PropOp46
 70
     1
102
RTVSPost2010Prop47
 90
       50
102
RTVSPost2010PropOp47
 70
     1
102
RTVSPost2010Prop48
 90
       50
102
RTVSPost2010PropOp48
 70
     1
102
RTVSPost2010Prop49
280
     0
102
RTVSPost2010PropOp49
 70
     1
102
RTVSPost2010Prop50
 90
       50
102
RTVSPost2010PropOp50
 70
     1
102
RTVSPost2010Prop51ColorIndex
 90
      256
102
RTVSPost2010Prop51ColorRGB
 90
-16777216
102
RTVSPost2010PropOp51
 70
     0
102
RTVSPost2010Prop52
140
1.0
102
RTVSPost2010PropOp52
 70
     0
102
RTVSPost2010Prop53
 90
        2
102
RTVSPost2010PropOp53
 70
     1
102
RTVSPost2010Prop54
  1
strokes_ogs.tif
102
RTVSPost2010PropOp54
 70
     1
102
RTVSPost2010Prop55
280
     0
102
RTVSPost2010PropOp55
 70
     1
102
RTVSPost2010Prop56
140
1.0
102
RTVSPost2010PropOp56
 70
     1
102
RTVSPost2010Prop57
140
1.0
102
RTVSPost2010PropOp57
 70
     1
102
RTVSPropertyOp0
 70
     1
102
RTVSPropertyOp1
 70
     1
102
RTVSPropertyOp2
 70
     1
102
RTVSPropertyOp3
 70
     1
102
RTVSPropertyOp4
 70
     1
102
RTVSPropertyOp5
 70
     1
102
RTVSPropertyOp6
 70
     1
102
RTVSPropertyOp7
 70
     1
102
RTVSPropertyOp8
 70
     1
102
RTVSPropertyOp9
 70
     1
102
RTVSPropertyOp10
 70
     1
102
RTVSPropertyOp11
 70
     1
102
RTVSPropertyOp12
 70
     1
102
RTVSPropertyOp13
 70
     1
102
RTVSPropertyOp14
 70
     1
102
RTVSPropertyOp15
 70
     1
102
RTVSPropertyOp16
 70
     1
102
RTVSPropertyOp17
 70
     1
102
RTVSPropertyOp18
 70
     1
102
RTVSPropertyOp19
 70
     1
102
RTVSPropertyOp20
 70
     1
102
RTVSPropertyOp21
 70
     1
102
RTVSPropertyOp22
 70
     1
102
RTVSPropertyOp23
 70
     1
102
RTVSPropertyOp24
 70
     1
102
RTVSPropertyOp25
 70
     1
102
RTVSPropertyOp26
 70
     1
102
RTVSPropertyOp27
 70
     1
102
RTVSPropertyOp28
 70
     1
102
RTVSPropertyOp29
 70
     1
102
RTVSPropertyOp30
 70
     1
102
RTVSPropertyOp31
 70
     1
102
RTVSPropertyOp32
 70
     1
102
RTVSPropertyOp33
 70
     1
102
RTVSPropertyOp34
 70
     1
102
RTVSPropertyOp35
 70
     1
102
RTVSPropertyOp36
 70
     1
102
RTVSPropertyOp37
 70
     1
102
RTVSPropertyOp38
 70
     1
102
RTVSPropertyOp39
 70
     1
102
RTVSPropertyOp40
 70
     1
102
RTVSPropertyOp41
 70
     1
102
RTVSPropertyOp42
 70
     1
102
RTVSPropertyOp43
 70
     1
102
RTVSPropertyOp44
 70
     1
102
RTVSPropertyOp45
 70
     1
102
RTVSPropertyOp46
 70
     1
102
RTVSPropertyOp47
 70
     1
102
RTVSPropertyOp48
 70
     1
102
RTVSPropertyOp49
 70
     1
102
RTVSPropertyOp50
 70
     1
102
RTVSPropertyOp51
 70
     0
102
RTVSPropertyOp52
 70
     0
102
RTVSPropertyOp53
 70
     1
102
RTVSPropertyOp54
 70
     1
102
RTVSPropertyOp55
 70
     1
102
RTVSPropertyOp56
 70
     1
102
RTVSPropertyOp57
 70
     1
102
RTVSPropertyOp58
 70
     1
102
RTVSPropertyOp59
 70
     1
102
RTVSPropertyOp60
 70
     1
102
RTVSPropertyOp61
 70
     1
102
RTVSPropertyOp62
 70
     1
  0
XRECORD
  5
B44E
102
{ACAD_REACTORS
330
B44D
102
}
330
B44D
100
AcDbXrecord
280
     1
102
RTVSPost2010Prop28
280
     0
102
RTVSPost2010PropOp28
 70
     1
102
RTVSPost2010Prop29
280
     1
102
RTVSPost2010PropOp29
 70
     1
102
RTVSPost2010Prop30
280
     1
102
RTVSPost2010PropOp30
 70
     1
102
RTVSPost2010Prop31
280
     0
102
RTVSPost2010PropOp31
 70
     1
102
RTVSPost2010Prop32
280
     0
102
RTVSPost2010PropOp32
 70
     1
102
RTVSPost2010Prop33
280
     0
102
RTVSPost2010PropOp33
 70
     1
102
RTVSPost2010Prop34
280
     0
102
RTVSPost2010PropOp34
 70
     1
102
RTVSPost2010Prop35
280
     0
102
RTVSPost2010PropOp35
 70
     1
102
RTVSPost2010Prop36
280
     0
102
RTVSPost2010PropOp36
 70
     1
102
RTVSPost2010Prop37
 90
       50
102
RTVSPost2010PropOp37
 70
     1
102
RTVSPost2010Prop38
140
0.0
102
RTVSPost2010PropOp38
 70
     1
102
RTVSPost2010Prop39
140
1.0
102
RTVSPost2010PropOp39
 70
     1
102
RTVSPost2010Prop40
 90
        0
102
RTVSPost2010PropOp40
 70
     1
102
RTVSPost2010Prop41ColorIndex
 90
       18
102
RTVSPost2010Prop41ColorRGB
 90
        0
102
RTVSPost2010PropOp41
 70
     1
102
RTVSPost2010Prop42
 90
       50
102
RTVSPost2010PropOp42
 70
     1
102
RTVSPost2010Prop43
 90
        3
102
RTVSPost2010PropOp43
 70
     1
102
RTVSPost2010Prop44ColorIndex
 90
        5
102
RTVSPost2010Prop44ColorRGB
 90
      255
102
RTVSPost2010PropOp44
 70
     1
102
RTVSPost2010Prop45
280
     0
102
RTVSPost2010PropOp45
 70
     1
102
RTVSPost2010Prop46
 90
       50
102
RTVSPost2010PropOp46
 70
     1
102
RTVSPost2010Prop47
 90
       50
102
RTVSPost2010PropOp47
 70
     1
102
RTVSPost2010Prop48
 90
       50
102
RTVSPost2010PropOp48
 70
     1
102
RTVSPost2010Prop49
280
     0
102
RTVSPost2010PropOp49
 70
     1
102
RTVSPost2010Prop50
 90
       50
102
RTVSPost2010PropOp50
 70
     1
102
RTVSPost2010Prop51ColorIndex
 90
      256
102
RTVSPost2010Prop51ColorRGB
 90
-16777216
102
RTVSPost2010PropOp51
 70
     0
102
RTVSPost2010Prop52
140
1.0
102
RTVSPost2010PropOp52
 70
     0
102
RTVSPost2010Prop53
 90
        2
102
RTVSPost2010PropOp53
 70
     1
102
RTVSPost2010Prop54
  1
strokes_ogs.tif
102
RTVSPost2010PropOp54
 70
     1
102
RTVSPost2010Prop55
280
     0
102
RTVSPost2010PropOp55
 70
     1
102
RTVSPost2010Prop56
140
1.0
102
RTVSPost2010PropOp56
 70
     1
102
RTVSPost2010Prop57
140
1.0
102
RTVSPost2010PropOp57
 70
     1
102
RTVSPropertyOp0
 70
     1
102
RTVSPropertyOp1
 70
     1
102
RTVSPropertyOp2
 70
     1
102
RTVSPropertyOp3
 70
     1
102
RTVSPropertyOp4
 70
     1
102
RTVSPropertyOp5
 70
     1
102
RTVSPropertyOp6
 70
     1
102
RTVSPropertyOp7
 70
     1
102
RTVSPropertyOp8
 70
     1
102
RTVSPropertyOp9
 70
     1
102
RTVSPropertyOp10
 70
     1
102
RTVSPropertyOp11
 70
     1
102
RTVSPropertyOp12
 70
     1
102
RTVSPropertyOp13
 70
     1
102
RTVSPropertyOp14
 70
     1
102
RTVSPropertyOp15
 70
     1
102
RTVSPropertyOp16
 70
     1
102
RTVSPropertyOp17
 70
     1
102
RTVSPropertyOp18
 70
     1
102
RTVSPropertyOp19
 70
     1
102
RTVSPropertyOp20
 70
     1
102
RTVSPropertyOp21
 70
     1
102
RTVSPropertyOp22
 70
     1
102
RTVSPropertyOp23
 70
     1
102
RTVSPropertyOp24
 70
     1
102
RTVSPropertyOp25
 70
     1
102
RTVSPropertyOp26
 70
     1
102
RTVSPropertyOp27
 70
     1
102
RTVSPropertyOp28
 70
     1
102
RTVSPropertyOp29
 70
     1
102
RTVSPropertyOp30
 70
     1
102
RTVSPropertyOp31
 70
     1
102
RTVSPropertyOp32
 70
     1
102
RTVSPropertyOp33
 70
     1
102
RTVSPropertyOp34
 70
     1
102
RTVSPropertyOp35
 70
     1
102
RTVSPropertyOp36
 70
     1
102
RTVSPropertyOp37
 70
     1
102
RTVSPropertyOp38
 70
     1
102
RTVSPropertyOp39
 70
     1
102
RTVSPropertyOp40
 70
     1
102
RTVSPropertyOp41
 70
     1
102
RTVSPropertyOp42
 70
     1
102
RTVSPropertyOp43
 70
     1
102
RTVSPropertyOp44
 70
     1
102
RTVSPropertyOp45
 70
     1
102
RTVSPropertyOp46
 70
     1
102
RTVSPropertyOp47
 70
     1
102
RTVSPropertyOp48
 70
     1
102
RTVSPropertyOp49
 70
     1
102
RTVSPropertyOp50
 70
     1
102
RTVSPropertyOp51
 70
     0
102
RTVSPropertyOp52
 70
     0
102
RTVSPropertyOp53
 70
     1
102
RTVSPropertyOp54
 70
     1
102
RTVSPropertyOp55
 70
     1
102
RTVSPropertyOp56
 70
     1
102
RTVSPropertyOp57
 70
     1
102
RTVSPropertyOp58
 70
     1
102
RTVSPropertyOp59
 70
     1
102
RTVSPropertyOp60
 70
     1
102
RTVSPropertyOp61
 70
     1
102
RTVSPropertyOp62
 70
     1
  0
ENDSEC
  0
EOF
