  0
SECTION
  2
HEADER
  9
$ACADVER
  1
AC1015
  9
$ACADMAINTVER
 70
    20
  9
$DWGCODEPAGE
  3
ANSI_932
  9
$INSBASE
 10
0.0
 20
0.0
 30
0.0
  9
$EXTMIN
 10
10.0
 20
9.999999999999998
 30
0.0
  9
$EXTMAX
 10
452.9491049999998
 20
338.600764
 30
0.0
  9
$LIMMIN
 10
0.0
 20
0.0
  9
$LIMMAX
 10
536.6514839999998
 20
369.9642799999999
  9
$ORTHOMODE
 70
     1
  9
$REGENMODE
 70
     1
  9
$FILLMODE
 70
     1
  9
$QTEXTMODE
 70
     0
  9
$MIRRTEXT
 70
     1
  9
$LTSCALE
 40
20.0
  9
$ATTMODE
 70
     1
  9
$TEXTSIZE
 40
5.0
  9
$TRACEWID
 40
1.0
  9
$TEXTSTYLE
  7
STANDARD
  9
$CLAYER
  8
0
  9
$CELTYPE
  6
BYLAYER
  9
$CECOLOR
 62
   256
  9
$CELTSCALE
 40
1.0
  9
$DISPSILH
 70
     0
  9
$DIMSCALE
 40
1.0
  9
$DIMASZ
 40
3.0
  9
$DIMEXO
 40
1.0
  9
$DIMDLI
 40
10.0
  9
$DIMRND
 40
0.0
  9
$DIMDLE
 40
0.0
  9
$DIMEXE
 40
1.0
  9
$DIMTP
 40
0.0
  9
$DIMTM
 40
0.0
  9
$DIMTXT
 40
3.2
  9
$DIMCEN
 40
0.0
  9
$DIMTSZ
 40
0.0
  9
$DIMTOL
 70
     0
  9
$DIMLIM
 70
     0
  9
$DIMTIH
 70
     0
  9
$DIMTOH
 70
     0
  9
$DIMSE1
 70
     0
  9
$DIMSE2
 70
     0
  9
$DIMTAD
 70
     3
  9
$DIMZIN
 70
     8
  9
$DIMBLK
  1

  9
$DIMASO
 70
     1
  9
$DIMSHO
 70
     1
  9
$DIMPOST
  1

  9
$DIMAPOST
  1

  9
$DIMALT
 70
     0
  9
$DIMALTD
 70
     2
  9
$DIMALTF
 40
25.4
  9
$DIMLFAC
 40
1.0
  9
$DIMTOFL
 70
     1
  9
$DIMTVP
 40
0.0
  9
$DIMTIX
 70
     0
  9
$DIMSOXD
 70
     0
  9
$DIMSAH
 70
     1
  9
$DIMBLK1
  1
OPEN
  9
$DIMBLK2
  1
OPEN
  9
$DIMSTYLE
  2
STANDARD
  9
$DIMCLRD
 70
     0
  9
$DIMCLRE
 70
     0
  9
$DIMCLRT
 70
     0
  9
$DIMTFAC
 40
1.0
  9
$DIMGAP
 40
1.0
  9
$DIMJUST
 70
     0
  9
$DIMSD1
 70
     0
  9
$DIMSD2
 70
     0
  9
$DIMTOLJ
 70
     1
  9
$DIMTZIN
 70
     0
  9
$DIMALTZ
 70
     0
  9
$DIMALTTZ
 70
     0
  9
$DIMUPT
 70
     0
  9
$DIMDEC
 70
     4
  9
$DIMTDEC
 70
     4
  9
$DIMALTU
 70
     2
  9
$DIMALTTD
 70
     2
  9
$DIMTXSTY
  7
STANDARD
  9
$DIMAUNIT
 70
     0
  9
$DIMADEC
 70
     0
  9
$DIMALTRND
 40
0.0
  9
$DIMAZIN
 70
     0
  9
$DIMDSEP
 70
    46
  9
$DIMATFIT
 70
     3
  9
$DIMFRAC
 70
     0
  9
$DIMLDRBLK
  1
OPEN
  9
$DIMLUNIT
 70
     2
  9
$DIMLWD
 70
    -2
  9
$DIMLWE
 70
    -2
  9
$DIMTMOVE
 70
     0
  9
$LUNITS
 70
     2
  9
$LUPREC
 70
     4
  9
$SKETCHINC
 40
1.0
  9
$FILLETRAD
 40
12.6
  9
$AUNITS
 70
     0
  9
$AUPREC
 70
     2
  9
$MENU
  1
.
  9
$ELEVATION
 40
0.0
  9
$PELEVATION
 40
0.0
  9
$THICKNESS
 40
0.0
  9
$LIMCHECK
 70
     0
  9
$CHAMFERA
 40
10.0
  9
$CHAMFERB
 40
10.0
  9
$CHAMFERC
 40
0.0
  9
$CHAMFERD
 40
0.0
  9
$SKPOLY
 70
     0
  9
$TDCREATE
 40
2451301.391836806
  9
$TDUCREATE
 40
2451301.016836806
  9
$TDUPDATE
 40
2457192.686617269
  9
$TDUUPDATE
 40
2457192.311617269
  9
$TDINDWG
 40
0.0000110995
  9
$TDUSRTIMER
 40
0.0000107986
  9
$USRTIMER
 70
     1
  9
$ANGBASE
 50
0.0
  9
$ANGDIR
 70
     0
  9
$PDMODE
 70
     0
  9
$PDSIZE
 40
0.0
  9
$PLINEWID
 40
0.0
  9
$SPLFRAME
 70
     0
  9
$SPLINETYPE
 70
     6
  9
$SPLINESEGS
 70
     8
  9
$HANDSEED
  5
A1CF
  9
$SURFTAB1
 70
     6
  9
$SURFTAB2
 70
     6
  9
$SURFTYPE
 70
     6
  9
$SURFU
 70
     6
  9
$SURFV
 70
     6
  9
$UCSBASE
  2

  9
$UCSNAME
  2

  9
$UCSORG
 10
0.0
 20
0.0
 30
0.0
  9
$UCSXDIR
 10
1.0
 20
0.0
 30
0.0
  9
$UCSYDIR
 10
0.0
 20
1.0
 30
0.0
  9
$UCSORTHOREF
  2

  9
$UCSORTHOVIEW
 70
     0
  9
$UCSORGTOP
 10
0.0
 20
0.0
 30
0.0
  9
$UCSORGBOTTOM
 10
0.0
 20
0.0
 30
0.0
  9
$UCSORGLEFT
 10
0.0
 20
0.0
 30
0.0
  9
$UCSORGRIGHT
 10
0.0
 20
0.0
 30
0.0
  9
$UCSORGFRONT
 10
0.0
 20
0.0
 30
0.0
  9
$UCSORGBACK
 10
0.0
 20
0.0
 30
0.0
  9
$PUCSBASE
  2

  9
$PUCSNAME
  2

  9
$PUCSORG
 10
0.0
 20
0.0
 30
0.0
  9
$PUCSXDIR
 10
1.0
 20
0.0
 30
0.0
  9
$PUCSYDIR
 10
0.0
 20
1.0
 30
0.0
  9
$PUCSORTHOREF
  2

  9
$PUCSORTHOVIEW
 70
     0
  9
$PUCSORGTOP
 10
0.0
 20
0.0
 30
0.0
  9
$PUCSORGBOTTOM
 10
0.0
 20
0.0
 30
0.0
  9
$PUCSORGLEFT
 10
0.0
 20
0.0
 30
0.0
  9
$PUCSORGRIGHT
 10
0.0
 20
0.0
 30
0.0
  9
$PUCSORGFRONT
 10
0.0
 20
0.0
 30
0.0
  9
$PUCSORGBACK
 10
0.0
 20
0.0
 30
0.0
  9
$USERI1
 70
     0
  9
$USERI2
 70
     0
  9
$USERI3
 70
     0
  9
$USERI4
 70
     0
  9
$USERI5
 70
     0
  9
$USERR1
 40
0.0
  9
$USERR2
 40
0.0
  9
$USERR3
 40
0.0
  9
$USERR4
 40
0.0
  9
$USERR5
 40
0.0
  9
$WORLDVIEW
 70
     1
  9
$SHADEDGE
 70
     3
  9
$SHADEDIF
 70
    70
  9
$TILEMODE
 70
     1
  9
$MAXACTVP
 70
    16
  9
$PINSBASE
 10
0.0
 20
0.0
 30
0.0
  9
$PLIMCHECK
 70
     0
  9
$PEXTMIN
 10
1.000000000000000E+20
 20
1.000000000000000E+20
 30
1.000000000000000E+20
  9
$PEXTMAX
 10
-1.000000000000000E+20
 20
-1.000000000000000E+20
 30
-1.000000000000000E+20
  9
$PLIMMIN
 10
0.0
 20
0.0
  9
$PLIMMAX
 10
420.0
 20
297.0
  9
$UNITMODE
 70
     0
  9
$VISRETAIN
 70
     0
  9
$PLINEGEN
 70
     0
  9
$PSLTSCALE
 70
     0
  9
$TREEDEPTH
 70
  3020
  9
$CMLSTYLE
  2
STANDARD
  9
$CMLJUST
 70
     0
  9
$CMLSCALE
 40
1.0
  9
$PROXYGRAPHICS
 70
     1
  9
$MEASUREMENT
 70
     0
  9
$CELWEIGHT
370
    -1
  9
$ENDCAPS
280
     0
  9
$JOINSTYLE
280
     0
  9
$LWDISPLAY
290
     0
  9
$INSUNITS
 70
     0
  9
$HYPERLINKBASE
  1

  9
$STYLESHEET
  1

  9
$XEDIT
290
     1
  9
$CEPSNTYPE
380
     0
  9
$PSTYLEMODE
290
     1
  9
$FINGERPRINTGUID
  2
{BAF78F27-7610-46C3-A8F5-AA0E02F61AC3}
  9
$VERSIONGUID
  2
{2E6ADF60-DF7A-4328-9F2B-130277E49E98}
  9
$EXTNAMES
290
     1
  9
$PSVPSCALE
 40
0.0
  9
$OLESTARTUP
290
     0
  0
ENDSEC
  0
SECTION
  2
CLASSES
  0
CLASS
  1
ACDBDICTIONARYWDFLT
  2
AcDbDictionaryWithDefault
  3
ObjectDBX Classes
 90
        0
280
     0
281
     0
  0
CLASS
  1
ACDBPLACEHOLDER
  2
AcDbPlaceHolder
  3
ObjectDBX Classes
 90
        0
280
     0
281
     0
  0
CLASS
  1
LAYOUT
  2
AcDbLayout
  3
ObjectDBX Classes
 90
        0
280
     0
281
     0
  0
CLASS
  1
DICTIONARYVAR
  2
AcDbDictionaryVar
  3
ObjectDBX Classes
 90
        0
280
     0
281
     0
  0
CLASS
  1
MATERIAL
  2
AcDbMaterial
  3
ObjectDBX Classes
 90
     1153
280
     0
281
     0
  0
CLASS
  1
VISUALSTYLE
  2
AcDbVisualStyle
  3
ObjectDBX Classes
 90
     4095
280
     0
281
     0
  0
CLASS
  1
TABLESTYLE
  2
AcDbTableStyle
  3
ObjectDBX Classes
 90
     4095
280
     0
281
     0
  0
CLASS
  1
SCALE
  2
AcDbScale
  3
ObjectDBX Classes
 90
     1153
280
     0
281
     0
  0
CLASS
  1
MLEADERSTYLE
  2
AcDbMLeaderStyle
  3
ACDB_MLEADERSTYLE_CLASS
 90
     4095
280
     0
281
     0
  0
CLASS
  1
ACDBSECTIONVIEWSTYLE
  2
AcDbSectionViewStyle
  3
ObjectDBX Classes
 90
     1025
280
     0
281
     0
  0
CLASS
  1
ACDBDETAILVIEWSTYLE
  2
AcDbDetailViewStyle
  3
ObjectDBX Classes
 90
     1025
280
     0
281
     0
  0
CLASS
  1
CELLSTYLEMAP
  2
AcDbCellStyleMap
  3
ObjectDBX Classes
 90
     1152
280
     0
281
     0
  0
ENDSEC
  0
SECTION
  2
TABLES
  0
TABLE
  2
VPORT
  5
9E06
330
0
100
AcDbSymbolTable
 70
     1
  0
VPORT
  5
A118
330
9E06
100
AcDbSymbolTableRecord
100
AcDbViewportTableRecord
  2
*ACTIVE
 70
     0
 10
0.0
 20
0.0
 11
1.0
 21
1.0
 12
331.0146398010163
 22
174.2985867733302
 13
0.0
 23
0.0
 14
10.0
 24
10.0
 15
10.0
 25
10.0
 16
0.0
 26
0.0
 36
1.0
 17
0.0
 27
0.0
 37
0.0
 40
332.2670540943105
 41
2.35006605019815
 42
50.0
 43
0.0
 44
0.0
 50
0.0
 51
0.0
 71
     0
 72
   100
 73
     1
 74
     0
 75
     0
 76
     0
 77
     0
 78
     0
281
     0
 65
     1
110
0.0
120
0.0
130
0.0
111
1.0
121
0.0
131
0.0
112
0.0
122
1.0
132
0.0
 79
     0
146
0.0
1001
ACAD_NAV_VCDISPLAY
1070
     3
  0
ENDTAB
  0
TABLE
  2
LTYPE
  5
9E03
330
0
100
AcDbSymbolTable
 70
     4
  0
LTYPE
  5
9E11
330
9E03
100
AcDbSymbolTableRecord
100
AcDbLinetypeTableRecord
  2
BYBLOCK
 70
     0
  3

 72
    65
 73
     0
 40
0.0
  0
LTYPE
  5
9E12
330
9E03
100
AcDbSymbolTableRecord
100
AcDbLinetypeTableRecord
  2
BYLAYER
 70
     0
  3

 72
    65
 73
     0
 40
0.0
  0
LTYPE
  5
9E13
330
9E03
100
AcDbSymbolTableRecord
100
AcDbLinetypeTableRecord
  2
CONTINUOUS
 70
     0
  3
Solid line
 72
    65
 73
     0
 40
0.0
  0
LTYPE
  5
9E21
330
9E03
100
AcDbSymbolTableRecord
100
AcDbLinetypeTableRecord
  2
DASHED
 70
     0
  3
__ __ __ __ __ __ __ __ __ __ __ __ __ __ __ __
 72
    65
 73
     2
 40
0.75
 49
0.5
 74
     0
 49
-0.25
 74
     0
  0
LTYPE
  5
9E22
330
9E03
100
AcDbSymbolTableRecord
100
AcDbLinetypeTableRecord
  2
CENTER
 70
     0
  3
____ _ ____ _ ____ _ ____ _ ____ _ ____ _ ____ 
 72
    65
 73
     4
 40
2.0
 49
1.25
 74
     0
 49
-0.25
 74
     0
 49
0.25
 74
     0
 49
-0.25
 74
     0
  0
LTYPE
  5
9E23
330
9E03
100
AcDbSymbolTableRecord
100
AcDbLinetypeTableRecord
  2
PHANTOM
 70
     0
  3
______  __  __  ______  __  __  ______  __  __ 
 72
    65
 73
     6
 40
2.5
 49
1.25
 74
     0
 49
-0.25
 74
     0
 49
0.25
 74
     0
 49
-0.25
 74
     0
 49
0.25
 74
     0
 49
-0.25
 74
     0
  0
ENDTAB
  0
TABLE
  2
LAYER
  5
9E00
330
0
100
AcDbSymbolTable
 70
     8
  0
LAYER
  5
9E0E
102
{ACAD_XDICTIONARY
360
A173
102
}
330
9E00
100
AcDbSymbolTableRecord
100
AcDbLayerTableRecord
  2
0
 70
     0
 62
     7
  6
CONTINUOUS
370
    -3
390
A121
  0
LAYER
  5
9E24
102
{ACAD_XDICTIONARY
360
A175
102
}
330
9E00
100
AcDbSymbolTableRecord
100
AcDbLayerTableRecord
  2
4
 70
     0
 62
     1
  6
CENTER
370
    -3
390
A121
  0
LAYER
  5
9E25
102
{ACAD_XDICTIONARY
360
A177
102
}
330
9E00
100
AcDbSymbolTableRecord
100
AcDbLayerTableRecord
  2
5
 70
     0
 62
     6
  6
PHANTOM
370
    -3
390
A121
  0
LAYER
  5
9E26
102
{ACAD_XDICTIONARY
360
A179
102
}
330
9E00
100
AcDbSymbolTableRecord
100
AcDbLayerTableRecord
  2
1
 70
     0
 62
     7
  6
CONTINUOUS
370
    -3
390
A121
  0
LAYER
  5
9E27
102
{ACAD_XDICTIONARY
360
A17B
102
}
330
9E00
100
AcDbSymbolTableRecord
100
AcDbLayerTableRecord
  2
2
 70
     0
 62
     4
  6
CONTINUOUS
370
    -3
390
A121
  0
LAYER
  5
9E28
102
{ACAD_XDICTIONARY
360
A17D
102
}
330
9E00
100
AcDbSymbolTableRecord
100
AcDbLayerTableRecord
  2
3
 70
     0
 62
     2
  6
DASHED
370
    -3
390
A121
  0
LAYER
  5
9E29
102
{ACAD_XDICTIONARY
360
A17F
102
}
330
9E00
100
AcDbSymbolTableRecord
100
AcDbLayerTableRecord
  2
6
 70
     0
 62
     5
  6
CONTINUOUS
370
    -3
390
A121
  0
LAYER
  5
9E2A
102
{ACAD_XDICTIONARY
360
A181
102
}
330
9E00
100
AcDbSymbolTableRecord
100
AcDbLayerTableRecord
  2
7
 70
     0
 62
     3
  6
CONTINUOUS
370
    -3
390
A121
  0
ENDTAB
  0
TABLE
  2
STYLE
  5
9E01
330
0
100
AcDbSymbolTable
 70
     1
  0
STYLE
  5
9E0F
330
9E01
100
AcDbSymbolTableRecord
100
AcDbTextStyleTableRecord
  2
STANDARD
 70
     0
 40
0.0
 41
1.0
 50
0.0
 71
     0
 42
5.0
  3
txt
  4

  0
ENDTAB
  0
TABLE
  2
VIEW
  5
9E04
330
0
100
AcDbSymbolTable
 70
     0
  0
ENDTAB
  0
TABLE
  2
UCS
  5
9E05
330
0
100
AcDbSymbolTable
 70
     0
  0
ENDTAB
  0
TABLE
  2
APPID
  5
9E07
330
0
100
AcDbSymbolTable
 70
     3
  0
APPID
  5
9E10
330
9E07
100
AcDbSymbolTableRecord
100
AcDbRegAppTableRecord
  2
ACAD
 70
     0
  0
APPID
  5
A18D
330
9E07
100
AcDbSymbolTableRecord
100
AcDbRegAppTableRecord
  2
ACAD_NAV_VCDISPLAY
 70
     0
  0
APPID
  5
A1C6
330
9E07
100
AcDbSymbolTableRecord
100
AcDbRegAppTableRecord
  2
ACAD_MLEADERVER
 70
     0
  0
ENDTAB
  0
TABLE
  2
DIMSTYLE
  5
9E08
330
0
100
AcDbSymbolTable
 70
     1
100
AcDbDimStyleTable
 71
     0
  0
DIMSTYLE
105
9E2C
330
9E08
100
AcDbSymbolTableRecord
100
AcDbDimStyleTableRecord
  2
STANDARD
 70
     0
 41
3.0
 42
1.0
 43
10.0
 44
1.0
 73
     0
 74
     0
 77
     3
 78
     8
140
3.2
141
0.0
147
1.0
172
     1
173
     1
284
     8
285
     8
286
     8
340
9E0F
  0
ENDTAB
  0
TABLE
  2
BLOCK_RECORD
  5
9DFF
330
0
100
AcDbSymbolTable
 70
     1
  0
BLOCK_RECORD
  5
9E1C
102
{ACAD_XDICTIONARY
360
A11B
102
}
330
9DFF
100
AcDbSymbolTableRecord
100
AcDbBlockTableRecord
  2
*MODEL_SPACE
340
A16F
  0
BLOCK_RECORD
  5
9E18
102
{ACAD_XDICTIONARY
360
A119
102
}
330
9DFF
100
AcDbSymbolTableRecord
100
AcDbBlockTableRecord
  2
*PAPER_SPACE
340
A170
  0
BLOCK_RECORD
  5
9E34
330
9DFF
100
AcDbSymbolTableRecord
100
AcDbBlockTableRecord
  2
_OPEN
340
0
  0
ENDTAB
  0
ENDSEC
  0
SECTION
  2
BLOCKS
  0
BLOCK
  5
9E1D
330
9E1C
100
AcDbEntity
  8
0
100
AcDbBlockBegin
  2
*MODEL_SPACE
 70
     0
 10
0.0
 20
0.0
 30
0.0
  3
*MODEL_SPACE
  1

  0
ENDBLK
  5
9E1E
330
9E1C
100
AcDbEntity
  8
0
100
AcDbBlockEnd
  0
BLOCK
  5
9E19
330
9E18
100
AcDbEntity
 67
     1
  8
0
100
AcDbBlockBegin
  2
*PAPER_SPACE
 70
     0
 10
0.0
 20
0.0
 30
0.0
  3
*PAPER_SPACE
  1

  0
ENDBLK
  5
9E1A
330
9E18
100
AcDbEntity
 67
     1
  8
0
100
AcDbBlockEnd
  0
BLOCK
  5
9E35
330
9E34
100
AcDbEntity
  8
0
100
AcDbBlockBegin
  2
_OPEN
 70
     0
 10
0.0
 20
0.0
 30
0.0
  3
_OPEN
  1

  0
LINE
  5
9E36
330
9E34
100
AcDbEntity
  8
0
  6
ByBlock
 62
     0
100
AcDbLine
 10
-1.0
 20
0.166667
 30
0.0
 11
0.0
 21
0.0
 31
0.0
  0
LINE
  5
9E37
330
9E34
100
AcDbEntity
  8
0
  6
ByBlock
 62
     0
100
AcDbLine
 10
0.0
 20
0.0
 30
0.0
 11
-1.0
 21
-0.166667
 31
0.0
  0
LINE
  5
9E38
330
9E34
100
AcDbEntity
  8
0
  6
ByBlock
 62
     0
100
AcDbLine
 10
0.0
 20
0.0
 30
0.0
 11
-1.0
 21
0.0
 31
0.0
  0
ENDBLK
  5
9E39
330
9E34
100
AcDbEntity
  8
0
100
AcDbBlockEnd
  0
ENDSEC
  0
SECTION
  2
ENTITIES
  0
TEXT
  5
9E3A
330
9E1C
100
AcDbEntity
  8
7
  6
Continuous
100
AcDbText
 10
10.0
 20
18.0
 30
0.0
 40
3.0
  1
TYPE No.104HB2-EP
100
AcDbText
  0
TEXT
  5
9E3B
330
9E1C
100
AcDbEntity
  8
7
  6
Continuous
100
AcDbText
 10
10.0
 20
26.0
 30
0.0
 40
3.0
  1
CODE No.19081
100
AcDbText
  0
TEXT
  5
9E3C
330
9E1C
100
AcDbEntity
  8
1
  6
Continuous
100
AcDbText
 10
10.0
 20
10.0
 30
0.0
 40
1.399999999999999
  1
LAYER
100
AcDbText
  0
TEXT
  5
9E3D
330
9E1C
100
AcDbEntity
  8
1
  6
Continuous
100
AcDbText
 10
17.97951099999998
 20
10.04873699999998
 30
0.0
 40
1.399999999999999
  1
1
100
AcDbText
  0
TEXT
  5
9E3E
330
9E1C
100
AcDbEntity
  8
7
  6
Continuous
100
AcDbText
 10
29.97951099999999
 20
10.04873699999998
 30
0.0
 40
1.399999999999999
  1
7
100
AcDbText
  0
TEXT
  5
9E3F
330
9E1C
100
AcDbEntity
  8
4
  6
CENTER
100
AcDbText
 10
23.97951099999999
 20
10.04873699999998
 30
0.0
 40
1.399999999999999
  1
4
100
AcDbText
  0
TEXT
  5
9E40
330
9E1C
100
AcDbEntity
  8
3
  6
DASHED
100
AcDbText
 10
21.979511
 20
10.04873699999998
 30
0.0
 40
1.399999999999999
  1
3
100
AcDbText
  0
TEXT
  5
9E41
330
9E1C
100
AcDbEntity
  8
2
  6
Continuous
100
AcDbText
 10
19.97951099999999
 20
10.04873699999998
 30
0.0
 40
1.399999999999999
  1
2
100
AcDbText
  0
TEXT
  5
9E42
330
9E1C
100
AcDbEntity
  8
6
  6
Continuous
100
AcDbText
 10
27.979511
 20
10.04873699999998
 30
0.0
 40
1.399999999999999
  1
6
100
AcDbText
  0
TEXT
  5
9E43
330
9E1C
100
AcDbEntity
  8
5
  6
PHANTOM
100
AcDbText
 10
25.97951099999999
 20
10.04873699999998
 30
0.0
 40
1.399999999999999
  1
5
100
AcDbText
  0
LINE
  5
9E44
330
9E1C
100
AcDbEntity
  8
4
  6
CENTER
100
AcDbLine
 10
262.5491049999999
 20
177.237719
 30
0.0
 11
323.749105
 21
177.237719
 31
0.0
  0
LINE
  5
9E45
330
9E1C
100
AcDbEntity
  8
1
  6
Continuous
100
AcDbLine
 10
271.310177
 20
216.2198609999999
 30
0.0
 11
273.4164609999999
 21
214.1135759999999
 31
0.0
  0
LINE
  5
9E46
330
9E1C
100
AcDbEntity
  8
1
  6
Continuous
100
AcDbLine
 10
273.4164609999999
 20
216.2198609999999
 30
0.0
 11
271.310177
 21
214.1135759999999
 31
0.0
  0
ARC
  5
9E47
330
9E1C
100
AcDbEntity
  8
1
  6
Continuous
100
AcDbCircle
 10
277.736967
 20
176.8384969999999
 30
0.0
 40
8.587861
100
AcDbArc
 50
180.0
 51
246.1031999999999
  0
LINE
  5
9E48
330
9E1C
100
AcDbEntity
  8
1
  6
Continuous
100
AcDbLine
 10
271.676946
 20
219.4398609999999
 30
0.0
 11
316.221265
 21
219.4398609999999
 31
0.0
  0
LINE
  5
9E49
330
9E1C
100
AcDbEntity
  8
1
  6
Continuous
100
AcDbLine
 10
267.9407569999999
 20
221.2105789999998
 30
0.0
 11
319.9574539999999
 21
221.2105789999998
 31
0.0
  0
LINE
  5
9E4A
330
9E1C
100
AcDbEntity
  8
1
  6
Continuous
100
AcDbLine
 10
270.949105
 20
214.1135759999999
 30
0.0
 11
316.9491049999999
 21
214.1135759999999
 31
0.0
  0
LINE
  5
9E4B
330
9E1C
100
AcDbEntity
  8
1
  6
Continuous
100
AcDbLine
 10
270.949105
 20
216.2198609999999
 30
0.0
 11
316.9491049999999
 21
216.2198609999999
 31
0.0
  0
LINE
  5
9E4C
330
9E1C
100
AcDbEntity
  8
1
  6
Continuous
100
AcDbLine
 10
261.9491049999999
 20
221.637912
 30
0.0
 11
325.9491049999998
 21
221.6376879999998
 31
0.0
  0
ARC
  5
9E4D
330
9E1C
100
AcDbEntity
  8
1
  6
Continuous
100
AcDbCircle
 10
276.762687
 20
214.653888
 30
0.0
 40
6.206
100
AcDbArc
 50
129.539603
 51
140.935699
  0
LINE
  5
9E4E
330
9E1C
100
AcDbEntity
  8
1
  6
Continuous
100
AcDbLine
 10
270.9591049999999
 20
218.2048609999999
 30
0.0
 11
316.9391069999999
 21
218.2048609999999
 31
0.0
  0
LINE
  5
9E4F
330
9E1C
100
AcDbEntity
  8
1
  6
Continuous
100
AcDbLine
 10
261.9491049999999
 20
224.23788
 30
0.0
 11
325.9491049999998
 21
224.238002
 31
0.0
  0
LINE
  5
9E50
330
9E1C
100
AcDbEntity
  8
1
  6
Continuous
100
AcDbLine
 10
216.9491049999999
 20
224.237595
 30
0.0
 11
152.949105
 21
224.237595
 31
0.0
  0
LINE
  5
9E51
330
9E1C
100
AcDbEntity
  8
4
  6
CENTER
100
AcDbLine
 10
164.9491049999998
 20
147.237719
 30
0.0
 11
164.9491049999998
 21
205.237719
 31
0.0
  0
ARC
  5
9E52
330
9E1C
100
AcDbEntity
  8
1
  6
Continuous
100
AcDbCircle
 10
164.9491049999998
 20
177.237719
 30
0.0
 40
25.0
100
AcDbArc
 50
83.26294200000003
 51
349.602319
  0
LINE
  5
9E53
330
9E1C
100
AcDbEntity
  8
4
  6
CENTER
100
AcDbLine
 10
192.949105
 20
177.237719
 30
0.0
 11
134.949105
 21
177.237719
 31
0.0
  0
ARC
  5
9E54
330
9E1C
100
AcDbEntity
  8
1
  6
Continuous
100
AcDbCircle
 10
164.9491049999998
 20
177.237719
 30
0.0
 40
17.0
100
AcDbArc
 50
83.18174799999999
 51
329.0233769999999
  0
ARC
  5
9E55
330
9E1C
100
AcDbEntity
  8
1
  6
Continuous
100
AcDbCircle
 10
164.9491049999998
 20
177.237719
 30
0.0
 40
17.5
100
AcDbArc
 50
82.774371
 51
330.7287799999999
  0
LINE
  5
9E56
330
9E1C
100
AcDbEntity
  8
4
  6
CENTER
100
AcDbLine
 10
184.949105
 20
229.237595
 30
0.0
 11
184.949105
 21
200.705656
 31
0.0
  0
ARC
  5
9E57
330
9E1C
100
AcDbEntity
  8
1
  6
Continuous
100
AcDbCircle
 10
152.8057409999999
 20
199.7735839999998
 30
0.0
 40
15.249345
100
AcDbArc
 50
298.317835
 51
9.042707
  0
ARC
  5
9E58
330
9E1C
100
AcDbEntity
  8
1
  6
Continuous
100
AcDbCircle
 10
169.0874909999998
 20
207.1023729999998
 30
0.0
 40
40.0
100
AcDbArc
 50
275.9384279999998
 51
310.8349
  0
ARC
  5
9E59
330
9E1C
100
AcDbEntity
  8
1
  6
Continuous
100
AcDbCircle
 10
164.9491049999998
 20
177.237719
 30
0.0
 40
10.34999999999999
100
AcDbArc
 50
118.317835
 51
270.0
  0
ARC
  5
9E5A
330
9E1C
100
AcDbEntity
  8
1
  6
Continuous
100
AcDbCircle
 10
164.9491049999998
 20
246.887719
 30
0.0
 40
80.0
100
AcDbArc
 50
270.0
 51
275.9384279999998
  0
LINE
  5
9E5B
330
9E1C
100
AcDbEntity
  8
1
  6
Continuous
100
AcDbLine
 10
207.149105
 20
214.113291
 30
0.0
 11
161.949105
 21
214.113291
 31
0.0
  0
ARC
  5
9E5C
330
9E1C
100
AcDbEntity
  8
1
  6
Continuous
100
AcDbCircle
 10
163.919117
 20
201.876362
 30
0.0
 40
3.957376
100
AcDbArc
 50
4.260108999999999
 51
90.0
  0
ARC
  5
9E5D
330
9E1C
100
AcDbEntity
  8
1
  6
Continuous
100
AcDbCircle
 10
162.439859
 20
211.513291
 30
0.0
 40
2.6
100
AcDbArc
 50
90.0
 51
194.0
  0
LINE
  5
9E5E
330
9E1C
100
AcDbEntity
  8
1
  6
Continuous
100
AcDbLine
 10
161.1763359999999
 20
205.8337379999999
 30
0.0
 11
159.9170909999999
 21
210.884295
 31
0.0
  0
LINE
  5
9E5F
330
9E1C
100
AcDbEntity
  8
1
  6
Continuous
100
AcDbLine
 10
161.1763359999999
 20
205.8337379999999
 30
0.0
 11
163.919117
 21
205.8337379999999
 31
0.0
  0
LINE
  5
9E60
330
9E1C
100
AcDbEntity
  8
1
  6
Continuous
100
AcDbLine
 10
269.1491049999999
 20
211.5135759999998
 30
0.0
 11
269.1491049999999
 21
176.8384969999999
 31
0.0
  0
ARC
  5
9E61
330
9E1C
100
AcDbEntity
  8
1
  6
Continuous
100
AcDbCircle
 10
271.749105
 20
211.5135759999998
 30
0.0
 40
2.6
100
AcDbArc
 50
90.0
 51
180.0
  0
LINE
  5
9E62
330
9E1C
100
AcDbEntity
  8
1
  6
Continuous
100
AcDbLine
 10
261.9491049999999
 20
221.637912
 30
0.0
 11
261.9491049999999
 21
224.23788
 31
0.0
  0
LINE
  5
9E63
330
9E1C
100
AcDbEntity
  8
1
  6
Continuous
100
AcDbLine
 10
272.002248
 20
214.1135759999999
 30
0.0
 11
270.949105
 21
215.1667189999999
 31
0.0
  0
LINE
  5
9E64
330
9E1C
100
AcDbEntity
  8
1
  6
Continuous
100
AcDbLine
 10
272.002248
 20
216.2198609999999
 30
0.0
 11
270.949105
 21
215.1667189999999
 31
0.0
  0
LINE
  5
9E65
330
9E1C
100
AcDbEntity
  8
1
  6
Continuous
100
AcDbLine
 10
270.949105
 20
214.1135759999999
 30
0.0
 11
270.949105
 21
216.2198609999999
 31
0.0
  0
LINE
  5
9E66
330
9E1C
100
AcDbEntity
  8
1
  6
Continuous
100
AcDbLine
 10
271.099105
 20
216.5798609999999
 30
0.0
 11
271.229105
 21
216.2198609999999
 31
0.0
  0
ARC
  5
9E67
330
9E1C
100
AcDbEntity
  8
1
  6
Continuous
100
AcDbCircle
 10
274.5605869999999
 20
219.755088
 30
0.0
 40
4.697225
100
AcDbArc
 50
206.286695
 51
222.530249
  0
LINE
  5
9E68
330
9E1C
100
AcDbEntity
  8
1
  6
Continuous
100
AcDbLine
 10
271.7741049999998
 20
218.2048609999999
 30
0.0
 11
271.9441049999999
 21
218.5648609999998
 31
0.0
  0
ARC
  5
9E69
330
9E1C
100
AcDbEntity
  8
1
  6
Continuous
100
AcDbCircle
 10
271.223076
 20
217.2850079999999
 30
0.0
 40
0.9569799999999998
100
AcDbArc
 50
106.011913
 51
155.9597349999999
  0
ARC
  5
9E6A
330
9E1C
100
AcDbEntity
  8
1
  6
Continuous
100
AcDbCircle
 10
274.789788
 20
229.3524529999999
 30
0.0
 40
10.63951799999999
100
AcDbArc
 50
229.929097
 51
243.711147
  0
LINE
  5
9E6B
330
9E1C
100
AcDbEntity
  8
1
  6
Continuous
100
AcDbLine
 10
267.9407569999999
 20
221.2105789999998
 30
0.0
 11
267.901253
 21
221.637891
 31
0.0
  0
ARC
  5
9E6C
330
9E1C
100
AcDbEntity
  8
1
  6
Continuous
100
AcDbCircle
 10
271.676946
 20
223.05101
 30
0.0
 40
3.611148999999998
100
AcDbArc
 50
243.711147
 51
270.0
  0
LINE
  5
9E6D
330
9E1C
100
AcDbEntity
  8
4
  6
CENTER
100
AcDbLine
 10
216.1991049999998
 20
276.600764
 30
0.0
 11
203.699105
 21
276.600764
 31
0.0
  0
LINE
  5
9E6E
330
9E1C
100
AcDbEntity
  8
4
  6
CENTER
100
AcDbLine
 10
216.1991049999998
 20
326.6007640000001
 30
0.0
 11
203.699105
 21
326.6007640000001
 31
0.0
  0
LINE
  5
9E6F
330
9E1C
100
AcDbEntity
  8
4
  6
CENTER
100
AcDbLine
 10
221.9491049999998
 20
301.6007640000001
 30
0.0
 11
134.949105
 21
301.6007640000001
 31
0.0
  0
ARC
  5
9E70
330
9E1C
100
AcDbEntity
  8
1
  6
Continuous
100
AcDbCircle
 10
209.9491049999998
 20
276.600764
 30
0.0
 40
7.0
100
AcDbArc
 50
270.0
 51
0.0
  0
ARC
  5
9E71
330
9E1C
100
AcDbEntity
  8
1
  6
Continuous
100
AcDbCircle
 10
209.9491049999998
 20
326.6007640000001
 30
0.0
 40
7.0
100
AcDbArc
 50
0.0
 51
90.0
  0
LINE
  5
9E72
330
9E1C
100
AcDbEntity
  8
1
  6
Continuous
100
AcDbLine
 10
216.9491049999999
 20
276.600764
 30
0.0
 11
216.9491049999999
 21
326.6007640000001
 31
0.0
  0
LINE
  5
9E73
330
9E1C
100
AcDbEntity
  8
4
  6
CENTER
100
AcDbLine
 10
184.949105
 20
264.600764
 30
0.0
 11
184.949105
 21
338.600764
 31
0.0
  0
CIRCLE
  5
9E74
330
9E1C
100
AcDbEntity
  8
1
  6
Continuous
100
AcDbCircle
 10
184.949105
 20
301.6007640000001
 30
0.0
 40
23.5
  0
CIRCLE
  5
9E75
330
9E1C
100
AcDbEntity
  8
1
  6
Continuous
100
AcDbCircle
 10
184.949105
 20
301.6007640000001
 30
0.0
 40
21.3
  0
LINE
  5
9E76
330
9E1C
100
AcDbEntity
  8
1
  6
Continuous
100
AcDbLine
 10
152.949105
 20
276.600764
 30
0.0
 11
152.949105
 21
326.6007640000001
 31
0.0
  0
LINE
  5
9E77
330
9E1C
100
AcDbEntity
  8
1
  6
Continuous
100
AcDbLine
 10
209.9491049999998
 20
269.600764
 30
0.0
 11
159.949105
 21
269.600764
 31
0.0
  0
LINE
  5
9E78
330
9E1C
100
AcDbEntity
  8
4
  6
CENTER
100
AcDbLine
 10
209.9491049999998
 20
270.350764
 30
0.0
 11
209.9491049999998
 21
282.8507640000001
 31
0.0
  0
CIRCLE
  5
9E79
330
9E1C
100
AcDbEntity
  8
1
  6
Continuous
100
AcDbCircle
 10
209.9491049999998
 20
276.600764
 30
0.0
 40
3.25
  0
LINE
  5
9E7A
330
9E1C
100
AcDbEntity
  8
4
  6
CENTER
100
AcDbLine
 10
159.949105
 20
270.350764
 30
0.0
 11
159.949105
 21
282.8507640000001
 31
0.0
  0
CIRCLE
  5
9E7B
330
9E1C
100
AcDbEntity
  8
1
  6
Continuous
100
AcDbCircle
 10
159.949105
 20
276.600764
 30
0.0
 40
3.25
  0
ARC
  5
9E7C
330
9E1C
100
AcDbEntity
  8
1
  6
Continuous
100
AcDbCircle
 10
159.949105
 20
276.600764
 30
0.0
 40
7.0
100
AcDbArc
 50
180.0
 51
270.0
  0
LINE
  5
9E7D
330
9E1C
100
AcDbEntity
  8
4
  6
CENTER
100
AcDbLine
 10
166.199105
 20
276.600764
 30
0.0
 11
153.699105
 21
276.600764
 31
0.0
  0
CIRCLE
  5
9E7E
330
9E1C
100
AcDbEntity
  8
1
  6
Continuous
100
AcDbCircle
 10
184.949105
 20
301.6007640000001
 30
0.0
 40
12.0
  0
LINE
  5
9E7F
330
9E1C
100
AcDbEntity
  8
1
  6
Continuous
100
AcDbLine
 10
209.9491049999998
 20
333.600764
 30
0.0
 11
159.949105
 21
333.600764
 31
0.0
  0
LINE
  5
9E80
330
9E1C
100
AcDbEntity
  8
4
  6
CENTER
100
AcDbLine
 10
209.9491049999998
 20
320.3507640000001
 30
0.0
 11
209.9491049999998
 21
332.8507640000001
 31
0.0
  0
CIRCLE
  5
9E81
330
9E1C
100
AcDbEntity
  8
1
  6
Continuous
100
AcDbCircle
 10
209.9491049999998
 20
326.6007640000001
 30
0.0
 40
3.25
  0
LINE
  5
9E82
330
9E1C
100
AcDbEntity
  8
4
  6
CENTER
100
AcDbLine
 10
159.949105
 20
320.3507640000001
 30
0.0
 11
159.949105
 21
332.8507640000001
 31
0.0
  0
LINE
  5
9E83
330
9E1C
100
AcDbEntity
  8
4
  6
CENTER
100
AcDbLine
 10
166.199105
 20
326.6007640000001
 30
0.0
 11
153.699105
 21
326.6007640000001
 31
0.0
  0
CIRCLE
  5
9E84
330
9E1C
100
AcDbEntity
  8
1
  6
Continuous
100
AcDbCircle
 10
159.949105
 20
326.6007640000001
 30
0.0
 40
3.25
  0
ARC
  5
9E85
330
9E1C
100
AcDbEntity
  8
1
  6
Continuous
100
AcDbCircle
 10
159.949105
 20
326.6007640000001
 30
0.0
 40
7.0
100
AcDbArc
 50
90.0
 51
180.0
  0
LINE
  5
9E86
330
9E1C
100
AcDbEntity
  8
4
  6
CENTER
100
AcDbLine
 10
293.9491049999999
 20
229.237941
 30
0.0
 11
293.9491049999999
 21
147.237719
 31
0.0
  0
LINE
  5
9E87
330
9E1C
100
AcDbEntity
  8
1
  6
Continuous
100
AcDbLine
 10
307.9491049999999
 20
198.3896829999999
 30
0.0
 11
307.9491049999999
 21
154.975188
 31
0.0
  0
LINE
  5
9E88
330
9E1C
100
AcDbEntity
  8
1
  6
Continuous
100
AcDbLine
 10
279.9491049999999
 20
198.3896829999999
 30
0.0
 11
279.9491049999999
 21
154.975188
 31
0.0
  0
ARC
  5
9E89
330
9E1C
100
AcDbEntity
  8
1
  6
Continuous
100
AcDbCircle
 10
293.9491049999999
 20
252.2377189999999
 30
0.0
 40
100.0
100
AcDbArc
 50
262.9665389999999
 51
277.0334609999998
  0
ARC
  5
9E8A
330
9E1C
100
AcDbEntity
  8
1
  6
Continuous
100
AcDbCircle
 10
281.9491049999998
 20
154.975188
 30
0.0
 40
2.0
100
AcDbArc
 50
180.0
 51
262.9665389999999
  0
ARC
  5
9E8B
330
9E1C
100
AcDbEntity
  8
1
  6
Continuous
100
AcDbCircle
 10
305.9491049999999
 20
154.975188
 30
0.0
 40
2.0
100
AcDbArc
 50
277.0334609999998
 51
0.0
  0
ARC
  5
9E8C
330
9E1C
100
AcDbEntity
  8
1
  6
Continuous
100
AcDbCircle
 10
293.9491049999999
 20
102.237719
 30
0.0
 40
100.0
100
AcDbArc
 50
83.422206
 51
96.57779400000002
  0
LINE
  5
9E8D
330
9E1C
100
AcDbEntity
  8
1
  6
Continuous
100
AcDbLine
 10
278.4491049999999
 20
196.183422
 30
0.0
 11
278.4491049999999
 21
166.887719
 31
0.0
  0
LINE
  5
9E8E
330
9E1C
100
AcDbEntity
  8
1
  6
Continuous
100
AcDbLine
 10
312.049105
 20
167.810177
 30
0.0
 11
312.049105
 21
166.887719
 31
0.0
  0
LINE
  5
9E8F
330
9E1C
100
AcDbEntity
  8
1
  6
Continuous
100
AcDbLine
 10
275.8491049999999
 20
167.810177
 30
0.0
 11
275.8491049999999
 21
166.887719
 31
0.0
  0
LINE
  5
9E90
330
9E1C
100
AcDbEntity
  8
1
  6
Continuous
100
AcDbLine
 10
279.0432009999999
 20
167.143624
 30
0.0
 11
279.0432009999999
 21
187.3318149999998
 31
0.0
  0
ARC
  5
9E91
330
9E1C
100
AcDbEntity
  8
1
  6
Continuous
100
AcDbCircle
 10
299.041792
 20
167.3810229999999
 30
0.0
 40
20.0
100
AcDbArc
 50
180.680114
 51
197.3243529999998
  0
LINE
  5
9E92
330
9E1C
100
AcDbEntity
  8
1
  6
Continuous
100
AcDbLine
 10
275.8491049999999
 20
166.887719
 30
0.0
 11
278.4491049999999
 21
166.887719
 31
0.0
  0
ARC
  5
9E93
330
9E1C
100
AcDbEntity
  8
1
  6
Continuous
100
AcDbCircle
 10
272.4191
 20
164.8362389999998
 30
0.0
 40
4.53974
100
AcDbArc
 50
40.92645
 51
66.1032
  0
LINE
  5
9E94
330
9E1C
100
AcDbEntity
  8
1
  6
Continuous
100
AcDbLine
 10
278.4491049999999
 20
167.737719
 30
0.0
 11
279.0432009999999
 21
167.143624
 31
0.0
  0
ARC
  5
9E95
330
9E1C
100
AcDbEntity
  8
1
  6
Continuous
100
AcDbCircle
 10
299.041792
 20
187.094416
 30
0.0
 40
20.0
100
AcDbArc
 50
162.675647
 51
179.3198859999999
  0
LINE
  5
9E96
330
9E1C
100
AcDbEntity
  8
1
  6
Continuous
100
AcDbLine
 10
278.4491049999999
 20
186.737719
 30
0.0
 11
279.0432009999999
 21
187.3318149999998
 31
0.0
  0
LINE
  5
9E97
330
9E1C
100
AcDbEntity
  8
1
  6
Continuous
100
AcDbLine
 10
308.8550099999999
 20
167.143624
 30
0.0
 11
308.8550099999999
 21
187.3318149999998
 31
0.0
  0
ARC
  5
9E98
330
9E1C
100
AcDbEntity
  8
1
  6
Continuous
100
AcDbCircle
 10
288.856419
 20
167.3810229999999
 30
0.0
 40
20.0
100
AcDbArc
 50
342.675647
 51
359.319886
  0
LINE
  5
9E99
330
9E1C
100
AcDbEntity
  8
1
  6
Continuous
100
AcDbLine
 10
309.4491049999998
 20
167.737719
 30
0.0
 11
308.8550099999999
 21
167.143624
 31
0.0
  0
LINE
  5
9E9A
330
9E1C
100
AcDbEntity
  8
1
  6
Continuous
100
AcDbLine
 10
309.4491049999998
 20
166.887719
 30
0.0
 11
312.049105
 21
166.887719
 31
0.0
  0
ARC
  5
9E9B
330
9E1C
100
AcDbEntity
  8
1
  6
Continuous
100
AcDbCircle
 10
288.856419
 20
187.094416
 30
0.0
 40
20.0
100
AcDbArc
 50
0.6801140000000001
 51
17.32435299999999
  0
LINE
  5
9E9C
330
9E1C
100
AcDbEntity
  8
1
  6
Continuous
100
AcDbLine
 10
309.4491049999998
 20
186.737719
 30
0.0
 11
308.8550099999999
 21
187.3318149999998
 31
0.0
  0
LINE
  5
9E9D
330
9E1C
100
AcDbEntity
  8
1
  6
Continuous
100
AcDbLine
 10
303.8370889999999
 20
216.2198609999999
 30
0.0
 11
305.943373
 21
214.1135759999999
 31
0.0
  0
LINE
  5
9E9E
330
9E1C
100
AcDbEntity
  8
1
  6
Continuous
100
AcDbLine
 10
305.943373
 20
216.2198609999999
 30
0.0
 11
303.8370889999999
 21
214.1135759999999
 31
0.0
  0
LINE
  5
9E9F
330
9E1C
100
AcDbEntity
  8
1
  6
Continuous
100
AcDbLine
 10
286.768368
 20
205.8337379999999
 30
0.0
 11
301.129907
 21
205.8337379999999
 31
0.0
  0
LINE
  5
9EA0
330
9E1C
100
AcDbEntity
  8
1
  6
Continuous
100
AcDbLine
 10
288.2807399999999
 20
216.2198609999999
 30
0.0
 11
290.3870239999998
 21
214.1135759999999
 31
0.0
  0
LINE
  5
9EA1
330
9E1C
100
AcDbEntity
  8
1
  6
Continuous
100
AcDbLine
 10
286.8665259999999
 20
216.2198609999999
 30
0.0
 11
288.9728099999999
 21
214.1135759999999
 31
0.0
  0
LINE
  5
9EA2
330
9E1C
100
AcDbEntity
  8
1
  6
Continuous
100
AcDbLine
 10
290.3870239999998
 20
216.2198609999999
 30
0.0
 11
288.2807399999999
 21
214.1135759999999
 31
0.0
  0
LINE
  5
9EA3
330
9E1C
100
AcDbEntity
  8
1
  6
Continuous
100
AcDbLine
 10
288.9728099999999
 20
216.2198609999999
 30
0.0
 11
286.8665259999999
 21
214.1135759999999
 31
0.0
  0
LINE
  5
9EA4
330
9E1C
100
AcDbEntity
  8
1
  6
Continuous
100
AcDbLine
 10
287.099592
 20
203.705928
 30
0.0
 11
300.798624
 21
203.705954
 31
0.0
  0
LINE
  5
9EA5
330
9E1C
100
AcDbEntity
  8
1
  6
Continuous
100
AcDbLine
 10
287.099592
 20
203.705928
 30
0.0
 11
286.9910449999999
 21
204.3559409999998
 31
0.0
  0
LINE
  5
9EA6
330
9E1C
100
AcDbEntity
  8
1
  6
Continuous
100
AcDbLine
 10
279.7954579999998
 20
216.2198609999999
 30
0.0
 11
281.901743
 21
214.1135759999999
 31
0.0
  0
LINE
  5
9EA7
330
9E1C
100
AcDbEntity
  8
1
  6
Continuous
100
AcDbLine
 10
278.3812449999999
 20
216.2198609999999
 30
0.0
 11
280.487529
 21
214.1135759999999
 31
0.0
  0
LINE
  5
9EA8
330
9E1C
100
AcDbEntity
  8
1
  6
Continuous
100
AcDbLine
 10
281.901743
 20
216.2198609999999
 30
0.0
 11
279.7954579999998
 21
214.1135759999999
 31
0.0
  0
LINE
  5
9EA9
330
9E1C
100
AcDbEntity
  8
1
  6
Continuous
100
AcDbLine
 10
280.487529
 20
216.2198609999999
 30
0.0
 11
278.3812449999999
 21
214.1135759999999
 31
0.0
  0
LINE
  5
9EAA
330
9E1C
100
AcDbEntity
  8
1
  6
Continuous
100
AcDbLine
 10
282.005226
 20
216.2198609999999
 30
0.0
 11
280.30579
 21
216.2198609999999
 31
0.0
  0
LINE
  5
9EAB
330
9E1C
100
AcDbEntity
  8
1
  6
Continuous
100
AcDbLine
 10
275.552818
 20
216.2198609999999
 30
0.0
 11
277.659102
 21
214.1135759999999
 31
0.0
  0
LINE
  5
9EAC
330
9E1C
100
AcDbEntity
  8
1
  6
Continuous
100
AcDbLine
 10
277.659102
 20
216.2198609999999
 30
0.0
 11
275.552818
 21
214.1135759999999
 31
0.0
  0
LINE
  5
9EAD
330
9E1C
100
AcDbEntity
  8
1
  6
Continuous
100
AcDbLine
 10
274.138604
 20
216.2198609999999
 30
0.0
 11
276.2448879999999
 21
214.1135759999999
 31
0.0
  0
LINE
  5
9EAE
330
9E1C
100
AcDbEntity
  8
1
  6
Continuous
100
AcDbLine
 10
272.7243899999999
 20
216.2198609999999
 30
0.0
 11
274.8306749999999
 21
214.1135759999999
 31
0.0
  0
LINE
  5
9EAF
330
9E1C
100
AcDbEntity
  8
1
  6
Continuous
100
AcDbLine
 10
276.2448879999999
 20
216.2198609999999
 30
0.0
 11
274.138604
 21
214.1135759999999
 31
0.0
  0
LINE
  5
9EB0
330
9E1C
100
AcDbEntity
  8
1
  6
Continuous
100
AcDbLine
 10
274.8306749999999
 20
216.2198609999999
 30
0.0
 11
272.7243899999999
 21
214.1135759999999
 31
0.0
  0
LINE
  5
9EB1
330
9E1C
100
AcDbEntity
  8
1
  6
Continuous
100
AcDbLine
 10
276.967031
 20
216.2198609999999
 30
0.0
 11
279.0733149999999
 21
214.1135759999999
 31
0.0
  0
LINE
  5
9EB2
330
9E1C
100
AcDbEntity
  8
1
  6
Continuous
100
AcDbLine
 10
279.0733149999999
 20
216.2198609999999
 30
0.0
 11
276.967031
 21
214.1135759999999
 31
0.0
  0
LINE
  5
9EB3
330
9E1C
100
AcDbEntity
  8
1
  6
Continuous
100
AcDbLine
 10
284.0380989999999
 20
216.2198609999999
 30
0.0
 11
286.144383
 21
214.1135759999999
 31
0.0
  0
LINE
  5
9EB4
330
9E1C
100
AcDbEntity
  8
1
  6
Continuous
100
AcDbLine
 10
282.6238849999999
 20
216.2198609999999
 30
0.0
 11
284.73017
 21
214.1135759999999
 31
0.0
  0
LINE
  5
9EB5
330
9E1C
100
AcDbEntity
  8
1
  6
Continuous
100
AcDbLine
 10
286.144383
 20
216.2198609999999
 30
0.0
 11
284.0380989999999
 21
214.1135759999999
 31
0.0
  0
LINE
  5
9EB6
330
9E1C
100
AcDbEntity
  8
1
  6
Continuous
100
AcDbLine
 10
284.73017
 20
216.2198609999999
 30
0.0
 11
282.6238849999999
 21
214.1135759999999
 31
0.0
  0
LINE
  5
9EB7
330
9E1C
100
AcDbEntity
  8
1
  6
Continuous
100
AcDbLine
 10
281.2096719999999
 20
216.2198609999999
 30
0.0
 11
283.315956
 21
214.1135759999999
 31
0.0
  0
LINE
  5
9EB8
330
9E1C
100
AcDbEntity
  8
1
  6
Continuous
100
AcDbLine
 10
283.315956
 20
216.2198609999999
 30
0.0
 11
281.2096719999999
 21
214.1135759999999
 31
0.0
  0
LINE
  5
9EB9
330
9E1C
100
AcDbEntity
  8
1
  6
Continuous
100
AcDbLine
 10
285.4523119999999
 20
216.2198609999999
 30
0.0
 11
287.558597
 21
214.1135759999999
 31
0.0
  0
LINE
  5
9EBA
330
9E1C
100
AcDbEntity
  8
1
  6
Continuous
100
AcDbLine
 10
287.558597
 20
216.2198609999999
 30
0.0
 11
285.4523119999999
 21
214.1135759999999
 31
0.0
  0
LINE
  5
9EBB
330
9E1C
100
AcDbEntity
  8
1
  6
Continuous
100
AcDbLine
 10
285.1485609999999
 20
204.3559409999998
 30
0.0
 11
302.7496479999999
 21
204.3559409999998
 31
0.0
  0
LINE
  5
9EBC
330
9E1C
100
AcDbEntity
  8
1
  6
Continuous
100
AcDbLine
 10
292.1431819999999
 20
203.705937
 30
0.0
 11
291.38741
 21
204.3559409999998
 31
0.0
  0
LINE
  5
9EBD
330
9E1C
100
AcDbEntity
  8
1
  6
Continuous
100
AcDbLine
 10
288.9055149999999
 20
203.705931
 30
0.0
 11
289.552746
 21
204.3559409999998
 31
0.0
  0
LINE
  5
9EBE
330
9E1C
100
AcDbEntity
  8
1
  6
Continuous
100
AcDbLine
 10
295.755029
 20
203.705937
 30
0.0
 11
296.5108009999998
 21
204.3559409999998
 31
0.0
  0
LINE
  5
9EBF
330
9E1C
100
AcDbEntity
  8
1
  6
Continuous
100
AcDbLine
 10
300.798619
 20
203.705928
 30
0.0
 11
300.9071649999999
 21
204.3559409999998
 31
0.0
  0
LINE
  5
9EC0
330
9E1C
100
AcDbEntity
  8
1
  6
Continuous
100
AcDbLine
 10
298.992696
 20
203.705931
 30
0.0
 11
298.345465
 21
204.3559409999998
 31
0.0
  0
LINE
  5
9EC1
330
9E1C
100
AcDbEntity
  8
1
  6
Continuous
100
AcDbLine
 10
296.766021
 20
216.2198609999999
 30
0.0
 11
298.8723049999999
 21
214.1135759999999
 31
0.0
  0
LINE
  5
9EC2
330
9E1C
100
AcDbEntity
  8
1
  6
Continuous
100
AcDbLine
 10
295.351807
 20
216.2198609999999
 30
0.0
 11
297.4580919999999
 21
214.1135759999999
 31
0.0
  0
LINE
  5
9EC3
330
9E1C
100
AcDbEntity
  8
1
  6
Continuous
100
AcDbLine
 10
298.8723049999999
 20
216.2198609999999
 30
0.0
 11
296.766021
 21
214.1135759999999
 31
0.0
  0
LINE
  5
9EC4
330
9E1C
100
AcDbEntity
  8
1
  6
Continuous
100
AcDbLine
 10
297.4580919999999
 20
216.2198609999999
 30
0.0
 11
295.351807
 21
214.1135759999999
 31
0.0
  0
LINE
  5
9EC5
330
9E1C
100
AcDbEntity
  8
1
  6
Continuous
100
AcDbLine
 10
292.5233799999999
 20
216.2198609999999
 30
0.0
 11
294.6296649999998
 21
214.1135759999999
 31
0.0
  0
LINE
  5
9EC6
330
9E1C
100
AcDbEntity
  8
1
  6
Continuous
100
AcDbLine
 10
291.109167
 20
216.2198609999999
 30
0.0
 11
293.2154509999999
 21
214.1135759999999
 31
0.0
  0
LINE
  5
9EC7
330
9E1C
100
AcDbEntity
  8
1
  6
Continuous
100
AcDbLine
 10
294.6296649999998
 20
216.2198609999999
 30
0.0
 11
292.5233799999999
 21
214.1135759999999
 31
0.0
  0
LINE
  5
9EC8
330
9E1C
100
AcDbEntity
  8
1
  6
Continuous
100
AcDbLine
 10
293.2154509999999
 20
216.2198609999999
 30
0.0
 11
291.109167
 21
214.1135759999999
 31
0.0
  0
LINE
  5
9EC9
330
9E1C
100
AcDbEntity
  8
1
  6
Continuous
100
AcDbLine
 10
289.694953
 20
216.2198609999999
 30
0.0
 11
291.801238
 21
214.1135759999999
 31
0.0
  0
LINE
  5
9ECA
330
9E1C
100
AcDbEntity
  8
1
  6
Continuous
100
AcDbLine
 10
291.801238
 20
216.2198609999999
 30
0.0
 11
289.694953
 21
214.1135759999999
 31
0.0
  0
LINE
  5
9ECB
330
9E1C
100
AcDbEntity
  8
1
  6
Continuous
100
AcDbLine
 10
293.937594
 20
216.2198609999999
 30
0.0
 11
296.043878
 21
214.1135759999999
 31
0.0
  0
LINE
  5
9ECC
330
9E1C
100
AcDbEntity
  8
1
  6
Continuous
100
AcDbLine
 10
296.043878
 20
216.2198609999999
 30
0.0
 11
293.937594
 21
214.1135759999999
 31
0.0
  0
LINE
  5
9ECD
330
9E1C
100
AcDbEntity
  8
1
  6
Continuous
100
AcDbLine
 10
299.5944479999998
 20
216.2198609999999
 30
0.0
 11
301.7007319999998
 21
214.1135759999999
 31
0.0
  0
LINE
  5
9ECE
330
9E1C
100
AcDbEntity
  8
1
  6
Continuous
100
AcDbLine
 10
301.7007319999998
 20
216.2198609999999
 30
0.0
 11
299.5944479999998
 21
214.1135759999999
 31
0.0
  0
LINE
  5
9ECF
330
9E1C
100
AcDbEntity
  8
1
  6
Continuous
100
AcDbLine
 10
298.1802349999999
 20
216.2198609999999
 30
0.0
 11
300.286519
 21
214.1135759999999
 31
0.0
  0
LINE
  5
9ED0
330
9E1C
100
AcDbEntity
  8
1
  6
Continuous
100
AcDbLine
 10
300.286519
 20
216.2198609999999
 30
0.0
 11
298.1802349999999
 21
214.1135759999999
 31
0.0
  0
LINE
  5
9ED1
330
9E1C
100
AcDbEntity
  8
1
  6
Continuous
100
AcDbLine
 10
302.4228749999999
 20
216.2198609999999
 30
0.0
 11
304.52916
 21
214.1135759999999
 31
0.0
  0
LINE
  5
9ED2
330
9E1C
100
AcDbEntity
  8
1
  6
Continuous
100
AcDbLine
 10
301.008662
 20
216.2198609999999
 30
0.0
 11
303.1149459999999
 21
214.1135759999999
 31
0.0
  0
LINE
  5
9ED3
330
9E1C
100
AcDbEntity
  8
1
  6
Continuous
100
AcDbLine
 10
304.52916
 20
216.2198609999999
 30
0.0
 11
302.4228749999999
 21
214.1135759999999
 31
0.0
  0
LINE
  5
9ED4
330
9E1C
100
AcDbEntity
  8
1
  6
Continuous
100
AcDbLine
 10
303.1149459999999
 20
216.2198609999999
 30
0.0
 11
301.008662
 21
214.1135759999999
 31
0.0
  0
ARC
  5
9ED5
330
9E1C
100
AcDbEntity
  8
1
  6
Continuous
100
AcDbCircle
 10
316.1491049999999
 20
211.5135759999998
 30
0.0
 40
2.6
100
AcDbArc
 50
0.0
 51
90.0
  0
LINE
  5
9ED6
330
9E1C
100
AcDbEntity
  8
1
  6
Continuous
100
AcDbLine
 10
312.32237
 20
216.2198609999999
 30
0.0
 11
314.4286549999999
 21
214.1135759999999
 31
0.0
  0
LINE
  5
9ED7
330
9E1C
100
AcDbEntity
  8
1
  6
Continuous
100
AcDbLine
 10
314.4286549999999
 20
216.2198609999999
 30
0.0
 11
312.32237
 21
214.1135759999999
 31
0.0
  0
LINE
  5
9ED8
330
9E1C
100
AcDbEntity
  8
1
  6
Continuous
100
AcDbLine
 10
308.079729
 20
216.2198609999999
 30
0.0
 11
310.1860139999998
 21
214.1135759999999
 31
0.0
  0
LINE
  5
9ED9
330
9E1C
100
AcDbEntity
  8
1
  6
Continuous
100
AcDbLine
 10
310.1860139999998
 20
216.2198609999999
 30
0.0
 11
308.079729
 21
214.1135759999999
 31
0.0
  0
LINE
  5
9EDA
330
9E1C
100
AcDbEntity
  8
1
  6
Continuous
100
AcDbLine
 10
306.665516
 20
216.2198609999999
 30
0.0
 11
308.7717999999999
 21
214.1135759999999
 31
0.0
  0
LINE
  5
9EDB
330
9E1C
100
AcDbEntity
  8
1
  6
Continuous
100
AcDbLine
 10
305.251302
 20
216.2198609999999
 30
0.0
 11
307.357587
 21
214.1135759999999
 31
0.0
  0
LINE
  5
9EDC
330
9E1C
100
AcDbEntity
  8
1
  6
Continuous
100
AcDbLine
 10
308.7717999999999
 20
216.2198609999999
 30
0.0
 11
306.665516
 21
214.1135759999999
 31
0.0
  0
LINE
  5
9EDD
330
9E1C
100
AcDbEntity
  8
1
  6
Continuous
100
AcDbLine
 10
307.357587
 20
216.2198609999999
 30
0.0
 11
305.251302
 21
214.1135759999999
 31
0.0
  0
LINE
  5
9EDE
330
9E1C
100
AcDbEntity
  8
1
  6
Continuous
100
AcDbLine
 10
310.9081569999998
 20
216.2198609999999
 30
0.0
 11
313.0144409999999
 21
214.1135759999999
 31
0.0
  0
LINE
  5
9EDF
330
9E1C
100
AcDbEntity
  8
1
  6
Continuous
100
AcDbLine
 10
309.493943
 20
216.2198609999999
 30
0.0
 11
311.600227
 21
214.1135759999999
 31
0.0
  0
LINE
  5
9EE0
330
9E1C
100
AcDbEntity
  8
1
  6
Continuous
100
AcDbLine
 10
313.0144409999999
 20
216.2198609999999
 30
0.0
 11
310.9081569999998
 21
214.1135759999999
 31
0.0
  0
LINE
  5
9EE1
330
9E1C
100
AcDbEntity
  8
1
  6
Continuous
100
AcDbLine
 10
311.600227
 20
216.2198609999999
 30
0.0
 11
309.493943
 21
214.1135759999999
 31
0.0
  0
ARC
  5
9EE2
330
9E1C
100
AcDbEntity
  8
1
  6
Continuous
100
AcDbCircle
 10
311.1355239999999
 20
214.653888
 30
0.0
 40
6.206
100
AcDbArc
 50
39.064301
 51
50.460397
  0
ARC
  5
9EE3
330
9E1C
100
AcDbEntity
  8
1
  6
Continuous
100
AcDbCircle
 10
313.337624
 20
219.755088
 30
0.0
 40
4.697225
100
AcDbArc
 50
317.4697509999999
 51
333.713305
  0
ARC
  5
9EE4
330
9E1C
100
AcDbEntity
  8
1
  6
Continuous
100
AcDbCircle
 10
316.675135
 20
217.2850079999999
 30
0.0
 40
0.9569799999999998
100
AcDbArc
 50
24.04026499999999
 51
73.98808699999998
  0
LINE
  5
9EE5
330
9E1C
100
AcDbEntity
  8
1
  6
Continuous
100
AcDbLine
 10
316.5650109999999
 20
216.2198609999999
 30
0.0
 11
316.9491049999999
 21
215.835766
 31
0.0
  0
LINE
  5
9EE6
330
9E1C
100
AcDbEntity
  8
1
  6
Continuous
100
AcDbLine
 10
315.150797
 20
216.2198609999999
 30
0.0
 11
316.9491049999999
 21
214.4215529999999
 31
0.0
  0
LINE
  5
9EE7
330
9E1C
100
AcDbEntity
  8
1
  6
Continuous
100
AcDbLine
 10
313.736584
 20
216.2198609999999
 30
0.0
 11
315.842868
 21
214.1135759999999
 31
0.0
  0
LINE
  5
9EE8
330
9E1C
100
AcDbEntity
  8
1
  6
Continuous
100
AcDbLine
 10
316.9491049999999
 20
214.4976709999999
 30
0.0
 11
316.5650109999999
 21
214.1135759999999
 31
0.0
  0
LINE
  5
9EE9
330
9E1C
100
AcDbEntity
  8
1
  6
Continuous
100
AcDbLine
 10
316.9491049999999
 20
215.911885
 30
0.0
 11
315.150797
 21
214.1135759999999
 31
0.0
  0
LINE
  5
9EEA
330
9E1C
100
AcDbEntity
  8
1
  6
Continuous
100
AcDbLine
 10
315.842868
 20
216.2198609999999
 30
0.0
 11
313.736584
 21
214.1135759999999
 31
0.0
  0
LINE
  5
9EEB
330
9E1C
100
AcDbEntity
  8
1
  6
Continuous
100
AcDbLine
 10
316.9491049999999
 20
214.1135759999999
 30
0.0
 11
316.9491049999999
 21
216.2198609999999
 31
0.0
  0
LINE
  5
9EEC
330
9E1C
100
AcDbEntity
  8
1
  6
Continuous
100
AcDbLine
 10
316.7991049999999
 20
216.5798609999999
 30
0.0
 11
316.669105
 21
216.2198609999999
 31
0.0
  0
LINE
  5
9EED
330
9E1C
100
AcDbEntity
  8
1
  6
Continuous
100
AcDbLine
 10
316.124105
 20
218.2048609999999
 30
0.0
 11
315.9541049999999
 21
218.5648609999998
 31
0.0
  0
ARC
  5
9EEE
330
9E1C
100
AcDbEntity
  8
1
  6
Continuous
100
AcDbCircle
 10
316.221265
 20
223.05101
 30
0.0
 40
3.611148999999998
100
AcDbArc
 50
270.0
 51
296.2888529999998
  0
LINE
  5
9EEF
330
9E1C
100
AcDbEntity
  8
1
  6
Continuous
100
AcDbLine
 10
319.9574539999999
 20
221.2105789999998
 30
0.0
 11
319.996958
 21
221.637891
 31
0.0
  0
ARC
  5
9EF0
330
9E1C
100
AcDbEntity
  8
1
  6
Continuous
100
AcDbCircle
 10
313.108423
 20
229.3524529999999
 30
0.0
 40
10.63951799999999
100
AcDbArc
 50
296.2888529999998
 51
310.0709029999998
  0
LINE
  5
9EF1
330
9E1C
100
AcDbEntity
  8
1
  6
Continuous
100
AcDbLine
 10
325.9491049999998
 20
221.6376879999998
 30
0.0
 11
325.9491049999998
 21
224.238002
 31
0.0
  0
LINE
  5
9EF2
330
9E1C
100
AcDbEntity
  8
1
  6
Continuous
100
AcDbLine
 10
30.949105
 20
224.23788
 30
0.0
 11
94.94910500000001
 21
224.238002
 31
0.0
  0
LINE
  5
9EF3
330
9E1C
100
AcDbEntity
  8
1
  6
Continuous
100
AcDbLine
 10
30.949105
 20
221.637912
 30
0.0
 11
94.94910500000001
 21
221.6376879999998
 31
0.0
  0
LINE
  5
9EF4
330
9E1C
100
AcDbEntity
  8
4
  6
CENTER
100
AcDbLine
 10
34.849105
 20
177.237719
 30
0.0
 11
94.34910499999999
 21
177.237719
 31
0.0
  0
LINE
  5
9EF5
330
9E1C
100
AcDbEntity
  8
4
  6
CENTER
100
AcDbLine
 10
62.949105
 20
229.237941
 30
0.0
 11
62.949105
 21
147.237719
 31
0.0
  0
LINE
  5
9EF6
330
9E1C
100
AcDbEntity
  8
1
  6
Continuous
100
AcDbLine
 10
38.14910499999999
 20
211.5135759999998
 30
0.0
 11
38.14910499999999
 21
176.8384969999999
 31
0.0
  0
LINE
  5
9EF7
330
9E1C
100
AcDbEntity
  8
1
  6
Continuous
100
AcDbLine
 10
76.949105
 20
199.5002509999999
 30
0.0
 11
76.949105
 21
154.975188
 31
0.0
  0
LINE
  5
9EF8
330
9E1C
100
AcDbEntity
  8
1
  6
Continuous
100
AcDbLine
 10
48.94910499999999
 20
199.5002509999999
 30
0.0
 11
48.94910499999999
 21
154.975188
 31
0.0
  0
LINE
  5
9EF9
330
9E1C
100
AcDbEntity
  8
1
  6
Continuous
100
AcDbLine
 10
87.749105
 20
211.5135759999998
 30
0.0
 11
87.749105
 21
183.7568199999998
 31
0.0
  0
LINE
  5
9EFA
330
9E1C
100
AcDbEntity
  8
1
  6
Continuous
100
AcDbLine
 10
78.44910500000001
 20
203.462735
 30
0.0
 11
78.44910500000001
 21
166.887719
 31
0.0
  0
LINE
  5
9EFB
330
9E1C
100
AcDbEntity
  8
1
  6
Continuous
100
AcDbLine
 10
47.44910499999998
 20
203.462735
 30
0.0
 11
47.44910499999998
 21
166.887719
 31
0.0
  0
LINE
  5
9EFC
330
9E1C
100
AcDbEntity
  8
1
  6
Continuous
100
AcDbLine
 10
81.04910499999999
 20
202.8337379999999
 30
0.0
 11
81.04910499999999
 21
166.887719
 31
0.0
  0
LINE
  5
9EFD
330
9E1C
100
AcDbEntity
  8
1
  6
Continuous
100
AcDbLine
 10
44.849105
 20
202.8337379999999
 30
0.0
 11
44.849105
 21
166.887719
 31
0.0
  0
ARC
  5
9EFE
330
9E1C
100
AcDbEntity
  8
1
  6
Continuous
100
AcDbCircle
 10
62.949105
 20
252.2377189999999
 30
0.0
 40
100.0
100
AcDbArc
 50
262.9665389999999
 51
277.0334609999998
  0
ARC
  5
9EFF
330
9E1C
100
AcDbEntity
  8
1
  6
Continuous
100
AcDbCircle
 10
46.73696699999999
 20
176.8384969999999
 30
0.0
 40
8.587861
100
AcDbArc
 50
180.0
 51
246.1031999999999
  0
ARC
  5
9F00
330
9E1C
100
AcDbEntity
  8
1
  6
Continuous
100
AcDbCircle
 10
50.349105
 20
177.237719
 30
0.0
 40
10.5
100
AcDbArc
 50
138.1896849999999
 51
221.810315
  0
LINE
  5
9F01
330
9E1C
100
AcDbEntity
  8
1
  6
Continuous
100
AcDbLine
 10
48.043201
 20
167.143624
 30
0.0
 11
48.043201
 21
187.3318149999998
 31
0.0
  0
LINE
  5
9F02
330
9E1C
100
AcDbEntity
  8
1
  6
Continuous
100
AcDbLine
 10
42.522868
 20
170.2377189999999
 30
0.0
 11
42.522868
 21
184.237719
 31
0.0
  0
ARC
  5
9F03
330
9E1C
100
AcDbEntity
  8
1
  6
Continuous
100
AcDbCircle
 10
50.94910500000001
 20
154.975188
 30
0.0
 40
2.0
100
AcDbArc
 50
180.0
 51
262.9665389999999
  0
ARC
  5
9F04
330
9E1C
100
AcDbEntity
  8
1
  6
Continuous
100
AcDbCircle
 10
68.041792
 20
167.3810229999999
 30
0.0
 40
20.0
100
AcDbArc
 50
180.680114
 51
197.3243529999998
  0
LINE
  5
9F05
330
9E1C
100
AcDbEntity
  8
1
  6
Continuous
100
AcDbLine
 10
44.849105
 20
166.887719
 30
0.0
 11
47.44910499999998
 21
166.887719
 31
0.0
  0
ARC
  5
9F06
330
9E1C
100
AcDbEntity
  8
1
  6
Continuous
100
AcDbCircle
 10
41.4191
 20
164.8362389999998
 30
0.0
 40
4.53974
100
AcDbArc
 50
40.92645
 51
66.1032
  0
LINE
  5
9F07
330
9E1C
100
AcDbEntity
  8
1
  6
Continuous
100
AcDbLine
 10
42.522868
 20
170.2377189999999
 30
0.0
 11
44.849105
 21
170.2377189999999
 31
0.0
  0
LINE
  5
9F08
330
9E1C
100
AcDbEntity
  8
1
  6
Continuous
100
AcDbLine
 10
47.44910499999998
 20
167.737719
 30
0.0
 11
48.043201
 21
167.143624
 31
0.0
  0
ARC
  5
9F09
330
9E1C
100
AcDbEntity
  8
1
  6
Continuous
100
AcDbCircle
 10
68.041792
 20
187.094416
 30
0.0
 40
20.0
100
AcDbArc
 50
162.675647
 51
179.3198859999999
  0
LINE
  5
9F0A
330
9E1C
100
AcDbEntity
  8
1
  6
Continuous
100
AcDbLine
 10
42.522868
 20
184.237719
 30
0.0
 11
44.849105
 21
184.237719
 31
0.0
  0
LINE
  5
9F0B
330
9E1C
100
AcDbEntity
  8
1
  6
Continuous
100
AcDbLine
 10
47.44910499999998
 20
186.737719
 30
0.0
 11
48.043201
 21
187.3318149999998
 31
0.0
  0
LINE
  5
9F0C
330
9E1C
100
AcDbEntity
  8
1
  6
Continuous
100
AcDbLine
 10
88.34910500000002
 20
173.237719
 30
0.0
 11
88.34910500000002
 21
181.237719
 31
0.0
  0
LINE
  5
9F0D
330
9E1C
100
AcDbEntity
  8
1
  6
Continuous
100
AcDbLine
 10
77.85500999999998
 20
167.143624
 30
0.0
 11
77.85500999999998
 21
187.3318149999998
 31
0.0
  0
LINE
  5
9F0E
330
9E1C
100
AcDbEntity
  8
1
  6
Continuous
100
AcDbLine
 10
83.04910500000003
 20
169.737719
 30
0.0
 11
83.04910500000003
 21
184.7377189999999
 31
0.0
  0
ARC
  5
9F0F
330
9E1C
100
AcDbEntity
  8
1
  6
Continuous
100
AcDbCircle
 10
74.949105
 20
154.975188
 30
0.0
 40
2.0
100
AcDbArc
 50
277.0334609999998
 51
0.0
  0
ARC
  5
9F10
330
9E1C
100
AcDbEntity
  8
1
  6
Continuous
100
AcDbCircle
 10
57.85641899999999
 20
167.3810229999999
 30
0.0
 40
20.0
100
AcDbArc
 50
342.675647
 51
359.319886
  0
LINE
  5
9F11
330
9E1C
100
AcDbEntity
  8
1
  6
Continuous
100
AcDbLine
 10
81.04910499999999
 20
169.737719
 30
0.0
 11
83.04910500000003
 21
169.737719
 31
0.0
  0
ARC
  5
9F12
330
9E1C
100
AcDbEntity
  8
1
  6
Continuous
100
AcDbCircle
 10
84.479111
 20
164.8362389999998
 30
0.0
 40
4.53974
100
AcDbArc
 50
113.8967999999999
 51
139.07355
  0
LINE
  5
9F13
330
9E1C
100
AcDbEntity
  8
1
  6
Continuous
100
AcDbLine
 10
78.44910500000001
 20
167.737719
 30
0.0
 11
77.85500999999998
 21
167.143624
 31
0.0
  0
LINE
  5
9F14
330
9E1C
100
AcDbEntity
  8
1
  6
Continuous
100
AcDbLine
 10
78.44910500000001
 20
166.887719
 30
0.0
 11
81.04910499999999
 21
166.887719
 31
0.0
  0
ARC
  5
9F15
330
9E1C
100
AcDbEntity
  8
1
  6
Continuous
100
AcDbCircle
 10
79.16124399999998
 20
176.8384969999999
 30
0.0
 40
8.587861
100
AcDbArc
 50
293.8968
 51
310.513145
  0
LINE
  5
9F16
330
9E1C
100
AcDbEntity
  8
1
  6
Continuous
100
AcDbLine
 10
88.04910500000003
 20
173.237719
 30
0.0
 11
88.34910500000002
 21
173.237719
 31
0.0
  0
ARC
  5
9F17
330
9E1C
100
AcDbEntity
  8
1
  6
Continuous
100
AcDbCircle
 10
57.85641899999999
 20
187.094416
 30
0.0
 40
20.0
100
AcDbArc
 50
0.6801140000000001
 51
17.32435299999999
  0
LINE
  5
9F18
330
9E1C
100
AcDbEntity
  8
1
  6
Continuous
100
AcDbLine
 10
81.04910499999999
 20
184.7377189999999
 30
0.0
 11
83.04910500000003
 21
184.7377189999999
 31
0.0
  0
LINE
  5
9F19
330
9E1C
100
AcDbEntity
  8
1
  6
Continuous
100
AcDbLine
 10
78.44910500000001
 20
186.737719
 30
0.0
 11
77.85500999999998
 21
187.3318149999998
 31
0.0
  0
LINE
  5
9F1A
330
9E1C
100
AcDbEntity
  8
1
  6
Continuous
100
AcDbLine
 10
88.04910500000003
 20
181.237719
 30
0.0
 11
88.34910500000002
 21
181.237719
 31
0.0
  0
LINE
  5
9F1B
330
9E1C
100
AcDbEntity
  8
1
  6
Continuous
100
AcDbLine
 10
81.04910499999999
 20
175.2377189999999
 30
0.0
 11
83.04910500000003
 21
177.237719
 31
0.0
  0
LINE
  5
9F1C
330
9E1C
100
AcDbEntity
  8
1
  6
Continuous
100
AcDbLine
 10
81.04910499999999
 20
177.237719
 30
0.0
 11
83.04910500000003
 21
179.237719
 31
0.0
  0
LINE
  5
9F1D
330
9E1C
100
AcDbEntity
  8
1
  6
Continuous
100
AcDbLine
 10
47.849105
 20
205.8337379999999
 30
0.0
 11
78.04910500000002
 21
205.8337379999999
 31
0.0
  0
LINE
  5
9F1E
330
9E1C
100
AcDbEntity
  8
1
  6
Continuous
100
AcDbLine
 10
39.94910499999999
 20
214.1135759999999
 30
0.0
 11
85.94910500000002
 21
214.1135759999999
 31
0.0
  0
LINE
  5
9F1F
330
9E1C
100
AcDbEntity
  8
1
  6
Continuous
100
AcDbLine
 10
39.94910499999999
 20
216.2198609999999
 30
0.0
 11
85.94910500000002
 21
216.2198609999999
 31
0.0
  0
LINE
  5
9F20
330
9E1C
100
AcDbEntity
  8
1
  6
Continuous
100
AcDbLine
 10
39.959105
 20
218.2048609999999
 30
0.0
 11
85.939107
 21
218.2048609999999
 31
0.0
  0
LINE
  5
9F21
330
9E1C
100
AcDbEntity
  8
1
  6
Continuous
100
AcDbLine
 10
36.94075699999999
 20
221.2105789999998
 30
0.0
 11
88.957454
 21
221.2105789999998
 31
0.0
  0
LINE
  5
9F22
330
9E1C
100
AcDbEntity
  8
1
  6
Continuous
100
AcDbLine
 10
40.676946
 20
219.4398609999999
 30
0.0
 11
85.221265
 21
219.4398609999999
 31
0.0
  0
LINE
  5
9F23
330
9E1C
100
AcDbEntity
  8
1
  6
Continuous
100
AcDbLine
 10
51.926703
 20
204.3559409999998
 30
0.0
 11
73.96832100000001
 21
204.3559409999998
 31
0.0
  0
ARC
  5
9F24
330
9E1C
100
AcDbEntity
  8
1
  6
Continuous
100
AcDbCircle
 10
62.949105
 20
102.237719
 30
0.0
 40
100.0
100
AcDbArc
 50
82.965592
 51
97.033461
  0
LINE
  5
9F25
330
9E1C
100
AcDbEntity
  8
1
  6
Continuous
100
AcDbLine
 10
55.866526
 20
216.2198609999999
 30
0.0
 11
57.97280999999999
 21
214.1135759999999
 31
0.0
  0
LINE
  5
9F26
330
9E1C
100
AcDbEntity
  8
1
  6
Continuous
100
AcDbLine
 10
57.97280999999999
 20
216.2198609999999
 30
0.0
 11
55.866526
 21
214.1135759999999
 31
0.0
  0
LINE
  5
9F27
330
9E1C
100
AcDbEntity
  8
1
  6
Continuous
100
AcDbLine
 10
56.099592
 20
203.705928
 30
0.0
 11
69.798624
 21
203.705954
 31
0.0
  0
LINE
  5
9F28
330
9E1C
100
AcDbEntity
  8
1
  6
Continuous
100
AcDbLine
 10
40.774105
 20
218.2048609999999
 30
0.0
 11
40.944105
 21
218.5648609999998
 31
0.0
  0
ARC
  5
9F29
330
9E1C
100
AcDbEntity
  8
1
  6
Continuous
100
AcDbCircle
 10
40.223076
 20
217.2850079999999
 30
0.0
 40
0.9569799999999998
100
AcDbArc
 50
106.011913
 51
155.9597349999999
  0
LINE
  5
9F2A
330
9E1C
100
AcDbEntity
  8
1
  6
Continuous
100
AcDbLine
 10
40.310177
 20
216.2198609999999
 30
0.0
 11
42.41646099999999
 21
214.1135759999999
 31
0.0
  0
LINE
  5
9F2B
330
9E1C
100
AcDbEntity
  8
1
  6
Continuous
100
AcDbLine
 10
42.41646099999999
 20
216.2198609999999
 30
0.0
 11
40.310177
 21
214.1135759999999
 31
0.0
  0
ARC
  5
9F2C
330
9E1C
100
AcDbEntity
  8
1
  6
Continuous
100
AcDbCircle
 10
40.749105
 20
211.5135759999998
 30
0.0
 40
2.6
100
AcDbArc
 50
90.0
 51
180.0
  0
LINE
  5
9F2D
330
9E1C
100
AcDbEntity
  8
1
  6
Continuous
100
AcDbLine
 10
41.002248
 20
214.1135759999999
 30
0.0
 11
39.94910499999999
 21
215.1667189999999
 31
0.0
  0
LINE
  5
9F2E
330
9E1C
100
AcDbEntity
  8
1
  6
Continuous
100
AcDbLine
 10
41.002248
 20
216.2198609999999
 30
0.0
 11
39.94910499999999
 21
215.1667189999999
 31
0.0
  0
LINE
  5
9F2F
330
9E1C
100
AcDbEntity
  8
1
  6
Continuous
100
AcDbLine
 10
39.94910499999999
 20
214.1135759999999
 30
0.0
 11
39.94910499999999
 21
216.2198609999999
 31
0.0
  0
LINE
  5
9F30
330
9E1C
100
AcDbEntity
  8
1
  6
Continuous
100
AcDbLine
 10
40.099105
 20
216.5798609999999
 30
0.0
 11
40.229105
 21
216.2198609999999
 31
0.0
  0
ARC
  5
9F31
330
9E1C
100
AcDbEntity
  8
1
  6
Continuous
100
AcDbCircle
 10
43.560587
 20
219.755088
 30
0.0
 40
4.697225
100
AcDbArc
 50
206.286695
 51
222.530249
  0
ARC
  5
9F32
330
9E1C
100
AcDbEntity
  8
1
  6
Continuous
100
AcDbCircle
 10
50.94910500000001
 20
199.5002509999999
 30
0.0
 40
2.0
100
AcDbArc
 50
97.033461
 51
180.0
  0
ARC
  5
9F33
330
9E1C
100
AcDbEntity
  8
1
  6
Continuous
100
AcDbCircle
 10
54.904198
 20
215.4059269999999
 30
0.0
 40
11.74961399999999
100
AcDbArc
 50
236.2674930000001
 51
243.5265999999999
  0
ARC
  5
9F34
330
9E1C
100
AcDbEntity
  8
1
  6
Continuous
100
AcDbCircle
 10
47.849105
 20
202.8337379999999
 30
0.0
 40
3.0
100
AcDbArc
 50
90.0
 51
180.0
  0
ARC
  5
9F35
330
9E1C
100
AcDbEntity
  8
1
  6
Continuous
100
AcDbCircle
 10
50.449105
 20
203.462735
 30
0.0
 40
3.0
100
AcDbArc
 50
127.7832309999998
 51
180.0
  0
ARC
  5
9F36
330
9E1C
100
AcDbEntity
  8
1
  6
Continuous
100
AcDbCircle
 10
51.92989
 20
209.4334439999999
 30
0.0
 40
5.077504
100
AcDbArc
 50
243.5265999999999
 51
270.0
  0
LINE
  5
9F37
330
9E1C
100
AcDbEntity
  8
1
  6
Continuous
100
AcDbLine
 10
56.099592
 20
203.705928
 30
0.0
 11
55.99104499999999
 21
204.3559409999998
 31
0.0
  0
LINE
  5
9F38
330
9E1C
100
AcDbEntity
  8
1
  6
Continuous
100
AcDbLine
 10
48.795458
 20
216.2198609999999
 30
0.0
 11
50.90174300000001
 21
214.1135759999999
 31
0.0
  0
LINE
  5
9F39
330
9E1C
100
AcDbEntity
  8
1
  6
Continuous
100
AcDbLine
 10
47.381245
 20
216.2198609999999
 30
0.0
 11
49.48752899999998
 21
214.1135759999999
 31
0.0
  0
LINE
  5
9F3A
330
9E1C
100
AcDbEntity
  8
1
  6
Continuous
100
AcDbLine
 10
50.90174300000001
 20
216.2198609999999
 30
0.0
 11
48.795458
 21
214.1135759999999
 31
0.0
  0
LINE
  5
9F3B
330
9E1C
100
AcDbEntity
  8
1
  6
Continuous
100
AcDbLine
 10
49.48752899999998
 20
216.2198609999999
 30
0.0
 11
47.381245
 21
214.1135759999999
 31
0.0
  0
LINE
  5
9F3C
330
9E1C
100
AcDbEntity
  8
1
  6
Continuous
100
AcDbLine
 10
51.005226
 20
216.2198609999999
 30
0.0
 11
49.30579
 21
216.2198609999999
 31
0.0
  0
LINE
  5
9F3D
330
9E1C
100
AcDbEntity
  8
1
  6
Continuous
100
AcDbLine
 10
44.552818
 20
216.2198609999999
 30
0.0
 11
46.65910199999999
 21
214.1135759999999
 31
0.0
  0
LINE
  5
9F3E
330
9E1C
100
AcDbEntity
  8
1
  6
Continuous
100
AcDbLine
 10
46.65910199999999
 20
216.2198609999999
 30
0.0
 11
44.552818
 21
214.1135759999999
 31
0.0
  0
LINE
  5
9F3F
330
9E1C
100
AcDbEntity
  8
1
  6
Continuous
100
AcDbLine
 10
43.138604
 20
216.2198609999999
 30
0.0
 11
45.244888
 21
214.1135759999999
 31
0.0
  0
LINE
  5
9F40
330
9E1C
100
AcDbEntity
  8
1
  6
Continuous
100
AcDbLine
 10
41.72438999999999
 20
216.2198609999999
 30
0.0
 11
43.830675
 21
214.1135759999999
 31
0.0
  0
LINE
  5
9F41
330
9E1C
100
AcDbEntity
  8
1
  6
Continuous
100
AcDbLine
 10
45.244888
 20
216.2198609999999
 30
0.0
 11
43.138604
 21
214.1135759999999
 31
0.0
  0
LINE
  5
9F42
330
9E1C
100
AcDbEntity
  8
1
  6
Continuous
100
AcDbLine
 10
43.830675
 20
216.2198609999999
 30
0.0
 11
41.72438999999999
 21
214.1135759999999
 31
0.0
  0
LINE
  5
9F43
330
9E1C
100
AcDbEntity
  8
1
  6
Continuous
100
AcDbLine
 10
45.967031
 20
216.2198609999999
 30
0.0
 11
48.073315
 21
214.1135759999999
 31
0.0
  0
LINE
  5
9F44
330
9E1C
100
AcDbEntity
  8
1
  6
Continuous
100
AcDbLine
 10
48.073315
 20
216.2198609999999
 30
0.0
 11
45.967031
 21
214.1135759999999
 31
0.0
  0
LINE
  5
9F45
330
9E1C
100
AcDbEntity
  8
1
  6
Continuous
100
AcDbLine
 10
53.038099
 20
216.2198609999999
 30
0.0
 11
55.144383
 21
214.1135759999999
 31
0.0
  0
LINE
  5
9F46
330
9E1C
100
AcDbEntity
  8
1
  6
Continuous
100
AcDbLine
 10
51.62388499999998
 20
216.2198609999999
 30
0.0
 11
53.73016999999999
 21
214.1135759999999
 31
0.0
  0
LINE
  5
9F47
330
9E1C
100
AcDbEntity
  8
1
  6
Continuous
100
AcDbLine
 10
55.144383
 20
216.2198609999999
 30
0.0
 11
53.038099
 21
214.1135759999999
 31
0.0
  0
LINE
  5
9F48
330
9E1C
100
AcDbEntity
  8
1
  6
Continuous
100
AcDbLine
 10
53.73016999999999
 20
216.2198609999999
 30
0.0
 11
51.62388499999998
 21
214.1135759999999
 31
0.0
  0
LINE
  5
9F49
330
9E1C
100
AcDbEntity
  8
1
  6
Continuous
100
AcDbLine
 10
50.209672
 20
216.2198609999999
 30
0.0
 11
52.315956
 21
214.1135759999999
 31
0.0
  0
LINE
  5
9F4A
330
9E1C
100
AcDbEntity
  8
1
  6
Continuous
100
AcDbLine
 10
52.315956
 20
216.2198609999999
 30
0.0
 11
50.209672
 21
214.1135759999999
 31
0.0
  0
LINE
  5
9F4B
330
9E1C
100
AcDbEntity
  8
1
  6
Continuous
100
AcDbLine
 10
54.452312
 20
216.2198609999999
 30
0.0
 11
56.558597
 21
214.1135759999999
 31
0.0
  0
LINE
  5
9F4C
330
9E1C
100
AcDbEntity
  8
1
  6
Continuous
100
AcDbLine
 10
56.558597
 20
216.2198609999999
 30
0.0
 11
54.452312
 21
214.1135759999999
 31
0.0
  0
ARC
  5
9F4D
330
9E1C
100
AcDbEntity
  8
1
  6
Continuous
100
AcDbCircle
 10
45.76268699999999
 20
214.653888
 30
0.0
 40
6.206
100
AcDbArc
 50
129.539603
 51
140.935699
  0
LINE
  5
9F4E
330
9E1C
100
AcDbEntity
  8
1
  6
Continuous
100
AcDbLine
 10
30.949105
 20
221.637912
 30
0.0
 11
30.949105
 21
224.23788
 31
0.0
  0
ARC
  5
9F4F
330
9E1C
100
AcDbEntity
  8
1
  6
Continuous
100
AcDbCircle
 10
43.789788
 20
229.3524529999999
 30
0.0
 40
10.63951799999999
100
AcDbArc
 50
229.929097
 51
243.711147
  0
LINE
  5
9F50
330
9E1C
100
AcDbEntity
  8
1
  6
Continuous
100
AcDbLine
 10
36.94075699999999
 20
221.2105789999998
 30
0.0
 11
36.901253
 21
221.637891
 31
0.0
  0
ARC
  5
9F51
330
9E1C
100
AcDbEntity
  8
1
  6
Continuous
100
AcDbCircle
 10
40.676946
 20
223.05101
 30
0.0
 40
3.611148999999998
100
AcDbArc
 50
243.711147
 51
270.0
  0
ARC
  5
9F52
330
9E1C
100
AcDbEntity
  8
1
  6
Continuous
100
AcDbCircle
 10
85.67513499999998
 20
217.2850079999999
 30
0.0
 40
0.9569799999999998
100
AcDbArc
 50
24.04026499999999
 51
73.98808699999998
  0
LINE
  5
9F53
330
9E1C
100
AcDbEntity
  8
1
  6
Continuous
100
AcDbLine
 10
85.12410499999999
 20
218.2048609999999
 30
0.0
 11
84.954105
 21
218.5648609999998
 31
0.0
  0
LINE
  5
9F54
330
9E1C
100
AcDbEntity
  8
1
  6
Continuous
100
AcDbLine
 10
72.837089
 20
216.2198609999999
 30
0.0
 11
74.94337299999997
 21
214.1135759999999
 31
0.0
  0
LINE
  5
9F55
330
9E1C
100
AcDbEntity
  8
1
  6
Continuous
100
AcDbLine
 10
74.94337299999997
 20
216.2198609999999
 30
0.0
 11
72.837089
 21
214.1135759999999
 31
0.0
  0
LINE
  5
9F56
330
9E1C
100
AcDbEntity
  8
1
  6
Continuous
100
AcDbLine
 10
71.42287500000001
 20
216.2198609999999
 30
0.0
 11
73.52916
 21
214.1135759999999
 31
0.0
  0
LINE
  5
9F57
330
9E1C
100
AcDbEntity
  8
1
  6
Continuous
100
AcDbLine
 10
73.52916
 20
216.2198609999999
 30
0.0
 11
71.42287500000001
 21
214.1135759999999
 31
0.0
  0
LINE
  5
9F58
330
9E1C
100
AcDbEntity
  8
1
  6
Continuous
100
AcDbLine
 10
57.28074
 20
216.2198609999999
 30
0.0
 11
59.387024
 21
214.1135759999999
 31
0.0
  0
LINE
  5
9F59
330
9E1C
100
AcDbEntity
  8
1
  6
Continuous
100
AcDbLine
 10
59.387024
 20
216.2198609999999
 30
0.0
 11
57.28074
 21
214.1135759999999
 31
0.0
  0
LINE
  5
9F5A
330
9E1C
100
AcDbEntity
  8
1
  6
Continuous
100
AcDbLine
 10
61.14318199999999
 20
203.705937
 30
0.0
 11
60.38740999999999
 21
204.3559409999998
 31
0.0
  0
LINE
  5
9F5B
330
9E1C
100
AcDbEntity
  8
1
  6
Continuous
100
AcDbLine
 10
57.905515
 20
203.705931
 30
0.0
 11
58.552746
 21
204.3559409999998
 31
0.0
  0
LINE
  5
9F5C
330
9E1C
100
AcDbEntity
  8
1
  6
Continuous
100
AcDbLine
 10
64.75502900000001
 20
203.705937
 30
0.0
 11
65.510801
 21
204.3559409999998
 31
0.0
  0
LINE
  5
9F5D
330
9E1C
100
AcDbEntity
  8
1
  6
Continuous
100
AcDbLine
 10
69.79861899999999
 20
203.705928
 30
0.0
 11
69.90716500000001
 21
204.3559409999998
 31
0.0
  0
LINE
  5
9F5E
330
9E1C
100
AcDbEntity
  8
1
  6
Continuous
100
AcDbLine
 10
67.99269599999999
 20
203.705931
 30
0.0
 11
67.345465
 21
204.3559409999998
 31
0.0
  0
LINE
  5
9F5F
330
9E1C
100
AcDbEntity
  8
1
  6
Continuous
100
AcDbLine
 10
65.76602099999999
 20
216.2198609999999
 30
0.0
 11
67.87230500000001
 21
214.1135759999999
 31
0.0
  0
LINE
  5
9F60
330
9E1C
100
AcDbEntity
  8
1
  6
Continuous
100
AcDbLine
 10
64.351807
 20
216.2198609999999
 30
0.0
 11
66.45809200000001
 21
214.1135759999999
 31
0.0
  0
LINE
  5
9F61
330
9E1C
100
AcDbEntity
  8
1
  6
Continuous
100
AcDbLine
 10
67.87230500000001
 20
216.2198609999999
 30
0.0
 11
65.76602099999999
 21
214.1135759999999
 31
0.0
  0
LINE
  5
9F62
330
9E1C
100
AcDbEntity
  8
1
  6
Continuous
100
AcDbLine
 10
66.45809200000001
 20
216.2198609999999
 30
0.0
 11
64.351807
 21
214.1135759999999
 31
0.0
  0
LINE
  5
9F63
330
9E1C
100
AcDbEntity
  8
1
  6
Continuous
100
AcDbLine
 10
61.52338
 20
216.2198609999999
 30
0.0
 11
63.629665
 21
214.1135759999999
 31
0.0
  0
LINE
  5
9F64
330
9E1C
100
AcDbEntity
  8
1
  6
Continuous
100
AcDbLine
 10
60.10916700000001
 20
216.2198609999999
 30
0.0
 11
62.215451
 21
214.1135759999999
 31
0.0
  0
LINE
  5
9F65
330
9E1C
100
AcDbEntity
  8
1
  6
Continuous
100
AcDbLine
 10
63.629665
 20
216.2198609999999
 30
0.0
 11
61.52338
 21
214.1135759999999
 31
0.0
  0
LINE
  5
9F66
330
9E1C
100
AcDbEntity
  8
1
  6
Continuous
100
AcDbLine
 10
62.215451
 20
216.2198609999999
 30
0.0
 11
60.10916700000001
 21
214.1135759999999
 31
0.0
  0
LINE
  5
9F67
330
9E1C
100
AcDbEntity
  8
1
  6
Continuous
100
AcDbLine
 10
58.694953
 20
216.2198609999999
 30
0.0
 11
60.80123799999999
 21
214.1135759999999
 31
0.0
  0
LINE
  5
9F68
330
9E1C
100
AcDbEntity
  8
1
  6
Continuous
100
AcDbLine
 10
60.80123799999999
 20
216.2198609999999
 30
0.0
 11
58.694953
 21
214.1135759999999
 31
0.0
  0
LINE
  5
9F69
330
9E1C
100
AcDbEntity
  8
1
  6
Continuous
100
AcDbLine
 10
62.93759399999999
 20
216.2198609999999
 30
0.0
 11
65.043878
 21
214.1135759999999
 31
0.0
  0
LINE
  5
9F6A
330
9E1C
100
AcDbEntity
  8
1
  6
Continuous
100
AcDbLine
 10
65.043878
 20
216.2198609999999
 30
0.0
 11
62.93759399999999
 21
214.1135759999999
 31
0.0
  0
LINE
  5
9F6B
330
9E1C
100
AcDbEntity
  8
1
  6
Continuous
100
AcDbLine
 10
68.594448
 20
216.2198609999999
 30
0.0
 11
70.70073199999999
 21
214.1135759999999
 31
0.0
  0
LINE
  5
9F6C
330
9E1C
100
AcDbEntity
  8
1
  6
Continuous
100
AcDbLine
 10
70.70073199999999
 20
216.2198609999999
 30
0.0
 11
68.594448
 21
214.1135759999999
 31
0.0
  0
LINE
  5
9F6D
330
9E1C
100
AcDbEntity
  8
1
  6
Continuous
100
AcDbLine
 10
67.180235
 20
216.2198609999999
 30
0.0
 11
69.286519
 21
214.1135759999999
 31
0.0
  0
LINE
  5
9F6E
330
9E1C
100
AcDbEntity
  8
1
  6
Continuous
100
AcDbLine
 10
69.286519
 20
216.2198609999999
 30
0.0
 11
67.180235
 21
214.1135759999999
 31
0.0
  0
LINE
  5
9F6F
330
9E1C
100
AcDbEntity
  8
1
  6
Continuous
100
AcDbLine
 10
70.008662
 20
216.2198609999999
 30
0.0
 11
72.114946
 21
214.1135759999999
 31
0.0
  0
LINE
  5
9F70
330
9E1C
100
AcDbEntity
  8
1
  6
Continuous
100
AcDbLine
 10
72.114946
 20
216.2198609999999
 30
0.0
 11
70.008662
 21
214.1135759999999
 31
0.0
  0
ARC
  5
9F71
330
9E1C
100
AcDbEntity
  8
1
  6
Continuous
100
AcDbCircle
 10
74.949105
 20
199.5002509999999
 30
0.0
 40
2.0
100
AcDbArc
 50
0.0
 51
82.96653899999999
  0
ARC
  5
9F72
330
9E1C
100
AcDbEntity
  8
1
  6
Continuous
100
AcDbCircle
 10
73.96832100000001
 20
209.4334439999999
 30
0.0
 40
5.077504
100
AcDbArc
 50
270.0
 51
296.4734
  0
ARC
  5
9F73
330
9E1C
100
AcDbEntity
  8
1
  6
Continuous
100
AcDbCircle
 10
85.149105
 20
211.5135759999998
 30
0.0
 40
2.6
100
AcDbArc
 50
0.0
 51
90.0
  0
ARC
  5
9F74
330
9E1C
100
AcDbEntity
  8
1
  6
Continuous
100
AcDbCircle
 10
78.04910500000002
 20
202.8337379999999
 30
0.0
 40
3.0
100
AcDbArc
 50
0.0
 51
90.0
  0
ARC
  5
9F75
330
9E1C
100
AcDbEntity
  8
1
  6
Continuous
100
AcDbCircle
 10
75.449105
 20
203.462735
 30
0.0
 40
3.0
100
AcDbArc
 50
0.0
 51
52.216769
  0
ARC
  5
9F76
330
9E1C
100
AcDbEntity
  8
1
  6
Continuous
100
AcDbCircle
 10
70.994013
 20
215.4059269999999
 30
0.0
 40
11.74961399999999
100
AcDbArc
 50
296.4734
 51
303.732507
  0
LINE
  5
9F77
330
9E1C
100
AcDbEntity
  8
1
  6
Continuous
100
AcDbLine
 10
81.32236999999998
 20
216.2198609999999
 30
0.0
 11
83.428655
 21
214.1135759999999
 31
0.0
  0
LINE
  5
9F78
330
9E1C
100
AcDbEntity
  8
1
  6
Continuous
100
AcDbLine
 10
83.428655
 20
216.2198609999999
 30
0.0
 11
81.32236999999998
 21
214.1135759999999
 31
0.0
  0
LINE
  5
9F79
330
9E1C
100
AcDbEntity
  8
1
  6
Continuous
100
AcDbLine
 10
77.079729
 20
216.2198609999999
 30
0.0
 11
79.186014
 21
214.1135759999999
 31
0.0
  0
LINE
  5
9F7A
330
9E1C
100
AcDbEntity
  8
1
  6
Continuous
100
AcDbLine
 10
79.186014
 20
216.2198609999999
 30
0.0
 11
77.079729
 21
214.1135759999999
 31
0.0
  0
LINE
  5
9F7B
330
9E1C
100
AcDbEntity
  8
1
  6
Continuous
100
AcDbLine
 10
75.66551599999998
 20
216.2198609999999
 30
0.0
 11
77.7718
 21
214.1135759999999
 31
0.0
  0
LINE
  5
9F7C
330
9E1C
100
AcDbEntity
  8
1
  6
Continuous
100
AcDbLine
 10
74.25130199999998
 20
216.2198609999999
 30
0.0
 11
76.35758699999998
 21
214.1135759999999
 31
0.0
  0
LINE
  5
9F7D
330
9E1C
100
AcDbEntity
  8
1
  6
Continuous
100
AcDbLine
 10
77.7718
 20
216.2198609999999
 30
0.0
 11
75.66551599999998
 21
214.1135759999999
 31
0.0
  0
LINE
  5
9F7E
330
9E1C
100
AcDbEntity
  8
1
  6
Continuous
100
AcDbLine
 10
76.35758699999998
 20
216.2198609999999
 30
0.0
 11
74.25130199999998
 21
214.1135759999999
 31
0.0
  0
LINE
  5
9F7F
330
9E1C
100
AcDbEntity
  8
1
  6
Continuous
100
AcDbLine
 10
79.90815699999997
 20
216.2198609999999
 30
0.0
 11
82.01444100000001
 21
214.1135759999999
 31
0.0
  0
LINE
  5
9F80
330
9E1C
100
AcDbEntity
  8
1
  6
Continuous
100
AcDbLine
 10
78.493943
 20
216.2198609999999
 30
0.0
 11
80.60022700000002
 21
214.1135759999999
 31
0.0
  0
LINE
  5
9F81
330
9E1C
100
AcDbEntity
  8
1
  6
Continuous
100
AcDbLine
 10
82.01444100000001
 20
216.2198609999999
 30
0.0
 11
79.90815699999997
 21
214.1135759999999
 31
0.0
  0
LINE
  5
9F82
330
9E1C
100
AcDbEntity
  8
1
  6
Continuous
100
AcDbLine
 10
80.60022700000002
 20
216.2198609999999
 30
0.0
 11
78.493943
 21
214.1135759999999
 31
0.0
  0
ARC
  5
9F83
330
9E1C
100
AcDbEntity
  8
1
  6
Continuous
100
AcDbCircle
 10
82.33762400000001
 20
219.755088
 30
0.0
 40
4.697225
100
AcDbArc
 50
317.4697509999999
 51
333.713305
  0
LINE
  5
9F84
330
9E1C
100
AcDbEntity
  8
1
  6
Continuous
100
AcDbLine
 10
85.565011
 20
216.2198609999999
 30
0.0
 11
85.94910500000002
 21
215.835766
 31
0.0
  0
LINE
  5
9F85
330
9E1C
100
AcDbEntity
  8
1
  6
Continuous
100
AcDbLine
 10
84.15079699999997
 20
216.2198609999999
 30
0.0
 11
85.94910500000002
 21
214.4215529999999
 31
0.0
  0
LINE
  5
9F86
330
9E1C
100
AcDbEntity
  8
1
  6
Continuous
100
AcDbLine
 10
82.73658399999998
 20
216.2198609999999
 30
0.0
 11
84.84286800000003
 21
214.1135759999999
 31
0.0
  0
LINE
  5
9F87
330
9E1C
100
AcDbEntity
  8
1
  6
Continuous
100
AcDbLine
 10
85.94910500000002
 20
214.4976709999999
 30
0.0
 11
85.565011
 21
214.1135759999999
 31
0.0
  0
LINE
  5
9F88
330
9E1C
100
AcDbEntity
  8
1
  6
Continuous
100
AcDbLine
 10
85.94910500000002
 20
215.911885
 30
0.0
 11
84.15079699999997
 21
214.1135759999999
 31
0.0
  0
LINE
  5
9F89
330
9E1C
100
AcDbEntity
  8
1
  6
Continuous
100
AcDbLine
 10
84.84286800000003
 20
216.2198609999999
 30
0.0
 11
82.73658399999998
 21
214.1135759999999
 31
0.0
  0
LINE
  5
9F8A
330
9E1C
100
AcDbEntity
  8
1
  6
Continuous
100
AcDbLine
 10
85.94910500000002
 20
214.1135759999999
 30
0.0
 11
85.94910500000002
 21
216.2198609999999
 31
0.0
  0
LINE
  5
9F8B
330
9E1C
100
AcDbEntity
  8
1
  6
Continuous
100
AcDbLine
 10
85.79910500000002
 20
216.5798609999999
 30
0.0
 11
85.669105
 21
216.2198609999999
 31
0.0
  0
ARC
  5
9F8C
330
9E1C
100
AcDbEntity
  8
1
  6
Continuous
100
AcDbCircle
 10
80.135524
 20
214.653888
 30
0.0
 40
6.206
100
AcDbArc
 50
39.064301
 51
50.460397
  0
ARC
  5
9F8D
330
9E1C
100
AcDbEntity
  8
1
  6
Continuous
100
AcDbCircle
 10
85.221265
 20
223.05101
 30
0.0
 40
3.611148999999998
100
AcDbArc
 50
270.0
 51
296.2888529999998
  0
LINE
  5
9F8E
330
9E1C
100
AcDbEntity
  8
1
  6
Continuous
100
AcDbLine
 10
88.957454
 20
221.2105789999998
 30
0.0
 11
88.99695799999998
 21
221.637891
 31
0.0
  0
ARC
  5
9F8F
330
9E1C
100
AcDbEntity
  8
1
  6
Continuous
100
AcDbCircle
 10
82.10842300000001
 20
229.3524529999999
 30
0.0
 40
10.63951799999999
100
AcDbArc
 50
296.2888529999998
 51
310.0709029999998
  0
LINE
  5
9F90
330
9E1C
100
AcDbEntity
  8
1
  6
Continuous
100
AcDbLine
 10
89.34910499999999
 20
174.237719
 30
0.0
 11
89.34910499999999
 21
180.2377189999999
 31
0.0
  0
LINE
  5
9F91
330
9E1C
100
AcDbEntity
  8
1
  6
Continuous
100
AcDbLine
 10
94.94910500000001
 20
221.6376879999998
 30
0.0
 11
94.94910500000001
 21
224.238002
 31
0.0
  0
LINE
  5
9F92
330
9E1C
100
AcDbEntity
  8
4
  6
CENTER
100
AcDbLine
 10
87.949105
 20
229.2379889999998
 30
0.0
 11
87.949105
 21
216.6377129999999
 31
0.0
  0
LINE
  5
9F93
330
9E1C
100
AcDbEntity
  8
4
  6
CENTER
100
AcDbLine
 10
37.94910499999998
 20
229.2378939999999
 30
0.0
 11
37.94910499999998
 21
216.6378879999999
 31
0.0
  0
LINE
  5
9F94
330
9E1C
100
AcDbEntity
  8
4
  6
CENTER
100
AcDbLine
 10
268.9491049999999
 20
229.2378939999999
 30
0.0
 11
268.9491049999999
 21
216.6378879999999
 31
0.0
  0
LINE
  5
9F95
330
9E1C
100
AcDbEntity
  8
4
  6
CENTER
100
AcDbLine
 10
318.9491049999999
 20
229.2379889999998
 30
0.0
 11
318.9491049999999
 21
216.6377129999999
 31
0.0
  0
LINE
  5
9F96
330
9E1C
100
AcDbEntity
  8
2
  6
Continuous
100
AcDbLine
 10
88.04910500000003
 20
180.5612189999999
 30
0.0
 11
89.02560499999998
 21
180.5612189999999
 31
0.0
  0
LINE
  5
9F97
330
9E1C
100
AcDbEntity
  8
2
  6
Continuous
100
AcDbLine
 10
88.04910500000003
 20
173.914219
 30
0.0
 11
89.02560499999998
 21
173.914219
 31
0.0
  0
LINE
  5
9F98
330
9E1C
100
AcDbEntity
  8
1
  6
Continuous
100
AcDbLine
 10
88.34910500000002
 20
181.237719
 30
0.0
 11
89.34910499999999
 21
180.2377189999999
 31
0.0
  0
LINE
  5
9F99
330
9E1C
100
AcDbEntity
  8
1
  6
Continuous
100
AcDbLine
 10
88.34910500000002
 20
173.237719
 30
0.0
 11
89.34910499999999
 21
174.237719
 31
0.0
  0
LINE
  5
9F9A
330
9E1C
100
AcDbEntity
  8
1
  6
Continuous
100
AcDbLine
 10
88.04910500000003
 20
183.237719
 30
0.0
 11
88.04910500000003
 21
171.2377189999999
 31
0.0
  0
ARC
  5
9F9B
330
9E1C
100
AcDbEntity
  8
1
  6
Continuous
100
AcDbCircle
 10
76.585003
 20
177.237719
 30
0.0
 40
11.464102
100
AcDbArc
 50
342.4120459999999
 51
17.587954
  0
ARC
  5
9F9C
330
9E1C
100
AcDbEntity
  8
1
  6
Continuous
100
AcDbCircle
 10
94.513206
 20
177.237719
 30
0.0
 40
11.464102
100
AcDbArc
 50
162.412046
 51
197.5879539999999
  0
LINE
  5
9F9D
330
9E1C
100
AcDbEntity
  8
1
  6
Continuous
100
AcDbLine
 10
87.51320600000005
 20
170.309516
 30
0.0
 11
88.04910500000003
 21
171.2377189999999
 31
0.0
  0
LINE
  5
9F9E
330
9E1C
100
AcDbEntity
  8
1
  6
Continuous
100
AcDbLine
 10
83.58500300000001
 20
170.309516
 30
0.0
 11
83.04910500000003
 21
171.2377189999999
 31
0.0
  0
LINE
  5
9F9F
330
9E1C
100
AcDbEntity
  8
1
  6
Continuous
100
AcDbLine
 10
83.58500300000001
 20
170.309516
 30
0.0
 11
87.51320600000005
 21
170.309516
 31
0.0
  0
LINE
  5
9FA0
330
9E1C
100
AcDbEntity
  8
1
  6
Continuous
100
AcDbLine
 10
83.58500300000001
 20
173.7736179999999
 30
0.0
 11
87.51320600000005
 21
173.7736179999999
 31
0.0
  0
ARC
  5
9FA1
330
9E1C
100
AcDbEntity
  8
1
  6
Continuous
100
AcDbCircle
 10
86.11609200000001
 20
172.0415669999999
 30
0.0
 40
3.066986999999998
100
AcDbArc
 50
145.615753
 51
205.615753
  0
ARC
  5
9FA2
330
9E1C
100
AcDbEntity
  8
1
  6
Continuous
100
AcDbCircle
 10
84.982117
 20
172.0415669999999
 30
0.0
 40
3.066986999999998
100
AcDbArc
 50
334.384247
 51
34.38424699999998
  0
ARC
  5
9FA3
330
9E1C
100
AcDbEntity
  8
1
  6
Continuous
100
AcDbCircle
 10
84.982117
 20
182.433872
 30
0.0
 40
3.066986999999998
100
AcDbArc
 50
325.6157529999999
 51
25.615753
  0
ARC
  5
9FA4
330
9E1C
100
AcDbEntity
  8
1
  6
Continuous
100
AcDbCircle
 10
86.11609200000001
 20
182.433872
 30
0.0
 40
3.066986999999998
100
AcDbArc
 50
154.3842469999999
 51
214.384247
  0
LINE
  5
9FA5
330
9E1C
100
AcDbEntity
  8
1
  6
Continuous
100
AcDbLine
 10
83.58500300000001
 20
180.701821
 30
0.0
 11
87.51320600000005
 21
180.701821
 31
0.0
  0
LINE
  5
9FA6
330
9E1C
100
AcDbEntity
  8
1
  6
Continuous
100
AcDbLine
 10
83.58500300000001
 20
184.165922
 30
0.0
 11
87.51320600000005
 21
184.165922
 31
0.0
  0
LINE
  5
9FA7
330
9E1C
100
AcDbEntity
  8
1
  6
Continuous
100
AcDbLine
 10
83.58500300000001
 20
184.165922
 30
0.0
 11
83.04910500000003
 21
183.237719
 31
0.0
  0
LINE
  5
9FA8
330
9E1C
100
AcDbEntity
  8
1
  6
Continuous
100
AcDbLine
 10
87.51320600000005
 20
184.165922
 30
0.0
 11
88.04910500000003
 21
183.237719
 31
0.0
  0
LINE
  5
9FA9
330
9E1C
100
AcDbEntity
  8
1
  6
Continuous
100
AcDbLine
 10
152.949105
 20
221.637566
 30
0.0
 11
216.9491049999999
 21
221.637342
 31
0.0
  0
LINE
  5
9FAA
330
9E1C
100
AcDbEntity
  8
1
  6
Continuous
100
AcDbLine
 10
161.9591049999999
 20
218.2045149999999
 30
0.0
 11
207.939107
 21
218.2045149999999
 31
0.0
  0
LINE
  5
9FAB
330
9E1C
100
AcDbEntity
  8
1
  6
Continuous
100
AcDbLine
 10
161.949105
 20
216.219515
 30
0.0
 11
207.949105
 21
216.219515
 31
0.0
  0
LINE
  5
9FAC
330
9E1C
100
AcDbEntity
  8
1
  6
Continuous
100
AcDbLine
 10
158.9407569999999
 20
221.210233
 30
0.0
 11
210.957454
 21
221.210233
 31
0.0
  0
LINE
  5
9FAD
330
9E1C
100
AcDbEntity
  8
1
  6
Continuous
100
AcDbLine
 10
162.676946
 20
219.439515
 30
0.0
 11
207.2212649999999
 21
219.439515
 31
0.0
  0
LINE
  5
9FAE
330
9E1C
100
AcDbEntity
  8
4
  6
CENTER
100
AcDbLine
 10
159.949105
 20
229.237548
 30
0.0
 11
159.949105
 21
216.637542
 31
0.0
  0
ARC
  5
9FAF
330
9E1C
100
AcDbEntity
  8
1
  6
Continuous
100
AcDbCircle
 10
162.2230759999998
 20
217.284662
 30
0.0
 40
0.9569799999999998
100
AcDbArc
 50
106.011913
 51
155.9597349999999
  0
LINE
  5
9FB0
330
9E1C
100
AcDbEntity
  8
1
  6
Continuous
100
AcDbLine
 10
162.774105
 20
218.2045149999999
 30
0.0
 11
162.944105
 21
218.564515
 31
0.0
  0
ARC
  5
9FB1
330
9E1C
100
AcDbEntity
  8
1
  6
Continuous
100
AcDbCircle
 10
165.560587
 20
219.7547419999999
 30
0.0
 40
4.697225
100
AcDbArc
 50
206.286695
 51
222.530249
  0
LINE
  5
9FB2
330
9E1C
100
AcDbEntity
  8
1
  6
Continuous
100
AcDbLine
 10
162.099105
 20
216.579515
 30
0.0
 11
162.229105
 21
216.219515
 31
0.0
  0
LINE
  5
9FB3
330
9E1C
100
AcDbEntity
  8
1
  6
Continuous
100
AcDbLine
 10
163.002248
 20
216.219515
 30
0.0
 11
161.949105
 21
215.166373
 31
0.0
  0
LINE
  5
9FB4
330
9E1C
100
AcDbEntity
  8
1
  6
Continuous
100
AcDbLine
 10
173.0052259999999
 20
216.219515
 30
0.0
 11
171.30579
 21
216.219515
 31
0.0
  0
ARC
  5
9FB5
330
9E1C
100
AcDbEntity
  8
1
  6
Continuous
100
AcDbCircle
 10
167.762687
 20
214.6535419999999
 30
0.0
 40
6.206
100
AcDbArc
 50
129.539603
 51
140.935699
  0
ARC
  5
9FB6
330
9E1C
100
AcDbEntity
  8
1
  6
Continuous
100
AcDbCircle
 10
162.676946
 20
223.050664
 30
0.0
 40
3.611148999999998
100
AcDbArc
 50
243.711147
 51
270.0
  0
LINE
  5
9FB7
330
9E1C
100
AcDbEntity
  8
1
  6
Continuous
100
AcDbLine
 10
158.9407569999999
 20
221.210233
 30
0.0
 11
158.9012529999999
 21
221.637545
 31
0.0
  0
ARC
  5
9FB8
330
9E1C
100
AcDbEntity
  8
1
  6
Continuous
100
AcDbCircle
 10
165.7897879999999
 20
229.352107
 30
0.0
 40
10.63951799999999
100
AcDbArc
 50
229.929097
 51
243.711147
  0
LINE
  5
9FB9
330
9E1C
100
AcDbEntity
  8
1
  6
Continuous
100
AcDbLine
 10
152.949105
 20
221.637566
 30
0.0
 11
152.949105
 21
224.2375339999999
 31
0.0
  0
LINE
  5
9FBA
330
9E1C
100
AcDbEntity
  8
4
  6
CENTER
100
AcDbLine
 10
209.9491049999998
 20
229.237643
 30
0.0
 11
209.9491049999998
 21
216.637367
 31
0.0
  0
LINE
  5
9FBB
330
9E1C
100
AcDbEntity
  8
1
  6
Continuous
100
AcDbLine
 10
207.1241049999999
 20
218.2045149999999
 30
0.0
 11
206.954105
 21
218.564515
 31
0.0
  0
ARC
  5
9FBC
330
9E1C
100
AcDbEntity
  8
1
  6
Continuous
100
AcDbCircle
 10
207.675135
 20
217.284662
 30
0.0
 40
0.9569799999999998
100
AcDbArc
 50
24.04026499999999
 51
73.98808699999998
  0
LINE
  5
9FBD
330
9E1C
100
AcDbEntity
  8
1
  6
Continuous
100
AcDbLine
 10
207.799105
 20
216.579515
 30
0.0
 11
207.6691049999999
 21
216.219515
 31
0.0
  0
LINE
  5
9FBE
330
9E1C
100
AcDbEntity
  8
1
  6
Continuous
100
AcDbLine
 10
207.565011
 20
216.219515
 30
0.0
 11
207.949105
 21
215.83542
 31
0.0
  0
ARC
  5
9FBF
330
9E1C
100
AcDbEntity
  8
1
  6
Continuous
100
AcDbCircle
 10
204.337624
 20
219.7547419999999
 30
0.0
 40
4.697225
100
AcDbArc
 50
317.4697509999999
 51
333.713305
  0
ARC
  5
9FC0
330
9E1C
100
AcDbEntity
  8
1
  6
Continuous
100
AcDbCircle
 10
204.108423
 20
229.352107
 30
0.0
 40
10.63951799999999
100
AcDbArc
 50
296.2888529999998
 51
310.0709029999998
  0
LINE
  5
9FC1
330
9E1C
100
AcDbEntity
  8
1
  6
Continuous
100
AcDbLine
 10
210.957454
 20
221.210233
 30
0.0
 11
210.996958
 21
221.637545
 31
0.0
  0
ARC
  5
9FC2
330
9E1C
100
AcDbEntity
  8
1
  6
Continuous
100
AcDbCircle
 10
207.2212649999999
 20
223.050664
 30
0.0
 40
3.611148999999998
100
AcDbArc
 50
270.0
 51
296.2888529999998
  0
ARC
  5
9FC3
330
9E1C
100
AcDbEntity
  8
1
  6
Continuous
100
AcDbCircle
 10
202.135524
 20
214.6535419999999
 30
0.0
 40
6.206
100
AcDbArc
 50
39.064301
 51
50.460397
  0
LINE
  5
9FC4
330
9E1C
100
AcDbEntity
  8
1
  6
Continuous
100
AcDbLine
 10
216.9491049999999
 20
221.637342
 30
0.0
 11
216.9491049999999
 21
224.2376559999999
 31
0.0
  0
LINE
  5
9FC5
330
9E1C
100
AcDbEntity
  8
1
  6
Continuous
100
AcDbLine
 10
195.5291599999999
 20
216.219515
 30
0.0
 11
193.422875
 21
214.1132299999999
 31
0.0
  0
LINE
  5
9FC6
330
9E1C
100
AcDbEntity
  8
1
  6
Continuous
100
AcDbLine
 10
193.422875
 20
216.219515
 30
0.0
 11
195.5291599999999
 21
214.1132299999999
 31
0.0
  0
LINE
  5
9FC7
330
9E1C
100
AcDbEntity
  8
1
  6
Continuous
100
AcDbLine
 10
196.943373
 20
216.219515
 30
0.0
 11
194.8370889999999
 21
214.1132299999999
 31
0.0
  0
LINE
  5
9FC8
330
9E1C
100
AcDbEntity
  8
1
  6
Continuous
100
AcDbLine
 10
194.8370889999999
 20
216.219515
 30
0.0
 11
196.943373
 21
214.1132299999999
 31
0.0
  0
LINE
  5
9FC9
330
9E1C
100
AcDbEntity
  8
1
  6
Continuous
100
AcDbLine
 10
194.114946
 20
216.219515
 30
0.0
 11
192.008662
 21
214.1132299999999
 31
0.0
  0
LINE
  5
9FCA
330
9E1C
100
AcDbEntity
  8
1
  6
Continuous
100
AcDbLine
 10
192.008662
 20
216.219515
 30
0.0
 11
194.114946
 21
214.1132299999999
 31
0.0
  0
LINE
  5
9FCB
330
9E1C
100
AcDbEntity
  8
1
  6
Continuous
100
AcDbLine
 10
207.949105
 20
214.1132299999999
 30
0.0
 11
207.949105
 21
216.219515
 31
0.0
  0
LINE
  5
9FCC
330
9E1C
100
AcDbEntity
  8
1
  6
Continuous
100
AcDbLine
 10
206.8428679999999
 20
216.219515
 30
0.0
 11
204.7365839999999
 21
214.1132299999999
 31
0.0
  0
LINE
  5
9FCD
330
9E1C
100
AcDbEntity
  8
1
  6
Continuous
100
AcDbLine
 10
207.949105
 20
215.911539
 30
0.0
 11
206.150797
 21
214.1132299999999
 31
0.0
  0
LINE
  5
9FCE
330
9E1C
100
AcDbEntity
  8
1
  6
Continuous
100
AcDbLine
 10
204.7365839999999
 20
216.219515
 30
0.0
 11
206.8428679999999
 21
214.1132299999999
 31
0.0
  0
LINE
  5
9FCF
330
9E1C
100
AcDbEntity
  8
1
  6
Continuous
100
AcDbLine
 10
206.150797
 20
216.219515
 30
0.0
 11
207.949105
 21
214.421207
 31
0.0
  0
LINE
  5
9FD0
330
9E1C
100
AcDbEntity
  8
1
  6
Continuous
100
AcDbLine
 10
202.6002269999999
 20
216.219515
 30
0.0
 11
200.4939429999998
 21
214.1132299999999
 31
0.0
  0
LINE
  5
9FD1
330
9E1C
100
AcDbEntity
  8
1
  6
Continuous
100
AcDbLine
 10
204.0144409999999
 20
216.219515
 30
0.0
 11
201.9081569999999
 21
214.1132299999999
 31
0.0
  0
LINE
  5
9FD2
330
9E1C
100
AcDbEntity
  8
1
  6
Continuous
100
AcDbLine
 10
200.4939429999998
 20
216.219515
 30
0.0
 11
202.6002269999999
 21
214.1132299999999
 31
0.0
  0
LINE
  5
9FD3
330
9E1C
100
AcDbEntity
  8
1
  6
Continuous
100
AcDbLine
 10
201.9081569999999
 20
216.219515
 30
0.0
 11
204.0144409999999
 21
214.1132299999999
 31
0.0
  0
LINE
  5
9FD4
330
9E1C
100
AcDbEntity
  8
1
  6
Continuous
100
AcDbLine
 10
198.357587
 20
216.219515
 30
0.0
 11
196.251302
 21
214.1132299999999
 31
0.0
  0
LINE
  5
9FD5
330
9E1C
100
AcDbEntity
  8
1
  6
Continuous
100
AcDbLine
 10
199.7718
 20
216.219515
 30
0.0
 11
197.6655159999999
 21
214.1132299999999
 31
0.0
  0
LINE
  5
9FD6
330
9E1C
100
AcDbEntity
  8
1
  6
Continuous
100
AcDbLine
 10
196.251302
 20
216.219515
 30
0.0
 11
198.357587
 21
214.1132299999999
 31
0.0
  0
LINE
  5
9FD7
330
9E1C
100
AcDbEntity
  8
1
  6
Continuous
100
AcDbLine
 10
197.6655159999999
 20
216.219515
 30
0.0
 11
199.7718
 21
214.1132299999999
 31
0.0
  0
LINE
  5
9FD8
330
9E1C
100
AcDbEntity
  8
1
  6
Continuous
100
AcDbLine
 10
201.186014
 20
216.219515
 30
0.0
 11
199.0797289999999
 21
214.1132299999999
 31
0.0
  0
LINE
  5
9FD9
330
9E1C
100
AcDbEntity
  8
1
  6
Continuous
100
AcDbLine
 10
199.0797289999999
 20
216.219515
 30
0.0
 11
201.186014
 21
214.1132299999999
 31
0.0
  0
LINE
  5
9FDA
330
9E1C
100
AcDbEntity
  8
1
  6
Continuous
100
AcDbLine
 10
205.428655
 20
216.219515
 30
0.0
 11
203.32237
 21
214.1132299999999
 31
0.0
  0
LINE
  5
9FDB
330
9E1C
100
AcDbEntity
  8
1
  6
Continuous
100
AcDbLine
 10
203.32237
 20
216.219515
 30
0.0
 11
205.428655
 21
214.1132299999999
 31
0.0
  0
LINE
  5
9FDC
330
9E1C
100
AcDbEntity
  8
1
  6
Continuous
100
AcDbLine
 10
191.2865189999999
 20
216.219515
 30
0.0
 11
189.180235
 21
214.1132299999999
 31
0.0
  0
LINE
  5
9FDD
330
9E1C
100
AcDbEntity
  8
1
  6
Continuous
100
AcDbLine
 10
189.180235
 20
216.219515
 30
0.0
 11
191.2865189999999
 21
214.1132299999999
 31
0.0
  0
LINE
  5
9FDE
330
9E1C
100
AcDbEntity
  8
1
  6
Continuous
100
AcDbLine
 10
192.7007319999999
 20
216.219515
 30
0.0
 11
190.594448
 21
214.1132299999999
 31
0.0
  0
LINE
  5
9FDF
330
9E1C
100
AcDbEntity
  8
1
  6
Continuous
100
AcDbLine
 10
190.594448
 20
216.219515
 30
0.0
 11
192.7007319999999
 21
214.1132299999999
 31
0.0
  0
LINE
  5
9FE0
330
9E1C
100
AcDbEntity
  8
1
  6
Continuous
100
AcDbLine
 10
187.043878
 20
216.219515
 30
0.0
 11
184.9375939999999
 21
214.1132299999999
 31
0.0
  0
LINE
  5
9FE1
330
9E1C
100
AcDbEntity
  8
1
  6
Continuous
100
AcDbLine
 10
184.9375939999999
 20
216.219515
 30
0.0
 11
187.043878
 21
214.1132299999999
 31
0.0
  0
LINE
  5
9FE2
330
9E1C
100
AcDbEntity
  8
1
  6
Continuous
100
AcDbLine
 10
188.4580919999999
 20
216.219515
 30
0.0
 11
186.3518069999998
 21
214.1132299999999
 31
0.0
  0
LINE
  5
9FE3
330
9E1C
100
AcDbEntity
  8
1
  6
Continuous
100
AcDbLine
 10
189.872305
 20
216.219515
 30
0.0
 11
187.7660209999999
 21
214.1132299999999
 31
0.0
  0
LINE
  5
9FE4
330
9E1C
100
AcDbEntity
  8
1
  6
Continuous
100
AcDbLine
 10
186.3518069999998
 20
216.219515
 30
0.0
 11
188.4580919999999
 21
214.1132299999999
 31
0.0
  0
LINE
  5
9FE5
330
9E1C
100
AcDbEntity
  8
1
  6
Continuous
100
AcDbLine
 10
187.7660209999999
 20
216.219515
 30
0.0
 11
189.872305
 21
214.1132299999999
 31
0.0
  0
LINE
  5
9FE6
330
9E1C
100
AcDbEntity
  8
1
  6
Continuous
100
AcDbLine
 10
179.97281
 20
216.219515
 30
0.0
 11
177.8665259999999
 21
214.1132299999999
 31
0.0
  0
LINE
  5
9FE7
330
9E1C
100
AcDbEntity
  8
1
  6
Continuous
100
AcDbLine
 10
177.8665259999999
 20
216.219515
 30
0.0
 11
179.97281
 21
214.1132299999999
 31
0.0
  0
LINE
  5
9FE8
330
9E1C
100
AcDbEntity
  8
1
  6
Continuous
100
AcDbLine
 10
164.4164609999999
 20
216.219515
 30
0.0
 11
162.310177
 21
214.1132299999999
 31
0.0
  0
LINE
  5
9FE9
330
9E1C
100
AcDbEntity
  8
1
  6
Continuous
100
AcDbLine
 10
162.310177
 20
216.219515
 30
0.0
 11
164.4164609999999
 21
214.1132299999999
 31
0.0
  0
LINE
  5
9FEA
330
9E1C
100
AcDbEntity
  8
1
  6
Continuous
100
AcDbLine
 10
161.949105
 20
214.1132299999999
 30
0.0
 11
161.949105
 21
216.219515
 31
0.0
  0
LINE
  5
9FEB
330
9E1C
100
AcDbEntity
  8
1
  6
Continuous
100
AcDbLine
 10
163.002248
 20
214.1132299999999
 30
0.0
 11
161.949105
 21
215.166373
 31
0.0
  0
LINE
  5
9FEC
330
9E1C
100
AcDbEntity
  8
1
  6
Continuous
100
AcDbLine
 10
178.5585969999999
 20
216.219515
 30
0.0
 11
176.4523119999998
 21
214.1132299999999
 31
0.0
  0
LINE
  5
9FED
330
9E1C
100
AcDbEntity
  8
1
  6
Continuous
100
AcDbLine
 10
176.4523119999998
 20
216.219515
 30
0.0
 11
178.5585969999999
 21
214.1132299999999
 31
0.0
  0
LINE
  5
9FEE
330
9E1C
100
AcDbEntity
  8
1
  6
Continuous
100
AcDbLine
 10
174.315956
 20
216.219515
 30
0.0
 11
172.2096719999999
 21
214.1132299999999
 31
0.0
  0
LINE
  5
9FEF
330
9E1C
100
AcDbEntity
  8
1
  6
Continuous
100
AcDbLine
 10
172.2096719999999
 20
216.219515
 30
0.0
 11
174.315956
 21
214.1132299999999
 31
0.0
  0
LINE
  5
9FF0
330
9E1C
100
AcDbEntity
  8
1
  6
Continuous
100
AcDbLine
 10
175.73017
 20
216.219515
 30
0.0
 11
173.623885
 21
214.1132299999999
 31
0.0
  0
LINE
  5
9FF1
330
9E1C
100
AcDbEntity
  8
1
  6
Continuous
100
AcDbLine
 10
177.144383
 20
216.219515
 30
0.0
 11
175.038099
 21
214.1132299999999
 31
0.0
  0
LINE
  5
9FF2
330
9E1C
100
AcDbEntity
  8
1
  6
Continuous
100
AcDbLine
 10
173.623885
 20
216.219515
 30
0.0
 11
175.73017
 21
214.1132299999999
 31
0.0
  0
LINE
  5
9FF3
330
9E1C
100
AcDbEntity
  8
1
  6
Continuous
100
AcDbLine
 10
175.038099
 20
216.219515
 30
0.0
 11
177.144383
 21
214.1132299999999
 31
0.0
  0
LINE
  5
9FF4
330
9E1C
100
AcDbEntity
  8
1
  6
Continuous
100
AcDbLine
 10
170.0733149999998
 20
216.219515
 30
0.0
 11
167.9670309999998
 21
214.1132299999999
 31
0.0
  0
LINE
  5
9FF5
330
9E1C
100
AcDbEntity
  8
1
  6
Continuous
100
AcDbLine
 10
167.9670309999998
 20
216.219515
 30
0.0
 11
170.0733149999998
 21
214.1132299999999
 31
0.0
  0
LINE
  5
9FF6
330
9E1C
100
AcDbEntity
  8
1
  6
Continuous
100
AcDbLine
 10
165.830675
 20
216.219515
 30
0.0
 11
163.72439
 21
214.1132299999999
 31
0.0
  0
LINE
  5
9FF7
330
9E1C
100
AcDbEntity
  8
1
  6
Continuous
100
AcDbLine
 10
167.2448879999998
 20
216.219515
 30
0.0
 11
165.138604
 21
214.1132299999999
 31
0.0
  0
LINE
  5
9FF8
330
9E1C
100
AcDbEntity
  8
1
  6
Continuous
100
AcDbLine
 10
163.72439
 20
216.219515
 30
0.0
 11
165.830675
 21
214.1132299999999
 31
0.0
  0
LINE
  5
9FF9
330
9E1C
100
AcDbEntity
  8
1
  6
Continuous
100
AcDbLine
 10
165.138604
 20
216.219515
 30
0.0
 11
167.2448879999998
 21
214.1132299999999
 31
0.0
  0
LINE
  5
9FFA
330
9E1C
100
AcDbEntity
  8
1
  6
Continuous
100
AcDbLine
 10
168.6591019999999
 20
216.219515
 30
0.0
 11
166.552818
 21
214.1132299999999
 31
0.0
  0
LINE
  5
9FFB
330
9E1C
100
AcDbEntity
  8
1
  6
Continuous
100
AcDbLine
 10
166.552818
 20
216.219515
 30
0.0
 11
168.6591019999999
 21
214.1132299999999
 31
0.0
  0
LINE
  5
9FFC
330
9E1C
100
AcDbEntity
  8
1
  6
Continuous
100
AcDbLine
 10
171.4875289999999
 20
216.219515
 30
0.0
 11
169.381245
 21
214.1132299999999
 31
0.0
  0
LINE
  5
9FFD
330
9E1C
100
AcDbEntity
  8
1
  6
Continuous
100
AcDbLine
 10
172.9017429999999
 20
216.219515
 30
0.0
 11
170.7954579999999
 21
214.1132299999999
 31
0.0
  0
LINE
  5
9FFE
330
9E1C
100
AcDbEntity
  8
1
  6
Continuous
100
AcDbLine
 10
169.381245
 20
216.219515
 30
0.0
 11
171.4875289999999
 21
214.1132299999999
 31
0.0
  0
LINE
  5
9FFF
330
9E1C
100
AcDbEntity
  8
1
  6
Continuous
100
AcDbLine
 10
170.7954579999999
 20
216.219515
 30
0.0
 11
172.9017429999999
 21
214.1132299999999
 31
0.0
  0
LINE
  5
A000
330
9E1C
100
AcDbEntity
  8
1
  6
Continuous
100
AcDbLine
 10
182.8012379999999
 20
216.219515
 30
0.0
 11
180.6949529999999
 21
214.1132299999999
 31
0.0
  0
LINE
  5
A001
330
9E1C
100
AcDbEntity
  8
1
  6
Continuous
100
AcDbLine
 10
180.6949529999999
 20
216.219515
 30
0.0
 11
182.8012379999999
 21
214.1132299999999
 31
0.0
  0
LINE
  5
A002
330
9E1C
100
AcDbEntity
  8
1
  6
Continuous
100
AcDbLine
 10
184.215451
 20
216.219515
 30
0.0
 11
182.1091669999999
 21
214.1132299999999
 31
0.0
  0
LINE
  5
A003
330
9E1C
100
AcDbEntity
  8
1
  6
Continuous
100
AcDbLine
 10
185.6296649999999
 20
216.219515
 30
0.0
 11
183.52338
 21
214.1132299999999
 31
0.0
  0
LINE
  5
A004
330
9E1C
100
AcDbEntity
  8
1
  6
Continuous
100
AcDbLine
 10
182.1091669999999
 20
216.219515
 30
0.0
 11
184.215451
 21
214.1132299999999
 31
0.0
  0
LINE
  5
A005
330
9E1C
100
AcDbEntity
  8
1
  6
Continuous
100
AcDbLine
 10
183.52338
 20
216.219515
 30
0.0
 11
185.6296649999999
 21
214.1132299999999
 31
0.0
  0
LINE
  5
A006
330
9E1C
100
AcDbEntity
  8
1
  6
Continuous
100
AcDbLine
 10
181.3870239999999
 20
216.219515
 30
0.0
 11
179.2807399999998
 21
214.1132299999999
 31
0.0
  0
LINE
  5
A007
330
9E1C
100
AcDbEntity
  8
1
  6
Continuous
100
AcDbLine
 10
179.2807399999998
 20
216.219515
 30
0.0
 11
181.3870239999999
 21
214.1132299999999
 31
0.0
  0
ARC
  5
A008
330
9E1C
100
AcDbEntity
  8
1
  6
Continuous
100
AcDbCircle
 10
293.949137
 20
188.1754409999999
 30
0.0
 40
19.0625
100
AcDbArc
 50
63.51906899999999
 51
116.4811489999998
  0
ARC
  5
A009
330
9E1C
100
AcDbEntity
  8
1
  6
Continuous
100
AcDbCircle
 10
274.4211669999998
 20
170.7153609999998
 30
0.0
 40
44.46768399999998
100
AcDbArc
 50
6.1119
 51
50.927813
  0
ARC
  5
A00A
330
9E1C
100
AcDbEntity
  8
1
  6
Continuous
100
AcDbCircle
 10
310.161243
 20
176.8384969999999
 30
0.0
 40
8.587861
100
AcDbArc
 50
293.8968
 51
0.0
  0
ARC
  5
A00B
330
9E1C
100
AcDbEntity
  8
1
  6
Continuous
100
AcDbCircle
 10
315.47911
 20
164.8362389999998
 30
0.0
 40
4.53974
100
AcDbArc
 50
113.8967999999999
 51
139.07355
  0
LINE
  5
A00C
330
9E1C
100
AcDbEntity
  8
1
  6
Continuous
100
AcDbLine
 10
318.7491049999998
 20
211.5135759999998
 30
0.0
 11
318.7491049999998
 21
176.8384969999999
 31
0.0
  0
ARC
  5
A00D
330
9E1C
100
AcDbEntity
  8
1
  6
Continuous
100
AcDbCircle
 10
310.161243
 20
176.8384969999999
 30
0.0
 40
5.987860999999997
100
AcDbArc
 50
292.969202
 51
0.0
  0
ARC
  5
A00E
330
9E1C
100
AcDbEntity
  8
1
  6
Continuous
100
AcDbCircle
 10
272.1348879999998
 20
172.427152
 30
0.0
 40
44.23472799999998
100
AcDbArc
 50
5.723383999999997
 51
49.04387599999999
  0
ARC
  5
A00F
330
9E1C
100
AcDbEntity
  8
1
  6
Continuous
100
AcDbCircle
 10
314.4491049999999
 20
166.721811
 30
0.0
 40
5.0
100
AcDbArc
 50
112.969202
 51
178.098489
  0
LINE
  5
A010
330
9E1C
100
AcDbEntity
  8
1
  6
Continuous
100
AcDbLine
 10
309.4491049999998
 20
196.183422
 30
0.0
 11
309.4491049999998
 21
166.887719
 31
0.0
  0
ARC
  5
A011
330
9E1C
100
AcDbEntity
  8
1
  6
Continuous
100
AcDbCircle
 10
315.763321
 20
172.427152
 30
0.0
 40
44.23472799999998
100
AcDbArc
 50
130.9561239999998
 51
174.2766159999999
  0
ARC
  5
A012
330
9E1C
100
AcDbEntity
  8
1
  6
Continuous
100
AcDbCircle
 10
313.4770419999999
 20
170.7153609999998
 30
0.0
 40
44.46768399999998
100
AcDbArc
 50
129.072187
 51
173.8881
  0
ARC
  5
A013
330
9E1C
100
AcDbEntity
  8
1
  6
Continuous
100
AcDbCircle
 10
277.736967
 20
176.8384969999999
 30
0.0
 40
5.987860999999997
100
AcDbArc
 50
180.0
 51
247.030798
  0
ARC
  5
A014
330
9E1C
100
AcDbEntity
  8
1
  6
Continuous
100
AcDbCircle
 10
273.4491049999999
 20
166.721811
 30
0.0
 40
5.0
100
AcDbArc
 50
1.901511
 51
67.03079800000001
  0
LINE
  5
A015
330
9E1C
100
AcDbEntity
  8
1
  6
Continuous
100
AcDbLine
 10
158.949105
 20
180.701821
 30
0.0
 11
158.949105
 21
173.7736179999999
 31
0.0
  0
LINE
  5
A016
330
9E1C
100
AcDbEntity
  8
1
  6
Continuous
100
AcDbLine
 10
170.949105
 20
180.701821
 30
0.0
 11
170.949105
 21
173.7736179999999
 31
0.0
  0
CIRCLE
  5
A017
330
9E1C
100
AcDbEntity
  8
1
  6
Continuous
100
AcDbCircle
 10
164.9491049999998
 20
177.237719
 30
0.0
 40
6.0
  0
LINE
  5
A018
330
9E1C
100
AcDbEntity
  8
1
  6
Continuous
100
AcDbLine
 10
164.9491049999998
 20
170.309516
 30
0.0
 11
170.949105
 21
173.7736179999999
 31
0.0
  0
LINE
  5
A019
330
9E1C
100
AcDbEntity
  8
1
  6
Continuous
100
AcDbLine
 10
164.9491049999998
 20
170.309516
 30
0.0
 11
158.949105
 21
173.7736179999999
 31
0.0
  0
LINE
  5
A01A
330
9E1C
100
AcDbEntity
  8
1
  6
Continuous
100
AcDbLine
 10
170.949105
 20
180.701821
 30
0.0
 11
164.9491049999998
 21
184.165922
 31
0.0
  0
LINE
  5
A01B
330
9E1C
100
AcDbEntity
  8
1
  6
Continuous
100
AcDbLine
 10
158.949105
 20
180.701821
 30
0.0
 11
164.9491049999998
 21
184.165922
 31
0.0
  0
CIRCLE
  5
A01C
330
9E1C
100
AcDbEntity
  8
1
  6
Continuous
100
AcDbCircle
 10
164.9491049999998
 20
177.237719
 30
0.0
 40
4.0
  0
CIRCLE
  5
A01D
330
9E1C
100
AcDbEntity
  8
2
  6
Continuous
100
AcDbCircle
 10
164.9491049999998
 20
177.237719
 30
0.0
 40
3.3235
  0
CIRCLE
  5
A01E
330
9E1C
100
AcDbEntity
  8
1
  6
Continuous
100
AcDbCircle
 10
164.9491049999998
 20
177.237719
 30
0.0
 40
7.5
  0
ARC
  5
A01F
330
9E1C
100
AcDbEntity
  8
1
  6
Continuous
100
AcDbCircle
 10
280.3132059999999
 20
177.237719
 30
0.0
 40
11.464102
100
AcDbArc
 50
166.863493
 51
197.5879539999999
  0
LINE
  5
A020
330
9E1C
100
AcDbEntity
  8
1
  6
Continuous
100
AcDbLine
 10
268.849105
 20
183.237719
 30
0.0
 11
268.849105
 21
171.2377189999999
 31
0.0
  0
LINE
  5
A021
330
9E1C
100
AcDbEntity
  8
1
  6
Continuous
100
AcDbLine
 10
268.5491049999999
 20
173.237719
 30
0.0
 11
267.549105
 21
174.237719
 31
0.0
  0
LINE
  5
A022
330
9E1C
100
AcDbEntity
  8
1
  6
Continuous
100
AcDbLine
 10
268.5491049999999
 20
173.237719
 30
0.0
 11
268.5491049999999
 21
181.237719
 31
0.0
  0
ARC
  5
A023
330
9E1C
100
AcDbEntity
  8
1
  6
Continuous
100
AcDbCircle
 10
271.9160919999998
 20
172.0415669999999
 30
0.0
 40
3.066986999999998
100
AcDbArc
 50
145.615753
 51
205.615753
  0
LINE
  5
A024
330
9E1C
100
AcDbEntity
  8
1
  6
Continuous
100
AcDbLine
 10
269.7146309999999
 20
173.7736179999999
 30
0.0
 11
269.3850029999999
 21
173.7736179999999
 31
0.0
  0
LINE
  5
A025
330
9E1C
100
AcDbEntity
  8
1
  6
Continuous
100
AcDbLine
 10
272.158099
 20
170.309516
 30
0.0
 11
269.3850029999999
 21
170.309516
 31
0.0
  0
LINE
  5
A026
330
9E1C
100
AcDbEntity
  8
1
  6
Continuous
100
AcDbLine
 10
269.3850029999999
 20
170.309516
 30
0.0
 11
268.849105
 21
171.2377189999999
 31
0.0
  0
LINE
  5
A027
330
9E1C
100
AcDbEntity
  8
2
  6
Continuous
100
AcDbLine
 10
268.849105
 20
173.914219
 30
0.0
 11
267.8726049999998
 21
173.914219
 31
0.0
  0
LINE
  5
A028
330
9E1C
100
AcDbEntity
  8
1
  6
Continuous
100
AcDbLine
 10
268.849105
 20
173.237719
 30
0.0
 11
268.5491049999999
 21
173.237719
 31
0.0
  0
LINE
  5
A029
330
9E1C
100
AcDbEntity
  8
1
  6
Continuous
100
AcDbLine
 10
269.1491049999999
 20
183.7573339999999
 30
0.0
 11
268.849105
 21
183.237719
 31
0.0
  0
ARC
  5
A02A
330
9E1C
100
AcDbEntity
  8
1
  6
Continuous
100
AcDbCircle
 10
271.9160919999998
 20
182.433872
 30
0.0
 40
3.066986999999998
100
AcDbArc
 50
154.3842469999999
 51
205.553335
  0
LINE
  5
A02B
330
9E1C
100
AcDbEntity
  8
1
  6
Continuous
100
AcDbLine
 10
268.5491049999999
 20
181.237719
 30
0.0
 11
267.549105
 21
180.2377189999999
 31
0.0
  0
LINE
  5
A02C
330
9E1C
100
AcDbEntity
  8
2
  6
Continuous
100
AcDbLine
 10
268.849105
 20
180.5612189999999
 30
0.0
 11
267.8726049999998
 21
180.5612189999999
 31
0.0
  0
LINE
  5
A02D
330
9E1C
100
AcDbEntity
  8
1
  6
Continuous
100
AcDbLine
 10
267.549105
 20
174.237719
 30
0.0
 11
267.549105
 21
180.2377189999999
 31
0.0
  0
LINE
  5
A02E
330
9E1C
100
AcDbEntity
  8
1
  6
Continuous
100
AcDbLine
 10
268.849105
 20
181.237719
 30
0.0
 11
268.5491049999999
 21
181.237719
 31
0.0
  0
LINE
  5
A02F
330
9E1C
100
AcDbEntity
  8
4
  6
CENTER
100
AcDbLine
 10
209.9491049999998
 20
56.124426
 30
0.0
 11
209.9491049999998
 21
43.624426
 31
0.0
  0
CIRCLE
  5
A030
330
9E1C
100
AcDbEntity
  8
1
  6
Continuous
100
AcDbCircle
 10
209.9491049999998
 20
49.874426
 30
0.0
 40
3.25
  0
ARC
  5
A031
330
9E1C
100
AcDbEntity
  8
1
  6
Continuous
100
AcDbCircle
 10
209.9491049999998
 20
49.874426
 30
0.0
 40
7.0
100
AcDbArc
 50
270.0
 51
0.0
  0
LINE
  5
A032
330
9E1C
100
AcDbEntity
  8
4
  6
CENTER
100
AcDbLine
 10
159.949105
 20
56.124426
 30
0.0
 11
159.949105
 21
43.624426
 31
0.0
  0
LINE
  5
A033
330
9E1C
100
AcDbEntity
  8
4
  6
CENTER
100
AcDbLine
 10
184.949105
 20
111.8744259999999
 30
0.0
 11
184.949105
 21
37.874426
 31
0.0
  0
ARC
  5
A034
330
9E1C
100
AcDbEntity
  8
1
  6
Continuous
100
AcDbCircle
 10
159.949105
 20
49.874426
 30
0.0
 40
7.0
100
AcDbArc
 50
180.0
 51
270.0
  0
ARC
  5
A035
330
9E1C
100
AcDbEntity
  8
1
  6
Continuous
100
AcDbCircle
 10
159.949105
 20
49.874426
 30
0.0
 40
3.25
100
AcDbArc
 50
92.55273900000002
 51
43.526133
  0
LINE
  5
A036
330
9E1C
100
AcDbEntity
  8
1
  6
Continuous
100
AcDbLine
 10
209.9491049999998
 20
106.874426
 30
0.0
 11
159.949105
 21
106.874426
 31
0.0
  0
LINE
  5
A037
330
9E1C
100
AcDbEntity
  8
4
  6
CENTER
100
AcDbLine
 10
221.9491049999998
 20
74.874426
 30
0.0
 11
134.949105
 21
74.874426
 31
0.0
  0
LINE
  5
A038
330
9E1C
100
AcDbEntity
  8
1
  6
Continuous
100
AcDbLine
 10
152.949105
 20
99.87442600000001
 30
0.0
 11
152.949105
 21
89.666565
 31
0.0
  0
ARC
  5
A039
330
9E1C
100
AcDbEntity
  8
1
  6
Continuous
100
AcDbCircle
 10
159.949105
 20
99.87442600000001
 30
0.0
 40
3.25
100
AcDbArc
 50
25.51638699999999
 51
252.0797869999999
  0
LINE
  5
A03A
330
9E1C
100
AcDbEntity
  8
4
  6
CENTER
100
AcDbLine
 10
166.199105
 20
99.87442600000001
 30
0.0
 11
153.699105
 21
99.87442600000001
 31
0.0
  0
ARC
  5
A03B
330
9E1C
100
AcDbEntity
  8
1
  6
Continuous
100
AcDbCircle
 10
159.949105
 20
99.87442600000001
 30
0.0
 40
7.0
100
AcDbArc
 50
90.0
 51
180.0
  0
LINE
  5
A03C
330
9E1C
100
AcDbEntity
  8
4
  6
CENTER
100
AcDbLine
 10
159.949105
 20
106.124426
 30
0.0
 11
159.949105
 21
93.62442599999999
 31
0.0
  0
LINE
  5
A03D
330
9E1C
100
AcDbEntity
  8
4
  6
CENTER
100
AcDbLine
 10
166.199105
 20
49.874426
 30
0.0
 11
153.699105
 21
49.874426
 31
0.0
  0
LINE
  5
A03E
330
9E1C
100
AcDbEntity
  8
1
  6
Continuous
100
AcDbLine
 10
216.9491049999999
 20
99.87442600000001
 30
0.0
 11
216.9491049999999
 21
49.874426
 31
0.0
  0
CIRCLE
  5
A03F
330
9E1C
100
AcDbEntity
  8
1
  6
Continuous
100
AcDbCircle
 10
209.9491049999998
 20
99.87442600000001
 30
0.0
 40
3.25
  0
LINE
  5
A040
330
9E1C
100
AcDbEntity
  8
4
  6
CENTER
100
AcDbLine
 10
216.1991049999998
 20
99.87442600000001
 30
0.0
 11
203.699105
 21
99.87442600000001
 31
0.0
  0
LINE
  5
A041
330
9E1C
100
AcDbEntity
  8
4
  6
CENTER
100
AcDbLine
 10
209.9491049999998
 20
106.124426
 30
0.0
 11
209.9491049999998
 21
93.62442599999999
 31
0.0
  0
ARC
  5
A042
330
9E1C
100
AcDbEntity
  8
1
  6
Continuous
100
AcDbCircle
 10
209.9491049999998
 20
99.87442600000001
 30
0.0
 40
7.0
100
AcDbArc
 50
0.0
 51
90.0
  0
LINE
  5
A043
330
9E1C
100
AcDbEntity
  8
4
  6
CENTER
100
AcDbLine
 10
216.1991049999998
 20
49.874426
 30
0.0
 11
203.699105
 21
49.874426
 31
0.0
  0
LINE
  5
A044
330
9E1C
100
AcDbEntity
  8
1
  6
Continuous
100
AcDbLine
 10
209.9491049999998
 20
42.874426
 30
0.0
 11
159.949105
 21
42.874426
 31
0.0
  0
ARC
  5
A045
330
9E1C
100
AcDbEntity
  8
1
  6
Continuous
100
AcDbCircle
 10
169.274254
 20
207.891322
 30
0.0
 40
40.48013
100
AcDbArc
 50
309.9047339999998
 51
359.074671
  0
ARC
  5
A046
330
9E1C
100
AcDbEntity
  8
1
  6
Continuous
100
AcDbCircle
 10
207.149105
 20
211.513291
 30
0.0
 40
2.6
100
AcDbArc
 50
0.0
 51
90.0
  0
LINE
  5
A047
330
9E1C
100
AcDbEntity
  8
1
  6
Continuous
100
AcDbLine
 10
209.7491049999999
 20
211.513291
 30
0.0
 11
209.7491049999999
 21
207.237595
 31
0.0
  0
ARC
  5
A048
330
9E1C
100
AcDbEntity
  8
1
  6
Continuous
100
AcDbCircle
 10
418.6239549999998
 20
207.891322
 30
0.0
 40
40.48013
100
AcDbArc
 50
180.925329
 51
230.095266
  0
ARC
  5
A049
330
9E1C
100
AcDbEntity
  8
1
  6
Continuous
100
AcDbCircle
 10
422.949105
 20
177.237719
 30
0.0
 40
17.5
100
AcDbArc
 50
209.27122
 51
97.22562899999999
  0
ARC
  5
A04A
330
9E1C
100
AcDbEntity
  8
1
  6
Continuous
100
AcDbCircle
 10
422.949105
 20
177.237719
 30
0.0
 40
17.0
100
AcDbArc
 50
210.976623
 51
96.818252
  0
ARC
  5
A04B
330
9E1C
100
AcDbEntity
  8
1
  6
Continuous
100
AcDbCircle
 10
422.949105
 20
177.237719
 30
0.0
 40
10.34999999999999
100
AcDbArc
 50
270.0
 51
61.682165
  0
ARC
  5
A04C
330
9E1C
100
AcDbEntity
  8
1
  6
Continuous
100
AcDbCircle
 10
422.949105
 20
177.237719
 30
0.0
 40
25.0
100
AcDbArc
 50
190.3976809999999
 51
96.737058
  0
ARC
  5
A04D
330
9E1C
100
AcDbEntity
  8
1
  6
Continuous
100
AcDbCircle
 10
418.810719
 20
207.1023729999998
 30
0.0
 40
40.0
100
AcDbArc
 50
229.1651
 51
264.0615719999999
  0
LINE
  5
A04E
330
9E1C
100
AcDbEntity
  8
4
  6
CENTER
100
AcDbLine
 10
422.949105
 20
147.237719
 30
0.0
 11
422.949105
 21
205.237719
 31
0.0
  0
ARC
  5
A04F
330
9E1C
100
AcDbEntity
  8
1
  6
Continuous
100
AcDbCircle
 10
422.949105
 20
246.887719
 30
0.0
 40
80.0
100
AcDbArc
 50
264.0615719999999
 51
270.0
  0
LINE
  5
A050
330
9E1C
100
AcDbEntity
  8
1
  6
Continuous
100
AcDbLine
 10
380.7491049999999
 20
214.113291
 30
0.0
 11
425.9491049999998
 21
214.113291
 31
0.0
  0
LINE
  5
A051
330
9E1C
100
AcDbEntity
  8
1
  6
Continuous
100
AcDbLine
 10
425.2212639999998
 20
219.439515
 30
0.0
 11
380.6769449999999
 21
219.439515
 31
0.0
  0
LINE
  5
A052
330
9E1C
100
AcDbEntity
  8
1
  6
Continuous
100
AcDbLine
 10
428.957453
 20
221.210233
 30
0.0
 11
376.940756
 21
221.210233
 31
0.0
  0
LINE
  5
A053
330
9E1C
100
AcDbEntity
  8
1
  6
Continuous
100
AcDbLine
 10
425.9491049999998
 20
216.219515
 30
0.0
 11
379.9491049999998
 21
216.219515
 31
0.0
  0
LINE
  5
A054
330
9E1C
100
AcDbEntity
  8
1
  6
Continuous
100
AcDbLine
 10
425.9391049999998
 20
218.2045149999999
 30
0.0
 11
379.9591029999998
 21
218.2045149999999
 31
0.0
  0
LINE
  5
A055
330
9E1C
100
AcDbEntity
  8
1
  6
Continuous
100
AcDbLine
 10
434.949105
 20
221.637566
 30
0.0
 11
370.949105
 21
221.637342
 31
0.0
  0
LINE
  5
A056
330
9E1C
100
AcDbEntity
  8
1
  6
Continuous
100
AcDbLine
 10
370.949105
 20
224.237595
 30
0.0
 11
434.949105
 21
224.237595
 31
0.0
  0
LINE
  5
A057
330
9E1C
100
AcDbEntity
  8
4
  6
CENTER
100
AcDbLine
 10
394.9491049999999
 20
177.237719
 30
0.0
 11
452.9491049999998
 21
177.237719
 31
0.0
  0
LINE
  5
A058
330
9E1C
100
AcDbEntity
  8
1
  6
Continuous
100
AcDbLine
 10
397.3037619999999
 20
216.219515
 30
0.0
 11
395.197478
 21
214.1132299999999
 31
0.0
  0
LINE
  5
A059
330
9E1C
100
AcDbEntity
  8
1
  6
Continuous
100
AcDbLine
 10
395.197478
 20
216.219515
 30
0.0
 11
397.3037619999999
 21
214.1132299999999
 31
0.0
  0
LINE
  5
A05A
330
9E1C
100
AcDbEntity
  8
4
  6
CENTER
100
AcDbLine
 10
427.9491049999998
 20
229.237548
 30
0.0
 11
427.9491049999998
 21
216.637542
 31
0.0
  0
LINE
  5
A05B
330
9E1C
100
AcDbEntity
  8
4
  6
CENTER
100
AcDbLine
 10
402.9491049999998
 20
229.237595
 30
0.0
 11
402.9491049999998
 21
200.705656
 31
0.0
  0
ARC
  5
A05C
330
9E1C
100
AcDbEntity
  8
1
  6
Continuous
100
AcDbCircle
 10
422.1084219999998
 20
229.352107
 30
0.0
 40
10.63951799999999
100
AcDbArc
 50
296.2888529999998
 51
310.0709029999998
  0
ARC
  5
A05D
330
9E1C
100
AcDbEntity
  8
1
  6
Continuous
100
AcDbCircle
 10
425.4583509999998
 20
211.513291
 30
0.0
 40
2.6
100
AcDbArc
 50
346.0
 51
90.0
  0
ARC
  5
A05E
330
9E1C
100
AcDbEntity
  8
1
  6
Continuous
100
AcDbCircle
 10
435.092469
 20
199.7735839999998
 30
0.0
 40
15.249345
100
AcDbArc
 50
170.957293
 51
241.682165
  0
LINE
  5
A05F
330
9E1C
100
AcDbEntity
  8
1
  6
Continuous
100
AcDbLine
 10
412.8601109999998
 20
216.219515
 30
0.0
 11
410.753827
 21
214.1132299999999
 31
0.0
  0
LINE
  5
A060
330
9E1C
100
AcDbEntity
  8
1
  6
Continuous
100
AcDbLine
 10
414.2743249999998
 20
216.219515
 30
0.0
 11
412.16804
 21
214.1132299999999
 31
0.0
  0
LINE
  5
A061
330
9E1C
100
AcDbEntity
  8
1
  6
Continuous
100
AcDbLine
 10
410.753827
 20
216.219515
 30
0.0
 11
412.8601109999998
 21
214.1132299999999
 31
0.0
  0
LINE
  5
A062
330
9E1C
100
AcDbEntity
  8
1
  6
Continuous
100
AcDbLine
 10
412.16804
 20
216.219515
 30
0.0
 11
414.2743249999998
 21
214.1132299999999
 31
0.0
  0
ARC
  5
A063
330
9E1C
100
AcDbEntity
  8
1
  6
Continuous
100
AcDbCircle
 10
425.2212639999998
 20
223.050664
 30
0.0
 40
3.611148999999998
100
AcDbArc
 50
270.0
 51
296.2888529999998
  0
ARC
  5
A064
330
9E1C
100
AcDbEntity
  8
1
  6
Continuous
100
AcDbCircle
 10
420.1355229999998
 20
214.6535419999999
 30
0.0
 40
6.206
100
AcDbArc
 50
39.064301
 51
50.460397
  0
LINE
  5
A065
330
9E1C
100
AcDbEntity
  8
1
  6
Continuous
100
AcDbLine
 10
415.688538
 20
216.219515
 30
0.0
 11
413.5822539999998
 21
214.1132299999999
 31
0.0
  0
LINE
  5
A066
330
9E1C
100
AcDbEntity
  8
1
  6
Continuous
100
AcDbLine
 10
413.5822539999998
 20
216.219515
 30
0.0
 11
415.688538
 21
214.1132299999999
 31
0.0
  0
LINE
  5
A067
330
9E1C
100
AcDbEntity
  8
1
  6
Continuous
100
AcDbLine
 10
417.1027519999998
 20
216.219515
 30
0.0
 11
414.996467
 21
214.1132299999999
 31
0.0
  0
LINE
  5
A068
330
9E1C
100
AcDbEntity
  8
1
  6
Continuous
100
AcDbLine
 10
418.5169649999998
 20
216.219515
 30
0.0
 11
416.4106809999998
 21
214.1132299999999
 31
0.0
  0
LINE
  5
A069
330
9E1C
100
AcDbEntity
  8
1
  6
Continuous
100
AcDbLine
 10
414.996467
 20
216.219515
 30
0.0
 11
417.1027519999998
 21
214.1132299999999
 31
0.0
  0
LINE
  5
A06A
330
9E1C
100
AcDbEntity
  8
1
  6
Continuous
100
AcDbLine
 10
416.4106809999998
 20
216.219515
 30
0.0
 11
418.5169649999998
 21
214.1132299999999
 31
0.0
  0
LINE
  5
A06B
330
9E1C
100
AcDbEntity
  8
1
  6
Continuous
100
AcDbLine
 10
421.345392
 20
216.219515
 30
0.0
 11
419.239108
 21
214.1132299999999
 31
0.0
  0
LINE
  5
A06C
330
9E1C
100
AcDbEntity
  8
1
  6
Continuous
100
AcDbLine
 10
419.239108
 20
216.219515
 30
0.0
 11
421.345392
 21
214.1132299999999
 31
0.0
  0
LINE
  5
A06D
330
9E1C
100
AcDbEntity
  8
1
  6
Continuous
100
AcDbLine
 10
422.7596059999998
 20
216.219515
 30
0.0
 11
420.6533219999998
 21
214.1132299999999
 31
0.0
  0
LINE
  5
A06E
330
9E1C
100
AcDbEntity
  8
1
  6
Continuous
100
AcDbLine
 10
424.1738199999998
 20
216.219515
 30
0.0
 11
422.0675349999998
 21
214.1132299999999
 31
0.0
  0
LINE
  5
A06F
330
9E1C
100
AcDbEntity
  8
1
  6
Continuous
100
AcDbLine
 10
420.6533219999998
 20
216.219515
 30
0.0
 11
422.7596059999998
 21
214.1132299999999
 31
0.0
  0
LINE
  5
A070
330
9E1C
100
AcDbEntity
  8
1
  6
Continuous
100
AcDbLine
 10
422.0675349999998
 20
216.219515
 30
0.0
 11
424.1738199999998
 21
214.1132299999999
 31
0.0
  0
LINE
  5
A071
330
9E1C
100
AcDbEntity
  8
1
  6
Continuous
100
AcDbLine
 10
419.931179
 20
216.219515
 30
0.0
 11
417.824895
 21
214.1132299999999
 31
0.0
  0
LINE
  5
A072
330
9E1C
100
AcDbEntity
  8
1
  6
Continuous
100
AcDbLine
 10
417.824895
 20
216.219515
 30
0.0
 11
419.931179
 21
214.1132299999999
 31
0.0
  0
LINE
  5
A073
330
9E1C
100
AcDbEntity
  8
1
  6
Continuous
100
AcDbLine
 10
424.8959619999998
 20
214.1132299999999
 30
0.0
 11
425.9491049999998
 21
215.166373
 31
0.0
  0
LINE
  5
A074
330
9E1C
100
AcDbEntity
  8
1
  6
Continuous
100
AcDbLine
 10
425.9491049999998
 20
214.1132299999999
 30
0.0
 11
425.9491049999998
 21
216.219515
 31
0.0
  0
LINE
  5
A075
330
9E1C
100
AcDbEntity
  8
1
  6
Continuous
100
AcDbLine
 10
425.588033
 20
216.219515
 30
0.0
 11
423.481749
 21
214.1132299999999
 31
0.0
  0
LINE
  5
A076
330
9E1C
100
AcDbEntity
  8
1
  6
Continuous
100
AcDbLine
 10
423.481749
 20
216.219515
 30
0.0
 11
425.588033
 21
214.1132299999999
 31
0.0
  0
LINE
  5
A077
330
9E1C
100
AcDbEntity
  8
1
  6
Continuous
100
AcDbLine
 10
414.892984
 20
216.219515
 30
0.0
 11
416.59242
 21
216.219515
 31
0.0
  0
LINE
  5
A078
330
9E1C
100
AcDbEntity
  8
1
  6
Continuous
100
AcDbLine
 10
424.8959619999998
 20
216.219515
 30
0.0
 11
425.9491049999998
 21
215.166373
 31
0.0
  0
LINE
  5
A079
330
9E1C
100
AcDbEntity
  8
1
  6
Continuous
100
AcDbLine
 10
425.799105
 20
216.579515
 30
0.0
 11
425.6691049999998
 21
216.219515
 31
0.0
  0
ARC
  5
A07A
330
9E1C
100
AcDbEntity
  8
1
  6
Continuous
100
AcDbCircle
 10
422.337623
 20
219.7547419999999
 30
0.0
 40
4.697225
100
AcDbArc
 50
317.4697509999999
 51
333.713305
  0
LINE
  5
A07B
330
9E1C
100
AcDbEntity
  8
1
  6
Continuous
100
AcDbLine
 10
426.721874
 20
205.8337379999999
 30
0.0
 11
423.9790929999998
 21
205.8337379999999
 31
0.0
  0
LINE
  5
A07C
330
9E1C
100
AcDbEntity
  8
1
  6
Continuous
100
AcDbLine
 10
426.721874
 20
205.8337379999999
 30
0.0
 11
427.981119
 21
210.884295
 31
0.0
  0
ARC
  5
A07D
330
9E1C
100
AcDbEntity
  8
1
  6
Continuous
100
AcDbCircle
 10
423.9790929999998
 20
201.876362
 30
0.0
 40
3.957376
100
AcDbArc
 50
90.0
 51
175.739891
  0
LINE
  5
A07E
330
9E1C
100
AcDbEntity
  8
1
  6
Continuous
100
AcDbLine
 10
425.1241049999999
 20
218.2045149999999
 30
0.0
 11
424.9541049999998
 21
218.564515
 31
0.0
  0
ARC
  5
A07F
330
9E1C
100
AcDbEntity
  8
1
  6
Continuous
100
AcDbCircle
 10
425.6751339999998
 20
217.284662
 30
0.0
 40
0.9569799999999998
100
AcDbArc
 50
24.04026499999999
 51
73.98808699999998
  0
LINE
  5
A080
330
9E1C
100
AcDbEntity
  8
1
  6
Continuous
100
AcDbLine
 10
400.1321889999998
 20
216.219515
 30
0.0
 11
398.0259049999999
 21
214.1132299999999
 31
0.0
  0
LINE
  5
A081
330
9E1C
100
AcDbEntity
  8
1
  6
Continuous
100
AcDbLine
 10
398.0259049999999
 20
216.219515
 30
0.0
 11
400.1321889999998
 21
214.1132299999999
 31
0.0
  0
LINE
  5
A082
330
9E1C
100
AcDbEntity
  8
1
  6
Continuous
100
AcDbLine
 10
398.717975
 20
216.219515
 30
0.0
 11
396.611691
 21
214.1132299999999
 31
0.0
  0
LINE
  5
A083
330
9E1C
100
AcDbEntity
  8
1
  6
Continuous
100
AcDbLine
 10
396.611691
 20
216.219515
 30
0.0
 11
398.717975
 21
214.1132299999999
 31
0.0
  0
LINE
  5
A084
330
9E1C
100
AcDbEntity
  8
1
  6
Continuous
100
AcDbLine
 10
408.6174699999999
 20
216.219515
 30
0.0
 11
406.511186
 21
214.1132299999999
 31
0.0
  0
LINE
  5
A085
330
9E1C
100
AcDbEntity
  8
1
  6
Continuous
100
AcDbLine
 10
406.511186
 20
216.219515
 30
0.0
 11
408.6174699999999
 21
214.1132299999999
 31
0.0
  0
LINE
  5
A086
330
9E1C
100
AcDbEntity
  8
1
  6
Continuous
100
AcDbLine
 10
404.3748299999998
 20
216.219515
 30
0.0
 11
402.2685449999998
 21
214.1132299999999
 31
0.0
  0
LINE
  5
A087
330
9E1C
100
AcDbEntity
  8
1
  6
Continuous
100
AcDbLine
 10
405.7890429999998
 20
216.219515
 30
0.0
 11
403.6827589999998
 21
214.1132299999999
 31
0.0
  0
LINE
  5
A088
330
9E1C
100
AcDbEntity
  8
1
  6
Continuous
100
AcDbLine
 10
402.2685449999998
 20
216.219515
 30
0.0
 11
404.3748299999998
 21
214.1132299999999
 31
0.0
  0
LINE
  5
A089
330
9E1C
100
AcDbEntity
  8
1
  6
Continuous
100
AcDbLine
 10
403.6827589999998
 20
216.219515
 30
0.0
 11
405.7890429999998
 21
214.1132299999999
 31
0.0
  0
LINE
  5
A08A
330
9E1C
100
AcDbEntity
  8
1
  6
Continuous
100
AcDbLine
 10
407.203257
 20
216.219515
 30
0.0
 11
405.096972
 21
214.1132299999999
 31
0.0
  0
LINE
  5
A08B
330
9E1C
100
AcDbEntity
  8
1
  6
Continuous
100
AcDbLine
 10
405.096972
 20
216.219515
 30
0.0
 11
407.203257
 21
214.1132299999999
 31
0.0
  0
LINE
  5
A08C
330
9E1C
100
AcDbEntity
  8
1
  6
Continuous
100
AcDbLine
 10
411.445898
 20
216.219515
 30
0.0
 11
409.339613
 21
214.1132299999999
 31
0.0
  0
LINE
  5
A08D
330
9E1C
100
AcDbEntity
  8
1
  6
Continuous
100
AcDbLine
 10
409.339613
 20
216.219515
 30
0.0
 11
411.445898
 21
214.1132299999999
 31
0.0
  0
LINE
  5
A08E
330
9E1C
100
AcDbEntity
  8
1
  6
Continuous
100
AcDbLine
 10
410.0316839999998
 20
216.219515
 30
0.0
 11
407.9254
 21
214.1132299999999
 31
0.0
  0
LINE
  5
A08F
330
9E1C
100
AcDbEntity
  8
1
  6
Continuous
100
AcDbLine
 10
407.9254
 20
216.219515
 30
0.0
 11
410.0316839999998
 21
214.1132299999999
 31
0.0
  0
LINE
  5
A090
330
9E1C
100
AcDbEntity
  8
1
  6
Continuous
100
AcDbLine
 10
401.546403
 20
216.219515
 30
0.0
 11
399.440118
 21
214.1132299999999
 31
0.0
  0
LINE
  5
A091
330
9E1C
100
AcDbEntity
  8
1
  6
Continuous
100
AcDbLine
 10
399.440118
 20
216.219515
 30
0.0
 11
401.546403
 21
214.1132299999999
 31
0.0
  0
LINE
  5
A092
330
9E1C
100
AcDbEntity
  8
1
  6
Continuous
100
AcDbLine
 10
402.960616
 20
216.219515
 30
0.0
 11
400.854332
 21
214.1132299999999
 31
0.0
  0
LINE
  5
A093
330
9E1C
100
AcDbEntity
  8
1
  6
Continuous
100
AcDbLine
 10
400.854332
 20
216.219515
 30
0.0
 11
402.960616
 21
214.1132299999999
 31
0.0
  0
LINE
  5
A094
330
9E1C
100
AcDbEntity
  8
1
  6
Continuous
100
AcDbLine
 10
434.949105
 20
221.637566
 30
0.0
 11
434.949105
 21
224.2375339999999
 31
0.0
  0
LINE
  5
A095
330
9E1C
100
AcDbEntity
  8
1
  6
Continuous
100
AcDbLine
 10
428.957453
 20
221.210233
 30
0.0
 11
428.996957
 21
221.637545
 31
0.0
  0
ARC
  5
A096
330
9E1C
100
AcDbEntity
  8
1
  6
Continuous
100
AcDbCircle
 10
383.7897869999998
 20
229.352107
 30
0.0
 40
10.63951799999999
100
AcDbArc
 50
229.929097
 51
243.711147
  0
LINE
  5
A097
330
9E1C
100
AcDbEntity
  8
4
  6
CENTER
100
AcDbLine
 10
377.9491049999998
 20
229.237643
 30
0.0
 11
377.9491049999998
 21
216.637367
 31
0.0
  0
ARC
  5
A098
330
9E1C
100
AcDbEntity
  8
1
  6
Continuous
100
AcDbCircle
 10
380.7491049999999
 20
211.513291
 30
0.0
 40
2.6
100
AcDbArc
 50
90.0
 51
180.0
  0
ARC
  5
A099
330
9E1C
100
AcDbEntity
  8
1
  6
Continuous
100
AcDbCircle
 10
380.6769449999999
 20
223.050664
 30
0.0
 40
3.611148999999998
100
AcDbArc
 50
243.711147
 51
270.0
  0
LINE
  5
A09A
330
9E1C
100
AcDbEntity
  8
1
  6
Continuous
100
AcDbLine
 10
381.7474129999998
 20
216.219515
 30
0.0
 11
379.9491049999998
 21
214.421207
 31
0.0
  0
LINE
  5
A09B
330
9E1C
100
AcDbEntity
  8
1
  6
Continuous
100
AcDbLine
 10
379.9491049999998
 20
215.911539
 30
0.0
 11
381.7474129999998
 21
214.1132299999999
 31
0.0
  0
ARC
  5
A09C
330
9E1C
100
AcDbEntity
  8
1
  6
Continuous
100
AcDbCircle
 10
385.7626859999998
 20
214.6535419999999
 30
0.0
 40
6.206
100
AcDbArc
 50
129.539603
 51
140.935699
  0
LINE
  5
A09D
330
9E1C
100
AcDbEntity
  8
1
  6
Continuous
100
AcDbLine
 10
383.1616259999998
 20
216.219515
 30
0.0
 11
381.055342
 21
214.1132299999999
 31
0.0
  0
LINE
  5
A09E
330
9E1C
100
AcDbEntity
  8
1
  6
Continuous
100
AcDbLine
 10
381.055342
 20
216.219515
 30
0.0
 11
383.1616259999998
 21
214.1132299999999
 31
0.0
  0
LINE
  5
A09F
330
9E1C
100
AcDbEntity
  8
1
  6
Continuous
100
AcDbLine
 10
384.5758399999998
 20
216.219515
 30
0.0
 11
382.4695549999999
 21
214.1132299999999
 31
0.0
  0
LINE
  5
A0A0
330
9E1C
100
AcDbEntity
  8
1
  6
Continuous
100
AcDbLine
 10
382.4695549999999
 20
216.219515
 30
0.0
 11
384.5758399999998
 21
214.1132299999999
 31
0.0
  0
LINE
  5
A0A1
330
9E1C
100
AcDbEntity
  8
1
  6
Continuous
100
AcDbLine
 10
388.818481
 20
216.219515
 30
0.0
 11
386.712196
 21
214.1132299999999
 31
0.0
  0
LINE
  5
A0A2
330
9E1C
100
AcDbEntity
  8
1
  6
Continuous
100
AcDbLine
 10
386.712196
 20
216.219515
 30
0.0
 11
388.818481
 21
214.1132299999999
 31
0.0
  0
LINE
  5
A0A3
330
9E1C
100
AcDbEntity
  8
1
  6
Continuous
100
AcDbLine
 10
390.232694
 20
216.219515
 30
0.0
 11
388.12641
 21
214.1132299999999
 31
0.0
  0
LINE
  5
A0A4
330
9E1C
100
AcDbEntity
  8
1
  6
Continuous
100
AcDbLine
 10
391.646908
 20
216.219515
 30
0.0
 11
389.5406229999999
 21
214.1132299999999
 31
0.0
  0
LINE
  5
A0A5
330
9E1C
100
AcDbEntity
  8
1
  6
Continuous
100
AcDbLine
 10
388.12641
 20
216.219515
 30
0.0
 11
390.232694
 21
214.1132299999999
 31
0.0
  0
LINE
  5
A0A6
330
9E1C
100
AcDbEntity
  8
1
  6
Continuous
100
AcDbLine
 10
389.5406229999999
 20
216.219515
 30
0.0
 11
391.646908
 21
214.1132299999999
 31
0.0
  0
LINE
  5
A0A7
330
9E1C
100
AcDbEntity
  8
1
  6
Continuous
100
AcDbLine
 10
385.9900529999999
 20
216.219515
 30
0.0
 11
383.8837689999999
 21
214.1132299999999
 31
0.0
  0
LINE
  5
A0A8
330
9E1C
100
AcDbEntity
  8
1
  6
Continuous
100
AcDbLine
 10
387.404267
 20
216.219515
 30
0.0
 11
385.2979829999999
 21
214.1132299999999
 31
0.0
  0
LINE
  5
A0A9
330
9E1C
100
AcDbEntity
  8
1
  6
Continuous
100
AcDbLine
 10
383.8837689999999
 20
216.219515
 30
0.0
 11
385.9900529999999
 21
214.1132299999999
 31
0.0
  0
LINE
  5
A0AA
330
9E1C
100
AcDbEntity
  8
1
  6
Continuous
100
AcDbLine
 10
385.2979829999999
 20
216.219515
 30
0.0
 11
387.404267
 21
214.1132299999999
 31
0.0
  0
LINE
  5
A0AB
330
9E1C
100
AcDbEntity
  8
1
  6
Continuous
100
AcDbLine
 10
395.8895479999998
 20
216.219515
 30
0.0
 11
393.7832639999998
 21
214.1132299999999
 31
0.0
  0
LINE
  5
A0AC
330
9E1C
100
AcDbEntity
  8
1
  6
Continuous
100
AcDbLine
 10
393.7832639999998
 20
216.219515
 30
0.0
 11
395.8895479999998
 21
214.1132299999999
 31
0.0
  0
LINE
  5
A0AD
330
9E1C
100
AcDbEntity
  8
1
  6
Continuous
100
AcDbLine
 10
393.061121
 20
216.219515
 30
0.0
 11
390.9548369999998
 21
214.1132299999999
 31
0.0
  0
LINE
  5
A0AE
330
9E1C
100
AcDbEntity
  8
1
  6
Continuous
100
AcDbLine
 10
390.9548369999998
 20
216.219515
 30
0.0
 11
393.061121
 21
214.1132299999999
 31
0.0
  0
LINE
  5
A0AF
330
9E1C
100
AcDbEntity
  8
1
  6
Continuous
100
AcDbLine
 10
394.4753349999999
 20
216.219515
 30
0.0
 11
392.36905
 21
214.1132299999999
 31
0.0
  0
LINE
  5
A0B0
330
9E1C
100
AcDbEntity
  8
1
  6
Continuous
100
AcDbLine
 10
392.36905
 20
216.219515
 30
0.0
 11
394.4753349999999
 21
214.1132299999999
 31
0.0
  0
LINE
  5
A0B1
330
9E1C
100
AcDbEntity
  8
1
  6
Continuous
100
AcDbLine
 10
380.7741049999998
 20
218.2045149999999
 30
0.0
 11
380.9441049999999
 21
218.564515
 31
0.0
  0
LINE
  5
A0B2
330
9E1C
100
AcDbEntity
  8
1
  6
Continuous
100
AcDbLine
 10
378.1491049999999
 20
211.513291
 30
0.0
 11
378.1491049999999
 21
207.237595
 31
0.0
  0
LINE
  5
A0B3
330
9E1C
100
AcDbEntity
  8
1
  6
Continuous
100
AcDbLine
 10
379.9491049999998
 20
214.1132299999999
 30
0.0
 11
379.9491049999998
 21
216.219515
 31
0.0
  0
ARC
  5
A0B4
330
9E1C
100
AcDbEntity
  8
1
  6
Continuous
100
AcDbCircle
 10
383.560586
 20
219.7547419999999
 30
0.0
 40
4.697225
100
AcDbArc
 50
206.286695
 51
222.530249
  0
LINE
  5
A0B5
330
9E1C
100
AcDbEntity
  8
1
  6
Continuous
100
AcDbLine
 10
380.3331989999999
 20
216.219515
 30
0.0
 11
379.9491049999998
 21
215.83542
 31
0.0
  0
LINE
  5
A0B6
330
9E1C
100
AcDbEntity
  8
1
  6
Continuous
100
AcDbLine
 10
380.099105
 20
216.579515
 30
0.0
 11
380.229105
 21
216.219515
 31
0.0
  0
ARC
  5
A0B7
330
9E1C
100
AcDbEntity
  8
1
  6
Continuous
100
AcDbCircle
 10
380.223075
 20
217.284662
 30
0.0
 40
0.9569799999999998
100
AcDbArc
 50
106.011913
 51
155.9597349999999
  0
LINE
  5
A0B8
330
9E1C
100
AcDbEntity
  8
1
  6
Continuous
100
AcDbLine
 10
370.949105
 20
221.637342
 30
0.0
 11
370.949105
 21
224.2376559999999
 31
0.0
  0
LINE
  5
A0B9
330
9E1C
100
AcDbEntity
  8
1
  6
Continuous
100
AcDbLine
 10
376.940756
 20
221.210233
 30
0.0
 11
376.9012519999998
 21
221.637545
 31
0.0
  0
CIRCLE
  5
A0BA
330
9E1C
100
AcDbEntity
  8
1
  6
Continuous
100
AcDbCircle
 10
422.949105
 20
177.237719
 30
0.0
 40
7.0
  0
LINE
  5
A0BB
330
9E1C
100
AcDbEntity
  8
4
  6
CENTER
100
AcDbLine
 10
164.9491049999998
 20
111.8744259999999
 30
0.0
 11
164.9491049999998
 21
37.874426
 31
0.0
  0
LINE
  5
A0BC
330
9E1C
100
AcDbEntity
  8
1
  6
Continuous
100
AcDbLine
 10
167.949105
 20
101.274426
 30
0.0
 11
161.949105
 21
101.274426
 31
0.0
  0
LINE
  5
A0BD
330
9E1C
100
AcDbEntity
  8
1
  6
Continuous
100
AcDbLine
 10
166.9491049999998
 20
92.974426
 30
0.0
 11
164.9491049999998
 21
94.97442599999999
 31
0.0
  0
LINE
  5
A0BE
330
9E1C
100
AcDbEntity
  8
1
  6
Continuous
100
AcDbLine
 10
172.449105
 20
94.97442599999999
 30
0.0
 11
157.4491049999998
 21
94.97442599999999
 31
0.0
  0
LINE
  5
A0BF
330
9E1C
100
AcDbEntity
  8
1
  6
Continuous
100
AcDbLine
 10
175.0432
 20
89.78033100000002
 30
0.0
 11
154.8550089999999
 21
89.78033100000002
 31
0.0
  0
LINE
  5
A0C0
330
9E1C
100
AcDbEntity
  8
1
  6
Continuous
100
AcDbLine
 10
168.9491049999998
 20
100.274426
 30
0.0
 11
160.949105
 21
100.274426
 31
0.0
  0
LINE
  5
A0C1
330
9E1C
100
AcDbEntity
  8
1
  6
Continuous
100
AcDbLine
 10
142.686573
 20
88.87442599999998
 30
0.0
 11
187.2116359999999
 21
88.87442599999998
 31
0.0
  0
LINE
  5
A0C2
330
9E1C
100
AcDbEntity
  8
1
  6
Continuous
100
AcDbLine
 10
154.599105
 20
92.974426
 30
0.0
 11
171.4704529999998
 21
92.974426
 31
0.0
  0
LINE
  5
A0C3
330
9E1C
100
AcDbEntity
  8
1
  6
Continuous
100
AcDbLine
 10
171.949105
 20
54.448189
 30
0.0
 11
157.949105
 21
54.448189
 31
0.0
  0
ARC
  5
A0C4
330
9E1C
100
AcDbEntity
  8
1
  6
Continuous
100
AcDbCircle
 10
164.9491049999998
 20
62.27442599999999
 30
0.0
 40
10.5
100
AcDbArc
 50
228.1896849999998
 51
311.810315
  0
LINE
  5
A0C5
330
9E1C
100
AcDbEntity
  8
1
  6
Continuous
100
AcDbLine
 10
175.0432
 20
59.968522
 30
0.0
 11
154.8550089999999
 21
59.968522
 31
0.0
  0
LINE
  5
A0C6
330
9E1C
100
AcDbEntity
  8
1
  6
Continuous
100
AcDbLine
 10
154.599105
 20
56.774426
 30
0.0
 11
171.4704529999998
 21
56.774426
 31
0.0
  0
LINE
  5
A0C7
330
9E1C
100
AcDbEntity
  8
1
  6
Continuous
100
AcDbLine
 10
154.599105
 20
59.374426
 30
0.0
 11
174.449105
 21
59.374426
 31
0.0
  0
LINE
  5
A0C8
330
9E1C
100
AcDbEntity
  8
1
  6
Continuous
100
AcDbLine
 10
142.686573
 20
60.874426
 30
0.0
 11
187.2116359999999
 21
60.874426
 31
0.0
  0
ARC
  5
A0C9
330
9E1C
100
AcDbEntity
  8
1
  6
Continuous
100
AcDbCircle
 10
89.94910500000001
 20
74.874426
 30
0.0
 40
100.0
100
AcDbArc
 50
352.966539
 51
7.033460999999999
  0
ARC
  5
A0CA
330
9E1C
100
AcDbEntity
  8
1
  6
Continuous
100
AcDbCircle
 10
187.2116359999999
 20
62.874426
 30
0.0
 40
2.0
100
AcDbArc
 50
270.0
 51
352.966539
  0
LINE
  5
A0CB
330
9E1C
100
AcDbEntity
  8
1
  6
Continuous
100
AcDbLine
 10
174.449105
 20
59.374426
 30
0.0
 11
175.0432
 21
59.968522
 31
0.0
  0
ARC
  5
A0CC
330
9E1C
100
AcDbEntity
  8
1
  6
Continuous
100
AcDbCircle
 10
174.805801
 20
79.967113
 30
0.0
 40
20.0
100
AcDbArc
 50
270.680114
 51
287.3243529999998
  0
LINE
  5
A0CD
330
9E1C
100
AcDbEntity
  8
1
  6
Continuous
100
AcDbLine
 10
171.949105
 20
54.448189
 30
0.0
 11
171.949105
 21
56.774426
 31
0.0
  0
ARC
  5
A0CE
330
9E1C
100
AcDbEntity
  8
1
  6
Continuous
100
AcDbCircle
 10
187.2116359999999
 20
86.874426
 30
0.0
 40
2.0
100
AcDbArc
 50
7.033460999999999
 51
90.0
  0
ARC
  5
A0CF
330
9E1C
100
AcDbEntity
  8
1
  6
Continuous
100
AcDbCircle
 10
174.805801
 20
69.78174
 30
0.0
 40
20.0
100
AcDbArc
 50
72.675647
 51
89.31988599999998
  0
LINE
  5
A0D0
330
9E1C
100
AcDbEntity
  8
1
  6
Continuous
100
AcDbLine
 10
174.449105
 20
90.374426
 30
0.0
 11
175.0432
 21
89.78033100000002
 31
0.0
  0
LINE
  5
A0D1
330
9E1C
100
AcDbEntity
  8
2
  6
Continuous
100
AcDbLine
 10
168.272605
 20
99.97442599999999
 30
0.0
 11
168.272605
 21
100.9509259999999
 31
0.0
  0
LINE
  5
A0D2
330
9E1C
100
AcDbEntity
  8
1
  6
Continuous
100
AcDbLine
 10
168.9491049999998
 20
99.97442599999999
 30
0.0
 11
168.9491049999998
 21
100.274426
 31
0.0
  0
LINE
  5
A0D3
330
9E1C
100
AcDbEntity
  8
1
  6
Continuous
100
AcDbLine
 10
172.449105
 20
92.974426
 30
0.0
 11
172.449105
 21
94.97442599999999
 31
0.0
  0
LINE
  5
A0D4
330
9E1C
100
AcDbEntity
  8
1
  6
Continuous
100
AcDbLine
 10
168.9491049999998
 20
100.274426
 30
0.0
 11
167.949105
 21
101.274426
 31
0.0
  0
ARC
  5
A0D5
330
9E1C
100
AcDbEntity
  8
1
  6
Continuous
100
AcDbCircle
 10
239.9491049999999
 20
74.874426
 30
0.0
 40
100.0
100
AcDbArc
 50
172.9655919999999
 51
187.033461
  0
LINE
  5
A0D6
330
9E1C
100
AcDbEntity
  8
1
  6
Continuous
100
AcDbLine
 10
155.449105
 20
59.374426
 30
0.0
 11
154.8550089999999
 21
59.968522
 31
0.0
  0
ARC
  5
A0D7
330
9E1C
100
AcDbEntity
  8
1
  6
Continuous
100
AcDbCircle
 10
155.092408
 20
79.967113
 30
0.0
 40
20.0
100
AcDbArc
 50
252.675647
 51
269.3198859999998
  0
LINE
  5
A0D8
330
9E1C
100
AcDbEntity
  8
1
  6
Continuous
100
AcDbLine
 10
157.949105
 20
54.448189
 30
0.0
 11
157.949105
 21
56.774426
 31
0.0
  0
ARC
  5
A0D9
330
9E1C
100
AcDbEntity
  8
1
  6
Continuous
100
AcDbCircle
 10
142.686573
 20
62.874426
 30
0.0
 40
2.0
100
AcDbArc
 50
187.033461
 51
270.0
  0
ARC
  5
A0DA
330
9E1C
100
AcDbEntity
  8
1
  6
Continuous
100
AcDbCircle
 10
155.092408
 20
69.78174
 30
0.0
 40
20.0
100
AcDbArc
 50
90.68011400000001
 51
107.3243529999998
  0
LINE
  5
A0DB
330
9E1C
100
AcDbEntity
  8
1
  6
Continuous
100
AcDbLine
 10
155.449105
 20
90.374426
 30
0.0
 11
154.8550089999999
 21
89.78033100000002
 31
0.0
  0
LINE
  5
A0DC
330
9E1C
100
AcDbEntity
  8
1
  6
Continuous
100
AcDbLine
 10
160.949105
 20
100.274426
 30
0.0
 11
161.949105
 21
101.274426
 31
0.0
  0
LINE
  5
A0DD
330
9E1C
100
AcDbEntity
  8
2
  6
Continuous
100
AcDbLine
 10
161.625605
 20
99.97442599999999
 30
0.0
 11
161.625605
 21
100.9509259999999
 31
0.0
  0
LINE
  5
A0DE
330
9E1C
100
AcDbEntity
  8
1
  6
Continuous
100
AcDbLine
 10
164.9491049999998
 20
92.974426
 30
0.0
 11
162.949105
 21
94.97442599999999
 31
0.0
  0
LINE
  5
A0DF
330
9E1C
100
AcDbEntity
  8
1
  6
Continuous
100
AcDbLine
 10
160.949105
 20
99.97442599999999
 30
0.0
 11
160.949105
 21
100.274426
 31
0.0
  0
LINE
  5
A0E0
330
9E1C
100
AcDbEntity
  8
1
  6
Continuous
100
AcDbLine
 10
157.4491049999998
 20
92.974426
 30
0.0
 11
157.4491049999998
 21
94.97442599999999
 31
0.0
  0
ARC
  5
A0E1
330
9E1C
100
AcDbEntity
  8
1
  6
Continuous
100
AcDbCircle
 10
142.686573
 20
86.874426
 30
0.0
 40
2.0
100
AcDbArc
 50
90.0
 51
172.9665389999999
  0
ARC
  5
A0E2
330
9E1C
100
AcDbEntity
  8
1
  6
Continuous
100
AcDbCircle
 10
167.949105
 20
103.63949
 30
0.0
 40
8.665063999999999
100
AcDbArc
 50
249.7438419999999
 51
290.256158
  0
ARC
  5
A0E3
330
9E1C
100
AcDbEntity
  8
1
  6
Continuous
100
AcDbCircle
 10
167.949105
 20
91.309363
 30
0.0
 40
8.665063999999999
100
AcDbArc
 50
69.743842
 51
110.256158
  0
LINE
  5
A0E4
330
9E1C
100
AcDbEntity
  8
1
  6
Continuous
100
AcDbLine
 10
158.949105
 20
99.97442599999999
 30
0.0
 11
170.949105
 21
99.97442599999999
 31
0.0
  0
LINE
  5
A0E5
330
9E1C
100
AcDbEntity
  8
1
  6
Continuous
100
AcDbLine
 10
170.949105
 20
99.97442599999999
 30
0.0
 11
170.949105
 21
94.97442599999999
 31
0.0
  0
ARC
  5
A0E6
330
9E1C
100
AcDbEntity
  8
1
  6
Continuous
100
AcDbCircle
 10
161.949105
 20
103.63949
 30
0.0
 40
8.665063999999999
100
AcDbArc
 50
249.7438419999999
 51
290.256158
  0
ARC
  5
A0E7
330
9E1C
100
AcDbEntity
  8
1
  6
Continuous
100
AcDbCircle
 10
161.949105
 20
91.309363
 30
0.0
 40
8.665063999999999
100
AcDbArc
 50
69.743842
 51
110.256158
  0
LINE
  5
A0E8
330
9E1C
100
AcDbEntity
  8
1
  6
Continuous
100
AcDbLine
 10
164.9491049999998
 20
95.51032499999999
 30
0.0
 11
164.9491049999998
 21
99.43852800000001
 31
0.0
  0
LINE
  5
A0E9
330
9E1C
100
AcDbEntity
  8
1
  6
Continuous
100
AcDbLine
 10
158.949105
 20
99.97442599999999
 30
0.0
 11
158.949105
 21
94.97442599999999
 31
0.0
  0
LINE
  5
A0EA
330
9E1C
100
AcDbEntity
  8
1
  6
Continuous
100
AcDbLine
 10
154.599105
 20
92.974426
 30
0.0
 11
154.599105
 21
90.374426
 31
0.0
  0
LINE
  5
A0EB
330
9E1C
100
AcDbEntity
  8
1
  6
Continuous
100
AcDbLine
 10
174.449105
 20
90.374426
 30
0.0
 11
154.599105
 21
90.374426
 31
0.0
  0
LINE
  5
A0EC
330
9E1C
100
AcDbEntity
  8
1
  6
Continuous
100
AcDbLine
 10
154.599105
 20
56.774426
 30
0.0
 11
154.599105
 21
59.374426
 31
0.0
  0
LINE
  5
A0ED
330
9E1C
100
AcDbEntity
  8
1
  6
Continuous
100
AcDbLine
 10
152.949105
 20
60.082288
 30
0.0
 11
152.949105
 21
49.874426
 31
0.0
  0
ARC
  5
A0EE
330
9E1C
100
AcDbEntity
  8
1
  6
Continuous
100
AcDbCircle
 10
184.949105
 20
74.874426
 30
0.0
 40
24.8
100
AcDbArc
 50
237.100916
 51
124.368697
  0
ARC
  5
A0EF
330
9E1C
100
AcDbEntity
  8
1
  6
Continuous
100
AcDbCircle
 10
184.949105
 20
74.874426
 30
0.0
 40
22.2
100
AcDbArc
 50
282.029822
 51
77.970178
  0
ARC
  5
A0F0
330
9E1C
100
AcDbEntity
  8
1
  6
Continuous
100
AcDbCircle
 10
184.949105
 20
74.874426
 30
0.0
 40
26.047853
100
AcDbArc
 50
235.978708
 51
122.511734
  0
ARC
  5
A0F1
330
9E1C
100
AcDbEntity
  8
1
  6
Continuous
100
AcDbCircle
 10
187.803301
 20
85.16043899999997
 30
0.0
 40
14.16816299999998
100
AcDbArc
 50
82.04366099999999
 51
132.5163189999998
  0
ARC
  5
A0F2
330
9E1C
100
AcDbEntity
  8
1
  6
Continuous
100
AcDbCircle
 10
189.072344
 20
94.24034699999998
 30
0.0
 40
5.0
100
AcDbArc
 50
77.98050999999998
 51
82.04366099999999
  0
ARC
  5
A0F3
330
9E1C
100
AcDbEntity
  8
1
  6
Continuous
100
AcDbCircle
 10
171.4704529999998
 20
102.9744259999998
 30
0.0
 40
10.0
100
AcDbArc
 50
270.0
 51
312.516319
  0
ARC
  5
A0F4
330
9E1C
100
AcDbEntity
  8
1
  6
Continuous
100
AcDbCircle
 10
187.803301
 20
85.16043899999997
 30
0.0
 40
11.568163
100
AcDbArc
 50
82.06604099999998
 51
132.5163189999998
  0
ARC
  5
A0F5
330
9E1C
100
AcDbEntity
  8
1
  6
Continuous
100
AcDbCircle
 10
189.0549939999999
 20
94.141799
 30
0.0
 40
2.5
100
AcDbArc
 50
77.970178
 51
82.06604099999998
  0
ARC
  5
A0F6
330
9E1C
100
AcDbEntity
  8
1
  6
Continuous
100
AcDbCircle
 10
171.4704529999998
 20
102.9744259999998
 30
0.0
 40
12.6
100
AcDbArc
 50
270.0
 51
312.516319
  0
ARC
  5
A0F7
330
9E1C
100
AcDbEntity
  8
1
  6
Continuous
100
AcDbCircle
 10
171.4704529999998
 20
46.774426
 30
0.0
 40
12.6
100
AcDbArc
 50
47.48368099999999
 51
90.0
  0
ARC
  5
A0F8
330
9E1C
100
AcDbEntity
  8
1
  6
Continuous
100
AcDbCircle
 10
187.803301
 20
64.588414
 30
0.0
 40
14.16816299999998
100
AcDbArc
 50
227.483681
 51
277.956339
  0
ARC
  5
A0F9
330
9E1C
100
AcDbEntity
  8
1
  6
Continuous
100
AcDbCircle
 10
171.4704529999998
 20
46.774426
 30
0.0
 40
10.0
100
AcDbArc
 50
47.48368099999999
 51
90.0
  0
ARC
  5
A0FA
330
9E1C
100
AcDbEntity
  8
1
  6
Continuous
100
AcDbCircle
 10
187.803301
 20
64.588414
 30
0.0
 40
11.568163
100
AcDbArc
 50
227.483681
 51
277.9339589999998
  0
ARC
  5
A0FB
330
9E1C
100
AcDbEntity
  8
1
  6
Continuous
100
AcDbCircle
 10
189.0549939999999
 20
55.607053
 30
0.0
 40
2.5
100
AcDbArc
 50
277.9339589999998
 51
282.029822
  0
ARC
  5
A0FC
330
9E1C
100
AcDbEntity
  8
1
  6
Continuous
100
AcDbCircle
 10
189.072344
 20
55.50850500000001
 30
0.0
 40
5.0
100
AcDbArc
 50
277.956339
 51
282.01949
  0
ARC
  5
A0FD
330
9E1C
100
AcDbEntity
  8
1
  6
Continuous
100
AcDbCircle
 10
184.949105
 20
74.874426
 30
0.0
 40
20.2
100
AcDbArc
 50
259.677258
 51
100.322742
  0
ARC
  5
A0FE
330
9E1C
100
AcDbEntity
  8
1
  6
Continuous
100
AcDbCircle
 10
184.949105
 20
74.874426
 30
0.0
 40
15.2
100
AcDbArc
 50
250.0202299999999
 51
109.979764
  0
ARC
  5
A0FF
330
9E1C
100
AcDbEntity
  8
1
  6
Continuous
100
AcDbCircle
 10
184.949105
 20
74.874426
 30
0.0
 40
7.2
100
AcDbArc
 50
312.4405279999999
 51
47.559472
  0
ARC
  5
A100
330
9E1C
100
AcDbEntity
  8
1
  6
Continuous
100
AcDbCircle
 10
161.949105
 20
285.1658279999999
 30
0.0
 40
8.665063999999999
100
AcDbArc
 50
249.7438419999999
 51
278.294192
  0
LINE
  5
A101
330
9E1C
100
AcDbEntity
  8
1
  6
Continuous
100
AcDbLine
 10
158.949105
 20
276.5007639999998
 30
0.0
 11
163.1975659999999
 21
276.5007639999998
 31
0.0
  0
LINE
  5
A102
330
9E1C
100
AcDbEntity
  8
1
  6
Continuous
100
AcDbLine
 10
158.949105
 20
276.5007639999998
 30
0.0
 11
158.949105
 21
279.6930929999999
 31
0.0
  0
LINE
  5
A103
330
9E1C
100
AcDbEntity
  8
1
  6
Continuous
100
AcDbLine
 10
160.949105
 20
276.5007639999998
 30
0.0
 11
160.949105
 21
276.2007639999998
 31
0.0
  0
LINE
  5
A104
330
9E1C
100
AcDbEntity
  8
2
  6
Continuous
100
AcDbLine
 10
161.625605
 20
276.5007639999998
 30
0.0
 11
161.625605
 21
275.524264
 31
0.0
  0
LINE
  5
A105
330
9E1C
100
AcDbEntity
  8
1
  6
Continuous
100
AcDbLine
 10
160.949105
 20
276.2007639999998
 30
0.0
 11
161.949105
 21
275.2007639999998
 31
0.0
  0
LINE
  5
A106
330
9E1C
100
AcDbEntity
  8
1
  6
Continuous
100
AcDbLine
 10
163.174395
 20
276.2007639999998
 30
0.0
 11
160.949105
 21
276.2007639999998
 31
0.0
  0
LINE
  5
A107
330
9E1C
100
AcDbEntity
  8
1
  6
Continuous
100
AcDbLine
 10
162.8821069999999
 20
275.2007639999998
 30
0.0
 11
161.949105
 21
275.2007639999998
 31
0.0
  0
LINE
  5
A108
330
9E1C
100
AcDbEntity
  8
1
  6
Continuous
100
AcDbLine
 10
142.686573
 20
287.600764
 30
0.0
 11
152.949105
 21
287.600764
 31
0.0
  0
ARC
  5
A109
330
9E1C
100
AcDbEntity
  8
1
  6
Continuous
100
AcDbCircle
 10
155.092408
 20
306.6934499999999
 30
0.0
 40
20.0
100
AcDbArc
 50
252.675647
 51
263.8480749999998
  0
ARC
  5
A10A
330
9E1C
100
AcDbEntity
  8
1
  6
Continuous
100
AcDbCircle
 10
142.686573
 20
289.600764
 30
0.0
 40
2.0
100
AcDbArc
 50
187.033461
 51
270.0
  0
ARC
  5
A10B
330
9E1C
100
AcDbEntity
  8
1
  6
Continuous
100
AcDbCircle
 10
239.9491049999999
 20
301.6007640000001
 30
0.0
 40
100.0
100
AcDbArc
 50
172.9665389999999
 51
187.034408
  0
ARC
  5
A10C
330
9E1C
100
AcDbEntity
  8
1
  6
Continuous
100
AcDbCircle
 10
142.686573
 20
313.600764
 30
0.0
 40
2.0
100
AcDbArc
 50
90.0
 51
172.9665389999999
  0
LINE
  5
A10D
330
9E1C
100
AcDbEntity
  8
1
  6
Continuous
100
AcDbLine
 10
142.686573
 20
315.600764
 30
0.0
 11
152.949105
 21
315.600764
 31
0.0
  0
ARC
  5
A10E
330
9E1C
100
AcDbEntity
  8
1
  6
Continuous
100
AcDbCircle
 10
155.092408
 20
296.508077
 30
0.0
 40
20.0
100
AcDbArc
 50
96.151925
 51
107.3243529999998
  0
ARC
  5
A10F
330
9E1C
100
AcDbEntity
  8
1
  6
Continuous
100
AcDbCircle
 10
164.9491049999998
 20
314.200764
 30
0.0
 40
10.5
100
AcDbArc
 50
104.5821009999998
 51
119.339027
  0
LINE
  5
A110
330
9E1C
100
AcDbEntity
  8
4
  6
CENTER
100
AcDbLine
 10
164.9491049999998
 20
264.600764
 30
0.0
 11
164.9491049999998
 21
338.600764
 31
0.0
  0
ENDSEC
  0
SECTION
  2
OBJECTS
  0
DICTIONARY
  5
9E0A
330
0
100
AcDbDictionary
281
     1
  3
ACAD_CIP_PREVIOUS_PRODUCT_INFO
350
A172
  3
ACAD_COLOR
350
A154
  3
ACAD_DETAILVIEWSTYLE
350
A16D
  3
ACAD_GROUP
350
9E0B
  3
ACAD_LAYOUT
350
9E17
  3
ACAD_MATERIAL
350
A122
  3
ACAD_MLEADERSTYLE
350
A169
  3
ACAD_MLINESTYLE
350
9E14
  3
ACAD_PLOTSETTINGS
350
9E16
  3
ACAD_PLOTSTYLENAME
350
A120
  3
ACAD_SCALELIST
350
A157
  3
ACAD_SECTIONVIEWSTYLE
350
A16B
  3
ACAD_TABLESTYLE
350
A155
  3
ACAD_VISUALSTYLE
350
A13B
  3
ACDB_RECOMPOSE_DATA
350
A190
  3
AcDbVariableDictionary
350
A183
  3
DWGPROPS
350
A191
  0
DICTIONARY
  5
A173
330
9E0E
100
AcDbDictionary
280
     1
281
     1
  3
ADSK_XREC_LAYER_RECONCILED
360
A174
  0
DICTIONARY
  5
A175
330
9E24
100
AcDbDictionary
280
     1
281
     1
  3
ADSK_XREC_LAYER_RECONCILED
360
A176
  0
DICTIONARY
  5
A177
330
9E25
100
AcDbDictionary
280
     1
281
     1
  3
ADSK_XREC_LAYER_RECONCILED
360
A178
  0
DICTIONARY
  5
A179
330
9E26
100
AcDbDictionary
280
     1
281
     1
  3
ADSK_XREC_LAYER_RECONCILED
360
A17A
  0
DICTIONARY
  5
A17B
330
9E27
100
AcDbDictionary
280
     1
281
     1
  3
ADSK_XREC_LAYER_RECONCILED
360
A17C
  0
DICTIONARY
  5
A17D
330
9E28
100
AcDbDictionary
280
     1
281
     1
  3
ADSK_XREC_LAYER_RECONCILED
360
A17E
  0
DICTIONARY
  5
A17F
330
9E29
100
AcDbDictionary
280
     1
281
     1
  3
ADSK_XREC_LAYER_RECONCILED
360
A180
  0
DICTIONARY
  5
A181
330
9E2A
100
AcDbDictionary
280
     1
281
     1
  3
ADSK_XREC_LAYER_RECONCILED
360
A182
  0
DICTIONARY
  5
A11B
330
9E1C
100
AcDbDictionary
281
     1
  3
ACAD_LAYOUTSELFREF
350
A11C
  0
DICTIONARY
  5
A119
330
9E18
100
AcDbDictionary
281
     1
  3
ACAD_LAYOUTSELFREF
350
A11A
  0
XRECORD
  5
A172
102
{ACAD_REACTORS
330
9E0A
102
}
330
9E0A
100
AcDbXrecord
280
     1
300
ACDLT
300
2014
300
ACDLT_F_S
  0
DICTIONARY
  5
A154
102
{ACAD_REACTORS
330
9E0A
102
}
330
9E0A
100
AcDbDictionary
281
     1
  0
DICTIONARY
  5
A16D
102
{ACAD_REACTORS
330
9E0A
102
}
330
9E0A
100
AcDbDictionary
281
     1
  3
Imperial24
350
A16E
  0
DICTIONARY
  5
9E0B
102
{ACAD_REACTORS
330
9E0A
102
}
330
9E0A
100
AcDbDictionary
281
     1
  0
DICTIONARY
  5
9E17
102
{ACAD_REACTORS
330
9E0A
102
}
330
9E0A
100
AcDbDictionary
281
     1
  3
Model
350
A16F
  3
レイアウト1
350
A170
  0
DICTIONARY
  5
A122
102
{ACAD_REACTORS
330
9E0A
102
}
330
9E0A
100
AcDbDictionary
281
     1
  3
ByBlock
350
A12B
  3
ByLayer
350
A123
  3
Global
350
A133
  0
DICTIONARY
  5
A169
102
{ACAD_REACTORS
330
9E0A
102
}
330
9E0A
100
AcDbDictionary
281
     1
  3
Standard
350
A16A
  0
DICTIONARY
  5
9E14
102
{ACAD_REACTORS
330
9E0A
102
}
330
9E0A
100
AcDbDictionary
281
     1
  3
STANDARD
350
9E15
  0
DICTIONARY
  5
9E16
102
{ACAD_REACTORS
330
9E0A
102
}
330
9E0A
100
AcDbDictionary
281
     1
  0
ACDBDICTIONARYWDFLT
  5
A120
102
{ACAD_REACTORS
330
9E0A
102
}
330
9E0A
100
AcDbDictionary
281
     1
  3
Normal
350
A121
100
AcDbDictionaryWithDefault
340
A121
  0
DICTIONARY
  5
A157
102
{ACAD_REACTORS
330
9E0A
102
}
330
9E0A
100
AcDbDictionary
281
     1
  3
A0
350
A158
  3
A1
350
A159
  3
A2
350
A15A
  3
A3
350
A15B
  3
A4
350
A15C
  3
A5
350
A15D
  3
A6
350
A15E
  3
A7
350
A15F
  3
A8
350
A160
  3
A9
350
A161
  3
B0
350
A162
  3
B1
350
A163
  3
B2
350
A164
  3
B3
350
A165
  3
B4
350
A166
  3
B5
350
A167
  3
B6
350
A168
  0
DICTIONARY
  5
A16B
102
{ACAD_REACTORS
330
9E0A
102
}
330
9E0A
100
AcDbDictionary
281
     1
  3
Imperial24
350
A16C
  0
DICTIONARY
  5
A155
102
{ACAD_REACTORS
330
9E0A
102
}
330
9E0A
100
AcDbDictionary
281
     1
  3
Standard
350
A156
  0
DICTIONARY
  5
A13B
102
{ACAD_REACTORS
330
9E0A
102
}
330
9E0A
100
AcDbDictionary
281
     1
  3
2dWireframe
350
A141
  3
Basic
350
A140
  3
Brighten
350
A147
  3
ColorChange
350
A14B
  3
Conceptual
350
A144
  3
Dim
350
A146
  3
EdgeColorOff
350
A153
  3
Facepattern
350
A14A
  3
Flat
350
A13C
  3
FlatWithEdges
350
A13D
  3
Gouraud
350
A13E
  3
GouraudWithEdges
350
A13F
  3
Hidden
350
A143
  3
JitterOff
350
A151
  3
Linepattern
350
A149
  3
OverhangOff
350
A152
  3
Realistic
350
A145
  3
Shaded
350
A150
  3
Shaded with edges
350
A14F
  3
Shades of Gray
350
A14C
  3
Sketchy
350
A14D
  3
Thicken
350
A148
  3
Wireframe
350
A142
  3
X-Ray
350
A14E
  0
XRECORD
  5
A190
102
{ACAD_REACTORS
330
9E0A
102
}
330
9E0A
100
AcDbXrecord
280
     1
 90
        1
330
A156
  0
DICTIONARY
  5
A183
102
{ACAD_REACTORS
330
9E0A
102
}
330
9E0A
100
AcDbDictionary
281
     1
  3
CANNOSCALE
350
A188
  3
CMLEADERSTYLE
350
A185
  3
CTABLESTYLE
350
A184
  3
CVIEWDETAILSTYLE
350
A186
  3
CVIEWSECTIONSTYLE
350
A187
  3
DIMASSOC
350
A18B
  3
INDEXCTL
350
A18A
  3
SORTENTS
350
A189
  3
XCLIPFRAME
350
A18C
  0
XRECORD
  5
A191
102
{ACAD_REACTORS
330
9E0A
102
}
330
9E0A
100
AcDbXrecord
280
     1
  1
DWGPROPS COOKIE
  2

  3

  4

  6

  7

  8
Yoshitsune
  9

300
=
301
=
302
=
303
=
304
=
305
=
306
=
307
=
308
=
309
=
 40
0.0000104050925926
 41
2451301.391836806
 42
2457192.686617269
  1

 90
        0
  0
XRECORD
  5
A174
102
{ACAD_REACTORS
330
A173
102
}
330
A173
100
AcDbXrecord
280
     1
290
     1
  0
XRECORD
  5
A176
102
{ACAD_REACTORS
330
A175
102
}
330
A175
100
AcDbXrecord
280
     1
290
     1
  0
XRECORD
  5
A178
102
{ACAD_REACTORS
330
A177
102
}
330
A177
100
AcDbXrecord
280
     1
290
     1
  0
XRECORD
  5
A17A
102
{ACAD_REACTORS
330
A179
102
}
330
A179
100
AcDbXrecord
280
     1
290
     1
  0
XRECORD
  5
A17C
102
{ACAD_REACTORS
330
A17B
102
}
330
A17B
100
AcDbXrecord
280
     1
290
     1
  0
XRECORD
  5
A17E
102
{ACAD_REACTORS
330
A17D
102
}
330
A17D
100
AcDbXrecord
280
     1
290
     1
  0
XRECORD
  5
A180
102
{ACAD_REACTORS
330
A17F
102
}
330
A17F
100
AcDbXrecord
280
     1
290
     1
  0
XRECORD
  5
A182
102
{ACAD_REACTORS
330
A181
102
}
330
A181
100
AcDbXrecord
280
     1
290
     1
  0
XRECORD
  5
A11C
102
{ACAD_REACTORS
330
A11B
102
}
330
A11B
100
AcDbXrecord
280
     1
340
9E1C
  0
XRECORD
  5
A11A
102
{ACAD_REACTORS
330
A119
102
}
330
A119
100
AcDbXrecord
280
     1
340
9E18
  0
ACDBDETAILVIEWSTYLE
  5
A16E
102
{ACAD_XDICTIONARY
360
A1C9
102
}
102
{ACAD_REACTORS
330
A16D
102
}
330
A16D
100
AcDbModelDocViewStyle
 70
     0
  3
Imperial24
290
     0
100
AcDbDetailViewStyle
 70
     0
 71
     0
 90
        3
 71
     1
340
9E0F
 40
0.24
340
0
 40
0.24
300

 40
0.36
280
     3
 71
     2
340
9E13
 90
       25
 71
     3
340
9E0F
 40
0.24
 90
        1
 40
0.75
 90
        1
300
%<\AcVar ViewType \f "%tc1">% %<\AcVar ViewDetailId>%\PSCALE %<\AcVar ViewScale \f "%sn">%
 71
     4
340
9E13
 90
       25
340
9E13
 90
       25
280
     0
  0
LAYOUT
  5
A16F
102
{ACAD_XDICTIONARY
360
A1CB
102
}
102
{ACAD_REACTORS
330
9E17
102
}
330
9E17
100
AcDbPlotSettings
  1

  2
Canon LBP9100C
  4

  6

 40
0.0
 41
0.0
 42
0.0
 43
0.0
 44
0.0
 45
0.0
 46
0.0
 47
0.0
 48
0.0
 49
0.0
140
0.0
141
0.0
142
1.0
143
1.0
 70
  1712
 72
     0
 73
     0
 74
     0
  7

 75
     0
147
1.0
148
0.0
149
0.0
100
AcDbLayout
  1
Model
 70
     1
 71
     0
 10
0.0
 20
0.0
 11
12.0
 21
9.0
 12
0.0
 22
0.0
 32
0.0
 14
0.0
 24
0.0
 34
0.0
 15
0.0
 25
0.0
 35
0.0
146
0.0
 13
0.0
 23
0.0
 33
0.0
 16
1.0
 26
0.0
 36
0.0
 17
0.0
 27
1.0
 37
0.0
 76
     0
330
9E1C
331
A118
  0
LAYOUT
  5
A170
102
{ACAD_XDICTIONARY
360
A1CD
102
}
102
{ACAD_REACTORS
330
9E17
102
}
330
9E17
100
AcDbPlotSettings
  1

  2
Canon LBP9100C
  4

  6

 40
0.0
 41
0.0
 42
0.0
 43
0.0
 44
0.0
 45
0.0
 46
0.0
 47
0.0
 48
0.0
 49
0.0
140
0.0
141
0.0
142
1.0
143
1.0
 70
   688
 72
     0
 73
     0
 74
     5
  7

 75
    16
147
1.0
148
0.0
149
0.0
100
AcDbLayout
  1
レイアウト1
 70
     0
 71
     1
 10
0.0
 20
0.0
 11
420.0
 21
297.0
 12
0.0
 22
0.0
 32
0.0
 14
1.000000000000000E+20
 24
1.000000000000000E+20
 34
1.000000000000000E+20
 15
-1.000000000000000E+20
 25
-1.000000000000000E+20
 35
-1.000000000000000E+20
146
0.0
 13
0.0
 23
0.0
 33
0.0
 16
1.0
 26
0.0
 36
0.0
 17
0.0
 27
1.0
 37
0.0
 76
     0
330
9E18
  0
MATERIAL
  5
A12B
102
{ACAD_XDICTIONARY
360
A12C
102
}
102
{ACAD_REACTORS
330
A122
102
}
330
A122
100
AcDbMaterial
  1
ByBlock
 72
     0
 43
0.0208333333333333
 43
0.0
 43
0.0
 43
0.0
 43
0.0
 43
0.0208333333333333
 43
0.0
 43
0.0
 43
0.0
 43
0.0
 43
1.0
 43
0.0
 43
0.0
 43
0.0
 43
0.0
 43
1.0
 77
     0
 47
0.0208333333333333
 47
0.0
 47
0.0
 47
0.0
 47
0.0
 47
0.0208333333333333
 47
0.0
 47
0.0
 47
0.0
 47
0.0
 47
1.0
 47
0.0
 47
0.0
 47
0.0
 47
0.0
 47
1.0
171
     0
 49
0.0208333333333333
 49
0.0
 49
0.0
 49
0.0
 49
0.0
 49
0.0208333333333333
 49
0.0
 49
0.0
 49
0.0
 49
0.0
 49
1.0
 49
0.0
 49
0.0
 49
0.0
 49
0.0
 49
1.0
175
     0
142
0.0208333333333333
142
0.0
142
0.0
142
0.0
142
0.0
142
0.0208333333333333
142
0.0
142
0.0
142
0.0
142
0.0
142
1.0
142
0.0
142
0.0
142
0.0
142
0.0
142
1.0
179
     0
144
0.0208333333333333
144
0.0
144
0.0
144
0.0
144
0.0
144
0.0208333333333333
144
0.0
144
0.0
144
0.0
144
0.0
144
1.0
144
0.0
144
0.0
144
0.0
144
0.0
144
1.0
147
0.0208333333333333
147
0.0
147
0.0
147
0.0
147
0.0
147
0.0208333333333333
147
0.0
147
0.0
147
0.0
147
0.0
147
1.0
147
0.0
147
0.0
147
0.0
147
0.0
147
1.0
  0
MATERIAL
  5
A123
102
{ACAD_XDICTIONARY
360
A124
102
}
102
{ACAD_REACTORS
330
A122
102
}
330
A122
100
AcDbMaterial
  1
ByLayer
 72
     0
 43
0.0208333333333333
 43
0.0
 43
0.0
 43
0.0
 43
0.0
 43
0.0208333333333333
 43
0.0
 43
0.0
 43
0.0
 43
0.0
 43
1.0
 43
0.0
 43
0.0
 43
0.0
 43
0.0
 43
1.0
 77
     0
 47
0.0208333333333333
 47
0.0
 47
0.0
 47
0.0
 47
0.0
 47
0.0208333333333333
 47
0.0
 47
0.0
 47
0.0
 47
0.0
 47
1.0
 47
0.0
 47
0.0
 47
0.0
 47
0.0
 47
1.0
171
     0
 49
0.0208333333333333
 49
0.0
 49
0.0
 49
0.0
 49
0.0
 49
0.0208333333333333
 49
0.0
 49
0.0
 49
0.0
 49
0.0
 49
1.0
 49
0.0
 49
0.0
 49
0.0
 49
0.0
 49
1.0
175
     0
142
0.0208333333333333
142
0.0
142
0.0
142
0.0
142
0.0
142
0.0208333333333333
142
0.0
142
0.0
142
0.0
142
0.0
142
1.0
142
0.0
142
0.0
142
0.0
142
0.0
142
1.0
179
     0
144
0.0208333333333333
144
0.0
144
0.0
144
0.0
144
0.0
144
0.0208333333333333
144
0.0
144
0.0
144
0.0
144
0.0
144
1.0
144
0.0
144
0.0
144
0.0
144
0.0
144
1.0
147
0.0208333333333333
147
0.0
147
0.0
147
0.0
147
0.0
147
0.0208333333333333
147
0.0
147
0.0
147
0.0
147
0.0
147
1.0
147
0.0
147
0.0
147
0.0
147
0.0
147
1.0
  0
MATERIAL
  5
A133
102
{ACAD_XDICTIONARY
360
A134
102
}
102
{ACAD_REACTORS
330
A122
102
}
330
A122
100
AcDbMaterial
  1
Global
 72
     0
 43
0.0208333333333333
 43
0.0
 43
0.0
 43
0.0
 43
0.0
 43
0.0208333333333333
 43
0.0
 43
0.0
 43
0.0
 43
0.0
 43
1.0
 43
0.0
 43
0.0
 43
0.0
 43
0.0
 43
1.0
 77
     0
 47
0.0208333333333333
 47
0.0
 47
0.0
 47
0.0
 47
0.0
 47
0.0208333333333333
 47
0.0
 47
0.0
 47
0.0
 47
0.0
 47
1.0
 47
0.0
 47
0.0
 47
0.0
 47
0.0
 47
1.0
171
     0
 49
0.0208333333333333
 49
0.0
 49
0.0
 49
0.0
 49
0.0
 49
0.0208333333333333
 49
0.0
 49
0.0
 49
0.0
 49
0.0
 49
1.0
 49
0.0
 49
0.0
 49
0.0
 49
0.0
 49
1.0
175
     0
142
0.0208333333333333
142
0.0
142
0.0
142
0.0
142
0.0
142
0.0208333333333333
142
0.0
142
0.0
142
0.0
142
0.0
142
1.0
142
0.0
142
0.0
142
0.0
142
0.0
142
1.0
179
     0
144
0.0208333333333333
144
0.0
144
0.0
144
0.0
144
0.0
144
0.0208333333333333
144
0.0
144
0.0
144
0.0
144
0.0
144
1.0
144
0.0
144
0.0
144
0.0
144
0.0
144
1.0
147
0.0208333333333333
147
0.0
147
0.0
147
0.0
147
0.0
147
0.0208333333333333
147
0.0
147
0.0
147
0.0
147
0.0
147
1.0
147
0.0
147
0.0
147
0.0
147
0.0
147
1.0
  0
MLEADERSTYLE
  5
A16A
102
{ACAD_REACTORS
330
A169
102
}
330
A169
100
AcDbMLeaderStyle
170
     2
171
     1
172
     0
 90
        2
 40
0.0
 41
0.0
173
     1
 91
-1056964608
340
9E11
 92
       -2
290
     1
 42
0.09
291
     1
 43
0.36
  3
Standard
 44
0.18
300

342
9E0F
174
     1
178
     6
175
     1
176
     0
 93
-1056964608
 45
0.18
292
     0
297
     0
 46
0.18
 94
-1056964608
 47
1.0
 49
1.0
140
1.0
293
     1
141
0.0
294
     1
177
     0
142
1.0
295
     0
296
     0
143
0.125
1001
ACAD_MLEADERVER
1070
     2
  0
MLINESTYLE
  5
9E15
102
{ACAD_REACTORS
330
9E14
102
}
330
9E14
100
AcDbMlineStyle
  2
STANDARD
 70
     0
  3

 62
   256
 51
90.0
 52
90.0
 71
     2
 49
0.5
 62
   256
  6
BYLAYER
 49
-0.5
 62
   256
  6
BYLAYER
  0
ACDBPLACEHOLDER
  5
A121
102
{ACAD_REACTORS
330
A120
102
}
330
A120
  0
SCALE
  5
A158
102
{ACAD_REACTORS
330
A157
102
}
330
A157
100
AcDbScale
 70
     0
300
1:1
140
1.0
141
1.0
290
     1
  0
SCALE
  5
A159
102
{ACAD_REACTORS
330
A157
102
}
330
A157
100
AcDbScale
 70
     0
300
1/128" = 1'-0"
140
0.0078125
141
12.0
290
     0
  0
SCALE
  5
A15A
102
{ACAD_REACTORS
330
A157
102
}
330
A157
100
AcDbScale
 70
     0
300
1/64" = 1'-0"
140
0.015625
141
12.0
290
     0
  0
SCALE
  5
A15B
102
{ACAD_REACTORS
330
A157
102
}
330
A157
100
AcDbScale
 70
     0
300
1/32" = 1'-0"
140
0.03125
141
12.0
290
     0
  0
SCALE
  5
A15C
102
{ACAD_REACTORS
330
A157
102
}
330
A157
100
AcDbScale
 70
     0
300
1/16" = 1'-0"
140
0.0625
141
12.0
290
     0
  0
SCALE
  5
A15D
102
{ACAD_REACTORS
330
A157
102
}
330
A157
100
AcDbScale
 70
     0
300
3/32" = 1'-0"
140
0.09375
141
12.0
290
     0
  0
SCALE
  5
A15E
102
{ACAD_REACTORS
330
A157
102
}
330
A157
100
AcDbScale
 70
     0
300
1/8" = 1'-0"
140
0.125
141
12.0
290
     0
  0
SCALE
  5
A15F
102
{ACAD_REACTORS
330
A157
102
}
330
A157
100
AcDbScale
 70
     0
300
3/16" = 1'-0"
140
0.1875
141
12.0
290
     0
  0
SCALE
  5
A160
102
{ACAD_REACTORS
330
A157
102
}
330
A157
100
AcDbScale
 70
     0
300
1/4" = 1'-0"
140
0.25
141
12.0
290
     0
  0
SCALE
  5
A161
102
{ACAD_REACTORS
330
A157
102
}
330
A157
100
AcDbScale
 70
     0
300
3/8" = 1'-0"
140
0.375
141
12.0
290
     0
  0
SCALE
  5
A162
102
{ACAD_REACTORS
330
A157
102
}
330
A157
100
AcDbScale
 70
     0
300
1/2" = 1'-0"
140
0.5
141
12.0
290
     0
  0
SCALE
  5
A163
102
{ACAD_REACTORS
330
A157
102
}
330
A157
100
AcDbScale
 70
     0
300
3/4" = 1'-0"
140
0.75
141
12.0
290
     0
  0
SCALE
  5
A164
102
{ACAD_REACTORS
330
A157
102
}
330
A157
100
AcDbScale
 70
     0
300
1" = 1'-0"
140
1.0
141
12.0
290
     0
  0
SCALE
  5
A165
102
{ACAD_REACTORS
330
A157
102
}
330
A157
100
AcDbScale
 70
     0
300
1-1/2" = 1'-0"
140
1.5
141
12.0
290
     0
  0
SCALE
  5
A166
102
{ACAD_REACTORS
330
A157
102
}
330
A157
100
AcDbScale
 70
     0
300
3" = 1'-0"
140
3.0
141
12.0
290
     0
  0
SCALE
  5
A167
102
{ACAD_REACTORS
330
A157
102
}
330
A157
100
AcDbScale
 70
     0
300
6" = 1'-0"
140
6.0
141
12.0
290
     0
  0
SCALE
  5
A168
102
{ACAD_REACTORS
330
A157
102
}
330
A157
100
AcDbScale
 70
     0
300
1'-0" = 1'-0"
140
12.0
141
12.0
290
     0
  0
ACDBSECTIONVIEWSTYLE
  5
A16C
102
{ACAD_XDICTIONARY
360
A1C7
102
}
102
{ACAD_REACTORS
330
A16B
102
}
330
A16B
100
AcDbModelDocViewStyle
 70
     0
  3
Imperial24
290
     0
100
AcDbSectionViewStyle
 70
     0
 71
     0
 90
       78
 71
     1
340
9E0F
 40
0.24
340
0
340
0
 40
0.24
300
I, O, Q, S, X, Z
 40
0.48
 90
        3
 40
0.18
 90
        1
 71
     2
340
9E13
 90
       25
340
9E13
 90
       50
 40
0.24
 40
0.0
 40
0.24
 71
     3
340
9E0F
 40
0.24
 90
        1
 40
0.75
 90
        1
300
%<\AcVar ViewType \f "%tc1">% %<\AcVar ViewSectionStartId>%-%<\AcVar ViewSectionEndId>%\PSCALE %<\AcVar ViewScale \f "%sn">%
 71
     4
300
ANSI31
 40
1.0
 90
        0
290
     0
290
     0
 90
        6
 40
0.0
 40
1.570796326794896
 40
0.2617993877991494
 40
1.308996938995747
 40
-0.2617993877991494
 40
1.832595714594046
  0
TABLESTYLE
  5
A156
102
{ACAD_XDICTIONARY
360
A18E
102
}
102
{ACAD_REACTORS
330
A155
102
}
330
A155
100
AcDbTableStyle
  3
Standard
 70
     0
 71
     0
 40
0.06
 41
0.06
280
     0
281
     0
  7
STANDARD
140
0.18
170
     2
 62
     0
 63
     7
283
     0
274
    -2
284
     1
 64
     0
275
    -2
285
     1
 65
     0
276
    -2
286
     1
 66
     0
277
    -2
287
     1
 67
     0
278
    -2
288
     1
 68
     0
279
    -2
289
     1
 69
     0
  7
STANDARD
140
0.25
170
     5
 62
     0
 63
     7
283
     0
274
    -2
284
     1
 64
     0
275
    -2
285
     1
 65
     0
276
    -2
286
     1
 66
     0
277
    -2
287
     1
 67
     0
278
    -2
288
     1
 68
     0
279
    -2
289
     1
 69
     0
  7
STANDARD
140
0.18
170
     5
 62
     0
 63
     7
283
     0
274
    -2
284
     1
 64
     0
275
    -2
285
     1
 65
     0
276
    -2
286
     1
 66
     0
277
    -2
287
     1
 67
     0
278
    -2
288
     1
 68
     0
279
    -2
289
     1
 69
     0
  0
VISUALSTYLE
  5
A141
102
{ACAD_XDICTIONARY
360
A19F
102
}
102
{ACAD_REACTORS
330
A13B
102
}
330
A13B
100
AcDbVisualStyle
  2
2dWireframe
 70
     4
 71
     0
 72
     2
 73
     0
 90
        0
 40
-0.6
 41
-30.0
 62
     5
 63
     7
 74
     1
 91
        4
 64
     7
 65
   257
 75
     1
175
     1
 42
1.0
 92
        0
 66
   257
 43
1.0
 76
     1
 77
     6
 78
     2
 67
     7
 79
     5
170
     0
171
     0
290
     0
174
     0
 93
        1
 44
0.0
173
     0
291
     0
 45
0.0
1001
ACAD
1000
AcDbSavedByObjectVersion
1070
     0
  0
VISUALSTYLE
  5
A140
102
{ACAD_XDICTIONARY
360
A19D
102
}
102
{ACAD_REACTORS
330
A13B
102
}
330
A13B
100
AcDbVisualStyle
  2
Basic
 70
     7
 71
     1
 72
     0
 73
     1
 90
        0
 40
-0.6
 41
-30.0
 62
     5
 63
     7
 74
     0
 91
        4
 64
     7
 65
   257
 75
     1
175
     1
 42
1.0
 92
        8
 66
     7
 43
1.0
 76
     1
 77
     6
 78
     2
 67
     7
 79
     5
170
     0
171
     0
290
     0
174
     0
 93
        1
 44
0.0
173
     0
291
     1
 45
0.0
1001
ACAD
1000
AcDbSavedByObjectVersion
1070
     0
  0
VISUALSTYLE
  5
A147
102
{ACAD_XDICTIONARY
360
A1AB
102
}
102
{ACAD_REACTORS
330
A13B
102
}
330
A13B
100
AcDbVisualStyle
  2
Brighten
 70
    12
 71
     2
 72
     2
 73
     0
 90
        0
 40
-0.6
 41
-30.0
 62
     5
 63
     7
 74
     1
 91
        4
 64
     7
 65
   257
 75
     1
175
     1
 42
1.0
 92
        8
 66
     7
 43
1.0
 76
     1
 77
     6
 78
     2
 67
     7
 79
     5
170
     0
171
     0
290
     0
174
     0
 93
        1
 44
50.0
173
     0
291
     1
 45
0.0
1001
ACAD
1000
AcDbSavedByObjectVersion
1070
     0
  0
VISUALSTYLE
  5
A14B
102
{ACAD_XDICTIONARY
360
A1B3
102
}
102
{ACAD_REACTORS
330
A13B
102
}
330
A13B
100
AcDbVisualStyle
  2
ColorChange
 70
    16
 71
     2
 72
     2
 73
     3
 90
        0
 40
-0.6
 41
-30.0
 62
     5
 63
     8
 74
     1
 91
        4
 64
     7
 65
   257
 75
     1
175
     1
 42
1.0
 92
        8
 66
     8
 43
1.0
 76
     1
 77
     6
 78
     2
 67
     7
 79
     5
170
     0
171
     0
290
     0
174
     0
 93
        1
 44
0.0
173
     0
291
     1
 45
0.0
1001
ACAD
1000
AcDbSavedByObjectVersion
1070
     0
  0
VISUALSTYLE
  5
A144
102
{ACAD_XDICTIONARY
360
A1A5
102
}
102
{ACAD_REACTORS
330
A13B
102
}
330
A13B
100
AcDbVisualStyle
  2
Conceptual
 70
     9
 71
     3
 72
     2
 73
     0
 90
        0
 40
-0.6
 41
-30.0
 62
     5
 63
     7
 74
     2
 91
        2
 64
     7
 65
   257
 75
     1
175
     1
 42
179.0
 92
        8
 66
     7
 43
1.0
 76
     1
 77
     6
 78
     2
 67
     7
 79
     3
170
     0
171
     0
290
     0
174
     0
 93
        1
 44
0.0
173
     0
291
     0
 45
0.0
1001
ACAD
1000
AcDbSavedByObjectVersion
1070
     0
  0
VISUALSTYLE
  5
A146
102
{ACAD_XDICTIONARY
360
A1A9
102
}
102
{ACAD_REACTORS
330
A13B
102
}
330
A13B
100
AcDbVisualStyle
  2
Dim
 70
    11
 71
     2
 72
     2
 73
     0
 90
        0
 40
-0.6
 41
-30.0
 62
     5
 63
     7
 74
     1
 91
        4
 64
     7
 65
   257
 75
     1
175
     1
 42
1.0
 92
        8
 66
     7
 43
1.0
 76
     1
 77
     6
 78
     2
 67
     7
 79
     5
170
     0
171
     0
290
     0
174
     0
 93
        1
 44
-50.0
173
     0
291
     1
 45
0.0
1001
ACAD
1000
AcDbSavedByObjectVersion
1070
     0
  0
VISUALSTYLE
  5
A153
102
{ACAD_XDICTIONARY
360
A1C3
102
}
102
{ACAD_REACTORS
330
A13B
102
}
330
A13B
100
AcDbVisualStyle
  2
EdgeColorOff
 70
    22
 71
     2
 72
     2
 73
     0
 90
        0
 40
-0.6
 41
-30.0
 62
     5
 63
     7
 74
     1
 91
        4
 64
     7
 65
   257
 75
     1
175
     1
 42
1.0
 92
        8
 66
     7
 43
1.0
 76
     1
 77
     6
 78
     2
 67
     7
 79
     5
170
     0
171
     0
290
     0
174
     0
 93
        1
 44
0.0
173
     0
291
     1
 45
0.0
1001
ACAD
1000
AcDbSavedByObjectVersion
1070
     0
  0
VISUALSTYLE
  5
A14A
102
{ACAD_XDICTIONARY
360
A1B1
102
}
102
{ACAD_REACTORS
330
A13B
102
}
330
A13B
100
AcDbVisualStyle
  2
Facepattern
 70
    15
 71
     2
 72
     2
 73
     0
 90
        0
 40
-0.6
 41
-30.0
 62
     5
 63
     7
 74
     1
 91
        4
 64
     7
 65
   257
 75
     1
175
     1
 42
1.0
 92
        8
 66
     7
 43
1.0
 76
     1
 77
     6
 78
     2
 67
     7
 79
     5
170
     0
171
     0
290
     0
174
     0
 93
        1
 44
0.0
173
     0
291
     1
 45
0.0
1001
ACAD
1000
AcDbSavedByObjectVersion
1070
     0
  0
VISUALSTYLE
  5
A13C
102
{ACAD_XDICTIONARY
360
A195
102
}
102
{ACAD_REACTORS
330
A13B
102
}
330
A13B
100
AcDbVisualStyle
  2
Flat
 70
     0
 71
     2
 72
     1
 73
     1
 90
        2
 40
-0.6
 41
30.0
 62
     5
 63
     7
 74
     0
 91
        0
 64
     7
 65
   257
 75
     1
175
     1
 42
1.0
 92
        8
 66
     7
 43
1.0
 76
     1
 77
     6
 78
     2
 67
     7
 79
     5
170
     0
171
     0
290
     0
174
     0
 93
       13
 44
0.0
173
     0
291
     1
 45
0.0
1001
ACAD
1000
AcDbSavedByObjectVersion
1070
     0
  0
VISUALSTYLE
  5
A13D
102
{ACAD_XDICTIONARY
360
A197
102
}
102
{ACAD_REACTORS
330
A13B
102
}
330
A13B
100
AcDbVisualStyle
  2
FlatWithEdges
 70
     1
 71
     2
 72
     1
 73
     1
 90
        2
 40
-0.6
 41
30.0
 62
     5
 63
     7
 74
     1
 91
        0
 64
     7
 65
   257
 75
     1
175
     1
 42
1.0
 92
        0
 66
   257
 43
1.0
 76
     1
 77
     6
 78
     2
 67
     7
 79
     5
170
     0
171
     0
290
     0
174
     0
 93
       13
 44
0.0
173
     0
291
     1
 45
0.0
1001
ACAD
1000
AcDbSavedByObjectVersion
1070
     0
  0
VISUALSTYLE
  5
A13E
102
{ACAD_XDICTIONARY
360
A199
102
}
102
{ACAD_REACTORS
330
A13B
102
}
330
A13B
100
AcDbVisualStyle
  2
Gouraud
 70
     2
 71
     2
 72
     2
 73
     1
 90
        2
 40
-0.6
 41
30.0
 62
     5
 63
     7
 74
     0
 91
        0
 64
     7
 65
   257
 75
     1
175
     1
 42
1.0
 92
        0
 66
     7
 43
1.0
 76
     1
 77
     6
 78
     2
 67
     7
 79
     5
170
     0
171
     0
290
     0
174
     0
 93
       13
 44
0.0
173
     0
291
     1
 45
0.0
1001
ACAD
1000
AcDbSavedByObjectVersion
1070
     0
  0
VISUALSTYLE
  5
A13F
102
{ACAD_XDICTIONARY
360
A19B
102
}
102
{ACAD_REACTORS
330
A13B
102
}
330
A13B
100
AcDbVisualStyle
  2
GouraudWithEdges
 70
     3
 71
     2
 72
     2
 73
     1
 90
        2
 40
-0.6
 41
30.0
 62
     5
 63
     7
 74
     1
 91
        0
 64
     7
 65
   257
 75
     1
175
     1
 42
1.0
 92
        0
 66
   257
 43
1.0
 76
     1
 77
     6
 78
     2
 67
     7
 79
     5
170
     0
171
     0
290
     0
174
     0
 93
       13
 44
0.0
173
     0
291
     1
 45
0.0
1001
ACAD
1000
AcDbSavedByObjectVersion
1070
     0
  0
VISUALSTYLE
  5
A143
102
{ACAD_XDICTIONARY
360
A1A3
102
}
102
{ACAD_REACTORS
330
A13B
102
}
330
A13B
100
AcDbVisualStyle
  2
Hidden
 70
     6
 71
     1
 72
     2
 73
     2
 90
        0
 40
-0.6
 41
-30.0
 62
     5
 63
     7
 74
     2
 91
        2
 64
     7
 65
   257
 75
     2
175
     1
 42
40.0
 92
        0
 66
   257
 43
1.0
 76
     1
 77
     6
 78
     2
 67
     7
 79
     3
170
     0
171
     0
290
     0
174
     0
 93
        1
 44
0.0
173
     0
291
     0
 45
0.0
1001
ACAD
1000
AcDbSavedByObjectVersion
1070
     0
  0
VISUALSTYLE
  5
A151
102
{ACAD_XDICTIONARY
360
A1BF
102
}
102
{ACAD_REACTORS
330
A13B
102
}
330
A13B
100
AcDbVisualStyle
  2
JitterOff
 70
    20
 71
     2
 72
     2
 73
     0
 90
        0
 40
-0.6
 41
-30.0
 62
     5
 63
     7
 74
     1
 91
        4
 64
     7
 65
   257
 75
     1
175
     1
 42
1.0
 92
       10
 66
     7
 43
1.0
 76
     1
 77
     6
 78
     2
 67
     7
 79
     5
170
     0
171
     0
290
     0
174
     0
 93
        1
 44
0.0
173
     0
291
     1
 45
0.0
1001
ACAD
1000
AcDbSavedByObjectVersion
1070
     0
  0
VISUALSTYLE
  5
A149
102
{ACAD_XDICTIONARY
360
A1AF
102
}
102
{ACAD_REACTORS
330
A13B
102
}
330
A13B
100
AcDbVisualStyle
  2
Linepattern
 70
    14
 71
     2
 72
     2
 73
     0
 90
        0
 40
-0.6
 41
-30.0
 62
     5
 63
     7
 74
     1
 91
        4
 64
     7
 65
   257
 75
     7
175
     7
 42
1.0
 92
        8
 66
     7
 43
1.0
 76
     1
 77
     6
 78
     2
 67
     7
 79
     5
170
     0
171
     0
290
     0
174
     0
 93
        1
 44
0.0
173
     0
291
     1
 45
0.0
1001
ACAD
1000
AcDbSavedByObjectVersion
1070
     0
  0
VISUALSTYLE
  5
A152
102
{ACAD_XDICTIONARY
360
A1C1
102
}
102
{ACAD_REACTORS
330
A13B
102
}
330
A13B
100
AcDbVisualStyle
  2
OverhangOff
 70
    21
 71
     2
 72
     2
 73
     0
 90
        0
 40
-0.6
 41
-30.0
 62
     5
 63
     7
 74
     1
 91
        4
 64
     7
 65
   257
 75
     1
175
     1
 42
1.0
 92
        9
 66
     7
 43
1.0
 76
     1
 77
     6
 78
     2
 67
     7
 79
     5
170
     0
171
     0
290
     0
174
     0
 93
        1
 44
0.0
173
     0
291
     1
 45
0.0
1001
ACAD
1000
AcDbSavedByObjectVersion
1070
     0
  0
VISUALSTYLE
  5
A145
102
{ACAD_XDICTIONARY
360
A1A7
102
}
102
{ACAD_REACTORS
330
A13B
102
}
330
A13B
100
AcDbVisualStyle
  2
Realistic
 70
     8
 71
     2
 72
     3
 73
     0
 90
        2
 40
-0.6
 41
30.0
 62
     5
 63
     7
 74
     0
 91
        0
 64
     7
 65
   257
 75
     1
175
     1
 42
1.0
 92
        8
 66
   257
 43
1.0
 76
     1
 77
     6
 78
     2
 67
     7
 79
     3
170
     0
171
     0
290
     0
174
     0
 93
       13
 44
0.0
173
     0
291
     0
 45
0.0
1001
ACAD
1000
AcDbSavedByObjectVersion
1070
     0
  0
VISUALSTYLE
  5
A150
102
{ACAD_XDICTIONARY
360
A1BD
102
}
102
{ACAD_REACTORS
330
A13B
102
}
330
A13B
100
AcDbVisualStyle
  2
Shaded
 70
    27
 71
     2
 72
     2
 73
     1
 90
        2
 40
-0.6
 41
30.0
 62
     5
 63
     7
 74
     0
 91
        4
 64
     7
 65
   257
 75
     1
175
     1
 42
1.0
 92
        8
 66
   257
 43
1.0
 76
     1
 77
     6
 78
     2
 67
     8
 79
     3
170
     0
171
     0
290
     0
174
     0
 93
        5
 44
0.0
173
     0
291
     0
 45
0.0
1001
ACAD
1000
AcDbSavedByObjectVersion
1070
     0
  0
VISUALSTYLE
  5
A14F
102
{ACAD_XDICTIONARY
360
A1BB
102
}
102
{ACAD_REACTORS
330
A13B
102
}
330
A13B
100
AcDbVisualStyle
  2
Shaded with edges
 70
    26
 71
     2
 72
     2
 73
     1
 90
        2
 40
-0.6
 41
30.0
 62
     5
 63
     7
 74
     1
 91
       10
 64
     7
 65
   257
 75
     2
175
     1
 42
1.0
 92
        8
 66
   257
 43
1.0
 76
     1
 77
     6
 78
     2
 67
     7
 79
     3
170
     0
171
     0
290
     0
174
     0
 93
        5
 44
0.0
173
     0
291
     0
 45
0.0
1001
ACAD
1000
AcDbSavedByObjectVersion
1070
     0
  0
VISUALSTYLE
  5
A14C
102
{ACAD_XDICTIONARY
360
A1B5
102
}
102
{ACAD_REACTORS
330
A13B
102
}
330
A13B
100
AcDbVisualStyle
  2
Shades of Gray
 70
    23
 71
     2
 72
     2
 73
     3
 90
        0
 40
-0.6
 41
-30.0
 62
     5
 63
     7
 74
     2
 91
        2
 64
     7
 65
     7
 75
     1
175
     1
 42
40.0
 92
        8
 66
     7
 43
1.0
 76
     1
 77
     6
 78
     2
 67
     7
 79
     3
170
     0
171
     0
290
     0
174
     0
 93
        1
 44
0.0
173
     0
291
     0
 45
0.0
1001
ACAD
1000
AcDbSavedByObjectVersion
1070
     0
  0
VISUALSTYLE
  5
A14D
102
{ACAD_XDICTIONARY
360
A1B7
102
}
102
{ACAD_REACTORS
330
A13B
102
}
330
A13B
100
AcDbVisualStyle
  2
Sketchy
 70
    24
 71
     1
 72
     2
 73
     2
 90
        0
 40
-0.6
 41
-30.0
 62
     5
 63
     7
 74
     2
 91
        2
 64
     7
 65
     7
 75
     1
175
     1
 42
40.0
 92
       11
 66
     7
 43
1.0
 76
     1
 77
     6
 78
     2
 67
     7
 79
     6
170
     0
171
     0
290
     0
174
     0
 93
        1
 44
0.0
173
     0
291
     0
 45
0.0
1001
ACAD
1000
AcDbSavedByObjectVersion
1070
     0
  0
VISUALSTYLE
  5
A148
102
{ACAD_XDICTIONARY
360
A1AD
102
}
102
{ACAD_REACTORS
330
A13B
102
}
330
A13B
100
AcDbVisualStyle
  2
Thicken
 70
    13
 71
     2
 72
     2
 73
     0
 90
        0
 40
-0.6
 41
-30.0
 62
     5
 63
     7
 74
     1
 91
        4
 64
     7
 65
   257
 75
     1
175
     1
 42
1.0
 92
       12
 66
     7
 43
1.0
 76
     1
 77
     6
 78
     2
 67
     7
 79
     5
170
     0
171
     0
290
     0
174
     0
 93
        1
 44
0.0
173
     0
291
     1
 45
0.0
1001
ACAD
1000
AcDbSavedByObjectVersion
1070
     0
  0
VISUALSTYLE
  5
A142
102
{ACAD_XDICTIONARY
360
A1A1
102
}
102
{ACAD_REACTORS
330
A13B
102
}
330
A13B
100
AcDbVisualStyle
  2
Wireframe
 70
     5
 71
     0
 72
     2
 73
     0
 90
        0
 40
-0.6
 41
-30.0
 62
     5
 63
     7
 74
     1
 91
        4
 64
     7
 65
   257
 75
     1
175
     1
 42
1.0
 92
        0
 66
   257
 43
1.0
 76
     1
 77
     6
 78
     2
 67
     7
 79
     3
170
     0
171
     0
290
     0
174
     0
 93
        1
 44
0.0
173
     0
291
     0
 45
0.0
1001
ACAD
1000
AcDbSavedByObjectVersion
1070
     0
  0
VISUALSTYLE
  5
A14E
102
{ACAD_XDICTIONARY
360
A1B9
102
}
102
{ACAD_REACTORS
330
A13B
102
}
330
A13B
100
AcDbVisualStyle
  2
X-Ray
 70
    25
 71
     2
 72
     2
 73
     1
 90
        1
 40
0.5
 41
-30.0
 62
     5
 63
     7
 74
     1
 91
        0
 64
     7
 65
   257
 75
     1
175
     1
 42
1.0
 92
        8
 66
     7
 43
1.0
 76
     1
 77
     6
 78
     2
 67
     7
 79
     3
170
     0
171
     0
290
     0
174
     0
 93
       13
 44
0.0
173
     0
291
     0
 45
0.0
1001
ACAD
1000
AcDbSavedByObjectVersion
1070
     0
  0
DICTIONARYVAR
  5
A188
102
{ACAD_REACTORS
330
A183
102
}
330
A183
100
DictionaryVariables
280
     0
  1
1:1
  0
DICTIONARYVAR
  5
A185
102
{ACAD_REACTORS
330
A183
102
}
330
A183
100
DictionaryVariables
280
     0
  1
STANDARD
  0
DICTIONARYVAR
  5
A184
102
{ACAD_REACTORS
330
A183
102
}
330
A183
100
DictionaryVariables
280
     0
  1
STANDARD
  0
DICTIONARYVAR
  5
A186
102
{ACAD_REACTORS
330
A183
102
}
330
A183
100
DictionaryVariables
280
     0
  1
Imperial24
  0
DICTIONARYVAR
  5
A187
102
{ACAD_REACTORS
330
A183
102
}
330
A183
100
DictionaryVariables
280
     0
  1
Imperial24
  0
DICTIONARYVAR
  5
A18B
102
{ACAD_REACTORS
330
A183
102
}
330
A183
100
DictionaryVariables
280
     0
  1
1
  0
DICTIONARYVAR
  5
A18A
102
{ACAD_REACTORS
330
A183
102
}
330
A183
100
DictionaryVariables
280
     0
  1
0
  0
DICTIONARYVAR
  5
A189
102
{ACAD_REACTORS
330
A183
102
}
330
A183
100
DictionaryVariables
280
     0
  1
127
  0
DICTIONARYVAR
  5
A18C
102
{ACAD_REACTORS
330
A183
102
}
330
A183
100
DictionaryVariables
280
     0
  1
2
  0
DICTIONARY
  5
A1C9
330
A16E
100
AcDbDictionary
280
     1
281
     1
  3
ACAD_XREC_ROUNDTRIP
360
A1CA
  0
DICTIONARY
  5
A1CB
330
A16F
100
AcDbDictionary
280
     1
281
     1
  3
ACAD_XREC_ROUNDTRIP
360
A1CC
  0
DICTIONARY
  5
A1CD
330
A170
100
AcDbDictionary
280
     1
281
     1
  3
ACAD_XREC_ROUNDTRIP
360
A1CE
  0
DICTIONARY
  5
A12C
330
A12B
100
AcDbDictionary
280
     1
281
     1
  3
ACAD_XREC_ROUNDTRIP
360
A193
  3
BUMPTILE
360
A12E
  3
DIFFUSETILE
360
A12D
  3
OPACITYTILE
360
A131
  3
REFLECTIONTILE
360
A130
  3
REFRACTIONTILE
360
A132
  3
SPECULARTILE
360
A12F
  0
DICTIONARY
  5
A124
330
A123
100
AcDbDictionary
280
     1
281
     1
  3
ACAD_XREC_ROUNDTRIP
360
A192
  3
BUMPTILE
360
A126
  3
DIFFUSETILE
360
A125
  3
OPACITYTILE
360
A129
  3
REFLECTIONTILE
360
A128
  3
REFRACTIONTILE
360
A12A
  3
SPECULARTILE
360
A127
  0
DICTIONARY
  5
A134
330
A133
100
AcDbDictionary
280
     1
281
     1
  3
ACAD_XREC_ROUNDTRIP
360
A194
  3
BUMPTILE
360
A136
  3
DIFFUSETILE
360
A135
  3
OPACITYTILE
360
A139
  3
REFLECTIONTILE
360
A138
  3
REFRACTIONTILE
360
A13A
  3
SPECULARTILE
360
A137
  0
DICTIONARY
  5
A1C7
330
A16C
100
AcDbDictionary
280
     1
281
     1
  3
ACAD_XREC_ROUNDTRIP
360
A1C8
  0
DICTIONARY
  5
A18E
330
A156
100
AcDbDictionary
280
     1
281
     1
  3
ACAD_ROUNDTRIP_2008_TABLESTYLE_CELLSTYLEMAP
360
A18F
  3
ACAD_XREC_ROUNDTRIP
360
A1C5
  0
DICTIONARY
  5
A19F
330
A141
100
AcDbDictionary
280
     1
281
     1
  3
ACAD_XREC_ROUNDTRIP
360
A1A0
  0
DICTIONARY
  5
A19D
330
A140
100
AcDbDictionary
280
     1
281
     1
  3
ACAD_XREC_ROUNDTRIP
360
A19E
  0
DICTIONARY
  5
A1AB
330
A147
100
AcDbDictionary
280
     1
281
     1
  3
ACAD_XREC_ROUNDTRIP
360
A1AC
  0
DICTIONARY
  5
A1B3
330
A14B
100
AcDbDictionary
280
     1
281
     1
  3
ACAD_XREC_ROUNDTRIP
360
A1B4
  0
DICTIONARY
  5
A1A5
330
A144
100
AcDbDictionary
280
     1
281
     1
  3
ACAD_XREC_ROUNDTRIP
360
A1A6
  0
DICTIONARY
  5
A1A9
330
A146
100
AcDbDictionary
280
     1
281
     1
  3
ACAD_XREC_ROUNDTRIP
360
A1AA
  0
DICTIONARY
  5
A1C3
330
A153
100
AcDbDictionary
280
     1
281
     1
  3
ACAD_XREC_ROUNDTRIP
360
A1C4
  0
DICTIONARY
  5
A1B1
330
A14A
100
AcDbDictionary
280
     1
281
     1
  3
ACAD_XREC_ROUNDTRIP
360
A1B2
  0
DICTIONARY
  5
A195
330
A13C
100
AcDbDictionary
280
     1
281
     1
  3
ACAD_XREC_ROUNDTRIP
360
A196
  0
DICTIONARY
  5
A197
330
A13D
100
AcDbDictionary
280
     1
281
     1
  3
ACAD_XREC_ROUNDTRIP
360
A198
  0
DICTIONARY
  5
A199
330
A13E
100
AcDbDictionary
280
     1
281
     1
  3
ACAD_XREC_ROUNDTRIP
360
A19A
  0
DICTIONARY
  5
A19B
330
A13F
100
AcDbDictionary
280
     1
281
     1
  3
ACAD_XREC_ROUNDTRIP
360
A19C
  0
DICTIONARY
  5
A1A3
330
A143
100
AcDbDictionary
280
     1
281
     1
  3
ACAD_XREC_ROUNDTRIP
360
A1A4
  0
DICTIONARY
  5
A1BF
330
A151
100
AcDbDictionary
280
     1
281
     1
  3
ACAD_XREC_ROUNDTRIP
360
A1C0
  0
DICTIONARY
  5
A1AF
330
A149
100
AcDbDictionary
280
     1
281
     1
  3
ACAD_XREC_ROUNDTRIP
360
A1B0
  0
DICTIONARY
  5
A1C1
330
A152
100
AcDbDictionary
280
     1
281
     1
  3
ACAD_XREC_ROUNDTRIP
360
A1C2
  0
DICTIONARY
  5
A1A7
330
A145
100
AcDbDictionary
280
     1
281
     1
  3
ACAD_XREC_ROUNDTRIP
360
A1A8
  0
DICTIONARY
  5
A1BD
330
A150
100
AcDbDictionary
280
     1
281
     1
  3
ACAD_XREC_ROUNDTRIP
360
A1BE
  0
DICTIONARY
  5
A1BB
330
A14F
100
AcDbDictionary
280
     1
281
     1
  3
ACAD_XREC_ROUNDTRIP
360
A1BC
  0
DICTIONARY
  5
A1B5
330
A14C
100
AcDbDictionary
280
     1
281
     1
  3
ACAD_XREC_ROUNDTRIP
360
A1B6
  0
DICTIONARY
  5
A1B7
330
A14D
100
AcDbDictionary
280
     1
281
     1
  3
ACAD_XREC_ROUNDTRIP
360
A1B8
  0
DICTIONARY
  5
A1AD
330
A148
100
AcDbDictionary
280
     1
281
     1
  3
ACAD_XREC_ROUNDTRIP
360
A1AE
  0
DICTIONARY
  5
A1A1
330
A142
100
AcDbDictionary
280
     1
281
     1
  3
ACAD_XREC_ROUNDTRIP
360
A1A2
  0
DICTIONARY
  5
A1B9
330
A14E
100
AcDbDictionary
280
     1
281
     1
  3
ACAD_XREC_ROUNDTRIP
360
A1BA
  0
XRECORD
  5
A1CA
102
{ACAD_REACTORS
330
A1C9
102
}
330
A1C9
100
AcDbXrecord
280
     1
102
DISPLAYNAME
  1
Imperial24
102
FLAGS
 90
        0
  0
XRECORD
  5
A1CC
102
{ACAD_REACTORS
330
A1CB
102
}
330
A1CB
100
AcDbXrecord
280
     1
102
SHADEPLOT
 70
     0
102
SHADEPLOTRESLEVEL
 70
     2
102
SHADEPLOTCUSTOMDPI
 70
   300
  0
XRECORD
  5
A1CE
102
{ACAD_REACTORS
330
A1CD
102
}
330
A1CD
100
AcDbXrecord
280
     1
102
SHADEPLOT
 70
     0
102
SHADEPLOTRESLEVEL
 70
     2
102
SHADEPLOTCUSTOMDPI
 70
   300
  0
XRECORD
  5
A193
102
{ACAD_REACTORS
330
A12C
102
}
330
A12C
100
AcDbXrecord
280
     1
102
MATERIAL
148
0.0
149
0.0
149
0.0
 93
        0
 94
      127
282
     0
 72
     0
 77
     0
171
     0
175
     0
179
     0
273
     0
  0
XRECORD
  5
A12E
102
{ACAD_REACTORS
330
A12C
102
}
330
A12C
100
AcDbXrecord
280
     1
270
     1
271
     1
  0
XRECORD
  5
A12D
102
{ACAD_REACTORS
330
A12C
102
}
330
A12C
100
AcDbXrecord
280
     1
270
     1
271
     1
  0
XRECORD
  5
A131
102
{ACAD_REACTORS
330
A12C
102
}
330
A12C
100
AcDbXrecord
280
     1
270
     1
271
     1
  0
XRECORD
  5
A130
102
{ACAD_REACTORS
330
A12C
102
}
330
A12C
100
AcDbXrecord
280
     1
270
     1
271
     1
  0
XRECORD
  5
A132
102
{ACAD_REACTORS
330
A12C
102
}
330
A12C
100
AcDbXrecord
280
     1
270
     1
271
     1
  0
XRECORD
  5
A12F
102
{ACAD_REACTORS
330
A12C
102
}
330
A12C
100
AcDbXrecord
280
     1
270
     1
271
     1
  0
XRECORD
  5
A192
102
{ACAD_REACTORS
330
A124
102
}
330
A124
100
AcDbXrecord
280
     1
102
MATERIAL
148
0.0
149
0.0
149
0.0
 93
        0
 94
      127
282
     0
 72
     0
 77
     0
171
     0
175
     0
179
     0
273
     0
  0
XRECORD
  5
A126
102
{ACAD_REACTORS
330
A124
102
}
330
A124
100
AcDbXrecord
280
     1
270
     1
271
     1
  0
XRECORD
  5
A125
102
{ACAD_REACTORS
330
A124
102
}
330
A124
100
AcDbXrecord
280
     1
270
     1
271
     1
  0
XRECORD
  5
A129
102
{ACAD_REACTORS
330
A124
102
}
330
A124
100
AcDbXrecord
280
     1
270
     1
271
     1
  0
XRECORD
  5
A128
102
{ACAD_REACTORS
330
A124
102
}
330
A124
100
AcDbXrecord
280
     1
270
     1
271
     1
  0
XRECORD
  5
A12A
102
{ACAD_REACTORS
330
A124
102
}
330
A124
100
AcDbXrecord
280
     1
270
     1
271
     1
  0
XRECORD
  5
A127
102
{ACAD_REACTORS
330
A124
102
}
330
A124
100
AcDbXrecord
280
     1
270
     1
271
     1
  0
XRECORD
  5
A194
102
{ACAD_REACTORS
330
A134
102
}
330
A134
100
AcDbXrecord
280
     1
102
MATERIAL
148
0.0
149
0.0
149
0.0
 93
        0
 94
      127
282
     0
 72
     0
 77
     0
171
     0
175
     0
179
     0
273
     0
  0
XRECORD
  5
A136
102
{ACAD_REACTORS
330
A134
102
}
330
A134
100
AcDbXrecord
280
     1
270
     1
271
     1
  0
XRECORD
  5
A135
102
{ACAD_REACTORS
330
A134
102
}
330
A134
100
AcDbXrecord
280
     1
270
     1
271
     1
  0
XRECORD
  5
A139
102
{ACAD_REACTORS
330
A134
102
}
330
A134
100
AcDbXrecord
280
     1
270
     1
271
     1
  0
XRECORD
  5
A138
102
{ACAD_REACTORS
330
A134
102
}
330
A134
100
AcDbXrecord
280
     1
270
     1
271
     1
  0
XRECORD
  5
A13A
102
{ACAD_REACTORS
330
A134
102
}
330
A134
100
AcDbXrecord
280
     1
270
     1
271
     1
  0
XRECORD
  5
A137
102
{ACAD_REACTORS
330
A134
102
}
330
A134
100
AcDbXrecord
280
     1
270
     1
271
     1
  0
XRECORD
  5
A1C8
102
{ACAD_REACTORS
330
A1C7
102
}
330
A1C7
100
AcDbXrecord
280
     1
102
DISPLAYNAME
  1
Imperial24
102
FLAGS
 90
        0
  0
CELLSTYLEMAP
  5
A18F
102
{ACAD_REACTORS
330
A18E
102
}
330
A18E
100
AcDbCellStyleMap
 90
        3
300
CELLSTYLE
  1
TABLEFORMAT_BEGIN
 90
        5
170
     1
 91
        0
 92
    32768
 62
   257
 93
        1
300
CONTENTFORMAT
  1
CONTENTFORMAT_BEGIN
 90
        0
 91
        0
 92
      512
 93
        0
300

 40
0.0
140
1.0
 94
        5
 62
     0
340
9E0F
144
0.25
309
CONTENTFORMAT_END
171
     0
 94
        0
309
TABLEFORMAT_END
  1
CELLSTYLE_BEGIN
 90
        1
 91
        1
300
_TITLE
309
CELLSTYLE_END
300
CELLSTYLE
  1
TABLEFORMAT_BEGIN
 90
        5
170
     1
 91
        0
 92
        0
 62
   257
 93
        1
300
CONTENTFORMAT
  1
CONTENTFORMAT_BEGIN
 90
        0
 91
        0
 92
      512
 93
        0
300

 40
0.0
140
1.0
 94
        5
 62
     0
340
9E0F
144
0.18
309
CONTENTFORMAT_END
171
     0
 94
        0
309
TABLEFORMAT_END
  1
CELLSTYLE_BEGIN
 90
        2
 91
        1
300
_HEADER
309
CELLSTYLE_END
300
CELLSTYLE
  1
TABLEFORMAT_BEGIN
 90
        5
170
     1
 91
        0
 92
        0
 62
   257
 93
        1
300
CONTENTFORMAT
  1
CONTENTFORMAT_BEGIN
 90
        0
 91
        0
 92
      512
 93
        0
300

 40
0.0
140
1.0
 94
        2
 62
     0
340
9E0F
144
0.18
309
CONTENTFORMAT_END
171
     0
 94
        0
309
TABLEFORMAT_END
  1
CELLSTYLE_BEGIN
 90
        3
 91
        2
300
_DATA
309
CELLSTYLE_END
  0
XRECORD
  5
A1C5
102
{ACAD_REACTORS
330
A18E
102
}
330
A18E
100
AcDbXrecord
280
     1
102
ACAD_ROUNDTRIP_PRE2007_TABLESTYLE
 90
      512
 91
        0
  1

 92
      512
 93
        0
  2

 94
      512
 95
        0
  3

  0
XRECORD
  5
A1A0
102
{ACAD_REACTORS
330
A19F
102
}
330
A19F
100
AcDbXrecord
280
     1
102
RTVSPost2010Prop28
280
     1
102
RTVSPost2010PropOp28
 70
     1
102
RTVSPost2010Prop29
280
     1
102
RTVSPost2010PropOp29
 70
     1
102
RTVSPost2010Prop30
280
     0
102
RTVSPost2010PropOp30
 70
     1
102
RTVSPost2010Prop31
280
     0
102
RTVSPost2010PropOp31
 70
     1
102
RTVSPost2010Prop32
280
     0
102
RTVSPost2010PropOp32
 70
     1
102
RTVSPost2010Prop33
280
     0
102
RTVSPost2010PropOp33
 70
     1
102
RTVSPost2010Prop34
280
     0
102
RTVSPost2010PropOp34
 70
     1
102
RTVSPost2010Prop35
280
     0
102
RTVSPost2010PropOp35
 70
     1
102
RTVSPost2010Prop36
280
     0
102
RTVSPost2010PropOp36
 70
     1
102
RTVSPost2010Prop37
 90
       50
102
RTVSPost2010PropOp37
 70
     1
102
RTVSPost2010Prop38
140
0.0
102
RTVSPost2010PropOp38
 70
     1
102
RTVSPost2010Prop39
140
1.0
102
RTVSPost2010PropOp39
 70
     1
102
RTVSPost2010Prop40
 90
        0
102
RTVSPost2010PropOp40
 70
     1
102
RTVSPost2010Prop41ColorIndex
 90
       18
102
RTVSPost2010Prop41ColorRGB
 90
        0
102
RTVSPost2010PropOp41
 70
     1
102
RTVSPost2010Prop42
 90
       50
102
RTVSPost2010PropOp42
 70
     1
102
RTVSPost2010Prop43
 90
        3
102
RTVSPost2010PropOp43
 70
     1
102
RTVSPost2010Prop44ColorIndex
 90
        5
102
RTVSPost2010Prop44ColorRGB
 90
      255
102
RTVSPost2010PropOp44
 70
     1
102
RTVSPost2010Prop45
280
     0
102
RTVSPost2010PropOp45
 70
     1
102
RTVSPost2010Prop46
 90
       50
102
RTVSPost2010PropOp46
 70
     1
102
RTVSPost2010Prop47
 90
       50
102
RTVSPost2010PropOp47
 70
     1
102
RTVSPost2010Prop48
 90
       50
102
RTVSPost2010PropOp48
 70
     1
102
RTVSPost2010Prop49
280
     0
102
RTVSPost2010PropOp49
 70
     1
102
RTVSPost2010Prop50
 90
       50
102
RTVSPost2010PropOp50
 70
     1
102
RTVSPost2010Prop51ColorIndex
 90
      256
102
RTVSPost2010Prop51ColorRGB
 90
-16777216
102
RTVSPost2010PropOp51
 70
     0
102
RTVSPost2010Prop52
140
1.0
102
RTVSPost2010PropOp52
 70
     0
102
RTVSPost2010Prop53
 90
        2
102
RTVSPost2010PropOp53
 70
     1
102
RTVSPost2010Prop54
  1
strokes_ogs.tif
102
RTVSPost2010PropOp54
 70
     1
102
RTVSPost2010Prop55
280
     0
102
RTVSPost2010PropOp55
 70
     1
102
RTVSPost2010Prop56
140
1.0
102
RTVSPost2010PropOp56
 70
     1
102
RTVSPost2010Prop57
140
1.0
102
RTVSPost2010PropOp57
 70
     1
102
RTVSPropertyOp0
 70
     1
102
RTVSPropertyOp1
 70
     1
102
RTVSPropertyOp2
 70
     1
102
RTVSPropertyOp3
 70
     1
102
RTVSPropertyOp4
 70
     1
102
RTVSPropertyOp5
 70
     1
102
RTVSPropertyOp6
 70
     1
102
RTVSPropertyOp7
 70
     1
102
RTVSPropertyOp8
 70
     1
102
RTVSPropertyOp9
 70
     1
102
RTVSPropertyOp10
 70
     1
102
RTVSPropertyOp11
 70
     1
102
RTVSPropertyOp12
 70
     1
102
RTVSPropertyOp13
 70
     1
102
RTVSPropertyOp14
 70
     1
102
RTVSPropertyOp15
 70
     1
102
RTVSPropertyOp16
 70
     1
102
RTVSPropertyOp17
 70
     1
102
RTVSPropertyOp18
 70
     1
102
RTVSPropertyOp19
 70
     1
102
RTVSPropertyOp20
 70
     1
102
RTVSPropertyOp21
 70
     1
102
RTVSPropertyOp22
 70
     1
102
RTVSPropertyOp23
 70
     1
102
RTVSPropertyOp24
 70
     1
102
RTVSPropertyOp25
 70
     1
102
RTVSPropertyOp26
 70
     1
102
RTVSPropertyOp27
 70
     1
102
RTVSPropertyOp28
 70
     1
102
RTVSPropertyOp29
 70
     1
102
RTVSPropertyOp30
 70
     1
102
RTVSPropertyOp31
 70
     1
102
RTVSPropertyOp32
 70
     1
102
RTVSPropertyOp33
 70
     1
102
RTVSPropertyOp34
 70
     1
102
RTVSPropertyOp35
 70
     1
102
RTVSPropertyOp36
 70
     1
102
RTVSPropertyOp37
 70
     1
102
RTVSPropertyOp38
 70
     1
102
RTVSPropertyOp39
 70
     1
102
RTVSPropertyOp40
 70
     1
102
RTVSPropertyOp41
 70
     1
102
RTVSPropertyOp42
 70
     1
102
RTVSPropertyOp43
 70
     1
102
RTVSPropertyOp44
 70
     1
102
RTVSPropertyOp45
 70
     1
102
RTVSPropertyOp46
 70
     1
102
RTVSPropertyOp47
 70
     1
102
RTVSPropertyOp48
 70
     1
102
RTVSPropertyOp49
 70
     1
102
RTVSPropertyOp50
 70
     1
102
RTVSPropertyOp51
 70
     0
102
RTVSPropertyOp52
 70
     0
102
RTVSPropertyOp53
 70
     1
102
RTVSPropertyOp54
 70
     1
102
RTVSPropertyOp55
 70
     1
102
RTVSPropertyOp56
 70
     1
102
RTVSPropertyOp57
 70
     1
102
RTVSPropertyOp58
 70
     1
102
RTVSPropertyOp59
 70
     1
102
RTVSPropertyOp60
 70
     1
102
RTVSPropertyOp61
 70
     1
102
RTVSPropertyOp62
 70
     1
  0
XRECORD
  5
A19E
102
{ACAD_REACTORS
330
A19D
102
}
330
A19D
100
AcDbXrecord
280
     1
102
RTVSPost2010Prop28
280
     0
102
RTVSPost2010PropOp28
 70
     1
102
RTVSPost2010Prop29
280
     1
102
RTVSPost2010PropOp29
 70
     1
102
RTVSPost2010Prop30
280
     1
102
RTVSPost2010PropOp30
 70
     1
102
RTVSPost2010Prop31
280
     0
102
RTVSPost2010PropOp31
 70
     1
102
RTVSPost2010Prop32
280
     0
102
RTVSPost2010PropOp32
 70
     1
102
RTVSPost2010Prop33
280
     0
102
RTVSPost2010PropOp33
 70
     1
102
RTVSPost2010Prop34
280
     0
102
RTVSPost2010PropOp34
 70
     1
102
RTVSPost2010Prop35
280
     0
102
RTVSPost2010PropOp35
 70
     1
102
RTVSPost2010Prop36
280
     0
102
RTVSPost2010PropOp36
 70
     1
102
RTVSPost2010Prop37
 90
       50
102
RTVSPost2010PropOp37
 70
     1
102
RTVSPost2010Prop38
140
0.0
102
RTVSPost2010PropOp38
 70
     1
102
RTVSPost2010Prop39
140
1.0
102
RTVSPost2010PropOp39
 70
     1
102
RTVSPost2010Prop40
 90
        0
102
RTVSPost2010PropOp40
 70
     1
102
RTVSPost2010Prop41ColorIndex
 90
       18
102
RTVSPost2010Prop41ColorRGB
 90
        0
102
RTVSPost2010PropOp41
 70
     1
102
RTVSPost2010Prop42
 90
       50
102
RTVSPost2010PropOp42
 70
     1
102
RTVSPost2010Prop43
 90
        3
102
RTVSPost2010PropOp43
 70
     1
102
RTVSPost2010Prop44ColorIndex
 90
        5
102
RTVSPost2010Prop44ColorRGB
 90
      255
102
RTVSPost2010PropOp44
 70
     1
102
RTVSPost2010Prop45
280
     0
102
RTVSPost2010PropOp45
 70
     1
102
RTVSPost2010Prop46
 90
       50
102
RTVSPost2010PropOp46
 70
     1
102
RTVSPost2010Prop47
 90
       50
102
RTVSPost2010PropOp47
 70
     1
102
RTVSPost2010Prop48
 90
       50
102
RTVSPost2010PropOp48
 70
     1
102
RTVSPost2010Prop49
280
     0
102
RTVSPost2010PropOp49
 70
     1
102
RTVSPost2010Prop50
 90
       50
102
RTVSPost2010PropOp50
 70
     1
102
RTVSPost2010Prop51ColorIndex
 90
      256
102
RTVSPost2010Prop51ColorRGB
 90
-16777216
102
RTVSPost2010PropOp51
 70
     0
102
RTVSPost2010Prop52
140
1.0
102
RTVSPost2010PropOp52
 70
     0
102
RTVSPost2010Prop53
 90
        2
102
RTVSPost2010PropOp53
 70
     1
102
RTVSPost2010Prop54
  1
strokes_ogs.tif
102
RTVSPost2010PropOp54
 70
     1
102
RTVSPost2010Prop55
280
     0
102
RTVSPost2010PropOp55
 70
     1
102
RTVSPost2010Prop56
140
1.0
102
RTVSPost2010PropOp56
 70
     1
102
RTVSPost2010Prop57
140
1.0
102
RTVSPost2010PropOp57
 70
     1
102
RTVSPropertyOp0
 70
     1
102
RTVSPropertyOp1
 70
     1
102
RTVSPropertyOp2
 70
     1
102
RTVSPropertyOp3
 70
     1
102
RTVSPropertyOp4
 70
     1
102
RTVSPropertyOp5
 70
     1
102
RTVSPropertyOp6
 70
     1
102
RTVSPropertyOp7
 70
     1
102
RTVSPropertyOp8
 70
     1
102
RTVSPropertyOp9
 70
     1
102
RTVSPropertyOp10
 70
     1
102
RTVSPropertyOp11
 70
     1
102
RTVSPropertyOp12
 70
     1
102
RTVSPropertyOp13
 70
     1
102
RTVSPropertyOp14
 70
     1
102
RTVSPropertyOp15
 70
     1
102
RTVSPropertyOp16
 70
     1
102
RTVSPropertyOp17
 70
     1
102
RTVSPropertyOp18
 70
     1
102
RTVSPropertyOp19
 70
     1
102
RTVSPropertyOp20
 70
     1
102
RTVSPropertyOp21
 70
     1
102
RTVSPropertyOp22
 70
     1
102
RTVSPropertyOp23
 70
     1
102
RTVSPropertyOp24
 70
     1
102
RTVSPropertyOp25
 70
     1
102
RTVSPropertyOp26
 70
     1
102
RTVSPropertyOp27
 70
     1
102
RTVSPropertyOp28
 70
     1
102
RTVSPropertyOp29
 70
     1
102
RTVSPropertyOp30
 70
     1
102
RTVSPropertyOp31
 70
     1
102
RTVSPropertyOp32
 70
     1
102
RTVSPropertyOp33
 70
     1
102
RTVSPropertyOp34
 70
     1
102
RTVSPropertyOp35
 70
     1
102
RTVSPropertyOp36
 70
     1
102
RTVSPropertyOp37
 70
     1
102
RTVSPropertyOp38
 70
     1
102
RTVSPropertyOp39
 70
     1
102
RTVSPropertyOp40
 70
     1
102
RTVSPropertyOp41
 70
     1
102
RTVSPropertyOp42
 70
     1
102
RTVSPropertyOp43
 70
     1
102
RTVSPropertyOp44
 70
     1
102
RTVSPropertyOp45
 70
     1
102
RTVSPropertyOp46
 70
     1
102
RTVSPropertyOp47
 70
     1
102
RTVSPropertyOp48
 70
     1
102
RTVSPropertyOp49
 70
     1
102
RTVSPropertyOp50
 70
     1
102
RTVSPropertyOp51
 70
     0
102
RTVSPropertyOp52
 70
     0
102
RTVSPropertyOp53
 70
     1
102
RTVSPropertyOp54
 70
     1
102
RTVSPropertyOp55
 70
     1
102
RTVSPropertyOp56
 70
     1
102
RTVSPropertyOp57
 70
     1
102
RTVSPropertyOp58
 70
     1
102
RTVSPropertyOp59
 70
     1
102
RTVSPropertyOp60
 70
     1
102
RTVSPropertyOp61
 70
     1
102
RTVSPropertyOp62
 70
     1
  0
XRECORD
  5
A1AC
102
{ACAD_REACTORS
330
A1AB
102
}
330
A1AB
100
AcDbXrecord
280
     1
102
RTVSPost2010Prop28
280
     0
102
RTVSPost2010PropOp28
 70
     1
102
RTVSPost2010Prop29
280
     1
102
RTVSPost2010PropOp29
 70
     1
102
RTVSPost2010Prop30
280
     1
102
RTVSPost2010PropOp30
 70
     1
102
RTVSPost2010Prop31
280
     0
102
RTVSPost2010PropOp31
 70
     1
102
RTVSPost2010Prop32
280
     0
102
RTVSPost2010PropOp32
 70
     1
102
RTVSPost2010Prop33
280
     0
102
RTVSPost2010PropOp33
 70
     1
102
RTVSPost2010Prop34
280
     0
102
RTVSPost2010PropOp34
 70
     1
102
RTVSPost2010Prop35
280
     0
102
RTVSPost2010PropOp35
 70
     1
102
RTVSPost2010Prop36
280
     0
102
RTVSPost2010PropOp36
 70
     1
102
RTVSPost2010Prop37
 90
       50
102
RTVSPost2010PropOp37
 70
     1
102
RTVSPost2010Prop38
140
0.0
102
RTVSPost2010PropOp38
 70
     1
102
RTVSPost2010Prop39
140
1.0
102
RTVSPost2010PropOp39
 70
     1
102
RTVSPost2010Prop40
 90
        0
102
RTVSPost2010PropOp40
 70
     1
102
RTVSPost2010Prop41ColorIndex
 90
       18
102
RTVSPost2010Prop41ColorRGB
 90
        0
102
RTVSPost2010PropOp41
 70
     1
102
RTVSPost2010Prop42
 90
       50
102
RTVSPost2010PropOp42
 70
     1
102
RTVSPost2010Prop43
 90
        3
102
RTVSPost2010PropOp43
 70
     1
102
RTVSPost2010Prop44ColorIndex
 90
        5
102
RTVSPost2010Prop44ColorRGB
 90
      255
102
RTVSPost2010PropOp44
 70
     1
102
RTVSPost2010Prop45
280
     0
102
RTVSPost2010PropOp45
 70
     1
102
RTVSPost2010Prop46
 90
       50
102
RTVSPost2010PropOp46
 70
     1
102
RTVSPost2010Prop47
 90
       50
102
RTVSPost2010PropOp47
 70
     1
102
RTVSPost2010Prop48
 90
       50
102
RTVSPost2010PropOp48
 70
     1
102
RTVSPost2010Prop49
280
     0
102
RTVSPost2010PropOp49
 70
     1
102
RTVSPost2010Prop50
 90
       50
102
RTVSPost2010PropOp50
 70
     1
102
RTVSPost2010Prop51ColorIndex
 90
      256
102
RTVSPost2010Prop51ColorRGB
 90
-16777216
102
RTVSPost2010PropOp51
 70
     0
102
RTVSPost2010Prop52
140
1.0
102
RTVSPost2010PropOp52
 70
     0
102
RTVSPost2010Prop53
 90
        2
102
RTVSPost2010PropOp53
 70
     1
102
RTVSPost2010Prop54
  1
strokes_ogs.tif
102
RTVSPost2010PropOp54
 70
     1
102
RTVSPost2010Prop55
280
     0
102
RTVSPost2010PropOp55
 70
     1
102
RTVSPost2010Prop56
140
1.0
102
RTVSPost2010PropOp56
 70
     1
102
RTVSPost2010Prop57
140
1.0
102
RTVSPost2010PropOp57
 70
     1
102
RTVSPropertyOp0
 70
     1
102
RTVSPropertyOp1
 70
     1
102
RTVSPropertyOp2
 70
     1
102
RTVSPropertyOp3
 70
     1
102
RTVSPropertyOp4
 70
     1
102
RTVSPropertyOp5
 70
     1
102
RTVSPropertyOp6
 70
     1
102
RTVSPropertyOp7
 70
     1
102
RTVSPropertyOp8
 70
     1
102
RTVSPropertyOp9
 70
     1
102
RTVSPropertyOp10
 70
     1
102
RTVSPropertyOp11
 70
     1
102
RTVSPropertyOp12
 70
     1
102
RTVSPropertyOp13
 70
     1
102
RTVSPropertyOp14
 70
     1
102
RTVSPropertyOp15
 70
     1
102
RTVSPropertyOp16
 70
     1
102
RTVSPropertyOp17
 70
     1
102
RTVSPropertyOp18
 70
     1
102
RTVSPropertyOp19
 70
     1
102
RTVSPropertyOp20
 70
     1
102
RTVSPropertyOp21
 70
     1
102
RTVSPropertyOp22
 70
     1
102
RTVSPropertyOp23
 70
     1
102
RTVSPropertyOp24
 70
     1
102
RTVSPropertyOp25
 70
     1
102
RTVSPropertyOp26
 70
     1
102
RTVSPropertyOp27
 70
     1
102
RTVSPropertyOp28
 70
     1
102
RTVSPropertyOp29
 70
     1
102
RTVSPropertyOp30
 70
     1
102
RTVSPropertyOp31
 70
     1
102
RTVSPropertyOp32
 70
     1
102
RTVSPropertyOp33
 70
     1
102
RTVSPropertyOp34
 70
     1
102
RTVSPropertyOp35
 70
     1
102
RTVSPropertyOp36
 70
     1
102
RTVSPropertyOp37
 70
     1
102
RTVSPropertyOp38
 70
     1
102
RTVSPropertyOp39
 70
     1
102
RTVSPropertyOp40
 70
     1
102
RTVSPropertyOp41
 70
     1
102
RTVSPropertyOp42
 70
     1
102
RTVSPropertyOp43
 70
     1
102
RTVSPropertyOp44
 70
     1
102
RTVSPropertyOp45
 70
     1
102
RTVSPropertyOp46
 70
     1
102
RTVSPropertyOp47
 70
     1
102
RTVSPropertyOp48
 70
     1
102
RTVSPropertyOp49
 70
     1
102
RTVSPropertyOp50
 70
     1
102
RTVSPropertyOp51
 70
     0
102
RTVSPropertyOp52
 70
     0
102
RTVSPropertyOp53
 70
     1
102
RTVSPropertyOp54
 70
     1
102
RTVSPropertyOp55
 70
     1
102
RTVSPropertyOp56
 70
     1
102
RTVSPropertyOp57
 70
     1
102
RTVSPropertyOp58
 70
     1
102
RTVSPropertyOp59
 70
     1
102
RTVSPropertyOp60
 70
     1
102
RTVSPropertyOp61
 70
     1
102
RTVSPropertyOp62
 70
     1
  0
XRECORD
  5
A1B4
102
{ACAD_REACTORS
330
A1B3
102
}
330
A1B3
100
AcDbXrecord
280
     1
102
RTVSPost2010Prop28
280
     0
102
RTVSPost2010PropOp28
 70
     1
102
RTVSPost2010Prop29
280
     1
102
RTVSPost2010PropOp29
 70
     1
102
RTVSPost2010Prop30
280
     1
102
RTVSPost2010PropOp30
 70
     1
102
RTVSPost2010Prop31
280
     0
102
RTVSPost2010PropOp31
 70
     1
102
RTVSPost2010Prop32
280
     0
102
RTVSPost2010PropOp32
 70
     1
102
RTVSPost2010Prop33
280
     0
102
RTVSPost2010PropOp33
 70
     1
102
RTVSPost2010Prop34
280
     0
102
RTVSPost2010PropOp34
 70
     1
102
RTVSPost2010Prop35
280
     0
102
RTVSPost2010PropOp35
 70
     1
102
RTVSPost2010Prop36
280
     0
102
RTVSPost2010PropOp36
 70
     1
102
RTVSPost2010Prop37
 90
       50
102
RTVSPost2010PropOp37
 70
     1
102
RTVSPost2010Prop38
140
0.0
102
RTVSPost2010PropOp38
 70
     1
102
RTVSPost2010Prop39
140
1.0
102
RTVSPost2010PropOp39
 70
     1
102
RTVSPost2010Prop40
 90
        0
102
RTVSPost2010PropOp40
 70
     1
102
RTVSPost2010Prop41ColorIndex
 90
       18
102
RTVSPost2010Prop41ColorRGB
 90
        0
102
RTVSPost2010PropOp41
 70
     1
102
RTVSPost2010Prop42
 90
       50
102
RTVSPost2010PropOp42
 70
     1
102
RTVSPost2010Prop43
 90
        3
102
RTVSPost2010PropOp43
 70
     1
102
RTVSPost2010Prop44ColorIndex
 90
        5
102
RTVSPost2010Prop44ColorRGB
 90
      255
102
RTVSPost2010PropOp44
 70
     1
102
RTVSPost2010Prop45
280
     0
102
RTVSPost2010PropOp45
 70
     1
102
RTVSPost2010Prop46
 90
       50
102
RTVSPost2010PropOp46
 70
     1
102
RTVSPost2010Prop47
 90
       50
102
RTVSPost2010PropOp47
 70
     1
102
RTVSPost2010Prop48
 90
       50
102
RTVSPost2010PropOp48
 70
     1
102
RTVSPost2010Prop49
280
     0
102
RTVSPost2010PropOp49
 70
     1
102
RTVSPost2010Prop50
 90
       50
102
RTVSPost2010PropOp50
 70
     1
102
RTVSPost2010Prop51ColorIndex
 90
      256
102
RTVSPost2010Prop51ColorRGB
 90
-16777216
102
RTVSPost2010PropOp51
 70
     0
102
RTVSPost2010Prop52
140
1.0
102
RTVSPost2010PropOp52
 70
     0
102
RTVSPost2010Prop53
 90
        2
102
RTVSPost2010PropOp53
 70
     1
102
RTVSPost2010Prop54
  1
strokes_ogs.tif
102
RTVSPost2010PropOp54
 70
     1
102
RTVSPost2010Prop55
280
     0
102
RTVSPost2010PropOp55
 70
     1
102
RTVSPost2010Prop56
140
1.0
102
RTVSPost2010PropOp56
 70
     1
102
RTVSPost2010Prop57
140
1.0
102
RTVSPost2010PropOp57
 70
     1
102
RTVSPropertyOp0
 70
     1
102
RTVSPropertyOp1
 70
     1
102
RTVSPropertyOp2
 70
     1
102
RTVSPropertyOp3
 70
     1
102
RTVSPropertyOp4
 70
     1
102
RTVSPropertyOp5
 70
     1
102
RTVSPropertyOp6
 70
     1
102
RTVSPropertyOp7
 70
     1
102
RTVSPropertyOp8
 70
     1
102
RTVSPropertyOp9
 70
     1
102
RTVSPropertyOp10
 70
     1
102
RTVSPropertyOp11
 70
     1
102
RTVSPropertyOp12
 70
     1
102
RTVSPropertyOp13
 70
     1
102
RTVSPropertyOp14
 70
     1
102
RTVSPropertyOp15
 70
     1
102
RTVSPropertyOp16
 70
     1
102
RTVSPropertyOp17
 70
     1
102
RTVSPropertyOp18
 70
     1
102
RTVSPropertyOp19
 70
     1
102
RTVSPropertyOp20
 70
     1
102
RTVSPropertyOp21
 70
     1
102
RTVSPropertyOp22
 70
     1
102
RTVSPropertyOp23
 70
     1
102
RTVSPropertyOp24
 70
     1
102
RTVSPropertyOp25
 70
     1
102
RTVSPropertyOp26
 70
     1
102
RTVSPropertyOp27
 70
     1
102
RTVSPropertyOp28
 70
     1
102
RTVSPropertyOp29
 70
     1
102
RTVSPropertyOp30
 70
     1
102
RTVSPropertyOp31
 70
     1
102
RTVSPropertyOp32
 70
     1
102
RTVSPropertyOp33
 70
     1
102
RTVSPropertyOp34
 70
     1
102
RTVSPropertyOp35
 70
     1
102
RTVSPropertyOp36
 70
     1
102
RTVSPropertyOp37
 70
     1
102
RTVSPropertyOp38
 70
     1
102
RTVSPropertyOp39
 70
     1
102
RTVSPropertyOp40
 70
     1
102
RTVSPropertyOp41
 70
     1
102
RTVSPropertyOp42
 70
     1
102
RTVSPropertyOp43
 70
     1
102
RTVSPropertyOp44
 70
     1
102
RTVSPropertyOp45
 70
     1
102
RTVSPropertyOp46
 70
     1
102
RTVSPropertyOp47
 70
     1
102
RTVSPropertyOp48
 70
     1
102
RTVSPropertyOp49
 70
     1
102
RTVSPropertyOp50
 70
     1
102
RTVSPropertyOp51
 70
     0
102
RTVSPropertyOp52
 70
     0
102
RTVSPropertyOp53
 70
     1
102
RTVSPropertyOp54
 70
     1
102
RTVSPropertyOp55
 70
     1
102
RTVSPropertyOp56
 70
     1
102
RTVSPropertyOp57
 70
     1
102
RTVSPropertyOp58
 70
     1
102
RTVSPropertyOp59
 70
     1
102
RTVSPropertyOp60
 70
     1
102
RTVSPropertyOp61
 70
     1
102
RTVSPropertyOp62
 70
     1
  0
XRECORD
  5
A1A6
102
{ACAD_REACTORS
330
A1A5
102
}
330
A1A5
100
AcDbXrecord
280
     1
102
RTVSPost2010Prop28
280
     0
102
RTVSPost2010PropOp28
 70
     1
102
RTVSPost2010Prop29
280
     1
102
RTVSPost2010PropOp29
 70
     1
102
RTVSPost2010Prop30
280
     1
102
RTVSPost2010PropOp30
 70
     1
102
RTVSPost2010Prop31
280
     0
102
RTVSPost2010PropOp31
 70
     1
102
RTVSPost2010Prop32
280
     0
102
RTVSPost2010PropOp32
 70
     1
102
RTVSPost2010Prop33
280
     0
102
RTVSPost2010PropOp33
 70
     1
102
RTVSPost2010Prop34
280
     0
102
RTVSPost2010PropOp34
 70
     1
102
RTVSPost2010Prop35
280
     0
102
RTVSPost2010PropOp35
 70
     1
102
RTVSPost2010Prop36
280
     0
102
RTVSPost2010PropOp36
 70
     1
102
RTVSPost2010Prop37
 90
       50
102
RTVSPost2010PropOp37
 70
     1
102
RTVSPost2010Prop38
140
0.0
102
RTVSPost2010PropOp38
 70
     1
102
RTVSPost2010Prop39
140
1.0
102
RTVSPost2010PropOp39
 70
     1
102
RTVSPost2010Prop40
 90
        0
102
RTVSPost2010PropOp40
 70
     1
102
RTVSPost2010Prop41ColorIndex
 90
       18
102
RTVSPost2010Prop41ColorRGB
 90
        0
102
RTVSPost2010PropOp41
 70
     1
102
RTVSPost2010Prop42
 90
       50
102
RTVSPost2010PropOp42
 70
     1
102
RTVSPost2010Prop43
 90
        3
102
RTVSPost2010PropOp43
 70
     1
102
RTVSPost2010Prop44ColorIndex
 90
        5
102
RTVSPost2010Prop44ColorRGB
 90
      255
102
RTVSPost2010PropOp44
 70
     1
102
RTVSPost2010Prop45
280
     0
102
RTVSPost2010PropOp45
 70
     1
102
RTVSPost2010Prop46
 90
       50
102
RTVSPost2010PropOp46
 70
     1
102
RTVSPost2010Prop47
 90
       50
102
RTVSPost2010PropOp47
 70
     1
102
RTVSPost2010Prop48
 90
       50
102
RTVSPost2010PropOp48
 70
     1
102
RTVSPost2010Prop49
280
     0
102
RTVSPost2010PropOp49
 70
     1
102
RTVSPost2010Prop50
 90
       50
102
RTVSPost2010PropOp50
 70
     1
102
RTVSPost2010Prop51ColorIndex
 90
      256
102
RTVSPost2010Prop51ColorRGB
 90
-16777216
102
RTVSPost2010PropOp51
 70
     0
102
RTVSPost2010Prop52
140
1.0
102
RTVSPost2010PropOp52
 70
     0
102
RTVSPost2010Prop53
 90
        2
102
RTVSPost2010PropOp53
 70
     1
102
RTVSPost2010Prop54
  1
strokes_ogs.tif
102
RTVSPost2010PropOp54
 70
     1
102
RTVSPost2010Prop55
280
     0
102
RTVSPost2010PropOp55
 70
     1
102
RTVSPost2010Prop56
140
1.0
102
RTVSPost2010PropOp56
 70
     1
102
RTVSPost2010Prop57
140
1.0
102
RTVSPost2010PropOp57
 70
     1
102
RTVSPropertyOp0
 70
     1
102
RTVSPropertyOp1
 70
     1
102
RTVSPropertyOp2
 70
     1
102
RTVSPropertyOp3
 70
     1
102
RTVSPropertyOp4
 70
     1
102
RTVSPropertyOp5
 70
     1
102
RTVSPropertyOp6
 70
     1
102
RTVSPropertyOp7
 70
     1
102
RTVSPropertyOp8
 70
     1
102
RTVSPropertyOp9
 70
     1
102
RTVSPropertyOp10
 70
     1
102
RTVSPropertyOp11
 70
     1
102
RTVSPropertyOp12
 70
     1
102
RTVSPropertyOp13
 70
     1
102
RTVSPropertyOp14
 70
     1
102
RTVSPropertyOp15
 70
     1
102
RTVSPropertyOp16
 70
     1
102
RTVSPropertyOp17
 70
     1
102
RTVSPropertyOp18
 70
     1
102
RTVSPropertyOp19
 70
     1
102
RTVSPropertyOp20
 70
     1
102
RTVSPropertyOp21
 70
     1
102
RTVSPropertyOp22
 70
     1
102
RTVSPropertyOp23
 70
     1
102
RTVSPropertyOp24
 70
     1
102
RTVSPropertyOp25
 70
     1
102
RTVSPropertyOp26
 70
     1
102
RTVSPropertyOp27
 70
     1
102
RTVSPropertyOp28
 70
     1
102
RTVSPropertyOp29
 70
     1
102
RTVSPropertyOp30
 70
     1
102
RTVSPropertyOp31
 70
     1
102
RTVSPropertyOp32
 70
     1
102
RTVSPropertyOp33
 70
     1
102
RTVSPropertyOp34
 70
     1
102
RTVSPropertyOp35
 70
     1
102
RTVSPropertyOp36
 70
     1
102
RTVSPropertyOp37
 70
     1
102
RTVSPropertyOp38
 70
     1
102
RTVSPropertyOp39
 70
     1
102
RTVSPropertyOp40
 70
     1
102
RTVSPropertyOp41
 70
     1
102
RTVSPropertyOp42
 70
     1
102
RTVSPropertyOp43
 70
     1
102
RTVSPropertyOp44
 70
     1
102
RTVSPropertyOp45
 70
     1
102
RTVSPropertyOp46
 70
     1
102
RTVSPropertyOp47
 70
     1
102
RTVSPropertyOp48
 70
     1
102
RTVSPropertyOp49
 70
     1
102
RTVSPropertyOp50
 70
     1
102
RTVSPropertyOp51
 70
     0
102
RTVSPropertyOp52
 70
     0
102
RTVSPropertyOp53
 70
     1
102
RTVSPropertyOp54
 70
     1
102
RTVSPropertyOp55
 70
     1
102
RTVSPropertyOp56
 70
     1
102
RTVSPropertyOp57
 70
     1
102
RTVSPropertyOp58
 70
     1
102
RTVSPropertyOp59
 70
     1
102
RTVSPropertyOp60
 70
     1
102
RTVSPropertyOp61
 70
     1
102
RTVSPropertyOp62
 70
     1
  0
XRECORD
  5
A1AA
102
{ACAD_REACTORS
330
A1A9
102
}
330
A1A9
100
AcDbXrecord
280
     1
102
RTVSPost2010Prop28
280
     0
102
RTVSPost2010PropOp28
 70
     1
102
RTVSPost2010Prop29
280
     1
102
RTVSPost2010PropOp29
 70
     1
102
RTVSPost2010Prop30
280
     1
102
RTVSPost2010PropOp30
 70
     1
102
RTVSPost2010Prop31
280
     0
102
RTVSPost2010PropOp31
 70
     1
102
RTVSPost2010Prop32
280
     0
102
RTVSPost2010PropOp32
 70
     1
102
RTVSPost2010Prop33
280
     0
102
RTVSPost2010PropOp33
 70
     1
102
RTVSPost2010Prop34
280
     0
102
RTVSPost2010PropOp34
 70
     1
102
RTVSPost2010Prop35
280
     0
102
RTVSPost2010PropOp35
 70
     1
102
RTVSPost2010Prop36
280
     0
102
RTVSPost2010PropOp36
 70
     1
102
RTVSPost2010Prop37
 90
       50
102
RTVSPost2010PropOp37
 70
     1
102
RTVSPost2010Prop38
140
0.0
102
RTVSPost2010PropOp38
 70
     1
102
RTVSPost2010Prop39
140
1.0
102
RTVSPost2010PropOp39
 70
     1
102
RTVSPost2010Prop40
 90
        0
102
RTVSPost2010PropOp40
 70
     1
102
RTVSPost2010Prop41ColorIndex
 90
       18
102
RTVSPost2010Prop41ColorRGB
 90
        0
102
RTVSPost2010PropOp41
 70
     1
102
RTVSPost2010Prop42
 90
       50
102
RTVSPost2010PropOp42
 70
     1
102
RTVSPost2010Prop43
 90
        3
102
RTVSPost2010PropOp43
 70
     1
102
RTVSPost2010Prop44ColorIndex
 90
        5
102
RTVSPost2010Prop44ColorRGB
 90
      255
102
RTVSPost2010PropOp44
 70
     1
102
RTVSPost2010Prop45
280
     0
102
RTVSPost2010PropOp45
 70
     1
102
RTVSPost2010Prop46
 90
       50
102
RTVSPost2010PropOp46
 70
     1
102
RTVSPost2010Prop47
 90
       50
102
RTVSPost2010PropOp47
 70
     1
102
RTVSPost2010Prop48
 90
       50
102
RTVSPost2010PropOp48
 70
     1
102
RTVSPost2010Prop49
280
     0
102
RTVSPost2010PropOp49
 70
     1
102
RTVSPost2010Prop50
 90
       50
102
RTVSPost2010PropOp50
 70
     1
102
RTVSPost2010Prop51ColorIndex
 90
      256
102
RTVSPost2010Prop51ColorRGB
 90
-16777216
102
RTVSPost2010PropOp51
 70
     0
102
RTVSPost2010Prop52
140
1.0
102
RTVSPost2010PropOp52
 70
     0
102
RTVSPost2010Prop53
 90
        2
102
RTVSPost2010PropOp53
 70
     1
102
RTVSPost2010Prop54
  1
strokes_ogs.tif
102
RTVSPost2010PropOp54
 70
     1
102
RTVSPost2010Prop55
280
     0
102
RTVSPost2010PropOp55
 70
     1
102
RTVSPost2010Prop56
140
1.0
102
RTVSPost2010PropOp56
 70
     1
102
RTVSPost2010Prop57
140
1.0
102
RTVSPost2010PropOp57
 70
     1
102
RTVSPropertyOp0
 70
     1
102
RTVSPropertyOp1
 70
     1
102
RTVSPropertyOp2
 70
     1
102
RTVSPropertyOp3
 70
     1
102
RTVSPropertyOp4
 70
     1
102
RTVSPropertyOp5
 70
     1
102
RTVSPropertyOp6
 70
     1
102
RTVSPropertyOp7
 70
     1
102
RTVSPropertyOp8
 70
     1
102
RTVSPropertyOp9
 70
     1
102
RTVSPropertyOp10
 70
     1
102
RTVSPropertyOp11
 70
     1
102
RTVSPropertyOp12
 70
     1
102
RTVSPropertyOp13
 70
     1
102
RTVSPropertyOp14
 70
     1
102
RTVSPropertyOp15
 70
     1
102
RTVSPropertyOp16
 70
     1
102
RTVSPropertyOp17
 70
     1
102
RTVSPropertyOp18
 70
     1
102
RTVSPropertyOp19
 70
     1
102
RTVSPropertyOp20
 70
     1
102
RTVSPropertyOp21
 70
     1
102
RTVSPropertyOp22
 70
     1
102
RTVSPropertyOp23
 70
     1
102
RTVSPropertyOp24
 70
     1
102
RTVSPropertyOp25
 70
     1
102
RTVSPropertyOp26
 70
     1
102
RTVSPropertyOp27
 70
     1
102
RTVSPropertyOp28
 70
     1
102
RTVSPropertyOp29
 70
     1
102
RTVSPropertyOp30
 70
     1
102
RTVSPropertyOp31
 70
     1
102
RTVSPropertyOp32
 70
     1
102
RTVSPropertyOp33
 70
     1
102
RTVSPropertyOp34
 70
     1
102
RTVSPropertyOp35
 70
     1
102
RTVSPropertyOp36
 70
     1
102
RTVSPropertyOp37
 70
     1
102
RTVSPropertyOp38
 70
     1
102
RTVSPropertyOp39
 70
     1
102
RTVSPropertyOp40
 70
     1
102
RTVSPropertyOp41
 70
     1
102
RTVSPropertyOp42
 70
     1
102
RTVSPropertyOp43
 70
     1
102
RTVSPropertyOp44
 70
     1
102
RTVSPropertyOp45
 70
     1
102
RTVSPropertyOp46
 70
     1
102
RTVSPropertyOp47
 70
     1
102
RTVSPropertyOp48
 70
     1
102
RTVSPropertyOp49
 70
     1
102
RTVSPropertyOp50
 70
     1
102
RTVSPropertyOp51
 70
     0
102
RTVSPropertyOp52
 70
     0
102
RTVSPropertyOp53
 70
     1
102
RTVSPropertyOp54
 70
     1
102
RTVSPropertyOp55
 70
     1
102
RTVSPropertyOp56
 70
     1
102
RTVSPropertyOp57
 70
     1
102
RTVSPropertyOp58
 70
     1
102
RTVSPropertyOp59
 70
     1
102
RTVSPropertyOp60
 70
     1
102
RTVSPropertyOp61
 70
     1
102
RTVSPropertyOp62
 70
     1
  0
XRECORD
  5
A1C4
102
{ACAD_REACTORS
330
A1C3
102
}
330
A1C3
100
AcDbXrecord
280
     1
102
RTVSPost2010Prop28
280
     0
102
RTVSPost2010PropOp28
 70
     1
102
RTVSPost2010Prop29
280
     1
102
RTVSPost2010PropOp29
 70
     1
102
RTVSPost2010Prop30
280
     1
102
RTVSPost2010PropOp30
 70
     1
102
RTVSPost2010Prop31
280
     0
102
RTVSPost2010PropOp31
 70
     1
102
RTVSPost2010Prop32
280
     0
102
RTVSPost2010PropOp32
 70
     1
102
RTVSPost2010Prop33
280
     0
102
RTVSPost2010PropOp33
 70
     1
102
RTVSPost2010Prop34
280
     0
102
RTVSPost2010PropOp34
 70
     1
102
RTVSPost2010Prop35
280
     0
102
RTVSPost2010PropOp35
 70
     1
102
RTVSPost2010Prop36
280
     0
102
RTVSPost2010PropOp36
 70
     1
102
RTVSPost2010Prop37
 90
       50
102
RTVSPost2010PropOp37
 70
     0
102
RTVSPost2010Prop38
140
0.0
102
RTVSPost2010PropOp38
 70
     0
102
RTVSPost2010Prop39
140
1.0
102
RTVSPost2010PropOp39
 70
     0
102
RTVSPost2010Prop40
 90
        0
102
RTVSPost2010PropOp40
 70
     0
102
RTVSPost2010Prop41ColorIndex
 90
       18
102
RTVSPost2010Prop41ColorRGB
 90
        0
102
RTVSPost2010PropOp41
 70
     0
102
RTVSPost2010Prop42
 90
       50
102
RTVSPost2010PropOp42
 70
     0
102
RTVSPost2010Prop43
 90
        3
102
RTVSPost2010PropOp43
 70
     0
102
RTVSPost2010Prop44ColorIndex
 90
        5
102
RTVSPost2010Prop44ColorRGB
 90
      255
102
RTVSPost2010PropOp44
 70
     0
102
RTVSPost2010Prop45
280
     0
102
RTVSPost2010PropOp45
 70
     1
102
RTVSPost2010Prop46
 90
       50
102
RTVSPost2010PropOp46
 70
     0
102
RTVSPost2010Prop47
 90
       50
102
RTVSPost2010PropOp47
 70
     0
102
RTVSPost2010Prop48
 90
       50
102
RTVSPost2010PropOp48
 70
     0
102
RTVSPost2010Prop49
280
     0
102
RTVSPost2010PropOp49
 70
     1
102
RTVSPost2010Prop50
 90
       50
102
RTVSPost2010PropOp50
 70
     0
102
RTVSPost2010Prop51ColorIndex
 90
      256
102
RTVSPost2010Prop51ColorRGB
 90
-16777216
102
RTVSPost2010PropOp51
 70
     0
102
RTVSPost2010Prop52
140
1.0
102
RTVSPost2010PropOp52
 70
     0
102
RTVSPost2010Prop53
 90
        2
102
RTVSPost2010PropOp53
 70
     0
102
RTVSPost2010Prop54
  1
strokes_ogs.tif
102
RTVSPost2010PropOp54
 70
     0
102
RTVSPost2010Prop55
280
     0
102
RTVSPost2010PropOp55
 70
     1
102
RTVSPost2010Prop56
140
1.0
102
RTVSPost2010PropOp56
 70
     0
102
RTVSPost2010Prop57
140
1.0
102
RTVSPost2010PropOp57
 70
     0
102
RTVSPropertyOp0
 70
     0
102
RTVSPropertyOp1
 70
     0
102
RTVSPropertyOp2
 70
     0
102
RTVSPropertyOp3
 70
     0
102
RTVSPropertyOp4
 70
     0
102
RTVSPropertyOp5
 70
     0
102
RTVSPropertyOp6
 70
     0
102
RTVSPropertyOp7
 70
     0
102
RTVSPropertyOp8
 70
     0
102
RTVSPropertyOp9
 70
     0
102
RTVSPropertyOp10
 70
     0
102
RTVSPropertyOp11
 70
     0
102
RTVSPropertyOp12
 70
     0
102
RTVSPropertyOp13
 70
     0
102
RTVSPropertyOp14
 70
     2
102
RTVSPropertyOp15
 70
     0
102
RTVSPropertyOp16
 70
     0
102
RTVSPropertyOp17
 70
     0
102
RTVSPropertyOp18
 70
     0
102
RTVSPropertyOp19
 70
     0
102
RTVSPropertyOp20
 70
     0
102
RTVSPropertyOp21
 70
     0
102
RTVSPropertyOp22
 70
     0
102
RTVSPropertyOp23
 70
     0
102
RTVSPropertyOp24
 70
     0
102
RTVSPropertyOp25
 70
     0
102
RTVSPropertyOp26
 70
     0
102
RTVSPropertyOp27
 70
     0
102
RTVSPropertyOp28
 70
     1
102
RTVSPropertyOp29
 70
     1
102
RTVSPropertyOp30
 70
     1
102
RTVSPropertyOp31
 70
     1
102
RTVSPropertyOp32
 70
     1
102
RTVSPropertyOp33
 70
     1
102
RTVSPropertyOp34
 70
     1
102
RTVSPropertyOp35
 70
     1
102
RTVSPropertyOp36
 70
     1
102
RTVSPropertyOp37
 70
     0
102
RTVSPropertyOp38
 70
     0
102
RTVSPropertyOp39
 70
     0
102
RTVSPropertyOp40
 70
     0
102
RTVSPropertyOp41
 70
     0
102
RTVSPropertyOp42
 70
     0
102
RTVSPropertyOp43
 70
     0
102
RTVSPropertyOp44
 70
     0
102
RTVSPropertyOp45
 70
     1
102
RTVSPropertyOp46
 70
     0
102
RTVSPropertyOp47
 70
     0
102
RTVSPropertyOp48
 70
     0
102
RTVSPropertyOp49
 70
     1
102
RTVSPropertyOp50
 70
     0
102
RTVSPropertyOp51
 70
     0
102
RTVSPropertyOp52
 70
     0
102
RTVSPropertyOp53
 70
     0
102
RTVSPropertyOp54
 70
     0
102
RTVSPropertyOp55
 70
     1
102
RTVSPropertyOp56
 70
     0
102
RTVSPropertyOp57
 70
     0
102
RTVSPropertyOp58
 70
     0
102
RTVSPropertyOp59
 70
     0
102
RTVSPropertyOp60
 70
     0
102
RTVSPropertyOp61
 70
     0
102
RTVSPropertyOp62
 70
     0
  0
XRECORD
  5
A1B2
102
{ACAD_REACTORS
330
A1B1
102
}
330
A1B1
100
AcDbXrecord
280
     1
102
RTVSPost2010Prop28
280
     0
102
RTVSPost2010PropOp28
 70
     1
102
RTVSPost2010Prop29
280
     1
102
RTVSPost2010PropOp29
 70
     1
102
RTVSPost2010Prop30
280
     1
102
RTVSPost2010PropOp30
 70
     1
102
RTVSPost2010Prop31
280
     0
102
RTVSPost2010PropOp31
 70
     1
102
RTVSPost2010Prop32
280
     0
102
RTVSPost2010PropOp32
 70
     1
102
RTVSPost2010Prop33
280
     0
102
RTVSPost2010PropOp33
 70
     1
102
RTVSPost2010Prop34
280
     0
102
RTVSPost2010PropOp34
 70
     1
102
RTVSPost2010Prop35
280
     0
102
RTVSPost2010PropOp35
 70
     1
102
RTVSPost2010Prop36
280
     0
102
RTVSPost2010PropOp36
 70
     1
102
RTVSPost2010Prop37
 90
       50
102
RTVSPost2010PropOp37
 70
     1
102
RTVSPost2010Prop38
140
0.0
102
RTVSPost2010PropOp38
 70
     1
102
RTVSPost2010Prop39
140
1.0
102
RTVSPost2010PropOp39
 70
     1
102
RTVSPost2010Prop40
 90
        0
102
RTVSPost2010PropOp40
 70
     1
102
RTVSPost2010Prop41ColorIndex
 90
       18
102
RTVSPost2010Prop41ColorRGB
 90
        0
102
RTVSPost2010PropOp41
 70
     1
102
RTVSPost2010Prop42
 90
       50
102
RTVSPost2010PropOp42
 70
     1
102
RTVSPost2010Prop43
 90
        3
102
RTVSPost2010PropOp43
 70
     1
102
RTVSPost2010Prop44ColorIndex
 90
        5
102
RTVSPost2010Prop44ColorRGB
 90
      255
102
RTVSPost2010PropOp44
 70
     1
102
RTVSPost2010Prop45
280
     0
102
RTVSPost2010PropOp45
 70
     1
102
RTVSPost2010Prop46
 90
       50
102
RTVSPost2010PropOp46
 70
     1
102
RTVSPost2010Prop47
 90
       50
102
RTVSPost2010PropOp47
 70
     1
102
RTVSPost2010Prop48
 90
       50
102
RTVSPost2010PropOp48
 70
     1
102
RTVSPost2010Prop49
280
     0
102
RTVSPost2010PropOp49
 70
     1
102
RTVSPost2010Prop50
 90
       50
102
RTVSPost2010PropOp50
 70
     1
102
RTVSPost2010Prop51ColorIndex
 90
      256
102
RTVSPost2010Prop51ColorRGB
 90
-16777216
102
RTVSPost2010PropOp51
 70
     0
102
RTVSPost2010Prop52
140
1.0
102
RTVSPost2010PropOp52
 70
     0
102
RTVSPost2010Prop53
 90
        2
102
RTVSPost2010PropOp53
 70
     1
102
RTVSPost2010Prop54
  1
strokes_ogs.tif
102
RTVSPost2010PropOp54
 70
     1
102
RTVSPost2010Prop55
280
     0
102
RTVSPost2010PropOp55
 70
     1
102
RTVSPost2010Prop56
140
1.0
102
RTVSPost2010PropOp56
 70
     1
102
RTVSPost2010Prop57
140
1.0
102
RTVSPost2010PropOp57
 70
     1
102
RTVSPropertyOp0
 70
     1
102
RTVSPropertyOp1
 70
     1
102
RTVSPropertyOp2
 70
     1
102
RTVSPropertyOp3
 70
     1
102
RTVSPropertyOp4
 70
     1
102
RTVSPropertyOp5
 70
     1
102
RTVSPropertyOp6
 70
     1
102
RTVSPropertyOp7
 70
     1
102
RTVSPropertyOp8
 70
     1
102
RTVSPropertyOp9
 70
     1
102
RTVSPropertyOp10
 70
     1
102
RTVSPropertyOp11
 70
     1
102
RTVSPropertyOp12
 70
     1
102
RTVSPropertyOp13
 70
     1
102
RTVSPropertyOp14
 70
     1
102
RTVSPropertyOp15
 70
     1
102
RTVSPropertyOp16
 70
     1
102
RTVSPropertyOp17
 70
     1
102
RTVSPropertyOp18
 70
     1
102
RTVSPropertyOp19
 70
     1
102
RTVSPropertyOp20
 70
     1
102
RTVSPropertyOp21
 70
     1
102
RTVSPropertyOp22
 70
     1
102
RTVSPropertyOp23
 70
     1
102
RTVSPropertyOp24
 70
     1
102
RTVSPropertyOp25
 70
     1
102
RTVSPropertyOp26
 70
     1
102
RTVSPropertyOp27
 70
     1
102
RTVSPropertyOp28
 70
     1
102
RTVSPropertyOp29
 70
     1
102
RTVSPropertyOp30
 70
     1
102
RTVSPropertyOp31
 70
     1
102
RTVSPropertyOp32
 70
     1
102
RTVSPropertyOp33
 70
     1
102
RTVSPropertyOp34
 70
     1
102
RTVSPropertyOp35
 70
     1
102
RTVSPropertyOp36
 70
     1
102
RTVSPropertyOp37
 70
     1
102
RTVSPropertyOp38
 70
     1
102
RTVSPropertyOp39
 70
     1
102
RTVSPropertyOp40
 70
     1
102
RTVSPropertyOp41
 70
     1
102
RTVSPropertyOp42
 70
     1
102
RTVSPropertyOp43
 70
     1
102
RTVSPropertyOp44
 70
     1
102
RTVSPropertyOp45
 70
     1
102
RTVSPropertyOp46
 70
     1
102
RTVSPropertyOp47
 70
     1
102
RTVSPropertyOp48
 70
     1
102
RTVSPropertyOp49
 70
     1
102
RTVSPropertyOp50
 70
     1
102
RTVSPropertyOp51
 70
     0
102
RTVSPropertyOp52
 70
     0
102
RTVSPropertyOp53
 70
     1
102
RTVSPropertyOp54
 70
     1
102
RTVSPropertyOp55
 70
     1
102
RTVSPropertyOp56
 70
     1
102
RTVSPropertyOp57
 70
     1
102
RTVSPropertyOp58
 70
     1
102
RTVSPropertyOp59
 70
     1
102
RTVSPropertyOp60
 70
     1
102
RTVSPropertyOp61
 70
     1
102
RTVSPropertyOp62
 70
     1
  0
XRECORD
  5
A196
102
{ACAD_REACTORS
330
A195
102
}
330
A195
100
AcDbXrecord
280
     1
102
RTVSPost2010Prop28
280
     0
102
RTVSPost2010PropOp28
 70
     1
102
RTVSPost2010Prop29
280
     1
102
RTVSPost2010PropOp29
 70
     1
102
RTVSPost2010Prop30
280
     1
102
RTVSPost2010PropOp30
 70
     1
102
RTVSPost2010Prop31
280
     0
102
RTVSPost2010PropOp31
 70
     1
102
RTVSPost2010Prop32
280
     0
102
RTVSPost2010PropOp32
 70
     1
102
RTVSPost2010Prop33
280
     0
102
RTVSPost2010PropOp33
 70
     1
102
RTVSPost2010Prop34
280
     0
102
RTVSPost2010PropOp34
 70
     1
102
RTVSPost2010Prop35
280
     0
102
RTVSPost2010PropOp35
 70
     1
102
RTVSPost2010Prop36
280
     0
102
RTVSPost2010PropOp36
 70
     1
102
RTVSPost2010Prop37
 90
       50
102
RTVSPost2010PropOp37
 70
     1
102
RTVSPost2010Prop38
140
0.0
102
RTVSPost2010PropOp38
 70
     1
102
RTVSPost2010Prop39
140
1.0
102
RTVSPost2010PropOp39
 70
     1
102
RTVSPost2010Prop40
 90
        0
102
RTVSPost2010PropOp40
 70
     1
102
RTVSPost2010Prop41ColorIndex
 90
       18
102
RTVSPost2010Prop41ColorRGB
 90
        0
102
RTVSPost2010PropOp41
 70
     1
102
RTVSPost2010Prop42
 90
       50
102
RTVSPost2010PropOp42
 70
     1
102
RTVSPost2010Prop43
 90
        3
102
RTVSPost2010PropOp43
 70
     1
102
RTVSPost2010Prop44ColorIndex
 90
        5
102
RTVSPost2010Prop44ColorRGB
 90
      255
102
RTVSPost2010PropOp44
 70
     1
102
RTVSPost2010Prop45
280
     0
102
RTVSPost2010PropOp45
 70
     1
102
RTVSPost2010Prop46
 90
       50
102
RTVSPost2010PropOp46
 70
     1
102
RTVSPost2010Prop47
 90
       50
102
RTVSPost2010PropOp47
 70
     1
102
RTVSPost2010Prop48
 90
       50
102
RTVSPost2010PropOp48
 70
     1
102
RTVSPost2010Prop49
280
     0
102
RTVSPost2010PropOp49
 70
     1
102
RTVSPost2010Prop50
 90
       50
102
RTVSPost2010PropOp50
 70
     1
102
RTVSPost2010Prop51ColorIndex
 90
      256
102
RTVSPost2010Prop51ColorRGB
 90
-16777216
102
RTVSPost2010PropOp51
 70
     0
102
RTVSPost2010Prop52
140
1.0
102
RTVSPost2010PropOp52
 70
     0
102
RTVSPost2010Prop53
 90
        2
102
RTVSPost2010PropOp53
 70
     1
102
RTVSPost2010Prop54
  1
strokes_ogs.tif
102
RTVSPost2010PropOp54
 70
     1
102
RTVSPost2010Prop55
280
     0
102
RTVSPost2010PropOp55
 70
     1
102
RTVSPost2010Prop56
140
1.0
102
RTVSPost2010PropOp56
 70
     1
102
RTVSPost2010Prop57
140
1.0
102
RTVSPost2010PropOp57
 70
     1
102
RTVSPropertyOp0
 70
     1
102
RTVSPropertyOp1
 70
     1
102
RTVSPropertyOp2
 70
     1
102
RTVSPropertyOp3
 70
     1
102
RTVSPropertyOp4
 70
     1
102
RTVSPropertyOp5
 70
     1
102
RTVSPropertyOp6
 70
     1
102
RTVSPropertyOp7
 70
     1
102
RTVSPropertyOp8
 70
     1
102
RTVSPropertyOp9
 70
     1
102
RTVSPropertyOp10
 70
     1
102
RTVSPropertyOp11
 70
     1
102
RTVSPropertyOp12
 70
     1
102
RTVSPropertyOp13
 70
     1
102
RTVSPropertyOp14
 70
     1
102
RTVSPropertyOp15
 70
     1
102
RTVSPropertyOp16
 70
     1
102
RTVSPropertyOp17
 70
     1
102
RTVSPropertyOp18
 70
     1
102
RTVSPropertyOp19
 70
     1
102
RTVSPropertyOp20
 70
     1
102
RTVSPropertyOp21
 70
     1
102
RTVSPropertyOp22
 70
     1
102
RTVSPropertyOp23
 70
     1
102
RTVSPropertyOp24
 70
     1
102
RTVSPropertyOp25
 70
     1
102
RTVSPropertyOp26
 70
     1
102
RTVSPropertyOp27
 70
     1
102
RTVSPropertyOp28
 70
     1
102
RTVSPropertyOp29
 70
     1
102
RTVSPropertyOp30
 70
     1
102
RTVSPropertyOp31
 70
     1
102
RTVSPropertyOp32
 70
     1
102
RTVSPropertyOp33
 70
     1
102
RTVSPropertyOp34
 70
     1
102
RTVSPropertyOp35
 70
     1
102
RTVSPropertyOp36
 70
     1
102
RTVSPropertyOp37
 70
     1
102
RTVSPropertyOp38
 70
     1
102
RTVSPropertyOp39
 70
     1
102
RTVSPropertyOp40
 70
     1
102
RTVSPropertyOp41
 70
     1
102
RTVSPropertyOp42
 70
     1
102
RTVSPropertyOp43
 70
     1
102
RTVSPropertyOp44
 70
     1
102
RTVSPropertyOp45
 70
     1
102
RTVSPropertyOp46
 70
     1
102
RTVSPropertyOp47
 70
     1
102
RTVSPropertyOp48
 70
     1
102
RTVSPropertyOp49
 70
     1
102
RTVSPropertyOp50
 70
     1
102
RTVSPropertyOp51
 70
     0
102
RTVSPropertyOp52
 70
     0
102
RTVSPropertyOp53
 70
     1
102
RTVSPropertyOp54
 70
     1
102
RTVSPropertyOp55
 70
     1
102
RTVSPropertyOp56
 70
     1
102
RTVSPropertyOp57
 70
     1
102
RTVSPropertyOp58
 70
     1
102
RTVSPropertyOp59
 70
     1
102
RTVSPropertyOp60
 70
     1
102
RTVSPropertyOp61
 70
     1
102
RTVSPropertyOp62
 70
     1
  0
XRECORD
  5
A198
102
{ACAD_REACTORS
330
A197
102
}
330
A197
100
AcDbXrecord
280
     1
102
RTVSPost2010Prop28
280
     0
102
RTVSPost2010PropOp28
 70
     1
102
RTVSPost2010Prop29
280
     1
102
RTVSPost2010PropOp29
 70
     1
102
RTVSPost2010Prop30
280
     1
102
RTVSPost2010PropOp30
 70
     1
102
RTVSPost2010Prop31
280
     0
102
RTVSPost2010PropOp31
 70
     1
102
RTVSPost2010Prop32
280
     0
102
RTVSPost2010PropOp32
 70
     1
102
RTVSPost2010Prop33
280
     0
102
RTVSPost2010PropOp33
 70
     1
102
RTVSPost2010Prop34
280
     0
102
RTVSPost2010PropOp34
 70
     1
102
RTVSPost2010Prop35
280
     0
102
RTVSPost2010PropOp35
 70
     1
102
RTVSPost2010Prop36
280
     0
102
RTVSPost2010PropOp36
 70
     1
102
RTVSPost2010Prop37
 90
       50
102
RTVSPost2010PropOp37
 70
     1
102
RTVSPost2010Prop38
140
0.0
102
RTVSPost2010PropOp38
 70
     1
102
RTVSPost2010Prop39
140
1.0
102
RTVSPost2010PropOp39
 70
     1
102
RTVSPost2010Prop40
 90
        0
102
RTVSPost2010PropOp40
 70
     1
102
RTVSPost2010Prop41ColorIndex
 90
       18
102
RTVSPost2010Prop41ColorRGB
 90
        0
102
RTVSPost2010PropOp41
 70
     1
102
RTVSPost2010Prop42
 90
       50
102
RTVSPost2010PropOp42
 70
     1
102
RTVSPost2010Prop43
 90
        3
102
RTVSPost2010PropOp43
 70
     1
102
RTVSPost2010Prop44ColorIndex
 90
        5
102
RTVSPost2010Prop44ColorRGB
 90
      255
102
RTVSPost2010PropOp44
 70
     1
102
RTVSPost2010Prop45
280
     0
102
RTVSPost2010PropOp45
 70
     1
102
RTVSPost2010Prop46
 90
       50
102
RTVSPost2010PropOp46
 70
     1
102
RTVSPost2010Prop47
 90
       50
102
RTVSPost2010PropOp47
 70
     1
102
RTVSPost2010Prop48
 90
       50
102
RTVSPost2010PropOp48
 70
     1
102
RTVSPost2010Prop49
280
     0
102
RTVSPost2010PropOp49
 70
     1
102
RTVSPost2010Prop50
 90
       50
102
RTVSPost2010PropOp50
 70
     1
102
RTVSPost2010Prop51ColorIndex
 90
      256
102
RTVSPost2010Prop51ColorRGB
 90
-16777216
102
RTVSPost2010PropOp51
 70
     0
102
RTVSPost2010Prop52
140
1.0
102
RTVSPost2010PropOp52
 70
     0
102
RTVSPost2010Prop53
 90
        2
102
RTVSPost2010PropOp53
 70
     1
102
RTVSPost2010Prop54
  1
strokes_ogs.tif
102
RTVSPost2010PropOp54
 70
     1
102
RTVSPost2010Prop55
280
     0
102
RTVSPost2010PropOp55
 70
     1
102
RTVSPost2010Prop56
140
1.0
102
RTVSPost2010PropOp56
 70
     1
102
RTVSPost2010Prop57
140
1.0
102
RTVSPost2010PropOp57
 70
     1
102
RTVSPropertyOp0
 70
     1
102
RTVSPropertyOp1
 70
     1
102
RTVSPropertyOp2
 70
     1
102
RTVSPropertyOp3
 70
     1
102
RTVSPropertyOp4
 70
     1
102
RTVSPropertyOp5
 70
     1
102
RTVSPropertyOp6
 70
     1
102
RTVSPropertyOp7
 70
     1
102
RTVSPropertyOp8
 70
     1
102
RTVSPropertyOp9
 70
     1
102
RTVSPropertyOp10
 70
     1
102
RTVSPropertyOp11
 70
     1
102
RTVSPropertyOp12
 70
     1
102
RTVSPropertyOp13
 70
     1
102
RTVSPropertyOp14
 70
     1
102
RTVSPropertyOp15
 70
     1
102
RTVSPropertyOp16
 70
     1
102
RTVSPropertyOp17
 70
     1
102
RTVSPropertyOp18
 70
     1
102
RTVSPropertyOp19
 70
     1
102
RTVSPropertyOp20
 70
     1
102
RTVSPropertyOp21
 70
     1
102
RTVSPropertyOp22
 70
     1
102
RTVSPropertyOp23
 70
     1
102
RTVSPropertyOp24
 70
     1
102
RTVSPropertyOp25
 70
     1
102
RTVSPropertyOp26
 70
     1
102
RTVSPropertyOp27
 70
     1
102
RTVSPropertyOp28
 70
     1
102
RTVSPropertyOp29
 70
     1
102
RTVSPropertyOp30
 70
     1
102
RTVSPropertyOp31
 70
     1
102
RTVSPropertyOp32
 70
     1
102
RTVSPropertyOp33
 70
     1
102
RTVSPropertyOp34
 70
     1
102
RTVSPropertyOp35
 70
     1
102
RTVSPropertyOp36
 70
     1
102
RTVSPropertyOp37
 70
     1
102
RTVSPropertyOp38
 70
     1
102
RTVSPropertyOp39
 70
     1
102
RTVSPropertyOp40
 70
     1
102
RTVSPropertyOp41
 70
     1
102
RTVSPropertyOp42
 70
     1
102
RTVSPropertyOp43
 70
     1
102
RTVSPropertyOp44
 70
     1
102
RTVSPropertyOp45
 70
     1
102
RTVSPropertyOp46
 70
     1
102
RTVSPropertyOp47
 70
     1
102
RTVSPropertyOp48
 70
     1
102
RTVSPropertyOp49
 70
     1
102
RTVSPropertyOp50
 70
     1
102
RTVSPropertyOp51
 70
     0
102
RTVSPropertyOp52
 70
     0
102
RTVSPropertyOp53
 70
     1
102
RTVSPropertyOp54
 70
     1
102
RTVSPropertyOp55
 70
     1
102
RTVSPropertyOp56
 70
     1
102
RTVSPropertyOp57
 70
     1
102
RTVSPropertyOp58
 70
     1
102
RTVSPropertyOp59
 70
     1
102
RTVSPropertyOp60
 70
     1
102
RTVSPropertyOp61
 70
     1
102
RTVSPropertyOp62
 70
     1
  0
XRECORD
  5
A19A
102
{ACAD_REACTORS
330
A199
102
}
330
A199
100
AcDbXrecord
280
     1
102
RTVSPost2010Prop28
280
     0
102
RTVSPost2010PropOp28
 70
     1
102
RTVSPost2010Prop29
280
     1
102
RTVSPost2010PropOp29
 70
     1
102
RTVSPost2010Prop30
280
     1
102
RTVSPost2010PropOp30
 70
     1
102
RTVSPost2010Prop31
280
     0
102
RTVSPost2010PropOp31
 70
     1
102
RTVSPost2010Prop32
280
     0
102
RTVSPost2010PropOp32
 70
     1
102
RTVSPost2010Prop33
280
     0
102
RTVSPost2010PropOp33
 70
     1
102
RTVSPost2010Prop34
280
     0
102
RTVSPost2010PropOp34
 70
     1
102
RTVSPost2010Prop35
280
     0
102
RTVSPost2010PropOp35
 70
     1
102
RTVSPost2010Prop36
280
     0
102
RTVSPost2010PropOp36
 70
     1
102
RTVSPost2010Prop37
 90
       50
102
RTVSPost2010PropOp37
 70
     1
102
RTVSPost2010Prop38
140
0.0
102
RTVSPost2010PropOp38
 70
     1
102
RTVSPost2010Prop39
140
1.0
102
RTVSPost2010PropOp39
 70
     1
102
RTVSPost2010Prop40
 90
        0
102
RTVSPost2010PropOp40
 70
     1
102
RTVSPost2010Prop41ColorIndex
 90
       18
102
RTVSPost2010Prop41ColorRGB
 90
        0
102
RTVSPost2010PropOp41
 70
     1
102
RTVSPost2010Prop42
 90
       50
102
RTVSPost2010PropOp42
 70
     1
102
RTVSPost2010Prop43
 90
        3
102
RTVSPost2010PropOp43
 70
     1
102
RTVSPost2010Prop44ColorIndex
 90
        5
102
RTVSPost2010Prop44ColorRGB
 90
      255
102
RTVSPost2010PropOp44
 70
     1
102
RTVSPost2010Prop45
280
     0
102
RTVSPost2010PropOp45
 70
     1
102
RTVSPost2010Prop46
 90
       50
102
RTVSPost2010PropOp46
 70
     1
102
RTVSPost2010Prop47
 90
       50
102
RTVSPost2010PropOp47
 70
     1
102
RTVSPost2010Prop48
 90
       50
102
RTVSPost2010PropOp48
 70
     1
102
RTVSPost2010Prop49
280
     0
102
RTVSPost2010PropOp49
 70
     1
102
RTVSPost2010Prop50
 90
       50
102
RTVSPost2010PropOp50
 70
     1
102
RTVSPost2010Prop51ColorIndex
 90
      256
102
RTVSPost2010Prop51ColorRGB
 90
-16777216
102
RTVSPost2010PropOp51
 70
     0
102
RTVSPost2010Prop52
140
1.0
102
RTVSPost2010PropOp52
 70
     0
102
RTVSPost2010Prop53
 90
        2
102
RTVSPost2010PropOp53
 70
     1
102
RTVSPost2010Prop54
  1
strokes_ogs.tif
102
RTVSPost2010PropOp54
 70
     1
102
RTVSPost2010Prop55
280
     0
102
RTVSPost2010PropOp55
 70
     1
102
RTVSPost2010Prop56
140
1.0
102
RTVSPost2010PropOp56
 70
     1
102
RTVSPost2010Prop57
140
1.0
102
RTVSPost2010PropOp57
 70
     1
102
RTVSPropertyOp0
 70
     1
102
RTVSPropertyOp1
 70
     1
102
RTVSPropertyOp2
 70
     1
102
RTVSPropertyOp3
 70
     1
102
RTVSPropertyOp4
 70
     1
102
RTVSPropertyOp5
 70
     1
102
RTVSPropertyOp6
 70
     1
102
RTVSPropertyOp7
 70
     1
102
RTVSPropertyOp8
 70
     1
102
RTVSPropertyOp9
 70
     1
102
RTVSPropertyOp10
 70
     1
102
RTVSPropertyOp11
 70
     1
102
RTVSPropertyOp12
 70
     1
102
RTVSPropertyOp13
 70
     1
102
RTVSPropertyOp14
 70
     1
102
RTVSPropertyOp15
 70
     1
102
RTVSPropertyOp16
 70
     1
102
RTVSPropertyOp17
 70
     1
102
RTVSPropertyOp18
 70
     1
102
RTVSPropertyOp19
 70
     1
102
RTVSPropertyOp20
 70
     1
102
RTVSPropertyOp21
 70
     1
102
RTVSPropertyOp22
 70
     1
102
RTVSPropertyOp23
 70
     1
102
RTVSPropertyOp24
 70
     1
102
RTVSPropertyOp25
 70
     1
102
RTVSPropertyOp26
 70
     1
102
RTVSPropertyOp27
 70
     1
102
RTVSPropertyOp28
 70
     1
102
RTVSPropertyOp29
 70
     1
102
RTVSPropertyOp30
 70
     1
102
RTVSPropertyOp31
 70
     1
102
RTVSPropertyOp32
 70
     1
102
RTVSPropertyOp33
 70
     1
102
RTVSPropertyOp34
 70
     1
102
RTVSPropertyOp35
 70
     1
102
RTVSPropertyOp36
 70
     1
102
RTVSPropertyOp37
 70
     1
102
RTVSPropertyOp38
 70
     1
102
RTVSPropertyOp39
 70
     1
102
RTVSPropertyOp40
 70
     1
102
RTVSPropertyOp41
 70
     1
102
RTVSPropertyOp42
 70
     1
102
RTVSPropertyOp43
 70
     1
102
RTVSPropertyOp44
 70
     1
102
RTVSPropertyOp45
 70
     1
102
RTVSPropertyOp46
 70
     1
102
RTVSPropertyOp47
 70
     1
102
RTVSPropertyOp48
 70
     1
102
RTVSPropertyOp49
 70
     1
102
RTVSPropertyOp50
 70
     1
102
RTVSPropertyOp51
 70
     0
102
RTVSPropertyOp52
 70
     0
102
RTVSPropertyOp53
 70
     1
102
RTVSPropertyOp54
 70
     1
102
RTVSPropertyOp55
 70
     1
102
RTVSPropertyOp56
 70
     1
102
RTVSPropertyOp57
 70
     1
102
RTVSPropertyOp58
 70
     1
102
RTVSPropertyOp59
 70
     1
102
RTVSPropertyOp60
 70
     1
102
RTVSPropertyOp61
 70
     1
102
RTVSPropertyOp62
 70
     1
  0
XRECORD
  5
A19C
102
{ACAD_REACTORS
330
A19B
102
}
330
A19B
100
AcDbXrecord
280
     1
102
RTVSPost2010Prop28
280
     0
102
RTVSPost2010PropOp28
 70
     1
102
RTVSPost2010Prop29
280
     1
102
RTVSPost2010PropOp29
 70
     1
102
RTVSPost2010Prop30
280
     1
102
RTVSPost2010PropOp30
 70
     1
102
RTVSPost2010Prop31
280
     0
102
RTVSPost2010PropOp31
 70
     1
102
RTVSPost2010Prop32
280
     0
102
RTVSPost2010PropOp32
 70
     1
102
RTVSPost2010Prop33
280
     0
102
RTVSPost2010PropOp33
 70
     1
102
RTVSPost2010Prop34
280
     0
102
RTVSPost2010PropOp34
 70
     1
102
RTVSPost2010Prop35
280
     0
102
RTVSPost2010PropOp35
 70
     1
102
RTVSPost2010Prop36
280
     0
102
RTVSPost2010PropOp36
 70
     1
102
RTVSPost2010Prop37
 90
       50
102
RTVSPost2010PropOp37
 70
     1
102
RTVSPost2010Prop38
140
0.0
102
RTVSPost2010PropOp38
 70
     1
102
RTVSPost2010Prop39
140
1.0
102
RTVSPost2010PropOp39
 70
     1
102
RTVSPost2010Prop40
 90
        0
102
RTVSPost2010PropOp40
 70
     1
102
RTVSPost2010Prop41ColorIndex
 90
       18
102
RTVSPost2010Prop41ColorRGB
 90
        0
102
RTVSPost2010PropOp41
 70
     1
102
RTVSPost2010Prop42
 90
       50
102
RTVSPost2010PropOp42
 70
     1
102
RTVSPost2010Prop43
 90
        3
102
RTVSPost2010PropOp43
 70
     1
102
RTVSPost2010Prop44ColorIndex
 90
        5
102
RTVSPost2010Prop44ColorRGB
 90
      255
102
RTVSPost2010PropOp44
 70
     1
102
RTVSPost2010Prop45
280
     0
102
RTVSPost2010PropOp45
 70
     1
102
RTVSPost2010Prop46
 90
       50
102
RTVSPost2010PropOp46
 70
     1
102
RTVSPost2010Prop47
 90
       50
102
RTVSPost2010PropOp47
 70
     1
102
RTVSPost2010Prop48
 90
       50
102
RTVSPost2010PropOp48
 70
     1
102
RTVSPost2010Prop49
280
     0
102
RTVSPost2010PropOp49
 70
     1
102
RTVSPost2010Prop50
 90
       50
102
RTVSPost2010PropOp50
 70
     1
102
RTVSPost2010Prop51ColorIndex
 90
      256
102
RTVSPost2010Prop51ColorRGB
 90
-16777216
102
RTVSPost2010PropOp51
 70
     0
102
RTVSPost2010Prop52
140
1.0
102
RTVSPost2010PropOp52
 70
     0
102
RTVSPost2010Prop53
 90
        2
102
RTVSPost2010PropOp53
 70
     1
102
RTVSPost2010Prop54
  1
strokes_ogs.tif
102
RTVSPost2010PropOp54
 70
     1
102
RTVSPost2010Prop55
280
     0
102
RTVSPost2010PropOp55
 70
     1
102
RTVSPost2010Prop56
140
1.0
102
RTVSPost2010PropOp56
 70
     1
102
RTVSPost2010Prop57
140
1.0
102
RTVSPost2010PropOp57
 70
     1
102
RTVSPropertyOp0
 70
     1
102
RTVSPropertyOp1
 70
     1
102
RTVSPropertyOp2
 70
     1
102
RTVSPropertyOp3
 70
     1
102
RTVSPropertyOp4
 70
     1
102
RTVSPropertyOp5
 70
     1
102
RTVSPropertyOp6
 70
     1
102
RTVSPropertyOp7
 70
     1
102
RTVSPropertyOp8
 70
     1
102
RTVSPropertyOp9
 70
     1
102
RTVSPropertyOp10
 70
     1
102
RTVSPropertyOp11
 70
     1
102
RTVSPropertyOp12
 70
     1
102
RTVSPropertyOp13
 70
     1
102
RTVSPropertyOp14
 70
     1
102
RTVSPropertyOp15
 70
     1
102
RTVSPropertyOp16
 70
     1
102
RTVSPropertyOp17
 70
     1
102
RTVSPropertyOp18
 70
     1
102
RTVSPropertyOp19
 70
     1
102
RTVSPropertyOp20
 70
     1
102
RTVSPropertyOp21
 70
     1
102
RTVSPropertyOp22
 70
     1
102
RTVSPropertyOp23
 70
     1
102
RTVSPropertyOp24
 70
     1
102
RTVSPropertyOp25
 70
     1
102
RTVSPropertyOp26
 70
     1
102
RTVSPropertyOp27
 70
     1
102
RTVSPropertyOp28
 70
     1
102
RTVSPropertyOp29
 70
     1
102
RTVSPropertyOp30
 70
     1
102
RTVSPropertyOp31
 70
     1
102
RTVSPropertyOp32
 70
     1
102
RTVSPropertyOp33
 70
     1
102
RTVSPropertyOp34
 70
     1
102
RTVSPropertyOp35
 70
     1
102
RTVSPropertyOp36
 70
     1
102
RTVSPropertyOp37
 70
     1
102
RTVSPropertyOp38
 70
     1
102
RTVSPropertyOp39
 70
     1
102
RTVSPropertyOp40
 70
     1
102
RTVSPropertyOp41
 70
     1
102
RTVSPropertyOp42
 70
     1
102
RTVSPropertyOp43
 70
     1
102
RTVSPropertyOp44
 70
     1
102
RTVSPropertyOp45
 70
     1
102
RTVSPropertyOp46
 70
     1
102
RTVSPropertyOp47
 70
     1
102
RTVSPropertyOp48
 70
     1
102
RTVSPropertyOp49
 70
     1
102
RTVSPropertyOp50
 70
     1
102
RTVSPropertyOp51
 70
     0
102
RTVSPropertyOp52
 70
     0
102
RTVSPropertyOp53
 70
     1
102
RTVSPropertyOp54
 70
     1
102
RTVSPropertyOp55
 70
     1
102
RTVSPropertyOp56
 70
     1
102
RTVSPropertyOp57
 70
     1
102
RTVSPropertyOp58
 70
     1
102
RTVSPropertyOp59
 70
     1
102
RTVSPropertyOp60
 70
     1
102
RTVSPropertyOp61
 70
     1
102
RTVSPropertyOp62
 70
     1
  0
XRECORD
  5
A1A4
102
{ACAD_REACTORS
330
A1A3
102
}
330
A1A3
100
AcDbXrecord
280
     1
102
RTVSPost2010Prop28
280
     0
102
RTVSPost2010PropOp28
 70
     1
102
RTVSPost2010Prop29
280
     1
102
RTVSPost2010PropOp29
 70
     1
102
RTVSPost2010Prop30
280
     1
102
RTVSPost2010PropOp30
 70
     1
102
RTVSPost2010Prop31
280
     0
102
RTVSPost2010PropOp31
 70
     1
102
RTVSPost2010Prop32
280
     0
102
RTVSPost2010PropOp32
 70
     1
102
RTVSPost2010Prop33
280
     0
102
RTVSPost2010PropOp33
 70
     1
102
RTVSPost2010Prop34
280
     0
102
RTVSPost2010PropOp34
 70
     1
102
RTVSPost2010Prop35
280
     0
102
RTVSPost2010PropOp35
 70
     1
102
RTVSPost2010Prop36
280
     0
102
RTVSPost2010PropOp36
 70
     1
102
RTVSPost2010Prop37
 90
       50
102
RTVSPost2010PropOp37
 70
     1
102
RTVSPost2010Prop38
140
0.0
102
RTVSPost2010PropOp38
 70
     1
102
RTVSPost2010Prop39
140
1.0
102
RTVSPost2010PropOp39
 70
     1
102
RTVSPost2010Prop40
 90
        0
102
RTVSPost2010PropOp40
 70
     1
102
RTVSPost2010Prop41ColorIndex
 90
       18
102
RTVSPost2010Prop41ColorRGB
 90
        0
102
RTVSPost2010PropOp41
 70
     1
102
RTVSPost2010Prop42
 90
       50
102
RTVSPost2010PropOp42
 70
     1
102
RTVSPost2010Prop43
 90
        3
102
RTVSPost2010PropOp43
 70
     1
102
RTVSPost2010Prop44ColorIndex
 90
        5
102
RTVSPost2010Prop44ColorRGB
 90
      255
102
RTVSPost2010PropOp44
 70
     1
102
RTVSPost2010Prop45
280
     0
102
RTVSPost2010PropOp45
 70
     1
102
RTVSPost2010Prop46
 90
       50
102
RTVSPost2010PropOp46
 70
     1
102
RTVSPost2010Prop47
 90
       50
102
RTVSPost2010PropOp47
 70
     1
102
RTVSPost2010Prop48
 90
       50
102
RTVSPost2010PropOp48
 70
     1
102
RTVSPost2010Prop49
280
     0
102
RTVSPost2010PropOp49
 70
     1
102
RTVSPost2010Prop50
 90
       50
102
RTVSPost2010PropOp50
 70
     1
102
RTVSPost2010Prop51ColorIndex
 90
      256
102
RTVSPost2010Prop51ColorRGB
 90
-16777216
102
RTVSPost2010PropOp51
 70
     0
102
RTVSPost2010Prop52
140
1.0
102
RTVSPost2010PropOp52
 70
     0
102
RTVSPost2010Prop53
 90
        2
102
RTVSPost2010PropOp53
 70
     1
102
RTVSPost2010Prop54
  1
strokes_ogs.tif
102
RTVSPost2010PropOp54
 70
     1
102
RTVSPost2010Prop55
280
     0
102
RTVSPost2010PropOp55
 70
     1
102
RTVSPost2010Prop56
140
1.0
102
RTVSPost2010PropOp56
 70
     1
102
RTVSPost2010Prop57
140
1.0
102
RTVSPost2010PropOp57
 70
     1
102
RTVSPropertyOp0
 70
     1
102
RTVSPropertyOp1
 70
     1
102
RTVSPropertyOp2
 70
     1
102
RTVSPropertyOp3
 70
     1
102
RTVSPropertyOp4
 70
     1
102
RTVSPropertyOp5
 70
     1
102
RTVSPropertyOp6
 70
     1
102
RTVSPropertyOp7
 70
     1
102
RTVSPropertyOp8
 70
     1
102
RTVSPropertyOp9
 70
     1
102
RTVSPropertyOp10
 70
     1
102
RTVSPropertyOp11
 70
     1
102
RTVSPropertyOp12
 70
     1
102
RTVSPropertyOp13
 70
     1
102
RTVSPropertyOp14
 70
     1
102
RTVSPropertyOp15
 70
     1
102
RTVSPropertyOp16
 70
     1
102
RTVSPropertyOp17
 70
     1
102
RTVSPropertyOp18
 70
     1
102
RTVSPropertyOp19
 70
     1
102
RTVSPropertyOp20
 70
     1
102
RTVSPropertyOp21
 70
     1
102
RTVSPropertyOp22
 70
     1
102
RTVSPropertyOp23
 70
     1
102
RTVSPropertyOp24
 70
     1
102
RTVSPropertyOp25
 70
     1
102
RTVSPropertyOp26
 70
     1
102
RTVSPropertyOp27
 70
     1
102
RTVSPropertyOp28
 70
     1
102
RTVSPropertyOp29
 70
     1
102
RTVSPropertyOp30
 70
     1
102
RTVSPropertyOp31
 70
     1
102
RTVSPropertyOp32
 70
     1
102
RTVSPropertyOp33
 70
     1
102
RTVSPropertyOp34
 70
     1
102
RTVSPropertyOp35
 70
     1
102
RTVSPropertyOp36
 70
     1
102
RTVSPropertyOp37
 70
     1
102
RTVSPropertyOp38
 70
     1
102
RTVSPropertyOp39
 70
     1
102
RTVSPropertyOp40
 70
     1
102
RTVSPropertyOp41
 70
     1
102
RTVSPropertyOp42
 70
     1
102
RTVSPropertyOp43
 70
     1
102
RTVSPropertyOp44
 70
     1
102
RTVSPropertyOp45
 70
     1
102
RTVSPropertyOp46
 70
     1
102
RTVSPropertyOp47
 70
     1
102
RTVSPropertyOp48
 70
     1
102
RTVSPropertyOp49
 70
     1
102
RTVSPropertyOp50
 70
     1
102
RTVSPropertyOp51
 70
     0
102
RTVSPropertyOp52
 70
     0
102
RTVSPropertyOp53
 70
     1
102
RTVSPropertyOp54
 70
     1
102
RTVSPropertyOp55
 70
     1
102
RTVSPropertyOp56
 70
     1
102
RTVSPropertyOp57
 70
     1
102
RTVSPropertyOp58
 70
     1
102
RTVSPropertyOp59
 70
     1
102
RTVSPropertyOp60
 70
     1
102
RTVSPropertyOp61
 70
     1
102
RTVSPropertyOp62
 70
     1
  0
XRECORD
  5
A1C0
102
{ACAD_REACTORS
330
A1BF
102
}
330
A1BF
100
AcDbXrecord
280
     1
102
RTVSPost2010Prop28
280
     0
102
RTVSPost2010PropOp28
 70
     1
102
RTVSPost2010Prop29
280
     1
102
RTVSPost2010PropOp29
 70
     1
102
RTVSPost2010Prop30
280
     1
102
RTVSPost2010PropOp30
 70
     1
102
RTVSPost2010Prop31
280
     0
102
RTVSPost2010PropOp31
 70
     1
102
RTVSPost2010Prop32
280
     0
102
RTVSPost2010PropOp32
 70
     1
102
RTVSPost2010Prop33
280
     0
102
RTVSPost2010PropOp33
 70
     1
102
RTVSPost2010Prop34
280
     0
102
RTVSPost2010PropOp34
 70
     1
102
RTVSPost2010Prop35
280
     0
102
RTVSPost2010PropOp35
 70
     1
102
RTVSPost2010Prop36
280
     0
102
RTVSPost2010PropOp36
 70
     1
102
RTVSPost2010Prop37
 90
       50
102
RTVSPost2010PropOp37
 70
     0
102
RTVSPost2010Prop38
140
0.0
102
RTVSPost2010PropOp38
 70
     0
102
RTVSPost2010Prop39
140
1.0
102
RTVSPost2010PropOp39
 70
     0
102
RTVSPost2010Prop40
 90
        0
102
RTVSPost2010PropOp40
 70
     0
102
RTVSPost2010Prop41ColorIndex
 90
       18
102
RTVSPost2010Prop41ColorRGB
 90
        0
102
RTVSPost2010PropOp41
 70
     0
102
RTVSPost2010Prop42
 90
       50
102
RTVSPost2010PropOp42
 70
     0
102
RTVSPost2010Prop43
 90
        3
102
RTVSPost2010PropOp43
 70
     0
102
RTVSPost2010Prop44ColorIndex
 90
        5
102
RTVSPost2010Prop44ColorRGB
 90
      255
102
RTVSPost2010PropOp44
 70
     0
102
RTVSPost2010Prop45
280
     0
102
RTVSPost2010PropOp45
 70
     1
102
RTVSPost2010Prop46
 90
       50
102
RTVSPost2010PropOp46
 70
     0
102
RTVSPost2010Prop47
 90
       50
102
RTVSPost2010PropOp47
 70
     0
102
RTVSPost2010Prop48
 90
       50
102
RTVSPost2010PropOp48
 70
     0
102
RTVSPost2010Prop49
280
     0
102
RTVSPost2010PropOp49
 70
     1
102
RTVSPost2010Prop50
 90
       50
102
RTVSPost2010PropOp50
 70
     0
102
RTVSPost2010Prop51ColorIndex
 90
      256
102
RTVSPost2010Prop51ColorRGB
 90
-16777216
102
RTVSPost2010PropOp51
 70
     0
102
RTVSPost2010Prop52
140
1.0
102
RTVSPost2010PropOp52
 70
     0
102
RTVSPost2010Prop53
 90
        2
102
RTVSPost2010PropOp53
 70
     0
102
RTVSPost2010Prop54
  1
strokes_ogs.tif
102
RTVSPost2010PropOp54
 70
     0
102
RTVSPost2010Prop55
280
     0
102
RTVSPost2010PropOp55
 70
     1
102
RTVSPost2010Prop56
140
1.0
102
RTVSPost2010PropOp56
 70
     0
102
RTVSPost2010Prop57
140
1.0
102
RTVSPost2010PropOp57
 70
     0
102
RTVSPropertyOp0
 70
     0
102
RTVSPropertyOp1
 70
     0
102
RTVSPropertyOp2
 70
     0
102
RTVSPropertyOp3
 70
     0
102
RTVSPropertyOp4
 70
     0
102
RTVSPropertyOp5
 70
     0
102
RTVSPropertyOp6
 70
     0
102
RTVSPropertyOp7
 70
     0
102
RTVSPropertyOp8
 70
     0
102
RTVSPropertyOp9
 70
     0
102
RTVSPropertyOp10
 70
     0
102
RTVSPropertyOp11
 70
     0
102
RTVSPropertyOp12
 70
     0
102
RTVSPropertyOp13
 70
     0
102
RTVSPropertyOp14
 70
     2
102
RTVSPropertyOp15
 70
     0
102
RTVSPropertyOp16
 70
     0
102
RTVSPropertyOp17
 70
     0
102
RTVSPropertyOp18
 70
     0
102
RTVSPropertyOp19
 70
     0
102
RTVSPropertyOp20
 70
     0
102
RTVSPropertyOp21
 70
     0
102
RTVSPropertyOp22
 70
     0
102
RTVSPropertyOp23
 70
     0
102
RTVSPropertyOp24
 70
     0
102
RTVSPropertyOp25
 70
     0
102
RTVSPropertyOp26
 70
     0
102
RTVSPropertyOp27
 70
     0
102
RTVSPropertyOp28
 70
     1
102
RTVSPropertyOp29
 70
     1
102
RTVSPropertyOp30
 70
     1
102
RTVSPropertyOp31
 70
     1
102
RTVSPropertyOp32
 70
     1
102
RTVSPropertyOp33
 70
     1
102
RTVSPropertyOp34
 70
     1
102
RTVSPropertyOp35
 70
     1
102
RTVSPropertyOp36
 70
     1
102
RTVSPropertyOp37
 70
     0
102
RTVSPropertyOp38
 70
     0
102
RTVSPropertyOp39
 70
     0
102
RTVSPropertyOp40
 70
     0
102
RTVSPropertyOp41
 70
     0
102
RTVSPropertyOp42
 70
     0
102
RTVSPropertyOp43
 70
     0
102
RTVSPropertyOp44
 70
     0
102
RTVSPropertyOp45
 70
     1
102
RTVSPropertyOp46
 70
     0
102
RTVSPropertyOp47
 70
     0
102
RTVSPropertyOp48
 70
     0
102
RTVSPropertyOp49
 70
     1
102
RTVSPropertyOp50
 70
     0
102
RTVSPropertyOp51
 70
     0
102
RTVSPropertyOp52
 70
     0
102
RTVSPropertyOp53
 70
     0
102
RTVSPropertyOp54
 70
     0
102
RTVSPropertyOp55
 70
     1
102
RTVSPropertyOp56
 70
     0
102
RTVSPropertyOp57
 70
     0
102
RTVSPropertyOp58
 70
     0
102
RTVSPropertyOp59
 70
     0
102
RTVSPropertyOp60
 70
     0
102
RTVSPropertyOp61
 70
     0
102
RTVSPropertyOp62
 70
     0
  0
XRECORD
  5
A1B0
102
{ACAD_REACTORS
330
A1AF
102
}
330
A1AF
100
AcDbXrecord
280
     1
102
RTVSPost2010Prop28
280
     0
102
RTVSPost2010PropOp28
 70
     1
102
RTVSPost2010Prop29
280
     1
102
RTVSPost2010PropOp29
 70
     1
102
RTVSPost2010Prop30
280
     1
102
RTVSPost2010PropOp30
 70
     1
102
RTVSPost2010Prop31
280
     0
102
RTVSPost2010PropOp31
 70
     1
102
RTVSPost2010Prop32
280
     0
102
RTVSPost2010PropOp32
 70
     1
102
RTVSPost2010Prop33
280
     0
102
RTVSPost2010PropOp33
 70
     1
102
RTVSPost2010Prop34
280
     0
102
RTVSPost2010PropOp34
 70
     1
102
RTVSPost2010Prop35
280
     0
102
RTVSPost2010PropOp35
 70
     1
102
RTVSPost2010Prop36
280
     0
102
RTVSPost2010PropOp36
 70
     1
102
RTVSPost2010Prop37
 90
       50
102
RTVSPost2010PropOp37
 70
     1
102
RTVSPost2010Prop38
140
0.0
102
RTVSPost2010PropOp38
 70
     1
102
RTVSPost2010Prop39
140
1.0
102
RTVSPost2010PropOp39
 70
     1
102
RTVSPost2010Prop40
 90
        0
102
RTVSPost2010PropOp40
 70
     1
102
RTVSPost2010Prop41ColorIndex
 90
       18
102
RTVSPost2010Prop41ColorRGB
 90
        0
102
RTVSPost2010PropOp41
 70
     1
102
RTVSPost2010Prop42
 90
       50
102
RTVSPost2010PropOp42
 70
     1
102
RTVSPost2010Prop43
 90
        3
102
RTVSPost2010PropOp43
 70
     1
102
RTVSPost2010Prop44ColorIndex
 90
        5
102
RTVSPost2010Prop44ColorRGB
 90
      255
102
RTVSPost2010PropOp44
 70
     1
102
RTVSPost2010Prop45
280
     0
102
RTVSPost2010PropOp45
 70
     1
102
RTVSPost2010Prop46
 90
       50
102
RTVSPost2010PropOp46
 70
     1
102
RTVSPost2010Prop47
 90
       50
102
RTVSPost2010PropOp47
 70
     1
102
RTVSPost2010Prop48
 90
       50
102
RTVSPost2010PropOp48
 70
     1
102
RTVSPost2010Prop49
280
     0
102
RTVSPost2010PropOp49
 70
     1
102
RTVSPost2010Prop50
 90
       50
102
RTVSPost2010PropOp50
 70
     1
102
RTVSPost2010Prop51ColorIndex
 90
      256
102
RTVSPost2010Prop51ColorRGB
 90
-16777216
102
RTVSPost2010PropOp51
 70
     0
102
RTVSPost2010Prop52
140
1.0
102
RTVSPost2010PropOp52
 70
     0
102
RTVSPost2010Prop53
 90
        2
102
RTVSPost2010PropOp53
 70
     1
102
RTVSPost2010Prop54
  1
strokes_ogs.tif
102
RTVSPost2010PropOp54
 70
     1
102
RTVSPost2010Prop55
280
     0
102
RTVSPost2010PropOp55
 70
     1
102
RTVSPost2010Prop56
140
1.0
102
RTVSPost2010PropOp56
 70
     1
102
RTVSPost2010Prop57
140
1.0
102
RTVSPost2010PropOp57
 70
     1
102
RTVSPropertyOp0
 70
     1
102
RTVSPropertyOp1
 70
     1
102
RTVSPropertyOp2
 70
     1
102
RTVSPropertyOp3
 70
     1
102
RTVSPropertyOp4
 70
     1
102
RTVSPropertyOp5
 70
     1
102
RTVSPropertyOp6
 70
     1
102
RTVSPropertyOp7
 70
     1
102
RTVSPropertyOp8
 70
     1
102
RTVSPropertyOp9
 70
     1
102
RTVSPropertyOp10
 70
     1
102
RTVSPropertyOp11
 70
     1
102
RTVSPropertyOp12
 70
     1
102
RTVSPropertyOp13
 70
     1
102
RTVSPropertyOp14
 70
     1
102
RTVSPropertyOp15
 70
     1
102
RTVSPropertyOp16
 70
     1
102
RTVSPropertyOp17
 70
     1
102
RTVSPropertyOp18
 70
     1
102
RTVSPropertyOp19
 70
     1
102
RTVSPropertyOp20
 70
     1
102
RTVSPropertyOp21
 70
     1
102
RTVSPropertyOp22
 70
     1
102
RTVSPropertyOp23
 70
     1
102
RTVSPropertyOp24
 70
     1
102
RTVSPropertyOp25
 70
     1
102
RTVSPropertyOp26
 70
     1
102
RTVSPropertyOp27
 70
     1
102
RTVSPropertyOp28
 70
     1
102
RTVSPropertyOp29
 70
     1
102
RTVSPropertyOp30
 70
     1
102
RTVSPropertyOp31
 70
     1
102
RTVSPropertyOp32
 70
     1
102
RTVSPropertyOp33
 70
     1
102
RTVSPropertyOp34
 70
     1
102
RTVSPropertyOp35
 70
     1
102
RTVSPropertyOp36
 70
     1
102
RTVSPropertyOp37
 70
     1
102
RTVSPropertyOp38
 70
     1
102
RTVSPropertyOp39
 70
     1
102
RTVSPropertyOp40
 70
     1
102
RTVSPropertyOp41
 70
     1
102
RTVSPropertyOp42
 70
     1
102
RTVSPropertyOp43
 70
     1
102
RTVSPropertyOp44
 70
     1
102
RTVSPropertyOp45
 70
     1
102
RTVSPropertyOp46
 70
     1
102
RTVSPropertyOp47
 70
     1
102
RTVSPropertyOp48
 70
     1
102
RTVSPropertyOp49
 70
     1
102
RTVSPropertyOp50
 70
     1
102
RTVSPropertyOp51
 70
     0
102
RTVSPropertyOp52
 70
     0
102
RTVSPropertyOp53
 70
     1
102
RTVSPropertyOp54
 70
     1
102
RTVSPropertyOp55
 70
     1
102
RTVSPropertyOp56
 70
     1
102
RTVSPropertyOp57
 70
     1
102
RTVSPropertyOp58
 70
     1
102
RTVSPropertyOp59
 70
     1
102
RTVSPropertyOp60
 70
     1
102
RTVSPropertyOp61
 70
     1
102
RTVSPropertyOp62
 70
     1
  0
XRECORD
  5
A1C2
102
{ACAD_REACTORS
330
A1C1
102
}
330
A1C1
100
AcDbXrecord
280
     1
102
RTVSPost2010Prop28
280
     0
102
RTVSPost2010PropOp28
 70
     1
102
RTVSPost2010Prop29
280
     1
102
RTVSPost2010PropOp29
 70
     1
102
RTVSPost2010Prop30
280
     1
102
RTVSPost2010PropOp30
 70
     1
102
RTVSPost2010Prop31
280
     0
102
RTVSPost2010PropOp31
 70
     1
102
RTVSPost2010Prop32
280
     0
102
RTVSPost2010PropOp32
 70
     1
102
RTVSPost2010Prop33
280
     0
102
RTVSPost2010PropOp33
 70
     1
102
RTVSPost2010Prop34
280
     0
102
RTVSPost2010PropOp34
 70
     1
102
RTVSPost2010Prop35
280
     0
102
RTVSPost2010PropOp35
 70
     1
102
RTVSPost2010Prop36
280
     0
102
RTVSPost2010PropOp36
 70
     1
102
RTVSPost2010Prop37
 90
       50
102
RTVSPost2010PropOp37
 70
     0
102
RTVSPost2010Prop38
140
0.0
102
RTVSPost2010PropOp38
 70
     0
102
RTVSPost2010Prop39
140
1.0
102
RTVSPost2010PropOp39
 70
     0
102
RTVSPost2010Prop40
 90
        0
102
RTVSPost2010PropOp40
 70
     0
102
RTVSPost2010Prop41ColorIndex
 90
       18
102
RTVSPost2010Prop41ColorRGB
 90
        0
102
RTVSPost2010PropOp41
 70
     0
102
RTVSPost2010Prop42
 90
       50
102
RTVSPost2010PropOp42
 70
     0
102
RTVSPost2010Prop43
 90
        3
102
RTVSPost2010PropOp43
 70
     0
102
RTVSPost2010Prop44ColorIndex
 90
        5
102
RTVSPost2010Prop44ColorRGB
 90
      255
102
RTVSPost2010PropOp44
 70
     0
102
RTVSPost2010Prop45
280
     0
102
RTVSPost2010PropOp45
 70
     1
102
RTVSPost2010Prop46
 90
       50
102
RTVSPost2010PropOp46
 70
     0
102
RTVSPost2010Prop47
 90
       50
102
RTVSPost2010PropOp47
 70
     0
102
RTVSPost2010Prop48
 90
       50
102
RTVSPost2010PropOp48
 70
     0
102
RTVSPost2010Prop49
280
     0
102
RTVSPost2010PropOp49
 70
     1
102
RTVSPost2010Prop50
 90
       50
102
RTVSPost2010PropOp50
 70
     0
102
RTVSPost2010Prop51ColorIndex
 90
      256
102
RTVSPost2010Prop51ColorRGB
 90
-16777216
102
RTVSPost2010PropOp51
 70
     0
102
RTVSPost2010Prop52
140
1.0
102
RTVSPost2010PropOp52
 70
     0
102
RTVSPost2010Prop53
 90
        2
102
RTVSPost2010PropOp53
 70
     0
102
RTVSPost2010Prop54
  1
strokes_ogs.tif
102
RTVSPost2010PropOp54
 70
     0
102
RTVSPost2010Prop55
280
     0
102
RTVSPost2010PropOp55
 70
     1
102
RTVSPost2010Prop56
140
1.0
102
RTVSPost2010PropOp56
 70
     0
102
RTVSPost2010Prop57
140
1.0
102
RTVSPost2010PropOp57
 70
     0
102
RTVSPropertyOp0
 70
     0
102
RTVSPropertyOp1
 70
     0
102
RTVSPropertyOp2
 70
     0
102
RTVSPropertyOp3
 70
     0
102
RTVSPropertyOp4
 70
     0
102
RTVSPropertyOp5
 70
     0
102
RTVSPropertyOp6
 70
     0
102
RTVSPropertyOp7
 70
     0
102
RTVSPropertyOp8
 70
     0
102
RTVSPropertyOp9
 70
     0
102
RTVSPropertyOp10
 70
     0
102
RTVSPropertyOp11
 70
     0
102
RTVSPropertyOp12
 70
     0
102
RTVSPropertyOp13
 70
     0
102
RTVSPropertyOp14
 70
     2
102
RTVSPropertyOp15
 70
     0
102
RTVSPropertyOp16
 70
     0
102
RTVSPropertyOp17
 70
     0
102
RTVSPropertyOp18
 70
     0
102
RTVSPropertyOp19
 70
     0
102
RTVSPropertyOp20
 70
     0
102
RTVSPropertyOp21
 70
     0
102
RTVSPropertyOp22
 70
     0
102
RTVSPropertyOp23
 70
     0
102
RTVSPropertyOp24
 70
     0
102
RTVSPropertyOp25
 70
     0
102
RTVSPropertyOp26
 70
     0
102
RTVSPropertyOp27
 70
     0
102
RTVSPropertyOp28
 70
     1
102
RTVSPropertyOp29
 70
     1
102
RTVSPropertyOp30
 70
     1
102
RTVSPropertyOp31
 70
     1
102
RTVSPropertyOp32
 70
     1
102
RTVSPropertyOp33
 70
     1
102
RTVSPropertyOp34
 70
     1
102
RTVSPropertyOp35
 70
     1
102
RTVSPropertyOp36
 70
     1
102
RTVSPropertyOp37
 70
     0
102
RTVSPropertyOp38
 70
     0
102
RTVSPropertyOp39
 70
     0
102
RTVSPropertyOp40
 70
     0
102
RTVSPropertyOp41
 70
     0
102
RTVSPropertyOp42
 70
     0
102
RTVSPropertyOp43
 70
     0
102
RTVSPropertyOp44
 70
     0
102
RTVSPropertyOp45
 70
     1
102
RTVSPropertyOp46
 70
     0
102
RTVSPropertyOp47
 70
     0
102
RTVSPropertyOp48
 70
     0
102
RTVSPropertyOp49
 70
     1
102
RTVSPropertyOp50
 70
     0
102
RTVSPropertyOp51
 70
     0
102
RTVSPropertyOp52
 70
     0
102
RTVSPropertyOp53
 70
     0
102
RTVSPropertyOp54
 70
     0
102
RTVSPropertyOp55
 70
     1
102
RTVSPropertyOp56
 70
     0
102
RTVSPropertyOp57
 70
     0
102
RTVSPropertyOp58
 70
     0
102
RTVSPropertyOp59
 70
     0
102
RTVSPropertyOp60
 70
     0
102
RTVSPropertyOp61
 70
     0
102
RTVSPropertyOp62
 70
     0
  0
XRECORD
  5
A1A8
102
{ACAD_REACTORS
330
A1A7
102
}
330
A1A7
100
AcDbXrecord
280
     1
102
RTVSPost2010Prop28
280
     0
102
RTVSPost2010PropOp28
 70
     1
102
RTVSPost2010Prop29
280
     1
102
RTVSPost2010PropOp29
 70
     1
102
RTVSPost2010Prop30
280
     1
102
RTVSPost2010PropOp30
 70
     1
102
RTVSPost2010Prop31
280
     0
102
RTVSPost2010PropOp31
 70
     1
102
RTVSPost2010Prop32
280
     0
102
RTVSPost2010PropOp32
 70
     1
102
RTVSPost2010Prop33
280
     0
102
RTVSPost2010PropOp33
 70
     1
102
RTVSPost2010Prop34
280
     0
102
RTVSPost2010PropOp34
 70
     1
102
RTVSPost2010Prop35
280
     0
102
RTVSPost2010PropOp35
 70
     1
102
RTVSPost2010Prop36
280
     0
102
RTVSPost2010PropOp36
 70
     1
102
RTVSPost2010Prop37
 90
       50
102
RTVSPost2010PropOp37
 70
     1
102
RTVSPost2010Prop38
140
0.0
102
RTVSPost2010PropOp38
 70
     1
102
RTVSPost2010Prop39
140
1.0
102
RTVSPost2010PropOp39
 70
     1
102
RTVSPost2010Prop40
 90
        0
102
RTVSPost2010PropOp40
 70
     1
102
RTVSPost2010Prop41ColorIndex
 90
       18
102
RTVSPost2010Prop41ColorRGB
 90
        0
102
RTVSPost2010PropOp41
 70
     1
102
RTVSPost2010Prop42
 90
       50
102
RTVSPost2010PropOp42
 70
     1
102
RTVSPost2010Prop43
 90
        3
102
RTVSPost2010PropOp43
 70
     1
102
RTVSPost2010Prop44ColorIndex
 90
        5
102
RTVSPost2010Prop44ColorRGB
 90
      255
102
RTVSPost2010PropOp44
 70
     1
102
RTVSPost2010Prop45
280
     0
102
RTVSPost2010PropOp45
 70
     1
102
RTVSPost2010Prop46
 90
       50
102
RTVSPost2010PropOp46
 70
     1
102
RTVSPost2010Prop47
 90
       50
102
RTVSPost2010PropOp47
 70
     1
102
RTVSPost2010Prop48
 90
       50
102
RTVSPost2010PropOp48
 70
     1
102
RTVSPost2010Prop49
280
     0
102
RTVSPost2010PropOp49
 70
     1
102
RTVSPost2010Prop50
 90
       50
102
RTVSPost2010PropOp50
 70
     1
102
RTVSPost2010Prop51ColorIndex
 90
      256
102
RTVSPost2010Prop51ColorRGB
 90
-16777216
102
RTVSPost2010PropOp51
 70
     0
102
RTVSPost2010Prop52
140
1.0
102
RTVSPost2010PropOp52
 70
     0
102
RTVSPost2010Prop53
 90
        2
102
RTVSPost2010PropOp53
 70
     1
102
RTVSPost2010Prop54
  1
strokes_ogs.tif
102
RTVSPost2010PropOp54
 70
     1
102
RTVSPost2010Prop55
280
     0
102
RTVSPost2010PropOp55
 70
     1
102
RTVSPost2010Prop56
140
1.0
102
RTVSPost2010PropOp56
 70
     1
102
RTVSPost2010Prop57
140
1.0
102
RTVSPost2010PropOp57
 70
     1
102
RTVSPropertyOp0
 70
     1
102
RTVSPropertyOp1
 70
     1
102
RTVSPropertyOp2
 70
     1
102
RTVSPropertyOp3
 70
     1
102
RTVSPropertyOp4
 70
     1
102
RTVSPropertyOp5
 70
     1
102
RTVSPropertyOp6
 70
     1
102
RTVSPropertyOp7
 70
     1
102
RTVSPropertyOp8
 70
     1
102
RTVSPropertyOp9
 70
     1
102
RTVSPropertyOp10
 70
     1
102
RTVSPropertyOp11
 70
     1
102
RTVSPropertyOp12
 70
     1
102
RTVSPropertyOp13
 70
     1
102
RTVSPropertyOp14
 70
     1
102
RTVSPropertyOp15
 70
     1
102
RTVSPropertyOp16
 70
     1
102
RTVSPropertyOp17
 70
     1
102
RTVSPropertyOp18
 70
     1
102
RTVSPropertyOp19
 70
     1
102
RTVSPropertyOp20
 70
     1
102
RTVSPropertyOp21
 70
     1
102
RTVSPropertyOp22
 70
     1
102
RTVSPropertyOp23
 70
     1
102
RTVSPropertyOp24
 70
     1
102
RTVSPropertyOp25
 70
     1
102
RTVSPropertyOp26
 70
     1
102
RTVSPropertyOp27
 70
     1
102
RTVSPropertyOp28
 70
     1
102
RTVSPropertyOp29
 70
     1
102
RTVSPropertyOp30
 70
     1
102
RTVSPropertyOp31
 70
     1
102
RTVSPropertyOp32
 70
     1
102
RTVSPropertyOp33
 70
     1
102
RTVSPropertyOp34
 70
     1
102
RTVSPropertyOp35
 70
     1
102
RTVSPropertyOp36
 70
     1
102
RTVSPropertyOp37
 70
     1
102
RTVSPropertyOp38
 70
     1
102
RTVSPropertyOp39
 70
     1
102
RTVSPropertyOp40
 70
     1
102
RTVSPropertyOp41
 70
     1
102
RTVSPropertyOp42
 70
     1
102
RTVSPropertyOp43
 70
     1
102
RTVSPropertyOp44
 70
     1
102
RTVSPropertyOp45
 70
     1
102
RTVSPropertyOp46
 70
     1
102
RTVSPropertyOp47
 70
     1
102
RTVSPropertyOp48
 70
     1
102
RTVSPropertyOp49
 70
     1
102
RTVSPropertyOp50
 70
     1
102
RTVSPropertyOp51
 70
     0
102
RTVSPropertyOp52
 70
     0
102
RTVSPropertyOp53
 70
     1
102
RTVSPropertyOp54
 70
     1
102
RTVSPropertyOp55
 70
     1
102
RTVSPropertyOp56
 70
     1
102
RTVSPropertyOp57
 70
     1
102
RTVSPropertyOp58
 70
     1
102
RTVSPropertyOp59
 70
     1
102
RTVSPropertyOp60
 70
     1
102
RTVSPropertyOp61
 70
     1
102
RTVSPropertyOp62
 70
     1
  0
XRECORD
  5
A1BE
102
{ACAD_REACTORS
330
A1BD
102
}
330
A1BD
100
AcDbXrecord
280
     1
102
RTVSPost2010Prop28
280
     0
102
RTVSPost2010PropOp28
 70
     1
102
RTVSPost2010Prop29
280
     1
102
RTVSPost2010PropOp29
 70
     1
102
RTVSPost2010Prop30
280
     1
102
RTVSPost2010PropOp30
 70
     1
102
RTVSPost2010Prop31
280
     0
102
RTVSPost2010PropOp31
 70
     1
102
RTVSPost2010Prop32
280
     0
102
RTVSPost2010PropOp32
 70
     1
102
RTVSPost2010Prop33
280
     0
102
RTVSPost2010PropOp33
 70
     1
102
RTVSPost2010Prop34
280
     0
102
RTVSPost2010PropOp34
 70
     1
102
RTVSPost2010Prop35
280
     0
102
RTVSPost2010PropOp35
 70
     1
102
RTVSPost2010Prop36
280
     0
102
RTVSPost2010PropOp36
 70
     1
102
RTVSPost2010Prop37
 90
       50
102
RTVSPost2010PropOp37
 70
     1
102
RTVSPost2010Prop38
140
0.0
102
RTVSPost2010PropOp38
 70
     1
102
RTVSPost2010Prop39
140
1.0
102
RTVSPost2010PropOp39
 70
     1
102
RTVSPost2010Prop40
 90
        0
102
RTVSPost2010PropOp40
 70
     1
102
RTVSPost2010Prop41ColorIndex
 90
       18
102
RTVSPost2010Prop41ColorRGB
 90
        0
102
RTVSPost2010PropOp41
 70
     1
102
RTVSPost2010Prop42
 90
       50
102
RTVSPost2010PropOp42
 70
     1
102
RTVSPost2010Prop43
 90
        3
102
RTVSPost2010PropOp43
 70
     1
102
RTVSPost2010Prop44ColorIndex
 90
        5
102
RTVSPost2010Prop44ColorRGB
 90
      255
102
RTVSPost2010PropOp44
 70
     1
102
RTVSPost2010Prop45
280
     0
102
RTVSPost2010PropOp45
 70
     1
102
RTVSPost2010Prop46
 90
       50
102
RTVSPost2010PropOp46
 70
     1
102
RTVSPost2010Prop47
 90
       50
102
RTVSPost2010PropOp47
 70
     1
102
RTVSPost2010Prop48
 90
       50
102
RTVSPost2010PropOp48
 70
     1
102
RTVSPost2010Prop49
280
     0
102
RTVSPost2010PropOp49
 70
     1
102
RTVSPost2010Prop50
 90
       50
102
RTVSPost2010PropOp50
 70
     1
102
RTVSPost2010Prop51ColorIndex
 90
      256
102
RTVSPost2010Prop51ColorRGB
 90
-16777216
102
RTVSPost2010PropOp51
 70
     0
102
RTVSPost2010Prop52
140
1.0
102
RTVSPost2010PropOp52
 70
     0
102
RTVSPost2010Prop53
 90
        2
102
RTVSPost2010PropOp53
 70
     1
102
RTVSPost2010Prop54
  1
strokes_ogs.tif
102
RTVSPost2010PropOp54
 70
     1
102
RTVSPost2010Prop55
280
     0
102
RTVSPost2010PropOp55
 70
     1
102
RTVSPost2010Prop56
140
1.0
102
RTVSPost2010PropOp56
 70
     1
102
RTVSPost2010Prop57
140
1.0
102
RTVSPost2010PropOp57
 70
     1
102
RTVSPropertyOp0
 70
     1
102
RTVSPropertyOp1
 70
     1
102
RTVSPropertyOp2
 70
     1
102
RTVSPropertyOp3
 70
     1
102
RTVSPropertyOp4
 70
     1
102
RTVSPropertyOp5
 70
     1
102
RTVSPropertyOp6
 70
     1
102
RTVSPropertyOp7
 70
     1
102
RTVSPropertyOp8
 70
     1
102
RTVSPropertyOp9
 70
     1
102
RTVSPropertyOp10
 70
     1
102
RTVSPropertyOp11
 70
     1
102
RTVSPropertyOp12
 70
     1
102
RTVSPropertyOp13
 70
     1
102
RTVSPropertyOp14
 70
     1
102
RTVSPropertyOp15
 70
     1
102
RTVSPropertyOp16
 70
     1
102
RTVSPropertyOp17
 70
     1
102
RTVSPropertyOp18
 70
     1
102
RTVSPropertyOp19
 70
     1
102
RTVSPropertyOp20
 70
     1
102
RTVSPropertyOp21
 70
     1
102
RTVSPropertyOp22
 70
     1
102
RTVSPropertyOp23
 70
     1
102
RTVSPropertyOp24
 70
     1
102
RTVSPropertyOp25
 70
     1
102
RTVSPropertyOp26
 70
     1
102
RTVSPropertyOp27
 70
     1
102
RTVSPropertyOp28
 70
     1
102
RTVSPropertyOp29
 70
     1
102
RTVSPropertyOp30
 70
     1
102
RTVSPropertyOp31
 70
     1
102
RTVSPropertyOp32
 70
     1
102
RTVSPropertyOp33
 70
     1
102
RTVSPropertyOp34
 70
     1
102
RTVSPropertyOp35
 70
     1
102
RTVSPropertyOp36
 70
     1
102
RTVSPropertyOp37
 70
     1
102
RTVSPropertyOp38
 70
     1
102
RTVSPropertyOp39
 70
     1
102
RTVSPropertyOp40
 70
     1
102
RTVSPropertyOp41
 70
     1
102
RTVSPropertyOp42
 70
     1
102
RTVSPropertyOp43
 70
     1
102
RTVSPropertyOp44
 70
     1
102
RTVSPropertyOp45
 70
     1
102
RTVSPropertyOp46
 70
     1
102
RTVSPropertyOp47
 70
     1
102
RTVSPropertyOp48
 70
     1
102
RTVSPropertyOp49
 70
     1
102
RTVSPropertyOp50
 70
     1
102
RTVSPropertyOp51
 70
     0
102
RTVSPropertyOp52
 70
     0
102
RTVSPropertyOp53
 70
     1
102
RTVSPropertyOp54
 70
     1
102
RTVSPropertyOp55
 70
     1
102
RTVSPropertyOp56
 70
     1
102
RTVSPropertyOp57
 70
     1
102
RTVSPropertyOp58
 70
     1
102
RTVSPropertyOp59
 70
     1
102
RTVSPropertyOp60
 70
     1
102
RTVSPropertyOp61
 70
     1
102
RTVSPropertyOp62
 70
     1
  0
XRECORD
  5
A1BC
102
{ACAD_REACTORS
330
A1BB
102
}
330
A1BB
100
AcDbXrecord
280
     1
102
RTVSPost2010Prop28
280
     0
102
RTVSPost2010PropOp28
 70
     1
102
RTVSPost2010Prop29
280
     1
102
RTVSPost2010PropOp29
 70
     1
102
RTVSPost2010Prop30
280
     1
102
RTVSPost2010PropOp30
 70
     1
102
RTVSPost2010Prop31
280
     0
102
RTVSPost2010PropOp31
 70
     1
102
RTVSPost2010Prop32
280
     0
102
RTVSPost2010PropOp32
 70
     1
102
RTVSPost2010Prop33
280
     0
102
RTVSPost2010PropOp33
 70
     1
102
RTVSPost2010Prop34
280
     0
102
RTVSPost2010PropOp34
 70
     1
102
RTVSPost2010Prop35
280
     0
102
RTVSPost2010PropOp35
 70
     1
102
RTVSPost2010Prop36
280
     0
102
RTVSPost2010PropOp36
 70
     1
102
RTVSPost2010Prop37
 90
       50
102
RTVSPost2010PropOp37
 70
     1
102
RTVSPost2010Prop38
140
0.0
102
RTVSPost2010PropOp38
 70
     1
102
RTVSPost2010Prop39
140
1.0
102
RTVSPost2010PropOp39
 70
     1
102
RTVSPost2010Prop40
 90
        0
102
RTVSPost2010PropOp40
 70
     1
102
RTVSPost2010Prop41ColorIndex
 90
       18
102
RTVSPost2010Prop41ColorRGB
 90
        0
102
RTVSPost2010PropOp41
 70
     1
102
RTVSPost2010Prop42
 90
       50
102
RTVSPost2010PropOp42
 70
     1
102
RTVSPost2010Prop43
 90
        3
102
RTVSPost2010PropOp43
 70
     1
102
RTVSPost2010Prop44ColorIndex
 90
        5
102
RTVSPost2010Prop44ColorRGB
 90
      255
102
RTVSPost2010PropOp44
 70
     1
102
RTVSPost2010Prop45
280
     0
102
RTVSPost2010PropOp45
 70
     1
102
RTVSPost2010Prop46
 90
       50
102
RTVSPost2010PropOp46
 70
     1
102
RTVSPost2010Prop47
 90
       50
102
RTVSPost2010PropOp47
 70
     1
102
RTVSPost2010Prop48
 90
       50
102
RTVSPost2010PropOp48
 70
     1
102
RTVSPost2010Prop49
280
     0
102
RTVSPost2010PropOp49
 70
     1
102
RTVSPost2010Prop50
 90
       50
102
RTVSPost2010PropOp50
 70
     1
102
RTVSPost2010Prop51ColorIndex
 90
      256
102
RTVSPost2010Prop51ColorRGB
 90
-16777216
102
RTVSPost2010PropOp51
 70
     0
102
RTVSPost2010Prop52
140
1.0
102
RTVSPost2010PropOp52
 70
     0
102
RTVSPost2010Prop53
 90
        2
102
RTVSPost2010PropOp53
 70
     1
102
RTVSPost2010Prop54
  1
strokes_ogs.tif
102
RTVSPost2010PropOp54
 70
     1
102
RTVSPost2010Prop55
280
     0
102
RTVSPost2010PropOp55
 70
     1
102
RTVSPost2010Prop56
140
1.0
102
RTVSPost2010PropOp56
 70
     1
102
RTVSPost2010Prop57
140
1.0
102
RTVSPost2010PropOp57
 70
     1
102
RTVSPropertyOp0
 70
     1
102
RTVSPropertyOp1
 70
     1
102
RTVSPropertyOp2
 70
     1
102
RTVSPropertyOp3
 70
     1
102
RTVSPropertyOp4
 70
     1
102
RTVSPropertyOp5
 70
     1
102
RTVSPropertyOp6
 70
     1
102
RTVSPropertyOp7
 70
     1
102
RTVSPropertyOp8
 70
     1
102
RTVSPropertyOp9
 70
     1
102
RTVSPropertyOp10
 70
     1
102
RTVSPropertyOp11
 70
     1
102
RTVSPropertyOp12
 70
     1
102
RTVSPropertyOp13
 70
     1
102
RTVSPropertyOp14
 70
     1
102
RTVSPropertyOp15
 70
     1
102
RTVSPropertyOp16
 70
     1
102
RTVSPropertyOp17
 70
     1
102
RTVSPropertyOp18
 70
     1
102
RTVSPropertyOp19
 70
     1
102
RTVSPropertyOp20
 70
     1
102
RTVSPropertyOp21
 70
     1
102
RTVSPropertyOp22
 70
     1
102
RTVSPropertyOp23
 70
     1
102
RTVSPropertyOp24
 70
     1
102
RTVSPropertyOp25
 70
     1
102
RTVSPropertyOp26
 70
     1
102
RTVSPropertyOp27
 70
     1
102
RTVSPropertyOp28
 70
     1
102
RTVSPropertyOp29
 70
     1
102
RTVSPropertyOp30
 70
     1
102
RTVSPropertyOp31
 70
     1
102
RTVSPropertyOp32
 70
     1
102
RTVSPropertyOp33
 70
     1
102
RTVSPropertyOp34
 70
     1
102
RTVSPropertyOp35
 70
     1
102
RTVSPropertyOp36
 70
     1
102
RTVSPropertyOp37
 70
     1
102
RTVSPropertyOp38
 70
     1
102
RTVSPropertyOp39
 70
     1
102
RTVSPropertyOp40
 70
     1
102
RTVSPropertyOp41
 70
     1
102
RTVSPropertyOp42
 70
     1
102
RTVSPropertyOp43
 70
     1
102
RTVSPropertyOp44
 70
     1
102
RTVSPropertyOp45
 70
     1
102
RTVSPropertyOp46
 70
     1
102
RTVSPropertyOp47
 70
     1
102
RTVSPropertyOp48
 70
     1
102
RTVSPropertyOp49
 70
     1
102
RTVSPropertyOp50
 70
     1
102
RTVSPropertyOp51
 70
     0
102
RTVSPropertyOp52
 70
     0
102
RTVSPropertyOp53
 70
     1
102
RTVSPropertyOp54
 70
     1
102
RTVSPropertyOp55
 70
     1
102
RTVSPropertyOp56
 70
     1
102
RTVSPropertyOp57
 70
     1
102
RTVSPropertyOp58
 70
     1
102
RTVSPropertyOp59
 70
     1
102
RTVSPropertyOp60
 70
     1
102
RTVSPropertyOp61
 70
     1
102
RTVSPropertyOp62
 70
     1
  0
XRECORD
  5
A1B6
102
{ACAD_REACTORS
330
A1B5
102
}
330
A1B5
100
AcDbXrecord
280
     1
102
RTVSPost2010Prop28
280
     0
102
RTVSPost2010PropOp28
 70
     1
102
RTVSPost2010Prop29
280
     1
102
RTVSPost2010PropOp29
 70
     1
102
RTVSPost2010Prop30
280
     1
102
RTVSPost2010PropOp30
 70
     1
102
RTVSPost2010Prop31
280
     0
102
RTVSPost2010PropOp31
 70
     1
102
RTVSPost2010Prop32
280
     0
102
RTVSPost2010PropOp32
 70
     1
102
RTVSPost2010Prop33
280
     0
102
RTVSPost2010PropOp33
 70
     1
102
RTVSPost2010Prop34
280
     0
102
RTVSPost2010PropOp34
 70
     1
102
RTVSPost2010Prop35
280
     0
102
RTVSPost2010PropOp35
 70
     1
102
RTVSPost2010Prop36
280
     0
102
RTVSPost2010PropOp36
 70
     1
102
RTVSPost2010Prop37
 90
       50
102
RTVSPost2010PropOp37
 70
     1
102
RTVSPost2010Prop38
140
0.0
102
RTVSPost2010PropOp38
 70
     1
102
RTVSPost2010Prop39
140
1.0
102
RTVSPost2010PropOp39
 70
     1
102
RTVSPost2010Prop40
 90
        0
102
RTVSPost2010PropOp40
 70
     1
102
RTVSPost2010Prop41ColorIndex
 90
       18
102
RTVSPost2010Prop41ColorRGB
 90
        0
102
RTVSPost2010PropOp41
 70
     1
102
RTVSPost2010Prop42
 90
       50
102
RTVSPost2010PropOp42
 70
     1
102
RTVSPost2010Prop43
 90
        3
102
RTVSPost2010PropOp43
 70
     1
102
RTVSPost2010Prop44ColorIndex
 90
        5
102
RTVSPost2010Prop44ColorRGB
 90
      255
102
RTVSPost2010PropOp44
 70
     1
102
RTVSPost2010Prop45
280
     0
102
RTVSPost2010PropOp45
 70
     1
102
RTVSPost2010Prop46
 90
       50
102
RTVSPost2010PropOp46
 70
     1
102
RTVSPost2010Prop47
 90
       50
102
RTVSPost2010PropOp47
 70
     1
102
RTVSPost2010Prop48
 90
       50
102
RTVSPost2010PropOp48
 70
     1
102
RTVSPost2010Prop49
280
     0
102
RTVSPost2010PropOp49
 70
     1
102
RTVSPost2010Prop50
 90
       50
102
RTVSPost2010PropOp50
 70
     1
102
RTVSPost2010Prop51ColorIndex
 90
      256
102
RTVSPost2010Prop51ColorRGB
 90
-16777216
102
RTVSPost2010PropOp51
 70
     0
102
RTVSPost2010Prop52
140
1.0
102
RTVSPost2010PropOp52
 70
     0
102
RTVSPost2010Prop53
 90
        2
102
RTVSPost2010PropOp53
 70
     1
102
RTVSPost2010Prop54
  1
strokes_ogs.tif
102
RTVSPost2010PropOp54
 70
     1
102
RTVSPost2010Prop55
280
     0
102
RTVSPost2010PropOp55
 70
     1
102
RTVSPost2010Prop56
140
1.0
102
RTVSPost2010PropOp56
 70
     1
102
RTVSPost2010Prop57
140
1.0
102
RTVSPost2010PropOp57
 70
     1
102
RTVSPropertyOp0
 70
     1
102
RTVSPropertyOp1
 70
     1
102
RTVSPropertyOp2
 70
     1
102
RTVSPropertyOp3
 70
     1
102
RTVSPropertyOp4
 70
     1
102
RTVSPropertyOp5
 70
     1
102
RTVSPropertyOp6
 70
     1
102
RTVSPropertyOp7
 70
     1
102
RTVSPropertyOp8
 70
     1
102
RTVSPropertyOp9
 70
     1
102
RTVSPropertyOp10
 70
     1
102
RTVSPropertyOp11
 70
     1
102
RTVSPropertyOp12
 70
     1
102
RTVSPropertyOp13
 70
     1
102
RTVSPropertyOp14
 70
     1
102
RTVSPropertyOp15
 70
     1
102
RTVSPropertyOp16
 70
     1
102
RTVSPropertyOp17
 70
     1
102
RTVSPropertyOp18
 70
     1
102
RTVSPropertyOp19
 70
     1
102
RTVSPropertyOp20
 70
     1
102
RTVSPropertyOp21
 70
     1
102
RTVSPropertyOp22
 70
     1
102
RTVSPropertyOp23
 70
     1
102
RTVSPropertyOp24
 70
     1
102
RTVSPropertyOp25
 70
     1
102
RTVSPropertyOp26
 70
     1
102
RTVSPropertyOp27
 70
     1
102
RTVSPropertyOp28
 70
     1
102
RTVSPropertyOp29
 70
     1
102
RTVSPropertyOp30
 70
     1
102
RTVSPropertyOp31
 70
     1
102
RTVSPropertyOp32
 70
     1
102
RTVSPropertyOp33
 70
     1
102
RTVSPropertyOp34
 70
     1
102
RTVSPropertyOp35
 70
     1
102
RTVSPropertyOp36
 70
     1
102
RTVSPropertyOp37
 70
     1
102
RTVSPropertyOp38
 70
     1
102
RTVSPropertyOp39
 70
     1
102
RTVSPropertyOp40
 70
     1
102
RTVSPropertyOp41
 70
     1
102
RTVSPropertyOp42
 70
     1
102
RTVSPropertyOp43
 70
     1
102
RTVSPropertyOp44
 70
     1
102
RTVSPropertyOp45
 70
     1
102
RTVSPropertyOp46
 70
     1
102
RTVSPropertyOp47
 70
     1
102
RTVSPropertyOp48
 70
     1
102
RTVSPropertyOp49
 70
     1
102
RTVSPropertyOp50
 70
     1
102
RTVSPropertyOp51
 70
     0
102
RTVSPropertyOp52
 70
     0
102
RTVSPropertyOp53
 70
     1
102
RTVSPropertyOp54
 70
     1
102
RTVSPropertyOp55
 70
     1
102
RTVSPropertyOp56
 70
     1
102
RTVSPropertyOp57
 70
     1
102
RTVSPropertyOp58
 70
     1
102
RTVSPropertyOp59
 70
     1
102
RTVSPropertyOp60
 70
     1
102
RTVSPropertyOp61
 70
     1
102
RTVSPropertyOp62
 70
     1
  0
XRECORD
  5
A1B8
102
{ACAD_REACTORS
330
A1B7
102
}
330
A1B7
100
AcDbXrecord
280
     1
102
RTVSPost2010Prop28
280
     0
102
RTVSPost2010PropOp28
 70
     1
102
RTVSPost2010Prop29
280
     1
102
RTVSPost2010PropOp29
 70
     1
102
RTVSPost2010Prop30
280
     1
102
RTVSPost2010PropOp30
 70
     1
102
RTVSPost2010Prop31
280
     0
102
RTVSPost2010PropOp31
 70
     1
102
RTVSPost2010Prop32
280
     0
102
RTVSPost2010PropOp32
 70
     1
102
RTVSPost2010Prop33
280
     0
102
RTVSPost2010PropOp33
 70
     1
102
RTVSPost2010Prop34
280
     0
102
RTVSPost2010PropOp34
 70
     1
102
RTVSPost2010Prop35
280
     0
102
RTVSPost2010PropOp35
 70
     1
102
RTVSPost2010Prop36
280
     0
102
RTVSPost2010PropOp36
 70
     1
102
RTVSPost2010Prop37
 90
       50
102
RTVSPost2010PropOp37
 70
     1
102
RTVSPost2010Prop38
140
0.0
102
RTVSPost2010PropOp38
 70
     1
102
RTVSPost2010Prop39
140
1.0
102
RTVSPost2010PropOp39
 70
     1
102
RTVSPost2010Prop40
 90
        0
102
RTVSPost2010PropOp40
 70
     1
102
RTVSPost2010Prop41ColorIndex
 90
       18
102
RTVSPost2010Prop41ColorRGB
 90
        0
102
RTVSPost2010PropOp41
 70
     1
102
RTVSPost2010Prop42
 90
       50
102
RTVSPost2010PropOp42
 70
     1
102
RTVSPost2010Prop43
 90
        3
102
RTVSPost2010PropOp43
 70
     1
102
RTVSPost2010Prop44ColorIndex
 90
        5
102
RTVSPost2010Prop44ColorRGB
 90
      255
102
RTVSPost2010PropOp44
 70
     1
102
RTVSPost2010Prop45
280
     0
102
RTVSPost2010PropOp45
 70
     1
102
RTVSPost2010Prop46
 90
       50
102
RTVSPost2010PropOp46
 70
     1
102
RTVSPost2010Prop47
 90
       50
102
RTVSPost2010PropOp47
 70
     1
102
RTVSPost2010Prop48
 90
       50
102
RTVSPost2010PropOp48
 70
     1
102
RTVSPost2010Prop49
280
     0
102
RTVSPost2010PropOp49
 70
     1
102
RTVSPost2010Prop50
 90
       50
102
RTVSPost2010PropOp50
 70
     1
102
RTVSPost2010Prop51ColorIndex
 90
      256
102
RTVSPost2010Prop51ColorRGB
 90
-16777216
102
RTVSPost2010PropOp51
 70
     0
102
RTVSPost2010Prop52
140
1.0
102
RTVSPost2010PropOp52
 70
     0
102
RTVSPost2010Prop53
 90
        2
102
RTVSPost2010PropOp53
 70
     1
102
RTVSPost2010Prop54
  1
strokes_ogs.tif
102
RTVSPost2010PropOp54
 70
     1
102
RTVSPost2010Prop55
280
     0
102
RTVSPost2010PropOp55
 70
     1
102
RTVSPost2010Prop56
140
1.0
102
RTVSPost2010PropOp56
 70
     1
102
RTVSPost2010Prop57
140
1.0
102
RTVSPost2010PropOp57
 70
     1
102
RTVSPropertyOp0
 70
     1
102
RTVSPropertyOp1
 70
     1
102
RTVSPropertyOp2
 70
     1
102
RTVSPropertyOp3
 70
     1
102
RTVSPropertyOp4
 70
     1
102
RTVSPropertyOp5
 70
     1
102
RTVSPropertyOp6
 70
     1
102
RTVSPropertyOp7
 70
     1
102
RTVSPropertyOp8
 70
     1
102
RTVSPropertyOp9
 70
     1
102
RTVSPropertyOp10
 70
     1
102
RTVSPropertyOp11
 70
     1
102
RTVSPropertyOp12
 70
     1
102
RTVSPropertyOp13
 70
     1
102
RTVSPropertyOp14
 70
     1
102
RTVSPropertyOp15
 70
     1
102
RTVSPropertyOp16
 70
     1
102
RTVSPropertyOp17
 70
     1
102
RTVSPropertyOp18
 70
     1
102
RTVSPropertyOp19
 70
     1
102
RTVSPropertyOp20
 70
     1
102
RTVSPropertyOp21
 70
     1
102
RTVSPropertyOp22
 70
     1
102
RTVSPropertyOp23
 70
     1
102
RTVSPropertyOp24
 70
     1
102
RTVSPropertyOp25
 70
     1
102
RTVSPropertyOp26
 70
     1
102
RTVSPropertyOp27
 70
     1
102
RTVSPropertyOp28
 70
     1
102
RTVSPropertyOp29
 70
     1
102
RTVSPropertyOp30
 70
     1
102
RTVSPropertyOp31
 70
     1
102
RTVSPropertyOp32
 70
     1
102
RTVSPropertyOp33
 70
     1
102
RTVSPropertyOp34
 70
     1
102
RTVSPropertyOp35
 70
     1
102
RTVSPropertyOp36
 70
     1
102
RTVSPropertyOp37
 70
     1
102
RTVSPropertyOp38
 70
     1
102
RTVSPropertyOp39
 70
     1
102
RTVSPropertyOp40
 70
     1
102
RTVSPropertyOp41
 70
     1
102
RTVSPropertyOp42
 70
     1
102
RTVSPropertyOp43
 70
     1
102
RTVSPropertyOp44
 70
     1
102
RTVSPropertyOp45
 70
     1
102
RTVSPropertyOp46
 70
     1
102
RTVSPropertyOp47
 70
     1
102
RTVSPropertyOp48
 70
     1
102
RTVSPropertyOp49
 70
     1
102
RTVSPropertyOp50
 70
     1
102
RTVSPropertyOp51
 70
     0
102
RTVSPropertyOp52
 70
     0
102
RTVSPropertyOp53
 70
     1
102
RTVSPropertyOp54
 70
     1
102
RTVSPropertyOp55
 70
     1
102
RTVSPropertyOp56
 70
     1
102
RTVSPropertyOp57
 70
     1
102
RTVSPropertyOp58
 70
     1
102
RTVSPropertyOp59
 70
     1
102
RTVSPropertyOp60
 70
     1
102
RTVSPropertyOp61
 70
     1
102
RTVSPropertyOp62
 70
     1
  0
XRECORD
  5
A1AE
102
{ACAD_REACTORS
330
A1AD
102
}
330
A1AD
100
AcDbXrecord
280
     1
102
RTVSPost2010Prop28
280
     0
102
RTVSPost2010PropOp28
 70
     1
102
RTVSPost2010Prop29
280
     1
102
RTVSPost2010PropOp29
 70
     1
102
RTVSPost2010Prop30
280
     1
102
RTVSPost2010PropOp30
 70
     1
102
RTVSPost2010Prop31
280
     0
102
RTVSPost2010PropOp31
 70
     1
102
RTVSPost2010Prop32
280
     0
102
RTVSPost2010PropOp32
 70
     1
102
RTVSPost2010Prop33
280
     0
102
RTVSPost2010PropOp33
 70
     1
102
RTVSPost2010Prop34
280
     0
102
RTVSPost2010PropOp34
 70
     1
102
RTVSPost2010Prop35
280
     0
102
RTVSPost2010PropOp35
 70
     1
102
RTVSPost2010Prop36
280
     0
102
RTVSPost2010PropOp36
 70
     1
102
RTVSPost2010Prop37
 90
       50
102
RTVSPost2010PropOp37
 70
     1
102
RTVSPost2010Prop38
140
0.0
102
RTVSPost2010PropOp38
 70
     1
102
RTVSPost2010Prop39
140
1.0
102
RTVSPost2010PropOp39
 70
     1
102
RTVSPost2010Prop40
 90
        0
102
RTVSPost2010PropOp40
 70
     1
102
RTVSPost2010Prop41ColorIndex
 90
       18
102
RTVSPost2010Prop41ColorRGB
 90
        0
102
RTVSPost2010PropOp41
 70
     1
102
RTVSPost2010Prop42
 90
       50
102
RTVSPost2010PropOp42
 70
     1
102
RTVSPost2010Prop43
 90
        3
102
RTVSPost2010PropOp43
 70
     1
102
RTVSPost2010Prop44ColorIndex
 90
        5
102
RTVSPost2010Prop44ColorRGB
 90
      255
102
RTVSPost2010PropOp44
 70
     1
102
RTVSPost2010Prop45
280
     0
102
RTVSPost2010PropOp45
 70
     1
102
RTVSPost2010Prop46
 90
       50
102
RTVSPost2010PropOp46
 70
     1
102
RTVSPost2010Prop47
 90
       50
102
RTVSPost2010PropOp47
 70
     1
102
RTVSPost2010Prop48
 90
       50
102
RTVSPost2010PropOp48
 70
     1
102
RTVSPost2010Prop49
280
     0
102
RTVSPost2010PropOp49
 70
     1
102
RTVSPost2010Prop50
 90
       50
102
RTVSPost2010PropOp50
 70
     1
102
RTVSPost2010Prop51ColorIndex
 90
      256
102
RTVSPost2010Prop51ColorRGB
 90
-16777216
102
RTVSPost2010PropOp51
 70
     0
102
RTVSPost2010Prop52
140
1.0
102
RTVSPost2010PropOp52
 70
     0
102
RTVSPost2010Prop53
 90
        2
102
RTVSPost2010PropOp53
 70
     1
102
RTVSPost2010Prop54
  1
strokes_ogs.tif
102
RTVSPost2010PropOp54
 70
     1
102
RTVSPost2010Prop55
280
     0
102
RTVSPost2010PropOp55
 70
     1
102
RTVSPost2010Prop56
140
1.0
102
RTVSPost2010PropOp56
 70
     1
102
RTVSPost2010Prop57
140
1.0
102
RTVSPost2010PropOp57
 70
     1
102
RTVSPropertyOp0
 70
     1
102
RTVSPropertyOp1
 70
     1
102
RTVSPropertyOp2
 70
     1
102
RTVSPropertyOp3
 70
     1
102
RTVSPropertyOp4
 70
     1
102
RTVSPropertyOp5
 70
     1
102
RTVSPropertyOp6
 70
     1
102
RTVSPropertyOp7
 70
     1
102
RTVSPropertyOp8
 70
     1
102
RTVSPropertyOp9
 70
     1
102
RTVSPropertyOp10
 70
     1
102
RTVSPropertyOp11
 70
     1
102
RTVSPropertyOp12
 70
     1
102
RTVSPropertyOp13
 70
     1
102
RTVSPropertyOp14
 70
     1
102
RTVSPropertyOp15
 70
     1
102
RTVSPropertyOp16
 70
     1
102
RTVSPropertyOp17
 70
     1
102
RTVSPropertyOp18
 70
     1
102
RTVSPropertyOp19
 70
     1
102
RTVSPropertyOp20
 70
     1
102
RTVSPropertyOp21
 70
     1
102
RTVSPropertyOp22
 70
     1
102
RTVSPropertyOp23
 70
     1
102
RTVSPropertyOp24
 70
     1
102
RTVSPropertyOp25
 70
     1
102
RTVSPropertyOp26
 70
     1
102
RTVSPropertyOp27
 70
     1
102
RTVSPropertyOp28
 70
     1
102
RTVSPropertyOp29
 70
     1
102
RTVSPropertyOp30
 70
     1
102
RTVSPropertyOp31
 70
     1
102
RTVSPropertyOp32
 70
     1
102
RTVSPropertyOp33
 70
     1
102
RTVSPropertyOp34
 70
     1
102
RTVSPropertyOp35
 70
     1
102
RTVSPropertyOp36
 70
     1
102
RTVSPropertyOp37
 70
     1
102
RTVSPropertyOp38
 70
     1
102
RTVSPropertyOp39
 70
     1
102
RTVSPropertyOp40
 70
     1
102
RTVSPropertyOp41
 70
     1
102
RTVSPropertyOp42
 70
     1
102
RTVSPropertyOp43
 70
     1
102
RTVSPropertyOp44
 70
     1
102
RTVSPropertyOp45
 70
     1
102
RTVSPropertyOp46
 70
     1
102
RTVSPropertyOp47
 70
     1
102
RTVSPropertyOp48
 70
     1
102
RTVSPropertyOp49
 70
     1
102
RTVSPropertyOp50
 70
     1
102
RTVSPropertyOp51
 70
     0
102
RTVSPropertyOp52
 70
     0
102
RTVSPropertyOp53
 70
     1
102
RTVSPropertyOp54
 70
     1
102
RTVSPropertyOp55
 70
     1
102
RTVSPropertyOp56
 70
     1
102
RTVSPropertyOp57
 70
     1
102
RTVSPropertyOp58
 70
     1
102
RTVSPropertyOp59
 70
     1
102
RTVSPropertyOp60
 70
     1
102
RTVSPropertyOp61
 70
     1
102
RTVSPropertyOp62
 70
     1
  0
XRECORD
  5
A1A2
102
{ACAD_REACTORS
330
A1A1
102
}
330
A1A1
100
AcDbXrecord
280
     1
102
RTVSPost2010Prop28
280
     0
102
RTVSPost2010PropOp28
 70
     1
102
RTVSPost2010Prop29
280
     1
102
RTVSPost2010PropOp29
 70
     1
102
RTVSPost2010Prop30
280
     1
102
RTVSPost2010PropOp30
 70
     1
102
RTVSPost2010Prop31
280
     0
102
RTVSPost2010PropOp31
 70
     1
102
RTVSPost2010Prop32
280
     0
102
RTVSPost2010PropOp32
 70
     1
102
RTVSPost2010Prop33
280
     0
102
RTVSPost2010PropOp33
 70
     1
102
RTVSPost2010Prop34
280
     0
102
RTVSPost2010PropOp34
 70
     1
102
RTVSPost2010Prop35
280
     0
102
RTVSPost2010PropOp35
 70
     1
102
RTVSPost2010Prop36
280
     0
102
RTVSPost2010PropOp36
 70
     1
102
RTVSPost2010Prop37
 90
       50
102
RTVSPost2010PropOp37
 70
     1
102
RTVSPost2010Prop38
140
0.0
102
RTVSPost2010PropOp38
 70
     1
102
RTVSPost2010Prop39
140
1.0
102
RTVSPost2010PropOp39
 70
     1
102
RTVSPost2010Prop40
 90
        0
102
RTVSPost2010PropOp40
 70
     1
102
RTVSPost2010Prop41ColorIndex
 90
       18
102
RTVSPost2010Prop41ColorRGB
 90
        0
102
RTVSPost2010PropOp41
 70
     1
102
RTVSPost2010Prop42
 90
       50
102
RTVSPost2010PropOp42
 70
     1
102
RTVSPost2010Prop43
 90
        3
102
RTVSPost2010PropOp43
 70
     1
102
RTVSPost2010Prop44ColorIndex
 90
        5
102
RTVSPost2010Prop44ColorRGB
 90
      255
102
RTVSPost2010PropOp44
 70
     1
102
RTVSPost2010Prop45
280
     0
102
RTVSPost2010PropOp45
 70
     1
102
RTVSPost2010Prop46
 90
       50
102
RTVSPost2010PropOp46
 70
     1
102
RTVSPost2010Prop47
 90
       50
102
RTVSPost2010PropOp47
 70
     1
102
RTVSPost2010Prop48
 90
       50
102
RTVSPost2010PropOp48
 70
     1
102
RTVSPost2010Prop49
280
     0
102
RTVSPost2010PropOp49
 70
     1
102
RTVSPost2010Prop50
 90
       50
102
RTVSPost2010PropOp50
 70
     1
102
RTVSPost2010Prop51ColorIndex
 90
      256
102
RTVSPost2010Prop51ColorRGB
 90
-16777216
102
RTVSPost2010PropOp51
 70
     0
102
RTVSPost2010Prop52
140
1.0
102
RTVSPost2010PropOp52
 70
     0
102
RTVSPost2010Prop53
 90
        2
102
RTVSPost2010PropOp53
 70
     1
102
RTVSPost2010Prop54
  1
strokes_ogs.tif
102
RTVSPost2010PropOp54
 70
     1
102
RTVSPost2010Prop55
280
     0
102
RTVSPost2010PropOp55
 70
     1
102
RTVSPost2010Prop56
140
1.0
102
RTVSPost2010PropOp56
 70
     1
102
RTVSPost2010Prop57
140
1.0
102
RTVSPost2010PropOp57
 70
     1
102
RTVSPropertyOp0
 70
     1
102
RTVSPropertyOp1
 70
     1
102
RTVSPropertyOp2
 70
     1
102
RTVSPropertyOp3
 70
     1
102
RTVSPropertyOp4
 70
     1
102
RTVSPropertyOp5
 70
     1
102
RTVSPropertyOp6
 70
     1
102
RTVSPropertyOp7
 70
     1
102
RTVSPropertyOp8
 70
     1
102
RTVSPropertyOp9
 70
     1
102
RTVSPropertyOp10
 70
     1
102
RTVSPropertyOp11
 70
     1
102
RTVSPropertyOp12
 70
     1
102
RTVSPropertyOp13
 70
     1
102
RTVSPropertyOp14
 70
     1
102
RTVSPropertyOp15
 70
     1
102
RTVSPropertyOp16
 70
     1
102
RTVSPropertyOp17
 70
     1
102
RTVSPropertyOp18
 70
     1
102
RTVSPropertyOp19
 70
     1
102
RTVSPropertyOp20
 70
     1
102
RTVSPropertyOp21
 70
     1
102
RTVSPropertyOp22
 70
     1
102
RTVSPropertyOp23
 70
     1
102
RTVSPropertyOp24
 70
     1
102
RTVSPropertyOp25
 70
     1
102
RTVSPropertyOp26
 70
     1
102
RTVSPropertyOp27
 70
     1
102
RTVSPropertyOp28
 70
     1
102
RTVSPropertyOp29
 70
     1
102
RTVSPropertyOp30
 70
     1
102
RTVSPropertyOp31
 70
     1
102
RTVSPropertyOp32
 70
     1
102
RTVSPropertyOp33
 70
     1
102
RTVSPropertyOp34
 70
     1
102
RTVSPropertyOp35
 70
     1
102
RTVSPropertyOp36
 70
     1
102
RTVSPropertyOp37
 70
     1
102
RTVSPropertyOp38
 70
     1
102
RTVSPropertyOp39
 70
     1
102
RTVSPropertyOp40
 70
     1
102
RTVSPropertyOp41
 70
     1
102
RTVSPropertyOp42
 70
     1
102
RTVSPropertyOp43
 70
     1
102
RTVSPropertyOp44
 70
     1
102
RTVSPropertyOp45
 70
     1
102
RTVSPropertyOp46
 70
     1
102
RTVSPropertyOp47
 70
     1
102
RTVSPropertyOp48
 70
     1
102
RTVSPropertyOp49
 70
     1
102
RTVSPropertyOp50
 70
     1
102
RTVSPropertyOp51
 70
     0
102
RTVSPropertyOp52
 70
     0
102
RTVSPropertyOp53
 70
     1
102
RTVSPropertyOp54
 70
     1
102
RTVSPropertyOp55
 70
     1
102
RTVSPropertyOp56
 70
     1
102
RTVSPropertyOp57
 70
     1
102
RTVSPropertyOp58
 70
     1
102
RTVSPropertyOp59
 70
     1
102
RTVSPropertyOp60
 70
     1
102
RTVSPropertyOp61
 70
     1
102
RTVSPropertyOp62
 70
     1
  0
XRECORD
  5
A1BA
102
{ACAD_REACTORS
330
A1B9
102
}
330
A1B9
100
AcDbXrecord
280
     1
102
RTVSPost2010Prop28
280
     0
102
RTVSPost2010PropOp28
 70
     1
102
RTVSPost2010Prop29
280
     1
102
RTVSPost2010PropOp29
 70
     1
102
RTVSPost2010Prop30
280
     1
102
RTVSPost2010PropOp30
 70
     1
102
RTVSPost2010Prop31
280
     0
102
RTVSPost2010PropOp31
 70
     1
102
RTVSPost2010Prop32
280
     0
102
RTVSPost2010PropOp32
 70
     1
102
RTVSPost2010Prop33
280
     0
102
RTVSPost2010PropOp33
 70
     1
102
RTVSPost2010Prop34
280
     0
102
RTVSPost2010PropOp34
 70
     1
102
RTVSPost2010Prop35
280
     0
102
RTVSPost2010PropOp35
 70
     1
102
RTVSPost2010Prop36
280
     0
102
RTVSPost2010PropOp36
 70
     1
102
RTVSPost2010Prop37
 90
       50
102
RTVSPost2010PropOp37
 70
     1
102
RTVSPost2010Prop38
140
0.0
102
RTVSPost2010PropOp38
 70
     1
102
RTVSPost2010Prop39
140
1.0
102
RTVSPost2010PropOp39
 70
     1
102
RTVSPost2010Prop40
 90
        0
102
RTVSPost2010PropOp40
 70
     1
102
RTVSPost2010Prop41ColorIndex
 90
       18
102
RTVSPost2010Prop41ColorRGB
 90
        0
102
RTVSPost2010PropOp41
 70
     1
102
RTVSPost2010Prop42
 90
       50
102
RTVSPost2010PropOp42
 70
     1
102
RTVSPost2010Prop43
 90
        3
102
RTVSPost2010PropOp43
 70
     1
102
RTVSPost2010Prop44ColorIndex
 90
        5
102
RTVSPost2010Prop44ColorRGB
 90
      255
102
RTVSPost2010PropOp44
 70
     1
102
RTVSPost2010Prop45
280
     0
102
RTVSPost2010PropOp45
 70
     1
102
RTVSPost2010Prop46
 90
       50
102
RTVSPost2010PropOp46
 70
     1
102
RTVSPost2010Prop47
 90
       50
102
RTVSPost2010PropOp47
 70
     1
102
RTVSPost2010Prop48
 90
       50
102
RTVSPost2010PropOp48
 70
     1
102
RTVSPost2010Prop49
280
     0
102
RTVSPost2010PropOp49
 70
     1
102
RTVSPost2010Prop50
 90
       50
102
RTVSPost2010PropOp50
 70
     1
102
RTVSPost2010Prop51ColorIndex
 90
      256
102
RTVSPost2010Prop51ColorRGB
 90
-16777216
102
RTVSPost2010PropOp51
 70
     0
102
RTVSPost2010Prop52
140
1.0
102
RTVSPost2010PropOp52
 70
     0
102
RTVSPost2010Prop53
 90
        2
102
RTVSPost2010PropOp53
 70
     1
102
RTVSPost2010Prop54
  1
strokes_ogs.tif
102
RTVSPost2010PropOp54
 70
     1
102
RTVSPost2010Prop55
280
     0
102
RTVSPost2010PropOp55
 70
     1
102
RTVSPost2010Prop56
140
1.0
102
RTVSPost2010PropOp56
 70
     1
102
RTVSPost2010Prop57
140
1.0
102
RTVSPost2010PropOp57
 70
     1
102
RTVSPropertyOp0
 70
     1
102
RTVSPropertyOp1
 70
     1
102
RTVSPropertyOp2
 70
     1
102
RTVSPropertyOp3
 70
     1
102
RTVSPropertyOp4
 70
     1
102
RTVSPropertyOp5
 70
     1
102
RTVSPropertyOp6
 70
     1
102
RTVSPropertyOp7
 70
     1
102
RTVSPropertyOp8
 70
     1
102
RTVSPropertyOp9
 70
     1
102
RTVSPropertyOp10
 70
     1
102
RTVSPropertyOp11
 70
     1
102
RTVSPropertyOp12
 70
     1
102
RTVSPropertyOp13
 70
     1
102
RTVSPropertyOp14
 70
     1
102
RTVSPropertyOp15
 70
     1
102
RTVSPropertyOp16
 70
     1
102
RTVSPropertyOp17
 70
     1
102
RTVSPropertyOp18
 70
     1
102
RTVSPropertyOp19
 70
     1
102
RTVSPropertyOp20
 70
     1
102
RTVSPropertyOp21
 70
     1
102
RTVSPropertyOp22
 70
     1
102
RTVSPropertyOp23
 70
     1
102
RTVSPropertyOp24
 70
     1
102
RTVSPropertyOp25
 70
     1
102
RTVSPropertyOp26
 70
     1
102
RTVSPropertyOp27
 70
     1
102
RTVSPropertyOp28
 70
     1
102
RTVSPropertyOp29
 70
     1
102
RTVSPropertyOp30
 70
     1
102
RTVSPropertyOp31
 70
     1
102
RTVSPropertyOp32
 70
     1
102
RTVSPropertyOp33
 70
     1
102
RTVSPropertyOp34
 70
     1
102
RTVSPropertyOp35
 70
     1
102
RTVSPropertyOp36
 70
     1
102
RTVSPropertyOp37
 70
     1
102
RTVSPropertyOp38
 70
     1
102
RTVSPropertyOp39
 70
     1
102
RTVSPropertyOp40
 70
     1
102
RTVSPropertyOp41
 70
     1
102
RTVSPropertyOp42
 70
     1
102
RTVSPropertyOp43
 70
     1
102
RTVSPropertyOp44
 70
     1
102
RTVSPropertyOp45
 70
     1
102
RTVSPropertyOp46
 70
     1
102
RTVSPropertyOp47
 70
     1
102
RTVSPropertyOp48
 70
     1
102
RTVSPropertyOp49
 70
     1
102
RTVSPropertyOp50
 70
     1
102
RTVSPropertyOp51
 70
     0
102
RTVSPropertyOp52
 70
     0
102
RTVSPropertyOp53
 70
     1
102
RTVSPropertyOp54
 70
     1
102
RTVSPropertyOp55
 70
     1
102
RTVSPropertyOp56
 70
     1
102
RTVSPropertyOp57
 70
     1
102
RTVSPropertyOp58
 70
     1
102
RTVSPropertyOp59
 70
     1
102
RTVSPropertyOp60
 70
     1
102
RTVSPropertyOp61
 70
     1
102
RTVSPropertyOp62
 70
     1
  0
ENDSEC
  0
EOF
