  0
SECTION
  2
HEADER
  9
$ACADVER
  1
AC1015
  9
$ACADMAINTVER
 70
    20
  9
$DWGCODEPAGE
  3
ANSI_932
  9
$INSBASE
 10
0.0
 20
0.0
 30
0.0
  9
$EXTMIN
 10
10.0
 20
9.999999999999998
 30
0.0
  9
$EXTMAX
 10
452.9491049999998
 20
338.600764
 30
0.0
  9
$LIMMIN
 10
0.0
 20
0.0
  9
$LIMMAX
 10
536.6514839999998
 20
369.9642799999999
  9
$ORTHOMODE
 70
     0
  9
$REGENMODE
 70
     1
  9
$FILLMODE
 70
     1
  9
$QTEXTMODE
 70
     0
  9
$MIRRTEXT
 70
     1
  9
$LTSCALE
 40
20.0
  9
$ATTMODE
 70
     1
  9
$TEXTSIZE
 40
5.0
  9
$TRACEWID
 40
1.0
  9
$TEXTSTYLE
  7
STANDARD
  9
$CLAYER
  8
0
  9
$CELTYPE
  6
BYLAYER
  9
$CECOLOR
 62
   256
  9
$CELTSCALE
 40
1.0
  9
$DISPSILH
 70
     0
  9
$DIMSCALE
 40
1.0
  9
$DIMASZ
 40
3.0
  9
$DIMEXO
 40
1.0
  9
$DIMDLI
 40
10.0
  9
$DIMRND
 40
0.0
  9
$DIMDLE
 40
0.0
  9
$DIMEXE
 40
1.0
  9
$DIMTP
 40
0.0
  9
$DIMTM
 40
0.0
  9
$DIMTXT
 40
3.2
  9
$DIMCEN
 40
0.0
  9
$DIMTSZ
 40
0.0
  9
$DIMTOL
 70
     0
  9
$DIMLIM
 70
     0
  9
$DIMTIH
 70
     0
  9
$DIMTOH
 70
     0
  9
$DIMSE1
 70
     0
  9
$DIMSE2
 70
     0
  9
$DIMTAD
 70
     3
  9
$DIMZIN
 70
     8
  9
$DIMBLK
  1

  9
$DIMASO
 70
     1
  9
$DIMSHO
 70
     1
  9
$DIMPOST
  1

  9
$DIMAPOST
  1

  9
$DIMALT
 70
     0
  9
$DIMALTD
 70
     2
  9
$DIMALTF
 40
25.4
  9
$DIMLFAC
 40
1.0
  9
$DIMTOFL
 70
     1
  9
$DIMTVP
 40
0.0
  9
$DIMTIX
 70
     0
  9
$DIMSOXD
 70
     0
  9
$DIMSAH
 70
     1
  9
$DIMBLK1
  1
OPEN
  9
$DIMBLK2
  1
OPEN
  9
$DIMSTYLE
  2
STANDARD
  9
$DIMCLRD
 70
     0
  9
$DIMCLRE
 70
     0
  9
$DIMCLRT
 70
     0
  9
$DIMTFAC
 40
1.0
  9
$DIMGAP
 40
1.0
  9
$DIMJUST
 70
     0
  9
$DIMSD1
 70
     0
  9
$DIMSD2
 70
     0
  9
$DIMTOLJ
 70
     1
  9
$DIMTZIN
 70
     0
  9
$DIMALTZ
 70
     0
  9
$DIMALTTZ
 70
     0
  9
$DIMUPT
 70
     0
  9
$DIMDEC
 70
     4
  9
$DIMTDEC
 70
     4
  9
$DIMALTU
 70
     2
  9
$DIMALTTD
 70
     2
  9
$DIMTXSTY
  7
STANDARD
  9
$DIMAUNIT
 70
     0
  9
$DIMADEC
 70
     0
  9
$DIMALTRND
 40
0.0
  9
$DIMAZIN
 70
     0
  9
$DIMDSEP
 70
    46
  9
$DIMATFIT
 70
     3
  9
$DIMFRAC
 70
     0
  9
$DIMLDRBLK
  1
OPEN
  9
$DIMLUNIT
 70
     2
  9
$DIMLWD
 70
    -2
  9
$DIMLWE
 70
    -2
  9
$DIMTMOVE
 70
     0
  9
$LUNITS
 70
     2
  9
$LUPREC
 70
     4
  9
$SKETCHINC
 40
1.0
  9
$FILLETRAD
 40
2.0
  9
$AUNITS
 70
     0
  9
$AUPREC
 70
     2
  9
$MENU
  1
.
  9
$ELEVATION
 40
0.0
  9
$PELEVATION
 40
0.0
  9
$THICKNESS
 40
0.0
  9
$LIMCHECK
 70
     0
  9
$CHAMFERA
 40
10.0
  9
$CHAMFERB
 40
10.0
  9
$CHAMFERC
 40
0.0
  9
$CHAMFERD
 40
0.0
  9
$SKPOLY
 70
     0
  9
$TDCREATE
 40
2451301.392711458
  9
$TDUCREATE
 40
2451301.017711458
  9
$TDUPDATE
 40
2457192.686626354
  9
$TDUUPDATE
 40
2457192.311626354
  9
$TDINDWG
 40
0.0000111574
  9
$TDUSRTIMER
 40
0.0000106713
  9
$USRTIMER
 70
     1
  9
$ANGBASE
 50
0.0
  9
$ANGDIR
 70
     0
  9
$PDMODE
 70
     0
  9
$PDSIZE
 40
0.0
  9
$PLINEWID
 40
0.0
  9
$SPLFRAME
 70
     0
  9
$SPLINETYPE
 70
     6
  9
$SPLINESEGS
 70
     8
  9
$HANDSEED
  5
A486
  9
$SURFTAB1
 70
     6
  9
$SURFTAB2
 70
     6
  9
$SURFTYPE
 70
     6
  9
$SURFU
 70
     6
  9
$SURFV
 70
     6
  9
$UCSBASE
  2

  9
$UCSNAME
  2

  9
$UCSORG
 10
0.0
 20
0.0
 30
0.0
  9
$UCSXDIR
 10
1.0
 20
0.0
 30
0.0
  9
$UCSYDIR
 10
0.0
 20
1.0
 30
0.0
  9
$UCSORTHOREF
  2

  9
$UCSORTHOVIEW
 70
     0
  9
$UCSORGTOP
 10
0.0
 20
0.0
 30
0.0
  9
$UCSORGBOTTOM
 10
0.0
 20
0.0
 30
0.0
  9
$UCSORGLEFT
 10
0.0
 20
0.0
 30
0.0
  9
$UCSORGRIGHT
 10
0.0
 20
0.0
 30
0.0
  9
$UCSORGFRONT
 10
0.0
 20
0.0
 30
0.0
  9
$UCSORGBACK
 10
0.0
 20
0.0
 30
0.0
  9
$PUCSBASE
  2

  9
$PUCSNAME
  2

  9
$PUCSORG
 10
0.0
 20
0.0
 30
0.0
  9
$PUCSXDIR
 10
1.0
 20
0.0
 30
0.0
  9
$PUCSYDIR
 10
0.0
 20
1.0
 30
0.0
  9
$PUCSORTHOREF
  2

  9
$PUCSORTHOVIEW
 70
     0
  9
$PUCSORGTOP
 10
0.0
 20
0.0
 30
0.0
  9
$PUCSORGBOTTOM
 10
0.0
 20
0.0
 30
0.0
  9
$PUCSORGLEFT
 10
0.0
 20
0.0
 30
0.0
  9
$PUCSORGRIGHT
 10
0.0
 20
0.0
 30
0.0
  9
$PUCSORGFRONT
 10
0.0
 20
0.0
 30
0.0
  9
$PUCSORGBACK
 10
0.0
 20
0.0
 30
0.0
  9
$USERI1
 70
     0
  9
$USERI2
 70
     0
  9
$USERI3
 70
     0
  9
$USERI4
 70
     0
  9
$USERI5
 70
     0
  9
$USERR1
 40
0.0
  9
$USERR2
 40
0.0
  9
$USERR3
 40
0.0
  9
$USERR4
 40
0.0
  9
$USERR5
 40
0.0
  9
$WORLDVIEW
 70
     1
  9
$SHADEDGE
 70
     3
  9
$SHADEDIF
 70
    70
  9
$TILEMODE
 70
     1
  9
$MAXACTVP
 70
    16
  9
$PINSBASE
 10
0.0
 20
0.0
 30
0.0
  9
$PLIMCHECK
 70
     0
  9
$PEXTMIN
 10
1.000000000000000E+20
 20
1.000000000000000E+20
 30
1.000000000000000E+20
  9
$PEXTMAX
 10
-1.000000000000000E+20
 20
-1.000000000000000E+20
 30
-1.000000000000000E+20
  9
$PLIMMIN
 10
0.0
 20
0.0
  9
$PLIMMAX
 10
420.0
 20
297.0
  9
$UNITMODE
 70
     0
  9
$VISRETAIN
 70
     0
  9
$PLINEGEN
 70
     0
  9
$PSLTSCALE
 70
     0
  9
$TREEDEPTH
 70
  3020
  9
$CMLSTYLE
  2
STANDARD
  9
$CMLJUST
 70
     0
  9
$CMLSCALE
 40
1.0
  9
$PROXYGRAPHICS
 70
     1
  9
$MEASUREMENT
 70
     0
  9
$CELWEIGHT
370
    -1
  9
$ENDCAPS
280
     0
  9
$JOINSTYLE
280
     0
  9
$LWDISPLAY
290
     0
  9
$INSUNITS
 70
     0
  9
$HYPERLINKBASE
  1

  9
$STYLESHEET
  1

  9
$XEDIT
290
     1
  9
$CEPSNTYPE
380
     0
  9
$PSTYLEMODE
290
     1
  9
$FINGERPRINTGUID
  2
{710F0282-D16C-4994-9127-75E4D12DE1BB}
  9
$VERSIONGUID
  2
{5085E9E6-FFD5-4DB7-B500-81417E027CF0}
  9
$EXTNAMES
290
     1
  9
$PSVPSCALE
 40
0.0
  9
$OLESTARTUP
290
     0
  0
ENDSEC
  0
SECTION
  2
CLASSES
  0
CLASS
  1
ACDBDICTIONARYWDFLT
  2
AcDbDictionaryWithDefault
  3
ObjectDBX Classes
 90
        0
280
     0
281
     0
  0
CLASS
  1
ACDBPLACEHOLDER
  2
AcDbPlaceHolder
  3
ObjectDBX Classes
 90
        0
280
     0
281
     0
  0
CLASS
  1
LAYOUT
  2
AcDbLayout
  3
ObjectDBX Classes
 90
        0
280
     0
281
     0
  0
CLASS
  1
DICTIONARYVAR
  2
AcDbDictionaryVar
  3
ObjectDBX Classes
 90
        0
280
     0
281
     0
  0
CLASS
  1
MATERIAL
  2
AcDbMaterial
  3
ObjectDBX Classes
 90
     1153
280
     0
281
     0
  0
CLASS
  1
VISUALSTYLE
  2
AcDbVisualStyle
  3
ObjectDBX Classes
 90
     4095
280
     0
281
     0
  0
CLASS
  1
TABLESTYLE
  2
AcDbTableStyle
  3
ObjectDBX Classes
 90
     4095
280
     0
281
     0
  0
CLASS
  1
SCALE
  2
AcDbScale
  3
ObjectDBX Classes
 90
     1153
280
     0
281
     0
  0
CLASS
  1
MLEADERSTYLE
  2
AcDbMLeaderStyle
  3
ACDB_MLEADERSTYLE_CLASS
 90
     4095
280
     0
281
     0
  0
CLASS
  1
ACDBSECTIONVIEWSTYLE
  2
AcDbSectionViewStyle
  3
ObjectDBX Classes
 90
     1025
280
     0
281
     0
  0
CLASS
  1
ACDBDETAILVIEWSTYLE
  2
AcDbDetailViewStyle
  3
ObjectDBX Classes
 90
     1025
280
     0
281
     0
  0
CLASS
  1
CELLSTYLEMAP
  2
AcDbCellStyleMap
  3
ObjectDBX Classes
 90
     1152
280
     0
281
     0
  0
ENDSEC
  0
SECTION
  2
TABLES
  0
TABLE
  2
VPORT
  5
A0A3
330
0
100
AcDbSymbolTable
 70
     1
  0
VPORT
  5
A3CF
330
A0A3
100
AcDbSymbolTableRecord
100
AcDbViewportTableRecord
  2
*ACTIVE
 70
     0
 10
0.0
 20
0.0
 11
1.0
 21
1.0
 12
331.0146398010163
 22
174.2985867733302
 13
0.0
 23
0.0
 14
10.0
 24
10.0
 15
10.0
 25
10.0
 16
0.0
 26
0.0
 36
1.0
 17
0.0
 27
0.0
 37
0.0
 40
332.2670540943105
 41
2.35006605019815
 42
50.0
 43
0.0
 44
0.0
 50
0.0
 51
0.0
 71
     0
 72
   100
 73
     1
 74
     0
 75
     0
 76
     0
 77
     0
 78
     0
281
     0
 65
     1
110
0.0
120
0.0
130
0.0
111
1.0
121
0.0
131
0.0
112
0.0
122
1.0
132
0.0
 79
     0
146
0.0
1001
ACAD_NAV_VCDISPLAY
1070
     3
  0
ENDTAB
  0
TABLE
  2
LTYPE
  5
A0A0
330
0
100
AcDbSymbolTable
 70
     4
  0
LTYPE
  5
A0AE
330
A0A0
100
AcDbSymbolTableRecord
100
AcDbLinetypeTableRecord
  2
BYBLOCK
 70
     0
  3

 72
    65
 73
     0
 40
0.0
  0
LTYPE
  5
A0AF
330
A0A0
100
AcDbSymbolTableRecord
100
AcDbLinetypeTableRecord
  2
BYLAYER
 70
     0
  3

 72
    65
 73
     0
 40
0.0
  0
LTYPE
  5
A0B0
330
A0A0
100
AcDbSymbolTableRecord
100
AcDbLinetypeTableRecord
  2
CONTINUOUS
 70
     0
  3
Solid line
 72
    65
 73
     0
 40
0.0
  0
LTYPE
  5
A0BE
330
A0A0
100
AcDbSymbolTableRecord
100
AcDbLinetypeTableRecord
  2
DASHED
 70
     0
  3
__ __ __ __ __ __ __ __ __ __ __ __ __ __ __ __
 72
    65
 73
     2
 40
0.75
 49
0.5
 74
     0
 49
-0.25
 74
     0
  0
LTYPE
  5
A0BF
330
A0A0
100
AcDbSymbolTableRecord
100
AcDbLinetypeTableRecord
  2
CENTER
 70
     0
  3
____ _ ____ _ ____ _ ____ _ ____ _ ____ _ ____ 
 72
    65
 73
     4
 40
2.0
 49
1.25
 74
     0
 49
-0.25
 74
     0
 49
0.25
 74
     0
 49
-0.25
 74
     0
  0
LTYPE
  5
A0C0
330
A0A0
100
AcDbSymbolTableRecord
100
AcDbLinetypeTableRecord
  2
PHANTOM
 70
     0
  3
______  __  __  ______  __  __  ______  __  __ 
 72
    65
 73
     6
 40
2.5
 49
1.25
 74
     0
 49
-0.25
 74
     0
 49
0.25
 74
     0
 49
-0.25
 74
     0
 49
0.25
 74
     0
 49
-0.25
 74
     0
  0
ENDTAB
  0
TABLE
  2
LAYER
  5
A09D
330
0
100
AcDbSymbolTable
 70
     8
  0
LAYER
  5
A0AB
102
{ACAD_XDICTIONARY
360
A42A
102
}
330
A09D
100
AcDbSymbolTableRecord
100
AcDbLayerTableRecord
  2
0
 70
     0
 62
     7
  6
CONTINUOUS
370
    -3
390
A3D8
  0
LAYER
  5
A0C1
102
{ACAD_XDICTIONARY
360
A42C
102
}
330
A09D
100
AcDbSymbolTableRecord
100
AcDbLayerTableRecord
  2
4
 70
     0
 62
     1
  6
CENTER
370
    -3
390
A3D8
  0
LAYER
  5
A0C2
102
{ACAD_XDICTIONARY
360
A42E
102
}
330
A09D
100
AcDbSymbolTableRecord
100
AcDbLayerTableRecord
  2
5
 70
     0
 62
     6
  6
PHANTOM
370
    -3
390
A3D8
  0
LAYER
  5
A0C3
102
{ACAD_XDICTIONARY
360
A430
102
}
330
A09D
100
AcDbSymbolTableRecord
100
AcDbLayerTableRecord
  2
1
 70
     0
 62
     7
  6
CONTINUOUS
370
    -3
390
A3D8
  0
LAYER
  5
A0C4
102
{ACAD_XDICTIONARY
360
A432
102
}
330
A09D
100
AcDbSymbolTableRecord
100
AcDbLayerTableRecord
  2
2
 70
     0
 62
     4
  6
CONTINUOUS
370
    -3
390
A3D8
  0
LAYER
  5
A0C5
102
{ACAD_XDICTIONARY
360
A434
102
}
330
A09D
100
AcDbSymbolTableRecord
100
AcDbLayerTableRecord
  2
3
 70
     0
 62
     2
  6
DASHED
370
    -3
390
A3D8
  0
LAYER
  5
A0C6
102
{ACAD_XDICTIONARY
360
A436
102
}
330
A09D
100
AcDbSymbolTableRecord
100
AcDbLayerTableRecord
  2
6
 70
     0
 62
     5
  6
CONTINUOUS
370
    -3
390
A3D8
  0
LAYER
  5
A0C7
102
{ACAD_XDICTIONARY
360
A438
102
}
330
A09D
100
AcDbSymbolTableRecord
100
AcDbLayerTableRecord
  2
7
 70
     0
 62
     3
  6
CONTINUOUS
370
    -3
390
A3D8
  0
ENDTAB
  0
TABLE
  2
STYLE
  5
A09E
330
0
100
AcDbSymbolTable
 70
     1
  0
STYLE
  5
A0AC
330
A09E
100
AcDbSymbolTableRecord
100
AcDbTextStyleTableRecord
  2
STANDARD
 70
     0
 40
0.0
 41
1.0
 50
0.0
 71
     0
 42
5.0
  3
txt
  4

  0
ENDTAB
  0
TABLE
  2
VIEW
  5
A0A1
330
0
100
AcDbSymbolTable
 70
     0
  0
ENDTAB
  0
TABLE
  2
UCS
  5
A0A2
330
0
100
AcDbSymbolTable
 70
     0
  0
ENDTAB
  0
TABLE
  2
APPID
  5
A0A4
330
0
100
AcDbSymbolTable
 70
     3
  0
APPID
  5
A0AD
330
A0A4
100
AcDbSymbolTableRecord
100
AcDbRegAppTableRecord
  2
ACAD
 70
     0
  0
APPID
  5
A444
330
A0A4
100
AcDbSymbolTableRecord
100
AcDbRegAppTableRecord
  2
ACAD_NAV_VCDISPLAY
 70
     0
  0
APPID
  5
A47D
330
A0A4
100
AcDbSymbolTableRecord
100
AcDbRegAppTableRecord
  2
ACAD_MLEADERVER
 70
     0
  0
ENDTAB
  0
TABLE
  2
DIMSTYLE
  5
A0A5
330
0
100
AcDbSymbolTable
 70
     1
100
AcDbDimStyleTable
 71
     0
  0
DIMSTYLE
105
A0C9
330
A0A5
100
AcDbSymbolTableRecord
100
AcDbDimStyleTableRecord
  2
STANDARD
 70
     0
 41
3.0
 42
1.0
 43
10.0
 44
1.0
 73
     0
 74
     0
 77
     3
 78
     8
140
3.2
141
0.0
147
1.0
172
     1
173
     1
284
     8
285
     8
286
     8
340
A0AC
  0
ENDTAB
  0
TABLE
  2
BLOCK_RECORD
  5
A09C
330
0
100
AcDbSymbolTable
 70
     1
  0
BLOCK_RECORD
  5
A0B9
102
{ACAD_XDICTIONARY
360
A3D2
102
}
330
A09C
100
AcDbSymbolTableRecord
100
AcDbBlockTableRecord
  2
*MODEL_SPACE
340
A426
  0
BLOCK_RECORD
  5
A0B5
102
{ACAD_XDICTIONARY
360
A3D0
102
}
330
A09C
100
AcDbSymbolTableRecord
100
AcDbBlockTableRecord
  2
*PAPER_SPACE
340
A427
  0
BLOCK_RECORD
  5
A0D1
330
A09C
100
AcDbSymbolTableRecord
100
AcDbBlockTableRecord
  2
_OPEN
340
0
  0
ENDTAB
  0
ENDSEC
  0
SECTION
  2
BLOCKS
  0
BLOCK
  5
A0BA
330
A0B9
100
AcDbEntity
  8
0
100
AcDbBlockBegin
  2
*MODEL_SPACE
 70
     0
 10
0.0
 20
0.0
 30
0.0
  3
*MODEL_SPACE
  1

  0
ENDBLK
  5
A0BB
330
A0B9
100
AcDbEntity
  8
0
100
AcDbBlockEnd
  0
BLOCK
  5
A0B6
330
A0B5
100
AcDbEntity
 67
     1
  8
0
100
AcDbBlockBegin
  2
*PAPER_SPACE
 70
     0
 10
0.0
 20
0.0
 30
0.0
  3
*PAPER_SPACE
  1

  0
ENDBLK
  5
A0B7
330
A0B5
100
AcDbEntity
 67
     1
  8
0
100
AcDbBlockEnd
  0
BLOCK
  5
A0D2
330
A0D1
100
AcDbEntity
  8
0
100
AcDbBlockBegin
  2
_OPEN
 70
     0
 10
0.0
 20
0.0
 30
0.0
  3
_OPEN
  1

  0
LINE
  5
A0D3
330
A0D1
100
AcDbEntity
  8
0
  6
ByBlock
 62
     0
100
AcDbLine
 10
-1.0
 20
0.166667
 30
0.0
 11
0.0
 21
0.0
 31
0.0
  0
LINE
  5
A0D4
330
A0D1
100
AcDbEntity
  8
0
  6
ByBlock
 62
     0
100
AcDbLine
 10
0.0
 20
0.0
 30
0.0
 11
-1.0
 21
-0.166667
 31
0.0
  0
LINE
  5
A0D5
330
A0D1
100
AcDbEntity
  8
0
  6
ByBlock
 62
     0
100
AcDbLine
 10
0.0
 20
0.0
 30
0.0
 11
-1.0
 21
0.0
 31
0.0
  0
ENDBLK
  5
A0D6
330
A0D1
100
AcDbEntity
  8
0
100
AcDbBlockEnd
  0
ENDSEC
  0
SECTION
  2
ENTITIES
  0
TEXT
  5
A0D7
330
A0B9
100
AcDbEntity
  8
7
  6
Continuous
100
AcDbText
 10
10.0
 20
18.0
 30
0.0
 40
3.0
  1
TYPE No.104HB2-PA
100
AcDbText
  0
TEXT
  5
A0D8
330
A0B9
100
AcDbEntity
  8
7
  6
Continuous
100
AcDbText
 10
10.0
 20
26.0
 30
0.0
 40
3.0
  1
CODE No.19077
100
AcDbText
  0
TEXT
  5
A0D9
330
A0B9
100
AcDbEntity
  8
1
  6
Continuous
100
AcDbText
 10
10.0
 20
10.0
 30
0.0
 40
1.399999999999999
  1
LAYER
100
AcDbText
  0
TEXT
  5
A0DA
330
A0B9
100
AcDbEntity
  8
1
  6
Continuous
100
AcDbText
 10
17.97951099999998
 20
10.04873699999998
 30
0.0
 40
1.399999999999999
  1
1
100
AcDbText
  0
TEXT
  5
A0DB
330
A0B9
100
AcDbEntity
  8
7
  6
Continuous
100
AcDbText
 10
29.97951099999999
 20
10.04873699999998
 30
0.0
 40
1.399999999999999
  1
7
100
AcDbText
  0
TEXT
  5
A0DC
330
A0B9
100
AcDbEntity
  8
4
  6
CENTER
100
AcDbText
 10
23.97951099999999
 20
10.04873699999998
 30
0.0
 40
1.399999999999999
  1
4
100
AcDbText
  0
TEXT
  5
A0DD
330
A0B9
100
AcDbEntity
  8
3
  6
DASHED
100
AcDbText
 10
21.979511
 20
10.04873699999998
 30
0.0
 40
1.399999999999999
  1
3
100
AcDbText
  0
TEXT
  5
A0DE
330
A0B9
100
AcDbEntity
  8
2
  6
Continuous
100
AcDbText
 10
19.97951099999999
 20
10.04873699999998
 30
0.0
 40
1.399999999999999
  1
2
100
AcDbText
  0
TEXT
  5
A0DF
330
A0B9
100
AcDbEntity
  8
6
  6
Continuous
100
AcDbText
 10
27.979511
 20
10.04873699999998
 30
0.0
 40
1.399999999999999
  1
6
100
AcDbText
  0
TEXT
  5
A0E0
330
A0B9
100
AcDbEntity
  8
5
  6
PHANTOM
100
AcDbText
 10
25.97951099999999
 20
10.04873699999998
 30
0.0
 40
1.399999999999999
  1
5
100
AcDbText
  0
LINE
  5
A0E1
330
A0B9
100
AcDbEntity
  8
4
  6
CENTER
100
AcDbLine
 10
262.5491049999999
 20
177.237719
 30
0.0
 11
323.749105
 21
177.237719
 31
0.0
  0
LINE
  5
A0E2
330
A0B9
100
AcDbEntity
  8
1
  6
Continuous
100
AcDbLine
 10
271.310177
 20
216.2198609999999
 30
0.0
 11
273.4164609999999
 21
214.1135759999999
 31
0.0
  0
LINE
  5
A0E3
330
A0B9
100
AcDbEntity
  8
1
  6
Continuous
100
AcDbLine
 10
273.4164609999999
 20
216.2198609999999
 30
0.0
 11
271.310177
 21
214.1135759999999
 31
0.0
  0
ARC
  5
A0E4
330
A0B9
100
AcDbEntity
  8
1
  6
Continuous
100
AcDbCircle
 10
277.736967
 20
176.8384969999999
 30
0.0
 40
8.587861
100
AcDbArc
 50
180.0
 51
246.1031999999999
  0
LINE
  5
A0E5
330
A0B9
100
AcDbEntity
  8
1
  6
Continuous
100
AcDbLine
 10
271.676946
 20
219.4398609999999
 30
0.0
 11
316.221265
 21
219.4398609999999
 31
0.0
  0
LINE
  5
A0E6
330
A0B9
100
AcDbEntity
  8
1
  6
Continuous
100
AcDbLine
 10
267.9407569999999
 20
221.2105789999998
 30
0.0
 11
319.9574539999999
 21
221.2105789999998
 31
0.0
  0
LINE
  5
A0E7
330
A0B9
100
AcDbEntity
  8
1
  6
Continuous
100
AcDbLine
 10
270.949105
 20
214.1135759999999
 30
0.0
 11
316.9491049999999
 21
214.1135759999999
 31
0.0
  0
LINE
  5
A0E8
330
A0B9
100
AcDbEntity
  8
1
  6
Continuous
100
AcDbLine
 10
270.949105
 20
216.2198609999999
 30
0.0
 11
316.9491049999999
 21
216.2198609999999
 31
0.0
  0
LINE
  5
A0E9
330
A0B9
100
AcDbEntity
  8
1
  6
Continuous
100
AcDbLine
 10
261.9491049999999
 20
221.637912
 30
0.0
 11
325.9491049999998
 21
221.6376879999998
 31
0.0
  0
ARC
  5
A0EA
330
A0B9
100
AcDbEntity
  8
1
  6
Continuous
100
AcDbCircle
 10
276.762687
 20
214.653888
 30
0.0
 40
6.206
100
AcDbArc
 50
129.539603
 51
140.935699
  0
LINE
  5
A0EB
330
A0B9
100
AcDbEntity
  8
1
  6
Continuous
100
AcDbLine
 10
270.9591049999999
 20
218.2048609999999
 30
0.0
 11
316.9391069999999
 21
218.2048609999999
 31
0.0
  0
LINE
  5
A0EC
330
A0B9
100
AcDbEntity
  8
1
  6
Continuous
100
AcDbLine
 10
261.9491049999999
 20
224.23788
 30
0.0
 11
325.9491049999998
 21
224.238002
 31
0.0
  0
LINE
  5
A0ED
330
A0B9
100
AcDbEntity
  8
1
  6
Continuous
100
AcDbLine
 10
216.9491049999999
 20
224.237595
 30
0.0
 11
152.949105
 21
224.237595
 31
0.0
  0
LINE
  5
A0EE
330
A0B9
100
AcDbEntity
  8
4
  6
CENTER
100
AcDbLine
 10
164.9491049999998
 20
147.237719
 30
0.0
 11
164.9491049999998
 21
205.237719
 31
0.0
  0
LINE
  5
A0EF
330
A0B9
100
AcDbEntity
  8
4
  6
CENTER
100
AcDbLine
 10
192.949105
 20
177.237719
 30
0.0
 11
134.949105
 21
177.237719
 31
0.0
  0
LINE
  5
A0F0
330
A0B9
100
AcDbEntity
  8
4
  6
CENTER
100
AcDbLine
 10
184.949105
 20
229.237595
 30
0.0
 11
184.949105
 21
200.705656
 31
0.0
  0
ARC
  5
A0F1
330
A0B9
100
AcDbEntity
  8
1
  6
Continuous
100
AcDbCircle
 10
152.8057409999999
 20
199.7735839999998
 30
0.0
 40
15.249345
100
AcDbArc
 50
298.317835
 51
9.042707
  0
ARC
  5
A0F2
330
A0B9
100
AcDbEntity
  8
1
  6
Continuous
100
AcDbCircle
 10
169.0874909999998
 20
207.1023729999998
 30
0.0
 40
40.0
100
AcDbArc
 50
275.9384279999998
 51
310.8349
  0
ARC
  5
A0F3
330
A0B9
100
AcDbEntity
  8
1
  6
Continuous
100
AcDbCircle
 10
164.9491049999998
 20
177.237719
 30
0.0
 40
10.34999999999999
100
AcDbArc
 50
118.317835
 51
270.0
  0
ARC
  5
A0F4
330
A0B9
100
AcDbEntity
  8
1
  6
Continuous
100
AcDbCircle
 10
164.9491049999998
 20
246.887719
 30
0.0
 40
80.0
100
AcDbArc
 50
270.0
 51
275.9384279999998
  0
LINE
  5
A0F5
330
A0B9
100
AcDbEntity
  8
1
  6
Continuous
100
AcDbLine
 10
207.149105
 20
214.113291
 30
0.0
 11
161.949105
 21
214.113291
 31
0.0
  0
ARC
  5
A0F6
330
A0B9
100
AcDbEntity
  8
1
  6
Continuous
100
AcDbCircle
 10
163.919117
 20
201.876362
 30
0.0
 40
3.957376
100
AcDbArc
 50
4.260108999999999
 51
90.0
  0
ARC
  5
A0F7
330
A0B9
100
AcDbEntity
  8
1
  6
Continuous
100
AcDbCircle
 10
162.439859
 20
211.513291
 30
0.0
 40
2.6
100
AcDbArc
 50
90.0
 51
194.0
  0
LINE
  5
A0F8
330
A0B9
100
AcDbEntity
  8
1
  6
Continuous
100
AcDbLine
 10
161.1763359999999
 20
205.8337379999999
 30
0.0
 11
159.9170909999999
 21
210.884295
 31
0.0
  0
LINE
  5
A0F9
330
A0B9
100
AcDbEntity
  8
1
  6
Continuous
100
AcDbLine
 10
161.1763359999999
 20
205.8337379999999
 30
0.0
 11
163.919117
 21
205.8337379999999
 31
0.0
  0
LINE
  5
A0FA
330
A0B9
100
AcDbEntity
  8
1
  6
Continuous
100
AcDbLine
 10
269.1491049999999
 20
211.5135759999998
 30
0.0
 11
269.1491049999999
 21
176.8384969999999
 31
0.0
  0
ARC
  5
A0FB
330
A0B9
100
AcDbEntity
  8
1
  6
Continuous
100
AcDbCircle
 10
271.749105
 20
211.5135759999998
 30
0.0
 40
2.6
100
AcDbArc
 50
90.0
 51
180.0
  0
LINE
  5
A0FC
330
A0B9
100
AcDbEntity
  8
1
  6
Continuous
100
AcDbLine
 10
261.9491049999999
 20
221.637912
 30
0.0
 11
261.9491049999999
 21
224.23788
 31
0.0
  0
LINE
  5
A0FD
330
A0B9
100
AcDbEntity
  8
1
  6
Continuous
100
AcDbLine
 10
272.002248
 20
214.1135759999999
 30
0.0
 11
270.949105
 21
215.1667189999999
 31
0.0
  0
LINE
  5
A0FE
330
A0B9
100
AcDbEntity
  8
1
  6
Continuous
100
AcDbLine
 10
272.002248
 20
216.2198609999999
 30
0.0
 11
270.949105
 21
215.1667189999999
 31
0.0
  0
LINE
  5
A0FF
330
A0B9
100
AcDbEntity
  8
1
  6
Continuous
100
AcDbLine
 10
270.949105
 20
214.1135759999999
 30
0.0
 11
270.949105
 21
216.2198609999999
 31
0.0
  0
LINE
  5
A100
330
A0B9
100
AcDbEntity
  8
1
  6
Continuous
100
AcDbLine
 10
271.099105
 20
216.5798609999999
 30
0.0
 11
271.229105
 21
216.2198609999999
 31
0.0
  0
ARC
  5
A101
330
A0B9
100
AcDbEntity
  8
1
  6
Continuous
100
AcDbCircle
 10
274.5605869999999
 20
219.755088
 30
0.0
 40
4.697225
100
AcDbArc
 50
206.286695
 51
222.530249
  0
LINE
  5
A102
330
A0B9
100
AcDbEntity
  8
1
  6
Continuous
100
AcDbLine
 10
271.7741049999998
 20
218.2048609999999
 30
0.0
 11
271.9441049999999
 21
218.5648609999998
 31
0.0
  0
ARC
  5
A103
330
A0B9
100
AcDbEntity
  8
1
  6
Continuous
100
AcDbCircle
 10
271.223076
 20
217.2850079999999
 30
0.0
 40
0.9569799999999998
100
AcDbArc
 50
106.011913
 51
155.9597349999999
  0
ARC
  5
A104
330
A0B9
100
AcDbEntity
  8
1
  6
Continuous
100
AcDbCircle
 10
274.789788
 20
229.3524529999999
 30
0.0
 40
10.63951799999999
100
AcDbArc
 50
229.929097
 51
243.711147
  0
LINE
  5
A105
330
A0B9
100
AcDbEntity
  8
1
  6
Continuous
100
AcDbLine
 10
267.9407569999999
 20
221.2105789999998
 30
0.0
 11
267.901253
 21
221.637891
 31
0.0
  0
ARC
  5
A106
330
A0B9
100
AcDbEntity
  8
1
  6
Continuous
100
AcDbCircle
 10
271.676946
 20
223.05101
 30
0.0
 40
3.611148999999998
100
AcDbArc
 50
243.711147
 51
270.0
  0
LINE
  5
A107
330
A0B9
100
AcDbEntity
  8
4
  6
CENTER
100
AcDbLine
 10
216.1991049999998
 20
276.600764
 30
0.0
 11
203.699105
 21
276.600764
 31
0.0
  0
LINE
  5
A108
330
A0B9
100
AcDbEntity
  8
4
  6
CENTER
100
AcDbLine
 10
216.1991049999998
 20
326.6007640000001
 30
0.0
 11
203.699105
 21
326.6007640000001
 31
0.0
  0
LINE
  5
A109
330
A0B9
100
AcDbEntity
  8
4
  6
CENTER
100
AcDbLine
 10
221.9491049999998
 20
301.6007640000001
 30
0.0
 11
134.949105
 21
301.6007640000001
 31
0.0
  0
ARC
  5
A10A
330
A0B9
100
AcDbEntity
  8
1
  6
Continuous
100
AcDbCircle
 10
209.9491049999998
 20
276.600764
 30
0.0
 40
7.0
100
AcDbArc
 50
270.0
 51
0.0
  0
ARC
  5
A10B
330
A0B9
100
AcDbEntity
  8
1
  6
Continuous
100
AcDbCircle
 10
209.9491049999998
 20
326.6007640000001
 30
0.0
 40
7.0
100
AcDbArc
 50
0.0
 51
90.0
  0
LINE
  5
A10C
330
A0B9
100
AcDbEntity
  8
1
  6
Continuous
100
AcDbLine
 10
216.9491049999999
 20
276.600764
 30
0.0
 11
216.9491049999999
 21
326.6007640000001
 31
0.0
  0
LINE
  5
A10D
330
A0B9
100
AcDbEntity
  8
4
  6
CENTER
100
AcDbLine
 10
184.949105
 20
264.600764
 30
0.0
 11
184.949105
 21
338.600764
 31
0.0
  0
CIRCLE
  5
A10E
330
A0B9
100
AcDbEntity
  8
1
  6
Continuous
100
AcDbCircle
 10
184.949105
 20
301.6007640000001
 30
0.0
 40
23.5
  0
CIRCLE
  5
A10F
330
A0B9
100
AcDbEntity
  8
1
  6
Continuous
100
AcDbCircle
 10
184.949105
 20
301.6007640000001
 30
0.0
 40
21.3
  0
LINE
  5
A110
330
A0B9
100
AcDbEntity
  8
1
  6
Continuous
100
AcDbLine
 10
152.949105
 20
276.600764
 30
0.0
 11
152.949105
 21
326.6007640000001
 31
0.0
  0
LINE
  5
A111
330
A0B9
100
AcDbEntity
  8
1
  6
Continuous
100
AcDbLine
 10
209.9491049999998
 20
269.600764
 30
0.0
 11
159.949105
 21
269.600764
 31
0.0
  0
LINE
  5
A112
330
A0B9
100
AcDbEntity
  8
4
  6
CENTER
100
AcDbLine
 10
209.9491049999998
 20
270.350764
 30
0.0
 11
209.9491049999998
 21
282.8507640000001
 31
0.0
  0
CIRCLE
  5
A113
330
A0B9
100
AcDbEntity
  8
1
  6
Continuous
100
AcDbCircle
 10
209.9491049999998
 20
276.600764
 30
0.0
 40
3.25
  0
LINE
  5
A114
330
A0B9
100
AcDbEntity
  8
4
  6
CENTER
100
AcDbLine
 10
159.949105
 20
270.350764
 30
0.0
 11
159.949105
 21
282.8507640000001
 31
0.0
  0
CIRCLE
  5
A115
330
A0B9
100
AcDbEntity
  8
1
  6
Continuous
100
AcDbCircle
 10
159.949105
 20
276.600764
 30
0.0
 40
3.25
  0
ARC
  5
A116
330
A0B9
100
AcDbEntity
  8
1
  6
Continuous
100
AcDbCircle
 10
159.949105
 20
276.600764
 30
0.0
 40
7.0
100
AcDbArc
 50
180.0
 51
270.0
  0
LINE
  5
A117
330
A0B9
100
AcDbEntity
  8
4
  6
CENTER
100
AcDbLine
 10
166.199105
 20
276.600764
 30
0.0
 11
153.699105
 21
276.600764
 31
0.0
  0
CIRCLE
  5
A118
330
A0B9
100
AcDbEntity
  8
1
  6
Continuous
100
AcDbCircle
 10
184.949105
 20
301.6007640000001
 30
0.0
 40
12.0
  0
LINE
  5
A119
330
A0B9
100
AcDbEntity
  8
1
  6
Continuous
100
AcDbLine
 10
209.9491049999998
 20
333.600764
 30
0.0
 11
159.949105
 21
333.600764
 31
0.0
  0
LINE
  5
A11A
330
A0B9
100
AcDbEntity
  8
4
  6
CENTER
100
AcDbLine
 10
209.9491049999998
 20
320.3507640000001
 30
0.0
 11
209.9491049999998
 21
332.8507640000001
 31
0.0
  0
CIRCLE
  5
A11B
330
A0B9
100
AcDbEntity
  8
1
  6
Continuous
100
AcDbCircle
 10
209.9491049999998
 20
326.6007640000001
 30
0.0
 40
3.25
  0
LINE
  5
A11C
330
A0B9
100
AcDbEntity
  8
4
  6
CENTER
100
AcDbLine
 10
159.949105
 20
320.3507640000001
 30
0.0
 11
159.949105
 21
332.8507640000001
 31
0.0
  0
LINE
  5
A11D
330
A0B9
100
AcDbEntity
  8
4
  6
CENTER
100
AcDbLine
 10
166.199105
 20
326.6007640000001
 30
0.0
 11
153.699105
 21
326.6007640000001
 31
0.0
  0
CIRCLE
  5
A11E
330
A0B9
100
AcDbEntity
  8
1
  6
Continuous
100
AcDbCircle
 10
159.949105
 20
326.6007640000001
 30
0.0
 40
3.25
  0
ARC
  5
A11F
330
A0B9
100
AcDbEntity
  8
1
  6
Continuous
100
AcDbCircle
 10
159.949105
 20
326.6007640000001
 30
0.0
 40
7.0
100
AcDbArc
 50
90.0
 51
180.0
  0
LINE
  5
A120
330
A0B9
100
AcDbEntity
  8
4
  6
CENTER
100
AcDbLine
 10
293.9491049999999
 20
229.237941
 30
0.0
 11
293.9491049999999
 21
147.237719
 31
0.0
  0
LINE
  5
A121
330
A0B9
100
AcDbEntity
  8
1
  6
Continuous
100
AcDbLine
 10
278.4491049999999
 20
196.183422
 30
0.0
 11
278.4491049999999
 21
166.887719
 31
0.0
  0
LINE
  5
A122
330
A0B9
100
AcDbEntity
  8
1
  6
Continuous
100
AcDbLine
 10
312.049105
 20
167.810177
 30
0.0
 11
312.049105
 21
166.887719
 31
0.0
  0
LINE
  5
A123
330
A0B9
100
AcDbEntity
  8
1
  6
Continuous
100
AcDbLine
 10
275.8491049999999
 20
167.810177
 30
0.0
 11
275.8491049999999
 21
166.887719
 31
0.0
  0
LINE
  5
A124
330
A0B9
100
AcDbEntity
  8
1
  6
Continuous
100
AcDbLine
 10
275.8491049999999
 20
166.887719
 30
0.0
 11
278.4491049999999
 21
166.887719
 31
0.0
  0
ARC
  5
A125
330
A0B9
100
AcDbEntity
  8
1
  6
Continuous
100
AcDbCircle
 10
272.4191
 20
164.8362389999998
 30
0.0
 40
4.53974
100
AcDbArc
 50
40.92645
 51
66.1032
  0
LINE
  5
A126
330
A0B9
100
AcDbEntity
  8
1
  6
Continuous
100
AcDbLine
 10
309.4491049999998
 20
166.887719
 30
0.0
 11
312.049105
 21
166.887719
 31
0.0
  0
LINE
  5
A127
330
A0B9
100
AcDbEntity
  8
1
  6
Continuous
100
AcDbLine
 10
303.8370889999999
 20
216.2198609999999
 30
0.0
 11
305.943373
 21
214.1135759999999
 31
0.0
  0
LINE
  5
A128
330
A0B9
100
AcDbEntity
  8
1
  6
Continuous
100
AcDbLine
 10
305.943373
 20
216.2198609999999
 30
0.0
 11
303.8370889999999
 21
214.1135759999999
 31
0.0
  0
LINE
  5
A129
330
A0B9
100
AcDbEntity
  8
1
  6
Continuous
100
AcDbLine
 10
286.768368
 20
205.8337379999999
 30
0.0
 11
301.129907
 21
205.8337379999999
 31
0.0
  0
LINE
  5
A12A
330
A0B9
100
AcDbEntity
  8
1
  6
Continuous
100
AcDbLine
 10
288.2807399999999
 20
216.2198609999999
 30
0.0
 11
290.3870239999998
 21
214.1135759999999
 31
0.0
  0
LINE
  5
A12B
330
A0B9
100
AcDbEntity
  8
1
  6
Continuous
100
AcDbLine
 10
286.8665259999999
 20
216.2198609999999
 30
0.0
 11
288.9728099999999
 21
214.1135759999999
 31
0.0
  0
LINE
  5
A12C
330
A0B9
100
AcDbEntity
  8
1
  6
Continuous
100
AcDbLine
 10
290.3870239999998
 20
216.2198609999999
 30
0.0
 11
288.2807399999999
 21
214.1135759999999
 31
0.0
  0
LINE
  5
A12D
330
A0B9
100
AcDbEntity
  8
1
  6
Continuous
100
AcDbLine
 10
288.9728099999999
 20
216.2198609999999
 30
0.0
 11
286.8665259999999
 21
214.1135759999999
 31
0.0
  0
LINE
  5
A12E
330
A0B9
100
AcDbEntity
  8
1
  6
Continuous
100
AcDbLine
 10
287.099592
 20
203.705928
 30
0.0
 11
300.798624
 21
203.705954
 31
0.0
  0
LINE
  5
A12F
330
A0B9
100
AcDbEntity
  8
1
  6
Continuous
100
AcDbLine
 10
287.099592
 20
203.705928
 30
0.0
 11
286.9910449999999
 21
204.3559409999998
 31
0.0
  0
LINE
  5
A130
330
A0B9
100
AcDbEntity
  8
1
  6
Continuous
100
AcDbLine
 10
279.7954579999998
 20
216.2198609999999
 30
0.0
 11
281.901743
 21
214.1135759999999
 31
0.0
  0
LINE
  5
A131
330
A0B9
100
AcDbEntity
  8
1
  6
Continuous
100
AcDbLine
 10
278.3812449999999
 20
216.2198609999999
 30
0.0
 11
280.487529
 21
214.1135759999999
 31
0.0
  0
LINE
  5
A132
330
A0B9
100
AcDbEntity
  8
1
  6
Continuous
100
AcDbLine
 10
281.901743
 20
216.2198609999999
 30
0.0
 11
279.7954579999998
 21
214.1135759999999
 31
0.0
  0
LINE
  5
A133
330
A0B9
100
AcDbEntity
  8
1
  6
Continuous
100
AcDbLine
 10
280.487529
 20
216.2198609999999
 30
0.0
 11
278.3812449999999
 21
214.1135759999999
 31
0.0
  0
LINE
  5
A134
330
A0B9
100
AcDbEntity
  8
1
  6
Continuous
100
AcDbLine
 10
282.005226
 20
216.2198609999999
 30
0.0
 11
280.30579
 21
216.2198609999999
 31
0.0
  0
LINE
  5
A135
330
A0B9
100
AcDbEntity
  8
1
  6
Continuous
100
AcDbLine
 10
275.552818
 20
216.2198609999999
 30
0.0
 11
277.659102
 21
214.1135759999999
 31
0.0
  0
LINE
  5
A136
330
A0B9
100
AcDbEntity
  8
1
  6
Continuous
100
AcDbLine
 10
277.659102
 20
216.2198609999999
 30
0.0
 11
275.552818
 21
214.1135759999999
 31
0.0
  0
LINE
  5
A137
330
A0B9
100
AcDbEntity
  8
1
  6
Continuous
100
AcDbLine
 10
274.138604
 20
216.2198609999999
 30
0.0
 11
276.2448879999999
 21
214.1135759999999
 31
0.0
  0
LINE
  5
A138
330
A0B9
100
AcDbEntity
  8
1
  6
Continuous
100
AcDbLine
 10
272.7243899999999
 20
216.2198609999999
 30
0.0
 11
274.8306749999999
 21
214.1135759999999
 31
0.0
  0
LINE
  5
A139
330
A0B9
100
AcDbEntity
  8
1
  6
Continuous
100
AcDbLine
 10
276.2448879999999
 20
216.2198609999999
 30
0.0
 11
274.138604
 21
214.1135759999999
 31
0.0
  0
LINE
  5
A13A
330
A0B9
100
AcDbEntity
  8
1
  6
Continuous
100
AcDbLine
 10
274.8306749999999
 20
216.2198609999999
 30
0.0
 11
272.7243899999999
 21
214.1135759999999
 31
0.0
  0
LINE
  5
A13B
330
A0B9
100
AcDbEntity
  8
1
  6
Continuous
100
AcDbLine
 10
276.967031
 20
216.2198609999999
 30
0.0
 11
279.0733149999999
 21
214.1135759999999
 31
0.0
  0
LINE
  5
A13C
330
A0B9
100
AcDbEntity
  8
1
  6
Continuous
100
AcDbLine
 10
279.0733149999999
 20
216.2198609999999
 30
0.0
 11
276.967031
 21
214.1135759999999
 31
0.0
  0
LINE
  5
A13D
330
A0B9
100
AcDbEntity
  8
1
  6
Continuous
100
AcDbLine
 10
284.0380989999999
 20
216.2198609999999
 30
0.0
 11
286.144383
 21
214.1135759999999
 31
0.0
  0
LINE
  5
A13E
330
A0B9
100
AcDbEntity
  8
1
  6
Continuous
100
AcDbLine
 10
282.6238849999999
 20
216.2198609999999
 30
0.0
 11
284.73017
 21
214.1135759999999
 31
0.0
  0
LINE
  5
A13F
330
A0B9
100
AcDbEntity
  8
1
  6
Continuous
100
AcDbLine
 10
286.144383
 20
216.2198609999999
 30
0.0
 11
284.0380989999999
 21
214.1135759999999
 31
0.0
  0
LINE
  5
A140
330
A0B9
100
AcDbEntity
  8
1
  6
Continuous
100
AcDbLine
 10
284.73017
 20
216.2198609999999
 30
0.0
 11
282.6238849999999
 21
214.1135759999999
 31
0.0
  0
LINE
  5
A141
330
A0B9
100
AcDbEntity
  8
1
  6
Continuous
100
AcDbLine
 10
281.2096719999999
 20
216.2198609999999
 30
0.0
 11
283.315956
 21
214.1135759999999
 31
0.0
  0
LINE
  5
A142
330
A0B9
100
AcDbEntity
  8
1
  6
Continuous
100
AcDbLine
 10
283.315956
 20
216.2198609999999
 30
0.0
 11
281.2096719999999
 21
214.1135759999999
 31
0.0
  0
LINE
  5
A143
330
A0B9
100
AcDbEntity
  8
1
  6
Continuous
100
AcDbLine
 10
285.4523119999999
 20
216.2198609999999
 30
0.0
 11
287.558597
 21
214.1135759999999
 31
0.0
  0
LINE
  5
A144
330
A0B9
100
AcDbEntity
  8
1
  6
Continuous
100
AcDbLine
 10
287.558597
 20
216.2198609999999
 30
0.0
 11
285.4523119999999
 21
214.1135759999999
 31
0.0
  0
LINE
  5
A145
330
A0B9
100
AcDbEntity
  8
1
  6
Continuous
100
AcDbLine
 10
285.1485609999999
 20
204.3559409999998
 30
0.0
 11
302.7496479999999
 21
204.3559409999998
 31
0.0
  0
LINE
  5
A146
330
A0B9
100
AcDbEntity
  8
1
  6
Continuous
100
AcDbLine
 10
292.1431819999999
 20
203.705937
 30
0.0
 11
291.38741
 21
204.3559409999998
 31
0.0
  0
LINE
  5
A147
330
A0B9
100
AcDbEntity
  8
1
  6
Continuous
100
AcDbLine
 10
288.9055149999999
 20
203.705931
 30
0.0
 11
289.552746
 21
204.3559409999998
 31
0.0
  0
LINE
  5
A148
330
A0B9
100
AcDbEntity
  8
1
  6
Continuous
100
AcDbLine
 10
295.755029
 20
203.705937
 30
0.0
 11
296.5108009999998
 21
204.3559409999998
 31
0.0
  0
LINE
  5
A149
330
A0B9
100
AcDbEntity
  8
1
  6
Continuous
100
AcDbLine
 10
300.798619
 20
203.705928
 30
0.0
 11
300.9071649999999
 21
204.3559409999998
 31
0.0
  0
LINE
  5
A14A
330
A0B9
100
AcDbEntity
  8
1
  6
Continuous
100
AcDbLine
 10
298.992696
 20
203.705931
 30
0.0
 11
298.345465
 21
204.3559409999998
 31
0.0
  0
LINE
  5
A14B
330
A0B9
100
AcDbEntity
  8
1
  6
Continuous
100
AcDbLine
 10
296.766021
 20
216.2198609999999
 30
0.0
 11
298.8723049999999
 21
214.1135759999999
 31
0.0
  0
LINE
  5
A14C
330
A0B9
100
AcDbEntity
  8
1
  6
Continuous
100
AcDbLine
 10
295.351807
 20
216.2198609999999
 30
0.0
 11
297.4580919999999
 21
214.1135759999999
 31
0.0
  0
LINE
  5
A14D
330
A0B9
100
AcDbEntity
  8
1
  6
Continuous
100
AcDbLine
 10
298.8723049999999
 20
216.2198609999999
 30
0.0
 11
296.766021
 21
214.1135759999999
 31
0.0
  0
LINE
  5
A14E
330
A0B9
100
AcDbEntity
  8
1
  6
Continuous
100
AcDbLine
 10
297.4580919999999
 20
216.2198609999999
 30
0.0
 11
295.351807
 21
214.1135759999999
 31
0.0
  0
LINE
  5
A14F
330
A0B9
100
AcDbEntity
  8
1
  6
Continuous
100
AcDbLine
 10
292.5233799999999
 20
216.2198609999999
 30
0.0
 11
294.6296649999998
 21
214.1135759999999
 31
0.0
  0
LINE
  5
A150
330
A0B9
100
AcDbEntity
  8
1
  6
Continuous
100
AcDbLine
 10
291.109167
 20
216.2198609999999
 30
0.0
 11
293.2154509999999
 21
214.1135759999999
 31
0.0
  0
LINE
  5
A151
330
A0B9
100
AcDbEntity
  8
1
  6
Continuous
100
AcDbLine
 10
294.6296649999998
 20
216.2198609999999
 30
0.0
 11
292.5233799999999
 21
214.1135759999999
 31
0.0
  0
LINE
  5
A152
330
A0B9
100
AcDbEntity
  8
1
  6
Continuous
100
AcDbLine
 10
293.2154509999999
 20
216.2198609999999
 30
0.0
 11
291.109167
 21
214.1135759999999
 31
0.0
  0
LINE
  5
A153
330
A0B9
100
AcDbEntity
  8
1
  6
Continuous
100
AcDbLine
 10
289.694953
 20
216.2198609999999
 30
0.0
 11
291.801238
 21
214.1135759999999
 31
0.0
  0
LINE
  5
A154
330
A0B9
100
AcDbEntity
  8
1
  6
Continuous
100
AcDbLine
 10
291.801238
 20
216.2198609999999
 30
0.0
 11
289.694953
 21
214.1135759999999
 31
0.0
  0
LINE
  5
A155
330
A0B9
100
AcDbEntity
  8
1
  6
Continuous
100
AcDbLine
 10
293.937594
 20
216.2198609999999
 30
0.0
 11
296.043878
 21
214.1135759999999
 31
0.0
  0
LINE
  5
A156
330
A0B9
100
AcDbEntity
  8
1
  6
Continuous
100
AcDbLine
 10
296.043878
 20
216.2198609999999
 30
0.0
 11
293.937594
 21
214.1135759999999
 31
0.0
  0
LINE
  5
A157
330
A0B9
100
AcDbEntity
  8
1
  6
Continuous
100
AcDbLine
 10
299.5944479999998
 20
216.2198609999999
 30
0.0
 11
301.7007319999998
 21
214.1135759999999
 31
0.0
  0
LINE
  5
A158
330
A0B9
100
AcDbEntity
  8
1
  6
Continuous
100
AcDbLine
 10
301.7007319999998
 20
216.2198609999999
 30
0.0
 11
299.5944479999998
 21
214.1135759999999
 31
0.0
  0
LINE
  5
A159
330
A0B9
100
AcDbEntity
  8
1
  6
Continuous
100
AcDbLine
 10
298.1802349999999
 20
216.2198609999999
 30
0.0
 11
300.286519
 21
214.1135759999999
 31
0.0
  0
LINE
  5
A15A
330
A0B9
100
AcDbEntity
  8
1
  6
Continuous
100
AcDbLine
 10
300.286519
 20
216.2198609999999
 30
0.0
 11
298.1802349999999
 21
214.1135759999999
 31
0.0
  0
LINE
  5
A15B
330
A0B9
100
AcDbEntity
  8
1
  6
Continuous
100
AcDbLine
 10
302.4228749999999
 20
216.2198609999999
 30
0.0
 11
304.52916
 21
214.1135759999999
 31
0.0
  0
LINE
  5
A15C
330
A0B9
100
AcDbEntity
  8
1
  6
Continuous
100
AcDbLine
 10
301.008662
 20
216.2198609999999
 30
0.0
 11
303.1149459999999
 21
214.1135759999999
 31
0.0
  0
LINE
  5
A15D
330
A0B9
100
AcDbEntity
  8
1
  6
Continuous
100
AcDbLine
 10
304.52916
 20
216.2198609999999
 30
0.0
 11
302.4228749999999
 21
214.1135759999999
 31
0.0
  0
LINE
  5
A15E
330
A0B9
100
AcDbEntity
  8
1
  6
Continuous
100
AcDbLine
 10
303.1149459999999
 20
216.2198609999999
 30
0.0
 11
301.008662
 21
214.1135759999999
 31
0.0
  0
ARC
  5
A15F
330
A0B9
100
AcDbEntity
  8
1
  6
Continuous
100
AcDbCircle
 10
316.1491049999999
 20
211.5135759999998
 30
0.0
 40
2.6
100
AcDbArc
 50
0.0
 51
90.0
  0
LINE
  5
A160
330
A0B9
100
AcDbEntity
  8
1
  6
Continuous
100
AcDbLine
 10
312.32237
 20
216.2198609999999
 30
0.0
 11
314.4286549999999
 21
214.1135759999999
 31
0.0
  0
LINE
  5
A161
330
A0B9
100
AcDbEntity
  8
1
  6
Continuous
100
AcDbLine
 10
314.4286549999999
 20
216.2198609999999
 30
0.0
 11
312.32237
 21
214.1135759999999
 31
0.0
  0
LINE
  5
A162
330
A0B9
100
AcDbEntity
  8
1
  6
Continuous
100
AcDbLine
 10
308.079729
 20
216.2198609999999
 30
0.0
 11
310.1860139999998
 21
214.1135759999999
 31
0.0
  0
LINE
  5
A163
330
A0B9
100
AcDbEntity
  8
1
  6
Continuous
100
AcDbLine
 10
310.1860139999998
 20
216.2198609999999
 30
0.0
 11
308.079729
 21
214.1135759999999
 31
0.0
  0
LINE
  5
A164
330
A0B9
100
AcDbEntity
  8
1
  6
Continuous
100
AcDbLine
 10
306.665516
 20
216.2198609999999
 30
0.0
 11
308.7717999999999
 21
214.1135759999999
 31
0.0
  0
LINE
  5
A165
330
A0B9
100
AcDbEntity
  8
1
  6
Continuous
100
AcDbLine
 10
305.251302
 20
216.2198609999999
 30
0.0
 11
307.357587
 21
214.1135759999999
 31
0.0
  0
LINE
  5
A166
330
A0B9
100
AcDbEntity
  8
1
  6
Continuous
100
AcDbLine
 10
308.7717999999999
 20
216.2198609999999
 30
0.0
 11
306.665516
 21
214.1135759999999
 31
0.0
  0
LINE
  5
A167
330
A0B9
100
AcDbEntity
  8
1
  6
Continuous
100
AcDbLine
 10
307.357587
 20
216.2198609999999
 30
0.0
 11
305.251302
 21
214.1135759999999
 31
0.0
  0
LINE
  5
A168
330
A0B9
100
AcDbEntity
  8
1
  6
Continuous
100
AcDbLine
 10
310.9081569999998
 20
216.2198609999999
 30
0.0
 11
313.0144409999999
 21
214.1135759999999
 31
0.0
  0
LINE
  5
A169
330
A0B9
100
AcDbEntity
  8
1
  6
Continuous
100
AcDbLine
 10
309.493943
 20
216.2198609999999
 30
0.0
 11
311.600227
 21
214.1135759999999
 31
0.0
  0
LINE
  5
A16A
330
A0B9
100
AcDbEntity
  8
1
  6
Continuous
100
AcDbLine
 10
313.0144409999999
 20
216.2198609999999
 30
0.0
 11
310.9081569999998
 21
214.1135759999999
 31
0.0
  0
LINE
  5
A16B
330
A0B9
100
AcDbEntity
  8
1
  6
Continuous
100
AcDbLine
 10
311.600227
 20
216.2198609999999
 30
0.0
 11
309.493943
 21
214.1135759999999
 31
0.0
  0
ARC
  5
A16C
330
A0B9
100
AcDbEntity
  8
1
  6
Continuous
100
AcDbCircle
 10
311.1355239999999
 20
214.653888
 30
0.0
 40
6.206
100
AcDbArc
 50
39.064301
 51
50.460397
  0
ARC
  5
A16D
330
A0B9
100
AcDbEntity
  8
1
  6
Continuous
100
AcDbCircle
 10
313.337624
 20
219.755088
 30
0.0
 40
4.697225
100
AcDbArc
 50
317.4697509999999
 51
333.713305
  0
ARC
  5
A16E
330
A0B9
100
AcDbEntity
  8
1
  6
Continuous
100
AcDbCircle
 10
316.675135
 20
217.2850079999999
 30
0.0
 40
0.9569799999999998
100
AcDbArc
 50
24.04026499999999
 51
73.98808699999998
  0
LINE
  5
A16F
330
A0B9
100
AcDbEntity
  8
1
  6
Continuous
100
AcDbLine
 10
316.5650109999999
 20
216.2198609999999
 30
0.0
 11
316.9491049999999
 21
215.835766
 31
0.0
  0
LINE
  5
A170
330
A0B9
100
AcDbEntity
  8
1
  6
Continuous
100
AcDbLine
 10
315.150797
 20
216.2198609999999
 30
0.0
 11
316.9491049999999
 21
214.4215529999999
 31
0.0
  0
LINE
  5
A171
330
A0B9
100
AcDbEntity
  8
1
  6
Continuous
100
AcDbLine
 10
313.736584
 20
216.2198609999999
 30
0.0
 11
315.842868
 21
214.1135759999999
 31
0.0
  0
LINE
  5
A172
330
A0B9
100
AcDbEntity
  8
1
  6
Continuous
100
AcDbLine
 10
316.9491049999999
 20
214.4976709999999
 30
0.0
 11
316.5650109999999
 21
214.1135759999999
 31
0.0
  0
LINE
  5
A173
330
A0B9
100
AcDbEntity
  8
1
  6
Continuous
100
AcDbLine
 10
316.9491049999999
 20
215.911885
 30
0.0
 11
315.150797
 21
214.1135759999999
 31
0.0
  0
LINE
  5
A174
330
A0B9
100
AcDbEntity
  8
1
  6
Continuous
100
AcDbLine
 10
315.842868
 20
216.2198609999999
 30
0.0
 11
313.736584
 21
214.1135759999999
 31
0.0
  0
LINE
  5
A175
330
A0B9
100
AcDbEntity
  8
1
  6
Continuous
100
AcDbLine
 10
316.9491049999999
 20
214.1135759999999
 30
0.0
 11
316.9491049999999
 21
216.2198609999999
 31
0.0
  0
LINE
  5
A176
330
A0B9
100
AcDbEntity
  8
1
  6
Continuous
100
AcDbLine
 10
316.7991049999999
 20
216.5798609999999
 30
0.0
 11
316.669105
 21
216.2198609999999
 31
0.0
  0
LINE
  5
A177
330
A0B9
100
AcDbEntity
  8
1
  6
Continuous
100
AcDbLine
 10
316.124105
 20
218.2048609999999
 30
0.0
 11
315.9541049999999
 21
218.5648609999998
 31
0.0
  0
ARC
  5
A178
330
A0B9
100
AcDbEntity
  8
1
  6
Continuous
100
AcDbCircle
 10
316.221265
 20
223.05101
 30
0.0
 40
3.611148999999998
100
AcDbArc
 50
270.0
 51
296.2888529999998
  0
LINE
  5
A179
330
A0B9
100
AcDbEntity
  8
1
  6
Continuous
100
AcDbLine
 10
319.9574539999999
 20
221.2105789999998
 30
0.0
 11
319.996958
 21
221.637891
 31
0.0
  0
ARC
  5
A17A
330
A0B9
100
AcDbEntity
  8
1
  6
Continuous
100
AcDbCircle
 10
313.108423
 20
229.3524529999999
 30
0.0
 40
10.63951799999999
100
AcDbArc
 50
296.2888529999998
 51
310.0709029999998
  0
LINE
  5
A17B
330
A0B9
100
AcDbEntity
  8
1
  6
Continuous
100
AcDbLine
 10
325.9491049999998
 20
221.6376879999998
 30
0.0
 11
325.9491049999998
 21
224.238002
 31
0.0
  0
LINE
  5
A17C
330
A0B9
100
AcDbEntity
  8
1
  6
Continuous
100
AcDbLine
 10
30.949105
 20
224.23788
 30
0.0
 11
94.94910500000001
 21
224.238002
 31
0.0
  0
LINE
  5
A17D
330
A0B9
100
AcDbEntity
  8
1
  6
Continuous
100
AcDbLine
 10
30.949105
 20
221.637912
 30
0.0
 11
94.94910500000001
 21
221.6376879999998
 31
0.0
  0
LINE
  5
A17E
330
A0B9
100
AcDbEntity
  8
4
  6
CENTER
100
AcDbLine
 10
34.849105
 20
177.237719
 30
0.0
 11
94.34910499999999
 21
177.237719
 31
0.0
  0
LINE
  5
A17F
330
A0B9
100
AcDbEntity
  8
4
  6
CENTER
100
AcDbLine
 10
62.949105
 20
229.237941
 30
0.0
 11
62.949105
 21
147.237719
 31
0.0
  0
LINE
  5
A180
330
A0B9
100
AcDbEntity
  8
1
  6
Continuous
100
AcDbLine
 10
38.14910499999999
 20
211.5135759999998
 30
0.0
 11
38.14910499999999
 21
176.8384969999999
 31
0.0
  0
LINE
  5
A181
330
A0B9
100
AcDbEntity
  8
1
  6
Continuous
100
AcDbLine
 10
87.749105
 20
211.5135759999998
 30
0.0
 11
87.749105
 21
183.7568199999998
 31
0.0
  0
LINE
  5
A182
330
A0B9
100
AcDbEntity
  8
1
  6
Continuous
100
AcDbLine
 10
78.44910500000001
 20
203.462735
 30
0.0
 11
78.44910500000001
 21
166.887719
 31
0.0
  0
LINE
  5
A183
330
A0B9
100
AcDbEntity
  8
1
  6
Continuous
100
AcDbLine
 10
47.44910499999998
 20
203.462735
 30
0.0
 11
47.44910499999998
 21
166.887719
 31
0.0
  0
LINE
  5
A184
330
A0B9
100
AcDbEntity
  8
1
  6
Continuous
100
AcDbLine
 10
81.04910499999999
 20
202.8337379999999
 30
0.0
 11
81.04910499999999
 21
166.887719
 31
0.0
  0
LINE
  5
A185
330
A0B9
100
AcDbEntity
  8
1
  6
Continuous
100
AcDbLine
 10
44.849105
 20
202.8337379999999
 30
0.0
 11
44.849105
 21
166.887719
 31
0.0
  0
ARC
  5
A186
330
A0B9
100
AcDbEntity
  8
1
  6
Continuous
100
AcDbCircle
 10
46.73696699999999
 20
176.8384969999999
 30
0.0
 40
8.587861
100
AcDbArc
 50
180.0
 51
246.1031999999999
  0
ARC
  5
A187
330
A0B9
100
AcDbEntity
  8
1
  6
Continuous
100
AcDbCircle
 10
50.349105
 20
177.237719
 30
0.0
 40
10.5
100
AcDbArc
 50
138.1896849999999
 51
221.810315
  0
LINE
  5
A188
330
A0B9
100
AcDbEntity
  8
1
  6
Continuous
100
AcDbLine
 10
42.522868
 20
170.2377189999999
 30
0.0
 11
42.522868
 21
184.237719
 31
0.0
  0
LINE
  5
A189
330
A0B9
100
AcDbEntity
  8
1
  6
Continuous
100
AcDbLine
 10
44.849105
 20
166.887719
 30
0.0
 11
47.44910499999998
 21
166.887719
 31
0.0
  0
ARC
  5
A18A
330
A0B9
100
AcDbEntity
  8
1
  6
Continuous
100
AcDbCircle
 10
41.4191
 20
164.8362389999998
 30
0.0
 40
4.53974
100
AcDbArc
 50
40.92645
 51
66.1032
  0
LINE
  5
A18B
330
A0B9
100
AcDbEntity
  8
1
  6
Continuous
100
AcDbLine
 10
42.522868
 20
170.2377189999999
 30
0.0
 11
44.849105
 21
170.2377189999999
 31
0.0
  0
LINE
  5
A18C
330
A0B9
100
AcDbEntity
  8
1
  6
Continuous
100
AcDbLine
 10
42.522868
 20
184.237719
 30
0.0
 11
44.849105
 21
184.237719
 31
0.0
  0
LINE
  5
A18D
330
A0B9
100
AcDbEntity
  8
1
  6
Continuous
100
AcDbLine
 10
88.34910500000002
 20
173.237719
 30
0.0
 11
88.34910500000002
 21
181.237719
 31
0.0
  0
LINE
  5
A18E
330
A0B9
100
AcDbEntity
  8
1
  6
Continuous
100
AcDbLine
 10
83.04910500000003
 20
169.737719
 30
0.0
 11
83.04910500000003
 21
184.7377189999999
 31
0.0
  0
LINE
  5
A18F
330
A0B9
100
AcDbEntity
  8
1
  6
Continuous
100
AcDbLine
 10
81.04910499999999
 20
169.737719
 30
0.0
 11
83.04910500000003
 21
169.737719
 31
0.0
  0
ARC
  5
A190
330
A0B9
100
AcDbEntity
  8
1
  6
Continuous
100
AcDbCircle
 10
84.479111
 20
164.8362389999998
 30
0.0
 40
4.53974
100
AcDbArc
 50
113.8967999999999
 51
139.07355
  0
LINE
  5
A191
330
A0B9
100
AcDbEntity
  8
1
  6
Continuous
100
AcDbLine
 10
78.44910500000001
 20
166.887719
 30
0.0
 11
81.04910499999999
 21
166.887719
 31
0.0
  0
ARC
  5
A192
330
A0B9
100
AcDbEntity
  8
1
  6
Continuous
100
AcDbCircle
 10
79.16124399999998
 20
176.8384969999999
 30
0.0
 40
8.587861
100
AcDbArc
 50
293.8968
 51
310.513145
  0
LINE
  5
A193
330
A0B9
100
AcDbEntity
  8
1
  6
Continuous
100
AcDbLine
 10
88.04910500000003
 20
173.237719
 30
0.0
 11
88.34910500000002
 21
173.237719
 31
0.0
  0
LINE
  5
A194
330
A0B9
100
AcDbEntity
  8
1
  6
Continuous
100
AcDbLine
 10
81.04910499999999
 20
184.7377189999999
 30
0.0
 11
83.04910500000003
 21
184.7377189999999
 31
0.0
  0
LINE
  5
A195
330
A0B9
100
AcDbEntity
  8
1
  6
Continuous
100
AcDbLine
 10
88.04910500000003
 20
181.237719
 30
0.0
 11
88.34910500000002
 21
181.237719
 31
0.0
  0
LINE
  5
A196
330
A0B9
100
AcDbEntity
  8
1
  6
Continuous
100
AcDbLine
 10
81.04910499999999
 20
175.2377189999999
 30
0.0
 11
83.04910500000003
 21
177.237719
 31
0.0
  0
LINE
  5
A197
330
A0B9
100
AcDbEntity
  8
1
  6
Continuous
100
AcDbLine
 10
81.04910499999999
 20
177.237719
 30
0.0
 11
83.04910500000003
 21
179.237719
 31
0.0
  0
LINE
  5
A198
330
A0B9
100
AcDbEntity
  8
1
  6
Continuous
100
AcDbLine
 10
47.849105
 20
205.8337379999999
 30
0.0
 11
78.04910500000002
 21
205.8337379999999
 31
0.0
  0
LINE
  5
A199
330
A0B9
100
AcDbEntity
  8
1
  6
Continuous
100
AcDbLine
 10
39.94910499999999
 20
214.1135759999999
 30
0.0
 11
85.94910500000002
 21
214.1135759999999
 31
0.0
  0
LINE
  5
A19A
330
A0B9
100
AcDbEntity
  8
1
  6
Continuous
100
AcDbLine
 10
39.94910499999999
 20
216.2198609999999
 30
0.0
 11
85.94910500000002
 21
216.2198609999999
 31
0.0
  0
LINE
  5
A19B
330
A0B9
100
AcDbEntity
  8
1
  6
Continuous
100
AcDbLine
 10
39.959105
 20
218.2048609999999
 30
0.0
 11
85.939107
 21
218.2048609999999
 31
0.0
  0
LINE
  5
A19C
330
A0B9
100
AcDbEntity
  8
1
  6
Continuous
100
AcDbLine
 10
36.94075699999999
 20
221.2105789999998
 30
0.0
 11
88.957454
 21
221.2105789999998
 31
0.0
  0
LINE
  5
A19D
330
A0B9
100
AcDbEntity
  8
1
  6
Continuous
100
AcDbLine
 10
40.676946
 20
219.4398609999999
 30
0.0
 11
85.221265
 21
219.4398609999999
 31
0.0
  0
LINE
  5
A19E
330
A0B9
100
AcDbEntity
  8
1
  6
Continuous
100
AcDbLine
 10
51.926703
 20
204.3559409999998
 30
0.0
 11
73.96832100000001
 21
204.3559409999998
 31
0.0
  0
LINE
  5
A19F
330
A0B9
100
AcDbEntity
  8
1
  6
Continuous
100
AcDbLine
 10
55.866526
 20
216.2198609999999
 30
0.0
 11
57.97280999999999
 21
214.1135759999999
 31
0.0
  0
LINE
  5
A1A0
330
A0B9
100
AcDbEntity
  8
1
  6
Continuous
100
AcDbLine
 10
57.97280999999999
 20
216.2198609999999
 30
0.0
 11
55.866526
 21
214.1135759999999
 31
0.0
  0
LINE
  5
A1A1
330
A0B9
100
AcDbEntity
  8
1
  6
Continuous
100
AcDbLine
 10
56.099592
 20
203.705928
 30
0.0
 11
69.798624
 21
203.705954
 31
0.0
  0
LINE
  5
A1A2
330
A0B9
100
AcDbEntity
  8
1
  6
Continuous
100
AcDbLine
 10
40.774105
 20
218.2048609999999
 30
0.0
 11
40.944105
 21
218.5648609999998
 31
0.0
  0
ARC
  5
A1A3
330
A0B9
100
AcDbEntity
  8
1
  6
Continuous
100
AcDbCircle
 10
40.223076
 20
217.2850079999999
 30
0.0
 40
0.9569799999999998
100
AcDbArc
 50
106.011913
 51
155.9597349999999
  0
LINE
  5
A1A4
330
A0B9
100
AcDbEntity
  8
1
  6
Continuous
100
AcDbLine
 10
40.310177
 20
216.2198609999999
 30
0.0
 11
42.41646099999999
 21
214.1135759999999
 31
0.0
  0
LINE
  5
A1A5
330
A0B9
100
AcDbEntity
  8
1
  6
Continuous
100
AcDbLine
 10
42.41646099999999
 20
216.2198609999999
 30
0.0
 11
40.310177
 21
214.1135759999999
 31
0.0
  0
ARC
  5
A1A6
330
A0B9
100
AcDbEntity
  8
1
  6
Continuous
100
AcDbCircle
 10
40.749105
 20
211.5135759999998
 30
0.0
 40
2.6
100
AcDbArc
 50
90.0
 51
180.0
  0
LINE
  5
A1A7
330
A0B9
100
AcDbEntity
  8
1
  6
Continuous
100
AcDbLine
 10
41.002248
 20
214.1135759999999
 30
0.0
 11
39.94910499999999
 21
215.1667189999999
 31
0.0
  0
LINE
  5
A1A8
330
A0B9
100
AcDbEntity
  8
1
  6
Continuous
100
AcDbLine
 10
41.002248
 20
216.2198609999999
 30
0.0
 11
39.94910499999999
 21
215.1667189999999
 31
0.0
  0
LINE
  5
A1A9
330
A0B9
100
AcDbEntity
  8
1
  6
Continuous
100
AcDbLine
 10
39.94910499999999
 20
214.1135759999999
 30
0.0
 11
39.94910499999999
 21
216.2198609999999
 31
0.0
  0
LINE
  5
A1AA
330
A0B9
100
AcDbEntity
  8
1
  6
Continuous
100
AcDbLine
 10
40.099105
 20
216.5798609999999
 30
0.0
 11
40.229105
 21
216.2198609999999
 31
0.0
  0
ARC
  5
A1AB
330
A0B9
100
AcDbEntity
  8
1
  6
Continuous
100
AcDbCircle
 10
43.560587
 20
219.755088
 30
0.0
 40
4.697225
100
AcDbArc
 50
206.286695
 51
222.530249
  0
ARC
  5
A1AC
330
A0B9
100
AcDbEntity
  8
1
  6
Continuous
100
AcDbCircle
 10
54.904198
 20
215.4059269999999
 30
0.0
 40
11.74961399999999
100
AcDbArc
 50
236.2674930000001
 51
243.5265999999999
  0
ARC
  5
A1AD
330
A0B9
100
AcDbEntity
  8
1
  6
Continuous
100
AcDbCircle
 10
47.849105
 20
202.8337379999999
 30
0.0
 40
3.0
100
AcDbArc
 50
90.0
 51
180.0
  0
ARC
  5
A1AE
330
A0B9
100
AcDbEntity
  8
1
  6
Continuous
100
AcDbCircle
 10
50.449105
 20
203.462735
 30
0.0
 40
3.0
100
AcDbArc
 50
127.7832309999998
 51
180.0
  0
ARC
  5
A1AF
330
A0B9
100
AcDbEntity
  8
1
  6
Continuous
100
AcDbCircle
 10
51.92989
 20
209.4334439999999
 30
0.0
 40
5.077504
100
AcDbArc
 50
243.5265999999999
 51
270.0
  0
LINE
  5
A1B0
330
A0B9
100
AcDbEntity
  8
1
  6
Continuous
100
AcDbLine
 10
56.099592
 20
203.705928
 30
0.0
 11
55.99104499999999
 21
204.3559409999998
 31
0.0
  0
LINE
  5
A1B1
330
A0B9
100
AcDbEntity
  8
1
  6
Continuous
100
AcDbLine
 10
48.795458
 20
216.2198609999999
 30
0.0
 11
50.90174300000001
 21
214.1135759999999
 31
0.0
  0
LINE
  5
A1B2
330
A0B9
100
AcDbEntity
  8
1
  6
Continuous
100
AcDbLine
 10
47.381245
 20
216.2198609999999
 30
0.0
 11
49.48752899999998
 21
214.1135759999999
 31
0.0
  0
LINE
  5
A1B3
330
A0B9
100
AcDbEntity
  8
1
  6
Continuous
100
AcDbLine
 10
50.90174300000001
 20
216.2198609999999
 30
0.0
 11
48.795458
 21
214.1135759999999
 31
0.0
  0
LINE
  5
A1B4
330
A0B9
100
AcDbEntity
  8
1
  6
Continuous
100
AcDbLine
 10
49.48752899999998
 20
216.2198609999999
 30
0.0
 11
47.381245
 21
214.1135759999999
 31
0.0
  0
LINE
  5
A1B5
330
A0B9
100
AcDbEntity
  8
1
  6
Continuous
100
AcDbLine
 10
51.005226
 20
216.2198609999999
 30
0.0
 11
49.30579
 21
216.2198609999999
 31
0.0
  0
LINE
  5
A1B6
330
A0B9
100
AcDbEntity
  8
1
  6
Continuous
100
AcDbLine
 10
44.552818
 20
216.2198609999999
 30
0.0
 11
46.65910199999999
 21
214.1135759999999
 31
0.0
  0
LINE
  5
A1B7
330
A0B9
100
AcDbEntity
  8
1
  6
Continuous
100
AcDbLine
 10
46.65910199999999
 20
216.2198609999999
 30
0.0
 11
44.552818
 21
214.1135759999999
 31
0.0
  0
LINE
  5
A1B8
330
A0B9
100
AcDbEntity
  8
1
  6
Continuous
100
AcDbLine
 10
43.138604
 20
216.2198609999999
 30
0.0
 11
45.244888
 21
214.1135759999999
 31
0.0
  0
LINE
  5
A1B9
330
A0B9
100
AcDbEntity
  8
1
  6
Continuous
100
AcDbLine
 10
41.72438999999999
 20
216.2198609999999
 30
0.0
 11
43.830675
 21
214.1135759999999
 31
0.0
  0
LINE
  5
A1BA
330
A0B9
100
AcDbEntity
  8
1
  6
Continuous
100
AcDbLine
 10
45.244888
 20
216.2198609999999
 30
0.0
 11
43.138604
 21
214.1135759999999
 31
0.0
  0
LINE
  5
A1BB
330
A0B9
100
AcDbEntity
  8
1
  6
Continuous
100
AcDbLine
 10
43.830675
 20
216.2198609999999
 30
0.0
 11
41.72438999999999
 21
214.1135759999999
 31
0.0
  0
LINE
  5
A1BC
330
A0B9
100
AcDbEntity
  8
1
  6
Continuous
100
AcDbLine
 10
45.967031
 20
216.2198609999999
 30
0.0
 11
48.073315
 21
214.1135759999999
 31
0.0
  0
LINE
  5
A1BD
330
A0B9
100
AcDbEntity
  8
1
  6
Continuous
100
AcDbLine
 10
48.073315
 20
216.2198609999999
 30
0.0
 11
45.967031
 21
214.1135759999999
 31
0.0
  0
LINE
  5
A1BE
330
A0B9
100
AcDbEntity
  8
1
  6
Continuous
100
AcDbLine
 10
53.038099
 20
216.2198609999999
 30
0.0
 11
55.144383
 21
214.1135759999999
 31
0.0
  0
LINE
  5
A1BF
330
A0B9
100
AcDbEntity
  8
1
  6
Continuous
100
AcDbLine
 10
51.62388499999998
 20
216.2198609999999
 30
0.0
 11
53.73016999999999
 21
214.1135759999999
 31
0.0
  0
LINE
  5
A1C0
330
A0B9
100
AcDbEntity
  8
1
  6
Continuous
100
AcDbLine
 10
55.144383
 20
216.2198609999999
 30
0.0
 11
53.038099
 21
214.1135759999999
 31
0.0
  0
LINE
  5
A1C1
330
A0B9
100
AcDbEntity
  8
1
  6
Continuous
100
AcDbLine
 10
53.73016999999999
 20
216.2198609999999
 30
0.0
 11
51.62388499999998
 21
214.1135759999999
 31
0.0
  0
LINE
  5
A1C2
330
A0B9
100
AcDbEntity
  8
1
  6
Continuous
100
AcDbLine
 10
50.209672
 20
216.2198609999999
 30
0.0
 11
52.315956
 21
214.1135759999999
 31
0.0
  0
LINE
  5
A1C3
330
A0B9
100
AcDbEntity
  8
1
  6
Continuous
100
AcDbLine
 10
52.315956
 20
216.2198609999999
 30
0.0
 11
50.209672
 21
214.1135759999999
 31
0.0
  0
LINE
  5
A1C4
330
A0B9
100
AcDbEntity
  8
1
  6
Continuous
100
AcDbLine
 10
54.452312
 20
216.2198609999999
 30
0.0
 11
56.558597
 21
214.1135759999999
 31
0.0
  0
LINE
  5
A1C5
330
A0B9
100
AcDbEntity
  8
1
  6
Continuous
100
AcDbLine
 10
56.558597
 20
216.2198609999999
 30
0.0
 11
54.452312
 21
214.1135759999999
 31
0.0
  0
ARC
  5
A1C6
330
A0B9
100
AcDbEntity
  8
1
  6
Continuous
100
AcDbCircle
 10
45.76268699999999
 20
214.653888
 30
0.0
 40
6.206
100
AcDbArc
 50
129.539603
 51
140.935699
  0
LINE
  5
A1C7
330
A0B9
100
AcDbEntity
  8
1
  6
Continuous
100
AcDbLine
 10
30.949105
 20
221.637912
 30
0.0
 11
30.949105
 21
224.23788
 31
0.0
  0
ARC
  5
A1C8
330
A0B9
100
AcDbEntity
  8
1
  6
Continuous
100
AcDbCircle
 10
43.789788
 20
229.3524529999999
 30
0.0
 40
10.63951799999999
100
AcDbArc
 50
229.929097
 51
243.711147
  0
LINE
  5
A1C9
330
A0B9
100
AcDbEntity
  8
1
  6
Continuous
100
AcDbLine
 10
36.94075699999999
 20
221.2105789999998
 30
0.0
 11
36.901253
 21
221.637891
 31
0.0
  0
ARC
  5
A1CA
330
A0B9
100
AcDbEntity
  8
1
  6
Continuous
100
AcDbCircle
 10
40.676946
 20
223.05101
 30
0.0
 40
3.611148999999998
100
AcDbArc
 50
243.711147
 51
270.0
  0
ARC
  5
A1CB
330
A0B9
100
AcDbEntity
  8
1
  6
Continuous
100
AcDbCircle
 10
85.67513499999998
 20
217.2850079999999
 30
0.0
 40
0.9569799999999998
100
AcDbArc
 50
24.04026499999999
 51
73.98808699999998
  0
LINE
  5
A1CC
330
A0B9
100
AcDbEntity
  8
1
  6
Continuous
100
AcDbLine
 10
85.12410499999999
 20
218.2048609999999
 30
0.0
 11
84.954105
 21
218.5648609999998
 31
0.0
  0
LINE
  5
A1CD
330
A0B9
100
AcDbEntity
  8
1
  6
Continuous
100
AcDbLine
 10
72.837089
 20
216.2198609999999
 30
0.0
 11
74.94337299999997
 21
214.1135759999999
 31
0.0
  0
LINE
  5
A1CE
330
A0B9
100
AcDbEntity
  8
1
  6
Continuous
100
AcDbLine
 10
74.94337299999997
 20
216.2198609999999
 30
0.0
 11
72.837089
 21
214.1135759999999
 31
0.0
  0
LINE
  5
A1CF
330
A0B9
100
AcDbEntity
  8
1
  6
Continuous
100
AcDbLine
 10
71.42287500000001
 20
216.2198609999999
 30
0.0
 11
73.52916
 21
214.1135759999999
 31
0.0
  0
LINE
  5
A1D0
330
A0B9
100
AcDbEntity
  8
1
  6
Continuous
100
AcDbLine
 10
73.52916
 20
216.2198609999999
 30
0.0
 11
71.42287500000001
 21
214.1135759999999
 31
0.0
  0
LINE
  5
A1D1
330
A0B9
100
AcDbEntity
  8
1
  6
Continuous
100
AcDbLine
 10
57.28074
 20
216.2198609999999
 30
0.0
 11
59.387024
 21
214.1135759999999
 31
0.0
  0
LINE
  5
A1D2
330
A0B9
100
AcDbEntity
  8
1
  6
Continuous
100
AcDbLine
 10
59.387024
 20
216.2198609999999
 30
0.0
 11
57.28074
 21
214.1135759999999
 31
0.0
  0
LINE
  5
A1D3
330
A0B9
100
AcDbEntity
  8
1
  6
Continuous
100
AcDbLine
 10
61.14318199999999
 20
203.705937
 30
0.0
 11
60.38740999999999
 21
204.3559409999998
 31
0.0
  0
LINE
  5
A1D4
330
A0B9
100
AcDbEntity
  8
1
  6
Continuous
100
AcDbLine
 10
57.905515
 20
203.705931
 30
0.0
 11
58.552746
 21
204.3559409999998
 31
0.0
  0
LINE
  5
A1D5
330
A0B9
100
AcDbEntity
  8
1
  6
Continuous
100
AcDbLine
 10
64.75502900000001
 20
203.705937
 30
0.0
 11
65.510801
 21
204.3559409999998
 31
0.0
  0
LINE
  5
A1D6
330
A0B9
100
AcDbEntity
  8
1
  6
Continuous
100
AcDbLine
 10
69.79861899999999
 20
203.705928
 30
0.0
 11
69.90716500000001
 21
204.3559409999998
 31
0.0
  0
LINE
  5
A1D7
330
A0B9
100
AcDbEntity
  8
1
  6
Continuous
100
AcDbLine
 10
67.99269599999999
 20
203.705931
 30
0.0
 11
67.345465
 21
204.3559409999998
 31
0.0
  0
LINE
  5
A1D8
330
A0B9
100
AcDbEntity
  8
1
  6
Continuous
100
AcDbLine
 10
65.76602099999999
 20
216.2198609999999
 30
0.0
 11
67.87230500000001
 21
214.1135759999999
 31
0.0
  0
LINE
  5
A1D9
330
A0B9
100
AcDbEntity
  8
1
  6
Continuous
100
AcDbLine
 10
64.351807
 20
216.2198609999999
 30
0.0
 11
66.45809200000001
 21
214.1135759999999
 31
0.0
  0
LINE
  5
A1DA
330
A0B9
100
AcDbEntity
  8
1
  6
Continuous
100
AcDbLine
 10
67.87230500000001
 20
216.2198609999999
 30
0.0
 11
65.76602099999999
 21
214.1135759999999
 31
0.0
  0
LINE
  5
A1DB
330
A0B9
100
AcDbEntity
  8
1
  6
Continuous
100
AcDbLine
 10
66.45809200000001
 20
216.2198609999999
 30
0.0
 11
64.351807
 21
214.1135759999999
 31
0.0
  0
LINE
  5
A1DC
330
A0B9
100
AcDbEntity
  8
1
  6
Continuous
100
AcDbLine
 10
61.52338
 20
216.2198609999999
 30
0.0
 11
63.629665
 21
214.1135759999999
 31
0.0
  0
LINE
  5
A1DD
330
A0B9
100
AcDbEntity
  8
1
  6
Continuous
100
AcDbLine
 10
60.10916700000001
 20
216.2198609999999
 30
0.0
 11
62.215451
 21
214.1135759999999
 31
0.0
  0
LINE
  5
A1DE
330
A0B9
100
AcDbEntity
  8
1
  6
Continuous
100
AcDbLine
 10
63.629665
 20
216.2198609999999
 30
0.0
 11
61.52338
 21
214.1135759999999
 31
0.0
  0
LINE
  5
A1DF
330
A0B9
100
AcDbEntity
  8
1
  6
Continuous
100
AcDbLine
 10
62.215451
 20
216.2198609999999
 30
0.0
 11
60.10916700000001
 21
214.1135759999999
 31
0.0
  0
LINE
  5
A1E0
330
A0B9
100
AcDbEntity
  8
1
  6
Continuous
100
AcDbLine
 10
58.694953
 20
216.2198609999999
 30
0.0
 11
60.80123799999999
 21
214.1135759999999
 31
0.0
  0
LINE
  5
A1E1
330
A0B9
100
AcDbEntity
  8
1
  6
Continuous
100
AcDbLine
 10
60.80123799999999
 20
216.2198609999999
 30
0.0
 11
58.694953
 21
214.1135759999999
 31
0.0
  0
LINE
  5
A1E2
330
A0B9
100
AcDbEntity
  8
1
  6
Continuous
100
AcDbLine
 10
62.93759399999999
 20
216.2198609999999
 30
0.0
 11
65.043878
 21
214.1135759999999
 31
0.0
  0
LINE
  5
A1E3
330
A0B9
100
AcDbEntity
  8
1
  6
Continuous
100
AcDbLine
 10
65.043878
 20
216.2198609999999
 30
0.0
 11
62.93759399999999
 21
214.1135759999999
 31
0.0
  0
LINE
  5
A1E4
330
A0B9
100
AcDbEntity
  8
1
  6
Continuous
100
AcDbLine
 10
68.594448
 20
216.2198609999999
 30
0.0
 11
70.70073199999999
 21
214.1135759999999
 31
0.0
  0
LINE
  5
A1E5
330
A0B9
100
AcDbEntity
  8
1
  6
Continuous
100
AcDbLine
 10
70.70073199999999
 20
216.2198609999999
 30
0.0
 11
68.594448
 21
214.1135759999999
 31
0.0
  0
LINE
  5
A1E6
330
A0B9
100
AcDbEntity
  8
1
  6
Continuous
100
AcDbLine
 10
67.180235
 20
216.2198609999999
 30
0.0
 11
69.286519
 21
214.1135759999999
 31
0.0
  0
LINE
  5
A1E7
330
A0B9
100
AcDbEntity
  8
1
  6
Continuous
100
AcDbLine
 10
69.286519
 20
216.2198609999999
 30
0.0
 11
67.180235
 21
214.1135759999999
 31
0.0
  0
LINE
  5
A1E8
330
A0B9
100
AcDbEntity
  8
1
  6
Continuous
100
AcDbLine
 10
70.008662
 20
216.2198609999999
 30
0.0
 11
72.114946
 21
214.1135759999999
 31
0.0
  0
LINE
  5
A1E9
330
A0B9
100
AcDbEntity
  8
1
  6
Continuous
100
AcDbLine
 10
72.114946
 20
216.2198609999999
 30
0.0
 11
70.008662
 21
214.1135759999999
 31
0.0
  0
ARC
  5
A1EA
330
A0B9
100
AcDbEntity
  8
1
  6
Continuous
100
AcDbCircle
 10
73.96832100000001
 20
209.4334439999999
 30
0.0
 40
5.077504
100
AcDbArc
 50
270.0
 51
296.4734
  0
ARC
  5
A1EB
330
A0B9
100
AcDbEntity
  8
1
  6
Continuous
100
AcDbCircle
 10
85.149105
 20
211.5135759999998
 30
0.0
 40
2.6
100
AcDbArc
 50
0.0
 51
90.0
  0
ARC
  5
A1EC
330
A0B9
100
AcDbEntity
  8
1
  6
Continuous
100
AcDbCircle
 10
78.04910500000002
 20
202.8337379999999
 30
0.0
 40
3.0
100
AcDbArc
 50
0.0
 51
90.0
  0
ARC
  5
A1ED
330
A0B9
100
AcDbEntity
  8
1
  6
Continuous
100
AcDbCircle
 10
75.449105
 20
203.462735
 30
0.0
 40
3.0
100
AcDbArc
 50
0.0
 51
52.216769
  0
ARC
  5
A1EE
330
A0B9
100
AcDbEntity
  8
1
  6
Continuous
100
AcDbCircle
 10
70.994013
 20
215.4059269999999
 30
0.0
 40
11.74961399999999
100
AcDbArc
 50
296.4734
 51
303.732507
  0
LINE
  5
A1EF
330
A0B9
100
AcDbEntity
  8
1
  6
Continuous
100
AcDbLine
 10
81.32236999999998
 20
216.2198609999999
 30
0.0
 11
83.428655
 21
214.1135759999999
 31
0.0
  0
LINE
  5
A1F0
330
A0B9
100
AcDbEntity
  8
1
  6
Continuous
100
AcDbLine
 10
83.428655
 20
216.2198609999999
 30
0.0
 11
81.32236999999998
 21
214.1135759999999
 31
0.0
  0
LINE
  5
A1F1
330
A0B9
100
AcDbEntity
  8
1
  6
Continuous
100
AcDbLine
 10
77.079729
 20
216.2198609999999
 30
0.0
 11
79.186014
 21
214.1135759999999
 31
0.0
  0
LINE
  5
A1F2
330
A0B9
100
AcDbEntity
  8
1
  6
Continuous
100
AcDbLine
 10
79.186014
 20
216.2198609999999
 30
0.0
 11
77.079729
 21
214.1135759999999
 31
0.0
  0
LINE
  5
A1F3
330
A0B9
100
AcDbEntity
  8
1
  6
Continuous
100
AcDbLine
 10
75.66551599999998
 20
216.2198609999999
 30
0.0
 11
77.7718
 21
214.1135759999999
 31
0.0
  0
LINE
  5
A1F4
330
A0B9
100
AcDbEntity
  8
1
  6
Continuous
100
AcDbLine
 10
74.25130199999998
 20
216.2198609999999
 30
0.0
 11
76.35758699999998
 21
214.1135759999999
 31
0.0
  0
LINE
  5
A1F5
330
A0B9
100
AcDbEntity
  8
1
  6
Continuous
100
AcDbLine
 10
77.7718
 20
216.2198609999999
 30
0.0
 11
75.66551599999998
 21
214.1135759999999
 31
0.0
  0
LINE
  5
A1F6
330
A0B9
100
AcDbEntity
  8
1
  6
Continuous
100
AcDbLine
 10
76.35758699999998
 20
216.2198609999999
 30
0.0
 11
74.25130199999998
 21
214.1135759999999
 31
0.0
  0
LINE
  5
A1F7
330
A0B9
100
AcDbEntity
  8
1
  6
Continuous
100
AcDbLine
 10
79.90815699999997
 20
216.2198609999999
 30
0.0
 11
82.01444100000001
 21
214.1135759999999
 31
0.0
  0
LINE
  5
A1F8
330
A0B9
100
AcDbEntity
  8
1
  6
Continuous
100
AcDbLine
 10
78.493943
 20
216.2198609999999
 30
0.0
 11
80.60022700000002
 21
214.1135759999999
 31
0.0
  0
LINE
  5
A1F9
330
A0B9
100
AcDbEntity
  8
1
  6
Continuous
100
AcDbLine
 10
82.01444100000001
 20
216.2198609999999
 30
0.0
 11
79.90815699999997
 21
214.1135759999999
 31
0.0
  0
LINE
  5
A1FA
330
A0B9
100
AcDbEntity
  8
1
  6
Continuous
100
AcDbLine
 10
80.60022700000002
 20
216.2198609999999
 30
0.0
 11
78.493943
 21
214.1135759999999
 31
0.0
  0
ARC
  5
A1FB
330
A0B9
100
AcDbEntity
  8
1
  6
Continuous
100
AcDbCircle
 10
82.33762400000001
 20
219.755088
 30
0.0
 40
4.697225
100
AcDbArc
 50
317.4697509999999
 51
333.713305
  0
LINE
  5
A1FC
330
A0B9
100
AcDbEntity
  8
1
  6
Continuous
100
AcDbLine
 10
85.565011
 20
216.2198609999999
 30
0.0
 11
85.94910500000002
 21
215.835766
 31
0.0
  0
LINE
  5
A1FD
330
A0B9
100
AcDbEntity
  8
1
  6
Continuous
100
AcDbLine
 10
84.15079699999997
 20
216.2198609999999
 30
0.0
 11
85.94910500000002
 21
214.4215529999999
 31
0.0
  0
LINE
  5
A1FE
330
A0B9
100
AcDbEntity
  8
1
  6
Continuous
100
AcDbLine
 10
82.73658399999998
 20
216.2198609999999
 30
0.0
 11
84.84286800000003
 21
214.1135759999999
 31
0.0
  0
LINE
  5
A1FF
330
A0B9
100
AcDbEntity
  8
1
  6
Continuous
100
AcDbLine
 10
85.94910500000002
 20
214.4976709999999
 30
0.0
 11
85.565011
 21
214.1135759999999
 31
0.0
  0
LINE
  5
A200
330
A0B9
100
AcDbEntity
  8
1
  6
Continuous
100
AcDbLine
 10
85.94910500000002
 20
215.911885
 30
0.0
 11
84.15079699999997
 21
214.1135759999999
 31
0.0
  0
LINE
  5
A201
330
A0B9
100
AcDbEntity
  8
1
  6
Continuous
100
AcDbLine
 10
84.84286800000003
 20
216.2198609999999
 30
0.0
 11
82.73658399999998
 21
214.1135759999999
 31
0.0
  0
LINE
  5
A202
330
A0B9
100
AcDbEntity
  8
1
  6
Continuous
100
AcDbLine
 10
85.94910500000002
 20
214.1135759999999
 30
0.0
 11
85.94910500000002
 21
216.2198609999999
 31
0.0
  0
LINE
  5
A203
330
A0B9
100
AcDbEntity
  8
1
  6
Continuous
100
AcDbLine
 10
85.79910500000002
 20
216.5798609999999
 30
0.0
 11
85.669105
 21
216.2198609999999
 31
0.0
  0
ARC
  5
A204
330
A0B9
100
AcDbEntity
  8
1
  6
Continuous
100
AcDbCircle
 10
80.135524
 20
214.653888
 30
0.0
 40
6.206
100
AcDbArc
 50
39.064301
 51
50.460397
  0
ARC
  5
A205
330
A0B9
100
AcDbEntity
  8
1
  6
Continuous
100
AcDbCircle
 10
85.221265
 20
223.05101
 30
0.0
 40
3.611148999999998
100
AcDbArc
 50
270.0
 51
296.2888529999998
  0
LINE
  5
A206
330
A0B9
100
AcDbEntity
  8
1
  6
Continuous
100
AcDbLine
 10
88.957454
 20
221.2105789999998
 30
0.0
 11
88.99695799999998
 21
221.637891
 31
0.0
  0
ARC
  5
A207
330
A0B9
100
AcDbEntity
  8
1
  6
Continuous
100
AcDbCircle
 10
82.10842300000001
 20
229.3524529999999
 30
0.0
 40
10.63951799999999
100
AcDbArc
 50
296.2888529999998
 51
310.0709029999998
  0
LINE
  5
A208
330
A0B9
100
AcDbEntity
  8
1
  6
Continuous
100
AcDbLine
 10
89.34910499999999
 20
174.237719
 30
0.0
 11
89.34910499999999
 21
180.2377189999999
 31
0.0
  0
LINE
  5
A209
330
A0B9
100
AcDbEntity
  8
1
  6
Continuous
100
AcDbLine
 10
94.94910500000001
 20
221.6376879999998
 30
0.0
 11
94.94910500000001
 21
224.238002
 31
0.0
  0
LINE
  5
A20A
330
A0B9
100
AcDbEntity
  8
4
  6
CENTER
100
AcDbLine
 10
87.949105
 20
229.2379889999998
 30
0.0
 11
87.949105
 21
216.6377129999999
 31
0.0
  0
LINE
  5
A20B
330
A0B9
100
AcDbEntity
  8
4
  6
CENTER
100
AcDbLine
 10
37.94910499999998
 20
229.2378939999999
 30
0.0
 11
37.94910499999998
 21
216.6378879999999
 31
0.0
  0
LINE
  5
A20C
330
A0B9
100
AcDbEntity
  8
4
  6
CENTER
100
AcDbLine
 10
268.9491049999999
 20
229.2378939999999
 30
0.0
 11
268.9491049999999
 21
216.6378879999999
 31
0.0
  0
LINE
  5
A20D
330
A0B9
100
AcDbEntity
  8
4
  6
CENTER
100
AcDbLine
 10
318.9491049999999
 20
229.2379889999998
 30
0.0
 11
318.9491049999999
 21
216.6377129999999
 31
0.0
  0
LINE
  5
A20E
330
A0B9
100
AcDbEntity
  8
2
  6
Continuous
100
AcDbLine
 10
88.04910500000003
 20
180.5612189999999
 30
0.0
 11
89.02560499999998
 21
180.5612189999999
 31
0.0
  0
LINE
  5
A20F
330
A0B9
100
AcDbEntity
  8
2
  6
Continuous
100
AcDbLine
 10
88.04910500000003
 20
173.914219
 30
0.0
 11
89.02560499999998
 21
173.914219
 31
0.0
  0
LINE
  5
A210
330
A0B9
100
AcDbEntity
  8
1
  6
Continuous
100
AcDbLine
 10
88.34910500000002
 20
181.237719
 30
0.0
 11
89.34910499999999
 21
180.2377189999999
 31
0.0
  0
LINE
  5
A211
330
A0B9
100
AcDbEntity
  8
1
  6
Continuous
100
AcDbLine
 10
88.34910500000002
 20
173.237719
 30
0.0
 11
89.34910499999999
 21
174.237719
 31
0.0
  0
LINE
  5
A212
330
A0B9
100
AcDbEntity
  8
1
  6
Continuous
100
AcDbLine
 10
88.04910500000003
 20
183.237719
 30
0.0
 11
88.04910500000003
 21
171.2377189999999
 31
0.0
  0
ARC
  5
A213
330
A0B9
100
AcDbEntity
  8
1
  6
Continuous
100
AcDbCircle
 10
76.585003
 20
177.237719
 30
0.0
 40
11.464102
100
AcDbArc
 50
342.4120459999999
 51
17.587954
  0
ARC
  5
A214
330
A0B9
100
AcDbEntity
  8
1
  6
Continuous
100
AcDbCircle
 10
94.513206
 20
177.237719
 30
0.0
 40
11.464102
100
AcDbArc
 50
162.412046
 51
197.5879539999999
  0
LINE
  5
A215
330
A0B9
100
AcDbEntity
  8
1
  6
Continuous
100
AcDbLine
 10
87.51320600000005
 20
170.309516
 30
0.0
 11
88.04910500000003
 21
171.2377189999999
 31
0.0
  0
LINE
  5
A216
330
A0B9
100
AcDbEntity
  8
1
  6
Continuous
100
AcDbLine
 10
83.58500300000001
 20
170.309516
 30
0.0
 11
83.04910500000003
 21
171.2377189999999
 31
0.0
  0
LINE
  5
A217
330
A0B9
100
AcDbEntity
  8
1
  6
Continuous
100
AcDbLine
 10
83.58500300000001
 20
170.309516
 30
0.0
 11
87.51320600000005
 21
170.309516
 31
0.0
  0
LINE
  5
A218
330
A0B9
100
AcDbEntity
  8
1
  6
Continuous
100
AcDbLine
 10
83.58500300000001
 20
173.7736179999999
 30
0.0
 11
87.51320600000005
 21
173.7736179999999
 31
0.0
  0
ARC
  5
A219
330
A0B9
100
AcDbEntity
  8
1
  6
Continuous
100
AcDbCircle
 10
86.11609200000001
 20
172.0415669999999
 30
0.0
 40
3.066986999999998
100
AcDbArc
 50
145.615753
 51
205.615753
  0
ARC
  5
A21A
330
A0B9
100
AcDbEntity
  8
1
  6
Continuous
100
AcDbCircle
 10
84.982117
 20
172.0415669999999
 30
0.0
 40
3.066986999999998
100
AcDbArc
 50
334.384247
 51
34.38424699999998
  0
ARC
  5
A21B
330
A0B9
100
AcDbEntity
  8
1
  6
Continuous
100
AcDbCircle
 10
84.982117
 20
182.433872
 30
0.0
 40
3.066986999999998
100
AcDbArc
 50
325.6157529999999
 51
25.615753
  0
ARC
  5
A21C
330
A0B9
100
AcDbEntity
  8
1
  6
Continuous
100
AcDbCircle
 10
86.11609200000001
 20
182.433872
 30
0.0
 40
3.066986999999998
100
AcDbArc
 50
154.3842469999999
 51
214.384247
  0
LINE
  5
A21D
330
A0B9
100
AcDbEntity
  8
1
  6
Continuous
100
AcDbLine
 10
83.58500300000001
 20
180.701821
 30
0.0
 11
87.51320600000005
 21
180.701821
 31
0.0
  0
LINE
  5
A21E
330
A0B9
100
AcDbEntity
  8
1
  6
Continuous
100
AcDbLine
 10
83.58500300000001
 20
184.165922
 30
0.0
 11
87.51320600000005
 21
184.165922
 31
0.0
  0
LINE
  5
A21F
330
A0B9
100
AcDbEntity
  8
1
  6
Continuous
100
AcDbLine
 10
83.58500300000001
 20
184.165922
 30
0.0
 11
83.04910500000003
 21
183.237719
 31
0.0
  0
LINE
  5
A220
330
A0B9
100
AcDbEntity
  8
1
  6
Continuous
100
AcDbLine
 10
87.51320600000005
 20
184.165922
 30
0.0
 11
88.04910500000003
 21
183.237719
 31
0.0
  0
LINE
  5
A221
330
A0B9
100
AcDbEntity
  8
1
  6
Continuous
100
AcDbLine
 10
152.949105
 20
221.637566
 30
0.0
 11
216.9491049999999
 21
221.637342
 31
0.0
  0
LINE
  5
A222
330
A0B9
100
AcDbEntity
  8
1
  6
Continuous
100
AcDbLine
 10
161.9591049999999
 20
218.2045149999999
 30
0.0
 11
207.939107
 21
218.2045149999999
 31
0.0
  0
LINE
  5
A223
330
A0B9
100
AcDbEntity
  8
1
  6
Continuous
100
AcDbLine
 10
161.949105
 20
216.219515
 30
0.0
 11
207.949105
 21
216.219515
 31
0.0
  0
LINE
  5
A224
330
A0B9
100
AcDbEntity
  8
1
  6
Continuous
100
AcDbLine
 10
158.9407569999999
 20
221.210233
 30
0.0
 11
210.957454
 21
221.210233
 31
0.0
  0
LINE
  5
A225
330
A0B9
100
AcDbEntity
  8
1
  6
Continuous
100
AcDbLine
 10
162.676946
 20
219.439515
 30
0.0
 11
207.2212649999999
 21
219.439515
 31
0.0
  0
LINE
  5
A226
330
A0B9
100
AcDbEntity
  8
4
  6
CENTER
100
AcDbLine
 10
159.949105
 20
229.237548
 30
0.0
 11
159.949105
 21
216.637542
 31
0.0
  0
ARC
  5
A227
330
A0B9
100
AcDbEntity
  8
1
  6
Continuous
100
AcDbCircle
 10
162.2230759999998
 20
217.284662
 30
0.0
 40
0.9569799999999998
100
AcDbArc
 50
106.011913
 51
155.9597349999999
  0
LINE
  5
A228
330
A0B9
100
AcDbEntity
  8
1
  6
Continuous
100
AcDbLine
 10
162.774105
 20
218.2045149999999
 30
0.0
 11
162.944105
 21
218.564515
 31
0.0
  0
ARC
  5
A229
330
A0B9
100
AcDbEntity
  8
1
  6
Continuous
100
AcDbCircle
 10
165.560587
 20
219.7547419999999
 30
0.0
 40
4.697225
100
AcDbArc
 50
206.286695
 51
222.530249
  0
LINE
  5
A22A
330
A0B9
100
AcDbEntity
  8
1
  6
Continuous
100
AcDbLine
 10
162.099105
 20
216.579515
 30
0.0
 11
162.229105
 21
216.219515
 31
0.0
  0
LINE
  5
A22B
330
A0B9
100
AcDbEntity
  8
1
  6
Continuous
100
AcDbLine
 10
163.002248
 20
216.219515
 30
0.0
 11
161.949105
 21
215.166373
 31
0.0
  0
LINE
  5
A22C
330
A0B9
100
AcDbEntity
  8
1
  6
Continuous
100
AcDbLine
 10
173.0052259999999
 20
216.219515
 30
0.0
 11
171.30579
 21
216.219515
 31
0.0
  0
ARC
  5
A22D
330
A0B9
100
AcDbEntity
  8
1
  6
Continuous
100
AcDbCircle
 10
167.762687
 20
214.6535419999999
 30
0.0
 40
6.206
100
AcDbArc
 50
129.539603
 51
140.935699
  0
ARC
  5
A22E
330
A0B9
100
AcDbEntity
  8
1
  6
Continuous
100
AcDbCircle
 10
162.676946
 20
223.050664
 30
0.0
 40
3.611148999999998
100
AcDbArc
 50
243.711147
 51
270.0
  0
LINE
  5
A22F
330
A0B9
100
AcDbEntity
  8
1
  6
Continuous
100
AcDbLine
 10
158.9407569999999
 20
221.210233
 30
0.0
 11
158.9012529999999
 21
221.637545
 31
0.0
  0
ARC
  5
A230
330
A0B9
100
AcDbEntity
  8
1
  6
Continuous
100
AcDbCircle
 10
165.7897879999999
 20
229.352107
 30
0.0
 40
10.63951799999999
100
AcDbArc
 50
229.929097
 51
243.711147
  0
LINE
  5
A231
330
A0B9
100
AcDbEntity
  8
1
  6
Continuous
100
AcDbLine
 10
152.949105
 20
221.637566
 30
0.0
 11
152.949105
 21
224.2375339999999
 31
0.0
  0
LINE
  5
A232
330
A0B9
100
AcDbEntity
  8
4
  6
CENTER
100
AcDbLine
 10
209.9491049999998
 20
229.237643
 30
0.0
 11
209.9491049999998
 21
216.637367
 31
0.0
  0
LINE
  5
A233
330
A0B9
100
AcDbEntity
  8
1
  6
Continuous
100
AcDbLine
 10
207.1241049999999
 20
218.2045149999999
 30
0.0
 11
206.954105
 21
218.564515
 31
0.0
  0
ARC
  5
A234
330
A0B9
100
AcDbEntity
  8
1
  6
Continuous
100
AcDbCircle
 10
207.675135
 20
217.284662
 30
0.0
 40
0.9569799999999998
100
AcDbArc
 50
24.04026499999999
 51
73.98808699999998
  0
LINE
  5
A235
330
A0B9
100
AcDbEntity
  8
1
  6
Continuous
100
AcDbLine
 10
207.799105
 20
216.579515
 30
0.0
 11
207.6691049999999
 21
216.219515
 31
0.0
  0
LINE
  5
A236
330
A0B9
100
AcDbEntity
  8
1
  6
Continuous
100
AcDbLine
 10
207.565011
 20
216.219515
 30
0.0
 11
207.949105
 21
215.83542
 31
0.0
  0
ARC
  5
A237
330
A0B9
100
AcDbEntity
  8
1
  6
Continuous
100
AcDbCircle
 10
204.337624
 20
219.7547419999999
 30
0.0
 40
4.697225
100
AcDbArc
 50
317.4697509999999
 51
333.713305
  0
ARC
  5
A238
330
A0B9
100
AcDbEntity
  8
1
  6
Continuous
100
AcDbCircle
 10
204.108423
 20
229.352107
 30
0.0
 40
10.63951799999999
100
AcDbArc
 50
296.2888529999998
 51
310.0709029999998
  0
LINE
  5
A239
330
A0B9
100
AcDbEntity
  8
1
  6
Continuous
100
AcDbLine
 10
210.957454
 20
221.210233
 30
0.0
 11
210.996958
 21
221.637545
 31
0.0
  0
ARC
  5
A23A
330
A0B9
100
AcDbEntity
  8
1
  6
Continuous
100
AcDbCircle
 10
207.2212649999999
 20
223.050664
 30
0.0
 40
3.611148999999998
100
AcDbArc
 50
270.0
 51
296.2888529999998
  0
ARC
  5
A23B
330
A0B9
100
AcDbEntity
  8
1
  6
Continuous
100
AcDbCircle
 10
202.135524
 20
214.6535419999999
 30
0.0
 40
6.206
100
AcDbArc
 50
39.064301
 51
50.460397
  0
LINE
  5
A23C
330
A0B9
100
AcDbEntity
  8
1
  6
Continuous
100
AcDbLine
 10
216.9491049999999
 20
221.637342
 30
0.0
 11
216.9491049999999
 21
224.2376559999999
 31
0.0
  0
LINE
  5
A23D
330
A0B9
100
AcDbEntity
  8
1
  6
Continuous
100
AcDbLine
 10
195.5291599999999
 20
216.219515
 30
0.0
 11
193.422875
 21
214.1132299999999
 31
0.0
  0
LINE
  5
A23E
330
A0B9
100
AcDbEntity
  8
1
  6
Continuous
100
AcDbLine
 10
193.422875
 20
216.219515
 30
0.0
 11
195.5291599999999
 21
214.1132299999999
 31
0.0
  0
LINE
  5
A23F
330
A0B9
100
AcDbEntity
  8
1
  6
Continuous
100
AcDbLine
 10
196.943373
 20
216.219515
 30
0.0
 11
194.8370889999999
 21
214.1132299999999
 31
0.0
  0
LINE
  5
A240
330
A0B9
100
AcDbEntity
  8
1
  6
Continuous
100
AcDbLine
 10
194.8370889999999
 20
216.219515
 30
0.0
 11
196.943373
 21
214.1132299999999
 31
0.0
  0
LINE
  5
A241
330
A0B9
100
AcDbEntity
  8
1
  6
Continuous
100
AcDbLine
 10
194.114946
 20
216.219515
 30
0.0
 11
192.008662
 21
214.1132299999999
 31
0.0
  0
LINE
  5
A242
330
A0B9
100
AcDbEntity
  8
1
  6
Continuous
100
AcDbLine
 10
192.008662
 20
216.219515
 30
0.0
 11
194.114946
 21
214.1132299999999
 31
0.0
  0
LINE
  5
A243
330
A0B9
100
AcDbEntity
  8
1
  6
Continuous
100
AcDbLine
 10
207.949105
 20
214.1132299999999
 30
0.0
 11
207.949105
 21
216.219515
 31
0.0
  0
LINE
  5
A244
330
A0B9
100
AcDbEntity
  8
1
  6
Continuous
100
AcDbLine
 10
206.8428679999999
 20
216.219515
 30
0.0
 11
204.7365839999999
 21
214.1132299999999
 31
0.0
  0
LINE
  5
A245
330
A0B9
100
AcDbEntity
  8
1
  6
Continuous
100
AcDbLine
 10
207.949105
 20
215.911539
 30
0.0
 11
206.150797
 21
214.1132299999999
 31
0.0
  0
LINE
  5
A246
330
A0B9
100
AcDbEntity
  8
1
  6
Continuous
100
AcDbLine
 10
204.7365839999999
 20
216.219515
 30
0.0
 11
206.8428679999999
 21
214.1132299999999
 31
0.0
  0
LINE
  5
A247
330
A0B9
100
AcDbEntity
  8
1
  6
Continuous
100
AcDbLine
 10
206.150797
 20
216.219515
 30
0.0
 11
207.949105
 21
214.421207
 31
0.0
  0
LINE
  5
A248
330
A0B9
100
AcDbEntity
  8
1
  6
Continuous
100
AcDbLine
 10
202.6002269999999
 20
216.219515
 30
0.0
 11
200.4939429999998
 21
214.1132299999999
 31
0.0
  0
LINE
  5
A249
330
A0B9
100
AcDbEntity
  8
1
  6
Continuous
100
AcDbLine
 10
204.0144409999999
 20
216.219515
 30
0.0
 11
201.9081569999999
 21
214.1132299999999
 31
0.0
  0
LINE
  5
A24A
330
A0B9
100
AcDbEntity
  8
1
  6
Continuous
100
AcDbLine
 10
200.4939429999998
 20
216.219515
 30
0.0
 11
202.6002269999999
 21
214.1132299999999
 31
0.0
  0
LINE
  5
A24B
330
A0B9
100
AcDbEntity
  8
1
  6
Continuous
100
AcDbLine
 10
201.9081569999999
 20
216.219515
 30
0.0
 11
204.0144409999999
 21
214.1132299999999
 31
0.0
  0
LINE
  5
A24C
330
A0B9
100
AcDbEntity
  8
1
  6
Continuous
100
AcDbLine
 10
198.357587
 20
216.219515
 30
0.0
 11
196.251302
 21
214.1132299999999
 31
0.0
  0
LINE
  5
A24D
330
A0B9
100
AcDbEntity
  8
1
  6
Continuous
100
AcDbLine
 10
199.7718
 20
216.219515
 30
0.0
 11
197.6655159999999
 21
214.1132299999999
 31
0.0
  0
LINE
  5
A24E
330
A0B9
100
AcDbEntity
  8
1
  6
Continuous
100
AcDbLine
 10
196.251302
 20
216.219515
 30
0.0
 11
198.357587
 21
214.1132299999999
 31
0.0
  0
LINE
  5
A24F
330
A0B9
100
AcDbEntity
  8
1
  6
Continuous
100
AcDbLine
 10
197.6655159999999
 20
216.219515
 30
0.0
 11
199.7718
 21
214.1132299999999
 31
0.0
  0
LINE
  5
A250
330
A0B9
100
AcDbEntity
  8
1
  6
Continuous
100
AcDbLine
 10
201.186014
 20
216.219515
 30
0.0
 11
199.0797289999999
 21
214.1132299999999
 31
0.0
  0
LINE
  5
A251
330
A0B9
100
AcDbEntity
  8
1
  6
Continuous
100
AcDbLine
 10
199.0797289999999
 20
216.219515
 30
0.0
 11
201.186014
 21
214.1132299999999
 31
0.0
  0
LINE
  5
A252
330
A0B9
100
AcDbEntity
  8
1
  6
Continuous
100
AcDbLine
 10
205.428655
 20
216.219515
 30
0.0
 11
203.32237
 21
214.1132299999999
 31
0.0
  0
LINE
  5
A253
330
A0B9
100
AcDbEntity
  8
1
  6
Continuous
100
AcDbLine
 10
203.32237
 20
216.219515
 30
0.0
 11
205.428655
 21
214.1132299999999
 31
0.0
  0
LINE
  5
A254
330
A0B9
100
AcDbEntity
  8
1
  6
Continuous
100
AcDbLine
 10
191.2865189999999
 20
216.219515
 30
0.0
 11
189.180235
 21
214.1132299999999
 31
0.0
  0
LINE
  5
A255
330
A0B9
100
AcDbEntity
  8
1
  6
Continuous
100
AcDbLine
 10
189.180235
 20
216.219515
 30
0.0
 11
191.2865189999999
 21
214.1132299999999
 31
0.0
  0
LINE
  5
A256
330
A0B9
100
AcDbEntity
  8
1
  6
Continuous
100
AcDbLine
 10
192.7007319999999
 20
216.219515
 30
0.0
 11
190.594448
 21
214.1132299999999
 31
0.0
  0
LINE
  5
A257
330
A0B9
100
AcDbEntity
  8
1
  6
Continuous
100
AcDbLine
 10
190.594448
 20
216.219515
 30
0.0
 11
192.7007319999999
 21
214.1132299999999
 31
0.0
  0
LINE
  5
A258
330
A0B9
100
AcDbEntity
  8
1
  6
Continuous
100
AcDbLine
 10
187.043878
 20
216.219515
 30
0.0
 11
184.9375939999999
 21
214.1132299999999
 31
0.0
  0
LINE
  5
A259
330
A0B9
100
AcDbEntity
  8
1
  6
Continuous
100
AcDbLine
 10
184.9375939999999
 20
216.219515
 30
0.0
 11
187.043878
 21
214.1132299999999
 31
0.0
  0
LINE
  5
A25A
330
A0B9
100
AcDbEntity
  8
1
  6
Continuous
100
AcDbLine
 10
188.4580919999999
 20
216.219515
 30
0.0
 11
186.3518069999998
 21
214.1132299999999
 31
0.0
  0
LINE
  5
A25B
330
A0B9
100
AcDbEntity
  8
1
  6
Continuous
100
AcDbLine
 10
189.872305
 20
216.219515
 30
0.0
 11
187.7660209999999
 21
214.1132299999999
 31
0.0
  0
LINE
  5
A25C
330
A0B9
100
AcDbEntity
  8
1
  6
Continuous
100
AcDbLine
 10
186.3518069999998
 20
216.219515
 30
0.0
 11
188.4580919999999
 21
214.1132299999999
 31
0.0
  0
LINE
  5
A25D
330
A0B9
100
AcDbEntity
  8
1
  6
Continuous
100
AcDbLine
 10
187.7660209999999
 20
216.219515
 30
0.0
 11
189.872305
 21
214.1132299999999
 31
0.0
  0
LINE
  5
A25E
330
A0B9
100
AcDbEntity
  8
1
  6
Continuous
100
AcDbLine
 10
179.97281
 20
216.219515
 30
0.0
 11
177.8665259999999
 21
214.1132299999999
 31
0.0
  0
LINE
  5
A25F
330
A0B9
100
AcDbEntity
  8
1
  6
Continuous
100
AcDbLine
 10
177.8665259999999
 20
216.219515
 30
0.0
 11
179.97281
 21
214.1132299999999
 31
0.0
  0
LINE
  5
A260
330
A0B9
100
AcDbEntity
  8
1
  6
Continuous
100
AcDbLine
 10
164.4164609999999
 20
216.219515
 30
0.0
 11
162.310177
 21
214.1132299999999
 31
0.0
  0
LINE
  5
A261
330
A0B9
100
AcDbEntity
  8
1
  6
Continuous
100
AcDbLine
 10
162.310177
 20
216.219515
 30
0.0
 11
164.4164609999999
 21
214.1132299999999
 31
0.0
  0
LINE
  5
A262
330
A0B9
100
AcDbEntity
  8
1
  6
Continuous
100
AcDbLine
 10
161.949105
 20
214.1132299999999
 30
0.0
 11
161.949105
 21
216.219515
 31
0.0
  0
LINE
  5
A263
330
A0B9
100
AcDbEntity
  8
1
  6
Continuous
100
AcDbLine
 10
163.002248
 20
214.1132299999999
 30
0.0
 11
161.949105
 21
215.166373
 31
0.0
  0
LINE
  5
A264
330
A0B9
100
AcDbEntity
  8
1
  6
Continuous
100
AcDbLine
 10
178.5585969999999
 20
216.219515
 30
0.0
 11
176.4523119999998
 21
214.1132299999999
 31
0.0
  0
LINE
  5
A265
330
A0B9
100
AcDbEntity
  8
1
  6
Continuous
100
AcDbLine
 10
176.4523119999998
 20
216.219515
 30
0.0
 11
178.5585969999999
 21
214.1132299999999
 31
0.0
  0
LINE
  5
A266
330
A0B9
100
AcDbEntity
  8
1
  6
Continuous
100
AcDbLine
 10
174.315956
 20
216.219515
 30
0.0
 11
172.2096719999999
 21
214.1132299999999
 31
0.0
  0
LINE
  5
A267
330
A0B9
100
AcDbEntity
  8
1
  6
Continuous
100
AcDbLine
 10
172.2096719999999
 20
216.219515
 30
0.0
 11
174.315956
 21
214.1132299999999
 31
0.0
  0
LINE
  5
A268
330
A0B9
100
AcDbEntity
  8
1
  6
Continuous
100
AcDbLine
 10
175.73017
 20
216.219515
 30
0.0
 11
173.623885
 21
214.1132299999999
 31
0.0
  0
LINE
  5
A269
330
A0B9
100
AcDbEntity
  8
1
  6
Continuous
100
AcDbLine
 10
177.144383
 20
216.219515
 30
0.0
 11
175.038099
 21
214.1132299999999
 31
0.0
  0
LINE
  5
A26A
330
A0B9
100
AcDbEntity
  8
1
  6
Continuous
100
AcDbLine
 10
173.623885
 20
216.219515
 30
0.0
 11
175.73017
 21
214.1132299999999
 31
0.0
  0
LINE
  5
A26B
330
A0B9
100
AcDbEntity
  8
1
  6
Continuous
100
AcDbLine
 10
175.038099
 20
216.219515
 30
0.0
 11
177.144383
 21
214.1132299999999
 31
0.0
  0
LINE
  5
A26C
330
A0B9
100
AcDbEntity
  8
1
  6
Continuous
100
AcDbLine
 10
170.0733149999998
 20
216.219515
 30
0.0
 11
167.9670309999998
 21
214.1132299999999
 31
0.0
  0
LINE
  5
A26D
330
A0B9
100
AcDbEntity
  8
1
  6
Continuous
100
AcDbLine
 10
167.9670309999998
 20
216.219515
 30
0.0
 11
170.0733149999998
 21
214.1132299999999
 31
0.0
  0
LINE
  5
A26E
330
A0B9
100
AcDbEntity
  8
1
  6
Continuous
100
AcDbLine
 10
165.830675
 20
216.219515
 30
0.0
 11
163.72439
 21
214.1132299999999
 31
0.0
  0
LINE
  5
A26F
330
A0B9
100
AcDbEntity
  8
1
  6
Continuous
100
AcDbLine
 10
167.2448879999998
 20
216.219515
 30
0.0
 11
165.138604
 21
214.1132299999999
 31
0.0
  0
LINE
  5
A270
330
A0B9
100
AcDbEntity
  8
1
  6
Continuous
100
AcDbLine
 10
163.72439
 20
216.219515
 30
0.0
 11
165.830675
 21
214.1132299999999
 31
0.0
  0
LINE
  5
A271
330
A0B9
100
AcDbEntity
  8
1
  6
Continuous
100
AcDbLine
 10
165.138604
 20
216.219515
 30
0.0
 11
167.2448879999998
 21
214.1132299999999
 31
0.0
  0
LINE
  5
A272
330
A0B9
100
AcDbEntity
  8
1
  6
Continuous
100
AcDbLine
 10
168.6591019999999
 20
216.219515
 30
0.0
 11
166.552818
 21
214.1132299999999
 31
0.0
  0
LINE
  5
A273
330
A0B9
100
AcDbEntity
  8
1
  6
Continuous
100
AcDbLine
 10
166.552818
 20
216.219515
 30
0.0
 11
168.6591019999999
 21
214.1132299999999
 31
0.0
  0
LINE
  5
A274
330
A0B9
100
AcDbEntity
  8
1
  6
Continuous
100
AcDbLine
 10
171.4875289999999
 20
216.219515
 30
0.0
 11
169.381245
 21
214.1132299999999
 31
0.0
  0
LINE
  5
A275
330
A0B9
100
AcDbEntity
  8
1
  6
Continuous
100
AcDbLine
 10
172.9017429999999
 20
216.219515
 30
0.0
 11
170.7954579999999
 21
214.1132299999999
 31
0.0
  0
LINE
  5
A276
330
A0B9
100
AcDbEntity
  8
1
  6
Continuous
100
AcDbLine
 10
169.381245
 20
216.219515
 30
0.0
 11
171.4875289999999
 21
214.1132299999999
 31
0.0
  0
LINE
  5
A277
330
A0B9
100
AcDbEntity
  8
1
  6
Continuous
100
AcDbLine
 10
170.7954579999999
 20
216.219515
 30
0.0
 11
172.9017429999999
 21
214.1132299999999
 31
0.0
  0
LINE
  5
A278
330
A0B9
100
AcDbEntity
  8
1
  6
Continuous
100
AcDbLine
 10
182.8012379999999
 20
216.219515
 30
0.0
 11
180.6949529999999
 21
214.1132299999999
 31
0.0
  0
LINE
  5
A279
330
A0B9
100
AcDbEntity
  8
1
  6
Continuous
100
AcDbLine
 10
180.6949529999999
 20
216.219515
 30
0.0
 11
182.8012379999999
 21
214.1132299999999
 31
0.0
  0
LINE
  5
A27A
330
A0B9
100
AcDbEntity
  8
1
  6
Continuous
100
AcDbLine
 10
184.215451
 20
216.219515
 30
0.0
 11
182.1091669999999
 21
214.1132299999999
 31
0.0
  0
LINE
  5
A27B
330
A0B9
100
AcDbEntity
  8
1
  6
Continuous
100
AcDbLine
 10
185.6296649999999
 20
216.219515
 30
0.0
 11
183.52338
 21
214.1132299999999
 31
0.0
  0
LINE
  5
A27C
330
A0B9
100
AcDbEntity
  8
1
  6
Continuous
100
AcDbLine
 10
182.1091669999999
 20
216.219515
 30
0.0
 11
184.215451
 21
214.1132299999999
 31
0.0
  0
LINE
  5
A27D
330
A0B9
100
AcDbEntity
  8
1
  6
Continuous
100
AcDbLine
 10
183.52338
 20
216.219515
 30
0.0
 11
185.6296649999999
 21
214.1132299999999
 31
0.0
  0
LINE
  5
A27E
330
A0B9
100
AcDbEntity
  8
1
  6
Continuous
100
AcDbLine
 10
181.3870239999999
 20
216.219515
 30
0.0
 11
179.2807399999998
 21
214.1132299999999
 31
0.0
  0
LINE
  5
A27F
330
A0B9
100
AcDbEntity
  8
1
  6
Continuous
100
AcDbLine
 10
179.2807399999998
 20
216.219515
 30
0.0
 11
181.3870239999999
 21
214.1132299999999
 31
0.0
  0
ARC
  5
A280
330
A0B9
100
AcDbEntity
  8
1
  6
Continuous
100
AcDbCircle
 10
293.949137
 20
188.1754409999999
 30
0.0
 40
19.0625
100
AcDbArc
 50
63.51906899999999
 51
116.4811489999998
  0
ARC
  5
A281
330
A0B9
100
AcDbEntity
  8
1
  6
Continuous
100
AcDbCircle
 10
274.4211669999998
 20
170.7153609999998
 30
0.0
 40
44.46768399999998
100
AcDbArc
 50
6.1119
 51
50.927813
  0
ARC
  5
A282
330
A0B9
100
AcDbEntity
  8
1
  6
Continuous
100
AcDbCircle
 10
310.161243
 20
176.8384969999999
 30
0.0
 40
8.587861
100
AcDbArc
 50
293.8968
 51
0.0
  0
ARC
  5
A283
330
A0B9
100
AcDbEntity
  8
1
  6
Continuous
100
AcDbCircle
 10
315.47911
 20
164.8362389999998
 30
0.0
 40
4.53974
100
AcDbArc
 50
113.8967999999999
 51
139.07355
  0
LINE
  5
A284
330
A0B9
100
AcDbEntity
  8
1
  6
Continuous
100
AcDbLine
 10
318.7491049999998
 20
211.5135759999998
 30
0.0
 11
318.7491049999998
 21
176.8384969999999
 31
0.0
  0
ARC
  5
A285
330
A0B9
100
AcDbEntity
  8
1
  6
Continuous
100
AcDbCircle
 10
310.161243
 20
176.8384969999999
 30
0.0
 40
5.987860999999997
100
AcDbArc
 50
292.969202
 51
0.0
  0
ARC
  5
A286
330
A0B9
100
AcDbEntity
  8
1
  6
Continuous
100
AcDbCircle
 10
272.1348879999998
 20
172.427152
 30
0.0
 40
44.23472799999998
100
AcDbArc
 50
5.723383999999997
 51
49.04387599999999
  0
ARC
  5
A287
330
A0B9
100
AcDbEntity
  8
1
  6
Continuous
100
AcDbCircle
 10
314.4491049999999
 20
166.721811
 30
0.0
 40
5.0
100
AcDbArc
 50
112.969202
 51
178.098489
  0
LINE
  5
A288
330
A0B9
100
AcDbEntity
  8
1
  6
Continuous
100
AcDbLine
 10
309.4491049999998
 20
196.183422
 30
0.0
 11
309.4491049999998
 21
166.887719
 31
0.0
  0
ARC
  5
A289
330
A0B9
100
AcDbEntity
  8
1
  6
Continuous
100
AcDbCircle
 10
315.763321
 20
172.427152
 30
0.0
 40
44.23472799999998
100
AcDbArc
 50
130.9561239999998
 51
174.2766159999999
  0
ARC
  5
A28A
330
A0B9
100
AcDbEntity
  8
1
  6
Continuous
100
AcDbCircle
 10
313.4770419999999
 20
170.7153609999998
 30
0.0
 40
44.46768399999998
100
AcDbArc
 50
129.072187
 51
173.8881
  0
ARC
  5
A28B
330
A0B9
100
AcDbEntity
  8
1
  6
Continuous
100
AcDbCircle
 10
277.736967
 20
176.8384969999999
 30
0.0
 40
5.987860999999997
100
AcDbArc
 50
180.0
 51
247.030798
  0
ARC
  5
A28C
330
A0B9
100
AcDbEntity
  8
1
  6
Continuous
100
AcDbCircle
 10
273.4491049999999
 20
166.721811
 30
0.0
 40
5.0
100
AcDbArc
 50
1.901511
 51
67.03079800000001
  0
LINE
  5
A28D
330
A0B9
100
AcDbEntity
  8
1
  6
Continuous
100
AcDbLine
 10
158.949105
 20
180.701821
 30
0.0
 11
158.949105
 21
173.7736179999999
 31
0.0
  0
LINE
  5
A28E
330
A0B9
100
AcDbEntity
  8
1
  6
Continuous
100
AcDbLine
 10
170.949105
 20
180.701821
 30
0.0
 11
170.949105
 21
173.7736179999999
 31
0.0
  0
CIRCLE
  5
A28F
330
A0B9
100
AcDbEntity
  8
1
  6
Continuous
100
AcDbCircle
 10
164.9491049999998
 20
177.237719
 30
0.0
 40
6.0
  0
LINE
  5
A290
330
A0B9
100
AcDbEntity
  8
1
  6
Continuous
100
AcDbLine
 10
164.9491049999998
 20
170.309516
 30
0.0
 11
170.949105
 21
173.7736179999999
 31
0.0
  0
LINE
  5
A291
330
A0B9
100
AcDbEntity
  8
1
  6
Continuous
100
AcDbLine
 10
164.9491049999998
 20
170.309516
 30
0.0
 11
158.949105
 21
173.7736179999999
 31
0.0
  0
LINE
  5
A292
330
A0B9
100
AcDbEntity
  8
1
  6
Continuous
100
AcDbLine
 10
170.949105
 20
180.701821
 30
0.0
 11
164.9491049999998
 21
184.165922
 31
0.0
  0
LINE
  5
A293
330
A0B9
100
AcDbEntity
  8
1
  6
Continuous
100
AcDbLine
 10
158.949105
 20
180.701821
 30
0.0
 11
164.9491049999998
 21
184.165922
 31
0.0
  0
CIRCLE
  5
A294
330
A0B9
100
AcDbEntity
  8
1
  6
Continuous
100
AcDbCircle
 10
164.9491049999998
 20
177.237719
 30
0.0
 40
4.0
  0
CIRCLE
  5
A295
330
A0B9
100
AcDbEntity
  8
2
  6
Continuous
100
AcDbCircle
 10
164.9491049999998
 20
177.237719
 30
0.0
 40
3.3235
  0
CIRCLE
  5
A296
330
A0B9
100
AcDbEntity
  8
1
  6
Continuous
100
AcDbCircle
 10
164.9491049999998
 20
177.237719
 30
0.0
 40
7.5
  0
ARC
  5
A297
330
A0B9
100
AcDbEntity
  8
1
  6
Continuous
100
AcDbCircle
 10
280.3132059999999
 20
177.237719
 30
0.0
 40
11.464102
100
AcDbArc
 50
166.863493
 51
197.5879539999999
  0
LINE
  5
A298
330
A0B9
100
AcDbEntity
  8
1
  6
Continuous
100
AcDbLine
 10
268.849105
 20
183.237719
 30
0.0
 11
268.849105
 21
171.2377189999999
 31
0.0
  0
LINE
  5
A299
330
A0B9
100
AcDbEntity
  8
1
  6
Continuous
100
AcDbLine
 10
268.5491049999999
 20
173.237719
 30
0.0
 11
267.549105
 21
174.237719
 31
0.0
  0
LINE
  5
A29A
330
A0B9
100
AcDbEntity
  8
1
  6
Continuous
100
AcDbLine
 10
268.5491049999999
 20
173.237719
 30
0.0
 11
268.5491049999999
 21
181.237719
 31
0.0
  0
ARC
  5
A29B
330
A0B9
100
AcDbEntity
  8
1
  6
Continuous
100
AcDbCircle
 10
271.9160919999998
 20
172.0415669999999
 30
0.0
 40
3.066986999999998
100
AcDbArc
 50
145.615753
 51
205.615753
  0
LINE
  5
A29C
330
A0B9
100
AcDbEntity
  8
1
  6
Continuous
100
AcDbLine
 10
269.7146309999999
 20
173.7736179999999
 30
0.0
 11
269.3850029999999
 21
173.7736179999999
 31
0.0
  0
LINE
  5
A29D
330
A0B9
100
AcDbEntity
  8
1
  6
Continuous
100
AcDbLine
 10
272.158099
 20
170.309516
 30
0.0
 11
269.3850029999999
 21
170.309516
 31
0.0
  0
LINE
  5
A29E
330
A0B9
100
AcDbEntity
  8
1
  6
Continuous
100
AcDbLine
 10
269.3850029999999
 20
170.309516
 30
0.0
 11
268.849105
 21
171.2377189999999
 31
0.0
  0
LINE
  5
A29F
330
A0B9
100
AcDbEntity
  8
2
  6
Continuous
100
AcDbLine
 10
268.849105
 20
173.914219
 30
0.0
 11
267.8726049999998
 21
173.914219
 31
0.0
  0
LINE
  5
A2A0
330
A0B9
100
AcDbEntity
  8
1
  6
Continuous
100
AcDbLine
 10
268.849105
 20
173.237719
 30
0.0
 11
268.5491049999999
 21
173.237719
 31
0.0
  0
LINE
  5
A2A1
330
A0B9
100
AcDbEntity
  8
1
  6
Continuous
100
AcDbLine
 10
269.1491049999999
 20
183.7573339999999
 30
0.0
 11
268.849105
 21
183.237719
 31
0.0
  0
ARC
  5
A2A2
330
A0B9
100
AcDbEntity
  8
1
  6
Continuous
100
AcDbCircle
 10
271.9160919999998
 20
182.433872
 30
0.0
 40
3.066986999999998
100
AcDbArc
 50
154.3842469999999
 51
205.553335
  0
LINE
  5
A2A3
330
A0B9
100
AcDbEntity
  8
1
  6
Continuous
100
AcDbLine
 10
268.5491049999999
 20
181.237719
 30
0.0
 11
267.549105
 21
180.2377189999999
 31
0.0
  0
LINE
  5
A2A4
330
A0B9
100
AcDbEntity
  8
2
  6
Continuous
100
AcDbLine
 10
268.849105
 20
180.5612189999999
 30
0.0
 11
267.8726049999998
 21
180.5612189999999
 31
0.0
  0
LINE
  5
A2A5
330
A0B9
100
AcDbEntity
  8
1
  6
Continuous
100
AcDbLine
 10
267.549105
 20
174.237719
 30
0.0
 11
267.549105
 21
180.2377189999999
 31
0.0
  0
LINE
  5
A2A6
330
A0B9
100
AcDbEntity
  8
1
  6
Continuous
100
AcDbLine
 10
268.849105
 20
181.237719
 30
0.0
 11
268.5491049999999
 21
181.237719
 31
0.0
  0
LINE
  5
A2A7
330
A0B9
100
AcDbEntity
  8
4
  6
CENTER
100
AcDbLine
 10
209.9491049999998
 20
56.124426
 30
0.0
 11
209.9491049999998
 21
43.624426
 31
0.0
  0
CIRCLE
  5
A2A8
330
A0B9
100
AcDbEntity
  8
1
  6
Continuous
100
AcDbCircle
 10
209.9491049999998
 20
49.874426
 30
0.0
 40
3.25
  0
ARC
  5
A2A9
330
A0B9
100
AcDbEntity
  8
1
  6
Continuous
100
AcDbCircle
 10
209.9491049999998
 20
49.874426
 30
0.0
 40
7.0
100
AcDbArc
 50
270.0
 51
0.0
  0
LINE
  5
A2AA
330
A0B9
100
AcDbEntity
  8
4
  6
CENTER
100
AcDbLine
 10
159.949105
 20
56.124426
 30
0.0
 11
159.949105
 21
43.624426
 31
0.0
  0
LINE
  5
A2AB
330
A0B9
100
AcDbEntity
  8
4
  6
CENTER
100
AcDbLine
 10
184.949105
 20
111.8744259999999
 30
0.0
 11
184.949105
 21
37.874426
 31
0.0
  0
ARC
  5
A2AC
330
A0B9
100
AcDbEntity
  8
1
  6
Continuous
100
AcDbCircle
 10
159.949105
 20
49.874426
 30
0.0
 40
7.0
100
AcDbArc
 50
180.0
 51
270.0
  0
ARC
  5
A2AD
330
A0B9
100
AcDbEntity
  8
1
  6
Continuous
100
AcDbCircle
 10
159.949105
 20
49.874426
 30
0.0
 40
3.25
100
AcDbArc
 50
92.55273900000002
 51
43.526133
  0
LINE
  5
A2AE
330
A0B9
100
AcDbEntity
  8
1
  6
Continuous
100
AcDbLine
 10
209.9491049999998
 20
106.874426
 30
0.0
 11
159.949105
 21
106.874426
 31
0.0
  0
LINE
  5
A2AF
330
A0B9
100
AcDbEntity
  8
4
  6
CENTER
100
AcDbLine
 10
221.9491049999998
 20
74.874426
 30
0.0
 11
134.949105
 21
74.874426
 31
0.0
  0
LINE
  5
A2B0
330
A0B9
100
AcDbEntity
  8
1
  6
Continuous
100
AcDbLine
 10
152.949105
 20
99.87442600000001
 30
0.0
 11
152.949105
 21
89.666565
 31
0.0
  0
ARC
  5
A2B1
330
A0B9
100
AcDbEntity
  8
1
  6
Continuous
100
AcDbCircle
 10
159.949105
 20
99.87442600000001
 30
0.0
 40
3.25
100
AcDbArc
 50
25.51638699999999
 51
252.0797869999999
  0
LINE
  5
A2B2
330
A0B9
100
AcDbEntity
  8
4
  6
CENTER
100
AcDbLine
 10
166.199105
 20
99.87442600000001
 30
0.0
 11
153.699105
 21
99.87442600000001
 31
0.0
  0
ARC
  5
A2B3
330
A0B9
100
AcDbEntity
  8
1
  6
Continuous
100
AcDbCircle
 10
159.949105
 20
99.87442600000001
 30
0.0
 40
7.0
100
AcDbArc
 50
90.0
 51
180.0
  0
LINE
  5
A2B4
330
A0B9
100
AcDbEntity
  8
4
  6
CENTER
100
AcDbLine
 10
159.949105
 20
106.124426
 30
0.0
 11
159.949105
 21
93.62442599999999
 31
0.0
  0
LINE
  5
A2B5
330
A0B9
100
AcDbEntity
  8
4
  6
CENTER
100
AcDbLine
 10
166.199105
 20
49.874426
 30
0.0
 11
153.699105
 21
49.874426
 31
0.0
  0
LINE
  5
A2B6
330
A0B9
100
AcDbEntity
  8
1
  6
Continuous
100
AcDbLine
 10
216.9491049999999
 20
99.87442600000001
 30
0.0
 11
216.9491049999999
 21
49.874426
 31
0.0
  0
CIRCLE
  5
A2B7
330
A0B9
100
AcDbEntity
  8
1
  6
Continuous
100
AcDbCircle
 10
209.9491049999998
 20
99.87442600000001
 30
0.0
 40
3.25
  0
LINE
  5
A2B8
330
A0B9
100
AcDbEntity
  8
4
  6
CENTER
100
AcDbLine
 10
216.1991049999998
 20
99.87442600000001
 30
0.0
 11
203.699105
 21
99.87442600000001
 31
0.0
  0
LINE
  5
A2B9
330
A0B9
100
AcDbEntity
  8
4
  6
CENTER
100
AcDbLine
 10
209.9491049999998
 20
106.124426
 30
0.0
 11
209.9491049999998
 21
93.62442599999999
 31
0.0
  0
ARC
  5
A2BA
330
A0B9
100
AcDbEntity
  8
1
  6
Continuous
100
AcDbCircle
 10
209.9491049999998
 20
99.87442600000001
 30
0.0
 40
7.0
100
AcDbArc
 50
0.0
 51
90.0
  0
LINE
  5
A2BB
330
A0B9
100
AcDbEntity
  8
4
  6
CENTER
100
AcDbLine
 10
216.1991049999998
 20
49.874426
 30
0.0
 11
203.699105
 21
49.874426
 31
0.0
  0
LINE
  5
A2BC
330
A0B9
100
AcDbEntity
  8
1
  6
Continuous
100
AcDbLine
 10
209.9491049999998
 20
42.874426
 30
0.0
 11
159.949105
 21
42.874426
 31
0.0
  0
ARC
  5
A2BD
330
A0B9
100
AcDbEntity
  8
1
  6
Continuous
100
AcDbCircle
 10
169.274254
 20
207.891322
 30
0.0
 40
40.48013
100
AcDbArc
 50
309.9047339999998
 51
359.074671
  0
ARC
  5
A2BE
330
A0B9
100
AcDbEntity
  8
1
  6
Continuous
100
AcDbCircle
 10
207.149105
 20
211.513291
 30
0.0
 40
2.6
100
AcDbArc
 50
0.0
 51
90.0
  0
LINE
  5
A2BF
330
A0B9
100
AcDbEntity
  8
1
  6
Continuous
100
AcDbLine
 10
209.7491049999999
 20
211.513291
 30
0.0
 11
209.7491049999999
 21
207.237595
 31
0.0
  0
ARC
  5
A2C0
330
A0B9
100
AcDbEntity
  8
1
  6
Continuous
100
AcDbCircle
 10
418.6239549999998
 20
207.891322
 30
0.0
 40
40.48013
100
AcDbArc
 50
180.925329
 51
230.095266
  0
ARC
  5
A2C1
330
A0B9
100
AcDbEntity
  8
1
  6
Continuous
100
AcDbCircle
 10
422.949105
 20
177.237719
 30
0.0
 40
10.34999999999999
100
AcDbArc
 50
270.0
 51
61.682165
  0
ARC
  5
A2C2
330
A0B9
100
AcDbEntity
  8
1
  6
Continuous
100
AcDbCircle
 10
418.810719
 20
207.1023729999998
 30
0.0
 40
40.0
100
AcDbArc
 50
229.1651
 51
264.0615719999999
  0
LINE
  5
A2C3
330
A0B9
100
AcDbEntity
  8
4
  6
CENTER
100
AcDbLine
 10
422.949105
 20
147.237719
 30
0.0
 11
422.949105
 21
205.237719
 31
0.0
  0
ARC
  5
A2C4
330
A0B9
100
AcDbEntity
  8
1
  6
Continuous
100
AcDbCircle
 10
422.949105
 20
246.887719
 30
0.0
 40
80.0
100
AcDbArc
 50
264.0615719999999
 51
270.0
  0
LINE
  5
A2C5
330
A0B9
100
AcDbEntity
  8
1
  6
Continuous
100
AcDbLine
 10
380.7491049999999
 20
214.113291
 30
0.0
 11
425.9491049999998
 21
214.113291
 31
0.0
  0
LINE
  5
A2C6
330
A0B9
100
AcDbEntity
  8
1
  6
Continuous
100
AcDbLine
 10
425.2212639999998
 20
219.439515
 30
0.0
 11
380.6769449999999
 21
219.439515
 31
0.0
  0
LINE
  5
A2C7
330
A0B9
100
AcDbEntity
  8
1
  6
Continuous
100
AcDbLine
 10
428.957453
 20
221.210233
 30
0.0
 11
376.940756
 21
221.210233
 31
0.0
  0
LINE
  5
A2C8
330
A0B9
100
AcDbEntity
  8
1
  6
Continuous
100
AcDbLine
 10
425.9491049999998
 20
216.219515
 30
0.0
 11
379.9491049999998
 21
216.219515
 31
0.0
  0
LINE
  5
A2C9
330
A0B9
100
AcDbEntity
  8
1
  6
Continuous
100
AcDbLine
 10
425.9391049999998
 20
218.2045149999999
 30
0.0
 11
379.9591029999998
 21
218.2045149999999
 31
0.0
  0
LINE
  5
A2CA
330
A0B9
100
AcDbEntity
  8
1
  6
Continuous
100
AcDbLine
 10
434.949105
 20
221.637566
 30
0.0
 11
370.949105
 21
221.637342
 31
0.0
  0
LINE
  5
A2CB
330
A0B9
100
AcDbEntity
  8
1
  6
Continuous
100
AcDbLine
 10
370.949105
 20
224.237595
 30
0.0
 11
434.949105
 21
224.237595
 31
0.0
  0
LINE
  5
A2CC
330
A0B9
100
AcDbEntity
  8
4
  6
CENTER
100
AcDbLine
 10
394.9491049999999
 20
177.237719
 30
0.0
 11
452.9491049999998
 21
177.237719
 31
0.0
  0
LINE
  5
A2CD
330
A0B9
100
AcDbEntity
  8
1
  6
Continuous
100
AcDbLine
 10
397.3037619999999
 20
216.219515
 30
0.0
 11
395.197478
 21
214.1132299999999
 31
0.0
  0
LINE
  5
A2CE
330
A0B9
100
AcDbEntity
  8
1
  6
Continuous
100
AcDbLine
 10
395.197478
 20
216.219515
 30
0.0
 11
397.3037619999999
 21
214.1132299999999
 31
0.0
  0
LINE
  5
A2CF
330
A0B9
100
AcDbEntity
  8
4
  6
CENTER
100
AcDbLine
 10
427.9491049999998
 20
229.237548
 30
0.0
 11
427.9491049999998
 21
216.637542
 31
0.0
  0
LINE
  5
A2D0
330
A0B9
100
AcDbEntity
  8
4
  6
CENTER
100
AcDbLine
 10
402.9491049999998
 20
229.237595
 30
0.0
 11
402.9491049999998
 21
200.705656
 31
0.0
  0
ARC
  5
A2D1
330
A0B9
100
AcDbEntity
  8
1
  6
Continuous
100
AcDbCircle
 10
422.1084219999998
 20
229.352107
 30
0.0
 40
10.63951799999999
100
AcDbArc
 50
296.2888529999998
 51
310.0709029999998
  0
ARC
  5
A2D2
330
A0B9
100
AcDbEntity
  8
1
  6
Continuous
100
AcDbCircle
 10
425.4583509999998
 20
211.513291
 30
0.0
 40
2.6
100
AcDbArc
 50
346.0
 51
90.0
  0
ARC
  5
A2D3
330
A0B9
100
AcDbEntity
  8
1
  6
Continuous
100
AcDbCircle
 10
435.092469
 20
199.7735839999998
 30
0.0
 40
15.249345
100
AcDbArc
 50
170.957293
 51
241.682165
  0
LINE
  5
A2D4
330
A0B9
100
AcDbEntity
  8
1
  6
Continuous
100
AcDbLine
 10
412.8601109999998
 20
216.219515
 30
0.0
 11
410.753827
 21
214.1132299999999
 31
0.0
  0
LINE
  5
A2D5
330
A0B9
100
AcDbEntity
  8
1
  6
Continuous
100
AcDbLine
 10
414.2743249999998
 20
216.219515
 30
0.0
 11
412.16804
 21
214.1132299999999
 31
0.0
  0
LINE
  5
A2D6
330
A0B9
100
AcDbEntity
  8
1
  6
Continuous
100
AcDbLine
 10
410.753827
 20
216.219515
 30
0.0
 11
412.8601109999998
 21
214.1132299999999
 31
0.0
  0
LINE
  5
A2D7
330
A0B9
100
AcDbEntity
  8
1
  6
Continuous
100
AcDbLine
 10
412.16804
 20
216.219515
 30
0.0
 11
414.2743249999998
 21
214.1132299999999
 31
0.0
  0
ARC
  5
A2D8
330
A0B9
100
AcDbEntity
  8
1
  6
Continuous
100
AcDbCircle
 10
425.2212639999998
 20
223.050664
 30
0.0
 40
3.611148999999998
100
AcDbArc
 50
270.0
 51
296.2888529999998
  0
ARC
  5
A2D9
330
A0B9
100
AcDbEntity
  8
1
  6
Continuous
100
AcDbCircle
 10
420.1355229999998
 20
214.6535419999999
 30
0.0
 40
6.206
100
AcDbArc
 50
39.064301
 51
50.460397
  0
LINE
  5
A2DA
330
A0B9
100
AcDbEntity
  8
1
  6
Continuous
100
AcDbLine
 10
415.688538
 20
216.219515
 30
0.0
 11
413.5822539999998
 21
214.1132299999999
 31
0.0
  0
LINE
  5
A2DB
330
A0B9
100
AcDbEntity
  8
1
  6
Continuous
100
AcDbLine
 10
413.5822539999998
 20
216.219515
 30
0.0
 11
415.688538
 21
214.1132299999999
 31
0.0
  0
LINE
  5
A2DC
330
A0B9
100
AcDbEntity
  8
1
  6
Continuous
100
AcDbLine
 10
417.1027519999998
 20
216.219515
 30
0.0
 11
414.996467
 21
214.1132299999999
 31
0.0
  0
LINE
  5
A2DD
330
A0B9
100
AcDbEntity
  8
1
  6
Continuous
100
AcDbLine
 10
418.5169649999998
 20
216.219515
 30
0.0
 11
416.4106809999998
 21
214.1132299999999
 31
0.0
  0
LINE
  5
A2DE
330
A0B9
100
AcDbEntity
  8
1
  6
Continuous
100
AcDbLine
 10
414.996467
 20
216.219515
 30
0.0
 11
417.1027519999998
 21
214.1132299999999
 31
0.0
  0
LINE
  5
A2DF
330
A0B9
100
AcDbEntity
  8
1
  6
Continuous
100
AcDbLine
 10
416.4106809999998
 20
216.219515
 30
0.0
 11
418.5169649999998
 21
214.1132299999999
 31
0.0
  0
LINE
  5
A2E0
330
A0B9
100
AcDbEntity
  8
1
  6
Continuous
100
AcDbLine
 10
421.345392
 20
216.219515
 30
0.0
 11
419.239108
 21
214.1132299999999
 31
0.0
  0
LINE
  5
A2E1
330
A0B9
100
AcDbEntity
  8
1
  6
Continuous
100
AcDbLine
 10
419.239108
 20
216.219515
 30
0.0
 11
421.345392
 21
214.1132299999999
 31
0.0
  0
LINE
  5
A2E2
330
A0B9
100
AcDbEntity
  8
1
  6
Continuous
100
AcDbLine
 10
422.7596059999998
 20
216.219515
 30
0.0
 11
420.6533219999998
 21
214.1132299999999
 31
0.0
  0
LINE
  5
A2E3
330
A0B9
100
AcDbEntity
  8
1
  6
Continuous
100
AcDbLine
 10
424.1738199999998
 20
216.219515
 30
0.0
 11
422.0675349999998
 21
214.1132299999999
 31
0.0
  0
LINE
  5
A2E4
330
A0B9
100
AcDbEntity
  8
1
  6
Continuous
100
AcDbLine
 10
420.6533219999998
 20
216.219515
 30
0.0
 11
422.7596059999998
 21
214.1132299999999
 31
0.0
  0
LINE
  5
A2E5
330
A0B9
100
AcDbEntity
  8
1
  6
Continuous
100
AcDbLine
 10
422.0675349999998
 20
216.219515
 30
0.0
 11
424.1738199999998
 21
214.1132299999999
 31
0.0
  0
LINE
  5
A2E6
330
A0B9
100
AcDbEntity
  8
1
  6
Continuous
100
AcDbLine
 10
419.931179
 20
216.219515
 30
0.0
 11
417.824895
 21
214.1132299999999
 31
0.0
  0
LINE
  5
A2E7
330
A0B9
100
AcDbEntity
  8
1
  6
Continuous
100
AcDbLine
 10
417.824895
 20
216.219515
 30
0.0
 11
419.931179
 21
214.1132299999999
 31
0.0
  0
LINE
  5
A2E8
330
A0B9
100
AcDbEntity
  8
1
  6
Continuous
100
AcDbLine
 10
424.8959619999998
 20
214.1132299999999
 30
0.0
 11
425.9491049999998
 21
215.166373
 31
0.0
  0
LINE
  5
A2E9
330
A0B9
100
AcDbEntity
  8
1
  6
Continuous
100
AcDbLine
 10
425.9491049999998
 20
214.1132299999999
 30
0.0
 11
425.9491049999998
 21
216.219515
 31
0.0
  0
LINE
  5
A2EA
330
A0B9
100
AcDbEntity
  8
1
  6
Continuous
100
AcDbLine
 10
425.588033
 20
216.219515
 30
0.0
 11
423.481749
 21
214.1132299999999
 31
0.0
  0
LINE
  5
A2EB
330
A0B9
100
AcDbEntity
  8
1
  6
Continuous
100
AcDbLine
 10
423.481749
 20
216.219515
 30
0.0
 11
425.588033
 21
214.1132299999999
 31
0.0
  0
LINE
  5
A2EC
330
A0B9
100
AcDbEntity
  8
1
  6
Continuous
100
AcDbLine
 10
414.892984
 20
216.219515
 30
0.0
 11
416.59242
 21
216.219515
 31
0.0
  0
LINE
  5
A2ED
330
A0B9
100
AcDbEntity
  8
1
  6
Continuous
100
AcDbLine
 10
424.8959619999998
 20
216.219515
 30
0.0
 11
425.9491049999998
 21
215.166373
 31
0.0
  0
LINE
  5
A2EE
330
A0B9
100
AcDbEntity
  8
1
  6
Continuous
100
AcDbLine
 10
425.799105
 20
216.579515
 30
0.0
 11
425.6691049999998
 21
216.219515
 31
0.0
  0
ARC
  5
A2EF
330
A0B9
100
AcDbEntity
  8
1
  6
Continuous
100
AcDbCircle
 10
422.337623
 20
219.7547419999999
 30
0.0
 40
4.697225
100
AcDbArc
 50
317.4697509999999
 51
333.713305
  0
LINE
  5
A2F0
330
A0B9
100
AcDbEntity
  8
1
  6
Continuous
100
AcDbLine
 10
426.721874
 20
205.8337379999999
 30
0.0
 11
423.9790929999998
 21
205.8337379999999
 31
0.0
  0
LINE
  5
A2F1
330
A0B9
100
AcDbEntity
  8
1
  6
Continuous
100
AcDbLine
 10
426.721874
 20
205.8337379999999
 30
0.0
 11
427.981119
 21
210.884295
 31
0.0
  0
ARC
  5
A2F2
330
A0B9
100
AcDbEntity
  8
1
  6
Continuous
100
AcDbCircle
 10
423.9790929999998
 20
201.876362
 30
0.0
 40
3.957376
100
AcDbArc
 50
90.0
 51
175.739891
  0
LINE
  5
A2F3
330
A0B9
100
AcDbEntity
  8
1
  6
Continuous
100
AcDbLine
 10
425.1241049999999
 20
218.2045149999999
 30
0.0
 11
424.9541049999998
 21
218.564515
 31
0.0
  0
ARC
  5
A2F4
330
A0B9
100
AcDbEntity
  8
1
  6
Continuous
100
AcDbCircle
 10
425.6751339999998
 20
217.284662
 30
0.0
 40
0.9569799999999998
100
AcDbArc
 50
24.04026499999999
 51
73.98808699999998
  0
LINE
  5
A2F5
330
A0B9
100
AcDbEntity
  8
1
  6
Continuous
100
AcDbLine
 10
400.1321889999998
 20
216.219515
 30
0.0
 11
398.0259049999999
 21
214.1132299999999
 31
0.0
  0
LINE
  5
A2F6
330
A0B9
100
AcDbEntity
  8
1
  6
Continuous
100
AcDbLine
 10
398.0259049999999
 20
216.219515
 30
0.0
 11
400.1321889999998
 21
214.1132299999999
 31
0.0
  0
LINE
  5
A2F7
330
A0B9
100
AcDbEntity
  8
1
  6
Continuous
100
AcDbLine
 10
398.717975
 20
216.219515
 30
0.0
 11
396.611691
 21
214.1132299999999
 31
0.0
  0
LINE
  5
A2F8
330
A0B9
100
AcDbEntity
  8
1
  6
Continuous
100
AcDbLine
 10
396.611691
 20
216.219515
 30
0.0
 11
398.717975
 21
214.1132299999999
 31
0.0
  0
LINE
  5
A2F9
330
A0B9
100
AcDbEntity
  8
1
  6
Continuous
100
AcDbLine
 10
408.6174699999999
 20
216.219515
 30
0.0
 11
406.511186
 21
214.1132299999999
 31
0.0
  0
LINE
  5
A2FA
330
A0B9
100
AcDbEntity
  8
1
  6
Continuous
100
AcDbLine
 10
406.511186
 20
216.219515
 30
0.0
 11
408.6174699999999
 21
214.1132299999999
 31
0.0
  0
LINE
  5
A2FB
330
A0B9
100
AcDbEntity
  8
1
  6
Continuous
100
AcDbLine
 10
404.3748299999998
 20
216.219515
 30
0.0
 11
402.2685449999998
 21
214.1132299999999
 31
0.0
  0
LINE
  5
A2FC
330
A0B9
100
AcDbEntity
  8
1
  6
Continuous
100
AcDbLine
 10
405.7890429999998
 20
216.219515
 30
0.0
 11
403.6827589999998
 21
214.1132299999999
 31
0.0
  0
LINE
  5
A2FD
330
A0B9
100
AcDbEntity
  8
1
  6
Continuous
100
AcDbLine
 10
402.2685449999998
 20
216.219515
 30
0.0
 11
404.3748299999998
 21
214.1132299999999
 31
0.0
  0
LINE
  5
A2FE
330
A0B9
100
AcDbEntity
  8
1
  6
Continuous
100
AcDbLine
 10
403.6827589999998
 20
216.219515
 30
0.0
 11
405.7890429999998
 21
214.1132299999999
 31
0.0
  0
LINE
  5
A2FF
330
A0B9
100
AcDbEntity
  8
1
  6
Continuous
100
AcDbLine
 10
407.203257
 20
216.219515
 30
0.0
 11
405.096972
 21
214.1132299999999
 31
0.0
  0
LINE
  5
A300
330
A0B9
100
AcDbEntity
  8
1
  6
Continuous
100
AcDbLine
 10
405.096972
 20
216.219515
 30
0.0
 11
407.203257
 21
214.1132299999999
 31
0.0
  0
LINE
  5
A301
330
A0B9
100
AcDbEntity
  8
1
  6
Continuous
100
AcDbLine
 10
411.445898
 20
216.219515
 30
0.0
 11
409.339613
 21
214.1132299999999
 31
0.0
  0
LINE
  5
A302
330
A0B9
100
AcDbEntity
  8
1
  6
Continuous
100
AcDbLine
 10
409.339613
 20
216.219515
 30
0.0
 11
411.445898
 21
214.1132299999999
 31
0.0
  0
LINE
  5
A303
330
A0B9
100
AcDbEntity
  8
1
  6
Continuous
100
AcDbLine
 10
410.0316839999998
 20
216.219515
 30
0.0
 11
407.9254
 21
214.1132299999999
 31
0.0
  0
LINE
  5
A304
330
A0B9
100
AcDbEntity
  8
1
  6
Continuous
100
AcDbLine
 10
407.9254
 20
216.219515
 30
0.0
 11
410.0316839999998
 21
214.1132299999999
 31
0.0
  0
LINE
  5
A305
330
A0B9
100
AcDbEntity
  8
1
  6
Continuous
100
AcDbLine
 10
401.546403
 20
216.219515
 30
0.0
 11
399.440118
 21
214.1132299999999
 31
0.0
  0
LINE
  5
A306
330
A0B9
100
AcDbEntity
  8
1
  6
Continuous
100
AcDbLine
 10
399.440118
 20
216.219515
 30
0.0
 11
401.546403
 21
214.1132299999999
 31
0.0
  0
LINE
  5
A307
330
A0B9
100
AcDbEntity
  8
1
  6
Continuous
100
AcDbLine
 10
402.960616
 20
216.219515
 30
0.0
 11
400.854332
 21
214.1132299999999
 31
0.0
  0
LINE
  5
A308
330
A0B9
100
AcDbEntity
  8
1
  6
Continuous
100
AcDbLine
 10
400.854332
 20
216.219515
 30
0.0
 11
402.960616
 21
214.1132299999999
 31
0.0
  0
LINE
  5
A309
330
A0B9
100
AcDbEntity
  8
1
  6
Continuous
100
AcDbLine
 10
434.949105
 20
221.637566
 30
0.0
 11
434.949105
 21
224.2375339999999
 31
0.0
  0
LINE
  5
A30A
330
A0B9
100
AcDbEntity
  8
1
  6
Continuous
100
AcDbLine
 10
428.957453
 20
221.210233
 30
0.0
 11
428.996957
 21
221.637545
 31
0.0
  0
ARC
  5
A30B
330
A0B9
100
AcDbEntity
  8
1
  6
Continuous
100
AcDbCircle
 10
383.7897869999998
 20
229.352107
 30
0.0
 40
10.63951799999999
100
AcDbArc
 50
229.929097
 51
243.711147
  0
LINE
  5
A30C
330
A0B9
100
AcDbEntity
  8
4
  6
CENTER
100
AcDbLine
 10
377.9491049999998
 20
229.237643
 30
0.0
 11
377.9491049999998
 21
216.637367
 31
0.0
  0
ARC
  5
A30D
330
A0B9
100
AcDbEntity
  8
1
  6
Continuous
100
AcDbCircle
 10
380.7491049999999
 20
211.513291
 30
0.0
 40
2.6
100
AcDbArc
 50
90.0
 51
180.0
  0
ARC
  5
A30E
330
A0B9
100
AcDbEntity
  8
1
  6
Continuous
100
AcDbCircle
 10
380.6769449999999
 20
223.050664
 30
0.0
 40
3.611148999999998
100
AcDbArc
 50
243.711147
 51
270.0
  0
LINE
  5
A30F
330
A0B9
100
AcDbEntity
  8
1
  6
Continuous
100
AcDbLine
 10
381.7474129999998
 20
216.219515
 30
0.0
 11
379.9491049999998
 21
214.421207
 31
0.0
  0
LINE
  5
A310
330
A0B9
100
AcDbEntity
  8
1
  6
Continuous
100
AcDbLine
 10
379.9491049999998
 20
215.911539
 30
0.0
 11
381.7474129999998
 21
214.1132299999999
 31
0.0
  0
ARC
  5
A311
330
A0B9
100
AcDbEntity
  8
1
  6
Continuous
100
AcDbCircle
 10
385.7626859999998
 20
214.6535419999999
 30
0.0
 40
6.206
100
AcDbArc
 50
129.539603
 51
140.935699
  0
LINE
  5
A312
330
A0B9
100
AcDbEntity
  8
1
  6
Continuous
100
AcDbLine
 10
383.1616259999998
 20
216.219515
 30
0.0
 11
381.055342
 21
214.1132299999999
 31
0.0
  0
LINE
  5
A313
330
A0B9
100
AcDbEntity
  8
1
  6
Continuous
100
AcDbLine
 10
381.055342
 20
216.219515
 30
0.0
 11
383.1616259999998
 21
214.1132299999999
 31
0.0
  0
LINE
  5
A314
330
A0B9
100
AcDbEntity
  8
1
  6
Continuous
100
AcDbLine
 10
384.5758399999998
 20
216.219515
 30
0.0
 11
382.4695549999999
 21
214.1132299999999
 31
0.0
  0
LINE
  5
A315
330
A0B9
100
AcDbEntity
  8
1
  6
Continuous
100
AcDbLine
 10
382.4695549999999
 20
216.219515
 30
0.0
 11
384.5758399999998
 21
214.1132299999999
 31
0.0
  0
LINE
  5
A316
330
A0B9
100
AcDbEntity
  8
1
  6
Continuous
100
AcDbLine
 10
388.818481
 20
216.219515
 30
0.0
 11
386.712196
 21
214.1132299999999
 31
0.0
  0
LINE
  5
A317
330
A0B9
100
AcDbEntity
  8
1
  6
Continuous
100
AcDbLine
 10
386.712196
 20
216.219515
 30
0.0
 11
388.818481
 21
214.1132299999999
 31
0.0
  0
LINE
  5
A318
330
A0B9
100
AcDbEntity
  8
1
  6
Continuous
100
AcDbLine
 10
390.232694
 20
216.219515
 30
0.0
 11
388.12641
 21
214.1132299999999
 31
0.0
  0
LINE
  5
A319
330
A0B9
100
AcDbEntity
  8
1
  6
Continuous
100
AcDbLine
 10
391.646908
 20
216.219515
 30
0.0
 11
389.5406229999999
 21
214.1132299999999
 31
0.0
  0
LINE
  5
A31A
330
A0B9
100
AcDbEntity
  8
1
  6
Continuous
100
AcDbLine
 10
388.12641
 20
216.219515
 30
0.0
 11
390.232694
 21
214.1132299999999
 31
0.0
  0
LINE
  5
A31B
330
A0B9
100
AcDbEntity
  8
1
  6
Continuous
100
AcDbLine
 10
389.5406229999999
 20
216.219515
 30
0.0
 11
391.646908
 21
214.1132299999999
 31
0.0
  0
LINE
  5
A31C
330
A0B9
100
AcDbEntity
  8
1
  6
Continuous
100
AcDbLine
 10
385.9900529999999
 20
216.219515
 30
0.0
 11
383.8837689999999
 21
214.1132299999999
 31
0.0
  0
LINE
  5
A31D
330
A0B9
100
AcDbEntity
  8
1
  6
Continuous
100
AcDbLine
 10
387.404267
 20
216.219515
 30
0.0
 11
385.2979829999999
 21
214.1132299999999
 31
0.0
  0
LINE
  5
A31E
330
A0B9
100
AcDbEntity
  8
1
  6
Continuous
100
AcDbLine
 10
383.8837689999999
 20
216.219515
 30
0.0
 11
385.9900529999999
 21
214.1132299999999
 31
0.0
  0
LINE
  5
A31F
330
A0B9
100
AcDbEntity
  8
1
  6
Continuous
100
AcDbLine
 10
385.2979829999999
 20
216.219515
 30
0.0
 11
387.404267
 21
214.1132299999999
 31
0.0
  0
LINE
  5
A320
330
A0B9
100
AcDbEntity
  8
1
  6
Continuous
100
AcDbLine
 10
395.8895479999998
 20
216.219515
 30
0.0
 11
393.7832639999998
 21
214.1132299999999
 31
0.0
  0
LINE
  5
A321
330
A0B9
100
AcDbEntity
  8
1
  6
Continuous
100
AcDbLine
 10
393.7832639999998
 20
216.219515
 30
0.0
 11
395.8895479999998
 21
214.1132299999999
 31
0.0
  0
LINE
  5
A322
330
A0B9
100
AcDbEntity
  8
1
  6
Continuous
100
AcDbLine
 10
393.061121
 20
216.219515
 30
0.0
 11
390.9548369999998
 21
214.1132299999999
 31
0.0
  0
LINE
  5
A323
330
A0B9
100
AcDbEntity
  8
1
  6
Continuous
100
AcDbLine
 10
390.9548369999998
 20
216.219515
 30
0.0
 11
393.061121
 21
214.1132299999999
 31
0.0
  0
LINE
  5
A324
330
A0B9
100
AcDbEntity
  8
1
  6
Continuous
100
AcDbLine
 10
394.4753349999999
 20
216.219515
 30
0.0
 11
392.36905
 21
214.1132299999999
 31
0.0
  0
LINE
  5
A325
330
A0B9
100
AcDbEntity
  8
1
  6
Continuous
100
AcDbLine
 10
392.36905
 20
216.219515
 30
0.0
 11
394.4753349999999
 21
214.1132299999999
 31
0.0
  0
LINE
  5
A326
330
A0B9
100
AcDbEntity
  8
1
  6
Continuous
100
AcDbLine
 10
380.7741049999998
 20
218.2045149999999
 30
0.0
 11
380.9441049999999
 21
218.564515
 31
0.0
  0
LINE
  5
A327
330
A0B9
100
AcDbEntity
  8
1
  6
Continuous
100
AcDbLine
 10
378.1491049999999
 20
211.513291
 30
0.0
 11
378.1491049999999
 21
207.237595
 31
0.0
  0
LINE
  5
A328
330
A0B9
100
AcDbEntity
  8
1
  6
Continuous
100
AcDbLine
 10
379.9491049999998
 20
214.1132299999999
 30
0.0
 11
379.9491049999998
 21
216.219515
 31
0.0
  0
ARC
  5
A329
330
A0B9
100
AcDbEntity
  8
1
  6
Continuous
100
AcDbCircle
 10
383.560586
 20
219.7547419999999
 30
0.0
 40
4.697225
100
AcDbArc
 50
206.286695
 51
222.530249
  0
LINE
  5
A32A
330
A0B9
100
AcDbEntity
  8
1
  6
Continuous
100
AcDbLine
 10
380.3331989999999
 20
216.219515
 30
0.0
 11
379.9491049999998
 21
215.83542
 31
0.0
  0
LINE
  5
A32B
330
A0B9
100
AcDbEntity
  8
1
  6
Continuous
100
AcDbLine
 10
380.099105
 20
216.579515
 30
0.0
 11
380.229105
 21
216.219515
 31
0.0
  0
ARC
  5
A32C
330
A0B9
100
AcDbEntity
  8
1
  6
Continuous
100
AcDbCircle
 10
380.223075
 20
217.284662
 30
0.0
 40
0.9569799999999998
100
AcDbArc
 50
106.011913
 51
155.9597349999999
  0
LINE
  5
A32D
330
A0B9
100
AcDbEntity
  8
1
  6
Continuous
100
AcDbLine
 10
370.949105
 20
221.637342
 30
0.0
 11
370.949105
 21
224.2376559999999
 31
0.0
  0
LINE
  5
A32E
330
A0B9
100
AcDbEntity
  8
1
  6
Continuous
100
AcDbLine
 10
376.940756
 20
221.210233
 30
0.0
 11
376.9012519999998
 21
221.637545
 31
0.0
  0
CIRCLE
  5
A32F
330
A0B9
100
AcDbEntity
  8
1
  6
Continuous
100
AcDbCircle
 10
422.949105
 20
177.237719
 30
0.0
 40
7.0
  0
LINE
  5
A330
330
A0B9
100
AcDbEntity
  8
4
  6
CENTER
100
AcDbLine
 10
164.9491049999998
 20
111.8744259999999
 30
0.0
 11
164.9491049999998
 21
37.874426
 31
0.0
  0
LINE
  5
A331
330
A0B9
100
AcDbEntity
  8
1
  6
Continuous
100
AcDbLine
 10
167.949105
 20
101.274426
 30
0.0
 11
161.949105
 21
101.274426
 31
0.0
  0
LINE
  5
A332
330
A0B9
100
AcDbEntity
  8
1
  6
Continuous
100
AcDbLine
 10
166.9491049999998
 20
92.974426
 30
0.0
 11
164.9491049999998
 21
94.97442599999999
 31
0.0
  0
LINE
  5
A333
330
A0B9
100
AcDbEntity
  8
1
  6
Continuous
100
AcDbLine
 10
172.449105
 20
94.97442599999999
 30
0.0
 11
157.4491049999998
 21
94.97442599999999
 31
0.0
  0
LINE
  5
A334
330
A0B9
100
AcDbEntity
  8
1
  6
Continuous
100
AcDbLine
 10
168.9491049999998
 20
100.274426
 30
0.0
 11
160.949105
 21
100.274426
 31
0.0
  0
LINE
  5
A335
330
A0B9
100
AcDbEntity
  8
1
  6
Continuous
100
AcDbLine
 10
154.599105
 20
92.974426
 30
0.0
 11
171.4704529999998
 21
92.974426
 31
0.0
  0
LINE
  5
A336
330
A0B9
100
AcDbEntity
  8
1
  6
Continuous
100
AcDbLine
 10
171.949105
 20
54.448189
 30
0.0
 11
157.949105
 21
54.448189
 31
0.0
  0
ARC
  5
A337
330
A0B9
100
AcDbEntity
  8
1
  6
Continuous
100
AcDbCircle
 10
164.9491049999998
 20
62.27442599999999
 30
0.0
 40
10.5
100
AcDbArc
 50
228.1896849999998
 51
311.810315
  0
LINE
  5
A338
330
A0B9
100
AcDbEntity
  8
1
  6
Continuous
100
AcDbLine
 10
154.599105
 20
56.774426
 30
0.0
 11
171.4704529999998
 21
56.774426
 31
0.0
  0
LINE
  5
A339
330
A0B9
100
AcDbEntity
  8
1
  6
Continuous
100
AcDbLine
 10
154.599105
 20
59.374426
 30
0.0
 11
174.449105
 21
59.374426
 31
0.0
  0
LINE
  5
A33A
330
A0B9
100
AcDbEntity
  8
1
  6
Continuous
100
AcDbLine
 10
171.949105
 20
54.448189
 30
0.0
 11
171.949105
 21
56.774426
 31
0.0
  0
LINE
  5
A33B
330
A0B9
100
AcDbEntity
  8
2
  6
Continuous
100
AcDbLine
 10
168.272605
 20
99.97442599999999
 30
0.0
 11
168.272605
 21
100.9509259999999
 31
0.0
  0
LINE
  5
A33C
330
A0B9
100
AcDbEntity
  8
1
  6
Continuous
100
AcDbLine
 10
168.9491049999998
 20
99.97442599999999
 30
0.0
 11
168.9491049999998
 21
100.274426
 31
0.0
  0
LINE
  5
A33D
330
A0B9
100
AcDbEntity
  8
1
  6
Continuous
100
AcDbLine
 10
172.449105
 20
92.974426
 30
0.0
 11
172.449105
 21
94.97442599999999
 31
0.0
  0
LINE
  5
A33E
330
A0B9
100
AcDbEntity
  8
1
  6
Continuous
100
AcDbLine
 10
168.9491049999998
 20
100.274426
 30
0.0
 11
167.949105
 21
101.274426
 31
0.0
  0
LINE
  5
A33F
330
A0B9
100
AcDbEntity
  8
1
  6
Continuous
100
AcDbLine
 10
157.949105
 20
54.448189
 30
0.0
 11
157.949105
 21
56.774426
 31
0.0
  0
LINE
  5
A340
330
A0B9
100
AcDbEntity
  8
1
  6
Continuous
100
AcDbLine
 10
160.949105
 20
100.274426
 30
0.0
 11
161.949105
 21
101.274426
 31
0.0
  0
LINE
  5
A341
330
A0B9
100
AcDbEntity
  8
2
  6
Continuous
100
AcDbLine
 10
161.625605
 20
99.97442599999999
 30
0.0
 11
161.625605
 21
100.9509259999999
 31
0.0
  0
LINE
  5
A342
330
A0B9
100
AcDbEntity
  8
1
  6
Continuous
100
AcDbLine
 10
164.9491049999998
 20
92.974426
 30
0.0
 11
162.949105
 21
94.97442599999999
 31
0.0
  0
LINE
  5
A343
330
A0B9
100
AcDbEntity
  8
1
  6
Continuous
100
AcDbLine
 10
160.949105
 20
99.97442599999999
 30
0.0
 11
160.949105
 21
100.274426
 31
0.0
  0
LINE
  5
A344
330
A0B9
100
AcDbEntity
  8
1
  6
Continuous
100
AcDbLine
 10
157.4491049999998
 20
92.974426
 30
0.0
 11
157.4491049999998
 21
94.97442599999999
 31
0.0
  0
ARC
  5
A345
330
A0B9
100
AcDbEntity
  8
1
  6
Continuous
100
AcDbCircle
 10
167.949105
 20
103.63949
 30
0.0
 40
8.665063999999999
100
AcDbArc
 50
249.7438419999999
 51
290.256158
  0
ARC
  5
A346
330
A0B9
100
AcDbEntity
  8
1
  6
Continuous
100
AcDbCircle
 10
167.949105
 20
91.309363
 30
0.0
 40
8.665063999999999
100
AcDbArc
 50
69.743842
 51
110.256158
  0
LINE
  5
A347
330
A0B9
100
AcDbEntity
  8
1
  6
Continuous
100
AcDbLine
 10
158.949105
 20
99.97442599999999
 30
0.0
 11
170.949105
 21
99.97442599999999
 31
0.0
  0
LINE
  5
A348
330
A0B9
100
AcDbEntity
  8
1
  6
Continuous
100
AcDbLine
 10
170.949105
 20
99.97442599999999
 30
0.0
 11
170.949105
 21
94.97442599999999
 31
0.0
  0
ARC
  5
A349
330
A0B9
100
AcDbEntity
  8
1
  6
Continuous
100
AcDbCircle
 10
161.949105
 20
103.63949
 30
0.0
 40
8.665063999999999
100
AcDbArc
 50
249.7438419999999
 51
290.256158
  0
ARC
  5
A34A
330
A0B9
100
AcDbEntity
  8
1
  6
Continuous
100
AcDbCircle
 10
161.949105
 20
91.309363
 30
0.0
 40
8.665063999999999
100
AcDbArc
 50
69.743842
 51
110.256158
  0
LINE
  5
A34B
330
A0B9
100
AcDbEntity
  8
1
  6
Continuous
100
AcDbLine
 10
164.9491049999998
 20
95.51032499999999
 30
0.0
 11
164.9491049999998
 21
99.43852800000001
 31
0.0
  0
LINE
  5
A34C
330
A0B9
100
AcDbEntity
  8
1
  6
Continuous
100
AcDbLine
 10
158.949105
 20
99.97442599999999
 30
0.0
 11
158.949105
 21
94.97442599999999
 31
0.0
  0
LINE
  5
A34D
330
A0B9
100
AcDbEntity
  8
1
  6
Continuous
100
AcDbLine
 10
154.599105
 20
92.974426
 30
0.0
 11
154.599105
 21
90.374426
 31
0.0
  0
LINE
  5
A34E
330
A0B9
100
AcDbEntity
  8
1
  6
Continuous
100
AcDbLine
 10
174.449105
 20
90.374426
 30
0.0
 11
154.599105
 21
90.374426
 31
0.0
  0
LINE
  5
A34F
330
A0B9
100
AcDbEntity
  8
1
  6
Continuous
100
AcDbLine
 10
154.599105
 20
56.774426
 30
0.0
 11
154.599105
 21
59.374426
 31
0.0
  0
LINE
  5
A350
330
A0B9
100
AcDbEntity
  8
1
  6
Continuous
100
AcDbLine
 10
152.949105
 20
60.082288
 30
0.0
 11
152.949105
 21
49.874426
 31
0.0
  0
ARC
  5
A351
330
A0B9
100
AcDbEntity
  8
1
  6
Continuous
100
AcDbCircle
 10
184.949105
 20
74.874426
 30
0.0
 40
24.8
100
AcDbArc
 50
237.100916
 51
124.368697
  0
ARC
  5
A352
330
A0B9
100
AcDbEntity
  8
1
  6
Continuous
100
AcDbCircle
 10
184.949105
 20
74.874426
 30
0.0
 40
22.2
100
AcDbArc
 50
282.029822
 51
77.970178
  0
ARC
  5
A353
330
A0B9
100
AcDbEntity
  8
1
  6
Continuous
100
AcDbCircle
 10
184.949105
 20
74.874426
 30
0.0
 40
26.047853
100
AcDbArc
 50
235.978708
 51
122.511734
  0
ARC
  5
A354
330
A0B9
100
AcDbEntity
  8
1
  6
Continuous
100
AcDbCircle
 10
187.803301
 20
85.16043899999997
 30
0.0
 40
14.16816299999998
100
AcDbArc
 50
82.04366099999999
 51
132.5163189999998
  0
ARC
  5
A355
330
A0B9
100
AcDbEntity
  8
1
  6
Continuous
100
AcDbCircle
 10
189.072344
 20
94.24034699999998
 30
0.0
 40
5.0
100
AcDbArc
 50
77.98050999999998
 51
82.04366099999999
  0
ARC
  5
A356
330
A0B9
100
AcDbEntity
  8
1
  6
Continuous
100
AcDbCircle
 10
171.4704529999998
 20
102.9744259999998
 30
0.0
 40
10.0
100
AcDbArc
 50
270.0
 51
312.516319
  0
ARC
  5
A357
330
A0B9
100
AcDbEntity
  8
1
  6
Continuous
100
AcDbCircle
 10
187.803301
 20
85.16043899999997
 30
0.0
 40
11.568163
100
AcDbArc
 50
82.06604099999998
 51
132.5163189999998
  0
ARC
  5
A358
330
A0B9
100
AcDbEntity
  8
1
  6
Continuous
100
AcDbCircle
 10
189.0549939999999
 20
94.141799
 30
0.0
 40
2.5
100
AcDbArc
 50
77.970178
 51
82.06604099999998
  0
ARC
  5
A359
330
A0B9
100
AcDbEntity
  8
1
  6
Continuous
100
AcDbCircle
 10
171.4704529999998
 20
102.9744259999998
 30
0.0
 40
12.6
100
AcDbArc
 50
270.0
 51
312.516319
  0
ARC
  5
A35A
330
A0B9
100
AcDbEntity
  8
1
  6
Continuous
100
AcDbCircle
 10
171.4704529999998
 20
46.774426
 30
0.0
 40
12.6
100
AcDbArc
 50
47.48368099999999
 51
90.0
  0
ARC
  5
A35B
330
A0B9
100
AcDbEntity
  8
1
  6
Continuous
100
AcDbCircle
 10
187.803301
 20
64.588414
 30
0.0
 40
14.16816299999998
100
AcDbArc
 50
227.483681
 51
277.956339
  0
ARC
  5
A35C
330
A0B9
100
AcDbEntity
  8
1
  6
Continuous
100
AcDbCircle
 10
171.4704529999998
 20
46.774426
 30
0.0
 40
10.0
100
AcDbArc
 50
47.48368099999999
 51
90.0
  0
ARC
  5
A35D
330
A0B9
100
AcDbEntity
  8
1
  6
Continuous
100
AcDbCircle
 10
187.803301
 20
64.588414
 30
0.0
 40
11.568163
100
AcDbArc
 50
227.483681
 51
277.9339589999998
  0
ARC
  5
A35E
330
A0B9
100
AcDbEntity
  8
1
  6
Continuous
100
AcDbCircle
 10
189.0549939999999
 20
55.607053
 30
0.0
 40
2.5
100
AcDbArc
 50
277.9339589999998
 51
282.029822
  0
ARC
  5
A35F
330
A0B9
100
AcDbEntity
  8
1
  6
Continuous
100
AcDbCircle
 10
189.072344
 20
55.50850500000001
 30
0.0
 40
5.0
100
AcDbArc
 50
277.956339
 51
282.01949
  0
ARC
  5
A360
330
A0B9
100
AcDbEntity
  8
1
  6
Continuous
100
AcDbCircle
 10
184.949105
 20
74.874426
 30
0.0
 40
20.2
100
AcDbArc
 50
259.677258
 51
100.322742
  0
ARC
  5
A361
330
A0B9
100
AcDbEntity
  8
1
  6
Continuous
100
AcDbCircle
 10
184.949105
 20
74.874426
 30
0.0
 40
15.2
100
AcDbArc
 50
250.0202299999999
 51
109.979764
  0
ARC
  5
A362
330
A0B9
100
AcDbEntity
  8
1
  6
Continuous
100
AcDbCircle
 10
184.949105
 20
74.874426
 30
0.0
 40
7.2
100
AcDbArc
 50
312.4405279999999
 51
47.559472
  0
ARC
  5
A363
330
A0B9
100
AcDbEntity
  8
1
  6
Continuous
100
AcDbCircle
 10
161.949105
 20
285.1658279999999
 30
0.0
 40
8.665063999999999
100
AcDbArc
 50
249.7438419999999
 51
278.294192
  0
LINE
  5
A364
330
A0B9
100
AcDbEntity
  8
1
  6
Continuous
100
AcDbLine
 10
158.949105
 20
276.5007639999998
 30
0.0
 11
163.1975659999999
 21
276.5007639999998
 31
0.0
  0
LINE
  5
A365
330
A0B9
100
AcDbEntity
  8
1
  6
Continuous
100
AcDbLine
 10
158.949105
 20
276.5007639999998
 30
0.0
 11
158.949105
 21
279.6930929999999
 31
0.0
  0
LINE
  5
A366
330
A0B9
100
AcDbEntity
  8
1
  6
Continuous
100
AcDbLine
 10
160.949105
 20
276.5007639999998
 30
0.0
 11
160.949105
 21
276.2007639999998
 31
0.0
  0
LINE
  5
A367
330
A0B9
100
AcDbEntity
  8
2
  6
Continuous
100
AcDbLine
 10
161.625605
 20
276.5007639999998
 30
0.0
 11
161.625605
 21
275.524264
 31
0.0
  0
LINE
  5
A368
330
A0B9
100
AcDbEntity
  8
1
  6
Continuous
100
AcDbLine
 10
160.949105
 20
276.2007639999998
 30
0.0
 11
161.949105
 21
275.2007639999998
 31
0.0
  0
LINE
  5
A369
330
A0B9
100
AcDbEntity
  8
1
  6
Continuous
100
AcDbLine
 10
163.174395
 20
276.2007639999998
 30
0.0
 11
160.949105
 21
276.2007639999998
 31
0.0
  0
LINE
  5
A36A
330
A0B9
100
AcDbEntity
  8
1
  6
Continuous
100
AcDbLine
 10
162.8821069999999
 20
275.2007639999998
 30
0.0
 11
161.949105
 21
275.2007639999998
 31
0.0
  0
ARC
  5
A36B
330
A0B9
100
AcDbEntity
  8
1
  6
Continuous
100
AcDbCircle
 10
164.9491049999998
 20
314.200764
 30
0.0
 40
10.5
100
AcDbArc
 50
104.5821009999998
 51
119.339027
  0
ARC
  5
A36C
330
A0B9
100
AcDbEntity
  8
1
  6
Continuous
100
AcDbCircle
 10
164.9491049999998
 20
177.237719
 30
0.0
 40
25.0
100
AcDbArc
 50
83.262944
 51
349.602319
  0
ARC
  5
A36D
330
A0B9
100
AcDbEntity
  8
1
  6
Continuous
100
AcDbCircle
 10
164.9491049999998
 20
177.237719
 30
0.0
 40
20.0
100
AcDbArc
 50
81.78544999999997
 51
338.1489629999999
  0
ARC
  5
A36E
330
A0B9
100
AcDbEntity
  8
1
  6
Continuous
100
AcDbCircle
 10
164.9491049999998
 20
177.237719
 30
0.0
 40
17.5
100
AcDbArc
 50
82.77437399999998
 51
330.728781
  0
ARC
  5
A36F
330
A0B9
100
AcDbEntity
  8
1
  6
Continuous
100
AcDbCircle
 10
164.9491049999998
 20
177.237719
 30
0.0
 40
17.0
100
AcDbArc
 50
83.18175200000002
 51
329.0233769999999
  0
LINE
  5
A370
330
A0B9
100
AcDbEntity
  8
1
  6
Continuous
100
AcDbLine
 10
144.9491049999998
 20
287.600764
 30
0.0
 11
152.949105
 21
287.600764
 31
0.0
  0
LINE
  5
A371
330
A0B9
100
AcDbEntity
  8
1
  6
Continuous
100
AcDbLine
 10
152.949105
 20
290.344293
 30
0.0
 11
140.5846649999998
 21
290.344293
 31
0.0
  0
ARC
  5
A372
330
A0B9
100
AcDbEntity
  8
1
  6
Continuous
100
AcDbCircle
 10
155.092408
 20
306.6934509999999
 30
0.0
 40
20.0
100
AcDbArc
 50
252.675647
 51
263.8480749999998
  0
LINE
  5
A373
330
A0B9
100
AcDbEntity
  8
1
  6
Continuous
100
AcDbLine
 10
144.9491049999998
 20
315.600764
 30
0.0
 11
152.949105
 21
315.600764
 31
0.0
  0
LINE
  5
A374
330
A0B9
100
AcDbEntity
  8
1
  6
Continuous
100
AcDbLine
 10
152.949105
 20
312.857236
 30
0.0
 11
140.5846649999998
 21
312.857236
 31
0.0
  0
ARC
  5
A375
330
A0B9
100
AcDbEntity
  8
1
  6
Continuous
100
AcDbCircle
 10
155.092408
 20
296.5080779999999
 30
0.0
 40
20.0
100
AcDbArc
 50
96.151925
 51
107.3243529999998
  0
LINE
  5
A376
330
A0B9
100
AcDbEntity
  8
1
  6
Continuous
100
AcDbLine
 10
144.9491049999998
 20
287.600764
 30
0.0
 11
141.9014999999999
 21
288.685148
 31
0.0
  0
LINE
  5
A377
330
A0B9
100
AcDbEntity
  8
1
  6
Continuous
100
AcDbLine
 10
144.9491049999998
 20
315.600764
 30
0.0
 11
141.901501
 21
314.5163819999999
 31
0.0
  0
ARC
  5
A378
330
A0B9
100
AcDbEntity
  8
1
  6
Continuous
100
AcDbCircle
 10
239.9491049999999
 20
301.6007640000001
 30
0.0
 40
100.0
100
AcDbArc
 50
173.5368179999999
 51
186.463181
  0
ARC
  5
A379
330
A0B9
100
AcDbEntity
  8
1
  6
Continuous
100
AcDbCircle
 10
142.571954
 20
312.632106
 30
0.0
 40
2.0
100
AcDbArc
 50
109.586312
 51
173.5368179999999
  0
ARC
  5
A37A
330
A0B9
100
AcDbEntity
  8
1
  6
Continuous
100
AcDbCircle
 10
142.571954
 20
290.5694229999999
 30
0.0
 40
2.0
100
AcDbArc
 50
186.463181
 51
250.413671
  0
ARC
  5
A37B
330
A0B9
100
AcDbEntity
  8
1
  6
Continuous
100
AcDbCircle
 10
422.949105
 20
177.237719
 30
0.0
 40
17.5
100
AcDbArc
 50
209.2712189999998
 51
97.22562600000001
  0
ARC
  5
A37C
330
A0B9
100
AcDbEntity
  8
1
  6
Continuous
100
AcDbCircle
 10
422.949105
 20
177.237719
 30
0.0
 40
17.0
100
AcDbArc
 50
210.976623
 51
96.81824800000001
  0
ARC
  5
A37D
330
A0B9
100
AcDbEntity
  8
1
  6
Continuous
100
AcDbCircle
 10
422.949105
 20
177.237719
 30
0.0
 40
25.0
100
AcDbArc
 50
190.3976809999999
 51
96.73705599999999
  0
ARC
  5
A37E
330
A0B9
100
AcDbEntity
  8
1
  6
Continuous
100
AcDbCircle
 10
422.949105
 20
177.237719
 30
0.0
 40
20.0
100
AcDbArc
 50
201.851037
 51
98.21455
  0
ARC
  5
A37F
330
A0B9
100
AcDbEntity
  8
1
  6
Continuous
100
AcDbCircle
 10
73.98044699999998
 20
199.6148699999999
 30
0.0
 40
2.0
100
AcDbArc
 50
19.586312
 51
83.53681800000002
  0
ARC
  5
A380
330
A0B9
100
AcDbEntity
  8
1
  6
Continuous
100
AcDbCircle
 10
73.98044699999998
 20
154.860568
 30
0.0
 40
2.0
100
AcDbArc
 50
276.4631819999999
 51
340.4136879999999
  0
LINE
  5
A381
330
A0B9
100
AcDbEntity
  8
1
  6
Continuous
100
AcDbLine
 10
48.043201
 20
167.143624
 30
0.0
 11
48.043201
 21
187.3318149999998
 31
0.0
  0
LINE
  5
A382
330
A0B9
100
AcDbEntity
  8
1
  6
Continuous
100
AcDbLine
 10
74.205577
 20
152.87328
 30
0.0
 11
74.205577
 21
201.602159
 31
0.0
  0
LINE
  5
A383
330
A0B9
100
AcDbEntity
  8
1
  6
Continuous
100
AcDbLine
 10
51.69263400000001
 20
152.87328
 30
0.0
 11
51.69263400000001
 21
201.602159
 31
0.0
  0
LINE
  5
A384
330
A0B9
100
AcDbEntity
  8
1
  6
Continuous
100
AcDbLine
 10
48.94910499999999
 20
197.2377189999999
 30
0.0
 11
48.94910499999999
 21
157.237719
 31
0.0
  0
ARC
  5
A385
330
A0B9
100
AcDbEntity
  8
1
  6
Continuous
100
AcDbCircle
 10
51.917764
 20
154.860568
 30
0.0
 40
2.0
100
AcDbArc
 50
199.586329
 51
263.5368189999999
  0
ARC
  5
A386
330
A0B9
100
AcDbEntity
  8
1
  6
Continuous
100
AcDbCircle
 10
62.949105
 20
252.2377189999999
 30
0.0
 40
100.0
100
AcDbArc
 50
263.5368189999999
 51
276.4631819999999
  0
LINE
  5
A387
330
A0B9
100
AcDbEntity
  8
1
  6
Continuous
100
AcDbLine
 10
48.94910499999999
 20
157.237719
 30
0.0
 11
50.033489
 21
154.1901149999999
 31
0.0
  0
ARC
  5
A388
330
A0B9
100
AcDbEntity
  8
1
  6
Continuous
100
AcDbCircle
 10
68.041792
 20
167.3810229999999
 30
0.0
 40
20.0
100
AcDbArc
 50
180.680114
 51
197.3243529999998
  0
LINE
  5
A389
330
A0B9
100
AcDbEntity
  8
1
  6
Continuous
100
AcDbLine
 10
47.44910499999998
 20
167.737719
 30
0.0
 11
48.043201
 21
167.143624
 31
0.0
  0
ARC
  5
A38A
330
A0B9
100
AcDbEntity
  8
1
  6
Continuous
100
AcDbCircle
 10
68.041792
 20
187.094416
 30
0.0
 40
20.0
100
AcDbArc
 50
162.675647
 51
179.3198859999999
  0
LINE
  5
A38B
330
A0B9
100
AcDbEntity
  8
1
  6
Continuous
100
AcDbLine
 10
47.44910499999998
 20
186.737719
 30
0.0
 11
48.043201
 21
187.3318149999998
 31
0.0
  0
ARC
  5
A38C
330
A0B9
100
AcDbEntity
  8
1
  6
Continuous
100
AcDbCircle
 10
62.949105
 20
102.237719
 30
0.0
 40
100.0
100
AcDbArc
 50
83.53681800000002
 51
96.46318100000002
  0
LINE
  5
A38D
330
A0B9
100
AcDbEntity
  8
1
  6
Continuous
100
AcDbLine
 10
48.94910499999999
 20
197.2377189999999
 30
0.0
 11
50.033489
 21
200.2853239999998
 31
0.0
  0
ARC
  5
A38E
330
A0B9
100
AcDbEntity
  8
1
  6
Continuous
100
AcDbCircle
 10
51.917764
 20
199.6148699999999
 30
0.0
 40
2.0
100
AcDbArc
 50
96.46318100000002
 51
160.413671
  0
LINE
  5
A38F
330
A0B9
100
AcDbEntity
  8
1
  6
Continuous
100
AcDbLine
 10
77.85500999999998
 20
167.143624
 30
0.0
 11
77.85500999999998
 21
187.3318149999998
 31
0.0
  0
LINE
  5
A390
330
A0B9
100
AcDbEntity
  8
1
  6
Continuous
100
AcDbLine
 10
76.949105
 20
197.2377189999999
 30
0.0
 11
76.949105
 21
157.237719
 31
0.0
  0
LINE
  5
A391
330
A0B9
100
AcDbEntity
  8
1
  6
Continuous
100
AcDbLine
 10
76.949105
 20
157.237719
 30
0.0
 11
75.864722
 21
154.1901149999999
 31
0.0
  0
ARC
  5
A392
330
A0B9
100
AcDbEntity
  8
1
  6
Continuous
100
AcDbCircle
 10
57.85641899999999
 20
167.3810229999999
 30
0.0
 40
20.0
100
AcDbArc
 50
342.675647
 51
359.319886
  0
LINE
  5
A393
330
A0B9
100
AcDbEntity
  8
1
  6
Continuous
100
AcDbLine
 10
78.44910500000001
 20
167.737719
 30
0.0
 11
77.85500999999998
 21
167.143624
 31
0.0
  0
ARC
  5
A394
330
A0B9
100
AcDbEntity
  8
1
  6
Continuous
100
AcDbCircle
 10
57.85641899999999
 20
187.094416
 30
0.0
 40
20.0
100
AcDbArc
 50
0.6801140000000001
 51
17.32435299999999
  0
LINE
  5
A395
330
A0B9
100
AcDbEntity
  8
1
  6
Continuous
100
AcDbLine
 10
78.44910500000001
 20
186.737719
 30
0.0
 11
77.85500999999998
 21
187.3318149999998
 31
0.0
  0
LINE
  5
A396
330
A0B9
100
AcDbEntity
  8
1
  6
Continuous
100
AcDbLine
 10
76.949105
 20
197.2377189999999
 30
0.0
 11
75.864722
 21
200.2853229999999
 31
0.0
  0
LINE
  5
A397
330
A0B9
100
AcDbEntity
  8
1
  6
Continuous
100
AcDbLine
 10
307.9491049999999
 20
197.2377189999999
 30
0.0
 11
307.9491049999999
 21
157.237719
 31
0.0
  0
LINE
  5
A398
330
A0B9
100
AcDbEntity
  8
1
  6
Continuous
100
AcDbLine
 10
279.9491049999999
 20
197.2377189999999
 30
0.0
 11
279.9491049999999
 21
157.237719
 31
0.0
  0
LINE
  5
A399
330
A0B9
100
AcDbEntity
  8
1
  6
Continuous
100
AcDbLine
 10
282.6926339999999
 20
152.87328
 30
0.0
 11
282.6926339999999
 21
201.602159
 31
0.0
  0
LINE
  5
A39A
330
A0B9
100
AcDbEntity
  8
1
  6
Continuous
100
AcDbLine
 10
305.2055769999999
 20
152.87328
 30
0.0
 11
305.2055769999999
 21
201.602159
 31
0.0
  0
ARC
  5
A39B
330
A0B9
100
AcDbEntity
  8
1
  6
Continuous
100
AcDbCircle
 10
293.9491049999999
 20
252.2377189999999
 30
0.0
 40
100.0
100
AcDbArc
 50
263.5368189999999
 51
276.4631819999999
  0
LINE
  5
A39C
330
A0B9
100
AcDbEntity
  8
1
  6
Continuous
100
AcDbLine
 10
279.0432009999999
 20
167.143624
 30
0.0
 11
279.0432009999999
 21
187.3318149999998
 31
0.0
  0
LINE
  5
A39D
330
A0B9
100
AcDbEntity
  8
1
  6
Continuous
100
AcDbLine
 10
278.4491049999999
 20
167.737719
 30
0.0
 11
279.0432009999999
 21
167.143624
 31
0.0
  0
ARC
  5
A39E
330
A0B9
100
AcDbEntity
  8
1
  6
Continuous
100
AcDbCircle
 10
299.041792
 20
167.3810229999999
 30
0.0
 40
20.0
100
AcDbArc
 50
180.680114
 51
197.3243529999998
  0
LINE
  5
A39F
330
A0B9
100
AcDbEntity
  8
1
  6
Continuous
100
AcDbLine
 10
279.9491049999999
 20
157.237719
 30
0.0
 11
281.0334889999999
 21
154.1901149999999
 31
0.0
  0
ARC
  5
A3A0
330
A0B9
100
AcDbEntity
  8
1
  6
Continuous
100
AcDbCircle
 10
282.9177639999999
 20
154.860568
 30
0.0
 40
2.0
100
AcDbArc
 50
199.586329
 51
263.5368189999999
  0
LINE
  5
A3A1
330
A0B9
100
AcDbEntity
  8
1
  6
Continuous
100
AcDbLine
 10
278.4491049999999
 20
186.737719
 30
0.0
 11
279.0432009999999
 21
187.3318149999998
 31
0.0
  0
ARC
  5
A3A2
330
A0B9
100
AcDbEntity
  8
1
  6
Continuous
100
AcDbCircle
 10
299.041792
 20
187.094416
 30
0.0
 40
20.0
100
AcDbArc
 50
162.675647
 51
179.3198859999999
  0
LINE
  5
A3A3
330
A0B9
100
AcDbEntity
  8
1
  6
Continuous
100
AcDbLine
 10
308.8550099999999
 20
167.143624
 30
0.0
 11
308.8550099999999
 21
187.3318149999998
 31
0.0
  0
LINE
  5
A3A4
330
A0B9
100
AcDbEntity
  8
1
  6
Continuous
100
AcDbLine
 10
309.4491049999998
 20
167.737719
 30
0.0
 11
308.8550099999999
 21
167.143624
 31
0.0
  0
ARC
  5
A3A5
330
A0B9
100
AcDbEntity
  8
1
  6
Continuous
100
AcDbCircle
 10
288.856419
 20
167.3810229999999
 30
0.0
 40
20.0
100
AcDbArc
 50
342.675647
 51
359.319886
  0
LINE
  5
A3A6
330
A0B9
100
AcDbEntity
  8
1
  6
Continuous
100
AcDbLine
 10
307.9491049999999
 20
157.237719
 30
0.0
 11
306.8647219999999
 21
154.1901149999999
 31
0.0
  0
ARC
  5
A3A7
330
A0B9
100
AcDbEntity
  8
1
  6
Continuous
100
AcDbCircle
 10
304.9804470000001
 20
154.860568
 30
0.0
 40
2.0
100
AcDbArc
 50
276.4631819999999
 51
340.4136879999999
  0
LINE
  5
A3A8
330
A0B9
100
AcDbEntity
  8
1
  6
Continuous
100
AcDbLine
 10
309.4491049999998
 20
186.737719
 30
0.0
 11
308.8550099999999
 21
187.3318149999998
 31
0.0
  0
ARC
  5
A3A9
330
A0B9
100
AcDbEntity
  8
1
  6
Continuous
100
AcDbCircle
 10
288.856419
 20
187.094416
 30
0.0
 40
20.0
100
AcDbArc
 50
0.6801140000000001
 51
17.32435299999999
  0
ARC
  5
A3AA
330
A0B9
100
AcDbEntity
  8
1
  6
Continuous
100
AcDbCircle
 10
293.9491049999999
 20
102.237719
 30
0.0
 40
100.0
100
AcDbArc
 50
83.53681800000002
 51
96.46318100000002
  0
ARC
  5
A3AB
330
A0B9
100
AcDbEntity
  8
1
  6
Continuous
100
AcDbCircle
 10
282.9177639999999
 20
199.6148699999999
 30
0.0
 40
2.0
100
AcDbArc
 50
96.46318100000002
 51
102.5542349999999
  0
LINE
  5
A3AC
330
A0B9
100
AcDbEntity
  8
1
  6
Continuous
100
AcDbLine
 10
279.9491049999999
 20
197.2377189999999
 30
0.0
 11
280.7311609999998
 21
199.435648
 31
0.0
  0
LINE
  5
A3AD
330
A0B9
100
AcDbEntity
  8
1
  6
Continuous
100
AcDbLine
 10
307.9491049999999
 20
197.2377189999999
 30
0.0
 11
307.16705
 21
199.4356469999999
 31
0.0
  0
ARC
  5
A3AE
330
A0B9
100
AcDbEntity
  8
1
  6
Continuous
100
AcDbCircle
 10
304.9804470000001
 20
199.6148699999999
 30
0.0
 40
2.0
100
AcDbArc
 50
77.44579899999997
 51
83.53681800000002
  0
ARC
  5
A3AF
330
A0B9
100
AcDbEntity
  8
1
  6
Continuous
100
AcDbCircle
 10
142.571954
 20
63.84308499999999
 30
0.0
 40
2.0
100
AcDbArc
 50
186.463181
 51
250.413671
  0
ARC
  5
A3B0
330
A0B9
100
AcDbEntity
  8
1
  6
Continuous
100
AcDbCircle
 10
187.326256
 20
63.84308499999999
 30
0.0
 40
2.0
100
AcDbArc
 50
289.5863289999999
 51
353.536819
  0
LINE
  5
A3B1
330
A0B9
100
AcDbEntity
  8
1
  6
Continuous
100
AcDbLine
 10
144.9491049999998
 20
60.874426
 30
0.0
 11
141.9014999999999
 21
61.95880999999999
 31
0.0
  0
LINE
  5
A3B2
330
A0B9
100
AcDbEntity
  8
1
  6
Continuous
100
AcDbLine
 10
175.0432
 20
59.968522
 30
0.0
 11
154.8550089999999
 21
59.968522
 31
0.0
  0
LINE
  5
A3B3
330
A0B9
100
AcDbEntity
  8
1
  6
Continuous
100
AcDbLine
 10
144.9491049999998
 20
60.874426
 30
0.0
 11
184.949105
 21
60.874426
 31
0.0
  0
ARC
  5
A3B4
330
A0B9
100
AcDbEntity
  8
1
  6
Continuous
100
AcDbCircle
 10
155.092408
 20
79.967113
 30
0.0
 40
20.0
100
AcDbArc
 50
252.675647
 51
269.3198859999998
  0
LINE
  5
A3B5
330
A0B9
100
AcDbEntity
  8
1
  6
Continuous
100
AcDbLine
 10
155.449105
 20
59.374426
 30
0.0
 11
154.8550089999999
 21
59.968522
 31
0.0
  0
LINE
  5
A3B6
330
A0B9
100
AcDbEntity
  8
1
  6
Continuous
100
AcDbLine
 10
174.449105
 20
59.374426
 30
0.0
 11
175.0432
 21
59.968522
 31
0.0
  0
LINE
  5
A3B7
330
A0B9
100
AcDbEntity
  8
1
  6
Continuous
100
AcDbLine
 10
184.949105
 20
60.874426
 30
0.0
 11
187.996709
 21
61.95880999999999
 31
0.0
  0
ARC
  5
A3B8
330
A0B9
100
AcDbEntity
  8
1
  6
Continuous
100
AcDbCircle
 10
174.805801
 20
79.967113
 30
0.0
 40
20.0
100
AcDbArc
 50
270.680114
 51
287.3243529999998
  0
LINE
  5
A3B9
330
A0B9
100
AcDbEntity
  8
1
  6
Continuous
100
AcDbLine
 10
144.9491049999998
 20
88.87442599999998
 30
0.0
 11
141.901501
 21
87.79004399999998
 31
0.0
  0
LINE
  5
A3BA
330
A0B9
100
AcDbEntity
  8
1
  6
Continuous
100
AcDbLine
 10
189.313544
 20
63.617955
 30
0.0
 11
140.5846649999998
 21
63.617955
 31
0.0
  0
LINE
  5
A3BB
330
A0B9
100
AcDbEntity
  8
1
  6
Continuous
100
AcDbLine
 10
189.313544
 20
86.130898
 30
0.0
 11
140.5846649999998
 21
86.130898
 31
0.0
  0
ARC
  5
A3BC
330
A0B9
100
AcDbEntity
  8
1
  6
Continuous
100
AcDbCircle
 10
239.9491049999999
 20
74.874426
 30
0.0
 40
100.0
100
AcDbArc
 50
173.5368179999999
 51
186.463181
  0
ARC
  5
A3BD
330
A0B9
100
AcDbEntity
  8
1
  6
Continuous
100
AcDbCircle
 10
142.571954
 20
85.90576799999999
 30
0.0
 40
2.0
100
AcDbArc
 50
109.586312
 51
173.5368179999999
  0
LINE
  5
A3BE
330
A0B9
100
AcDbEntity
  8
1
  6
Continuous
100
AcDbLine
 10
175.0432
 20
89.78033100000002
 30
0.0
 11
154.8550089999999
 21
89.78033100000002
 31
0.0
  0
LINE
  5
A3BF
330
A0B9
100
AcDbEntity
  8
1
  6
Continuous
100
AcDbLine
 10
144.9491049999998
 20
88.87442599999998
 30
0.0
 11
184.949105
 21
88.87442599999998
 31
0.0
  0
ARC
  5
A3C0
330
A0B9
100
AcDbEntity
  8
1
  6
Continuous
100
AcDbCircle
 10
155.092408
 20
69.78174
 30
0.0
 40
20.0
100
AcDbArc
 50
90.68011400000001
 51
107.3243529999998
  0
LINE
  5
A3C1
330
A0B9
100
AcDbEntity
  8
1
  6
Continuous
100
AcDbLine
 10
155.449105
 20
90.374426
 30
0.0
 11
154.8550089999999
 21
89.78033100000002
 31
0.0
  0
ARC
  5
A3C2
330
A0B9
100
AcDbEntity
  8
1
  6
Continuous
100
AcDbCircle
 10
89.94910500000001
 20
74.874426
 30
0.0
 40
100.0
100
AcDbArc
 50
353.536819
 51
6.463181999999997
  0
LINE
  5
A3C3
330
A0B9
100
AcDbEntity
  8
1
  6
Continuous
100
AcDbLine
 10
174.449105
 20
90.374426
 30
0.0
 11
175.0432
 21
89.78033100000002
 31
0.0
  0
LINE
  5
A3C4
330
A0B9
100
AcDbEntity
  8
1
  6
Continuous
100
AcDbLine
 10
184.949105
 20
88.87442599999998
 30
0.0
 11
187.996709
 21
87.79004300000002
 31
0.0
  0
ARC
  5
A3C5
330
A0B9
100
AcDbEntity
  8
1
  6
Continuous
100
AcDbCircle
 10
187.326256
 20
85.90576799999999
 30
0.0
 40
2.0
100
AcDbArc
 50
6.463181999999997
 51
70.41368799999998
  0
ARC
  5
A3C6
330
A0B9
100
AcDbEntity
  8
1
  6
Continuous
100
AcDbCircle
 10
174.805801
 20
69.78174
 30
0.0
 40
20.0
100
AcDbArc
 50
72.675647
 51
89.31988599999998
  0
LINE
  5
A3C7
330
A0B9
100
AcDbEntity
  8
4
  6
CENTER
100
AcDbLine
 10
164.9491049999998
 20
264.600764
 30
0.0
 11
164.9491049999998
 21
338.600764
 31
0.0
  0
ENDSEC
  0
SECTION
  2
OBJECTS
  0
DICTIONARY
  5
A0A7
330
0
100
AcDbDictionary
281
     1
  3
ACAD_CIP_PREVIOUS_PRODUCT_INFO
350
A429
  3
ACAD_COLOR
350
A40B
  3
ACAD_DETAILVIEWSTYLE
350
A424
  3
ACAD_GROUP
350
A0A8
  3
ACAD_LAYOUT
350
A0B4
  3
ACAD_MATERIAL
350
A3D9
  3
ACAD_MLEADERSTYLE
350
A420
  3
ACAD_MLINESTYLE
350
A0B1
  3
ACAD_PLOTSETTINGS
350
A0B3
  3
ACAD_PLOTSTYLENAME
350
A3D7
  3
ACAD_SCALELIST
350
A40E
  3
ACAD_SECTIONVIEWSTYLE
350
A422
  3
ACAD_TABLESTYLE
350
A40C
  3
ACAD_VISUALSTYLE
350
A3F2
  3
ACDB_RECOMPOSE_DATA
350
A447
  3
AcDbVariableDictionary
350
A43A
  3
DWGPROPS
350
A448
  0
DICTIONARY
  5
A42A
330
A0AB
100
AcDbDictionary
280
     1
281
     1
  3
ADSK_XREC_LAYER_RECONCILED
360
A42B
  0
DICTIONARY
  5
A42C
330
A0C1
100
AcDbDictionary
280
     1
281
     1
  3
ADSK_XREC_LAYER_RECONCILED
360
A42D
  0
DICTIONARY
  5
A42E
330
A0C2
100
AcDbDictionary
280
     1
281
     1
  3
ADSK_XREC_LAYER_RECONCILED
360
A42F
  0
DICTIONARY
  5
A430
330
A0C3
100
AcDbDictionary
280
     1
281
     1
  3
ADSK_XREC_LAYER_RECONCILED
360
A431
  0
DICTIONARY
  5
A432
330
A0C4
100
AcDbDictionary
280
     1
281
     1
  3
ADSK_XREC_LAYER_RECONCILED
360
A433
  0
DICTIONARY
  5
A434
330
A0C5
100
AcDbDictionary
280
     1
281
     1
  3
ADSK_XREC_LAYER_RECONCILED
360
A435
  0
DICTIONARY
  5
A436
330
A0C6
100
AcDbDictionary
280
     1
281
     1
  3
ADSK_XREC_LAYER_RECONCILED
360
A437
  0
DICTIONARY
  5
A438
330
A0C7
100
AcDbDictionary
280
     1
281
     1
  3
ADSK_XREC_LAYER_RECONCILED
360
A439
  0
DICTIONARY
  5
A3D2
330
A0B9
100
AcDbDictionary
281
     1
  3
ACAD_LAYOUTSELFREF
350
A3D3
  0
DICTIONARY
  5
A3D0
330
A0B5
100
AcDbDictionary
281
     1
  3
ACAD_LAYOUTSELFREF
350
A3D1
  0
XRECORD
  5
A429
102
{ACAD_REACTORS
330
A0A7
102
}
330
A0A7
100
AcDbXrecord
280
     1
300
ACDLT
300
2014
300
ACDLT_F_S
  0
DICTIONARY
  5
A40B
102
{ACAD_REACTORS
330
A0A7
102
}
330
A0A7
100
AcDbDictionary
281
     1
  0
DICTIONARY
  5
A424
102
{ACAD_REACTORS
330
A0A7
102
}
330
A0A7
100
AcDbDictionary
281
     1
  3
Imperial24
350
A425
  0
DICTIONARY
  5
A0A8
102
{ACAD_REACTORS
330
A0A7
102
}
330
A0A7
100
AcDbDictionary
281
     1
  0
DICTIONARY
  5
A0B4
102
{ACAD_REACTORS
330
A0A7
102
}
330
A0A7
100
AcDbDictionary
281
     1
  3
Model
350
A426
  3
レイアウト1
350
A427
  0
DICTIONARY
  5
A3D9
102
{ACAD_REACTORS
330
A0A7
102
}
330
A0A7
100
AcDbDictionary
281
     1
  3
ByBlock
350
A3E2
  3
ByLayer
350
A3DA
  3
Global
350
A3EA
  0
DICTIONARY
  5
A420
102
{ACAD_REACTORS
330
A0A7
102
}
330
A0A7
100
AcDbDictionary
281
     1
  3
Standard
350
A421
  0
DICTIONARY
  5
A0B1
102
{ACAD_REACTORS
330
A0A7
102
}
330
A0A7
100
AcDbDictionary
281
     1
  3
STANDARD
350
A0B2
  0
DICTIONARY
  5
A0B3
102
{ACAD_REACTORS
330
A0A7
102
}
330
A0A7
100
AcDbDictionary
281
     1
  0
ACDBDICTIONARYWDFLT
  5
A3D7
102
{ACAD_REACTORS
330
A0A7
102
}
330
A0A7
100
AcDbDictionary
281
     1
  3
Normal
350
A3D8
100
AcDbDictionaryWithDefault
340
A3D8
  0
DICTIONARY
  5
A40E
102
{ACAD_REACTORS
330
A0A7
102
}
330
A0A7
100
AcDbDictionary
281
     1
  3
A0
350
A40F
  3
A1
350
A410
  3
A2
350
A411
  3
A3
350
A412
  3
A4
350
A413
  3
A5
350
A414
  3
A6
350
A415
  3
A7
350
A416
  3
A8
350
A417
  3
A9
350
A418
  3
B0
350
A419
  3
B1
350
A41A
  3
B2
350
A41B
  3
B3
350
A41C
  3
B4
350
A41D
  3
B5
350
A41E
  3
B6
350
A41F
  0
DICTIONARY
  5
A422
102
{ACAD_REACTORS
330
A0A7
102
}
330
A0A7
100
AcDbDictionary
281
     1
  3
Imperial24
350
A423
  0
DICTIONARY
  5
A40C
102
{ACAD_REACTORS
330
A0A7
102
}
330
A0A7
100
AcDbDictionary
281
     1
  3
Standard
350
A40D
  0
DICTIONARY
  5
A3F2
102
{ACAD_REACTORS
330
A0A7
102
}
330
A0A7
100
AcDbDictionary
281
     1
  3
2dWireframe
350
A3F8
  3
Basic
350
A3F7
  3
Brighten
350
A3FE
  3
ColorChange
350
A402
  3
Conceptual
350
A3FB
  3
Dim
350
A3FD
  3
EdgeColorOff
350
A40A
  3
Facepattern
350
A401
  3
Flat
350
A3F3
  3
FlatWithEdges
350
A3F4
  3
Gouraud
350
A3F5
  3
GouraudWithEdges
350
A3F6
  3
Hidden
350
A3FA
  3
JitterOff
350
A408
  3
Linepattern
350
A400
  3
OverhangOff
350
A409
  3
Realistic
350
A3FC
  3
Shaded
350
A407
  3
Shaded with edges
350
A406
  3
Shades of Gray
350
A403
  3
Sketchy
350
A404
  3
Thicken
350
A3FF
  3
Wireframe
350
A3F9
  3
X-Ray
350
A405
  0
XRECORD
  5
A447
102
{ACAD_REACTORS
330
A0A7
102
}
330
A0A7
100
AcDbXrecord
280
     1
 90
        1
330
A40D
  0
DICTIONARY
  5
A43A
102
{ACAD_REACTORS
330
A0A7
102
}
330
A0A7
100
AcDbDictionary
281
     1
  3
CANNOSCALE
350
A43F
  3
CMLEADERSTYLE
350
A43C
  3
CTABLESTYLE
350
A43B
  3
CVIEWDETAILSTYLE
350
A43D
  3
CVIEWSECTIONSTYLE
350
A43E
  3
DIMASSOC
350
A442
  3
INDEXCTL
350
A441
  3
SORTENTS
350
A440
  3
XCLIPFRAME
350
A443
  0
XRECORD
  5
A448
102
{ACAD_REACTORS
330
A0A7
102
}
330
A0A7
100
AcDbXrecord
280
     1
  1
DWGPROPS COOKIE
  2

  3

  4

  6

  7

  8
Yoshitsune
  9

300
=
301
=
302
=
303
=
304
=
305
=
306
=
307
=
308
=
309
=
 40
0.000010474537037
 41
2451301.392711458
 42
2457192.686626354
  1

 90
        0
  0
XRECORD
  5
A42B
102
{ACAD_REACTORS
330
A42A
102
}
330
A42A
100
AcDbXrecord
280
     1
290
     1
  0
XRECORD
  5
A42D
102
{ACAD_REACTORS
330
A42C
102
}
330
A42C
100
AcDbXrecord
280
     1
290
     1
  0
XRECORD
  5
A42F
102
{ACAD_REACTORS
330
A42E
102
}
330
A42E
100
AcDbXrecord
280
     1
290
     1
  0
XRECORD
  5
A431
102
{ACAD_REACTORS
330
A430
102
}
330
A430
100
AcDbXrecord
280
     1
290
     1
  0
XRECORD
  5
A433
102
{ACAD_REACTORS
330
A432
102
}
330
A432
100
AcDbXrecord
280
     1
290
     1
  0
XRECORD
  5
A435
102
{ACAD_REACTORS
330
A434
102
}
330
A434
100
AcDbXrecord
280
     1
290
     1
  0
XRECORD
  5
A437
102
{ACAD_REACTORS
330
A436
102
}
330
A436
100
AcDbXrecord
280
     1
290
     1
  0
XRECORD
  5
A439
102
{ACAD_REACTORS
330
A438
102
}
330
A438
100
AcDbXrecord
280
     1
290
     1
  0
XRECORD
  5
A3D3
102
{ACAD_REACTORS
330
A3D2
102
}
330
A3D2
100
AcDbXrecord
280
     1
340
A0B9
  0
XRECORD
  5
A3D1
102
{ACAD_REACTORS
330
A3D0
102
}
330
A3D0
100
AcDbXrecord
280
     1
340
A0B5
  0
ACDBDETAILVIEWSTYLE
  5
A425
102
{ACAD_XDICTIONARY
360
A480
102
}
102
{ACAD_REACTORS
330
A424
102
}
330
A424
100
AcDbModelDocViewStyle
 70
     0
  3
Imperial24
290
     0
100
AcDbDetailViewStyle
 70
     0
 71
     0
 90
        3
 71
     1
340
A0AC
 40
0.24
340
0
 40
0.24
300

 40
0.36
280
     3
 71
     2
340
A0B0
 90
       25
 71
     3
340
A0AC
 40
0.24
 90
        1
 40
0.75
 90
        1
300
%<\AcVar ViewType \f "%tc1">% %<\AcVar ViewDetailId>%\PSCALE %<\AcVar ViewScale \f "%sn">%
 71
     4
340
A0B0
 90
       25
340
A0B0
 90
       25
280
     0
  0
LAYOUT
  5
A426
102
{ACAD_XDICTIONARY
360
A482
102
}
102
{ACAD_REACTORS
330
A0B4
102
}
330
A0B4
100
AcDbPlotSettings
  1

  2
Canon LBP9100C
  4

  6

 40
0.0
 41
0.0
 42
0.0
 43
0.0
 44
0.0
 45
0.0
 46
0.0
 47
0.0
 48
0.0
 49
0.0
140
0.0
141
0.0
142
1.0
143
1.0
 70
  1712
 72
     0
 73
     0
 74
     0
  7

 75
     0
147
1.0
148
0.0
149
0.0
100
AcDbLayout
  1
Model
 70
     1
 71
     0
 10
0.0
 20
0.0
 11
12.0
 21
9.0
 12
0.0
 22
0.0
 32
0.0
 14
0.0
 24
0.0
 34
0.0
 15
0.0
 25
0.0
 35
0.0
146
0.0
 13
0.0
 23
0.0
 33
0.0
 16
1.0
 26
0.0
 36
0.0
 17
0.0
 27
1.0
 37
0.0
 76
     0
330
A0B9
331
A3CF
  0
LAYOUT
  5
A427
102
{ACAD_XDICTIONARY
360
A484
102
}
102
{ACAD_REACTORS
330
A0B4
102
}
330
A0B4
100
AcDbPlotSettings
  1

  2
Canon LBP9100C
  4

  6

 40
0.0
 41
0.0
 42
0.0
 43
0.0
 44
0.0
 45
0.0
 46
0.0
 47
0.0
 48
0.0
 49
0.0
140
0.0
141
0.0
142
1.0
143
1.0
 70
   688
 72
     0
 73
     0
 74
     5
  7

 75
    16
147
1.0
148
0.0
149
0.0
100
AcDbLayout
  1
レイアウト1
 70
     0
 71
     1
 10
0.0
 20
0.0
 11
420.0
 21
297.0
 12
0.0
 22
0.0
 32
0.0
 14
1.000000000000000E+20
 24
1.000000000000000E+20
 34
1.000000000000000E+20
 15
-1.000000000000000E+20
 25
-1.000000000000000E+20
 35
-1.000000000000000E+20
146
0.0
 13
0.0
 23
0.0
 33
0.0
 16
1.0
 26
0.0
 36
0.0
 17
0.0
 27
1.0
 37
0.0
 76
     0
330
A0B5
  0
MATERIAL
  5
A3E2
102
{ACAD_XDICTIONARY
360
A3E3
102
}
102
{ACAD_REACTORS
330
A3D9
102
}
330
A3D9
100
AcDbMaterial
  1
ByBlock
 72
     0
 43
0.0208333333333333
 43
0.0
 43
0.0
 43
0.0
 43
0.0
 43
0.0208333333333333
 43
0.0
 43
0.0
 43
0.0
 43
0.0
 43
1.0
 43
0.0
 43
0.0
 43
0.0
 43
0.0
 43
1.0
 77
     0
 47
0.0208333333333333
 47
0.0
 47
0.0
 47
0.0
 47
0.0
 47
0.0208333333333333
 47
0.0
 47
0.0
 47
0.0
 47
0.0
 47
1.0
 47
0.0
 47
0.0
 47
0.0
 47
0.0
 47
1.0
171
     0
 49
0.0208333333333333
 49
0.0
 49
0.0
 49
0.0
 49
0.0
 49
0.0208333333333333
 49
0.0
 49
0.0
 49
0.0
 49
0.0
 49
1.0
 49
0.0
 49
0.0
 49
0.0
 49
0.0
 49
1.0
175
     0
142
0.0208333333333333
142
0.0
142
0.0
142
0.0
142
0.0
142
0.0208333333333333
142
0.0
142
0.0
142
0.0
142
0.0
142
1.0
142
0.0
142
0.0
142
0.0
142
0.0
142
1.0
179
     0
144
0.0208333333333333
144
0.0
144
0.0
144
0.0
144
0.0
144
0.0208333333333333
144
0.0
144
0.0
144
0.0
144
0.0
144
1.0
144
0.0
144
0.0
144
0.0
144
0.0
144
1.0
147
0.0208333333333333
147
0.0
147
0.0
147
0.0
147
0.0
147
0.0208333333333333
147
0.0
147
0.0
147
0.0
147
0.0
147
1.0
147
0.0
147
0.0
147
0.0
147
0.0
147
1.0
  0
MATERIAL
  5
A3DA
102
{ACAD_XDICTIONARY
360
A3DB
102
}
102
{ACAD_REACTORS
330
A3D9
102
}
330
A3D9
100
AcDbMaterial
  1
ByLayer
 72
     0
 43
0.0208333333333333
 43
0.0
 43
0.0
 43
0.0
 43
0.0
 43
0.0208333333333333
 43
0.0
 43
0.0
 43
0.0
 43
0.0
 43
1.0
 43
0.0
 43
0.0
 43
0.0
 43
0.0
 43
1.0
 77
     0
 47
0.0208333333333333
 47
0.0
 47
0.0
 47
0.0
 47
0.0
 47
0.0208333333333333
 47
0.0
 47
0.0
 47
0.0
 47
0.0
 47
1.0
 47
0.0
 47
0.0
 47
0.0
 47
0.0
 47
1.0
171
     0
 49
0.0208333333333333
 49
0.0
 49
0.0
 49
0.0
 49
0.0
 49
0.0208333333333333
 49
0.0
 49
0.0
 49
0.0
 49
0.0
 49
1.0
 49
0.0
 49
0.0
 49
0.0
 49
0.0
 49
1.0
175
     0
142
0.0208333333333333
142
0.0
142
0.0
142
0.0
142
0.0
142
0.0208333333333333
142
0.0
142
0.0
142
0.0
142
0.0
142
1.0
142
0.0
142
0.0
142
0.0
142
0.0
142
1.0
179
     0
144
0.0208333333333333
144
0.0
144
0.0
144
0.0
144
0.0
144
0.0208333333333333
144
0.0
144
0.0
144
0.0
144
0.0
144
1.0
144
0.0
144
0.0
144
0.0
144
0.0
144
1.0
147
0.0208333333333333
147
0.0
147
0.0
147
0.0
147
0.0
147
0.0208333333333333
147
0.0
147
0.0
147
0.0
147
0.0
147
1.0
147
0.0
147
0.0
147
0.0
147
0.0
147
1.0
  0
MATERIAL
  5
A3EA
102
{ACAD_XDICTIONARY
360
A3EB
102
}
102
{ACAD_REACTORS
330
A3D9
102
}
330
A3D9
100
AcDbMaterial
  1
Global
 72
     0
 43
0.0208333333333333
 43
0.0
 43
0.0
 43
0.0
 43
0.0
 43
0.0208333333333333
 43
0.0
 43
0.0
 43
0.0
 43
0.0
 43
1.0
 43
0.0
 43
0.0
 43
0.0
 43
0.0
 43
1.0
 77
     0
 47
0.0208333333333333
 47
0.0
 47
0.0
 47
0.0
 47
0.0
 47
0.0208333333333333
 47
0.0
 47
0.0
 47
0.0
 47
0.0
 47
1.0
 47
0.0
 47
0.0
 47
0.0
 47
0.0
 47
1.0
171
     0
 49
0.0208333333333333
 49
0.0
 49
0.0
 49
0.0
 49
0.0
 49
0.0208333333333333
 49
0.0
 49
0.0
 49
0.0
 49
0.0
 49
1.0
 49
0.0
 49
0.0
 49
0.0
 49
0.0
 49
1.0
175
     0
142
0.0208333333333333
142
0.0
142
0.0
142
0.0
142
0.0
142
0.0208333333333333
142
0.0
142
0.0
142
0.0
142
0.0
142
1.0
142
0.0
142
0.0
142
0.0
142
0.0
142
1.0
179
     0
144
0.0208333333333333
144
0.0
144
0.0
144
0.0
144
0.0
144
0.0208333333333333
144
0.0
144
0.0
144
0.0
144
0.0
144
1.0
144
0.0
144
0.0
144
0.0
144
0.0
144
1.0
147
0.0208333333333333
147
0.0
147
0.0
147
0.0
147
0.0
147
0.0208333333333333
147
0.0
147
0.0
147
0.0
147
0.0
147
1.0
147
0.0
147
0.0
147
0.0
147
0.0
147
1.0
  0
MLEADERSTYLE
  5
A421
102
{ACAD_REACTORS
330
A420
102
}
330
A420
100
AcDbMLeaderStyle
170
     2
171
     1
172
     0
 90
        2
 40
0.0
 41
0.0
173
     1
 91
-1056964608
340
A0AE
 92
       -2
290
     1
 42
0.09
291
     1
 43
0.36
  3
Standard
 44
0.18
300

342
A0AC
174
     1
178
     6
175
     1
176
     0
 93
-1056964608
 45
0.18
292
     0
297
     0
 46
0.18
 94
-1056964608
 47
1.0
 49
1.0
140
1.0
293
     1
141
0.0
294
     1
177
     0
142
1.0
295
     0
296
     0
143
0.125
1001
ACAD_MLEADERVER
1070
     2
  0
MLINESTYLE
  5
A0B2
102
{ACAD_REACTORS
330
A0B1
102
}
330
A0B1
100
AcDbMlineStyle
  2
STANDARD
 70
     0
  3

 62
   256
 51
90.0
 52
90.0
 71
     2
 49
0.5
 62
   256
  6
BYLAYER
 49
-0.5
 62
   256
  6
BYLAYER
  0
ACDBPLACEHOLDER
  5
A3D8
102
{ACAD_REACTORS
330
A3D7
102
}
330
A3D7
  0
SCALE
  5
A40F
102
{ACAD_REACTORS
330
A40E
102
}
330
A40E
100
AcDbScale
 70
     0
300
1:1
140
1.0
141
1.0
290
     1
  0
SCALE
  5
A410
102
{ACAD_REACTORS
330
A40E
102
}
330
A40E
100
AcDbScale
 70
     0
300
1/128" = 1'-0"
140
0.0078125
141
12.0
290
     0
  0
SCALE
  5
A411
102
{ACAD_REACTORS
330
A40E
102
}
330
A40E
100
AcDbScale
 70
     0
300
1/64" = 1'-0"
140
0.015625
141
12.0
290
     0
  0
SCALE
  5
A412
102
{ACAD_REACTORS
330
A40E
102
}
330
A40E
100
AcDbScale
 70
     0
300
1/32" = 1'-0"
140
0.03125
141
12.0
290
     0
  0
SCALE
  5
A413
102
{ACAD_REACTORS
330
A40E
102
}
330
A40E
100
AcDbScale
 70
     0
300
1/16" = 1'-0"
140
0.0625
141
12.0
290
     0
  0
SCALE
  5
A414
102
{ACAD_REACTORS
330
A40E
102
}
330
A40E
100
AcDbScale
 70
     0
300
3/32" = 1'-0"
140
0.09375
141
12.0
290
     0
  0
SCALE
  5
A415
102
{ACAD_REACTORS
330
A40E
102
}
330
A40E
100
AcDbScale
 70
     0
300
1/8" = 1'-0"
140
0.125
141
12.0
290
     0
  0
SCALE
  5
A416
102
{ACAD_REACTORS
330
A40E
102
}
330
A40E
100
AcDbScale
 70
     0
300
3/16" = 1'-0"
140
0.1875
141
12.0
290
     0
  0
SCALE
  5
A417
102
{ACAD_REACTORS
330
A40E
102
}
330
A40E
100
AcDbScale
 70
     0
300
1/4" = 1'-0"
140
0.25
141
12.0
290
     0
  0
SCALE
  5
A418
102
{ACAD_REACTORS
330
A40E
102
}
330
A40E
100
AcDbScale
 70
     0
300
3/8" = 1'-0"
140
0.375
141
12.0
290
     0
  0
SCALE
  5
A419
102
{ACAD_REACTORS
330
A40E
102
}
330
A40E
100
AcDbScale
 70
     0
300
1/2" = 1'-0"
140
0.5
141
12.0
290
     0
  0
SCALE
  5
A41A
102
{ACAD_REACTORS
330
A40E
102
}
330
A40E
100
AcDbScale
 70
     0
300
3/4" = 1'-0"
140
0.75
141
12.0
290
     0
  0
SCALE
  5
A41B
102
{ACAD_REACTORS
330
A40E
102
}
330
A40E
100
AcDbScale
 70
     0
300
1" = 1'-0"
140
1.0
141
12.0
290
     0
  0
SCALE
  5
A41C
102
{ACAD_REACTORS
330
A40E
102
}
330
A40E
100
AcDbScale
 70
     0
300
1-1/2" = 1'-0"
140
1.5
141
12.0
290
     0
  0
SCALE
  5
A41D
102
{ACAD_REACTORS
330
A40E
102
}
330
A40E
100
AcDbScale
 70
     0
300
3" = 1'-0"
140
3.0
141
12.0
290
     0
  0
SCALE
  5
A41E
102
{ACAD_REACTORS
330
A40E
102
}
330
A40E
100
AcDbScale
 70
     0
300
6" = 1'-0"
140
6.0
141
12.0
290
     0
  0
SCALE
  5
A41F
102
{ACAD_REACTORS
330
A40E
102
}
330
A40E
100
AcDbScale
 70
     0
300
1'-0" = 1'-0"
140
12.0
141
12.0
290
     0
  0
ACDBSECTIONVIEWSTYLE
  5
A423
102
{ACAD_XDICTIONARY
360
A47E
102
}
102
{ACAD_REACTORS
330
A422
102
}
330
A422
100
AcDbModelDocViewStyle
 70
     0
  3
Imperial24
290
     0
100
AcDbSectionViewStyle
 70
     0
 71
     0
 90
       78
 71
     1
340
A0AC
 40
0.24
340
0
340
0
 40
0.24
300
I, O, Q, S, X, Z
 40
0.48
 90
        3
 40
0.18
 90
        1
 71
     2
340
A0B0
 90
       25
340
A0B0
 90
       50
 40
0.24
 40
0.0
 40
0.24
 71
     3
340
A0AC
 40
0.24
 90
        1
 40
0.75
 90
        1
300
%<\AcVar ViewType \f "%tc1">% %<\AcVar ViewSectionStartId>%-%<\AcVar ViewSectionEndId>%\PSCALE %<\AcVar ViewScale \f "%sn">%
 71
     4
300
ANSI31
 40
1.0
 90
        0
290
     0
290
     0
 90
        6
 40
0.0
 40
1.570796326794896
 40
0.2617993877991494
 40
1.308996938995747
 40
-0.2617993877991494
 40
1.832595714594046
  0
TABLESTYLE
  5
A40D
102
{ACAD_XDICTIONARY
360
A445
102
}
102
{ACAD_REACTORS
330
A40C
102
}
330
A40C
100
AcDbTableStyle
  3
Standard
 70
     0
 71
     0
 40
0.06
 41
0.06
280
     0
281
     0
  7
STANDARD
140
0.18
170
     2
 62
     0
 63
     7
283
     0
274
    -2
284
     1
 64
     0
275
    -2
285
     1
 65
     0
276
    -2
286
     1
 66
     0
277
    -2
287
     1
 67
     0
278
    -2
288
     1
 68
     0
279
    -2
289
     1
 69
     0
  7
STANDARD
140
0.25
170
     5
 62
     0
 63
     7
283
     0
274
    -2
284
     1
 64
     0
275
    -2
285
     1
 65
     0
276
    -2
286
     1
 66
     0
277
    -2
287
     1
 67
     0
278
    -2
288
     1
 68
     0
279
    -2
289
     1
 69
     0
  7
STANDARD
140
0.18
170
     5
 62
     0
 63
     7
283
     0
274
    -2
284
     1
 64
     0
275
    -2
285
     1
 65
     0
276
    -2
286
     1
 66
     0
277
    -2
287
     1
 67
     0
278
    -2
288
     1
 68
     0
279
    -2
289
     1
 69
     0
  0
VISUALSTYLE
  5
A3F8
102
{ACAD_XDICTIONARY
360
A456
102
}
102
{ACAD_REACTORS
330
A3F2
102
}
330
A3F2
100
AcDbVisualStyle
  2
2dWireframe
 70
     4
 71
     0
 72
     2
 73
     0
 90
        0
 40
-0.6
 41
-30.0
 62
     5
 63
     7
 74
     1
 91
        4
 64
     7
 65
   257
 75
     1
175
     1
 42
1.0
 92
        0
 66
   257
 43
1.0
 76
     1
 77
     6
 78
     2
 67
     7
 79
     5
170
     0
171
     0
290
     0
174
     0
 93
        1
 44
0.0
173
     0
291
     0
 45
0.0
1001
ACAD
1000
AcDbSavedByObjectVersion
1070
     0
  0
VISUALSTYLE
  5
A3F7
102
{ACAD_XDICTIONARY
360
A454
102
}
102
{ACAD_REACTORS
330
A3F2
102
}
330
A3F2
100
AcDbVisualStyle
  2
Basic
 70
     7
 71
     1
 72
     0
 73
     1
 90
        0
 40
-0.6
 41
-30.0
 62
     5
 63
     7
 74
     0
 91
        4
 64
     7
 65
   257
 75
     1
175
     1
 42
1.0
 92
        8
 66
     7
 43
1.0
 76
     1
 77
     6
 78
     2
 67
     7
 79
     5
170
     0
171
     0
290
     0
174
     0
 93
        1
 44
0.0
173
     0
291
     1
 45
0.0
1001
ACAD
1000
AcDbSavedByObjectVersion
1070
     0
  0
VISUALSTYLE
  5
A3FE
102
{ACAD_XDICTIONARY
360
A462
102
}
102
{ACAD_REACTORS
330
A3F2
102
}
330
A3F2
100
AcDbVisualStyle
  2
Brighten
 70
    12
 71
     2
 72
     2
 73
     0
 90
        0
 40
-0.6
 41
-30.0
 62
     5
 63
     7
 74
     1
 91
        4
 64
     7
 65
   257
 75
     1
175
     1
 42
1.0
 92
        8
 66
     7
 43
1.0
 76
     1
 77
     6
 78
     2
 67
     7
 79
     5
170
     0
171
     0
290
     0
174
     0
 93
        1
 44
50.0
173
     0
291
     1
 45
0.0
1001
ACAD
1000
AcDbSavedByObjectVersion
1070
     0
  0
VISUALSTYLE
  5
A402
102
{ACAD_XDICTIONARY
360
A46A
102
}
102
{ACAD_REACTORS
330
A3F2
102
}
330
A3F2
100
AcDbVisualStyle
  2
ColorChange
 70
    16
 71
     2
 72
     2
 73
     3
 90
        0
 40
-0.6
 41
-30.0
 62
     5
 63
     8
 74
     1
 91
        4
 64
     7
 65
   257
 75
     1
175
     1
 42
1.0
 92
        8
 66
     8
 43
1.0
 76
     1
 77
     6
 78
     2
 67
     7
 79
     5
170
     0
171
     0
290
     0
174
     0
 93
        1
 44
0.0
173
     0
291
     1
 45
0.0
1001
ACAD
1000
AcDbSavedByObjectVersion
1070
     0
  0
VISUALSTYLE
  5
A3FB
102
{ACAD_XDICTIONARY
360
A45C
102
}
102
{ACAD_REACTORS
330
A3F2
102
}
330
A3F2
100
AcDbVisualStyle
  2
Conceptual
 70
     9
 71
     3
 72
     2
 73
     0
 90
        0
 40
-0.6
 41
-30.0
 62
     5
 63
     7
 74
     2
 91
        2
 64
     7
 65
   257
 75
     1
175
     1
 42
179.0
 92
        8
 66
     7
 43
1.0
 76
     1
 77
     6
 78
     2
 67
     7
 79
     3
170
     0
171
     0
290
     0
174
     0
 93
        1
 44
0.0
173
     0
291
     0
 45
0.0
1001
ACAD
1000
AcDbSavedByObjectVersion
1070
     0
  0
VISUALSTYLE
  5
A3FD
102
{ACAD_XDICTIONARY
360
A460
102
}
102
{ACAD_REACTORS
330
A3F2
102
}
330
A3F2
100
AcDbVisualStyle
  2
Dim
 70
    11
 71
     2
 72
     2
 73
     0
 90
        0
 40
-0.6
 41
-30.0
 62
     5
 63
     7
 74
     1
 91
        4
 64
     7
 65
   257
 75
     1
175
     1
 42
1.0
 92
        8
 66
     7
 43
1.0
 76
     1
 77
     6
 78
     2
 67
     7
 79
     5
170
     0
171
     0
290
     0
174
     0
 93
        1
 44
-50.0
173
     0
291
     1
 45
0.0
1001
ACAD
1000
AcDbSavedByObjectVersion
1070
     0
  0
VISUALSTYLE
  5
A40A
102
{ACAD_XDICTIONARY
360
A47A
102
}
102
{ACAD_REACTORS
330
A3F2
102
}
330
A3F2
100
AcDbVisualStyle
  2
EdgeColorOff
 70
    22
 71
     2
 72
     2
 73
     0
 90
        0
 40
-0.6
 41
-30.0
 62
     5
 63
     7
 74
     1
 91
        4
 64
     7
 65
   257
 75
     1
175
     1
 42
1.0
 92
        8
 66
     7
 43
1.0
 76
     1
 77
     6
 78
     2
 67
     7
 79
     5
170
     0
171
     0
290
     0
174
     0
 93
        1
 44
0.0
173
     0
291
     1
 45
0.0
1001
ACAD
1000
AcDbSavedByObjectVersion
1070
     0
  0
VISUALSTYLE
  5
A401
102
{ACAD_XDICTIONARY
360
A468
102
}
102
{ACAD_REACTORS
330
A3F2
102
}
330
A3F2
100
AcDbVisualStyle
  2
Facepattern
 70
    15
 71
     2
 72
     2
 73
     0
 90
        0
 40
-0.6
 41
-30.0
 62
     5
 63
     7
 74
     1
 91
        4
 64
     7
 65
   257
 75
     1
175
     1
 42
1.0
 92
        8
 66
     7
 43
1.0
 76
     1
 77
     6
 78
     2
 67
     7
 79
     5
170
     0
171
     0
290
     0
174
     0
 93
        1
 44
0.0
173
     0
291
     1
 45
0.0
1001
ACAD
1000
AcDbSavedByObjectVersion
1070
     0
  0
VISUALSTYLE
  5
A3F3
102
{ACAD_XDICTIONARY
360
A44C
102
}
102
{ACAD_REACTORS
330
A3F2
102
}
330
A3F2
100
AcDbVisualStyle
  2
Flat
 70
     0
 71
     2
 72
     1
 73
     1
 90
        2
 40
-0.6
 41
30.0
 62
     5
 63
     7
 74
     0
 91
        0
 64
     7
 65
   257
 75
     1
175
     1
 42
1.0
 92
        8
 66
     7
 43
1.0
 76
     1
 77
     6
 78
     2
 67
     7
 79
     5
170
     0
171
     0
290
     0
174
     0
 93
       13
 44
0.0
173
     0
291
     1
 45
0.0
1001
ACAD
1000
AcDbSavedByObjectVersion
1070
     0
  0
VISUALSTYLE
  5
A3F4
102
{ACAD_XDICTIONARY
360
A44E
102
}
102
{ACAD_REACTORS
330
A3F2
102
}
330
A3F2
100
AcDbVisualStyle
  2
FlatWithEdges
 70
     1
 71
     2
 72
     1
 73
     1
 90
        2
 40
-0.6
 41
30.0
 62
     5
 63
     7
 74
     1
 91
        0
 64
     7
 65
   257
 75
     1
175
     1
 42
1.0
 92
        0
 66
   257
 43
1.0
 76
     1
 77
     6
 78
     2
 67
     7
 79
     5
170
     0
171
     0
290
     0
174
     0
 93
       13
 44
0.0
173
     0
291
     1
 45
0.0
1001
ACAD
1000
AcDbSavedByObjectVersion
1070
     0
  0
VISUALSTYLE
  5
A3F5
102
{ACAD_XDICTIONARY
360
A450
102
}
102
{ACAD_REACTORS
330
A3F2
102
}
330
A3F2
100
AcDbVisualStyle
  2
Gouraud
 70
     2
 71
     2
 72
     2
 73
     1
 90
        2
 40
-0.6
 41
30.0
 62
     5
 63
     7
 74
     0
 91
        0
 64
     7
 65
   257
 75
     1
175
     1
 42
1.0
 92
        0
 66
     7
 43
1.0
 76
     1
 77
     6
 78
     2
 67
     7
 79
     5
170
     0
171
     0
290
     0
174
     0
 93
       13
 44
0.0
173
     0
291
     1
 45
0.0
1001
ACAD
1000
AcDbSavedByObjectVersion
1070
     0
  0
VISUALSTYLE
  5
A3F6
102
{ACAD_XDICTIONARY
360
A452
102
}
102
{ACAD_REACTORS
330
A3F2
102
}
330
A3F2
100
AcDbVisualStyle
  2
GouraudWithEdges
 70
     3
 71
     2
 72
     2
 73
     1
 90
        2
 40
-0.6
 41
30.0
 62
     5
 63
     7
 74
     1
 91
        0
 64
     7
 65
   257
 75
     1
175
     1
 42
1.0
 92
        0
 66
   257
 43
1.0
 76
     1
 77
     6
 78
     2
 67
     7
 79
     5
170
     0
171
     0
290
     0
174
     0
 93
       13
 44
0.0
173
     0
291
     1
 45
0.0
1001
ACAD
1000
AcDbSavedByObjectVersion
1070
     0
  0
VISUALSTYLE
  5
A3FA
102
{ACAD_XDICTIONARY
360
A45A
102
}
102
{ACAD_REACTORS
330
A3F2
102
}
330
A3F2
100
AcDbVisualStyle
  2
Hidden
 70
     6
 71
     1
 72
     2
 73
     2
 90
        0
 40
-0.6
 41
-30.0
 62
     5
 63
     7
 74
     2
 91
        2
 64
     7
 65
   257
 75
     2
175
     1
 42
40.0
 92
        0
 66
   257
 43
1.0
 76
     1
 77
     6
 78
     2
 67
     7
 79
     3
170
     0
171
     0
290
     0
174
     0
 93
        1
 44
0.0
173
     0
291
     0
 45
0.0
1001
ACAD
1000
AcDbSavedByObjectVersion
1070
     0
  0
VISUALSTYLE
  5
A408
102
{ACAD_XDICTIONARY
360
A476
102
}
102
{ACAD_REACTORS
330
A3F2
102
}
330
A3F2
100
AcDbVisualStyle
  2
JitterOff
 70
    20
 71
     2
 72
     2
 73
     0
 90
        0
 40
-0.6
 41
-30.0
 62
     5
 63
     7
 74
     1
 91
        4
 64
     7
 65
   257
 75
     1
175
     1
 42
1.0
 92
       10
 66
     7
 43
1.0
 76
     1
 77
     6
 78
     2
 67
     7
 79
     5
170
     0
171
     0
290
     0
174
     0
 93
        1
 44
0.0
173
     0
291
     1
 45
0.0
1001
ACAD
1000
AcDbSavedByObjectVersion
1070
     0
  0
VISUALSTYLE
  5
A400
102
{ACAD_XDICTIONARY
360
A466
102
}
102
{ACAD_REACTORS
330
A3F2
102
}
330
A3F2
100
AcDbVisualStyle
  2
Linepattern
 70
    14
 71
     2
 72
     2
 73
     0
 90
        0
 40
-0.6
 41
-30.0
 62
     5
 63
     7
 74
     1
 91
        4
 64
     7
 65
   257
 75
     7
175
     7
 42
1.0
 92
        8
 66
     7
 43
1.0
 76
     1
 77
     6
 78
     2
 67
     7
 79
     5
170
     0
171
     0
290
     0
174
     0
 93
        1
 44
0.0
173
     0
291
     1
 45
0.0
1001
ACAD
1000
AcDbSavedByObjectVersion
1070
     0
  0
VISUALSTYLE
  5
A409
102
{ACAD_XDICTIONARY
360
A478
102
}
102
{ACAD_REACTORS
330
A3F2
102
}
330
A3F2
100
AcDbVisualStyle
  2
OverhangOff
 70
    21
 71
     2
 72
     2
 73
     0
 90
        0
 40
-0.6
 41
-30.0
 62
     5
 63
     7
 74
     1
 91
        4
 64
     7
 65
   257
 75
     1
175
     1
 42
1.0
 92
        9
 66
     7
 43
1.0
 76
     1
 77
     6
 78
     2
 67
     7
 79
     5
170
     0
171
     0
290
     0
174
     0
 93
        1
 44
0.0
173
     0
291
     1
 45
0.0
1001
ACAD
1000
AcDbSavedByObjectVersion
1070
     0
  0
VISUALSTYLE
  5
A3FC
102
{ACAD_XDICTIONARY
360
A45E
102
}
102
{ACAD_REACTORS
330
A3F2
102
}
330
A3F2
100
AcDbVisualStyle
  2
Realistic
 70
     8
 71
     2
 72
     3
 73
     0
 90
        2
 40
-0.6
 41
30.0
 62
     5
 63
     7
 74
     0
 91
        0
 64
     7
 65
   257
 75
     1
175
     1
 42
1.0
 92
        8
 66
   257
 43
1.0
 76
     1
 77
     6
 78
     2
 67
     7
 79
     3
170
     0
171
     0
290
     0
174
     0
 93
       13
 44
0.0
173
     0
291
     0
 45
0.0
1001
ACAD
1000
AcDbSavedByObjectVersion
1070
     0
  0
VISUALSTYLE
  5
A407
102
{ACAD_XDICTIONARY
360
A474
102
}
102
{ACAD_REACTORS
330
A3F2
102
}
330
A3F2
100
AcDbVisualStyle
  2
Shaded
 70
    27
 71
     2
 72
     2
 73
     1
 90
        2
 40
-0.6
 41
30.0
 62
     5
 63
     7
 74
     0
 91
        4
 64
     7
 65
   257
 75
     1
175
     1
 42
1.0
 92
        8
 66
   257
 43
1.0
 76
     1
 77
     6
 78
     2
 67
     8
 79
     3
170
     0
171
     0
290
     0
174
     0
 93
        5
 44
0.0
173
     0
291
     0
 45
0.0
1001
ACAD
1000
AcDbSavedByObjectVersion
1070
     0
  0
VISUALSTYLE
  5
A406
102
{ACAD_XDICTIONARY
360
A472
102
}
102
{ACAD_REACTORS
330
A3F2
102
}
330
A3F2
100
AcDbVisualStyle
  2
Shaded with edges
 70
    26
 71
     2
 72
     2
 73
     1
 90
        2
 40
-0.6
 41
30.0
 62
     5
 63
     7
 74
     1
 91
       10
 64
     7
 65
   257
 75
     2
175
     1
 42
1.0
 92
        8
 66
   257
 43
1.0
 76
     1
 77
     6
 78
     2
 67
     7
 79
     3
170
     0
171
     0
290
     0
174
     0
 93
        5
 44
0.0
173
     0
291
     0
 45
0.0
1001
ACAD
1000
AcDbSavedByObjectVersion
1070
     0
  0
VISUALSTYLE
  5
A403
102
{ACAD_XDICTIONARY
360
A46C
102
}
102
{ACAD_REACTORS
330
A3F2
102
}
330
A3F2
100
AcDbVisualStyle
  2
Shades of Gray
 70
    23
 71
     2
 72
     2
 73
     3
 90
        0
 40
-0.6
 41
-30.0
 62
     5
 63
     7
 74
     2
 91
        2
 64
     7
 65
     7
 75
     1
175
     1
 42
40.0
 92
        8
 66
     7
 43
1.0
 76
     1
 77
     6
 78
     2
 67
     7
 79
     3
170
     0
171
     0
290
     0
174
     0
 93
        1
 44
0.0
173
     0
291
     0
 45
0.0
1001
ACAD
1000
AcDbSavedByObjectVersion
1070
     0
  0
VISUALSTYLE
  5
A404
102
{ACAD_XDICTIONARY
360
A46E
102
}
102
{ACAD_REACTORS
330
A3F2
102
}
330
A3F2
100
AcDbVisualStyle
  2
Sketchy
 70
    24
 71
     1
 72
     2
 73
     2
 90
        0
 40
-0.6
 41
-30.0
 62
     5
 63
     7
 74
     2
 91
        2
 64
     7
 65
     7
 75
     1
175
     1
 42
40.0
 92
       11
 66
     7
 43
1.0
 76
     1
 77
     6
 78
     2
 67
     7
 79
     6
170
     0
171
     0
290
     0
174
     0
 93
        1
 44
0.0
173
     0
291
     0
 45
0.0
1001
ACAD
1000
AcDbSavedByObjectVersion
1070
     0
  0
VISUALSTYLE
  5
A3FF
102
{ACAD_XDICTIONARY
360
A464
102
}
102
{ACAD_REACTORS
330
A3F2
102
}
330
A3F2
100
AcDbVisualStyle
  2
Thicken
 70
    13
 71
     2
 72
     2
 73
     0
 90
        0
 40
-0.6
 41
-30.0
 62
     5
 63
     7
 74
     1
 91
        4
 64
     7
 65
   257
 75
     1
175
     1
 42
1.0
 92
       12
 66
     7
 43
1.0
 76
     1
 77
     6
 78
     2
 67
     7
 79
     5
170
     0
171
     0
290
     0
174
     0
 93
        1
 44
0.0
173
     0
291
     1
 45
0.0
1001
ACAD
1000
AcDbSavedByObjectVersion
1070
     0
  0
VISUALSTYLE
  5
A3F9
102
{ACAD_XDICTIONARY
360
A458
102
}
102
{ACAD_REACTORS
330
A3F2
102
}
330
A3F2
100
AcDbVisualStyle
  2
Wireframe
 70
     5
 71
     0
 72
     2
 73
     0
 90
        0
 40
-0.6
 41
-30.0
 62
     5
 63
     7
 74
     1
 91
        4
 64
     7
 65
   257
 75
     1
175
     1
 42
1.0
 92
        0
 66
   257
 43
1.0
 76
     1
 77
     6
 78
     2
 67
     7
 79
     3
170
     0
171
     0
290
     0
174
     0
 93
        1
 44
0.0
173
     0
291
     0
 45
0.0
1001
ACAD
1000
AcDbSavedByObjectVersion
1070
     0
  0
VISUALSTYLE
  5
A405
102
{ACAD_XDICTIONARY
360
A470
102
}
102
{ACAD_REACTORS
330
A3F2
102
}
330
A3F2
100
AcDbVisualStyle
  2
X-Ray
 70
    25
 71
     2
 72
     2
 73
     1
 90
        1
 40
0.5
 41
-30.0
 62
     5
 63
     7
 74
     1
 91
        0
 64
     7
 65
   257
 75
     1
175
     1
 42
1.0
 92
        8
 66
     7
 43
1.0
 76
     1
 77
     6
 78
     2
 67
     7
 79
     3
170
     0
171
     0
290
     0
174
     0
 93
       13
 44
0.0
173
     0
291
     0
 45
0.0
1001
ACAD
1000
AcDbSavedByObjectVersion
1070
     0
  0
DICTIONARYVAR
  5
A43F
102
{ACAD_REACTORS
330
A43A
102
}
330
A43A
100
DictionaryVariables
280
     0
  1
1:1
  0
DICTIONARYVAR
  5
A43C
102
{ACAD_REACTORS
330
A43A
102
}
330
A43A
100
DictionaryVariables
280
     0
  1
STANDARD
  0
DICTIONARYVAR
  5
A43B
102
{ACAD_REACTORS
330
A43A
102
}
330
A43A
100
DictionaryVariables
280
     0
  1
STANDARD
  0
DICTIONARYVAR
  5
A43D
102
{ACAD_REACTORS
330
A43A
102
}
330
A43A
100
DictionaryVariables
280
     0
  1
Imperial24
  0
DICTIONARYVAR
  5
A43E
102
{ACAD_REACTORS
330
A43A
102
}
330
A43A
100
DictionaryVariables
280
     0
  1
Imperial24
  0
DICTIONARYVAR
  5
A442
102
{ACAD_REACTORS
330
A43A
102
}
330
A43A
100
DictionaryVariables
280
     0
  1
1
  0
DICTIONARYVAR
  5
A441
102
{ACAD_REACTORS
330
A43A
102
}
330
A43A
100
DictionaryVariables
280
     0
  1
0
  0
DICTIONARYVAR
  5
A440
102
{ACAD_REACTORS
330
A43A
102
}
330
A43A
100
DictionaryVariables
280
     0
  1
127
  0
DICTIONARYVAR
  5
A443
102
{ACAD_REACTORS
330
A43A
102
}
330
A43A
100
DictionaryVariables
280
     0
  1
2
  0
DICTIONARY
  5
A480
330
A425
100
AcDbDictionary
280
     1
281
     1
  3
ACAD_XREC_ROUNDTRIP
360
A481
  0
DICTIONARY
  5
A482
330
A426
100
AcDbDictionary
280
     1
281
     1
  3
ACAD_XREC_ROUNDTRIP
360
A483
  0
DICTIONARY
  5
A484
330
A427
100
AcDbDictionary
280
     1
281
     1
  3
ACAD_XREC_ROUNDTRIP
360
A485
  0
DICTIONARY
  5
A3E3
330
A3E2
100
AcDbDictionary
280
     1
281
     1
  3
ACAD_XREC_ROUNDTRIP
360
A44A
  3
BUMPTILE
360
A3E5
  3
DIFFUSETILE
360
A3E4
  3
OPACITYTILE
360
A3E8
  3
REFLECTIONTILE
360
A3E7
  3
REFRACTIONTILE
360
A3E9
  3
SPECULARTILE
360
A3E6
  0
DICTIONARY
  5
A3DB
330
A3DA
100
AcDbDictionary
280
     1
281
     1
  3
ACAD_XREC_ROUNDTRIP
360
A449
  3
BUMPTILE
360
A3DD
  3
DIFFUSETILE
360
A3DC
  3
OPACITYTILE
360
A3E0
  3
REFLECTIONTILE
360
A3DF
  3
REFRACTIONTILE
360
A3E1
  3
SPECULARTILE
360
A3DE
  0
DICTIONARY
  5
A3EB
330
A3EA
100
AcDbDictionary
280
     1
281
     1
  3
ACAD_XREC_ROUNDTRIP
360
A44B
  3
BUMPTILE
360
A3ED
  3
DIFFUSETILE
360
A3EC
  3
OPACITYTILE
360
A3F0
  3
REFLECTIONTILE
360
A3EF
  3
REFRACTIONTILE
360
A3F1
  3
SPECULARTILE
360
A3EE
  0
DICTIONARY
  5
A47E
330
A423
100
AcDbDictionary
280
     1
281
     1
  3
ACAD_XREC_ROUNDTRIP
360
A47F
  0
DICTIONARY
  5
A445
330
A40D
100
AcDbDictionary
280
     1
281
     1
  3
ACAD_ROUNDTRIP_2008_TABLESTYLE_CELLSTYLEMAP
360
A446
  3
ACAD_XREC_ROUNDTRIP
360
A47C
  0
DICTIONARY
  5
A456
330
A3F8
100
AcDbDictionary
280
     1
281
     1
  3
ACAD_XREC_ROUNDTRIP
360
A457
  0
DICTIONARY
  5
A454
330
A3F7
100
AcDbDictionary
280
     1
281
     1
  3
ACAD_XREC_ROUNDTRIP
360
A455
  0
DICTIONARY
  5
A462
330
A3FE
100
AcDbDictionary
280
     1
281
     1
  3
ACAD_XREC_ROUNDTRIP
360
A463
  0
DICTIONARY
  5
A46A
330
A402
100
AcDbDictionary
280
     1
281
     1
  3
ACAD_XREC_ROUNDTRIP
360
A46B
  0
DICTIONARY
  5
A45C
330
A3FB
100
AcDbDictionary
280
     1
281
     1
  3
ACAD_XREC_ROUNDTRIP
360
A45D
  0
DICTIONARY
  5
A460
330
A3FD
100
AcDbDictionary
280
     1
281
     1
  3
ACAD_XREC_ROUNDTRIP
360
A461
  0
DICTIONARY
  5
A47A
330
A40A
100
AcDbDictionary
280
     1
281
     1
  3
ACAD_XREC_ROUNDTRIP
360
A47B
  0
DICTIONARY
  5
A468
330
A401
100
AcDbDictionary
280
     1
281
     1
  3
ACAD_XREC_ROUNDTRIP
360
A469
  0
DICTIONARY
  5
A44C
330
A3F3
100
AcDbDictionary
280
     1
281
     1
  3
ACAD_XREC_ROUNDTRIP
360
A44D
  0
DICTIONARY
  5
A44E
330
A3F4
100
AcDbDictionary
280
     1
281
     1
  3
ACAD_XREC_ROUNDTRIP
360
A44F
  0
DICTIONARY
  5
A450
330
A3F5
100
AcDbDictionary
280
     1
281
     1
  3
ACAD_XREC_ROUNDTRIP
360
A451
  0
DICTIONARY
  5
A452
330
A3F6
100
AcDbDictionary
280
     1
281
     1
  3
ACAD_XREC_ROUNDTRIP
360
A453
  0
DICTIONARY
  5
A45A
330
A3FA
100
AcDbDictionary
280
     1
281
     1
  3
ACAD_XREC_ROUNDTRIP
360
A45B
  0
DICTIONARY
  5
A476
330
A408
100
AcDbDictionary
280
     1
281
     1
  3
ACAD_XREC_ROUNDTRIP
360
A477
  0
DICTIONARY
  5
A466
330
A400
100
AcDbDictionary
280
     1
281
     1
  3
ACAD_XREC_ROUNDTRIP
360
A467
  0
DICTIONARY
  5
A478
330
A409
100
AcDbDictionary
280
     1
281
     1
  3
ACAD_XREC_ROUNDTRIP
360
A479
  0
DICTIONARY
  5
A45E
330
A3FC
100
AcDbDictionary
280
     1
281
     1
  3
ACAD_XREC_ROUNDTRIP
360
A45F
  0
DICTIONARY
  5
A474
330
A407
100
AcDbDictionary
280
     1
281
     1
  3
ACAD_XREC_ROUNDTRIP
360
A475
  0
DICTIONARY
  5
A472
330
A406
100
AcDbDictionary
280
     1
281
     1
  3
ACAD_XREC_ROUNDTRIP
360
A473
  0
DICTIONARY
  5
A46C
330
A403
100
AcDbDictionary
280
     1
281
     1
  3
ACAD_XREC_ROUNDTRIP
360
A46D
  0
DICTIONARY
  5
A46E
330
A404
100
AcDbDictionary
280
     1
281
     1
  3
ACAD_XREC_ROUNDTRIP
360
A46F
  0
DICTIONARY
  5
A464
330
A3FF
100
AcDbDictionary
280
     1
281
     1
  3
ACAD_XREC_ROUNDTRIP
360
A465
  0
DICTIONARY
  5
A458
330
A3F9
100
AcDbDictionary
280
     1
281
     1
  3
ACAD_XREC_ROUNDTRIP
360
A459
  0
DICTIONARY
  5
A470
330
A405
100
AcDbDictionary
280
     1
281
     1
  3
ACAD_XREC_ROUNDTRIP
360
A471
  0
XRECORD
  5
A481
102
{ACAD_REACTORS
330
A480
102
}
330
A480
100
AcDbXrecord
280
     1
102
DISPLAYNAME
  1
Imperial24
102
FLAGS
 90
        0
  0
XRECORD
  5
A483
102
{ACAD_REACTORS
330
A482
102
}
330
A482
100
AcDbXrecord
280
     1
102
SHADEPLOT
 70
     0
102
SHADEPLOTRESLEVEL
 70
     2
102
SHADEPLOTCUSTOMDPI
 70
   300
  0
XRECORD
  5
A485
102
{ACAD_REACTORS
330
A484
102
}
330
A484
100
AcDbXrecord
280
     1
102
SHADEPLOT
 70
     0
102
SHADEPLOTRESLEVEL
 70
     2
102
SHADEPLOTCUSTOMDPI
 70
   300
  0
XRECORD
  5
A44A
102
{ACAD_REACTORS
330
A3E3
102
}
330
A3E3
100
AcDbXrecord
280
     1
102
MATERIAL
148
0.0
149
0.0
149
0.0
 93
        0
 94
      127
282
     0
 72
     0
 77
     0
171
     0
175
     0
179
     0
273
     0
  0
XRECORD
  5
A3E5
102
{ACAD_REACTORS
330
A3E3
102
}
330
A3E3
100
AcDbXrecord
280
     1
270
     1
271
     1
  0
XRECORD
  5
A3E4
102
{ACAD_REACTORS
330
A3E3
102
}
330
A3E3
100
AcDbXrecord
280
     1
270
     1
271
     1
  0
XRECORD
  5
A3E8
102
{ACAD_REACTORS
330
A3E3
102
}
330
A3E3
100
AcDbXrecord
280
     1
270
     1
271
     1
  0
XRECORD
  5
A3E7
102
{ACAD_REACTORS
330
A3E3
102
}
330
A3E3
100
AcDbXrecord
280
     1
270
     1
271
     1
  0
XRECORD
  5
A3E9
102
{ACAD_REACTORS
330
A3E3
102
}
330
A3E3
100
AcDbXrecord
280
     1
270
     1
271
     1
  0
XRECORD
  5
A3E6
102
{ACAD_REACTORS
330
A3E3
102
}
330
A3E3
100
AcDbXrecord
280
     1
270
     1
271
     1
  0
XRECORD
  5
A449
102
{ACAD_REACTORS
330
A3DB
102
}
330
A3DB
100
AcDbXrecord
280
     1
102
MATERIAL
148
0.0
149
0.0
149
0.0
 93
        0
 94
      127
282
     0
 72
     0
 77
     0
171
     0
175
     0
179
     0
273
     0
  0
XRECORD
  5
A3DD
102
{ACAD_REACTORS
330
A3DB
102
}
330
A3DB
100
AcDbXrecord
280
     1
270
     1
271
     1
  0
XRECORD
  5
A3DC
102
{ACAD_REACTORS
330
A3DB
102
}
330
A3DB
100
AcDbXrecord
280
     1
270
     1
271
     1
  0
XRECORD
  5
A3E0
102
{ACAD_REACTORS
330
A3DB
102
}
330
A3DB
100
AcDbXrecord
280
     1
270
     1
271
     1
  0
XRECORD
  5
A3DF
102
{ACAD_REACTORS
330
A3DB
102
}
330
A3DB
100
AcDbXrecord
280
     1
270
     1
271
     1
  0
XRECORD
  5
A3E1
102
{ACAD_REACTORS
330
A3DB
102
}
330
A3DB
100
AcDbXrecord
280
     1
270
     1
271
     1
  0
XRECORD
  5
A3DE
102
{ACAD_REACTORS
330
A3DB
102
}
330
A3DB
100
AcDbXrecord
280
     1
270
     1
271
     1
  0
XRECORD
  5
A44B
102
{ACAD_REACTORS
330
A3EB
102
}
330
A3EB
100
AcDbXrecord
280
     1
102
MATERIAL
148
0.0
149
0.0
149
0.0
 93
        0
 94
      127
282
     0
 72
     0
 77
     0
171
     0
175
     0
179
     0
273
     0
  0
XRECORD
  5
A3ED
102
{ACAD_REACTORS
330
A3EB
102
}
330
A3EB
100
AcDbXrecord
280
     1
270
     1
271
     1
  0
XRECORD
  5
A3EC
102
{ACAD_REACTORS
330
A3EB
102
}
330
A3EB
100
AcDbXrecord
280
     1
270
     1
271
     1
  0
XRECORD
  5
A3F0
102
{ACAD_REACTORS
330
A3EB
102
}
330
A3EB
100
AcDbXrecord
280
     1
270
     1
271
     1
  0
XRECORD
  5
A3EF
102
{ACAD_REACTORS
330
A3EB
102
}
330
A3EB
100
AcDbXrecord
280
     1
270
     1
271
     1
  0
XRECORD
  5
A3F1
102
{ACAD_REACTORS
330
A3EB
102
}
330
A3EB
100
AcDbXrecord
280
     1
270
     1
271
     1
  0
XRECORD
  5
A3EE
102
{ACAD_REACTORS
330
A3EB
102
}
330
A3EB
100
AcDbXrecord
280
     1
270
     1
271
     1
  0
XRECORD
  5
A47F
102
{ACAD_REACTORS
330
A47E
102
}
330
A47E
100
AcDbXrecord
280
     1
102
DISPLAYNAME
  1
Imperial24
102
FLAGS
 90
        0
  0
CELLSTYLEMAP
  5
A446
102
{ACAD_REACTORS
330
A445
102
}
330
A445
100
AcDbCellStyleMap
 90
        3
300
CELLSTYLE
  1
TABLEFORMAT_BEGIN
 90
        5
170
     1
 91
        0
 92
    32768
 62
   257
 93
        1
300
CONTENTFORMAT
  1
CONTENTFORMAT_BEGIN
 90
        0
 91
        0
 92
      512
 93
        0
300

 40
0.0
140
1.0
 94
        5
 62
     0
340
A0AC
144
0.25
309
CONTENTFORMAT_END
171
     0
 94
        0
309
TABLEFORMAT_END
  1
CELLSTYLE_BEGIN
 90
        1
 91
        1
300
_TITLE
309
CELLSTYLE_END
300
CELLSTYLE
  1
TABLEFORMAT_BEGIN
 90
        5
170
     1
 91
        0
 92
        0
 62
   257
 93
        1
300
CONTENTFORMAT
  1
CONTENTFORMAT_BEGIN
 90
        0
 91
        0
 92
      512
 93
        0
300

 40
0.0
140
1.0
 94
        5
 62
     0
340
A0AC
144
0.18
309
CONTENTFORMAT_END
171
     0
 94
        0
309
TABLEFORMAT_END
  1
CELLSTYLE_BEGIN
 90
        2
 91
        1
300
_HEADER
309
CELLSTYLE_END
300
CELLSTYLE
  1
TABLEFORMAT_BEGIN
 90
        5
170
     1
 91
        0
 92
        0
 62
   257
 93
        1
300
CONTENTFORMAT
  1
CONTENTFORMAT_BEGIN
 90
        0
 91
        0
 92
      512
 93
        0
300

 40
0.0
140
1.0
 94
        2
 62
     0
340
A0AC
144
0.18
309
CONTENTFORMAT_END
171
     0
 94
        0
309
TABLEFORMAT_END
  1
CELLSTYLE_BEGIN
 90
        3
 91
        2
300
_DATA
309
CELLSTYLE_END
  0
XRECORD
  5
A47C
102
{ACAD_REACTORS
330
A445
102
}
330
A445
100
AcDbXrecord
280
     1
102
ACAD_ROUNDTRIP_PRE2007_TABLESTYLE
 90
      512
 91
        0
  1

 92
      512
 93
        0
  2

 94
      512
 95
        0
  3

  0
XRECORD
  5
A457
102
{ACAD_REACTORS
330
A456
102
}
330
A456
100
AcDbXrecord
280
     1
102
RTVSPost2010Prop28
280
     1
102
RTVSPost2010PropOp28
 70
     1
102
RTVSPost2010Prop29
280
     1
102
RTVSPost2010PropOp29
 70
     1
102
RTVSPost2010Prop30
280
     0
102
RTVSPost2010PropOp30
 70
     1
102
RTVSPost2010Prop31
280
     0
102
RTVSPost2010PropOp31
 70
     1
102
RTVSPost2010Prop32
280
     0
102
RTVSPost2010PropOp32
 70
     1
102
RTVSPost2010Prop33
280
     0
102
RTVSPost2010PropOp33
 70
     1
102
RTVSPost2010Prop34
280
     0
102
RTVSPost2010PropOp34
 70
     1
102
RTVSPost2010Prop35
280
     0
102
RTVSPost2010PropOp35
 70
     1
102
RTVSPost2010Prop36
280
     0
102
RTVSPost2010PropOp36
 70
     1
102
RTVSPost2010Prop37
 90
       50
102
RTVSPost2010PropOp37
 70
     1
102
RTVSPost2010Prop38
140
0.0
102
RTVSPost2010PropOp38
 70
     1
102
RTVSPost2010Prop39
140
1.0
102
RTVSPost2010PropOp39
 70
     1
102
RTVSPost2010Prop40
 90
        0
102
RTVSPost2010PropOp40
 70
     1
102
RTVSPost2010Prop41ColorIndex
 90
       18
102
RTVSPost2010Prop41ColorRGB
 90
        0
102
RTVSPost2010PropOp41
 70
     1
102
RTVSPost2010Prop42
 90
       50
102
RTVSPost2010PropOp42
 70
     1
102
RTVSPost2010Prop43
 90
        3
102
RTVSPost2010PropOp43
 70
     1
102
RTVSPost2010Prop44ColorIndex
 90
        5
102
RTVSPost2010Prop44ColorRGB
 90
      255
102
RTVSPost2010PropOp44
 70
     1
102
RTVSPost2010Prop45
280
     0
102
RTVSPost2010PropOp45
 70
     1
102
RTVSPost2010Prop46
 90
       50
102
RTVSPost2010PropOp46
 70
     1
102
RTVSPost2010Prop47
 90
       50
102
RTVSPost2010PropOp47
 70
     1
102
RTVSPost2010Prop48
 90
       50
102
RTVSPost2010PropOp48
 70
     1
102
RTVSPost2010Prop49
280
     0
102
RTVSPost2010PropOp49
 70
     1
102
RTVSPost2010Prop50
 90
       50
102
RTVSPost2010PropOp50
 70
     1
102
RTVSPost2010Prop51ColorIndex
 90
      256
102
RTVSPost2010Prop51ColorRGB
 90
-16777216
102
RTVSPost2010PropOp51
 70
     0
102
RTVSPost2010Prop52
140
1.0
102
RTVSPost2010PropOp52
 70
     0
102
RTVSPost2010Prop53
 90
        2
102
RTVSPost2010PropOp53
 70
     1
102
RTVSPost2010Prop54
  1
strokes_ogs.tif
102
RTVSPost2010PropOp54
 70
     1
102
RTVSPost2010Prop55
280
     0
102
RTVSPost2010PropOp55
 70
     1
102
RTVSPost2010Prop56
140
1.0
102
RTVSPost2010PropOp56
 70
     1
102
RTVSPost2010Prop57
140
1.0
102
RTVSPost2010PropOp57
 70
     1
102
RTVSPropertyOp0
 70
     1
102
RTVSPropertyOp1
 70
     1
102
RTVSPropertyOp2
 70
     1
102
RTVSPropertyOp3
 70
     1
102
RTVSPropertyOp4
 70
     1
102
RTVSPropertyOp5
 70
     1
102
RTVSPropertyOp6
 70
     1
102
RTVSPropertyOp7
 70
     1
102
RTVSPropertyOp8
 70
     1
102
RTVSPropertyOp9
 70
     1
102
RTVSPropertyOp10
 70
     1
102
RTVSPropertyOp11
 70
     1
102
RTVSPropertyOp12
 70
     1
102
RTVSPropertyOp13
 70
     1
102
RTVSPropertyOp14
 70
     1
102
RTVSPropertyOp15
 70
     1
102
RTVSPropertyOp16
 70
     1
102
RTVSPropertyOp17
 70
     1
102
RTVSPropertyOp18
 70
     1
102
RTVSPropertyOp19
 70
     1
102
RTVSPropertyOp20
 70
     1
102
RTVSPropertyOp21
 70
     1
102
RTVSPropertyOp22
 70
     1
102
RTVSPropertyOp23
 70
     1
102
RTVSPropertyOp24
 70
     1
102
RTVSPropertyOp25
 70
     1
102
RTVSPropertyOp26
 70
     1
102
RTVSPropertyOp27
 70
     1
102
RTVSPropertyOp28
 70
     1
102
RTVSPropertyOp29
 70
     1
102
RTVSPropertyOp30
 70
     1
102
RTVSPropertyOp31
 70
     1
102
RTVSPropertyOp32
 70
     1
102
RTVSPropertyOp33
 70
     1
102
RTVSPropertyOp34
 70
     1
102
RTVSPropertyOp35
 70
     1
102
RTVSPropertyOp36
 70
     1
102
RTVSPropertyOp37
 70
     1
102
RTVSPropertyOp38
 70
     1
102
RTVSPropertyOp39
 70
     1
102
RTVSPropertyOp40
 70
     1
102
RTVSPropertyOp41
 70
     1
102
RTVSPropertyOp42
 70
     1
102
RTVSPropertyOp43
 70
     1
102
RTVSPropertyOp44
 70
     1
102
RTVSPropertyOp45
 70
     1
102
RTVSPropertyOp46
 70
     1
102
RTVSPropertyOp47
 70
     1
102
RTVSPropertyOp48
 70
     1
102
RTVSPropertyOp49
 70
     1
102
RTVSPropertyOp50
 70
     1
102
RTVSPropertyOp51
 70
     0
102
RTVSPropertyOp52
 70
     0
102
RTVSPropertyOp53
 70
     1
102
RTVSPropertyOp54
 70
     1
102
RTVSPropertyOp55
 70
     1
102
RTVSPropertyOp56
 70
     1
102
RTVSPropertyOp57
 70
     1
102
RTVSPropertyOp58
 70
     1
102
RTVSPropertyOp59
 70
     1
102
RTVSPropertyOp60
 70
     1
102
RTVSPropertyOp61
 70
     1
102
RTVSPropertyOp62
 70
     1
  0
XRECORD
  5
A455
102
{ACAD_REACTORS
330
A454
102
}
330
A454
100
AcDbXrecord
280
     1
102
RTVSPost2010Prop28
280
     0
102
RTVSPost2010PropOp28
 70
     1
102
RTVSPost2010Prop29
280
     1
102
RTVSPost2010PropOp29
 70
     1
102
RTVSPost2010Prop30
280
     1
102
RTVSPost2010PropOp30
 70
     1
102
RTVSPost2010Prop31
280
     0
102
RTVSPost2010PropOp31
 70
     1
102
RTVSPost2010Prop32
280
     0
102
RTVSPost2010PropOp32
 70
     1
102
RTVSPost2010Prop33
280
     0
102
RTVSPost2010PropOp33
 70
     1
102
RTVSPost2010Prop34
280
     0
102
RTVSPost2010PropOp34
 70
     1
102
RTVSPost2010Prop35
280
     0
102
RTVSPost2010PropOp35
 70
     1
102
RTVSPost2010Prop36
280
     0
102
RTVSPost2010PropOp36
 70
     1
102
RTVSPost2010Prop37
 90
       50
102
RTVSPost2010PropOp37
 70
     1
102
RTVSPost2010Prop38
140
0.0
102
RTVSPost2010PropOp38
 70
     1
102
RTVSPost2010Prop39
140
1.0
102
RTVSPost2010PropOp39
 70
     1
102
RTVSPost2010Prop40
 90
        0
102
RTVSPost2010PropOp40
 70
     1
102
RTVSPost2010Prop41ColorIndex
 90
       18
102
RTVSPost2010Prop41ColorRGB
 90
        0
102
RTVSPost2010PropOp41
 70
     1
102
RTVSPost2010Prop42
 90
       50
102
RTVSPost2010PropOp42
 70
     1
102
RTVSPost2010Prop43
 90
        3
102
RTVSPost2010PropOp43
 70
     1
102
RTVSPost2010Prop44ColorIndex
 90
        5
102
RTVSPost2010Prop44ColorRGB
 90
      255
102
RTVSPost2010PropOp44
 70
     1
102
RTVSPost2010Prop45
280
     0
102
RTVSPost2010PropOp45
 70
     1
102
RTVSPost2010Prop46
 90
       50
102
RTVSPost2010PropOp46
 70
     1
102
RTVSPost2010Prop47
 90
       50
102
RTVSPost2010PropOp47
 70
     1
102
RTVSPost2010Prop48
 90
       50
102
RTVSPost2010PropOp48
 70
     1
102
RTVSPost2010Prop49
280
     0
102
RTVSPost2010PropOp49
 70
     1
102
RTVSPost2010Prop50
 90
       50
102
RTVSPost2010PropOp50
 70
     1
102
RTVSPost2010Prop51ColorIndex
 90
      256
102
RTVSPost2010Prop51ColorRGB
 90
-16777216
102
RTVSPost2010PropOp51
 70
     0
102
RTVSPost2010Prop52
140
1.0
102
RTVSPost2010PropOp52
 70
     0
102
RTVSPost2010Prop53
 90
        2
102
RTVSPost2010PropOp53
 70
     1
102
RTVSPost2010Prop54
  1
strokes_ogs.tif
102
RTVSPost2010PropOp54
 70
     1
102
RTVSPost2010Prop55
280
     0
102
RTVSPost2010PropOp55
 70
     1
102
RTVSPost2010Prop56
140
1.0
102
RTVSPost2010PropOp56
 70
     1
102
RTVSPost2010Prop57
140
1.0
102
RTVSPost2010PropOp57
 70
     1
102
RTVSPropertyOp0
 70
     1
102
RTVSPropertyOp1
 70
     1
102
RTVSPropertyOp2
 70
     1
102
RTVSPropertyOp3
 70
     1
102
RTVSPropertyOp4
 70
     1
102
RTVSPropertyOp5
 70
     1
102
RTVSPropertyOp6
 70
     1
102
RTVSPropertyOp7
 70
     1
102
RTVSPropertyOp8
 70
     1
102
RTVSPropertyOp9
 70
     1
102
RTVSPropertyOp10
 70
     1
102
RTVSPropertyOp11
 70
     1
102
RTVSPropertyOp12
 70
     1
102
RTVSPropertyOp13
 70
     1
102
RTVSPropertyOp14
 70
     1
102
RTVSPropertyOp15
 70
     1
102
RTVSPropertyOp16
 70
     1
102
RTVSPropertyOp17
 70
     1
102
RTVSPropertyOp18
 70
     1
102
RTVSPropertyOp19
 70
     1
102
RTVSPropertyOp20
 70
     1
102
RTVSPropertyOp21
 70
     1
102
RTVSPropertyOp22
 70
     1
102
RTVSPropertyOp23
 70
     1
102
RTVSPropertyOp24
 70
     1
102
RTVSPropertyOp25
 70
     1
102
RTVSPropertyOp26
 70
     1
102
RTVSPropertyOp27
 70
     1
102
RTVSPropertyOp28
 70
     1
102
RTVSPropertyOp29
 70
     1
102
RTVSPropertyOp30
 70
     1
102
RTVSPropertyOp31
 70
     1
102
RTVSPropertyOp32
 70
     1
102
RTVSPropertyOp33
 70
     1
102
RTVSPropertyOp34
 70
     1
102
RTVSPropertyOp35
 70
     1
102
RTVSPropertyOp36
 70
     1
102
RTVSPropertyOp37
 70
     1
102
RTVSPropertyOp38
 70
     1
102
RTVSPropertyOp39
 70
     1
102
RTVSPropertyOp40
 70
     1
102
RTVSPropertyOp41
 70
     1
102
RTVSPropertyOp42
 70
     1
102
RTVSPropertyOp43
 70
     1
102
RTVSPropertyOp44
 70
     1
102
RTVSPropertyOp45
 70
     1
102
RTVSPropertyOp46
 70
     1
102
RTVSPropertyOp47
 70
     1
102
RTVSPropertyOp48
 70
     1
102
RTVSPropertyOp49
 70
     1
102
RTVSPropertyOp50
 70
     1
102
RTVSPropertyOp51
 70
     0
102
RTVSPropertyOp52
 70
     0
102
RTVSPropertyOp53
 70
     1
102
RTVSPropertyOp54
 70
     1
102
RTVSPropertyOp55
 70
     1
102
RTVSPropertyOp56
 70
     1
102
RTVSPropertyOp57
 70
     1
102
RTVSPropertyOp58
 70
     1
102
RTVSPropertyOp59
 70
     1
102
RTVSPropertyOp60
 70
     1
102
RTVSPropertyOp61
 70
     1
102
RTVSPropertyOp62
 70
     1
  0
XRECORD
  5
A463
102
{ACAD_REACTORS
330
A462
102
}
330
A462
100
AcDbXrecord
280
     1
102
RTVSPost2010Prop28
280
     0
102
RTVSPost2010PropOp28
 70
     1
102
RTVSPost2010Prop29
280
     1
102
RTVSPost2010PropOp29
 70
     1
102
RTVSPost2010Prop30
280
     1
102
RTVSPost2010PropOp30
 70
     1
102
RTVSPost2010Prop31
280
     0
102
RTVSPost2010PropOp31
 70
     1
102
RTVSPost2010Prop32
280
     0
102
RTVSPost2010PropOp32
 70
     1
102
RTVSPost2010Prop33
280
     0
102
RTVSPost2010PropOp33
 70
     1
102
RTVSPost2010Prop34
280
     0
102
RTVSPost2010PropOp34
 70
     1
102
RTVSPost2010Prop35
280
     0
102
RTVSPost2010PropOp35
 70
     1
102
RTVSPost2010Prop36
280
     0
102
RTVSPost2010PropOp36
 70
     1
102
RTVSPost2010Prop37
 90
       50
102
RTVSPost2010PropOp37
 70
     1
102
RTVSPost2010Prop38
140
0.0
102
RTVSPost2010PropOp38
 70
     1
102
RTVSPost2010Prop39
140
1.0
102
RTVSPost2010PropOp39
 70
     1
102
RTVSPost2010Prop40
 90
        0
102
RTVSPost2010PropOp40
 70
     1
102
RTVSPost2010Prop41ColorIndex
 90
       18
102
RTVSPost2010Prop41ColorRGB
 90
        0
102
RTVSPost2010PropOp41
 70
     1
102
RTVSPost2010Prop42
 90
       50
102
RTVSPost2010PropOp42
 70
     1
102
RTVSPost2010Prop43
 90
        3
102
RTVSPost2010PropOp43
 70
     1
102
RTVSPost2010Prop44ColorIndex
 90
        5
102
RTVSPost2010Prop44ColorRGB
 90
      255
102
RTVSPost2010PropOp44
 70
     1
102
RTVSPost2010Prop45
280
     0
102
RTVSPost2010PropOp45
 70
     1
102
RTVSPost2010Prop46
 90
       50
102
RTVSPost2010PropOp46
 70
     1
102
RTVSPost2010Prop47
 90
       50
102
RTVSPost2010PropOp47
 70
     1
102
RTVSPost2010Prop48
 90
       50
102
RTVSPost2010PropOp48
 70
     1
102
RTVSPost2010Prop49
280
     0
102
RTVSPost2010PropOp49
 70
     1
102
RTVSPost2010Prop50
 90
       50
102
RTVSPost2010PropOp50
 70
     1
102
RTVSPost2010Prop51ColorIndex
 90
      256
102
RTVSPost2010Prop51ColorRGB
 90
-16777216
102
RTVSPost2010PropOp51
 70
     0
102
RTVSPost2010Prop52
140
1.0
102
RTVSPost2010PropOp52
 70
     0
102
RTVSPost2010Prop53
 90
        2
102
RTVSPost2010PropOp53
 70
     1
102
RTVSPost2010Prop54
  1
strokes_ogs.tif
102
RTVSPost2010PropOp54
 70
     1
102
RTVSPost2010Prop55
280
     0
102
RTVSPost2010PropOp55
 70
     1
102
RTVSPost2010Prop56
140
1.0
102
RTVSPost2010PropOp56
 70
     1
102
RTVSPost2010Prop57
140
1.0
102
RTVSPost2010PropOp57
 70
     1
102
RTVSPropertyOp0
 70
     1
102
RTVSPropertyOp1
 70
     1
102
RTVSPropertyOp2
 70
     1
102
RTVSPropertyOp3
 70
     1
102
RTVSPropertyOp4
 70
     1
102
RTVSPropertyOp5
 70
     1
102
RTVSPropertyOp6
 70
     1
102
RTVSPropertyOp7
 70
     1
102
RTVSPropertyOp8
 70
     1
102
RTVSPropertyOp9
 70
     1
102
RTVSPropertyOp10
 70
     1
102
RTVSPropertyOp11
 70
     1
102
RTVSPropertyOp12
 70
     1
102
RTVSPropertyOp13
 70
     1
102
RTVSPropertyOp14
 70
     1
102
RTVSPropertyOp15
 70
     1
102
RTVSPropertyOp16
 70
     1
102
RTVSPropertyOp17
 70
     1
102
RTVSPropertyOp18
 70
     1
102
RTVSPropertyOp19
 70
     1
102
RTVSPropertyOp20
 70
     1
102
RTVSPropertyOp21
 70
     1
102
RTVSPropertyOp22
 70
     1
102
RTVSPropertyOp23
 70
     1
102
RTVSPropertyOp24
 70
     1
102
RTVSPropertyOp25
 70
     1
102
RTVSPropertyOp26
 70
     1
102
RTVSPropertyOp27
 70
     1
102
RTVSPropertyOp28
 70
     1
102
RTVSPropertyOp29
 70
     1
102
RTVSPropertyOp30
 70
     1
102
RTVSPropertyOp31
 70
     1
102
RTVSPropertyOp32
 70
     1
102
RTVSPropertyOp33
 70
     1
102
RTVSPropertyOp34
 70
     1
102
RTVSPropertyOp35
 70
     1
102
RTVSPropertyOp36
 70
     1
102
RTVSPropertyOp37
 70
     1
102
RTVSPropertyOp38
 70
     1
102
RTVSPropertyOp39
 70
     1
102
RTVSPropertyOp40
 70
     1
102
RTVSPropertyOp41
 70
     1
102
RTVSPropertyOp42
 70
     1
102
RTVSPropertyOp43
 70
     1
102
RTVSPropertyOp44
 70
     1
102
RTVSPropertyOp45
 70
     1
102
RTVSPropertyOp46
 70
     1
102
RTVSPropertyOp47
 70
     1
102
RTVSPropertyOp48
 70
     1
102
RTVSPropertyOp49
 70
     1
102
RTVSPropertyOp50
 70
     1
102
RTVSPropertyOp51
 70
     0
102
RTVSPropertyOp52
 70
     0
102
RTVSPropertyOp53
 70
     1
102
RTVSPropertyOp54
 70
     1
102
RTVSPropertyOp55
 70
     1
102
RTVSPropertyOp56
 70
     1
102
RTVSPropertyOp57
 70
     1
102
RTVSPropertyOp58
 70
     1
102
RTVSPropertyOp59
 70
     1
102
RTVSPropertyOp60
 70
     1
102
RTVSPropertyOp61
 70
     1
102
RTVSPropertyOp62
 70
     1
  0
XRECORD
  5
A46B
102
{ACAD_REACTORS
330
A46A
102
}
330
A46A
100
AcDbXrecord
280
     1
102
RTVSPost2010Prop28
280
     0
102
RTVSPost2010PropOp28
 70
     1
102
RTVSPost2010Prop29
280
     1
102
RTVSPost2010PropOp29
 70
     1
102
RTVSPost2010Prop30
280
     1
102
RTVSPost2010PropOp30
 70
     1
102
RTVSPost2010Prop31
280
     0
102
RTVSPost2010PropOp31
 70
     1
102
RTVSPost2010Prop32
280
     0
102
RTVSPost2010PropOp32
 70
     1
102
RTVSPost2010Prop33
280
     0
102
RTVSPost2010PropOp33
 70
     1
102
RTVSPost2010Prop34
280
     0
102
RTVSPost2010PropOp34
 70
     1
102
RTVSPost2010Prop35
280
     0
102
RTVSPost2010PropOp35
 70
     1
102
RTVSPost2010Prop36
280
     0
102
RTVSPost2010PropOp36
 70
     1
102
RTVSPost2010Prop37
 90
       50
102
RTVSPost2010PropOp37
 70
     1
102
RTVSPost2010Prop38
140
0.0
102
RTVSPost2010PropOp38
 70
     1
102
RTVSPost2010Prop39
140
1.0
102
RTVSPost2010PropOp39
 70
     1
102
RTVSPost2010Prop40
 90
        0
102
RTVSPost2010PropOp40
 70
     1
102
RTVSPost2010Prop41ColorIndex
 90
       18
102
RTVSPost2010Prop41ColorRGB
 90
        0
102
RTVSPost2010PropOp41
 70
     1
102
RTVSPost2010Prop42
 90
       50
102
RTVSPost2010PropOp42
 70
     1
102
RTVSPost2010Prop43
 90
        3
102
RTVSPost2010PropOp43
 70
     1
102
RTVSPost2010Prop44ColorIndex
 90
        5
102
RTVSPost2010Prop44ColorRGB
 90
      255
102
RTVSPost2010PropOp44
 70
     1
102
RTVSPost2010Prop45
280
     0
102
RTVSPost2010PropOp45
 70
     1
102
RTVSPost2010Prop46
 90
       50
102
RTVSPost2010PropOp46
 70
     1
102
RTVSPost2010Prop47
 90
       50
102
RTVSPost2010PropOp47
 70
     1
102
RTVSPost2010Prop48
 90
       50
102
RTVSPost2010PropOp48
 70
     1
102
RTVSPost2010Prop49
280
     0
102
RTVSPost2010PropOp49
 70
     1
102
RTVSPost2010Prop50
 90
       50
102
RTVSPost2010PropOp50
 70
     1
102
RTVSPost2010Prop51ColorIndex
 90
      256
102
RTVSPost2010Prop51ColorRGB
 90
-16777216
102
RTVSPost2010PropOp51
 70
     0
102
RTVSPost2010Prop52
140
1.0
102
RTVSPost2010PropOp52
 70
     0
102
RTVSPost2010Prop53
 90
        2
102
RTVSPost2010PropOp53
 70
     1
102
RTVSPost2010Prop54
  1
strokes_ogs.tif
102
RTVSPost2010PropOp54
 70
     1
102
RTVSPost2010Prop55
280
     0
102
RTVSPost2010PropOp55
 70
     1
102
RTVSPost2010Prop56
140
1.0
102
RTVSPost2010PropOp56
 70
     1
102
RTVSPost2010Prop57
140
1.0
102
RTVSPost2010PropOp57
 70
     1
102
RTVSPropertyOp0
 70
     1
102
RTVSPropertyOp1
 70
     1
102
RTVSPropertyOp2
 70
     1
102
RTVSPropertyOp3
 70
     1
102
RTVSPropertyOp4
 70
     1
102
RTVSPropertyOp5
 70
     1
102
RTVSPropertyOp6
 70
     1
102
RTVSPropertyOp7
 70
     1
102
RTVSPropertyOp8
 70
     1
102
RTVSPropertyOp9
 70
     1
102
RTVSPropertyOp10
 70
     1
102
RTVSPropertyOp11
 70
     1
102
RTVSPropertyOp12
 70
     1
102
RTVSPropertyOp13
 70
     1
102
RTVSPropertyOp14
 70
     1
102
RTVSPropertyOp15
 70
     1
102
RTVSPropertyOp16
 70
     1
102
RTVSPropertyOp17
 70
     1
102
RTVSPropertyOp18
 70
     1
102
RTVSPropertyOp19
 70
     1
102
RTVSPropertyOp20
 70
     1
102
RTVSPropertyOp21
 70
     1
102
RTVSPropertyOp22
 70
     1
102
RTVSPropertyOp23
 70
     1
102
RTVSPropertyOp24
 70
     1
102
RTVSPropertyOp25
 70
     1
102
RTVSPropertyOp26
 70
     1
102
RTVSPropertyOp27
 70
     1
102
RTVSPropertyOp28
 70
     1
102
RTVSPropertyOp29
 70
     1
102
RTVSPropertyOp30
 70
     1
102
RTVSPropertyOp31
 70
     1
102
RTVSPropertyOp32
 70
     1
102
RTVSPropertyOp33
 70
     1
102
RTVSPropertyOp34
 70
     1
102
RTVSPropertyOp35
 70
     1
102
RTVSPropertyOp36
 70
     1
102
RTVSPropertyOp37
 70
     1
102
RTVSPropertyOp38
 70
     1
102
RTVSPropertyOp39
 70
     1
102
RTVSPropertyOp40
 70
     1
102
RTVSPropertyOp41
 70
     1
102
RTVSPropertyOp42
 70
     1
102
RTVSPropertyOp43
 70
     1
102
RTVSPropertyOp44
 70
     1
102
RTVSPropertyOp45
 70
     1
102
RTVSPropertyOp46
 70
     1
102
RTVSPropertyOp47
 70
     1
102
RTVSPropertyOp48
 70
     1
102
RTVSPropertyOp49
 70
     1
102
RTVSPropertyOp50
 70
     1
102
RTVSPropertyOp51
 70
     0
102
RTVSPropertyOp52
 70
     0
102
RTVSPropertyOp53
 70
     1
102
RTVSPropertyOp54
 70
     1
102
RTVSPropertyOp55
 70
     1
102
RTVSPropertyOp56
 70
     1
102
RTVSPropertyOp57
 70
     1
102
RTVSPropertyOp58
 70
     1
102
RTVSPropertyOp59
 70
     1
102
RTVSPropertyOp60
 70
     1
102
RTVSPropertyOp61
 70
     1
102
RTVSPropertyOp62
 70
     1
  0
XRECORD
  5
A45D
102
{ACAD_REACTORS
330
A45C
102
}
330
A45C
100
AcDbXrecord
280
     1
102
RTVSPost2010Prop28
280
     0
102
RTVSPost2010PropOp28
 70
     1
102
RTVSPost2010Prop29
280
     1
102
RTVSPost2010PropOp29
 70
     1
102
RTVSPost2010Prop30
280
     1
102
RTVSPost2010PropOp30
 70
     1
102
RTVSPost2010Prop31
280
     0
102
RTVSPost2010PropOp31
 70
     1
102
RTVSPost2010Prop32
280
     0
102
RTVSPost2010PropOp32
 70
     1
102
RTVSPost2010Prop33
280
     0
102
RTVSPost2010PropOp33
 70
     1
102
RTVSPost2010Prop34
280
     0
102
RTVSPost2010PropOp34
 70
     1
102
RTVSPost2010Prop35
280
     0
102
RTVSPost2010PropOp35
 70
     1
102
RTVSPost2010Prop36
280
     0
102
RTVSPost2010PropOp36
 70
     1
102
RTVSPost2010Prop37
 90
       50
102
RTVSPost2010PropOp37
 70
     1
102
RTVSPost2010Prop38
140
0.0
102
RTVSPost2010PropOp38
 70
     1
102
RTVSPost2010Prop39
140
1.0
102
RTVSPost2010PropOp39
 70
     1
102
RTVSPost2010Prop40
 90
        0
102
RTVSPost2010PropOp40
 70
     1
102
RTVSPost2010Prop41ColorIndex
 90
       18
102
RTVSPost2010Prop41ColorRGB
 90
        0
102
RTVSPost2010PropOp41
 70
     1
102
RTVSPost2010Prop42
 90
       50
102
RTVSPost2010PropOp42
 70
     1
102
RTVSPost2010Prop43
 90
        3
102
RTVSPost2010PropOp43
 70
     1
102
RTVSPost2010Prop44ColorIndex
 90
        5
102
RTVSPost2010Prop44ColorRGB
 90
      255
102
RTVSPost2010PropOp44
 70
     1
102
RTVSPost2010Prop45
280
     0
102
RTVSPost2010PropOp45
 70
     1
102
RTVSPost2010Prop46
 90
       50
102
RTVSPost2010PropOp46
 70
     1
102
RTVSPost2010Prop47
 90
       50
102
RTVSPost2010PropOp47
 70
     1
102
RTVSPost2010Prop48
 90
       50
102
RTVSPost2010PropOp48
 70
     1
102
RTVSPost2010Prop49
280
     0
102
RTVSPost2010PropOp49
 70
     1
102
RTVSPost2010Prop50
 90
       50
102
RTVSPost2010PropOp50
 70
     1
102
RTVSPost2010Prop51ColorIndex
 90
      256
102
RTVSPost2010Prop51ColorRGB
 90
-16777216
102
RTVSPost2010PropOp51
 70
     0
102
RTVSPost2010Prop52
140
1.0
102
RTVSPost2010PropOp52
 70
     0
102
RTVSPost2010Prop53
 90
        2
102
RTVSPost2010PropOp53
 70
     1
102
RTVSPost2010Prop54
  1
strokes_ogs.tif
102
RTVSPost2010PropOp54
 70
     1
102
RTVSPost2010Prop55
280
     0
102
RTVSPost2010PropOp55
 70
     1
102
RTVSPost2010Prop56
140
1.0
102
RTVSPost2010PropOp56
 70
     1
102
RTVSPost2010Prop57
140
1.0
102
RTVSPost2010PropOp57
 70
     1
102
RTVSPropertyOp0
 70
     1
102
RTVSPropertyOp1
 70
     1
102
RTVSPropertyOp2
 70
     1
102
RTVSPropertyOp3
 70
     1
102
RTVSPropertyOp4
 70
     1
102
RTVSPropertyOp5
 70
     1
102
RTVSPropertyOp6
 70
     1
102
RTVSPropertyOp7
 70
     1
102
RTVSPropertyOp8
 70
     1
102
RTVSPropertyOp9
 70
     1
102
RTVSPropertyOp10
 70
     1
102
RTVSPropertyOp11
 70
     1
102
RTVSPropertyOp12
 70
     1
102
RTVSPropertyOp13
 70
     1
102
RTVSPropertyOp14
 70
     1
102
RTVSPropertyOp15
 70
     1
102
RTVSPropertyOp16
 70
     1
102
RTVSPropertyOp17
 70
     1
102
RTVSPropertyOp18
 70
     1
102
RTVSPropertyOp19
 70
     1
102
RTVSPropertyOp20
 70
     1
102
RTVSPropertyOp21
 70
     1
102
RTVSPropertyOp22
 70
     1
102
RTVSPropertyOp23
 70
     1
102
RTVSPropertyOp24
 70
     1
102
RTVSPropertyOp25
 70
     1
102
RTVSPropertyOp26
 70
     1
102
RTVSPropertyOp27
 70
     1
102
RTVSPropertyOp28
 70
     1
102
RTVSPropertyOp29
 70
     1
102
RTVSPropertyOp30
 70
     1
102
RTVSPropertyOp31
 70
     1
102
RTVSPropertyOp32
 70
     1
102
RTVSPropertyOp33
 70
     1
102
RTVSPropertyOp34
 70
     1
102
RTVSPropertyOp35
 70
     1
102
RTVSPropertyOp36
 70
     1
102
RTVSPropertyOp37
 70
     1
102
RTVSPropertyOp38
 70
     1
102
RTVSPropertyOp39
 70
     1
102
RTVSPropertyOp40
 70
     1
102
RTVSPropertyOp41
 70
     1
102
RTVSPropertyOp42
 70
     1
102
RTVSPropertyOp43
 70
     1
102
RTVSPropertyOp44
 70
     1
102
RTVSPropertyOp45
 70
     1
102
RTVSPropertyOp46
 70
     1
102
RTVSPropertyOp47
 70
     1
102
RTVSPropertyOp48
 70
     1
102
RTVSPropertyOp49
 70
     1
102
RTVSPropertyOp50
 70
     1
102
RTVSPropertyOp51
 70
     0
102
RTVSPropertyOp52
 70
     0
102
RTVSPropertyOp53
 70
     1
102
RTVSPropertyOp54
 70
     1
102
RTVSPropertyOp55
 70
     1
102
RTVSPropertyOp56
 70
     1
102
RTVSPropertyOp57
 70
     1
102
RTVSPropertyOp58
 70
     1
102
RTVSPropertyOp59
 70
     1
102
RTVSPropertyOp60
 70
     1
102
RTVSPropertyOp61
 70
     1
102
RTVSPropertyOp62
 70
     1
  0
XRECORD
  5
A461
102
{ACAD_REACTORS
330
A460
102
}
330
A460
100
AcDbXrecord
280
     1
102
RTVSPost2010Prop28
280
     0
102
RTVSPost2010PropOp28
 70
     1
102
RTVSPost2010Prop29
280
     1
102
RTVSPost2010PropOp29
 70
     1
102
RTVSPost2010Prop30
280
     1
102
RTVSPost2010PropOp30
 70
     1
102
RTVSPost2010Prop31
280
     0
102
RTVSPost2010PropOp31
 70
     1
102
RTVSPost2010Prop32
280
     0
102
RTVSPost2010PropOp32
 70
     1
102
RTVSPost2010Prop33
280
     0
102
RTVSPost2010PropOp33
 70
     1
102
RTVSPost2010Prop34
280
     0
102
RTVSPost2010PropOp34
 70
     1
102
RTVSPost2010Prop35
280
     0
102
RTVSPost2010PropOp35
 70
     1
102
RTVSPost2010Prop36
280
     0
102
RTVSPost2010PropOp36
 70
     1
102
RTVSPost2010Prop37
 90
       50
102
RTVSPost2010PropOp37
 70
     1
102
RTVSPost2010Prop38
140
0.0
102
RTVSPost2010PropOp38
 70
     1
102
RTVSPost2010Prop39
140
1.0
102
RTVSPost2010PropOp39
 70
     1
102
RTVSPost2010Prop40
 90
        0
102
RTVSPost2010PropOp40
 70
     1
102
RTVSPost2010Prop41ColorIndex
 90
       18
102
RTVSPost2010Prop41ColorRGB
 90
        0
102
RTVSPost2010PropOp41
 70
     1
102
RTVSPost2010Prop42
 90
       50
102
RTVSPost2010PropOp42
 70
     1
102
RTVSPost2010Prop43
 90
        3
102
RTVSPost2010PropOp43
 70
     1
102
RTVSPost2010Prop44ColorIndex
 90
        5
102
RTVSPost2010Prop44ColorRGB
 90
      255
102
RTVSPost2010PropOp44
 70
     1
102
RTVSPost2010Prop45
280
     0
102
RTVSPost2010PropOp45
 70
     1
102
RTVSPost2010Prop46
 90
       50
102
RTVSPost2010PropOp46
 70
     1
102
RTVSPost2010Prop47
 90
       50
102
RTVSPost2010PropOp47
 70
     1
102
RTVSPost2010Prop48
 90
       50
102
RTVSPost2010PropOp48
 70
     1
102
RTVSPost2010Prop49
280
     0
102
RTVSPost2010PropOp49
 70
     1
102
RTVSPost2010Prop50
 90
       50
102
RTVSPost2010PropOp50
 70
     1
102
RTVSPost2010Prop51ColorIndex
 90
      256
102
RTVSPost2010Prop51ColorRGB
 90
-16777216
102
RTVSPost2010PropOp51
 70
     0
102
RTVSPost2010Prop52
140
1.0
102
RTVSPost2010PropOp52
 70
     0
102
RTVSPost2010Prop53
 90
        2
102
RTVSPost2010PropOp53
 70
     1
102
RTVSPost2010Prop54
  1
strokes_ogs.tif
102
RTVSPost2010PropOp54
 70
     1
102
RTVSPost2010Prop55
280
     0
102
RTVSPost2010PropOp55
 70
     1
102
RTVSPost2010Prop56
140
1.0
102
RTVSPost2010PropOp56
 70
     1
102
RTVSPost2010Prop57
140
1.0
102
RTVSPost2010PropOp57
 70
     1
102
RTVSPropertyOp0
 70
     1
102
RTVSPropertyOp1
 70
     1
102
RTVSPropertyOp2
 70
     1
102
RTVSPropertyOp3
 70
     1
102
RTVSPropertyOp4
 70
     1
102
RTVSPropertyOp5
 70
     1
102
RTVSPropertyOp6
 70
     1
102
RTVSPropertyOp7
 70
     1
102
RTVSPropertyOp8
 70
     1
102
RTVSPropertyOp9
 70
     1
102
RTVSPropertyOp10
 70
     1
102
RTVSPropertyOp11
 70
     1
102
RTVSPropertyOp12
 70
     1
102
RTVSPropertyOp13
 70
     1
102
RTVSPropertyOp14
 70
     1
102
RTVSPropertyOp15
 70
     1
102
RTVSPropertyOp16
 70
     1
102
RTVSPropertyOp17
 70
     1
102
RTVSPropertyOp18
 70
     1
102
RTVSPropertyOp19
 70
     1
102
RTVSPropertyOp20
 70
     1
102
RTVSPropertyOp21
 70
     1
102
RTVSPropertyOp22
 70
     1
102
RTVSPropertyOp23
 70
     1
102
RTVSPropertyOp24
 70
     1
102
RTVSPropertyOp25
 70
     1
102
RTVSPropertyOp26
 70
     1
102
RTVSPropertyOp27
 70
     1
102
RTVSPropertyOp28
 70
     1
102
RTVSPropertyOp29
 70
     1
102
RTVSPropertyOp30
 70
     1
102
RTVSPropertyOp31
 70
     1
102
RTVSPropertyOp32
 70
     1
102
RTVSPropertyOp33
 70
     1
102
RTVSPropertyOp34
 70
     1
102
RTVSPropertyOp35
 70
     1
102
RTVSPropertyOp36
 70
     1
102
RTVSPropertyOp37
 70
     1
102
RTVSPropertyOp38
 70
     1
102
RTVSPropertyOp39
 70
     1
102
RTVSPropertyOp40
 70
     1
102
RTVSPropertyOp41
 70
     1
102
RTVSPropertyOp42
 70
     1
102
RTVSPropertyOp43
 70
     1
102
RTVSPropertyOp44
 70
     1
102
RTVSPropertyOp45
 70
     1
102
RTVSPropertyOp46
 70
     1
102
RTVSPropertyOp47
 70
     1
102
RTVSPropertyOp48
 70
     1
102
RTVSPropertyOp49
 70
     1
102
RTVSPropertyOp50
 70
     1
102
RTVSPropertyOp51
 70
     0
102
RTVSPropertyOp52
 70
     0
102
RTVSPropertyOp53
 70
     1
102
RTVSPropertyOp54
 70
     1
102
RTVSPropertyOp55
 70
     1
102
RTVSPropertyOp56
 70
     1
102
RTVSPropertyOp57
 70
     1
102
RTVSPropertyOp58
 70
     1
102
RTVSPropertyOp59
 70
     1
102
RTVSPropertyOp60
 70
     1
102
RTVSPropertyOp61
 70
     1
102
RTVSPropertyOp62
 70
     1
  0
XRECORD
  5
A47B
102
{ACAD_REACTORS
330
A47A
102
}
330
A47A
100
AcDbXrecord
280
     1
102
RTVSPost2010Prop28
280
     0
102
RTVSPost2010PropOp28
 70
     1
102
RTVSPost2010Prop29
280
     1
102
RTVSPost2010PropOp29
 70
     1
102
RTVSPost2010Prop30
280
     1
102
RTVSPost2010PropOp30
 70
     1
102
RTVSPost2010Prop31
280
     0
102
RTVSPost2010PropOp31
 70
     1
102
RTVSPost2010Prop32
280
     0
102
RTVSPost2010PropOp32
 70
     1
102
RTVSPost2010Prop33
280
     0
102
RTVSPost2010PropOp33
 70
     1
102
RTVSPost2010Prop34
280
     0
102
RTVSPost2010PropOp34
 70
     1
102
RTVSPost2010Prop35
280
     0
102
RTVSPost2010PropOp35
 70
     1
102
RTVSPost2010Prop36
280
     0
102
RTVSPost2010PropOp36
 70
     1
102
RTVSPost2010Prop37
 90
       50
102
RTVSPost2010PropOp37
 70
     0
102
RTVSPost2010Prop38
140
0.0
102
RTVSPost2010PropOp38
 70
     0
102
RTVSPost2010Prop39
140
1.0
102
RTVSPost2010PropOp39
 70
     0
102
RTVSPost2010Prop40
 90
        0
102
RTVSPost2010PropOp40
 70
     0
102
RTVSPost2010Prop41ColorIndex
 90
       18
102
RTVSPost2010Prop41ColorRGB
 90
        0
102
RTVSPost2010PropOp41
 70
     0
102
RTVSPost2010Prop42
 90
       50
102
RTVSPost2010PropOp42
 70
     0
102
RTVSPost2010Prop43
 90
        3
102
RTVSPost2010PropOp43
 70
     0
102
RTVSPost2010Prop44ColorIndex
 90
        5
102
RTVSPost2010Prop44ColorRGB
 90
      255
102
RTVSPost2010PropOp44
 70
     0
102
RTVSPost2010Prop45
280
     0
102
RTVSPost2010PropOp45
 70
     1
102
RTVSPost2010Prop46
 90
       50
102
RTVSPost2010PropOp46
 70
     0
102
RTVSPost2010Prop47
 90
       50
102
RTVSPost2010PropOp47
 70
     0
102
RTVSPost2010Prop48
 90
       50
102
RTVSPost2010PropOp48
 70
     0
102
RTVSPost2010Prop49
280
     0
102
RTVSPost2010PropOp49
 70
     1
102
RTVSPost2010Prop50
 90
       50
102
RTVSPost2010PropOp50
 70
     0
102
RTVSPost2010Prop51ColorIndex
 90
      256
102
RTVSPost2010Prop51ColorRGB
 90
-16777216
102
RTVSPost2010PropOp51
 70
     0
102
RTVSPost2010Prop52
140
1.0
102
RTVSPost2010PropOp52
 70
     0
102
RTVSPost2010Prop53
 90
        2
102
RTVSPost2010PropOp53
 70
     0
102
RTVSPost2010Prop54
  1
strokes_ogs.tif
102
RTVSPost2010PropOp54
 70
     0
102
RTVSPost2010Prop55
280
     0
102
RTVSPost2010PropOp55
 70
     1
102
RTVSPost2010Prop56
140
1.0
102
RTVSPost2010PropOp56
 70
     0
102
RTVSPost2010Prop57
140
1.0
102
RTVSPost2010PropOp57
 70
     0
102
RTVSPropertyOp0
 70
     0
102
RTVSPropertyOp1
 70
     0
102
RTVSPropertyOp2
 70
     0
102
RTVSPropertyOp3
 70
     0
102
RTVSPropertyOp4
 70
     0
102
RTVSPropertyOp5
 70
     0
102
RTVSPropertyOp6
 70
     0
102
RTVSPropertyOp7
 70
     0
102
RTVSPropertyOp8
 70
     0
102
RTVSPropertyOp9
 70
     0
102
RTVSPropertyOp10
 70
     0
102
RTVSPropertyOp11
 70
     0
102
RTVSPropertyOp12
 70
     0
102
RTVSPropertyOp13
 70
     0
102
RTVSPropertyOp14
 70
     2
102
RTVSPropertyOp15
 70
     0
102
RTVSPropertyOp16
 70
     0
102
RTVSPropertyOp17
 70
     0
102
RTVSPropertyOp18
 70
     0
102
RTVSPropertyOp19
 70
     0
102
RTVSPropertyOp20
 70
     0
102
RTVSPropertyOp21
 70
     0
102
RTVSPropertyOp22
 70
     0
102
RTVSPropertyOp23
 70
     0
102
RTVSPropertyOp24
 70
     0
102
RTVSPropertyOp25
 70
     0
102
RTVSPropertyOp26
 70
     0
102
RTVSPropertyOp27
 70
     0
102
RTVSPropertyOp28
 70
     1
102
RTVSPropertyOp29
 70
     1
102
RTVSPropertyOp30
 70
     1
102
RTVSPropertyOp31
 70
     1
102
RTVSPropertyOp32
 70
     1
102
RTVSPropertyOp33
 70
     1
102
RTVSPropertyOp34
 70
     1
102
RTVSPropertyOp35
 70
     1
102
RTVSPropertyOp36
 70
     1
102
RTVSPropertyOp37
 70
     0
102
RTVSPropertyOp38
 70
     0
102
RTVSPropertyOp39
 70
     0
102
RTVSPropertyOp40
 70
     0
102
RTVSPropertyOp41
 70
     0
102
RTVSPropertyOp42
 70
     0
102
RTVSPropertyOp43
 70
     0
102
RTVSPropertyOp44
 70
     0
102
RTVSPropertyOp45
 70
     1
102
RTVSPropertyOp46
 70
     0
102
RTVSPropertyOp47
 70
     0
102
RTVSPropertyOp48
 70
     0
102
RTVSPropertyOp49
 70
     1
102
RTVSPropertyOp50
 70
     0
102
RTVSPropertyOp51
 70
     0
102
RTVSPropertyOp52
 70
     0
102
RTVSPropertyOp53
 70
     0
102
RTVSPropertyOp54
 70
     0
102
RTVSPropertyOp55
 70
     1
102
RTVSPropertyOp56
 70
     0
102
RTVSPropertyOp57
 70
     0
102
RTVSPropertyOp58
 70
     0
102
RTVSPropertyOp59
 70
     0
102
RTVSPropertyOp60
 70
     0
102
RTVSPropertyOp61
 70
     0
102
RTVSPropertyOp62
 70
     0
  0
XRECORD
  5
A469
102
{ACAD_REACTORS
330
A468
102
}
330
A468
100
AcDbXrecord
280
     1
102
RTVSPost2010Prop28
280
     0
102
RTVSPost2010PropOp28
 70
     1
102
RTVSPost2010Prop29
280
     1
102
RTVSPost2010PropOp29
 70
     1
102
RTVSPost2010Prop30
280
     1
102
RTVSPost2010PropOp30
 70
     1
102
RTVSPost2010Prop31
280
     0
102
RTVSPost2010PropOp31
 70
     1
102
RTVSPost2010Prop32
280
     0
102
RTVSPost2010PropOp32
 70
     1
102
RTVSPost2010Prop33
280
     0
102
RTVSPost2010PropOp33
 70
     1
102
RTVSPost2010Prop34
280
     0
102
RTVSPost2010PropOp34
 70
     1
102
RTVSPost2010Prop35
280
     0
102
RTVSPost2010PropOp35
 70
     1
102
RTVSPost2010Prop36
280
     0
102
RTVSPost2010PropOp36
 70
     1
102
RTVSPost2010Prop37
 90
       50
102
RTVSPost2010PropOp37
 70
     1
102
RTVSPost2010Prop38
140
0.0
102
RTVSPost2010PropOp38
 70
     1
102
RTVSPost2010Prop39
140
1.0
102
RTVSPost2010PropOp39
 70
     1
102
RTVSPost2010Prop40
 90
        0
102
RTVSPost2010PropOp40
 70
     1
102
RTVSPost2010Prop41ColorIndex
 90
       18
102
RTVSPost2010Prop41ColorRGB
 90
        0
102
RTVSPost2010PropOp41
 70
     1
102
RTVSPost2010Prop42
 90
       50
102
RTVSPost2010PropOp42
 70
     1
102
RTVSPost2010Prop43
 90
        3
102
RTVSPost2010PropOp43
 70
     1
102
RTVSPost2010Prop44ColorIndex
 90
        5
102
RTVSPost2010Prop44ColorRGB
 90
      255
102
RTVSPost2010PropOp44
 70
     1
102
RTVSPost2010Prop45
280
     0
102
RTVSPost2010PropOp45
 70
     1
102
RTVSPost2010Prop46
 90
       50
102
RTVSPost2010PropOp46
 70
     1
102
RTVSPost2010Prop47
 90
       50
102
RTVSPost2010PropOp47
 70
     1
102
RTVSPost2010Prop48
 90
       50
102
RTVSPost2010PropOp48
 70
     1
102
RTVSPost2010Prop49
280
     0
102
RTVSPost2010PropOp49
 70
     1
102
RTVSPost2010Prop50
 90
       50
102
RTVSPost2010PropOp50
 70
     1
102
RTVSPost2010Prop51ColorIndex
 90
      256
102
RTVSPost2010Prop51ColorRGB
 90
-16777216
102
RTVSPost2010PropOp51
 70
     0
102
RTVSPost2010Prop52
140
1.0
102
RTVSPost2010PropOp52
 70
     0
102
RTVSPost2010Prop53
 90
        2
102
RTVSPost2010PropOp53
 70
     1
102
RTVSPost2010Prop54
  1
strokes_ogs.tif
102
RTVSPost2010PropOp54
 70
     1
102
RTVSPost2010Prop55
280
     0
102
RTVSPost2010PropOp55
 70
     1
102
RTVSPost2010Prop56
140
1.0
102
RTVSPost2010PropOp56
 70
     1
102
RTVSPost2010Prop57
140
1.0
102
RTVSPost2010PropOp57
 70
     1
102
RTVSPropertyOp0
 70
     1
102
RTVSPropertyOp1
 70
     1
102
RTVSPropertyOp2
 70
     1
102
RTVSPropertyOp3
 70
     1
102
RTVSPropertyOp4
 70
     1
102
RTVSPropertyOp5
 70
     1
102
RTVSPropertyOp6
 70
     1
102
RTVSPropertyOp7
 70
     1
102
RTVSPropertyOp8
 70
     1
102
RTVSPropertyOp9
 70
     1
102
RTVSPropertyOp10
 70
     1
102
RTVSPropertyOp11
 70
     1
102
RTVSPropertyOp12
 70
     1
102
RTVSPropertyOp13
 70
     1
102
RTVSPropertyOp14
 70
     1
102
RTVSPropertyOp15
 70
     1
102
RTVSPropertyOp16
 70
     1
102
RTVSPropertyOp17
 70
     1
102
RTVSPropertyOp18
 70
     1
102
RTVSPropertyOp19
 70
     1
102
RTVSPropertyOp20
 70
     1
102
RTVSPropertyOp21
 70
     1
102
RTVSPropertyOp22
 70
     1
102
RTVSPropertyOp23
 70
     1
102
RTVSPropertyOp24
 70
     1
102
RTVSPropertyOp25
 70
     1
102
RTVSPropertyOp26
 70
     1
102
RTVSPropertyOp27
 70
     1
102
RTVSPropertyOp28
 70
     1
102
RTVSPropertyOp29
 70
     1
102
RTVSPropertyOp30
 70
     1
102
RTVSPropertyOp31
 70
     1
102
RTVSPropertyOp32
 70
     1
102
RTVSPropertyOp33
 70
     1
102
RTVSPropertyOp34
 70
     1
102
RTVSPropertyOp35
 70
     1
102
RTVSPropertyOp36
 70
     1
102
RTVSPropertyOp37
 70
     1
102
RTVSPropertyOp38
 70
     1
102
RTVSPropertyOp39
 70
     1
102
RTVSPropertyOp40
 70
     1
102
RTVSPropertyOp41
 70
     1
102
RTVSPropertyOp42
 70
     1
102
RTVSPropertyOp43
 70
     1
102
RTVSPropertyOp44
 70
     1
102
RTVSPropertyOp45
 70
     1
102
RTVSPropertyOp46
 70
     1
102
RTVSPropertyOp47
 70
     1
102
RTVSPropertyOp48
 70
     1
102
RTVSPropertyOp49
 70
     1
102
RTVSPropertyOp50
 70
     1
102
RTVSPropertyOp51
 70
     0
102
RTVSPropertyOp52
 70
     0
102
RTVSPropertyOp53
 70
     1
102
RTVSPropertyOp54
 70
     1
102
RTVSPropertyOp55
 70
     1
102
RTVSPropertyOp56
 70
     1
102
RTVSPropertyOp57
 70
     1
102
RTVSPropertyOp58
 70
     1
102
RTVSPropertyOp59
 70
     1
102
RTVSPropertyOp60
 70
     1
102
RTVSPropertyOp61
 70
     1
102
RTVSPropertyOp62
 70
     1
  0
XRECORD
  5
A44D
102
{ACAD_REACTORS
330
A44C
102
}
330
A44C
100
AcDbXrecord
280
     1
102
RTVSPost2010Prop28
280
     0
102
RTVSPost2010PropOp28
 70
     1
102
RTVSPost2010Prop29
280
     1
102
RTVSPost2010PropOp29
 70
     1
102
RTVSPost2010Prop30
280
     1
102
RTVSPost2010PropOp30
 70
     1
102
RTVSPost2010Prop31
280
     0
102
RTVSPost2010PropOp31
 70
     1
102
RTVSPost2010Prop32
280
     0
102
RTVSPost2010PropOp32
 70
     1
102
RTVSPost2010Prop33
280
     0
102
RTVSPost2010PropOp33
 70
     1
102
RTVSPost2010Prop34
280
     0
102
RTVSPost2010PropOp34
 70
     1
102
RTVSPost2010Prop35
280
     0
102
RTVSPost2010PropOp35
 70
     1
102
RTVSPost2010Prop36
280
     0
102
RTVSPost2010PropOp36
 70
     1
102
RTVSPost2010Prop37
 90
       50
102
RTVSPost2010PropOp37
 70
     1
102
RTVSPost2010Prop38
140
0.0
102
RTVSPost2010PropOp38
 70
     1
102
RTVSPost2010Prop39
140
1.0
102
RTVSPost2010PropOp39
 70
     1
102
RTVSPost2010Prop40
 90
        0
102
RTVSPost2010PropOp40
 70
     1
102
RTVSPost2010Prop41ColorIndex
 90
       18
102
RTVSPost2010Prop41ColorRGB
 90
        0
102
RTVSPost2010PropOp41
 70
     1
102
RTVSPost2010Prop42
 90
       50
102
RTVSPost2010PropOp42
 70
     1
102
RTVSPost2010Prop43
 90
        3
102
RTVSPost2010PropOp43
 70
     1
102
RTVSPost2010Prop44ColorIndex
 90
        5
102
RTVSPost2010Prop44ColorRGB
 90
      255
102
RTVSPost2010PropOp44
 70
     1
102
RTVSPost2010Prop45
280
     0
102
RTVSPost2010PropOp45
 70
     1
102
RTVSPost2010Prop46
 90
       50
102
RTVSPost2010PropOp46
 70
     1
102
RTVSPost2010Prop47
 90
       50
102
RTVSPost2010PropOp47
 70
     1
102
RTVSPost2010Prop48
 90
       50
102
RTVSPost2010PropOp48
 70
     1
102
RTVSPost2010Prop49
280
     0
102
RTVSPost2010PropOp49
 70
     1
102
RTVSPost2010Prop50
 90
       50
102
RTVSPost2010PropOp50
 70
     1
102
RTVSPost2010Prop51ColorIndex
 90
      256
102
RTVSPost2010Prop51ColorRGB
 90
-16777216
102
RTVSPost2010PropOp51
 70
     0
102
RTVSPost2010Prop52
140
1.0
102
RTVSPost2010PropOp52
 70
     0
102
RTVSPost2010Prop53
 90
        2
102
RTVSPost2010PropOp53
 70
     1
102
RTVSPost2010Prop54
  1
strokes_ogs.tif
102
RTVSPost2010PropOp54
 70
     1
102
RTVSPost2010Prop55
280
     0
102
RTVSPost2010PropOp55
 70
     1
102
RTVSPost2010Prop56
140
1.0
102
RTVSPost2010PropOp56
 70
     1
102
RTVSPost2010Prop57
140
1.0
102
RTVSPost2010PropOp57
 70
     1
102
RTVSPropertyOp0
 70
     1
102
RTVSPropertyOp1
 70
     1
102
RTVSPropertyOp2
 70
     1
102
RTVSPropertyOp3
 70
     1
102
RTVSPropertyOp4
 70
     1
102
RTVSPropertyOp5
 70
     1
102
RTVSPropertyOp6
 70
     1
102
RTVSPropertyOp7
 70
     1
102
RTVSPropertyOp8
 70
     1
102
RTVSPropertyOp9
 70
     1
102
RTVSPropertyOp10
 70
     1
102
RTVSPropertyOp11
 70
     1
102
RTVSPropertyOp12
 70
     1
102
RTVSPropertyOp13
 70
     1
102
RTVSPropertyOp14
 70
     1
102
RTVSPropertyOp15
 70
     1
102
RTVSPropertyOp16
 70
     1
102
RTVSPropertyOp17
 70
     1
102
RTVSPropertyOp18
 70
     1
102
RTVSPropertyOp19
 70
     1
102
RTVSPropertyOp20
 70
     1
102
RTVSPropertyOp21
 70
     1
102
RTVSPropertyOp22
 70
     1
102
RTVSPropertyOp23
 70
     1
102
RTVSPropertyOp24
 70
     1
102
RTVSPropertyOp25
 70
     1
102
RTVSPropertyOp26
 70
     1
102
RTVSPropertyOp27
 70
     1
102
RTVSPropertyOp28
 70
     1
102
RTVSPropertyOp29
 70
     1
102
RTVSPropertyOp30
 70
     1
102
RTVSPropertyOp31
 70
     1
102
RTVSPropertyOp32
 70
     1
102
RTVSPropertyOp33
 70
     1
102
RTVSPropertyOp34
 70
     1
102
RTVSPropertyOp35
 70
     1
102
RTVSPropertyOp36
 70
     1
102
RTVSPropertyOp37
 70
     1
102
RTVSPropertyOp38
 70
     1
102
RTVSPropertyOp39
 70
     1
102
RTVSPropertyOp40
 70
     1
102
RTVSPropertyOp41
 70
     1
102
RTVSPropertyOp42
 70
     1
102
RTVSPropertyOp43
 70
     1
102
RTVSPropertyOp44
 70
     1
102
RTVSPropertyOp45
 70
     1
102
RTVSPropertyOp46
 70
     1
102
RTVSPropertyOp47
 70
     1
102
RTVSPropertyOp48
 70
     1
102
RTVSPropertyOp49
 70
     1
102
RTVSPropertyOp50
 70
     1
102
RTVSPropertyOp51
 70
     0
102
RTVSPropertyOp52
 70
     0
102
RTVSPropertyOp53
 70
     1
102
RTVSPropertyOp54
 70
     1
102
RTVSPropertyOp55
 70
     1
102
RTVSPropertyOp56
 70
     1
102
RTVSPropertyOp57
 70
     1
102
RTVSPropertyOp58
 70
     1
102
RTVSPropertyOp59
 70
     1
102
RTVSPropertyOp60
 70
     1
102
RTVSPropertyOp61
 70
     1
102
RTVSPropertyOp62
 70
     1
  0
XRECORD
  5
A44F
102
{ACAD_REACTORS
330
A44E
102
}
330
A44E
100
AcDbXrecord
280
     1
102
RTVSPost2010Prop28
280
     0
102
RTVSPost2010PropOp28
 70
     1
102
RTVSPost2010Prop29
280
     1
102
RTVSPost2010PropOp29
 70
     1
102
RTVSPost2010Prop30
280
     1
102
RTVSPost2010PropOp30
 70
     1
102
RTVSPost2010Prop31
280
     0
102
RTVSPost2010PropOp31
 70
     1
102
RTVSPost2010Prop32
280
     0
102
RTVSPost2010PropOp32
 70
     1
102
RTVSPost2010Prop33
280
     0
102
RTVSPost2010PropOp33
 70
     1
102
RTVSPost2010Prop34
280
     0
102
RTVSPost2010PropOp34
 70
     1
102
RTVSPost2010Prop35
280
     0
102
RTVSPost2010PropOp35
 70
     1
102
RTVSPost2010Prop36
280
     0
102
RTVSPost2010PropOp36
 70
     1
102
RTVSPost2010Prop37
 90
       50
102
RTVSPost2010PropOp37
 70
     1
102
RTVSPost2010Prop38
140
0.0
102
RTVSPost2010PropOp38
 70
     1
102
RTVSPost2010Prop39
140
1.0
102
RTVSPost2010PropOp39
 70
     1
102
RTVSPost2010Prop40
 90
        0
102
RTVSPost2010PropOp40
 70
     1
102
RTVSPost2010Prop41ColorIndex
 90
       18
102
RTVSPost2010Prop41ColorRGB
 90
        0
102
RTVSPost2010PropOp41
 70
     1
102
RTVSPost2010Prop42
 90
       50
102
RTVSPost2010PropOp42
 70
     1
102
RTVSPost2010Prop43
 90
        3
102
RTVSPost2010PropOp43
 70
     1
102
RTVSPost2010Prop44ColorIndex
 90
        5
102
RTVSPost2010Prop44ColorRGB
 90
      255
102
RTVSPost2010PropOp44
 70
     1
102
RTVSPost2010Prop45
280
     0
102
RTVSPost2010PropOp45
 70
     1
102
RTVSPost2010Prop46
 90
       50
102
RTVSPost2010PropOp46
 70
     1
102
RTVSPost2010Prop47
 90
       50
102
RTVSPost2010PropOp47
 70
     1
102
RTVSPost2010Prop48
 90
       50
102
RTVSPost2010PropOp48
 70
     1
102
RTVSPost2010Prop49
280
     0
102
RTVSPost2010PropOp49
 70
     1
102
RTVSPost2010Prop50
 90
       50
102
RTVSPost2010PropOp50
 70
     1
102
RTVSPost2010Prop51ColorIndex
 90
      256
102
RTVSPost2010Prop51ColorRGB
 90
-16777216
102
RTVSPost2010PropOp51
 70
     0
102
RTVSPost2010Prop52
140
1.0
102
RTVSPost2010PropOp52
 70
     0
102
RTVSPost2010Prop53
 90
        2
102
RTVSPost2010PropOp53
 70
     1
102
RTVSPost2010Prop54
  1
strokes_ogs.tif
102
RTVSPost2010PropOp54
 70
     1
102
RTVSPost2010Prop55
280
     0
102
RTVSPost2010PropOp55
 70
     1
102
RTVSPost2010Prop56
140
1.0
102
RTVSPost2010PropOp56
 70
     1
102
RTVSPost2010Prop57
140
1.0
102
RTVSPost2010PropOp57
 70
     1
102
RTVSPropertyOp0
 70
     1
102
RTVSPropertyOp1
 70
     1
102
RTVSPropertyOp2
 70
     1
102
RTVSPropertyOp3
 70
     1
102
RTVSPropertyOp4
 70
     1
102
RTVSPropertyOp5
 70
     1
102
RTVSPropertyOp6
 70
     1
102
RTVSPropertyOp7
 70
     1
102
RTVSPropertyOp8
 70
     1
102
RTVSPropertyOp9
 70
     1
102
RTVSPropertyOp10
 70
     1
102
RTVSPropertyOp11
 70
     1
102
RTVSPropertyOp12
 70
     1
102
RTVSPropertyOp13
 70
     1
102
RTVSPropertyOp14
 70
     1
102
RTVSPropertyOp15
 70
     1
102
RTVSPropertyOp16
 70
     1
102
RTVSPropertyOp17
 70
     1
102
RTVSPropertyOp18
 70
     1
102
RTVSPropertyOp19
 70
     1
102
RTVSPropertyOp20
 70
     1
102
RTVSPropertyOp21
 70
     1
102
RTVSPropertyOp22
 70
     1
102
RTVSPropertyOp23
 70
     1
102
RTVSPropertyOp24
 70
     1
102
RTVSPropertyOp25
 70
     1
102
RTVSPropertyOp26
 70
     1
102
RTVSPropertyOp27
 70
     1
102
RTVSPropertyOp28
 70
     1
102
RTVSPropertyOp29
 70
     1
102
RTVSPropertyOp30
 70
     1
102
RTVSPropertyOp31
 70
     1
102
RTVSPropertyOp32
 70
     1
102
RTVSPropertyOp33
 70
     1
102
RTVSPropertyOp34
 70
     1
102
RTVSPropertyOp35
 70
     1
102
RTVSPropertyOp36
 70
     1
102
RTVSPropertyOp37
 70
     1
102
RTVSPropertyOp38
 70
     1
102
RTVSPropertyOp39
 70
     1
102
RTVSPropertyOp40
 70
     1
102
RTVSPropertyOp41
 70
     1
102
RTVSPropertyOp42
 70
     1
102
RTVSPropertyOp43
 70
     1
102
RTVSPropertyOp44
 70
     1
102
RTVSPropertyOp45
 70
     1
102
RTVSPropertyOp46
 70
     1
102
RTVSPropertyOp47
 70
     1
102
RTVSPropertyOp48
 70
     1
102
RTVSPropertyOp49
 70
     1
102
RTVSPropertyOp50
 70
     1
102
RTVSPropertyOp51
 70
     0
102
RTVSPropertyOp52
 70
     0
102
RTVSPropertyOp53
 70
     1
102
RTVSPropertyOp54
 70
     1
102
RTVSPropertyOp55
 70
     1
102
RTVSPropertyOp56
 70
     1
102
RTVSPropertyOp57
 70
     1
102
RTVSPropertyOp58
 70
     1
102
RTVSPropertyOp59
 70
     1
102
RTVSPropertyOp60
 70
     1
102
RTVSPropertyOp61
 70
     1
102
RTVSPropertyOp62
 70
     1
  0
XRECORD
  5
A451
102
{ACAD_REACTORS
330
A450
102
}
330
A450
100
AcDbXrecord
280
     1
102
RTVSPost2010Prop28
280
     0
102
RTVSPost2010PropOp28
 70
     1
102
RTVSPost2010Prop29
280
     1
102
RTVSPost2010PropOp29
 70
     1
102
RTVSPost2010Prop30
280
     1
102
RTVSPost2010PropOp30
 70
     1
102
RTVSPost2010Prop31
280
     0
102
RTVSPost2010PropOp31
 70
     1
102
RTVSPost2010Prop32
280
     0
102
RTVSPost2010PropOp32
 70
     1
102
RTVSPost2010Prop33
280
     0
102
RTVSPost2010PropOp33
 70
     1
102
RTVSPost2010Prop34
280
     0
102
RTVSPost2010PropOp34
 70
     1
102
RTVSPost2010Prop35
280
     0
102
RTVSPost2010PropOp35
 70
     1
102
RTVSPost2010Prop36
280
     0
102
RTVSPost2010PropOp36
 70
     1
102
RTVSPost2010Prop37
 90
       50
102
RTVSPost2010PropOp37
 70
     1
102
RTVSPost2010Prop38
140
0.0
102
RTVSPost2010PropOp38
 70
     1
102
RTVSPost2010Prop39
140
1.0
102
RTVSPost2010PropOp39
 70
     1
102
RTVSPost2010Prop40
 90
        0
102
RTVSPost2010PropOp40
 70
     1
102
RTVSPost2010Prop41ColorIndex
 90
       18
102
RTVSPost2010Prop41ColorRGB
 90
        0
102
RTVSPost2010PropOp41
 70
     1
102
RTVSPost2010Prop42
 90
       50
102
RTVSPost2010PropOp42
 70
     1
102
RTVSPost2010Prop43
 90
        3
102
RTVSPost2010PropOp43
 70
     1
102
RTVSPost2010Prop44ColorIndex
 90
        5
102
RTVSPost2010Prop44ColorRGB
 90
      255
102
RTVSPost2010PropOp44
 70
     1
102
RTVSPost2010Prop45
280
     0
102
RTVSPost2010PropOp45
 70
     1
102
RTVSPost2010Prop46
 90
       50
102
RTVSPost2010PropOp46
 70
     1
102
RTVSPost2010Prop47
 90
       50
102
RTVSPost2010PropOp47
 70
     1
102
RTVSPost2010Prop48
 90
       50
102
RTVSPost2010PropOp48
 70
     1
102
RTVSPost2010Prop49
280
     0
102
RTVSPost2010PropOp49
 70
     1
102
RTVSPost2010Prop50
 90
       50
102
RTVSPost2010PropOp50
 70
     1
102
RTVSPost2010Prop51ColorIndex
 90
      256
102
RTVSPost2010Prop51ColorRGB
 90
-16777216
102
RTVSPost2010PropOp51
 70
     0
102
RTVSPost2010Prop52
140
1.0
102
RTVSPost2010PropOp52
 70
     0
102
RTVSPost2010Prop53
 90
        2
102
RTVSPost2010PropOp53
 70
     1
102
RTVSPost2010Prop54
  1
strokes_ogs.tif
102
RTVSPost2010PropOp54
 70
     1
102
RTVSPost2010Prop55
280
     0
102
RTVSPost2010PropOp55
 70
     1
102
RTVSPost2010Prop56
140
1.0
102
RTVSPost2010PropOp56
 70
     1
102
RTVSPost2010Prop57
140
1.0
102
RTVSPost2010PropOp57
 70
     1
102
RTVSPropertyOp0
 70
     1
102
RTVSPropertyOp1
 70
     1
102
RTVSPropertyOp2
 70
     1
102
RTVSPropertyOp3
 70
     1
102
RTVSPropertyOp4
 70
     1
102
RTVSPropertyOp5
 70
     1
102
RTVSPropertyOp6
 70
     1
102
RTVSPropertyOp7
 70
     1
102
RTVSPropertyOp8
 70
     1
102
RTVSPropertyOp9
 70
     1
102
RTVSPropertyOp10
 70
     1
102
RTVSPropertyOp11
 70
     1
102
RTVSPropertyOp12
 70
     1
102
RTVSPropertyOp13
 70
     1
102
RTVSPropertyOp14
 70
     1
102
RTVSPropertyOp15
 70
     1
102
RTVSPropertyOp16
 70
     1
102
RTVSPropertyOp17
 70
     1
102
RTVSPropertyOp18
 70
     1
102
RTVSPropertyOp19
 70
     1
102
RTVSPropertyOp20
 70
     1
102
RTVSPropertyOp21
 70
     1
102
RTVSPropertyOp22
 70
     1
102
RTVSPropertyOp23
 70
     1
102
RTVSPropertyOp24
 70
     1
102
RTVSPropertyOp25
 70
     1
102
RTVSPropertyOp26
 70
     1
102
RTVSPropertyOp27
 70
     1
102
RTVSPropertyOp28
 70
     1
102
RTVSPropertyOp29
 70
     1
102
RTVSPropertyOp30
 70
     1
102
RTVSPropertyOp31
 70
     1
102
RTVSPropertyOp32
 70
     1
102
RTVSPropertyOp33
 70
     1
102
RTVSPropertyOp34
 70
     1
102
RTVSPropertyOp35
 70
     1
102
RTVSPropertyOp36
 70
     1
102
RTVSPropertyOp37
 70
     1
102
RTVSPropertyOp38
 70
     1
102
RTVSPropertyOp39
 70
     1
102
RTVSPropertyOp40
 70
     1
102
RTVSPropertyOp41
 70
     1
102
RTVSPropertyOp42
 70
     1
102
RTVSPropertyOp43
 70
     1
102
RTVSPropertyOp44
 70
     1
102
RTVSPropertyOp45
 70
     1
102
RTVSPropertyOp46
 70
     1
102
RTVSPropertyOp47
 70
     1
102
RTVSPropertyOp48
 70
     1
102
RTVSPropertyOp49
 70
     1
102
RTVSPropertyOp50
 70
     1
102
RTVSPropertyOp51
 70
     0
102
RTVSPropertyOp52
 70
     0
102
RTVSPropertyOp53
 70
     1
102
RTVSPropertyOp54
 70
     1
102
RTVSPropertyOp55
 70
     1
102
RTVSPropertyOp56
 70
     1
102
RTVSPropertyOp57
 70
     1
102
RTVSPropertyOp58
 70
     1
102
RTVSPropertyOp59
 70
     1
102
RTVSPropertyOp60
 70
     1
102
RTVSPropertyOp61
 70
     1
102
RTVSPropertyOp62
 70
     1
  0
XRECORD
  5
A453
102
{ACAD_REACTORS
330
A452
102
}
330
A452
100
AcDbXrecord
280
     1
102
RTVSPost2010Prop28
280
     0
102
RTVSPost2010PropOp28
 70
     1
102
RTVSPost2010Prop29
280
     1
102
RTVSPost2010PropOp29
 70
     1
102
RTVSPost2010Prop30
280
     1
102
RTVSPost2010PropOp30
 70
     1
102
RTVSPost2010Prop31
280
     0
102
RTVSPost2010PropOp31
 70
     1
102
RTVSPost2010Prop32
280
     0
102
RTVSPost2010PropOp32
 70
     1
102
RTVSPost2010Prop33
280
     0
102
RTVSPost2010PropOp33
 70
     1
102
RTVSPost2010Prop34
280
     0
102
RTVSPost2010PropOp34
 70
     1
102
RTVSPost2010Prop35
280
     0
102
RTVSPost2010PropOp35
 70
     1
102
RTVSPost2010Prop36
280
     0
102
RTVSPost2010PropOp36
 70
     1
102
RTVSPost2010Prop37
 90
       50
102
RTVSPost2010PropOp37
 70
     1
102
RTVSPost2010Prop38
140
0.0
102
RTVSPost2010PropOp38
 70
     1
102
RTVSPost2010Prop39
140
1.0
102
RTVSPost2010PropOp39
 70
     1
102
RTVSPost2010Prop40
 90
        0
102
RTVSPost2010PropOp40
 70
     1
102
RTVSPost2010Prop41ColorIndex
 90
       18
102
RTVSPost2010Prop41ColorRGB
 90
        0
102
RTVSPost2010PropOp41
 70
     1
102
RTVSPost2010Prop42
 90
       50
102
RTVSPost2010PropOp42
 70
     1
102
RTVSPost2010Prop43
 90
        3
102
RTVSPost2010PropOp43
 70
     1
102
RTVSPost2010Prop44ColorIndex
 90
        5
102
RTVSPost2010Prop44ColorRGB
 90
      255
102
RTVSPost2010PropOp44
 70
     1
102
RTVSPost2010Prop45
280
     0
102
RTVSPost2010PropOp45
 70
     1
102
RTVSPost2010Prop46
 90
       50
102
RTVSPost2010PropOp46
 70
     1
102
RTVSPost2010Prop47
 90
       50
102
RTVSPost2010PropOp47
 70
     1
102
RTVSPost2010Prop48
 90
       50
102
RTVSPost2010PropOp48
 70
     1
102
RTVSPost2010Prop49
280
     0
102
RTVSPost2010PropOp49
 70
     1
102
RTVSPost2010Prop50
 90
       50
102
RTVSPost2010PropOp50
 70
     1
102
RTVSPost2010Prop51ColorIndex
 90
      256
102
RTVSPost2010Prop51ColorRGB
 90
-16777216
102
RTVSPost2010PropOp51
 70
     0
102
RTVSPost2010Prop52
140
1.0
102
RTVSPost2010PropOp52
 70
     0
102
RTVSPost2010Prop53
 90
        2
102
RTVSPost2010PropOp53
 70
     1
102
RTVSPost2010Prop54
  1
strokes_ogs.tif
102
RTVSPost2010PropOp54
 70
     1
102
RTVSPost2010Prop55
280
     0
102
RTVSPost2010PropOp55
 70
     1
102
RTVSPost2010Prop56
140
1.0
102
RTVSPost2010PropOp56
 70
     1
102
RTVSPost2010Prop57
140
1.0
102
RTVSPost2010PropOp57
 70
     1
102
RTVSPropertyOp0
 70
     1
102
RTVSPropertyOp1
 70
     1
102
RTVSPropertyOp2
 70
     1
102
RTVSPropertyOp3
 70
     1
102
RTVSPropertyOp4
 70
     1
102
RTVSPropertyOp5
 70
     1
102
RTVSPropertyOp6
 70
     1
102
RTVSPropertyOp7
 70
     1
102
RTVSPropertyOp8
 70
     1
102
RTVSPropertyOp9
 70
     1
102
RTVSPropertyOp10
 70
     1
102
RTVSPropertyOp11
 70
     1
102
RTVSPropertyOp12
 70
     1
102
RTVSPropertyOp13
 70
     1
102
RTVSPropertyOp14
 70
     1
102
RTVSPropertyOp15
 70
     1
102
RTVSPropertyOp16
 70
     1
102
RTVSPropertyOp17
 70
     1
102
RTVSPropertyOp18
 70
     1
102
RTVSPropertyOp19
 70
     1
102
RTVSPropertyOp20
 70
     1
102
RTVSPropertyOp21
 70
     1
102
RTVSPropertyOp22
 70
     1
102
RTVSPropertyOp23
 70
     1
102
RTVSPropertyOp24
 70
     1
102
RTVSPropertyOp25
 70
     1
102
RTVSPropertyOp26
 70
     1
102
RTVSPropertyOp27
 70
     1
102
RTVSPropertyOp28
 70
     1
102
RTVSPropertyOp29
 70
     1
102
RTVSPropertyOp30
 70
     1
102
RTVSPropertyOp31
 70
     1
102
RTVSPropertyOp32
 70
     1
102
RTVSPropertyOp33
 70
     1
102
RTVSPropertyOp34
 70
     1
102
RTVSPropertyOp35
 70
     1
102
RTVSPropertyOp36
 70
     1
102
RTVSPropertyOp37
 70
     1
102
RTVSPropertyOp38
 70
     1
102
RTVSPropertyOp39
 70
     1
102
RTVSPropertyOp40
 70
     1
102
RTVSPropertyOp41
 70
     1
102
RTVSPropertyOp42
 70
     1
102
RTVSPropertyOp43
 70
     1
102
RTVSPropertyOp44
 70
     1
102
RTVSPropertyOp45
 70
     1
102
RTVSPropertyOp46
 70
     1
102
RTVSPropertyOp47
 70
     1
102
RTVSPropertyOp48
 70
     1
102
RTVSPropertyOp49
 70
     1
102
RTVSPropertyOp50
 70
     1
102
RTVSPropertyOp51
 70
     0
102
RTVSPropertyOp52
 70
     0
102
RTVSPropertyOp53
 70
     1
102
RTVSPropertyOp54
 70
     1
102
RTVSPropertyOp55
 70
     1
102
RTVSPropertyOp56
 70
     1
102
RTVSPropertyOp57
 70
     1
102
RTVSPropertyOp58
 70
     1
102
RTVSPropertyOp59
 70
     1
102
RTVSPropertyOp60
 70
     1
102
RTVSPropertyOp61
 70
     1
102
RTVSPropertyOp62
 70
     1
  0
XRECORD
  5
A45B
102
{ACAD_REACTORS
330
A45A
102
}
330
A45A
100
AcDbXrecord
280
     1
102
RTVSPost2010Prop28
280
     0
102
RTVSPost2010PropOp28
 70
     1
102
RTVSPost2010Prop29
280
     1
102
RTVSPost2010PropOp29
 70
     1
102
RTVSPost2010Prop30
280
     1
102
RTVSPost2010PropOp30
 70
     1
102
RTVSPost2010Prop31
280
     0
102
RTVSPost2010PropOp31
 70
     1
102
RTVSPost2010Prop32
280
     0
102
RTVSPost2010PropOp32
 70
     1
102
RTVSPost2010Prop33
280
     0
102
RTVSPost2010PropOp33
 70
     1
102
RTVSPost2010Prop34
280
     0
102
RTVSPost2010PropOp34
 70
     1
102
RTVSPost2010Prop35
280
     0
102
RTVSPost2010PropOp35
 70
     1
102
RTVSPost2010Prop36
280
     0
102
RTVSPost2010PropOp36
 70
     1
102
RTVSPost2010Prop37
 90
       50
102
RTVSPost2010PropOp37
 70
     1
102
RTVSPost2010Prop38
140
0.0
102
RTVSPost2010PropOp38
 70
     1
102
RTVSPost2010Prop39
140
1.0
102
RTVSPost2010PropOp39
 70
     1
102
RTVSPost2010Prop40
 90
        0
102
RTVSPost2010PropOp40
 70
     1
102
RTVSPost2010Prop41ColorIndex
 90
       18
102
RTVSPost2010Prop41ColorRGB
 90
        0
102
RTVSPost2010PropOp41
 70
     1
102
RTVSPost2010Prop42
 90
       50
102
RTVSPost2010PropOp42
 70
     1
102
RTVSPost2010Prop43
 90
        3
102
RTVSPost2010PropOp43
 70
     1
102
RTVSPost2010Prop44ColorIndex
 90
        5
102
RTVSPost2010Prop44ColorRGB
 90
      255
102
RTVSPost2010PropOp44
 70
     1
102
RTVSPost2010Prop45
280
     0
102
RTVSPost2010PropOp45
 70
     1
102
RTVSPost2010Prop46
 90
       50
102
RTVSPost2010PropOp46
 70
     1
102
RTVSPost2010Prop47
 90
       50
102
RTVSPost2010PropOp47
 70
     1
102
RTVSPost2010Prop48
 90
       50
102
RTVSPost2010PropOp48
 70
     1
102
RTVSPost2010Prop49
280
     0
102
RTVSPost2010PropOp49
 70
     1
102
RTVSPost2010Prop50
 90
       50
102
RTVSPost2010PropOp50
 70
     1
102
RTVSPost2010Prop51ColorIndex
 90
      256
102
RTVSPost2010Prop51ColorRGB
 90
-16777216
102
RTVSPost2010PropOp51
 70
     0
102
RTVSPost2010Prop52
140
1.0
102
RTVSPost2010PropOp52
 70
     0
102
RTVSPost2010Prop53
 90
        2
102
RTVSPost2010PropOp53
 70
     1
102
RTVSPost2010Prop54
  1
strokes_ogs.tif
102
RTVSPost2010PropOp54
 70
     1
102
RTVSPost2010Prop55
280
     0
102
RTVSPost2010PropOp55
 70
     1
102
RTVSPost2010Prop56
140
1.0
102
RTVSPost2010PropOp56
 70
     1
102
RTVSPost2010Prop57
140
1.0
102
RTVSPost2010PropOp57
 70
     1
102
RTVSPropertyOp0
 70
     1
102
RTVSPropertyOp1
 70
     1
102
RTVSPropertyOp2
 70
     1
102
RTVSPropertyOp3
 70
     1
102
RTVSPropertyOp4
 70
     1
102
RTVSPropertyOp5
 70
     1
102
RTVSPropertyOp6
 70
     1
102
RTVSPropertyOp7
 70
     1
102
RTVSPropertyOp8
 70
     1
102
RTVSPropertyOp9
 70
     1
102
RTVSPropertyOp10
 70
     1
102
RTVSPropertyOp11
 70
     1
102
RTVSPropertyOp12
 70
     1
102
RTVSPropertyOp13
 70
     1
102
RTVSPropertyOp14
 70
     1
102
RTVSPropertyOp15
 70
     1
102
RTVSPropertyOp16
 70
     1
102
RTVSPropertyOp17
 70
     1
102
RTVSPropertyOp18
 70
     1
102
RTVSPropertyOp19
 70
     1
102
RTVSPropertyOp20
 70
     1
102
RTVSPropertyOp21
 70
     1
102
RTVSPropertyOp22
 70
     1
102
RTVSPropertyOp23
 70
     1
102
RTVSPropertyOp24
 70
     1
102
RTVSPropertyOp25
 70
     1
102
RTVSPropertyOp26
 70
     1
102
RTVSPropertyOp27
 70
     1
102
RTVSPropertyOp28
 70
     1
102
RTVSPropertyOp29
 70
     1
102
RTVSPropertyOp30
 70
     1
102
RTVSPropertyOp31
 70
     1
102
RTVSPropertyOp32
 70
     1
102
RTVSPropertyOp33
 70
     1
102
RTVSPropertyOp34
 70
     1
102
RTVSPropertyOp35
 70
     1
102
RTVSPropertyOp36
 70
     1
102
RTVSPropertyOp37
 70
     1
102
RTVSPropertyOp38
 70
     1
102
RTVSPropertyOp39
 70
     1
102
RTVSPropertyOp40
 70
     1
102
RTVSPropertyOp41
 70
     1
102
RTVSPropertyOp42
 70
     1
102
RTVSPropertyOp43
 70
     1
102
RTVSPropertyOp44
 70
     1
102
RTVSPropertyOp45
 70
     1
102
RTVSPropertyOp46
 70
     1
102
RTVSPropertyOp47
 70
     1
102
RTVSPropertyOp48
 70
     1
102
RTVSPropertyOp49
 70
     1
102
RTVSPropertyOp50
 70
     1
102
RTVSPropertyOp51
 70
     0
102
RTVSPropertyOp52
 70
     0
102
RTVSPropertyOp53
 70
     1
102
RTVSPropertyOp54
 70
     1
102
RTVSPropertyOp55
 70
     1
102
RTVSPropertyOp56
 70
     1
102
RTVSPropertyOp57
 70
     1
102
RTVSPropertyOp58
 70
     1
102
RTVSPropertyOp59
 70
     1
102
RTVSPropertyOp60
 70
     1
102
RTVSPropertyOp61
 70
     1
102
RTVSPropertyOp62
 70
     1
  0
XRECORD
  5
A477
102
{ACAD_REACTORS
330
A476
102
}
330
A476
100
AcDbXrecord
280
     1
102
RTVSPost2010Prop28
280
     0
102
RTVSPost2010PropOp28
 70
     1
102
RTVSPost2010Prop29
280
     1
102
RTVSPost2010PropOp29
 70
     1
102
RTVSPost2010Prop30
280
     1
102
RTVSPost2010PropOp30
 70
     1
102
RTVSPost2010Prop31
280
     0
102
RTVSPost2010PropOp31
 70
     1
102
RTVSPost2010Prop32
280
     0
102
RTVSPost2010PropOp32
 70
     1
102
RTVSPost2010Prop33
280
     0
102
RTVSPost2010PropOp33
 70
     1
102
RTVSPost2010Prop34
280
     0
102
RTVSPost2010PropOp34
 70
     1
102
RTVSPost2010Prop35
280
     0
102
RTVSPost2010PropOp35
 70
     1
102
RTVSPost2010Prop36
280
     0
102
RTVSPost2010PropOp36
 70
     1
102
RTVSPost2010Prop37
 90
       50
102
RTVSPost2010PropOp37
 70
     0
102
RTVSPost2010Prop38
140
0.0
102
RTVSPost2010PropOp38
 70
     0
102
RTVSPost2010Prop39
140
1.0
102
RTVSPost2010PropOp39
 70
     0
102
RTVSPost2010Prop40
 90
        0
102
RTVSPost2010PropOp40
 70
     0
102
RTVSPost2010Prop41ColorIndex
 90
       18
102
RTVSPost2010Prop41ColorRGB
 90
        0
102
RTVSPost2010PropOp41
 70
     0
102
RTVSPost2010Prop42
 90
       50
102
RTVSPost2010PropOp42
 70
     0
102
RTVSPost2010Prop43
 90
        3
102
RTVSPost2010PropOp43
 70
     0
102
RTVSPost2010Prop44ColorIndex
 90
        5
102
RTVSPost2010Prop44ColorRGB
 90
      255
102
RTVSPost2010PropOp44
 70
     0
102
RTVSPost2010Prop45
280
     0
102
RTVSPost2010PropOp45
 70
     1
102
RTVSPost2010Prop46
 90
       50
102
RTVSPost2010PropOp46
 70
     0
102
RTVSPost2010Prop47
 90
       50
102
RTVSPost2010PropOp47
 70
     0
102
RTVSPost2010Prop48
 90
       50
102
RTVSPost2010PropOp48
 70
     0
102
RTVSPost2010Prop49
280
     0
102
RTVSPost2010PropOp49
 70
     1
102
RTVSPost2010Prop50
 90
       50
102
RTVSPost2010PropOp50
 70
     0
102
RTVSPost2010Prop51ColorIndex
 90
      256
102
RTVSPost2010Prop51ColorRGB
 90
-16777216
102
RTVSPost2010PropOp51
 70
     0
102
RTVSPost2010Prop52
140
1.0
102
RTVSPost2010PropOp52
 70
     0
102
RTVSPost2010Prop53
 90
        2
102
RTVSPost2010PropOp53
 70
     0
102
RTVSPost2010Prop54
  1
strokes_ogs.tif
102
RTVSPost2010PropOp54
 70
     0
102
RTVSPost2010Prop55
280
     0
102
RTVSPost2010PropOp55
 70
     1
102
RTVSPost2010Prop56
140
1.0
102
RTVSPost2010PropOp56
 70
     0
102
RTVSPost2010Prop57
140
1.0
102
RTVSPost2010PropOp57
 70
     0
102
RTVSPropertyOp0
 70
     0
102
RTVSPropertyOp1
 70
     0
102
RTVSPropertyOp2
 70
     0
102
RTVSPropertyOp3
 70
     0
102
RTVSPropertyOp4
 70
     0
102
RTVSPropertyOp5
 70
     0
102
RTVSPropertyOp6
 70
     0
102
RTVSPropertyOp7
 70
     0
102
RTVSPropertyOp8
 70
     0
102
RTVSPropertyOp9
 70
     0
102
RTVSPropertyOp10
 70
     0
102
RTVSPropertyOp11
 70
     0
102
RTVSPropertyOp12
 70
     0
102
RTVSPropertyOp13
 70
     0
102
RTVSPropertyOp14
 70
     2
102
RTVSPropertyOp15
 70
     0
102
RTVSPropertyOp16
 70
     0
102
RTVSPropertyOp17
 70
     0
102
RTVSPropertyOp18
 70
     0
102
RTVSPropertyOp19
 70
     0
102
RTVSPropertyOp20
 70
     0
102
RTVSPropertyOp21
 70
     0
102
RTVSPropertyOp22
 70
     0
102
RTVSPropertyOp23
 70
     0
102
RTVSPropertyOp24
 70
     0
102
RTVSPropertyOp25
 70
     0
102
RTVSPropertyOp26
 70
     0
102
RTVSPropertyOp27
 70
     0
102
RTVSPropertyOp28
 70
     1
102
RTVSPropertyOp29
 70
     1
102
RTVSPropertyOp30
 70
     1
102
RTVSPropertyOp31
 70
     1
102
RTVSPropertyOp32
 70
     1
102
RTVSPropertyOp33
 70
     1
102
RTVSPropertyOp34
 70
     1
102
RTVSPropertyOp35
 70
     1
102
RTVSPropertyOp36
 70
     1
102
RTVSPropertyOp37
 70
     0
102
RTVSPropertyOp38
 70
     0
102
RTVSPropertyOp39
 70
     0
102
RTVSPropertyOp40
 70
     0
102
RTVSPropertyOp41
 70
     0
102
RTVSPropertyOp42
 70
     0
102
RTVSPropertyOp43
 70
     0
102
RTVSPropertyOp44
 70
     0
102
RTVSPropertyOp45
 70
     1
102
RTVSPropertyOp46
 70
     0
102
RTVSPropertyOp47
 70
     0
102
RTVSPropertyOp48
 70
     0
102
RTVSPropertyOp49
 70
     1
102
RTVSPropertyOp50
 70
     0
102
RTVSPropertyOp51
 70
     0
102
RTVSPropertyOp52
 70
     0
102
RTVSPropertyOp53
 70
     0
102
RTVSPropertyOp54
 70
     0
102
RTVSPropertyOp55
 70
     1
102
RTVSPropertyOp56
 70
     0
102
RTVSPropertyOp57
 70
     0
102
RTVSPropertyOp58
 70
     0
102
RTVSPropertyOp59
 70
     0
102
RTVSPropertyOp60
 70
     0
102
RTVSPropertyOp61
 70
     0
102
RTVSPropertyOp62
 70
     0
  0
XRECORD
  5
A467
102
{ACAD_REACTORS
330
A466
102
}
330
A466
100
AcDbXrecord
280
     1
102
RTVSPost2010Prop28
280
     0
102
RTVSPost2010PropOp28
 70
     1
102
RTVSPost2010Prop29
280
     1
102
RTVSPost2010PropOp29
 70
     1
102
RTVSPost2010Prop30
280
     1
102
RTVSPost2010PropOp30
 70
     1
102
RTVSPost2010Prop31
280
     0
102
RTVSPost2010PropOp31
 70
     1
102
RTVSPost2010Prop32
280
     0
102
RTVSPost2010PropOp32
 70
     1
102
RTVSPost2010Prop33
280
     0
102
RTVSPost2010PropOp33
 70
     1
102
RTVSPost2010Prop34
280
     0
102
RTVSPost2010PropOp34
 70
     1
102
RTVSPost2010Prop35
280
     0
102
RTVSPost2010PropOp35
 70
     1
102
RTVSPost2010Prop36
280
     0
102
RTVSPost2010PropOp36
 70
     1
102
RTVSPost2010Prop37
 90
       50
102
RTVSPost2010PropOp37
 70
     1
102
RTVSPost2010Prop38
140
0.0
102
RTVSPost2010PropOp38
 70
     1
102
RTVSPost2010Prop39
140
1.0
102
RTVSPost2010PropOp39
 70
     1
102
RTVSPost2010Prop40
 90
        0
102
RTVSPost2010PropOp40
 70
     1
102
RTVSPost2010Prop41ColorIndex
 90
       18
102
RTVSPost2010Prop41ColorRGB
 90
        0
102
RTVSPost2010PropOp41
 70
     1
102
RTVSPost2010Prop42
 90
       50
102
RTVSPost2010PropOp42
 70
     1
102
RTVSPost2010Prop43
 90
        3
102
RTVSPost2010PropOp43
 70
     1
102
RTVSPost2010Prop44ColorIndex
 90
        5
102
RTVSPost2010Prop44ColorRGB
 90
      255
102
RTVSPost2010PropOp44
 70
     1
102
RTVSPost2010Prop45
280
     0
102
RTVSPost2010PropOp45
 70
     1
102
RTVSPost2010Prop46
 90
       50
102
RTVSPost2010PropOp46
 70
     1
102
RTVSPost2010Prop47
 90
       50
102
RTVSPost2010PropOp47
 70
     1
102
RTVSPost2010Prop48
 90
       50
102
RTVSPost2010PropOp48
 70
     1
102
RTVSPost2010Prop49
280
     0
102
RTVSPost2010PropOp49
 70
     1
102
RTVSPost2010Prop50
 90
       50
102
RTVSPost2010PropOp50
 70
     1
102
RTVSPost2010Prop51ColorIndex
 90
      256
102
RTVSPost2010Prop51ColorRGB
 90
-16777216
102
RTVSPost2010PropOp51
 70
     0
102
RTVSPost2010Prop52
140
1.0
102
RTVSPost2010PropOp52
 70
     0
102
RTVSPost2010Prop53
 90
        2
102
RTVSPost2010PropOp53
 70
     1
102
RTVSPost2010Prop54
  1
strokes_ogs.tif
102
RTVSPost2010PropOp54
 70
     1
102
RTVSPost2010Prop55
280
     0
102
RTVSPost2010PropOp55
 70
     1
102
RTVSPost2010Prop56
140
1.0
102
RTVSPost2010PropOp56
 70
     1
102
RTVSPost2010Prop57
140
1.0
102
RTVSPost2010PropOp57
 70
     1
102
RTVSPropertyOp0
 70
     1
102
RTVSPropertyOp1
 70
     1
102
RTVSPropertyOp2
 70
     1
102
RTVSPropertyOp3
 70
     1
102
RTVSPropertyOp4
 70
     1
102
RTVSPropertyOp5
 70
     1
102
RTVSPropertyOp6
 70
     1
102
RTVSPropertyOp7
 70
     1
102
RTVSPropertyOp8
 70
     1
102
RTVSPropertyOp9
 70
     1
102
RTVSPropertyOp10
 70
     1
102
RTVSPropertyOp11
 70
     1
102
RTVSPropertyOp12
 70
     1
102
RTVSPropertyOp13
 70
     1
102
RTVSPropertyOp14
 70
     1
102
RTVSPropertyOp15
 70
     1
102
RTVSPropertyOp16
 70
     1
102
RTVSPropertyOp17
 70
     1
102
RTVSPropertyOp18
 70
     1
102
RTVSPropertyOp19
 70
     1
102
RTVSPropertyOp20
 70
     1
102
RTVSPropertyOp21
 70
     1
102
RTVSPropertyOp22
 70
     1
102
RTVSPropertyOp23
 70
     1
102
RTVSPropertyOp24
 70
     1
102
RTVSPropertyOp25
 70
     1
102
RTVSPropertyOp26
 70
     1
102
RTVSPropertyOp27
 70
     1
102
RTVSPropertyOp28
 70
     1
102
RTVSPropertyOp29
 70
     1
102
RTVSPropertyOp30
 70
     1
102
RTVSPropertyOp31
 70
     1
102
RTVSPropertyOp32
 70
     1
102
RTVSPropertyOp33
 70
     1
102
RTVSPropertyOp34
 70
     1
102
RTVSPropertyOp35
 70
     1
102
RTVSPropertyOp36
 70
     1
102
RTVSPropertyOp37
 70
     1
102
RTVSPropertyOp38
 70
     1
102
RTVSPropertyOp39
 70
     1
102
RTVSPropertyOp40
 70
     1
102
RTVSPropertyOp41
 70
     1
102
RTVSPropertyOp42
 70
     1
102
RTVSPropertyOp43
 70
     1
102
RTVSPropertyOp44
 70
     1
102
RTVSPropertyOp45
 70
     1
102
RTVSPropertyOp46
 70
     1
102
RTVSPropertyOp47
 70
     1
102
RTVSPropertyOp48
 70
     1
102
RTVSPropertyOp49
 70
     1
102
RTVSPropertyOp50
 70
     1
102
RTVSPropertyOp51
 70
     0
102
RTVSPropertyOp52
 70
     0
102
RTVSPropertyOp53
 70
     1
102
RTVSPropertyOp54
 70
     1
102
RTVSPropertyOp55
 70
     1
102
RTVSPropertyOp56
 70
     1
102
RTVSPropertyOp57
 70
     1
102
RTVSPropertyOp58
 70
     1
102
RTVSPropertyOp59
 70
     1
102
RTVSPropertyOp60
 70
     1
102
RTVSPropertyOp61
 70
     1
102
RTVSPropertyOp62
 70
     1
  0
XRECORD
  5
A479
102
{ACAD_REACTORS
330
A478
102
}
330
A478
100
AcDbXrecord
280
     1
102
RTVSPost2010Prop28
280
     0
102
RTVSPost2010PropOp28
 70
     1
102
RTVSPost2010Prop29
280
     1
102
RTVSPost2010PropOp29
 70
     1
102
RTVSPost2010Prop30
280
     1
102
RTVSPost2010PropOp30
 70
     1
102
RTVSPost2010Prop31
280
     0
102
RTVSPost2010PropOp31
 70
     1
102
RTVSPost2010Prop32
280
     0
102
RTVSPost2010PropOp32
 70
     1
102
RTVSPost2010Prop33
280
     0
102
RTVSPost2010PropOp33
 70
     1
102
RTVSPost2010Prop34
280
     0
102
RTVSPost2010PropOp34
 70
     1
102
RTVSPost2010Prop35
280
     0
102
RTVSPost2010PropOp35
 70
     1
102
RTVSPost2010Prop36
280
     0
102
RTVSPost2010PropOp36
 70
     1
102
RTVSPost2010Prop37
 90
       50
102
RTVSPost2010PropOp37
 70
     0
102
RTVSPost2010Prop38
140
0.0
102
RTVSPost2010PropOp38
 70
     0
102
RTVSPost2010Prop39
140
1.0
102
RTVSPost2010PropOp39
 70
     0
102
RTVSPost2010Prop40
 90
        0
102
RTVSPost2010PropOp40
 70
     0
102
RTVSPost2010Prop41ColorIndex
 90
       18
102
RTVSPost2010Prop41ColorRGB
 90
        0
102
RTVSPost2010PropOp41
 70
     0
102
RTVSPost2010Prop42
 90
       50
102
RTVSPost2010PropOp42
 70
     0
102
RTVSPost2010Prop43
 90
        3
102
RTVSPost2010PropOp43
 70
     0
102
RTVSPost2010Prop44ColorIndex
 90
        5
102
RTVSPost2010Prop44ColorRGB
 90
      255
102
RTVSPost2010PropOp44
 70
     0
102
RTVSPost2010Prop45
280
     0
102
RTVSPost2010PropOp45
 70
     1
102
RTVSPost2010Prop46
 90
       50
102
RTVSPost2010PropOp46
 70
     0
102
RTVSPost2010Prop47
 90
       50
102
RTVSPost2010PropOp47
 70
     0
102
RTVSPost2010Prop48
 90
       50
102
RTVSPost2010PropOp48
 70
     0
102
RTVSPost2010Prop49
280
     0
102
RTVSPost2010PropOp49
 70
     1
102
RTVSPost2010Prop50
 90
       50
102
RTVSPost2010PropOp50
 70
     0
102
RTVSPost2010Prop51ColorIndex
 90
      256
102
RTVSPost2010Prop51ColorRGB
 90
-16777216
102
RTVSPost2010PropOp51
 70
     0
102
RTVSPost2010Prop52
140
1.0
102
RTVSPost2010PropOp52
 70
     0
102
RTVSPost2010Prop53
 90
        2
102
RTVSPost2010PropOp53
 70
     0
102
RTVSPost2010Prop54
  1
strokes_ogs.tif
102
RTVSPost2010PropOp54
 70
     0
102
RTVSPost2010Prop55
280
     0
102
RTVSPost2010PropOp55
 70
     1
102
RTVSPost2010Prop56
140
1.0
102
RTVSPost2010PropOp56
 70
     0
102
RTVSPost2010Prop57
140
1.0
102
RTVSPost2010PropOp57
 70
     0
102
RTVSPropertyOp0
 70
     0
102
RTVSPropertyOp1
 70
     0
102
RTVSPropertyOp2
 70
     0
102
RTVSPropertyOp3
 70
     0
102
RTVSPropertyOp4
 70
     0
102
RTVSPropertyOp5
 70
     0
102
RTVSPropertyOp6
 70
     0
102
RTVSPropertyOp7
 70
     0
102
RTVSPropertyOp8
 70
     0
102
RTVSPropertyOp9
 70
     0
102
RTVSPropertyOp10
 70
     0
102
RTVSPropertyOp11
 70
     0
102
RTVSPropertyOp12
 70
     0
102
RTVSPropertyOp13
 70
     0
102
RTVSPropertyOp14
 70
     2
102
RTVSPropertyOp15
 70
     0
102
RTVSPropertyOp16
 70
     0
102
RTVSPropertyOp17
 70
     0
102
RTVSPropertyOp18
 70
     0
102
RTVSPropertyOp19
 70
     0
102
RTVSPropertyOp20
 70
     0
102
RTVSPropertyOp21
 70
     0
102
RTVSPropertyOp22
 70
     0
102
RTVSPropertyOp23
 70
     0
102
RTVSPropertyOp24
 70
     0
102
RTVSPropertyOp25
 70
     0
102
RTVSPropertyOp26
 70
     0
102
RTVSPropertyOp27
 70
     0
102
RTVSPropertyOp28
 70
     1
102
RTVSPropertyOp29
 70
     1
102
RTVSPropertyOp30
 70
     1
102
RTVSPropertyOp31
 70
     1
102
RTVSPropertyOp32
 70
     1
102
RTVSPropertyOp33
 70
     1
102
RTVSPropertyOp34
 70
     1
102
RTVSPropertyOp35
 70
     1
102
RTVSPropertyOp36
 70
     1
102
RTVSPropertyOp37
 70
     0
102
RTVSPropertyOp38
 70
     0
102
RTVSPropertyOp39
 70
     0
102
RTVSPropertyOp40
 70
     0
102
RTVSPropertyOp41
 70
     0
102
RTVSPropertyOp42
 70
     0
102
RTVSPropertyOp43
 70
     0
102
RTVSPropertyOp44
 70
     0
102
RTVSPropertyOp45
 70
     1
102
RTVSPropertyOp46
 70
     0
102
RTVSPropertyOp47
 70
     0
102
RTVSPropertyOp48
 70
     0
102
RTVSPropertyOp49
 70
     1
102
RTVSPropertyOp50
 70
     0
102
RTVSPropertyOp51
 70
     0
102
RTVSPropertyOp52
 70
     0
102
RTVSPropertyOp53
 70
     0
102
RTVSPropertyOp54
 70
     0
102
RTVSPropertyOp55
 70
     1
102
RTVSPropertyOp56
 70
     0
102
RTVSPropertyOp57
 70
     0
102
RTVSPropertyOp58
 70
     0
102
RTVSPropertyOp59
 70
     0
102
RTVSPropertyOp60
 70
     0
102
RTVSPropertyOp61
 70
     0
102
RTVSPropertyOp62
 70
     0
  0
XRECORD
  5
A45F
102
{ACAD_REACTORS
330
A45E
102
}
330
A45E
100
AcDbXrecord
280
     1
102
RTVSPost2010Prop28
280
     0
102
RTVSPost2010PropOp28
 70
     1
102
RTVSPost2010Prop29
280
     1
102
RTVSPost2010PropOp29
 70
     1
102
RTVSPost2010Prop30
280
     1
102
RTVSPost2010PropOp30
 70
     1
102
RTVSPost2010Prop31
280
     0
102
RTVSPost2010PropOp31
 70
     1
102
RTVSPost2010Prop32
280
     0
102
RTVSPost2010PropOp32
 70
     1
102
RTVSPost2010Prop33
280
     0
102
RTVSPost2010PropOp33
 70
     1
102
RTVSPost2010Prop34
280
     0
102
RTVSPost2010PropOp34
 70
     1
102
RTVSPost2010Prop35
280
     0
102
RTVSPost2010PropOp35
 70
     1
102
RTVSPost2010Prop36
280
     0
102
RTVSPost2010PropOp36
 70
     1
102
RTVSPost2010Prop37
 90
       50
102
RTVSPost2010PropOp37
 70
     1
102
RTVSPost2010Prop38
140
0.0
102
RTVSPost2010PropOp38
 70
     1
102
RTVSPost2010Prop39
140
1.0
102
RTVSPost2010PropOp39
 70
     1
102
RTVSPost2010Prop40
 90
        0
102
RTVSPost2010PropOp40
 70
     1
102
RTVSPost2010Prop41ColorIndex
 90
       18
102
RTVSPost2010Prop41ColorRGB
 90
        0
102
RTVSPost2010PropOp41
 70
     1
102
RTVSPost2010Prop42
 90
       50
102
RTVSPost2010PropOp42
 70
     1
102
RTVSPost2010Prop43
 90
        3
102
RTVSPost2010PropOp43
 70
     1
102
RTVSPost2010Prop44ColorIndex
 90
        5
102
RTVSPost2010Prop44ColorRGB
 90
      255
102
RTVSPost2010PropOp44
 70
     1
102
RTVSPost2010Prop45
280
     0
102
RTVSPost2010PropOp45
 70
     1
102
RTVSPost2010Prop46
 90
       50
102
RTVSPost2010PropOp46
 70
     1
102
RTVSPost2010Prop47
 90
       50
102
RTVSPost2010PropOp47
 70
     1
102
RTVSPost2010Prop48
 90
       50
102
RTVSPost2010PropOp48
 70
     1
102
RTVSPost2010Prop49
280
     0
102
RTVSPost2010PropOp49
 70
     1
102
RTVSPost2010Prop50
 90
       50
102
RTVSPost2010PropOp50
 70
     1
102
RTVSPost2010Prop51ColorIndex
 90
      256
102
RTVSPost2010Prop51ColorRGB
 90
-16777216
102
RTVSPost2010PropOp51
 70
     0
102
RTVSPost2010Prop52
140
1.0
102
RTVSPost2010PropOp52
 70
     0
102
RTVSPost2010Prop53
 90
        2
102
RTVSPost2010PropOp53
 70
     1
102
RTVSPost2010Prop54
  1
strokes_ogs.tif
102
RTVSPost2010PropOp54
 70
     1
102
RTVSPost2010Prop55
280
     0
102
RTVSPost2010PropOp55
 70
     1
102
RTVSPost2010Prop56
140
1.0
102
RTVSPost2010PropOp56
 70
     1
102
RTVSPost2010Prop57
140
1.0
102
RTVSPost2010PropOp57
 70
     1
102
RTVSPropertyOp0
 70
     1
102
RTVSPropertyOp1
 70
     1
102
RTVSPropertyOp2
 70
     1
102
RTVSPropertyOp3
 70
     1
102
RTVSPropertyOp4
 70
     1
102
RTVSPropertyOp5
 70
     1
102
RTVSPropertyOp6
 70
     1
102
RTVSPropertyOp7
 70
     1
102
RTVSPropertyOp8
 70
     1
102
RTVSPropertyOp9
 70
     1
102
RTVSPropertyOp10
 70
     1
102
RTVSPropertyOp11
 70
     1
102
RTVSPropertyOp12
 70
     1
102
RTVSPropertyOp13
 70
     1
102
RTVSPropertyOp14
 70
     1
102
RTVSPropertyOp15
 70
     1
102
RTVSPropertyOp16
 70
     1
102
RTVSPropertyOp17
 70
     1
102
RTVSPropertyOp18
 70
     1
102
RTVSPropertyOp19
 70
     1
102
RTVSPropertyOp20
 70
     1
102
RTVSPropertyOp21
 70
     1
102
RTVSPropertyOp22
 70
     1
102
RTVSPropertyOp23
 70
     1
102
RTVSPropertyOp24
 70
     1
102
RTVSPropertyOp25
 70
     1
102
RTVSPropertyOp26
 70
     1
102
RTVSPropertyOp27
 70
     1
102
RTVSPropertyOp28
 70
     1
102
RTVSPropertyOp29
 70
     1
102
RTVSPropertyOp30
 70
     1
102
RTVSPropertyOp31
 70
     1
102
RTVSPropertyOp32
 70
     1
102
RTVSPropertyOp33
 70
     1
102
RTVSPropertyOp34
 70
     1
102
RTVSPropertyOp35
 70
     1
102
RTVSPropertyOp36
 70
     1
102
RTVSPropertyOp37
 70
     1
102
RTVSPropertyOp38
 70
     1
102
RTVSPropertyOp39
 70
     1
102
RTVSPropertyOp40
 70
     1
102
RTVSPropertyOp41
 70
     1
102
RTVSPropertyOp42
 70
     1
102
RTVSPropertyOp43
 70
     1
102
RTVSPropertyOp44
 70
     1
102
RTVSPropertyOp45
 70
     1
102
RTVSPropertyOp46
 70
     1
102
RTVSPropertyOp47
 70
     1
102
RTVSPropertyOp48
 70
     1
102
RTVSPropertyOp49
 70
     1
102
RTVSPropertyOp50
 70
     1
102
RTVSPropertyOp51
 70
     0
102
RTVSPropertyOp52
 70
     0
102
RTVSPropertyOp53
 70
     1
102
RTVSPropertyOp54
 70
     1
102
RTVSPropertyOp55
 70
     1
102
RTVSPropertyOp56
 70
     1
102
RTVSPropertyOp57
 70
     1
102
RTVSPropertyOp58
 70
     1
102
RTVSPropertyOp59
 70
     1
102
RTVSPropertyOp60
 70
     1
102
RTVSPropertyOp61
 70
     1
102
RTVSPropertyOp62
 70
     1
  0
XRECORD
  5
A475
102
{ACAD_REACTORS
330
A474
102
}
330
A474
100
AcDbXrecord
280
     1
102
RTVSPost2010Prop28
280
     0
102
RTVSPost2010PropOp28
 70
     1
102
RTVSPost2010Prop29
280
     1
102
RTVSPost2010PropOp29
 70
     1
102
RTVSPost2010Prop30
280
     1
102
RTVSPost2010PropOp30
 70
     1
102
RTVSPost2010Prop31
280
     0
102
RTVSPost2010PropOp31
 70
     1
102
RTVSPost2010Prop32
280
     0
102
RTVSPost2010PropOp32
 70
     1
102
RTVSPost2010Prop33
280
     0
102
RTVSPost2010PropOp33
 70
     1
102
RTVSPost2010Prop34
280
     0
102
RTVSPost2010PropOp34
 70
     1
102
RTVSPost2010Prop35
280
     0
102
RTVSPost2010PropOp35
 70
     1
102
RTVSPost2010Prop36
280
     0
102
RTVSPost2010PropOp36
 70
     1
102
RTVSPost2010Prop37
 90
       50
102
RTVSPost2010PropOp37
 70
     1
102
RTVSPost2010Prop38
140
0.0
102
RTVSPost2010PropOp38
 70
     1
102
RTVSPost2010Prop39
140
1.0
102
RTVSPost2010PropOp39
 70
     1
102
RTVSPost2010Prop40
 90
        0
102
RTVSPost2010PropOp40
 70
     1
102
RTVSPost2010Prop41ColorIndex
 90
       18
102
RTVSPost2010Prop41ColorRGB
 90
        0
102
RTVSPost2010PropOp41
 70
     1
102
RTVSPost2010Prop42
 90
       50
102
RTVSPost2010PropOp42
 70
     1
102
RTVSPost2010Prop43
 90
        3
102
RTVSPost2010PropOp43
 70
     1
102
RTVSPost2010Prop44ColorIndex
 90
        5
102
RTVSPost2010Prop44ColorRGB
 90
      255
102
RTVSPost2010PropOp44
 70
     1
102
RTVSPost2010Prop45
280
     0
102
RTVSPost2010PropOp45
 70
     1
102
RTVSPost2010Prop46
 90
       50
102
RTVSPost2010PropOp46
 70
     1
102
RTVSPost2010Prop47
 90
       50
102
RTVSPost2010PropOp47
 70
     1
102
RTVSPost2010Prop48
 90
       50
102
RTVSPost2010PropOp48
 70
     1
102
RTVSPost2010Prop49
280
     0
102
RTVSPost2010PropOp49
 70
     1
102
RTVSPost2010Prop50
 90
       50
102
RTVSPost2010PropOp50
 70
     1
102
RTVSPost2010Prop51ColorIndex
 90
      256
102
RTVSPost2010Prop51ColorRGB
 90
-16777216
102
RTVSPost2010PropOp51
 70
     0
102
RTVSPost2010Prop52
140
1.0
102
RTVSPost2010PropOp52
 70
     0
102
RTVSPost2010Prop53
 90
        2
102
RTVSPost2010PropOp53
 70
     1
102
RTVSPost2010Prop54
  1
strokes_ogs.tif
102
RTVSPost2010PropOp54
 70
     1
102
RTVSPost2010Prop55
280
     0
102
RTVSPost2010PropOp55
 70
     1
102
RTVSPost2010Prop56
140
1.0
102
RTVSPost2010PropOp56
 70
     1
102
RTVSPost2010Prop57
140
1.0
102
RTVSPost2010PropOp57
 70
     1
102
RTVSPropertyOp0
 70
     1
102
RTVSPropertyOp1
 70
     1
102
RTVSPropertyOp2
 70
     1
102
RTVSPropertyOp3
 70
     1
102
RTVSPropertyOp4
 70
     1
102
RTVSPropertyOp5
 70
     1
102
RTVSPropertyOp6
 70
     1
102
RTVSPropertyOp7
 70
     1
102
RTVSPropertyOp8
 70
     1
102
RTVSPropertyOp9
 70
     1
102
RTVSPropertyOp10
 70
     1
102
RTVSPropertyOp11
 70
     1
102
RTVSPropertyOp12
 70
     1
102
RTVSPropertyOp13
 70
     1
102
RTVSPropertyOp14
 70
     1
102
RTVSPropertyOp15
 70
     1
102
RTVSPropertyOp16
 70
     1
102
RTVSPropertyOp17
 70
     1
102
RTVSPropertyOp18
 70
     1
102
RTVSPropertyOp19
 70
     1
102
RTVSPropertyOp20
 70
     1
102
RTVSPropertyOp21
 70
     1
102
RTVSPropertyOp22
 70
     1
102
RTVSPropertyOp23
 70
     1
102
RTVSPropertyOp24
 70
     1
102
RTVSPropertyOp25
 70
     1
102
RTVSPropertyOp26
 70
     1
102
RTVSPropertyOp27
 70
     1
102
RTVSPropertyOp28
 70
     1
102
RTVSPropertyOp29
 70
     1
102
RTVSPropertyOp30
 70
     1
102
RTVSPropertyOp31
 70
     1
102
RTVSPropertyOp32
 70
     1
102
RTVSPropertyOp33
 70
     1
102
RTVSPropertyOp34
 70
     1
102
RTVSPropertyOp35
 70
     1
102
RTVSPropertyOp36
 70
     1
102
RTVSPropertyOp37
 70
     1
102
RTVSPropertyOp38
 70
     1
102
RTVSPropertyOp39
 70
     1
102
RTVSPropertyOp40
 70
     1
102
RTVSPropertyOp41
 70
     1
102
RTVSPropertyOp42
 70
     1
102
RTVSPropertyOp43
 70
     1
102
RTVSPropertyOp44
 70
     1
102
RTVSPropertyOp45
 70
     1
102
RTVSPropertyOp46
 70
     1
102
RTVSPropertyOp47
 70
     1
102
RTVSPropertyOp48
 70
     1
102
RTVSPropertyOp49
 70
     1
102
RTVSPropertyOp50
 70
     1
102
RTVSPropertyOp51
 70
     0
102
RTVSPropertyOp52
 70
     0
102
RTVSPropertyOp53
 70
     1
102
RTVSPropertyOp54
 70
     1
102
RTVSPropertyOp55
 70
     1
102
RTVSPropertyOp56
 70
     1
102
RTVSPropertyOp57
 70
     1
102
RTVSPropertyOp58
 70
     1
102
RTVSPropertyOp59
 70
     1
102
RTVSPropertyOp60
 70
     1
102
RTVSPropertyOp61
 70
     1
102
RTVSPropertyOp62
 70
     1
  0
XRECORD
  5
A473
102
{ACAD_REACTORS
330
A472
102
}
330
A472
100
AcDbXrecord
280
     1
102
RTVSPost2010Prop28
280
     0
102
RTVSPost2010PropOp28
 70
     1
102
RTVSPost2010Prop29
280
     1
102
RTVSPost2010PropOp29
 70
     1
102
RTVSPost2010Prop30
280
     1
102
RTVSPost2010PropOp30
 70
     1
102
RTVSPost2010Prop31
280
     0
102
RTVSPost2010PropOp31
 70
     1
102
RTVSPost2010Prop32
280
     0
102
RTVSPost2010PropOp32
 70
     1
102
RTVSPost2010Prop33
280
     0
102
RTVSPost2010PropOp33
 70
     1
102
RTVSPost2010Prop34
280
     0
102
RTVSPost2010PropOp34
 70
     1
102
RTVSPost2010Prop35
280
     0
102
RTVSPost2010PropOp35
 70
     1
102
RTVSPost2010Prop36
280
     0
102
RTVSPost2010PropOp36
 70
     1
102
RTVSPost2010Prop37
 90
       50
102
RTVSPost2010PropOp37
 70
     1
102
RTVSPost2010Prop38
140
0.0
102
RTVSPost2010PropOp38
 70
     1
102
RTVSPost2010Prop39
140
1.0
102
RTVSPost2010PropOp39
 70
     1
102
RTVSPost2010Prop40
 90
        0
102
RTVSPost2010PropOp40
 70
     1
102
RTVSPost2010Prop41ColorIndex
 90
       18
102
RTVSPost2010Prop41ColorRGB
 90
        0
102
RTVSPost2010PropOp41
 70
     1
102
RTVSPost2010Prop42
 90
       50
102
RTVSPost2010PropOp42
 70
     1
102
RTVSPost2010Prop43
 90
        3
102
RTVSPost2010PropOp43
 70
     1
102
RTVSPost2010Prop44ColorIndex
 90
        5
102
RTVSPost2010Prop44ColorRGB
 90
      255
102
RTVSPost2010PropOp44
 70
     1
102
RTVSPost2010Prop45
280
     0
102
RTVSPost2010PropOp45
 70
     1
102
RTVSPost2010Prop46
 90
       50
102
RTVSPost2010PropOp46
 70
     1
102
RTVSPost2010Prop47
 90
       50
102
RTVSPost2010PropOp47
 70
     1
102
RTVSPost2010Prop48
 90
       50
102
RTVSPost2010PropOp48
 70
     1
102
RTVSPost2010Prop49
280
     0
102
RTVSPost2010PropOp49
 70
     1
102
RTVSPost2010Prop50
 90
       50
102
RTVSPost2010PropOp50
 70
     1
102
RTVSPost2010Prop51ColorIndex
 90
      256
102
RTVSPost2010Prop51ColorRGB
 90
-16777216
102
RTVSPost2010PropOp51
 70
     0
102
RTVSPost2010Prop52
140
1.0
102
RTVSPost2010PropOp52
 70
     0
102
RTVSPost2010Prop53
 90
        2
102
RTVSPost2010PropOp53
 70
     1
102
RTVSPost2010Prop54
  1
strokes_ogs.tif
102
RTVSPost2010PropOp54
 70
     1
102
RTVSPost2010Prop55
280
     0
102
RTVSPost2010PropOp55
 70
     1
102
RTVSPost2010Prop56
140
1.0
102
RTVSPost2010PropOp56
 70
     1
102
RTVSPost2010Prop57
140
1.0
102
RTVSPost2010PropOp57
 70
     1
102
RTVSPropertyOp0
 70
     1
102
RTVSPropertyOp1
 70
     1
102
RTVSPropertyOp2
 70
     1
102
RTVSPropertyOp3
 70
     1
102
RTVSPropertyOp4
 70
     1
102
RTVSPropertyOp5
 70
     1
102
RTVSPropertyOp6
 70
     1
102
RTVSPropertyOp7
 70
     1
102
RTVSPropertyOp8
 70
     1
102
RTVSPropertyOp9
 70
     1
102
RTVSPropertyOp10
 70
     1
102
RTVSPropertyOp11
 70
     1
102
RTVSPropertyOp12
 70
     1
102
RTVSPropertyOp13
 70
     1
102
RTVSPropertyOp14
 70
     1
102
RTVSPropertyOp15
 70
     1
102
RTVSPropertyOp16
 70
     1
102
RTVSPropertyOp17
 70
     1
102
RTVSPropertyOp18
 70
     1
102
RTVSPropertyOp19
 70
     1
102
RTVSPropertyOp20
 70
     1
102
RTVSPropertyOp21
 70
     1
102
RTVSPropertyOp22
 70
     1
102
RTVSPropertyOp23
 70
     1
102
RTVSPropertyOp24
 70
     1
102
RTVSPropertyOp25
 70
     1
102
RTVSPropertyOp26
 70
     1
102
RTVSPropertyOp27
 70
     1
102
RTVSPropertyOp28
 70
     1
102
RTVSPropertyOp29
 70
     1
102
RTVSPropertyOp30
 70
     1
102
RTVSPropertyOp31
 70
     1
102
RTVSPropertyOp32
 70
     1
102
RTVSPropertyOp33
 70
     1
102
RTVSPropertyOp34
 70
     1
102
RTVSPropertyOp35
 70
     1
102
RTVSPropertyOp36
 70
     1
102
RTVSPropertyOp37
 70
     1
102
RTVSPropertyOp38
 70
     1
102
RTVSPropertyOp39
 70
     1
102
RTVSPropertyOp40
 70
     1
102
RTVSPropertyOp41
 70
     1
102
RTVSPropertyOp42
 70
     1
102
RTVSPropertyOp43
 70
     1
102
RTVSPropertyOp44
 70
     1
102
RTVSPropertyOp45
 70
     1
102
RTVSPropertyOp46
 70
     1
102
RTVSPropertyOp47
 70
     1
102
RTVSPropertyOp48
 70
     1
102
RTVSPropertyOp49
 70
     1
102
RTVSPropertyOp50
 70
     1
102
RTVSPropertyOp51
 70
     0
102
RTVSPropertyOp52
 70
     0
102
RTVSPropertyOp53
 70
     1
102
RTVSPropertyOp54
 70
     1
102
RTVSPropertyOp55
 70
     1
102
RTVSPropertyOp56
 70
     1
102
RTVSPropertyOp57
 70
     1
102
RTVSPropertyOp58
 70
     1
102
RTVSPropertyOp59
 70
     1
102
RTVSPropertyOp60
 70
     1
102
RTVSPropertyOp61
 70
     1
102
RTVSPropertyOp62
 70
     1
  0
XRECORD
  5
A46D
102
{ACAD_REACTORS
330
A46C
102
}
330
A46C
100
AcDbXrecord
280
     1
102
RTVSPost2010Prop28
280
     0
102
RTVSPost2010PropOp28
 70
     1
102
RTVSPost2010Prop29
280
     1
102
RTVSPost2010PropOp29
 70
     1
102
RTVSPost2010Prop30
280
     1
102
RTVSPost2010PropOp30
 70
     1
102
RTVSPost2010Prop31
280
     0
102
RTVSPost2010PropOp31
 70
     1
102
RTVSPost2010Prop32
280
     0
102
RTVSPost2010PropOp32
 70
     1
102
RTVSPost2010Prop33
280
     0
102
RTVSPost2010PropOp33
 70
     1
102
RTVSPost2010Prop34
280
     0
102
RTVSPost2010PropOp34
 70
     1
102
RTVSPost2010Prop35
280
     0
102
RTVSPost2010PropOp35
 70
     1
102
RTVSPost2010Prop36
280
     0
102
RTVSPost2010PropOp36
 70
     1
102
RTVSPost2010Prop37
 90
       50
102
RTVSPost2010PropOp37
 70
     1
102
RTVSPost2010Prop38
140
0.0
102
RTVSPost2010PropOp38
 70
     1
102
RTVSPost2010Prop39
140
1.0
102
RTVSPost2010PropOp39
 70
     1
102
RTVSPost2010Prop40
 90
        0
102
RTVSPost2010PropOp40
 70
     1
102
RTVSPost2010Prop41ColorIndex
 90
       18
102
RTVSPost2010Prop41ColorRGB
 90
        0
102
RTVSPost2010PropOp41
 70
     1
102
RTVSPost2010Prop42
 90
       50
102
RTVSPost2010PropOp42
 70
     1
102
RTVSPost2010Prop43
 90
        3
102
RTVSPost2010PropOp43
 70
     1
102
RTVSPost2010Prop44ColorIndex
 90
        5
102
RTVSPost2010Prop44ColorRGB
 90
      255
102
RTVSPost2010PropOp44
 70
     1
102
RTVSPost2010Prop45
280
     0
102
RTVSPost2010PropOp45
 70
     1
102
RTVSPost2010Prop46
 90
       50
102
RTVSPost2010PropOp46
 70
     1
102
RTVSPost2010Prop47
 90
       50
102
RTVSPost2010PropOp47
 70
     1
102
RTVSPost2010Prop48
 90
       50
102
RTVSPost2010PropOp48
 70
     1
102
RTVSPost2010Prop49
280
     0
102
RTVSPost2010PropOp49
 70
     1
102
RTVSPost2010Prop50
 90
       50
102
RTVSPost2010PropOp50
 70
     1
102
RTVSPost2010Prop51ColorIndex
 90
      256
102
RTVSPost2010Prop51ColorRGB
 90
-16777216
102
RTVSPost2010PropOp51
 70
     0
102
RTVSPost2010Prop52
140
1.0
102
RTVSPost2010PropOp52
 70
     0
102
RTVSPost2010Prop53
 90
        2
102
RTVSPost2010PropOp53
 70
     1
102
RTVSPost2010Prop54
  1
strokes_ogs.tif
102
RTVSPost2010PropOp54
 70
     1
102
RTVSPost2010Prop55
280
     0
102
RTVSPost2010PropOp55
 70
     1
102
RTVSPost2010Prop56
140
1.0
102
RTVSPost2010PropOp56
 70
     1
102
RTVSPost2010Prop57
140
1.0
102
RTVSPost2010PropOp57
 70
     1
102
RTVSPropertyOp0
 70
     1
102
RTVSPropertyOp1
 70
     1
102
RTVSPropertyOp2
 70
     1
102
RTVSPropertyOp3
 70
     1
102
RTVSPropertyOp4
 70
     1
102
RTVSPropertyOp5
 70
     1
102
RTVSPropertyOp6
 70
     1
102
RTVSPropertyOp7
 70
     1
102
RTVSPropertyOp8
 70
     1
102
RTVSPropertyOp9
 70
     1
102
RTVSPropertyOp10
 70
     1
102
RTVSPropertyOp11
 70
     1
102
RTVSPropertyOp12
 70
     1
102
RTVSPropertyOp13
 70
     1
102
RTVSPropertyOp14
 70
     1
102
RTVSPropertyOp15
 70
     1
102
RTVSPropertyOp16
 70
     1
102
RTVSPropertyOp17
 70
     1
102
RTVSPropertyOp18
 70
     1
102
RTVSPropertyOp19
 70
     1
102
RTVSPropertyOp20
 70
     1
102
RTVSPropertyOp21
 70
     1
102
RTVSPropertyOp22
 70
     1
102
RTVSPropertyOp23
 70
     1
102
RTVSPropertyOp24
 70
     1
102
RTVSPropertyOp25
 70
     1
102
RTVSPropertyOp26
 70
     1
102
RTVSPropertyOp27
 70
     1
102
RTVSPropertyOp28
 70
     1
102
RTVSPropertyOp29
 70
     1
102
RTVSPropertyOp30
 70
     1
102
RTVSPropertyOp31
 70
     1
102
RTVSPropertyOp32
 70
     1
102
RTVSPropertyOp33
 70
     1
102
RTVSPropertyOp34
 70
     1
102
RTVSPropertyOp35
 70
     1
102
RTVSPropertyOp36
 70
     1
102
RTVSPropertyOp37
 70
     1
102
RTVSPropertyOp38
 70
     1
102
RTVSPropertyOp39
 70
     1
102
RTVSPropertyOp40
 70
     1
102
RTVSPropertyOp41
 70
     1
102
RTVSPropertyOp42
 70
     1
102
RTVSPropertyOp43
 70
     1
102
RTVSPropertyOp44
 70
     1
102
RTVSPropertyOp45
 70
     1
102
RTVSPropertyOp46
 70
     1
102
RTVSPropertyOp47
 70
     1
102
RTVSPropertyOp48
 70
     1
102
RTVSPropertyOp49
 70
     1
102
RTVSPropertyOp50
 70
     1
102
RTVSPropertyOp51
 70
     0
102
RTVSPropertyOp52
 70
     0
102
RTVSPropertyOp53
 70
     1
102
RTVSPropertyOp54
 70
     1
102
RTVSPropertyOp55
 70
     1
102
RTVSPropertyOp56
 70
     1
102
RTVSPropertyOp57
 70
     1
102
RTVSPropertyOp58
 70
     1
102
RTVSPropertyOp59
 70
     1
102
RTVSPropertyOp60
 70
     1
102
RTVSPropertyOp61
 70
     1
102
RTVSPropertyOp62
 70
     1
  0
XRECORD
  5
A46F
102
{ACAD_REACTORS
330
A46E
102
}
330
A46E
100
AcDbXrecord
280
     1
102
RTVSPost2010Prop28
280
     0
102
RTVSPost2010PropOp28
 70
     1
102
RTVSPost2010Prop29
280
     1
102
RTVSPost2010PropOp29
 70
     1
102
RTVSPost2010Prop30
280
     1
102
RTVSPost2010PropOp30
 70
     1
102
RTVSPost2010Prop31
280
     0
102
RTVSPost2010PropOp31
 70
     1
102
RTVSPost2010Prop32
280
     0
102
RTVSPost2010PropOp32
 70
     1
102
RTVSPost2010Prop33
280
     0
102
RTVSPost2010PropOp33
 70
     1
102
RTVSPost2010Prop34
280
     0
102
RTVSPost2010PropOp34
 70
     1
102
RTVSPost2010Prop35
280
     0
102
RTVSPost2010PropOp35
 70
     1
102
RTVSPost2010Prop36
280
     0
102
RTVSPost2010PropOp36
 70
     1
102
RTVSPost2010Prop37
 90
       50
102
RTVSPost2010PropOp37
 70
     1
102
RTVSPost2010Prop38
140
0.0
102
RTVSPost2010PropOp38
 70
     1
102
RTVSPost2010Prop39
140
1.0
102
RTVSPost2010PropOp39
 70
     1
102
RTVSPost2010Prop40
 90
        0
102
RTVSPost2010PropOp40
 70
     1
102
RTVSPost2010Prop41ColorIndex
 90
       18
102
RTVSPost2010Prop41ColorRGB
 90
        0
102
RTVSPost2010PropOp41
 70
     1
102
RTVSPost2010Prop42
 90
       50
102
RTVSPost2010PropOp42
 70
     1
102
RTVSPost2010Prop43
 90
        3
102
RTVSPost2010PropOp43
 70
     1
102
RTVSPost2010Prop44ColorIndex
 90
        5
102
RTVSPost2010Prop44ColorRGB
 90
      255
102
RTVSPost2010PropOp44
 70
     1
102
RTVSPost2010Prop45
280
     0
102
RTVSPost2010PropOp45
 70
     1
102
RTVSPost2010Prop46
 90
       50
102
RTVSPost2010PropOp46
 70
     1
102
RTVSPost2010Prop47
 90
       50
102
RTVSPost2010PropOp47
 70
     1
102
RTVSPost2010Prop48
 90
       50
102
RTVSPost2010PropOp48
 70
     1
102
RTVSPost2010Prop49
280
     0
102
RTVSPost2010PropOp49
 70
     1
102
RTVSPost2010Prop50
 90
       50
102
RTVSPost2010PropOp50
 70
     1
102
RTVSPost2010Prop51ColorIndex
 90
      256
102
RTVSPost2010Prop51ColorRGB
 90
-16777216
102
RTVSPost2010PropOp51
 70
     0
102
RTVSPost2010Prop52
140
1.0
102
RTVSPost2010PropOp52
 70
     0
102
RTVSPost2010Prop53
 90
        2
102
RTVSPost2010PropOp53
 70
     1
102
RTVSPost2010Prop54
  1
strokes_ogs.tif
102
RTVSPost2010PropOp54
 70
     1
102
RTVSPost2010Prop55
280
     0
102
RTVSPost2010PropOp55
 70
     1
102
RTVSPost2010Prop56
140
1.0
102
RTVSPost2010PropOp56
 70
     1
102
RTVSPost2010Prop57
140
1.0
102
RTVSPost2010PropOp57
 70
     1
102
RTVSPropertyOp0
 70
     1
102
RTVSPropertyOp1
 70
     1
102
RTVSPropertyOp2
 70
     1
102
RTVSPropertyOp3
 70
     1
102
RTVSPropertyOp4
 70
     1
102
RTVSPropertyOp5
 70
     1
102
RTVSPropertyOp6
 70
     1
102
RTVSPropertyOp7
 70
     1
102
RTVSPropertyOp8
 70
     1
102
RTVSPropertyOp9
 70
     1
102
RTVSPropertyOp10
 70
     1
102
RTVSPropertyOp11
 70
     1
102
RTVSPropertyOp12
 70
     1
102
RTVSPropertyOp13
 70
     1
102
RTVSPropertyOp14
 70
     1
102
RTVSPropertyOp15
 70
     1
102
RTVSPropertyOp16
 70
     1
102
RTVSPropertyOp17
 70
     1
102
RTVSPropertyOp18
 70
     1
102
RTVSPropertyOp19
 70
     1
102
RTVSPropertyOp20
 70
     1
102
RTVSPropertyOp21
 70
     1
102
RTVSPropertyOp22
 70
     1
102
RTVSPropertyOp23
 70
     1
102
RTVSPropertyOp24
 70
     1
102
RTVSPropertyOp25
 70
     1
102
RTVSPropertyOp26
 70
     1
102
RTVSPropertyOp27
 70
     1
102
RTVSPropertyOp28
 70
     1
102
RTVSPropertyOp29
 70
     1
102
RTVSPropertyOp30
 70
     1
102
RTVSPropertyOp31
 70
     1
102
RTVSPropertyOp32
 70
     1
102
RTVSPropertyOp33
 70
     1
102
RTVSPropertyOp34
 70
     1
102
RTVSPropertyOp35
 70
     1
102
RTVSPropertyOp36
 70
     1
102
RTVSPropertyOp37
 70
     1
102
RTVSPropertyOp38
 70
     1
102
RTVSPropertyOp39
 70
     1
102
RTVSPropertyOp40
 70
     1
102
RTVSPropertyOp41
 70
     1
102
RTVSPropertyOp42
 70
     1
102
RTVSPropertyOp43
 70
     1
102
RTVSPropertyOp44
 70
     1
102
RTVSPropertyOp45
 70
     1
102
RTVSPropertyOp46
 70
     1
102
RTVSPropertyOp47
 70
     1
102
RTVSPropertyOp48
 70
     1
102
RTVSPropertyOp49
 70
     1
102
RTVSPropertyOp50
 70
     1
102
RTVSPropertyOp51
 70
     0
102
RTVSPropertyOp52
 70
     0
102
RTVSPropertyOp53
 70
     1
102
RTVSPropertyOp54
 70
     1
102
RTVSPropertyOp55
 70
     1
102
RTVSPropertyOp56
 70
     1
102
RTVSPropertyOp57
 70
     1
102
RTVSPropertyOp58
 70
     1
102
RTVSPropertyOp59
 70
     1
102
RTVSPropertyOp60
 70
     1
102
RTVSPropertyOp61
 70
     1
102
RTVSPropertyOp62
 70
     1
  0
XRECORD
  5
A465
102
{ACAD_REACTORS
330
A464
102
}
330
A464
100
AcDbXrecord
280
     1
102
RTVSPost2010Prop28
280
     0
102
RTVSPost2010PropOp28
 70
     1
102
RTVSPost2010Prop29
280
     1
102
RTVSPost2010PropOp29
 70
     1
102
RTVSPost2010Prop30
280
     1
102
RTVSPost2010PropOp30
 70
     1
102
RTVSPost2010Prop31
280
     0
102
RTVSPost2010PropOp31
 70
     1
102
RTVSPost2010Prop32
280
     0
102
RTVSPost2010PropOp32
 70
     1
102
RTVSPost2010Prop33
280
     0
102
RTVSPost2010PropOp33
 70
     1
102
RTVSPost2010Prop34
280
     0
102
RTVSPost2010PropOp34
 70
     1
102
RTVSPost2010Prop35
280
     0
102
RTVSPost2010PropOp35
 70
     1
102
RTVSPost2010Prop36
280
     0
102
RTVSPost2010PropOp36
 70
     1
102
RTVSPost2010Prop37
 90
       50
102
RTVSPost2010PropOp37
 70
     1
102
RTVSPost2010Prop38
140
0.0
102
RTVSPost2010PropOp38
 70
     1
102
RTVSPost2010Prop39
140
1.0
102
RTVSPost2010PropOp39
 70
     1
102
RTVSPost2010Prop40
 90
        0
102
RTVSPost2010PropOp40
 70
     1
102
RTVSPost2010Prop41ColorIndex
 90
       18
102
RTVSPost2010Prop41ColorRGB
 90
        0
102
RTVSPost2010PropOp41
 70
     1
102
RTVSPost2010Prop42
 90
       50
102
RTVSPost2010PropOp42
 70
     1
102
RTVSPost2010Prop43
 90
        3
102
RTVSPost2010PropOp43
 70
     1
102
RTVSPost2010Prop44ColorIndex
 90
        5
102
RTVSPost2010Prop44ColorRGB
 90
      255
102
RTVSPost2010PropOp44
 70
     1
102
RTVSPost2010Prop45
280
     0
102
RTVSPost2010PropOp45
 70
     1
102
RTVSPost2010Prop46
 90
       50
102
RTVSPost2010PropOp46
 70
     1
102
RTVSPost2010Prop47
 90
       50
102
RTVSPost2010PropOp47
 70
     1
102
RTVSPost2010Prop48
 90
       50
102
RTVSPost2010PropOp48
 70
     1
102
RTVSPost2010Prop49
280
     0
102
RTVSPost2010PropOp49
 70
     1
102
RTVSPost2010Prop50
 90
       50
102
RTVSPost2010PropOp50
 70
     1
102
RTVSPost2010Prop51ColorIndex
 90
      256
102
RTVSPost2010Prop51ColorRGB
 90
-16777216
102
RTVSPost2010PropOp51
 70
     0
102
RTVSPost2010Prop52
140
1.0
102
RTVSPost2010PropOp52
 70
     0
102
RTVSPost2010Prop53
 90
        2
102
RTVSPost2010PropOp53
 70
     1
102
RTVSPost2010Prop54
  1
strokes_ogs.tif
102
RTVSPost2010PropOp54
 70
     1
102
RTVSPost2010Prop55
280
     0
102
RTVSPost2010PropOp55
 70
     1
102
RTVSPost2010Prop56
140
1.0
102
RTVSPost2010PropOp56
 70
     1
102
RTVSPost2010Prop57
140
1.0
102
RTVSPost2010PropOp57
 70
     1
102
RTVSPropertyOp0
 70
     1
102
RTVSPropertyOp1
 70
     1
102
RTVSPropertyOp2
 70
     1
102
RTVSPropertyOp3
 70
     1
102
RTVSPropertyOp4
 70
     1
102
RTVSPropertyOp5
 70
     1
102
RTVSPropertyOp6
 70
     1
102
RTVSPropertyOp7
 70
     1
102
RTVSPropertyOp8
 70
     1
102
RTVSPropertyOp9
 70
     1
102
RTVSPropertyOp10
 70
     1
102
RTVSPropertyOp11
 70
     1
102
RTVSPropertyOp12
 70
     1
102
RTVSPropertyOp13
 70
     1
102
RTVSPropertyOp14
 70
     1
102
RTVSPropertyOp15
 70
     1
102
RTVSPropertyOp16
 70
     1
102
RTVSPropertyOp17
 70
     1
102
RTVSPropertyOp18
 70
     1
102
RTVSPropertyOp19
 70
     1
102
RTVSPropertyOp20
 70
     1
102
RTVSPropertyOp21
 70
     1
102
RTVSPropertyOp22
 70
     1
102
RTVSPropertyOp23
 70
     1
102
RTVSPropertyOp24
 70
     1
102
RTVSPropertyOp25
 70
     1
102
RTVSPropertyOp26
 70
     1
102
RTVSPropertyOp27
 70
     1
102
RTVSPropertyOp28
 70
     1
102
RTVSPropertyOp29
 70
     1
102
RTVSPropertyOp30
 70
     1
102
RTVSPropertyOp31
 70
     1
102
RTVSPropertyOp32
 70
     1
102
RTVSPropertyOp33
 70
     1
102
RTVSPropertyOp34
 70
     1
102
RTVSPropertyOp35
 70
     1
102
RTVSPropertyOp36
 70
     1
102
RTVSPropertyOp37
 70
     1
102
RTVSPropertyOp38
 70
     1
102
RTVSPropertyOp39
 70
     1
102
RTVSPropertyOp40
 70
     1
102
RTVSPropertyOp41
 70
     1
102
RTVSPropertyOp42
 70
     1
102
RTVSPropertyOp43
 70
     1
102
RTVSPropertyOp44
 70
     1
102
RTVSPropertyOp45
 70
     1
102
RTVSPropertyOp46
 70
     1
102
RTVSPropertyOp47
 70
     1
102
RTVSPropertyOp48
 70
     1
102
RTVSPropertyOp49
 70
     1
102
RTVSPropertyOp50
 70
     1
102
RTVSPropertyOp51
 70
     0
102
RTVSPropertyOp52
 70
     0
102
RTVSPropertyOp53
 70
     1
102
RTVSPropertyOp54
 70
     1
102
RTVSPropertyOp55
 70
     1
102
RTVSPropertyOp56
 70
     1
102
RTVSPropertyOp57
 70
     1
102
RTVSPropertyOp58
 70
     1
102
RTVSPropertyOp59
 70
     1
102
RTVSPropertyOp60
 70
     1
102
RTVSPropertyOp61
 70
     1
102
RTVSPropertyOp62
 70
     1
  0
XRECORD
  5
A459
102
{ACAD_REACTORS
330
A458
102
}
330
A458
100
AcDbXrecord
280
     1
102
RTVSPost2010Prop28
280
     0
102
RTVSPost2010PropOp28
 70
     1
102
RTVSPost2010Prop29
280
     1
102
RTVSPost2010PropOp29
 70
     1
102
RTVSPost2010Prop30
280
     1
102
RTVSPost2010PropOp30
 70
     1
102
RTVSPost2010Prop31
280
     0
102
RTVSPost2010PropOp31
 70
     1
102
RTVSPost2010Prop32
280
     0
102
RTVSPost2010PropOp32
 70
     1
102
RTVSPost2010Prop33
280
     0
102
RTVSPost2010PropOp33
 70
     1
102
RTVSPost2010Prop34
280
     0
102
RTVSPost2010PropOp34
 70
     1
102
RTVSPost2010Prop35
280
     0
102
RTVSPost2010PropOp35
 70
     1
102
RTVSPost2010Prop36
280
     0
102
RTVSPost2010PropOp36
 70
     1
102
RTVSPost2010Prop37
 90
       50
102
RTVSPost2010PropOp37
 70
     1
102
RTVSPost2010Prop38
140
0.0
102
RTVSPost2010PropOp38
 70
     1
102
RTVSPost2010Prop39
140
1.0
102
RTVSPost2010PropOp39
 70
     1
102
RTVSPost2010Prop40
 90
        0
102
RTVSPost2010PropOp40
 70
     1
102
RTVSPost2010Prop41ColorIndex
 90
       18
102
RTVSPost2010Prop41ColorRGB
 90
        0
102
RTVSPost2010PropOp41
 70
     1
102
RTVSPost2010Prop42
 90
       50
102
RTVSPost2010PropOp42
 70
     1
102
RTVSPost2010Prop43
 90
        3
102
RTVSPost2010PropOp43
 70
     1
102
RTVSPost2010Prop44ColorIndex
 90
        5
102
RTVSPost2010Prop44ColorRGB
 90
      255
102
RTVSPost2010PropOp44
 70
     1
102
RTVSPost2010Prop45
280
     0
102
RTVSPost2010PropOp45
 70
     1
102
RTVSPost2010Prop46
 90
       50
102
RTVSPost2010PropOp46
 70
     1
102
RTVSPost2010Prop47
 90
       50
102
RTVSPost2010PropOp47
 70
     1
102
RTVSPost2010Prop48
 90
       50
102
RTVSPost2010PropOp48
 70
     1
102
RTVSPost2010Prop49
280
     0
102
RTVSPost2010PropOp49
 70
     1
102
RTVSPost2010Prop50
 90
       50
102
RTVSPost2010PropOp50
 70
     1
102
RTVSPost2010Prop51ColorIndex
 90
      256
102
RTVSPost2010Prop51ColorRGB
 90
-16777216
102
RTVSPost2010PropOp51
 70
     0
102
RTVSPost2010Prop52
140
1.0
102
RTVSPost2010PropOp52
 70
     0
102
RTVSPost2010Prop53
 90
        2
102
RTVSPost2010PropOp53
 70
     1
102
RTVSPost2010Prop54
  1
strokes_ogs.tif
102
RTVSPost2010PropOp54
 70
     1
102
RTVSPost2010Prop55
280
     0
102
RTVSPost2010PropOp55
 70
     1
102
RTVSPost2010Prop56
140
1.0
102
RTVSPost2010PropOp56
 70
     1
102
RTVSPost2010Prop57
140
1.0
102
RTVSPost2010PropOp57
 70
     1
102
RTVSPropertyOp0
 70
     1
102
RTVSPropertyOp1
 70
     1
102
RTVSPropertyOp2
 70
     1
102
RTVSPropertyOp3
 70
     1
102
RTVSPropertyOp4
 70
     1
102
RTVSPropertyOp5
 70
     1
102
RTVSPropertyOp6
 70
     1
102
RTVSPropertyOp7
 70
     1
102
RTVSPropertyOp8
 70
     1
102
RTVSPropertyOp9
 70
     1
102
RTVSPropertyOp10
 70
     1
102
RTVSPropertyOp11
 70
     1
102
RTVSPropertyOp12
 70
     1
102
RTVSPropertyOp13
 70
     1
102
RTVSPropertyOp14
 70
     1
102
RTVSPropertyOp15
 70
     1
102
RTVSPropertyOp16
 70
     1
102
RTVSPropertyOp17
 70
     1
102
RTVSPropertyOp18
 70
     1
102
RTVSPropertyOp19
 70
     1
102
RTVSPropertyOp20
 70
     1
102
RTVSPropertyOp21
 70
     1
102
RTVSPropertyOp22
 70
     1
102
RTVSPropertyOp23
 70
     1
102
RTVSPropertyOp24
 70
     1
102
RTVSPropertyOp25
 70
     1
102
RTVSPropertyOp26
 70
     1
102
RTVSPropertyOp27
 70
     1
102
RTVSPropertyOp28
 70
     1
102
RTVSPropertyOp29
 70
     1
102
RTVSPropertyOp30
 70
     1
102
RTVSPropertyOp31
 70
     1
102
RTVSPropertyOp32
 70
     1
102
RTVSPropertyOp33
 70
     1
102
RTVSPropertyOp34
 70
     1
102
RTVSPropertyOp35
 70
     1
102
RTVSPropertyOp36
 70
     1
102
RTVSPropertyOp37
 70
     1
102
RTVSPropertyOp38
 70
     1
102
RTVSPropertyOp39
 70
     1
102
RTVSPropertyOp40
 70
     1
102
RTVSPropertyOp41
 70
     1
102
RTVSPropertyOp42
 70
     1
102
RTVSPropertyOp43
 70
     1
102
RTVSPropertyOp44
 70
     1
102
RTVSPropertyOp45
 70
     1
102
RTVSPropertyOp46
 70
     1
102
RTVSPropertyOp47
 70
     1
102
RTVSPropertyOp48
 70
     1
102
RTVSPropertyOp49
 70
     1
102
RTVSPropertyOp50
 70
     1
102
RTVSPropertyOp51
 70
     0
102
RTVSPropertyOp52
 70
     0
102
RTVSPropertyOp53
 70
     1
102
RTVSPropertyOp54
 70
     1
102
RTVSPropertyOp55
 70
     1
102
RTVSPropertyOp56
 70
     1
102
RTVSPropertyOp57
 70
     1
102
RTVSPropertyOp58
 70
     1
102
RTVSPropertyOp59
 70
     1
102
RTVSPropertyOp60
 70
     1
102
RTVSPropertyOp61
 70
     1
102
RTVSPropertyOp62
 70
     1
  0
XRECORD
  5
A471
102
{ACAD_REACTORS
330
A470
102
}
330
A470
100
AcDbXrecord
280
     1
102
RTVSPost2010Prop28
280
     0
102
RTVSPost2010PropOp28
 70
     1
102
RTVSPost2010Prop29
280
     1
102
RTVSPost2010PropOp29
 70
     1
102
RTVSPost2010Prop30
280
     1
102
RTVSPost2010PropOp30
 70
     1
102
RTVSPost2010Prop31
280
     0
102
RTVSPost2010PropOp31
 70
     1
102
RTVSPost2010Prop32
280
     0
102
RTVSPost2010PropOp32
 70
     1
102
RTVSPost2010Prop33
280
     0
102
RTVSPost2010PropOp33
 70
     1
102
RTVSPost2010Prop34
280
     0
102
RTVSPost2010PropOp34
 70
     1
102
RTVSPost2010Prop35
280
     0
102
RTVSPost2010PropOp35
 70
     1
102
RTVSPost2010Prop36
280
     0
102
RTVSPost2010PropOp36
 70
     1
102
RTVSPost2010Prop37
 90
       50
102
RTVSPost2010PropOp37
 70
     1
102
RTVSPost2010Prop38
140
0.0
102
RTVSPost2010PropOp38
 70
     1
102
RTVSPost2010Prop39
140
1.0
102
RTVSPost2010PropOp39
 70
     1
102
RTVSPost2010Prop40
 90
        0
102
RTVSPost2010PropOp40
 70
     1
102
RTVSPost2010Prop41ColorIndex
 90
       18
102
RTVSPost2010Prop41ColorRGB
 90
        0
102
RTVSPost2010PropOp41
 70
     1
102
RTVSPost2010Prop42
 90
       50
102
RTVSPost2010PropOp42
 70
     1
102
RTVSPost2010Prop43
 90
        3
102
RTVSPost2010PropOp43
 70
     1
102
RTVSPost2010Prop44ColorIndex
 90
        5
102
RTVSPost2010Prop44ColorRGB
 90
      255
102
RTVSPost2010PropOp44
 70
     1
102
RTVSPost2010Prop45
280
     0
102
RTVSPost2010PropOp45
 70
     1
102
RTVSPost2010Prop46
 90
       50
102
RTVSPost2010PropOp46
 70
     1
102
RTVSPost2010Prop47
 90
       50
102
RTVSPost2010PropOp47
 70
     1
102
RTVSPost2010Prop48
 90
       50
102
RTVSPost2010PropOp48
 70
     1
102
RTVSPost2010Prop49
280
     0
102
RTVSPost2010PropOp49
 70
     1
102
RTVSPost2010Prop50
 90
       50
102
RTVSPost2010PropOp50
 70
     1
102
RTVSPost2010Prop51ColorIndex
 90
      256
102
RTVSPost2010Prop51ColorRGB
 90
-16777216
102
RTVSPost2010PropOp51
 70
     0
102
RTVSPost2010Prop52
140
1.0
102
RTVSPost2010PropOp52
 70
     0
102
RTVSPost2010Prop53
 90
        2
102
RTVSPost2010PropOp53
 70
     1
102
RTVSPost2010Prop54
  1
strokes_ogs.tif
102
RTVSPost2010PropOp54
 70
     1
102
RTVSPost2010Prop55
280
     0
102
RTVSPost2010PropOp55
 70
     1
102
RTVSPost2010Prop56
140
1.0
102
RTVSPost2010PropOp56
 70
     1
102
RTVSPost2010Prop57
140
1.0
102
RTVSPost2010PropOp57
 70
     1
102
RTVSPropertyOp0
 70
     1
102
RTVSPropertyOp1
 70
     1
102
RTVSPropertyOp2
 70
     1
102
RTVSPropertyOp3
 70
     1
102
RTVSPropertyOp4
 70
     1
102
RTVSPropertyOp5
 70
     1
102
RTVSPropertyOp6
 70
     1
102
RTVSPropertyOp7
 70
     1
102
RTVSPropertyOp8
 70
     1
102
RTVSPropertyOp9
 70
     1
102
RTVSPropertyOp10
 70
     1
102
RTVSPropertyOp11
 70
     1
102
RTVSPropertyOp12
 70
     1
102
RTVSPropertyOp13
 70
     1
102
RTVSPropertyOp14
 70
     1
102
RTVSPropertyOp15
 70
     1
102
RTVSPropertyOp16
 70
     1
102
RTVSPropertyOp17
 70
     1
102
RTVSPropertyOp18
 70
     1
102
RTVSPropertyOp19
 70
     1
102
RTVSPropertyOp20
 70
     1
102
RTVSPropertyOp21
 70
     1
102
RTVSPropertyOp22
 70
     1
102
RTVSPropertyOp23
 70
     1
102
RTVSPropertyOp24
 70
     1
102
RTVSPropertyOp25
 70
     1
102
RTVSPropertyOp26
 70
     1
102
RTVSPropertyOp27
 70
     1
102
RTVSPropertyOp28
 70
     1
102
RTVSPropertyOp29
 70
     1
102
RTVSPropertyOp30
 70
     1
102
RTVSPropertyOp31
 70
     1
102
RTVSPropertyOp32
 70
     1
102
RTVSPropertyOp33
 70
     1
102
RTVSPropertyOp34
 70
     1
102
RTVSPropertyOp35
 70
     1
102
RTVSPropertyOp36
 70
     1
102
RTVSPropertyOp37
 70
     1
102
RTVSPropertyOp38
 70
     1
102
RTVSPropertyOp39
 70
     1
102
RTVSPropertyOp40
 70
     1
102
RTVSPropertyOp41
 70
     1
102
RTVSPropertyOp42
 70
     1
102
RTVSPropertyOp43
 70
     1
102
RTVSPropertyOp44
 70
     1
102
RTVSPropertyOp45
 70
     1
102
RTVSPropertyOp46
 70
     1
102
RTVSPropertyOp47
 70
     1
102
RTVSPropertyOp48
 70
     1
102
RTVSPropertyOp49
 70
     1
102
RTVSPropertyOp50
 70
     1
102
RTVSPropertyOp51
 70
     0
102
RTVSPropertyOp52
 70
     0
102
RTVSPropertyOp53
 70
     1
102
RTVSPropertyOp54
 70
     1
102
RTVSPropertyOp55
 70
     1
102
RTVSPropertyOp56
 70
     1
102
RTVSPropertyOp57
 70
     1
102
RTVSPropertyOp58
 70
     1
102
RTVSPropertyOp59
 70
     1
102
RTVSPropertyOp60
 70
     1
102
RTVSPropertyOp61
 70
     1
102
RTVSPropertyOp62
 70
     1
  0
ENDSEC
  0
EOF
