  0
SECTION
  2
HEADER
  9
$ACADVER
  1
AC1015
  9
$ACADMAINTVER
 70
    20
  9
$DWGCODEPAGE
  3
ANSI_932
  9
$INSBASE
 10
0.0
 20
0.0
 30
0.0
  9
$EXTMIN
 10
10.0
 20
9.999999999999998
 30
0.0
  9
$EXTMAX
 10
371.2852849999999
 20
272.654083
 30
0.0
  9
$LIMMIN
 10
0.0
 20
0.0
  9
$LIMMAX
 10
495.0
 20
341.25
  9
$ORTHOMODE
 70
     1
  9
$REGENMODE
 70
     1
  9
$FILLMODE
 70
     1
  9
$QTEXTMODE
 70
     0
  9
$MIRRTEXT
 70
     1
  9
$LTSCALE
 40
20.0
  9
$ATTMODE
 70
     1
  9
$TEXTSIZE
 40
5.0
  9
$TRACEWID
 40
1.0
  9
$TEXTSTYLE
  7
STANDARD
  9
$CLAYER
  8
0
  9
$CELTYPE
  6
BYLAYER
  9
$CECOLOR
 62
   256
  9
$CELTSCALE
 40
1.0
  9
$DISPSILH
 70
     0
  9
$DIMSCALE
 40
1.0
  9
$DIMASZ
 40
3.0
  9
$DIMEXO
 40
1.0
  9
$DIMDLI
 40
10.0
  9
$DIMRND
 40
0.0
  9
$DIMDLE
 40
0.0
  9
$DIMEXE
 40
1.0
  9
$DIMTP
 40
0.0
  9
$DIMTM
 40
0.0
  9
$DIMTXT
 40
3.2
  9
$DIMCEN
 40
0.0
  9
$DIMTSZ
 40
0.0
  9
$DIMTOL
 70
     0
  9
$DIMLIM
 70
     0
  9
$DIMTIH
 70
     0
  9
$DIMTOH
 70
     0
  9
$DIMSE1
 70
     0
  9
$DIMSE2
 70
     0
  9
$DIMTAD
 70
     3
  9
$DIMZIN
 70
     8
  9
$DIMBLK
  1

  9
$DIMASO
 70
     1
  9
$DIMSHO
 70
     1
  9
$DIMPOST
  1

  9
$DIMAPOST
  1

  9
$DIMALT
 70
     0
  9
$DIMALTD
 70
     2
  9
$DIMALTF
 40
25.4
  9
$DIMLFAC
 40
1.0
  9
$DIMTOFL
 70
     1
  9
$DIMTVP
 40
0.0
  9
$DIMTIX
 70
     0
  9
$DIMSOXD
 70
     0
  9
$DIMSAH
 70
     1
  9
$DIMBLK1
  1
OPEN
  9
$DIMBLK2
  1
OPEN
  9
$DIMSTYLE
  2
STANDARD
  9
$DIMCLRD
 70
     0
  9
$DIMCLRE
 70
     0
  9
$DIMCLRT
 70
     0
  9
$DIMTFAC
 40
1.0
  9
$DIMGAP
 40
1.0
  9
$DIMJUST
 70
     0
  9
$DIMSD1
 70
     0
  9
$DIMSD2
 70
     0
  9
$DIMTOLJ
 70
     1
  9
$DIMTZIN
 70
     0
  9
$DIMALTZ
 70
     0
  9
$DIMALTTZ
 70
     0
  9
$DIMUPT
 70
     0
  9
$DIMDEC
 70
     4
  9
$DIMTDEC
 70
     4
  9
$DIMALTU
 70
     2
  9
$DIMALTTD
 70
     2
  9
$DIMTXSTY
  7
STANDARD
  9
$DIMAUNIT
 70
     0
  9
$DIMADEC
 70
     0
  9
$DIMALTRND
 40
0.0
  9
$DIMAZIN
 70
     0
  9
$DIMDSEP
 70
    46
  9
$DIMATFIT
 70
     3
  9
$DIMFRAC
 70
     0
  9
$DIMLDRBLK
  1
OPEN
  9
$DIMLUNIT
 70
     2
  9
$DIMLWD
 70
    -2
  9
$DIMLWE
 70
    -2
  9
$DIMTMOVE
 70
     0
  9
$LUNITS
 70
     2
  9
$LUPREC
 70
     4
  9
$SKETCHINC
 40
1.0
  9
$FILLETRAD
 40
12.0
  9
$AUNITS
 70
     0
  9
$AUPREC
 70
     2
  9
$MENU
  1
.
  9
$ELEVATION
 40
0.0
  9
$PELEVATION
 40
0.0
  9
$THICKNESS
 40
0.0
  9
$LIMCHECK
 70
     0
  9
$CHAMFERA
 40
10.0
  9
$CHAMFERB
 40
10.0
  9
$CHAMFERC
 40
0.0
  9
$CHAMFERD
 40
0.0
  9
$SKPOLY
 70
     0
  9
$TDCREATE
 40
2451302.628789352
  9
$TDUCREATE
 40
2451302.253789352
  9
$TDUPDATE
 40
2457192.686707917
  9
$TDUUPDATE
 40
2457192.311707917
  9
$TDINDWG
 40
0.0000128356
  9
$TDUSRTIMER
 40
0.0000123495
  9
$USRTIMER
 70
     1
  9
$ANGBASE
 50
0.0
  9
$ANGDIR
 70
     0
  9
$PDMODE
 70
     0
  9
$PDSIZE
 40
0.0
  9
$PLINEWID
 40
0.0
  9
$SPLFRAME
 70
     0
  9
$SPLINETYPE
 70
     6
  9
$SPLINESEGS
 70
     8
  9
$HANDSEED
  5
C32A
  9
$SURFTAB1
 70
     6
  9
$SURFTAB2
 70
     6
  9
$SURFTYPE
 70
     6
  9
$SURFU
 70
     6
  9
$SURFV
 70
     6
  9
$UCSBASE
  2

  9
$UCSNAME
  2

  9
$UCSORG
 10
0.0
 20
0.0
 30
0.0
  9
$UCSXDIR
 10
1.0
 20
0.0
 30
0.0
  9
$UCSYDIR
 10
0.0
 20
1.0
 30
0.0
  9
$UCSORTHOREF
  2

  9
$UCSORTHOVIEW
 70
     0
  9
$UCSORGTOP
 10
0.0
 20
0.0
 30
0.0
  9
$UCSORGBOTTOM
 10
0.0
 20
0.0
 30
0.0
  9
$UCSORGLEFT
 10
0.0
 20
0.0
 30
0.0
  9
$UCSORGRIGHT
 10
0.0
 20
0.0
 30
0.0
  9
$UCSORGFRONT
 10
0.0
 20
0.0
 30
0.0
  9
$UCSORGBACK
 10
0.0
 20
0.0
 30
0.0
  9
$PUCSBASE
  2

  9
$PUCSNAME
  2

  9
$PUCSORG
 10
0.0
 20
0.0
 30
0.0
  9
$PUCSXDIR
 10
1.0
 20
0.0
 30
0.0
  9
$PUCSYDIR
 10
0.0
 20
1.0
 30
0.0
  9
$PUCSORTHOREF
  2

  9
$PUCSORTHOVIEW
 70
     0
  9
$PUCSORGTOP
 10
0.0
 20
0.0
 30
0.0
  9
$PUCSORGBOTTOM
 10
0.0
 20
0.0
 30
0.0
  9
$PUCSORGLEFT
 10
0.0
 20
0.0
 30
0.0
  9
$PUCSORGRIGHT
 10
0.0
 20
0.0
 30
0.0
  9
$PUCSORGFRONT
 10
0.0
 20
0.0
 30
0.0
  9
$PUCSORGBACK
 10
0.0
 20
0.0
 30
0.0
  9
$USERI1
 70
     0
  9
$USERI2
 70
     0
  9
$USERI3
 70
     0
  9
$USERI4
 70
     0
  9
$USERI5
 70
     0
  9
$USERR1
 40
0.0
  9
$USERR2
 40
0.0
  9
$USERR3
 40
0.0
  9
$USERR4
 40
0.0
  9
$USERR5
 40
0.0
  9
$WORLDVIEW
 70
     1
  9
$SHADEDGE
 70
     3
  9
$SHADEDIF
 70
    70
  9
$TILEMODE
 70
     1
  9
$MAXACTVP
 70
    16
  9
$PINSBASE
 10
0.0
 20
0.0
 30
0.0
  9
$PLIMCHECK
 70
     0
  9
$PEXTMIN
 10
1.000000000000000E+20
 20
1.000000000000000E+20
 30
1.000000000000000E+20
  9
$PEXTMAX
 10
-1.000000000000000E+20
 20
-1.000000000000000E+20
 30
-1.000000000000000E+20
  9
$PLIMMIN
 10
0.0
 20
0.0
  9
$PLIMMAX
 10
420.0
 20
297.0
  9
$UNITMODE
 70
     0
  9
$VISRETAIN
 70
     0
  9
$PLINEGEN
 70
     0
  9
$PSLTSCALE
 70
     0
  9
$TREEDEPTH
 70
  3020
  9
$CMLSTYLE
  2
STANDARD
  9
$CMLJUST
 70
     0
  9
$CMLSCALE
 40
1.0
  9
$PROXYGRAPHICS
 70
     1
  9
$MEASUREMENT
 70
     0
  9
$CELWEIGHT
370
    -1
  9
$ENDCAPS
280
     0
  9
$JOINSTYLE
280
     0
  9
$LWDISPLAY
290
     0
  9
$INSUNITS
 70
     0
  9
$HYPERLINKBASE
  1

  9
$STYLESHEET
  1

  9
$XEDIT
290
     1
  9
$CEPSNTYPE
380
     0
  9
$PSTYLEMODE
290
     1
  9
$FINGERPRINTGUID
  2
{1CE1DF95-7506-40E5-B4CE-48C3088C121A}
  9
$VERSIONGUID
  2
{DF8C167B-0BBD-4771-92C4-5DB7C1A7924B}
  9
$EXTNAMES
290
     1
  9
$PSVPSCALE
 40
0.0
  9
$OLESTARTUP
290
     0
  0
ENDSEC
  0
SECTION
  2
CLASSES
  0
CLASS
  1
ACDBDICTIONARYWDFLT
  2
AcDbDictionaryWithDefault
  3
ObjectDBX Classes
 90
        0
280
     0
281
     0
  0
CLASS
  1
ACDBPLACEHOLDER
  2
AcDbPlaceHolder
  3
ObjectDBX Classes
 90
        0
280
     0
281
     0
  0
CLASS
  1
LAYOUT
  2
AcDbLayout
  3
ObjectDBX Classes
 90
        0
280
     0
281
     0
  0
CLASS
  1
DICTIONARYVAR
  2
AcDbDictionaryVar
  3
ObjectDBX Classes
 90
        0
280
     0
281
     0
  0
CLASS
  1
MATERIAL
  2
AcDbMaterial
  3
ObjectDBX Classes
 90
     1153
280
     0
281
     0
  0
CLASS
  1
VISUALSTYLE
  2
AcDbVisualStyle
  3
ObjectDBX Classes
 90
     4095
280
     0
281
     0
  0
CLASS
  1
TABLESTYLE
  2
AcDbTableStyle
  3
ObjectDBX Classes
 90
     4095
280
     0
281
     0
  0
CLASS
  1
SCALE
  2
AcDbScale
  3
ObjectDBX Classes
 90
     1153
280
     0
281
     0
  0
CLASS
  1
MLEADERSTYLE
  2
AcDbMLeaderStyle
  3
ACDB_MLEADERSTYLE_CLASS
 90
     4095
280
     0
281
     0
  0
CLASS
  1
ACDBSECTIONVIEWSTYLE
  2
AcDbSectionViewStyle
  3
ObjectDBX Classes
 90
     1025
280
     0
281
     0
  0
CLASS
  1
ACDBDETAILVIEWSTYLE
  2
AcDbDetailViewStyle
  3
ObjectDBX Classes
 90
     1025
280
     0
281
     0
  0
CLASS
  1
CELLSTYLEMAP
  2
AcDbCellStyleMap
  3
ObjectDBX Classes
 90
     1152
280
     0
281
     0
  0
ENDSEC
  0
SECTION
  2
TABLES
  0
TABLE
  2
VPORT
  5
BE36
330
0
100
AcDbSymbolTable
 70
     1
  0
VPORT
  5
C273
330
BE36
100
AcDbSymbolTableRecord
100
AcDbViewportTableRecord
  2
*ACTIVE
 70
     0
 10
0.0
 20
0.0
 11
1.0
 21
1.0
 12
270.2021096518339
 22
141.3222606633757
 13
0.0
 23
0.0
 14
10.0
 24
10.0
 15
10.0
 25
10.0
 16
0.0
 26
0.0
 36
1.0
 17
0.0
 27
0.0
 37
0.0
 40
265.572664263215
 41
2.35006605019815
 42
50.0
 43
0.0
 44
0.0
 50
0.0
 51
0.0
 71
     0
 72
   100
 73
     1
 74
     0
 75
     0
 76
     0
 77
     0
 78
     0
281
     0
 65
     1
110
0.0
120
0.0
130
0.0
111
1.0
121
0.0
131
0.0
112
0.0
122
1.0
132
0.0
 79
     0
146
0.0
1001
ACAD_NAV_VCDISPLAY
1070
     3
  0
ENDTAB
  0
TABLE
  2
LTYPE
  5
BE33
330
0
100
AcDbSymbolTable
 70
     4
  0
LTYPE
  5
BE41
330
BE33
100
AcDbSymbolTableRecord
100
AcDbLinetypeTableRecord
  2
BYBLOCK
 70
     0
  3

 72
    65
 73
     0
 40
0.0
  0
LTYPE
  5
BE42
330
BE33
100
AcDbSymbolTableRecord
100
AcDbLinetypeTableRecord
  2
BYLAYER
 70
     0
  3

 72
    65
 73
     0
 40
0.0
  0
LTYPE
  5
BE43
330
BE33
100
AcDbSymbolTableRecord
100
AcDbLinetypeTableRecord
  2
CONTINUOUS
 70
     0
  3
Solid line
 72
    65
 73
     0
 40
0.0
  0
LTYPE
  5
BE51
330
BE33
100
AcDbSymbolTableRecord
100
AcDbLinetypeTableRecord
  2
DASHED
 70
     0
  3
__ __ __ __ __ __ __ __ __ __ __ __ __ __ __ __
 72
    65
 73
     2
 40
0.75
 49
0.5
 74
     0
 49
-0.25
 74
     0
  0
LTYPE
  5
BE52
330
BE33
100
AcDbSymbolTableRecord
100
AcDbLinetypeTableRecord
  2
CENTER
 70
     0
  3
____ _ ____ _ ____ _ ____ _ ____ _ ____ _ ____ 
 72
    65
 73
     4
 40
2.0
 49
1.25
 74
     0
 49
-0.25
 74
     0
 49
0.25
 74
     0
 49
-0.25
 74
     0
  0
LTYPE
  5
BE53
330
BE33
100
AcDbSymbolTableRecord
100
AcDbLinetypeTableRecord
  2
PHANTOM
 70
     0
  3
______  __  __  ______  __  __  ______  __  __ 
 72
    65
 73
     6
 40
2.5
 49
1.25
 74
     0
 49
-0.25
 74
     0
 49
0.25
 74
     0
 49
-0.25
 74
     0
 49
0.25
 74
     0
 49
-0.25
 74
     0
  0
ENDTAB
  0
TABLE
  2
LAYER
  5
BE30
330
0
100
AcDbSymbolTable
 70
     8
  0
LAYER
  5
BE3E
102
{ACAD_XDICTIONARY
360
C2CE
102
}
330
BE30
100
AcDbSymbolTableRecord
100
AcDbLayerTableRecord
  2
0
 70
     0
 62
     7
  6
CONTINUOUS
370
    -3
390
C27C
  0
LAYER
  5
BE54
102
{ACAD_XDICTIONARY
360
C2D0
102
}
330
BE30
100
AcDbSymbolTableRecord
100
AcDbLayerTableRecord
  2
4
 70
     0
 62
     1
  6
CENTER
370
    -3
390
C27C
  0
LAYER
  5
BE55
102
{ACAD_XDICTIONARY
360
C2D2
102
}
330
BE30
100
AcDbSymbolTableRecord
100
AcDbLayerTableRecord
  2
5
 70
     0
 62
     6
  6
PHANTOM
370
    -3
390
C27C
  0
LAYER
  5
BE56
102
{ACAD_XDICTIONARY
360
C2D4
102
}
330
BE30
100
AcDbSymbolTableRecord
100
AcDbLayerTableRecord
  2
1
 70
     0
 62
     7
  6
CONTINUOUS
370
    -3
390
C27C
  0
LAYER
  5
BE57
102
{ACAD_XDICTIONARY
360
C2D6
102
}
330
BE30
100
AcDbSymbolTableRecord
100
AcDbLayerTableRecord
  2
2
 70
     0
 62
     4
  6
CONTINUOUS
370
    -3
390
C27C
  0
LAYER
  5
BE58
102
{ACAD_XDICTIONARY
360
C2D8
102
}
330
BE30
100
AcDbSymbolTableRecord
100
AcDbLayerTableRecord
  2
3
 70
     0
 62
     2
  6
DASHED
370
    -3
390
C27C
  0
LAYER
  5
BE59
102
{ACAD_XDICTIONARY
360
C2DA
102
}
330
BE30
100
AcDbSymbolTableRecord
100
AcDbLayerTableRecord
  2
6
 70
     0
 62
     5
  6
CONTINUOUS
370
    -3
390
C27C
  0
LAYER
  5
BE5A
102
{ACAD_XDICTIONARY
360
C2DC
102
}
330
BE30
100
AcDbSymbolTableRecord
100
AcDbLayerTableRecord
  2
7
 70
     0
 62
     3
  6
CONTINUOUS
370
    -3
390
C27C
  0
ENDTAB
  0
TABLE
  2
STYLE
  5
BE31
330
0
100
AcDbSymbolTable
 70
     1
  0
STYLE
  5
BE3F
330
BE31
100
AcDbSymbolTableRecord
100
AcDbTextStyleTableRecord
  2
STANDARD
 70
     0
 40
0.0
 41
1.0
 50
0.0
 71
     0
 42
5.0
  3
txt
  4

  0
ENDTAB
  0
TABLE
  2
VIEW
  5
BE34
330
0
100
AcDbSymbolTable
 70
     0
  0
ENDTAB
  0
TABLE
  2
UCS
  5
BE35
330
0
100
AcDbSymbolTable
 70
     0
  0
ENDTAB
  0
TABLE
  2
APPID
  5
BE37
330
0
100
AcDbSymbolTable
 70
     3
  0
APPID
  5
BE40
330
BE37
100
AcDbSymbolTableRecord
100
AcDbRegAppTableRecord
  2
ACAD
 70
     0
  0
APPID
  5
C2E8
330
BE37
100
AcDbSymbolTableRecord
100
AcDbRegAppTableRecord
  2
ACAD_NAV_VCDISPLAY
 70
     0
  0
APPID
  5
C321
330
BE37
100
AcDbSymbolTableRecord
100
AcDbRegAppTableRecord
  2
ACAD_MLEADERVER
 70
     0
  0
ENDTAB
  0
TABLE
  2
DIMSTYLE
  5
BE38
330
0
100
AcDbSymbolTable
 70
     1
100
AcDbDimStyleTable
 71
     0
  0
DIMSTYLE
105
BE5C
330
BE38
100
AcDbSymbolTableRecord
100
AcDbDimStyleTableRecord
  2
STANDARD
 70
     0
 41
3.0
 42
1.0
 43
10.0
 44
1.0
 73
     0
 74
     0
 77
     3
 78
     8
140
3.2
141
0.0
147
1.0
172
     1
173
     1
284
     8
285
     8
286
     8
340
BE3F
  0
ENDTAB
  0
TABLE
  2
BLOCK_RECORD
  5
BE2F
330
0
100
AcDbSymbolTable
 70
     1
  0
BLOCK_RECORD
  5
BE4C
102
{ACAD_XDICTIONARY
360
C276
102
}
330
BE2F
100
AcDbSymbolTableRecord
100
AcDbBlockTableRecord
  2
*MODEL_SPACE
340
C2CA
  0
BLOCK_RECORD
  5
BE48
102
{ACAD_XDICTIONARY
360
C274
102
}
330
BE2F
100
AcDbSymbolTableRecord
100
AcDbBlockTableRecord
  2
*PAPER_SPACE
340
C2CB
  0
BLOCK_RECORD
  5
BE64
330
BE2F
100
AcDbSymbolTableRecord
100
AcDbBlockTableRecord
  2
_OPEN
340
0
  0
ENDTAB
  0
ENDSEC
  0
SECTION
  2
BLOCKS
  0
BLOCK
  5
BE4D
330
BE4C
100
AcDbEntity
  8
0
100
AcDbBlockBegin
  2
*MODEL_SPACE
 70
     0
 10
0.0
 20
0.0
 30
0.0
  3
*MODEL_SPACE
  1

  0
ENDBLK
  5
BE4E
330
BE4C
100
AcDbEntity
  8
0
100
AcDbBlockEnd
  0
BLOCK
  5
BE49
330
BE48
100
AcDbEntity
 67
     1
  8
0
100
AcDbBlockBegin
  2
*PAPER_SPACE
 70
     0
 10
0.0
 20
0.0
 30
0.0
  3
*PAPER_SPACE
  1

  0
ENDBLK
  5
BE4A
330
BE48
100
AcDbEntity
 67
     1
  8
0
100
AcDbBlockEnd
  0
BLOCK
  5
BE65
330
BE64
100
AcDbEntity
  8
0
100
AcDbBlockBegin
  2
_OPEN
 70
     0
 10
0.0
 20
0.0
 30
0.0
  3
_OPEN
  1

  0
LINE
  5
BE66
330
BE64
100
AcDbEntity
  8
0
  6
ByBlock
 62
     0
100
AcDbLine
 10
-1.0
 20
0.166667
 30
0.0
 11
0.0
 21
0.0
 31
0.0
  0
LINE
  5
BE67
330
BE64
100
AcDbEntity
  8
0
  6
ByBlock
 62
     0
100
AcDbLine
 10
0.0
 20
0.0
 30
0.0
 11
-1.0
 21
-0.166667
 31
0.0
  0
LINE
  5
BE68
330
BE64
100
AcDbEntity
  8
0
  6
ByBlock
 62
     0
100
AcDbLine
 10
0.0
 20
0.0
 30
0.0
 11
-1.0
 21
0.0
 31
0.0
  0
ENDBLK
  5
BE69
330
BE64
100
AcDbEntity
  8
0
100
AcDbBlockEnd
  0
ENDSEC
  0
SECTION
  2
ENTITIES
  0
TEXT
  5
BE6A
330
BE4C
100
AcDbEntity
  8
7
  6
Continuous
100
AcDbText
 10
10.0
 20
18.0
 30
0.0
 40
3.0
  1
TYPE No.104S
100
AcDbText
  0
TEXT
  5
BE6B
330
BE4C
100
AcDbEntity
  8
7
  6
Continuous
100
AcDbText
 10
10.0
 20
26.0
 30
0.0
 40
3.0
  1
CODE No.9015
100
AcDbText
  0
TEXT
  5
BE6C
330
BE4C
100
AcDbEntity
  8
1
  6
Continuous
100
AcDbText
 10
10.0
 20
10.0
 30
0.0
 40
1.399999999999999
  1
LAYER
100
AcDbText
  0
TEXT
  5
BE6D
330
BE4C
100
AcDbEntity
  8
1
  6
Continuous
100
AcDbText
 10
17.97951099999998
 20
10.04873699999998
 30
0.0
 40
1.399999999999999
  1
1
100
AcDbText
  0
TEXT
  5
BE6E
330
BE4C
100
AcDbEntity
  8
7
  6
Continuous
100
AcDbText
 10
29.97951099999999
 20
10.04873699999998
 30
0.0
 40
1.399999999999999
  1
7
100
AcDbText
  0
TEXT
  5
BE6F
330
BE4C
100
AcDbEntity
  8
4
  6
CENTER
100
AcDbText
 10
23.97951099999999
 20
10.04873699999998
 30
0.0
 40
1.399999999999999
  1
4
100
AcDbText
  0
TEXT
  5
BE70
330
BE4C
100
AcDbEntity
  8
3
  6
DASHED
100
AcDbText
 10
21.979511
 20
10.04873699999998
 30
0.0
 40
1.399999999999999
  1
3
100
AcDbText
  0
TEXT
  5
BE71
330
BE4C
100
AcDbEntity
  8
2
  6
Continuous
100
AcDbText
 10
19.97951099999999
 20
10.04873699999998
 30
0.0
 40
1.399999999999999
  1
2
100
AcDbText
  0
TEXT
  5
BE72
330
BE4C
100
AcDbEntity
  8
6
  6
Continuous
100
AcDbText
 10
27.979511
 20
10.04873699999998
 30
0.0
 40
1.399999999999999
  1
6
100
AcDbText
  0
TEXT
  5
BE73
330
BE4C
100
AcDbEntity
  8
5
  6
PHANTOM
100
AcDbText
 10
25.97951099999999
 20
10.04873699999998
 30
0.0
 40
1.399999999999999
  1
5
100
AcDbText
  0
LINE
  5
BE74
330
BE4C
100
AcDbEntity
  8
4
  6
CENTER
100
AcDbLine
 10
207.0170449999999
 20
148.369317
 30
0.0
 11
257.7601399999999
 21
148.369317
 31
0.0
  0
LINE
  5
BE75
330
BE4C
100
AcDbEntity
  8
4
  6
CENTER
100
AcDbLine
 10
129.408073
 20
120.3698759999999
 30
0.0
 11
129.408073
 21
176.369876
 31
0.0
  0
LINE
  5
BE76
330
BE4C
100
AcDbEntity
  8
4
  6
CENTER
100
AcDbLine
 10
101.408073
 20
148.369876
 30
0.0
 11
157.408073
 21
148.369876
 31
0.0
  0
LINE
  5
BE77
330
BE4C
100
AcDbEntity
  8
4
  6
CENTER
100
AcDbLine
 10
149.4081879999999
 20
164.545231
 30
0.0
 11
149.4081879999999
 21
194.9908529999999
 31
0.0
  0
LINE
  5
BE78
330
BE4C
100
AcDbEntity
  8
4
  6
CENTER
100
AcDbLine
 10
183.908626
 20
246.654083
 30
0.0
 11
99.41836700000001
 21
246.654083
 31
0.0
  0
LINE
  5
BE79
330
BE4C
100
AcDbEntity
  8
1
  6
Continuous
100
AcDbLine
 10
121.908626
 20
225.654083
 30
0.0
 11
176.9086259999999
 21
225.654083
 31
0.0
  0
LINE
  5
BE7A
330
BE4C
100
AcDbEntity
  8
1
  6
Continuous
100
AcDbLine
 10
121.908626
 20
267.6540829999999
 30
0.0
 11
176.9086259999999
 21
267.6540829999999
 31
0.0
  0
LINE
  5
BE7B
330
BE4C
100
AcDbEntity
  8
4
  6
CENTER
100
AcDbLine
 10
149.4086259999999
 20
272.654083
 30
0.0
 11
149.4086259999999
 21
220.522338
 31
0.0
  0
LINE
  5
BE7C
330
BE4C
100
AcDbEntity
  8
1
  6
Continuous
100
AcDbLine
 10
119.4086259999999
 20
265.154083
 30
0.0
 11
119.4086259999999
 21
228.154083
 31
0.0
  0
CIRCLE
  5
BE7D
330
BE4C
100
AcDbEntity
  8
1
  6
Continuous
100
AcDbCircle
 10
149.4086259999999
 20
246.654083
 30
0.0
 40
8.5
  0
LINE
  5
BE7E
330
BE4C
100
AcDbEntity
  8
4
  6
CENTER
100
AcDbLine
 10
132.1586259999999
 20
232.1540829999999
 30
0.0
 11
119.6586259999999
 21
232.1540829999999
 31
0.0
  0
CIRCLE
  5
BE7F
330
BE4C
100
AcDbEntity
  8
1
  6
Continuous
100
AcDbCircle
 10
125.9086259999999
 20
232.1540829999999
 30
0.0
 40
3.25
  0
LINE
  5
BE80
330
BE4C
100
AcDbEntity
  8
4
  6
CENTER
100
AcDbLine
 10
125.9086259999999
 20
238.4040829999999
 30
0.0
 11
125.9086259999999
 21
225.9040829999999
 31
0.0
  0
ARC
  5
BE81
330
BE4C
100
AcDbEntity
  8
1
  6
Continuous
100
AcDbCircle
 10
121.908626
 20
228.154083
 30
0.0
 40
2.5
100
AcDbArc
 50
180.0
 51
270.0
  0
LINE
  5
BE82
330
BE4C
100
AcDbEntity
  8
4
  6
CENTER
100
AcDbLine
 10
132.1586259999999
 20
261.154083
 30
0.0
 11
119.6586259999999
 21
261.154083
 31
0.0
  0
CIRCLE
  5
BE83
330
BE4C
100
AcDbEntity
  8
1
  6
Continuous
100
AcDbCircle
 10
125.9086259999999
 20
261.154083
 30
0.0
 40
3.25
  0
LINE
  5
BE84
330
BE4C
100
AcDbEntity
  8
4
  6
CENTER
100
AcDbLine
 10
125.9086259999999
 20
254.904083
 30
0.0
 11
125.9086259999999
 21
267.404083
 31
0.0
  0
ARC
  5
BE85
330
BE4C
100
AcDbEntity
  8
1
  6
Continuous
100
AcDbCircle
 10
121.908626
 20
265.154083
 30
0.0
 40
2.5
100
AcDbArc
 50
90.0
 51
180.0
  0
LINE
  5
BE86
330
BE4C
100
AcDbEntity
  8
4
  6
CENTER
100
AcDbLine
 10
179.158626
 20
232.1540829999999
 30
0.0
 11
166.658626
 21
232.1540829999999
 31
0.0
  0
LINE
  5
BE87
330
BE4C
100
AcDbEntity
  8
4
  6
CENTER
100
AcDbLine
 10
172.908626
 20
238.4040829999999
 30
0.0
 11
172.908626
 21
225.9040829999999
 31
0.0
  0
CIRCLE
  5
BE88
330
BE4C
100
AcDbEntity
  8
1
  6
Continuous
100
AcDbCircle
 10
172.908626
 20
232.1540829999999
 30
0.0
 40
3.25
  0
ARC
  5
BE89
330
BE4C
100
AcDbEntity
  8
1
  6
Continuous
100
AcDbCircle
 10
176.9086259999999
 20
228.154083
 30
0.0
 40
2.5
100
AcDbArc
 50
270.0
 51
0.0
  0
LINE
  5
BE8A
330
BE4C
100
AcDbEntity
  8
4
  6
CENTER
100
AcDbLine
 10
172.908626
 20
254.904083
 30
0.0
 11
172.908626
 21
267.404083
 31
0.0
  0
ARC
  5
BE8B
330
BE4C
100
AcDbEntity
  8
1
  6
Continuous
100
AcDbCircle
 10
176.9086259999999
 20
265.154083
 30
0.0
 40
2.5
100
AcDbArc
 50
0.0
 51
90.0
  0
LINE
  5
BE8C
330
BE4C
100
AcDbEntity
  8
4
  6
CENTER
100
AcDbLine
 10
179.158626
 20
261.154083
 30
0.0
 11
166.658626
 21
261.154083
 31
0.0
  0
CIRCLE
  5
BE8D
330
BE4C
100
AcDbEntity
  8
1
  6
Continuous
100
AcDbCircle
 10
172.908626
 20
261.154083
 30
0.0
 40
3.25
  0
LINE
  5
BE8E
330
BE4C
100
AcDbEntity
  8
1
  6
Continuous
100
AcDbLine
 10
179.408626
 20
265.154083
 30
0.0
 11
179.408626
 21
228.154083
 31
0.0
  0
LINE
  5
BE8F
330
BE4C
100
AcDbEntity
  8
4
  6
CENTER
100
AcDbLine
 10
235.5168449999999
 20
194.9908529999999
 30
0.0
 11
235.5168449999999
 21
118.3693169999999
 31
0.0
  0
LINE
  5
BE90
330
BE4C
100
AcDbEntity
  8
1
  6
Continuous
100
AcDbLine
 10
254.5168449999999
 20
179.471458
 30
0.0
 11
254.5168449999999
 21
157.6942949999998
 31
0.0
  0
LINE
  5
BE91
330
BE4C
100
AcDbEntity
  8
1
  6
Continuous
100
AcDbLine
 10
222.777577
 20
145.369317
 30
0.0
 11
224.016845
 21
145.369317
 31
0.0
  0
LINE
  5
BE92
330
BE4C
100
AcDbEntity
  8
1
  6
Continuous
100
AcDbLine
 10
222.7650619999999
 20
151.3693169999999
 30
0.0
 11
224.016845
 21
151.3693169999999
 31
0.0
  0
LINE
  5
BE93
330
BE4C
100
AcDbEntity
  8
1
  6
Continuous
100
AcDbLine
 10
222.1195209999999
 20
175.7677069999998
 30
0.0
 11
248.9141689999999
 21
175.7677069999998
 31
0.0
  0
LINE
  5
BE94
330
BE4C
100
AcDbEntity
  8
1
  6
Continuous
100
AcDbLine
 10
217.0168449999999
 20
182.471527
 30
0.0
 11
254.0168449999999
 21
182.471312
 31
0.0
  0
ARC
  5
BE95
330
BE4C
100
AcDbEntity
  8
1
  6
Continuous
100
AcDbCircle
 10
219.516845
 20
179.471458
 30
0.0
 40
3.0
100
AcDbArc
 50
90.0
 51
180.0
  0
ARC
  5
BE96
330
BE4C
100
AcDbEntity
  8
1
  6
Continuous
100
AcDbCircle
 10
239.257325
 20
166.1760909999999
 30
0.0
 40
13.262575
100
AcDbArc
 50
4.189117999999997
 51
46.32007700000001
  0
ARC
  5
BE97
330
BE4C
100
AcDbEntity
  8
1
  6
Continuous
100
AcDbCircle
 10
240.398089
 20
166.259645
 30
0.0
 40
14.11875499999999
100
AcDbArc
 50
0.0
 51
33.136856
  0
ARC
  5
BE98
330
BE4C
100
AcDbEntity
  8
1
  6
Continuous
100
AcDbCircle
 10
240.398089
 20
166.259645
 30
0.0
 40
12.118755
100
AcDbArc
 50
3.236625
 51
4.189117999999997
  0
ARC
  5
BE99
330
BE4C
100
AcDbEntity
  8
1
  6
Continuous
100
AcDbCircle
 10
248.9141689999999
 20
171.8190169999998
 30
0.0
 40
3.94869
100
AcDbArc
 50
33.136856
 51
90.0
  0
ARC
  5
BE9A
330
BE4C
100
AcDbEntity
  8
1
  6
Continuous
100
AcDbCircle
 10
251.5168449999999
 20
179.471458
 30
0.0
 40
3.0
100
AcDbArc
 50
0.0
 51
90.0
  0
LINE
  5
BE9B
330
BE4C
100
AcDbEntity
  8
1
  6
Continuous
100
AcDbLine
 10
179.408188
 20
188.369573
 30
0.0
 11
119.4081879999999
 21
188.369573
 31
0.0
  0
LINE
  5
BE9C
330
BE4C
100
AcDbEntity
  8
1
  6
Continuous
100
AcDbLine
 10
179.408188
 20
190.369876
 30
0.0
 11
119.4081879999999
 21
190.369876
 31
0.0
  0
LINE
  5
BE9D
330
BE4C
100
AcDbEntity
  8
1
  6
Continuous
100
AcDbLine
 10
165.977136
 20
182.498601
 30
0.0
 11
133.1581879999999
 21
182.498601
 31
0.0
  0
ARC
  5
BE9E
330
BE4C
100
AcDbEntity
  8
1
  6
Continuous
100
AcDbCircle
 10
86.23925600000005
 20
212.636803
 30
0.0
 40
81.299728
100
AcDbArc
 50
325.0367509999999
 51
326.0955629999999
  0
ARC
  5
BE9F
330
BE4C
100
AcDbEntity
  8
1
  6
Continuous
100
AcDbCircle
 10
158.8771219999999
 20
199.8073149999999
 30
0.0
 40
25.564794
100
AcDbArc
 50
277.268991
 51
287.097823
  0
ARC
  5
BEA0
330
BE4C
100
AcDbEntity
  8
1
  6
Continuous
100
AcDbCircle
 10
166.121929
 20
147.5912319999999
 30
0.0
 40
27.174347
100
AcDbArc
 50
99.24101300000003
 51
101.2621379999999
  0
ARC
  5
BEA1
330
BE4C
100
AcDbEntity
  8
1
  6
Continuous
100
AcDbCircle
 10
161.3085289999999
 20
180.7453689999999
 30
0.0
 40
6.348405999999997
100
AcDbArc
 50
274.060533
 51
277.268991
  0
ARC
  5
BEA2
330
BE4C
100
AcDbEntity
  8
1
  6
Continuous
100
AcDbCircle
 10
176.1203489999998
 20
152.2291109999999
 30
0.0
 40
26.994778
100
AcDbArc
 50
137.7128429999999
 51
146.0955629999999
  0
ARC
  5
BEA3
330
BE4C
100
AcDbEntity
  8
1
  6
Continuous
100
AcDbCircle
 10
112.6187849999999
 20
209.985074
 30
0.0
 40
58.84344099999999
100
AcDbArc
 50
317.712843
 51
320.298966
  0
ARC
  5
BEA4
330
BE4C
100
AcDbEntity
  8
1
  6
Continuous
100
AcDbCircle
 10
164.236996
 20
165.997031
 30
0.0
 40
9.035839999999996
100
AcDbArc
 50
119.5473379999999
 51
131.621551
  0
ARC
  5
BEA5
330
BE4C
100
AcDbEntity
  8
1
  6
Continuous
100
AcDbCircle
 10
161.492693
 20
170.838233
 30
0.0
 40
3.470911
100
AcDbArc
 50
101.2621379999999
 51
119.5473379999999
  0
ARC
  5
BEA6
330
BE4C
100
AcDbEntity
  8
1
  6
Continuous
100
AcDbCircle
 10
160.401972
 20
170.313251
 30
0.0
 40
3.262005999999998
100
AcDbArc
 50
131.621551
 51
140.2989659999998
  0
ARC
  5
BEA7
330
BE4C
100
AcDbEntity
  8
1
  6
Continuous
100
AcDbCircle
 10
163.1690709999998
 20
179.01377
 30
0.0
 40
4.757115999999999
100
AcDbArc
 50
16.00725999999999
 51
38.156408
  0
ARC
  5
BEA8
330
BE4C
100
AcDbEntity
  8
1
  6
Continuous
100
AcDbCircle
 10
166.509469
 20
175.8890879999999
 30
0.0
 40
0.529613
100
AcDbArc
 50
257.3263379999999
 51
291.788685
  0
ARC
  5
BEA9
330
BE4C
100
AcDbEntity
  8
1
  6
Continuous
100
AcDbCircle
 10
167.0381159999998
 20
185.499407
 30
0.0
 40
10.10755199999998
100
AcDbArc
 50
268.1173269999998
 51
270.623572
  0
LINE
  5
BEAA
330
BE4C
100
AcDbEntity
  8
1
  6
Continuous
100
AcDbLine
 10
167.206219
 20
175.3819969999999
 30
0.0
 11
167.148119
 21
175.3924529999999
 31
0.0
  0
ARC
  5
BEAB
330
BE4C
100
AcDbEntity
  8
1
  6
Continuous
100
AcDbCircle
 10
175.0779459999999
 20
178.5241919999999
 30
0.0
 40
6.985907
100
AcDbArc
 50
178.5787389999999
 51
186.9819969999998
  0
ARC
  5
BEAC
330
BE4C
100
AcDbEntity
  8
1
  6
Continuous
100
AcDbCircle
 10
163.301721
 20
178.4759019999999
 30
0.0
 40
4.797585999999999
100
AcDbArc
 50
2.646974999999998
 51
17.117355
  0
ARC
  5
BEAD
330
BE4C
100
AcDbEntity
  8
1
  6
Continuous
100
AcDbCircle
 10
157.549482
 20
176.704375
 30
0.0
 40
10.81643699999998
100
AcDbArc
 50
17.117355
 51
19.559647
  0
ARC
  5
BEAE
330
BE4C
100
AcDbEntity
  8
1
  6
Continuous
100
AcDbCircle
 10
165.337872
 20
180.3367859999999
 30
0.0
 40
2.254351999999999
100
AcDbArc
 50
45.79309799999999
 51
73.52670899999998
  0
LINE
  5
BEAF
330
BE4C
100
AcDbEntity
  8
1
  6
Continuous
100
AcDbLine
 10
134.864046
 20
178.2874209999999
 30
0.0
 11
134.864046
 21
154.4543229999999
 31
0.0
  0
ARC
  5
BEB0
330
BE4C
100
AcDbEntity
  8
1
  6
Continuous
100
AcDbCircle
 10
130.257608
 20
147.3515769999998
 30
0.0
 40
8.139077
100
AcDbArc
 50
213.666245
 51
288.9476779999998
  0
ARC
  5
BEB1
330
BE4C
100
AcDbEntity
  8
1
  6
Continuous
100
AcDbCircle
 10
141.173177
 20
174.2241459999999
 30
0.0
 40
14.267886
100
AcDbArc
 50
314.297457
 51
325.0367509999999
  0
ARC
  5
BEB2
330
BE4C
100
AcDbEntity
  8
1
  6
Continuous
100
AcDbCircle
 10
154.0360189999999
 20
161.041931
 30
0.0
 40
4.150134999999997
100
AcDbArc
 50
134.297457
 51
146.0310519999999
  0
LINE
  5
BEB3
330
BE4C
100
AcDbEntity
  8
1
  6
Continuous
100
AcDbLine
 10
128.275711
 20
179.6524039999999
 30
0.0
 11
134.8762309999999
 21
179.6524039999999
 31
0.0
  0
ARC
  5
BEB4
330
BE4C
100
AcDbEntity
  8
1
  6
Continuous
100
AcDbCircle
 10
128.275711
 20
185.919971
 30
0.0
 40
6.267566999999997
100
AcDbArc
 50
267.0048919999999
 51
274.398035
  0
ARC
  5
BEB5
330
BE4C
100
AcDbEntity
  8
1
  6
Continuous
100
AcDbCircle
 10
133.756876
 20
178.155862
 30
0.0
 40
4.359511999999998
100
AcDbArc
 50
95.027632
 51
153.6752799999999
  0
ARC
  5
BEB6
330
BE4C
100
AcDbEntity
  8
1
  6
Continuous
100
AcDbCircle
 10
129.485943
 20
180.1001079999998
 30
0.0
 40
0.409037
100
AcDbArc
 50
274.019213
 51
314.03143
  0
ARC
  5
BEB7
330
BE4C
100
AcDbEntity
  8
1
  6
Continuous
100
AcDbCircle
 10
128.884097
 20
188.665634
 30
0.0
 40
8.995680999999997
100
AcDbArc
 50
269.1862479999999
 51
274.019213
  0
ARC
  5
BEB8
330
BE4C
100
AcDbEntity
  8
1
  6
Continuous
100
AcDbCircle
 10
129.600515
 20
179.9815949999999
 30
0.0
 40
0.2441969999999999
100
AcDbArc
 50
314.03143
 51
351.316759
  0
ARC
  5
BEB9
330
BE4C
100
AcDbEntity
  8
1
  6
Continuous
100
AcDbCircle
 10
129.1209529999999
 20
180.0548349999999
 30
0.0
 40
0.72932
100
AcDbArc
 50
351.316759
 51
2.694649
  0
ARC
  5
BEBA
330
BE4C
100
AcDbEntity
  8
1
  6
Continuous
100
AcDbCircle
 10
123.287655
 20
178.2456399999999
 30
0.0
 40
1.132387999999999
100
AcDbArc
 50
350.4059339999998
 51
9.422450999999998
  0
ARC
  5
BEBB
330
BE4C
100
AcDbEntity
  8
1
  6
Continuous
100
AcDbCircle
 10
124.828965
 20
177.963741
 30
0.0
 40
0.434857
100
AcDbArc
 50
167.628646
 51
207.2064849999999
  0
ARC
  5
BEBC
330
BE4C
100
AcDbEntity
  8
1
  6
Continuous
100
AcDbCircle
 10
69.608378
 20
180.630882
 30
0.0
 40
54.840528
100
AcDbArc
 50
357.7010379999999
 51
358.7006819999999
  0
ARC
  5
BEBD
330
BE4C
100
AcDbEntity
  8
1
  6
Continuous
100
AcDbCircle
 10
124.743789
 20
178.329744
 30
0.0
 40
0.640285
100
AcDbArc
 50
241.9011839999999
 51
272.3403379999999
  0
ARC
  5
BEBE
330
BE4C
100
AcDbEntity
  8
1
  6
Continuous
100
AcDbCircle
 10
125.0337429999998
 20
178.744698
 30
0.0
 40
0.9207059999999998
100
AcDbArc
 50
103.0833209999999
 51
126.033477
  0
ARC
  5
BEBF
330
BE4C
100
AcDbEntity
  8
1
  6
Continuous
100
AcDbCircle
 10
124.5747229999999
 20
179.3757089999998
 30
0.0
 40
0.140401
100
AcDbArc
 50
126.033477
 51
175.244581
  0
ARC
  5
BEC0
330
BE4C
100
AcDbEntity
  8
1
  6
Continuous
100
AcDbCircle
 10
125.275484
 20
177.704509
 30
0.0
 40
1.988615
100
AcDbArc
 50
88.74659499999998
 51
103.0833209999999
  0
ARC
  5
BEC1
330
BE4C
100
AcDbEntity
  8
1
  6
Continuous
100
AcDbCircle
 10
126.964977
 20
160.868749
 30
0.0
 40
18.81792199999998
100
AcDbArc
 50
87.00489199999998
 51
90.39154600000001
  0
ARC
  5
BEC2
330
BE4C
100
AcDbEntity
  8
1
  6
Continuous
100
AcDbCircle
 10
126.3676889999999
 20
248.2698109999998
 30
0.0
 40
68.58518100000001
100
AcDbArc
 50
269.1238819999999
 51
270.391546
  0
ARC
  5
BEC3
330
BE4C
100
AcDbEntity
  8
1
  6
Continuous
100
AcDbCircle
 10
231.7763649999999
 20
166.1760909999999
 30
0.0
 40
13.262575
100
AcDbArc
 50
133.679923
 51
177.089232
  0
ARC
  5
BEC4
330
BE4C
100
AcDbEntity
  8
1
  6
Continuous
100
AcDbCircle
 10
222.1195209999999
 20
171.8190169999998
 30
0.0
 40
3.94869
100
AcDbArc
 50
90.0
 51
146.863144
  0
ARC
  5
BEC5
330
BE4C
100
AcDbEntity
  8
1
  6
Continuous
100
AcDbCircle
 10
230.635601
 20
166.259645
 30
0.0
 40
14.11875499999999
100
AcDbArc
 50
146.863144
 51
180.0
  0
ARC
  5
BEC6
330
BE4C
100
AcDbEntity
  8
1
  6
Continuous
100
AcDbCircle
 10
297.4320859999999
 20
162.4823079999999
 30
0.0
 40
79.02195899999998
100
AcDbArc
 50
176.7633749999999
 51
183.473732
  0
LINE
  5
BEC7
330
BE4C
100
AcDbEntity
  8
1
  6
Continuous
100
AcDbLine
 10
216.5168449999999
 20
179.471458
 30
0.0
 11
216.5168449999999
 21
157.6942949999998
 31
0.0
  0
LINE
  5
BEC8
330
BE4C
100
AcDbEntity
  8
1
  6
Continuous
100
AcDbLine
 10
220.793099
 20
139.2125
 30
0.0
 11
222.616845
 21
139.2125
 31
0.0
  0
ARC
  5
BEC9
330
BE4C
100
AcDbEntity
  8
1
  6
Continuous
100
AcDbCircle
 10
126.486768
 20
489.3778189999999
 30
0.0
 40
311.6925539999999
100
AcDbArc
 50
269.6734769999998
 51
270.0096049999999
  0
CIRCLE
  5
BECA
330
BE4C
100
AcDbEntity
  8
1
  6
Continuous
100
AcDbCircle
 10
149.4086259999999
 20
246.654083
 30
0.0
 40
15.25
  0
CIRCLE
  5
BECB
330
BE4C
100
AcDbEntity
  8
1
  6
Continuous
100
AcDbCircle
 10
149.4086259999999
 20
246.654083
 30
0.0
 40
16.89999999999999
  0
LINE
  5
BECC
330
BE4C
100
AcDbEntity
  8
4
  6
CENTER
100
AcDbLine
 10
125.9081879999999
 20
183.369573
 30
0.0
 11
125.9081879999999
 21
194.9908529999999
 31
0.0
  0
LINE
  5
BECD
330
BE4C
100
AcDbEntity
  8
4
  6
CENTER
100
AcDbLine
 10
172.908188
 20
183.369573
 30
0.0
 11
172.908188
 21
194.9908529999999
 31
0.0
  0
LINE
  5
BECE
330
BE4C
100
AcDbEntity
  8
1
  6
Continuous
100
AcDbLine
 10
119.4081879999999
 20
188.369573
 30
0.0
 11
119.4081879999999
 21
190.369876
 31
0.0
  0
LINE
  5
BECF
330
BE4C
100
AcDbEntity
  8
1
  6
Continuous
100
AcDbLine
 10
179.408188
 20
188.369573
 30
0.0
 11
179.408188
 21
190.369876
 31
0.0
  0
LINE
  5
BED0
330
BE4C
100
AcDbEntity
  8
1
  6
Continuous
100
AcDbLine
 10
247.016845
 20
151.3693169999999
 30
0.0
 11
248.2677269999999
 21
151.3693169999999
 31
0.0
  0
LINE
  5
BED1
330
BE4C
100
AcDbEntity
  8
1
  6
Continuous
100
AcDbLine
 10
247.016845
 20
145.369317
 30
0.0
 11
248.255212
 21
145.369317
 31
0.0
  0
LINE
  5
BED2
330
BE4C
100
AcDbEntity
  8
1
  6
Continuous
100
AcDbLine
 10
126.83638
 20
179.6862319999999
 30
0.0
 11
123.3382509999999
 21
156.147107
 31
0.0
  0
LINE
  5
BED3
330
BE4C
100
AcDbEntity
  8
1
  6
Continuous
100
AcDbLine
 10
150.5941439999998
 20
163.360793
 30
0.0
 11
145.364087
 21
155.448134
 31
0.0
  0
ARC
  5
BED4
330
BE4C
100
AcDbEntity
  8
1
  6
Continuous
100
AcDbCircle
 10
37.827067
 20
148.375191
 30
0.0
 40
6.770832999999998
100
AcDbArc
 50
141.11993
 51
218.8800699999999
  0
LINE
  5
BED5
330
BE4C
100
AcDbEntity
  8
1
  6
Continuous
100
AcDbLine
 10
32.55623400000001
 20
152.625191
 30
0.0
 11
32.55623400000001
 21
144.125191
 31
0.0
  0
ARC
  5
BED6
330
BE4C
100
AcDbEntity
  8
1
  6
Continuous
100
AcDbCircle
 10
50.227455
 20
157.7001689999999
 30
0.0
 40
17.07205599999999
100
AcDbArc
 50
351.1799470000001
 51
1.573474
  0
LINE
  5
BED7
330
BE4C
100
AcDbEntity
  8
1
  6
Continuous
100
AcDbLine
 10
63.105595
 20
178.1810189999999
 30
0.0
 11
63.07347599999999
 21
162.982369
 31
0.0
  0
LINE
  5
BED8
330
BE4C
100
AcDbEntity
  8
1
  6
Continuous
100
AcDbLine
 10
61.101434
 20
176.213919
 30
0.0
 11
61.07347199999999
 21
162.982369
 31
0.0
  0
ARC
  5
BED9
330
BE4C
100
AcDbEntity
  8
1
  6
Continuous
100
AcDbCircle
 10
46.371567
 20
157.7001689999999
 30
0.0
 40
17.07205599999999
100
AcDbArc
 50
180.0
 51
207.4135329999998
  0
LINE
  5
BEDA
330
BE4C
100
AcDbEntity
  8
1
  6
Continuous
100
AcDbLine
 10
33.49342699999999
 20
178.1810189999999
 30
0.0
 11
33.575778
 21
139.2125
 31
0.0
  0
LINE
  5
BEDB
330
BE4C
100
AcDbEntity
  8
1
  6
Continuous
100
AcDbLine
 10
35.497588
 20
176.213919
 30
0.0
 11
35.575783
 21
139.2125
 31
0.0
  0
LINE
  5
BEDC
330
BE4C
100
AcDbEntity
  8
4
  6
CENTER
100
AcDbLine
 10
26.056234
 20
148.375191
 30
0.0
 11
76.79931100000001
 21
148.375191
 31
0.0
  0
LINE
  5
BEDD
330
BE4C
100
AcDbEntity
  8
1
  6
Continuous
100
AcDbLine
 10
32.55623400000001
 20
144.125191
 30
0.0
 11
33.56530999999999
 21
144.125191
 31
0.0
  0
LINE
  5
BEDE
330
BE4C
100
AcDbEntity
  8
1
  6
Continuous
100
AcDbLine
 10
35.56264500000001
 20
145.375191
 30
0.0
 11
36.79951099999998
 21
145.375191
 31
0.0
  0
LINE
  5
BEDF
330
BE4C
100
AcDbEntity
  8
1
  6
Continuous
100
AcDbLine
 10
35.54983099999999
 20
151.375191
 30
0.0
 11
36.79951099999998
 21
151.375191
 31
0.0
  0
LINE
  5
BEE0
330
BE4C
100
AcDbEntity
  8
1
  6
Continuous
100
AcDbLine
 10
59.799511
 20
145.375191
 30
0.0
 11
61.036377
 21
145.375191
 31
0.0
  0
LINE
  5
BEE1
330
BE4C
100
AcDbEntity
  8
1
  6
Continuous
100
AcDbLine
 10
34.986252
 20
184.0850069999999
 30
0.0
 11
36.986252
 21
182.4717729999999
 31
0.0
  0
LINE
  5
BEE2
330
BE4C
100
AcDbEntity
  8
1
  6
Continuous
100
AcDbLine
 10
37.57203899999999
 20
184.0850069999999
 30
0.0
 11
35.57203899999999
 21
182.4717729999999
 31
0.0
  0
LINE
  5
BEE3
330
BE4C
100
AcDbEntity
  8
1
  6
Continuous
100
AcDbLine
 10
30.57502899999999
 20
186.048113
 30
0.0
 11
66.02489300000001
 21
186.048113
 31
0.0
  0
LINE
  5
BEE4
330
BE4C
100
AcDbEntity
  8
1
  6
Continuous
100
AcDbLine
 10
29.799961
 20
184.0850069999999
 30
0.0
 11
66.799961
 21
184.0850069999999
 31
0.0
  0
LINE
  5
BEE5
330
BE4C
100
AcDbEntity
  8
1
  6
Continuous
100
AcDbLine
 10
66.799961
 20
182.4717729999999
 30
0.0
 11
29.799961
 21
182.4717729999999
 31
0.0
  0
LINE
  5
BEE6
330
BE4C
100
AcDbEntity
  8
1
  6
Continuous
100
AcDbLine
 10
30.368731
 20
186.35962
 30
0.0
 11
66.060535
 21
186.35962
 31
0.0
  0
LINE
  5
BEE7
330
BE4C
100
AcDbEntity
  8
1
  6
Continuous
100
AcDbLine
 10
27.299961
 20
188.375175
 30
0.0
 11
69.299961
 21
188.375175
 31
0.0
  0
LINE
  5
BEE8
330
BE4C
100
AcDbEntity
  8
1
  6
Continuous
100
AcDbLine
 10
27.299961
 20
190.3751749999999
 30
0.0
 11
69.299961
 21
190.3751749999999
 31
0.0
  0
LINE
  5
BEE9
330
BE4C
100
AcDbEntity
  8
1
  6
Continuous
100
AcDbLine
 10
34.99342399999999
 20
179.684189
 30
0.0
 11
61.605598
 21
179.684189
 31
0.0
  0
LINE
  5
BEEA
330
BE4C
100
AcDbEntity
  8
1
  6
Continuous
100
AcDbLine
 10
29.299511
 20
179.972115
 30
0.0
 11
29.299511
 21
157.7001689999999
 31
0.0
  0
LINE
  5
BEEB
330
BE4C
100
AcDbEntity
  8
1
  6
Continuous
100
AcDbLine
 10
32.55623400000001
 20
152.625191
 30
0.0
 11
33.54715699999999
 21
152.625191
 31
0.0
  0
ARC
  5
BEEC
330
BE4C
100
AcDbEntity
  8
1
  6
Continuous
100
AcDbCircle
 10
30.53938699999999
 20
189.9706199999999
 30
0.0
 40
3.611
100
AcDbArc
 50
206.220637
 51
270.0
  0
ARC
  5
BEED
330
BE4C
100
AcDbEntity
  8
1
  6
Continuous
100
AcDbCircle
 10
31.799511
 20
179.972115
 30
0.0
 40
2.5
100
AcDbArc
 50
90.0
 51
180.0
  0
LINE
  5
BEEE
330
BE4C
100
AcDbEntity
  8
1
  6
Continuous
100
AcDbLine
 10
32.157825
 20
184.0850069999999
 30
0.0
 11
34.15782500000001
 21
182.4717729999999
 31
0.0
  0
LINE
  5
BEEF
330
BE4C
100
AcDbEntity
  8
1
  6
Continuous
100
AcDbLine
 10
33.329398
 20
184.0850069999999
 30
0.0
 11
31.32939799999999
 21
182.4717729999999
 31
0.0
  0
LINE
  5
BEF0
330
BE4C
100
AcDbEntity
  8
1
  6
Continuous
100
AcDbLine
 10
34.743612
 20
184.0850069999999
 30
0.0
 11
32.74361199999999
 21
182.4717729999999
 31
0.0
  0
LINE
  5
BEF1
330
BE4C
100
AcDbEntity
  8
1
  6
Continuous
100
AcDbLine
 10
29.799961
 20
183.6144439999999
 30
0.0
 11
31.32939799999999
 21
182.4717729999999
 31
0.0
  0
LINE
  5
BEF2
330
BE4C
100
AcDbEntity
  8
1
  6
Continuous
100
AcDbLine
 10
29.799961
 20
183.3839969999999
 30
0.0
 11
30.500971
 21
184.0850069999999
 31
0.0
  0
LINE
  5
BEF3
330
BE4C
100
AcDbEntity
  8
1
  6
Continuous
100
AcDbLine
 10
31.91518499999999
 20
184.0850069999999
 30
0.0
 11
29.91518499999999
 21
182.4717729999999
 31
0.0
  0
LINE
  5
BEF4
330
BE4C
100
AcDbEntity
  8
1
  6
Continuous
100
AcDbLine
 10
29.799961
 20
184.0850069999999
 30
0.0
 11
29.799961
 21
182.4717729999999
 31
0.0
  0
ARC
  5
BEF5
330
BE4C
100
AcDbEntity
  8
1
  6
Continuous
100
AcDbCircle
 10
30.754292
 20
185.2310759999998
 30
0.0
 40
0.8364709999999998
100
AcDbArc
 50
102.3749159999999
 51
160.6585409999999
  0
ARC
  5
BEF6
330
BE4C
100
AcDbEntity
  8
1
  6
Continuous
100
AcDbCircle
 10
36.21173499999999
 20
186.936358
 30
0.0
 40
6.407901999999999
100
AcDbArc
 50
192.8787169999999
 51
206.4216889999999
  0
LINE
  5
BEF7
330
BE4C
100
AcDbEntity
  8
1
  6
Continuous
100
AcDbLine
 10
36.157825
 20
184.0850069999999
 30
0.0
 11
34.15782500000001
 21
182.4717729999999
 31
0.0
  0
LINE
  5
BEF8
330
BE4C
100
AcDbEntity
  8
1
  6
Continuous
100
AcDbLine
 10
27.299961
 20
188.375175
 30
0.0
 11
27.299961
 21
190.3751749999999
 31
0.0
  0
LINE
  5
BEF9
330
BE4C
100
AcDbEntity
  8
1
  6
Continuous
100
AcDbLine
 10
67.299511
 20
179.972115
 30
0.0
 11
67.299511
 21
162.932128
 31
0.0
  0
LINE
  5
BEFA
330
BE4C
100
AcDbEntity
  8
1
  6
Continuous
100
AcDbLine
 10
51.956815
 20
184.0850069999999
 30
0.0
 11
53.956815
 21
182.4717729999999
 31
0.0
  0
LINE
  5
BEFB
330
BE4C
100
AcDbEntity
  8
1
  6
Continuous
100
AcDbLine
 10
54.542602
 20
184.0850069999999
 30
0.0
 11
52.542602
 21
182.4717729999999
 31
0.0
  0
LINE
  5
BEFC
330
BE4C
100
AcDbEntity
  8
1
  6
Continuous
100
AcDbLine
 10
43.47153399999998
 20
184.0850069999999
 30
0.0
 11
45.471534
 21
182.4717729999999
 31
0.0
  0
LINE
  5
BEFD
330
BE4C
100
AcDbEntity
  8
1
  6
Continuous
100
AcDbLine
 10
46.05731999999998
 20
184.0850069999999
 30
0.0
 11
44.05731999999999
 21
182.4717729999999
 31
0.0
  0
LINE
  5
BEFE
330
BE4C
100
AcDbEntity
  8
1
  6
Continuous
100
AcDbLine
 10
37.146993
 20
179.812332
 30
0.0
 11
59.452029
 21
179.812332
 31
0.0
  0
LINE
  5
BEFF
330
BE4C
100
AcDbEntity
  8
1
  6
Continuous
100
AcDbLine
 10
40.643107
 20
184.0850069999999
 30
0.0
 11
42.643107
 21
182.4717729999999
 31
0.0
  0
LINE
  5
BF00
330
BE4C
100
AcDbEntity
  8
1
  6
Continuous
100
AcDbLine
 10
41.81467999999997
 20
184.0850069999999
 30
0.0
 11
39.81467999999999
 21
182.4717729999999
 31
0.0
  0
LINE
  5
BF01
330
BE4C
100
AcDbEntity
  8
1
  6
Continuous
100
AcDbLine
 10
37.81467999999998
 20
184.0850069999999
 30
0.0
 11
39.81467999999999
 21
182.4717729999999
 31
0.0
  0
LINE
  5
BF02
330
BE4C
100
AcDbEntity
  8
1
  6
Continuous
100
AcDbLine
 10
38.986252
 20
184.0850069999999
 30
0.0
 11
36.986252
 21
182.4717729999999
 31
0.0
  0
LINE
  5
BF03
330
BE4C
100
AcDbEntity
  8
1
  6
Continuous
100
AcDbLine
 10
40.40046599999999
 20
184.0850069999999
 30
0.0
 11
38.40046599999999
 21
182.4717729999999
 31
0.0
  0
LINE
  5
BF04
330
BE4C
100
AcDbEntity
  8
1
  6
Continuous
100
AcDbLine
 10
43.22889299999999
 20
184.0850069999999
 30
0.0
 11
41.22889299999999
 21
182.4717729999999
 31
0.0
  0
LINE
  5
BF05
330
BE4C
100
AcDbEntity
  8
1
  6
Continuous
100
AcDbLine
 10
44.643107
 20
184.0850069999999
 30
0.0
 11
42.643107
 21
182.4717729999999
 31
0.0
  0
LINE
  5
BF06
330
BE4C
100
AcDbEntity
  8
1
  6
Continuous
100
AcDbLine
 10
49.128388
 20
184.0850069999999
 30
0.0
 11
51.128388
 21
182.4717729999999
 31
0.0
  0
LINE
  5
BF07
330
BE4C
100
AcDbEntity
  8
1
  6
Continuous
100
AcDbLine
 10
50.29996099999999
 20
184.0850069999999
 30
0.0
 11
48.29996099999998
 21
182.4717729999999
 31
0.0
  0
LINE
  5
BF08
330
BE4C
100
AcDbEntity
  8
1
  6
Continuous
100
AcDbLine
 10
46.29996099999998
 20
184.0850069999999
 30
0.0
 11
48.29996099999998
 21
182.4717729999999
 31
0.0
  0
LINE
  5
BF09
330
BE4C
100
AcDbEntity
  8
1
  6
Continuous
100
AcDbLine
 10
47.47153400000001
 20
184.0850069999999
 30
0.0
 11
45.471534
 21
182.4717729999999
 31
0.0
  0
LINE
  5
BF0A
330
BE4C
100
AcDbEntity
  8
1
  6
Continuous
100
AcDbLine
 10
48.88574699999999
 20
184.0850069999999
 30
0.0
 11
46.88574699999999
 21
182.4717729999999
 31
0.0
  0
LINE
  5
BF0B
330
BE4C
100
AcDbEntity
  8
1
  6
Continuous
100
AcDbLine
 10
53.128388
 20
184.0850069999999
 30
0.0
 11
51.128388
 21
182.4717729999999
 31
0.0
  0
LINE
  5
BF0C
330
BE4C
100
AcDbEntity
  8
1
  6
Continuous
100
AcDbLine
 10
51.714175
 20
184.0850069999999
 30
0.0
 11
49.714175
 21
182.4717729999999
 31
0.0
  0
ARC
  5
BF0D
330
BE4C
100
AcDbEntity
  8
1
  6
Continuous
100
AcDbCircle
 10
66.060535
 20
189.9706199999999
 30
0.0
 40
3.611
100
AcDbArc
 50
270.0
 51
333.779363
  0
LINE
  5
BF0E
330
BE4C
100
AcDbEntity
  8
1
  6
Continuous
100
AcDbLine
 10
60.44209699999999
 20
184.0850069999999
 30
0.0
 11
62.44209699999998
 21
182.4717729999999
 31
0.0
  0
LINE
  5
BF0F
330
BE4C
100
AcDbEntity
  8
1
  6
Continuous
100
AcDbLine
 10
63.02788299999999
 20
184.0850069999999
 30
0.0
 11
61.027883
 21
182.4717729999999
 31
0.0
  0
LINE
  5
BF10
330
BE4C
100
AcDbEntity
  8
1
  6
Continuous
100
AcDbLine
 10
61.61366899999999
 20
184.0850069999999
 30
0.0
 11
59.61366899999998
 21
182.4717729999999
 31
0.0
  0
LINE
  5
BF11
330
BE4C
100
AcDbEntity
  8
1
  6
Continuous
100
AcDbLine
 10
58.78524200000001
 20
184.0850069999999
 30
0.0
 11
56.785242
 21
182.4717729999999
 31
0.0
  0
LINE
  5
BF12
330
BE4C
100
AcDbEntity
  8
1
  6
Continuous
100
AcDbLine
 10
54.78524199999998
 20
184.0850069999999
 30
0.0
 11
56.785242
 21
182.4717729999999
 31
0.0
  0
LINE
  5
BF13
330
BE4C
100
AcDbEntity
  8
1
  6
Continuous
100
AcDbLine
 10
57.371029
 20
184.0850069999999
 30
0.0
 11
55.371029
 21
182.4717729999999
 31
0.0
  0
LINE
  5
BF14
330
BE4C
100
AcDbEntity
  8
1
  6
Continuous
100
AcDbLine
 10
55.956815
 20
184.0850069999999
 30
0.0
 11
53.956815
 21
182.4717729999999
 31
0.0
  0
LINE
  5
BF15
330
BE4C
100
AcDbEntity
  8
1
  6
Continuous
100
AcDbLine
 10
57.61366899999998
 20
184.0850069999999
 30
0.0
 11
59.61366899999998
 21
182.4717729999999
 31
0.0
  0
LINE
  5
BF16
330
BE4C
100
AcDbEntity
  8
1
  6
Continuous
100
AcDbLine
 10
60.19945599999999
 20
184.0850069999999
 30
0.0
 11
58.199456
 21
182.4717729999999
 31
0.0
  0
ARC
  5
BF17
330
BE4C
100
AcDbEntity
  8
1
  6
Continuous
100
AcDbCircle
 10
64.799511
 20
179.972115
 30
0.0
 40
2.5
100
AcDbArc
 50
0.0
 51
90.0
  0
LINE
  5
BF18
330
BE4C
100
AcDbEntity
  8
1
  6
Continuous
100
AcDbLine
 10
66.799961
 20
183.6144439999999
 30
0.0
 11
65.27052399999999
 21
182.4717729999999
 31
0.0
  0
LINE
  5
BF19
330
BE4C
100
AcDbEntity
  8
1
  6
Continuous
100
AcDbLine
 10
65.85630999999999
 20
184.0850069999999
 30
0.0
 11
63.85631
 21
182.4717729999999
 31
0.0
  0
LINE
  5
BF1A
330
BE4C
100
AcDbEntity
  8
1
  6
Continuous
100
AcDbLine
 10
63.270524
 20
184.0850069999999
 30
0.0
 11
65.27052399999999
 21
182.4717729999999
 31
0.0
  0
LINE
  5
BF1B
330
BE4C
100
AcDbEntity
  8
1
  6
Continuous
100
AcDbLine
 10
64.442097
 20
184.0850069999999
 30
0.0
 11
62.44209699999998
 21
182.4717729999999
 31
0.0
  0
LINE
  5
BF1C
330
BE4C
100
AcDbEntity
  8
1
  6
Continuous
100
AcDbLine
 10
66.098951
 20
184.0850069999999
 30
0.0
 11
66.799961
 21
183.3839969999999
 31
0.0
  0
LINE
  5
BF1D
330
BE4C
100
AcDbEntity
  8
1
  6
Continuous
100
AcDbLine
 10
66.799961
 20
182.586996
 30
0.0
 11
66.68473699999998
 21
182.4717729999999
 31
0.0
  0
LINE
  5
BF1E
330
BE4C
100
AcDbEntity
  8
1
  6
Continuous
100
AcDbLine
 10
66.799961
 20
184.0850069999999
 30
0.0
 11
66.799961
 21
182.4717729999999
 31
0.0
  0
ARC
  5
BF1F
330
BE4C
100
AcDbEntity
  8
1
  6
Continuous
100
AcDbCircle
 10
65.84563
 20
185.2310759999998
 30
0.0
 40
0.8364709999999998
100
AcDbArc
 50
19.341459
 51
77.625084
  0
ARC
  5
BF20
330
BE4C
100
AcDbEntity
  8
1
  6
Continuous
100
AcDbCircle
 10
60.388187
 20
186.936358
 30
0.0
 40
6.407901999999999
100
AcDbArc
 50
334.3555600000001
 51
347.121283
  0
LINE
  5
BF21
330
BE4C
100
AcDbEntity
  8
1
  6
Continuous
100
AcDbLine
 10
69.299961
 20
190.3751749999999
 30
0.0
 11
69.299961
 21
188.375175
 31
0.0
  0
LINE
  5
BF22
330
BE4C
100
AcDbEntity
  8
4
  6
CENTER
100
AcDbLine
 10
48.29951099999998
 20
195.375175
 30
0.0
 11
48.29951099999998
 21
118.3751909999999
 31
0.0
  0
LINE
  5
BF23
330
BE4C
100
AcDbEntity
  8
1
  6
Continuous
100
AcDbLine
 10
225.031564
 20
184.084653
 30
0.0
 11
227.031564
 21
182.47142
 31
0.0
  0
LINE
  5
BF24
330
BE4C
100
AcDbEntity
  8
1
  6
Continuous
100
AcDbLine
 10
226.2031359999999
 20
184.084653
 30
0.0
 11
224.2031359999999
 21
182.47142
 31
0.0
  0
LINE
  5
BF25
330
BE4C
100
AcDbEntity
  8
1
  6
Continuous
100
AcDbLine
 10
227.61735
 20
184.084653
 30
0.0
 11
225.61735
 21
182.47142
 31
0.0
  0
LINE
  5
BF26
330
BE4C
100
AcDbEntity
  8
1
  6
Continuous
100
AcDbLine
 10
217.5856149999999
 20
186.3592659999999
 30
0.0
 11
253.277419
 21
186.3592659999999
 31
0.0
  0
LINE
  5
BF27
330
BE4C
100
AcDbEntity
  8
1
  6
Continuous
100
AcDbLine
 10
214.5168449999999
 20
190.374821
 30
0.0
 11
256.5168449999999
 21
190.374821
 31
0.0
  0
LINE
  5
BF28
330
BE4C
100
AcDbEntity
  8
1
  6
Continuous
100
AcDbLine
 10
214.5168449999999
 20
188.374821
 30
0.0
 11
256.5168449999999
 21
188.374821
 31
0.0
  0
LINE
  5
BF29
330
BE4C
100
AcDbEntity
  8
1
  6
Continuous
100
AcDbLine
 10
217.0168449999999
 20
184.084653
 30
0.0
 11
254.0168449999999
 21
184.084653
 31
0.0
  0
LINE
  5
BF2A
330
BE4C
100
AcDbEntity
  8
1
  6
Continuous
100
AcDbLine
 10
217.7919129999999
 20
186.047759
 30
0.0
 11
253.241777
 21
186.047759
 31
0.0
  0
LINE
  5
BF2B
330
BE4C
100
AcDbEntity
  8
1
  6
Continuous
100
AcDbLine
 10
222.2031359999999
 20
184.084653
 30
0.0
 11
224.2031359999999
 21
182.47142
 31
0.0
  0
LINE
  5
BF2C
330
BE4C
100
AcDbEntity
  8
1
  6
Continuous
100
AcDbLine
 10
223.374709
 20
184.084653
 30
0.0
 11
221.374709
 21
182.47142
 31
0.0
  0
LINE
  5
BF2D
330
BE4C
100
AcDbEntity
  8
1
  6
Continuous
100
AcDbLine
 10
219.374709
 20
184.084653
 30
0.0
 11
221.374709
 21
182.47142
 31
0.0
  0
LINE
  5
BF2E
330
BE4C
100
AcDbEntity
  8
1
  6
Continuous
100
AcDbLine
 10
220.546282
 20
184.084653
 30
0.0
 11
218.546282
 21
182.47142
 31
0.0
  0
LINE
  5
BF2F
330
BE4C
100
AcDbEntity
  8
1
  6
Continuous
100
AcDbLine
 10
221.960496
 20
184.084653
 30
0.0
 11
219.960496
 21
182.47142
 31
0.0
  0
LINE
  5
BF30
330
BE4C
100
AcDbEntity
  8
1
  6
Continuous
100
AcDbLine
 10
217.0168449999999
 20
183.61409
 30
0.0
 11
218.546282
 21
182.47142
 31
0.0
  0
LINE
  5
BF31
330
BE4C
100
AcDbEntity
  8
1
  6
Continuous
100
AcDbLine
 10
219.1320689999999
 20
184.084653
 30
0.0
 11
217.1320689999999
 21
182.47142
 31
0.0
  0
LINE
  5
BF32
330
BE4C
100
AcDbEntity
  8
1
  6
Continuous
100
AcDbLine
 10
217.0168449999999
 20
184.084653
 30
0.0
 11
217.0168449999999
 21
182.471527
 31
0.0
  0
LINE
  5
BF33
330
BE4C
100
AcDbEntity
  8
1
  6
Continuous
100
AcDbLine
 10
214.5168449999999
 20
188.374821
 30
0.0
 11
214.5168449999999
 21
190.374821
 31
0.0
  0
ARC
  5
BF34
330
BE4C
100
AcDbEntity
  8
1
  6
Continuous
100
AcDbCircle
 10
223.428619
 20
186.936004
 30
0.0
 40
6.407901999999999
100
AcDbArc
 50
192.8787169999999
 51
206.4216889999999
  0
ARC
  5
BF35
330
BE4C
100
AcDbEntity
  8
1
  6
Continuous
100
AcDbCircle
 10
217.9711759999999
 20
185.2307219999999
 30
0.0
 40
0.8364709999999998
100
AcDbArc
 50
102.3749159999999
 51
160.6585409999999
  0
LINE
  5
BF36
330
BE4C
100
AcDbEntity
  8
1
  6
Continuous
100
AcDbLine
 10
217.0168449999999
 20
183.383643
 30
0.0
 11
217.7178549999999
 21
184.084653
 31
0.0
  0
ARC
  5
BF37
330
BE4C
100
AcDbEntity
  8
1
  6
Continuous
100
AcDbCircle
 10
217.756271
 20
189.9702659999999
 30
0.0
 40
3.611
100
AcDbArc
 50
206.220637
 51
270.0
  0
LINE
  5
BF38
330
BE4C
100
AcDbEntity
  8
1
  6
Continuous
100
AcDbLine
 10
224.788923
 20
184.084653
 30
0.0
 11
222.788923
 21
182.47142
 31
0.0
  0
LINE
  5
BF39
330
BE4C
100
AcDbEntity
  8
1
  6
Continuous
100
AcDbLine
 10
243.173699
 20
184.084653
 30
0.0
 11
241.173699
 21
182.47142
 31
0.0
  0
LINE
  5
BF3A
330
BE4C
100
AcDbEntity
  8
1
  6
Continuous
100
AcDbLine
 10
236.345272
 20
184.084653
 30
0.0
 11
238.345272
 21
182.47142
 31
0.0
  0
LINE
  5
BF3B
330
BE4C
100
AcDbEntity
  8
1
  6
Continuous
100
AcDbLine
 10
238.931059
 20
184.084653
 30
0.0
 11
236.9310589999999
 21
182.47142
 31
0.0
  0
LINE
  5
BF3C
330
BE4C
100
AcDbEntity
  8
1
  6
Continuous
100
AcDbLine
 10
230.688418
 20
184.084653
 30
0.0
 11
232.6884179999999
 21
182.47142
 31
0.0
  0
LINE
  5
BF3D
330
BE4C
100
AcDbEntity
  8
1
  6
Continuous
100
AcDbLine
 10
233.2742039999998
 20
184.084653
 30
0.0
 11
231.2742039999999
 21
182.47142
 31
0.0
  0
LINE
  5
BF3E
330
BE4C
100
AcDbEntity
  8
1
  6
Continuous
100
AcDbLine
 10
231.859991
 20
184.084653
 30
0.0
 11
229.859991
 21
182.47142
 31
0.0
  0
LINE
  5
BF3F
330
BE4C
100
AcDbEntity
  8
1
  6
Continuous
100
AcDbLine
 10
237.5168449999999
 20
184.084653
 30
0.0
 11
235.5168449999999
 21
182.47142
 31
0.0
  0
LINE
  5
BF40
330
BE4C
100
AcDbEntity
  8
1
  6
Continuous
100
AcDbLine
 10
233.5168449999999
 20
184.084653
 30
0.0
 11
235.5168449999999
 21
182.47142
 31
0.0
  0
LINE
  5
BF41
330
BE4C
100
AcDbEntity
  8
1
  6
Continuous
100
AcDbLine
 10
234.6884179999999
 20
184.084653
 30
0.0
 11
232.6884179999999
 21
182.47142
 31
0.0
  0
LINE
  5
BF42
330
BE4C
100
AcDbEntity
  8
1
  6
Continuous
100
AcDbLine
 10
236.102631
 20
184.084653
 30
0.0
 11
234.102631
 21
182.47142
 31
0.0
  0
LINE
  5
BF43
330
BE4C
100
AcDbEntity
  8
1
  6
Continuous
100
AcDbLine
 10
239.173699
 20
184.084653
 30
0.0
 11
241.173699
 21
182.47142
 31
0.0
  0
LINE
  5
BF44
330
BE4C
100
AcDbEntity
  8
1
  6
Continuous
100
AcDbLine
 10
241.7594859999999
 20
184.084653
 30
0.0
 11
239.7594859999999
 21
182.47142
 31
0.0
  0
LINE
  5
BF45
330
BE4C
100
AcDbEntity
  8
1
  6
Continuous
100
AcDbLine
 10
240.345272
 20
184.084653
 30
0.0
 11
238.345272
 21
182.47142
 31
0.0
  0
LINE
  5
BF46
330
BE4C
100
AcDbEntity
  8
1
  6
Continuous
100
AcDbLine
 10
229.031564
 20
184.084653
 30
0.0
 11
227.031564
 21
182.47142
 31
0.0
  0
LINE
  5
BF47
330
BE4C
100
AcDbEntity
  8
1
  6
Continuous
100
AcDbLine
 10
227.859991
 20
184.084653
 30
0.0
 11
229.859991
 21
182.47142
 31
0.0
  0
LINE
  5
BF48
330
BE4C
100
AcDbEntity
  8
1
  6
Continuous
100
AcDbLine
 10
230.4457769999999
 20
184.084653
 30
0.0
 11
228.4457769999999
 21
182.47142
 31
0.0
  0
ARC
  5
BF49
330
BE4C
100
AcDbEntity
  8
1
  6
Continuous
100
AcDbCircle
 10
253.277419
 20
189.9702659999999
 30
0.0
 40
3.611
100
AcDbArc
 50
270.0
 51
333.779363
  0
LINE
  5
BF4A
330
BE4C
100
AcDbEntity
  8
1
  6
Continuous
100
AcDbLine
 10
247.658981
 20
184.084653
 30
0.0
 11
249.658981
 21
182.47142
 31
0.0
  0
LINE
  5
BF4B
330
BE4C
100
AcDbEntity
  8
1
  6
Continuous
100
AcDbLine
 10
250.244767
 20
184.084653
 30
0.0
 11
248.2447669999999
 21
182.47142
 31
0.0
  0
LINE
  5
BF4C
330
BE4C
100
AcDbEntity
  8
1
  6
Continuous
100
AcDbLine
 10
248.8305529999999
 20
184.084653
 30
0.0
 11
246.8305529999999
 21
182.47142
 31
0.0
  0
LINE
  5
BF4D
330
BE4C
100
AcDbEntity
  8
1
  6
Continuous
100
AcDbLine
 10
254.0168449999999
 20
183.61409
 30
0.0
 11
252.487408
 21
182.47142
 31
0.0
  0
LINE
  5
BF4E
330
BE4C
100
AcDbEntity
  8
1
  6
Continuous
100
AcDbLine
 10
253.0731939999999
 20
184.084653
 30
0.0
 11
251.0731939999998
 21
182.47142
 31
0.0
  0
LINE
  5
BF4F
330
BE4C
100
AcDbEntity
  8
1
  6
Continuous
100
AcDbLine
 10
250.487408
 20
184.084653
 30
0.0
 11
252.487408
 21
182.47142
 31
0.0
  0
LINE
  5
BF50
330
BE4C
100
AcDbEntity
  8
1
  6
Continuous
100
AcDbLine
 10
251.658981
 20
184.084653
 30
0.0
 11
249.658981
 21
182.47142
 31
0.0
  0
LINE
  5
BF51
330
BE4C
100
AcDbEntity
  8
1
  6
Continuous
100
AcDbLine
 10
254.0168449999999
 20
182.5866429999999
 30
0.0
 11
253.901621
 21
182.47142
 31
0.0
  0
LINE
  5
BF52
330
BE4C
100
AcDbEntity
  8
1
  6
Continuous
100
AcDbLine
 10
254.0168449999999
 20
184.084653
 30
0.0
 11
254.0168449999999
 21
182.471312
 31
0.0
  0
ARC
  5
BF53
330
BE4C
100
AcDbEntity
  8
1
  6
Continuous
100
AcDbCircle
 10
247.6050709999999
 20
186.936004
 30
0.0
 40
6.407901999999999
100
AcDbArc
 50
334.3555600000001
 51
347.121283
  0
ARC
  5
BF54
330
BE4C
100
AcDbEntity
  8
1
  6
Continuous
100
AcDbCircle
 10
253.062514
 20
185.2307219999999
 30
0.0
 40
0.8364709999999998
100
AcDbArc
 50
19.341459
 51
77.625084
  0
LINE
  5
BF55
330
BE4C
100
AcDbEntity
  8
1
  6
Continuous
100
AcDbLine
 10
253.3158349999999
 20
184.084653
 30
0.0
 11
254.0168449999999
 21
183.383643
 31
0.0
  0
LINE
  5
BF56
330
BE4C
100
AcDbEntity
  8
1
  6
Continuous
100
AcDbLine
 10
256.5168449999999
 20
190.374821
 30
0.0
 11
256.5168449999999
 21
188.374821
 31
0.0
  0
LINE
  5
BF57
330
BE4C
100
AcDbEntity
  8
1
  6
Continuous
100
AcDbLine
 10
242.0021259999999
 20
184.084653
 30
0.0
 11
244.0021259999999
 21
182.47142
 31
0.0
  0
LINE
  5
BF58
330
BE4C
100
AcDbEntity
  8
1
  6
Continuous
100
AcDbLine
 10
244.5879129999999
 20
184.084653
 30
0.0
 11
242.5879129999999
 21
182.47142
 31
0.0
  0
LINE
  5
BF59
330
BE4C
100
AcDbEntity
  8
1
  6
Continuous
100
AcDbLine
 10
246.0021259999999
 20
184.084653
 30
0.0
 11
244.0021259999999
 21
182.47142
 31
0.0
  0
LINE
  5
BF5A
330
BE4C
100
AcDbEntity
  8
1
  6
Continuous
100
AcDbLine
 10
244.8305529999999
 20
184.084653
 30
0.0
 11
246.8305529999999
 21
182.47142
 31
0.0
  0
LINE
  5
BF5B
330
BE4C
100
AcDbEntity
  8
1
  6
Continuous
100
AcDbLine
 10
247.41634
 20
184.084653
 30
0.0
 11
245.41634
 21
182.47142
 31
0.0
  0
LINE
  5
BF5C
330
BE4C
100
AcDbEntity
  8
1
  6
Continuous
100
AcDbLine
 10
138.922907
 20
184.111835
 30
0.0
 11
140.922907
 21
182.498601
 31
0.0
  0
LINE
  5
BF5D
330
BE4C
100
AcDbEntity
  8
1
  6
Continuous
100
AcDbLine
 10
140.094479
 20
184.111835
 30
0.0
 11
138.094479
 21
182.498601
 31
0.0
  0
LINE
  5
BF5E
330
BE4C
100
AcDbEntity
  8
1
  6
Continuous
100
AcDbLine
 10
141.508693
 20
184.111835
 30
0.0
 11
139.5086929999999
 21
182.498601
 31
0.0
  0
LINE
  5
BF5F
330
BE4C
100
AcDbEntity
  8
1
  6
Continuous
100
AcDbLine
 10
131.4769579999999
 20
186.386448
 30
0.0
 11
167.1687619999999
 21
186.386448
 31
0.0
  0
LINE
  5
BF60
330
BE4C
100
AcDbEntity
  8
1
  6
Continuous
100
AcDbLine
 10
167.908188
 20
182.498601
 30
0.0
 11
130.9081879999999
 21
182.498601
 31
0.0
  0
LINE
  5
BF61
330
BE4C
100
AcDbEntity
  8
1
  6
Continuous
100
AcDbLine
 10
130.9081879999999
 20
184.111835
 30
0.0
 11
167.908188
 21
184.111835
 31
0.0
  0
LINE
  5
BF62
330
BE4C
100
AcDbEntity
  8
1
  6
Continuous
100
AcDbLine
 10
131.6832559999998
 20
186.074941
 30
0.0
 11
167.13312
 21
186.074941
 31
0.0
  0
LINE
  5
BF63
330
BE4C
100
AcDbEntity
  8
1
  6
Continuous
100
AcDbLine
 10
136.094479
 20
184.111835
 30
0.0
 11
138.094479
 21
182.498601
 31
0.0
  0
LINE
  5
BF64
330
BE4C
100
AcDbEntity
  8
1
  6
Continuous
100
AcDbLine
 10
137.2660519999998
 20
184.111835
 30
0.0
 11
135.266052
 21
182.498601
 31
0.0
  0
LINE
  5
BF65
330
BE4C
100
AcDbEntity
  8
1
  6
Continuous
100
AcDbLine
 10
133.266052
 20
184.111835
 30
0.0
 11
135.266052
 21
182.498601
 31
0.0
  0
LINE
  5
BF66
330
BE4C
100
AcDbEntity
  8
1
  6
Continuous
100
AcDbLine
 10
134.437625
 20
184.111835
 30
0.0
 11
132.437625
 21
182.498601
 31
0.0
  0
LINE
  5
BF67
330
BE4C
100
AcDbEntity
  8
1
  6
Continuous
100
AcDbLine
 10
135.8518389999999
 20
184.111835
 30
0.0
 11
133.8518389999999
 21
182.498601
 31
0.0
  0
LINE
  5
BF68
330
BE4C
100
AcDbEntity
  8
1
  6
Continuous
100
AcDbLine
 10
130.9081879999999
 20
183.641272
 30
0.0
 11
132.437625
 21
182.498601
 31
0.0
  0
LINE
  5
BF69
330
BE4C
100
AcDbEntity
  8
1
  6
Continuous
100
AcDbLine
 10
133.023412
 20
184.111835
 30
0.0
 11
131.023412
 21
182.498601
 31
0.0
  0
LINE
  5
BF6A
330
BE4C
100
AcDbEntity
  8
1
  6
Continuous
100
AcDbLine
 10
130.9081879999999
 20
184.111835
 30
0.0
 11
130.9081879999999
 21
182.498601
 31
0.0
  0
ARC
  5
BF6B
330
BE4C
100
AcDbEntity
  8
1
  6
Continuous
100
AcDbCircle
 10
137.319962
 20
186.963186
 30
0.0
 40
6.407901999999999
100
AcDbArc
 50
192.8787169999999
 51
206.4216889999999
  0
ARC
  5
BF6C
330
BE4C
100
AcDbEntity
  8
1
  6
Continuous
100
AcDbCircle
 10
131.8625189999999
 20
185.2579039999999
 30
0.0
 40
0.8364709999999998
100
AcDbArc
 50
102.3749159999999
 51
160.6585409999999
  0
LINE
  5
BF6D
330
BE4C
100
AcDbEntity
  8
1
  6
Continuous
100
AcDbLine
 10
130.9081879999999
 20
183.4108249999999
 30
0.0
 11
131.6091979999999
 21
184.111835
 31
0.0
  0
ARC
  5
BF6E
330
BE4C
100
AcDbEntity
  8
1
  6
Continuous
100
AcDbCircle
 10
131.6476139999998
 20
189.997448
 30
0.0
 40
3.611
100
AcDbArc
 50
206.795657
 51
270.0
  0
LINE
  5
BF6F
330
BE4C
100
AcDbEntity
  8
1
  6
Continuous
100
AcDbLine
 10
138.6802659999998
 20
184.111835
 30
0.0
 11
136.6802659999999
 21
182.498601
 31
0.0
  0
LINE
  5
BF70
330
BE4C
100
AcDbEntity
  8
1
  6
Continuous
100
AcDbLine
 10
157.0650419999998
 20
184.111835
 30
0.0
 11
155.065042
 21
182.498601
 31
0.0
  0
LINE
  5
BF71
330
BE4C
100
AcDbEntity
  8
1
  6
Continuous
100
AcDbLine
 10
150.236615
 20
184.111835
 30
0.0
 11
152.236615
 21
182.498601
 31
0.0
  0
LINE
  5
BF72
330
BE4C
100
AcDbEntity
  8
1
  6
Continuous
100
AcDbLine
 10
152.822402
 20
184.111835
 30
0.0
 11
150.822402
 21
182.498601
 31
0.0
  0
LINE
  5
BF73
330
BE4C
100
AcDbEntity
  8
1
  6
Continuous
100
AcDbLine
 10
144.5797609999999
 20
184.111835
 30
0.0
 11
146.5797609999999
 21
182.498601
 31
0.0
  0
LINE
  5
BF74
330
BE4C
100
AcDbEntity
  8
1
  6
Continuous
100
AcDbLine
 10
147.1655469999998
 20
184.111835
 30
0.0
 11
145.165547
 21
182.498601
 31
0.0
  0
LINE
  5
BF75
330
BE4C
100
AcDbEntity
  8
1
  6
Continuous
100
AcDbLine
 10
145.751334
 20
184.111835
 30
0.0
 11
143.751334
 21
182.498601
 31
0.0
  0
LINE
  5
BF76
330
BE4C
100
AcDbEntity
  8
1
  6
Continuous
100
AcDbLine
 10
151.4081879999999
 20
184.111835
 30
0.0
 11
149.4081879999999
 21
182.498601
 31
0.0
  0
LINE
  5
BF77
330
BE4C
100
AcDbEntity
  8
1
  6
Continuous
100
AcDbLine
 10
147.4081879999999
 20
184.111835
 30
0.0
 11
149.4081879999999
 21
182.498601
 31
0.0
  0
LINE
  5
BF78
330
BE4C
100
AcDbEntity
  8
1
  6
Continuous
100
AcDbLine
 10
148.5797609999999
 20
184.111835
 30
0.0
 11
146.5797609999999
 21
182.498601
 31
0.0
  0
LINE
  5
BF79
330
BE4C
100
AcDbEntity
  8
1
  6
Continuous
100
AcDbLine
 10
149.993974
 20
184.111835
 30
0.0
 11
147.993974
 21
182.498601
 31
0.0
  0
LINE
  5
BF7A
330
BE4C
100
AcDbEntity
  8
1
  6
Continuous
100
AcDbLine
 10
153.065042
 20
184.111835
 30
0.0
 11
155.065042
 21
182.498601
 31
0.0
  0
LINE
  5
BF7B
330
BE4C
100
AcDbEntity
  8
1
  6
Continuous
100
AcDbLine
 10
155.650829
 20
184.111835
 30
0.0
 11
153.6508289999999
 21
182.498601
 31
0.0
  0
LINE
  5
BF7C
330
BE4C
100
AcDbEntity
  8
1
  6
Continuous
100
AcDbLine
 10
154.236615
 20
184.111835
 30
0.0
 11
152.236615
 21
182.498601
 31
0.0
  0
LINE
  5
BF7D
330
BE4C
100
AcDbEntity
  8
1
  6
Continuous
100
AcDbLine
 10
142.922907
 20
184.111835
 30
0.0
 11
140.922907
 21
182.498601
 31
0.0
  0
LINE
  5
BF7E
330
BE4C
100
AcDbEntity
  8
1
  6
Continuous
100
AcDbLine
 10
141.751334
 20
184.111835
 30
0.0
 11
143.751334
 21
182.498601
 31
0.0
  0
LINE
  5
BF7F
330
BE4C
100
AcDbEntity
  8
1
  6
Continuous
100
AcDbLine
 10
144.33712
 20
184.111835
 30
0.0
 11
142.33712
 21
182.498601
 31
0.0
  0
ARC
  5
BF80
330
BE4C
100
AcDbEntity
  8
1
  6
Continuous
100
AcDbCircle
 10
167.1687619999999
 20
189.997448
 30
0.0
 40
3.611
100
AcDbArc
 50
270.0
 51
333.204343
  0
LINE
  5
BF81
330
BE4C
100
AcDbEntity
  8
1
  6
Continuous
100
AcDbLine
 10
161.5503239999999
 20
184.111835
 30
0.0
 11
163.550324
 21
182.498601
 31
0.0
  0
LINE
  5
BF82
330
BE4C
100
AcDbEntity
  8
1
  6
Continuous
100
AcDbLine
 10
164.13611
 20
184.111835
 30
0.0
 11
162.13611
 21
182.498601
 31
0.0
  0
LINE
  5
BF83
330
BE4C
100
AcDbEntity
  8
1
  6
Continuous
100
AcDbLine
 10
162.7218959999999
 20
184.111835
 30
0.0
 11
160.7218959999999
 21
182.498601
 31
0.0
  0
LINE
  5
BF84
330
BE4C
100
AcDbEntity
  8
1
  6
Continuous
100
AcDbLine
 10
167.908188
 20
183.641272
 30
0.0
 11
166.3787509999998
 21
182.498601
 31
0.0
  0
LINE
  5
BF85
330
BE4C
100
AcDbEntity
  8
1
  6
Continuous
100
AcDbLine
 10
166.964537
 20
184.111835
 30
0.0
 11
164.9645369999998
 21
182.498601
 31
0.0
  0
LINE
  5
BF86
330
BE4C
100
AcDbEntity
  8
1
  6
Continuous
100
AcDbLine
 10
164.3787509999999
 20
184.111835
 30
0.0
 11
166.3787509999998
 21
182.498601
 31
0.0
  0
LINE
  5
BF87
330
BE4C
100
AcDbEntity
  8
1
  6
Continuous
100
AcDbLine
 10
165.5503239999999
 20
184.111835
 30
0.0
 11
163.550324
 21
182.498601
 31
0.0
  0
LINE
  5
BF88
330
BE4C
100
AcDbEntity
  8
1
  6
Continuous
100
AcDbLine
 10
167.908188
 20
182.6138239999999
 30
0.0
 11
167.7929639999999
 21
182.498601
 31
0.0
  0
LINE
  5
BF89
330
BE4C
100
AcDbEntity
  8
1
  6
Continuous
100
AcDbLine
 10
167.908188
 20
184.111835
 30
0.0
 11
167.908188
 21
182.498601
 31
0.0
  0
ARC
  5
BF8A
330
BE4C
100
AcDbEntity
  8
1
  6
Continuous
100
AcDbCircle
 10
161.4964139999998
 20
186.963186
 30
0.0
 40
6.407901999999999
100
AcDbArc
 50
334.3555600000001
 51
347.121283
  0
ARC
  5
BF8B
330
BE4C
100
AcDbEntity
  8
1
  6
Continuous
100
AcDbCircle
 10
166.953857
 20
185.2579039999999
 30
0.0
 40
0.8364709999999998
100
AcDbArc
 50
19.341459
 51
77.625084
  0
LINE
  5
BF8C
330
BE4C
100
AcDbEntity
  8
1
  6
Continuous
100
AcDbLine
 10
167.207178
 20
184.111835
 30
0.0
 11
167.908188
 21
183.4108249999999
 31
0.0
  0
LINE
  5
BF8D
330
BE4C
100
AcDbEntity
  8
1
  6
Continuous
100
AcDbLine
 10
155.8934689999999
 20
184.111835
 30
0.0
 11
157.8934689999998
 21
182.498601
 31
0.0
  0
LINE
  5
BF8E
330
BE4C
100
AcDbEntity
  8
1
  6
Continuous
100
AcDbLine
 10
158.4792559999999
 20
184.111835
 30
0.0
 11
156.4792559999998
 21
182.498601
 31
0.0
  0
LINE
  5
BF8F
330
BE4C
100
AcDbEntity
  8
1
  6
Continuous
100
AcDbLine
 10
159.8934689999999
 20
184.111835
 30
0.0
 11
157.8934689999998
 21
182.498601
 31
0.0
  0
LINE
  5
BF90
330
BE4C
100
AcDbEntity
  8
1
  6
Continuous
100
AcDbLine
 10
158.7218959999999
 20
184.111835
 30
0.0
 11
160.7218959999999
 21
182.498601
 31
0.0
  0
LINE
  5
BF91
330
BE4C
100
AcDbEntity
  8
1
  6
Continuous
100
AcDbLine
 10
161.3076829999999
 20
184.111835
 30
0.0
 11
159.307683
 21
182.498601
 31
0.0
  0
LINE
  5
BF92
330
BE4C
100
AcDbEntity
  8
4
  6
CENTER
100
AcDbLine
 10
33.79951099999999
 20
195.375175
 30
0.0
 11
33.79951099999999
 21
181.35962
 31
0.0
  0
LINE
  5
BF93
330
BE4C
100
AcDbEntity
  8
4
  6
CENTER
100
AcDbLine
 10
62.79951099999999
 20
195.375175
 30
0.0
 11
62.79951099999999
 21
181.35962
 31
0.0
  0
LINE
  5
BF94
330
BE4C
100
AcDbEntity
  8
1
  6
Continuous
100
AcDbLine
 10
63.02324399999999
 20
139.2125
 30
0.0
 11
61.023239
 21
139.2125
 31
0.0
  0
LINE
  5
BF95
330
BE4C
100
AcDbEntity
  8
1
  6
Continuous
100
AcDbLine
 10
35.575783
 20
139.2125
 30
0.0
 11
33.575778
 21
139.2125
 31
0.0
  0
ARC
  5
BF96
330
BE4C
100
AcDbEntity
  8
1
  6
Continuous
100
AcDbCircle
 10
61.605598
 20
178.184189
 30
0.0
 40
1.5
100
AcDbArc
 50
359.87892
 51
90.0
  0
ARC
  5
BF97
330
BE4C
100
AcDbEntity
  8
1
  6
Continuous
100
AcDbCircle
 10
34.99342399999999
 20
178.184189
 30
0.0
 40
1.5
100
AcDbArc
 50
90.0
 51
180.1210799999998
  0
LINE
  5
BF98
330
BE4C
100
AcDbEntity
  8
1
  6
Continuous
100
AcDbLine
 10
36.997585
 20
177.7170889999999
 30
0.0
 11
59.60143699999999
 21
177.7170889999999
 31
0.0
  0
ARC
  5
BF99
330
BE4C
100
AcDbEntity
  8
1
  6
Continuous
100
AcDbCircle
 10
59.60143699999999
 20
176.2170889999999
 30
0.0
 40
1.5
100
AcDbArc
 50
359.878918
 51
90.0
  0
ARC
  5
BF9A
330
BE4C
100
AcDbEntity
  8
1
  6
Continuous
100
AcDbCircle
 10
36.997585
 20
176.2170889999999
 30
0.0
 40
1.5
100
AcDbArc
 50
90.0
 51
180.121082
  0
LINE
  5
BF9B
330
BE4C
100
AcDbEntity
  8
4
  6
CENTER
100
AcDbLine
 10
221.0168449999999
 20
194.9908529999999
 30
0.0
 11
221.0168449999999
 21
181.0477589999999
 31
0.0
  0
LINE
  5
BF9C
330
BE4C
100
AcDbEntity
  8
4
  6
CENTER
100
AcDbLine
 10
250.0168449999999
 20
194.9908529999999
 30
0.0
 11
250.0168449999999
 21
181.0477589999999
 31
0.0
  0
LINE
  5
BF9D
330
BE4C
100
AcDbEntity
  8
1
  6
Continuous
100
AcDbLine
 10
58.62732499999999
 20
173.8123009999999
 30
0.0
 11
37.97169699999999
 21
173.8123009999999
 31
0.0
  0
LINE
  5
BF9E
330
BE4C
100
AcDbEntity
  8
1
  6
Continuous
100
AcDbLine
 10
60.569129
 20
177.363201
 30
0.0
 11
36.029893
 21
177.363201
 31
0.0
  0
LINE
  5
BF9F
330
BE4C
100
AcDbEntity
  8
1
  6
Continuous
100
AcDbLine
 10
35.543469
 20
176.5852549999999
 30
0.0
 11
61.102723
 21
176.5852549999999
 31
0.0
  0
LINE
  5
BFA0
330
BE4C
100
AcDbEntity
  8
1
  6
Continuous
100
AcDbLine
 10
42.13940899999999
 20
173.212301
 30
0.0
 11
42.54151499999998
 21
173.8123009999999
 31
0.0
  0
LINE
  5
BFA1
330
BE4C
100
AcDbEntity
  8
1
  6
Continuous
100
AcDbLine
 10
41.699511
 20
173.212301
 30
0.0
 11
44.926716
 21
173.212301
 31
0.0
  0
ARC
  5
BFA2
330
BE4C
100
AcDbEntity
  8
1
  6
Continuous
100
AcDbCircle
 10
38.46287
 20
177.729218
 30
0.0
 40
1.984499999999997
100
AcDbArc
 50
182.999869
 51
190.6283659999998
  0
ARC
  5
BFA3
330
BE4C
100
AcDbEntity
  8
1
  6
Continuous
100
AcDbCircle
 10
41.15549399999999
 20
177.729218
 30
0.0
 40
1.984499999999997
100
AcDbArc
 50
180.350187
 51
190.6283659999998
  0
ARC
  5
BFA4
330
BE4C
100
AcDbEntity
  8
1
  6
Continuous
100
AcDbCircle
 10
39.059021
 20
177.729218
 30
0.0
 40
1.984499999999997
100
AcDbArc
 50
180.350187
 51
190.6283659999998
  0
ARC
  5
BFA5
330
BE4C
100
AcDbEntity
  8
1
  6
Continuous
100
AcDbCircle
 10
37.07670999999999
 20
175.726355
 30
0.0
 40
1.683363999999999
100
AcDbArc
 50
217.387795
 51
241.092262
  0
ARC
  5
BFA6
330
BE4C
100
AcDbEntity
  8
1
  6
Continuous
100
AcDbCircle
 10
41.834391
 20
179.3622709999999
 30
0.0
 40
7.671302999999997
100
AcDbArc
 50
214.3194929999999
 51
217.387795
  0
LINE
  5
BFA7
330
BE4C
100
AcDbEntity
  8
1
  6
Continuous
100
AcDbLine
 10
41.699511
 20
173.8123009999999
 30
0.0
 11
41.699511
 21
173.212301
 31
0.0
  0
ARC
  5
BFA8
330
BE4C
100
AcDbEntity
  8
1
  6
Continuous
100
AcDbCircle
 10
37.97169699999999
 20
177.347103
 30
0.0
 40
3.534801999999998
100
AcDbArc
 50
241.092262
 51
270.0
  0
LINE
  5
BFA9
330
BE4C
100
AcDbEntity
  8
1
  6
Continuous
100
AcDbLine
 10
51.67230599999999
 20
173.212301
 30
0.0
 11
54.89951099999998
 21
173.212301
 31
0.0
  0
ARC
  5
BFAA
330
BE4C
100
AcDbEntity
  8
1
  6
Continuous
100
AcDbCircle
 10
48.29951099999998
 20
177.729218
 30
0.0
 40
1.985
100
AcDbArc
 50
349.374342
 51
359.649901
  0
ARC
  5
BFAB
330
BE4C
100
AcDbEntity
  8
1
  6
Continuous
100
AcDbCircle
 10
48.29951099999998
 20
177.729218
 30
0.0
 40
1.985
100
AcDbArc
 50
180.350099
 51
190.6256579999999
  0
ARC
  5
BFAC
330
BE4C
100
AcDbEntity
  8
1
  6
Continuous
100
AcDbCircle
 10
44.411898
 20
177.729218
 30
0.0
 40
1.984499999999997
100
AcDbArc
 50
180.350187
 51
190.6283659999998
  0
LINE
  5
BFAD
330
BE4C
100
AcDbEntity
  8
1
  6
Continuous
100
AcDbLine
 10
49.039022
 20
173.3724559999998
 30
0.0
 11
49.531739
 21
173.8123009999999
 31
0.0
  0
LINE
  5
BFAE
330
BE4C
100
AcDbEntity
  8
1
  6
Continuous
100
AcDbLine
 10
47.067283
 20
173.8123009999999
 30
0.0
 11
47.56
 21
173.3724559999998
 31
0.0
  0
ARC
  5
BFAF
330
BE4C
100
AcDbEntity
  8
1
  6
Continuous
100
AcDbCircle
 10
55.443528
 20
177.729218
 30
0.0
 40
1.984499999999997
100
AcDbArc
 50
349.3716339999999
 51
359.649813
  0
ARC
  5
BFB0
330
BE4C
100
AcDbEntity
  8
1
  6
Continuous
100
AcDbCircle
 10
52.187124
 20
177.729218
 30
0.0
 40
1.984499999999997
100
AcDbArc
 50
349.3716339999999
 51
359.649813
  0
LINE
  5
BFB1
330
BE4C
100
AcDbEntity
  8
1
  6
Continuous
100
AcDbLine
 10
54.89951099999998
 20
173.8123009999999
 30
0.0
 11
54.89951099999998
 21
173.212301
 31
0.0
  0
LINE
  5
BFB2
330
BE4C
100
AcDbEntity
  8
1
  6
Continuous
100
AcDbLine
 10
54.05750699999999
 20
173.8123009999999
 30
0.0
 11
54.459613
 21
173.212301
 31
0.0
  0
ARC
  5
BFB3
330
BE4C
100
AcDbEntity
  8
1
  6
Continuous
100
AcDbCircle
 10
57.54000099999998
 20
177.729218
 30
0.0
 40
1.984499999999997
100
AcDbArc
 50
349.3716339999999
 51
359.649813
  0
ARC
  5
BFB4
330
BE4C
100
AcDbEntity
  8
1
  6
Continuous
100
AcDbCircle
 10
58.136152
 20
177.729218
 30
0.0
 40
1.984499999999997
100
AcDbArc
 50
349.3716339999999
 51
357.000131
  0
ARC
  5
BFB5
330
BE4C
100
AcDbEntity
  8
1
  6
Continuous
100
AcDbCircle
 10
59.52231199999999
 20
175.726355
 30
0.0
 40
1.683363999999999
100
AcDbArc
 50
298.9077379999999
 51
322.6122049999998
  0
ARC
  5
BFB6
330
BE4C
100
AcDbEntity
  8
1
  6
Continuous
100
AcDbCircle
 10
58.62732499999999
 20
177.347103
 30
0.0
 40
3.534801999999998
100
AcDbArc
 50
270.0
 51
298.9077379999999
  0
ARC
  5
BFB7
330
BE4C
100
AcDbEntity
  8
1
  6
Continuous
100
AcDbCircle
 10
54.76463100000001
 20
179.3622709999999
 30
0.0
 40
7.671302999999997
100
AcDbArc
 50
322.6122049999998
 51
325.668552
  0
LINE
  5
BFB8
330
BE4C
100
AcDbEntity
  8
1
  6
Continuous
100
AcDbLine
 10
245.8446589999998
 20
173.8123009999999
 30
0.0
 11
225.1890309999998
 21
173.8123009999999
 31
0.0
  0
LINE
  5
BFB9
330
BE4C
100
AcDbEntity
  8
1
  6
Continuous
100
AcDbLine
 10
229.3567429999999
 20
173.212301
 30
0.0
 11
229.758849
 21
173.8123009999999
 31
0.0
  0
ARC
  5
BFBA
330
BE4C
100
AcDbEntity
  8
1
  6
Continuous
100
AcDbCircle
 10
224.2940439999999
 20
175.726355
 30
0.0
 40
1.683363999999999
100
AcDbArc
 50
217.387795
 51
241.092262
  0
ARC
  5
BFBB
330
BE4C
100
AcDbEntity
  8
1
  6
Continuous
100
AcDbCircle
 10
229.051725
 20
179.3622709999999
 30
0.0
 40
7.671302999999997
100
AcDbArc
 50
214.3194929999999
 51
217.387795
  0
LINE
  5
BFBC
330
BE4C
100
AcDbEntity
  8
1
  6
Continuous
100
AcDbLine
 10
228.916845
 20
173.8123009999999
 30
0.0
 11
228.916845
 21
173.212301
 31
0.0
  0
ARC
  5
BFBD
330
BE4C
100
AcDbEntity
  8
1
  6
Continuous
100
AcDbCircle
 10
225.1890309999998
 20
177.347103
 30
0.0
 40
3.534801999999998
100
AcDbArc
 50
241.092262
 51
270.0
  0
LINE
  5
BFBE
330
BE4C
100
AcDbEntity
  8
1
  6
Continuous
100
AcDbLine
 10
228.916845
 20
173.212301
 30
0.0
 11
232.2052789999999
 21
173.212301
 31
0.0
  0
LINE
  5
BFBF
330
BE4C
100
AcDbEntity
  8
1
  6
Continuous
100
AcDbLine
 10
234.284617
 20
173.8123009999999
 30
0.0
 11
234.7773339999999
 21
173.3724559999998
 31
0.0
  0
LINE
  5
BFC0
330
BE4C
100
AcDbEntity
  8
1
  6
Continuous
100
AcDbLine
 10
236.256356
 20
173.3724559999998
 30
0.0
 11
236.749073
 21
173.8123009999999
 31
0.0
  0
LINE
  5
BFC1
330
BE4C
100
AcDbEntity
  8
1
  6
Continuous
100
AcDbLine
 10
242.116845
 20
173.8123009999999
 30
0.0
 11
242.116845
 21
173.212301
 31
0.0
  0
LINE
  5
BFC2
330
BE4C
100
AcDbEntity
  8
1
  6
Continuous
100
AcDbLine
 10
241.274841
 20
173.8123009999999
 30
0.0
 11
241.676947
 21
173.212301
 31
0.0
  0
ARC
  5
BFC3
330
BE4C
100
AcDbEntity
  8
1
  6
Continuous
100
AcDbCircle
 10
246.7396459999999
 20
175.726355
 30
0.0
 40
1.683363999999999
100
AcDbArc
 50
298.9077379999999
 51
322.6122049999998
  0
ARC
  5
BFC4
330
BE4C
100
AcDbEntity
  8
1
  6
Continuous
100
AcDbCircle
 10
245.8446589999998
 20
177.347103
 30
0.0
 40
3.534801999999998
100
AcDbArc
 50
270.0
 51
298.9077379999999
  0
ARC
  5
BFC5
330
BE4C
100
AcDbEntity
  8
1
  6
Continuous
100
AcDbCircle
 10
241.9819649999999
 20
179.3622709999999
 30
0.0
 40
7.671302999999997
100
AcDbArc
 50
322.6122049999998
 51
325.668552
  0
LINE
  5
BFC6
330
BE4C
100
AcDbEntity
  8
1
  6
Continuous
100
AcDbLine
 10
238.8284099999999
 20
173.212301
 30
0.0
 11
242.116845
 21
173.212301
 31
0.0
  0
LINE
  5
BFC7
330
BE4C
100
AcDbEntity
  8
1
  6
Continuous
100
AcDbLine
 10
222.715852
 20
175.7677069999998
 30
0.0
 11
222.793116
 21
139.2066269999999
 31
0.0
  0
LINE
  5
BFC8
330
BE4C
100
AcDbEntity
  8
1
  6
Continuous
100
AcDbLine
 10
248.317837
 20
175.7677069999998
 30
0.0
 11
248.2405729999999
 21
139.2066269999999
 31
0.0
  0
LINE
  5
BFC9
330
BE4C
100
AcDbEntity
  8
1
  6
Continuous
100
AcDbLine
 10
222.793116
 20
139.2066269999999
 30
0.0
 11
219.916287
 21
139.2066269999999
 31
0.0
  0
LINE
  5
BFCA
330
BE4C
100
AcDbEntity
  8
1
  6
Continuous
100
AcDbLine
 10
250.2405779999999
 20
139.2066269999999
 30
0.0
 11
248.2405729999999
 21
139.2066269999999
 31
0.0
  0
LINE
  5
BFCB
330
BE4C
100
AcDbEntity
  8
1
  6
Continuous
100
AcDbLine
 10
220.786038
 20
142.5537789999999
 30
0.0
 11
220.793111
 21
139.2066269999999
 31
0.0
  0
LINE
  5
BFCC
330
BE4C
100
AcDbEntity
  8
1
  6
Continuous
100
AcDbLine
 10
251.260141
 20
147.3528589999999
 30
0.0
 11
251.260141
 21
144.125191
 31
0.0
  0
ARC
  5
BFCD
330
BE4C
100
AcDbEntity
  8
1
  6
Continuous
100
AcDbCircle
 10
245.989308
 20
148.375191
 30
0.0
 40
6.770832999999998
100
AcDbArc
 50
321.1199299999999
 51
12.459047
  0
LINE
  5
BFCE
330
BE4C
100
AcDbEntity
  8
1
  6
Continuous
100
AcDbLine
 10
251.260141
 20
144.125191
 30
0.0
 11
250.354336
 21
144.125191
 31
0.0
  0
LINE
  5
BFCF
330
BE4C
100
AcDbEntity
  8
1
  6
Continuous
100
AcDbLine
 10
168.1584039999999
 20
177.616486
 30
0.0
 11
168.4081879999999
 21
175.762876
 31
0.0
  0
LINE
  5
BFD0
330
BE4C
100
AcDbEntity
  8
1
  6
Continuous
100
AcDbLine
 10
167.206219
 20
175.3819969999999
 30
0.0
 11
168.4081879999999
 21
175.762876
 31
0.0
  0
LINE
  5
BFD1
330
BE4C
100
AcDbEntity
  8
4
  6
CENTER
100
AcDbLine
 10
183.908626
 20
67.085669
 30
0.0
 11
99.41836700000001
 21
67.085669
 31
0.0
  0
LINE
  5
BFD2
330
BE4C
100
AcDbEntity
  8
4
  6
CENTER
100
AcDbLine
 10
179.158626
 20
52.58566899999999
 30
0.0
 11
166.658626
 21
52.58566899999999
 31
0.0
  0
LINE
  5
BFD3
330
BE4C
100
AcDbEntity
  8
4
  6
CENTER
100
AcDbLine
 10
179.158626
 20
81.58566899999998
 30
0.0
 11
166.658626
 21
81.58566899999998
 31
0.0
  0
ARC
  5
BFD4
330
BE4C
100
AcDbEntity
  8
1
  6
Continuous
100
AcDbCircle
 10
176.9086259999999
 20
85.58566899999998
 30
0.0
 40
2.5
100
AcDbArc
 50
0.0
 51
90.0
  0
ARC
  5
BFD5
330
BE4C
100
AcDbEntity
  8
1
  6
Continuous
100
AcDbCircle
 10
176.9086259999999
 20
48.585669
 30
0.0
 40
2.5
100
AcDbArc
 50
270.0
 51
0.0
  0
LINE
  5
BFD6
330
BE4C
100
AcDbEntity
  8
1
  6
Continuous
100
AcDbLine
 10
119.4086259999999
 20
48.585669
 30
0.0
 11
119.4086259999999
 21
57.085669
 31
0.0
  0
LINE
  5
BFD7
330
BE4C
100
AcDbEntity
  8
4
  6
CENTER
100
AcDbLine
 10
149.4076259999999
 20
41.085669
 30
0.0
 11
149.4076259999999
 21
93.217414
 31
0.0
  0
LINE
  5
BFD8
330
BE4C
100
AcDbEntity
  8
4
  6
CENTER
100
AcDbLine
 10
125.9086259999999
 20
75.33566899999998
 30
0.0
 11
125.9086259999999
 21
87.83566899999998
 31
0.0
  0
LINE
  5
BFD9
330
BE4C
100
AcDbEntity
  8
4
  6
CENTER
100
AcDbLine
 10
172.908626
 20
75.33566899999998
 30
0.0
 11
172.908626
 21
87.83566899999998
 31
0.0
  0
LINE
  5
BFDA
330
BE4C
100
AcDbEntity
  8
1
  6
Continuous
100
AcDbLine
 10
121.908626
 20
88.08566899999998
 30
0.0
 11
124.408073
 21
88.08566899999998
 31
0.0
  0
LINE
  5
BFDB
330
BE4C
100
AcDbEntity
  8
4
  6
CENTER
100
AcDbLine
 10
132.1586259999999
 20
81.58566899999998
 30
0.0
 11
119.6586259999999
 21
81.58566899999998
 31
0.0
  0
ARC
  5
BFDC
330
BE4C
100
AcDbEntity
  8
1
  6
Continuous
100
AcDbCircle
 10
121.908626
 20
85.58566899999998
 30
0.0
 40
2.5
100
AcDbArc
 50
90.0
 51
180.0
  0
CIRCLE
  5
BFDD
330
BE4C
100
AcDbEntity
  8
1
  6
Continuous
100
AcDbCircle
 10
172.908626
 20
81.58566899999998
 30
0.0
 40
3.25
  0
LINE
  5
BFDE
330
BE4C
100
AcDbEntity
  8
1
  6
Continuous
100
AcDbLine
 10
121.908626
 20
46.085669
 30
0.0
 11
176.9086259999999
 21
46.085669
 31
0.0
  0
ARC
  5
BFDF
330
BE4C
100
AcDbEntity
  8
1
  6
Continuous
100
AcDbCircle
 10
125.9086259999999
 20
52.58566899999999
 30
0.0
 40
3.25
100
AcDbArc
 50
112.6198649999998
 51
147.000273
  0
LINE
  5
BFE0
330
BE4C
100
AcDbEntity
  8
4
  6
CENTER
100
AcDbLine
 10
125.9086259999999
 20
58.83566899999999
 30
0.0
 11
125.9086259999999
 21
46.335669
 31
0.0
  0
LINE
  5
BFE1
330
BE4C
100
AcDbEntity
  8
4
  6
CENTER
100
AcDbLine
 10
132.1586259999999
 20
52.58566899999999
 30
0.0
 11
119.6586259999999
 21
52.58566899999999
 31
0.0
  0
ARC
  5
BFE2
330
BE4C
100
AcDbEntity
  8
1
  6
Continuous
100
AcDbCircle
 10
121.908626
 20
48.585669
 30
0.0
 40
2.5
100
AcDbArc
 50
180.0
 51
270.0
  0
LINE
  5
BFE3
330
BE4C
100
AcDbEntity
  8
4
  6
CENTER
100
AcDbLine
 10
172.908626
 20
58.83566899999999
 30
0.0
 11
172.908626
 21
46.335669
 31
0.0
  0
CIRCLE
  5
BFE4
330
BE4C
100
AcDbEntity
  8
1
  6
Continuous
100
AcDbCircle
 10
172.908626
 20
52.58566899999999
 30
0.0
 40
3.25
  0
LINE
  5
BFE5
330
BE4C
100
AcDbEntity
  8
1
  6
Continuous
100
AcDbLine
 10
179.408626
 20
48.585669
 30
0.0
 11
179.408626
 21
85.58566899999998
 31
0.0
  0
ARC
  5
BFE6
330
BE4C
100
AcDbEntity
  8
1
  6
Continuous
100
AcDbCircle
 10
129.408073
 20
56.613225
 30
0.0
 40
6.770832999999998
100
AcDbArc
 50
231.11993
 51
308.8800700000001
  0
LINE
  5
BFE7
330
BE4C
100
AcDbEntity
  8
1
  6
Continuous
100
AcDbLine
 10
126.408073
 20
54.33598899999999
 30
0.0
 11
126.408073
 21
55.58566899999998
 31
0.0
  0
LINE
  5
BFE8
330
BE4C
100
AcDbEntity
  8
1
  6
Continuous
100
AcDbLine
 10
125.158073
 20
51.34239199999999
 30
0.0
 11
125.158073
 21
52.333315
 31
0.0
  0
LINE
  5
BFE9
330
BE4C
100
AcDbEntity
  8
1
  6
Continuous
100
AcDbLine
 10
132.408073
 20
54.34880299999999
 30
0.0
 11
132.408073
 21
55.58566899999998
 31
0.0
  0
LINE
  5
BFEA
330
BE4C
100
AcDbEntity
  8
1
  6
Continuous
100
AcDbLine
 10
133.658073
 20
51.34239199999999
 30
0.0
 11
133.658073
 21
52.333591
 31
0.0
  0
LINE
  5
BFEB
330
BE4C
100
AcDbEntity
  8
1
  6
Continuous
100
AcDbLine
 10
125.158073
 20
51.34239199999999
 30
0.0
 11
133.658073
 21
51.34239199999999
 31
0.0
  0
LINE
  5
BFEC
330
BE4C
100
AcDbEntity
  8
1
  6
Continuous
100
AcDbLine
 10
126.408073
 20
78.58566899999998
 30
0.0
 11
126.408073
 21
79.82242099999997
 31
0.0
  0
LINE
  5
BFED
330
BE4C
100
AcDbEntity
  8
1
  6
Continuous
100
AcDbLine
 10
132.408073
 20
78.58566899999998
 30
0.0
 11
132.408073
 21
79.822535
 31
0.0
  0
LINE
  5
BFEE
330
BE4C
100
AcDbEntity
  8
1
  6
Continuous
100
AcDbLine
 10
134.325498
 20
79.83915299999998
 30
0.0
 11
122.118531
 21
79.813356
 31
0.0
  0
LINE
  5
BFEF
330
BE4C
100
AcDbEntity
  8
1
  6
Continuous
100
AcDbLine
 10
134.3212709999999
 20
52.33219
 30
0.0
 11
122.118531
 21
52.35797699999999
 31
0.0
  0
LINE
  5
BFF0
330
BE4C
100
AcDbEntity
  8
1
  6
Continuous
100
AcDbLine
 10
134.325498
 20
54.332186
 30
0.0
 11
122.118531
 21
54.35798199999999
 31
0.0
  0
LINE
  5
BFF1
330
BE4C
100
AcDbEntity
  8
4
  6
CENTER
100
AcDbLine
 10
129.408073
 20
93.217414
 30
0.0
 11
129.408073
 21
41.085669
 31
0.0
  0
LINE
  5
BFF2
330
BE4C
100
AcDbEntity
  8
1
  6
Continuous
100
AcDbLine
 10
119.4086259999999
 20
77.08566899999998
 30
0.0
 11
119.4086259999999
 21
81.828766
 31
0.0
  0
LINE
  5
BFF3
330
BE4C
100
AcDbEntity
  8
1
  6
Continuous
100
AcDbLine
 10
122.118531
 20
81.81336100000001
 30
0.0
 11
122.118531
 21
79.813356
 31
0.0
  0
LINE
  5
BFF4
330
BE4C
100
AcDbEntity
  8
1
  6
Continuous
100
AcDbLine
 10
122.118531
 20
54.35798199999999
 30
0.0
 11
122.118531
 21
52.35797699999999
 31
0.0
  0
ARC
  5
BFF5
330
BE4C
100
AcDbEntity
  8
1
  6
Continuous
100
AcDbCircle
 10
149.4086259999999
 20
67.085669
 30
0.0
 40
19.0
100
AcDbArc
 50
238.601835
 51
57.51611600000001
  0
ARC
  5
BFF6
330
BE4C
100
AcDbEntity
  8
1
  6
Continuous
100
AcDbCircle
 10
149.4086259999999
 20
67.085669
 30
0.0
 40
17.0
100
AcDbArc
 50
238.601834
 51
63.86674499999998
  0
ARC
  5
BFF7
330
BE4C
100
AcDbEntity
  8
1
  6
Continuous
100
AcDbCircle
 10
134.3001389999998
 20
91.83912599999999
 30
0.0
 40
10.0
100
AcDbArc
 50
270.12108
 51
301.398165
  0
ARC
  5
BFF8
330
BE4C
100
AcDbEntity
  8
1
  6
Continuous
100
AcDbCircle
 10
134.3001389999998
 20
91.83912599999999
 30
0.0
 40
12.0
100
AcDbArc
 50
270.121082
 51
301.398166
  0
ARC
  5
BFF9
330
BE4C
100
AcDbEntity
  8
1
  6
Continuous
100
AcDbCircle
 10
134.3001389999998
 20
42.332212
 30
0.0
 40
10.0
100
AcDbArc
 50
58.60183499999998
 51
89.87891999999998
  0
ARC
  5
BFFA
330
BE4C
100
AcDbEntity
  8
1
  6
Continuous
100
AcDbCircle
 10
134.3001389999998
 20
42.332212
 30
0.0
 40
12.0
100
AcDbArc
 50
58.601834
 51
89.87891799999998
  0
ARC
  5
BFFB
330
BE4C
100
AcDbEntity
  8
1
  6
Continuous
100
AcDbCircle
 10
125.9086259999999
 20
81.58566899999998
 30
0.0
 40
3.25
100
AcDbArc
 50
212.999727
 51
247.380135
  0
ARC
  5
BFFC
330
BE4C
100
AcDbEntity
  8
1
  6
Continuous
100
AcDbCircle
 10
125.9086259999999
 20
52.58566899999999
 30
0.0
 40
3.25
100
AcDbArc
 50
184.037848
 51
307.681712
  0
ARC
  5
BFFD
330
BE4C
100
AcDbEntity
  8
1
  6
Continuous
100
AcDbCircle
 10
149.4086259999999
 20
67.085669
 30
0.0
 40
13.2
100
AcDbArc
 50
229.250946
 51
130.749054
  0
ARC
  5
BFFE
330
BE4C
100
AcDbEntity
  8
1
  6
Continuous
100
AcDbCircle
 10
149.4086259999999
 20
67.085669
 30
0.0
 40
15.09999999999999
100
AcDbArc
 50
221.471824
 51
93.42100700000001
  0
ARC
  5
BFFF
330
BE4C
100
AcDbEntity
  8
1
  6
Continuous
100
AcDbCircle
 10
149.4086259999999
 20
67.085669
 30
0.0
 40
5.4
100
AcDbArc
 50
337.185281
 51
22.814719
  0
ARC
  5
C000
330
BE4C
100
AcDbEntity
  8
1
  6
Continuous
100
AcDbCircle
 10
149.4086259999999
 20
67.085669
 30
0.0
 40
20.983387
100
AcDbArc
 50
224.683268
 51
59.36149499999999
  0
LINE
  5
C001
330
BE4C
100
AcDbEntity
  8
1
  6
Continuous
100
AcDbLine
 10
129.149562
 20
231.9115329999999
 30
0.0
 11
122.6666929999999
 21
231.9252329999999
 31
0.0
  0
LINE
  5
C002
330
BE4C
100
AcDbEntity
  8
1
  6
Continuous
100
AcDbLine
 10
126.218194
 20
233.917733
 30
0.0
 11
123.1829379999998
 21
233.9241470000001
 31
0.0
  0
LINE
  5
C003
330
BE4C
100
AcDbEntity
  8
1
  6
Continuous
100
AcDbLine
 10
125.158073
 20
262.3973599999998
 30
0.0
 11
128.911418
 21
262.3973599999998
 31
0.0
  0
ARC
  5
C004
330
BE4C
100
AcDbEntity
  8
1
  6
Continuous
100
AcDbCircle
 10
129.408073
 20
257.126527
 30
0.0
 40
6.770832999999998
100
AcDbArc
 50
102.9105539999999
 51
128.8800699999999
  0
LINE
  5
C005
330
BE4C
100
AcDbEntity
  8
1
  6
Continuous
100
AcDbLine
 10
125.158073
 20
262.3973599999998
 30
0.0
 11
125.158073
 21
261.4064369999999
 31
0.0
  0
LINE
  5
C006
330
BE4C
100
AcDbEntity
  8
1
  6
Continuous
100
AcDbLine
 10
129.149562
 20
261.396633
 30
0.0
 11
122.6666929999999
 21
261.3829329999999
 31
0.0
  0
LINE
  5
C007
330
BE4C
100
AcDbEntity
  8
1
  6
Continuous
100
AcDbLine
 10
126.218194
 20
259.3904339999999
 30
0.0
 11
123.1829379999998
 21
259.3840189999998
 31
0.0
  0
ARC
  5
C008
330
BE4C
100
AcDbEntity
  8
1
  6
Continuous
100
AcDbCircle
 10
170.999358
 20
67.085669
 30
0.0
 40
46.55713999999998
100
AcDbArc
 50
164.1235529999999
 51
165.699451
  0
ARC
  5
C009
330
BE4C
100
AcDbEntity
  8
1
  6
Continuous
100
AcDbCircle
 10
170.999358
 20
67.085669
 30
0.0
 40
46.55713999999998
100
AcDbArc
 50
194.300549
 51
195.876447
  0
ARC
  5
C00A
330
BE4C
100
AcDbEntity
  8
1
  6
Continuous
100
AcDbCircle
 10
170.999358
 20
246.654083
 30
0.0
 40
46.55713999999998
100
AcDbArc
 50
193.9847279999999
 51
198.45441
  0
ARC
  5
C00B
330
BE4C
100
AcDbEntity
  8
1
  6
Continuous
100
AcDbCircle
 10
170.999358
 20
246.654083
 30
0.0
 40
46.55713999999998
100
AcDbArc
 50
161.54559
 51
166.015272
  0
ARC
  5
C00C
330
BE4C
100
AcDbEntity
  8
1
  6
Continuous
100
AcDbCircle
 10
173.601604
 20
162.4823079999999
 30
0.0
 40
79.02195899999998
100
AcDbArc
 50
356.526268
 51
3.236625
  0
LINE
  5
C00D
330
BE4C
100
AcDbEntity
  8
1
  6
Continuous
100
AcDbLine
 10
250.247651
 20
142.5537789999999
 30
0.0
 11
250.2405779999999
 21
139.2066269999999
 31
0.0
  0
ARC
  5
C00E
330
BE4C
100
AcDbEntity
  8
1
  6
Continuous
100
AcDbCircle
 10
237.4447889999999
 20
157.6942949999998
 30
0.0
 40
17.07205599999999
100
AcDbArc
 50
328.555994
 51
0.0
  0
ARC
  5
C00F
330
BE4C
100
AcDbEntity
  8
1
  6
Continuous
100
AcDbCircle
 10
235.406318
 20
157.6942949999998
 30
0.0
 40
17.07205599999999
100
AcDbArc
 50
328.702125
 51
0.0
  0
ARC
  5
C010
330
BE4C
100
AcDbEntity
  8
1
  6
Continuous
100
AcDbCircle
 10
262.2476239999999
 20
142.5284199999999
 30
0.0
 40
12.0
100
AcDbArc
 50
148.5559939999999
 51
179.8789199999999
  0
ARC
  5
C011
330
BE4C
100
AcDbEntity
  8
1
  6
Continuous
100
AcDbCircle
 10
260.2477529999998
 20
142.5917279999999
 30
0.0
 40
12.0
100
AcDbArc
 50
148.7021249999999
 51
179.8789179999999
  0
ARC
  5
C012
330
BE4C
100
AcDbEntity
  8
1
  6
Continuous
100
AcDbCircle
 10
235.6273709999999
 20
157.6942949999998
 30
0.0
 40
17.07205599999999
100
AcDbArc
 50
180.0
 51
189.965582
  0
ARC
  5
C013
330
BE4C
100
AcDbEntity
  8
1
  6
Continuous
100
AcDbCircle
 10
233.5889009999999
 20
157.6942949999998
 30
0.0
 40
17.07205599999999
100
AcDbArc
 50
180.0
 51
188.7922889999999
  0
ARC
  5
C014
330
BE4C
100
AcDbEntity
  8
1
  6
Continuous
100
AcDbCircle
 10
208.7860649999998
 20
142.5284199999999
 30
0.0
 40
12.0
100
AcDbArc
 50
0.12108
 51
6.114278999999999
  0
ARC
  5
C015
330
BE4C
100
AcDbEntity
  8
1
  6
Continuous
100
AcDbCircle
 10
210.7859359999999
 20
142.5917279999999
 30
0.0
 40
12.0
100
AcDbArc
 50
0.121082
 51
31.297875
  0
ARC
  5
C016
330
BE4C
100
AcDbEntity
  8
1
  6
Continuous
100
AcDbCircle
 10
129.408073
 20
148.369876
 30
0.0
 40
8.5
100
AcDbArc
 50
215.770985
 51
239.981802
  0
ARC
  5
C017
330
BE4C
100
AcDbEntity
  8
1
  6
Continuous
100
AcDbCircle
 10
129.408073
 20
148.369876
 30
0.0
 40
25.0
100
AcDbArc
 50
98.15888300000001
 51
147.9938109999999
  0
ARC
  5
C018
330
BE4C
100
AcDbEntity
  8
1
  6
Continuous
100
AcDbCircle
 10
129.408073
 20
148.369876
 30
0.0
 40
17.5
100
AcDbArc
 50
105.65191
 51
144.757503
  0
LINE
  5
C019
330
BE4C
100
AcDbEntity
  8
1
  6
Continuous
100
AcDbLine
 10
107.004923
 20
256.654083
 30
0.0
 11
119.4086259999999
 21
256.654083
 31
0.0
  0
LINE
  5
C01A
330
BE4C
100
AcDbEntity
  8
1
  6
Continuous
100
AcDbLine
 10
119.4086259999999
 20
236.654083
 30
0.0
 11
107.004923
 21
236.654083
 31
0.0
  0
LINE
  5
C01B
330
BE4C
100
AcDbEntity
  8
1
  6
Continuous
100
AcDbLine
 10
125.8848669999999
 20
235.154083
 30
0.0
 11
124.6586259999999
 21
235.154083
 31
0.0
  0
LINE
  5
C01C
330
BE4C
100
AcDbEntity
  8
1
  6
Continuous
100
AcDbLine
 10
125.8848669999999
 20
258.154083
 30
0.0
 11
124.6586259999999
 21
258.154083
 31
0.0
  0
ARC
  5
C01D
330
BE4C
100
AcDbEntity
  8
1
  6
Continuous
100
AcDbCircle
 10
139.4086259999999
 20
246.654083
 30
0.0
 40
35.0
100
AcDbArc
 50
165.2995439999999
 51
194.698424
  0
ARC
  5
C01E
330
BE4C
100
AcDbEntity
  8
1
  6
Continuous
100
AcDbCircle
 10
107.004922
 20
238.154083
 30
0.0
 40
1.5
100
AcDbArc
 50
194.698424
 51
270.0
  0
ARC
  5
C01F
330
BE4C
100
AcDbEntity
  8
1
  6
Continuous
100
AcDbCircle
 10
107.004922
 20
255.1540829999999
 30
0.0
 40
1.5
100
AcDbArc
 50
90.0
 51
165.301576
  0
ARC
  5
C020
330
BE4C
100
AcDbEntity
  8
1
  6
Continuous
100
AcDbCircle
 10
48.29951099999998
 20
138.3751909999998
 30
0.0
 40
35.0
100
AcDbArc
 50
75.29954399999998
 51
104.698424
  0
ARC
  5
C021
330
BE4C
100
AcDbEntity
  8
1
  6
Continuous
100
AcDbCircle
 10
48.29951099999998
 20
158.375191
 30
0.0
 40
35.0
100
AcDbArc
 50
255.301576
 51
284.7004559999998
  0
LINE
  5
C022
330
BE4C
100
AcDbEntity
  8
1
  6
Continuous
100
AcDbLine
 10
38.29951099999997
 20
125.971487
 30
0.0
 11
38.29951099999997
 21
170.778894
 31
0.0
  0
ARC
  5
C023
330
BE4C
100
AcDbEntity
  8
1
  6
Continuous
100
AcDbCircle
 10
39.79951099999999
 20
125.971487
 30
0.0
 40
1.5
100
AcDbArc
 50
180.0
 51
255.301576
  0
LINE
  5
C024
330
BE4C
100
AcDbEntity
  8
1
  6
Continuous
100
AcDbLine
 10
36.79951099999998
 20
139.875191
 30
0.0
 11
36.79951099999998
 21
156.875191
 31
0.0
  0
LINE
  5
C025
330
BE4C
100
AcDbEntity
  8
1
  6
Continuous
100
AcDbLine
 10
36.79951099999998
 20
139.875191
 30
0.0
 11
38.29951099999997
 21
139.875191
 31
0.0
  0
LINE
  5
C026
330
BE4C
100
AcDbEntity
  8
1
  6
Continuous
100
AcDbLine
 10
36.79951099999998
 20
156.875191
 30
0.0
 11
38.29951099999997
 21
156.875191
 31
0.0
  0
ARC
  5
C027
330
BE4C
100
AcDbEntity
  8
1
  6
Continuous
100
AcDbCircle
 10
39.79951099999999
 20
170.778895
 30
0.0
 40
1.5
100
AcDbArc
 50
104.698424
 51
180.0
  0
LINE
  5
C028
330
BE4C
100
AcDbEntity
  8
1
  6
Continuous
100
AcDbLine
 10
58.29951099999998
 20
170.778894
 30
0.0
 11
58.29951099999998
 21
125.971487
 31
0.0
  0
ARC
  5
C029
330
BE4C
100
AcDbEntity
  8
1
  6
Continuous
100
AcDbCircle
 10
56.799511
 20
125.971487
 30
0.0
 40
1.5
100
AcDbArc
 50
284.6984239999999
 51
0.0
  0
LINE
  5
C02A
330
BE4C
100
AcDbEntity
  8
1
  6
Continuous
100
AcDbLine
 10
59.799511
 20
139.875191
 30
0.0
 11
59.799511
 21
150.5229229999999
 31
0.0
  0
LINE
  5
C02B
330
BE4C
100
AcDbEntity
  8
1
  6
Continuous
100
AcDbLine
 10
59.799511
 20
139.875191
 30
0.0
 11
58.29951099999998
 21
139.875191
 31
0.0
  0
LINE
  5
C02C
330
BE4C
100
AcDbEntity
  8
1
  6
Continuous
100
AcDbLine
 10
58.90580400000001
 20
156.875191
 30
0.0
 11
58.29951099999998
 21
156.875191
 31
0.0
  0
ARC
  5
C02D
330
BE4C
100
AcDbEntity
  8
1
  6
Continuous
100
AcDbCircle
 10
56.799511
 20
170.778895
 30
0.0
 40
1.5
100
AcDbArc
 50
0.0
 51
75.30157599999999
  0
ARC
  5
C02E
330
BE4C
100
AcDbEntity
  8
1
  6
Continuous
100
AcDbCircle
 10
235.5168449999999
 20
158.369317
 30
0.0
 40
35.0
100
AcDbArc
 50
255.301576
 51
284.7004559999998
  0
ARC
  5
C02F
330
BE4C
100
AcDbEntity
  8
1
  6
Continuous
100
AcDbCircle
 10
235.5168449999999
 20
138.3693169999999
 30
0.0
 40
35.0
100
AcDbArc
 50
75.29954399999998
 51
104.698424
  0
LINE
  5
C030
330
BE4C
100
AcDbEntity
  8
1
  6
Continuous
100
AcDbLine
 10
225.5168449999999
 20
125.9656129999999
 30
0.0
 11
225.5168449999999
 21
170.77302
 31
0.0
  0
ARC
  5
C031
330
BE4C
100
AcDbEntity
  8
1
  6
Continuous
100
AcDbCircle
 10
227.0168449999999
 20
125.9656129999999
 30
0.0
 40
1.5
100
AcDbArc
 50
180.0
 51
255.301576
  0
LINE
  5
C032
330
BE4C
100
AcDbEntity
  8
1
  6
Continuous
100
AcDbLine
 10
224.016845
 20
156.8693169999999
 30
0.0
 11
225.5168449999999
 21
156.8693169999999
 31
0.0
  0
LINE
  5
C033
330
BE4C
100
AcDbEntity
  8
1
  6
Continuous
100
AcDbLine
 10
224.016845
 20
139.869317
 30
0.0
 11
225.5168449999999
 21
139.869317
 31
0.0
  0
LINE
  5
C034
330
BE4C
100
AcDbEntity
  8
1
  6
Continuous
100
AcDbLine
 10
224.016845
 20
139.869317
 30
0.0
 11
224.016845
 21
156.8693169999999
 31
0.0
  0
ARC
  5
C035
330
BE4C
100
AcDbEntity
  8
1
  6
Continuous
100
AcDbCircle
 10
227.0168449999999
 20
170.773021
 30
0.0
 40
1.5
100
AcDbArc
 50
104.698424
 51
180.0
  0
LINE
  5
C036
330
BE4C
100
AcDbEntity
  8
1
  6
Continuous
100
AcDbLine
 10
245.5168449999999
 20
170.77302
 30
0.0
 11
245.5168449999999
 21
125.9656129999999
 31
0.0
  0
ARC
  5
C037
330
BE4C
100
AcDbEntity
  8
1
  6
Continuous
100
AcDbCircle
 10
244.0168449999999
 20
125.9656129999999
 30
0.0
 40
1.5
100
AcDbArc
 50
284.6984239999999
 51
0.0
  0
LINE
  5
C038
330
BE4C
100
AcDbEntity
  8
1
  6
Continuous
100
AcDbLine
 10
247.016845
 20
156.8693169999999
 30
0.0
 11
245.5168449999999
 21
156.8693169999999
 31
0.0
  0
LINE
  5
C039
330
BE4C
100
AcDbEntity
  8
1
  6
Continuous
100
AcDbLine
 10
247.016845
 20
139.869317
 30
0.0
 11
245.5168449999999
 21
139.869317
 31
0.0
  0
LINE
  5
C03A
330
BE4C
100
AcDbEntity
  8
1
  6
Continuous
100
AcDbLine
 10
247.016845
 20
139.869317
 30
0.0
 11
247.016845
 21
156.8693169999999
 31
0.0
  0
ARC
  5
C03B
330
BE4C
100
AcDbEntity
  8
1
  6
Continuous
100
AcDbCircle
 10
244.0168449999999
 20
170.773021
 30
0.0
 40
1.5
100
AcDbArc
 50
0.0
 51
75.30157599999999
  0
ARC
  5
C03C
330
BE4C
100
AcDbEntity
  8
1
  6
Continuous
100
AcDbCircle
 10
107.004369
 20
75.58566899999998
 30
0.0
 40
1.5
100
AcDbArc
 50
90.0
 51
165.301576
  0
LINE
  5
C03D
330
BE4C
100
AcDbEntity
  8
1
  6
Continuous
100
AcDbLine
 10
120.9080729999999
 20
78.58566899999998
 30
0.0
 11
120.9080729999999
 21
77.08566899999998
 31
0.0
  0
LINE
  5
C03E
330
BE4C
100
AcDbEntity
  8
1
  6
Continuous
100
AcDbLine
 10
137.908073
 20
78.58566899999998
 30
0.0
 11
137.908073
 21
77.08566899999998
 31
0.0
  0
ARC
  5
C03F
330
BE4C
100
AcDbEntity
  8
1
  6
Continuous
100
AcDbCircle
 10
151.811777
 20
75.58566899999998
 30
0.0
 40
1.5
100
AcDbArc
 50
14.698424
 51
90.0
  0
LINE
  5
C040
330
BE4C
100
AcDbEntity
  8
1
  6
Continuous
100
AcDbLine
 10
151.811777
 20
57.085669
 30
0.0
 11
107.00437
 21
57.085669
 31
0.0
  0
LINE
  5
C041
330
BE4C
100
AcDbEntity
  8
1
  6
Continuous
100
AcDbLine
 10
107.00437
 20
77.08566899999998
 30
0.0
 11
151.811777
 21
77.08566899999998
 31
0.0
  0
ARC
  5
C042
330
BE4C
100
AcDbEntity
  8
1
  6
Continuous
100
AcDbCircle
 10
107.004369
 20
58.58566899999999
 30
0.0
 40
1.5
100
AcDbArc
 50
194.698424
 51
270.0
  0
ARC
  5
C043
330
BE4C
100
AcDbEntity
  8
1
  6
Continuous
100
AcDbCircle
 10
139.4080729999998
 20
67.085669
 30
0.0
 40
35.0
100
AcDbArc
 50
165.2995439999999
 51
194.698424
  0
LINE
  5
C044
330
BE4C
100
AcDbEntity
  8
1
  6
Continuous
100
AcDbLine
 10
137.908073
 20
55.58566899999998
 30
0.0
 11
120.9080729999999
 21
55.58566899999998
 31
0.0
  0
LINE
  5
C045
330
BE4C
100
AcDbEntity
  8
1
  6
Continuous
100
AcDbLine
 10
120.9080729999999
 20
55.58566899999998
 30
0.0
 11
120.9080729999999
 21
57.085669
 31
0.0
  0
LINE
  5
C046
330
BE4C
100
AcDbEntity
  8
1
  6
Continuous
100
AcDbLine
 10
137.908073
 20
55.58566899999998
 30
0.0
 11
137.908073
 21
57.085669
 31
0.0
  0
ARC
  5
C047
330
BE4C
100
AcDbEntity
  8
1
  6
Continuous
100
AcDbCircle
 10
151.811777
 20
58.58566899999999
 30
0.0
 40
1.5
100
AcDbArc
 50
270.0
 51
345.3015759999999
  0
ARC
  5
C048
330
BE4C
100
AcDbEntity
  8
1
  6
Continuous
100
AcDbCircle
 10
119.408073
 20
67.085669
 30
0.0
 40
35.0
100
AcDbArc
 50
345.3015759999999
 51
14.70045599999999
  0
LINE
  5
C049
330
BE4C
100
AcDbEntity
  8
1
  6
Continuous
100
AcDbLine
 10
137.908073
 20
78.58566899999998
 30
0.0
 11
120.9080729999999
 21
78.58566899999998
 31
0.0
  0
ARC
  5
C04A
330
BE4C
100
AcDbEntity
  8
5
  6
PHANTOM
100
AcDbCircle
 10
141.9528109999999
 20
162.1544529999999
 30
0.0
 40
3.187289999999998
100
AcDbArc
 50
63.02593899999999
 51
109.284898
  0
ARC
  5
C04B
330
BE4C
100
AcDbEntity
  8
1
  6
Continuous
100
AcDbCircle
 10
158.5617739999999
 20
147.0388439999998
 30
0.0
 40
16.543596
100
AcDbArc
 50
247.0983529999998
 51
268.9252189999999
  0
LINE
  5
C04C
330
BE4C
100
AcDbEntity
  8
1
  6
Continuous
100
AcDbLine
 10
160.154166
 20
129.848117
 30
0.0
 11
152.0922459999999
 21
139.449817
 31
0.0
  0
LINE
  5
C04D
330
BE4C
100
AcDbEntity
  8
1
  6
Continuous
100
AcDbLine
 10
154.070258
 20
140.135127
 30
0.0
 11
161.502616
 21
131.027591
 31
0.0
  0
LINE
  5
C04E
330
BE4C
100
AcDbEntity
  8
5
  6
PHANTOM
100
AcDbLine
 10
164.958396
 20
153.324924
 30
0.0
 11
152.65055
 21
155.7133129999999
 31
0.0
  0
LINE
  5
C04F
330
BE4C
100
AcDbEntity
  8
5
  6
PHANTOM
100
AcDbLine
 10
153.7564919999998
 20
157.4906799999999
 30
0.0
 11
165.2640749999999
 21
155.090137
 31
0.0
  0
ARC
  5
C050
330
BE4C
100
AcDbEntity
  8
5
  6
PHANTOM
100
AcDbCircle
 10
141.799644
 20
204.1530339999999
 30
0.0
 40
56.58425499999999
100
AcDbArc
 50
276.844168
 51
286.0983499999999
  0
ARC
  5
C051
330
BE4C
100
AcDbEntity
  8
1
  6
Continuous
100
AcDbCircle
 10
125.778785
 20
159.649982
 30
0.0
 40
4.269231999999997
100
AcDbArc
 50
230.844333
 51
269.5458449999999
  0
ARC
  5
C052
330
BE4C
100
AcDbEntity
  8
5
  6
PHANTOM
100
AcDbCircle
 10
131.773856
 20
146.1833379999999
 30
0.0
 40
10.530131
100
AcDbArc
 50
102.073789
 51
138.438782
  0
ARC
  5
C053
330
BE4C
100
AcDbEntity
  8
1
  6
Continuous
100
AcDbCircle
 10
137.308387
 20
167.00751
 30
0.0
 40
27.842596
100
AcDbArc
 50
239.45395
 51
248.737537
  0
ARC
  5
C054
330
BE4C
100
AcDbEntity
  8
5
  6
PHANTOM
100
AcDbCircle
 10
133.1209019999998
 20
105.2395049999999
 30
0.0
 40
35.431274
100
AcDbArc
 50
98.453946
 51
107.688082
  0
ARC
  5
C055
330
BE4C
100
AcDbEntity
  8
1
  6
Continuous
100
AcDbCircle
 10
105.150657
 20
112.5147279999999
 30
0.0
 40
35.431274
100
AcDbArc
 50
59.45394900000001
 51
68.68807700000001
  0
LINE
  5
C056
330
BE4C
100
AcDbEntity
  8
5
  6
PHANTOM
100
AcDbLine
 10
112.0779179999999
 20
147.2317149999998
 30
0.0
 11
115.6757419999999
 21
136.596393
 31
0.0
  0
LINE
  5
C057
330
BE4C
100
AcDbEntity
  8
5
  6
PHANTOM
100
AcDbLine
 10
99.748405
 20
143.147876
 30
0.0
 11
109.9732729999999
 21
147.7435489999998
 31
0.0
  0
LINE
  5
C058
330
BE4C
100
AcDbEntity
  8
5
  6
PHANTOM
100
AcDbLine
 10
100.3033209999999
 20
141.2077739999998
 30
0.0
 11
110.7679049999999
 21
145.868495
 31
0.0
  0
ARC
  5
C059
330
BE4C
100
AcDbEntity
  8
5
  6
PHANTOM
100
AcDbCircle
 10
110.4539249999999
 20
137.4285999999999
 30
0.0
 40
2.460205999999999
100
AcDbArc
 50
205.095244
 51
287.720507
  0
ARC
  5
C05A
330
BE4C
100
AcDbEntity
  8
5
  6
PHANTOM
100
AcDbCircle
 10
-1791.943566
 20
-4932.808346
 30
0.0
 40
5415.550781
100
AcDbArc
 50
69.50158
 51
69.53411200000001
  0
ARC
  5
C05B
330
BE4C
100
AcDbEntity
  8
5
  6
PHANTOM
100
AcDbCircle
 10
100.6943729999999
 20
138.4848889999998
 30
0.0
 40
2.594708999999999
100
AcDbArc
 50
69.53411200000001
 51
97.70087700000001
  0
LINE
  5
C05C
330
BE4C
100
AcDbEntity
  8
5
  6
PHANTOM
100
AcDbLine
 10
99.74842
 20
143.147876
 30
0.0
 11
100.346687
 21
141.0562009999999
 31
0.0
  0
ARC
  5
C05D
330
BE4C
100
AcDbEntity
  8
5
  6
PHANTOM
100
AcDbCircle
 10
102.122321
 20
133.526637
 30
0.0
 40
6.739846
100
AcDbArc
 50
25.095239
 51
69.50158
  0
ARC
  5
C05E
330
BE4C
100
AcDbEntity
  8
5
  6
PHANTOM
100
AcDbCircle
 10
103.018882
 20
160.696933
 30
0.0
 40
26.88754799999999
100
AcDbArc
 50
287.720507
 51
291.5158109999999
  0
ARC
  5
C05F
330
BE4C
100
AcDbEntity
  8
5
  6
PHANTOM
100
AcDbCircle
 10
121.2127299999999
 20
114.546497
 30
0.0
 40
22.719694
100
AcDbArc
 50
104.227287
 51
111.515809
  0
ARC
  5
C060
330
BE4C
100
AcDbEntity
  8
5
  6
PHANTOM
100
AcDbCircle
 10
121.105415
 20
127.1457019999999
 30
0.0
 40
10.8994
100
AcDbArc
 50
107.9409899999999
 51
120.162712
  0
ARC
  5
C061
330
BE4C
100
AcDbEntity
  8
5
  6
PHANTOM
100
AcDbCircle
 10
455.4832829999998
 20
-905.581418
 30
0.0
 40
1096.410278
100
AcDbArc
 50
107.688082
 51
107.9409899999999
  0
LINE
  5
C062
330
BE4C
100
AcDbEntity
  8
1
  6
Continuous
100
AcDbLine
 10
102.282172
 20
161.12009
 30
0.0
 11
113.34777
 21
158.156574
 31
0.0
  0
LINE
  5
C063
330
BE4C
100
AcDbEntity
  8
1
  6
Continuous
100
AcDbLine
 10
103.071876
 20
162.977054
 30
0.0
 11
113.9102389999999
 21
160.1138489999998
 31
0.0
  0
ARC
  5
C064
330
BE4C
100
AcDbEntity
  8
1
  6
Continuous
100
AcDbCircle
 10
101.7533479999999
 20
127.241672
 30
0.0
 40
22.719694
100
AcDbArc
 50
65.227289
 51
72.51581100000001
  0
LINE
  5
C065
330
BE4C
100
AcDbEntity
  8
1
  6
Continuous
100
AcDbLine
 10
103.071876
 20
162.977054
 30
0.0
 11
102.220481
 21
160.9750169999998
 31
0.0
  0
ARC
  5
C066
330
BE4C
100
AcDbEntity
  8
1
  6
Continuous
100
AcDbCircle
 10
100.872504
 20
158.757922
 30
0.0
 40
2.594708999999999
100
AcDbArc
 50
30.53411500000001
 51
58.700872
  0
ARC
  5
C067
330
BE4C
100
AcDbEntity
  8
1
  6
Continuous
100
AcDbCircle
 10
-4561.451745
 20
-2591.301511000001
 30
0.0
 40
5415.550781
100
AcDbArc
 50
30.501579
 51
30.53411500000001
  0
ARC
  5
C068
330
BE4C
100
AcDbEntity
  8
1
  6
Continuous
100
AcDbCircle
 10
98.8619
 20
154.0059999999998
 30
0.0
 40
6.739846
100
AcDbArc
 50
346.095239
 51
30.501579
  0
ARC
  5
C069
330
BE4C
100
AcDbEntity
  8
1
  6
Continuous
100
AcDbCircle
 10
116.6574779999999
 20
174.5570559999999
 30
0.0
 40
26.88754799999999
100
AcDbArc
 50
248.720502
 51
252.5158129999999
  0
ARC
  5
C06A
330
BE4C
100
AcDbEntity
  8
1
  6
Continuous
100
AcDbCircle
 10
107.792365
 20
151.7951459999999
 30
0.0
 40
2.460205999999999
100
AcDbArc
 50
166.0952429999998
 51
248.7204919999999
  0
ARC
  5
C06B
330
BE4C
100
AcDbEntity
  8
1
  6
Continuous
100
AcDbCircle
 10
116.6313389999999
 20
160.385623
 30
0.0
 40
2.440793999999999
100
AcDbArc
 50
232.2584009999999
 51
263.7016609999998
  0
LINE
  5
C06C
330
BE4C
100
AcDbEntity
  8
1
  6
Continuous
100
AcDbLine
 10
113.34777
 20
158.156574
 30
0.0
 11
114.0411139999998
 21
160.011333
 31
0.0
  0
ARC
  5
C06D
330
BE4C
100
AcDbEntity
  8
1
  6
Continuous
100
AcDbCircle
 10
113.320701
 20
158.3609419999999
 30
0.0
 40
1.038931
100
AcDbArc
 50
31.097841
 51
64.15100799999999
  0
ARC
  5
C06E
330
BE4C
100
AcDbEntity
  8
1
  6
Continuous
100
AcDbCircle
 10
113.1315529999999
 20
155.4423859999999
 30
0.0
 40
3.619658999999998
100
AcDbArc
 50
56.349033
 51
72.66062499999998
  0
ARC
  5
C06F
330
BE4C
100
AcDbEntity
  8
1
  6
Continuous
100
AcDbCircle
 10
113.8565129999998
 20
159.9104719999999
 30
0.0
 40
0.210357
100
AcDbArc
 50
28.650816
 51
75.20206299999998
  0
ARC
  5
C070
330
BE4C
100
AcDbEntity
  8
1
  6
Continuous
100
AcDbCircle
 10
117.9055399999999
 20
162.6493409999999
 30
0.0
 40
4.93677
100
AcDbArc
 50
251.7994349999999
 51
284.6765299999999
  0
LINE
  5
C071
330
BE4C
100
AcDbEntity
  8
1
  6
Continuous
100
AcDbLine
 10
123.0719209999999
 20
156.576
 30
0.0
 11
123.083076
 21
156.339481
 31
0.0
  0
LINE
  5
C072
330
BE4C
100
AcDbEntity
  8
1
  6
Continuous
100
AcDbLine
 10
119.4670939999999
 20
158.1056629999999
 30
0.0
 11
119.156333
 21
157.8736449999999
 31
0.0
  0
LINE
  5
C073
330
BE4C
100
AcDbEntity
  8
1
  6
Continuous
100
AcDbLine
 10
119.4670939999999
 20
158.1056699999998
 30
0.0
 11
123.071906
 21
156.576
 31
0.0
  0
ARC
  5
C074
330
BE4C
100
AcDbEntity
  8
1
  6
Continuous
100
AcDbCircle
 10
109.598884
 20
137.100627
 30
0.0
 40
10.8994
100
AcDbArc
 50
68.940993
 51
81.16270799999998
  0
ARC
  5
C075
330
BE4C
100
AcDbEntity
  8
1
  6
Continuous
100
AcDbCircle
 10
-280.4569179999999
 20
-875.9099089999999
 30
0.0
 40
1096.410278
100
AcDbArc
 50
68.68807700000001
 51
68.940993
  0
LINE
  5
C076
330
BE4C
100
AcDbEntity
  8
5
  6
PHANTOM
100
AcDbLine
 10
119.3196629999999
 20
150.759746
 30
0.0
 11
119.47718
 21
150.5829579999999
 31
0.0
  0
ARC
  5
C077
330
BE4C
100
AcDbEntity
  8
5
  6
PHANTOM
100
AcDbCircle
 10
119.488792
 20
154.8521759999999
 30
0.0
 40
4.269231999999997
100
AcDbArc
 50
269.844337
 51
308.5458459999999
  0
LINE
  5
C078
330
BE4C
100
AcDbEntity
  8
5
  6
PHANTOM
100
AcDbLine
 10
115.5555639999999
 20
149.6799419999998
 30
0.0
 11
119.3196629999999
 21
150.759746
 31
0.0
  0
LINE
  5
C079
330
BE4C
100
AcDbEntity
  8
5
  6
PHANTOM
100
AcDbLine
 10
115.555549
 20
149.6799419999998
 30
0.0
 11
115.460059
 21
149.3040649999998
 31
0.0
  0
ARC
  5
C07A
330
BE4C
100
AcDbEntity
  8
5
  6
PHANTOM
100
AcDbCircle
 10
111.4825659999999
 20
152.2283199999999
 30
0.0
 40
4.93677
100
AcDbArc
 50
290.799433
 51
323.676531
  0
ARC
  5
C07B
330
BE4C
100
AcDbEntity
  8
5
  6
PHANTOM
100
AcDbCircle
 10
112.307975
 20
143.6231029999999
 30
0.0
 40
3.619658999999998
100
AcDbArc
 50
95.34903100000002
 51
111.6606219999999
  0
ARC
  5
C07C
330
BE4C
100
AcDbEntity
  8
5
  6
PHANTOM
100
AcDbCircle
 10
110.618262
 20
146.01028
 30
0.0
 40
1.038931
100
AcDbArc
 50
70.09784200000002
 51
103.151006
  0
LINE
  5
C07D
330
BE4C
100
AcDbEntity
  8
5
  6
PHANTOM
100
AcDbLine
 10
110.7679049999999
 20
145.8684879999998
 30
0.0
 11
110.139503
 21
147.7462419999999
 31
0.0
  0
ARC
  5
C07E
330
BE4C
100
AcDbEntity
  8
5
  6
PHANTOM
100
AcDbCircle
 10
111.9169379999999
 20
149.667201
 30
0.0
 40
2.440793999999999
100
AcDbArc
 50
271.258398
 51
302.701659
  0
LINE
  5
C07F
330
BE4C
100
AcDbEntity
  8
1
  6
Continuous
100
AcDbLine
 10
115.223746
 20
158.391582
 30
0.0
 11
111.326759
 21
147.8621929999999
 31
0.0
  0
ARC
  5
C080
330
BE4C
100
AcDbEntity
  8
5
  6
PHANTOM
100
AcDbCircle
 10
113.45452
 20
162.4258529999998
 30
0.0
 40
13.95287699999999
100
AcDbArc
 50
308.5458459999999
 51
318.438777
  0
ARC
  5
C081
330
BE4C
100
AcDbEntity
  8
1
  6
Continuous
100
AcDbCircle
 10
148.2772589999999
 20
144.5122409999999
 30
0.0
 40
3.833123
100
AcDbArc
 50
325.9331439999999
 51
347.9581
  0
ARC
  5
C082
330
BE4C
100
AcDbEntity
  8
1
  6
Continuous
100
AcDbCircle
 10
251.296333
 20
106.1757459999999
 30
0.0
 40
123.5627139999998
100
AcDbArc
 50
162.1740479999999
 51
164.262006
  0
ARC
  5
C083
330
BE4C
100
AcDbEntity
  8
5
  6
PHANTOM
100
AcDbCircle
 10
125.009559
 20
164.102901
 30
0.0
 40
23.93382099999999
100
AcDbArc
 50
287.737541
 51
299.683153
  0
ARC
  5
C084
330
BE4C
100
AcDbEntity
  8
1
  6
Continuous
100
AcDbCircle
 10
129.1639629999999
 20
112.374561
 30
0.0
 40
27.92838099999999
100
AcDbArc
 50
57.844169
 51
74.38523399999998
  0
ARC
  5
C085
330
BE4C
100
AcDbEntity
  8
1
  6
Continuous
100
AcDbCircle
 10
135.890906
 20
163.36481
 30
0.0
 40
23.93382099999999
100
AcDbArc
 50
248.737537
 51
260.6831549999998
  0
ARC
  5
C086
330
BE4C
100
AcDbEntity
  8
1
  6
Continuous
100
AcDbCircle
 10
132.628928
 20
142.349277
 30
0.0
 40
2.671529999999997
100
AcDbArc
 50
256.74801
 51
271.11771
  0
ARC
  5
C087
330
BE4C
100
AcDbEntity
  8
1
  6
Continuous
100
AcDbCircle
 10
151.991309
 20
310.0103789999999
 30
0.0
 40
171.423233
100
AcDbArc
 50
263.532088
 51
264.8760509999998
  0
ARC
  5
C088
330
BE4C
100
AcDbEntity
  8
5
  6
PHANTOM
100
AcDbCircle
 10
123.818732
 20
167.82587
 30
0.0
 40
27.842596
100
AcDbArc
 50
278.453948
 51
287.737541
  0
ARC
  5
C089
330
BE4C
100
AcDbEntity
  8
1
  6
Continuous
100
AcDbCircle
 10
174.1436069999998
 20
183.9232669999999
 30
0.0
 40
56.58425499999999
100
AcDbArc
 50
237.84417
 51
247.0983529999998
  0
LINE
  5
C08A
330
BE4C
100
AcDbEntity
  8
1
  6
Continuous
100
AcDbLine
 10
152.0793529999999
 20
140.267833
 30
0.0
 11
152.0922459999999
 21
139.449825
 31
0.0
  0
ARC
  5
C08B
330
BE4C
100
AcDbEntity
  8
1
  6
Continuous
100
AcDbCircle
 10
153.263236
 20
143.028415
 30
0.0
 40
3.003727999999998
100
AcDbArc
 50
246.787777
 51
285.585185
  0
ARC
  5
C08C
330
BE4C
100
AcDbEntity
  8
1
  6
Continuous
100
AcDbCircle
 10
152.6240459999999
 20
141.57291
 30
0.0
 40
1.414184999999997
100
AcDbArc
 50
145.9331389999998
 51
247.3461759999999
  0
ARC
  5
C08D
330
BE4C
100
AcDbEntity
  8
1
  6
Continuous
100
AcDbCircle
 10
143.3867409999998
 20
152.446239
 30
0.0
 40
3.284759999999999
100
AcDbArc
 50
90.80094499999995
 51
145.451447
  0
LINE
  5
C08E
330
BE4C
100
AcDbEntity
  8
5
  6
PHANTOM
100
AcDbLine
 10
134.493446
 20
159.9368169999999
 30
0.0
 11
144.976661
 21
163.410098
 31
0.0
  0
ARC
  5
C08F
330
BE4C
100
AcDbEntity
  8
5
  6
PHANTOM
100
AcDbCircle
 10
151.870948
 20
120.2426409999999
 30
0.0
 40
27.92838099999999
100
AcDbArc
 50
96.844166
 51
113.385232
  0
LINE
  5
C090
330
BE4C
100
AcDbEntity
  8
1
  6
Continuous
100
AcDbLine
 10
140.6394569999999
 20
154.158756
 30
0.0
 11
150.972251
 21
150.2607
 31
0.0
  0
ARC
  5
C091
330
BE4C
100
AcDbEntity
  8
1
  6
Continuous
100
AcDbCircle
 10
136.3294139999998
 20
152.3187819999999
 30
0.0
 40
1.086873999999999
100
AcDbArc
 50
38.954485
 51
64.13963599999999
  0
ARC
  5
C092
330
BE4C
100
AcDbEntity
  8
1
  6
Continuous
100
AcDbCircle
 10
125.446952
 20
136.472163
 30
0.0
 40
20.298761
100
AcDbArc
 50
55.98089599999998
 51
63.073792
  0
ARC
  5
C093
330
BE4C
100
AcDbEntity
  8
1
  6
Continuous
100
AcDbCircle
 10
129.870597
 20
145.181781
 30
0.0
 40
10.530131
100
AcDbArc
 50
63.073792
 51
99.43877800000002
  0
ARC
  5
C094
330
BE4C
100
AcDbEntity
  8
1
  6
Continuous
100
AcDbCircle
 10
125.855537
 20
169.3333159999999
 30
0.0
 40
13.95287699999999
100
AcDbArc
 50
269.5458449999999
 51
279.438779
  0
ARC
  5
C095
330
BE4C
100
AcDbEntity
  8
5
  6
PHANTOM
100
AcDbCircle
 10
139.901405
 20
157.700183
 30
0.0
 40
6.714102999999997
100
AcDbArc
 50
109.284898
 51
129.8009419999999
  0
ARC
  5
C096
330
BE4C
100
AcDbEntity
  8
5
  6
PHANTOM
100
AcDbCircle
 10
115.248084
 20
151.671817
 30
0.0
 40
20.94500899999999
100
AcDbArc
 50
14.37038999999999
 51
23.668023
  0
ARC
  5
C097
330
BE4C
100
AcDbEntity
  8
5
  6
PHANTOM
100
AcDbCircle
 10
135.249076
 20
153.1492649999998
 30
0.0
 40
3.732066
100
AcDbArc
 50
85.56350100000001
 51
106.7198209999999
  0
ARC
  5
C098
330
BE4C
100
AcDbEntity
  8
5
  6
PHANTOM
100
AcDbCircle
 10
137.706199
 20
160.334857
 30
0.0
 40
3.284759999999999
100
AcDbArc
 50
129.8009419999999
 51
184.4514439999999
  0
ARC
  5
C099
330
BE4C
100
AcDbEntity
  8
5
  6
PHANTOM
100
AcDbCircle
 10
133.5231239999999
 20
158.894946
 30
0.0
 40
2.267253999999998
100
AcDbArc
 50
243.9841279999999
 51
286.719816
  0
ARC
  5
C09A
330
BE4C
100
AcDbEntity
  8
5
  6
PHANTOM
100
AcDbCircle
 10
132.3018409999999
 20
155.794483
 30
0.0
 40
1.086873999999999
100
AcDbArc
 50
77.954486
 51
103.139634
  0
ARC
  5
C09B
330
BE4C
100
AcDbEntity
  8
5
  6
PHANTOM
100
AcDbCircle
 10
133.8171759999999
 20
136.630801
 30
0.0
 40
20.298761
100
AcDbArc
 50
94.98089699999999
 51
102.073789
  0
ARC
  5
C09C
330
BE4C
100
AcDbEntity
  8
5
  6
PHANTOM
100
AcDbCircle
 10
250.6866519999999
 20
192.2856319999999
 30
0.0
 40
123.5627139999998
100
AcDbArc
 50
196.650248
 51
198.908923
  0
LINE
  5
C09D
330
BE4C
100
AcDbEntity
  8
5
  6
PHANTOM
100
AcDbLine
 10
137.683967
 20
164.0375469999999
 30
0.0
 11
140.900169
 21
165.1628979999999
 31
0.0
  0
ARC
  5
C09E
330
BE4C
100
AcDbEntity
  8
5
  6
PHANTOM
100
AcDbCircle
 10
250.6866519999999
 20
192.2856319999999
 30
0.0
 40
123.5627139999998
100
AcDbArc
 50
200.9023819999999
 51
203.262007
  0
ARC
  5
C09F
330
BE4C
100
AcDbEntity
  8
5
  6
PHANTOM
100
AcDbCircle
 10
135.7000339999999
 20
145.717937
 30
0.0
 40
2.671529999999997
100
AcDbArc
 50
295.748014
 51
310.1177079999998
  0
ARC
  5
C0A0
330
BE4C
100
AcDbEntity
  8
5
  6
PHANTOM
100
AcDbCircle
 10
45.234878
 20
288.2002289999999
 30
0.0
 40
171.423233
100
AcDbArc
 50
302.5320859999999
 51
303.876052
  0
LINE
  5
C0A1
330
BE4C
100
AcDbEntity
  8
1
  6
Continuous
100
AcDbLine
 10
137.0156469999998
 20
153.1616319999999
 30
0.0
 11
139.521125
 21
151.1182889999998
 31
0.0
  0
LINE
  5
C0A2
330
BE4C
100
AcDbEntity
  8
1
  6
Continuous
100
AcDbLine
 10
140.6812509999998
 20
154.3090389999998
 30
0.0
 11
139.521125
 21
151.1182889999998
 31
0.0
  0
ARC
  5
C0A3
330
BE4C
100
AcDbEntity
  8
1
  6
Continuous
100
AcDbCircle
 10
251.296333
 20
106.1757459999999
 30
0.0
 40
123.5627139999998
100
AcDbArc
 50
157.650246
 51
159.637255
  0
ARC
  5
C0A4
330
BE4C
100
AcDbEntity
  8
1
  6
Continuous
100
AcDbCircle
 10
147.832084
 20
151.187846
 30
0.0
 40
3.187289999999998
100
AcDbArc
 50
24.02594
 51
70.284901
  0
LINE
  5
C0A5
330
BE4C
100
AcDbEntity
  8
1
  6
Continuous
100
AcDbLine
 10
145.6996379999999
 20
155.3377639999999
 30
0.0
 11
148.9072939999998
 21
154.1883039999999
 31
0.0
  0
ARC
  5
C0A6
330
BE4C
100
AcDbEntity
  8
1
  6
Continuous
100
AcDbCircle
 10
143.4346689999999
 20
149.01723
 30
0.0
 40
6.714102999999997
100
AcDbArc
 50
70.284901
 51
90.80094499999995
  0
ARC
  5
C0A7
330
BE4C
100
AcDbEntity
  8
5
  6
PHANTOM
100
AcDbCircle
 10
145.4416879999999
 20
162.4298129999999
 30
0.0
 40
0.367205
100
AcDbArc
 50
124.162457
 51
197.688802
  0
ARC
  5
C0A8
330
BE4C
100
AcDbEntity
  8
5
  6
PHANTOM
100
AcDbCircle
 10
157.578437
 20
166.3005249999999
 30
0.0
 40
13.106242
100
AcDbArc
 50
197.688805
 51
210.4064539999999
  0
ARC
  5
C0A9
330
BE4C
100
AcDbEntity
  8
5
  6
PHANTOM
100
AcDbCircle
 10
146.2995519999998
 20
164.401065
 30
0.0
 40
4.734078
100
AcDbArc
 50
269.4296699999999
 51
298.3840579999998
  0
ARC
  5
C0AA
330
BE4C
100
AcDbEntity
  8
5
  6
PHANTOM
100
AcDbCircle
 10
141.770057
 20
161.795352
 30
0.0
 40
3.590214
100
AcDbArc
 50
15.150125
 51
63.02593899999999
  0
LINE
  5
C0AB
330
BE4C
100
AcDbEntity
  8
5
  6
PHANTOM
100
AcDbLine
 10
148.55004
 20
160.236118
 30
0.0
 11
149.91648
 21
158.984386
 31
0.0
  0
ARC
  5
C0AC
330
BE4C
100
AcDbEntity
  8
5
  6
PHANTOM
100
AcDbCircle
 10
151.7277439999998
 20
157.6979249999999
 30
0.0
 40
1.414184999999997
100
AcDbArc
 50
184.9331399999999
 51
286.3461699999998
  0
ARC
  5
C0AD
330
BE4C
100
AcDbEntity
  8
5
  6
PHANTOM
100
AcDbCircle
 10
151.3085089999999
 20
159.2313189999998
 30
0.0
 40
3.003727999999998
100
AcDbArc
 50
285.787782
 51
324.5851859999999
  0
LINE
  5
C0AE
330
BE4C
100
AcDbEntity
  8
5
  6
PHANTOM
100
AcDbLine
 10
152.1257389999998
 20
156.3409
 30
0.0
 11
152.65055
 21
155.7133059999999
 31
0.0
  0
ARC
  5
C0AF
330
BE4C
100
AcDbEntity
  8
5
  6
PHANTOM
100
AcDbCircle
 10
146.4998689999999
 20
157.246692
 30
0.0
 40
3.833123
100
AcDbArc
 50
4.933144999999997
 51
26.958099
  0
LINE
  5
C0B0
330
BE4C
100
AcDbEntity
  8
1
  6
Continuous
100
AcDbLine
 10
151.751838
 20
145.545253
 30
0.0
 11
152.026038
 21
143.71255
 31
0.0
  0
LINE
  5
C0B1
330
BE4C
100
AcDbEntity
  8
1
  6
Continuous
100
AcDbLine
 10
149.6082529999999
 20
146.54906
 30
0.0
 11
151.751838
 21
145.5452379999998
 31
0.0
  0
LINE
  5
C0B2
330
BE4C
100
AcDbEntity
  8
1
  6
Continuous
100
AcDbLine
 10
150.972251
 20
150.260707
 30
0.0
 11
149.6082529999999
 21
146.5490749999998
 31
0.0
  0
ARC
  5
C0B3
330
BE4C
100
AcDbEntity
  8
1
  6
Continuous
100
AcDbCircle
 10
147.464057
 20
151.0237919999999
 30
0.0
 40
3.590214
100
AcDbArc
 50
336.150123
 51
24.02594
  0
LINE
  5
C0B4
330
BE4C
100
AcDbEntity
  8
1
  6
Continuous
100
AcDbLine
 10
160.154182
 20
129.848117
 30
0.0
 11
161.502616
 21
131.0275829999999
 31
0.0
  0
ARC
  5
C0B5
330
BE4C
100
AcDbEntity
  8
1
  6
Continuous
100
AcDbCircle
 10
158.2732609999999
 20
131.6604419999999
 30
0.0
 40
1.162484
100
AcDbArc
 50
268.9252189999999
 51
323.707377
  0
ARC
  5
C0B6
330
BE4C
100
AcDbEntity
  8
5
  6
PHANTOM
100
AcDbCircle
 10
162.356132
 20
153.5496549999998
 30
0.0
 40
1.162484
100
AcDbArc
 50
307.925221
 51
2.707376
  0
LINE
  5
C0B7
330
BE4C
100
AcDbEntity
  8
5
  6
PHANTOM
100
AcDbLine
 10
164.958396
 20
153.3249159999998
 30
0.0
 11
165.2640599999998
 21
155.090137
 31
0.0
  0
ARC
  5
C0B8
330
BE4C
100
AcDbEntity
  8
5
  6
PHANTOM
100
AcDbCircle
 10
152.902396
 20
165.6824829999999
 30
0.0
 40
16.543596
100
AcDbArc
 50
286.0983499999999
 51
307.925221
  0
ARC
  5
C0B9
330
BE4C
100
AcDbEntity
  8
1
  6
Continuous
100
AcDbCircle
 10
157.2786479999998
 20
221.872559
 30
0.0
 40
2.909844999999998
100
AcDbArc
 50
223.9297909999999
 51
278.412345
  0
ARC
  5
C0BA
330
BE4C
100
AcDbEntity
  8
1
  6
Continuous
100
AcDbCircle
 10
158.2921899999998
 20
222.022446
 30
0.0
 40
2.909844999999998
100
AcDbArc
 50
223.9297909999999
 51
336.070203
  0
ARC
  5
C0BB
330
BE4C
100
AcDbEntity
  8
1
  6
Continuous
100
AcDbCircle
 10
108.63121
 20
229.0477979999999
 30
0.0
 40
5.5
100
AcDbArc
 50
179.9999909999999
 51
0.00001
  0
ARC
  5
C0BC
330
BE4C
100
AcDbEntity
  8
1
  6
Continuous
100
AcDbCircle
 10
107.7821719999999
 20
229.0477979999999
 30
0.0
 40
5.5
100
AcDbArc
 50
179.9999909999999
 51
274.426783
  0
LINE
  5
C0BD
330
BE4C
100
AcDbEntity
  8
1
  6
Continuous
100
AcDbLine
 10
152.90513
 20
225.654083
 30
0.0
 11
153.1516139999999
 21
223.987381
 31
0.0
  0
LINE
  5
C0BE
330
BE4C
100
AcDbEntity
  8
1
  6
Continuous
100
AcDbLine
 10
153.9408399999998
 20
225.654083
 30
0.0
 11
154.1651579999999
 21
224.137266
 31
0.0
  0
ARC
  5
C0BF
330
BE4C
100
AcDbEntity
  8
1
  6
Continuous
100
AcDbCircle
 10
160.6206119999999
 20
225.091949
 30
0.0
 40
7.550231
100
AcDbArc
 50
188.4123429999999
 51
223.9297909999999
  0
ARC
  5
C0C0
330
BE4C
100
AcDbEntity
  8
1
  6
Continuous
100
AcDbCircle
 10
161.634154
 20
225.241837
 30
0.0
 40
7.550231
100
AcDbArc
 50
188.4123429999999
 51
223.9297909999999
  0
LINE
  5
C0C1
330
BE4C
100
AcDbEntity
  8
1
  6
Continuous
100
AcDbLine
 10
114.1905359999999
 20
230.1540829999999
 30
0.0
 11
119.4086259999999
 21
230.1540829999999
 31
0.0
  0
LINE
  5
C0C2
330
BE4C
100
AcDbEntity
  8
1
  6
Continuous
100
AcDbLine
 10
102.282172
 20
236.0477939999999
 30
0.0
 11
113.448012
 21
236.0477939999999
 31
0.0
  0
LINE
  5
C0C3
330
BE4C
100
AcDbEntity
  8
1
  6
Continuous
100
AcDbLine
 10
102.282172
 20
236.0477939999999
 30
0.0
 11
102.282172
 21
229.0477979999999
 31
0.0
  0
LINE
  5
C0C4
330
BE4C
100
AcDbEntity
  8
1
  6
Continuous
100
AcDbLine
 10
103.13121
 20
236.0477939999999
 30
0.0
 11
103.13121
 21
229.0477979999999
 31
0.0
  0
ARC
  5
C0C5
330
BE4C
100
AcDbEntity
  8
1
  6
Continuous
100
AcDbCircle
 10
120.4204629999999
 20
233.654083
 30
0.0
 40
1.5
100
AcDbArc
 50
132.4198429999998
 51
175.1494639999999
  0
LINE
  5
C0C6
330
BE4C
100
AcDbEntity
  8
1
  6
Continuous
100
AcDbLine
 10
116.6321149999999
 20
232.154081
 30
0.0
 11
115.236567
 21
234.942828
 31
0.0
  0
LINE
  5
C0C7
330
BE4C
100
AcDbEntity
  8
1
  6
Continuous
100
AcDbLine
 10
114.1905359999999
 20
235.0477939999999
 30
0.0
 11
114.1905359999999
 21
229.0477979999999
 31
0.0
  0
LINE
  5
C0C8
330
BE4C
100
AcDbEntity
  8
1
  6
Continuous
100
AcDbLine
 10
116.63211
 20
232.1540829999999
 30
0.0
 11
118.78778
 21
232.1540829999999
 31
0.0
  0
LINE
  5
C0C9
330
BE4C
100
AcDbEntity
  8
1
  6
Continuous
100
AcDbLine
 10
114.8435609999999
 20
231.259052
 30
0.0
 11
114.1905389999999
 21
232.563999
 31
0.0
  0
ARC
  5
C0CA
330
BE4C
100
AcDbEntity
  8
1
  6
Continuous
100
AcDbCircle
 10
116.63211
 20
232.1540829999999
 30
0.0
 40
2.0
100
AcDbArc
 50
206.584348
 51
269.9999969999999
  0
ARC
  5
C0CB
330
BE4C
100
AcDbEntity
  8
1
  6
Continuous
100
AcDbCircle
 10
118.548354
 20
231.154083
 30
0.0
 40
1.0
100
AcDbArc
 50
269.9999969999999
 51
329.3470609999999
  0
LINE
  5
C0CC
330
BE4C
100
AcDbEntity
  8
1
  6
Continuous
100
AcDbLine
 10
118.7877789999999
 20
232.1540839999999
 30
0.0
 11
118.925834
 21
233.78092
 31
0.0
  0
ARC
  5
C0CD
330
BE4C
100
AcDbEntity
  8
1
  6
Continuous
100
AcDbCircle
 10
113.448012
 20
234.0477939999999
 30
0.0
 40
2.0
100
AcDbArc
 50
26.58435300000001
 51
90.00000300000001
  0
ARC
  5
C0CE
330
BE4C
100
AcDbEntity
  8
1
  6
Continuous
100
AcDbCircle
 10
113.1905359999999
 20
235.0477939999999
 30
0.0
 40
1.0
100
AcDbArc
 50
0.0
 51
90.00000300000001
  0
LINE
  5
C0CF
330
BE4C
100
AcDbEntity
  8
1
  6
Continuous
100
AcDbLine
 10
122.979864
 20
231.2386389999999
 30
0.0
 11
122.921645
 21
231.9246939999999
 31
0.0
  0
ARC
  5
C0D0
330
BE4C
100
AcDbEntity
  8
1
  6
Continuous
100
AcDbCircle
 10
121.9834429999998
 20
231.154083
 30
0.0
 40
1.0
100
AcDbArc
 50
341.9530229999999
 51
4.850539999999998
  0
ARC
  5
C0D1
330
BE4C
100
AcDbEntity
  8
1
  6
Continuous
100
AcDbCircle
 10
154.050681
 20
223.904667
 30
0.0
 40
7.550231
100
AcDbArc
 50
336.070203
 51
9.546331
  0
ARC
  5
C0D2
330
BE4C
100
AcDbEntity
  8
1
  6
Continuous
100
AcDbCircle
 10
158.2921899999998
 20
222.022446
 30
0.0
 40
2.909844999999998
100
AcDbArc
 50
278.412345
 51
336.070203
  0
LINE
  5
C0D3
330
BE4C
100
AcDbEntity
  8
1
  6
Continuous
100
AcDbLine
 10
157.7043469999999
 20
218.99402
 30
0.0
 11
158.7178909999998
 21
219.1439109999998
 31
0.0
  0
LINE
  5
C0D4
330
BE4C
100
AcDbEntity
  8
1
  6
Continuous
100
AcDbLine
 10
161.422818
 20
225.654083
 30
0.0
 11
161.5026079999998
 21
225.1145479999999
 31
0.0
  0
LINE
  5
C0D5
330
BE4C
100
AcDbEntity
  8
1
  6
Continuous
100
AcDbLine
 10
123.3468879999998
 20
230.1540829999999
 30
0.0
 11
128.4703629999999
 21
230.1540829999999
 31
0.0
  0
ARC
  5
C0D6
330
BE4C
100
AcDbEntity
  8
1
  6
Continuous
100
AcDbCircle
 10
216.317611
 20
154.5766079999999
 30
0.0
 40
0.5
100
AcDbArc
 50
22.42549599999999
 51
176.9221419999998
  0
ARC
  5
C0D7
330
BE4C
100
AcDbEntity
  8
1
  6
Continuous
100
AcDbCircle
 10
218.322677
 20
154.617044
 30
0.0
 40
0.5
100
AcDbArc
 50
22.42549599999999
 51
91.155404
  0
ARC
  5
C0D8
330
BE4C
100
AcDbEntity
  8
1
  6
Continuous
100
AcDbCircle
 10
70.57146800000002
 20
159.5507659999999
 30
0.0
 40
0.834336
100
AcDbArc
 50
284.589829
 51
75.41017499999998
  0
LINE
  5
C0D9
330
BE4C
100
AcDbEntity
  8
1
  6
Continuous
100
AcDbLine
 10
71.40580400000001
 20
161.5507659999998
 30
0.0
 11
71.40580400000001
 21
159.5507659999999
 31
0.0
  0
LINE
  5
C0DA
330
BE4C
100
AcDbEntity
  8
1
  6
Continuous
100
AcDbLine
 10
58.90580400000001
 20
160.9823689999998
 30
0.0
 11
58.90580400000001
 21
151.5172579999999
 31
0.0
  0
LINE
  5
C0DB
330
BE4C
100
AcDbEntity
  8
1
  6
Continuous
100
AcDbLine
 10
60.905804
 20
160.9823689999998
 30
0.0
 11
60.905804
 21
151.017258
 31
0.0
  0
LINE
  5
C0DC
330
BE4C
100
AcDbEntity
  8
1
  6
Continuous
100
AcDbLine
 10
151.586692
 20
85.15479199999999
 30
0.0
 11
152.302574
 21
89.995468
 31
0.0
  0
LINE
  5
C0DD
330
BE4C
100
AcDbEntity
  8
1
  6
Continuous
100
AcDbLine
 10
137.029624
 20
87.30759399999998
 30
0.0
 11
158.413932
 21
84.145134
 31
0.0
  0
LINE
  5
C0DE
330
BE4C
100
AcDbEntity
  8
1
  6
Continuous
100
AcDbLine
 10
136.182105
 20
85.411178
 30
0.0
 11
158.1213449999999
 21
82.16664899999997
 31
0.0
  0
ARC
  5
C0DF
330
BE4C
100
AcDbEntity
  8
1
  6
Continuous
100
AcDbCircle
 10
70.30968900000001
 20
133.800263
 30
0.0
 40
6.340179
100
AcDbArc
 50
50.37669799999999
 51
90.00000500000002
  0
ARC
  5
C0E0
330
BE4C
100
AcDbEntity
  8
1
  6
Continuous
100
AcDbCircle
 10
70.30968900000001
 20
132.620789
 30
0.0
 40
6.340179
100
AcDbArc
 50
50.37669799999999
 51
90.00000500000002
  0
ARC
  5
C0E1
330
BE4C
100
AcDbEntity
  8
1
  6
Continuous
100
AcDbCircle
 10
70.30968900000001
 20
136.1936189999999
 30
0.0
 40
6.340179
100
AcDbArc
 50
277.370682
 51
309.623304
  0
LINE
  5
C0E2
330
BE4C
100
AcDbEntity
  8
1
  6
Continuous
100
AcDbLine
 10
65.922665
 20
139.315819
 30
0.0
 11
62.483517
 21
128.374672
 31
0.0
  0
LINE
  5
C0E3
330
BE4C
100
AcDbEntity
  8
1
  6
Continuous
100
AcDbLine
 10
68.278347
 20
140.140434
 30
0.0
 11
64.391476
 21
127.7749409999999
 31
0.0
  0
LINE
  5
C0E4
330
BE4C
100
AcDbEntity
  8
1
  6
Continuous
100
AcDbLine
 10
63.83790199999999
 20
139.940155
 30
0.0
 11
62.41629399999999
 21
128.1608199999998
 31
0.0
  0
ARC
  5
C0E5
330
BE4C
100
AcDbEntity
  8
1
  6
Continuous
100
AcDbCircle
 10
65.44556800000001
 20
128.163078
 30
0.0
 40
1.0
100
AcDbArc
 50
97.370643
 51
135.3226
  0
LINE
  5
C0E6
330
BE4C
100
AcDbEntity
  8
1
  6
Continuous
100
AcDbLine
 10
64.391476
 20
127.7749409999999
 30
0.0
 11
62.483517
 21
128.374672
 31
0.0
  0
LINE
  5
C0E7
330
BE4C
100
AcDbEntity
  8
1
  6
Continuous
100
AcDbLine
 10
65.317288
 20
129.154808
 30
0.0
 11
71.123058
 21
129.9058229999999
 31
0.0
  0
LINE
  5
C0E8
330
BE4C
100
AcDbEntity
  8
1
  6
Continuous
100
AcDbLine
 10
64.799511
 20
155.082482
 30
0.0
 11
67.348736
 21
155.082482
 31
0.0
  0
LINE
  5
C0E9
330
BE4C
100
AcDbEntity
  8
1
  6
Continuous
100
AcDbLine
 10
67.84801899999999
 20
154.6093289999998
 30
0.0
 11
67.872789
 21
154.1486909999998
 31
0.0
  0
ARC
  5
C0EA
330
BE4C
100
AcDbEntity
  8
1
  6
Continuous
100
AcDbCircle
 10
63.79951099999999
 20
150.017258
 30
0.0
 40
1.0
100
AcDbArc
 50
0.000003
 51
90.00000500000002
  0
LINE
  5
C0EB
330
BE4C
100
AcDbEntity
  8
1
  6
Continuous
100
AcDbLine
 10
65.539547
 20
154.6093289999998
 30
0.0
 11
65.54675999999999
 21
154.475191
 31
0.0
  0
ARC
  5
C0EC
330
BE4C
100
AcDbEntity
  8
1
  6
Continuous
100
AcDbCircle
 10
65.04026399999999
 20
154.5824819999999
 30
0.0
 40
0.5
100
AcDbArc
 50
3.077856
 51
90.00000500000002
  0
ARC
  5
C0ED
330
BE4C
100
AcDbEntity
  8
1
  6
Continuous
100
AcDbCircle
 10
67.348736
 20
154.5824819999999
 30
0.0
 40
0.5
100
AcDbArc
 50
3.077856
 51
90.00000500000002
  0
ARC
  5
C0EE
330
BE4C
100
AcDbEntity
  8
1
  6
Continuous
100
AcDbCircle
 10
59.905804
 20
151.5172579999999
 30
0.0
 40
1.0
100
AcDbArc
 50
179.999997
 51
269.9999969999999
  0
LINE
  5
C0EF
330
BE4C
100
AcDbEntity
  8
1
  6
Continuous
100
AcDbLine
 10
65.905804
 20
158.1191709999998
 30
0.0
 11
60.905804
 21
158.1191709999998
 31
0.0
  0
LINE
  5
C0F0
330
BE4C
100
AcDbEntity
  8
1
  6
Continuous
100
AcDbLine
 10
60.905804
 20
151.017258
 30
0.0
 11
63.79951099999999
 21
151.017258
 31
0.0
  0
LINE
  5
C0F1
330
BE4C
100
AcDbEntity
  8
1
  6
Continuous
100
AcDbLine
 10
59.905804
 20
150.5172579999999
 30
0.0
 11
62.79951099999999
 21
150.5172579999999
 31
0.0
  0
ARC
  5
C0F2
330
BE4C
100
AcDbEntity
  8
1
  6
Continuous
100
AcDbCircle
 10
65.905804
 20
177.475578
 30
0.0
 40
19.356407
100
AcDbArc
 50
269.9999969999999
 51
284.589829
  0
ARC
  5
C0F3
330
BE4C
100
AcDbEntity
  8
1
  6
Continuous
100
AcDbCircle
 10
67.796658
 20
140.2143629999999
 30
0.0
 40
0.481696
100
AcDbArc
 50
342.5503990000001
 51
90.00000500000002
  0
LINE
  5
C0F4
330
BE4C
100
AcDbEntity
  8
1
  6
Continuous
100
AcDbLine
 10
64.22575000000001
 20
139.8240129999998
 30
0.0
 11
65.92268
 21
139.315819
 31
0.0
  0
ARC
  5
C0F5
330
BE4C
100
AcDbEntity
  8
1
  6
Continuous
100
AcDbCircle
 10
64.799511
 20
141.739937
 30
0.0
 40
2.0
100
AcDbArc
 50
179.999997
 51
253.3282509999999
  0
LINE
  5
C0F6
330
BE4C
100
AcDbEntity
  8
1
  6
Continuous
100
AcDbLine
 10
64.799511
 20
140.6960599999999
 30
0.0
 11
67.796658
 21
140.6960599999999
 31
0.0
  0
LINE
  5
C0F7
330
BE4C
100
AcDbEntity
  8
1
  6
Continuous
100
AcDbLine
 10
68.278347
 20
140.1404419999997
 30
0.0
 11
70.30968900000001
 21
140.1404419999997
 31
0.0
  0
LINE
  5
C0F8
330
BE4C
100
AcDbEntity
  8
1
  6
Continuous
100
AcDbLine
 10
67.907604
 20
138.9609679999997
 30
0.0
 11
70.30968900000001
 21
138.9609679999997
 31
0.0
  0
LINE
  5
C0F9
330
BE4C
100
AcDbEntity
  8
1
  6
Continuous
100
AcDbLine
 10
62.79951099999999
 20
150.5172579999999
 30
0.0
 11
62.79951099999999
 21
141.739937
 31
0.0
  0
LINE
  5
C0FA
330
BE4C
100
AcDbEntity
  8
1
  6
Continuous
100
AcDbLine
 10
64.799511
 20
158.1191709999998
 30
0.0
 11
64.799511
 21
140.6960599999999
 31
0.0
  0
LINE
  5
C0FB
330
BE4C
100
AcDbEntity
  8
1
  6
Continuous
100
AcDbLine
 10
68.278347
 20
142.6016909999999
 30
0.0
 11
68.278347
 21
140.1404419999997
 31
0.0
  0
ARC
  5
C0FC
330
BE4C
100
AcDbEntity
  8
1
  6
Continuous
100
AcDbCircle
 10
71.78876899999997
 20
134.407204
 30
0.0
 40
4.020926
100
AcDbArc
 50
309.623304
 51
61.115504
  0
ARC
  5
C0FD
330
BE4C
100
AcDbEntity
  8
1
  6
Continuous
100
AcDbCircle
 10
71.78876899999997
 20
135.586678
 30
0.0
 40
4.020926
100
AcDbArc
 50
351.566194
 51
50.37669799999999
  0
LINE
  5
C0FE
330
BE4C
100
AcDbEntity
  8
1
  6
Continuous
100
AcDbLine
 10
75.80968900000002
 20
135.586678
 30
0.0
 11
75.80968900000002
 21
134.407204
 31
0.0
  0
LINE
  5
C0FF
330
BE4C
100
AcDbEntity
  8
1
  6
Continuous
100
AcDbLine
 10
113.661827
 20
83.82876600000001
 30
0.0
 11
132.7234719999998
 21
83.82876600000001
 31
0.0
  0
LINE
  5
C100
330
BE4C
100
AcDbEntity
  8
1
  6
Continuous
100
AcDbLine
 10
113.604225
 20
81.828766
 30
0.0
 11
134.9023199999998
 21
81.828766
 31
0.0
  0
LINE
  5
C101
330
BE4C
100
AcDbEntity
  8
1
  6
Continuous
100
AcDbLine
 10
102.2821729999999
 20
79.935058
 30
0.0
 11
110.477729
 21
79.935058
 31
0.0
  0
LINE
  5
C102
330
BE4C
100
AcDbEntity
  8
1
  6
Continuous
100
AcDbLine
 10
102.2821729999999
 20
77.935058
 30
0.0
 11
112.5989759999999
 21
77.935058
 31
0.0
  0
ARC
  5
C103
330
BE4C
100
AcDbEntity
  8
1
  6
Continuous
100
AcDbCircle
 10
107.7821729999999
 20
84.93505799999999
 30
0.0
 40
5.5
100
AcDbArc
 50
0.0
 51
180.000005
  0
LINE
  5
C104
330
BE4C
100
AcDbEntity
  8
1
  6
Continuous
100
AcDbLine
 10
103.7762979999999
 20
77.935058
 30
0.0
 11
103.7762979999999
 21
79.935058
 31
0.0
  0
LINE
  5
C105
330
BE4C
100
AcDbEntity
  8
1
  6
Continuous
100
AcDbLine
 10
102.2821729999999
 20
77.935058
 30
0.0
 11
102.2821729999999
 21
84.93505799999999
 31
0.0
  0
LINE
  5
C106
330
BE4C
100
AcDbEntity
  8
1
  6
Continuous
100
AcDbLine
 10
113.341499
 20
83.82876600000001
 30
0.0
 11
113.341499
 21
84.93505799999999
 31
0.0
  0
LINE
  5
C107
330
BE4C
100
AcDbEntity
  8
1
  6
Continuous
100
AcDbLine
 10
115.783073
 20
81.82875799999996
 30
0.0
 11
114.387535
 21
79.040024
 31
0.0
  0
LINE
  5
C108
330
BE4C
100
AcDbEntity
  8
1
  6
Continuous
100
AcDbLine
 10
111.8732679999999
 20
82.723785
 30
0.0
 11
110.477729
 21
79.935051
 31
0.0
  0
ARC
  5
C109
330
BE4C
100
AcDbEntity
  8
1
  6
Continuous
100
AcDbCircle
 10
110.4201269999999
 20
79.935058
 30
0.0
 40
2.0
100
AcDbArc
 50
269.9999969999999
 51
333.4156469999999
  0
LINE
  5
C10A
330
BE4C
100
AcDbEntity
  8
1
  6
Continuous
100
AcDbLine
 10
113.604225
 20
81.82875799999996
 30
0.0
 11
112.208671
 21
79.040008
 31
0.0
  0
ARC
  5
C10B
330
BE4C
100
AcDbEntity
  8
1
  6
Continuous
100
AcDbCircle
 10
112.5989759999999
 20
79.935058
 30
0.0
 40
2.0
100
AcDbArc
 50
269.9999969999999
 51
333.4156469999999
  0
ARC
  5
C10C
330
BE4C
100
AcDbEntity
  8
1
  6
Continuous
100
AcDbCircle
 10
113.661827
 20
81.828766
 30
0.0
 40
2.0
100
AcDbArc
 50
90.00000300000001
 51
153.4156519999999
  0
LWPOLYLINE
  5
C10D
330
BE4C
100
AcDbEntity
  8
1
  6
Continuous
100
AcDbPolyline
 90
       18
 70
     0
 43
0.0
 10
134.206077
 20
86.05267299999999
 10
134.3220739999999
 20
86.20373499999997
 10
134.447242
 20
86.34729
 10
134.5810769999999
 20
86.48278799999998
 10
134.723136
 20
86.609741
 10
134.8727639999999
 20
86.72758499999996
 10
135.0294409999999
 20
86.83590699999998
 10
135.192573
 20
86.93429499999997
 10
135.3614879999998
 20
87.022323
 10
135.53553
 20
87.09968499999998
 10
135.7141029999999
 20
87.166092
 10
135.8964
 20
87.221252
 10
136.081779
 20
87.26496899999999
 10
136.2695229999999
 20
87.29707299999999
 10
136.4589459999999
 20
87.31745899999998
 10
136.649223
 20
87.32601899999997
 10
136.839652
 20
87.32273799999999
 10
137.0296089999999
 20
87.307602
  0
ARC
  5
C121
330
BE4C
100
AcDbEntity
  8
1
  6
Continuous
100
AcDbCircle
 10
134.9023199999998
 20
83.82876600000001
 30
0.0
 40
2.0
100
AcDbArc
 50
269.9999969999999
 51
326.309931
  0
LWPOLYLINE
  5
C122
330
BE4C
100
AcDbEntity
  8
1
  6
Continuous
100
AcDbPolyline
 90
        2
 70
     0
 43
0.0
 10
134.38758
 20
82.71935999999998
 10
136.182121
 20
85.411178
  0
LWPOLYLINE
  5
C126
330
BE4C
100
AcDbEntity
  8
1
  6
Continuous
100
AcDbPolyline
 90
        2
 70
     0
 43
0.0
 10
132.7234719999998
 20
83.82876600000001
 10
134.2060919999999
 20
86.052704
  0
ARC
  5
C12A
330
BE4C
100
AcDbEntity
  8
1
  6
Continuous
100
AcDbCircle
 10
132.7234719999998
 20
83.82876600000001
 30
0.0
 40
2.0
100
AcDbArc
 50
269.9999969999999
 51
326.309931
  0
ARC
  5
C12B
330
BE4C
100
AcDbEntity
  8
1
  6
Continuous
100
AcDbCircle
 10
136.422401
 20
84.87020799999998
 30
0.0
 40
0.5
100
AcDbArc
 50
81.58765499999999
 51
146.309933
  0
ARC
  5
C12C
330
BE4C
100
AcDbEntity
  8
1
  6
Continuous
100
AcDbCircle
 10
147.530021
 20
81.203613
 30
0.0
 40
0.625342
100
AcDbArc
 50
261.5876559999999
 51
341.5650509999999
  0
LINE
  5
C12D
330
BE4C
100
AcDbEntity
  8
1
  6
Continuous
100
AcDbLine
 10
146.4249949999999
 20
80.73488600000002
 30
0.0
 11
147.4385449999998
 21
80.58499899999999
 31
0.0
  0
ARC
  5
C12E
330
BE4C
100
AcDbEntity
  8
1
  6
Continuous
100
AcDbCircle
 10
146.516487
 20
81.35349999999998
 30
0.0
 40
0.625342
100
AcDbArc
 50
190.7843039999999
 51
341.5650509999999
  0
LWPOLYLINE
  5
C12F
330
BE4C
100
AcDbEntity
  8
1
  6
Continuous
100
AcDbPolyline
 90
        2
 70
     0
 43
0.0
 10
148.961738
 20
83.52124000000001
 10
148.1232679999999
 20
81.005859
  0
LWPOLYLINE
  5
C133
330
BE4C
100
AcDbEntity
  8
1
  6
Continuous
100
AcDbPolyline
 90
        2
 70
     0
 43
0.0
 10
145.3656989999998
 20
84.053055
 10
145.902183
 20
81.236496
  0
LWPOLYLINE
  5
C137
330
BE4C
100
AcDbEntity
  8
1
  6
Continuous
100
AcDbPolyline
 90
        2
 70
     0
 43
0.0
 10
147.9481879999999
 20
83.67112699999998
 10
147.109733
 20
81.155761
  0
LWPOLYLINE
  5
C13B
330
BE4C
100
AcDbEntity
  8
1
  6
Continuous
100
AcDbPolyline
 90
        2
 70
     0
 43
0.0
 10
136.566429
 20
82.71935999999998
 10
138.185234
 20
85.14756700000003
  0
LINE
  5
C13F
330
BE4C
100
AcDbEntity
  8
1
  6
Continuous
100
AcDbLine
 10
156.855323
 20
94.98882999999999
 30
0.0
 11
157.8688579999999
 21
94.838936
 31
0.0
  0
ARC
  5
C140
330
BE4C
100
AcDbEntity
  8
1
  6
Continuous
100
AcDbCircle
 10
152.1881019999999
 20
90.228073
 30
0.0
 40
7.550231
100
AcDbArc
 50
352.7213919999999
 51
23.929797
  0
LINE
  5
C141
330
BE4C
100
AcDbEntity
  8
1
  6
Continuous
100
AcDbLine
 10
159.922096
 20
83.922088
 30
0.0
 11
160.691086
 21
89.12196299999996
 31
0.0
  0
ARC
  5
C142
330
BE4C
100
AcDbEntity
  8
1
  6
Continuous
100
AcDbCircle
 10
158.487083
 20
84.63975500000001
 30
0.0
 40
0.5
100
AcDbArc
 50
261.5876559999999
 51
351.5876549999999
  0
LINE
  5
C143
330
BE4C
100
AcDbEntity
  8
1
  6
Continuous
100
AcDbLine
 10
158.981697
 20
84.566604
 30
0.0
 11
159.677497
 21
89.271507
 31
0.0
  0
ARC
  5
C144
330
BE4C
100
AcDbEntity
  8
1
  6
Continuous
100
AcDbCircle
 10
153.2016519999999
 20
90.078186
 30
0.0
 40
7.550231
100
AcDbArc
 50
352.7213919999999
 51
23.929797
  0
ARC
  5
C145
330
BE4C
100
AcDbEntity
  8
1
  6
Continuous
100
AcDbCircle
 10
157.443153
 20
91.96040299999998
 30
0.0
 40
2.909844999999998
100
AcDbArc
 50
23.929797
 51
81.58765499999999
  0
ARC
  5
C146
330
BE4C
100
AcDbEntity
  8
1
  6
Continuous
100
AcDbCircle
 10
159.771583
 20
88.890899
 30
0.0
 40
7.550231
100
AcDbArc
 50
136.0702089999997
 51
170.7781019999998
  0
ARC
  5
C147
330
BE4C
100
AcDbEntity
  8
1
  6
Continuous
100
AcDbCircle
 10
156.429618
 20
92.11029000000001
 30
0.0
 40
2.909844999999998
100
AcDbArc
 50
23.929797
 51
136.0702089999997
  0
ARC
  5
C148
330
BE4C
100
AcDbEntity
  8
1
  6
Continuous
100
AcDbCircle
 10
157.943611
 20
84.21469100000001
 30
0.0
 40
2.0
100
AcDbArc
 50
261.5876559999999
 51
351.5876549999999
  0
ARC
  5
C149
330
BE4C
100
AcDbEntity
  8
1
  6
Continuous
100
AcDbCircle
 10
211.8775929999999
 20
134.40133
 30
0.0
 40
4.020926
100
AcDbArc
 50
180.0000029999999
 51
230.376698
  0
ARC
  5
C14A
330
BE4C
100
AcDbEntity
  8
1
  6
Continuous
100
AcDbCircle
 10
211.8775929999999
 20
135.580804
 30
0.0
 40
4.020926
100
AcDbArc
 50
129.6233039999999
 51
230.3767119999998
  0
LINE
  5
C14B
330
BE4C
100
AcDbEntity
  8
1
  6
Continuous
100
AcDbLine
 10
219.433471
 20
143.2072229999999
 30
0.0
 11
221.274703
 21
127.9508599999999
 31
0.0
  0
ARC
  5
C14C
330
BE4C
100
AcDbEntity
  8
1
  6
Continuous
100
AcDbCircle
 10
213.356673
 20
136.1877529999999
 30
0.0
 40
6.340179
100
AcDbArc
 50
230.376698
 51
262.6294849999998
  0
ARC
  5
C14D
330
BE4C
100
AcDbEntity
  8
1
  6
Continuous
100
AcDbCircle
 10
213.356673
 20
137.367211
 30
0.0
 40
6.340179
100
AcDbArc
 50
230.376698
 51
262.674645
  0
LINE
  5
C14E
330
BE4C
100
AcDbEntity
  8
1
  6
Continuous
100
AcDbLine
 10
219.274871
 20
127.7690669999998
 30
0.0
 11
221.274688
 21
127.9508749999999
 31
0.0
  0
LINE
  5
C14F
330
BE4C
100
AcDbEntity
  8
1
  6
Continuous
100
AcDbLine
 10
219.120391
 20
129.049157
 30
0.0
 11
219.274886
 21
127.7690669999998
 31
0.0
  0
ARC
  5
C150
330
BE4C
100
AcDbEntity
  8
1
  6
Continuous
100
AcDbCircle
 10
220.129989
 20
129.0897149999999
 30
0.0
 40
1.0
100
AcDbArc
 50
6.881516
 51
82.629368
  0
LINE
  5
C151
330
BE4C
100
AcDbEntity
  8
1
  6
Continuous
100
AcDbLine
 10
220.2582839999998
 20
130.081445
 30
0.0
 11
212.548278
 21
131.0787799999999
 31
0.0
  0
LINE
  5
C152
330
BE4C
100
AcDbEntity
  8
1
  6
Continuous
100
AcDbLine
 10
219.120391
 20
129.049157
 30
0.0
 11
212.5433029999999
 21
129.8999419999999
 31
0.0
  0
ARC
  5
C153
330
BE4C
100
AcDbEntity
  8
1
  6
Continuous
100
AcDbCircle
 10
213.356673
 20
133.7943969999997
 30
0.0
 40
6.340179
100
AcDbArc
 50
90.00000300000001
 51
129.6233039999999
  0
LINE
  5
C154
330
BE4C
100
AcDbEntity
  8
1
  6
Continuous
100
AcDbLine
 10
207.8566729999999
 20
135.580804
 30
0.0
 11
207.8566729999999
 21
134.40133
 31
0.0
  0
LINE
  5
C155
330
BE4C
100
AcDbEntity
  8
1
  6
Continuous
100
AcDbLine
 10
215.8183279999998
 20
154.6034479999998
 30
0.0
 11
215.630904
 21
151.1177299999999
 31
0.0
  0
LINE
  5
C156
330
BE4C
100
AcDbEntity
  8
1
  6
Continuous
100
AcDbLine
 10
215.3880149999999
 20
152.4572379999999
 30
0.0
 11
215.630904
 21
151.1177459999998
 31
0.0
  0
LINE
  5
C157
330
BE4C
100
AcDbEntity
  8
1
  6
Continuous
100
AcDbLine
 10
215.3880149999999
 20
152.457254
 30
0.0
 11
215.708037
 21
152.5521479999999
 31
0.0
  0
LINE
  5
C158
330
BE4C
100
AcDbEntity
  8
1
  6
Continuous
100
AcDbLine
 10
215.3880149999999
 20
152.457254
 30
0.0
 11
215.3880149999999
 21
140.134576
 31
0.0
  0
LINE
  5
C159
330
BE4C
100
AcDbEntity
  8
1
  6
Continuous
100
AcDbLine
 10
218.7848649999998
 20
154.8077939999998
 30
0.0
 11
219.0503679999999
 21
154.164468
 31
0.0
  0
ARC
  5
C15A
330
BE4C
100
AcDbEntity
  8
1
  6
Continuous
100
AcDbCircle
 10
212.423339
 20
152.216806
 30
0.0
 40
5.0
100
AcDbArc
 50
356.8891879999998
 51
22.42549599999999
  0
ARC
  5
C15B
330
BE4C
100
AcDbEntity
  8
1
  6
Continuous
100
AcDbCircle
 10
214.428481
 20
152.257058
 30
0.0
 40
5.0
100
AcDbArc
 50
356.8891879999998
 51
22.42549599999999
  0
LINE
  5
C15C
330
BE4C
100
AcDbEntity
  8
1
  6
Continuous
100
AcDbLine
 10
221.11061
 20
146.5485159999998
 30
0.0
 11
218.2506089999999
 21
146.5485159999998
 31
0.0
  0
LINE
  5
C15D
330
BE4C
100
AcDbEntity
  8
1
  6
Continuous
100
AcDbLine
 10
221.533492
 20
144.1872039999998
 30
0.0
 11
219.4334549999999
 21
143.2072229999999
 31
0.0
  0
LINE
  5
C15E
330
BE4C
100
AcDbEntity
  8
1
  6
Continuous
100
AcDbLine
 10
221.533492
 20
144.642312
 30
0.0
 11
218.232375
 21
143.1018459999999
 31
0.0
  0
ARC
  5
C15F
330
BE4C
100
AcDbEntity
  8
1
  6
Continuous
100
AcDbCircle
 10
221.11061
 20
145.0933929999998
 30
0.0
 40
1.0
100
AcDbArc
 50
295.0161229999998
 51
13.15351399999999
  0
LINE
  5
C160
330
BE4C
100
AcDbEntity
  8
1
  6
Continuous
100
AcDbLine
 10
217.1226639999999
 20
146.5485009999999
 30
0.0
 11
217.2578109999999
 21
145.428704
 31
0.0
  0
ARC
  5
C161
330
BE4C
100
AcDbEntity
  8
1
  6
Continuous
100
AcDbCircle
 10
221.11061
 20
145.5485159999998
 30
0.0
 40
1.0
100
AcDbArc
 50
295.0161229999998
 51
90.0
  0
LINE
  5
C162
330
BE4C
100
AcDbEntity
  8
1
  6
Continuous
100
AcDbLine
 10
217.4159689999999
 20
151.945459
 30
0.0
 11
217.1226639999999
 21
146.5485009999999
 31
0.0
  0
LINE
  5
C163
330
BE4C
100
AcDbEntity
  8
1
  6
Continuous
100
AcDbLine
 10
219.4211109999999
 20
151.985711
 30
0.0
 11
219.125625
 21
146.5485159999998
 31
0.0
  0
LINE
  5
C164
330
BE4C
100
AcDbEntity
  8
1
  6
Continuous
100
AcDbLine
 10
217.6624439999999
 20
142.0758449999999
 30
0.0
 11
217.897277
 21
140.130075
 31
0.0
  0
ARC
  5
C165
330
BE4C
100
AcDbEntity
  8
1
  6
Continuous
100
AcDbCircle
 10
218.0311569999998
 20
138.134576
 30
0.0
 40
2.0
100
AcDbArc
 50
6.881516
 51
90.00000300000001
  0
ARC
  5
C166
330
BE4C
100
AcDbEntity
  8
1
  6
Continuous
100
AcDbCircle
 10
218.6552419999999
 20
142.195672
 30
0.0
 40
1.0
100
AcDbArc
 50
115.01613
 51
186.8815209999999
  0
LINE
  5
C167
330
BE4C
100
AcDbEntity
  8
1
  6
Continuous
100
AcDbLine
 10
218.0311569999998
 20
140.134576
 30
0.0
 11
213.356673
 21
140.134576
 31
0.0
  0
LINE
  5
C168
330
BE4C
100
AcDbEntity
  8
1
  6
Continuous
100
AcDbLine
 10
215.7962939999999
 20
154.158197
 30
0.0
 11
217.3243859999999
 21
150.260141
 31
0.0
  0
LINE
  5
C169
330
BE4C
100
AcDbEntity
  8
1
  6
Continuous
100
AcDbLine
 10
216.779799
 20
154.767358
 30
0.0
 11
217.0452259999999
 21
154.1242
 31
0.0
  0
LINE
  5
C16A
330
BE4C
100
AcDbEntity
  8
1
  6
Continuous
100
AcDbLine
 10
216.3075399999999
 20
155.076516
 30
0.0
 11
218.3125899999998
 21
155.116952
 31
0.0
  0
ARC
  5
C16B
330
BE4C
100
AcDbEntity
  8
1
  6
Continuous
100
AcDbCircle
 10
218.2506089999999
 20
145.5485159999998
 30
0.0
 40
1.0
100
AcDbArc
 50
90.0
 51
186.8815209999999
  0
ARC
  5
C16C
330
BE4C
100
AcDbEntity
  8
1
  6
Continuous
100
AcDbCircle
 10
70.57146800000002
 20
161.5507659999998
 30
0.0
 40
0.834336
100
AcDbArc
 50
0.000003
 51
75.41017499999998
  0
ARC
  5
C16D
330
BE4C
100
AcDbEntity
  8
1
  6
Continuous
100
AcDbCircle
 10
60.905804
 20
160.9823689999998
 30
0.0
 40
2.0
100
AcDbArc
 50
90.00000500000002
 51
180.0000009999999
  0
LINE
  5
C16E
330
BE4C
100
AcDbEntity
  8
1
  6
Continuous
100
AcDbLine
 10
65.905804
 20
162.982369
 30
0.0
 11
60.905804
 21
162.982369
 31
0.0
  0
LINE
  5
C16F
330
BE4C
100
AcDbEntity
  8
1
  6
Continuous
100
AcDbLine
 10
65.905804
 20
160.9823689999998
 30
0.0
 11
60.905804
 21
160.9823689999998
 31
0.0
  0
LINE
  5
C170
330
BE4C
100
AcDbEntity
  8
1
  6
Continuous
100
AcDbLine
 10
65.905804
 20
160.9823689999998
 30
0.0
 11
60.905804
 21
160.9823689999998
 31
0.0
  0
ARC
  5
C171
330
BE4C
100
AcDbEntity
  8
1
  6
Continuous
100
AcDbCircle
 10
65.905804
 20
143.625961
 30
0.0
 40
19.356407
100
AcDbArc
 50
75.41017499999998
 51
90.00000500000002
  0
ARC
  5
C172
330
BE4C
100
AcDbEntity
  8
1
  6
Continuous
100
AcDbCircle
 10
65.905804
 20
141.625961
 30
0.0
 40
19.356407
100
AcDbArc
 50
75.41017499999998
 51
90.00000500000002
  0
LINE
  5
C173
330
BE4C
100
AcDbEntity
  8
1
  6
Continuous
100
AcDbLine
 10
212.260558
 20
161.5449
 30
0.0
 11
212.260558
 21
160.113305
 31
0.0
  0
ARC
  5
C174
330
BE4C
100
AcDbEntity
  8
1
  6
Continuous
100
AcDbCircle
 10
213.094893
 20
160.113305
 30
0.0
 40
0.834336
100
AcDbArc
 50
180.0000029999999
 51
255.410175
  0
ARC
  5
C175
330
BE4C
100
AcDbEntity
  8
1
  6
Continuous
100
AcDbCircle
 10
213.094893
 20
161.5449
 30
0.0
 40
0.834336
100
AcDbArc
 50
104.589825
 51
255.410175
  0
ARC
  5
C176
330
BE4C
100
AcDbEntity
  8
1
  6
Continuous
100
AcDbCircle
 10
217.760558
 20
143.6200949999999
 30
0.0
 40
19.356407
100
AcDbArc
 50
93.68398199999999
 51
104.589825
  0
ARC
  5
C177
330
BE4C
100
AcDbEntity
  8
1
  6
Continuous
100
AcDbCircle
 10
217.760558
 20
178.0381099999999
 30
0.0
 40
19.356407
100
AcDbArc
 50
255.410175
 51
266.3160179999999
  0
ARC
  5
C178
330
BE4C
100
AcDbEntity
  8
1
  6
Continuous
100
AcDbCircle
 10
217.760558
 20
179.469705
 30
0.0
 40
19.356407
100
AcDbArc
 50
255.410175
 51
266.3160179999999
  0
LINE
  5
C179
330
BE4C
100
AcDbEntity
  8
1
  6
Continuous
100
AcDbLine
 10
160.5378319999998
 20
88.08566899999998
 30
0.0
 11
176.9086259999999
 21
88.08566899999998
 31
0.0
  0
ARC
  5
C17A
330
BE4C
100
AcDbEntity
  8
1
  6
Continuous
100
AcDbCircle
 10
149.4086259999999
 20
67.085669
 30
0.0
 40
19.0
100
AcDbArc
 50
113.1269309999999
 51
121.398165
  0
ARC
  5
C17B
330
BE4C
100
AcDbEntity
  8
1
  6
Continuous
100
AcDbCircle
 10
149.4086259999999
 20
67.085669
 30
0.0
 40
20.983387
100
AcDbArc
 50
82.92247900000003
 51
111.471628
  0
ARC
  5
C17C
330
BE4C
100
AcDbEntity
  8
1
  6
Continuous
100
AcDbCircle
 10
149.4086259999999
 20
67.085669
 30
0.0
 40
19.0
100
AcDbArc
 50
83.06185699999998
 51
98.34287800000005
  0
ARC
  5
C17D
330
BE4C
100
AcDbEntity
  8
1
  6
Continuous
100
AcDbCircle
 10
149.4086259999999
 20
67.085669
 30
0.0
 40
17.0
100
AcDbArc
 50
103.4704989999999
 51
121.3981659999999
  0
ARC
  5
C17E
330
BE4C
100
AcDbEntity
  8
1
  6
Continuous
100
AcDbCircle
 10
149.4086259999999
 20
67.085669
 30
0.0
 40
15.09999999999999
100
AcDbArc
 50
103.808803
 51
138.528176
  0
LINE
  5
C17F
330
BE4C
100
AcDbEntity
  8
1
  6
Continuous
100
AcDbLine
 10
63.02662900000001
 20
140.814253
 30
0.0
 11
63.02324399999999
 21
139.2125
 31
0.0
  0
LINE
  5
C180
330
BE4C
100
AcDbEntity
  8
1
  6
Continuous
100
AcDbLine
 10
63.063199
 20
158.1191709999998
 30
0.0
 11
63.048191
 21
151.017258
 31
0.0
  0
LINE
  5
C181
330
BE4C
100
AcDbEntity
  8
1
  6
Continuous
100
AcDbLine
 10
61.04712899999999
 20
150.5172579999999
 30
0.0
 11
61.023239
 21
139.2125
 31
0.0
  0
ARC
  5
C182
330
BE4C
100
AcDbEntity
  8
1
  6
Continuous
100
AcDbCircle
 10
235.6273709999999
 20
157.6942949999998
 30
0.0
 40
17.07205599999999
100
AcDbArc
 50
198.4015269999999
 51
211.2978749999999
  0
LINE
  5
C183
330
BE4C
100
AcDbEntity
  8
1
  6
Continuous
100
AcDbLine
 10
134.4080729999998
 20
89.328766
 30
0.0
 11
124.408073
 21
89.328766
 31
0.0
  0
ARC
  5
C184
330
BE4C
100
AcDbEntity
  8
1
  6
Continuous
100
AcDbCircle
 10
131.908073
 20
82.10347400000001
 30
0.0
 40
7.225291999999997
100
AcDbArc
 50
69.75673399999999
 51
110.2432659999999
  0
ARC
  5
C185
330
BE4C
100
AcDbEntity
  8
1
  6
Continuous
100
AcDbCircle
 10
126.9080729999999
 20
92.95405700000001
 30
0.0
 40
7.225291999999997
100
AcDbArc
 50
249.7567339999999
 51
290.243266
  0
ARC
  5
C186
330
BE4C
100
AcDbEntity
  8
1
  6
Continuous
100
AcDbCircle
 10
126.9080729999999
 20
82.10347400000001
 30
0.0
 40
7.225291999999997
100
AcDbArc
 50
69.75673399999999
 51
110.2432659999999
  0
LINE
  5
C187
330
BE4C
100
AcDbEntity
  8
1
  6
Continuous
100
AcDbLine
 10
124.408073
 20
85.72876599999998
 30
0.0
 11
124.408073
 21
89.328766
 31
0.0
  0
ARC
  5
C188
330
BE4C
100
AcDbEntity
  8
1
  6
Continuous
100
AcDbCircle
 10
131.908073
 20
92.95405700000001
 30
0.0
 40
7.225291999999997
100
AcDbArc
 50
249.7567339999999
 51
288.2942969999998
  0
LINE
  5
C189
330
BE4C
100
AcDbEntity
  8
1
  6
Continuous
100
AcDbLine
 10
129.408073
 20
88.882474
 30
0.0
 11
129.408073
 21
86.17505699999998
 31
0.0
  0
LINE
  5
C18A
330
BE4C
100
AcDbEntity
  8
2
  6
Continuous
100
AcDbLine
 10
131.8665729999999
 20
90.82856600000004
 30
0.0
 11
131.8665729999999
 21
89.328766
 31
0.0
  0
LINE
  5
C18B
330
BE4C
100
AcDbEntity
  8
1
  6
Continuous
100
AcDbLine
 10
132.408073
 20
90.28706599999999
 30
0.0
 11
132.408073
 21
89.328766
 31
0.0
  0
LINE
  5
C18C
330
BE4C
100
AcDbEntity
  8
1
  6
Continuous
100
AcDbLine
 10
132.408073
 20
90.28706599999999
 30
0.0
 11
126.408073
 21
90.28706599999999
 31
0.0
  0
LINE
  5
C18D
330
BE4C
100
AcDbEntity
  8
1
  6
Continuous
100
AcDbLine
 10
131.8665729999999
 20
90.82856600000004
 30
0.0
 11
132.408073
 21
90.28706599999999
 31
0.0
  0
LINE
  5
C18E
330
BE4C
100
AcDbEntity
  8
1
  6
Continuous
100
AcDbLine
 10
131.8665729999999
 20
90.82856600000004
 30
0.0
 11
126.949573
 21
90.82856600000004
 31
0.0
  0
LINE
  5
C18F
330
BE4C
100
AcDbEntity
  8
1
  6
Continuous
100
AcDbLine
 10
126.408073
 20
90.28706599999999
 30
0.0
 11
126.408073
 21
89.328766
 31
0.0
  0
LINE
  5
C190
330
BE4C
100
AcDbEntity
  8
2
  6
Continuous
100
AcDbLine
 10
126.949573
 20
90.82856600000004
 30
0.0
 11
126.949573
 21
89.328766
 31
0.0
  0
LINE
  5
C191
330
BE4C
100
AcDbEntity
  8
1
  6
Continuous
100
AcDbLine
 10
126.949573
 20
90.82856600000004
 30
0.0
 11
126.408073
 21
90.28706599999999
 31
0.0
  0
LINE
  5
C192
330
BE4C
100
AcDbEntity
  8
1
  6
Continuous
100
AcDbLine
 10
127.5080729999999
 20
85.72876599999998
 30
0.0
 11
129.408073
 21
83.82876600000001
 31
0.0
  0
LINE
  5
C193
330
BE4C
100
AcDbEntity
  8
1
  6
Continuous
100
AcDbLine
 10
129.408073
 20
85.72876599999998
 30
0.0
 11
131.308073
 21
83.82876600000001
 31
0.0
  0
LINE
  5
C194
330
BE4C
100
AcDbEntity
  8
1
  6
Continuous
100
AcDbLine
 10
123.3080729999998
 20
85.72876599999998
 30
0.0
 11
123.3080729999998
 21
83.82876600000001
 31
0.0
  0
LINE
  5
C195
330
BE4C
100
AcDbEntity
  8
1
  6
Continuous
100
AcDbLine
 10
123.3080729999998
 20
85.72876599999998
 30
0.0
 11
133.928434
 21
85.72876599999998
 31
0.0
  0
LINE
  5
C196
330
BE4C
100
AcDbEntity
  8
1
  6
Continuous
100
AcDbLine
 10
134.4080729999998
 20
145.482876
 30
0.0
 11
134.4080729999998
 21
151.256876
 31
0.0
  0
LINE
  5
C197
330
BE4C
100
AcDbEntity
  8
1
  6
Continuous
100
AcDbLine
 10
124.408073
 20
145.482876
 30
0.0
 11
124.408073
 21
151.256876
 31
0.0
  0
CIRCLE
  5
C198
330
BE4C
100
AcDbEntity
  8
1
  6
Continuous
100
AcDbCircle
 10
129.408073
 20
148.369876
 30
0.0
 40
3.0
  0
CIRCLE
  5
C199
330
BE4C
100
AcDbEntity
  8
1
  6
Continuous
100
AcDbCircle
 10
129.408073
 20
148.369876
 30
0.0
 40
5.0
  0
CIRCLE
  5
C19A
330
BE4C
100
AcDbEntity
  8
1
  6
Continuous
100
AcDbCircle
 10
129.408073
 20
148.369876
 30
0.0
 40
6.099999999999997
  0
LINE
  5
C19B
330
BE4C
100
AcDbEntity
  8
1
  6
Continuous
100
AcDbLine
 10
134.4080729999998
 20
86.37009999999998
 30
0.0
 11
134.4080729999998
 21
89.328766
 31
0.0
  0
LINE
  5
C19C
330
BE4C
100
AcDbEntity
  8
1
  6
Continuous
100
AcDbLine
 10
134.4080729999998
 20
145.482876
 30
0.0
 11
129.408073
 21
142.595876
 31
0.0
  0
CIRCLE
  5
C19D
330
BE4C
100
AcDbEntity
  8
2
  6
Continuous
100
AcDbCircle
 10
129.408073
 20
148.369876
 30
0.0
 40
2.458499999999999
  0
LINE
  5
C19E
330
BE4C
100
AcDbEntity
  8
1
  6
Continuous
100
AcDbLine
 10
124.408073
 20
145.482876
 30
0.0
 11
129.408073
 21
142.595876
 31
0.0
  0
LINE
  5
C19F
330
BE4C
100
AcDbEntity
  8
1
  6
Continuous
100
AcDbLine
 10
129.408073
 20
154.142876
 30
0.0
 11
134.4080729999998
 21
151.256876
 31
0.0
  0
LINE
  5
C1A0
330
BE4C
100
AcDbEntity
  8
1
  6
Continuous
100
AcDbLine
 10
129.408073
 20
154.142876
 30
0.0
 11
124.408073
 21
151.256876
 31
0.0
  0
LINE
  5
C1A1
330
BE4C
100
AcDbEntity
  8
1
  6
Continuous
100
AcDbLine
 10
67.145803
 20
154.1486909999998
 30
0.0
 11
69.85321899999999
 21
154.1486909999998
 31
0.0
  0
LINE
  5
C1A2
330
BE4C
100
AcDbEntity
  8
1
  6
Continuous
100
AcDbLine
 10
67.145803
 20
145.4886909999999
 30
0.0
 11
69.85321899999999
 21
145.4886909999999
 31
0.0
  0
LINE
  5
C1A3
330
BE4C
100
AcDbEntity
  8
1
  6
Continuous
100
AcDbLine
 10
67.145803
 20
142.6016909999999
 30
0.0
 11
69.85321899999999
 21
142.6016909999999
 31
0.0
  0
LINE
  5
C1A4
330
BE4C
100
AcDbEntity
  8
1
  6
Continuous
100
AcDbLine
 10
67.145803
 20
151.2626909999999
 30
0.0
 11
69.85321899999999
 21
151.2626909999999
 31
0.0
  0
LINE
  5
C1A5
330
BE4C
100
AcDbEntity
  8
1
  6
Continuous
100
AcDbLine
 10
66.699511
 20
154.475191
 30
0.0
 11
64.799511
 21
154.475191
 31
0.0
  0
LINE
  5
C1A6
330
BE4C
100
AcDbEntity
  8
1
  6
Continuous
100
AcDbLine
 10
66.699511
 20
153.3756909999999
 30
0.0
 11
67.145803
 21
154.1486909999998
 31
0.0
  0
LINE
  5
C1A7
330
BE4C
100
AcDbEntity
  8
1
  6
Continuous
100
AcDbLine
 10
66.699511
 20
150.2751909999998
 30
0.0
 11
64.799511
 21
148.375191
 31
0.0
  0
ARC
  5
C1A8
330
BE4C
100
AcDbEntity
  8
1
  6
Continuous
100
AcDbCircle
 10
76.26045999999998
 20
148.3756909999998
 30
0.0
 40
9.560949
100
AcDbArc
 50
162.4247879999998
 51
197.5752119999999
  0
LINE
  5
C1A9
330
BE4C
100
AcDbEntity
  8
1
  6
Continuous
100
AcDbLine
 10
66.699511
 20
148.375191
 30
0.0
 11
64.799511
 21
146.4751909999999
 31
0.0
  0
LINE
  5
C1AA
330
BE4C
100
AcDbEntity
  8
1
  6
Continuous
100
AcDbLine
 10
66.699511
 20
142.2751909999998
 30
0.0
 11
64.799511
 21
142.2751909999998
 31
0.0
  0
LINE
  5
C1AB
330
BE4C
100
AcDbEntity
  8
1
  6
Continuous
100
AcDbLine
 10
66.699511
 20
143.3746909999999
 30
0.0
 11
67.145803
 21
142.6016909999999
 31
0.0
  0
ARC
  5
C1AC
330
BE4C
100
AcDbEntity
  8
1
  6
Continuous
100
AcDbCircle
 10
69.25551099999998
 20
144.0456909999998
 30
0.0
 40
2.55582
100
AcDbArc
 50
214.3528569999999
 51
214.3839999999999
  0
ARC
  5
C1AD
330
BE4C
100
AcDbEntity
  8
1
  6
Continuous
100
AcDbCircle
 10
69.25549100000001
 20
144.044691
 30
0.0
 40
2.555979999999999
100
AcDbArc
 50
145.6283629999998
 51
205.6283629999998
  0
LINE
  5
C1AE
330
BE4C
100
AcDbEntity
  8
1
  6
Continuous
100
AcDbLine
 10
66.699511
 20
154.475191
 30
0.0
 11
66.699511
 21
142.2751909999998
 31
0.0
  0
ARC
  5
C1AF
330
BE4C
100
AcDbEntity
  8
1
  6
Continuous
100
AcDbCircle
 10
69.25549100000001
 20
152.7056909999998
 30
0.0
 40
2.555979999999999
100
AcDbArc
 50
154.371637
 51
214.371637
  0
LINE
  5
C1B0
330
BE4C
100
AcDbEntity
  8
1
  6
Continuous
100
AcDbLine
 10
70.29951099999999
 20
153.3756909999999
 30
0.0
 11
69.85321899999999
 21
154.1486909999998
 31
0.0
  0
ARC
  5
C1B1
330
BE4C
100
AcDbEntity
  8
1
  6
Continuous
100
AcDbCircle
 10
60.738562
 20
148.3756909999998
 30
0.0
 40
9.560949
100
AcDbArc
 50
342.4247879999999
 51
17.575212
  0
LINE
  5
C1B2
330
BE4C
100
AcDbEntity
  8
1
  6
Continuous
100
AcDbLine
 10
71.79931100000001
 20
150.8336909999998
 30
0.0
 11
71.79931100000001
 21
145.9166909999999
 31
0.0
  0
LINE
  5
C1B3
330
BE4C
100
AcDbEntity
  8
1
  6
Continuous
100
AcDbLine
 10
71.25781100000001
 20
151.375191
 30
0.0
 11
71.25781100000001
 21
145.375191
 31
0.0
  0
LINE
  5
C1B4
330
BE4C
100
AcDbEntity
  8
2
  6
Continuous
100
AcDbLine
 10
71.79931100000001
 20
145.9166909999999
 30
0.0
 11
70.29951099999999
 21
145.9166909999999
 31
0.0
  0
LINE
  5
C1B5
330
BE4C
100
AcDbEntity
  8
1
  6
Continuous
100
AcDbLine
 10
71.25781100000001
 20
145.375191
 30
0.0
 11
70.29951099999999
 21
145.375191
 31
0.0
  0
LINE
  5
C1B6
330
BE4C
100
AcDbEntity
  8
1
  6
Continuous
100
AcDbLine
 10
71.79931100000001
 20
145.9166909999999
 30
0.0
 11
71.25781100000001
 21
145.375191
 31
0.0
  0
ARC
  5
C1B7
330
BE4C
100
AcDbEntity
  8
1
  6
Continuous
100
AcDbCircle
 10
67.743511
 20
144.0456909999998
 30
0.0
 40
2.55582
100
AcDbArc
 50
325.6159999999998
 51
325.647143
  0
LINE
  5
C1B8
330
BE4C
100
AcDbEntity
  8
1
  6
Continuous
100
AcDbLine
 10
70.29951099999999
 20
143.3746909999999
 30
0.0
 11
69.85321899999999
 21
142.6016909999999
 31
0.0
  0
ARC
  5
C1B9
330
BE4C
100
AcDbEntity
  8
1
  6
Continuous
100
AcDbCircle
 10
67.743531
 20
144.044691
 30
0.0
 40
2.555979999999999
100
AcDbArc
 50
334.371637
 51
34.371637
  0
LINE
  5
C1BA
330
BE4C
100
AcDbEntity
  8
2
  6
Continuous
100
AcDbLine
 10
71.79931100000001
 20
150.8336909999998
 30
0.0
 11
70.29951099999999
 21
150.8336909999998
 31
0.0
  0
LINE
  5
C1BB
330
BE4C
100
AcDbEntity
  8
1
  6
Continuous
100
AcDbLine
 10
71.25781100000001
 20
151.375191
 30
0.0
 11
70.29951099999999
 21
151.375191
 31
0.0
  0
LINE
  5
C1BC
330
BE4C
100
AcDbEntity
  8
1
  6
Continuous
100
AcDbLine
 10
71.79931100000001
 20
150.8336909999998
 30
0.0
 11
71.25781100000001
 21
151.375191
 31
0.0
  0
LINE
  5
C1BD
330
BE4C
100
AcDbEntity
  8
1
  6
Continuous
100
AcDbLine
 10
70.29951099999999
 20
153.3756909999999
 30
0.0
 11
70.29951099999999
 21
143.3746909999999
 31
0.0
  0
ARC
  5
C1BE
330
BE4C
100
AcDbEntity
  8
1
  6
Continuous
100
AcDbCircle
 10
67.743531
 20
152.7056909999998
 30
0.0
 40
2.555979999999999
100
AcDbArc
 50
325.6283629999999
 51
25.628363
  0
LINE
  5
C1BF
330
BE4C
100
AcDbEntity
  8
1
  6
Continuous
100
AcDbLine
 10
213.516845
 20
153.3698169999999
 30
0.0
 11
213.963136
 21
154.1428169999998
 31
0.0
  0
ARC
  5
C1C0
330
BE4C
100
AcDbEntity
  8
1
  6
Continuous
100
AcDbCircle
 10
216.072824
 20
152.6998169999998
 30
0.0
 40
2.555979999999999
100
AcDbArc
 50
154.371637
 51
214.371637
  0
LINE
  5
C1C1
330
BE4C
100
AcDbEntity
  8
1
  6
Continuous
100
AcDbLine
 10
213.516845
 20
153.3698169999999
 30
0.0
 11
213.516845
 21
143.3688169999998
 31
0.0
  0
LINE
  5
C1C2
330
BE4C
100
AcDbEntity
  8
1
  6
Continuous
100
AcDbLine
 10
212.017045
 20
150.8278169999998
 30
0.0
 11
212.5585449999999
 21
151.3693169999999
 31
0.0
  0
LINE
  5
C1C3
330
BE4C
100
AcDbEntity
  8
1
  6
Continuous
100
AcDbLine
 10
212.5585449999999
 20
151.3693169999999
 30
0.0
 11
213.516845
 21
151.3693169999999
 31
0.0
  0
LINE
  5
C1C4
330
BE4C
100
AcDbEntity
  8
2
  6
Continuous
100
AcDbLine
 10
212.017045
 20
150.8278169999998
 30
0.0
 11
213.516845
 21
150.8278169999998
 31
0.0
  0
ARC
  5
C1C5
330
BE4C
100
AcDbEntity
  8
1
  6
Continuous
100
AcDbCircle
 10
216.072824
 20
144.038817
 30
0.0
 40
2.555979999999999
100
AcDbArc
 50
145.6283629999998
 51
205.6283629999998
  0
LINE
  5
C1C6
330
BE4C
100
AcDbEntity
  8
1
  6
Continuous
100
AcDbLine
 10
213.516845
 20
143.3688169999998
 30
0.0
 11
213.963136
 21
142.5958169999999
 31
0.0
  0
ARC
  5
C1C7
330
BE4C
100
AcDbEntity
  8
1
  6
Continuous
100
AcDbCircle
 10
216.072845
 20
144.0398169999999
 30
0.0
 40
2.55582
100
AcDbArc
 50
214.3528569999999
 51
214.3839999999999
  0
LINE
  5
C1C8
330
BE4C
100
AcDbEntity
  8
1
  6
Continuous
100
AcDbLine
 10
212.017045
 20
145.9108169999998
 30
0.0
 11
212.5585449999999
 21
145.369317
 31
0.0
  0
LINE
  5
C1C9
330
BE4C
100
AcDbEntity
  8
1
  6
Continuous
100
AcDbLine
 10
212.5585449999999
 20
145.369317
 30
0.0
 11
213.516845
 21
145.369317
 31
0.0
  0
LINE
  5
C1CA
330
BE4C
100
AcDbEntity
  8
2
  6
Continuous
100
AcDbLine
 10
212.017045
 20
145.9108169999998
 30
0.0
 11
213.516845
 21
145.9108169999998
 31
0.0
  0
LINE
  5
C1CB
330
BE4C
100
AcDbEntity
  8
1
  6
Continuous
100
AcDbLine
 10
212.5585449999999
 20
151.3693169999999
 30
0.0
 11
212.5585449999999
 21
145.369317
 31
0.0
  0
LINE
  5
C1CC
330
BE4C
100
AcDbEntity
  8
1
  6
Continuous
100
AcDbLine
 10
212.017045
 20
150.8278169999998
 30
0.0
 11
212.017045
 21
145.9108169999998
 31
0.0
  0
ARC
  5
C1CD
330
BE4C
100
AcDbEntity
  8
1
  6
Continuous
100
AcDbCircle
 10
223.077793
 20
148.3698169999998
 30
0.0
 40
9.560949
100
AcDbArc
 50
162.4247879999998
 51
197.5752119999999
  0
LINE
  5
C1CE
330
BE4C
100
AcDbEntity
  8
1
  6
Continuous
100
AcDbLine
 10
215.3880149999999
 20
151.2568169999999
 30
0.0
 11
213.963136
 21
151.2568169999999
 31
0.0
  0
LINE
  5
C1CF
330
BE4C
100
AcDbEntity
  8
1
  6
Continuous
100
AcDbLine
 10
215.3880149999999
 20
142.5958169999999
 30
0.0
 11
213.963136
 21
142.5958169999999
 31
0.0
  0
LINE
  5
C1D0
330
BE4C
100
AcDbEntity
  8
1
  6
Continuous
100
AcDbLine
 10
215.3880149999999
 20
145.4828169999998
 30
0.0
 11
213.963136
 21
145.4828169999998
 31
0.0
  0
LINE
  5
C1D1
330
BE4C
100
AcDbEntity
  8
1
  6
Continuous
100
AcDbLine
 10
215.79356
 20
154.1428169999998
 30
0.0
 11
213.963136
 21
154.1428169999998
 31
0.0
  0
LINE
  5
C1D2
330
BE4C
100
AcDbEntity
  8
1
  6
Continuous
100
AcDbLine
 10
134.4080729999998
 20
88.08566899999998
 30
0.0
 11
152.020136
 21
88.08566899999998
 31
0.0
  0
LINE
  5
C1D3
330
BE4C
100
AcDbEntity
  8
1
  6
Continuous
100
AcDbLine
 10
302.875285
 20
177.616486
 30
0.0
 11
302.6255019999999
 21
175.762876
 31
0.0
  0
LINE
  5
C1D4
330
BE4C
100
AcDbEntity
  8
1
  6
Continuous
100
AcDbLine
 10
344.1973089999998
 20
179.6862319999999
 30
0.0
 11
348.851206
 21
148.369876
 31
0.0
  0
LINE
  5
C1D5
330
BE4C
100
AcDbEntity
  8
1
  6
Continuous
100
AcDbLine
 10
336.169644
 20
178.2874209999999
 30
0.0
 11
336.169644
 21
149.0709879999998
 31
0.0
  0
LINE
  5
C1D6
330
BE4C
100
AcDbEntity
  8
4
  6
CENTER
100
AcDbLine
 10
321.6255019999999
 20
164.545231
 30
0.0
 11
321.6255019999999
 21
194.9908529999999
 31
0.0
  0
LINE
  5
C1D7
330
BE4C
100
AcDbEntity
  8
4
  6
CENTER
100
AcDbLine
 10
341.625617
 20
120.3698759999999
 30
0.0
 11
341.625617
 21
176.369876
 31
0.0
  0
ARC
  5
C1D8
330
BE4C
100
AcDbEntity
  8
1
  6
Continuous
100
AcDbCircle
 10
341.625617
 20
148.369876
 30
0.0
 40
17.5
100
AcDbArc
 50
155.984338
 51
74.34809
  0
ARC
  5
C1D9
330
BE4C
100
AcDbEntity
  8
1
  6
Continuous
100
AcDbCircle
 10
341.625617
 20
148.369876
 30
0.0
 40
25.0
100
AcDbArc
 50
145.5697439999999
 51
81.84111699999998
  0
ARC
  5
C1DA
330
BE4C
100
AcDbEntity
  8
1
  6
Continuous
100
AcDbCircle
 10
340.776082
 20
147.3515769999998
 30
0.0
 40
8.139077
100
AcDbArc
 50
212.4742509999999
 51
7.825642999999997
  0
LINE
  5
C1DB
330
BE4C
100
AcDbEntity
  8
4
  6
CENTER
100
AcDbLine
 10
369.6256169999998
 20
148.369876
 30
0.0
 11
313.6256169999999
 21
148.369876
 31
0.0
  0
ARC
  5
C1DC
330
BE4C
100
AcDbEntity
  8
1
  6
Continuous
100
AcDbCircle
 10
372.1717899999999
 20
154.0059999999998
 30
0.0
 40
6.739846
100
AcDbArc
 50
149.498421
 51
167.3987689999998
  0
ARC
  5
C1DD
330
BE4C
100
AcDbEntity
  8
5
  6
PHANTOM
100
AcDbCircle
 10
368.9113679999999
 20
133.526637
 30
0.0
 40
6.739846
100
AcDbArc
 50
110.49842
 51
128.3985869999999
  0
LINE
  5
C1DE
330
BE4C
100
AcDbEntity
  8
5
  6
PHANTOM
100
AcDbLine
 10
371.2852689999999
 20
143.147876
 30
0.0
 11
370.687003
 21
141.0562009999999
 31
0.0
  0
ARC
  5
C1DF
330
BE4C
100
AcDbEntity
  8
5
  6
PHANTOM
100
AcDbCircle
 10
370.339316
 20
138.4848889999998
 30
0.0
 40
2.594708999999999
100
AcDbArc
 50
82.299123
 51
110.4658879999998
  0
ARC
  5
C1E0
330
BE4C
100
AcDbEntity
  8
5
  6
PHANTOM
100
AcDbCircle
 10
2262.977255
 20
-4932.808346
 30
0.0
 40
5415.550781
100
AcDbArc
 50
110.4658879999998
 51
110.49842
  0
LINE
  5
C1E1
330
BE4C
100
AcDbEntity
  8
5
  6
PHANTOM
100
AcDbLine
 10
371.2852849999999
 20
143.147876
 30
0.0
 11
366.439599
 21
145.3258189999999
 31
0.0
  0
ARC
  5
C1E2
330
BE4C
100
AcDbEntity
  8
1
  6
Continuous
100
AcDbCircle
 10
341.625617
 20
148.369876
 30
0.0
 40
8.5
100
AcDbArc
 50
300.018198
 51
41.224383
  0
LINE
  5
C1E3
330
BE4C
100
AcDbEntity
  8
1
  6
Continuous
100
AcDbLine
 10
367.961814
 20
162.977054
 30
0.0
 11
362.8253879999999
 21
161.6201479999998
 31
0.0
  0
ARC
  5
C1E4
330
BE4C
100
AcDbEntity
  8
1
  6
Continuous
100
AcDbCircle
 10
5032.485434
 20
-2591.301511000001
 30
0.0
 40
5415.550781
100
AcDbArc
 50
149.4658849999999
 51
149.498421
  0
ARC
  5
C1E5
330
BE4C
100
AcDbEntity
  8
1
  6
Continuous
100
AcDbCircle
 10
370.1611849999999
 20
158.757922
 30
0.0
 40
2.594708999999999
100
AcDbArc
 50
121.299128
 51
149.4658849999999
  0
LINE
  5
C1E6
330
BE4C
100
AcDbEntity
  8
1
  6
Continuous
100
AcDbLine
 10
367.961814
 20
162.977054
 30
0.0
 11
368.8132079999999
 21
160.9750169999998
 31
0.0
  0
ARC
  5
C1E7
330
BE4C
100
AcDbEntity
  8
1
  6
Continuous
100
AcDbCircle
 10
296.8900819999999
 20
183.9232669999999
 30
0.0
 40
56.58425499999999
100
AcDbArc
 50
292.901647
 51
296.132919
  0
LINE
  5
C1E8
330
BE4C
100
AcDbEntity
  8
1
  6
Continuous
100
AcDbLine
 10
316.963431
 20
140.135127
 30
0.0
 11
309.531073
 21
131.027591
 31
0.0
  0
LINE
  5
C1E9
330
BE4C
100
AcDbEntity
  8
1
  6
Continuous
100
AcDbLine
 10
310.879523
 20
129.848117
 30
0.0
 11
311.823466
 21
130.972349
 31
0.0
  0
ARC
  5
C1EA
330
BE4C
100
AcDbEntity
  8
1
  6
Continuous
100
AcDbCircle
 10
312.7604279999999
 20
131.6604419999999
 30
0.0
 40
1.162484
100
AcDbArc
 50
216.292623
 51
271.0747809999999
  0
ARC
  5
C1EB
330
BE4C
100
AcDbEntity
  8
1
  6
Continuous
100
AcDbCircle
 10
312.4719149999999
 20
147.0388439999998
 30
0.0
 40
16.543596
100
AcDbArc
 50
271.0747809999999
 51
292.901647
  0
LINE
  5
C1EC
330
BE4C
100
AcDbEntity
  8
1
  6
Continuous
100
AcDbLine
 10
310.879508
 20
129.848117
 30
0.0
 11
309.531073
 21
131.0275829999999
 31
0.0
  0
ARC
  5
C1ED
330
BE4C
100
AcDbEntity
  8
5
  6
PHANTOM
100
AcDbCircle
 10
318.131293
 20
165.6824829999999
 30
0.0
 40
16.543596
100
AcDbArc
 50
232.0747789999999
 51
253.9016499999999
  0
LINE
  5
C1EE
330
BE4C
100
AcDbEntity
  8
5
  6
PHANTOM
100
AcDbLine
 10
317.2771969999998
 20
157.4906799999999
 30
0.0
 11
305.769614
 21
155.090137
 31
0.0
  0
LINE
  5
C1EF
330
BE4C
100
AcDbEntity
  8
5
  6
PHANTOM
100
AcDbLine
 10
306.075293
 20
153.324924
 30
0.0
 11
307.5163709999998
 21
153.6045709999999
 31
0.0
  0
ARC
  5
C1F0
330
BE4C
100
AcDbEntity
  8
1
  6
Continuous
100
AcDbCircle
 10
306.796694
 20
165.997031
 30
0.0
 40
9.035839999999996
100
AcDbArc
 50
48.378449
 51
60.452662
  0
LINE
  5
C1F1
330
BE4C
100
AcDbEntity
  8
1
  6
Continuous
100
AcDbLine
 10
320.439546
 20
163.360793
 30
0.0
 11
333.909689
 21
142.98154
 31
0.0
  0
ARC
  5
C1F2
330
BE4C
100
AcDbEntity
  8
1
  6
Continuous
100
AcDbCircle
 10
317.7704529999999
 20
143.028415
 30
0.0
 40
3.003727999999998
100
AcDbArc
 50
254.414815
 51
275.4322649999999
  0
ARC
  5
C1F3
330
BE4C
100
AcDbEntity
  8
5
  6
PHANTOM
100
AcDbCircle
 10
329.2340459999999
 20
204.1530339999999
 30
0.0
 40
56.58425499999999
100
AcDbArc
 50
253.9016499999999
 51
257.132924
  0
ARC
  5
C1F4
330
BE4C
100
AcDbEntity
  8
5
  6
PHANTOM
100
AcDbCircle
 10
319.7251799999999
 20
159.2313189999998
 30
0.0
 40
3.003727999999998
100
AcDbArc
 50
215.4148139999998
 51
236.4322789999999
  0
ARC
  5
C1F5
330
BE4C
100
AcDbEntity
  8
1
  6
Continuous
100
AcDbCircle
 10
316.9976709999999
 20
161.041931
 30
0.0
 40
4.150134999999997
100
AcDbArc
 50
33.968948
 51
45.702543
  0
ARC
  5
C1F6
330
BE4C
100
AcDbEntity
  8
1
  6
Continuous
100
AcDbCircle
 10
329.8605129999998
 20
174.2241459999999
 30
0.0
 40
14.267886
100
AcDbArc
 50
214.9632489999999
 51
225.7025429999999
  0
ARC
  5
C1F7
330
BE4C
100
AcDbEntity
  8
1
  6
Continuous
100
AcDbCircle
 10
310.631718
 20
170.313251
 30
0.0
 40
3.262005999999998
100
AcDbArc
 50
39.701034
 51
48.378449
  0
ARC
  5
C1F8
330
BE4C
100
AcDbEntity
  8
1
  6
Continuous
100
AcDbCircle
 10
358.4149049999999
 20
209.985074
 30
0.0
 40
58.84344099999999
100
AcDbArc
 50
219.7010339999999
 51
222.287157
  0
ARC
  5
C1F9
330
BE4C
100
AcDbEntity
  8
1
  6
Continuous
100
AcDbCircle
 10
294.9133409999999
 20
152.2291109999999
 30
0.0
 40
26.994778
100
AcDbArc
 50
33.904437
 51
42.287157
  0
ARC
  5
C1FA
330
BE4C
100
AcDbEntity
  8
1
  6
Continuous
100
AcDbCircle
 10
384.7944339999998
 20
212.636803
 30
0.0
 40
81.299728
100
AcDbArc
 50
213.904437
 51
214.9632489999999
  0
LINE
  5
C1FB
330
BE4C
100
AcDbEntity
  8
5
  6
PHANTOM
100
AcDbLine
 10
306.075293
 20
153.3249159999998
 30
0.0
 11
305.7696289999999
 21
155.090137
 31
0.0
  0
ARC
  5
C1FC
330
BE4C
100
AcDbEntity
  8
5
  6
PHANTOM
100
AcDbCircle
 10
308.6775579999998
 20
153.5496549999998
 30
0.0
 40
1.162484
100
AcDbArc
 50
177.2926239999999
 51
232.0747789999999
  0
LINE
  5
C1FD
330
BE4C
100
AcDbEntity
  8
1
  6
Continuous
100
AcDbLine
 10
303.827471
 20
175.3819969999999
 30
0.0
 11
302.6255019999999
 21
175.762876
 31
0.0
  0
LINE
  5
C1FE
330
BE4C
100
AcDbEntity
  8
1
  6
Continuous
100
AcDbLine
 10
303.827471
 20
175.3819969999999
 30
0.0
 11
303.8855709999999
 21
175.3924529999999
 31
0.0
  0
ARC
  5
C1FF
330
BE4C
100
AcDbEntity
  8
1
  6
Continuous
100
AcDbCircle
 10
303.9955739999999
 20
185.499407
 30
0.0
 40
10.10755199999998
100
AcDbArc
 50
269.3764279999999
 51
271.8826729999999
  0
ARC
  5
C200
330
BE4C
100
AcDbEntity
  8
1
  6
Continuous
100
AcDbCircle
 10
304.524221
 20
175.8890879999999
 30
0.0
 40
0.529613
100
AcDbArc
 50
248.2113149999999
 51
282.6736619999999
  0
ARC
  5
C201
330
BE4C
100
AcDbEntity
  8
1
  6
Continuous
100
AcDbCircle
 10
309.5409969999999
 20
170.838233
 30
0.0
 40
3.470911
100
AcDbArc
 50
60.452662
 51
78.73786199999997
  0
ARC
  5
C202
330
BE4C
100
AcDbEntity
  8
1
  6
Continuous
100
AcDbCircle
 10
309.725161
 20
180.7453689999999
 30
0.0
 40
6.348405999999997
100
AcDbArc
 50
262.7310089999999
 51
265.9394669999999
  0
ARC
  5
C203
330
BE4C
100
AcDbEntity
  8
1
  6
Continuous
100
AcDbCircle
 10
304.911761
 20
147.5912319999999
 30
0.0
 40
27.174347
100
AcDbArc
 50
78.73786199999997
 51
80.75898700000001
  0
ARC
  5
C204
330
BE4C
100
AcDbEntity
  8
1
  6
Continuous
100
AcDbCircle
 10
312.1565679999998
 20
199.8073149999999
 30
0.0
 40
25.564794
100
AcDbArc
 50
252.9021769999999
 51
262.7310089999999
  0
ARC
  5
C205
330
BE4C
100
AcDbEntity
  8
1
  6
Continuous
100
AcDbCircle
 10
344.068713
 20
160.868749
 30
0.0
 40
18.81792199999998
100
AcDbArc
 50
89.60845400000003
 51
92.995108
  0
LINE
  5
C206
330
BE4C
100
AcDbEntity
  8
1
  6
Continuous
100
AcDbLine
 10
291.6255019999999
 20
190.369876
 30
0.0
 11
351.625502
 21
190.369876
 31
0.0
  0
LINE
  5
C207
330
BE4C
100
AcDbEntity
  8
1
  6
Continuous
100
AcDbLine
 10
291.6255019999999
 20
188.369573
 30
0.0
 11
351.625502
 21
188.369573
 31
0.0
  0
LINE
  5
C208
330
BE4C
100
AcDbEntity
  8
1
  6
Continuous
100
AcDbLine
 10
351.625502
 20
188.369573
 30
0.0
 11
351.625502
 21
190.369876
 31
0.0
  0
LINE
  5
C209
330
BE4C
100
AcDbEntity
  8
4
  6
CENTER
100
AcDbLine
 10
345.125502
 20
183.369573
 30
0.0
 11
345.125502
 21
194.9908529999999
 31
0.0
  0
ARC
  5
C20A
330
BE4C
100
AcDbEntity
  8
1
  6
Continuous
100
AcDbCircle
 10
344.546921
 20
489.3778189999999
 30
0.0
 40
311.6925539999999
100
AcDbArc
 50
269.9903949999999
 51
270.3265229999999
  0
ARC
  5
C20B
330
BE4C
100
AcDbEntity
  8
1
  6
Continuous
100
AcDbCircle
 10
344.6660009999998
 20
248.2698109999998
 30
0.0
 40
68.58518100000001
100
AcDbArc
 50
269.608454
 51
270.876118
  0
ARC
  5
C20C
330
BE4C
100
AcDbEntity
  8
1
  6
Continuous
100
AcDbCircle
 10
345.758206
 20
177.704509
 30
0.0
 40
1.988615
100
AcDbArc
 50
76.916679
 51
91.25340499999998
  0
ARC
  5
C20D
330
BE4C
100
AcDbEntity
  8
1
  6
Continuous
100
AcDbCircle
 10
346.4589669999999
 20
179.3757089999998
 30
0.0
 40
0.140401
100
AcDbArc
 50
4.755418999999998
 51
53.96652299999998
  0
ARC
  5
C20E
330
BE4C
100
AcDbEntity
  8
1
  6
Continuous
100
AcDbCircle
 10
345.999947
 20
178.744698
 30
0.0
 40
0.9207059999999998
100
AcDbArc
 50
53.96652299999998
 51
76.916679
  0
ARC
  5
C20F
330
BE4C
100
AcDbEntity
  8
1
  6
Continuous
100
AcDbCircle
 10
346.289901
 20
178.329744
 30
0.0
 40
0.640285
100
AcDbArc
 50
267.659662
 51
298.0988159999998
  0
ARC
  5
C210
330
BE4C
100
AcDbEntity
  8
1
  6
Continuous
100
AcDbCircle
 10
401.425312
 20
180.630882
 30
0.0
 40
54.840528
100
AcDbArc
 50
181.299318
 51
182.2989619999999
  0
ARC
  5
C211
330
BE4C
100
AcDbEntity
  8
1
  6
Continuous
100
AcDbCircle
 10
346.2047249999998
 20
177.963741
 30
0.0
 40
0.434857
100
AcDbArc
 50
332.793515
 51
12.371354
  0
ARC
  5
C212
330
BE4C
100
AcDbEntity
  8
1
  6
Continuous
100
AcDbCircle
 10
347.746034
 20
178.2456399999999
 30
0.0
 40
1.132387999999999
100
AcDbArc
 50
170.577549
 51
189.5940659999999
  0
LINE
  5
C213
330
BE4C
100
AcDbEntity
  8
1
  6
Continuous
100
AcDbLine
 10
309.7260069999999
 20
184.111835
 30
0.0
 11
311.7260069999999
 21
182.498601
 31
0.0
  0
LINE
  5
C214
330
BE4C
100
AcDbEntity
  8
1
  6
Continuous
100
AcDbLine
 10
312.311794
 20
184.111835
 30
0.0
 11
310.311794
 21
182.498601
 31
0.0
  0
LINE
  5
C215
330
BE4C
100
AcDbEntity
  8
1
  6
Continuous
100
AcDbLine
 10
311.140221
 20
184.111835
 30
0.0
 11
313.140221
 21
182.498601
 31
0.0
  0
LINE
  5
C216
330
BE4C
100
AcDbEntity
  8
1
  6
Continuous
100
AcDbLine
 10
339.350434
 20
186.074941
 30
0.0
 11
303.90057
 21
186.074941
 31
0.0
  0
LINE
  5
C217
330
BE4C
100
AcDbEntity
  8
1
  6
Continuous
100
AcDbLine
 10
340.1255019999999
 20
184.111835
 30
0.0
 11
303.1255019999999
 21
184.111835
 31
0.0
  0
LINE
  5
C218
330
BE4C
100
AcDbEntity
  8
1
  6
Continuous
100
AcDbLine
 10
303.1255019999999
 20
182.498601
 30
0.0
 11
340.1255019999999
 21
182.498601
 31
0.0
  0
LINE
  5
C219
330
BE4C
100
AcDbEntity
  8
1
  6
Continuous
100
AcDbLine
 10
339.556732
 20
186.386448
 30
0.0
 11
303.8649279999999
 21
186.386448
 31
0.0
  0
LINE
  5
C21A
330
BE4C
100
AcDbEntity
  8
1
  6
Continuous
100
AcDbLine
 10
305.0565529999999
 20
182.498601
 30
0.0
 11
337.8755019999999
 21
182.498601
 31
0.0
  0
LINE
  5
C21B
330
BE4C
100
AcDbEntity
  8
1
  6
Continuous
100
AcDbLine
 10
326.69657
 20
184.111835
 30
0.0
 11
328.69657
 21
182.498601
 31
0.0
  0
LINE
  5
C21C
330
BE4C
100
AcDbEntity
  8
1
  6
Continuous
100
AcDbLine
 10
329.2823559999998
 20
184.111835
 30
0.0
 11
327.2823559999999
 21
182.498601
 31
0.0
  0
LINE
  5
C21D
330
BE4C
100
AcDbEntity
  8
1
  6
Continuous
100
AcDbLine
 10
328.110783
 20
184.111835
 30
0.0
 11
330.110783
 21
182.498601
 31
0.0
  0
LINE
  5
C21E
330
BE4C
100
AcDbEntity
  8
1
  6
Continuous
100
AcDbLine
 10
332.353424
 20
184.111835
 30
0.0
 11
334.353424
 21
182.498601
 31
0.0
  0
ARC
  5
C21F
330
BE4C
100
AcDbEntity
  8
1
  6
Continuous
100
AcDbCircle
 10
339.3860759999999
 20
189.997448
 30
0.0
 40
3.611
100
AcDbArc
 50
270.0
 51
333.204343
  0
LINE
  5
C220
330
BE4C
100
AcDbEntity
  8
1
  6
Continuous
100
AcDbLine
 10
340.1255019999999
 20
183.4108249999999
 30
0.0
 11
339.4244919999998
 21
184.111835
 31
0.0
  0
ARC
  5
C221
330
BE4C
100
AcDbEntity
  8
1
  6
Continuous
100
AcDbCircle
 10
339.171171
 20
185.2579039999999
 30
0.0
 40
0.8364709999999998
100
AcDbArc
 50
19.341459
 51
77.625084
  0
ARC
  5
C222
330
BE4C
100
AcDbEntity
  8
1
  6
Continuous
100
AcDbCircle
 10
333.713728
 20
186.963186
 30
0.0
 40
6.407901999999999
100
AcDbArc
 50
333.5783109999999
 51
347.121283
  0
LINE
  5
C223
330
BE4C
100
AcDbEntity
  8
1
  6
Continuous
100
AcDbLine
 10
340.1255019999999
 20
184.111835
 30
0.0
 11
340.1255019999999
 21
182.498601
 31
0.0
  0
LINE
  5
C224
330
BE4C
100
AcDbEntity
  8
1
  6
Continuous
100
AcDbLine
 10
338.0102779999999
 20
184.111835
 30
0.0
 11
340.0102779999999
 21
182.498601
 31
0.0
  0
LINE
  5
C225
330
BE4C
100
AcDbEntity
  8
1
  6
Continuous
100
AcDbLine
 10
340.1255019999999
 20
183.641272
 30
0.0
 11
338.596065
 21
182.498601
 31
0.0
  0
LINE
  5
C226
330
BE4C
100
AcDbEntity
  8
1
  6
Continuous
100
AcDbLine
 10
335.181851
 20
184.111835
 30
0.0
 11
337.181851
 21
182.498601
 31
0.0
  0
LINE
  5
C227
330
BE4C
100
AcDbEntity
  8
1
  6
Continuous
100
AcDbLine
 10
336.596065
 20
184.111835
 30
0.0
 11
338.596065
 21
182.498601
 31
0.0
  0
LINE
  5
C228
330
BE4C
100
AcDbEntity
  8
1
  6
Continuous
100
AcDbLine
 10
337.767638
 20
184.111835
 30
0.0
 11
335.767638
 21
182.498601
 31
0.0
  0
LINE
  5
C229
330
BE4C
100
AcDbEntity
  8
1
  6
Continuous
100
AcDbLine
 10
333.7676379999999
 20
184.111835
 30
0.0
 11
335.767638
 21
182.498601
 31
0.0
  0
LINE
  5
C22A
330
BE4C
100
AcDbEntity
  8
1
  6
Continuous
100
AcDbLine
 10
334.939211
 20
184.111835
 30
0.0
 11
332.939211
 21
182.498601
 31
0.0
  0
LINE
  5
C22B
330
BE4C
100
AcDbEntity
  8
1
  6
Continuous
100
AcDbLine
 10
329.5249969999999
 20
184.111835
 30
0.0
 11
331.5249969999999
 21
182.498601
 31
0.0
  0
LINE
  5
C22C
330
BE4C
100
AcDbEntity
  8
1
  6
Continuous
100
AcDbLine
 10
330.939211
 20
184.111835
 30
0.0
 11
332.939211
 21
182.498601
 31
0.0
  0
LINE
  5
C22D
330
BE4C
100
AcDbEntity
  8
1
  6
Continuous
100
AcDbLine
 10
332.110783
 20
184.111835
 30
0.0
 11
330.110783
 21
182.498601
 31
0.0
  0
ARC
  5
C22E
330
BE4C
100
AcDbEntity
  8
1
  6
Continuous
100
AcDbCircle
 10
341.9127369999998
 20
180.0548349999999
 30
0.0
 40
0.72932
100
AcDbArc
 50
177.3053509999998
 51
188.6832409999999
  0
ARC
  5
C22F
330
BE4C
100
AcDbEntity
  8
1
  6
Continuous
100
AcDbCircle
 10
341.433175
 20
179.9815949999999
 30
0.0
 40
0.2441969999999999
100
AcDbArc
 50
188.6832409999999
 51
225.96857
  0
ARC
  5
C230
330
BE4C
100
AcDbEntity
  8
1
  6
Continuous
100
AcDbCircle
 10
342.1495929999999
 20
188.665634
 30
0.0
 40
8.995680999999997
100
AcDbArc
 50
265.980787
 51
270.813752
  0
ARC
  5
C231
330
BE4C
100
AcDbEntity
  8
1
  6
Continuous
100
AcDbCircle
 10
341.547747
 20
180.1001079999998
 30
0.0
 40
0.409037
100
AcDbArc
 50
225.96857
 51
265.980787
  0
ARC
  5
C232
330
BE4C
100
AcDbEntity
  8
1
  6
Continuous
100
AcDbCircle
 10
337.276814
 20
178.155862
 30
0.0
 40
4.359511999999998
100
AcDbArc
 50
26.32472
 51
84.97236800000001
  0
ARC
  5
C233
330
BE4C
100
AcDbEntity
  8
1
  6
Continuous
100
AcDbCircle
 10
342.7579789999999
 20
185.919971
 30
0.0
 40
6.267566999999997
100
AcDbArc
 50
265.601965
 51
272.995108
  0
LINE
  5
C234
330
BE4C
100
AcDbEntity
  8
1
  6
Continuous
100
AcDbLine
 10
342.7579789999999
 20
179.6524039999999
 30
0.0
 11
336.1574589999999
 21
179.6524039999999
 31
0.0
  0
LINE
  5
C235
330
BE4C
100
AcDbEntity
  8
1
  6
Continuous
100
AcDbLine
 10
312.5544339999998
 20
184.111835
 30
0.0
 11
314.5544339999998
 21
182.498601
 31
0.0
  0
LINE
  5
C236
330
BE4C
100
AcDbEntity
  8
1
  6
Continuous
100
AcDbLine
 10
315.140221
 20
184.111835
 30
0.0
 11
313.140221
 21
182.498601
 31
0.0
  0
LINE
  5
C237
330
BE4C
100
AcDbEntity
  8
1
  6
Continuous
100
AcDbLine
 10
316.797075
 20
184.111835
 30
0.0
 11
318.797075
 21
182.498601
 31
0.0
  0
LINE
  5
C238
330
BE4C
100
AcDbEntity
  8
1
  6
Continuous
100
AcDbLine
 10
315.382861
 20
184.111835
 30
0.0
 11
317.382861
 21
182.498601
 31
0.0
  0
LINE
  5
C239
330
BE4C
100
AcDbEntity
  8
1
  6
Continuous
100
AcDbLine
 10
317.9686479999999
 20
184.111835
 30
0.0
 11
315.9686479999999
 21
182.498601
 31
0.0
  0
LINE
  5
C23A
330
BE4C
100
AcDbEntity
  8
1
  6
Continuous
100
AcDbLine
 10
321.0397159999998
 20
184.111835
 30
0.0
 11
323.0397159999998
 21
182.498601
 31
0.0
  0
LINE
  5
C23B
330
BE4C
100
AcDbEntity
  8
1
  6
Continuous
100
AcDbLine
 10
322.453929
 20
184.111835
 30
0.0
 11
324.453929
 21
182.498601
 31
0.0
  0
LINE
  5
C23C
330
BE4C
100
AcDbEntity
  8
1
  6
Continuous
100
AcDbLine
 10
323.6255019999999
 20
184.111835
 30
0.0
 11
321.6255019999999
 21
182.498601
 31
0.0
  0
LINE
  5
C23D
330
BE4C
100
AcDbEntity
  8
1
  6
Continuous
100
AcDbLine
 10
319.6255019999999
 20
184.111835
 30
0.0
 11
321.6255019999999
 21
182.498601
 31
0.0
  0
LINE
  5
C23E
330
BE4C
100
AcDbEntity
  8
1
  6
Continuous
100
AcDbLine
 10
325.2823559999999
 20
184.111835
 30
0.0
 11
327.2823559999999
 21
182.498601
 31
0.0
  0
LINE
  5
C23F
330
BE4C
100
AcDbEntity
  8
1
  6
Continuous
100
AcDbLine
 10
323.8681429999999
 20
184.111835
 30
0.0
 11
325.8681429999999
 21
182.498601
 31
0.0
  0
LINE
  5
C240
330
BE4C
100
AcDbEntity
  8
1
  6
Continuous
100
AcDbLine
 10
326.453929
 20
184.111835
 30
0.0
 11
324.453929
 21
182.498601
 31
0.0
  0
LINE
  5
C241
330
BE4C
100
AcDbEntity
  8
1
  6
Continuous
100
AcDbLine
 10
318.2112879999999
 20
184.111835
 30
0.0
 11
320.2112879999999
 21
182.498601
 31
0.0
  0
LINE
  5
C242
330
BE4C
100
AcDbEntity
  8
1
  6
Continuous
100
AcDbLine
 10
320.797075
 20
184.111835
 30
0.0
 11
318.797075
 21
182.498601
 31
0.0
  0
LINE
  5
C243
330
BE4C
100
AcDbEntity
  8
1
  6
Continuous
100
AcDbLine
 10
313.9686479999999
 20
184.111835
 30
0.0
 11
315.9686479999999
 21
182.498601
 31
0.0
  0
LINE
  5
C244
330
BE4C
100
AcDbEntity
  8
1
  6
Continuous
100
AcDbLine
 10
303.8265119999999
 20
184.111835
 30
0.0
 11
303.1255019999999
 21
183.4108249999999
 31
0.0
  0
ARC
  5
C245
330
BE4C
100
AcDbEntity
  8
1
  6
Continuous
100
AcDbCircle
 10
304.079833
 20
185.2579039999999
 30
0.0
 40
0.8364709999999998
100
AcDbArc
 50
102.3749159999999
 51
160.6585409999999
  0
ARC
  5
C246
330
BE4C
100
AcDbEntity
  8
1
  6
Continuous
100
AcDbCircle
 10
309.5372759999999
 20
186.963186
 30
0.0
 40
6.407901999999999
100
AcDbArc
 50
192.8787169999999
 51
205.64444
  0
LINE
  5
C247
330
BE4C
100
AcDbEntity
  8
1
  6
Continuous
100
AcDbLine
 10
303.1255019999999
 20
184.111835
 30
0.0
 11
303.1255019999999
 21
182.498601
 31
0.0
  0
LINE
  5
C248
330
BE4C
100
AcDbEntity
  8
1
  6
Continuous
100
AcDbLine
 10
303.1255019999999
 20
182.6138239999999
 30
0.0
 11
303.2407259999998
 21
182.498601
 31
0.0
  0
LINE
  5
C249
330
BE4C
100
AcDbEntity
  8
1
  6
Continuous
100
AcDbLine
 10
305.4833659999999
 20
184.111835
 30
0.0
 11
307.4833659999999
 21
182.498601
 31
0.0
  0
LINE
  5
C24A
330
BE4C
100
AcDbEntity
  8
1
  6
Continuous
100
AcDbLine
 10
306.654939
 20
184.111835
 30
0.0
 11
304.654939
 21
182.498601
 31
0.0
  0
LINE
  5
C24B
330
BE4C
100
AcDbEntity
  8
1
  6
Continuous
100
AcDbLine
 10
304.0691529999999
 20
184.111835
 30
0.0
 11
306.0691529999999
 21
182.498601
 31
0.0
  0
LINE
  5
C24C
330
BE4C
100
AcDbEntity
  8
1
  6
Continuous
100
AcDbLine
 10
303.1255019999999
 20
183.641272
 30
0.0
 11
304.654939
 21
182.498601
 31
0.0
  0
LINE
  5
C24D
330
BE4C
100
AcDbEntity
  8
1
  6
Continuous
100
AcDbLine
 10
308.311794
 20
184.111835
 30
0.0
 11
310.311794
 21
182.498601
 31
0.0
  0
LINE
  5
C24E
330
BE4C
100
AcDbEntity
  8
1
  6
Continuous
100
AcDbLine
 10
306.89758
 20
184.111835
 30
0.0
 11
308.89758
 21
182.498601
 31
0.0
  0
LINE
  5
C24F
330
BE4C
100
AcDbEntity
  8
1
  6
Continuous
100
AcDbLine
 10
309.4833659999999
 20
184.111835
 30
0.0
 11
307.4833659999999
 21
182.498601
 31
0.0
  0
ARC
  5
C250
330
BE4C
100
AcDbEntity
  8
1
  6
Continuous
100
AcDbCircle
 10
303.8649279999999
 20
189.997448
 30
0.0
 40
3.611
100
AcDbArc
 50
206.795657
 51
270.0
  0
LINE
  5
C251
330
BE4C
100
AcDbEntity
  8
4
  6
CENTER
100
AcDbLine
 10
298.1255019999998
 20
183.369573
 30
0.0
 11
298.1255019999998
 21
194.9908529999999
 31
0.0
  0
ARC
  5
C252
330
BE4C
100
AcDbEntity
  8
1
  6
Continuous
100
AcDbCircle
 10
305.6958179999999
 20
180.3367859999999
 30
0.0
 40
2.254351999999999
100
AcDbArc
 50
106.473291
 51
134.206902
  0
ARC
  5
C253
330
BE4C
100
AcDbEntity
  8
1
  6
Continuous
100
AcDbCircle
 10
313.484208
 20
176.704375
 30
0.0
 40
10.81643699999998
100
AcDbArc
 50
160.4403529999999
 51
162.882645
  0
ARC
  5
C254
330
BE4C
100
AcDbEntity
  8
1
  6
Continuous
100
AcDbCircle
 10
307.7319689999999
 20
178.4759019999999
 30
0.0
 40
4.797585999999999
100
AcDbArc
 50
162.882645
 51
177.353025
  0
ARC
  5
C255
330
BE4C
100
AcDbEntity
  8
1
  6
Continuous
100
AcDbCircle
 10
295.9557439999999
 20
178.5241919999999
 30
0.0
 40
6.985907
100
AcDbArc
 50
353.0180029999999
 51
1.421261
  0
ARC
  5
C256
330
BE4C
100
AcDbEntity
  8
1
  6
Continuous
100
AcDbCircle
 10
307.864618
 20
179.01377
 30
0.0
 40
4.757115999999999
100
AcDbArc
 50
141.843592
 51
163.9927399999999
  0
LINE
  5
C257
330
BE4C
100
AcDbEntity
  8
1
  6
Continuous
100
AcDbLine
 10
291.6255019999999
 20
188.369573
 30
0.0
 11
291.6255019999999
 21
190.369876
 31
0.0
  0
ARC
  5
C258
330
BE4C
100
AcDbEntity
  8
1
  6
Continuous
100
AcDbCircle
 10
129.408073
 20
148.369876
 30
0.0
 40
25.0
100
AcDbArc
 50
163.4853389999999
 51
322.4205609999998
  0
ARC
  5
C259
330
BE4C
100
AcDbEntity
  8
1
  6
Continuous
100
AcDbCircle
 10
129.408073
 20
148.369876
 30
0.0
 40
17.5
100
AcDbArc
 50
182.0292169999999
 51
318.8861289999999
  0
ARC
  5
C25A
330
BE4C
100
AcDbEntity
  8
1
  6
Continuous
100
AcDbCircle
 10
129.408073
 20
148.369876
 30
0.0
 40
25.0
100
AcDbArc
 50
340.5327529999999
 51
34.430256
  0
LINE
  5
C25B
330
BE4C
100
AcDbEntity
  8
1
  6
Continuous
100
AcDbLine
 10
131.8427049999999
 20
222.963572
 30
0.0
 11
126.925707
 21
222.9685209999999
 31
0.0
  0
LINE
  5
C25C
330
BE4C
100
AcDbEntity
  8
1
  6
Continuous
100
AcDbLine
 10
132.38475
 20
223.504527
 30
0.0
 11
126.384753
 21
223.5105649999999
 31
0.0
  0
ARC
  5
C25D
330
BE4C
100
AcDbEntity
  8
1
  6
Continuous
100
AcDbCircle
 10
126.8929879999999
 20
231.69365
 30
0.0
 40
7.225291999999997
100
AcDbArc
 50
249.699073
 51
290.185605
  0
LINE
  5
C25E
330
BE4C
100
AcDbEntity
  8
1
  6
Continuous
100
AcDbLine
 10
134.3857129999999
 20
224.4608139999999
 30
0.0
 11
124.385718
 21
224.4708779999999
 31
0.0
  0
LINE
  5
C25F
330
BE4C
100
AcDbEntity
  8
1
  6
Continuous
100
AcDbLine
 10
124.386909
 20
225.654083
 30
0.0
 11
124.385718
 21
224.4708779999999
 31
0.0
  0
LINE
  5
C260
330
BE4C
100
AcDbEntity
  8
1
  6
Continuous
100
AcDbLine
 10
126.925707
 20
222.9685209999999
 30
0.0
 11
126.384753
 21
223.5105649999999
 31
0.0
  0
LINE
  5
C261
330
BE4C
100
AcDbEntity
  8
2
  6
Continuous
100
AcDbLine
 10
126.925707
 20
222.9685209999999
 30
0.0
 11
126.927217
 21
224.46832
 31
0.0
  0
LINE
  5
C262
330
BE4C
100
AcDbEntity
  8
1
  6
Continuous
100
AcDbLine
 10
126.384753
 20
223.5105649999999
 30
0.0
 11
126.385717
 21
224.468865
 31
0.0
  0
LINE
  5
C263
330
BE4C
100
AcDbEntity
  8
1
  6
Continuous
100
AcDbLine
 10
134.386914
 20
225.654083
 30
0.0
 11
134.3857129999999
 21
224.4608139999999
 31
0.0
  0
LINE
  5
C264
330
BE4C
100
AcDbEntity
  8
1
  6
Continuous
100
AcDbLine
 10
129.3861649999997
 20
224.912137
 30
0.0
 11
129.3869109999999
 21
225.654083
 31
0.0
  0
LINE
  5
C265
330
BE4C
100
AcDbEntity
  8
1
  6
Continuous
100
AcDbLine
 10
131.8427049999999
 20
222.963572
 30
0.0
 11
132.38475
 21
223.504527
 31
0.0
  0
LINE
  5
C266
330
BE4C
100
AcDbEntity
  8
1
  6
Continuous
100
AcDbLine
 10
132.38475
 20
223.504527
 30
0.0
 11
132.3857139999998
 21
224.462827
 31
0.0
  0
LINE
  5
C267
330
BE4C
100
AcDbEntity
  8
2
  6
Continuous
100
AcDbLine
 10
131.8427049999999
 20
222.963572
 30
0.0
 11
131.8442139999999
 21
224.4633719999999
 31
0.0
  0
ARC
  5
C268
330
BE4C
100
AcDbEntity
  8
1
  6
Continuous
100
AcDbCircle
 10
131.892986
 20
231.688618
 30
0.0
 40
7.225291999999997
100
AcDbArc
 50
249.699073
 51
290.185605
  0
LINE
  5
C269
330
BE4C
100
AcDbEntity
  8
4
  6
CENTER
100
AcDbLine
 10
129.408626
 20
272.654083
 30
0.0
 11
129.408626
 21
217.9660189999999
 31
0.0
  0
CIRCLE
  5
C26A
330
BE4C
100
AcDbEntity
  8
1
  6
Continuous
100
AcDbCircle
 10
341.625617
 20
148.369876
 30
0.0
 40
4.25
  0
LINE
  5
C26B
330
BE4C
100
AcDbEntity
  8
1
  6
Continuous
100
AcDbLine
 10
119.4086259999999
 20
83.82876600000001
 30
0.0
 11
119.4086259999999
 21
85.58566899999998
 31
0.0
  0
ENDSEC
  0
SECTION
  2
OBJECTS
  0
DICTIONARY
  5
BE3A
330
0
100
AcDbDictionary
281
     1
  3
ACAD_CIP_PREVIOUS_PRODUCT_INFO
350
C2CD
  3
ACAD_COLOR
350
C2AF
  3
ACAD_DETAILVIEWSTYLE
350
C2C8
  3
ACAD_GROUP
350
BE3B
  3
ACAD_LAYOUT
350
BE47
  3
ACAD_MATERIAL
350
C27D
  3
ACAD_MLEADERSTYLE
350
C2C4
  3
ACAD_MLINESTYLE
350
BE44
  3
ACAD_PLOTSETTINGS
350
BE46
  3
ACAD_PLOTSTYLENAME
350
C27B
  3
ACAD_SCALELIST
350
C2B2
  3
ACAD_SECTIONVIEWSTYLE
350
C2C6
  3
ACAD_TABLESTYLE
350
C2B0
  3
ACAD_VISUALSTYLE
350
C296
  3
ACDB_RECOMPOSE_DATA
350
C2EB
  3
AcDbVariableDictionary
350
C2DE
  3
DWGPROPS
350
C2EC
  0
DICTIONARY
  5
C2CE
330
BE3E
100
AcDbDictionary
280
     1
281
     1
  3
ADSK_XREC_LAYER_RECONCILED
360
C2CF
  0
DICTIONARY
  5
C2D0
330
BE54
100
AcDbDictionary
280
     1
281
     1
  3
ADSK_XREC_LAYER_RECONCILED
360
C2D1
  0
DICTIONARY
  5
C2D2
330
BE55
100
AcDbDictionary
280
     1
281
     1
  3
ADSK_XREC_LAYER_RECONCILED
360
C2D3
  0
DICTIONARY
  5
C2D4
330
BE56
100
AcDbDictionary
280
     1
281
     1
  3
ADSK_XREC_LAYER_RECONCILED
360
C2D5
  0
DICTIONARY
  5
C2D6
330
BE57
100
AcDbDictionary
280
     1
281
     1
  3
ADSK_XREC_LAYER_RECONCILED
360
C2D7
  0
DICTIONARY
  5
C2D8
330
BE58
100
AcDbDictionary
280
     1
281
     1
  3
ADSK_XREC_LAYER_RECONCILED
360
C2D9
  0
DICTIONARY
  5
C2DA
330
BE59
100
AcDbDictionary
280
     1
281
     1
  3
ADSK_XREC_LAYER_RECONCILED
360
C2DB
  0
DICTIONARY
  5
C2DC
330
BE5A
100
AcDbDictionary
280
     1
281
     1
  3
ADSK_XREC_LAYER_RECONCILED
360
C2DD
  0
DICTIONARY
  5
C276
330
BE4C
100
AcDbDictionary
281
     1
  3
ACAD_LAYOUTSELFREF
350
C277
  0
DICTIONARY
  5
C274
330
BE48
100
AcDbDictionary
281
     1
  3
ACAD_LAYOUTSELFREF
350
C275
  0
XRECORD
  5
C2CD
102
{ACAD_REACTORS
330
BE3A
102
}
330
BE3A
100
AcDbXrecord
280
     1
300
ACDLT
300
2014
300
ACDLT_F_S
  0
DICTIONARY
  5
C2AF
102
{ACAD_REACTORS
330
BE3A
102
}
330
BE3A
100
AcDbDictionary
281
     1
  0
DICTIONARY
  5
C2C8
102
{ACAD_REACTORS
330
BE3A
102
}
330
BE3A
100
AcDbDictionary
281
     1
  3
Imperial24
350
C2C9
  0
DICTIONARY
  5
BE3B
102
{ACAD_REACTORS
330
BE3A
102
}
330
BE3A
100
AcDbDictionary
281
     1
  0
DICTIONARY
  5
BE47
102
{ACAD_REACTORS
330
BE3A
102
}
330
BE3A
100
AcDbDictionary
281
     1
  3
Model
350
C2CA
  3
レイアウト1
350
C2CB
  0
DICTIONARY
  5
C27D
102
{ACAD_REACTORS
330
BE3A
102
}
330
BE3A
100
AcDbDictionary
281
     1
  3
ByBlock
350
C286
  3
ByLayer
350
C27E
  3
Global
350
C28E
  0
DICTIONARY
  5
C2C4
102
{ACAD_REACTORS
330
BE3A
102
}
330
BE3A
100
AcDbDictionary
281
     1
  3
Standard
350
C2C5
  0
DICTIONARY
  5
BE44
102
{ACAD_REACTORS
330
BE3A
102
}
330
BE3A
100
AcDbDictionary
281
     1
  3
STANDARD
350
BE45
  0
DICTIONARY
  5
BE46
102
{ACAD_REACTORS
330
BE3A
102
}
330
BE3A
100
AcDbDictionary
281
     1
  0
ACDBDICTIONARYWDFLT
  5
C27B
102
{ACAD_REACTORS
330
BE3A
102
}
330
BE3A
100
AcDbDictionary
281
     1
  3
Normal
350
C27C
100
AcDbDictionaryWithDefault
340
C27C
  0
DICTIONARY
  5
C2B2
102
{ACAD_REACTORS
330
BE3A
102
}
330
BE3A
100
AcDbDictionary
281
     1
  3
A0
350
C2B3
  3
A1
350
C2B4
  3
A2
350
C2B5
  3
A3
350
C2B6
  3
A4
350
C2B7
  3
A5
350
C2B8
  3
A6
350
C2B9
  3
A7
350
C2BA
  3
A8
350
C2BB
  3
A9
350
C2BC
  3
B0
350
C2BD
  3
B1
350
C2BE
  3
B2
350
C2BF
  3
B3
350
C2C0
  3
B4
350
C2C1
  3
B5
350
C2C2
  3
B6
350
C2C3
  0
DICTIONARY
  5
C2C6
102
{ACAD_REACTORS
330
BE3A
102
}
330
BE3A
100
AcDbDictionary
281
     1
  3
Imperial24
350
C2C7
  0
DICTIONARY
  5
C2B0
102
{ACAD_REACTORS
330
BE3A
102
}
330
BE3A
100
AcDbDictionary
281
     1
  3
Standard
350
C2B1
  0
DICTIONARY
  5
C296
102
{ACAD_REACTORS
330
BE3A
102
}
330
BE3A
100
AcDbDictionary
281
     1
  3
2dWireframe
350
C29C
  3
Basic
350
C29B
  3
Brighten
350
C2A2
  3
ColorChange
350
C2A6
  3
Conceptual
350
C29F
  3
Dim
350
C2A1
  3
EdgeColorOff
350
C2AE
  3
Facepattern
350
C2A5
  3
Flat
350
C297
  3
FlatWithEdges
350
C298
  3
Gouraud
350
C299
  3
GouraudWithEdges
350
C29A
  3
Hidden
350
C29E
  3
JitterOff
350
C2AC
  3
Linepattern
350
C2A4
  3
OverhangOff
350
C2AD
  3
Realistic
350
C2A0
  3
Shaded
350
C2AB
  3
Shaded with edges
350
C2AA
  3
Shades of Gray
350
C2A7
  3
Sketchy
350
C2A8
  3
Thicken
350
C2A3
  3
Wireframe
350
C29D
  3
X-Ray
350
C2A9
  0
XRECORD
  5
C2EB
102
{ACAD_REACTORS
330
BE3A
102
}
330
BE3A
100
AcDbXrecord
280
     1
 90
        1
330
C2B1
  0
DICTIONARY
  5
C2DE
102
{ACAD_REACTORS
330
BE3A
102
}
330
BE3A
100
AcDbDictionary
281
     1
  3
CANNOSCALE
350
C2E3
  3
CMLEADERSTYLE
350
C2E0
  3
CTABLESTYLE
350
C2DF
  3
CVIEWDETAILSTYLE
350
C2E1
  3
CVIEWSECTIONSTYLE
350
C2E2
  3
DIMASSOC
350
C2E6
  3
INDEXCTL
350
C2E5
  3
SORTENTS
350
C2E4
  3
XCLIPFRAME
350
C2E7
  0
XRECORD
  5
C2EC
102
{ACAD_REACTORS
330
BE3A
102
}
330
BE3A
100
AcDbXrecord
280
     1
  1
DWGPROPS COOKIE
  2

  3

  4

  6

  7

  8
Yoshitsune
  9

300
=
301
=
302
=
303
=
304
=
305
=
306
=
307
=
308
=
309
=
 40
0.0000121527777778
 41
2451302.628789352
 42
2457192.686707917
  1

 90
        0
  0
XRECORD
  5
C2CF
102
{ACAD_REACTORS
330
C2CE
102
}
330
C2CE
100
AcDbXrecord
280
     1
290
     1
  0
XRECORD
  5
C2D1
102
{ACAD_REACTORS
330
C2D0
102
}
330
C2D0
100
AcDbXrecord
280
     1
290
     1
  0
XRECORD
  5
C2D3
102
{ACAD_REACTORS
330
C2D2
102
}
330
C2D2
100
AcDbXrecord
280
     1
290
     1
  0
XRECORD
  5
C2D5
102
{ACAD_REACTORS
330
C2D4
102
}
330
C2D4
100
AcDbXrecord
280
     1
290
     1
  0
XRECORD
  5
C2D7
102
{ACAD_REACTORS
330
C2D6
102
}
330
C2D6
100
AcDbXrecord
280
     1
290
     1
  0
XRECORD
  5
C2D9
102
{ACAD_REACTORS
330
C2D8
102
}
330
C2D8
100
AcDbXrecord
280
     1
290
     1
  0
XRECORD
  5
C2DB
102
{ACAD_REACTORS
330
C2DA
102
}
330
C2DA
100
AcDbXrecord
280
     1
290
     1
  0
XRECORD
  5
C2DD
102
{ACAD_REACTORS
330
C2DC
102
}
330
C2DC
100
AcDbXrecord
280
     1
290
     1
  0
XRECORD
  5
C277
102
{ACAD_REACTORS
330
C276
102
}
330
C276
100
AcDbXrecord
280
     1
340
BE4C
  0
XRECORD
  5
C275
102
{ACAD_REACTORS
330
C274
102
}
330
C274
100
AcDbXrecord
280
     1
340
BE48
  0
ACDBDETAILVIEWSTYLE
  5
C2C9
102
{ACAD_XDICTIONARY
360
C324
102
}
102
{ACAD_REACTORS
330
C2C8
102
}
330
C2C8
100
AcDbModelDocViewStyle
 70
     0
  3
Imperial24
290
     0
100
AcDbDetailViewStyle
 70
     0
 71
     0
 90
        3
 71
     1
340
BE3F
 40
0.24
340
0
 40
0.24
300

 40
0.36
280
     3
 71
     2
340
BE43
 90
       25
 71
     3
340
BE3F
 40
0.24
 90
        1
 40
0.75
 90
        1
300
%<\AcVar ViewType \f "%tc1">% %<\AcVar ViewDetailId>%\PSCALE %<\AcVar ViewScale \f "%sn">%
 71
     4
340
BE43
 90
       25
340
BE43
 90
       25
280
     0
  0
LAYOUT
  5
C2CA
102
{ACAD_XDICTIONARY
360
C326
102
}
102
{ACAD_REACTORS
330
BE47
102
}
330
BE47
100
AcDbPlotSettings
  1

  2
Canon LBP9100C
  4

  6

 40
0.0
 41
0.0
 42
0.0
 43
0.0
 44
0.0
 45
0.0
 46
0.0
 47
0.0
 48
0.0
 49
0.0
140
0.0
141
0.0
142
1.0
143
1.0
 70
  1712
 72
     0
 73
     0
 74
     0
  7

 75
     0
147
1.0
148
0.0
149
0.0
100
AcDbLayout
  1
Model
 70
     1
 71
     0
 10
0.0
 20
0.0
 11
12.0
 21
9.0
 12
0.0
 22
0.0
 32
0.0
 14
0.0
 24
0.0
 34
0.0
 15
0.0
 25
0.0
 35
0.0
146
0.0
 13
0.0
 23
0.0
 33
0.0
 16
1.0
 26
0.0
 36
0.0
 17
0.0
 27
1.0
 37
0.0
 76
     0
330
BE4C
331
C273
  0
LAYOUT
  5
C2CB
102
{ACAD_XDICTIONARY
360
C328
102
}
102
{ACAD_REACTORS
330
BE47
102
}
330
BE47
100
AcDbPlotSettings
  1

  2
Canon LBP9100C
  4

  6

 40
0.0
 41
0.0
 42
0.0
 43
0.0
 44
0.0
 45
0.0
 46
0.0
 47
0.0
 48
0.0
 49
0.0
140
0.0
141
0.0
142
1.0
143
1.0
 70
   688
 72
     0
 73
     0
 74
     5
  7

 75
    16
147
1.0
148
0.0
149
0.0
100
AcDbLayout
  1
レイアウト1
 70
     0
 71
     1
 10
0.0
 20
0.0
 11
420.0
 21
297.0
 12
0.0
 22
0.0
 32
0.0
 14
1.000000000000000E+20
 24
1.000000000000000E+20
 34
1.000000000000000E+20
 15
-1.000000000000000E+20
 25
-1.000000000000000E+20
 35
-1.000000000000000E+20
146
0.0
 13
0.0
 23
0.0
 33
0.0
 16
1.0
 26
0.0
 36
0.0
 17
0.0
 27
1.0
 37
0.0
 76
     0
330
BE48
  0
MATERIAL
  5
C286
102
{ACAD_XDICTIONARY
360
C287
102
}
102
{ACAD_REACTORS
330
C27D
102
}
330
C27D
100
AcDbMaterial
  1
ByBlock
 72
     0
 43
0.0208333333333333
 43
0.0
 43
0.0
 43
0.0
 43
0.0
 43
0.0208333333333333
 43
0.0
 43
0.0
 43
0.0
 43
0.0
 43
1.0
 43
0.0
 43
0.0
 43
0.0
 43
0.0
 43
1.0
 77
     0
 47
0.0208333333333333
 47
0.0
 47
0.0
 47
0.0
 47
0.0
 47
0.0208333333333333
 47
0.0
 47
0.0
 47
0.0
 47
0.0
 47
1.0
 47
0.0
 47
0.0
 47
0.0
 47
0.0
 47
1.0
171
     0
 49
0.0208333333333333
 49
0.0
 49
0.0
 49
0.0
 49
0.0
 49
0.0208333333333333
 49
0.0
 49
0.0
 49
0.0
 49
0.0
 49
1.0
 49
0.0
 49
0.0
 49
0.0
 49
0.0
 49
1.0
175
     0
142
0.0208333333333333
142
0.0
142
0.0
142
0.0
142
0.0
142
0.0208333333333333
142
0.0
142
0.0
142
0.0
142
0.0
142
1.0
142
0.0
142
0.0
142
0.0
142
0.0
142
1.0
179
     0
144
0.0208333333333333
144
0.0
144
0.0
144
0.0
144
0.0
144
0.0208333333333333
144
0.0
144
0.0
144
0.0
144
0.0
144
1.0
144
0.0
144
0.0
144
0.0
144
0.0
144
1.0
147
0.0208333333333333
147
0.0
147
0.0
147
0.0
147
0.0
147
0.0208333333333333
147
0.0
147
0.0
147
0.0
147
0.0
147
1.0
147
0.0
147
0.0
147
0.0
147
0.0
147
1.0
  0
MATERIAL
  5
C27E
102
{ACAD_XDICTIONARY
360
C27F
102
}
102
{ACAD_REACTORS
330
C27D
102
}
330
C27D
100
AcDbMaterial
  1
ByLayer
 72
     0
 43
0.0208333333333333
 43
0.0
 43
0.0
 43
0.0
 43
0.0
 43
0.0208333333333333
 43
0.0
 43
0.0
 43
0.0
 43
0.0
 43
1.0
 43
0.0
 43
0.0
 43
0.0
 43
0.0
 43
1.0
 77
     0
 47
0.0208333333333333
 47
0.0
 47
0.0
 47
0.0
 47
0.0
 47
0.0208333333333333
 47
0.0
 47
0.0
 47
0.0
 47
0.0
 47
1.0
 47
0.0
 47
0.0
 47
0.0
 47
0.0
 47
1.0
171
     0
 49
0.0208333333333333
 49
0.0
 49
0.0
 49
0.0
 49
0.0
 49
0.0208333333333333
 49
0.0
 49
0.0
 49
0.0
 49
0.0
 49
1.0
 49
0.0
 49
0.0
 49
0.0
 49
0.0
 49
1.0
175
     0
142
0.0208333333333333
142
0.0
142
0.0
142
0.0
142
0.0
142
0.0208333333333333
142
0.0
142
0.0
142
0.0
142
0.0
142
1.0
142
0.0
142
0.0
142
0.0
142
0.0
142
1.0
179
     0
144
0.0208333333333333
144
0.0
144
0.0
144
0.0
144
0.0
144
0.0208333333333333
144
0.0
144
0.0
144
0.0
144
0.0
144
1.0
144
0.0
144
0.0
144
0.0
144
0.0
144
1.0
147
0.0208333333333333
147
0.0
147
0.0
147
0.0
147
0.0
147
0.0208333333333333
147
0.0
147
0.0
147
0.0
147
0.0
147
1.0
147
0.0
147
0.0
147
0.0
147
0.0
147
1.0
  0
MATERIAL
  5
C28E
102
{ACAD_XDICTIONARY
360
C28F
102
}
102
{ACAD_REACTORS
330
C27D
102
}
330
C27D
100
AcDbMaterial
  1
Global
 72
     0
 43
0.0208333333333333
 43
0.0
 43
0.0
 43
0.0
 43
0.0
 43
0.0208333333333333
 43
0.0
 43
0.0
 43
0.0
 43
0.0
 43
1.0
 43
0.0
 43
0.0
 43
0.0
 43
0.0
 43
1.0
 77
     0
 47
0.0208333333333333
 47
0.0
 47
0.0
 47
0.0
 47
0.0
 47
0.0208333333333333
 47
0.0
 47
0.0
 47
0.0
 47
0.0
 47
1.0
 47
0.0
 47
0.0
 47
0.0
 47
0.0
 47
1.0
171
     0
 49
0.0208333333333333
 49
0.0
 49
0.0
 49
0.0
 49
0.0
 49
0.0208333333333333
 49
0.0
 49
0.0
 49
0.0
 49
0.0
 49
1.0
 49
0.0
 49
0.0
 49
0.0
 49
0.0
 49
1.0
175
     0
142
0.0208333333333333
142
0.0
142
0.0
142
0.0
142
0.0
142
0.0208333333333333
142
0.0
142
0.0
142
0.0
142
0.0
142
1.0
142
0.0
142
0.0
142
0.0
142
0.0
142
1.0
179
     0
144
0.0208333333333333
144
0.0
144
0.0
144
0.0
144
0.0
144
0.0208333333333333
144
0.0
144
0.0
144
0.0
144
0.0
144
1.0
144
0.0
144
0.0
144
0.0
144
0.0
144
1.0
147
0.0208333333333333
147
0.0
147
0.0
147
0.0
147
0.0
147
0.0208333333333333
147
0.0
147
0.0
147
0.0
147
0.0
147
1.0
147
0.0
147
0.0
147
0.0
147
0.0
147
1.0
  0
MLEADERSTYLE
  5
C2C5
102
{ACAD_REACTORS
330
C2C4
102
}
330
C2C4
100
AcDbMLeaderStyle
170
     2
171
     1
172
     0
 90
        2
 40
0.0
 41
0.0
173
     1
 91
-1056964608
340
BE41
 92
       -2
290
     1
 42
0.09
291
     1
 43
0.36
  3
Standard
 44
0.18
300

342
BE3F
174
     1
178
     6
175
     1
176
     0
 93
-1056964608
 45
0.18
292
     0
297
     0
 46
0.18
 94
-1056964608
 47
1.0
 49
1.0
140
1.0
293
     1
141
0.0
294
     1
177
     0
142
1.0
295
     0
296
     0
143
0.125
1001
ACAD_MLEADERVER
1070
     2
  0
MLINESTYLE
  5
BE45
102
{ACAD_REACTORS
330
BE44
102
}
330
BE44
100
AcDbMlineStyle
  2
STANDARD
 70
     0
  3

 62
   256
 51
90.0
 52
90.0
 71
     2
 49
0.5
 62
   256
  6
BYLAYER
 49
-0.5
 62
   256
  6
BYLAYER
  0
ACDBPLACEHOLDER
  5
C27C
102
{ACAD_REACTORS
330
C27B
102
}
330
C27B
  0
SCALE
  5
C2B3
102
{ACAD_REACTORS
330
C2B2
102
}
330
C2B2
100
AcDbScale
 70
     0
300
1:1
140
1.0
141
1.0
290
     1
  0
SCALE
  5
C2B4
102
{ACAD_REACTORS
330
C2B2
102
}
330
C2B2
100
AcDbScale
 70
     0
300
1/128" = 1'-0"
140
0.0078125
141
12.0
290
     0
  0
SCALE
  5
C2B5
102
{ACAD_REACTORS
330
C2B2
102
}
330
C2B2
100
AcDbScale
 70
     0
300
1/64" = 1'-0"
140
0.015625
141
12.0
290
     0
  0
SCALE
  5
C2B6
102
{ACAD_REACTORS
330
C2B2
102
}
330
C2B2
100
AcDbScale
 70
     0
300
1/32" = 1'-0"
140
0.03125
141
12.0
290
     0
  0
SCALE
  5
C2B7
102
{ACAD_REACTORS
330
C2B2
102
}
330
C2B2
100
AcDbScale
 70
     0
300
1/16" = 1'-0"
140
0.0625
141
12.0
290
     0
  0
SCALE
  5
C2B8
102
{ACAD_REACTORS
330
C2B2
102
}
330
C2B2
100
AcDbScale
 70
     0
300
3/32" = 1'-0"
140
0.09375
141
12.0
290
     0
  0
SCALE
  5
C2B9
102
{ACAD_REACTORS
330
C2B2
102
}
330
C2B2
100
AcDbScale
 70
     0
300
1/8" = 1'-0"
140
0.125
141
12.0
290
     0
  0
SCALE
  5
C2BA
102
{ACAD_REACTORS
330
C2B2
102
}
330
C2B2
100
AcDbScale
 70
     0
300
3/16" = 1'-0"
140
0.1875
141
12.0
290
     0
  0
SCALE
  5
C2BB
102
{ACAD_REACTORS
330
C2B2
102
}
330
C2B2
100
AcDbScale
 70
     0
300
1/4" = 1'-0"
140
0.25
141
12.0
290
     0
  0
SCALE
  5
C2BC
102
{ACAD_REACTORS
330
C2B2
102
}
330
C2B2
100
AcDbScale
 70
     0
300
3/8" = 1'-0"
140
0.375
141
12.0
290
     0
  0
SCALE
  5
C2BD
102
{ACAD_REACTORS
330
C2B2
102
}
330
C2B2
100
AcDbScale
 70
     0
300
1/2" = 1'-0"
140
0.5
141
12.0
290
     0
  0
SCALE
  5
C2BE
102
{ACAD_REACTORS
330
C2B2
102
}
330
C2B2
100
AcDbScale
 70
     0
300
3/4" = 1'-0"
140
0.75
141
12.0
290
     0
  0
SCALE
  5
C2BF
102
{ACAD_REACTORS
330
C2B2
102
}
330
C2B2
100
AcDbScale
 70
     0
300
1" = 1'-0"
140
1.0
141
12.0
290
     0
  0
SCALE
  5
C2C0
102
{ACAD_REACTORS
330
C2B2
102
}
330
C2B2
100
AcDbScale
 70
     0
300
1-1/2" = 1'-0"
140
1.5
141
12.0
290
     0
  0
SCALE
  5
C2C1
102
{ACAD_REACTORS
330
C2B2
102
}
330
C2B2
100
AcDbScale
 70
     0
300
3" = 1'-0"
140
3.0
141
12.0
290
     0
  0
SCALE
  5
C2C2
102
{ACAD_REACTORS
330
C2B2
102
}
330
C2B2
100
AcDbScale
 70
     0
300
6" = 1'-0"
140
6.0
141
12.0
290
     0
  0
SCALE
  5
C2C3
102
{ACAD_REACTORS
330
C2B2
102
}
330
C2B2
100
AcDbScale
 70
     0
300
1'-0" = 1'-0"
140
12.0
141
12.0
290
     0
  0
ACDBSECTIONVIEWSTYLE
  5
C2C7
102
{ACAD_XDICTIONARY
360
C322
102
}
102
{ACAD_REACTORS
330
C2C6
102
}
330
C2C6
100
AcDbModelDocViewStyle
 70
     0
  3
Imperial24
290
     0
100
AcDbSectionViewStyle
 70
     0
 71
     0
 90
       78
 71
     1
340
BE3F
 40
0.24
340
0
340
0
 40
0.24
300
I, O, Q, S, X, Z
 40
0.48
 90
        3
 40
0.18
 90
        1
 71
     2
340
BE43
 90
       25
340
BE43
 90
       50
 40
0.24
 40
0.0
 40
0.24
 71
     3
340
BE3F
 40
0.24
 90
        1
 40
0.75
 90
        1
300
%<\AcVar ViewType \f "%tc1">% %<\AcVar ViewSectionStartId>%-%<\AcVar ViewSectionEndId>%\PSCALE %<\AcVar ViewScale \f "%sn">%
 71
     4
300
ANSI31
 40
1.0
 90
        0
290
     0
290
     0
 90
        6
 40
0.0
 40
1.570796326794896
 40
0.2617993877991494
 40
1.308996938995747
 40
-0.2617993877991494
 40
1.832595714594046
  0
TABLESTYLE
  5
C2B1
102
{ACAD_XDICTIONARY
360
C2E9
102
}
102
{ACAD_REACTORS
330
C2B0
102
}
330
C2B0
100
AcDbTableStyle
  3
Standard
 70
     0
 71
     0
 40
0.06
 41
0.06
280
     0
281
     0
  7
STANDARD
140
0.18
170
     2
 62
     0
 63
     7
283
     0
274
    -2
284
     1
 64
     0
275
    -2
285
     1
 65
     0
276
    -2
286
     1
 66
     0
277
    -2
287
     1
 67
     0
278
    -2
288
     1
 68
     0
279
    -2
289
     1
 69
     0
  7
STANDARD
140
0.25
170
     5
 62
     0
 63
     7
283
     0
274
    -2
284
     1
 64
     0
275
    -2
285
     1
 65
     0
276
    -2
286
     1
 66
     0
277
    -2
287
     1
 67
     0
278
    -2
288
     1
 68
     0
279
    -2
289
     1
 69
     0
  7
STANDARD
140
0.18
170
     5
 62
     0
 63
     7
283
     0
274
    -2
284
     1
 64
     0
275
    -2
285
     1
 65
     0
276
    -2
286
     1
 66
     0
277
    -2
287
     1
 67
     0
278
    -2
288
     1
 68
     0
279
    -2
289
     1
 69
     0
  0
VISUALSTYLE
  5
C29C
102
{ACAD_XDICTIONARY
360
C2FA
102
}
102
{ACAD_REACTORS
330
C296
102
}
330
C296
100
AcDbVisualStyle
  2
2dWireframe
 70
     4
 71
     0
 72
     2
 73
     0
 90
        0
 40
-0.6
 41
-30.0
 62
     5
 63
     7
 74
     1
 91
        4
 64
     7
 65
   257
 75
     1
175
     1
 42
1.0
 92
        0
 66
   257
 43
1.0
 76
     1
 77
     6
 78
     2
 67
     7
 79
     5
170
     0
171
     0
290
     0
174
     0
 93
        1
 44
0.0
173
     0
291
     0
 45
0.0
1001
ACAD
1000
AcDbSavedByObjectVersion
1070
     0
  0
VISUALSTYLE
  5
C29B
102
{ACAD_XDICTIONARY
360
C2F8
102
}
102
{ACAD_REACTORS
330
C296
102
}
330
C296
100
AcDbVisualStyle
  2
Basic
 70
     7
 71
     1
 72
     0
 73
     1
 90
        0
 40
-0.6
 41
-30.0
 62
     5
 63
     7
 74
     0
 91
        4
 64
     7
 65
   257
 75
     1
175
     1
 42
1.0
 92
        8
 66
     7
 43
1.0
 76
     1
 77
     6
 78
     2
 67
     7
 79
     5
170
     0
171
     0
290
     0
174
     0
 93
        1
 44
0.0
173
     0
291
     1
 45
0.0
1001
ACAD
1000
AcDbSavedByObjectVersion
1070
     0
  0
VISUALSTYLE
  5
C2A2
102
{ACAD_XDICTIONARY
360
C306
102
}
102
{ACAD_REACTORS
330
C296
102
}
330
C296
100
AcDbVisualStyle
  2
Brighten
 70
    12
 71
     2
 72
     2
 73
     0
 90
        0
 40
-0.6
 41
-30.0
 62
     5
 63
     7
 74
     1
 91
        4
 64
     7
 65
   257
 75
     1
175
     1
 42
1.0
 92
        8
 66
     7
 43
1.0
 76
     1
 77
     6
 78
     2
 67
     7
 79
     5
170
     0
171
     0
290
     0
174
     0
 93
        1
 44
50.0
173
     0
291
     1
 45
0.0
1001
ACAD
1000
AcDbSavedByObjectVersion
1070
     0
  0
VISUALSTYLE
  5
C2A6
102
{ACAD_XDICTIONARY
360
C30E
102
}
102
{ACAD_REACTORS
330
C296
102
}
330
C296
100
AcDbVisualStyle
  2
ColorChange
 70
    16
 71
     2
 72
     2
 73
     3
 90
        0
 40
-0.6
 41
-30.0
 62
     5
 63
     8
 74
     1
 91
        4
 64
     7
 65
   257
 75
     1
175
     1
 42
1.0
 92
        8
 66
     8
 43
1.0
 76
     1
 77
     6
 78
     2
 67
     7
 79
     5
170
     0
171
     0
290
     0
174
     0
 93
        1
 44
0.0
173
     0
291
     1
 45
0.0
1001
ACAD
1000
AcDbSavedByObjectVersion
1070
     0
  0
VISUALSTYLE
  5
C29F
102
{ACAD_XDICTIONARY
360
C300
102
}
102
{ACAD_REACTORS
330
C296
102
}
330
C296
100
AcDbVisualStyle
  2
Conceptual
 70
     9
 71
     3
 72
     2
 73
     0
 90
        0
 40
-0.6
 41
-30.0
 62
     5
 63
     7
 74
     2
 91
        2
 64
     7
 65
   257
 75
     1
175
     1
 42
179.0
 92
        8
 66
     7
 43
1.0
 76
     1
 77
     6
 78
     2
 67
     7
 79
     3
170
     0
171
     0
290
     0
174
     0
 93
        1
 44
0.0
173
     0
291
     0
 45
0.0
1001
ACAD
1000
AcDbSavedByObjectVersion
1070
     0
  0
VISUALSTYLE
  5
C2A1
102
{ACAD_XDICTIONARY
360
C304
102
}
102
{ACAD_REACTORS
330
C296
102
}
330
C296
100
AcDbVisualStyle
  2
Dim
 70
    11
 71
     2
 72
     2
 73
     0
 90
        0
 40
-0.6
 41
-30.0
 62
     5
 63
     7
 74
     1
 91
        4
 64
     7
 65
   257
 75
     1
175
     1
 42
1.0
 92
        8
 66
     7
 43
1.0
 76
     1
 77
     6
 78
     2
 67
     7
 79
     5
170
     0
171
     0
290
     0
174
     0
 93
        1
 44
-50.0
173
     0
291
     1
 45
0.0
1001
ACAD
1000
AcDbSavedByObjectVersion
1070
     0
  0
VISUALSTYLE
  5
C2AE
102
{ACAD_XDICTIONARY
360
C31E
102
}
102
{ACAD_REACTORS
330
C296
102
}
330
C296
100
AcDbVisualStyle
  2
EdgeColorOff
 70
    22
 71
     2
 72
     2
 73
     0
 90
        0
 40
-0.6
 41
-30.0
 62
     5
 63
     7
 74
     1
 91
        4
 64
     7
 65
   257
 75
     1
175
     1
 42
1.0
 92
        8
 66
     7
 43
1.0
 76
     1
 77
     6
 78
     2
 67
     7
 79
     5
170
     0
171
     0
290
     0
174
     0
 93
        1
 44
0.0
173
     0
291
     1
 45
0.0
1001
ACAD
1000
AcDbSavedByObjectVersion
1070
     0
  0
VISUALSTYLE
  5
C2A5
102
{ACAD_XDICTIONARY
360
C30C
102
}
102
{ACAD_REACTORS
330
C296
102
}
330
C296
100
AcDbVisualStyle
  2
Facepattern
 70
    15
 71
     2
 72
     2
 73
     0
 90
        0
 40
-0.6
 41
-30.0
 62
     5
 63
     7
 74
     1
 91
        4
 64
     7
 65
   257
 75
     1
175
     1
 42
1.0
 92
        8
 66
     7
 43
1.0
 76
     1
 77
     6
 78
     2
 67
     7
 79
     5
170
     0
171
     0
290
     0
174
     0
 93
        1
 44
0.0
173
     0
291
     1
 45
0.0
1001
ACAD
1000
AcDbSavedByObjectVersion
1070
     0
  0
VISUALSTYLE
  5
C297
102
{ACAD_XDICTIONARY
360
C2F0
102
}
102
{ACAD_REACTORS
330
C296
102
}
330
C296
100
AcDbVisualStyle
  2
Flat
 70
     0
 71
     2
 72
     1
 73
     1
 90
        2
 40
-0.6
 41
30.0
 62
     5
 63
     7
 74
     0
 91
        0
 64
     7
 65
   257
 75
     1
175
     1
 42
1.0
 92
        8
 66
     7
 43
1.0
 76
     1
 77
     6
 78
     2
 67
     7
 79
     5
170
     0
171
     0
290
     0
174
     0
 93
       13
 44
0.0
173
     0
291
     1
 45
0.0
1001
ACAD
1000
AcDbSavedByObjectVersion
1070
     0
  0
VISUALSTYLE
  5
C298
102
{ACAD_XDICTIONARY
360
C2F2
102
}
102
{ACAD_REACTORS
330
C296
102
}
330
C296
100
AcDbVisualStyle
  2
FlatWithEdges
 70
     1
 71
     2
 72
     1
 73
     1
 90
        2
 40
-0.6
 41
30.0
 62
     5
 63
     7
 74
     1
 91
        0
 64
     7
 65
   257
 75
     1
175
     1
 42
1.0
 92
        0
 66
   257
 43
1.0
 76
     1
 77
     6
 78
     2
 67
     7
 79
     5
170
     0
171
     0
290
     0
174
     0
 93
       13
 44
0.0
173
     0
291
     1
 45
0.0
1001
ACAD
1000
AcDbSavedByObjectVersion
1070
     0
  0
VISUALSTYLE
  5
C299
102
{ACAD_XDICTIONARY
360
C2F4
102
}
102
{ACAD_REACTORS
330
C296
102
}
330
C296
100
AcDbVisualStyle
  2
Gouraud
 70
     2
 71
     2
 72
     2
 73
     1
 90
        2
 40
-0.6
 41
30.0
 62
     5
 63
     7
 74
     0
 91
        0
 64
     7
 65
   257
 75
     1
175
     1
 42
1.0
 92
        0
 66
     7
 43
1.0
 76
     1
 77
     6
 78
     2
 67
     7
 79
     5
170
     0
171
     0
290
     0
174
     0
 93
       13
 44
0.0
173
     0
291
     1
 45
0.0
1001
ACAD
1000
AcDbSavedByObjectVersion
1070
     0
  0
VISUALSTYLE
  5
C29A
102
{ACAD_XDICTIONARY
360
C2F6
102
}
102
{ACAD_REACTORS
330
C296
102
}
330
C296
100
AcDbVisualStyle
  2
GouraudWithEdges
 70
     3
 71
     2
 72
     2
 73
     1
 90
        2
 40
-0.6
 41
30.0
 62
     5
 63
     7
 74
     1
 91
        0
 64
     7
 65
   257
 75
     1
175
     1
 42
1.0
 92
        0
 66
   257
 43
1.0
 76
     1
 77
     6
 78
     2
 67
     7
 79
     5
170
     0
171
     0
290
     0
174
     0
 93
       13
 44
0.0
173
     0
291
     1
 45
0.0
1001
ACAD
1000
AcDbSavedByObjectVersion
1070
     0
  0
VISUALSTYLE
  5
C29E
102
{ACAD_XDICTIONARY
360
C2FE
102
}
102
{ACAD_REACTORS
330
C296
102
}
330
C296
100
AcDbVisualStyle
  2
Hidden
 70
     6
 71
     1
 72
     2
 73
     2
 90
        0
 40
-0.6
 41
-30.0
 62
     5
 63
     7
 74
     2
 91
        2
 64
     7
 65
   257
 75
     2
175
     1
 42
40.0
 92
        0
 66
   257
 43
1.0
 76
     1
 77
     6
 78
     2
 67
     7
 79
     3
170
     0
171
     0
290
     0
174
     0
 93
        1
 44
0.0
173
     0
291
     0
 45
0.0
1001
ACAD
1000
AcDbSavedByObjectVersion
1070
     0
  0
VISUALSTYLE
  5
C2AC
102
{ACAD_XDICTIONARY
360
C31A
102
}
102
{ACAD_REACTORS
330
C296
102
}
330
C296
100
AcDbVisualStyle
  2
JitterOff
 70
    20
 71
     2
 72
     2
 73
     0
 90
        0
 40
-0.6
 41
-30.0
 62
     5
 63
     7
 74
     1
 91
        4
 64
     7
 65
   257
 75
     1
175
     1
 42
1.0
 92
       10
 66
     7
 43
1.0
 76
     1
 77
     6
 78
     2
 67
     7
 79
     5
170
     0
171
     0
290
     0
174
     0
 93
        1
 44
0.0
173
     0
291
     1
 45
0.0
1001
ACAD
1000
AcDbSavedByObjectVersion
1070
     0
  0
VISUALSTYLE
  5
C2A4
102
{ACAD_XDICTIONARY
360
C30A
102
}
102
{ACAD_REACTORS
330
C296
102
}
330
C296
100
AcDbVisualStyle
  2
Linepattern
 70
    14
 71
     2
 72
     2
 73
     0
 90
        0
 40
-0.6
 41
-30.0
 62
     5
 63
     7
 74
     1
 91
        4
 64
     7
 65
   257
 75
     7
175
     7
 42
1.0
 92
        8
 66
     7
 43
1.0
 76
     1
 77
     6
 78
     2
 67
     7
 79
     5
170
     0
171
     0
290
     0
174
     0
 93
        1
 44
0.0
173
     0
291
     1
 45
0.0
1001
ACAD
1000
AcDbSavedByObjectVersion
1070
     0
  0
VISUALSTYLE
  5
C2AD
102
{ACAD_XDICTIONARY
360
C31C
102
}
102
{ACAD_REACTORS
330
C296
102
}
330
C296
100
AcDbVisualStyle
  2
OverhangOff
 70
    21
 71
     2
 72
     2
 73
     0
 90
        0
 40
-0.6
 41
-30.0
 62
     5
 63
     7
 74
     1
 91
        4
 64
     7
 65
   257
 75
     1
175
     1
 42
1.0
 92
        9
 66
     7
 43
1.0
 76
     1
 77
     6
 78
     2
 67
     7
 79
     5
170
     0
171
     0
290
     0
174
     0
 93
        1
 44
0.0
173
     0
291
     1
 45
0.0
1001
ACAD
1000
AcDbSavedByObjectVersion
1070
     0
  0
VISUALSTYLE
  5
C2A0
102
{ACAD_XDICTIONARY
360
C302
102
}
102
{ACAD_REACTORS
330
C296
102
}
330
C296
100
AcDbVisualStyle
  2
Realistic
 70
     8
 71
     2
 72
     3
 73
     0
 90
        2
 40
-0.6
 41
30.0
 62
     5
 63
     7
 74
     0
 91
        0
 64
     7
 65
   257
 75
     1
175
     1
 42
1.0
 92
        8
 66
   257
 43
1.0
 76
     1
 77
     6
 78
     2
 67
     7
 79
     3
170
     0
171
     0
290
     0
174
     0
 93
       13
 44
0.0
173
     0
291
     0
 45
0.0
1001
ACAD
1000
AcDbSavedByObjectVersion
1070
     0
  0
VISUALSTYLE
  5
C2AB
102
{ACAD_XDICTIONARY
360
C318
102
}
102
{ACAD_REACTORS
330
C296
102
}
330
C296
100
AcDbVisualStyle
  2
Shaded
 70
    27
 71
     2
 72
     2
 73
     1
 90
        2
 40
-0.6
 41
30.0
 62
     5
 63
     7
 74
     0
 91
        4
 64
     7
 65
   257
 75
     1
175
     1
 42
1.0
 92
        8
 66
   257
 43
1.0
 76
     1
 77
     6
 78
     2
 67
     8
 79
     3
170
     0
171
     0
290
     0
174
     0
 93
        5
 44
0.0
173
     0
291
     0
 45
0.0
1001
ACAD
1000
AcDbSavedByObjectVersion
1070
     0
  0
VISUALSTYLE
  5
C2AA
102
{ACAD_XDICTIONARY
360
C316
102
}
102
{ACAD_REACTORS
330
C296
102
}
330
C296
100
AcDbVisualStyle
  2
Shaded with edges
 70
    26
 71
     2
 72
     2
 73
     1
 90
        2
 40
-0.6
 41
30.0
 62
     5
 63
     7
 74
     1
 91
       10
 64
     7
 65
   257
 75
     2
175
     1
 42
1.0
 92
        8
 66
   257
 43
1.0
 76
     1
 77
     6
 78
     2
 67
     7
 79
     3
170
     0
171
     0
290
     0
174
     0
 93
        5
 44
0.0
173
     0
291
     0
 45
0.0
1001
ACAD
1000
AcDbSavedByObjectVersion
1070
     0
  0
VISUALSTYLE
  5
C2A7
102
{ACAD_XDICTIONARY
360
C310
102
}
102
{ACAD_REACTORS
330
C296
102
}
330
C296
100
AcDbVisualStyle
  2
Shades of Gray
 70
    23
 71
     2
 72
     2
 73
     3
 90
        0
 40
-0.6
 41
-30.0
 62
     5
 63
     7
 74
     2
 91
        2
 64
     7
 65
     7
 75
     1
175
     1
 42
40.0
 92
        8
 66
     7
 43
1.0
 76
     1
 77
     6
 78
     2
 67
     7
 79
     3
170
     0
171
     0
290
     0
174
     0
 93
        1
 44
0.0
173
     0
291
     0
 45
0.0
1001
ACAD
1000
AcDbSavedByObjectVersion
1070
     0
  0
VISUALSTYLE
  5
C2A8
102
{ACAD_XDICTIONARY
360
C312
102
}
102
{ACAD_REACTORS
330
C296
102
}
330
C296
100
AcDbVisualStyle
  2
Sketchy
 70
    24
 71
     1
 72
     2
 73
     2
 90
        0
 40
-0.6
 41
-30.0
 62
     5
 63
     7
 74
     2
 91
        2
 64
     7
 65
     7
 75
     1
175
     1
 42
40.0
 92
       11
 66
     7
 43
1.0
 76
     1
 77
     6
 78
     2
 67
     7
 79
     6
170
     0
171
     0
290
     0
174
     0
 93
        1
 44
0.0
173
     0
291
     0
 45
0.0
1001
ACAD
1000
AcDbSavedByObjectVersion
1070
     0
  0
VISUALSTYLE
  5
C2A3
102
{ACAD_XDICTIONARY
360
C308
102
}
102
{ACAD_REACTORS
330
C296
102
}
330
C296
100
AcDbVisualStyle
  2
Thicken
 70
    13
 71
     2
 72
     2
 73
     0
 90
        0
 40
-0.6
 41
-30.0
 62
     5
 63
     7
 74
     1
 91
        4
 64
     7
 65
   257
 75
     1
175
     1
 42
1.0
 92
       12
 66
     7
 43
1.0
 76
     1
 77
     6
 78
     2
 67
     7
 79
     5
170
     0
171
     0
290
     0
174
     0
 93
        1
 44
0.0
173
     0
291
     1
 45
0.0
1001
ACAD
1000
AcDbSavedByObjectVersion
1070
     0
  0
VISUALSTYLE
  5
C29D
102
{ACAD_XDICTIONARY
360
C2FC
102
}
102
{ACAD_REACTORS
330
C296
102
}
330
C296
100
AcDbVisualStyle
  2
Wireframe
 70
     5
 71
     0
 72
     2
 73
     0
 90
        0
 40
-0.6
 41
-30.0
 62
     5
 63
     7
 74
     1
 91
        4
 64
     7
 65
   257
 75
     1
175
     1
 42
1.0
 92
        0
 66
   257
 43
1.0
 76
     1
 77
     6
 78
     2
 67
     7
 79
     3
170
     0
171
     0
290
     0
174
     0
 93
        1
 44
0.0
173
     0
291
     0
 45
0.0
1001
ACAD
1000
AcDbSavedByObjectVersion
1070
     0
  0
VISUALSTYLE
  5
C2A9
102
{ACAD_XDICTIONARY
360
C314
102
}
102
{ACAD_REACTORS
330
C296
102
}
330
C296
100
AcDbVisualStyle
  2
X-Ray
 70
    25
 71
     2
 72
     2
 73
     1
 90
        1
 40
0.5
 41
-30.0
 62
     5
 63
     7
 74
     1
 91
        0
 64
     7
 65
   257
 75
     1
175
     1
 42
1.0
 92
        8
 66
     7
 43
1.0
 76
     1
 77
     6
 78
     2
 67
     7
 79
     3
170
     0
171
     0
290
     0
174
     0
 93
       13
 44
0.0
173
     0
291
     0
 45
0.0
1001
ACAD
1000
AcDbSavedByObjectVersion
1070
     0
  0
DICTIONARYVAR
  5
C2E3
102
{ACAD_REACTORS
330
C2DE
102
}
330
C2DE
100
DictionaryVariables
280
     0
  1
1:1
  0
DICTIONARYVAR
  5
C2E0
102
{ACAD_REACTORS
330
C2DE
102
}
330
C2DE
100
DictionaryVariables
280
     0
  1
STANDARD
  0
DICTIONARYVAR
  5
C2DF
102
{ACAD_REACTORS
330
C2DE
102
}
330
C2DE
100
DictionaryVariables
280
     0
  1
STANDARD
  0
DICTIONARYVAR
  5
C2E1
102
{ACAD_REACTORS
330
C2DE
102
}
330
C2DE
100
DictionaryVariables
280
     0
  1
Imperial24
  0
DICTIONARYVAR
  5
C2E2
102
{ACAD_REACTORS
330
C2DE
102
}
330
C2DE
100
DictionaryVariables
280
     0
  1
Imperial24
  0
DICTIONARYVAR
  5
C2E6
102
{ACAD_REACTORS
330
C2DE
102
}
330
C2DE
100
DictionaryVariables
280
     0
  1
1
  0
DICTIONARYVAR
  5
C2E5
102
{ACAD_REACTORS
330
C2DE
102
}
330
C2DE
100
DictionaryVariables
280
     0
  1
0
  0
DICTIONARYVAR
  5
C2E4
102
{ACAD_REACTORS
330
C2DE
102
}
330
C2DE
100
DictionaryVariables
280
     0
  1
127
  0
DICTIONARYVAR
  5
C2E7
102
{ACAD_REACTORS
330
C2DE
102
}
330
C2DE
100
DictionaryVariables
280
     0
  1
2
  0
DICTIONARY
  5
C324
330
C2C9
100
AcDbDictionary
280
     1
281
     1
  3
ACAD_XREC_ROUNDTRIP
360
C325
  0
DICTIONARY
  5
C326
330
C2CA
100
AcDbDictionary
280
     1
281
     1
  3
ACAD_XREC_ROUNDTRIP
360
C327
  0
DICTIONARY
  5
C328
330
C2CB
100
AcDbDictionary
280
     1
281
     1
  3
ACAD_XREC_ROUNDTRIP
360
C329
  0
DICTIONARY
  5
C287
330
C286
100
AcDbDictionary
280
     1
281
     1
  3
ACAD_XREC_ROUNDTRIP
360
C2EE
  3
BUMPTILE
360
C289
  3
DIFFUSETILE
360
C288
  3
OPACITYTILE
360
C28C
  3
REFLECTIONTILE
360
C28B
  3
REFRACTIONTILE
360
C28D
  3
SPECULARTILE
360
C28A
  0
DICTIONARY
  5
C27F
330
C27E
100
AcDbDictionary
280
     1
281
     1
  3
ACAD_XREC_ROUNDTRIP
360
C2ED
  3
BUMPTILE
360
C281
  3
DIFFUSETILE
360
C280
  3
OPACITYTILE
360
C284
  3
REFLECTIONTILE
360
C283
  3
REFRACTIONTILE
360
C285
  3
SPECULARTILE
360
C282
  0
DICTIONARY
  5
C28F
330
C28E
100
AcDbDictionary
280
     1
281
     1
  3
ACAD_XREC_ROUNDTRIP
360
C2EF
  3
BUMPTILE
360
C291
  3
DIFFUSETILE
360
C290
  3
OPACITYTILE
360
C294
  3
REFLECTIONTILE
360
C293
  3
REFRACTIONTILE
360
C295
  3
SPECULARTILE
360
C292
  0
DICTIONARY
  5
C322
330
C2C7
100
AcDbDictionary
280
     1
281
     1
  3
ACAD_XREC_ROUNDTRIP
360
C323
  0
DICTIONARY
  5
C2E9
330
C2B1
100
AcDbDictionary
280
     1
281
     1
  3
ACAD_ROUNDTRIP_2008_TABLESTYLE_CELLSTYLEMAP
360
C2EA
  3
ACAD_XREC_ROUNDTRIP
360
C320
  0
DICTIONARY
  5
C2FA
330
C29C
100
AcDbDictionary
280
     1
281
     1
  3
ACAD_XREC_ROUNDTRIP
360
C2FB
  0
DICTIONARY
  5
C2F8
330
C29B
100
AcDbDictionary
280
     1
281
     1
  3
ACAD_XREC_ROUNDTRIP
360
C2F9
  0
DICTIONARY
  5
C306
330
C2A2
100
AcDbDictionary
280
     1
281
     1
  3
ACAD_XREC_ROUNDTRIP
360
C307
  0
DICTIONARY
  5
C30E
330
C2A6
100
AcDbDictionary
280
     1
281
     1
  3
ACAD_XREC_ROUNDTRIP
360
C30F
  0
DICTIONARY
  5
C300
330
C29F
100
AcDbDictionary
280
     1
281
     1
  3
ACAD_XREC_ROUNDTRIP
360
C301
  0
DICTIONARY
  5
C304
330
C2A1
100
AcDbDictionary
280
     1
281
     1
  3
ACAD_XREC_ROUNDTRIP
360
C305
  0
DICTIONARY
  5
C31E
330
C2AE
100
AcDbDictionary
280
     1
281
     1
  3
ACAD_XREC_ROUNDTRIP
360
C31F
  0
DICTIONARY
  5
C30C
330
C2A5
100
AcDbDictionary
280
     1
281
     1
  3
ACAD_XREC_ROUNDTRIP
360
C30D
  0
DICTIONARY
  5
C2F0
330
C297
100
AcDbDictionary
280
     1
281
     1
  3
ACAD_XREC_ROUNDTRIP
360
C2F1
  0
DICTIONARY
  5
C2F2
330
C298
100
AcDbDictionary
280
     1
281
     1
  3
ACAD_XREC_ROUNDTRIP
360
C2F3
  0
DICTIONARY
  5
C2F4
330
C299
100
AcDbDictionary
280
     1
281
     1
  3
ACAD_XREC_ROUNDTRIP
360
C2F5
  0
DICTIONARY
  5
C2F6
330
C29A
100
AcDbDictionary
280
     1
281
     1
  3
ACAD_XREC_ROUNDTRIP
360
C2F7
  0
DICTIONARY
  5
C2FE
330
C29E
100
AcDbDictionary
280
     1
281
     1
  3
ACAD_XREC_ROUNDTRIP
360
C2FF
  0
DICTIONARY
  5
C31A
330
C2AC
100
AcDbDictionary
280
     1
281
     1
  3
ACAD_XREC_ROUNDTRIP
360
C31B
  0
DICTIONARY
  5
C30A
330
C2A4
100
AcDbDictionary
280
     1
281
     1
  3
ACAD_XREC_ROUNDTRIP
360
C30B
  0
DICTIONARY
  5
C31C
330
C2AD
100
AcDbDictionary
280
     1
281
     1
  3
ACAD_XREC_ROUNDTRIP
360
C31D
  0
DICTIONARY
  5
C302
330
C2A0
100
AcDbDictionary
280
     1
281
     1
  3
ACAD_XREC_ROUNDTRIP
360
C303
  0
DICTIONARY
  5
C318
330
C2AB
100
AcDbDictionary
280
     1
281
     1
  3
ACAD_XREC_ROUNDTRIP
360
C319
  0
DICTIONARY
  5
C316
330
C2AA
100
AcDbDictionary
280
     1
281
     1
  3
ACAD_XREC_ROUNDTRIP
360
C317
  0
DICTIONARY
  5
C310
330
C2A7
100
AcDbDictionary
280
     1
281
     1
  3
ACAD_XREC_ROUNDTRIP
360
C311
  0
DICTIONARY
  5
C312
330
C2A8
100
AcDbDictionary
280
     1
281
     1
  3
ACAD_XREC_ROUNDTRIP
360
C313
  0
DICTIONARY
  5
C308
330
C2A3
100
AcDbDictionary
280
     1
281
     1
  3
ACAD_XREC_ROUNDTRIP
360
C309
  0
DICTIONARY
  5
C2FC
330
C29D
100
AcDbDictionary
280
     1
281
     1
  3
ACAD_XREC_ROUNDTRIP
360
C2FD
  0
DICTIONARY
  5
C314
330
C2A9
100
AcDbDictionary
280
     1
281
     1
  3
ACAD_XREC_ROUNDTRIP
360
C315
  0
XRECORD
  5
C325
102
{ACAD_REACTORS
330
C324
102
}
330
C324
100
AcDbXrecord
280
     1
102
DISPLAYNAME
  1
Imperial24
102
FLAGS
 90
        0
  0
XRECORD
  5
C327
102
{ACAD_REACTORS
330
C326
102
}
330
C326
100
AcDbXrecord
280
     1
102
SHADEPLOT
 70
     0
102
SHADEPLOTRESLEVEL
 70
     2
102
SHADEPLOTCUSTOMDPI
 70
   300
  0
XRECORD
  5
C329
102
{ACAD_REACTORS
330
C328
102
}
330
C328
100
AcDbXrecord
280
     1
102
SHADEPLOT
 70
     0
102
SHADEPLOTRESLEVEL
 70
     2
102
SHADEPLOTCUSTOMDPI
 70
   300
  0
XRECORD
  5
C2EE
102
{ACAD_REACTORS
330
C287
102
}
330
C287
100
AcDbXrecord
280
     1
102
MATERIAL
148
0.0
149
0.0
149
0.0
 93
        0
 94
      127
282
     0
 72
     0
 77
     0
171
     0
175
     0
179
     0
273
     0
  0
XRECORD
  5
C289
102
{ACAD_REACTORS
330
C287
102
}
330
C287
100
AcDbXrecord
280
     1
270
     1
271
     1
  0
XRECORD
  5
C288
102
{ACAD_REACTORS
330
C287
102
}
330
C287
100
AcDbXrecord
280
     1
270
     1
271
     1
  0
XRECORD
  5
C28C
102
{ACAD_REACTORS
330
C287
102
}
330
C287
100
AcDbXrecord
280
     1
270
     1
271
     1
  0
XRECORD
  5
C28B
102
{ACAD_REACTORS
330
C287
102
}
330
C287
100
AcDbXrecord
280
     1
270
     1
271
     1
  0
XRECORD
  5
C28D
102
{ACAD_REACTORS
330
C287
102
}
330
C287
100
AcDbXrecord
280
     1
270
     1
271
     1
  0
XRECORD
  5
C28A
102
{ACAD_REACTORS
330
C287
102
}
330
C287
100
AcDbXrecord
280
     1
270
     1
271
     1
  0
XRECORD
  5
C2ED
102
{ACAD_REACTORS
330
C27F
102
}
330
C27F
100
AcDbXrecord
280
     1
102
MATERIAL
148
0.0
149
0.0
149
0.0
 93
        0
 94
      127
282
     0
 72
     0
 77
     0
171
     0
175
     0
179
     0
273
     0
  0
XRECORD
  5
C281
102
{ACAD_REACTORS
330
C27F
102
}
330
C27F
100
AcDbXrecord
280
     1
270
     1
271
     1
  0
XRECORD
  5
C280
102
{ACAD_REACTORS
330
C27F
102
}
330
C27F
100
AcDbXrecord
280
     1
270
     1
271
     1
  0
XRECORD
  5
C284
102
{ACAD_REACTORS
330
C27F
102
}
330
C27F
100
AcDbXrecord
280
     1
270
     1
271
     1
  0
XRECORD
  5
C283
102
{ACAD_REACTORS
330
C27F
102
}
330
C27F
100
AcDbXrecord
280
     1
270
     1
271
     1
  0
XRECORD
  5
C285
102
{ACAD_REACTORS
330
C27F
102
}
330
C27F
100
AcDbXrecord
280
     1
270
     1
271
     1
  0
XRECORD
  5
C282
102
{ACAD_REACTORS
330
C27F
102
}
330
C27F
100
AcDbXrecord
280
     1
270
     1
271
     1
  0
XRECORD
  5
C2EF
102
{ACAD_REACTORS
330
C28F
102
}
330
C28F
100
AcDbXrecord
280
     1
102
MATERIAL
148
0.0
149
0.0
149
0.0
 93
        0
 94
      127
282
     0
 72
     0
 77
     0
171
     0
175
     0
179
     0
273
     0
  0
XRECORD
  5
C291
102
{ACAD_REACTORS
330
C28F
102
}
330
C28F
100
AcDbXrecord
280
     1
270
     1
271
     1
  0
XRECORD
  5
C290
102
{ACAD_REACTORS
330
C28F
102
}
330
C28F
100
AcDbXrecord
280
     1
270
     1
271
     1
  0
XRECORD
  5
C294
102
{ACAD_REACTORS
330
C28F
102
}
330
C28F
100
AcDbXrecord
280
     1
270
     1
271
     1
  0
XRECORD
  5
C293
102
{ACAD_REACTORS
330
C28F
102
}
330
C28F
100
AcDbXrecord
280
     1
270
     1
271
     1
  0
XRECORD
  5
C295
102
{ACAD_REACTORS
330
C28F
102
}
330
C28F
100
AcDbXrecord
280
     1
270
     1
271
     1
  0
XRECORD
  5
C292
102
{ACAD_REACTORS
330
C28F
102
}
330
C28F
100
AcDbXrecord
280
     1
270
     1
271
     1
  0
XRECORD
  5
C323
102
{ACAD_REACTORS
330
C322
102
}
330
C322
100
AcDbXrecord
280
     1
102
DISPLAYNAME
  1
Imperial24
102
FLAGS
 90
        0
  0
CELLSTYLEMAP
  5
C2EA
102
{ACAD_REACTORS
330
C2E9
102
}
330
C2E9
100
AcDbCellStyleMap
 90
        3
300
CELLSTYLE
  1
TABLEFORMAT_BEGIN
 90
        5
170
     1
 91
        0
 92
    32768
 62
   257
 93
        1
300
CONTENTFORMAT
  1
CONTENTFORMAT_BEGIN
 90
        0
 91
        0
 92
      512
 93
        0
300

 40
0.0
140
1.0
 94
        5
 62
     0
340
BE3F
144
0.25
309
CONTENTFORMAT_END
171
     0
 94
        0
309
TABLEFORMAT_END
  1
CELLSTYLE_BEGIN
 90
        1
 91
        1
300
_TITLE
309
CELLSTYLE_END
300
CELLSTYLE
  1
TABLEFORMAT_BEGIN
 90
        5
170
     1
 91
        0
 92
        0
 62
   257
 93
        1
300
CONTENTFORMAT
  1
CONTENTFORMAT_BEGIN
 90
        0
 91
        0
 92
      512
 93
        0
300

 40
0.0
140
1.0
 94
        5
 62
     0
340
BE3F
144
0.18
309
CONTENTFORMAT_END
171
     0
 94
        0
309
TABLEFORMAT_END
  1
CELLSTYLE_BEGIN
 90
        2
 91
        1
300
_HEADER
309
CELLSTYLE_END
300
CELLSTYLE
  1
TABLEFORMAT_BEGIN
 90
        5
170
     1
 91
        0
 92
        0
 62
   257
 93
        1
300
CONTENTFORMAT
  1
CONTENTFORMAT_BEGIN
 90
        0
 91
        0
 92
      512
 93
        0
300

 40
0.0
140
1.0
 94
        2
 62
     0
340
BE3F
144
0.18
309
CONTENTFORMAT_END
171
     0
 94
        0
309
TABLEFORMAT_END
  1
CELLSTYLE_BEGIN
 90
        3
 91
        2
300
_DATA
309
CELLSTYLE_END
  0
XRECORD
  5
C320
102
{ACAD_REACTORS
330
C2E9
102
}
330
C2E9
100
AcDbXrecord
280
     1
102
ACAD_ROUNDTRIP_PRE2007_TABLESTYLE
 90
      512
 91
        0
  1

 92
      512
 93
        0
  2

 94
      512
 95
        0
  3

  0
XRECORD
  5
C2FB
102
{ACAD_REACTORS
330
C2FA
102
}
330
C2FA
100
AcDbXrecord
280
     1
102
RTVSPost2010Prop28
280
     1
102
RTVSPost2010PropOp28
 70
     1
102
RTVSPost2010Prop29
280
     1
102
RTVSPost2010PropOp29
 70
     1
102
RTVSPost2010Prop30
280
     0
102
RTVSPost2010PropOp30
 70
     1
102
RTVSPost2010Prop31
280
     0
102
RTVSPost2010PropOp31
 70
     1
102
RTVSPost2010Prop32
280
     0
102
RTVSPost2010PropOp32
 70
     1
102
RTVSPost2010Prop33
280
     0
102
RTVSPost2010PropOp33
 70
     1
102
RTVSPost2010Prop34
280
     0
102
RTVSPost2010PropOp34
 70
     1
102
RTVSPost2010Prop35
280
     0
102
RTVSPost2010PropOp35
 70
     1
102
RTVSPost2010Prop36
280
     0
102
RTVSPost2010PropOp36
 70
     1
102
RTVSPost2010Prop37
 90
       50
102
RTVSPost2010PropOp37
 70
     1
102
RTVSPost2010Prop38
140
0.0
102
RTVSPost2010PropOp38
 70
     1
102
RTVSPost2010Prop39
140
1.0
102
RTVSPost2010PropOp39
 70
     1
102
RTVSPost2010Prop40
 90
        0
102
RTVSPost2010PropOp40
 70
     1
102
RTVSPost2010Prop41ColorIndex
 90
       18
102
RTVSPost2010Prop41ColorRGB
 90
        0
102
RTVSPost2010PropOp41
 70
     1
102
RTVSPost2010Prop42
 90
       50
102
RTVSPost2010PropOp42
 70
     1
102
RTVSPost2010Prop43
 90
        3
102
RTVSPost2010PropOp43
 70
     1
102
RTVSPost2010Prop44ColorIndex
 90
        5
102
RTVSPost2010Prop44ColorRGB
 90
      255
102
RTVSPost2010PropOp44
 70
     1
102
RTVSPost2010Prop45
280
     0
102
RTVSPost2010PropOp45
 70
     1
102
RTVSPost2010Prop46
 90
       50
102
RTVSPost2010PropOp46
 70
     1
102
RTVSPost2010Prop47
 90
       50
102
RTVSPost2010PropOp47
 70
     1
102
RTVSPost2010Prop48
 90
       50
102
RTVSPost2010PropOp48
 70
     1
102
RTVSPost2010Prop49
280
     0
102
RTVSPost2010PropOp49
 70
     1
102
RTVSPost2010Prop50
 90
       50
102
RTVSPost2010PropOp50
 70
     1
102
RTVSPost2010Prop51ColorIndex
 90
      256
102
RTVSPost2010Prop51ColorRGB
 90
-16777216
102
RTVSPost2010PropOp51
 70
     0
102
RTVSPost2010Prop52
140
1.0
102
RTVSPost2010PropOp52
 70
     0
102
RTVSPost2010Prop53
 90
        2
102
RTVSPost2010PropOp53
 70
     1
102
RTVSPost2010Prop54
  1
strokes_ogs.tif
102
RTVSPost2010PropOp54
 70
     1
102
RTVSPost2010Prop55
280
     0
102
RTVSPost2010PropOp55
 70
     1
102
RTVSPost2010Prop56
140
1.0
102
RTVSPost2010PropOp56
 70
     1
102
RTVSPost2010Prop57
140
1.0
102
RTVSPost2010PropOp57
 70
     1
102
RTVSPropertyOp0
 70
     1
102
RTVSPropertyOp1
 70
     1
102
RTVSPropertyOp2
 70
     1
102
RTVSPropertyOp3
 70
     1
102
RTVSPropertyOp4
 70
     1
102
RTVSPropertyOp5
 70
     1
102
RTVSPropertyOp6
 70
     1
102
RTVSPropertyOp7
 70
     1
102
RTVSPropertyOp8
 70
     1
102
RTVSPropertyOp9
 70
     1
102
RTVSPropertyOp10
 70
     1
102
RTVSPropertyOp11
 70
     1
102
RTVSPropertyOp12
 70
     1
102
RTVSPropertyOp13
 70
     1
102
RTVSPropertyOp14
 70
     1
102
RTVSPropertyOp15
 70
     1
102
RTVSPropertyOp16
 70
     1
102
RTVSPropertyOp17
 70
     1
102
RTVSPropertyOp18
 70
     1
102
RTVSPropertyOp19
 70
     1
102
RTVSPropertyOp20
 70
     1
102
RTVSPropertyOp21
 70
     1
102
RTVSPropertyOp22
 70
     1
102
RTVSPropertyOp23
 70
     1
102
RTVSPropertyOp24
 70
     1
102
RTVSPropertyOp25
 70
     1
102
RTVSPropertyOp26
 70
     1
102
RTVSPropertyOp27
 70
     1
102
RTVSPropertyOp28
 70
     1
102
RTVSPropertyOp29
 70
     1
102
RTVSPropertyOp30
 70
     1
102
RTVSPropertyOp31
 70
     1
102
RTVSPropertyOp32
 70
     1
102
RTVSPropertyOp33
 70
     1
102
RTVSPropertyOp34
 70
     1
102
RTVSPropertyOp35
 70
     1
102
RTVSPropertyOp36
 70
     1
102
RTVSPropertyOp37
 70
     1
102
RTVSPropertyOp38
 70
     1
102
RTVSPropertyOp39
 70
     1
102
RTVSPropertyOp40
 70
     1
102
RTVSPropertyOp41
 70
     1
102
RTVSPropertyOp42
 70
     1
102
RTVSPropertyOp43
 70
     1
102
RTVSPropertyOp44
 70
     1
102
RTVSPropertyOp45
 70
     1
102
RTVSPropertyOp46
 70
     1
102
RTVSPropertyOp47
 70
     1
102
RTVSPropertyOp48
 70
     1
102
RTVSPropertyOp49
 70
     1
102
RTVSPropertyOp50
 70
     1
102
RTVSPropertyOp51
 70
     0
102
RTVSPropertyOp52
 70
     0
102
RTVSPropertyOp53
 70
     1
102
RTVSPropertyOp54
 70
     1
102
RTVSPropertyOp55
 70
     1
102
RTVSPropertyOp56
 70
     1
102
RTVSPropertyOp57
 70
     1
102
RTVSPropertyOp58
 70
     1
102
RTVSPropertyOp59
 70
     1
102
RTVSPropertyOp60
 70
     1
102
RTVSPropertyOp61
 70
     1
102
RTVSPropertyOp62
 70
     1
  0
XRECORD
  5
C2F9
102
{ACAD_REACTORS
330
C2F8
102
}
330
C2F8
100
AcDbXrecord
280
     1
102
RTVSPost2010Prop28
280
     0
102
RTVSPost2010PropOp28
 70
     1
102
RTVSPost2010Prop29
280
     1
102
RTVSPost2010PropOp29
 70
     1
102
RTVSPost2010Prop30
280
     1
102
RTVSPost2010PropOp30
 70
     1
102
RTVSPost2010Prop31
280
     0
102
RTVSPost2010PropOp31
 70
     1
102
RTVSPost2010Prop32
280
     0
102
RTVSPost2010PropOp32
 70
     1
102
RTVSPost2010Prop33
280
     0
102
RTVSPost2010PropOp33
 70
     1
102
RTVSPost2010Prop34
280
     0
102
RTVSPost2010PropOp34
 70
     1
102
RTVSPost2010Prop35
280
     0
102
RTVSPost2010PropOp35
 70
     1
102
RTVSPost2010Prop36
280
     0
102
RTVSPost2010PropOp36
 70
     1
102
RTVSPost2010Prop37
 90
       50
102
RTVSPost2010PropOp37
 70
     1
102
RTVSPost2010Prop38
140
0.0
102
RTVSPost2010PropOp38
 70
     1
102
RTVSPost2010Prop39
140
1.0
102
RTVSPost2010PropOp39
 70
     1
102
RTVSPost2010Prop40
 90
        0
102
RTVSPost2010PropOp40
 70
     1
102
RTVSPost2010Prop41ColorIndex
 90
       18
102
RTVSPost2010Prop41ColorRGB
 90
        0
102
RTVSPost2010PropOp41
 70
     1
102
RTVSPost2010Prop42
 90
       50
102
RTVSPost2010PropOp42
 70
     1
102
RTVSPost2010Prop43
 90
        3
102
RTVSPost2010PropOp43
 70
     1
102
RTVSPost2010Prop44ColorIndex
 90
        5
102
RTVSPost2010Prop44ColorRGB
 90
      255
102
RTVSPost2010PropOp44
 70
     1
102
RTVSPost2010Prop45
280
     0
102
RTVSPost2010PropOp45
 70
     1
102
RTVSPost2010Prop46
 90
       50
102
RTVSPost2010PropOp46
 70
     1
102
RTVSPost2010Prop47
 90
       50
102
RTVSPost2010PropOp47
 70
     1
102
RTVSPost2010Prop48
 90
       50
102
RTVSPost2010PropOp48
 70
     1
102
RTVSPost2010Prop49
280
     0
102
RTVSPost2010PropOp49
 70
     1
102
RTVSPost2010Prop50
 90
       50
102
RTVSPost2010PropOp50
 70
     1
102
RTVSPost2010Prop51ColorIndex
 90
      256
102
RTVSPost2010Prop51ColorRGB
 90
-16777216
102
RTVSPost2010PropOp51
 70
     0
102
RTVSPost2010Prop52
140
1.0
102
RTVSPost2010PropOp52
 70
     0
102
RTVSPost2010Prop53
 90
        2
102
RTVSPost2010PropOp53
 70
     1
102
RTVSPost2010Prop54
  1
strokes_ogs.tif
102
RTVSPost2010PropOp54
 70
     1
102
RTVSPost2010Prop55
280
     0
102
RTVSPost2010PropOp55
 70
     1
102
RTVSPost2010Prop56
140
1.0
102
RTVSPost2010PropOp56
 70
     1
102
RTVSPost2010Prop57
140
1.0
102
RTVSPost2010PropOp57
 70
     1
102
RTVSPropertyOp0
 70
     1
102
RTVSPropertyOp1
 70
     1
102
RTVSPropertyOp2
 70
     1
102
RTVSPropertyOp3
 70
     1
102
RTVSPropertyOp4
 70
     1
102
RTVSPropertyOp5
 70
     1
102
RTVSPropertyOp6
 70
     1
102
RTVSPropertyOp7
 70
     1
102
RTVSPropertyOp8
 70
     1
102
RTVSPropertyOp9
 70
     1
102
RTVSPropertyOp10
 70
     1
102
RTVSPropertyOp11
 70
     1
102
RTVSPropertyOp12
 70
     1
102
RTVSPropertyOp13
 70
     1
102
RTVSPropertyOp14
 70
     1
102
RTVSPropertyOp15
 70
     1
102
RTVSPropertyOp16
 70
     1
102
RTVSPropertyOp17
 70
     1
102
RTVSPropertyOp18
 70
     1
102
RTVSPropertyOp19
 70
     1
102
RTVSPropertyOp20
 70
     1
102
RTVSPropertyOp21
 70
     1
102
RTVSPropertyOp22
 70
     1
102
RTVSPropertyOp23
 70
     1
102
RTVSPropertyOp24
 70
     1
102
RTVSPropertyOp25
 70
     1
102
RTVSPropertyOp26
 70
     1
102
RTVSPropertyOp27
 70
     1
102
RTVSPropertyOp28
 70
     1
102
RTVSPropertyOp29
 70
     1
102
RTVSPropertyOp30
 70
     1
102
RTVSPropertyOp31
 70
     1
102
RTVSPropertyOp32
 70
     1
102
RTVSPropertyOp33
 70
     1
102
RTVSPropertyOp34
 70
     1
102
RTVSPropertyOp35
 70
     1
102
RTVSPropertyOp36
 70
     1
102
RTVSPropertyOp37
 70
     1
102
RTVSPropertyOp38
 70
     1
102
RTVSPropertyOp39
 70
     1
102
RTVSPropertyOp40
 70
     1
102
RTVSPropertyOp41
 70
     1
102
RTVSPropertyOp42
 70
     1
102
RTVSPropertyOp43
 70
     1
102
RTVSPropertyOp44
 70
     1
102
RTVSPropertyOp45
 70
     1
102
RTVSPropertyOp46
 70
     1
102
RTVSPropertyOp47
 70
     1
102
RTVSPropertyOp48
 70
     1
102
RTVSPropertyOp49
 70
     1
102
RTVSPropertyOp50
 70
     1
102
RTVSPropertyOp51
 70
     0
102
RTVSPropertyOp52
 70
     0
102
RTVSPropertyOp53
 70
     1
102
RTVSPropertyOp54
 70
     1
102
RTVSPropertyOp55
 70
     1
102
RTVSPropertyOp56
 70
     1
102
RTVSPropertyOp57
 70
     1
102
RTVSPropertyOp58
 70
     1
102
RTVSPropertyOp59
 70
     1
102
RTVSPropertyOp60
 70
     1
102
RTVSPropertyOp61
 70
     1
102
RTVSPropertyOp62
 70
     1
  0
XRECORD
  5
C307
102
{ACAD_REACTORS
330
C306
102
}
330
C306
100
AcDbXrecord
280
     1
102
RTVSPost2010Prop28
280
     0
102
RTVSPost2010PropOp28
 70
     1
102
RTVSPost2010Prop29
280
     1
102
RTVSPost2010PropOp29
 70
     1
102
RTVSPost2010Prop30
280
     1
102
RTVSPost2010PropOp30
 70
     1
102
RTVSPost2010Prop31
280
     0
102
RTVSPost2010PropOp31
 70
     1
102
RTVSPost2010Prop32
280
     0
102
RTVSPost2010PropOp32
 70
     1
102
RTVSPost2010Prop33
280
     0
102
RTVSPost2010PropOp33
 70
     1
102
RTVSPost2010Prop34
280
     0
102
RTVSPost2010PropOp34
 70
     1
102
RTVSPost2010Prop35
280
     0
102
RTVSPost2010PropOp35
 70
     1
102
RTVSPost2010Prop36
280
     0
102
RTVSPost2010PropOp36
 70
     1
102
RTVSPost2010Prop37
 90
       50
102
RTVSPost2010PropOp37
 70
     1
102
RTVSPost2010Prop38
140
0.0
102
RTVSPost2010PropOp38
 70
     1
102
RTVSPost2010Prop39
140
1.0
102
RTVSPost2010PropOp39
 70
     1
102
RTVSPost2010Prop40
 90
        0
102
RTVSPost2010PropOp40
 70
     1
102
RTVSPost2010Prop41ColorIndex
 90
       18
102
RTVSPost2010Prop41ColorRGB
 90
        0
102
RTVSPost2010PropOp41
 70
     1
102
RTVSPost2010Prop42
 90
       50
102
RTVSPost2010PropOp42
 70
     1
102
RTVSPost2010Prop43
 90
        3
102
RTVSPost2010PropOp43
 70
     1
102
RTVSPost2010Prop44ColorIndex
 90
        5
102
RTVSPost2010Prop44ColorRGB
 90
      255
102
RTVSPost2010PropOp44
 70
     1
102
RTVSPost2010Prop45
280
     0
102
RTVSPost2010PropOp45
 70
     1
102
RTVSPost2010Prop46
 90
       50
102
RTVSPost2010PropOp46
 70
     1
102
RTVSPost2010Prop47
 90
       50
102
RTVSPost2010PropOp47
 70
     1
102
RTVSPost2010Prop48
 90
       50
102
RTVSPost2010PropOp48
 70
     1
102
RTVSPost2010Prop49
280
     0
102
RTVSPost2010PropOp49
 70
     1
102
RTVSPost2010Prop50
 90
       50
102
RTVSPost2010PropOp50
 70
     1
102
RTVSPost2010Prop51ColorIndex
 90
      256
102
RTVSPost2010Prop51ColorRGB
 90
-16777216
102
RTVSPost2010PropOp51
 70
     0
102
RTVSPost2010Prop52
140
1.0
102
RTVSPost2010PropOp52
 70
     0
102
RTVSPost2010Prop53
 90
        2
102
RTVSPost2010PropOp53
 70
     1
102
RTVSPost2010Prop54
  1
strokes_ogs.tif
102
RTVSPost2010PropOp54
 70
     1
102
RTVSPost2010Prop55
280
     0
102
RTVSPost2010PropOp55
 70
     1
102
RTVSPost2010Prop56
140
1.0
102
RTVSPost2010PropOp56
 70
     1
102
RTVSPost2010Prop57
140
1.0
102
RTVSPost2010PropOp57
 70
     1
102
RTVSPropertyOp0
 70
     1
102
RTVSPropertyOp1
 70
     1
102
RTVSPropertyOp2
 70
     1
102
RTVSPropertyOp3
 70
     1
102
RTVSPropertyOp4
 70
     1
102
RTVSPropertyOp5
 70
     1
102
RTVSPropertyOp6
 70
     1
102
RTVSPropertyOp7
 70
     1
102
RTVSPropertyOp8
 70
     1
102
RTVSPropertyOp9
 70
     1
102
RTVSPropertyOp10
 70
     1
102
RTVSPropertyOp11
 70
     1
102
RTVSPropertyOp12
 70
     1
102
RTVSPropertyOp13
 70
     1
102
RTVSPropertyOp14
 70
     1
102
RTVSPropertyOp15
 70
     1
102
RTVSPropertyOp16
 70
     1
102
RTVSPropertyOp17
 70
     1
102
RTVSPropertyOp18
 70
     1
102
RTVSPropertyOp19
 70
     1
102
RTVSPropertyOp20
 70
     1
102
RTVSPropertyOp21
 70
     1
102
RTVSPropertyOp22
 70
     1
102
RTVSPropertyOp23
 70
     1
102
RTVSPropertyOp24
 70
     1
102
RTVSPropertyOp25
 70
     1
102
RTVSPropertyOp26
 70
     1
102
RTVSPropertyOp27
 70
     1
102
RTVSPropertyOp28
 70
     1
102
RTVSPropertyOp29
 70
     1
102
RTVSPropertyOp30
 70
     1
102
RTVSPropertyOp31
 70
     1
102
RTVSPropertyOp32
 70
     1
102
RTVSPropertyOp33
 70
     1
102
RTVSPropertyOp34
 70
     1
102
RTVSPropertyOp35
 70
     1
102
RTVSPropertyOp36
 70
     1
102
RTVSPropertyOp37
 70
     1
102
RTVSPropertyOp38
 70
     1
102
RTVSPropertyOp39
 70
     1
102
RTVSPropertyOp40
 70
     1
102
RTVSPropertyOp41
 70
     1
102
RTVSPropertyOp42
 70
     1
102
RTVSPropertyOp43
 70
     1
102
RTVSPropertyOp44
 70
     1
102
RTVSPropertyOp45
 70
     1
102
RTVSPropertyOp46
 70
     1
102
RTVSPropertyOp47
 70
     1
102
RTVSPropertyOp48
 70
     1
102
RTVSPropertyOp49
 70
     1
102
RTVSPropertyOp50
 70
     1
102
RTVSPropertyOp51
 70
     0
102
RTVSPropertyOp52
 70
     0
102
RTVSPropertyOp53
 70
     1
102
RTVSPropertyOp54
 70
     1
102
RTVSPropertyOp55
 70
     1
102
RTVSPropertyOp56
 70
     1
102
RTVSPropertyOp57
 70
     1
102
RTVSPropertyOp58
 70
     1
102
RTVSPropertyOp59
 70
     1
102
RTVSPropertyOp60
 70
     1
102
RTVSPropertyOp61
 70
     1
102
RTVSPropertyOp62
 70
     1
  0
XRECORD
  5
C30F
102
{ACAD_REACTORS
330
C30E
102
}
330
C30E
100
AcDbXrecord
280
     1
102
RTVSPost2010Prop28
280
     0
102
RTVSPost2010PropOp28
 70
     1
102
RTVSPost2010Prop29
280
     1
102
RTVSPost2010PropOp29
 70
     1
102
RTVSPost2010Prop30
280
     1
102
RTVSPost2010PropOp30
 70
     1
102
RTVSPost2010Prop31
280
     0
102
RTVSPost2010PropOp31
 70
     1
102
RTVSPost2010Prop32
280
     0
102
RTVSPost2010PropOp32
 70
     1
102
RTVSPost2010Prop33
280
     0
102
RTVSPost2010PropOp33
 70
     1
102
RTVSPost2010Prop34
280
     0
102
RTVSPost2010PropOp34
 70
     1
102
RTVSPost2010Prop35
280
     0
102
RTVSPost2010PropOp35
 70
     1
102
RTVSPost2010Prop36
280
     0
102
RTVSPost2010PropOp36
 70
     1
102
RTVSPost2010Prop37
 90
       50
102
RTVSPost2010PropOp37
 70
     1
102
RTVSPost2010Prop38
140
0.0
102
RTVSPost2010PropOp38
 70
     1
102
RTVSPost2010Prop39
140
1.0
102
RTVSPost2010PropOp39
 70
     1
102
RTVSPost2010Prop40
 90
        0
102
RTVSPost2010PropOp40
 70
     1
102
RTVSPost2010Prop41ColorIndex
 90
       18
102
RTVSPost2010Prop41ColorRGB
 90
        0
102
RTVSPost2010PropOp41
 70
     1
102
RTVSPost2010Prop42
 90
       50
102
RTVSPost2010PropOp42
 70
     1
102
RTVSPost2010Prop43
 90
        3
102
RTVSPost2010PropOp43
 70
     1
102
RTVSPost2010Prop44ColorIndex
 90
        5
102
RTVSPost2010Prop44ColorRGB
 90
      255
102
RTVSPost2010PropOp44
 70
     1
102
RTVSPost2010Prop45
280
     0
102
RTVSPost2010PropOp45
 70
     1
102
RTVSPost2010Prop46
 90
       50
102
RTVSPost2010PropOp46
 70
     1
102
RTVSPost2010Prop47
 90
       50
102
RTVSPost2010PropOp47
 70
     1
102
RTVSPost2010Prop48
 90
       50
102
RTVSPost2010PropOp48
 70
     1
102
RTVSPost2010Prop49
280
     0
102
RTVSPost2010PropOp49
 70
     1
102
RTVSPost2010Prop50
 90
       50
102
RTVSPost2010PropOp50
 70
     1
102
RTVSPost2010Prop51ColorIndex
 90
      256
102
RTVSPost2010Prop51ColorRGB
 90
-16777216
102
RTVSPost2010PropOp51
 70
     0
102
RTVSPost2010Prop52
140
1.0
102
RTVSPost2010PropOp52
 70
     0
102
RTVSPost2010Prop53
 90
        2
102
RTVSPost2010PropOp53
 70
     1
102
RTVSPost2010Prop54
  1
strokes_ogs.tif
102
RTVSPost2010PropOp54
 70
     1
102
RTVSPost2010Prop55
280
     0
102
RTVSPost2010PropOp55
 70
     1
102
RTVSPost2010Prop56
140
1.0
102
RTVSPost2010PropOp56
 70
     1
102
RTVSPost2010Prop57
140
1.0
102
RTVSPost2010PropOp57
 70
     1
102
RTVSPropertyOp0
 70
     1
102
RTVSPropertyOp1
 70
     1
102
RTVSPropertyOp2
 70
     1
102
RTVSPropertyOp3
 70
     1
102
RTVSPropertyOp4
 70
     1
102
RTVSPropertyOp5
 70
     1
102
RTVSPropertyOp6
 70
     1
102
RTVSPropertyOp7
 70
     1
102
RTVSPropertyOp8
 70
     1
102
RTVSPropertyOp9
 70
     1
102
RTVSPropertyOp10
 70
     1
102
RTVSPropertyOp11
 70
     1
102
RTVSPropertyOp12
 70
     1
102
RTVSPropertyOp13
 70
     1
102
RTVSPropertyOp14
 70
     1
102
RTVSPropertyOp15
 70
     1
102
RTVSPropertyOp16
 70
     1
102
RTVSPropertyOp17
 70
     1
102
RTVSPropertyOp18
 70
     1
102
RTVSPropertyOp19
 70
     1
102
RTVSPropertyOp20
 70
     1
102
RTVSPropertyOp21
 70
     1
102
RTVSPropertyOp22
 70
     1
102
RTVSPropertyOp23
 70
     1
102
RTVSPropertyOp24
 70
     1
102
RTVSPropertyOp25
 70
     1
102
RTVSPropertyOp26
 70
     1
102
RTVSPropertyOp27
 70
     1
102
RTVSPropertyOp28
 70
     1
102
RTVSPropertyOp29
 70
     1
102
RTVSPropertyOp30
 70
     1
102
RTVSPropertyOp31
 70
     1
102
RTVSPropertyOp32
 70
     1
102
RTVSPropertyOp33
 70
     1
102
RTVSPropertyOp34
 70
     1
102
RTVSPropertyOp35
 70
     1
102
RTVSPropertyOp36
 70
     1
102
RTVSPropertyOp37
 70
     1
102
RTVSPropertyOp38
 70
     1
102
RTVSPropertyOp39
 70
     1
102
RTVSPropertyOp40
 70
     1
102
RTVSPropertyOp41
 70
     1
102
RTVSPropertyOp42
 70
     1
102
RTVSPropertyOp43
 70
     1
102
RTVSPropertyOp44
 70
     1
102
RTVSPropertyOp45
 70
     1
102
RTVSPropertyOp46
 70
     1
102
RTVSPropertyOp47
 70
     1
102
RTVSPropertyOp48
 70
     1
102
RTVSPropertyOp49
 70
     1
102
RTVSPropertyOp50
 70
     1
102
RTVSPropertyOp51
 70
     0
102
RTVSPropertyOp52
 70
     0
102
RTVSPropertyOp53
 70
     1
102
RTVSPropertyOp54
 70
     1
102
RTVSPropertyOp55
 70
     1
102
RTVSPropertyOp56
 70
     1
102
RTVSPropertyOp57
 70
     1
102
RTVSPropertyOp58
 70
     1
102
RTVSPropertyOp59
 70
     1
102
RTVSPropertyOp60
 70
     1
102
RTVSPropertyOp61
 70
     1
102
RTVSPropertyOp62
 70
     1
  0
XRECORD
  5
C301
102
{ACAD_REACTORS
330
C300
102
}
330
C300
100
AcDbXrecord
280
     1
102
RTVSPost2010Prop28
280
     0
102
RTVSPost2010PropOp28
 70
     1
102
RTVSPost2010Prop29
280
     1
102
RTVSPost2010PropOp29
 70
     1
102
RTVSPost2010Prop30
280
     1
102
RTVSPost2010PropOp30
 70
     1
102
RTVSPost2010Prop31
280
     0
102
RTVSPost2010PropOp31
 70
     1
102
RTVSPost2010Prop32
280
     0
102
RTVSPost2010PropOp32
 70
     1
102
RTVSPost2010Prop33
280
     0
102
RTVSPost2010PropOp33
 70
     1
102
RTVSPost2010Prop34
280
     0
102
RTVSPost2010PropOp34
 70
     1
102
RTVSPost2010Prop35
280
     0
102
RTVSPost2010PropOp35
 70
     1
102
RTVSPost2010Prop36
280
     0
102
RTVSPost2010PropOp36
 70
     1
102
RTVSPost2010Prop37
 90
       50
102
RTVSPost2010PropOp37
 70
     1
102
RTVSPost2010Prop38
140
0.0
102
RTVSPost2010PropOp38
 70
     1
102
RTVSPost2010Prop39
140
1.0
102
RTVSPost2010PropOp39
 70
     1
102
RTVSPost2010Prop40
 90
        0
102
RTVSPost2010PropOp40
 70
     1
102
RTVSPost2010Prop41ColorIndex
 90
       18
102
RTVSPost2010Prop41ColorRGB
 90
        0
102
RTVSPost2010PropOp41
 70
     1
102
RTVSPost2010Prop42
 90
       50
102
RTVSPost2010PropOp42
 70
     1
102
RTVSPost2010Prop43
 90
        3
102
RTVSPost2010PropOp43
 70
     1
102
RTVSPost2010Prop44ColorIndex
 90
        5
102
RTVSPost2010Prop44ColorRGB
 90
      255
102
RTVSPost2010PropOp44
 70
     1
102
RTVSPost2010Prop45
280
     0
102
RTVSPost2010PropOp45
 70
     1
102
RTVSPost2010Prop46
 90
       50
102
RTVSPost2010PropOp46
 70
     1
102
RTVSPost2010Prop47
 90
       50
102
RTVSPost2010PropOp47
 70
     1
102
RTVSPost2010Prop48
 90
       50
102
RTVSPost2010PropOp48
 70
     1
102
RTVSPost2010Prop49
280
     0
102
RTVSPost2010PropOp49
 70
     1
102
RTVSPost2010Prop50
 90
       50
102
RTVSPost2010PropOp50
 70
     1
102
RTVSPost2010Prop51ColorIndex
 90
      256
102
RTVSPost2010Prop51ColorRGB
 90
-16777216
102
RTVSPost2010PropOp51
 70
     0
102
RTVSPost2010Prop52
140
1.0
102
RTVSPost2010PropOp52
 70
     0
102
RTVSPost2010Prop53
 90
        2
102
RTVSPost2010PropOp53
 70
     1
102
RTVSPost2010Prop54
  1
strokes_ogs.tif
102
RTVSPost2010PropOp54
 70
     1
102
RTVSPost2010Prop55
280
     0
102
RTVSPost2010PropOp55
 70
     1
102
RTVSPost2010Prop56
140
1.0
102
RTVSPost2010PropOp56
 70
     1
102
RTVSPost2010Prop57
140
1.0
102
RTVSPost2010PropOp57
 70
     1
102
RTVSPropertyOp0
 70
     1
102
RTVSPropertyOp1
 70
     1
102
RTVSPropertyOp2
 70
     1
102
RTVSPropertyOp3
 70
     1
102
RTVSPropertyOp4
 70
     1
102
RTVSPropertyOp5
 70
     1
102
RTVSPropertyOp6
 70
     1
102
RTVSPropertyOp7
 70
     1
102
RTVSPropertyOp8
 70
     1
102
RTVSPropertyOp9
 70
     1
102
RTVSPropertyOp10
 70
     1
102
RTVSPropertyOp11
 70
     1
102
RTVSPropertyOp12
 70
     1
102
RTVSPropertyOp13
 70
     1
102
RTVSPropertyOp14
 70
     1
102
RTVSPropertyOp15
 70
     1
102
RTVSPropertyOp16
 70
     1
102
RTVSPropertyOp17
 70
     1
102
RTVSPropertyOp18
 70
     1
102
RTVSPropertyOp19
 70
     1
102
RTVSPropertyOp20
 70
     1
102
RTVSPropertyOp21
 70
     1
102
RTVSPropertyOp22
 70
     1
102
RTVSPropertyOp23
 70
     1
102
RTVSPropertyOp24
 70
     1
102
RTVSPropertyOp25
 70
     1
102
RTVSPropertyOp26
 70
     1
102
RTVSPropertyOp27
 70
     1
102
RTVSPropertyOp28
 70
     1
102
RTVSPropertyOp29
 70
     1
102
RTVSPropertyOp30
 70
     1
102
RTVSPropertyOp31
 70
     1
102
RTVSPropertyOp32
 70
     1
102
RTVSPropertyOp33
 70
     1
102
RTVSPropertyOp34
 70
     1
102
RTVSPropertyOp35
 70
     1
102
RTVSPropertyOp36
 70
     1
102
RTVSPropertyOp37
 70
     1
102
RTVSPropertyOp38
 70
     1
102
RTVSPropertyOp39
 70
     1
102
RTVSPropertyOp40
 70
     1
102
RTVSPropertyOp41
 70
     1
102
RTVSPropertyOp42
 70
     1
102
RTVSPropertyOp43
 70
     1
102
RTVSPropertyOp44
 70
     1
102
RTVSPropertyOp45
 70
     1
102
RTVSPropertyOp46
 70
     1
102
RTVSPropertyOp47
 70
     1
102
RTVSPropertyOp48
 70
     1
102
RTVSPropertyOp49
 70
     1
102
RTVSPropertyOp50
 70
     1
102
RTVSPropertyOp51
 70
     0
102
RTVSPropertyOp52
 70
     0
102
RTVSPropertyOp53
 70
     1
102
RTVSPropertyOp54
 70
     1
102
RTVSPropertyOp55
 70
     1
102
RTVSPropertyOp56
 70
     1
102
RTVSPropertyOp57
 70
     1
102
RTVSPropertyOp58
 70
     1
102
RTVSPropertyOp59
 70
     1
102
RTVSPropertyOp60
 70
     1
102
RTVSPropertyOp61
 70
     1
102
RTVSPropertyOp62
 70
     1
  0
XRECORD
  5
C305
102
{ACAD_REACTORS
330
C304
102
}
330
C304
100
AcDbXrecord
280
     1
102
RTVSPost2010Prop28
280
     0
102
RTVSPost2010PropOp28
 70
     1
102
RTVSPost2010Prop29
280
     1
102
RTVSPost2010PropOp29
 70
     1
102
RTVSPost2010Prop30
280
     1
102
RTVSPost2010PropOp30
 70
     1
102
RTVSPost2010Prop31
280
     0
102
RTVSPost2010PropOp31
 70
     1
102
RTVSPost2010Prop32
280
     0
102
RTVSPost2010PropOp32
 70
     1
102
RTVSPost2010Prop33
280
     0
102
RTVSPost2010PropOp33
 70
     1
102
RTVSPost2010Prop34
280
     0
102
RTVSPost2010PropOp34
 70
     1
102
RTVSPost2010Prop35
280
     0
102
RTVSPost2010PropOp35
 70
     1
102
RTVSPost2010Prop36
280
     0
102
RTVSPost2010PropOp36
 70
     1
102
RTVSPost2010Prop37
 90
       50
102
RTVSPost2010PropOp37
 70
     1
102
RTVSPost2010Prop38
140
0.0
102
RTVSPost2010PropOp38
 70
     1
102
RTVSPost2010Prop39
140
1.0
102
RTVSPost2010PropOp39
 70
     1
102
RTVSPost2010Prop40
 90
        0
102
RTVSPost2010PropOp40
 70
     1
102
RTVSPost2010Prop41ColorIndex
 90
       18
102
RTVSPost2010Prop41ColorRGB
 90
        0
102
RTVSPost2010PropOp41
 70
     1
102
RTVSPost2010Prop42
 90
       50
102
RTVSPost2010PropOp42
 70
     1
102
RTVSPost2010Prop43
 90
        3
102
RTVSPost2010PropOp43
 70
     1
102
RTVSPost2010Prop44ColorIndex
 90
        5
102
RTVSPost2010Prop44ColorRGB
 90
      255
102
RTVSPost2010PropOp44
 70
     1
102
RTVSPost2010Prop45
280
     0
102
RTVSPost2010PropOp45
 70
     1
102
RTVSPost2010Prop46
 90
       50
102
RTVSPost2010PropOp46
 70
     1
102
RTVSPost2010Prop47
 90
       50
102
RTVSPost2010PropOp47
 70
     1
102
RTVSPost2010Prop48
 90
       50
102
RTVSPost2010PropOp48
 70
     1
102
RTVSPost2010Prop49
280
     0
102
RTVSPost2010PropOp49
 70
     1
102
RTVSPost2010Prop50
 90
       50
102
RTVSPost2010PropOp50
 70
     1
102
RTVSPost2010Prop51ColorIndex
 90
      256
102
RTVSPost2010Prop51ColorRGB
 90
-16777216
102
RTVSPost2010PropOp51
 70
     0
102
RTVSPost2010Prop52
140
1.0
102
RTVSPost2010PropOp52
 70
     0
102
RTVSPost2010Prop53
 90
        2
102
RTVSPost2010PropOp53
 70
     1
102
RTVSPost2010Prop54
  1
strokes_ogs.tif
102
RTVSPost2010PropOp54
 70
     1
102
RTVSPost2010Prop55
280
     0
102
RTVSPost2010PropOp55
 70
     1
102
RTVSPost2010Prop56
140
1.0
102
RTVSPost2010PropOp56
 70
     1
102
RTVSPost2010Prop57
140
1.0
102
RTVSPost2010PropOp57
 70
     1
102
RTVSPropertyOp0
 70
     1
102
RTVSPropertyOp1
 70
     1
102
RTVSPropertyOp2
 70
     1
102
RTVSPropertyOp3
 70
     1
102
RTVSPropertyOp4
 70
     1
102
RTVSPropertyOp5
 70
     1
102
RTVSPropertyOp6
 70
     1
102
RTVSPropertyOp7
 70
     1
102
RTVSPropertyOp8
 70
     1
102
RTVSPropertyOp9
 70
     1
102
RTVSPropertyOp10
 70
     1
102
RTVSPropertyOp11
 70
     1
102
RTVSPropertyOp12
 70
     1
102
RTVSPropertyOp13
 70
     1
102
RTVSPropertyOp14
 70
     1
102
RTVSPropertyOp15
 70
     1
102
RTVSPropertyOp16
 70
     1
102
RTVSPropertyOp17
 70
     1
102
RTVSPropertyOp18
 70
     1
102
RTVSPropertyOp19
 70
     1
102
RTVSPropertyOp20
 70
     1
102
RTVSPropertyOp21
 70
     1
102
RTVSPropertyOp22
 70
     1
102
RTVSPropertyOp23
 70
     1
102
RTVSPropertyOp24
 70
     1
102
RTVSPropertyOp25
 70
     1
102
RTVSPropertyOp26
 70
     1
102
RTVSPropertyOp27
 70
     1
102
RTVSPropertyOp28
 70
     1
102
RTVSPropertyOp29
 70
     1
102
RTVSPropertyOp30
 70
     1
102
RTVSPropertyOp31
 70
     1
102
RTVSPropertyOp32
 70
     1
102
RTVSPropertyOp33
 70
     1
102
RTVSPropertyOp34
 70
     1
102
RTVSPropertyOp35
 70
     1
102
RTVSPropertyOp36
 70
     1
102
RTVSPropertyOp37
 70
     1
102
RTVSPropertyOp38
 70
     1
102
RTVSPropertyOp39
 70
     1
102
RTVSPropertyOp40
 70
     1
102
RTVSPropertyOp41
 70
     1
102
RTVSPropertyOp42
 70
     1
102
RTVSPropertyOp43
 70
     1
102
RTVSPropertyOp44
 70
     1
102
RTVSPropertyOp45
 70
     1
102
RTVSPropertyOp46
 70
     1
102
RTVSPropertyOp47
 70
     1
102
RTVSPropertyOp48
 70
     1
102
RTVSPropertyOp49
 70
     1
102
RTVSPropertyOp50
 70
     1
102
RTVSPropertyOp51
 70
     0
102
RTVSPropertyOp52
 70
     0
102
RTVSPropertyOp53
 70
     1
102
RTVSPropertyOp54
 70
     1
102
RTVSPropertyOp55
 70
     1
102
RTVSPropertyOp56
 70
     1
102
RTVSPropertyOp57
 70
     1
102
RTVSPropertyOp58
 70
     1
102
RTVSPropertyOp59
 70
     1
102
RTVSPropertyOp60
 70
     1
102
RTVSPropertyOp61
 70
     1
102
RTVSPropertyOp62
 70
     1
  0
XRECORD
  5
C31F
102
{ACAD_REACTORS
330
C31E
102
}
330
C31E
100
AcDbXrecord
280
     1
102
RTVSPost2010Prop28
280
     0
102
RTVSPost2010PropOp28
 70
     1
102
RTVSPost2010Prop29
280
     1
102
RTVSPost2010PropOp29
 70
     1
102
RTVSPost2010Prop30
280
     1
102
RTVSPost2010PropOp30
 70
     1
102
RTVSPost2010Prop31
280
     0
102
RTVSPost2010PropOp31
 70
     1
102
RTVSPost2010Prop32
280
     0
102
RTVSPost2010PropOp32
 70
     1
102
RTVSPost2010Prop33
280
     0
102
RTVSPost2010PropOp33
 70
     1
102
RTVSPost2010Prop34
280
     0
102
RTVSPost2010PropOp34
 70
     1
102
RTVSPost2010Prop35
280
     0
102
RTVSPost2010PropOp35
 70
     1
102
RTVSPost2010Prop36
280
     0
102
RTVSPost2010PropOp36
 70
     1
102
RTVSPost2010Prop37
 90
       50
102
RTVSPost2010PropOp37
 70
     0
102
RTVSPost2010Prop38
140
0.0
102
RTVSPost2010PropOp38
 70
     0
102
RTVSPost2010Prop39
140
1.0
102
RTVSPost2010PropOp39
 70
     0
102
RTVSPost2010Prop40
 90
        0
102
RTVSPost2010PropOp40
 70
     0
102
RTVSPost2010Prop41ColorIndex
 90
       18
102
RTVSPost2010Prop41ColorRGB
 90
        0
102
RTVSPost2010PropOp41
 70
     0
102
RTVSPost2010Prop42
 90
       50
102
RTVSPost2010PropOp42
 70
     0
102
RTVSPost2010Prop43
 90
        3
102
RTVSPost2010PropOp43
 70
     0
102
RTVSPost2010Prop44ColorIndex
 90
        5
102
RTVSPost2010Prop44ColorRGB
 90
      255
102
RTVSPost2010PropOp44
 70
     0
102
RTVSPost2010Prop45
280
     0
102
RTVSPost2010PropOp45
 70
     1
102
RTVSPost2010Prop46
 90
       50
102
RTVSPost2010PropOp46
 70
     0
102
RTVSPost2010Prop47
 90
       50
102
RTVSPost2010PropOp47
 70
     0
102
RTVSPost2010Prop48
 90
       50
102
RTVSPost2010PropOp48
 70
     0
102
RTVSPost2010Prop49
280
     0
102
RTVSPost2010PropOp49
 70
     1
102
RTVSPost2010Prop50
 90
       50
102
RTVSPost2010PropOp50
 70
     0
102
RTVSPost2010Prop51ColorIndex
 90
      256
102
RTVSPost2010Prop51ColorRGB
 90
-16777216
102
RTVSPost2010PropOp51
 70
     0
102
RTVSPost2010Prop52
140
1.0
102
RTVSPost2010PropOp52
 70
     0
102
RTVSPost2010Prop53
 90
        2
102
RTVSPost2010PropOp53
 70
     0
102
RTVSPost2010Prop54
  1
strokes_ogs.tif
102
RTVSPost2010PropOp54
 70
     0
102
RTVSPost2010Prop55
280
     0
102
RTVSPost2010PropOp55
 70
     1
102
RTVSPost2010Prop56
140
1.0
102
RTVSPost2010PropOp56
 70
     0
102
RTVSPost2010Prop57
140
1.0
102
RTVSPost2010PropOp57
 70
     0
102
RTVSPropertyOp0
 70
     0
102
RTVSPropertyOp1
 70
     0
102
RTVSPropertyOp2
 70
     0
102
RTVSPropertyOp3
 70
     0
102
RTVSPropertyOp4
 70
     0
102
RTVSPropertyOp5
 70
     0
102
RTVSPropertyOp6
 70
     0
102
RTVSPropertyOp7
 70
     0
102
RTVSPropertyOp8
 70
     0
102
RTVSPropertyOp9
 70
     0
102
RTVSPropertyOp10
 70
     0
102
RTVSPropertyOp11
 70
     0
102
RTVSPropertyOp12
 70
     0
102
RTVSPropertyOp13
 70
     0
102
RTVSPropertyOp14
 70
     2
102
RTVSPropertyOp15
 70
     0
102
RTVSPropertyOp16
 70
     0
102
RTVSPropertyOp17
 70
     0
102
RTVSPropertyOp18
 70
     0
102
RTVSPropertyOp19
 70
     0
102
RTVSPropertyOp20
 70
     0
102
RTVSPropertyOp21
 70
     0
102
RTVSPropertyOp22
 70
     0
102
RTVSPropertyOp23
 70
     0
102
RTVSPropertyOp24
 70
     0
102
RTVSPropertyOp25
 70
     0
102
RTVSPropertyOp26
 70
     0
102
RTVSPropertyOp27
 70
     0
102
RTVSPropertyOp28
 70
     1
102
RTVSPropertyOp29
 70
     1
102
RTVSPropertyOp30
 70
     1
102
RTVSPropertyOp31
 70
     1
102
RTVSPropertyOp32
 70
     1
102
RTVSPropertyOp33
 70
     1
102
RTVSPropertyOp34
 70
     1
102
RTVSPropertyOp35
 70
     1
102
RTVSPropertyOp36
 70
     1
102
RTVSPropertyOp37
 70
     0
102
RTVSPropertyOp38
 70
     0
102
RTVSPropertyOp39
 70
     0
102
RTVSPropertyOp40
 70
     0
102
RTVSPropertyOp41
 70
     0
102
RTVSPropertyOp42
 70
     0
102
RTVSPropertyOp43
 70
     0
102
RTVSPropertyOp44
 70
     0
102
RTVSPropertyOp45
 70
     1
102
RTVSPropertyOp46
 70
     0
102
RTVSPropertyOp47
 70
     0
102
RTVSPropertyOp48
 70
     0
102
RTVSPropertyOp49
 70
     1
102
RTVSPropertyOp50
 70
     0
102
RTVSPropertyOp51
 70
     0
102
RTVSPropertyOp52
 70
     0
102
RTVSPropertyOp53
 70
     0
102
RTVSPropertyOp54
 70
     0
102
RTVSPropertyOp55
 70
     1
102
RTVSPropertyOp56
 70
     0
102
RTVSPropertyOp57
 70
     0
102
RTVSPropertyOp58
 70
     0
102
RTVSPropertyOp59
 70
     0
102
RTVSPropertyOp60
 70
     0
102
RTVSPropertyOp61
 70
     0
102
RTVSPropertyOp62
 70
     0
  0
XRECORD
  5
C30D
102
{ACAD_REACTORS
330
C30C
102
}
330
C30C
100
AcDbXrecord
280
     1
102
RTVSPost2010Prop28
280
     0
102
RTVSPost2010PropOp28
 70
     1
102
RTVSPost2010Prop29
280
     1
102
RTVSPost2010PropOp29
 70
     1
102
RTVSPost2010Prop30
280
     1
102
RTVSPost2010PropOp30
 70
     1
102
RTVSPost2010Prop31
280
     0
102
RTVSPost2010PropOp31
 70
     1
102
RTVSPost2010Prop32
280
     0
102
RTVSPost2010PropOp32
 70
     1
102
RTVSPost2010Prop33
280
     0
102
RTVSPost2010PropOp33
 70
     1
102
RTVSPost2010Prop34
280
     0
102
RTVSPost2010PropOp34
 70
     1
102
RTVSPost2010Prop35
280
     0
102
RTVSPost2010PropOp35
 70
     1
102
RTVSPost2010Prop36
280
     0
102
RTVSPost2010PropOp36
 70
     1
102
RTVSPost2010Prop37
 90
       50
102
RTVSPost2010PropOp37
 70
     1
102
RTVSPost2010Prop38
140
0.0
102
RTVSPost2010PropOp38
 70
     1
102
RTVSPost2010Prop39
140
1.0
102
RTVSPost2010PropOp39
 70
     1
102
RTVSPost2010Prop40
 90
        0
102
RTVSPost2010PropOp40
 70
     1
102
RTVSPost2010Prop41ColorIndex
 90
       18
102
RTVSPost2010Prop41ColorRGB
 90
        0
102
RTVSPost2010PropOp41
 70
     1
102
RTVSPost2010Prop42
 90
       50
102
RTVSPost2010PropOp42
 70
     1
102
RTVSPost2010Prop43
 90
        3
102
RTVSPost2010PropOp43
 70
     1
102
RTVSPost2010Prop44ColorIndex
 90
        5
102
RTVSPost2010Prop44ColorRGB
 90
      255
102
RTVSPost2010PropOp44
 70
     1
102
RTVSPost2010Prop45
280
     0
102
RTVSPost2010PropOp45
 70
     1
102
RTVSPost2010Prop46
 90
       50
102
RTVSPost2010PropOp46
 70
     1
102
RTVSPost2010Prop47
 90
       50
102
RTVSPost2010PropOp47
 70
     1
102
RTVSPost2010Prop48
 90
       50
102
RTVSPost2010PropOp48
 70
     1
102
RTVSPost2010Prop49
280
     0
102
RTVSPost2010PropOp49
 70
     1
102
RTVSPost2010Prop50
 90
       50
102
RTVSPost2010PropOp50
 70
     1
102
RTVSPost2010Prop51ColorIndex
 90
      256
102
RTVSPost2010Prop51ColorRGB
 90
-16777216
102
RTVSPost2010PropOp51
 70
     0
102
RTVSPost2010Prop52
140
1.0
102
RTVSPost2010PropOp52
 70
     0
102
RTVSPost2010Prop53
 90
        2
102
RTVSPost2010PropOp53
 70
     1
102
RTVSPost2010Prop54
  1
strokes_ogs.tif
102
RTVSPost2010PropOp54
 70
     1
102
RTVSPost2010Prop55
280
     0
102
RTVSPost2010PropOp55
 70
     1
102
RTVSPost2010Prop56
140
1.0
102
RTVSPost2010PropOp56
 70
     1
102
RTVSPost2010Prop57
140
1.0
102
RTVSPost2010PropOp57
 70
     1
102
RTVSPropertyOp0
 70
     1
102
RTVSPropertyOp1
 70
     1
102
RTVSPropertyOp2
 70
     1
102
RTVSPropertyOp3
 70
     1
102
RTVSPropertyOp4
 70
     1
102
RTVSPropertyOp5
 70
     1
102
RTVSPropertyOp6
 70
     1
102
RTVSPropertyOp7
 70
     1
102
RTVSPropertyOp8
 70
     1
102
RTVSPropertyOp9
 70
     1
102
RTVSPropertyOp10
 70
     1
102
RTVSPropertyOp11
 70
     1
102
RTVSPropertyOp12
 70
     1
102
RTVSPropertyOp13
 70
     1
102
RTVSPropertyOp14
 70
     1
102
RTVSPropertyOp15
 70
     1
102
RTVSPropertyOp16
 70
     1
102
RTVSPropertyOp17
 70
     1
102
RTVSPropertyOp18
 70
     1
102
RTVSPropertyOp19
 70
     1
102
RTVSPropertyOp20
 70
     1
102
RTVSPropertyOp21
 70
     1
102
RTVSPropertyOp22
 70
     1
102
RTVSPropertyOp23
 70
     1
102
RTVSPropertyOp24
 70
     1
102
RTVSPropertyOp25
 70
     1
102
RTVSPropertyOp26
 70
     1
102
RTVSPropertyOp27
 70
     1
102
RTVSPropertyOp28
 70
     1
102
RTVSPropertyOp29
 70
     1
102
RTVSPropertyOp30
 70
     1
102
RTVSPropertyOp31
 70
     1
102
RTVSPropertyOp32
 70
     1
102
RTVSPropertyOp33
 70
     1
102
RTVSPropertyOp34
 70
     1
102
RTVSPropertyOp35
 70
     1
102
RTVSPropertyOp36
 70
     1
102
RTVSPropertyOp37
 70
     1
102
RTVSPropertyOp38
 70
     1
102
RTVSPropertyOp39
 70
     1
102
RTVSPropertyOp40
 70
     1
102
RTVSPropertyOp41
 70
     1
102
RTVSPropertyOp42
 70
     1
102
RTVSPropertyOp43
 70
     1
102
RTVSPropertyOp44
 70
     1
102
RTVSPropertyOp45
 70
     1
102
RTVSPropertyOp46
 70
     1
102
RTVSPropertyOp47
 70
     1
102
RTVSPropertyOp48
 70
     1
102
RTVSPropertyOp49
 70
     1
102
RTVSPropertyOp50
 70
     1
102
RTVSPropertyOp51
 70
     0
102
RTVSPropertyOp52
 70
     0
102
RTVSPropertyOp53
 70
     1
102
RTVSPropertyOp54
 70
     1
102
RTVSPropertyOp55
 70
     1
102
RTVSPropertyOp56
 70
     1
102
RTVSPropertyOp57
 70
     1
102
RTVSPropertyOp58
 70
     1
102
RTVSPropertyOp59
 70
     1
102
RTVSPropertyOp60
 70
     1
102
RTVSPropertyOp61
 70
     1
102
RTVSPropertyOp62
 70
     1
  0
XRECORD
  5
C2F1
102
{ACAD_REACTORS
330
C2F0
102
}
330
C2F0
100
AcDbXrecord
280
     1
102
RTVSPost2010Prop28
280
     0
102
RTVSPost2010PropOp28
 70
     1
102
RTVSPost2010Prop29
280
     1
102
RTVSPost2010PropOp29
 70
     1
102
RTVSPost2010Prop30
280
     1
102
RTVSPost2010PropOp30
 70
     1
102
RTVSPost2010Prop31
280
     0
102
RTVSPost2010PropOp31
 70
     1
102
RTVSPost2010Prop32
280
     0
102
RTVSPost2010PropOp32
 70
     1
102
RTVSPost2010Prop33
280
     0
102
RTVSPost2010PropOp33
 70
     1
102
RTVSPost2010Prop34
280
     0
102
RTVSPost2010PropOp34
 70
     1
102
RTVSPost2010Prop35
280
     0
102
RTVSPost2010PropOp35
 70
     1
102
RTVSPost2010Prop36
280
     0
102
RTVSPost2010PropOp36
 70
     1
102
RTVSPost2010Prop37
 90
       50
102
RTVSPost2010PropOp37
 70
     1
102
RTVSPost2010Prop38
140
0.0
102
RTVSPost2010PropOp38
 70
     1
102
RTVSPost2010Prop39
140
1.0
102
RTVSPost2010PropOp39
 70
     1
102
RTVSPost2010Prop40
 90
        0
102
RTVSPost2010PropOp40
 70
     1
102
RTVSPost2010Prop41ColorIndex
 90
       18
102
RTVSPost2010Prop41ColorRGB
 90
        0
102
RTVSPost2010PropOp41
 70
     1
102
RTVSPost2010Prop42
 90
       50
102
RTVSPost2010PropOp42
 70
     1
102
RTVSPost2010Prop43
 90
        3
102
RTVSPost2010PropOp43
 70
     1
102
RTVSPost2010Prop44ColorIndex
 90
        5
102
RTVSPost2010Prop44ColorRGB
 90
      255
102
RTVSPost2010PropOp44
 70
     1
102
RTVSPost2010Prop45
280
     0
102
RTVSPost2010PropOp45
 70
     1
102
RTVSPost2010Prop46
 90
       50
102
RTVSPost2010PropOp46
 70
     1
102
RTVSPost2010Prop47
 90
       50
102
RTVSPost2010PropOp47
 70
     1
102
RTVSPost2010Prop48
 90
       50
102
RTVSPost2010PropOp48
 70
     1
102
RTVSPost2010Prop49
280
     0
102
RTVSPost2010PropOp49
 70
     1
102
RTVSPost2010Prop50
 90
       50
102
RTVSPost2010PropOp50
 70
     1
102
RTVSPost2010Prop51ColorIndex
 90
      256
102
RTVSPost2010Prop51ColorRGB
 90
-16777216
102
RTVSPost2010PropOp51
 70
     0
102
RTVSPost2010Prop52
140
1.0
102
RTVSPost2010PropOp52
 70
     0
102
RTVSPost2010Prop53
 90
        2
102
RTVSPost2010PropOp53
 70
     1
102
RTVSPost2010Prop54
  1
strokes_ogs.tif
102
RTVSPost2010PropOp54
 70
     1
102
RTVSPost2010Prop55
280
     0
102
RTVSPost2010PropOp55
 70
     1
102
RTVSPost2010Prop56
140
1.0
102
RTVSPost2010PropOp56
 70
     1
102
RTVSPost2010Prop57
140
1.0
102
RTVSPost2010PropOp57
 70
     1
102
RTVSPropertyOp0
 70
     1
102
RTVSPropertyOp1
 70
     1
102
RTVSPropertyOp2
 70
     1
102
RTVSPropertyOp3
 70
     1
102
RTVSPropertyOp4
 70
     1
102
RTVSPropertyOp5
 70
     1
102
RTVSPropertyOp6
 70
     1
102
RTVSPropertyOp7
 70
     1
102
RTVSPropertyOp8
 70
     1
102
RTVSPropertyOp9
 70
     1
102
RTVSPropertyOp10
 70
     1
102
RTVSPropertyOp11
 70
     1
102
RTVSPropertyOp12
 70
     1
102
RTVSPropertyOp13
 70
     1
102
RTVSPropertyOp14
 70
     1
102
RTVSPropertyOp15
 70
     1
102
RTVSPropertyOp16
 70
     1
102
RTVSPropertyOp17
 70
     1
102
RTVSPropertyOp18
 70
     1
102
RTVSPropertyOp19
 70
     1
102
RTVSPropertyOp20
 70
     1
102
RTVSPropertyOp21
 70
     1
102
RTVSPropertyOp22
 70
     1
102
RTVSPropertyOp23
 70
     1
102
RTVSPropertyOp24
 70
     1
102
RTVSPropertyOp25
 70
     1
102
RTVSPropertyOp26
 70
     1
102
RTVSPropertyOp27
 70
     1
102
RTVSPropertyOp28
 70
     1
102
RTVSPropertyOp29
 70
     1
102
RTVSPropertyOp30
 70
     1
102
RTVSPropertyOp31
 70
     1
102
RTVSPropertyOp32
 70
     1
102
RTVSPropertyOp33
 70
     1
102
RTVSPropertyOp34
 70
     1
102
RTVSPropertyOp35
 70
     1
102
RTVSPropertyOp36
 70
     1
102
RTVSPropertyOp37
 70
     1
102
RTVSPropertyOp38
 70
     1
102
RTVSPropertyOp39
 70
     1
102
RTVSPropertyOp40
 70
     1
102
RTVSPropertyOp41
 70
     1
102
RTVSPropertyOp42
 70
     1
102
RTVSPropertyOp43
 70
     1
102
RTVSPropertyOp44
 70
     1
102
RTVSPropertyOp45
 70
     1
102
RTVSPropertyOp46
 70
     1
102
RTVSPropertyOp47
 70
     1
102
RTVSPropertyOp48
 70
     1
102
RTVSPropertyOp49
 70
     1
102
RTVSPropertyOp50
 70
     1
102
RTVSPropertyOp51
 70
     0
102
RTVSPropertyOp52
 70
     0
102
RTVSPropertyOp53
 70
     1
102
RTVSPropertyOp54
 70
     1
102
RTVSPropertyOp55
 70
     1
102
RTVSPropertyOp56
 70
     1
102
RTVSPropertyOp57
 70
     1
102
RTVSPropertyOp58
 70
     1
102
RTVSPropertyOp59
 70
     1
102
RTVSPropertyOp60
 70
     1
102
RTVSPropertyOp61
 70
     1
102
RTVSPropertyOp62
 70
     1
  0
XRECORD
  5
C2F3
102
{ACAD_REACTORS
330
C2F2
102
}
330
C2F2
100
AcDbXrecord
280
     1
102
RTVSPost2010Prop28
280
     0
102
RTVSPost2010PropOp28
 70
     1
102
RTVSPost2010Prop29
280
     1
102
RTVSPost2010PropOp29
 70
     1
102
RTVSPost2010Prop30
280
     1
102
RTVSPost2010PropOp30
 70
     1
102
RTVSPost2010Prop31
280
     0
102
RTVSPost2010PropOp31
 70
     1
102
RTVSPost2010Prop32
280
     0
102
RTVSPost2010PropOp32
 70
     1
102
RTVSPost2010Prop33
280
     0
102
RTVSPost2010PropOp33
 70
     1
102
RTVSPost2010Prop34
280
     0
102
RTVSPost2010PropOp34
 70
     1
102
RTVSPost2010Prop35
280
     0
102
RTVSPost2010PropOp35
 70
     1
102
RTVSPost2010Prop36
280
     0
102
RTVSPost2010PropOp36
 70
     1
102
RTVSPost2010Prop37
 90
       50
102
RTVSPost2010PropOp37
 70
     1
102
RTVSPost2010Prop38
140
0.0
102
RTVSPost2010PropOp38
 70
     1
102
RTVSPost2010Prop39
140
1.0
102
RTVSPost2010PropOp39
 70
     1
102
RTVSPost2010Prop40
 90
        0
102
RTVSPost2010PropOp40
 70
     1
102
RTVSPost2010Prop41ColorIndex
 90
       18
102
RTVSPost2010Prop41ColorRGB
 90
        0
102
RTVSPost2010PropOp41
 70
     1
102
RTVSPost2010Prop42
 90
       50
102
RTVSPost2010PropOp42
 70
     1
102
RTVSPost2010Prop43
 90
        3
102
RTVSPost2010PropOp43
 70
     1
102
RTVSPost2010Prop44ColorIndex
 90
        5
102
RTVSPost2010Prop44ColorRGB
 90
      255
102
RTVSPost2010PropOp44
 70
     1
102
RTVSPost2010Prop45
280
     0
102
RTVSPost2010PropOp45
 70
     1
102
RTVSPost2010Prop46
 90
       50
102
RTVSPost2010PropOp46
 70
     1
102
RTVSPost2010Prop47
 90
       50
102
RTVSPost2010PropOp47
 70
     1
102
RTVSPost2010Prop48
 90
       50
102
RTVSPost2010PropOp48
 70
     1
102
RTVSPost2010Prop49
280
     0
102
RTVSPost2010PropOp49
 70
     1
102
RTVSPost2010Prop50
 90
       50
102
RTVSPost2010PropOp50
 70
     1
102
RTVSPost2010Prop51ColorIndex
 90
      256
102
RTVSPost2010Prop51ColorRGB
 90
-16777216
102
RTVSPost2010PropOp51
 70
     0
102
RTVSPost2010Prop52
140
1.0
102
RTVSPost2010PropOp52
 70
     0
102
RTVSPost2010Prop53
 90
        2
102
RTVSPost2010PropOp53
 70
     1
102
RTVSPost2010Prop54
  1
strokes_ogs.tif
102
RTVSPost2010PropOp54
 70
     1
102
RTVSPost2010Prop55
280
     0
102
RTVSPost2010PropOp55
 70
     1
102
RTVSPost2010Prop56
140
1.0
102
RTVSPost2010PropOp56
 70
     1
102
RTVSPost2010Prop57
140
1.0
102
RTVSPost2010PropOp57
 70
     1
102
RTVSPropertyOp0
 70
     1
102
RTVSPropertyOp1
 70
     1
102
RTVSPropertyOp2
 70
     1
102
RTVSPropertyOp3
 70
     1
102
RTVSPropertyOp4
 70
     1
102
RTVSPropertyOp5
 70
     1
102
RTVSPropertyOp6
 70
     1
102
RTVSPropertyOp7
 70
     1
102
RTVSPropertyOp8
 70
     1
102
RTVSPropertyOp9
 70
     1
102
RTVSPropertyOp10
 70
     1
102
RTVSPropertyOp11
 70
     1
102
RTVSPropertyOp12
 70
     1
102
RTVSPropertyOp13
 70
     1
102
RTVSPropertyOp14
 70
     1
102
RTVSPropertyOp15
 70
     1
102
RTVSPropertyOp16
 70
     1
102
RTVSPropertyOp17
 70
     1
102
RTVSPropertyOp18
 70
     1
102
RTVSPropertyOp19
 70
     1
102
RTVSPropertyOp20
 70
     1
102
RTVSPropertyOp21
 70
     1
102
RTVSPropertyOp22
 70
     1
102
RTVSPropertyOp23
 70
     1
102
RTVSPropertyOp24
 70
     1
102
RTVSPropertyOp25
 70
     1
102
RTVSPropertyOp26
 70
     1
102
RTVSPropertyOp27
 70
     1
102
RTVSPropertyOp28
 70
     1
102
RTVSPropertyOp29
 70
     1
102
RTVSPropertyOp30
 70
     1
102
RTVSPropertyOp31
 70
     1
102
RTVSPropertyOp32
 70
     1
102
RTVSPropertyOp33
 70
     1
102
RTVSPropertyOp34
 70
     1
102
RTVSPropertyOp35
 70
     1
102
RTVSPropertyOp36
 70
     1
102
RTVSPropertyOp37
 70
     1
102
RTVSPropertyOp38
 70
     1
102
RTVSPropertyOp39
 70
     1
102
RTVSPropertyOp40
 70
     1
102
RTVSPropertyOp41
 70
     1
102
RTVSPropertyOp42
 70
     1
102
RTVSPropertyOp43
 70
     1
102
RTVSPropertyOp44
 70
     1
102
RTVSPropertyOp45
 70
     1
102
RTVSPropertyOp46
 70
     1
102
RTVSPropertyOp47
 70
     1
102
RTVSPropertyOp48
 70
     1
102
RTVSPropertyOp49
 70
     1
102
RTVSPropertyOp50
 70
     1
102
RTVSPropertyOp51
 70
     0
102
RTVSPropertyOp52
 70
     0
102
RTVSPropertyOp53
 70
     1
102
RTVSPropertyOp54
 70
     1
102
RTVSPropertyOp55
 70
     1
102
RTVSPropertyOp56
 70
     1
102
RTVSPropertyOp57
 70
     1
102
RTVSPropertyOp58
 70
     1
102
RTVSPropertyOp59
 70
     1
102
RTVSPropertyOp60
 70
     1
102
RTVSPropertyOp61
 70
     1
102
RTVSPropertyOp62
 70
     1
  0
XRECORD
  5
C2F5
102
{ACAD_REACTORS
330
C2F4
102
}
330
C2F4
100
AcDbXrecord
280
     1
102
RTVSPost2010Prop28
280
     0
102
RTVSPost2010PropOp28
 70
     1
102
RTVSPost2010Prop29
280
     1
102
RTVSPost2010PropOp29
 70
     1
102
RTVSPost2010Prop30
280
     1
102
RTVSPost2010PropOp30
 70
     1
102
RTVSPost2010Prop31
280
     0
102
RTVSPost2010PropOp31
 70
     1
102
RTVSPost2010Prop32
280
     0
102
RTVSPost2010PropOp32
 70
     1
102
RTVSPost2010Prop33
280
     0
102
RTVSPost2010PropOp33
 70
     1
102
RTVSPost2010Prop34
280
     0
102
RTVSPost2010PropOp34
 70
     1
102
RTVSPost2010Prop35
280
     0
102
RTVSPost2010PropOp35
 70
     1
102
RTVSPost2010Prop36
280
     0
102
RTVSPost2010PropOp36
 70
     1
102
RTVSPost2010Prop37
 90
       50
102
RTVSPost2010PropOp37
 70
     1
102
RTVSPost2010Prop38
140
0.0
102
RTVSPost2010PropOp38
 70
     1
102
RTVSPost2010Prop39
140
1.0
102
RTVSPost2010PropOp39
 70
     1
102
RTVSPost2010Prop40
 90
        0
102
RTVSPost2010PropOp40
 70
     1
102
RTVSPost2010Prop41ColorIndex
 90
       18
102
RTVSPost2010Prop41ColorRGB
 90
        0
102
RTVSPost2010PropOp41
 70
     1
102
RTVSPost2010Prop42
 90
       50
102
RTVSPost2010PropOp42
 70
     1
102
RTVSPost2010Prop43
 90
        3
102
RTVSPost2010PropOp43
 70
     1
102
RTVSPost2010Prop44ColorIndex
 90
        5
102
RTVSPost2010Prop44ColorRGB
 90
      255
102
RTVSPost2010PropOp44
 70
     1
102
RTVSPost2010Prop45
280
     0
102
RTVSPost2010PropOp45
 70
     1
102
RTVSPost2010Prop46
 90
       50
102
RTVSPost2010PropOp46
 70
     1
102
RTVSPost2010Prop47
 90
       50
102
RTVSPost2010PropOp47
 70
     1
102
RTVSPost2010Prop48
 90
       50
102
RTVSPost2010PropOp48
 70
     1
102
RTVSPost2010Prop49
280
     0
102
RTVSPost2010PropOp49
 70
     1
102
RTVSPost2010Prop50
 90
       50
102
RTVSPost2010PropOp50
 70
     1
102
RTVSPost2010Prop51ColorIndex
 90
      256
102
RTVSPost2010Prop51ColorRGB
 90
-16777216
102
RTVSPost2010PropOp51
 70
     0
102
RTVSPost2010Prop52
140
1.0
102
RTVSPost2010PropOp52
 70
     0
102
RTVSPost2010Prop53
 90
        2
102
RTVSPost2010PropOp53
 70
     1
102
RTVSPost2010Prop54
  1
strokes_ogs.tif
102
RTVSPost2010PropOp54
 70
     1
102
RTVSPost2010Prop55
280
     0
102
RTVSPost2010PropOp55
 70
     1
102
RTVSPost2010Prop56
140
1.0
102
RTVSPost2010PropOp56
 70
     1
102
RTVSPost2010Prop57
140
1.0
102
RTVSPost2010PropOp57
 70
     1
102
RTVSPropertyOp0
 70
     1
102
RTVSPropertyOp1
 70
     1
102
RTVSPropertyOp2
 70
     1
102
RTVSPropertyOp3
 70
     1
102
RTVSPropertyOp4
 70
     1
102
RTVSPropertyOp5
 70
     1
102
RTVSPropertyOp6
 70
     1
102
RTVSPropertyOp7
 70
     1
102
RTVSPropertyOp8
 70
     1
102
RTVSPropertyOp9
 70
     1
102
RTVSPropertyOp10
 70
     1
102
RTVSPropertyOp11
 70
     1
102
RTVSPropertyOp12
 70
     1
102
RTVSPropertyOp13
 70
     1
102
RTVSPropertyOp14
 70
     1
102
RTVSPropertyOp15
 70
     1
102
RTVSPropertyOp16
 70
     1
102
RTVSPropertyOp17
 70
     1
102
RTVSPropertyOp18
 70
     1
102
RTVSPropertyOp19
 70
     1
102
RTVSPropertyOp20
 70
     1
102
RTVSPropertyOp21
 70
     1
102
RTVSPropertyOp22
 70
     1
102
RTVSPropertyOp23
 70
     1
102
RTVSPropertyOp24
 70
     1
102
RTVSPropertyOp25
 70
     1
102
RTVSPropertyOp26
 70
     1
102
RTVSPropertyOp27
 70
     1
102
RTVSPropertyOp28
 70
     1
102
RTVSPropertyOp29
 70
     1
102
RTVSPropertyOp30
 70
     1
102
RTVSPropertyOp31
 70
     1
102
RTVSPropertyOp32
 70
     1
102
RTVSPropertyOp33
 70
     1
102
RTVSPropertyOp34
 70
     1
102
RTVSPropertyOp35
 70
     1
102
RTVSPropertyOp36
 70
     1
102
RTVSPropertyOp37
 70
     1
102
RTVSPropertyOp38
 70
     1
102
RTVSPropertyOp39
 70
     1
102
RTVSPropertyOp40
 70
     1
102
RTVSPropertyOp41
 70
     1
102
RTVSPropertyOp42
 70
     1
102
RTVSPropertyOp43
 70
     1
102
RTVSPropertyOp44
 70
     1
102
RTVSPropertyOp45
 70
     1
102
RTVSPropertyOp46
 70
     1
102
RTVSPropertyOp47
 70
     1
102
RTVSPropertyOp48
 70
     1
102
RTVSPropertyOp49
 70
     1
102
RTVSPropertyOp50
 70
     1
102
RTVSPropertyOp51
 70
     0
102
RTVSPropertyOp52
 70
     0
102
RTVSPropertyOp53
 70
     1
102
RTVSPropertyOp54
 70
     1
102
RTVSPropertyOp55
 70
     1
102
RTVSPropertyOp56
 70
     1
102
RTVSPropertyOp57
 70
     1
102
RTVSPropertyOp58
 70
     1
102
RTVSPropertyOp59
 70
     1
102
RTVSPropertyOp60
 70
     1
102
RTVSPropertyOp61
 70
     1
102
RTVSPropertyOp62
 70
     1
  0
XRECORD
  5
C2F7
102
{ACAD_REACTORS
330
C2F6
102
}
330
C2F6
100
AcDbXrecord
280
     1
102
RTVSPost2010Prop28
280
     0
102
RTVSPost2010PropOp28
 70
     1
102
RTVSPost2010Prop29
280
     1
102
RTVSPost2010PropOp29
 70
     1
102
RTVSPost2010Prop30
280
     1
102
RTVSPost2010PropOp30
 70
     1
102
RTVSPost2010Prop31
280
     0
102
RTVSPost2010PropOp31
 70
     1
102
RTVSPost2010Prop32
280
     0
102
RTVSPost2010PropOp32
 70
     1
102
RTVSPost2010Prop33
280
     0
102
RTVSPost2010PropOp33
 70
     1
102
RTVSPost2010Prop34
280
     0
102
RTVSPost2010PropOp34
 70
     1
102
RTVSPost2010Prop35
280
     0
102
RTVSPost2010PropOp35
 70
     1
102
RTVSPost2010Prop36
280
     0
102
RTVSPost2010PropOp36
 70
     1
102
RTVSPost2010Prop37
 90
       50
102
RTVSPost2010PropOp37
 70
     1
102
RTVSPost2010Prop38
140
0.0
102
RTVSPost2010PropOp38
 70
     1
102
RTVSPost2010Prop39
140
1.0
102
RTVSPost2010PropOp39
 70
     1
102
RTVSPost2010Prop40
 90
        0
102
RTVSPost2010PropOp40
 70
     1
102
RTVSPost2010Prop41ColorIndex
 90
       18
102
RTVSPost2010Prop41ColorRGB
 90
        0
102
RTVSPost2010PropOp41
 70
     1
102
RTVSPost2010Prop42
 90
       50
102
RTVSPost2010PropOp42
 70
     1
102
RTVSPost2010Prop43
 90
        3
102
RTVSPost2010PropOp43
 70
     1
102
RTVSPost2010Prop44ColorIndex
 90
        5
102
RTVSPost2010Prop44ColorRGB
 90
      255
102
RTVSPost2010PropOp44
 70
     1
102
RTVSPost2010Prop45
280
     0
102
RTVSPost2010PropOp45
 70
     1
102
RTVSPost2010Prop46
 90
       50
102
RTVSPost2010PropOp46
 70
     1
102
RTVSPost2010Prop47
 90
       50
102
RTVSPost2010PropOp47
 70
     1
102
RTVSPost2010Prop48
 90
       50
102
RTVSPost2010PropOp48
 70
     1
102
RTVSPost2010Prop49
280
     0
102
RTVSPost2010PropOp49
 70
     1
102
RTVSPost2010Prop50
 90
       50
102
RTVSPost2010PropOp50
 70
     1
102
RTVSPost2010Prop51ColorIndex
 90
      256
102
RTVSPost2010Prop51ColorRGB
 90
-16777216
102
RTVSPost2010PropOp51
 70
     0
102
RTVSPost2010Prop52
140
1.0
102
RTVSPost2010PropOp52
 70
     0
102
RTVSPost2010Prop53
 90
        2
102
RTVSPost2010PropOp53
 70
     1
102
RTVSPost2010Prop54
  1
strokes_ogs.tif
102
RTVSPost2010PropOp54
 70
     1
102
RTVSPost2010Prop55
280
     0
102
RTVSPost2010PropOp55
 70
     1
102
RTVSPost2010Prop56
140
1.0
102
RTVSPost2010PropOp56
 70
     1
102
RTVSPost2010Prop57
140
1.0
102
RTVSPost2010PropOp57
 70
     1
102
RTVSPropertyOp0
 70
     1
102
RTVSPropertyOp1
 70
     1
102
RTVSPropertyOp2
 70
     1
102
RTVSPropertyOp3
 70
     1
102
RTVSPropertyOp4
 70
     1
102
RTVSPropertyOp5
 70
     1
102
RTVSPropertyOp6
 70
     1
102
RTVSPropertyOp7
 70
     1
102
RTVSPropertyOp8
 70
     1
102
RTVSPropertyOp9
 70
     1
102
RTVSPropertyOp10
 70
     1
102
RTVSPropertyOp11
 70
     1
102
RTVSPropertyOp12
 70
     1
102
RTVSPropertyOp13
 70
     1
102
RTVSPropertyOp14
 70
     1
102
RTVSPropertyOp15
 70
     1
102
RTVSPropertyOp16
 70
     1
102
RTVSPropertyOp17
 70
     1
102
RTVSPropertyOp18
 70
     1
102
RTVSPropertyOp19
 70
     1
102
RTVSPropertyOp20
 70
     1
102
RTVSPropertyOp21
 70
     1
102
RTVSPropertyOp22
 70
     1
102
RTVSPropertyOp23
 70
     1
102
RTVSPropertyOp24
 70
     1
102
RTVSPropertyOp25
 70
     1
102
RTVSPropertyOp26
 70
     1
102
RTVSPropertyOp27
 70
     1
102
RTVSPropertyOp28
 70
     1
102
RTVSPropertyOp29
 70
     1
102
RTVSPropertyOp30
 70
     1
102
RTVSPropertyOp31
 70
     1
102
RTVSPropertyOp32
 70
     1
102
RTVSPropertyOp33
 70
     1
102
RTVSPropertyOp34
 70
     1
102
RTVSPropertyOp35
 70
     1
102
RTVSPropertyOp36
 70
     1
102
RTVSPropertyOp37
 70
     1
102
RTVSPropertyOp38
 70
     1
102
RTVSPropertyOp39
 70
     1
102
RTVSPropertyOp40
 70
     1
102
RTVSPropertyOp41
 70
     1
102
RTVSPropertyOp42
 70
     1
102
RTVSPropertyOp43
 70
     1
102
RTVSPropertyOp44
 70
     1
102
RTVSPropertyOp45
 70
     1
102
RTVSPropertyOp46
 70
     1
102
RTVSPropertyOp47
 70
     1
102
RTVSPropertyOp48
 70
     1
102
RTVSPropertyOp49
 70
     1
102
RTVSPropertyOp50
 70
     1
102
RTVSPropertyOp51
 70
     0
102
RTVSPropertyOp52
 70
     0
102
RTVSPropertyOp53
 70
     1
102
RTVSPropertyOp54
 70
     1
102
RTVSPropertyOp55
 70
     1
102
RTVSPropertyOp56
 70
     1
102
RTVSPropertyOp57
 70
     1
102
RTVSPropertyOp58
 70
     1
102
RTVSPropertyOp59
 70
     1
102
RTVSPropertyOp60
 70
     1
102
RTVSPropertyOp61
 70
     1
102
RTVSPropertyOp62
 70
     1
  0
XRECORD
  5
C2FF
102
{ACAD_REACTORS
330
C2FE
102
}
330
C2FE
100
AcDbXrecord
280
     1
102
RTVSPost2010Prop28
280
     0
102
RTVSPost2010PropOp28
 70
     1
102
RTVSPost2010Prop29
280
     1
102
RTVSPost2010PropOp29
 70
     1
102
RTVSPost2010Prop30
280
     1
102
RTVSPost2010PropOp30
 70
     1
102
RTVSPost2010Prop31
280
     0
102
RTVSPost2010PropOp31
 70
     1
102
RTVSPost2010Prop32
280
     0
102
RTVSPost2010PropOp32
 70
     1
102
RTVSPost2010Prop33
280
     0
102
RTVSPost2010PropOp33
 70
     1
102
RTVSPost2010Prop34
280
     0
102
RTVSPost2010PropOp34
 70
     1
102
RTVSPost2010Prop35
280
     0
102
RTVSPost2010PropOp35
 70
     1
102
RTVSPost2010Prop36
280
     0
102
RTVSPost2010PropOp36
 70
     1
102
RTVSPost2010Prop37
 90
       50
102
RTVSPost2010PropOp37
 70
     1
102
RTVSPost2010Prop38
140
0.0
102
RTVSPost2010PropOp38
 70
     1
102
RTVSPost2010Prop39
140
1.0
102
RTVSPost2010PropOp39
 70
     1
102
RTVSPost2010Prop40
 90
        0
102
RTVSPost2010PropOp40
 70
     1
102
RTVSPost2010Prop41ColorIndex
 90
       18
102
RTVSPost2010Prop41ColorRGB
 90
        0
102
RTVSPost2010PropOp41
 70
     1
102
RTVSPost2010Prop42
 90
       50
102
RTVSPost2010PropOp42
 70
     1
102
RTVSPost2010Prop43
 90
        3
102
RTVSPost2010PropOp43
 70
     1
102
RTVSPost2010Prop44ColorIndex
 90
        5
102
RTVSPost2010Prop44ColorRGB
 90
      255
102
RTVSPost2010PropOp44
 70
     1
102
RTVSPost2010Prop45
280
     0
102
RTVSPost2010PropOp45
 70
     1
102
RTVSPost2010Prop46
 90
       50
102
RTVSPost2010PropOp46
 70
     1
102
RTVSPost2010Prop47
 90
       50
102
RTVSPost2010PropOp47
 70
     1
102
RTVSPost2010Prop48
 90
       50
102
RTVSPost2010PropOp48
 70
     1
102
RTVSPost2010Prop49
280
     0
102
RTVSPost2010PropOp49
 70
     1
102
RTVSPost2010Prop50
 90
       50
102
RTVSPost2010PropOp50
 70
     1
102
RTVSPost2010Prop51ColorIndex
 90
      256
102
RTVSPost2010Prop51ColorRGB
 90
-16777216
102
RTVSPost2010PropOp51
 70
     0
102
RTVSPost2010Prop52
140
1.0
102
RTVSPost2010PropOp52
 70
     0
102
RTVSPost2010Prop53
 90
        2
102
RTVSPost2010PropOp53
 70
     1
102
RTVSPost2010Prop54
  1
strokes_ogs.tif
102
RTVSPost2010PropOp54
 70
     1
102
RTVSPost2010Prop55
280
     0
102
RTVSPost2010PropOp55
 70
     1
102
RTVSPost2010Prop56
140
1.0
102
RTVSPost2010PropOp56
 70
     1
102
RTVSPost2010Prop57
140
1.0
102
RTVSPost2010PropOp57
 70
     1
102
RTVSPropertyOp0
 70
     1
102
RTVSPropertyOp1
 70
     1
102
RTVSPropertyOp2
 70
     1
102
RTVSPropertyOp3
 70
     1
102
RTVSPropertyOp4
 70
     1
102
RTVSPropertyOp5
 70
     1
102
RTVSPropertyOp6
 70
     1
102
RTVSPropertyOp7
 70
     1
102
RTVSPropertyOp8
 70
     1
102
RTVSPropertyOp9
 70
     1
102
RTVSPropertyOp10
 70
     1
102
RTVSPropertyOp11
 70
     1
102
RTVSPropertyOp12
 70
     1
102
RTVSPropertyOp13
 70
     1
102
RTVSPropertyOp14
 70
     1
102
RTVSPropertyOp15
 70
     1
102
RTVSPropertyOp16
 70
     1
102
RTVSPropertyOp17
 70
     1
102
RTVSPropertyOp18
 70
     1
102
RTVSPropertyOp19
 70
     1
102
RTVSPropertyOp20
 70
     1
102
RTVSPropertyOp21
 70
     1
102
RTVSPropertyOp22
 70
     1
102
RTVSPropertyOp23
 70
     1
102
RTVSPropertyOp24
 70
     1
102
RTVSPropertyOp25
 70
     1
102
RTVSPropertyOp26
 70
     1
102
RTVSPropertyOp27
 70
     1
102
RTVSPropertyOp28
 70
     1
102
RTVSPropertyOp29
 70
     1
102
RTVSPropertyOp30
 70
     1
102
RTVSPropertyOp31
 70
     1
102
RTVSPropertyOp32
 70
     1
102
RTVSPropertyOp33
 70
     1
102
RTVSPropertyOp34
 70
     1
102
RTVSPropertyOp35
 70
     1
102
RTVSPropertyOp36
 70
     1
102
RTVSPropertyOp37
 70
     1
102
RTVSPropertyOp38
 70
     1
102
RTVSPropertyOp39
 70
     1
102
RTVSPropertyOp40
 70
     1
102
RTVSPropertyOp41
 70
     1
102
RTVSPropertyOp42
 70
     1
102
RTVSPropertyOp43
 70
     1
102
RTVSPropertyOp44
 70
     1
102
RTVSPropertyOp45
 70
     1
102
RTVSPropertyOp46
 70
     1
102
RTVSPropertyOp47
 70
     1
102
RTVSPropertyOp48
 70
     1
102
RTVSPropertyOp49
 70
     1
102
RTVSPropertyOp50
 70
     1
102
RTVSPropertyOp51
 70
     0
102
RTVSPropertyOp52
 70
     0
102
RTVSPropertyOp53
 70
     1
102
RTVSPropertyOp54
 70
     1
102
RTVSPropertyOp55
 70
     1
102
RTVSPropertyOp56
 70
     1
102
RTVSPropertyOp57
 70
     1
102
RTVSPropertyOp58
 70
     1
102
RTVSPropertyOp59
 70
     1
102
RTVSPropertyOp60
 70
     1
102
RTVSPropertyOp61
 70
     1
102
RTVSPropertyOp62
 70
     1
  0
XRECORD
  5
C31B
102
{ACAD_REACTORS
330
C31A
102
}
330
C31A
100
AcDbXrecord
280
     1
102
RTVSPost2010Prop28
280
     0
102
RTVSPost2010PropOp28
 70
     1
102
RTVSPost2010Prop29
280
     1
102
RTVSPost2010PropOp29
 70
     1
102
RTVSPost2010Prop30
280
     1
102
RTVSPost2010PropOp30
 70
     1
102
RTVSPost2010Prop31
280
     0
102
RTVSPost2010PropOp31
 70
     1
102
RTVSPost2010Prop32
280
     0
102
RTVSPost2010PropOp32
 70
     1
102
RTVSPost2010Prop33
280
     0
102
RTVSPost2010PropOp33
 70
     1
102
RTVSPost2010Prop34
280
     0
102
RTVSPost2010PropOp34
 70
     1
102
RTVSPost2010Prop35
280
     0
102
RTVSPost2010PropOp35
 70
     1
102
RTVSPost2010Prop36
280
     0
102
RTVSPost2010PropOp36
 70
     1
102
RTVSPost2010Prop37
 90
       50
102
RTVSPost2010PropOp37
 70
     0
102
RTVSPost2010Prop38
140
0.0
102
RTVSPost2010PropOp38
 70
     0
102
RTVSPost2010Prop39
140
1.0
102
RTVSPost2010PropOp39
 70
     0
102
RTVSPost2010Prop40
 90
        0
102
RTVSPost2010PropOp40
 70
     0
102
RTVSPost2010Prop41ColorIndex
 90
       18
102
RTVSPost2010Prop41ColorRGB
 90
        0
102
RTVSPost2010PropOp41
 70
     0
102
RTVSPost2010Prop42
 90
       50
102
RTVSPost2010PropOp42
 70
     0
102
RTVSPost2010Prop43
 90
        3
102
RTVSPost2010PropOp43
 70
     0
102
RTVSPost2010Prop44ColorIndex
 90
        5
102
RTVSPost2010Prop44ColorRGB
 90
      255
102
RTVSPost2010PropOp44
 70
     0
102
RTVSPost2010Prop45
280
     0
102
RTVSPost2010PropOp45
 70
     1
102
RTVSPost2010Prop46
 90
       50
102
RTVSPost2010PropOp46
 70
     0
102
RTVSPost2010Prop47
 90
       50
102
RTVSPost2010PropOp47
 70
     0
102
RTVSPost2010Prop48
 90
       50
102
RTVSPost2010PropOp48
 70
     0
102
RTVSPost2010Prop49
280
     0
102
RTVSPost2010PropOp49
 70
     1
102
RTVSPost2010Prop50
 90
       50
102
RTVSPost2010PropOp50
 70
     0
102
RTVSPost2010Prop51ColorIndex
 90
      256
102
RTVSPost2010Prop51ColorRGB
 90
-16777216
102
RTVSPost2010PropOp51
 70
     0
102
RTVSPost2010Prop52
140
1.0
102
RTVSPost2010PropOp52
 70
     0
102
RTVSPost2010Prop53
 90
        2
102
RTVSPost2010PropOp53
 70
     0
102
RTVSPost2010Prop54
  1
strokes_ogs.tif
102
RTVSPost2010PropOp54
 70
     0
102
RTVSPost2010Prop55
280
     0
102
RTVSPost2010PropOp55
 70
     1
102
RTVSPost2010Prop56
140
1.0
102
RTVSPost2010PropOp56
 70
     0
102
RTVSPost2010Prop57
140
1.0
102
RTVSPost2010PropOp57
 70
     0
102
RTVSPropertyOp0
 70
     0
102
RTVSPropertyOp1
 70
     0
102
RTVSPropertyOp2
 70
     0
102
RTVSPropertyOp3
 70
     0
102
RTVSPropertyOp4
 70
     0
102
RTVSPropertyOp5
 70
     0
102
RTVSPropertyOp6
 70
     0
102
RTVSPropertyOp7
 70
     0
102
RTVSPropertyOp8
 70
     0
102
RTVSPropertyOp9
 70
     0
102
RTVSPropertyOp10
 70
     0
102
RTVSPropertyOp11
 70
     0
102
RTVSPropertyOp12
 70
     0
102
RTVSPropertyOp13
 70
     0
102
RTVSPropertyOp14
 70
     2
102
RTVSPropertyOp15
 70
     0
102
RTVSPropertyOp16
 70
     0
102
RTVSPropertyOp17
 70
     0
102
RTVSPropertyOp18
 70
     0
102
RTVSPropertyOp19
 70
     0
102
RTVSPropertyOp20
 70
     0
102
RTVSPropertyOp21
 70
     0
102
RTVSPropertyOp22
 70
     0
102
RTVSPropertyOp23
 70
     0
102
RTVSPropertyOp24
 70
     0
102
RTVSPropertyOp25
 70
     0
102
RTVSPropertyOp26
 70
     0
102
RTVSPropertyOp27
 70
     0
102
RTVSPropertyOp28
 70
     1
102
RTVSPropertyOp29
 70
     1
102
RTVSPropertyOp30
 70
     1
102
RTVSPropertyOp31
 70
     1
102
RTVSPropertyOp32
 70
     1
102
RTVSPropertyOp33
 70
     1
102
RTVSPropertyOp34
 70
     1
102
RTVSPropertyOp35
 70
     1
102
RTVSPropertyOp36
 70
     1
102
RTVSPropertyOp37
 70
     0
102
RTVSPropertyOp38
 70
     0
102
RTVSPropertyOp39
 70
     0
102
RTVSPropertyOp40
 70
     0
102
RTVSPropertyOp41
 70
     0
102
RTVSPropertyOp42
 70
     0
102
RTVSPropertyOp43
 70
     0
102
RTVSPropertyOp44
 70
     0
102
RTVSPropertyOp45
 70
     1
102
RTVSPropertyOp46
 70
     0
102
RTVSPropertyOp47
 70
     0
102
RTVSPropertyOp48
 70
     0
102
RTVSPropertyOp49
 70
     1
102
RTVSPropertyOp50
 70
     0
102
RTVSPropertyOp51
 70
     0
102
RTVSPropertyOp52
 70
     0
102
RTVSPropertyOp53
 70
     0
102
RTVSPropertyOp54
 70
     0
102
RTVSPropertyOp55
 70
     1
102
RTVSPropertyOp56
 70
     0
102
RTVSPropertyOp57
 70
     0
102
RTVSPropertyOp58
 70
     0
102
RTVSPropertyOp59
 70
     0
102
RTVSPropertyOp60
 70
     0
102
RTVSPropertyOp61
 70
     0
102
RTVSPropertyOp62
 70
     0
  0
XRECORD
  5
C30B
102
{ACAD_REACTORS
330
C30A
102
}
330
C30A
100
AcDbXrecord
280
     1
102
RTVSPost2010Prop28
280
     0
102
RTVSPost2010PropOp28
 70
     1
102
RTVSPost2010Prop29
280
     1
102
RTVSPost2010PropOp29
 70
     1
102
RTVSPost2010Prop30
280
     1
102
RTVSPost2010PropOp30
 70
     1
102
RTVSPost2010Prop31
280
     0
102
RTVSPost2010PropOp31
 70
     1
102
RTVSPost2010Prop32
280
     0
102
RTVSPost2010PropOp32
 70
     1
102
RTVSPost2010Prop33
280
     0
102
RTVSPost2010PropOp33
 70
     1
102
RTVSPost2010Prop34
280
     0
102
RTVSPost2010PropOp34
 70
     1
102
RTVSPost2010Prop35
280
     0
102
RTVSPost2010PropOp35
 70
     1
102
RTVSPost2010Prop36
280
     0
102
RTVSPost2010PropOp36
 70
     1
102
RTVSPost2010Prop37
 90
       50
102
RTVSPost2010PropOp37
 70
     1
102
RTVSPost2010Prop38
140
0.0
102
RTVSPost2010PropOp38
 70
     1
102
RTVSPost2010Prop39
140
1.0
102
RTVSPost2010PropOp39
 70
     1
102
RTVSPost2010Prop40
 90
        0
102
RTVSPost2010PropOp40
 70
     1
102
RTVSPost2010Prop41ColorIndex
 90
       18
102
RTVSPost2010Prop41ColorRGB
 90
        0
102
RTVSPost2010PropOp41
 70
     1
102
RTVSPost2010Prop42
 90
       50
102
RTVSPost2010PropOp42
 70
     1
102
RTVSPost2010Prop43
 90
        3
102
RTVSPost2010PropOp43
 70
     1
102
RTVSPost2010Prop44ColorIndex
 90
        5
102
RTVSPost2010Prop44ColorRGB
 90
      255
102
RTVSPost2010PropOp44
 70
     1
102
RTVSPost2010Prop45
280
     0
102
RTVSPost2010PropOp45
 70
     1
102
RTVSPost2010Prop46
 90
       50
102
RTVSPost2010PropOp46
 70
     1
102
RTVSPost2010Prop47
 90
       50
102
RTVSPost2010PropOp47
 70
     1
102
RTVSPost2010Prop48
 90
       50
102
RTVSPost2010PropOp48
 70
     1
102
RTVSPost2010Prop49
280
     0
102
RTVSPost2010PropOp49
 70
     1
102
RTVSPost2010Prop50
 90
       50
102
RTVSPost2010PropOp50
 70
     1
102
RTVSPost2010Prop51ColorIndex
 90
      256
102
RTVSPost2010Prop51ColorRGB
 90
-16777216
102
RTVSPost2010PropOp51
 70
     0
102
RTVSPost2010Prop52
140
1.0
102
RTVSPost2010PropOp52
 70
     0
102
RTVSPost2010Prop53
 90
        2
102
RTVSPost2010PropOp53
 70
     1
102
RTVSPost2010Prop54
  1
strokes_ogs.tif
102
RTVSPost2010PropOp54
 70
     1
102
RTVSPost2010Prop55
280
     0
102
RTVSPost2010PropOp55
 70
     1
102
RTVSPost2010Prop56
140
1.0
102
RTVSPost2010PropOp56
 70
     1
102
RTVSPost2010Prop57
140
1.0
102
RTVSPost2010PropOp57
 70
     1
102
RTVSPropertyOp0
 70
     1
102
RTVSPropertyOp1
 70
     1
102
RTVSPropertyOp2
 70
     1
102
RTVSPropertyOp3
 70
     1
102
RTVSPropertyOp4
 70
     1
102
RTVSPropertyOp5
 70
     1
102
RTVSPropertyOp6
 70
     1
102
RTVSPropertyOp7
 70
     1
102
RTVSPropertyOp8
 70
     1
102
RTVSPropertyOp9
 70
     1
102
RTVSPropertyOp10
 70
     1
102
RTVSPropertyOp11
 70
     1
102
RTVSPropertyOp12
 70
     1
102
RTVSPropertyOp13
 70
     1
102
RTVSPropertyOp14
 70
     1
102
RTVSPropertyOp15
 70
     1
102
RTVSPropertyOp16
 70
     1
102
RTVSPropertyOp17
 70
     1
102
RTVSPropertyOp18
 70
     1
102
RTVSPropertyOp19
 70
     1
102
RTVSPropertyOp20
 70
     1
102
RTVSPropertyOp21
 70
     1
102
RTVSPropertyOp22
 70
     1
102
RTVSPropertyOp23
 70
     1
102
RTVSPropertyOp24
 70
     1
102
RTVSPropertyOp25
 70
     1
102
RTVSPropertyOp26
 70
     1
102
RTVSPropertyOp27
 70
     1
102
RTVSPropertyOp28
 70
     1
102
RTVSPropertyOp29
 70
     1
102
RTVSPropertyOp30
 70
     1
102
RTVSPropertyOp31
 70
     1
102
RTVSPropertyOp32
 70
     1
102
RTVSPropertyOp33
 70
     1
102
RTVSPropertyOp34
 70
     1
102
RTVSPropertyOp35
 70
     1
102
RTVSPropertyOp36
 70
     1
102
RTVSPropertyOp37
 70
     1
102
RTVSPropertyOp38
 70
     1
102
RTVSPropertyOp39
 70
     1
102
RTVSPropertyOp40
 70
     1
102
RTVSPropertyOp41
 70
     1
102
RTVSPropertyOp42
 70
     1
102
RTVSPropertyOp43
 70
     1
102
RTVSPropertyOp44
 70
     1
102
RTVSPropertyOp45
 70
     1
102
RTVSPropertyOp46
 70
     1
102
RTVSPropertyOp47
 70
     1
102
RTVSPropertyOp48
 70
     1
102
RTVSPropertyOp49
 70
     1
102
RTVSPropertyOp50
 70
     1
102
RTVSPropertyOp51
 70
     0
102
RTVSPropertyOp52
 70
     0
102
RTVSPropertyOp53
 70
     1
102
RTVSPropertyOp54
 70
     1
102
RTVSPropertyOp55
 70
     1
102
RTVSPropertyOp56
 70
     1
102
RTVSPropertyOp57
 70
     1
102
RTVSPropertyOp58
 70
     1
102
RTVSPropertyOp59
 70
     1
102
RTVSPropertyOp60
 70
     1
102
RTVSPropertyOp61
 70
     1
102
RTVSPropertyOp62
 70
     1
  0
XRECORD
  5
C31D
102
{ACAD_REACTORS
330
C31C
102
}
330
C31C
100
AcDbXrecord
280
     1
102
RTVSPost2010Prop28
280
     0
102
RTVSPost2010PropOp28
 70
     1
102
RTVSPost2010Prop29
280
     1
102
RTVSPost2010PropOp29
 70
     1
102
RTVSPost2010Prop30
280
     1
102
RTVSPost2010PropOp30
 70
     1
102
RTVSPost2010Prop31
280
     0
102
RTVSPost2010PropOp31
 70
     1
102
RTVSPost2010Prop32
280
     0
102
RTVSPost2010PropOp32
 70
     1
102
RTVSPost2010Prop33
280
     0
102
RTVSPost2010PropOp33
 70
     1
102
RTVSPost2010Prop34
280
     0
102
RTVSPost2010PropOp34
 70
     1
102
RTVSPost2010Prop35
280
     0
102
RTVSPost2010PropOp35
 70
     1
102
RTVSPost2010Prop36
280
     0
102
RTVSPost2010PropOp36
 70
     1
102
RTVSPost2010Prop37
 90
       50
102
RTVSPost2010PropOp37
 70
     0
102
RTVSPost2010Prop38
140
0.0
102
RTVSPost2010PropOp38
 70
     0
102
RTVSPost2010Prop39
140
1.0
102
RTVSPost2010PropOp39
 70
     0
102
RTVSPost2010Prop40
 90
        0
102
RTVSPost2010PropOp40
 70
     0
102
RTVSPost2010Prop41ColorIndex
 90
       18
102
RTVSPost2010Prop41ColorRGB
 90
        0
102
RTVSPost2010PropOp41
 70
     0
102
RTVSPost2010Prop42
 90
       50
102
RTVSPost2010PropOp42
 70
     0
102
RTVSPost2010Prop43
 90
        3
102
RTVSPost2010PropOp43
 70
     0
102
RTVSPost2010Prop44ColorIndex
 90
        5
102
RTVSPost2010Prop44ColorRGB
 90
      255
102
RTVSPost2010PropOp44
 70
     0
102
RTVSPost2010Prop45
280
     0
102
RTVSPost2010PropOp45
 70
     1
102
RTVSPost2010Prop46
 90
       50
102
RTVSPost2010PropOp46
 70
     0
102
RTVSPost2010Prop47
 90
       50
102
RTVSPost2010PropOp47
 70
     0
102
RTVSPost2010Prop48
 90
       50
102
RTVSPost2010PropOp48
 70
     0
102
RTVSPost2010Prop49
280
     0
102
RTVSPost2010PropOp49
 70
     1
102
RTVSPost2010Prop50
 90
       50
102
RTVSPost2010PropOp50
 70
     0
102
RTVSPost2010Prop51ColorIndex
 90
      256
102
RTVSPost2010Prop51ColorRGB
 90
-16777216
102
RTVSPost2010PropOp51
 70
     0
102
RTVSPost2010Prop52
140
1.0
102
RTVSPost2010PropOp52
 70
     0
102
RTVSPost2010Prop53
 90
        2
102
RTVSPost2010PropOp53
 70
     0
102
RTVSPost2010Prop54
  1
strokes_ogs.tif
102
RTVSPost2010PropOp54
 70
     0
102
RTVSPost2010Prop55
280
     0
102
RTVSPost2010PropOp55
 70
     1
102
RTVSPost2010Prop56
140
1.0
102
RTVSPost2010PropOp56
 70
     0
102
RTVSPost2010Prop57
140
1.0
102
RTVSPost2010PropOp57
 70
     0
102
RTVSPropertyOp0
 70
     0
102
RTVSPropertyOp1
 70
     0
102
RTVSPropertyOp2
 70
     0
102
RTVSPropertyOp3
 70
     0
102
RTVSPropertyOp4
 70
     0
102
RTVSPropertyOp5
 70
     0
102
RTVSPropertyOp6
 70
     0
102
RTVSPropertyOp7
 70
     0
102
RTVSPropertyOp8
 70
     0
102
RTVSPropertyOp9
 70
     0
102
RTVSPropertyOp10
 70
     0
102
RTVSPropertyOp11
 70
     0
102
RTVSPropertyOp12
 70
     0
102
RTVSPropertyOp13
 70
     0
102
RTVSPropertyOp14
 70
     2
102
RTVSPropertyOp15
 70
     0
102
RTVSPropertyOp16
 70
     0
102
RTVSPropertyOp17
 70
     0
102
RTVSPropertyOp18
 70
     0
102
RTVSPropertyOp19
 70
     0
102
RTVSPropertyOp20
 70
     0
102
RTVSPropertyOp21
 70
     0
102
RTVSPropertyOp22
 70
     0
102
RTVSPropertyOp23
 70
     0
102
RTVSPropertyOp24
 70
     0
102
RTVSPropertyOp25
 70
     0
102
RTVSPropertyOp26
 70
     0
102
RTVSPropertyOp27
 70
     0
102
RTVSPropertyOp28
 70
     1
102
RTVSPropertyOp29
 70
     1
102
RTVSPropertyOp30
 70
     1
102
RTVSPropertyOp31
 70
     1
102
RTVSPropertyOp32
 70
     1
102
RTVSPropertyOp33
 70
     1
102
RTVSPropertyOp34
 70
     1
102
RTVSPropertyOp35
 70
     1
102
RTVSPropertyOp36
 70
     1
102
RTVSPropertyOp37
 70
     0
102
RTVSPropertyOp38
 70
     0
102
RTVSPropertyOp39
 70
     0
102
RTVSPropertyOp40
 70
     0
102
RTVSPropertyOp41
 70
     0
102
RTVSPropertyOp42
 70
     0
102
RTVSPropertyOp43
 70
     0
102
RTVSPropertyOp44
 70
     0
102
RTVSPropertyOp45
 70
     1
102
RTVSPropertyOp46
 70
     0
102
RTVSPropertyOp47
 70
     0
102
RTVSPropertyOp48
 70
     0
102
RTVSPropertyOp49
 70
     1
102
RTVSPropertyOp50
 70
     0
102
RTVSPropertyOp51
 70
     0
102
RTVSPropertyOp52
 70
     0
102
RTVSPropertyOp53
 70
     0
102
RTVSPropertyOp54
 70
     0
102
RTVSPropertyOp55
 70
     1
102
RTVSPropertyOp56
 70
     0
102
RTVSPropertyOp57
 70
     0
102
RTVSPropertyOp58
 70
     0
102
RTVSPropertyOp59
 70
     0
102
RTVSPropertyOp60
 70
     0
102
RTVSPropertyOp61
 70
     0
102
RTVSPropertyOp62
 70
     0
  0
XRECORD
  5
C303
102
{ACAD_REACTORS
330
C302
102
}
330
C302
100
AcDbXrecord
280
     1
102
RTVSPost2010Prop28
280
     0
102
RTVSPost2010PropOp28
 70
     1
102
RTVSPost2010Prop29
280
     1
102
RTVSPost2010PropOp29
 70
     1
102
RTVSPost2010Prop30
280
     1
102
RTVSPost2010PropOp30
 70
     1
102
RTVSPost2010Prop31
280
     0
102
RTVSPost2010PropOp31
 70
     1
102
RTVSPost2010Prop32
280
     0
102
RTVSPost2010PropOp32
 70
     1
102
RTVSPost2010Prop33
280
     0
102
RTVSPost2010PropOp33
 70
     1
102
RTVSPost2010Prop34
280
     0
102
RTVSPost2010PropOp34
 70
     1
102
RTVSPost2010Prop35
280
     0
102
RTVSPost2010PropOp35
 70
     1
102
RTVSPost2010Prop36
280
     0
102
RTVSPost2010PropOp36
 70
     1
102
RTVSPost2010Prop37
 90
       50
102
RTVSPost2010PropOp37
 70
     1
102
RTVSPost2010Prop38
140
0.0
102
RTVSPost2010PropOp38
 70
     1
102
RTVSPost2010Prop39
140
1.0
102
RTVSPost2010PropOp39
 70
     1
102
RTVSPost2010Prop40
 90
        0
102
RTVSPost2010PropOp40
 70
     1
102
RTVSPost2010Prop41ColorIndex
 90
       18
102
RTVSPost2010Prop41ColorRGB
 90
        0
102
RTVSPost2010PropOp41
 70
     1
102
RTVSPost2010Prop42
 90
       50
102
RTVSPost2010PropOp42
 70
     1
102
RTVSPost2010Prop43
 90
        3
102
RTVSPost2010PropOp43
 70
     1
102
RTVSPost2010Prop44ColorIndex
 90
        5
102
RTVSPost2010Prop44ColorRGB
 90
      255
102
RTVSPost2010PropOp44
 70
     1
102
RTVSPost2010Prop45
280
     0
102
RTVSPost2010PropOp45
 70
     1
102
RTVSPost2010Prop46
 90
       50
102
RTVSPost2010PropOp46
 70
     1
102
RTVSPost2010Prop47
 90
       50
102
RTVSPost2010PropOp47
 70
     1
102
RTVSPost2010Prop48
 90
       50
102
RTVSPost2010PropOp48
 70
     1
102
RTVSPost2010Prop49
280
     0
102
RTVSPost2010PropOp49
 70
     1
102
RTVSPost2010Prop50
 90
       50
102
RTVSPost2010PropOp50
 70
     1
102
RTVSPost2010Prop51ColorIndex
 90
      256
102
RTVSPost2010Prop51ColorRGB
 90
-16777216
102
RTVSPost2010PropOp51
 70
     0
102
RTVSPost2010Prop52
140
1.0
102
RTVSPost2010PropOp52
 70
     0
102
RTVSPost2010Prop53
 90
        2
102
RTVSPost2010PropOp53
 70
     1
102
RTVSPost2010Prop54
  1
strokes_ogs.tif
102
RTVSPost2010PropOp54
 70
     1
102
RTVSPost2010Prop55
280
     0
102
RTVSPost2010PropOp55
 70
     1
102
RTVSPost2010Prop56
140
1.0
102
RTVSPost2010PropOp56
 70
     1
102
RTVSPost2010Prop57
140
1.0
102
RTVSPost2010PropOp57
 70
     1
102
RTVSPropertyOp0
 70
     1
102
RTVSPropertyOp1
 70
     1
102
RTVSPropertyOp2
 70
     1
102
RTVSPropertyOp3
 70
     1
102
RTVSPropertyOp4
 70
     1
102
RTVSPropertyOp5
 70
     1
102
RTVSPropertyOp6
 70
     1
102
RTVSPropertyOp7
 70
     1
102
RTVSPropertyOp8
 70
     1
102
RTVSPropertyOp9
 70
     1
102
RTVSPropertyOp10
 70
     1
102
RTVSPropertyOp11
 70
     1
102
RTVSPropertyOp12
 70
     1
102
RTVSPropertyOp13
 70
     1
102
RTVSPropertyOp14
 70
     1
102
RTVSPropertyOp15
 70
     1
102
RTVSPropertyOp16
 70
     1
102
RTVSPropertyOp17
 70
     1
102
RTVSPropertyOp18
 70
     1
102
RTVSPropertyOp19
 70
     1
102
RTVSPropertyOp20
 70
     1
102
RTVSPropertyOp21
 70
     1
102
RTVSPropertyOp22
 70
     1
102
RTVSPropertyOp23
 70
     1
102
RTVSPropertyOp24
 70
     1
102
RTVSPropertyOp25
 70
     1
102
RTVSPropertyOp26
 70
     1
102
RTVSPropertyOp27
 70
     1
102
RTVSPropertyOp28
 70
     1
102
RTVSPropertyOp29
 70
     1
102
RTVSPropertyOp30
 70
     1
102
RTVSPropertyOp31
 70
     1
102
RTVSPropertyOp32
 70
     1
102
RTVSPropertyOp33
 70
     1
102
RTVSPropertyOp34
 70
     1
102
RTVSPropertyOp35
 70
     1
102
RTVSPropertyOp36
 70
     1
102
RTVSPropertyOp37
 70
     1
102
RTVSPropertyOp38
 70
     1
102
RTVSPropertyOp39
 70
     1
102
RTVSPropertyOp40
 70
     1
102
RTVSPropertyOp41
 70
     1
102
RTVSPropertyOp42
 70
     1
102
RTVSPropertyOp43
 70
     1
102
RTVSPropertyOp44
 70
     1
102
RTVSPropertyOp45
 70
     1
102
RTVSPropertyOp46
 70
     1
102
RTVSPropertyOp47
 70
     1
102
RTVSPropertyOp48
 70
     1
102
RTVSPropertyOp49
 70
     1
102
RTVSPropertyOp50
 70
     1
102
RTVSPropertyOp51
 70
     0
102
RTVSPropertyOp52
 70
     0
102
RTVSPropertyOp53
 70
     1
102
RTVSPropertyOp54
 70
     1
102
RTVSPropertyOp55
 70
     1
102
RTVSPropertyOp56
 70
     1
102
RTVSPropertyOp57
 70
     1
102
RTVSPropertyOp58
 70
     1
102
RTVSPropertyOp59
 70
     1
102
RTVSPropertyOp60
 70
     1
102
RTVSPropertyOp61
 70
     1
102
RTVSPropertyOp62
 70
     1
  0
XRECORD
  5
C319
102
{ACAD_REACTORS
330
C318
102
}
330
C318
100
AcDbXrecord
280
     1
102
RTVSPost2010Prop28
280
     0
102
RTVSPost2010PropOp28
 70
     1
102
RTVSPost2010Prop29
280
     1
102
RTVSPost2010PropOp29
 70
     1
102
RTVSPost2010Prop30
280
     1
102
RTVSPost2010PropOp30
 70
     1
102
RTVSPost2010Prop31
280
     0
102
RTVSPost2010PropOp31
 70
     1
102
RTVSPost2010Prop32
280
     0
102
RTVSPost2010PropOp32
 70
     1
102
RTVSPost2010Prop33
280
     0
102
RTVSPost2010PropOp33
 70
     1
102
RTVSPost2010Prop34
280
     0
102
RTVSPost2010PropOp34
 70
     1
102
RTVSPost2010Prop35
280
     0
102
RTVSPost2010PropOp35
 70
     1
102
RTVSPost2010Prop36
280
     0
102
RTVSPost2010PropOp36
 70
     1
102
RTVSPost2010Prop37
 90
       50
102
RTVSPost2010PropOp37
 70
     1
102
RTVSPost2010Prop38
140
0.0
102
RTVSPost2010PropOp38
 70
     1
102
RTVSPost2010Prop39
140
1.0
102
RTVSPost2010PropOp39
 70
     1
102
RTVSPost2010Prop40
 90
        0
102
RTVSPost2010PropOp40
 70
     1
102
RTVSPost2010Prop41ColorIndex
 90
       18
102
RTVSPost2010Prop41ColorRGB
 90
        0
102
RTVSPost2010PropOp41
 70
     1
102
RTVSPost2010Prop42
 90
       50
102
RTVSPost2010PropOp42
 70
     1
102
RTVSPost2010Prop43
 90
        3
102
RTVSPost2010PropOp43
 70
     1
102
RTVSPost2010Prop44ColorIndex
 90
        5
102
RTVSPost2010Prop44ColorRGB
 90
      255
102
RTVSPost2010PropOp44
 70
     1
102
RTVSPost2010Prop45
280
     0
102
RTVSPost2010PropOp45
 70
     1
102
RTVSPost2010Prop46
 90
       50
102
RTVSPost2010PropOp46
 70
     1
102
RTVSPost2010Prop47
 90
       50
102
RTVSPost2010PropOp47
 70
     1
102
RTVSPost2010Prop48
 90
       50
102
RTVSPost2010PropOp48
 70
     1
102
RTVSPost2010Prop49
280
     0
102
RTVSPost2010PropOp49
 70
     1
102
RTVSPost2010Prop50
 90
       50
102
RTVSPost2010PropOp50
 70
     1
102
RTVSPost2010Prop51ColorIndex
 90
      256
102
RTVSPost2010Prop51ColorRGB
 90
-16777216
102
RTVSPost2010PropOp51
 70
     0
102
RTVSPost2010Prop52
140
1.0
102
RTVSPost2010PropOp52
 70
     0
102
RTVSPost2010Prop53
 90
        2
102
RTVSPost2010PropOp53
 70
     1
102
RTVSPost2010Prop54
  1
strokes_ogs.tif
102
RTVSPost2010PropOp54
 70
     1
102
RTVSPost2010Prop55
280
     0
102
RTVSPost2010PropOp55
 70
     1
102
RTVSPost2010Prop56
140
1.0
102
RTVSPost2010PropOp56
 70
     1
102
RTVSPost2010Prop57
140
1.0
102
RTVSPost2010PropOp57
 70
     1
102
RTVSPropertyOp0
 70
     1
102
RTVSPropertyOp1
 70
     1
102
RTVSPropertyOp2
 70
     1
102
RTVSPropertyOp3
 70
     1
102
RTVSPropertyOp4
 70
     1
102
RTVSPropertyOp5
 70
     1
102
RTVSPropertyOp6
 70
     1
102
RTVSPropertyOp7
 70
     1
102
RTVSPropertyOp8
 70
     1
102
RTVSPropertyOp9
 70
     1
102
RTVSPropertyOp10
 70
     1
102
RTVSPropertyOp11
 70
     1
102
RTVSPropertyOp12
 70
     1
102
RTVSPropertyOp13
 70
     1
102
RTVSPropertyOp14
 70
     1
102
RTVSPropertyOp15
 70
     1
102
RTVSPropertyOp16
 70
     1
102
RTVSPropertyOp17
 70
     1
102
RTVSPropertyOp18
 70
     1
102
RTVSPropertyOp19
 70
     1
102
RTVSPropertyOp20
 70
     1
102
RTVSPropertyOp21
 70
     1
102
RTVSPropertyOp22
 70
     1
102
RTVSPropertyOp23
 70
     1
102
RTVSPropertyOp24
 70
     1
102
RTVSPropertyOp25
 70
     1
102
RTVSPropertyOp26
 70
     1
102
RTVSPropertyOp27
 70
     1
102
RTVSPropertyOp28
 70
     1
102
RTVSPropertyOp29
 70
     1
102
RTVSPropertyOp30
 70
     1
102
RTVSPropertyOp31
 70
     1
102
RTVSPropertyOp32
 70
     1
102
RTVSPropertyOp33
 70
     1
102
RTVSPropertyOp34
 70
     1
102
RTVSPropertyOp35
 70
     1
102
RTVSPropertyOp36
 70
     1
102
RTVSPropertyOp37
 70
     1
102
RTVSPropertyOp38
 70
     1
102
RTVSPropertyOp39
 70
     1
102
RTVSPropertyOp40
 70
     1
102
RTVSPropertyOp41
 70
     1
102
RTVSPropertyOp42
 70
     1
102
RTVSPropertyOp43
 70
     1
102
RTVSPropertyOp44
 70
     1
102
RTVSPropertyOp45
 70
     1
102
RTVSPropertyOp46
 70
     1
102
RTVSPropertyOp47
 70
     1
102
RTVSPropertyOp48
 70
     1
102
RTVSPropertyOp49
 70
     1
102
RTVSPropertyOp50
 70
     1
102
RTVSPropertyOp51
 70
     0
102
RTVSPropertyOp52
 70
     0
102
RTVSPropertyOp53
 70
     1
102
RTVSPropertyOp54
 70
     1
102
RTVSPropertyOp55
 70
     1
102
RTVSPropertyOp56
 70
     1
102
RTVSPropertyOp57
 70
     1
102
RTVSPropertyOp58
 70
     1
102
RTVSPropertyOp59
 70
     1
102
RTVSPropertyOp60
 70
     1
102
RTVSPropertyOp61
 70
     1
102
RTVSPropertyOp62
 70
     1
  0
XRECORD
  5
C317
102
{ACAD_REACTORS
330
C316
102
}
330
C316
100
AcDbXrecord
280
     1
102
RTVSPost2010Prop28
280
     0
102
RTVSPost2010PropOp28
 70
     1
102
RTVSPost2010Prop29
280
     1
102
RTVSPost2010PropOp29
 70
     1
102
RTVSPost2010Prop30
280
     1
102
RTVSPost2010PropOp30
 70
     1
102
RTVSPost2010Prop31
280
     0
102
RTVSPost2010PropOp31
 70
     1
102
RTVSPost2010Prop32
280
     0
102
RTVSPost2010PropOp32
 70
     1
102
RTVSPost2010Prop33
280
     0
102
RTVSPost2010PropOp33
 70
     1
102
RTVSPost2010Prop34
280
     0
102
RTVSPost2010PropOp34
 70
     1
102
RTVSPost2010Prop35
280
     0
102
RTVSPost2010PropOp35
 70
     1
102
RTVSPost2010Prop36
280
     0
102
RTVSPost2010PropOp36
 70
     1
102
RTVSPost2010Prop37
 90
       50
102
RTVSPost2010PropOp37
 70
     1
102
RTVSPost2010Prop38
140
0.0
102
RTVSPost2010PropOp38
 70
     1
102
RTVSPost2010Prop39
140
1.0
102
RTVSPost2010PropOp39
 70
     1
102
RTVSPost2010Prop40
 90
        0
102
RTVSPost2010PropOp40
 70
     1
102
RTVSPost2010Prop41ColorIndex
 90
       18
102
RTVSPost2010Prop41ColorRGB
 90
        0
102
RTVSPost2010PropOp41
 70
     1
102
RTVSPost2010Prop42
 90
       50
102
RTVSPost2010PropOp42
 70
     1
102
RTVSPost2010Prop43
 90
        3
102
RTVSPost2010PropOp43
 70
     1
102
RTVSPost2010Prop44ColorIndex
 90
        5
102
RTVSPost2010Prop44ColorRGB
 90
      255
102
RTVSPost2010PropOp44
 70
     1
102
RTVSPost2010Prop45
280
     0
102
RTVSPost2010PropOp45
 70
     1
102
RTVSPost2010Prop46
 90
       50
102
RTVSPost2010PropOp46
 70
     1
102
RTVSPost2010Prop47
 90
       50
102
RTVSPost2010PropOp47
 70
     1
102
RTVSPost2010Prop48
 90
       50
102
RTVSPost2010PropOp48
 70
     1
102
RTVSPost2010Prop49
280
     0
102
RTVSPost2010PropOp49
 70
     1
102
RTVSPost2010Prop50
 90
       50
102
RTVSPost2010PropOp50
 70
     1
102
RTVSPost2010Prop51ColorIndex
 90
      256
102
RTVSPost2010Prop51ColorRGB
 90
-16777216
102
RTVSPost2010PropOp51
 70
     0
102
RTVSPost2010Prop52
140
1.0
102
RTVSPost2010PropOp52
 70
     0
102
RTVSPost2010Prop53
 90
        2
102
RTVSPost2010PropOp53
 70
     1
102
RTVSPost2010Prop54
  1
strokes_ogs.tif
102
RTVSPost2010PropOp54
 70
     1
102
RTVSPost2010Prop55
280
     0
102
RTVSPost2010PropOp55
 70
     1
102
RTVSPost2010Prop56
140
1.0
102
RTVSPost2010PropOp56
 70
     1
102
RTVSPost2010Prop57
140
1.0
102
RTVSPost2010PropOp57
 70
     1
102
RTVSPropertyOp0
 70
     1
102
RTVSPropertyOp1
 70
     1
102
RTVSPropertyOp2
 70
     1
102
RTVSPropertyOp3
 70
     1
102
RTVSPropertyOp4
 70
     1
102
RTVSPropertyOp5
 70
     1
102
RTVSPropertyOp6
 70
     1
102
RTVSPropertyOp7
 70
     1
102
RTVSPropertyOp8
 70
     1
102
RTVSPropertyOp9
 70
     1
102
RTVSPropertyOp10
 70
     1
102
RTVSPropertyOp11
 70
     1
102
RTVSPropertyOp12
 70
     1
102
RTVSPropertyOp13
 70
     1
102
RTVSPropertyOp14
 70
     1
102
RTVSPropertyOp15
 70
     1
102
RTVSPropertyOp16
 70
     1
102
RTVSPropertyOp17
 70
     1
102
RTVSPropertyOp18
 70
     1
102
RTVSPropertyOp19
 70
     1
102
RTVSPropertyOp20
 70
     1
102
RTVSPropertyOp21
 70
     1
102
RTVSPropertyOp22
 70
     1
102
RTVSPropertyOp23
 70
     1
102
RTVSPropertyOp24
 70
     1
102
RTVSPropertyOp25
 70
     1
102
RTVSPropertyOp26
 70
     1
102
RTVSPropertyOp27
 70
     1
102
RTVSPropertyOp28
 70
     1
102
RTVSPropertyOp29
 70
     1
102
RTVSPropertyOp30
 70
     1
102
RTVSPropertyOp31
 70
     1
102
RTVSPropertyOp32
 70
     1
102
RTVSPropertyOp33
 70
     1
102
RTVSPropertyOp34
 70
     1
102
RTVSPropertyOp35
 70
     1
102
RTVSPropertyOp36
 70
     1
102
RTVSPropertyOp37
 70
     1
102
RTVSPropertyOp38
 70
     1
102
RTVSPropertyOp39
 70
     1
102
RTVSPropertyOp40
 70
     1
102
RTVSPropertyOp41
 70
     1
102
RTVSPropertyOp42
 70
     1
102
RTVSPropertyOp43
 70
     1
102
RTVSPropertyOp44
 70
     1
102
RTVSPropertyOp45
 70
     1
102
RTVSPropertyOp46
 70
     1
102
RTVSPropertyOp47
 70
     1
102
RTVSPropertyOp48
 70
     1
102
RTVSPropertyOp49
 70
     1
102
RTVSPropertyOp50
 70
     1
102
RTVSPropertyOp51
 70
     0
102
RTVSPropertyOp52
 70
     0
102
RTVSPropertyOp53
 70
     1
102
RTVSPropertyOp54
 70
     1
102
RTVSPropertyOp55
 70
     1
102
RTVSPropertyOp56
 70
     1
102
RTVSPropertyOp57
 70
     1
102
RTVSPropertyOp58
 70
     1
102
RTVSPropertyOp59
 70
     1
102
RTVSPropertyOp60
 70
     1
102
RTVSPropertyOp61
 70
     1
102
RTVSPropertyOp62
 70
     1
  0
XRECORD
  5
C311
102
{ACAD_REACTORS
330
C310
102
}
330
C310
100
AcDbXrecord
280
     1
102
RTVSPost2010Prop28
280
     0
102
RTVSPost2010PropOp28
 70
     1
102
RTVSPost2010Prop29
280
     1
102
RTVSPost2010PropOp29
 70
     1
102
RTVSPost2010Prop30
280
     1
102
RTVSPost2010PropOp30
 70
     1
102
RTVSPost2010Prop31
280
     0
102
RTVSPost2010PropOp31
 70
     1
102
RTVSPost2010Prop32
280
     0
102
RTVSPost2010PropOp32
 70
     1
102
RTVSPost2010Prop33
280
     0
102
RTVSPost2010PropOp33
 70
     1
102
RTVSPost2010Prop34
280
     0
102
RTVSPost2010PropOp34
 70
     1
102
RTVSPost2010Prop35
280
     0
102
RTVSPost2010PropOp35
 70
     1
102
RTVSPost2010Prop36
280
     0
102
RTVSPost2010PropOp36
 70
     1
102
RTVSPost2010Prop37
 90
       50
102
RTVSPost2010PropOp37
 70
     1
102
RTVSPost2010Prop38
140
0.0
102
RTVSPost2010PropOp38
 70
     1
102
RTVSPost2010Prop39
140
1.0
102
RTVSPost2010PropOp39
 70
     1
102
RTVSPost2010Prop40
 90
        0
102
RTVSPost2010PropOp40
 70
     1
102
RTVSPost2010Prop41ColorIndex
 90
       18
102
RTVSPost2010Prop41ColorRGB
 90
        0
102
RTVSPost2010PropOp41
 70
     1
102
RTVSPost2010Prop42
 90
       50
102
RTVSPost2010PropOp42
 70
     1
102
RTVSPost2010Prop43
 90
        3
102
RTVSPost2010PropOp43
 70
     1
102
RTVSPost2010Prop44ColorIndex
 90
        5
102
RTVSPost2010Prop44ColorRGB
 90
      255
102
RTVSPost2010PropOp44
 70
     1
102
RTVSPost2010Prop45
280
     0
102
RTVSPost2010PropOp45
 70
     1
102
RTVSPost2010Prop46
 90
       50
102
RTVSPost2010PropOp46
 70
     1
102
RTVSPost2010Prop47
 90
       50
102
RTVSPost2010PropOp47
 70
     1
102
RTVSPost2010Prop48
 90
       50
102
RTVSPost2010PropOp48
 70
     1
102
RTVSPost2010Prop49
280
     0
102
RTVSPost2010PropOp49
 70
     1
102
RTVSPost2010Prop50
 90
       50
102
RTVSPost2010PropOp50
 70
     1
102
RTVSPost2010Prop51ColorIndex
 90
      256
102
RTVSPost2010Prop51ColorRGB
 90
-16777216
102
RTVSPost2010PropOp51
 70
     0
102
RTVSPost2010Prop52
140
1.0
102
RTVSPost2010PropOp52
 70
     0
102
RTVSPost2010Prop53
 90
        2
102
RTVSPost2010PropOp53
 70
     1
102
RTVSPost2010Prop54
  1
strokes_ogs.tif
102
RTVSPost2010PropOp54
 70
     1
102
RTVSPost2010Prop55
280
     0
102
RTVSPost2010PropOp55
 70
     1
102
RTVSPost2010Prop56
140
1.0
102
RTVSPost2010PropOp56
 70
     1
102
RTVSPost2010Prop57
140
1.0
102
RTVSPost2010PropOp57
 70
     1
102
RTVSPropertyOp0
 70
     1
102
RTVSPropertyOp1
 70
     1
102
RTVSPropertyOp2
 70
     1
102
RTVSPropertyOp3
 70
     1
102
RTVSPropertyOp4
 70
     1
102
RTVSPropertyOp5
 70
     1
102
RTVSPropertyOp6
 70
     1
102
RTVSPropertyOp7
 70
     1
102
RTVSPropertyOp8
 70
     1
102
RTVSPropertyOp9
 70
     1
102
RTVSPropertyOp10
 70
     1
102
RTVSPropertyOp11
 70
     1
102
RTVSPropertyOp12
 70
     1
102
RTVSPropertyOp13
 70
     1
102
RTVSPropertyOp14
 70
     1
102
RTVSPropertyOp15
 70
     1
102
RTVSPropertyOp16
 70
     1
102
RTVSPropertyOp17
 70
     1
102
RTVSPropertyOp18
 70
     1
102
RTVSPropertyOp19
 70
     1
102
RTVSPropertyOp20
 70
     1
102
RTVSPropertyOp21
 70
     1
102
RTVSPropertyOp22
 70
     1
102
RTVSPropertyOp23
 70
     1
102
RTVSPropertyOp24
 70
     1
102
RTVSPropertyOp25
 70
     1
102
RTVSPropertyOp26
 70
     1
102
RTVSPropertyOp27
 70
     1
102
RTVSPropertyOp28
 70
     1
102
RTVSPropertyOp29
 70
     1
102
RTVSPropertyOp30
 70
     1
102
RTVSPropertyOp31
 70
     1
102
RTVSPropertyOp32
 70
     1
102
RTVSPropertyOp33
 70
     1
102
RTVSPropertyOp34
 70
     1
102
RTVSPropertyOp35
 70
     1
102
RTVSPropertyOp36
 70
     1
102
RTVSPropertyOp37
 70
     1
102
RTVSPropertyOp38
 70
     1
102
RTVSPropertyOp39
 70
     1
102
RTVSPropertyOp40
 70
     1
102
RTVSPropertyOp41
 70
     1
102
RTVSPropertyOp42
 70
     1
102
RTVSPropertyOp43
 70
     1
102
RTVSPropertyOp44
 70
     1
102
RTVSPropertyOp45
 70
     1
102
RTVSPropertyOp46
 70
     1
102
RTVSPropertyOp47
 70
     1
102
RTVSPropertyOp48
 70
     1
102
RTVSPropertyOp49
 70
     1
102
RTVSPropertyOp50
 70
     1
102
RTVSPropertyOp51
 70
     0
102
RTVSPropertyOp52
 70
     0
102
RTVSPropertyOp53
 70
     1
102
RTVSPropertyOp54
 70
     1
102
RTVSPropertyOp55
 70
     1
102
RTVSPropertyOp56
 70
     1
102
RTVSPropertyOp57
 70
     1
102
RTVSPropertyOp58
 70
     1
102
RTVSPropertyOp59
 70
     1
102
RTVSPropertyOp60
 70
     1
102
RTVSPropertyOp61
 70
     1
102
RTVSPropertyOp62
 70
     1
  0
XRECORD
  5
C313
102
{ACAD_REACTORS
330
C312
102
}
330
C312
100
AcDbXrecord
280
     1
102
RTVSPost2010Prop28
280
     0
102
RTVSPost2010PropOp28
 70
     1
102
RTVSPost2010Prop29
280
     1
102
RTVSPost2010PropOp29
 70
     1
102
RTVSPost2010Prop30
280
     1
102
RTVSPost2010PropOp30
 70
     1
102
RTVSPost2010Prop31
280
     0
102
RTVSPost2010PropOp31
 70
     1
102
RTVSPost2010Prop32
280
     0
102
RTVSPost2010PropOp32
 70
     1
102
RTVSPost2010Prop33
280
     0
102
RTVSPost2010PropOp33
 70
     1
102
RTVSPost2010Prop34
280
     0
102
RTVSPost2010PropOp34
 70
     1
102
RTVSPost2010Prop35
280
     0
102
RTVSPost2010PropOp35
 70
     1
102
RTVSPost2010Prop36
280
     0
102
RTVSPost2010PropOp36
 70
     1
102
RTVSPost2010Prop37
 90
       50
102
RTVSPost2010PropOp37
 70
     1
102
RTVSPost2010Prop38
140
0.0
102
RTVSPost2010PropOp38
 70
     1
102
RTVSPost2010Prop39
140
1.0
102
RTVSPost2010PropOp39
 70
     1
102
RTVSPost2010Prop40
 90
        0
102
RTVSPost2010PropOp40
 70
     1
102
RTVSPost2010Prop41ColorIndex
 90
       18
102
RTVSPost2010Prop41ColorRGB
 90
        0
102
RTVSPost2010PropOp41
 70
     1
102
RTVSPost2010Prop42
 90
       50
102
RTVSPost2010PropOp42
 70
     1
102
RTVSPost2010Prop43
 90
        3
102
RTVSPost2010PropOp43
 70
     1
102
RTVSPost2010Prop44ColorIndex
 90
        5
102
RTVSPost2010Prop44ColorRGB
 90
      255
102
RTVSPost2010PropOp44
 70
     1
102
RTVSPost2010Prop45
280
     0
102
RTVSPost2010PropOp45
 70
     1
102
RTVSPost2010Prop46
 90
       50
102
RTVSPost2010PropOp46
 70
     1
102
RTVSPost2010Prop47
 90
       50
102
RTVSPost2010PropOp47
 70
     1
102
RTVSPost2010Prop48
 90
       50
102
RTVSPost2010PropOp48
 70
     1
102
RTVSPost2010Prop49
280
     0
102
RTVSPost2010PropOp49
 70
     1
102
RTVSPost2010Prop50
 90
       50
102
RTVSPost2010PropOp50
 70
     1
102
RTVSPost2010Prop51ColorIndex
 90
      256
102
RTVSPost2010Prop51ColorRGB
 90
-16777216
102
RTVSPost2010PropOp51
 70
     0
102
RTVSPost2010Prop52
140
1.0
102
RTVSPost2010PropOp52
 70
     0
102
RTVSPost2010Prop53
 90
        2
102
RTVSPost2010PropOp53
 70
     1
102
RTVSPost2010Prop54
  1
strokes_ogs.tif
102
RTVSPost2010PropOp54
 70
     1
102
RTVSPost2010Prop55
280
     0
102
RTVSPost2010PropOp55
 70
     1
102
RTVSPost2010Prop56
140
1.0
102
RTVSPost2010PropOp56
 70
     1
102
RTVSPost2010Prop57
140
1.0
102
RTVSPost2010PropOp57
 70
     1
102
RTVSPropertyOp0
 70
     1
102
RTVSPropertyOp1
 70
     1
102
RTVSPropertyOp2
 70
     1
102
RTVSPropertyOp3
 70
     1
102
RTVSPropertyOp4
 70
     1
102
RTVSPropertyOp5
 70
     1
102
RTVSPropertyOp6
 70
     1
102
RTVSPropertyOp7
 70
     1
102
RTVSPropertyOp8
 70
     1
102
RTVSPropertyOp9
 70
     1
102
RTVSPropertyOp10
 70
     1
102
RTVSPropertyOp11
 70
     1
102
RTVSPropertyOp12
 70
     1
102
RTVSPropertyOp13
 70
     1
102
RTVSPropertyOp14
 70
     1
102
RTVSPropertyOp15
 70
     1
102
RTVSPropertyOp16
 70
     1
102
RTVSPropertyOp17
 70
     1
102
RTVSPropertyOp18
 70
     1
102
RTVSPropertyOp19
 70
     1
102
RTVSPropertyOp20
 70
     1
102
RTVSPropertyOp21
 70
     1
102
RTVSPropertyOp22
 70
     1
102
RTVSPropertyOp23
 70
     1
102
RTVSPropertyOp24
 70
     1
102
RTVSPropertyOp25
 70
     1
102
RTVSPropertyOp26
 70
     1
102
RTVSPropertyOp27
 70
     1
102
RTVSPropertyOp28
 70
     1
102
RTVSPropertyOp29
 70
     1
102
RTVSPropertyOp30
 70
     1
102
RTVSPropertyOp31
 70
     1
102
RTVSPropertyOp32
 70
     1
102
RTVSPropertyOp33
 70
     1
102
RTVSPropertyOp34
 70
     1
102
RTVSPropertyOp35
 70
     1
102
RTVSPropertyOp36
 70
     1
102
RTVSPropertyOp37
 70
     1
102
RTVSPropertyOp38
 70
     1
102
RTVSPropertyOp39
 70
     1
102
RTVSPropertyOp40
 70
     1
102
RTVSPropertyOp41
 70
     1
102
RTVSPropertyOp42
 70
     1
102
RTVSPropertyOp43
 70
     1
102
RTVSPropertyOp44
 70
     1
102
RTVSPropertyOp45
 70
     1
102
RTVSPropertyOp46
 70
     1
102
RTVSPropertyOp47
 70
     1
102
RTVSPropertyOp48
 70
     1
102
RTVSPropertyOp49
 70
     1
102
RTVSPropertyOp50
 70
     1
102
RTVSPropertyOp51
 70
     0
102
RTVSPropertyOp52
 70
     0
102
RTVSPropertyOp53
 70
     1
102
RTVSPropertyOp54
 70
     1
102
RTVSPropertyOp55
 70
     1
102
RTVSPropertyOp56
 70
     1
102
RTVSPropertyOp57
 70
     1
102
RTVSPropertyOp58
 70
     1
102
RTVSPropertyOp59
 70
     1
102
RTVSPropertyOp60
 70
     1
102
RTVSPropertyOp61
 70
     1
102
RTVSPropertyOp62
 70
     1
  0
XRECORD
  5
C309
102
{ACAD_REACTORS
330
C308
102
}
330
C308
100
AcDbXrecord
280
     1
102
RTVSPost2010Prop28
280
     0
102
RTVSPost2010PropOp28
 70
     1
102
RTVSPost2010Prop29
280
     1
102
RTVSPost2010PropOp29
 70
     1
102
RTVSPost2010Prop30
280
     1
102
RTVSPost2010PropOp30
 70
     1
102
RTVSPost2010Prop31
280
     0
102
RTVSPost2010PropOp31
 70
     1
102
RTVSPost2010Prop32
280
     0
102
RTVSPost2010PropOp32
 70
     1
102
RTVSPost2010Prop33
280
     0
102
RTVSPost2010PropOp33
 70
     1
102
RTVSPost2010Prop34
280
     0
102
RTVSPost2010PropOp34
 70
     1
102
RTVSPost2010Prop35
280
     0
102
RTVSPost2010PropOp35
 70
     1
102
RTVSPost2010Prop36
280
     0
102
RTVSPost2010PropOp36
 70
     1
102
RTVSPost2010Prop37
 90
       50
102
RTVSPost2010PropOp37
 70
     1
102
RTVSPost2010Prop38
140
0.0
102
RTVSPost2010PropOp38
 70
     1
102
RTVSPost2010Prop39
140
1.0
102
RTVSPost2010PropOp39
 70
     1
102
RTVSPost2010Prop40
 90
        0
102
RTVSPost2010PropOp40
 70
     1
102
RTVSPost2010Prop41ColorIndex
 90
       18
102
RTVSPost2010Prop41ColorRGB
 90
        0
102
RTVSPost2010PropOp41
 70
     1
102
RTVSPost2010Prop42
 90
       50
102
RTVSPost2010PropOp42
 70
     1
102
RTVSPost2010Prop43
 90
        3
102
RTVSPost2010PropOp43
 70
     1
102
RTVSPost2010Prop44ColorIndex
 90
        5
102
RTVSPost2010Prop44ColorRGB
 90
      255
102
RTVSPost2010PropOp44
 70
     1
102
RTVSPost2010Prop45
280
     0
102
RTVSPost2010PropOp45
 70
     1
102
RTVSPost2010Prop46
 90
       50
102
RTVSPost2010PropOp46
 70
     1
102
RTVSPost2010Prop47
 90
       50
102
RTVSPost2010PropOp47
 70
     1
102
RTVSPost2010Prop48
 90
       50
102
RTVSPost2010PropOp48
 70
     1
102
RTVSPost2010Prop49
280
     0
102
RTVSPost2010PropOp49
 70
     1
102
RTVSPost2010Prop50
 90
       50
102
RTVSPost2010PropOp50
 70
     1
102
RTVSPost2010Prop51ColorIndex
 90
      256
102
RTVSPost2010Prop51ColorRGB
 90
-16777216
102
RTVSPost2010PropOp51
 70
     0
102
RTVSPost2010Prop52
140
1.0
102
RTVSPost2010PropOp52
 70
     0
102
RTVSPost2010Prop53
 90
        2
102
RTVSPost2010PropOp53
 70
     1
102
RTVSPost2010Prop54
  1
strokes_ogs.tif
102
RTVSPost2010PropOp54
 70
     1
102
RTVSPost2010Prop55
280
     0
102
RTVSPost2010PropOp55
 70
     1
102
RTVSPost2010Prop56
140
1.0
102
RTVSPost2010PropOp56
 70
     1
102
RTVSPost2010Prop57
140
1.0
102
RTVSPost2010PropOp57
 70
     1
102
RTVSPropertyOp0
 70
     1
102
RTVSPropertyOp1
 70
     1
102
RTVSPropertyOp2
 70
     1
102
RTVSPropertyOp3
 70
     1
102
RTVSPropertyOp4
 70
     1
102
RTVSPropertyOp5
 70
     1
102
RTVSPropertyOp6
 70
     1
102
RTVSPropertyOp7
 70
     1
102
RTVSPropertyOp8
 70
     1
102
RTVSPropertyOp9
 70
     1
102
RTVSPropertyOp10
 70
     1
102
RTVSPropertyOp11
 70
     1
102
RTVSPropertyOp12
 70
     1
102
RTVSPropertyOp13
 70
     1
102
RTVSPropertyOp14
 70
     1
102
RTVSPropertyOp15
 70
     1
102
RTVSPropertyOp16
 70
     1
102
RTVSPropertyOp17
 70
     1
102
RTVSPropertyOp18
 70
     1
102
RTVSPropertyOp19
 70
     1
102
RTVSPropertyOp20
 70
     1
102
RTVSPropertyOp21
 70
     1
102
RTVSPropertyOp22
 70
     1
102
RTVSPropertyOp23
 70
     1
102
RTVSPropertyOp24
 70
     1
102
RTVSPropertyOp25
 70
     1
102
RTVSPropertyOp26
 70
     1
102
RTVSPropertyOp27
 70
     1
102
RTVSPropertyOp28
 70
     1
102
RTVSPropertyOp29
 70
     1
102
RTVSPropertyOp30
 70
     1
102
RTVSPropertyOp31
 70
     1
102
RTVSPropertyOp32
 70
     1
102
RTVSPropertyOp33
 70
     1
102
RTVSPropertyOp34
 70
     1
102
RTVSPropertyOp35
 70
     1
102
RTVSPropertyOp36
 70
     1
102
RTVSPropertyOp37
 70
     1
102
RTVSPropertyOp38
 70
     1
102
RTVSPropertyOp39
 70
     1
102
RTVSPropertyOp40
 70
     1
102
RTVSPropertyOp41
 70
     1
102
RTVSPropertyOp42
 70
     1
102
RTVSPropertyOp43
 70
     1
102
RTVSPropertyOp44
 70
     1
102
RTVSPropertyOp45
 70
     1
102
RTVSPropertyOp46
 70
     1
102
RTVSPropertyOp47
 70
     1
102
RTVSPropertyOp48
 70
     1
102
RTVSPropertyOp49
 70
     1
102
RTVSPropertyOp50
 70
     1
102
RTVSPropertyOp51
 70
     0
102
RTVSPropertyOp52
 70
     0
102
RTVSPropertyOp53
 70
     1
102
RTVSPropertyOp54
 70
     1
102
RTVSPropertyOp55
 70
     1
102
RTVSPropertyOp56
 70
     1
102
RTVSPropertyOp57
 70
     1
102
RTVSPropertyOp58
 70
     1
102
RTVSPropertyOp59
 70
     1
102
RTVSPropertyOp60
 70
     1
102
RTVSPropertyOp61
 70
     1
102
RTVSPropertyOp62
 70
     1
  0
XRECORD
  5
C2FD
102
{ACAD_REACTORS
330
C2FC
102
}
330
C2FC
100
AcDbXrecord
280
     1
102
RTVSPost2010Prop28
280
     0
102
RTVSPost2010PropOp28
 70
     1
102
RTVSPost2010Prop29
280
     1
102
RTVSPost2010PropOp29
 70
     1
102
RTVSPost2010Prop30
280
     1
102
RTVSPost2010PropOp30
 70
     1
102
RTVSPost2010Prop31
280
     0
102
RTVSPost2010PropOp31
 70
     1
102
RTVSPost2010Prop32
280
     0
102
RTVSPost2010PropOp32
 70
     1
102
RTVSPost2010Prop33
280
     0
102
RTVSPost2010PropOp33
 70
     1
102
RTVSPost2010Prop34
280
     0
102
RTVSPost2010PropOp34
 70
     1
102
RTVSPost2010Prop35
280
     0
102
RTVSPost2010PropOp35
 70
     1
102
RTVSPost2010Prop36
280
     0
102
RTVSPost2010PropOp36
 70
     1
102
RTVSPost2010Prop37
 90
       50
102
RTVSPost2010PropOp37
 70
     1
102
RTVSPost2010Prop38
140
0.0
102
RTVSPost2010PropOp38
 70
     1
102
RTVSPost2010Prop39
140
1.0
102
RTVSPost2010PropOp39
 70
     1
102
RTVSPost2010Prop40
 90
        0
102
RTVSPost2010PropOp40
 70
     1
102
RTVSPost2010Prop41ColorIndex
 90
       18
102
RTVSPost2010Prop41ColorRGB
 90
        0
102
RTVSPost2010PropOp41
 70
     1
102
RTVSPost2010Prop42
 90
       50
102
RTVSPost2010PropOp42
 70
     1
102
RTVSPost2010Prop43
 90
        3
102
RTVSPost2010PropOp43
 70
     1
102
RTVSPost2010Prop44ColorIndex
 90
        5
102
RTVSPost2010Prop44ColorRGB
 90
      255
102
RTVSPost2010PropOp44
 70
     1
102
RTVSPost2010Prop45
280
     0
102
RTVSPost2010PropOp45
 70
     1
102
RTVSPost2010Prop46
 90
       50
102
RTVSPost2010PropOp46
 70
     1
102
RTVSPost2010Prop47
 90
       50
102
RTVSPost2010PropOp47
 70
     1
102
RTVSPost2010Prop48
 90
       50
102
RTVSPost2010PropOp48
 70
     1
102
RTVSPost2010Prop49
280
     0
102
RTVSPost2010PropOp49
 70
     1
102
RTVSPost2010Prop50
 90
       50
102
RTVSPost2010PropOp50
 70
     1
102
RTVSPost2010Prop51ColorIndex
 90
      256
102
RTVSPost2010Prop51ColorRGB
 90
-16777216
102
RTVSPost2010PropOp51
 70
     0
102
RTVSPost2010Prop52
140
1.0
102
RTVSPost2010PropOp52
 70
     0
102
RTVSPost2010Prop53
 90
        2
102
RTVSPost2010PropOp53
 70
     1
102
RTVSPost2010Prop54
  1
strokes_ogs.tif
102
RTVSPost2010PropOp54
 70
     1
102
RTVSPost2010Prop55
280
     0
102
RTVSPost2010PropOp55
 70
     1
102
RTVSPost2010Prop56
140
1.0
102
RTVSPost2010PropOp56
 70
     1
102
RTVSPost2010Prop57
140
1.0
102
RTVSPost2010PropOp57
 70
     1
102
RTVSPropertyOp0
 70
     1
102
RTVSPropertyOp1
 70
     1
102
RTVSPropertyOp2
 70
     1
102
RTVSPropertyOp3
 70
     1
102
RTVSPropertyOp4
 70
     1
102
RTVSPropertyOp5
 70
     1
102
RTVSPropertyOp6
 70
     1
102
RTVSPropertyOp7
 70
     1
102
RTVSPropertyOp8
 70
     1
102
RTVSPropertyOp9
 70
     1
102
RTVSPropertyOp10
 70
     1
102
RTVSPropertyOp11
 70
     1
102
RTVSPropertyOp12
 70
     1
102
RTVSPropertyOp13
 70
     1
102
RTVSPropertyOp14
 70
     1
102
RTVSPropertyOp15
 70
     1
102
RTVSPropertyOp16
 70
     1
102
RTVSPropertyOp17
 70
     1
102
RTVSPropertyOp18
 70
     1
102
RTVSPropertyOp19
 70
     1
102
RTVSPropertyOp20
 70
     1
102
RTVSPropertyOp21
 70
     1
102
RTVSPropertyOp22
 70
     1
102
RTVSPropertyOp23
 70
     1
102
RTVSPropertyOp24
 70
     1
102
RTVSPropertyOp25
 70
     1
102
RTVSPropertyOp26
 70
     1
102
RTVSPropertyOp27
 70
     1
102
RTVSPropertyOp28
 70
     1
102
RTVSPropertyOp29
 70
     1
102
RTVSPropertyOp30
 70
     1
102
RTVSPropertyOp31
 70
     1
102
RTVSPropertyOp32
 70
     1
102
RTVSPropertyOp33
 70
     1
102
RTVSPropertyOp34
 70
     1
102
RTVSPropertyOp35
 70
     1
102
RTVSPropertyOp36
 70
     1
102
RTVSPropertyOp37
 70
     1
102
RTVSPropertyOp38
 70
     1
102
RTVSPropertyOp39
 70
     1
102
RTVSPropertyOp40
 70
     1
102
RTVSPropertyOp41
 70
     1
102
RTVSPropertyOp42
 70
     1
102
RTVSPropertyOp43
 70
     1
102
RTVSPropertyOp44
 70
     1
102
RTVSPropertyOp45
 70
     1
102
RTVSPropertyOp46
 70
     1
102
RTVSPropertyOp47
 70
     1
102
RTVSPropertyOp48
 70
     1
102
RTVSPropertyOp49
 70
     1
102
RTVSPropertyOp50
 70
     1
102
RTVSPropertyOp51
 70
     0
102
RTVSPropertyOp52
 70
     0
102
RTVSPropertyOp53
 70
     1
102
RTVSPropertyOp54
 70
     1
102
RTVSPropertyOp55
 70
     1
102
RTVSPropertyOp56
 70
     1
102
RTVSPropertyOp57
 70
     1
102
RTVSPropertyOp58
 70
     1
102
RTVSPropertyOp59
 70
     1
102
RTVSPropertyOp60
 70
     1
102
RTVSPropertyOp61
 70
     1
102
RTVSPropertyOp62
 70
     1
  0
XRECORD
  5
C315
102
{ACAD_REACTORS
330
C314
102
}
330
C314
100
AcDbXrecord
280
     1
102
RTVSPost2010Prop28
280
     0
102
RTVSPost2010PropOp28
 70
     1
102
RTVSPost2010Prop29
280
     1
102
RTVSPost2010PropOp29
 70
     1
102
RTVSPost2010Prop30
280
     1
102
RTVSPost2010PropOp30
 70
     1
102
RTVSPost2010Prop31
280
     0
102
RTVSPost2010PropOp31
 70
     1
102
RTVSPost2010Prop32
280
     0
102
RTVSPost2010PropOp32
 70
     1
102
RTVSPost2010Prop33
280
     0
102
RTVSPost2010PropOp33
 70
     1
102
RTVSPost2010Prop34
280
     0
102
RTVSPost2010PropOp34
 70
     1
102
RTVSPost2010Prop35
280
     0
102
RTVSPost2010PropOp35
 70
     1
102
RTVSPost2010Prop36
280
     0
102
RTVSPost2010PropOp36
 70
     1
102
RTVSPost2010Prop37
 90
       50
102
RTVSPost2010PropOp37
 70
     1
102
RTVSPost2010Prop38
140
0.0
102
RTVSPost2010PropOp38
 70
     1
102
RTVSPost2010Prop39
140
1.0
102
RTVSPost2010PropOp39
 70
     1
102
RTVSPost2010Prop40
 90
        0
102
RTVSPost2010PropOp40
 70
     1
102
RTVSPost2010Prop41ColorIndex
 90
       18
102
RTVSPost2010Prop41ColorRGB
 90
        0
102
RTVSPost2010PropOp41
 70
     1
102
RTVSPost2010Prop42
 90
       50
102
RTVSPost2010PropOp42
 70
     1
102
RTVSPost2010Prop43
 90
        3
102
RTVSPost2010PropOp43
 70
     1
102
RTVSPost2010Prop44ColorIndex
 90
        5
102
RTVSPost2010Prop44ColorRGB
 90
      255
102
RTVSPost2010PropOp44
 70
     1
102
RTVSPost2010Prop45
280
     0
102
RTVSPost2010PropOp45
 70
     1
102
RTVSPost2010Prop46
 90
       50
102
RTVSPost2010PropOp46
 70
     1
102
RTVSPost2010Prop47
 90
       50
102
RTVSPost2010PropOp47
 70
     1
102
RTVSPost2010Prop48
 90
       50
102
RTVSPost2010PropOp48
 70
     1
102
RTVSPost2010Prop49
280
     0
102
RTVSPost2010PropOp49
 70
     1
102
RTVSPost2010Prop50
 90
       50
102
RTVSPost2010PropOp50
 70
     1
102
RTVSPost2010Prop51ColorIndex
 90
      256
102
RTVSPost2010Prop51ColorRGB
 90
-16777216
102
RTVSPost2010PropOp51
 70
     0
102
RTVSPost2010Prop52
140
1.0
102
RTVSPost2010PropOp52
 70
     0
102
RTVSPost2010Prop53
 90
        2
102
RTVSPost2010PropOp53
 70
     1
102
RTVSPost2010Prop54
  1
strokes_ogs.tif
102
RTVSPost2010PropOp54
 70
     1
102
RTVSPost2010Prop55
280
     0
102
RTVSPost2010PropOp55
 70
     1
102
RTVSPost2010Prop56
140
1.0
102
RTVSPost2010PropOp56
 70
     1
102
RTVSPost2010Prop57
140
1.0
102
RTVSPost2010PropOp57
 70
     1
102
RTVSPropertyOp0
 70
     1
102
RTVSPropertyOp1
 70
     1
102
RTVSPropertyOp2
 70
     1
102
RTVSPropertyOp3
 70
     1
102
RTVSPropertyOp4
 70
     1
102
RTVSPropertyOp5
 70
     1
102
RTVSPropertyOp6
 70
     1
102
RTVSPropertyOp7
 70
     1
102
RTVSPropertyOp8
 70
     1
102
RTVSPropertyOp9
 70
     1
102
RTVSPropertyOp10
 70
     1
102
RTVSPropertyOp11
 70
     1
102
RTVSPropertyOp12
 70
     1
102
RTVSPropertyOp13
 70
     1
102
RTVSPropertyOp14
 70
     1
102
RTVSPropertyOp15
 70
     1
102
RTVSPropertyOp16
 70
     1
102
RTVSPropertyOp17
 70
     1
102
RTVSPropertyOp18
 70
     1
102
RTVSPropertyOp19
 70
     1
102
RTVSPropertyOp20
 70
     1
102
RTVSPropertyOp21
 70
     1
102
RTVSPropertyOp22
 70
     1
102
RTVSPropertyOp23
 70
     1
102
RTVSPropertyOp24
 70
     1
102
RTVSPropertyOp25
 70
     1
102
RTVSPropertyOp26
 70
     1
102
RTVSPropertyOp27
 70
     1
102
RTVSPropertyOp28
 70
     1
102
RTVSPropertyOp29
 70
     1
102
RTVSPropertyOp30
 70
     1
102
RTVSPropertyOp31
 70
     1
102
RTVSPropertyOp32
 70
     1
102
RTVSPropertyOp33
 70
     1
102
RTVSPropertyOp34
 70
     1
102
RTVSPropertyOp35
 70
     1
102
RTVSPropertyOp36
 70
     1
102
RTVSPropertyOp37
 70
     1
102
RTVSPropertyOp38
 70
     1
102
RTVSPropertyOp39
 70
     1
102
RTVSPropertyOp40
 70
     1
102
RTVSPropertyOp41
 70
     1
102
RTVSPropertyOp42
 70
     1
102
RTVSPropertyOp43
 70
     1
102
RTVSPropertyOp44
 70
     1
102
RTVSPropertyOp45
 70
     1
102
RTVSPropertyOp46
 70
     1
102
RTVSPropertyOp47
 70
     1
102
RTVSPropertyOp48
 70
     1
102
RTVSPropertyOp49
 70
     1
102
RTVSPropertyOp50
 70
     1
102
RTVSPropertyOp51
 70
     0
102
RTVSPropertyOp52
 70
     0
102
RTVSPropertyOp53
 70
     1
102
RTVSPropertyOp54
 70
     1
102
RTVSPropertyOp55
 70
     1
102
RTVSPropertyOp56
 70
     1
102
RTVSPropertyOp57
 70
     1
102
RTVSPropertyOp58
 70
     1
102
RTVSPropertyOp59
 70
     1
102
RTVSPropertyOp60
 70
     1
102
RTVSPropertyOp61
 70
     1
102
RTVSPropertyOp62
 70
     1
  0
ENDSEC
  0
EOF
