  0
SECTION
  2
HEADER
  9
$ACADVER
  1
AC1015
  9
$ACADMAINTVER
 70
    20
  9
$DWGCODEPAGE
  3
ANSI_932
  9
$INSBASE
 10
0.0
 20
0.0
 30
0.0
  9
$EXTMIN
 10
9.99995
 20
9.999999999999998
 30
0.0
  9
$EXTMAX
 10
487.0
 20
322.0
 30
0.0
  9
$LIMMIN
 10
0.0
 20
0.0
  9
$LIMMAX
 10
495.0
 20
341.25
  9
$ORTHOMODE
 70
     0
  9
$REGENMODE
 70
     1
  9
$FILLMODE
 70
     1
  9
$QTEXTMODE
 70
     0
  9
$MIRRTEXT
 70
     1
  9
$LTSCALE
 40
20.0
  9
$ATTMODE
 70
     1
  9
$TEXTSIZE
 40
5.0
  9
$TRACEWID
 40
1.0
  9
$TEXTSTYLE
  7
STANDARD
  9
$CLAYER
  8
0
  9
$CELTYPE
  6
BYLAYER
  9
$CECOLOR
 62
   256
  9
$CELTSCALE
 40
1.0
  9
$DISPSILH
 70
     0
  9
$DIMSCALE
 40
1.0
  9
$DIMASZ
 40
3.0
  9
$DIMEXO
 40
1.0
  9
$DIMDLI
 40
10.0
  9
$DIMRND
 40
0.0
  9
$DIMDLE
 40
0.0
  9
$DIMEXE
 40
1.0
  9
$DIMTP
 40
0.0
  9
$DIMTM
 40
0.0
  9
$DIMTXT
 40
3.2
  9
$DIMCEN
 40
0.0
  9
$DIMTSZ
 40
0.0
  9
$DIMTOL
 70
     0
  9
$DIMLIM
 70
     0
  9
$DIMTIH
 70
     0
  9
$DIMTOH
 70
     0
  9
$DIMSE1
 70
     0
  9
$DIMSE2
 70
     0
  9
$DIMTAD
 70
     3
  9
$DIMZIN
 70
     8
  9
$DIMBLK
  1

  9
$DIMASO
 70
     1
  9
$DIMSHO
 70
     1
  9
$DIMPOST
  1

  9
$DIMAPOST
  1

  9
$DIMALT
 70
     0
  9
$DIMALTD
 70
     2
  9
$DIMALTF
 40
25.4
  9
$DIMLFAC
 40
1.0
  9
$DIMTOFL
 70
     1
  9
$DIMTVP
 40
0.0
  9
$DIMTIX
 70
     0
  9
$DIMSOXD
 70
     0
  9
$DIMSAH
 70
     1
  9
$DIMBLK1
  1
OPEN
  9
$DIMBLK2
  1
OPEN
  9
$DIMSTYLE
  2
STANDARD
  9
$DIMCLRD
 70
     0
  9
$DIMCLRE
 70
     0
  9
$DIMCLRT
 70
     0
  9
$DIMTFAC
 40
1.0
  9
$DIMGAP
 40
1.0
  9
$DIMJUST
 70
     0
  9
$DIMSD1
 70
     0
  9
$DIMSD2
 70
     0
  9
$DIMTOLJ
 70
     1
  9
$DIMTZIN
 70
     0
  9
$DIMALTZ
 70
     0
  9
$DIMALTTZ
 70
     0
  9
$DIMUPT
 70
     0
  9
$DIMDEC
 70
     4
  9
$DIMTDEC
 70
     4
  9
$DIMALTU
 70
     2
  9
$DIMALTTD
 70
     2
  9
$DIMTXSTY
  7
STANDARD
  9
$DIMAUNIT
 70
     0
  9
$DIMADEC
 70
     0
  9
$DIMALTRND
 40
0.0
  9
$DIMAZIN
 70
     0
  9
$DIMDSEP
 70
    46
  9
$DIMATFIT
 70
     3
  9
$DIMFRAC
 70
     0
  9
$DIMLDRBLK
  1
OPEN
  9
$DIMLUNIT
 70
     2
  9
$DIMLWD
 70
    -2
  9
$DIMLWE
 70
    -2
  9
$DIMTMOVE
 70
     0
  9
$LUNITS
 70
     2
  9
$LUPREC
 70
     4
  9
$SKETCHINC
 40
1.0
  9
$FILLETRAD
 40
3.0
  9
$AUNITS
 70
     0
  9
$AUPREC
 70
     2
  9
$MENU
  1
.
  9
$ELEVATION
 40
0.0
  9
$PELEVATION
 40
0.0
  9
$THICKNESS
 40
0.0
  9
$LIMCHECK
 70
     0
  9
$CHAMFERA
 40
10.0
  9
$CHAMFERB
 40
10.0
  9
$CHAMFERC
 40
0.0
  9
$CHAMFERD
 40
0.0
  9
$SKPOLY
 70
     0
  9
$TDCREATE
 40
2451301.385666551
  9
$TDUCREATE
 40
2451301.010666551
  9
$TDUPDATE
 40
2457192.686750683
  9
$TDUUPDATE
 40
2457192.311750683
  9
$TDINDWG
 40
0.0000103472
  9
$TDUSRTIMER
 40
0.0000100347
  9
$USRTIMER
 70
     1
  9
$ANGBASE
 50
0.0
  9
$ANGDIR
 70
     0
  9
$PDMODE
 70
    34
  9
$PDSIZE
 40
0.0
  9
$PLINEWID
 40
0.0
  9
$SPLFRAME
 70
     0
  9
$SPLINETYPE
 70
     6
  9
$SPLINESEGS
 70
     8
  9
$HANDSEED
  5
17059
  9
$SURFTAB1
 70
     6
  9
$SURFTAB2
 70
     6
  9
$SURFTYPE
 70
     6
  9
$SURFU
 70
     6
  9
$SURFV
 70
     6
  9
$UCSBASE
  2

  9
$UCSNAME
  2

  9
$UCSORG
 10
0.0
 20
0.0
 30
0.0
  9
$UCSXDIR
 10
1.0
 20
0.0
 30
0.0
  9
$UCSYDIR
 10
0.0
 20
1.0
 30
0.0
  9
$UCSORTHOREF
  2

  9
$UCSORTHOVIEW
 70
     0
  9
$UCSORGTOP
 10
0.0
 20
0.0
 30
0.0
  9
$UCSORGBOTTOM
 10
0.0
 20
0.0
 30
0.0
  9
$UCSORGLEFT
 10
0.0
 20
0.0
 30
0.0
  9
$UCSORGRIGHT
 10
0.0
 20
0.0
 30
0.0
  9
$UCSORGFRONT
 10
0.0
 20
0.0
 30
0.0
  9
$UCSORGBACK
 10
0.0
 20
0.0
 30
0.0
  9
$PUCSBASE
  2

  9
$PUCSNAME
  2

  9
$PUCSORG
 10
0.0
 20
0.0
 30
0.0
  9
$PUCSXDIR
 10
1.0
 20
0.0
 30
0.0
  9
$PUCSYDIR
 10
0.0
 20
1.0
 30
0.0
  9
$PUCSORTHOREF
  2

  9
$PUCSORTHOVIEW
 70
     0
  9
$PUCSORGTOP
 10
0.0
 20
0.0
 30
0.0
  9
$PUCSORGBOTTOM
 10
0.0
 20
0.0
 30
0.0
  9
$PUCSORGLEFT
 10
0.0
 20
0.0
 30
0.0
  9
$PUCSORGRIGHT
 10
0.0
 20
0.0
 30
0.0
  9
$PUCSORGFRONT
 10
0.0
 20
0.0
 30
0.0
  9
$PUCSORGBACK
 10
0.0
 20
0.0
 30
0.0
  9
$USERI1
 70
     0
  9
$USERI2
 70
     0
  9
$USERI3
 70
     0
  9
$USERI4
 70
     0
  9
$USERI5
 70
     0
  9
$USERR1
 40
0.0
  9
$USERR2
 40
0.0
  9
$USERR3
 40
0.0
  9
$USERR4
 40
0.0
  9
$USERR5
 40
0.0
  9
$WORLDVIEW
 70
     1
  9
$SHADEDGE
 70
     3
  9
$SHADEDIF
 70
    70
  9
$TILEMODE
 70
     1
  9
$MAXACTVP
 70
    16
  9
$PINSBASE
 10
0.0
 20
0.0
 30
0.0
  9
$PLIMCHECK
 70
     0
  9
$PEXTMIN
 10
1.000000000000000E+20
 20
1.000000000000000E+20
 30
1.000000000000000E+20
  9
$PEXTMAX
 10
-1.000000000000000E+20
 20
-1.000000000000000E+20
 30
-1.000000000000000E+20
  9
$PLIMMIN
 10
0.0
 20
0.0
  9
$PLIMMAX
 10
420.0
 20
297.0
  9
$UNITMODE
 70
     0
  9
$VISRETAIN
 70
     0
  9
$PLINEGEN
 70
     0
  9
$PSLTSCALE
 70
     0
  9
$TREEDEPTH
 70
  3020
  9
$CMLSTYLE
  2
STANDARD
  9
$CMLJUST
 70
     0
  9
$CMLSCALE
 40
1.0
  9
$PROXYGRAPHICS
 70
     1
  9
$MEASUREMENT
 70
     0
  9
$CELWEIGHT
370
    -1
  9
$ENDCAPS
280
     0
  9
$JOINSTYLE
280
     0
  9
$LWDISPLAY
290
     0
  9
$INSUNITS
 70
     0
  9
$HYPERLINKBASE
  1

  9
$STYLESHEET
  1

  9
$XEDIT
290
     1
  9
$CEPSNTYPE
380
     0
  9
$PSTYLEMODE
290
     1
  9
$FINGERPRINTGUID
  2
{80B19A50-6A94-4B24-B7D8-16971D910621}
  9
$VERSIONGUID
  2
{BF175443-E6DD-42AD-8578-3F7621A2D2DC}
  9
$EXTNAMES
290
     1
  9
$PSVPSCALE
 40
0.0
  9
$OLESTARTUP
290
     0
  0
ENDSEC
  0
SECTION
  2
CLASSES
  0
CLASS
  1
ACDBDICTIONARYWDFLT
  2
AcDbDictionaryWithDefault
  3
ObjectDBX Classes
 90
        0
280
     0
281
     0
  0
CLASS
  1
ACDBPLACEHOLDER
  2
AcDbPlaceHolder
  3
ObjectDBX Classes
 90
        0
280
     0
281
     0
  0
CLASS
  1
LAYOUT
  2
AcDbLayout
  3
ObjectDBX Classes
 90
        0
280
     0
281
     0
  0
CLASS
  1
DICTIONARYVAR
  2
AcDbDictionaryVar
  3
ObjectDBX Classes
 90
        0
280
     0
281
     0
  0
CLASS
  1
MATERIAL
  2
AcDbMaterial
  3
ObjectDBX Classes
 90
     1153
280
     0
281
     0
  0
CLASS
  1
VISUALSTYLE
  2
AcDbVisualStyle
  3
ObjectDBX Classes
 90
     4095
280
     0
281
     0
  0
CLASS
  1
TABLESTYLE
  2
AcDbTableStyle
  3
ObjectDBX Classes
 90
     4095
280
     0
281
     0
  0
CLASS
  1
SCALE
  2
AcDbScale
  3
ObjectDBX Classes
 90
     1153
280
     0
281
     0
  0
CLASS
  1
MLEADERSTYLE
  2
AcDbMLeaderStyle
  3
ACDB_MLEADERSTYLE_CLASS
 90
     4095
280
     0
281
     0
  0
CLASS
  1
ACDBSECTIONVIEWSTYLE
  2
AcDbSectionViewStyle
  3
ObjectDBX Classes
 90
     1025
280
     0
281
     0
  0
CLASS
  1
ACDBDETAILVIEWSTYLE
  2
AcDbDetailViewStyle
  3
ObjectDBX Classes
 90
     1025
280
     0
281
     0
  0
CLASS
  1
CELLSTYLEMAP
  2
AcDbCellStyleMap
  3
ObjectDBX Classes
 90
     1152
280
     0
281
     0
  0
ENDSEC
  0
SECTION
  2
TABLES
  0
TABLE
  2
VPORT
  5
16CEA
330
0
100
AcDbSymbolTable
 70
     1
  0
VPORT
  5
16FA2
330
16CEA
100
AcDbSymbolTableRecord
100
AcDbViewportTableRecord
  2
*ACTIVE
 70
     0
 10
0.0
 20
0.0
 11
1.0
 21
1.0
 12
343.0100057189104
 22
166.003733470429
 13
0.0
 23
0.0
 14
10.0
 24
10.0
 15
10.0
 25
10.0
 16
0.0
 26
0.0
 36
1.0
 17
0.0
 27
0.0
 37
0.0
 40
315.4810567901847
 41
2.35006605019815
 42
50.0
 43
0.0
 44
0.0
 50
0.0
 51
0.0
 71
     0
 72
   100
 73
     1
 74
     0
 75
     0
 76
     0
 77
     0
 78
     0
281
     0
 65
     1
110
0.0
120
0.0
130
0.0
111
1.0
121
0.0
131
0.0
112
0.0
122
1.0
132
0.0
 79
     0
146
0.0
1001
ACAD_NAV_VCDISPLAY
1070
     3
  0
ENDTAB
  0
TABLE
  2
LTYPE
  5
16CE7
330
0
100
AcDbSymbolTable
 70
     4
  0
LTYPE
  5
16CF5
330
16CE7
100
AcDbSymbolTableRecord
100
AcDbLinetypeTableRecord
  2
BYBLOCK
 70
     0
  3

 72
    65
 73
     0
 40
0.0
  0
LTYPE
  5
16CF6
330
16CE7
100
AcDbSymbolTableRecord
100
AcDbLinetypeTableRecord
  2
BYLAYER
 70
     0
  3

 72
    65
 73
     0
 40
0.0
  0
LTYPE
  5
16CF7
330
16CE7
100
AcDbSymbolTableRecord
100
AcDbLinetypeTableRecord
  2
CONTINUOUS
 70
     0
  3
Solid line
 72
    65
 73
     0
 40
0.0
  0
LTYPE
  5
16D05
330
16CE7
100
AcDbSymbolTableRecord
100
AcDbLinetypeTableRecord
  2
DASHED
 70
     0
  3
__ __ __ __ __ __ __ __ __ __ __ __ __ __ __ __
 72
    65
 73
     2
 40
0.75
 49
0.5
 74
     0
 49
-0.25
 74
     0
  0
LTYPE
  5
16D06
330
16CE7
100
AcDbSymbolTableRecord
100
AcDbLinetypeTableRecord
  2
CENTER
 70
     0
  3
____ _ ____ _ ____ _ ____ _ ____ _ ____ _ ____ 
 72
    65
 73
     4
 40
2.0
 49
1.25
 74
     0
 49
-0.25
 74
     0
 49
0.25
 74
     0
 49
-0.25
 74
     0
  0
LTYPE
  5
16D07
330
16CE7
100
AcDbSymbolTableRecord
100
AcDbLinetypeTableRecord
  2
PHANTOM
 70
     0
  3
______  __  __  ______  __  __  ______  __  __ 
 72
    65
 73
     6
 40
2.5
 49
1.25
 74
     0
 49
-0.25
 74
     0
 49
0.25
 74
     0
 49
-0.25
 74
     0
 49
0.25
 74
     0
 49
-0.25
 74
     0
  0
ENDTAB
  0
TABLE
  2
LAYER
  5
16CE4
330
0
100
AcDbSymbolTable
 70
     8
  0
LAYER
  5
16CF2
102
{ACAD_XDICTIONARY
360
16FFD
102
}
330
16CE4
100
AcDbSymbolTableRecord
100
AcDbLayerTableRecord
  2
0
 70
     0
 62
     7
  6
CONTINUOUS
370
    -3
390
16FAB
  0
LAYER
  5
16D08
102
{ACAD_XDICTIONARY
360
16FFF
102
}
330
16CE4
100
AcDbSymbolTableRecord
100
AcDbLayerTableRecord
  2
4
 70
     0
 62
     1
  6
CENTER
370
    -3
390
16FAB
  0
LAYER
  5
16D09
102
{ACAD_XDICTIONARY
360
17001
102
}
330
16CE4
100
AcDbSymbolTableRecord
100
AcDbLayerTableRecord
  2
5
 70
     0
 62
     6
  6
PHANTOM
370
    -3
390
16FAB
  0
LAYER
  5
16D0A
102
{ACAD_XDICTIONARY
360
17003
102
}
330
16CE4
100
AcDbSymbolTableRecord
100
AcDbLayerTableRecord
  2
1
 70
     0
 62
     7
  6
CONTINUOUS
370
    -3
390
16FAB
  0
LAYER
  5
16D0B
102
{ACAD_XDICTIONARY
360
17005
102
}
330
16CE4
100
AcDbSymbolTableRecord
100
AcDbLayerTableRecord
  2
2
 70
     0
 62
     4
  6
CONTINUOUS
370
    -3
390
16FAB
  0
LAYER
  5
16D0C
102
{ACAD_XDICTIONARY
360
17007
102
}
330
16CE4
100
AcDbSymbolTableRecord
100
AcDbLayerTableRecord
  2
3
 70
     0
 62
     2
  6
DASHED
370
    -3
390
16FAB
  0
LAYER
  5
16D0D
102
{ACAD_XDICTIONARY
360
17009
102
}
330
16CE4
100
AcDbSymbolTableRecord
100
AcDbLayerTableRecord
  2
6
 70
     0
 62
     5
  6
CONTINUOUS
370
    -3
390
16FAB
  0
LAYER
  5
16D0E
102
{ACAD_XDICTIONARY
360
1700B
102
}
330
16CE4
100
AcDbSymbolTableRecord
100
AcDbLayerTableRecord
  2
7
 70
     0
 62
     3
  6
CONTINUOUS
370
    -3
390
16FAB
  0
ENDTAB
  0
TABLE
  2
STYLE
  5
16CE5
330
0
100
AcDbSymbolTable
 70
     1
  0
STYLE
  5
16CF3
330
16CE5
100
AcDbSymbolTableRecord
100
AcDbTextStyleTableRecord
  2
STANDARD
 70
     0
 40
0.0
 41
1.0
 50
0.0
 71
     0
 42
5.0
  3
txt
  4

  0
ENDTAB
  0
TABLE
  2
VIEW
  5
16CE8
330
0
100
AcDbSymbolTable
 70
     2
  0
VIEW
  5
16D0F
330
16CE8
100
AcDbSymbolTableRecord
100
AcDbViewTableRecord
  2
7
 70
     0
 40
113.5991649999999
 10
207.7781589999999
 20
100.5444229999999
 41
223.824098
 11
0.0
 21
0.0
 31
1.0
 12
0.0
 22
0.0
 32
0.0
 42
50.0
 43
0.0
 44
0.0
 50
0.0
 71
     0
281
     0
 72
     0
  0
VIEW
  5
16D10
330
16CE8
100
AcDbSymbolTableRecord
100
AcDbViewTableRecord
  2
6
 70
     0
 40
267.146964
 10
253.9720659999999
 20
125.781695
 41
526.35887
 11
0.0
 21
0.0
 31
1.0
 12
0.0
 22
0.0
 32
0.0
 42
50.0
 43
0.0
 44
0.0
 50
0.0
 71
     0
281
     0
 72
     0
  0
ENDTAB
  0
TABLE
  2
UCS
  5
16CE9
330
0
100
AcDbSymbolTable
 70
     0
  0
ENDTAB
  0
TABLE
  2
APPID
  5
16CEB
330
0
100
AcDbSymbolTable
 70
     3
  0
APPID
  5
16CF4
330
16CEB
100
AcDbSymbolTableRecord
100
AcDbRegAppTableRecord
  2
ACAD
 70
     0
  0
APPID
  5
17017
330
16CEB
100
AcDbSymbolTableRecord
100
AcDbRegAppTableRecord
  2
ACAD_NAV_VCDISPLAY
 70
     0
  0
APPID
  5
17050
330
16CEB
100
AcDbSymbolTableRecord
100
AcDbRegAppTableRecord
  2
ACAD_MLEADERVER
 70
     0
  0
ENDTAB
  0
TABLE
  2
DIMSTYLE
  5
16CEC
330
0
100
AcDbSymbolTable
 70
     1
100
AcDbDimStyleTable
 71
     0
  0
DIMSTYLE
105
16D12
330
16CEC
100
AcDbSymbolTableRecord
100
AcDbDimStyleTableRecord
  2
STANDARD
 70
     0
 41
3.0
 42
1.0
 43
10.0
 44
1.0
 73
     0
 74
     0
 77
     3
 78
     8
140
3.2
141
0.0
147
1.0
172
     1
173
     1
284
     8
285
     8
286
     8
340
16CF3
  0
ENDTAB
  0
TABLE
  2
BLOCK_RECORD
  5
16CE3
330
0
100
AcDbSymbolTable
 70
     1
  0
BLOCK_RECORD
  5
16D00
102
{ACAD_XDICTIONARY
360
16FA5
102
}
330
16CE3
100
AcDbSymbolTableRecord
100
AcDbBlockTableRecord
  2
*MODEL_SPACE
340
16FF9
  0
BLOCK_RECORD
  5
16CFC
102
{ACAD_XDICTIONARY
360
16FA3
102
}
330
16CE3
100
AcDbSymbolTableRecord
100
AcDbBlockTableRecord
  2
*PAPER_SPACE
340
16FFA
  0
BLOCK_RECORD
  5
16D1A
330
16CE3
100
AcDbSymbolTableRecord
100
AcDbBlockTableRecord
  2
_OPEN
340
0
  0
ENDTAB
  0
ENDSEC
  0
SECTION
  2
BLOCKS
  0
BLOCK
  5
16D01
330
16D00
100
AcDbEntity
  8
0
100
AcDbBlockBegin
  2
*MODEL_SPACE
 70
     0
 10
0.0
 20
0.0
 30
0.0
  3
*MODEL_SPACE
  1

  0
ENDBLK
  5
16D02
330
16D00
100
AcDbEntity
  8
0
100
AcDbBlockEnd
  0
BLOCK
  5
16CFD
330
16CFC
100
AcDbEntity
 67
     1
  8
0
100
AcDbBlockBegin
  2
*PAPER_SPACE
 70
     0
 10
0.0
 20
0.0
 30
0.0
  3
*PAPER_SPACE
  1

  0
ENDBLK
  5
16CFE
330
16CFC
100
AcDbEntity
 67
     1
  8
0
100
AcDbBlockEnd
  0
BLOCK
  5
16D1B
330
16D1A
100
AcDbEntity
  8
0
100
AcDbBlockBegin
  2
_OPEN
 70
     0
 10
0.0
 20
0.0
 30
0.0
  3
_OPEN
  1

  0
LINE
  5
16D1C
330
16D1A
100
AcDbEntity
  8
0
  6
ByBlock
 62
     0
100
AcDbLine
 10
-1.0
 20
0.166667
 30
0.0
 11
0.0
 21
0.0
 31
0.0
  0
LINE
  5
16D1D
330
16D1A
100
AcDbEntity
  8
0
  6
ByBlock
 62
     0
100
AcDbLine
 10
0.0
 20
0.0
 30
0.0
 11
-1.0
 21
-0.166667
 31
0.0
  0
LINE
  5
16D1E
330
16D1A
100
AcDbEntity
  8
0
  6
ByBlock
 62
     0
100
AcDbLine
 10
0.0
 20
0.0
 30
0.0
 11
-1.0
 21
0.0
 31
0.0
  0
ENDBLK
  5
16D1F
330
16D1A
100
AcDbEntity
  8
0
100
AcDbBlockEnd
  0
ENDSEC
  0
SECTION
  2
ENTITIES
  0
TEXT
  5
16D20
330
16D00
100
AcDbEntity
  8
6
  6
Continuous
100
AcDbText
 10
27.97945
 20
10.0487
 30
0.0
 40
1.399999999999999
  1
6
 41
1.069393
100
AcDbText
  0
TEXT
  5
16D21
330
16D00
100
AcDbEntity
  8
1
  6
Continuous
100
AcDbText
 10
17.97945
 20
10.0487
 30
0.0
 40
1.399999999999999
  1
1
 41
1.069393
100
AcDbText
  0
TEXT
  5
16D22
330
16D00
100
AcDbEntity
  8
1
  6
Continuous
100
AcDbText
 10
9.99995
 20
10.0
 30
0.0
 40
1.399999999999999
  1
LAYER
 41
1.009912999999997
100
AcDbText
  0
TEXT
  5
16D23
330
16D00
100
AcDbEntity
  8
2
  6
Continuous
100
AcDbText
 10
19.97944999999998
 20
10.0487
 30
0.0
 40
1.399999999999999
  1
2
 41
1.069393
100
AcDbText
  0
TEXT
  5
16D24
330
16D00
100
AcDbEntity
  8
3
  6
DASHED
100
AcDbText
 10
21.97945
 20
10.0487
 30
0.0
 40
1.399999999999999
  1
3
 41
1.069393
100
AcDbText
  0
TEXT
  5
16D25
330
16D00
100
AcDbEntity
  8
4
  6
CENTER
100
AcDbText
 10
23.97944999999999
 20
10.0487
 30
0.0
 40
1.399999999999999
  1
4
 41
1.069393
100
AcDbText
  0
TEXT
  5
16D26
330
16D00
100
AcDbEntity
  8
5
  6
PHANTOM
100
AcDbText
 10
25.97945
 20
10.0487
 30
0.0
 40
1.399999999999999
  1
5
 41
1.069393
100
AcDbText
  0
TEXT
  5
16D27
330
16D00
100
AcDbEntity
  8
7
  6
Continuous
100
AcDbText
 10
10.00005
 20
26.0
 30
0.0
 40
3.0
  1
CODE No.9091
 41
1.003962999999999
100
AcDbText
  0
TEXT
  5
16D28
330
16D00
100
AcDbEntity
  8
7
  6
Continuous
100
AcDbText
 10
10.00005
 20
18.0
 30
0.0
 40
3.0
  1
TYPE No.104ZH-P
 41
1.002350999999998
100
AcDbText
  0
TEXT
  5
16D29
330
16D00
100
AcDbEntity
  8
7
  6
Continuous
100
AcDbText
 10
29.97944999999999
 20
10.0487
 30
0.0
 40
1.399999999999999
  1
7
 41
1.069393
100
AcDbText
  0
LINE
  5
16D2A
330
16D00
100
AcDbEntity
  8
4
  6
CENTER
100
AcDbLine
 10
89.19999999999998
 20
170.0
 30
0.0
 11
29.19999999999999
 21
170.0
 31
0.0
  0
LINE
  5
16D2B
330
16D00
100
AcDbEntity
  8
1
  6
Continuous
100
AcDbLine
 10
41.0
 20
197.944747
 30
0.0
 11
42.155253
 21
199.0999999999999
 31
0.0
  0
LINE
  5
16D2C
330
16D00
100
AcDbEntity
  8
1
  6
Continuous
100
AcDbLine
 10
43.066234
 20
203.2
 30
0.0
 11
40.566234
 21
205.6999999999999
 31
0.0
  0
LINE
  5
16D2D
330
16D00
100
AcDbEntity
  8
1
  6
Continuous
100
AcDbLine
 10
40.566234
 20
203.2
 30
0.0
 11
43.066234
 21
205.6999999999999
 31
0.0
  0
LINE
  5
16D2E
330
16D00
100
AcDbEntity
  8
1
  6
Continuous
100
AcDbLine
 10
72.0
 20
200.8999999999999
 30
0.0
 11
42.0
 21
200.8999999999999
 31
0.0
  0
LINE
  5
16D2F
330
16D00
100
AcDbEntity
  8
1
  6
Continuous
100
AcDbLine
 10
80.5
 20
203.2
 30
0.0
 11
33.5
 21
203.2
 31
0.0
  0
LINE
  5
16D30
330
16D00
100
AcDbEntity
  8
1
  6
Continuous
100
AcDbLine
 10
80.5
 20
205.6999999999999
 30
0.0
 11
33.5
 21
205.6999999999999
 31
0.0
  0
LINE
  5
16D31
330
16D00
100
AcDbEntity
  8
1
  6
Continuous
100
AcDbLine
 10
80.5
 20
206.6999999999999
 30
0.0
 11
33.5
 21
206.6999999999999
 31
0.0
  0
LINE
  5
16D32
330
16D00
100
AcDbEntity
  8
1
  6
Continuous
100
AcDbLine
 10
77.0
 20
208.6999999999999
 30
0.0
 11
37.0
 21
208.6999999999999
 31
0.0
  0
LINE
  5
16D33
330
16D00
100
AcDbEntity
  8
1
  6
Continuous
100
AcDbLine
 10
89.0
 20
210.6999999999999
 30
0.0
 11
25.0
 21
210.6999999999999
 31
0.0
  0
LINE
  5
16D34
330
16D00
100
AcDbEntity
  8
1
  6
Continuous
100
AcDbLine
 10
89.0
 20
213.0
 30
0.0
 11
25.0
 21
213.0
 31
0.0
  0
LINE
  5
16D35
330
16D00
100
AcDbEntity
  8
1
  6
Continuous
100
AcDbLine
 10
400.0
 20
210.6999999999999
 30
0.0
 11
464.0
 21
210.6999999999999
 31
0.0
  0
LINE
  5
16D36
330
16D00
100
AcDbEntity
  8
1
  6
Continuous
100
AcDbLine
 10
400.0
 20
213.0
 30
0.0
 11
464.0
 21
213.0
 31
0.0
  0
LINE
  5
16D37
330
16D00
100
AcDbEntity
  8
1
  6
Continuous
100
AcDbLine
 10
400.0
 20
213.0
 30
0.0
 11
400.0
 21
210.6999999999999
 31
0.0
  0
LINE
  5
16D38
330
16D00
100
AcDbEntity
  8
4
  6
CENTER
100
AcDbLine
 10
457.0
 20
140.0
 30
0.0
 11
457.0
 21
200.0
 31
0.0
  0
ARC
  5
16D39
330
16D00
100
AcDbEntity
  8
1
  6
Continuous
100
AcDbCircle
 10
457.0
 20
170.0
 30
0.0
 40
25.0
100
AcDbArc
 50
153.574506
 51
79.401002
  0
LINE
  5
16D3A
330
16D00
100
AcDbEntity
  8
4
  6
CENTER
100
AcDbLine
 10
427.0
 20
170.0
 30
0.0
 11
487.0
 21
170.0
 31
0.0
  0
ARC
  5
16D3B
330
16D00
100
AcDbEntity
  8
1
  6
Continuous
100
AcDbCircle
 10
457.0
 20
170.0
 30
0.0
 40
16.0
100
AcDbArc
 50
168.6754099999999
 51
60.86215599999999
  0
ARC
  5
16D3C
330
16D00
100
AcDbEntity
  8
1
  6
Continuous
100
AcDbCircle
 10
457.0
 20
170.0
 30
0.0
 40
17.0
100
AcDbArc
 50
166.0257259999999
 51
64.23939799999999
  0
ARC
  5
16D3D
330
16D00
100
AcDbEntity
  8
1
  6
Continuous
100
AcDbCircle
 10
456.557919
 20
171.433375
 30
0.0
 40
11.5
100
AcDbArc
 50
287.140775
 51
16.762554
  0
LINE
  5
16D3E
330
16D00
100
AcDbEntity
  8
1
  6
Continuous
100
AcDbLine
 10
459.0
 20
203.2
 30
0.0
 11
467.569264
 21
174.7500449999998
 31
0.0
  0
LINE
  5
16D3F
330
16D00
100
AcDbEntity
  8
4
  6
CENTER
100
AcDbLine
 10
432.0
 20
176.4602689999999
 30
0.0
 11
432.0
 21
218.0
 31
0.0
  0
LINE
  5
16D40
330
16D00
100
AcDbEntity
  8
1
  6
Continuous
100
AcDbLine
 10
448.0
 20
199.098503
 30
0.0
 11
448.0
 21
167.88369
 31
0.0
  0
ARC
  5
16D41
330
16D00
100
AcDbEntity
  8
1
  6
Continuous
100
AcDbCircle
 10
416.8807909999999
 20
186.6999999999999
 30
0.0
 40
10.0
100
AcDbArc
 50
40.00004699999997
 51
90.0
  0
LINE
  5
16D42
330
16D00
100
AcDbEntity
  8
1
  6
Continuous
100
AcDbLine
 10
424.5412299999999
 20
193.1278819999998
 30
0.0
 11
449.2298269999998
 21
163.705207
 31
0.0
  0
LINE
  5
16D43
330
16D00
100
AcDbEntity
  8
1
  6
Continuous
100
AcDbLine
 10
424.060094
 20
193.6611499999999
 30
0.0
 11
420.729401
 21
193.6619029999999
 31
0.0
  0
ARC
  5
16D44
330
16D00
100
AcDbEntity
  8
1
  6
Continuous
100
AcDbCircle
 10
420.7341169999998
 20
214.5209009999999
 30
0.0
 40
20.85899799999999
100
AcDbArc
 50
268.368019
 51
269.987046
  0
CIRCLE
  5
16D45
330
16D00
100
AcDbEntity
  8
1
  6
Continuous
100
AcDbCircle
 10
457.0
 20
170.0
 30
0.0
 40
7.0
  0
ARC
  5
16D46
330
16D00
100
AcDbEntity
  8
1
  6
Continuous
100
AcDbCircle
 10
457.0
 20
170.0
 30
0.0
 40
10.0
100
AcDbArc
 50
219.011714
 51
287.140775
  0
LINE
  5
16D47
330
16D00
100
AcDbEntity
  8
1
  6
Continuous
100
AcDbLine
 10
435.705844
 20
203.2
 30
0.0
 11
433.2058439999998
 21
205.6999999999999
 31
0.0
  0
LINE
  5
16D48
330
16D00
100
AcDbEntity
  8
1
  6
Continuous
100
AcDbLine
 10
433.584524
 20
203.2
 30
0.0
 11
431.0845239999999
 21
205.6999999999999
 31
0.0
  0
LINE
  5
16D49
330
16D00
100
AcDbEntity
  8
1
  6
Continuous
100
AcDbLine
 10
433.2058439999998
 20
203.2
 30
0.0
 11
435.705844
 21
205.6999999999999
 31
0.0
  0
LINE
  5
16D4A
330
16D00
100
AcDbEntity
  8
1
  6
Continuous
100
AcDbLine
 10
431.0845239999999
 20
203.2
 30
0.0
 11
433.584524
 21
205.6999999999999
 31
0.0
  0
LINE
  5
16D4B
330
16D00
100
AcDbEntity
  8
1
  6
Continuous
100
AcDbLine
 10
408.4999999999998
 20
203.2
 30
0.0
 11
462.0
 21
203.2
 31
0.0
  0
LINE
  5
16D4C
330
16D00
100
AcDbEntity
  8
1
  6
Continuous
100
AcDbLine
 10
408.4999999999998
 20
205.6999999999999
 30
0.0
 11
455.4999999999998
 21
205.6999999999999
 31
0.0
  0
LINE
  5
16D4D
330
16D00
100
AcDbEntity
  8
1
  6
Continuous
100
AcDbLine
 10
408.4999999999998
 20
206.6999999999999
 30
0.0
 11
455.4999999999998
 21
206.6999999999999
 31
0.0
  0
LINE
  5
16D4E
330
16D00
100
AcDbEntity
  8
1
  6
Continuous
100
AcDbLine
 10
412.0
 20
208.6999999999999
 30
0.0
 11
452.0
 21
208.6999999999999
 31
0.0
  0
LINE
  5
16D4F
330
16D00
100
AcDbEntity
  8
1
  6
Continuous
100
AcDbLine
 10
418.735281
 20
203.2
 30
0.0
 11
416.2352809999998
 21
205.6999999999999
 31
0.0
  0
LINE
  5
16D50
330
16D00
100
AcDbEntity
  8
1
  6
Continuous
100
AcDbLine
 10
416.2352809999998
 20
203.2
 30
0.0
 11
418.735281
 21
205.6999999999999
 31
0.0
  0
ARC
  5
16D51
330
16D00
100
AcDbEntity
  8
1
  6
Continuous
100
AcDbCircle
 10
412.0
 20
218.6999999999999
 30
0.0
 40
10.0
100
AcDbArc
 50
233.130102
 51
270.0
  0
ARC
  5
16D52
330
16D00
100
AcDbEntity
  8
1
  6
Continuous
100
AcDbCircle
 10
412.0
 20
207.2
 30
0.0
 40
1.5
100
AcDbArc
 50
90.0
 51
180.0
  0
LINE
  5
16D53
330
16D00
100
AcDbEntity
  8
1
  6
Continuous
100
AcDbLine
 10
407.5
 20
196.6999999999999
 30
0.0
 11
416.8807909999999
 21
196.6999999999999
 31
0.0
  0
ARC
  5
16D54
330
16D00
100
AcDbEntity
  8
1
  6
Continuous
100
AcDbCircle
 10
409.4999999999997
 20
201.2
 30
0.0
 40
2.0
100
AcDbArc
 50
90.0
 51
180.0
  0
LINE
  5
16D55
330
16D00
100
AcDbEntity
  8
1
  6
Continuous
100
AcDbLine
 10
407.5
 20
196.6999999999999
 30
0.0
 11
407.5
 21
201.2
 31
0.0
  0
LINE
  5
16D56
330
16D00
100
AcDbEntity
  8
1
  6
Continuous
100
AcDbLine
 10
414.492641
 20
203.2
 30
0.0
 11
411.9926409999997
 21
205.6999999999999
 31
0.0
  0
LINE
  5
16D57
330
16D00
100
AcDbEntity
  8
1
  6
Continuous
100
AcDbLine
 10
411.9926409999997
 20
203.2
 30
0.0
 11
414.492641
 21
205.6999999999999
 31
0.0
  0
LINE
  5
16D58
330
16D00
100
AcDbEntity
  8
1
  6
Continuous
100
AcDbLine
 10
412.37132
 20
203.2
 30
0.0
 11
409.87132
 21
205.6999999999999
 31
0.0
  0
LINE
  5
16D59
330
16D00
100
AcDbEntity
  8
1
  6
Continuous
100
AcDbLine
 10
410.25
 20
203.2
 30
0.0
 11
408.4999999999998
 21
204.95
 31
0.0
  0
LINE
  5
16D5A
330
16D00
100
AcDbEntity
  8
1
  6
Continuous
100
AcDbLine
 10
409.87132
 20
203.2
 30
0.0
 11
412.37132
 21
205.6999999999999
 31
0.0
  0
LINE
  5
16D5B
330
16D00
100
AcDbEntity
  8
1
  6
Continuous
100
AcDbLine
 10
410.25
 20
205.6999999999999
 30
0.0
 11
408.4999999999998
 21
203.9499999999999
 31
0.0
  0
LINE
  5
16D5C
330
16D00
100
AcDbEntity
  8
1
  6
Continuous
100
AcDbLine
 10
410.5
 20
206.6999999999999
 30
0.0
 11
410.5
 21
207.2
 31
0.0
  0
LINE
  5
16D5D
330
16D00
100
AcDbEntity
  8
1
  6
Continuous
100
AcDbLine
 10
416.613961
 20
203.2
 30
0.0
 11
414.1139609999998
 21
205.6999999999999
 31
0.0
  0
LINE
  5
16D5E
330
16D00
100
AcDbEntity
  8
1
  6
Continuous
100
AcDbLine
 10
414.1139609999998
 20
203.2
 30
0.0
 11
416.613961
 21
205.6999999999999
 31
0.0
  0
LINE
  5
16D5F
330
16D00
100
AcDbEntity
  8
4
  6
CENTER
100
AcDbLine
 10
407.0
 20
208.4
 30
0.0
 11
407.0
 21
215.3
 31
0.0
  0
LINE
  5
16D60
330
16D00
100
AcDbEntity
  8
1
  6
Continuous
100
AcDbLine
 10
427.220563
 20
203.2
 30
0.0
 11
424.7205629999998
 21
205.6999999999999
 31
0.0
  0
LINE
  5
16D61
330
16D00
100
AcDbEntity
  8
1
  6
Continuous
100
AcDbLine
 10
424.7205629999998
 20
203.2
 30
0.0
 11
427.220563
 21
205.6999999999999
 31
0.0
  0
LINE
  5
16D62
330
16D00
100
AcDbEntity
  8
1
  6
Continuous
100
AcDbLine
 10
422.977922
 20
203.2
 30
0.0
 11
420.4779219999998
 21
205.6999999999999
 31
0.0
  0
LINE
  5
16D63
330
16D00
100
AcDbEntity
  8
1
  6
Continuous
100
AcDbLine
 10
420.4779219999998
 20
203.2
 30
0.0
 11
422.977922
 21
205.6999999999999
 31
0.0
  0
LINE
  5
16D64
330
16D00
100
AcDbEntity
  8
1
  6
Continuous
100
AcDbLine
 10
420.8566019999998
 20
203.2
 30
0.0
 11
418.3566019999998
 21
205.6999999999999
 31
0.0
  0
LINE
  5
16D65
330
16D00
100
AcDbEntity
  8
1
  6
Continuous
100
AcDbLine
 10
418.3566019999998
 20
203.2
 30
0.0
 11
420.8566019999998
 21
205.6999999999999
 31
0.0
  0
LINE
  5
16D66
330
16D00
100
AcDbEntity
  8
1
  6
Continuous
100
AcDbLine
 10
425.099242
 20
203.2
 30
0.0
 11
422.5992419999998
 21
205.6999999999999
 31
0.0
  0
LINE
  5
16D67
330
16D00
100
AcDbEntity
  8
1
  6
Continuous
100
AcDbLine
 10
422.5992419999998
 20
203.2
 30
0.0
 11
425.099242
 21
205.6999999999999
 31
0.0
  0
LINE
  5
16D68
330
16D00
100
AcDbEntity
  8
1
  6
Continuous
100
AcDbLine
 10
431.463203
 20
203.2
 30
0.0
 11
428.9632029999999
 21
205.6999999999999
 31
0.0
  0
LINE
  5
16D69
330
16D00
100
AcDbEntity
  8
1
  6
Continuous
100
AcDbLine
 10
428.9632029999999
 20
203.2
 30
0.0
 11
431.463203
 21
205.6999999999999
 31
0.0
  0
LINE
  5
16D6A
330
16D00
100
AcDbEntity
  8
1
  6
Continuous
100
AcDbLine
 10
429.341883
 20
203.2
 30
0.0
 11
426.8418829999998
 21
205.6999999999999
 31
0.0
  0
LINE
  5
16D6B
330
16D00
100
AcDbEntity
  8
1
  6
Continuous
100
AcDbLine
 10
426.8418829999998
 20
203.2
 30
0.0
 11
429.341883
 21
205.6999999999999
 31
0.0
  0
LINE
  5
16D6C
330
16D00
100
AcDbEntity
  8
1
  6
Continuous
100
AcDbLine
 10
450.555087
 20
203.2
 30
0.0
 11
448.055087
 21
205.6999999999999
 31
0.0
  0
LINE
  5
16D6D
330
16D00
100
AcDbEntity
  8
1
  6
Continuous
100
AcDbLine
 10
448.055087
 20
203.2
 30
0.0
 11
450.555087
 21
205.6999999999999
 31
0.0
  0
LINE
  5
16D6E
330
16D00
100
AcDbEntity
  8
1
  6
Continuous
100
AcDbLine
 10
444.191126
 20
203.2
 30
0.0
 11
441.691126
 21
205.6999999999999
 31
0.0
  0
LINE
  5
16D6F
330
16D00
100
AcDbEntity
  8
1
  6
Continuous
100
AcDbLine
 10
442.0698049999998
 20
203.2
 30
0.0
 11
439.569805
 21
205.6999999999999
 31
0.0
  0
LINE
  5
16D70
330
16D00
100
AcDbEntity
  8
1
  6
Continuous
100
AcDbLine
 10
441.691126
 20
203.2
 30
0.0
 11
444.191126
 21
205.6999999999999
 31
0.0
  0
LINE
  5
16D71
330
16D00
100
AcDbEntity
  8
1
  6
Continuous
100
AcDbLine
 10
439.569805
 20
203.2
 30
0.0
 11
442.0698049999998
 21
205.6999999999999
 31
0.0
  0
LINE
  5
16D72
330
16D00
100
AcDbEntity
  8
1
  6
Continuous
100
AcDbLine
 10
439.9484849999998
 20
203.2
 30
0.0
 11
437.4484849999998
 21
205.6999999999999
 31
0.0
  0
LINE
  5
16D73
330
16D00
100
AcDbEntity
  8
1
  6
Continuous
100
AcDbLine
 10
437.827164
 20
203.2
 30
0.0
 11
435.3271639999999
 21
205.6999999999999
 31
0.0
  0
LINE
  5
16D74
330
16D00
100
AcDbEntity
  8
1
  6
Continuous
100
AcDbLine
 10
437.4484849999998
 20
203.2
 30
0.0
 11
439.9484849999998
 21
205.6999999999999
 31
0.0
  0
LINE
  5
16D75
330
16D00
100
AcDbEntity
  8
1
  6
Continuous
100
AcDbLine
 10
435.3271639999999
 20
203.2
 30
0.0
 11
437.827164
 21
205.6999999999999
 31
0.0
  0
LINE
  5
16D76
330
16D00
100
AcDbEntity
  8
1
  6
Continuous
100
AcDbLine
 10
446.312446
 20
203.2
 30
0.0
 11
443.812446
 21
205.6999999999999
 31
0.0
  0
LINE
  5
16D77
330
16D00
100
AcDbEntity
  8
1
  6
Continuous
100
AcDbLine
 10
443.812446
 20
203.2
 30
0.0
 11
446.312446
 21
205.6999999999999
 31
0.0
  0
LINE
  5
16D78
330
16D00
100
AcDbEntity
  8
1
  6
Continuous
100
AcDbLine
 10
448.433766
 20
203.2
 30
0.0
 11
445.933766
 21
205.6999999999999
 31
0.0
  0
LINE
  5
16D79
330
16D00
100
AcDbEntity
  8
1
  6
Continuous
100
AcDbLine
 10
445.933766
 20
203.2
 30
0.0
 11
448.433766
 21
205.6999999999999
 31
0.0
  0
ARC
  5
16D7A
330
16D00
100
AcDbEntity
  8
1
  6
Continuous
100
AcDbCircle
 10
452.0
 20
218.6999999999999
 30
0.0
 40
10.0
100
AcDbArc
 50
270.0
 51
306.8698979999999
  0
ARC
  5
16D7B
330
16D00
100
AcDbEntity
  8
1
  6
Continuous
100
AcDbCircle
 10
452.0
 20
207.2
 30
0.0
 40
1.5
100
AcDbArc
 50
0.0
 51
90.0
  0
LINE
  5
16D7C
330
16D00
100
AcDbEntity
  8
1
  6
Continuous
100
AcDbLine
 10
454.7977269999998
 20
203.2
 30
0.0
 11
452.2977269999998
 21
205.6999999999999
 31
0.0
  0
LINE
  5
16D7D
330
16D00
100
AcDbEntity
  8
1
  6
Continuous
100
AcDbLine
 10
452.2977269999998
 20
203.2
 30
0.0
 11
454.7977269999998
 21
205.6999999999999
 31
0.0
  0
LINE
  5
16D7E
330
16D00
100
AcDbEntity
  8
1
  6
Continuous
100
AcDbLine
 10
452.6764069999998
 20
203.2
 30
0.0
 11
450.176407
 21
205.6999999999999
 31
0.0
  0
LINE
  5
16D7F
330
16D00
100
AcDbEntity
  8
1
  6
Continuous
100
AcDbLine
 10
450.176407
 20
203.2
 30
0.0
 11
452.6764069999998
 21
205.6999999999999
 31
0.0
  0
LINE
  5
16D80
330
16D00
100
AcDbEntity
  8
1
  6
Continuous
100
AcDbLine
 10
453.5
 20
206.6999999999999
 30
0.0
 11
453.5
 21
207.2
 31
0.0
  0
LINE
  5
16D81
330
16D00
100
AcDbEntity
  8
1
  6
Continuous
100
AcDbLine
 10
455.4999999999998
 20
204.6190479999999
 30
0.0
 11
454.419048
 21
205.6999999999999
 31
0.0
  0
LINE
  5
16D82
330
16D00
100
AcDbEntity
  8
1
  6
Continuous
100
AcDbLine
 10
454.419048
 20
203.2
 30
0.0
 11
455.4999999999998
 21
204.280952
 31
0.0
  0
LINE
  5
16D83
330
16D00
100
AcDbEntity
  8
1
  6
Continuous
100
AcDbLine
 10
462.0
 20
200.8999999999999
 30
0.0
 11
462.0
 21
203.2
 31
0.0
  0
LINE
  5
16D84
330
16D00
100
AcDbEntity
  8
1
  6
Continuous
100
AcDbLine
 10
459.692771
 20
200.8999999999999
 30
0.0
 11
462.0
 21
200.8999999999999
 31
0.0
  0
LINE
  5
16D85
330
16D00
100
AcDbEntity
  8
4
  6
CENTER
100
AcDbLine
 10
457.0
 20
208.4
 30
0.0
 11
457.0
 21
215.3
 31
0.0
  0
LINE
  5
16D86
330
16D00
100
AcDbEntity
  8
1
  6
Continuous
100
AcDbLine
 10
464.0
 20
213.0
 30
0.0
 11
464.0
 21
210.6999999999999
 31
0.0
  0
LINE
  5
16D87
330
16D00
100
AcDbEntity
  8
1
  6
Continuous
100
AcDbLine
 10
38.7
 20
160.0
 30
0.0
 11
38.7
 21
200.7
 31
0.0
  0
LINE
  5
16D88
330
16D00
100
AcDbEntity
  8
1
  6
Continuous
100
AcDbLine
 10
41.0
 20
160.0
 30
0.0
 11
41.0
 21
199.9
 31
0.0
  0
LINE
  5
16D89
330
16D00
100
AcDbEntity
  8
1
  6
Continuous
100
AcDbLine
 10
32.5
 20
186.4790779999999
 30
0.0
 11
32.5
 21
201.2
 31
0.0
  0
LINE
  5
16D8A
330
16D00
100
AcDbEntity
  8
1
  6
Continuous
100
AcDbLine
 10
41.9
 20
180.0
 30
0.0
 11
41.9
 21
160.0
 31
0.0
  0
LINE
  5
16D8B
330
16D00
100
AcDbEntity
  8
1
  6
Continuous
100
AcDbLine
 10
36.2
 20
163.0
 30
0.0
 11
36.2
 21
177.0
 31
0.0
  0
LINE
  5
16D8C
330
16D00
100
AcDbEntity
  8
1
  6
Continuous
100
AcDbLine
 10
41.0
 20
160.0
 30
0.0
 11
38.7
 21
160.0
 31
0.0
  0
LINE
  5
16D8D
330
16D00
100
AcDbEntity
  8
1
  6
Continuous
100
AcDbLine
 10
36.2
 20
163.0
 30
0.0
 11
38.7
 21
163.0
 31
0.0
  0
LINE
  5
16D8E
330
16D00
100
AcDbEntity
  8
1
  6
Continuous
100
AcDbLine
 10
41.9
 20
164.5
 30
0.0
 11
41.0
 21
164.5
 31
0.0
  0
ARC
  5
16D8F
330
16D00
100
AcDbEntity
  8
1
  6
Continuous
100
AcDbCircle
 10
57.5
 20
186.4790779999999
 30
0.0
 40
25.0
100
AcDbArc
 50
180.0
 51
206.4776029999999
  0
LINE
  5
16D90
330
16D00
100
AcDbEntity
  8
1
  6
Continuous
100
AcDbLine
 10
36.2
 20
177.0
 30
0.0
 11
38.7
 21
177.0
 31
0.0
  0
LINE
  5
16D91
330
16D00
100
AcDbEntity
  8
1
  6
Continuous
100
AcDbLine
 10
41.9
 20
175.5
 30
0.0
 11
41.0
 21
175.5
 31
0.0
  0
LINE
  5
16D92
330
16D00
100
AcDbEntity
  8
1
  6
Continuous
100
AcDbLine
 10
25.0
 20
213.0
 30
0.0
 11
25.0
 21
210.6999999999999
 31
0.0
  0
LINE
  5
16D93
330
16D00
100
AcDbEntity
  8
4
  6
CENTER
100
AcDbLine
 10
32.0
 20
208.4
 30
0.0
 11
32.0
 21
215.3
 31
0.0
  0
ARC
  5
16D94
330
16D00
100
AcDbEntity
  8
1
  6
Continuous
100
AcDbCircle
 10
37.0
 20
218.6999999999999
 30
0.0
 40
10.0
100
AcDbArc
 50
233.130102
 51
270.0
  0
ARC
  5
16D95
330
16D00
100
AcDbEntity
  8
1
  6
Continuous
100
AcDbCircle
 10
37.0
 20
207.2
 30
0.0
 40
1.5
100
AcDbArc
 50
90.0
 51
180.0
  0
ARC
  5
16D96
330
16D00
100
AcDbEntity
  8
1
  6
Continuous
100
AcDbCircle
 10
34.5
 20
201.2
 30
0.0
 40
2.0
100
AcDbArc
 50
90.0
 51
180.0
  0
ARC
  5
16D97
330
16D00
100
AcDbEntity
  8
1
  6
Continuous
100
AcDbCircle
 10
41.2
 20
200.7
 30
0.0
 40
2.5
100
AcDbArc
 50
90.0
 51
180.0
  0
LINE
  5
16D98
330
16D00
100
AcDbEntity
  8
1
  6
Continuous
100
AcDbLine
 10
41.674942
 20
197.4499999999999
 30
0.0
 11
41.0
 21
198.124942
 31
0.0
  0
ARC
  5
16D99
330
16D00
100
AcDbEntity
  8
1
  6
Continuous
100
AcDbCircle
 10
42.0
 20
199.9
 30
0.0
 40
1.0
100
AcDbArc
 50
90.0
 51
180.0
  0
LINE
  5
16D9A
330
16D00
100
AcDbEntity
  8
1
  6
Continuous
100
AcDbLine
 10
38.823593
 20
203.2
 30
0.0
 11
36.323593
 21
205.6999999999999
 31
0.0
  0
LINE
  5
16D9B
330
16D00
100
AcDbEntity
  8
1
  6
Continuous
100
AcDbLine
 10
36.323593
 20
203.2
 30
0.0
 11
38.823593
 21
205.6999999999999
 31
0.0
  0
LINE
  5
16D9C
330
16D00
100
AcDbEntity
  8
1
  6
Continuous
100
AcDbLine
 10
34.58095200000001
 20
203.2
 30
0.0
 11
33.5
 21
204.280952
 31
0.0
  0
LINE
  5
16D9D
330
16D00
100
AcDbEntity
  8
1
  6
Continuous
100
AcDbLine
 10
36.702273
 20
203.2
 30
0.0
 11
34.202273
 21
205.6999999999999
 31
0.0
  0
LINE
  5
16D9E
330
16D00
100
AcDbEntity
  8
1
  6
Continuous
100
AcDbLine
 10
33.5
 20
204.6190479999999
 30
0.0
 11
34.58095200000001
 21
205.6999999999999
 31
0.0
  0
LINE
  5
16D9F
330
16D00
100
AcDbEntity
  8
1
  6
Continuous
100
AcDbLine
 10
34.202273
 20
203.2
 30
0.0
 11
36.702273
 21
205.6999999999999
 31
0.0
  0
LINE
  5
16DA0
330
16D00
100
AcDbEntity
  8
1
  6
Continuous
100
AcDbLine
 10
35.5
 20
206.6999999999999
 30
0.0
 11
35.5
 21
207.2
 31
0.0
  0
LINE
  5
16DA1
330
16D00
100
AcDbEntity
  8
1
  6
Continuous
100
AcDbLine
 10
40.944913
 20
203.2
 30
0.0
 11
38.44491299999999
 21
205.6999999999999
 31
0.0
  0
LINE
  5
16DA2
330
16D00
100
AcDbEntity
  8
1
  6
Continuous
100
AcDbLine
 10
38.44491299999999
 20
203.2
 30
0.0
 11
40.944913
 21
205.6999999999999
 31
0.0
  0
ARC
  5
16DA3
330
16D00
100
AcDbEntity
  8
1
  6
Continuous
100
AcDbCircle
 10
219.0
 20
260.0
 30
0.0
 40
7.0
100
AcDbArc
 50
270.0
 51
0.0
  0
ARC
  5
16DA4
330
16D00
100
AcDbEntity
  8
1
  6
Continuous
100
AcDbCircle
 10
219.0
 20
310.0
 30
0.0
 40
7.0
100
AcDbArc
 50
0.0
 51
90.0
  0
LINE
  5
16DA5
330
16D00
100
AcDbEntity
  8
1
  6
Continuous
100
AcDbLine
 10
226.0
 20
260.0
 30
0.0
 11
226.0
 21
310.0
 31
0.0
  0
LINE
  5
16DA6
330
16D00
100
AcDbEntity
  8
1
  6
Continuous
100
AcDbLine
 10
158.0
 20
299.0
 30
0.0
 11
161.0
 21
300.1
 31
0.0
  0
LINE
  5
16DA7
330
16D00
100
AcDbEntity
  8
1
  6
Continuous
100
AcDbLine
 10
158.0
 20
271.0
 30
0.0
 11
161.0
 21
269.8999999999999
 31
0.0
  0
LINE
  5
16DA8
330
16D00
100
AcDbEntity
  8
1
  6
Continuous
100
AcDbLine
 10
162.0
 20
299.0
 30
0.0
 11
147.3077909999998
 21
299.0
 31
0.0
  0
LINE
  5
16DA9
330
16D00
100
AcDbEntity
  8
1
  6
Continuous
100
AcDbLine
 10
162.0
 20
271.0
 30
0.0
 11
147.3077909999998
 21
271.0
 31
0.0
  0
LINE
  5
16DAA
330
16D00
100
AcDbEntity
  8
1
  6
Continuous
100
AcDbLine
 10
162.0
 20
269.0
 30
0.0
 11
157.942081
 21
269.0
 31
0.0
  0
LINE
  5
16DAB
330
16D00
100
AcDbEntity
  8
1
  6
Continuous
100
AcDbLine
 10
162.0
 20
301.0
 30
0.0
 11
157.942081
 21
301.0
 31
0.0
  0
LINE
  5
16DAC
330
16D00
100
AcDbEntity
  8
1
  6
Continuous
100
AcDbLine
 10
162.0
 20
266.6999999999998
 30
0.0
 11
157.942081
 21
266.6999999999998
 31
0.0
  0
LINE
  5
16DAD
330
16D00
100
AcDbEntity
  8
1
  6
Continuous
100
AcDbLine
 10
162.0
 20
303.3
 30
0.0
 11
157.942081
 21
303.3
 31
0.0
  0
LINE
  5
16DAE
330
16D00
100
AcDbEntity
  8
4
  6
CENTER
100
AcDbLine
 10
194.0
 20
248.0
 30
0.0
 11
194.0
 21
322.0
 31
0.0
  0
LINE
  5
16DAF
330
16D00
100
AcDbEntity
  8
1
  6
Continuous
100
AcDbLine
 10
162.0
 20
260.0
 30
0.0
 11
162.0
 21
310.0
 31
0.0
  0
CIRCLE
  5
16DB0
330
16D00
100
AcDbEntity
  8
1
  6
Continuous
100
AcDbCircle
 10
194.0
 20
285.0
 30
0.0
 40
23.5
  0
CIRCLE
  5
16DB1
330
16D00
100
AcDbEntity
  8
1
  6
Continuous
100
AcDbCircle
 10
194.0
 20
285.0
 30
0.0
 40
21.0
  0
CIRCLE
  5
16DB2
330
16D00
100
AcDbEntity
  8
1
  6
Continuous
100
AcDbCircle
 10
194.0
 20
285.0
 30
0.0
 40
11.5
  0
LINE
  5
16DB3
330
16D00
100
AcDbEntity
  8
1
  6
Continuous
100
AcDbLine
 10
219.0
 20
253.0
 30
0.0
 11
169.0
 21
253.0
 31
0.0
  0
LINE
  5
16DB4
330
16D00
100
AcDbEntity
  8
4
  6
CENTER
100
AcDbLine
 10
219.0
 20
253.5
 30
0.0
 11
219.0
 21
266.5
 31
0.0
  0
CIRCLE
  5
16DB5
330
16D00
100
AcDbEntity
  8
1
  6
Continuous
100
AcDbCircle
 10
219.0
 20
260.0
 30
0.0
 40
3.25
  0
LINE
  5
16DB6
330
16D00
100
AcDbEntity
  8
4
  6
CENTER
100
AcDbLine
 10
225.4999999999999
 20
260.0
 30
0.0
 11
212.5
 21
260.0
 31
0.0
  0
ARC
  5
16DB7
330
16D00
100
AcDbEntity
  8
1
  6
Continuous
100
AcDbCircle
 10
169.0
 20
260.0
 30
0.0
 40
7.0
100
AcDbArc
 50
180.0
 51
270.0
  0
CIRCLE
  5
16DB8
330
16D00
100
AcDbEntity
  8
1
  6
Continuous
100
AcDbCircle
 10
169.0
 20
260.0
 30
0.0
 40
3.25
  0
LINE
  5
16DB9
330
16D00
100
AcDbEntity
  8
4
  6
CENTER
100
AcDbLine
 10
175.5
 20
260.0
 30
0.0
 11
162.5
 21
260.0
 31
0.0
  0
LINE
  5
16DBA
330
16D00
100
AcDbEntity
  8
1
  6
Continuous
100
AcDbLine
 10
162.0
 20
269.8999999999999
 30
0.0
 11
161.0
 21
269.8999999999999
 31
0.0
  0
LINE
  5
16DBB
330
16D00
100
AcDbEntity
  8
1
  6
Continuous
100
AcDbLine
 10
219.0
 20
317.0
 30
0.0
 11
169.0
 21
317.0
 31
0.0
  0
LINE
  5
16DBC
330
16D00
100
AcDbEntity
  8
4
  6
CENTER
100
AcDbLine
 10
219.0
 20
303.5
 30
0.0
 11
219.0
 21
316.5
 31
0.0
  0
LINE
  5
16DBD
330
16D00
100
AcDbEntity
  8
4
  6
CENTER
100
AcDbLine
 10
225.4999999999999
 20
310.0
 30
0.0
 11
212.5
 21
310.0
 31
0.0
  0
CIRCLE
  5
16DBE
330
16D00
100
AcDbEntity
  8
1
  6
Continuous
100
AcDbCircle
 10
219.0
 20
310.0
 30
0.0
 40
3.25
  0
ARC
  5
16DBF
330
16D00
100
AcDbEntity
  8
1
  6
Continuous
100
AcDbCircle
 10
169.0
 20
310.0
 30
0.0
 40
7.0
100
AcDbArc
 50
90.0
 51
180.0
  0
LINE
  5
16DC0
330
16D00
100
AcDbEntity
  8
1
  6
Continuous
100
AcDbLine
 10
162.0
 20
300.1
 30
0.0
 11
161.0
 21
300.1
 31
0.0
  0
LINE
  5
16DC1
330
16D00
100
AcDbEntity
  8
4
  6
CENTER
100
AcDbLine
 10
175.5
 20
310.0
 30
0.0
 11
162.5
 21
310.0
 31
0.0
  0
CIRCLE
  5
16DC2
330
16D00
100
AcDbEntity
  8
1
  6
Continuous
100
AcDbCircle
 10
169.0
 20
310.0
 30
0.0
 40
3.25
  0
ARC
  5
16DC3
330
16D00
100
AcDbEntity
  8
1
  6
Continuous
100
AcDbCircle
 10
344.0004449999999
 20
285.0
 30
0.0
 40
200.0
100
AcDbArc
 50
176.799078
 51
183.201339
  0
ARC
  5
16DC4
330
16D00
100
AcDbEntity
  8
1
  6
Continuous
100
AcDbCircle
 10
147.3077909999998
 20
274.0
 30
0.0
 40
3.0
100
AcDbArc
 50
183.2009219999999
 51
270.0
  0
LINE
  5
16DC5
330
16D00
100
AcDbEntity
  8
1
  6
Continuous
100
AcDbLine
 10
157.942081
 20
266.6999999999998
 30
0.0
 11
157.942081
 21
269.0
 31
0.0
  0
LINE
  5
16DC6
330
16D00
100
AcDbEntity
  8
1
  6
Continuous
100
AcDbLine
 10
157.942081
 20
301.0
 30
0.0
 11
157.942081
 21
303.3
 31
0.0
  0
ARC
  5
16DC7
330
16D00
100
AcDbEntity
  8
1
  6
Continuous
100
AcDbCircle
 10
147.3077909999998
 20
296.0
 30
0.0
 40
3.0
100
AcDbArc
 50
90.0
 51
176.799078
  0
ARC
  5
16DC8
330
16D00
100
AcDbEntity
  8
1
  6
Continuous
100
AcDbCircle
 10
57.0
 20
345.0
 30
0.0
 40
200.0
100
AcDbArc
 50
266.7990779999998
 51
273.2009220000001
  0
ARC
  5
16DC9
330
16D00
100
AcDbEntity
  8
1
  6
Continuous
100
AcDbCircle
 10
46.0
 20
148.3073459999999
 30
0.0
 40
3.0
100
AcDbArc
 50
180.0
 51
266.7990779999998
  0
ARC
  5
16DCA
330
16D00
100
AcDbEntity
  8
1
  6
Continuous
100
AcDbCircle
 10
68.0
 20
148.3073459999999
 30
0.0
 40
3.0
100
AcDbArc
 50
273.2009220000001
 51
0.0
  0
LINE
  5
16DCB
330
16D00
100
AcDbEntity
  8
1
  6
Continuous
100
AcDbLine
 10
75.29999999999998
 20
160.0
 30
0.0
 11
75.29999999999998
 21
200.7
 31
0.0
  0
LINE
  5
16DCC
330
16D00
100
AcDbEntity
  8
1
  6
Continuous
100
AcDbLine
 10
73.0
 20
160.0
 30
0.0
 11
73.0
 21
199.9
 31
0.0
  0
LINE
  5
16DCD
330
16D00
100
AcDbEntity
  8
1
  6
Continuous
100
AcDbLine
 10
81.5
 20
186.4790779999999
 30
0.0
 11
81.5
 21
201.2
 31
0.0
  0
LINE
  5
16DCE
330
16D00
100
AcDbEntity
  8
1
  6
Continuous
100
AcDbLine
 10
75.29999999999998
 20
160.0
 30
0.0
 11
73.0
 21
160.0
 31
0.0
  0
LINE
  5
16DCF
330
16D00
100
AcDbEntity
  8
1
  6
Continuous
100
AcDbLine
 10
43.0
 20
191.692654
 30
0.0
 11
43.0
 21
148.3073459999999
 31
0.0
  0
LINE
  5
16DD0
330
16D00
100
AcDbEntity
  8
1
  6
Continuous
100
AcDbLine
 10
71.0
 20
148.3073459999999
 30
0.0
 11
71.0
 21
191.692654
 31
0.0
  0
LINE
  5
16DD1
330
16D00
100
AcDbEntity
  8
1
  6
Continuous
100
AcDbLine
 10
72.09999999999998
 20
180.0
 30
0.0
 11
72.09999999999998
 21
160.0
 31
0.0
  0
LINE
  5
16DD2
330
16D00
100
AcDbEntity
  8
1
  6
Continuous
100
AcDbLine
 10
73.0
 20
164.5
 30
0.0
 11
72.09999999999998
 21
164.5
 31
0.0
  0
ARC
  5
16DD3
330
16D00
100
AcDbEntity
  8
1
  6
Continuous
100
AcDbCircle
 10
57.0
 20
-5.0
 30
0.0
 40
200.0
100
AcDbArc
 50
86.799078
 51
93.20092200000001
  0
ARC
  5
16DD4
330
16D00
100
AcDbEntity
  8
1
  6
Continuous
100
AcDbCircle
 10
46.0
 20
191.692654
 30
0.0
 40
3.0
100
AcDbArc
 50
93.20092200000001
 51
180.0
  0
LINE
  5
16DD5
330
16D00
100
AcDbEntity
  8
1
  6
Continuous
100
AcDbLine
 10
73.0
 20
175.5
 30
0.0
 11
72.09999999999998
 21
175.5
 31
0.0
  0
ARC
  5
16DD6
330
16D00
100
AcDbEntity
  8
1
  6
Continuous
100
AcDbCircle
 10
68.0
 20
191.692654
 30
0.0
 40
3.0
100
AcDbArc
 50
0.0
 51
86.799078
  0
LINE
  5
16DD7
330
16D00
100
AcDbEntity
  8
1
  6
Continuous
100
AcDbLine
 10
75.29999999999998
 20
162.5
 30
0.0
 11
77.29999999999998
 21
162.5
 31
0.0
  0
LINE
  5
16DD8
330
16D00
100
AcDbEntity
  8
1
  6
Continuous
100
AcDbLine
 10
82.29999999999998
 20
166.0
 30
0.0
 11
83.0
 21
166.0
 31
0.0
  0
LINE
  5
16DD9
330
16D00
100
AcDbEntity
  8
1
  6
Continuous
100
AcDbLine
 10
84.19999999999998
 20
172.8
 30
0.0
 11
84.19999999999998
 21
167.1999999999998
 31
0.0
  0
ARC
  5
16DDA
330
16D00
100
AcDbEntity
  8
1
  6
Continuous
100
AcDbCircle
 10
56.5
 20
186.4790779999999
 30
0.0
 40
25.0
100
AcDbArc
 50
337.5397050000001
 51
0.0
  0
LINE
  5
16DDB
330
16D00
100
AcDbEntity
  8
1
  6
Continuous
100
AcDbLine
 10
75.29999999999998
 20
177.5
 30
0.0
 11
77.29999999999998
 21
177.5
 31
0.0
  0
LINE
  5
16DDC
330
16D00
100
AcDbEntity
  8
1
  6
Continuous
100
AcDbLine
 10
82.29999999999998
 20
174.0
 30
0.0
 11
83.0
 21
174.0
 31
0.0
  0
LINE
  5
16DDD
330
16D00
100
AcDbEntity
  8
1
  6
Continuous
100
AcDbLine
 10
74.88603899999998
 20
203.2
 30
0.0
 11
72.38603899999998
 21
205.6999999999999
 31
0.0
  0
LINE
  5
16DDE
330
16D00
100
AcDbEntity
  8
1
  6
Continuous
100
AcDbLine
 10
77.00735899999997
 20
203.2
 30
0.0
 11
74.50735899999997
 21
205.6999999999999
 31
0.0
  0
LINE
  5
16DDF
330
16D00
100
AcDbEntity
  8
1
  6
Continuous
100
AcDbLine
 10
72.38603899999998
 20
203.2
 30
0.0
 11
74.88603899999998
 21
205.6999999999999
 31
0.0
  0
LINE
  5
16DE0
330
16D00
100
AcDbEntity
  8
1
  6
Continuous
100
AcDbLine
 10
74.50735899999997
 20
203.2
 30
0.0
 11
77.00735899999997
 21
205.6999999999999
 31
0.0
  0
ARC
  5
16DE1
330
16D00
100
AcDbEntity
  8
1
  6
Continuous
100
AcDbCircle
 10
72.79999999999998
 20
200.7
 30
0.0
 40
2.5
100
AcDbArc
 50
0.0
 51
90.0
  0
LINE
  5
16DE2
330
16D00
100
AcDbEntity
  8
1
  6
Continuous
100
AcDbLine
 10
58.645505
 20
197.4499999999999
 30
0.0
 11
56.99550399999999
 21
199.0999999999999
 31
0.0
  0
LINE
  5
16DE3
330
16D00
100
AcDbEntity
  8
1
  6
Continuous
100
AcDbLine
 10
57.475816
 20
197.4499999999999
 30
0.0
 11
59.125816
 21
199.0999999999999
 31
0.0
  0
LINE
  5
16DE4
330
16D00
100
AcDbEntity
  8
1
  6
Continuous
100
AcDbLine
 10
60.036797
 20
203.2
 30
0.0
 11
57.536797
 21
205.6999999999999
 31
0.0
  0
LINE
  5
16DE5
330
16D00
100
AcDbEntity
  8
1
  6
Continuous
100
AcDbLine
 10
57.536797
 20
203.2
 30
0.0
 11
60.036797
 21
205.6999999999999
 31
0.0
  0
LINE
  5
16DE6
330
16D00
100
AcDbEntity
  8
1
  6
Continuous
100
AcDbLine
 10
48.99053399999999
 20
197.4499999999999
 30
0.0
 11
50.64053499999999
 21
199.0999999999999
 31
0.0
  0
LINE
  5
16DE7
330
16D00
100
AcDbEntity
  8
1
  6
Continuous
100
AcDbLine
 10
51.551515
 20
203.2
 30
0.0
 11
49.051515
 21
205.6999999999999
 31
0.0
  0
LINE
  5
16DE8
330
16D00
100
AcDbEntity
  8
1
  6
Continuous
100
AcDbLine
 10
49.051515
 20
203.2
 30
0.0
 11
51.551515
 21
205.6999999999999
 31
0.0
  0
LINE
  5
16DE9
330
16D00
100
AcDbEntity
  8
1
  6
Continuous
100
AcDbLine
 10
44.747894
 20
197.4499999999999
 30
0.0
 11
46.397894
 21
199.0999999999999
 31
0.0
  0
LINE
  5
16DEA
330
16D00
100
AcDbEntity
  8
1
  6
Continuous
100
AcDbLine
 10
43.79626199999999
 20
197.4499999999999
 30
0.0
 11
42.146262
 21
199.0999999999999
 31
0.0
  0
LINE
  5
16DEB
330
16D00
100
AcDbEntity
  8
1
  6
Continuous
100
AcDbLine
 10
45.917583
 20
197.4499999999999
 30
0.0
 11
44.267583
 21
199.0999999999999
 31
0.0
  0
LINE
  5
16DEC
330
16D00
100
AcDbEntity
  8
1
  6
Continuous
100
AcDbLine
 10
42.62657299999999
 20
197.4499999999999
 30
0.0
 11
44.276574
 21
199.0999999999999
 31
0.0
  0
LINE
  5
16DED
330
16D00
100
AcDbEntity
  8
1
  6
Continuous
100
AcDbLine
 10
48.03890299999999
 20
197.4499999999999
 30
0.0
 11
46.388902
 21
199.0999999999999
 31
0.0
  0
LINE
  5
16DEE
330
16D00
100
AcDbEntity
  8
1
  6
Continuous
100
AcDbLine
 10
50.16022299999999
 20
197.4499999999999
 30
0.0
 11
48.510223
 21
199.0999999999999
 31
0.0
  0
LINE
  5
16DEF
330
16D00
100
AcDbEntity
  8
1
  6
Continuous
100
AcDbLine
 10
46.869214
 20
197.4499999999999
 30
0.0
 11
48.519214
 21
199.0999999999999
 31
0.0
  0
LINE
  5
16DF0
330
16D00
100
AcDbEntity
  8
1
  6
Continuous
100
AcDbLine
 10
47.30887399999999
 20
203.2
 30
0.0
 11
44.80887399999999
 21
205.6999999999999
 31
0.0
  0
LINE
  5
16DF1
330
16D00
100
AcDbEntity
  8
1
  6
Continuous
100
AcDbLine
 10
44.80887399999999
 20
203.2
 30
0.0
 11
47.30887399999999
 21
205.6999999999999
 31
0.0
  0
LINE
  5
16DF2
330
16D00
100
AcDbEntity
  8
1
  6
Continuous
100
AcDbLine
 10
45.18755399999998
 20
203.2
 30
0.0
 11
42.68755399999998
 21
205.6999999999999
 31
0.0
  0
LINE
  5
16DF3
330
16D00
100
AcDbEntity
  8
1
  6
Continuous
100
AcDbLine
 10
42.68755399999998
 20
203.2
 30
0.0
 11
45.18755399999998
 21
205.6999999999999
 31
0.0
  0
LINE
  5
16DF4
330
16D00
100
AcDbEntity
  8
1
  6
Continuous
100
AcDbLine
 10
49.430195
 20
203.2
 30
0.0
 11
46.930195
 21
205.6999999999999
 31
0.0
  0
LINE
  5
16DF5
330
16D00
100
AcDbEntity
  8
1
  6
Continuous
100
AcDbLine
 10
46.930195
 20
203.2
 30
0.0
 11
49.430195
 21
205.6999999999999
 31
0.0
  0
LINE
  5
16DF6
330
16D00
100
AcDbEntity
  8
1
  6
Continuous
100
AcDbLine
 10
54.402864
 20
197.4499999999999
 30
0.0
 11
52.752864
 21
199.0999999999999
 31
0.0
  0
LINE
  5
16DF7
330
16D00
100
AcDbEntity
  8
1
  6
Continuous
100
AcDbLine
 10
53.233175
 20
197.4499999999999
 30
0.0
 11
54.883175
 21
199.0999999999999
 31
0.0
  0
LINE
  5
16DF8
330
16D00
100
AcDbEntity
  8
1
  6
Continuous
100
AcDbLine
 10
52.281544
 20
197.4499999999999
 30
0.0
 11
50.631543
 21
199.0999999999999
 31
0.0
  0
LINE
  5
16DF9
330
16D00
100
AcDbEntity
  8
1
  6
Continuous
100
AcDbLine
 10
51.111855
 20
197.4499999999999
 30
0.0
 11
52.761855
 21
199.0999999999999
 31
0.0
  0
LINE
  5
16DFA
330
16D00
100
AcDbEntity
  8
1
  6
Continuous
100
AcDbLine
 10
56.524184
 20
197.4499999999999
 30
0.0
 11
54.874184
 21
199.0999999999999
 31
0.0
  0
LINE
  5
16DFB
330
16D00
100
AcDbEntity
  8
1
  6
Continuous
100
AcDbLine
 10
55.35449499999999
 20
197.4499999999999
 30
0.0
 11
57.00449599999998
 21
199.0999999999999
 31
0.0
  0
LINE
  5
16DFC
330
16D00
100
AcDbEntity
  8
1
  6
Continuous
100
AcDbLine
 10
55.794156
 20
203.2
 30
0.0
 11
53.294156
 21
205.6999999999999
 31
0.0
  0
LINE
  5
16DFD
330
16D00
100
AcDbEntity
  8
1
  6
Continuous
100
AcDbLine
 10
53.294156
 20
203.2
 30
0.0
 11
55.794156
 21
205.6999999999999
 31
0.0
  0
LINE
  5
16DFE
330
16D00
100
AcDbEntity
  8
1
  6
Continuous
100
AcDbLine
 10
53.672836
 20
203.2
 30
0.0
 11
51.172836
 21
205.6999999999999
 31
0.0
  0
LINE
  5
16DFF
330
16D00
100
AcDbEntity
  8
1
  6
Continuous
100
AcDbLine
 10
51.172836
 20
203.2
 30
0.0
 11
53.672836
 21
205.6999999999999
 31
0.0
  0
LINE
  5
16E00
330
16D00
100
AcDbEntity
  8
1
  6
Continuous
100
AcDbLine
 10
57.915476
 20
203.2
 30
0.0
 11
55.415476
 21
205.6999999999999
 31
0.0
  0
LINE
  5
16E01
330
16D00
100
AcDbEntity
  8
1
  6
Continuous
100
AcDbLine
 10
55.415476
 20
203.2
 30
0.0
 11
57.915476
 21
205.6999999999999
 31
0.0
  0
LINE
  5
16E02
330
16D00
100
AcDbEntity
  8
1
  6
Continuous
100
AcDbLine
 10
67.130786
 20
197.4499999999999
 30
0.0
 11
65.480786
 21
199.0999999999999
 31
0.0
  0
LINE
  5
16E03
330
16D00
100
AcDbEntity
  8
1
  6
Continuous
100
AcDbLine
 10
65.96109699999999
 20
197.4499999999999
 30
0.0
 11
67.611097
 21
199.0999999999999
 31
0.0
  0
LINE
  5
16E04
330
16D00
100
AcDbEntity
  8
1
  6
Continuous
100
AcDbLine
 10
68.52207800000001
 20
203.2
 30
0.0
 11
66.02207800000001
 21
205.6999999999999
 31
0.0
  0
LINE
  5
16E05
330
16D00
100
AcDbEntity
  8
1
  6
Continuous
100
AcDbLine
 10
66.02207800000001
 20
203.2
 30
0.0
 11
68.52207800000001
 21
205.6999999999999
 31
0.0
  0
LINE
  5
16E06
330
16D00
100
AcDbEntity
  8
1
  6
Continuous
100
AcDbLine
 10
62.88814499999999
 20
197.4499999999999
 30
0.0
 11
61.23814499999999
 21
199.0999999999999
 31
0.0
  0
LINE
  5
16E07
330
16D00
100
AcDbEntity
  8
1
  6
Continuous
100
AcDbLine
 10
61.71845600000001
 20
197.4499999999999
 30
0.0
 11
63.36845699999999
 21
199.0999999999999
 31
0.0
  0
LINE
  5
16E08
330
16D00
100
AcDbEntity
  8
1
  6
Continuous
100
AcDbLine
 10
60.766825
 20
197.4499999999999
 30
0.0
 11
59.116825
 21
199.0999999999999
 31
0.0
  0
LINE
  5
16E09
330
16D00
100
AcDbEntity
  8
1
  6
Continuous
100
AcDbLine
 10
59.597136
 20
197.4499999999999
 30
0.0
 11
61.24713599999999
 21
199.0999999999999
 31
0.0
  0
LINE
  5
16E0A
330
16D00
100
AcDbEntity
  8
1
  6
Continuous
100
AcDbLine
 10
65.009466
 20
197.4499999999999
 30
0.0
 11
63.35946599999999
 21
199.0999999999999
 31
0.0
  0
LINE
  5
16E0B
330
16D00
100
AcDbEntity
  8
1
  6
Continuous
100
AcDbLine
 10
63.83977699999999
 20
197.4499999999999
 30
0.0
 11
65.489777
 21
199.0999999999999
 31
0.0
  0
LINE
  5
16E0C
330
16D00
100
AcDbEntity
  8
1
  6
Continuous
100
AcDbLine
 10
64.279437
 20
203.2
 30
0.0
 11
61.779437
 21
205.6999999999999
 31
0.0
  0
LINE
  5
16E0D
330
16D00
100
AcDbEntity
  8
1
  6
Continuous
100
AcDbLine
 10
61.779437
 20
203.2
 30
0.0
 11
64.279437
 21
205.6999999999999
 31
0.0
  0
LINE
  5
16E0E
330
16D00
100
AcDbEntity
  8
1
  6
Continuous
100
AcDbLine
 10
62.15811699999999
 20
203.2
 30
0.0
 11
59.65811699999999
 21
205.6999999999999
 31
0.0
  0
LINE
  5
16E0F
330
16D00
100
AcDbEntity
  8
1
  6
Continuous
100
AcDbLine
 10
59.65811699999999
 20
203.2
 30
0.0
 11
62.15811699999999
 21
205.6999999999999
 31
0.0
  0
LINE
  5
16E10
330
16D00
100
AcDbEntity
  8
1
  6
Continuous
100
AcDbLine
 10
66.40075799999999
 20
203.2
 30
0.0
 11
63.90075799999999
 21
205.6999999999999
 31
0.0
  0
LINE
  5
16E11
330
16D00
100
AcDbEntity
  8
1
  6
Continuous
100
AcDbLine
 10
63.90075799999999
 20
203.2
 30
0.0
 11
66.40075799999999
 21
205.6999999999999
 31
0.0
  0
LINE
  5
16E12
330
16D00
100
AcDbEntity
  8
1
  6
Continuous
100
AcDbLine
 10
71.37342700000002
 20
197.4499999999999
 30
0.0
 11
69.72342600000001
 21
199.0999999999999
 31
0.0
  0
LINE
  5
16E13
330
16D00
100
AcDbEntity
  8
1
  6
Continuous
100
AcDbLine
 10
70.203738
 20
197.4499999999999
 30
0.0
 11
71.85373800000002
 21
199.0999999999999
 31
0.0
  0
LINE
  5
16E14
330
16D00
100
AcDbEntity
  8
1
  6
Continuous
100
AcDbLine
 10
69.25210600000001
 20
197.4499999999999
 30
0.0
 11
67.60210699999999
 21
199.0999999999999
 31
0.0
  0
LINE
  5
16E15
330
16D00
100
AcDbEntity
  8
1
  6
Continuous
100
AcDbLine
 10
68.082417
 20
197.4499999999999
 30
0.0
 11
69.73241699999999
 21
199.0999999999999
 31
0.0
  0
LINE
  5
16E16
330
16D00
100
AcDbEntity
  8
1
  6
Continuous
100
AcDbLine
 10
73.0
 20
197.944747
 30
0.0
 11
71.84474699999999
 21
199.0999999999999
 31
0.0
  0
LINE
  5
16E17
330
16D00
100
AcDbEntity
  8
1
  6
Continuous
100
AcDbLine
 10
73.0
 20
198.124942
 30
0.0
 11
72.325058
 21
197.4499999999999
 31
0.0
  0
ARC
  5
16E18
330
16D00
100
AcDbEntity
  8
1
  6
Continuous
100
AcDbCircle
 10
72.0
 20
199.9
 30
0.0
 40
1.0
100
AcDbArc
 50
0.0
 51
90.0
  0
LINE
  5
16E19
330
16D00
100
AcDbEntity
  8
1
  6
Continuous
100
AcDbLine
 10
72.764719
 20
203.2
 30
0.0
 11
70.264719
 21
205.6999999999999
 31
0.0
  0
LINE
  5
16E1A
330
16D00
100
AcDbEntity
  8
1
  6
Continuous
100
AcDbLine
 10
70.264719
 20
203.2
 30
0.0
 11
72.764719
 21
205.6999999999999
 31
0.0
  0
LINE
  5
16E1B
330
16D00
100
AcDbEntity
  8
1
  6
Continuous
100
AcDbLine
 10
70.64339800000002
 20
203.2
 30
0.0
 11
68.143398
 21
205.6999999999999
 31
0.0
  0
LINE
  5
16E1C
330
16D00
100
AcDbEntity
  8
1
  6
Continuous
100
AcDbLine
 10
68.143398
 20
203.2
 30
0.0
 11
70.64339800000002
 21
205.6999999999999
 31
0.0
  0
ARC
  5
16E1D
330
16D00
100
AcDbEntity
  8
1
  6
Continuous
100
AcDbCircle
 10
77.0
 20
218.6999999999999
 30
0.0
 40
10.0
100
AcDbArc
 50
270.0
 51
306.8698979999999
  0
ARC
  5
16E1E
330
16D00
100
AcDbEntity
  8
1
  6
Continuous
100
AcDbCircle
 10
77.0
 20
207.2
 30
0.0
 40
1.5
100
AcDbArc
 50
0.0
 51
90.0
  0
ARC
  5
16E1F
330
16D00
100
AcDbEntity
  8
1
  6
Continuous
100
AcDbCircle
 10
79.5
 20
201.2
 30
0.0
 40
2.0
100
AcDbArc
 50
0.0
 51
90.0
  0
LINE
  5
16E20
330
16D00
100
AcDbEntity
  8
1
  6
Continuous
100
AcDbLine
 10
79.12868
 20
203.2
 30
0.0
 11
76.62868
 21
205.6999999999999
 31
0.0
  0
LINE
  5
16E21
330
16D00
100
AcDbEntity
  8
1
  6
Continuous
100
AcDbLine
 10
78.75
 20
205.6999999999999
 30
0.0
 11
80.5
 21
203.9499999999999
 31
0.0
  0
LINE
  5
16E22
330
16D00
100
AcDbEntity
  8
1
  6
Continuous
100
AcDbLine
 10
76.62868
 20
203.2
 30
0.0
 11
79.12868
 21
205.6999999999999
 31
0.0
  0
LINE
  5
16E23
330
16D00
100
AcDbEntity
  8
1
  6
Continuous
100
AcDbLine
 10
78.75
 20
203.2
 30
0.0
 11
80.5
 21
204.95
 31
0.0
  0
LINE
  5
16E24
330
16D00
100
AcDbEntity
  8
1
  6
Continuous
100
AcDbLine
 10
78.5
 20
206.6999999999999
 30
0.0
 11
78.5
 21
207.2
 31
0.0
  0
LINE
  5
16E25
330
16D00
100
AcDbEntity
  8
4
  6
CENTER
100
AcDbLine
 10
82.0
 20
208.4
 30
0.0
 11
82.0
 21
215.3
 31
0.0
  0
LINE
  5
16E26
330
16D00
100
AcDbEntity
  8
1
  6
Continuous
100
AcDbLine
 10
89.0
 20
213.0
 30
0.0
 11
89.0
 21
210.6999999999999
 31
0.0
  0
LINE
  5
16E27
330
16D00
100
AcDbEntity
  8
4
  6
CENTER
100
AcDbLine
 10
280.8999999999999
 20
170.0
 30
0.0
 11
340.8999999999999
 21
170.0
 31
0.0
  0
LINE
  5
16E28
330
16D00
100
AcDbEntity
  8
1
  6
Continuous
100
AcDbLine
 10
301.856602
 20
203.2
 30
0.0
 11
299.356602
 21
205.6999999999999
 31
0.0
  0
LINE
  5
16E29
330
16D00
100
AcDbEntity
  8
1
  6
Continuous
100
AcDbLine
 10
299.356602
 20
203.2
 30
0.0
 11
301.856602
 21
205.6999999999999
 31
0.0
  0
ARC
  5
16E2A
330
16D00
100
AcDbEntity
  8
1
  6
Continuous
100
AcDbCircle
 10
301.0
 20
184.0
 30
0.0
 40
12.5
100
AcDbArc
 50
90.0
 51
179.2916779999999
  0
ARC
  5
16E2B
330
16D00
100
AcDbEntity
  8
1
  6
Continuous
100
AcDbCircle
 10
300.4999999999999
 20
193.106032
 30
0.0
 40
1.5
100
AcDbArc
 50
129.5590699999999
 51
180.0
  0
ARC
  5
16E2C
330
16D00
100
AcDbEntity
  8
1
  6
Continuous
100
AcDbCircle
 10
300.4999999999999
 20
146.893968
 30
0.0
 40
1.5
100
AcDbArc
 50
180.0
 51
266.389565
  0
LINE
  5
16E2D
330
16D00
100
AcDbEntity
  8
1
  6
Continuous
100
AcDbLine
 10
289.4999999999999
 20
203.2
 30
0.0
 11
336.5
 21
203.2
 31
0.0
  0
LINE
  5
16E2E
330
16D00
100
AcDbEntity
  8
1
  6
Continuous
100
AcDbLine
 10
289.4999999999999
 20
205.6999999999999
 30
0.0
 11
336.5
 21
205.6999999999999
 31
0.0
  0
LINE
  5
16E2F
330
16D00
100
AcDbEntity
  8
1
  6
Continuous
100
AcDbLine
 10
289.4999999999999
 20
206.6999999999999
 30
0.0
 11
336.5
 21
206.6999999999999
 31
0.0
  0
LINE
  5
16E30
330
16D00
100
AcDbEntity
  8
1
  6
Continuous
100
AcDbLine
 10
293.0
 20
208.6999999999999
 30
0.0
 11
333.0
 21
208.6999999999999
 31
0.0
  0
LINE
  5
16E31
330
16D00
100
AcDbEntity
  8
1
  6
Continuous
100
AcDbLine
 10
281.0
 20
210.6999999999999
 30
0.0
 11
345.0
 21
210.6999999999999
 31
0.0
  0
LINE
  5
16E32
330
16D00
100
AcDbEntity
  8
1
  6
Continuous
100
AcDbLine
 10
281.0
 20
213.0
 30
0.0
 11
345.0
 21
213.0
 31
0.0
  0
LINE
  5
16E33
330
16D00
100
AcDbEntity
  8
1
  6
Continuous
100
AcDbLine
 10
299.0
 20
146.893968
 30
0.0
 11
299.0
 21
193.106032
 31
0.0
  0
CIRCLE
  5
16E34
330
16D00
100
AcDbEntity
  8
1
  6
Continuous
100
AcDbCircle
 10
169.0
 20
170.0
 30
0.0
 40
4.0
  0
ARC
  5
16E35
330
16D00
100
AcDbEntity
  8
1
  6
Continuous
100
AcDbCircle
 10
300.377004
 20
187.068001
 30
0.0
 40
9.369384
100
AcDbArc
 50
101.478544
 51
172.941843
  0
LINE
  5
16E36
330
16D00
100
AcDbEntity
  8
1
  6
Continuous
100
AcDbLine
 10
297.0
 20
160.0
 30
0.0
 11
297.0
 21
195.8076349999998
 31
0.0
  0
LINE
  5
16E37
330
16D00
100
AcDbEntity
  8
1
  6
Continuous
100
AcDbLine
 10
288.5
 20
184.0699219999999
 30
0.0
 11
288.5
 21
200.7
 31
0.0
  0
LINE
  5
16E38
330
16D00
100
AcDbEntity
  8
1
  6
Continuous
100
AcDbLine
 10
297.8999999999999
 20
160.0
 30
0.0
 11
297.8999999999999
 21
180.0
 31
0.0
  0
LINE
  5
16E39
330
16D00
100
AcDbEntity
  8
1
  6
Continuous
100
AcDbLine
 10
294.7
 20
160.0
 30
0.0
 11
294.7
 21
161.189352
 31
0.0
  0
LINE
  5
16E3A
330
16D00
100
AcDbEntity
  8
1
  6
Continuous
100
AcDbLine
 10
297.0
 20
160.0
 30
0.0
 11
294.7
 21
160.0
 31
0.0
  0
ARC
  5
16E3B
330
16D00
100
AcDbEntity
  8
1
  6
Continuous
100
AcDbCircle
 10
290.2
 20
161.189352
 30
0.0
 40
4.5
100
AcDbArc
 50
0.0
 51
30.84897199999999
  0
ARC
  5
16E3C
330
16D00
100
AcDbEntity
  8
1
  6
Continuous
100
AcDbCircle
 10
290.2
 20
161.189352
 30
0.0
 40
6.799999999999998
100
AcDbArc
 50
0.0
 51
30.84897199999999
  0
LINE
  5
16E3D
330
16D00
100
AcDbEntity
  8
1
  6
Continuous
100
AcDbLine
 10
297.0
 20
164.5
 30
0.0
 11
297.8999999999999
 21
164.5
 31
0.0
  0
LINE
  5
16E3E
330
16D00
100
AcDbEntity
  8
1
  6
Continuous
100
AcDbLine
 10
297.0
 20
175.5
 30
0.0
 11
297.8999999999999
 21
175.5
 31
0.0
  0
LINE
  5
16E3F
330
16D00
100
AcDbEntity
  8
1
  6
Continuous
100
AcDbLine
 10
281.0
 20
213.0
 30
0.0
 11
281.0
 21
210.6999999999999
 31
0.0
  0
ARC
  5
16E40
330
16D00
100
AcDbEntity
  8
1
  6
Continuous
100
AcDbCircle
 10
293.0
 20
207.2
 30
0.0
 40
1.5
100
AcDbArc
 50
90.0
 51
180.0
  0
LINE
  5
16E41
330
16D00
100
AcDbEntity
  8
1
  6
Continuous
100
AcDbLine
 10
293.3713200000001
 20
203.2
 30
0.0
 11
290.87132
 21
205.6999999999999
 31
0.0
  0
LINE
  5
16E42
330
16D00
100
AcDbEntity
  8
1
  6
Continuous
100
AcDbLine
 10
290.87132
 20
203.2
 30
0.0
 11
293.3713200000001
 21
205.6999999999999
 31
0.0
  0
ARC
  5
16E43
330
16D00
100
AcDbEntity
  8
1
  6
Continuous
100
AcDbCircle
 10
291.0
 20
200.7
 30
0.0
 40
2.5
100
AcDbArc
 50
90.0
 51
180.0
  0
LINE
  5
16E44
330
16D00
100
AcDbEntity
  8
1
  6
Continuous
100
AcDbLine
 10
291.25
 20
203.2
 30
0.0
 11
289.4999999999999
 21
204.95
 31
0.0
  0
LINE
  5
16E45
330
16D00
100
AcDbEntity
  8
1
  6
Continuous
100
AcDbLine
 10
291.25
 20
205.6999999999999
 30
0.0
 11
289.4999999999999
 21
203.9499999999999
 31
0.0
  0
LINE
  5
16E46
330
16D00
100
AcDbEntity
  8
1
  6
Continuous
100
AcDbLine
 10
291.5
 20
206.6999999999999
 30
0.0
 11
291.5
 21
207.2
 31
0.0
  0
LINE
  5
16E47
330
16D00
100
AcDbEntity
  8
1
  6
Continuous
100
AcDbLine
 10
297.6139609999999
 20
203.2
 30
0.0
 11
295.1139609999998
 21
205.6999999999999
 31
0.0
  0
LINE
  5
16E48
330
16D00
100
AcDbEntity
  8
1
  6
Continuous
100
AcDbLine
 10
295.1139609999998
 20
203.2
 30
0.0
 11
297.6139609999999
 21
205.6999999999999
 31
0.0
  0
LINE
  5
16E49
330
16D00
100
AcDbEntity
  8
1
  6
Continuous
100
AcDbLine
 10
295.492641
 20
203.2
 30
0.0
 11
292.9926409999998
 21
205.6999999999999
 31
0.0
  0
LINE
  5
16E4A
330
16D00
100
AcDbEntity
  8
1
  6
Continuous
100
AcDbLine
 10
292.9926409999998
 20
203.2
 30
0.0
 11
295.492641
 21
205.6999999999999
 31
0.0
  0
LINE
  5
16E4B
330
16D00
100
AcDbEntity
  8
1
  6
Continuous
100
AcDbLine
 10
299.7352809999998
 20
203.2
 30
0.0
 11
297.2352809999998
 21
205.6999999999999
 31
0.0
  0
LINE
  5
16E4C
330
16D00
100
AcDbEntity
  8
1
  6
Continuous
100
AcDbLine
 10
297.2352809999998
 20
203.2
 30
0.0
 11
299.7352809999998
 21
205.6999999999999
 31
0.0
  0
ARC
  5
16E4D
330
16D00
100
AcDbEntity
  8
1
  6
Continuous
100
AcDbCircle
 10
293.0
 20
218.6999999999999
 30
0.0
 40
10.0
100
AcDbArc
 50
233.130102
 51
270.0
  0
LINE
  5
16E4E
330
16D00
100
AcDbEntity
  8
4
  6
CENTER
100
AcDbLine
 10
313.0
 20
140.0
 30
0.0
 11
313.0
 21
218.0
 31
0.0
  0
LINE
  5
16E4F
330
16D00
100
AcDbEntity
  8
1
  6
Continuous
100
AcDbLine
 10
327.0
 20
146.893968
 30
0.0
 11
327.0
 21
193.106032
 31
0.0
  0
ARC
  5
16E50
330
16D00
100
AcDbEntity
  8
1
  6
Continuous
100
AcDbCircle
 10
313.0
 20
345.0
 30
0.0
 40
200.0
100
AcDbArc
 50
266.389565
 51
273.610435
  0
ARC
  5
16E51
330
16D00
100
AcDbEntity
  8
1
  6
Continuous
100
AcDbCircle
 10
325.4999999999999
 20
146.893968
 30
0.0
 40
1.5
100
AcDbArc
 50
273.610435
 51
0.0
  0
ARC
  5
16E52
330
16D00
100
AcDbEntity
  8
1
  6
Continuous
100
AcDbCircle
 10
325.622996
 20
187.068001
 30
0.0
 40
9.369384
100
AcDbArc
 50
7.058156999999998
 51
78.52145600000001
  0
ARC
  5
16E53
330
16D00
100
AcDbEntity
  8
1
  6
Continuous
100
AcDbCircle
 10
325.0
 20
184.0
 30
0.0
 40
12.5
100
AcDbArc
 50
0.0
 51
90.0
  0
LINE
  5
16E54
330
16D00
100
AcDbEntity
  8
1
  6
Continuous
100
AcDbLine
 10
329.0
 20
160.0
 30
0.0
 11
329.0
 21
195.8076349999998
 31
0.0
  0
LINE
  5
16E55
330
16D00
100
AcDbEntity
  8
1
  6
Continuous
100
AcDbLine
 10
337.5
 20
184.0
 30
0.0
 11
337.5
 21
200.7
 31
0.0
  0
ARC
  5
16E56
330
16D00
100
AcDbEntity
  8
1
  6
Continuous
100
AcDbCircle
 10
298.16451
 20
183.6682279999999
 30
0.0
 40
37.03754099999999
100
AcDbArc
 50
329.151028
 51
7.058156999999998
  0
ARC
  5
16E57
330
16D00
100
AcDbEntity
  8
1
  6
Continuous
100
AcDbCircle
 10
298.16451
 20
183.6682279999999
 30
0.0
 40
39.33754099999998
100
AcDbArc
 50
329.151028
 51
0.7083220000000001
  0
LINE
  5
16E58
330
16D00
100
AcDbEntity
  8
1
  6
Continuous
100
AcDbLine
 10
331.3
 20
160.0
 30
0.0
 11
331.3
 21
161.189352
 31
0.0
  0
LINE
  5
16E59
330
16D00
100
AcDbEntity
  8
1
  6
Continuous
100
AcDbLine
 10
329.0
 20
160.0
 30
0.0
 11
331.3
 21
160.0
 31
0.0
  0
ARC
  5
16E5A
330
16D00
100
AcDbEntity
  8
1
  6
Continuous
100
AcDbCircle
 10
335.8
 20
161.189352
 30
0.0
 40
6.799999999999998
100
AcDbArc
 50
149.1510279999999
 51
180.0
  0
ARC
  5
16E5B
330
16D00
100
AcDbEntity
  8
1
  6
Continuous
100
AcDbCircle
 10
335.8
 20
161.189352
 30
0.0
 40
4.5
100
AcDbArc
 50
149.1510279999999
 51
180.0
  0
ARC
  5
16E5C
330
16D00
100
AcDbEntity
  8
1
  6
Continuous
100
AcDbCircle
 10
325.4999999999999
 20
193.106032
 30
0.0
 40
1.5
100
AcDbArc
 50
0.0
 51
50.44093000000001
  0
LINE
  5
16E5D
330
16D00
100
AcDbEntity
  8
1
  6
Continuous
100
AcDbLine
 10
333.676407
 20
203.2
 30
0.0
 11
331.1764069999999
 21
205.6999999999999
 31
0.0
  0
LINE
  5
16E5E
330
16D00
100
AcDbEntity
  8
1
  6
Continuous
100
AcDbLine
 10
331.1764069999999
 20
203.2
 30
0.0
 11
333.676407
 21
205.6999999999999
 31
0.0
  0
LINE
  5
16E5F
330
16D00
100
AcDbEntity
  8
1
  6
Continuous
100
AcDbLine
 10
318.8271639999999
 20
203.2
 30
0.0
 11
316.327164
 21
205.6999999999999
 31
0.0
  0
LINE
  5
16E60
330
16D00
100
AcDbEntity
  8
1
  6
Continuous
100
AcDbLine
 10
316.705844
 20
203.2
 30
0.0
 11
314.205844
 21
205.6999999999999
 31
0.0
  0
LINE
  5
16E61
330
16D00
100
AcDbEntity
  8
1
  6
Continuous
100
AcDbLine
 10
316.327164
 20
203.2
 30
0.0
 11
318.8271639999999
 21
205.6999999999999
 31
0.0
  0
LINE
  5
16E62
330
16D00
100
AcDbEntity
  8
1
  6
Continuous
100
AcDbLine
 10
314.205844
 20
203.2
 30
0.0
 11
316.705844
 21
205.6999999999999
 31
0.0
  0
LINE
  5
16E63
330
16D00
100
AcDbEntity
  8
1
  6
Continuous
100
AcDbLine
 10
310.3418829999998
 20
203.2
 30
0.0
 11
307.8418829999999
 21
205.6999999999999
 31
0.0
  0
LINE
  5
16E64
330
16D00
100
AcDbEntity
  8
1
  6
Continuous
100
AcDbLine
 10
308.2205629999999
 20
203.2
 30
0.0
 11
305.7205629999999
 21
205.6999999999999
 31
0.0
  0
LINE
  5
16E65
330
16D00
100
AcDbEntity
  8
1
  6
Continuous
100
AcDbLine
 10
307.8418829999999
 20
203.2
 30
0.0
 11
310.3418829999998
 21
205.6999999999999
 31
0.0
  0
LINE
  5
16E66
330
16D00
100
AcDbEntity
  8
1
  6
Continuous
100
AcDbLine
 10
305.7205629999999
 20
203.2
 30
0.0
 11
308.2205629999999
 21
205.6999999999999
 31
0.0
  0
LINE
  5
16E67
330
16D00
100
AcDbEntity
  8
1
  6
Continuous
100
AcDbLine
 10
325.0
 20
196.5
 30
0.0
 11
301.0
 21
196.5
 31
0.0
  0
LINE
  5
16E68
330
16D00
100
AcDbEntity
  8
1
  6
Continuous
100
AcDbLine
 10
306.099242
 20
203.2
 30
0.0
 11
303.5992419999999
 21
205.6999999999999
 31
0.0
  0
LINE
  5
16E69
330
16D00
100
AcDbEntity
  8
1
  6
Continuous
100
AcDbLine
 10
303.5992419999999
 20
203.2
 30
0.0
 11
306.099242
 21
205.6999999999999
 31
0.0
  0
LINE
  5
16E6A
330
16D00
100
AcDbEntity
  8
1
  6
Continuous
100
AcDbLine
 10
303.9779219999999
 20
203.2
 30
0.0
 11
301.4779219999998
 21
205.6999999999999
 31
0.0
  0
LINE
  5
16E6B
330
16D00
100
AcDbEntity
  8
1
  6
Continuous
100
AcDbLine
 10
301.4779219999998
 20
203.2
 30
0.0
 11
303.9779219999999
 21
205.6999999999999
 31
0.0
  0
LINE
  5
16E6C
330
16D00
100
AcDbEntity
  8
1
  6
Continuous
100
AcDbLine
 10
314.5845239999999
 20
203.2
 30
0.0
 11
312.0845239999999
 21
205.6999999999999
 31
0.0
  0
LINE
  5
16E6D
330
16D00
100
AcDbEntity
  8
1
  6
Continuous
100
AcDbLine
 10
312.4632029999999
 20
203.2
 30
0.0
 11
309.9632029999999
 21
205.6999999999999
 31
0.0
  0
LINE
  5
16E6E
330
16D00
100
AcDbEntity
  8
1
  6
Continuous
100
AcDbLine
 10
312.0845239999999
 20
203.2
 30
0.0
 11
314.5845239999999
 21
205.6999999999999
 31
0.0
  0
LINE
  5
16E6F
330
16D00
100
AcDbEntity
  8
1
  6
Continuous
100
AcDbLine
 10
309.9632029999999
 20
203.2
 30
0.0
 11
312.4632029999999
 21
205.6999999999999
 31
0.0
  0
LINE
  5
16E70
330
16D00
100
AcDbEntity
  8
1
  6
Continuous
100
AcDbLine
 10
325.1911259999999
 20
203.2
 30
0.0
 11
322.691126
 21
205.6999999999999
 31
0.0
  0
LINE
  5
16E71
330
16D00
100
AcDbEntity
  8
1
  6
Continuous
100
AcDbLine
 10
322.691126
 20
203.2
 30
0.0
 11
325.1911259999999
 21
205.6999999999999
 31
0.0
  0
LINE
  5
16E72
330
16D00
100
AcDbEntity
  8
1
  6
Continuous
100
AcDbLine
 10
320.9484849999999
 20
203.2
 30
0.0
 11
318.448485
 21
205.6999999999999
 31
0.0
  0
LINE
  5
16E73
330
16D00
100
AcDbEntity
  8
1
  6
Continuous
100
AcDbLine
 10
318.448485
 20
203.2
 30
0.0
 11
320.9484849999999
 21
205.6999999999999
 31
0.0
  0
LINE
  5
16E74
330
16D00
100
AcDbEntity
  8
1
  6
Continuous
100
AcDbLine
 10
323.0698049999999
 20
203.2
 30
0.0
 11
320.5698049999999
 21
205.6999999999999
 31
0.0
  0
LINE
  5
16E75
330
16D00
100
AcDbEntity
  8
1
  6
Continuous
100
AcDbLine
 10
320.5698049999999
 20
203.2
 30
0.0
 11
323.0698049999999
 21
205.6999999999999
 31
0.0
  0
LINE
  5
16E76
330
16D00
100
AcDbEntity
  8
1
  6
Continuous
100
AcDbLine
 10
329.433766
 20
203.2
 30
0.0
 11
326.933766
 21
205.6999999999999
 31
0.0
  0
LINE
  5
16E77
330
16D00
100
AcDbEntity
  8
1
  6
Continuous
100
AcDbLine
 10
326.933766
 20
203.2
 30
0.0
 11
329.433766
 21
205.6999999999999
 31
0.0
  0
LINE
  5
16E78
330
16D00
100
AcDbEntity
  8
1
  6
Continuous
100
AcDbLine
 10
327.312446
 20
203.2
 30
0.0
 11
324.812446
 21
205.6999999999999
 31
0.0
  0
LINE
  5
16E79
330
16D00
100
AcDbEntity
  8
1
  6
Continuous
100
AcDbLine
 10
324.812446
 20
203.2
 30
0.0
 11
327.312446
 21
205.6999999999999
 31
0.0
  0
LINE
  5
16E7A
330
16D00
100
AcDbEntity
  8
1
  6
Continuous
100
AcDbLine
 10
331.555087
 20
203.2
 30
0.0
 11
329.055087
 21
205.6999999999999
 31
0.0
  0
LINE
  5
16E7B
330
16D00
100
AcDbEntity
  8
1
  6
Continuous
100
AcDbLine
 10
329.055087
 20
203.2
 30
0.0
 11
331.555087
 21
205.6999999999999
 31
0.0
  0
ARC
  5
16E7C
330
16D00
100
AcDbEntity
  8
1
  6
Continuous
100
AcDbCircle
 10
333.0
 20
207.2
 30
0.0
 40
1.5
100
AcDbArc
 50
0.0
 51
90.0
  0
ARC
  5
16E7D
330
16D00
100
AcDbEntity
  8
1
  6
Continuous
100
AcDbCircle
 10
335.0
 20
200.7
 30
0.0
 40
2.5
100
AcDbArc
 50
0.0
 51
90.0
  0
LINE
  5
16E7E
330
16D00
100
AcDbEntity
  8
1
  6
Continuous
100
AcDbLine
 10
336.5
 20
204.6190479999999
 30
0.0
 11
335.4190479999999
 21
205.6999999999999
 31
0.0
  0
LINE
  5
16E7F
330
16D00
100
AcDbEntity
  8
1
  6
Continuous
100
AcDbLine
 10
335.797727
 20
203.2
 30
0.0
 11
333.297727
 21
205.6999999999999
 31
0.0
  0
LINE
  5
16E80
330
16D00
100
AcDbEntity
  8
1
  6
Continuous
100
AcDbLine
 10
335.4190479999999
 20
203.2
 30
0.0
 11
336.5
 21
204.280952
 31
0.0
  0
LINE
  5
16E81
330
16D00
100
AcDbEntity
  8
1
  6
Continuous
100
AcDbLine
 10
333.297727
 20
203.2
 30
0.0
 11
335.797727
 21
205.6999999999999
 31
0.0
  0
LINE
  5
16E82
330
16D00
100
AcDbEntity
  8
1
  6
Continuous
100
AcDbLine
 10
334.5
 20
206.6999999999999
 30
0.0
 11
334.5
 21
207.2
 31
0.0
  0
ARC
  5
16E83
330
16D00
100
AcDbEntity
  8
1
  6
Continuous
100
AcDbCircle
 10
333.0
 20
218.6999999999999
 30
0.0
 40
10.0
100
AcDbArc
 50
270.0
 51
306.8698979999999
  0
LINE
  5
16E84
330
16D00
100
AcDbEntity
  8
1
  6
Continuous
100
AcDbLine
 10
345.0
 20
213.0
 30
0.0
 11
345.0
 21
210.6999999999999
 31
0.0
  0
LINE
  5
16E85
330
16D00
100
AcDbEntity
  8
1
  6
Continuous
100
AcDbLine
 10
72.25896
 20
197.4499999999999
 30
0.0
 11
72.25896
 21
196.455507
 31
0.0
  0
LINE
  5
16E86
330
16D00
100
AcDbEntity
  8
1
  6
Continuous
100
AcDbLine
 10
41.74103999999998
 20
197.4499999999999
 30
0.0
 11
41.74103999999998
 21
196.455507
 31
0.0
  0
LINE
  5
16E87
330
16D00
100
AcDbEntity
  8
1
  6
Continuous
100
AcDbLine
 10
73.0
 20
199.0999999999999
 30
0.0
 11
41.0
 21
199.0999999999999
 31
0.0
  0
LINE
  5
16E88
330
16D00
100
AcDbEntity
  8
1
  6
Continuous
100
AcDbLine
 10
73.0
 20
197.4499999999999
 30
0.0
 11
41.0
 21
197.4499999999999
 31
0.0
  0
LINE
  5
16E89
330
16D00
100
AcDbEntity
  8
1
  6
Continuous
100
AcDbLine
 10
72.25896
 20
196.455507
 30
0.0
 11
41.74103999999998
 21
196.455507
 31
0.0
  0
ARC
  5
16E8A
330
16D00
100
AcDbEntity
  8
1
  6
Continuous
100
AcDbCircle
 10
67.313249
 20
198.684887
 30
0.0
 40
5.424959999999998
100
AcDbArc
 50
299.324352
 51
335.7355569999999
  0
ARC
  5
16E8B
330
16D00
100
AcDbEntity
  8
1
  6
Continuous
100
AcDbCircle
 10
46.686751
 20
198.684887
 30
0.0
 40
5.424959999999998
100
AcDbArc
 50
204.264443
 51
240.6756479999999
  0
LINE
  5
16E8C
330
16D00
100
AcDbEntity
  8
1
  6
Continuous
100
AcDbLine
 10
419.0785359999998
 20
196.455507
 30
0.0
 11
416.635166
 21
196.455507
 31
0.0
  0
ARC
  5
16E8D
330
16D00
100
AcDbEntity
  8
1
  6
Continuous
100
AcDbCircle
 10
421.49168
 20
198.9691739999999
 30
0.0
 40
5.468479
100
AcDbArc
 50
207.365473
 51
256.086107
  0
LINE
  5
16E8E
330
16D00
100
AcDbEntity
  8
1
  6
Continuous
100
AcDbLine
 10
416.635165
 20
196.455507
 30
0.0
 11
416.635165
 21
196.6999999999999
 31
0.0
  0
ARC
  5
16E8F
330
16D00
100
AcDbEntity
  8
1
  6
Continuous
100
AcDbCircle
 10
174.0
 20
218.6999999999999
 30
0.0
 40
10.0
100
AcDbArc
 50
233.130102
 51
270.0
  0
LINE
  5
16E90
330
16D00
100
AcDbEntity
  8
1
  6
Continuous
100
AcDbLine
 10
217.5
 20
203.2
 30
0.0
 11
164.0
 21
203.2
 31
0.0
  0
ARC
  5
16E91
330
16D00
100
AcDbEntity
  8
1
  6
Continuous
100
AcDbCircle
 10
169.0
 20
170.0
 30
0.0
 40
10.0
100
AcDbArc
 50
252.8592249999999
 51
320.9882859999999
  0
ARC
  5
16E92
330
16D00
100
AcDbEntity
  8
1
  6
Continuous
100
AcDbCircle
 10
169.0
 20
170.0
 30
0.0
 40
17.0
100
AcDbArc
 50
115.760602
 51
13.974274
  0
ARC
  5
16E93
330
16D00
100
AcDbEntity
  8
1
  6
Continuous
100
AcDbCircle
 10
169.0
 20
170.0
 30
0.0
 40
16.0
100
AcDbArc
 50
119.1378439999999
 51
11.32458999999999
  0
LINE
  5
16E94
330
16D00
100
AcDbEntity
  8
4
  6
CENTER
100
AcDbLine
 10
199.0
 20
170.0
 30
0.0
 11
139.0
 21
170.0
 31
0.0
  0
ARC
  5
16E95
330
16D00
100
AcDbEntity
  8
1
  6
Continuous
100
AcDbCircle
 10
169.0
 20
170.0
 30
0.0
 40
25.0
100
AcDbArc
 50
100.598998
 51
26.425494
  0
LINE
  5
16E96
330
16D00
100
AcDbEntity
  8
1
  6
Continuous
100
AcDbLine
 10
226.0
 20
213.0
 30
0.0
 11
162.0
 21
213.0
 31
0.0
  0
LINE
  5
16E97
330
16D00
100
AcDbEntity
  8
1
  6
Continuous
100
AcDbLine
 10
226.0
 20
210.6999999999999
 30
0.0
 11
162.0
 21
210.6999999999999
 31
0.0
  0
LINE
  5
16E98
330
16D00
100
AcDbEntity
  8
1
  6
Continuous
100
AcDbLine
 10
201.4587699999999
 20
193.1278819999998
 30
0.0
 11
176.7701729999998
 21
163.705207
 31
0.0
  0
LINE
  5
16E99
330
16D00
100
AcDbEntity
  8
1
  6
Continuous
100
AcDbLine
 10
178.0
 20
199.098503
 30
0.0
 11
178.0
 21
167.88369
 31
0.0
  0
LINE
  5
16E9A
330
16D00
100
AcDbEntity
  8
4
  6
CENTER
100
AcDbLine
 10
169.0
 20
140.0
 30
0.0
 11
169.0
 21
200.0
 31
0.0
  0
LINE
  5
16E9B
330
16D00
100
AcDbEntity
  8
1
  6
Continuous
100
AcDbLine
 10
201.2794369999999
 20
203.2
 30
0.0
 11
198.7794369999998
 21
205.6999999999999
 31
0.0
  0
LINE
  5
16E9C
330
16D00
100
AcDbEntity
  8
1
  6
Continuous
100
AcDbLine
 10
198.7794369999998
 20
203.2
 30
0.0
 11
201.2794369999999
 21
205.6999999999999
 31
0.0
  0
LINE
  5
16E9D
330
16D00
100
AcDbEntity
  8
1
  6
Continuous
100
AcDbLine
 10
214.0
 20
208.6999999999999
 30
0.0
 11
174.0
 21
208.6999999999999
 31
0.0
  0
LINE
  5
16E9E
330
16D00
100
AcDbEntity
  8
1
  6
Continuous
100
AcDbLine
 10
217.5
 20
206.6999999999999
 30
0.0
 11
170.5
 21
206.6999999999999
 31
0.0
  0
LINE
  5
16E9F
330
16D00
100
AcDbEntity
  8
1
  6
Continuous
100
AcDbLine
 10
217.5
 20
205.6999999999999
 30
0.0
 11
170.5
 21
205.6999999999999
 31
0.0
  0
LINE
  5
16EA0
330
16D00
100
AcDbEntity
  8
1
  6
Continuous
100
AcDbLine
 10
215.5
 20
206.6999999999999
 30
0.0
 11
215.5
 21
207.2
 31
0.0
  0
LINE
  5
16EA1
330
16D00
100
AcDbEntity
  8
1
  6
Continuous
100
AcDbLine
 10
215.75
 20
205.6999999999999
 30
0.0
 11
217.5
 21
203.9499999999999
 31
0.0
  0
LINE
  5
16EA2
330
16D00
100
AcDbEntity
  8
1
  6
Continuous
100
AcDbLine
 10
216.1286799999998
 20
203.2
 30
0.0
 11
213.6286799999998
 21
205.6999999999999
 31
0.0
  0
LINE
  5
16EA3
330
16D00
100
AcDbEntity
  8
1
  6
Continuous
100
AcDbLine
 10
215.75
 20
203.2
 30
0.0
 11
217.5
 21
204.95
 31
0.0
  0
LINE
  5
16EA4
330
16D00
100
AcDbEntity
  8
1
  6
Continuous
100
AcDbLine
 10
213.6286799999998
 20
203.2
 30
0.0
 11
216.1286799999998
 21
205.6999999999999
 31
0.0
  0
LINE
  5
16EA5
330
16D00
100
AcDbEntity
  8
1
  6
Continuous
100
AcDbLine
 10
218.5
 20
196.6999999999999
 30
0.0
 11
209.119209
 21
196.6999999999999
 31
0.0
  0
LINE
  5
16EA6
330
16D00
100
AcDbEntity
  8
1
  6
Continuous
100
AcDbLine
 10
218.5
 20
196.6999999999999
 30
0.0
 11
218.5
 21
201.2
 31
0.0
  0
ARC
  5
16EA7
330
16D00
100
AcDbEntity
  8
1
  6
Continuous
100
AcDbCircle
 10
216.5
 20
201.2
 30
0.0
 40
2.0
100
AcDbArc
 50
0.0
 51
90.0
  0
LINE
  5
16EA8
330
16D00
100
AcDbEntity
  8
1
  6
Continuous
100
AcDbLine
 10
209.364835
 20
196.455507
 30
0.0
 11
209.364835
 21
196.6999999999999
 31
0.0
  0
ARC
  5
16EA9
330
16D00
100
AcDbEntity
  8
1
  6
Continuous
100
AcDbCircle
 10
204.50832
 20
198.9691739999999
 30
0.0
 40
5.468479
100
AcDbArc
 50
283.9138929999998
 51
332.634527
  0
LINE
  5
16EAA
330
16D00
100
AcDbEntity
  8
1
  6
Continuous
100
AcDbLine
 10
206.9214639999999
 20
196.455507
 30
0.0
 11
209.364834
 21
196.455507
 31
0.0
  0
LINE
  5
16EAB
330
16D00
100
AcDbEntity
  8
1
  6
Continuous
100
AcDbLine
 10
203.4007579999999
 20
203.2
 30
0.0
 11
200.900758
 21
205.6999999999999
 31
0.0
  0
LINE
  5
16EAC
330
16D00
100
AcDbEntity
  8
1
  6
Continuous
100
AcDbLine
 10
200.900758
 20
203.2
 30
0.0
 11
203.4007579999999
 21
205.6999999999999
 31
0.0
  0
LINE
  5
16EAD
330
16D00
100
AcDbEntity
  8
1
  6
Continuous
100
AcDbLine
 10
207.643398
 20
203.2
 30
0.0
 11
205.143398
 21
205.6999999999999
 31
0.0
  0
LINE
  5
16EAE
330
16D00
100
AcDbEntity
  8
1
  6
Continuous
100
AcDbLine
 10
205.143398
 20
203.2
 30
0.0
 11
207.643398
 21
205.6999999999999
 31
0.0
  0
LINE
  5
16EAF
330
16D00
100
AcDbEntity
  8
1
  6
Continuous
100
AcDbLine
 10
205.5220779999999
 20
203.2
 30
0.0
 11
203.022078
 21
205.6999999999999
 31
0.0
  0
LINE
  5
16EB0
330
16D00
100
AcDbEntity
  8
1
  6
Continuous
100
AcDbLine
 10
203.022078
 20
203.2
 30
0.0
 11
205.5220779999999
 21
205.6999999999999
 31
0.0
  0
LINE
  5
16EB1
330
16D00
100
AcDbEntity
  8
1
  6
Continuous
100
AcDbLine
 10
211.886039
 20
203.2
 30
0.0
 11
209.3860389999999
 21
205.6999999999999
 31
0.0
  0
LINE
  5
16EB2
330
16D00
100
AcDbEntity
  8
1
  6
Continuous
100
AcDbLine
 10
209.3860389999999
 20
203.2
 30
0.0
 11
211.886039
 21
205.6999999999999
 31
0.0
  0
LINE
  5
16EB3
330
16D00
100
AcDbEntity
  8
1
  6
Continuous
100
AcDbLine
 10
214.0073589999999
 20
203.2
 30
0.0
 11
211.5073589999998
 21
205.6999999999999
 31
0.0
  0
LINE
  5
16EB4
330
16D00
100
AcDbEntity
  8
1
  6
Continuous
100
AcDbLine
 10
211.5073589999998
 20
203.2
 30
0.0
 11
214.0073589999999
 21
205.6999999999999
 31
0.0
  0
LINE
  5
16EB5
330
16D00
100
AcDbEntity
  8
1
  6
Continuous
100
AcDbLine
 10
209.7647189999999
 20
203.2
 30
0.0
 11
207.264719
 21
205.6999999999999
 31
0.0
  0
LINE
  5
16EB6
330
16D00
100
AcDbEntity
  8
1
  6
Continuous
100
AcDbLine
 10
207.264719
 20
203.2
 30
0.0
 11
209.7647189999999
 21
205.6999999999999
 31
0.0
  0
ARC
  5
16EB7
330
16D00
100
AcDbEntity
  8
1
  6
Continuous
100
AcDbCircle
 10
205.2658829999999
 20
214.5209009999999
 30
0.0
 40
20.85899799999999
100
AcDbArc
 50
270.0129539999999
 51
271.6319809999999
  0
LINE
  5
16EB8
330
16D00
100
AcDbEntity
  8
1
  6
Continuous
100
AcDbLine
 10
201.939906
 20
193.6611499999999
 30
0.0
 11
205.270599
 21
193.6619029999999
 31
0.0
  0
ARC
  5
16EB9
330
16D00
100
AcDbEntity
  8
1
  6
Continuous
100
AcDbCircle
 10
209.119209
 20
186.6999999999999
 30
0.0
 40
10.0
100
AcDbArc
 50
90.0
 51
139.999953
  0
ARC
  5
16EBA
330
16D00
100
AcDbEntity
  8
1
  6
Continuous
100
AcDbCircle
 10
214.0
 20
207.2
 30
0.0
 40
1.5
100
AcDbArc
 50
0.0
 51
90.0
  0
ARC
  5
16EBB
330
16D00
100
AcDbEntity
  8
1
  6
Continuous
100
AcDbCircle
 10
214.0
 20
218.6999999999999
 30
0.0
 40
10.0
100
AcDbArc
 50
270.0
 51
306.8698979999999
  0
LINE
  5
16EBC
330
16D00
100
AcDbEntity
  8
4
  6
CENTER
100
AcDbLine
 10
219.0
 20
208.4
 30
0.0
 11
219.0
 21
215.3
 31
0.0
  0
LINE
  5
16EBD
330
16D00
100
AcDbEntity
  8
1
  6
Continuous
100
AcDbLine
 10
226.0
 20
213.0
 30
0.0
 11
226.0
 21
210.6999999999999
 31
0.0
  0
LINE
  5
16EBE
330
16D00
100
AcDbEntity
  8
1
  6
Continuous
100
AcDbLine
 10
172.5
 20
206.6999999999999
 30
0.0
 11
172.5
 21
207.2
 31
0.0
  0
LINE
  5
16EBF
330
16D00
100
AcDbEntity
  8
4
  6
CENTER
100
AcDbLine
 10
194.0
 20
176.4602689999999
 30
0.0
 11
194.0
 21
218.0
 31
0.0
  0
LINE
  5
16EC0
330
16D00
100
AcDbEntity
  8
1
  6
Continuous
100
AcDbLine
 10
184.3088739999998
 20
203.2
 30
0.0
 11
181.808874
 21
205.6999999999999
 31
0.0
  0
LINE
  5
16EC1
330
16D00
100
AcDbEntity
  8
1
  6
Continuous
100
AcDbLine
 10
181.808874
 20
203.2
 30
0.0
 11
184.3088739999998
 21
205.6999999999999
 31
0.0
  0
LINE
  5
16EC2
330
16D00
100
AcDbEntity
  8
1
  6
Continuous
100
AcDbLine
 10
190.6728359999999
 20
203.2
 30
0.0
 11
188.1728359999999
 21
205.6999999999999
 31
0.0
  0
LINE
  5
16EC3
330
16D00
100
AcDbEntity
  8
1
  6
Continuous
100
AcDbLine
 10
188.5515149999999
 20
203.2
 30
0.0
 11
186.0515149999999
 21
205.6999999999999
 31
0.0
  0
LINE
  5
16EC4
330
16D00
100
AcDbEntity
  8
1
  6
Continuous
100
AcDbLine
 10
188.1728359999999
 20
203.2
 30
0.0
 11
190.6728359999999
 21
205.6999999999999
 31
0.0
  0
LINE
  5
16EC5
330
16D00
100
AcDbEntity
  8
1
  6
Continuous
100
AcDbLine
 10
186.0515149999999
 20
203.2
 30
0.0
 11
188.5515149999999
 21
205.6999999999999
 31
0.0
  0
LINE
  5
16EC6
330
16D00
100
AcDbEntity
  8
1
  6
Continuous
100
AcDbLine
 10
186.4301949999999
 20
203.2
 30
0.0
 11
183.930195
 21
205.6999999999999
 31
0.0
  0
LINE
  5
16EC7
330
16D00
100
AcDbEntity
  8
1
  6
Continuous
100
AcDbLine
 10
183.930195
 20
203.2
 30
0.0
 11
186.4301949999999
 21
205.6999999999999
 31
0.0
  0
LINE
  5
16EC8
330
16D00
100
AcDbEntity
  8
1
  6
Continuous
100
AcDbLine
 10
199.158117
 20
203.2
 30
0.0
 11
196.6581169999998
 21
205.6999999999999
 31
0.0
  0
LINE
  5
16EC9
330
16D00
100
AcDbEntity
  8
1
  6
Continuous
100
AcDbLine
 10
196.6581169999998
 20
203.2
 30
0.0
 11
199.158117
 21
205.6999999999999
 31
0.0
  0
LINE
  5
16ECA
330
16D00
100
AcDbEntity
  8
1
  6
Continuous
100
AcDbLine
 10
197.036797
 20
203.2
 30
0.0
 11
194.536797
 21
205.6999999999999
 31
0.0
  0
LINE
  5
16ECB
330
16D00
100
AcDbEntity
  8
1
  6
Continuous
100
AcDbLine
 10
194.536797
 20
203.2
 30
0.0
 11
197.036797
 21
205.6999999999999
 31
0.0
  0
LINE
  5
16ECC
330
16D00
100
AcDbEntity
  8
1
  6
Continuous
100
AcDbLine
 10
194.915476
 20
203.2
 30
0.0
 11
192.415476
 21
205.6999999999999
 31
0.0
  0
LINE
  5
16ECD
330
16D00
100
AcDbEntity
  8
1
  6
Continuous
100
AcDbLine
 10
192.7941559999999
 20
203.2
 30
0.0
 11
190.294156
 21
205.6999999999999
 31
0.0
  0
LINE
  5
16ECE
330
16D00
100
AcDbEntity
  8
1
  6
Continuous
100
AcDbLine
 10
192.415476
 20
203.2
 30
0.0
 11
194.915476
 21
205.6999999999999
 31
0.0
  0
LINE
  5
16ECF
330
16D00
100
AcDbEntity
  8
1
  6
Continuous
100
AcDbLine
 10
190.294156
 20
203.2
 30
0.0
 11
192.7941559999999
 21
205.6999999999999
 31
0.0
  0
LINE
  5
16ED0
330
16D00
100
AcDbEntity
  8
1
  6
Continuous
100
AcDbLine
 10
171.580952
 20
203.2
 30
0.0
 11
170.5
 21
204.280952
 31
0.0
  0
LINE
  5
16ED1
330
16D00
100
AcDbEntity
  8
1
  6
Continuous
100
AcDbLine
 10
170.5
 20
204.6190479999999
 30
0.0
 11
171.580952
 21
205.6999999999999
 31
0.0
  0
LINE
  5
16ED2
330
16D00
100
AcDbEntity
  8
1
  6
Continuous
100
AcDbLine
 10
175.8235929999999
 20
203.2
 30
0.0
 11
173.323593
 21
205.6999999999999
 31
0.0
  0
LINE
  5
16ED3
330
16D00
100
AcDbEntity
  8
1
  6
Continuous
100
AcDbLine
 10
173.323593
 20
203.2
 30
0.0
 11
175.8235929999999
 21
205.6999999999999
 31
0.0
  0
LINE
  5
16ED4
330
16D00
100
AcDbEntity
  8
1
  6
Continuous
100
AcDbLine
 10
173.7022729999999
 20
203.2
 30
0.0
 11
171.2022729999999
 21
205.6999999999999
 31
0.0
  0
LINE
  5
16ED5
330
16D00
100
AcDbEntity
  8
1
  6
Continuous
100
AcDbLine
 10
171.2022729999999
 20
203.2
 30
0.0
 11
173.7022729999999
 21
205.6999999999999
 31
0.0
  0
LINE
  5
16ED6
330
16D00
100
AcDbEntity
  8
1
  6
Continuous
100
AcDbLine
 10
180.066234
 20
203.2
 30
0.0
 11
177.566234
 21
205.6999999999999
 31
0.0
  0
LINE
  5
16ED7
330
16D00
100
AcDbEntity
  8
1
  6
Continuous
100
AcDbLine
 10
177.566234
 20
203.2
 30
0.0
 11
180.066234
 21
205.6999999999999
 31
0.0
  0
LINE
  5
16ED8
330
16D00
100
AcDbEntity
  8
1
  6
Continuous
100
AcDbLine
 10
182.187554
 20
203.2
 30
0.0
 11
179.687554
 21
205.6999999999999
 31
0.0
  0
LINE
  5
16ED9
330
16D00
100
AcDbEntity
  8
1
  6
Continuous
100
AcDbLine
 10
179.687554
 20
203.2
 30
0.0
 11
182.187554
 21
205.6999999999999
 31
0.0
  0
LINE
  5
16EDA
330
16D00
100
AcDbEntity
  8
1
  6
Continuous
100
AcDbLine
 10
177.9449129999999
 20
203.2
 30
0.0
 11
175.4449129999999
 21
205.6999999999999
 31
0.0
  0
LINE
  5
16EDB
330
16D00
100
AcDbEntity
  8
1
  6
Continuous
100
AcDbLine
 10
175.4449129999999
 20
203.2
 30
0.0
 11
177.9449129999999
 21
205.6999999999999
 31
0.0
  0
LINE
  5
16EDC
330
16D00
100
AcDbEntity
  8
4
  6
CENTER
100
AcDbLine
 10
169.0
 20
208.4
 30
0.0
 11
169.0
 21
215.3
 31
0.0
  0
ARC
  5
16EDD
330
16D00
100
AcDbEntity
  8
1
  6
Continuous
100
AcDbCircle
 10
174.0
 20
207.2
 30
0.0
 40
1.5
100
AcDbArc
 50
90.0
 51
180.0
  0
LINE
  5
16EDE
330
16D00
100
AcDbEntity
  8
1
  6
Continuous
100
AcDbLine
 10
167.0
 20
203.2
 30
0.0
 11
158.430736
 21
174.7500449999998
 31
0.0
  0
ARC
  5
16EDF
330
16D00
100
AcDbEntity
  8
1
  6
Continuous
100
AcDbCircle
 10
169.4420809999998
 20
171.433375
 30
0.0
 40
11.5
100
AcDbArc
 50
163.237446
 51
252.8592249999999
  0
LINE
  5
16EE0
330
16D00
100
AcDbEntity
  8
1
  6
Continuous
100
AcDbLine
 10
166.307229
 20
200.8999999999999
 30
0.0
 11
164.0
 21
200.8999999999999
 31
0.0
  0
LINE
  5
16EE1
330
16D00
100
AcDbEntity
  8
1
  6
Continuous
100
AcDbLine
 10
164.0
 20
200.8999999999999
 30
0.0
 11
164.0
 21
203.2
 31
0.0
  0
LINE
  5
16EE2
330
16D00
100
AcDbEntity
  8
1
  6
Continuous
100
AcDbLine
 10
162.0
 20
213.0
 30
0.0
 11
162.0
 21
210.6999999999999
 31
0.0
  0
LINE
  5
16EE3
330
16D00
100
AcDbEntity
  8
1
  6
Continuous
100
AcDbLine
 10
294.505023
 20
162.4996109999999
 30
0.0
 11
292.6999999999998
 21
162.4996109999999
 31
0.0
  0
LINE
  5
16EE4
330
16D00
100
AcDbEntity
  8
1
  6
Continuous
100
AcDbLine
 10
287.6999999999998
 20
173.9996109999999
 30
0.0
 11
287.0
 21
173.9996109999999
 31
0.0
  0
LINE
  5
16EE5
330
16D00
100
AcDbEntity
  8
1
  6
Continuous
100
AcDbLine
 10
285.8
 20
172.799611
 30
0.0
 11
285.8
 21
167.199611
 31
0.0
  0
LINE
  5
16EE6
330
16D00
100
AcDbEntity
  8
1
  6
Continuous
100
AcDbLine
 10
287.6999999999998
 20
165.9996109999999
 30
0.0
 11
287.0
 21
165.9996109999999
 31
0.0
  0
LINE
  5
16EE7
330
16D00
100
AcDbEntity
  8
1
  6
Continuous
100
AcDbLine
 10
333.8
 20
162.9996109999999
 30
0.0
 11
333.8
 21
167.0082759999999
 31
0.0
  0
LINE
  5
16EE8
330
16D00
100
AcDbEntity
  8
1
  6
Continuous
100
AcDbLine
 10
333.8
 20
162.9996109999999
 30
0.0
 11
331.680174
 21
162.9996109999999
 31
0.0
  0
LINE
  5
16EE9
330
16D00
100
AcDbEntity
  8
1
  6
Continuous
100
AcDbLine
 10
328.1
 20
160.0
 30
0.0
 11
328.1
 21
180.0
 31
0.0
  0
LINE
  5
16EEA
330
16D00
100
AcDbEntity
  8
1
  6
Continuous
100
AcDbLine
 10
299.0
 20
159.0
 30
0.0
 11
298.8999999999998
 21
159.0
 31
0.0
  0
LINE
  5
16EEB
330
16D00
100
AcDbEntity
  8
1
  6
Continuous
100
AcDbLine
 10
328.1
 20
175.5
 30
0.0
 11
329.0
 21
175.5
 31
0.0
  0
LINE
  5
16EEC
330
16D00
100
AcDbEntity
  8
1
  6
Continuous
100
AcDbLine
 10
329.0
 20
164.5
 30
0.0
 11
328.1
 21
164.5
 31
0.0
  0
ARC
  5
16EED
330
16D00
100
AcDbEntity
  8
1
  6
Continuous
100
AcDbCircle
 10
327.83549
 20
183.6682279999999
 30
0.0
 40
39.33754099999998
100
AcDbArc
 50
179.2916779999999
 51
210.8489720000001
  0
ARC
  5
16EEE
330
16D00
100
AcDbEntity
  8
1
  6
Continuous
100
AcDbCircle
 10
327.83549
 20
183.6682279999999
 30
0.0
 40
37.03754099999999
100
AcDbArc
 50
172.941843
 51
210.8489720000001
  0
LINE
  5
16EEF
330
16D00
100
AcDbEntity
  8
4
  6
CENTER
100
AcDbLine
 10
57.0
 20
140.0
 30
0.0
 11
57.0
 21
218.0
 31
0.0
  0
LINE
  5
16EF0
330
16D00
100
AcDbEntity
  8
4
  6
CENTER
100
AcDbLine
 10
231.0
 20
285.0
 30
0.0
 11
139.0004449999999
 21
285.0
 31
0.0
  0
LINE
  5
16EF1
330
16D00
100
AcDbEntity
  8
4
  6
CENTER
100
AcDbLine
 10
219.0
 20
54.5
 30
0.0
 11
219.0
 21
41.5
 31
0.0
  0
CIRCLE
  5
16EF2
330
16D00
100
AcDbEntity
  8
1
  6
Continuous
100
AcDbCircle
 10
219.0
 20
48.0
 30
0.0
 40
3.25
  0
LINE
  5
16EF3
330
16D00
100
AcDbEntity
  8
1
  6
Continuous
100
AcDbLine
 10
226.0
 20
98.0
 30
0.0
 11
226.0
 21
48.0
 31
0.0
  0
ARC
  5
16EF4
330
16D00
100
AcDbEntity
  8
1
  6
Continuous
100
AcDbCircle
 10
169.0
 20
48.0
 30
0.0
 40
3.25
100
AcDbArc
 50
137.3953159999998
 51
42.60468399999999
  0
LINE
  5
16EF5
330
16D00
100
AcDbEntity
  8
4
  6
CENTER
100
AcDbLine
 10
194.0
 20
110.0
 30
0.0
 11
194.0
 21
36.0
 31
0.0
  0
LINE
  5
16EF6
330
16D00
100
AcDbEntity
  8
4
  6
CENTER
100
AcDbLine
 10
231.0
 20
73.0
 30
0.0
 11
139.0004449999999
 21
73.0
 31
0.0
  0
LINE
  5
16EF7
330
16D00
100
AcDbEntity
  8
1
  6
Continuous
100
AcDbLine
 10
219.0
 20
105.0
 30
0.0
 11
169.0
 21
105.0
 31
0.0
  0
ARC
  5
16EF8
330
16D00
100
AcDbEntity
  8
1
  6
Continuous
100
AcDbCircle
 10
169.0
 20
98.0
 30
0.0
 40
3.25
100
AcDbArc
 50
42.60468399999999
 51
137.3953159999998
  0
ARC
  5
16EF9
330
16D00
100
AcDbEntity
  8
1
  6
Continuous
100
AcDbCircle
 10
169.0
 20
98.0
 30
0.0
 40
7.0
100
AcDbArc
 50
90.0
 51
180.0
  0
ARC
  5
16EFA
330
16D00
100
AcDbEntity
  8
1
  6
Continuous
100
AcDbCircle
 10
344.0
 20
73.0
 30
0.0
 40
200.0
100
AcDbArc
 50
176.799078
 51
183.2009219999999
  0
LINE
  5
16EFB
330
16D00
100
AcDbEntity
  8
1
  6
Continuous
100
AcDbLine
 10
190.6922089999999
 20
87.0
 30
0.0
 11
147.3073459999999
 21
87.0
 31
0.0
  0
LINE
  5
16EFC
330
16D00
100
AcDbEntity
  8
1
  6
Continuous
100
AcDbLine
 10
175.9069069999999
 20
89.0
 30
0.0
 11
157.942081
 21
89.0
 31
0.0
  0
LINE
  5
16EFD
330
16D00
100
AcDbEntity
  8
1
  6
Continuous
100
AcDbLine
 10
175.9069069999999
 20
91.3
 30
0.0
 11
157.942081
 21
91.3
 31
0.0
  0
LINE
  5
16EFE
330
16D00
100
AcDbEntity
  8
1
  6
Continuous
100
AcDbLine
 10
157.942081
 20
91.3
 30
0.0
 11
157.942081
 21
89.0
 31
0.0
  0
LINE
  5
16EFF
330
16D00
100
AcDbEntity
  8
1
  6
Continuous
100
AcDbLine
 10
190.6922089999999
 20
59.0
 30
0.0
 11
147.3073459999999
 21
59.0
 31
0.0
  0
LINE
  5
16F00
330
16D00
100
AcDbEntity
  8
1
  6
Continuous
100
AcDbLine
 10
175.9069069999999
 20
57.0
 30
0.0
 11
157.942081
 21
57.0
 31
0.0
  0
LINE
  5
16F01
330
16D00
100
AcDbEntity
  8
1
  6
Continuous
100
AcDbLine
 10
175.9069069999999
 20
54.7
 30
0.0
 11
157.942081
 21
54.7
 31
0.0
  0
LINE
  5
16F02
330
16D00
100
AcDbEntity
  8
1
  6
Continuous
100
AcDbLine
 10
157.942081
 20
57.0
 30
0.0
 11
157.942081
 21
54.7
 31
0.0
  0
LINE
  5
16F03
330
16D00
100
AcDbEntity
  8
4
  6
CENTER
100
AcDbLine
 10
219.0
 20
104.4999999999999
 30
0.0
 11
219.0
 21
91.5
 31
0.0
  0
CIRCLE
  5
16F04
330
16D00
100
AcDbEntity
  8
1
  6
Continuous
100
AcDbCircle
 10
219.0
 20
98.0
 30
0.0
 40
3.25
  0
LINE
  5
16F05
330
16D00
100
AcDbEntity
  8
4
  6
CENTER
100
AcDbLine
 10
225.4999999999999
 20
98.0
 30
0.0
 11
212.5
 21
98.0
 31
0.0
  0
ARC
  5
16F06
330
16D00
100
AcDbEntity
  8
1
  6
Continuous
100
AcDbCircle
 10
219.0
 20
98.0
 30
0.0
 40
7.0
100
AcDbArc
 50
0.0
 51
90.0
  0
LINE
  5
16F07
330
16D00
100
AcDbEntity
  8
1
  6
Continuous
100
AcDbLine
 10
219.0
 20
41.0
 30
0.0
 11
169.0
 21
41.0
 31
0.0
  0
LINE
  5
16F08
330
16D00
100
AcDbEntity
  8
4
  6
CENTER
100
AcDbLine
 10
175.5
 20
48.0
 30
0.0
 11
162.5
 21
48.0
 31
0.0
  0
ARC
  5
16F09
330
16D00
100
AcDbEntity
  8
1
  6
Continuous
100
AcDbCircle
 10
169.0
 20
48.0
 30
0.0
 40
7.0
100
AcDbArc
 50
180.0
 51
270.0
  0
ARC
  5
16F0A
330
16D00
100
AcDbEntity
  8
1
  6
Continuous
100
AcDbCircle
 10
219.0
 20
48.0
 30
0.0
 40
7.0
100
AcDbArc
 50
270.0
 51
0.0
  0
LINE
  5
16F0B
330
16D00
100
AcDbEntity
  8
4
  6
CENTER
100
AcDbLine
 10
225.4999999999999
 20
48.0
 30
0.0
 11
212.5
 21
48.0
 31
0.0
  0
ARC
  5
16F0C
330
16D00
100
AcDbEntity
  8
1
  6
Continuous
100
AcDbCircle
 10
-6.000445
 20
73.0
 30
0.0
 40
200.0
100
AcDbArc
 50
356.7990779999998
 51
3.201338999999998
  0
ARC
  5
16F0D
330
16D00
100
AcDbEntity
  8
1
  6
Continuous
100
AcDbCircle
 10
190.6922089999999
 20
84.0
 30
0.0
 40
3.0
100
AcDbArc
 50
3.200921999999998
 51
90.0
  0
ARC
  5
16F0E
330
16D00
100
AcDbEntity
  8
1
  6
Continuous
100
AcDbCircle
 10
190.6922089999999
 20
62.0
 30
0.0
 40
3.0
100
AcDbArc
 50
270.0
 51
356.7990779999998
  0
ARC
  5
16F0F
330
16D00
100
AcDbEntity
  8
1
  6
Continuous
100
AcDbCircle
 10
194.0
 20
73.0
 30
0.0
 40
24.5
100
AcDbArc
 50
232.169675
 51
127.830325
  0
ARC
  5
16F10
330
16D00
100
AcDbEntity
  8
1
  6
Continuous
100
AcDbCircle
 10
194.0
 20
73.0
 30
0.0
 40
26.0
100
AcDbArc
 50
226.186939
 51
132.3180899999998
  0
ARC
  5
16F11
330
16D00
100
AcDbEntity
  8
1
  6
Continuous
100
AcDbCircle
 10
194.0
 20
73.0
 30
0.0
 40
19.75
100
AcDbArc
 50
225.142299
 51
134.8577009999999
  0
ARC
  5
16F12
330
16D00
100
AcDbEntity
  8
1
  6
Continuous
100
AcDbCircle
 10
194.0
 20
73.0
 30
0.0
 40
15.364835
100
AcDbArc
 50
245.667755
 51
114.332245
  0
ARC
  5
16F13
330
16D00
100
AcDbEntity
  8
1
  6
Continuous
100
AcDbCircle
 10
194.0
 20
73.0
 30
0.0
 40
6.9
100
AcDbArc
 50
269.007905
 51
90.99209499999997
  0
ARC
  5
16F14
330
16D00
100
AcDbEntity
  8
1
  6
Continuous
100
AcDbCircle
 10
194.0
 20
73.0
 30
0.0
 40
22.2
100
AcDbArc
 50
232.169675
 51
127.830325
  0
ARC
  5
16F15
330
16D00
100
AcDbEntity
  8
1
  6
Continuous
100
AcDbCircle
 10
175.9069069999999
 20
96.3
 30
0.0
 40
5.0
100
AcDbArc
 50
270.0
 51
307.830325
  0
ARC
  5
16F16
330
16D00
100
AcDbEntity
  8
1
  6
Continuous
100
AcDbCircle
 10
175.9069069999999
 20
49.7
 30
0.0
 40
5.0
100
AcDbArc
 50
52.16967499999999
 51
90.0
  0
ARC
  5
16F17
330
16D00
100
AcDbEntity
  8
1
  6
Continuous
100
AcDbCircle
 10
175.9069069999999
 20
49.7
 30
0.0
 40
7.299999999999998
100
AcDbArc
 50
52.16967499999999
 51
90.0
  0
ARC
  5
16F18
330
16D00
100
AcDbEntity
  8
1
  6
Continuous
100
AcDbCircle
 10
175.9069069999999
 20
96.3
 30
0.0
 40
7.299999999999998
100
AcDbArc
 50
270.0
 51
307.830325
  0
LINE
  5
16F19
330
16D00
100
AcDbEntity
  8
4
  6
CENTER
100
AcDbLine
 10
169.0
 20
105.2000419999999
 30
0.0
 11
169.0
 21
41.5
 31
0.0
  0
LINE
  5
16F1A
330
16D00
100
AcDbEntity
  8
1
  6
Continuous
100
AcDbLine
 10
165.0043959999998
 20
98.30004200000001
 30
0.0
 11
165.0043959999998
 21
99.00004199999999
 31
0.0
  0
LINE
  5
16F1B
330
16D00
100
AcDbEntity
  8
1
  6
Continuous
100
AcDbLine
 10
171.8043959999999
 20
100.200042
 30
0.0
 11
166.204396
 21
100.200042
 31
0.0
  0
LINE
  5
16F1C
330
16D00
100
AcDbEntity
  8
1
  6
Continuous
100
AcDbLine
 10
173.0043959999999
 20
98.30004200000001
 30
0.0
 11
173.0043959999999
 21
99.00004199999999
 31
0.0
  0
LINE
  5
16F1D
330
16D00
100
AcDbEntity
  8
1
  6
Continuous
100
AcDbLine
 10
161.5043959999999
 20
91.3
 30
0.0
 11
161.5043959999999
 21
93.30004200000001
 31
0.0
  0
LINE
  5
16F1E
330
16D00
100
AcDbEntity
  8
1
  6
Continuous
100
AcDbLine
 10
174.5047849999999
 20
89.0
 30
0.0
 11
174.5047849999999
 21
88.09999999999998
 31
0.0
  0
LINE
  5
16F1F
330
16D00
100
AcDbEntity
  8
1
  6
Continuous
100
AcDbLine
 10
163.504785
 20
89.0
 30
0.0
 11
163.504785
 21
88.09999999999998
 31
0.0
  0
LINE
  5
16F20
330
16D00
100
AcDbEntity
  8
1
  6
Continuous
100
AcDbLine
 10
159.0047849999999
 20
88.09999999999998
 30
0.0
 11
179.004785
 21
88.09999999999998
 31
0.0
  0
LINE
  5
16F21
330
16D00
100
AcDbEntity
  8
1
  6
Continuous
100
AcDbLine
 10
163.504785
 20
57.0
 30
0.0
 11
163.504785
 21
57.9
 31
0.0
  0
LINE
  5
16F22
330
16D00
100
AcDbEntity
  8
1
  6
Continuous
100
AcDbLine
 10
174.5047849999999
 20
57.9
 30
0.0
 11
174.5047849999999
 21
57.0
 31
0.0
  0
LINE
  5
16F23
330
16D00
100
AcDbEntity
  8
1
  6
Continuous
100
AcDbLine
 10
162.0
 20
52.20004199999999
 30
0.0
 11
176.0
 21
52.20004199999999
 31
0.0
  0
LINE
  5
16F24
330
16D00
100
AcDbEntity
  8
1
  6
Continuous
100
AcDbLine
 10
176.4956039999999
 20
91.334777
 30
0.0
 11
176.4956039999999
 21
93.30004200000001
 31
0.0
  0
LINE
  5
16F25
330
16D00
100
AcDbEntity
  8
1
  6
Continuous
100
AcDbLine
 10
162.0
 20
98.0
 30
0.0
 11
162.0
 21
93.30004200000001
 31
0.0
  0
LINE
  5
16F26
330
16D00
100
AcDbEntity
  8
1
  6
Continuous
100
AcDbLine
 10
162.0
 20
89.0
 30
0.0
 11
162.0
 21
88.09999999999998
 31
0.0
  0
LINE
  5
16F27
330
16D00
100
AcDbEntity
  8
1
  6
Continuous
100
AcDbLine
 10
162.0043959999998
 20
57.0
 30
0.0
 11
162.0043959999998
 21
57.9
 31
0.0
  0
LINE
  5
16F28
330
16D00
100
AcDbEntity
  8
4
  6
CENTER
100
AcDbLine
 10
338.0
 20
208.4
 30
0.0
 11
338.0
 21
215.3
 31
0.0
  0
LINE
  5
16F29
330
16D00
100
AcDbEntity
  8
4
  6
CENTER
100
AcDbLine
 10
288.0
 20
208.4
 30
0.0
 11
288.0
 21
215.3
 31
0.0
  0
LINE
  5
16F2A
330
16D00
100
AcDbEntity
  8
1
  6
Continuous
100
AcDbLine
 10
289.4999999999999
 20
206.6999999999999
 30
0.0
 11
289.4999999999999
 21
203.2
 31
0.0
  0
LINE
  5
16F2B
330
16D00
100
AcDbEntity
  8
1
  6
Continuous
100
AcDbLine
 10
336.5
 20
206.6999999999999
 30
0.0
 11
336.5
 21
203.2
 31
0.0
  0
LINE
  5
16F2C
330
16D00
100
AcDbEntity
  8
4
  6
CENTER
100
AcDbLine
 10
169.0
 20
317.2000419999998
 30
0.0
 11
169.0
 21
253.5
 31
0.0
  0
LINE
  5
16F2D
330
16D00
100
AcDbEntity
  8
1
  6
Continuous
100
AcDbLine
 10
33.5
 20
206.6999999999999
 30
0.0
 11
33.5
 21
203.2
 31
0.0
  0
LINE
  5
16F2E
330
16D00
100
AcDbEntity
  8
1
  6
Continuous
100
AcDbLine
 10
80.5
 20
206.6999999999999
 30
0.0
 11
80.5
 21
203.2
 31
0.0
  0
LINE
  5
16F2F
330
16D00
100
AcDbEntity
  8
1
  6
Continuous
100
AcDbLine
 10
170.5
 20
206.6999999999999
 30
0.0
 11
170.5
 21
203.2
 31
0.0
  0
LINE
  5
16F30
330
16D00
100
AcDbEntity
  8
1
  6
Continuous
100
AcDbLine
 10
217.5
 20
203.2
 30
0.0
 11
217.5
 21
206.6999999999999
 31
0.0
  0
LINE
  5
16F31
330
16D00
100
AcDbEntity
  8
2
  6
Continuous
100
AcDbLine
 10
286.323889
 20
173.3235
 30
0.0
 11
287.6999999999998
 21
173.3235
 31
0.0
  0
LINE
  5
16F32
330
16D00
100
AcDbEntity
  8
2
  6
Continuous
100
AcDbLine
 10
286.323111
 20
166.6765
 30
0.0
 11
287.6999999999998
 21
166.6765
 31
0.0
  0
LINE
  5
16F33
330
16D00
100
AcDbEntity
  8
1
  6
Continuous
100
AcDbLine
 10
287.0
 20
173.9996109999999
 30
0.0
 11
287.0
 21
165.9996109999999
 31
0.0
  0
LINE
  5
16F34
330
16D00
100
AcDbEntity
  8
1
  6
Continuous
100
AcDbLine
 10
287.0
 20
173.9996109999999
 30
0.0
 11
285.8
 21
172.799611
 31
0.0
  0
LINE
  5
16F35
330
16D00
100
AcDbEntity
  8
1
  6
Continuous
100
AcDbLine
 10
287.0
 20
165.9996109999999
 30
0.0
 11
285.8
 21
167.199611
 31
0.0
  0
CIRCLE
  5
16F36
330
16D00
100
AcDbEntity
  8
2
  6
Continuous
100
AcDbCircle
 10
169.0
 20
170.0
 30
0.0
 40
3.3235
  0
CIRCLE
  5
16F37
330
16D00
100
AcDbEntity
  8
1
  6
Continuous
100
AcDbCircle
 10
169.0
 20
170.0
 30
0.0
 40
2.799999999999998
  0
LINE
  5
16F38
330
16D00
100
AcDbEntity
  8
2
  6
Continuous
100
AcDbLine
 10
83.67650000000002
 20
173.3235
 30
0.0
 11
82.29999999999998
 21
173.3235
 31
0.0
  0
LINE
  5
16F39
330
16D00
100
AcDbEntity
  8
2
  6
Continuous
100
AcDbLine
 10
83.67650000000002
 20
166.6765
 30
0.0
 11
82.29999999999998
 21
166.6765
 31
0.0
  0
LINE
  5
16F3A
330
16D00
100
AcDbEntity
  8
1
  6
Continuous
100
AcDbLine
 10
83.0
 20
174.0
 30
0.0
 11
83.0
 21
166.0
 31
0.0
  0
LINE
  5
16F3B
330
16D00
100
AcDbEntity
  8
1
  6
Continuous
100
AcDbLine
 10
84.19999999999998
 20
172.8
 30
0.0
 11
83.0
 21
174.0
 31
0.0
  0
LINE
  5
16F3C
330
16D00
100
AcDbEntity
  8
1
  6
Continuous
100
AcDbLine
 10
84.19999999999998
 20
167.1999999999998
 30
0.0
 11
83.0
 21
166.0
 31
0.0
  0
LINE
  5
16F3D
330
16D00
100
AcDbEntity
  8
1
  6
Continuous
100
AcDbLine
 10
455.4999999999998
 20
206.6999999999999
 30
0.0
 11
455.4999999999998
 21
203.2
 31
0.0
  0
LINE
  5
16F3E
330
16D00
100
AcDbEntity
  8
1
  6
Continuous
100
AcDbLine
 10
408.4999999999998
 20
203.2
 30
0.0
 11
408.4999999999998
 21
206.6999999999999
 31
0.0
  0
LINE
  5
16F3F
330
16D00
100
AcDbEntity
  8
2
  6
Continuous
100
AcDbLine
 10
165.6765
 20
99.672146
 30
0.0
 11
165.6765
 21
98.30004200000001
 31
0.0
  0
LINE
  5
16F40
330
16D00
100
AcDbEntity
  8
2
  6
Continuous
100
AcDbLine
 10
172.3235
 20
99.68093899999999
 30
0.0
 11
172.3235
 21
98.30004200000001
 31
0.0
  0
LINE
  5
16F41
330
16D00
100
AcDbEntity
  8
1
  6
Continuous
100
AcDbLine
 10
173.0043959999999
 20
99.00004199999999
 30
0.0
 11
165.0043959999998
 21
99.00004199999999
 31
0.0
  0
LINE
  5
16F42
330
16D00
100
AcDbEntity
  8
1
  6
Continuous
100
AcDbLine
 10
166.204396
 20
100.200042
 30
0.0
 11
165.0043959999998
 21
99.00004199999999
 31
0.0
  0
LINE
  5
16F43
330
16D00
100
AcDbEntity
  8
1
  6
Continuous
100
AcDbLine
 10
171.8043959999999
 20
100.200042
 30
0.0
 11
173.0043959999999
 21
99.00004199999999
 31
0.0
  0
LINE
  5
16F44
330
16D00
100
AcDbEntity
  8
1
  6
Continuous
100
AcDbLine
 10
179.004785
 20
57.9
 30
0.0
 11
159.0047849999999
 21
57.9
 31
0.0
  0
ARC
  5
16F45
330
16D00
100
AcDbEntity
  8
1
  6
Continuous
100
AcDbCircle
 10
147.3073459999999
 20
84.0
 30
0.0
 40
3.0
100
AcDbArc
 50
90.0
 51
176.799078
  0
ARC
  5
16F46
330
16D00
100
AcDbEntity
  8
1
  6
Continuous
100
AcDbCircle
 10
147.3073459999999
 20
62.0
 30
0.0
 40
3.0
100
AcDbArc
 50
183.2009219999999
 51
270.0
  0
LINE
  5
16F47
330
16D00
100
AcDbEntity
  8
4
  6
CENTER
100
AcDbLine
 10
175.5
 20
98.0
 30
0.0
 11
162.5
 21
98.0
 31
0.0
  0
LINE
  5
16F48
330
16D00
100
AcDbEntity
  8
1
  6
Continuous
100
AcDbLine
 10
287.6999999999998
 20
176.006894
 30
0.0
 11
287.6999999999998
 21
164.0068939999999
 31
0.0
  0
ARC
  5
16F49
330
16D00
100
AcDbEntity
  8
1
  6
Continuous
100
AcDbCircle
 10
299.164102
 20
170.0068939999999
 30
0.0
 40
11.464102
100
AcDbArc
 50
162.412046
 51
197.5879539999999
  0
ARC
  5
16F4A
330
16D00
100
AcDbEntity
  8
1
  6
Continuous
100
AcDbCircle
 10
281.235898
 20
170.0068939999999
 30
0.0
 40
11.464102
100
AcDbArc
 50
342.4120459999999
 51
344.1368770000001
  0
LINE
  5
16F4B
330
16D00
100
AcDbEntity
  8
1
  6
Continuous
100
AcDbLine
 10
292.6999999999998
 20
165.978133
 30
0.0
 11
292.6999999999998
 21
162.4996109999999
 31
0.0
  0
LINE
  5
16F4C
330
16D00
100
AcDbEntity
  8
1
  6
Continuous
100
AcDbLine
 10
288.235898
 20
163.0786899999999
 30
0.0
 11
287.6999999999998
 21
164.0068939999999
 31
0.0
  0
LINE
  5
16F4D
330
16D00
100
AcDbEntity
  8
1
  6
Continuous
100
AcDbLine
 10
292.164102
 20
163.0786899999999
 30
0.0
 11
292.6999999999998
 21
164.0068939999999
 31
0.0
  0
LINE
  5
16F4E
330
16D00
100
AcDbEntity
  8
1
  6
Continuous
100
AcDbLine
 10
288.235898
 20
163.0786899999999
 30
0.0
 11
292.164102
 21
163.0786899999999
 31
0.0
  0
LINE
  5
16F4F
330
16D00
100
AcDbEntity
  8
1
  6
Continuous
100
AcDbLine
 10
288.235898
 20
166.5427919999999
 30
0.0
 11
292.164102
 21
166.5427919999999
 31
0.0
  0
ARC
  5
16F50
330
16D00
100
AcDbEntity
  8
1
  6
Continuous
100
AcDbCircle
 10
290.7669869999999
 20
164.8107409999998
 30
0.0
 40
3.066986999999998
100
AcDbArc
 50
145.615753
 51
205.615753
  0
ARC
  5
16F51
330
16D00
100
AcDbEntity
  8
1
  6
Continuous
100
AcDbCircle
 10
289.6330129999999
 20
164.8107409999998
 30
0.0
 40
3.066986999999998
100
AcDbArc
 50
334.384247
 51
34.38424699999998
  0
ARC
  5
16F52
330
16D00
100
AcDbEntity
  8
1
  6
Continuous
100
AcDbCircle
 10
290.7669869999999
 20
175.203046
 30
0.0
 40
3.066986999999998
100
AcDbArc
 50
154.3842469999999
 51
214.384247
  0
LINE
  5
16F53
330
16D00
100
AcDbEntity
  8
1
  6
Continuous
100
AcDbLine
 10
288.235898
 20
173.4709949999999
 30
0.0
 11
289.8426149999999
 21
173.4709949999999
 31
0.0
  0
LINE
  5
16F54
330
16D00
100
AcDbEntity
  8
1
  6
Continuous
100
AcDbLine
 10
288.235898
 20
176.9350969999999
 30
0.0
 11
289.078464
 21
176.9350969999999
 31
0.0
  0
LINE
  5
16F55
330
16D00
100
AcDbEntity
  8
1
  6
Continuous
100
AcDbLine
 10
288.235898
 20
176.9350969999999
 30
0.0
 11
287.6999999999998
 21
176.006894
 31
0.0
  0
LINE
  5
16F56
330
16D00
100
AcDbEntity
  8
1
  6
Continuous
100
AcDbLine
 10
77.29999999999998
 20
177.5
 30
0.0
 11
77.29999999999998
 21
162.5
 31
0.0
  0
ARC
  5
16F57
330
16D00
100
AcDbEntity
  8
1
  6
Continuous
100
AcDbCircle
 10
88.76410199999998
 20
170.0
 30
0.0
 40
11.464102
100
AcDbArc
 50
162.412046
 51
197.5879539999999
  0
ARC
  5
16F58
330
16D00
100
AcDbEntity
  8
1
  6
Continuous
100
AcDbCircle
 10
70.835898
 20
170.0
 30
0.0
 40
11.464102
100
AcDbArc
 50
342.4120459999999
 51
17.587954
  0
LINE
  5
16F59
330
16D00
100
AcDbEntity
  8
1
  6
Continuous
100
AcDbLine
 10
82.29999999999998
 20
176.0
 30
0.0
 11
82.29999999999998
 21
164.0
 31
0.0
  0
LINE
  5
16F5A
330
16D00
100
AcDbEntity
  8
1
  6
Continuous
100
AcDbLine
 10
77.835898
 20
163.071797
 30
0.0
 11
77.29999999999998
 21
164.0
 31
0.0
  0
LINE
  5
16F5B
330
16D00
100
AcDbEntity
  8
1
  6
Continuous
100
AcDbLine
 10
81.76410199999997
 20
163.071797
 30
0.0
 11
82.29999999999998
 21
164.0
 31
0.0
  0
LINE
  5
16F5C
330
16D00
100
AcDbEntity
  8
1
  6
Continuous
100
AcDbLine
 10
77.835898
 20
163.071797
 30
0.0
 11
81.76410199999997
 21
163.071797
 31
0.0
  0
LINE
  5
16F5D
330
16D00
100
AcDbEntity
  8
1
  6
Continuous
100
AcDbLine
 10
77.835898
 20
166.535898
 30
0.0
 11
81.76410199999997
 21
166.535898
 31
0.0
  0
ARC
  5
16F5E
330
16D00
100
AcDbEntity
  8
1
  6
Continuous
100
AcDbCircle
 10
80.36698699999998
 20
164.8038479999998
 30
0.0
 40
3.066986999999998
100
AcDbArc
 50
145.615753
 51
205.615753
  0
ARC
  5
16F5F
330
16D00
100
AcDbEntity
  8
1
  6
Continuous
100
AcDbCircle
 10
79.233013
 20
164.8038479999998
 30
0.0
 40
3.066986999999998
100
AcDbArc
 50
334.384247
 51
34.38424699999998
  0
ARC
  5
16F60
330
16D00
100
AcDbEntity
  8
1
  6
Continuous
100
AcDbCircle
 10
80.36698699999998
 20
175.196152
 30
0.0
 40
3.066986999999998
100
AcDbArc
 50
154.3842469999999
 51
214.384247
  0
ARC
  5
16F61
330
16D00
100
AcDbEntity
  8
1
  6
Continuous
100
AcDbCircle
 10
79.233013
 20
175.196152
 30
0.0
 40
3.066986999999998
100
AcDbArc
 50
325.6157529999999
 51
25.615753
  0
LINE
  5
16F62
330
16D00
100
AcDbEntity
  8
1
  6
Continuous
100
AcDbLine
 10
77.835898
 20
173.4641019999999
 30
0.0
 11
81.76410199999997
 21
173.4641019999999
 31
0.0
  0
LINE
  5
16F63
330
16D00
100
AcDbEntity
  8
1
  6
Continuous
100
AcDbLine
 10
77.835898
 20
176.928203
 30
0.0
 11
81.76410199999997
 21
176.928203
 31
0.0
  0
LINE
  5
16F64
330
16D00
100
AcDbEntity
  8
1
  6
Continuous
100
AcDbLine
 10
77.835898
 20
176.928203
 30
0.0
 11
77.29999999999998
 21
176.0
 31
0.0
  0
LINE
  5
16F65
330
16D00
100
AcDbEntity
  8
1
  6
Continuous
100
AcDbLine
 10
81.76410199999997
 20
176.928203
 30
0.0
 11
82.29999999999998
 21
176.0
 31
0.0
  0
CIRCLE
  5
16F66
330
16D00
100
AcDbEntity
  8
1
  6
Continuous
100
AcDbCircle
 10
169.0
 20
170.0
 30
0.0
 40
6.0
  0
LINE
  5
16F67
330
16D00
100
AcDbEntity
  8
1
  6
Continuous
100
AcDbLine
 10
175.0
 20
173.4641019999999
 30
0.0
 11
175.0
 21
166.535898
 31
0.0
  0
LINE
  5
16F68
330
16D00
100
AcDbEntity
  8
1
  6
Continuous
100
AcDbLine
 10
163.0
 20
173.4641019999999
 30
0.0
 11
163.0
 21
166.535898
 31
0.0
  0
LINE
  5
16F69
330
16D00
100
AcDbEntity
  8
1
  6
Continuous
100
AcDbLine
 10
169.0
 20
163.071797
 30
0.0
 11
175.0
 21
166.535898
 31
0.0
  0
LINE
  5
16F6A
330
16D00
100
AcDbEntity
  8
1
  6
Continuous
100
AcDbLine
 10
169.0
 20
163.071797
 30
0.0
 11
163.0
 21
166.535898
 31
0.0
  0
LINE
  5
16F6B
330
16D00
100
AcDbEntity
  8
1
  6
Continuous
100
AcDbLine
 10
175.0
 20
173.4641019999999
 30
0.0
 11
169.0
 21
176.928203
 31
0.0
  0
LINE
  5
16F6C
330
16D00
100
AcDbEntity
  8
1
  6
Continuous
100
AcDbLine
 10
163.0
 20
173.4641019999999
 30
0.0
 11
169.0
 21
176.928203
 31
0.0
  0
CIRCLE
  5
16F6D
330
16D00
100
AcDbEntity
  8
1
  6
Continuous
100
AcDbCircle
 10
169.0
 20
170.0
 30
0.0
 40
7.5
  0
LINE
  5
16F6E
330
16D00
100
AcDbEntity
  8
1
  6
Continuous
100
AcDbLine
 10
163.0
 20
98.30004200000001
 30
0.0
 11
175.0
 21
98.30004200000001
 31
0.0
  0
LINE
  5
16F6F
330
16D00
100
AcDbEntity
  8
1
  6
Continuous
100
AcDbLine
 10
161.5043959999999
 20
93.30004200000001
 30
0.0
 11
176.4956039999999
 21
93.30004200000001
 31
0.0
  0
ARC
  5
16F70
330
16D00
100
AcDbEntity
  8
1
  6
Continuous
100
AcDbCircle
 10
172.0
 20
89.634979
 30
0.0
 40
8.665063999999999
100
AcDbArc
 50
69.743842
 51
110.256158
  0
ARC
  5
16F71
330
16D00
100
AcDbEntity
  8
1
  6
Continuous
100
AcDbCircle
 10
172.0
 20
101.965106
 30
0.0
 40
8.665063999999999
100
AcDbArc
 50
249.7438419999999
 51
290.256158
  0
LINE
  5
16F72
330
16D00
100
AcDbEntity
  8
1
  6
Continuous
100
AcDbLine
 10
175.0
 20
98.30004200000001
 30
0.0
 11
175.0
 21
93.30004200000001
 31
0.0
  0
ARC
  5
16F73
330
16D00
100
AcDbEntity
  8
1
  6
Continuous
100
AcDbCircle
 10
166.0
 20
89.634979
 30
0.0
 40
8.665063999999999
100
AcDbArc
 50
69.743842
 51
110.256158
  0
ARC
  5
16F74
330
16D00
100
AcDbEntity
  8
1
  6
Continuous
100
AcDbCircle
 10
166.0
 20
101.965106
 30
0.0
 40
8.665063999999999
100
AcDbArc
 50
249.7438419999999
 51
290.256158
  0
LINE
  5
16F75
330
16D00
100
AcDbEntity
  8
1
  6
Continuous
100
AcDbLine
 10
169.0
 20
93.83594100000001
 30
0.0
 11
169.0
 21
97.764144
 31
0.0
  0
LINE
  5
16F76
330
16D00
100
AcDbEntity
  8
1
  6
Continuous
100
AcDbLine
 10
163.0
 20
98.30004200000001
 30
0.0
 11
163.0
 21
93.30004200000001
 31
0.0
  0
ARC
  5
16F77
330
16D00
100
AcDbEntity
  8
1
  6
Continuous
100
AcDbCircle
 10
302.6867509999998
 20
198.684887
 30
0.0
 40
5.424959999999998
100
AcDbArc
 50
208.3644309999999
 51
247.8048419999999
  0
ARC
  5
16F78
330
16D00
100
AcDbEntity
  8
1
  6
Continuous
100
AcDbCircle
 10
323.313249
 20
198.684887
 30
0.0
 40
5.424959999999998
100
AcDbArc
 50
292.1951579999998
 51
331.6355689999999
  0
LINE
  5
16F79
330
16D00
100
AcDbEntity
  8
1
  6
Continuous
100
AcDbLine
 10
326.0537289999998
 20
196.455507
 30
0.0
 11
299.946271
 21
196.455507
 31
0.0
  0
LINE
  5
16F7A
330
16D00
100
AcDbEntity
  8
1
  6
Continuous
100
AcDbLine
 10
325.3625959999999
 20
193.6619029999999
 30
0.0
 11
300.637404
 21
193.6619029999999
 31
0.0
  0
LINE
  5
16F7B
330
16D00
100
AcDbEntity
  8
1
  6
Continuous
100
AcDbLine
 10
161.5
 20
264.6999999999998
 30
0.0
 11
161.5
 21
266.6999999999998
 31
0.0
  0
LINE
  5
16F7C
330
16D00
100
AcDbEntity
  8
1
  6
Continuous
100
AcDbLine
 10
162.0
 20
264.6999999999998
 30
0.0
 11
161.5
 21
264.6999999999998
 31
0.0
  0
ARC
  5
16F7D
330
16D00
100
AcDbEntity
  8
1
  6
Continuous
100
AcDbCircle
 10
169.0
 20
170.0
 30
0.0
 40
11.25
100
AcDbArc
 50
168.7050299999999
 51
347.2825279999999
  0
CIRCLE
  5
16F7E
330
16D00
100
AcDbEntity
  8
1
  6
Continuous
100
AcDbCircle
 10
457.0
 20
170.0
 30
0.0
 40
3.0
  0
LINE
  5
16F7F
330
16D00
100
AcDbEntity
  8
1
  6
Continuous
100
AcDbLine
 10
335.8
 20
166.9996109999999
 30
0.0
 11
335.8
 21
172.2221799999999
 31
0.0
  0
ARC
  5
16F80
330
16D00
100
AcDbEntity
  8
1
  6
Continuous
100
AcDbCircle
 10
324.8
 20
169.9996109999999
 30
0.0
 40
11.40175399999999
100
AcDbArc
 50
322.125016
 51
344.744881
  0
ARC
  5
16F81
330
16D00
100
AcDbEntity
  8
1
  6
Continuous
100
AcDbCircle
 10
45.2
 20
170.0
 30
0.0
 40
11.40175399999999
100
AcDbArc
 50
142.1250159999999
 51
164.744881
  0
ARC
  5
16F82
330
16D00
100
AcDbEntity
  8
1
  6
Continuous
100
AcDbCircle
 10
45.2
 20
170.0
 30
0.0
 40
11.40175399999999
100
AcDbArc
 50
195.255119
 51
217.874984
  0
LINE
  5
16F83
330
16D00
100
AcDbEntity
  8
1
  6
Continuous
100
AcDbLine
 10
34.2
 20
167.0
 30
0.0
 11
34.2
 21
173.0
 31
0.0
  0
ARC
  5
16F84
330
16D00
100
AcDbEntity
  8
1
  6
Continuous
100
AcDbCircle
 10
169.0
 20
61.200042
 30
0.0
 40
11.40175399999999
100
AcDbArc
 50
232.1250159999999
 51
254.744881
  0
LINE
  5
16F85
330
16D00
100
AcDbEntity
  8
1
  6
Continuous
100
AcDbLine
 10
172.0
 20
50.20004199999998
 30
0.0
 11
166.0
 21
50.20004199999998
 31
0.0
  0
ARC
  5
16F86
330
16D00
100
AcDbEntity
  8
1
  6
Continuous
100
AcDbCircle
 10
169.0
 20
61.200042
 30
0.0
 40
11.40175399999999
100
AcDbArc
 50
285.2551189999999
 51
307.8749839999999
  0
LINE
  5
16F87
330
16D00
100
AcDbEntity
  8
1
  6
Continuous
100
AcDbLine
 10
299.5
 20
146.893968
 30
0.0
 11
299.5
 21
193.106032
 31
0.0
  0
ARC
  5
16F88
330
16D00
100
AcDbEntity
  8
1
  6
Continuous
100
AcDbCircle
 10
300.9222219999998
 20
177.780556
 30
0.0
 40
3.749635
100
AcDbArc
 50
120.840008
 51
143.70737
  0
ARC
  5
16F89
330
16D00
100
AcDbEntity
  8
1
  6
Continuous
100
AcDbCircle
 10
300.9222219999998
 20
162.2194439999999
 30
0.0
 40
3.749635
100
AcDbArc
 50
216.2926299999999
 51
239.159992
  0
ARC
  5
16F8A
330
16D00
100
AcDbEntity
  8
1
  6
Continuous
100
AcDbCircle
 10
325.0777779999999
 20
177.780556
 30
0.0
 40
3.749635
100
AcDbArc
 50
36.29262999999999
 51
59.159992
  0
ARC
  5
16F8B
330
16D00
100
AcDbEntity
  8
1
  6
Continuous
100
AcDbCircle
 10
325.0777779999999
 20
162.2194439999999
 30
0.0
 40
3.749635
100
AcDbArc
 50
300.840008
 51
323.70737
  0
ARC
  5
16F8C
330
16D00
100
AcDbEntity
  8
1
  6
Continuous
100
AcDbCircle
 10
44.92222199999999
 20
177.780556
 30
0.0
 40
3.749635
100
AcDbArc
 50
120.840008
 51
143.70737
  0
ARC
  5
16F8D
330
16D00
100
AcDbEntity
  8
1
  6
Continuous
100
AcDbCircle
 10
44.92222199999999
 20
162.2194439999999
 30
0.0
 40
3.749635
100
AcDbArc
 50
216.2926299999999
 51
239.159992
  0
ARC
  5
16F8E
330
16D00
100
AcDbEntity
  8
1
  6
Continuous
100
AcDbCircle
 10
69.07777800000001
 20
162.2194439999999
 30
0.0
 40
3.749635
100
AcDbArc
 50
300.840008
 51
323.70737
  0
ARC
  5
16F8F
330
16D00
100
AcDbEntity
  8
1
  6
Continuous
100
AcDbCircle
 10
69.07777800000001
 20
177.780556
 30
0.0
 40
3.749635
100
AcDbArc
 50
36.29262999999999
 51
59.159992
  0
ARC
  5
16F90
330
16D00
100
AcDbEntity
  8
1
  6
Continuous
100
AcDbCircle
 10
161.22423
 20
60.922222
 30
0.0
 40
3.749635
100
AcDbArc
 50
210.840008
 51
233.7073700000001
  0
ARC
  5
16F91
330
16D00
100
AcDbEntity
  8
1
  6
Continuous
100
AcDbCircle
 10
176.7853409999999
 20
60.922222
 30
0.0
 40
3.749635
100
AcDbArc
 50
306.2926299999999
 51
329.1599919999999
  0
ARC
  5
16F92
330
16D00
100
AcDbEntity
  8
1
  6
Continuous
100
AcDbCircle
 10
176.7853409999999
 20
85.07777800000003
 30
0.0
 40
3.749635
100
AcDbArc
 50
30.840008
 51
53.70736999999999
  0
ARC
  5
16F93
330
16D00
100
AcDbEntity
  8
1
  6
Continuous
100
AcDbCircle
 10
161.1633539999999
 20
85.119369
 30
0.0
 40
3.680159999999998
100
AcDbArc
 50
125.9120009999999
 51
149.268285
  0
ARC
  5
16F94
330
16D00
100
AcDbEntity
  8
1
  6
Continuous
100
AcDbCircle
 10
457.0
 20
170.0
 30
0.0
 40
11.25
100
AcDbArc
 50
192.717472
 51
11.29496999999999
  0
LINE
  5
16F95
330
16D00
100
AcDbEntity
  8
1
  6
Continuous
100
AcDbLine
 10
77.29999999999998
 20
172.0
 30
0.0
 11
75.29999999999998
 21
170.0
 31
0.0
  0
LINE
  5
16F96
330
16D00
100
AcDbEntity
  8
1
  6
Continuous
100
AcDbLine
 10
77.29999999999998
 20
170.0
 30
0.0
 11
75.29999999999998
 21
168.0
 31
0.0
  0
LINE
  5
16F97
330
16D00
100
AcDbEntity
  8
1
  6
Continuous
100
AcDbLine
 10
171.0000419999998
 20
91.3
 30
0.0
 11
169.0
 21
93.30004200000001
 31
0.0
  0
LINE
  5
16F98
330
16D00
100
AcDbEntity
  8
1
  6
Continuous
100
AcDbLine
 10
169.0
 20
91.3
 30
0.0
 11
166.9999579999999
 21
93.30004200000001
 31
0.0
  0
LINE
  5
16F99
330
16D00
100
AcDbEntity
  8
1
  6
Continuous
100
AcDbLine
 10
176.0
 20
54.69913299999999
 30
0.0
 11
176.0
 21
52.20004199999999
 31
0.0
  0
LINE
  5
16F9A
330
16D00
100
AcDbEntity
  8
1
  6
Continuous
100
AcDbLine
 10
162.0
 20
54.7
 30
0.0
 11
162.0
 21
48.0
 31
0.0
  0
ENDSEC
  0
SECTION
  2
OBJECTS
  0
DICTIONARY
  5
16CEE
330
0
100
AcDbDictionary
281
     1
  3
ACAD_CIP_PREVIOUS_PRODUCT_INFO
350
16FFC
  3
ACAD_COLOR
350
16FDE
  3
ACAD_DETAILVIEWSTYLE
350
16FF7
  3
ACAD_GROUP
350
16CEF
  3
ACAD_LAYOUT
350
16CFB
  3
ACAD_MATERIAL
350
16FAC
  3
ACAD_MLEADERSTYLE
350
16FF3
  3
ACAD_MLINESTYLE
350
16CF8
  3
ACAD_PLOTSETTINGS
350
16CFA
  3
ACAD_PLOTSTYLENAME
350
16FAA
  3
ACAD_SCALELIST
350
16FE1
  3
ACAD_SECTIONVIEWSTYLE
350
16FF5
  3
ACAD_TABLESTYLE
350
16FDF
  3
ACAD_VISUALSTYLE
350
16FC5
  3
ACDB_RECOMPOSE_DATA
350
1701A
  3
AcDbVariableDictionary
350
1700D
  3
DWGPROPS
350
1701B
  0
DICTIONARY
  5
16FFD
330
16CF2
100
AcDbDictionary
280
     1
281
     1
  3
ADSK_XREC_LAYER_RECONCILED
360
16FFE
  0
DICTIONARY
  5
16FFF
330
16D08
100
AcDbDictionary
280
     1
281
     1
  3
ADSK_XREC_LAYER_RECONCILED
360
17000
  0
DICTIONARY
  5
17001
330
16D09
100
AcDbDictionary
280
     1
281
     1
  3
ADSK_XREC_LAYER_RECONCILED
360
17002
  0
DICTIONARY
  5
17003
330
16D0A
100
AcDbDictionary
280
     1
281
     1
  3
ADSK_XREC_LAYER_RECONCILED
360
17004
  0
DICTIONARY
  5
17005
330
16D0B
100
AcDbDictionary
280
     1
281
     1
  3
ADSK_XREC_LAYER_RECONCILED
360
17006
  0
DICTIONARY
  5
17007
330
16D0C
100
AcDbDictionary
280
     1
281
     1
  3
ADSK_XREC_LAYER_RECONCILED
360
17008
  0
DICTIONARY
  5
17009
330
16D0D
100
AcDbDictionary
280
     1
281
     1
  3
ADSK_XREC_LAYER_RECONCILED
360
1700A
  0
DICTIONARY
  5
1700B
330
16D0E
100
AcDbDictionary
280
     1
281
     1
  3
ADSK_XREC_LAYER_RECONCILED
360
1700C
  0
DICTIONARY
  5
16FA5
330
16D00
100
AcDbDictionary
281
     1
  3
ACAD_LAYOUTSELFREF
350
16FA6
  0
DICTIONARY
  5
16FA3
330
16CFC
100
AcDbDictionary
281
     1
  3
ACAD_LAYOUTSELFREF
350
16FA4
  0
XRECORD
  5
16FFC
102
{ACAD_REACTORS
330
16CEE
102
}
330
16CEE
100
AcDbXrecord
280
     1
300
ACDLT
300
2014
300
ACDLT_F_S
  0
DICTIONARY
  5
16FDE
102
{ACAD_REACTORS
330
16CEE
102
}
330
16CEE
100
AcDbDictionary
281
     1
  0
DICTIONARY
  5
16FF7
102
{ACAD_REACTORS
330
16CEE
102
}
330
16CEE
100
AcDbDictionary
281
     1
  3
Imperial24
350
16FF8
  0
DICTIONARY
  5
16CEF
102
{ACAD_REACTORS
330
16CEE
102
}
330
16CEE
100
AcDbDictionary
281
     1
  0
DICTIONARY
  5
16CFB
102
{ACAD_REACTORS
330
16CEE
102
}
330
16CEE
100
AcDbDictionary
281
     1
  3
Model
350
16FF9
  3
レイアウト1
350
16FFA
  0
DICTIONARY
  5
16FAC
102
{ACAD_REACTORS
330
16CEE
102
}
330
16CEE
100
AcDbDictionary
281
     1
  3
ByBlock
350
16FB5
  3
ByLayer
350
16FAD
  3
Global
350
16FBD
  0
DICTIONARY
  5
16FF3
102
{ACAD_REACTORS
330
16CEE
102
}
330
16CEE
100
AcDbDictionary
281
     1
  3
Standard
350
16FF4
  0
DICTIONARY
  5
16CF8
102
{ACAD_REACTORS
330
16CEE
102
}
330
16CEE
100
AcDbDictionary
281
     1
  3
STANDARD
350
16CF9
  0
DICTIONARY
  5
16CFA
102
{ACAD_REACTORS
330
16CEE
102
}
330
16CEE
100
AcDbDictionary
281
     1
  0
ACDBDICTIONARYWDFLT
  5
16FAA
102
{ACAD_REACTORS
330
16CEE
102
}
330
16CEE
100
AcDbDictionary
281
     1
  3
Normal
350
16FAB
100
AcDbDictionaryWithDefault
340
16FAB
  0
DICTIONARY
  5
16FE1
102
{ACAD_REACTORS
330
16CEE
102
}
330
16CEE
100
AcDbDictionary
281
     1
  3
A0
350
16FE2
  3
A1
350
16FE3
  3
A2
350
16FE4
  3
A3
350
16FE5
  3
A4
350
16FE6
  3
A5
350
16FE7
  3
A6
350
16FE8
  3
A7
350
16FE9
  3
A8
350
16FEA
  3
A9
350
16FEB
  3
B0
350
16FEC
  3
B1
350
16FED
  3
B2
350
16FEE
  3
B3
350
16FEF
  3
B4
350
16FF0
  3
B5
350
16FF1
  3
B6
350
16FF2
  0
DICTIONARY
  5
16FF5
102
{ACAD_REACTORS
330
16CEE
102
}
330
16CEE
100
AcDbDictionary
281
     1
  3
Imperial24
350
16FF6
  0
DICTIONARY
  5
16FDF
102
{ACAD_REACTORS
330
16CEE
102
}
330
16CEE
100
AcDbDictionary
281
     1
  3
Standard
350
16FE0
  0
DICTIONARY
  5
16FC5
102
{ACAD_REACTORS
330
16CEE
102
}
330
16CEE
100
AcDbDictionary
281
     1
  3
2dWireframe
350
16FCB
  3
Basic
350
16FCA
  3
Brighten
350
16FD1
  3
ColorChange
350
16FD5
  3
Conceptual
350
16FCE
  3
Dim
350
16FD0
  3
EdgeColorOff
350
16FDD
  3
Facepattern
350
16FD4
  3
Flat
350
16FC6
  3
FlatWithEdges
350
16FC7
  3
Gouraud
350
16FC8
  3
GouraudWithEdges
350
16FC9
  3
Hidden
350
16FCD
  3
JitterOff
350
16FDB
  3
Linepattern
350
16FD3
  3
OverhangOff
350
16FDC
  3
Realistic
350
16FCF
  3
Shaded
350
16FDA
  3
Shaded with edges
350
16FD9
  3
Shades of Gray
350
16FD6
  3
Sketchy
350
16FD7
  3
Thicken
350
16FD2
  3
Wireframe
350
16FCC
  3
X-Ray
350
16FD8
  0
XRECORD
  5
1701A
102
{ACAD_REACTORS
330
16CEE
102
}
330
16CEE
100
AcDbXrecord
280
     1
 90
        1
330
16FE0
  0
DICTIONARY
  5
1700D
102
{ACAD_REACTORS
330
16CEE
102
}
330
16CEE
100
AcDbDictionary
281
     1
  3
CANNOSCALE
350
17012
  3
CMLEADERSTYLE
350
1700F
  3
CTABLESTYLE
350
1700E
  3
CVIEWDETAILSTYLE
350
17010
  3
CVIEWSECTIONSTYLE
350
17011
  3
DIMASSOC
350
17015
  3
INDEXCTL
350
17014
  3
SORTENTS
350
17013
  3
XCLIPFRAME
350
17016
  0
XRECORD
  5
1701B
102
{ACAD_REACTORS
330
16CEE
102
}
330
16CEE
100
AcDbXrecord
280
     1
  1
DWGPROPS COOKIE
  2

  3

  4

  6

  7

  8
Yoshitsune
  9

300
=
301
=
302
=
303
=
304
=
305
=
306
=
307
=
308
=
309
=
 40
0.0000096759259259
 41
2451301.385666551
 42
2457192.686750683
  1

 90
        0
  0
XRECORD
  5
16FFE
102
{ACAD_REACTORS
330
16FFD
102
}
330
16FFD
100
AcDbXrecord
280
     1
290
     1
  0
XRECORD
  5
17000
102
{ACAD_REACTORS
330
16FFF
102
}
330
16FFF
100
AcDbXrecord
280
     1
290
     1
  0
XRECORD
  5
17002
102
{ACAD_REACTORS
330
17001
102
}
330
17001
100
AcDbXrecord
280
     1
290
     1
  0
XRECORD
  5
17004
102
{ACAD_REACTORS
330
17003
102
}
330
17003
100
AcDbXrecord
280
     1
290
     1
  0
XRECORD
  5
17006
102
{ACAD_REACTORS
330
17005
102
}
330
17005
100
AcDbXrecord
280
     1
290
     1
  0
XRECORD
  5
17008
102
{ACAD_REACTORS
330
17007
102
}
330
17007
100
AcDbXrecord
280
     1
290
     1
  0
XRECORD
  5
1700A
102
{ACAD_REACTORS
330
17009
102
}
330
17009
100
AcDbXrecord
280
     1
290
     1
  0
XRECORD
  5
1700C
102
{ACAD_REACTORS
330
1700B
102
}
330
1700B
100
AcDbXrecord
280
     1
290
     1
  0
XRECORD
  5
16FA6
102
{ACAD_REACTORS
330
16FA5
102
}
330
16FA5
100
AcDbXrecord
280
     1
340
16D00
  0
XRECORD
  5
16FA4
102
{ACAD_REACTORS
330
16FA3
102
}
330
16FA3
100
AcDbXrecord
280
     1
340
16CFC
  0
ACDBDETAILVIEWSTYLE
  5
16FF8
102
{ACAD_XDICTIONARY
360
17053
102
}
102
{ACAD_REACTORS
330
16FF7
102
}
330
16FF7
100
AcDbModelDocViewStyle
 70
     0
  3
Imperial24
290
     0
100
AcDbDetailViewStyle
 70
     0
 71
     0
 90
        3
 71
     1
340
16CF3
 40
0.24
340
0
 40
0.24
300

 40
0.36
280
     3
 71
     2
340
16CF7
 90
       25
 71
     3
340
16CF3
 40
0.24
 90
        1
 40
0.75
 90
        1
300
%<\AcVar ViewType \f "%tc1">% %<\AcVar ViewDetailId>%\PSCALE %<\AcVar ViewScale \f "%sn">%
 71
     4
340
16CF7
 90
       25
340
16CF7
 90
       25
280
     0
  0
LAYOUT
  5
16FF9
102
{ACAD_XDICTIONARY
360
17055
102
}
102
{ACAD_REACTORS
330
16CFB
102
}
330
16CFB
100
AcDbPlotSettings
  1

  2
Canon LBP9100C
  4

  6

 40
0.0
 41
0.0
 42
0.0
 43
0.0
 44
0.0
 45
0.0
 46
0.0
 47
0.0
 48
0.0
 49
0.0
140
0.0
141
0.0
142
1.0
143
1.0
 70
  1712
 72
     0
 73
     0
 74
     0
  7

 75
     0
147
1.0
148
0.0
149
0.0
100
AcDbLayout
  1
Model
 70
     1
 71
     0
 10
0.0
 20
0.0
 11
12.0
 21
9.0
 12
0.0
 22
0.0
 32
0.0
 14
0.0
 24
0.0
 34
0.0
 15
0.0
 25
0.0
 35
0.0
146
0.0
 13
0.0
 23
0.0
 33
0.0
 16
1.0
 26
0.0
 36
0.0
 17
0.0
 27
1.0
 37
0.0
 76
     0
330
16D00
331
16FA2
  0
LAYOUT
  5
16FFA
102
{ACAD_XDICTIONARY
360
17057
102
}
102
{ACAD_REACTORS
330
16CFB
102
}
330
16CFB
100
AcDbPlotSettings
  1

  2
Canon LBP9100C
  4

  6

 40
0.0
 41
0.0
 42
0.0
 43
0.0
 44
0.0
 45
0.0
 46
0.0
 47
0.0
 48
0.0
 49
0.0
140
0.0
141
0.0
142
1.0
143
1.0
 70
   688
 72
     0
 73
     0
 74
     5
  7

 75
    16
147
1.0
148
0.0
149
0.0
100
AcDbLayout
  1
レイアウト1
 70
     0
 71
     1
 10
0.0
 20
0.0
 11
420.0
 21
297.0
 12
0.0
 22
0.0
 32
0.0
 14
1.000000000000000E+20
 24
1.000000000000000E+20
 34
1.000000000000000E+20
 15
-1.000000000000000E+20
 25
-1.000000000000000E+20
 35
-1.000000000000000E+20
146
0.0
 13
0.0
 23
0.0
 33
0.0
 16
1.0
 26
0.0
 36
0.0
 17
0.0
 27
1.0
 37
0.0
 76
     0
330
16CFC
  0
MATERIAL
  5
16FB5
102
{ACAD_XDICTIONARY
360
16FB6
102
}
102
{ACAD_REACTORS
330
16FAC
102
}
330
16FAC
100
AcDbMaterial
  1
ByBlock
 72
     0
 43
0.0208333333333333
 43
0.0
 43
0.0
 43
0.0
 43
0.0
 43
0.0208333333333333
 43
0.0
 43
0.0
 43
0.0
 43
0.0
 43
1.0
 43
0.0
 43
0.0
 43
0.0
 43
0.0
 43
1.0
 77
     0
 47
0.0208333333333333
 47
0.0
 47
0.0
 47
0.0
 47
0.0
 47
0.0208333333333333
 47
0.0
 47
0.0
 47
0.0
 47
0.0
 47
1.0
 47
0.0
 47
0.0
 47
0.0
 47
0.0
 47
1.0
171
     0
 49
0.0208333333333333
 49
0.0
 49
0.0
 49
0.0
 49
0.0
 49
0.0208333333333333
 49
0.0
 49
0.0
 49
0.0
 49
0.0
 49
1.0
 49
0.0
 49
0.0
 49
0.0
 49
0.0
 49
1.0
175
     0
142
0.0208333333333333
142
0.0
142
0.0
142
0.0
142
0.0
142
0.0208333333333333
142
0.0
142
0.0
142
0.0
142
0.0
142
1.0
142
0.0
142
0.0
142
0.0
142
0.0
142
1.0
179
     0
144
0.0208333333333333
144
0.0
144
0.0
144
0.0
144
0.0
144
0.0208333333333333
144
0.0
144
0.0
144
0.0
144
0.0
144
1.0
144
0.0
144
0.0
144
0.0
144
0.0
144
1.0
147
0.0208333333333333
147
0.0
147
0.0
147
0.0
147
0.0
147
0.0208333333333333
147
0.0
147
0.0
147
0.0
147
0.0
147
1.0
147
0.0
147
0.0
147
0.0
147
0.0
147
1.0
  0
MATERIAL
  5
16FAD
102
{ACAD_XDICTIONARY
360
16FAE
102
}
102
{ACAD_REACTORS
330
16FAC
102
}
330
16FAC
100
AcDbMaterial
  1
ByLayer
 72
     0
 43
0.0208333333333333
 43
0.0
 43
0.0
 43
0.0
 43
0.0
 43
0.0208333333333333
 43
0.0
 43
0.0
 43
0.0
 43
0.0
 43
1.0
 43
0.0
 43
0.0
 43
0.0
 43
0.0
 43
1.0
 77
     0
 47
0.0208333333333333
 47
0.0
 47
0.0
 47
0.0
 47
0.0
 47
0.0208333333333333
 47
0.0
 47
0.0
 47
0.0
 47
0.0
 47
1.0
 47
0.0
 47
0.0
 47
0.0
 47
0.0
 47
1.0
171
     0
 49
0.0208333333333333
 49
0.0
 49
0.0
 49
0.0
 49
0.0
 49
0.0208333333333333
 49
0.0
 49
0.0
 49
0.0
 49
0.0
 49
1.0
 49
0.0
 49
0.0
 49
0.0
 49
0.0
 49
1.0
175
     0
142
0.0208333333333333
142
0.0
142
0.0
142
0.0
142
0.0
142
0.0208333333333333
142
0.0
142
0.0
142
0.0
142
0.0
142
1.0
142
0.0
142
0.0
142
0.0
142
0.0
142
1.0
179
     0
144
0.0208333333333333
144
0.0
144
0.0
144
0.0
144
0.0
144
0.0208333333333333
144
0.0
144
0.0
144
0.0
144
0.0
144
1.0
144
0.0
144
0.0
144
0.0
144
0.0
144
1.0
147
0.0208333333333333
147
0.0
147
0.0
147
0.0
147
0.0
147
0.0208333333333333
147
0.0
147
0.0
147
0.0
147
0.0
147
1.0
147
0.0
147
0.0
147
0.0
147
0.0
147
1.0
  0
MATERIAL
  5
16FBD
102
{ACAD_XDICTIONARY
360
16FBE
102
}
102
{ACAD_REACTORS
330
16FAC
102
}
330
16FAC
100
AcDbMaterial
  1
Global
 72
     0
 43
0.0208333333333333
 43
0.0
 43
0.0
 43
0.0
 43
0.0
 43
0.0208333333333333
 43
0.0
 43
0.0
 43
0.0
 43
0.0
 43
1.0
 43
0.0
 43
0.0
 43
0.0
 43
0.0
 43
1.0
 77
     0
 47
0.0208333333333333
 47
0.0
 47
0.0
 47
0.0
 47
0.0
 47
0.0208333333333333
 47
0.0
 47
0.0
 47
0.0
 47
0.0
 47
1.0
 47
0.0
 47
0.0
 47
0.0
 47
0.0
 47
1.0
171
     0
 49
0.0208333333333333
 49
0.0
 49
0.0
 49
0.0
 49
0.0
 49
0.0208333333333333
 49
0.0
 49
0.0
 49
0.0
 49
0.0
 49
1.0
 49
0.0
 49
0.0
 49
0.0
 49
0.0
 49
1.0
175
     0
142
0.0208333333333333
142
0.0
142
0.0
142
0.0
142
0.0
142
0.0208333333333333
142
0.0
142
0.0
142
0.0
142
0.0
142
1.0
142
0.0
142
0.0
142
0.0
142
0.0
142
1.0
179
     0
144
0.0208333333333333
144
0.0
144
0.0
144
0.0
144
0.0
144
0.0208333333333333
144
0.0
144
0.0
144
0.0
144
0.0
144
1.0
144
0.0
144
0.0
144
0.0
144
0.0
144
1.0
147
0.0208333333333333
147
0.0
147
0.0
147
0.0
147
0.0
147
0.0208333333333333
147
0.0
147
0.0
147
0.0
147
0.0
147
1.0
147
0.0
147
0.0
147
0.0
147
0.0
147
1.0
  0
MLEADERSTYLE
  5
16FF4
102
{ACAD_REACTORS
330
16FF3
102
}
330
16FF3
100
AcDbMLeaderStyle
170
     2
171
     1
172
     0
 90
        2
 40
0.0
 41
0.0
173
     1
 91
-1056964608
340
16CF5
 92
       -2
290
     1
 42
0.09
291
     1
 43
0.36
  3
Standard
 44
0.18
300

342
16CF3
174
     1
178
     6
175
     1
176
     0
 93
-1056964608
 45
0.18
292
     0
297
     0
 46
0.18
 94
-1056964608
 47
1.0
 49
1.0
140
1.0
293
     1
141
0.0
294
     1
177
     0
142
1.0
295
     0
296
     0
143
0.125
1001
ACAD_MLEADERVER
1070
     2
  0
MLINESTYLE
  5
16CF9
102
{ACAD_REACTORS
330
16CF8
102
}
330
16CF8
100
AcDbMlineStyle
  2
STANDARD
 70
     0
  3

 62
   256
 51
90.0
 52
90.0
 71
     2
 49
0.5
 62
   256
  6
BYLAYER
 49
-0.5
 62
   256
  6
BYLAYER
  0
ACDBPLACEHOLDER
  5
16FAB
102
{ACAD_REACTORS
330
16FAA
102
}
330
16FAA
  0
SCALE
  5
16FE2
102
{ACAD_REACTORS
330
16FE1
102
}
330
16FE1
100
AcDbScale
 70
     0
300
1:1
140
1.0
141
1.0
290
     1
  0
SCALE
  5
16FE3
102
{ACAD_REACTORS
330
16FE1
102
}
330
16FE1
100
AcDbScale
 70
     0
300
1/128" = 1'-0"
140
0.0078125
141
12.0
290
     0
  0
SCALE
  5
16FE4
102
{ACAD_REACTORS
330
16FE1
102
}
330
16FE1
100
AcDbScale
 70
     0
300
1/64" = 1'-0"
140
0.015625
141
12.0
290
     0
  0
SCALE
  5
16FE5
102
{ACAD_REACTORS
330
16FE1
102
}
330
16FE1
100
AcDbScale
 70
     0
300
1/32" = 1'-0"
140
0.03125
141
12.0
290
     0
  0
SCALE
  5
16FE6
102
{ACAD_REACTORS
330
16FE1
102
}
330
16FE1
100
AcDbScale
 70
     0
300
1/16" = 1'-0"
140
0.0625
141
12.0
290
     0
  0
SCALE
  5
16FE7
102
{ACAD_REACTORS
330
16FE1
102
}
330
16FE1
100
AcDbScale
 70
     0
300
3/32" = 1'-0"
140
0.09375
141
12.0
290
     0
  0
SCALE
  5
16FE8
102
{ACAD_REACTORS
330
16FE1
102
}
330
16FE1
100
AcDbScale
 70
     0
300
1/8" = 1'-0"
140
0.125
141
12.0
290
     0
  0
SCALE
  5
16FE9
102
{ACAD_REACTORS
330
16FE1
102
}
330
16FE1
100
AcDbScale
 70
     0
300
3/16" = 1'-0"
140
0.1875
141
12.0
290
     0
  0
SCALE
  5
16FEA
102
{ACAD_REACTORS
330
16FE1
102
}
330
16FE1
100
AcDbScale
 70
     0
300
1/4" = 1'-0"
140
0.25
141
12.0
290
     0
  0
SCALE
  5
16FEB
102
{ACAD_REACTORS
330
16FE1
102
}
330
16FE1
100
AcDbScale
 70
     0
300
3/8" = 1'-0"
140
0.375
141
12.0
290
     0
  0
SCALE
  5
16FEC
102
{ACAD_REACTORS
330
16FE1
102
}
330
16FE1
100
AcDbScale
 70
     0
300
1/2" = 1'-0"
140
0.5
141
12.0
290
     0
  0
SCALE
  5
16FED
102
{ACAD_REACTORS
330
16FE1
102
}
330
16FE1
100
AcDbScale
 70
     0
300
3/4" = 1'-0"
140
0.75
141
12.0
290
     0
  0
SCALE
  5
16FEE
102
{ACAD_REACTORS
330
16FE1
102
}
330
16FE1
100
AcDbScale
 70
     0
300
1" = 1'-0"
140
1.0
141
12.0
290
     0
  0
SCALE
  5
16FEF
102
{ACAD_REACTORS
330
16FE1
102
}
330
16FE1
100
AcDbScale
 70
     0
300
1-1/2" = 1'-0"
140
1.5
141
12.0
290
     0
  0
SCALE
  5
16FF0
102
{ACAD_REACTORS
330
16FE1
102
}
330
16FE1
100
AcDbScale
 70
     0
300
3" = 1'-0"
140
3.0
141
12.0
290
     0
  0
SCALE
  5
16FF1
102
{ACAD_REACTORS
330
16FE1
102
}
330
16FE1
100
AcDbScale
 70
     0
300
6" = 1'-0"
140
6.0
141
12.0
290
     0
  0
SCALE
  5
16FF2
102
{ACAD_REACTORS
330
16FE1
102
}
330
16FE1
100
AcDbScale
 70
     0
300
1'-0" = 1'-0"
140
12.0
141
12.0
290
     0
  0
ACDBSECTIONVIEWSTYLE
  5
16FF6
102
{ACAD_XDICTIONARY
360
17051
102
}
102
{ACAD_REACTORS
330
16FF5
102
}
330
16FF5
100
AcDbModelDocViewStyle
 70
     0
  3
Imperial24
290
     0
100
AcDbSectionViewStyle
 70
     0
 71
     0
 90
       78
 71
     1
340
16CF3
 40
0.24
340
0
340
0
 40
0.24
300
I, O, Q, S, X, Z
 40
0.48
 90
        3
 40
0.18
 90
        1
 71
     2
340
16CF7
 90
       25
340
16CF7
 90
       50
 40
0.24
 40
0.0
 40
0.24
 71
     3
340
16CF3
 40
0.24
 90
        1
 40
0.75
 90
        1
300
%<\AcVar ViewType \f "%tc1">% %<\AcVar ViewSectionStartId>%-%<\AcVar ViewSectionEndId>%\PSCALE %<\AcVar ViewScale \f "%sn">%
 71
     4
300
ANSI31
 40
1.0
 90
        0
290
     0
290
     0
 90
        6
 40
0.0
 40
1.570796326794896
 40
0.2617993877991494
 40
1.308996938995747
 40
-0.2617993877991494
 40
1.832595714594046
  0
TABLESTYLE
  5
16FE0
102
{ACAD_XDICTIONARY
360
17018
102
}
102
{ACAD_REACTORS
330
16FDF
102
}
330
16FDF
100
AcDbTableStyle
  3
Standard
 70
     0
 71
     0
 40
0.06
 41
0.06
280
     0
281
     0
  7
STANDARD
140
0.18
170
     2
 62
     0
 63
     7
283
     0
274
    -2
284
     1
 64
     0
275
    -2
285
     1
 65
     0
276
    -2
286
     1
 66
     0
277
    -2
287
     1
 67
     0
278
    -2
288
     1
 68
     0
279
    -2
289
     1
 69
     0
  7
STANDARD
140
0.25
170
     5
 62
     0
 63
     7
283
     0
274
    -2
284
     1
 64
     0
275
    -2
285
     1
 65
     0
276
    -2
286
     1
 66
     0
277
    -2
287
     1
 67
     0
278
    -2
288
     1
 68
     0
279
    -2
289
     1
 69
     0
  7
STANDARD
140
0.18
170
     5
 62
     0
 63
     7
283
     0
274
    -2
284
     1
 64
     0
275
    -2
285
     1
 65
     0
276
    -2
286
     1
 66
     0
277
    -2
287
     1
 67
     0
278
    -2
288
     1
 68
     0
279
    -2
289
     1
 69
     0
  0
VISUALSTYLE
  5
16FCB
102
{ACAD_XDICTIONARY
360
17029
102
}
102
{ACAD_REACTORS
330
16FC5
102
}
330
16FC5
100
AcDbVisualStyle
  2
2dWireframe
 70
     4
 71
     0
 72
     2
 73
     0
 90
        0
 40
-0.6
 41
-30.0
 62
     5
 63
     7
 74
     1
 91
        4
 64
     7
 65
   257
 75
     1
175
     1
 42
1.0
 92
        0
 66
   257
 43
1.0
 76
     1
 77
     6
 78
     2
 67
     7
 79
     5
170
     0
171
     0
290
     0
174
     0
 93
        1
 44
0.0
173
     0
291
     0
 45
0.0
1001
ACAD
1000
AcDbSavedByObjectVersion
1070
     0
  0
VISUALSTYLE
  5
16FCA
102
{ACAD_XDICTIONARY
360
17027
102
}
102
{ACAD_REACTORS
330
16FC5
102
}
330
16FC5
100
AcDbVisualStyle
  2
Basic
 70
     7
 71
     1
 72
     0
 73
     1
 90
        0
 40
-0.6
 41
-30.0
 62
     5
 63
     7
 74
     0
 91
        4
 64
     7
 65
   257
 75
     1
175
     1
 42
1.0
 92
        8
 66
     7
 43
1.0
 76
     1
 77
     6
 78
     2
 67
     7
 79
     5
170
     0
171
     0
290
     0
174
     0
 93
        1
 44
0.0
173
     0
291
     1
 45
0.0
1001
ACAD
1000
AcDbSavedByObjectVersion
1070
     0
  0
VISUALSTYLE
  5
16FD1
102
{ACAD_XDICTIONARY
360
17035
102
}
102
{ACAD_REACTORS
330
16FC5
102
}
330
16FC5
100
AcDbVisualStyle
  2
Brighten
 70
    12
 71
     2
 72
     2
 73
     0
 90
        0
 40
-0.6
 41
-30.0
 62
     5
 63
     7
 74
     1
 91
        4
 64
     7
 65
   257
 75
     1
175
     1
 42
1.0
 92
        8
 66
     7
 43
1.0
 76
     1
 77
     6
 78
     2
 67
     7
 79
     5
170
     0
171
     0
290
     0
174
     0
 93
        1
 44
50.0
173
     0
291
     1
 45
0.0
1001
ACAD
1000
AcDbSavedByObjectVersion
1070
     0
  0
VISUALSTYLE
  5
16FD5
102
{ACAD_XDICTIONARY
360
1703D
102
}
102
{ACAD_REACTORS
330
16FC5
102
}
330
16FC5
100
AcDbVisualStyle
  2
ColorChange
 70
    16
 71
     2
 72
     2
 73
     3
 90
        0
 40
-0.6
 41
-30.0
 62
     5
 63
     8
 74
     1
 91
        4
 64
     7
 65
   257
 75
     1
175
     1
 42
1.0
 92
        8
 66
     8
 43
1.0
 76
     1
 77
     6
 78
     2
 67
     7
 79
     5
170
     0
171
     0
290
     0
174
     0
 93
        1
 44
0.0
173
     0
291
     1
 45
0.0
1001
ACAD
1000
AcDbSavedByObjectVersion
1070
     0
  0
VISUALSTYLE
  5
16FCE
102
{ACAD_XDICTIONARY
360
1702F
102
}
102
{ACAD_REACTORS
330
16FC5
102
}
330
16FC5
100
AcDbVisualStyle
  2
Conceptual
 70
     9
 71
     3
 72
     2
 73
     0
 90
        0
 40
-0.6
 41
-30.0
 62
     5
 63
     7
 74
     2
 91
        2
 64
     7
 65
   257
 75
     1
175
     1
 42
179.0
 92
        8
 66
     7
 43
1.0
 76
     1
 77
     6
 78
     2
 67
     7
 79
     3
170
     0
171
     0
290
     0
174
     0
 93
        1
 44
0.0
173
     0
291
     0
 45
0.0
1001
ACAD
1000
AcDbSavedByObjectVersion
1070
     0
  0
VISUALSTYLE
  5
16FD0
102
{ACAD_XDICTIONARY
360
17033
102
}
102
{ACAD_REACTORS
330
16FC5
102
}
330
16FC5
100
AcDbVisualStyle
  2
Dim
 70
    11
 71
     2
 72
     2
 73
     0
 90
        0
 40
-0.6
 41
-30.0
 62
     5
 63
     7
 74
     1
 91
        4
 64
     7
 65
   257
 75
     1
175
     1
 42
1.0
 92
        8
 66
     7
 43
1.0
 76
     1
 77
     6
 78
     2
 67
     7
 79
     5
170
     0
171
     0
290
     0
174
     0
 93
        1
 44
-50.0
173
     0
291
     1
 45
0.0
1001
ACAD
1000
AcDbSavedByObjectVersion
1070
     0
  0
VISUALSTYLE
  5
16FDD
102
{ACAD_XDICTIONARY
360
1704D
102
}
102
{ACAD_REACTORS
330
16FC5
102
}
330
16FC5
100
AcDbVisualStyle
  2
EdgeColorOff
 70
    22
 71
     2
 72
     2
 73
     0
 90
        0
 40
-0.6
 41
-30.0
 62
     5
 63
     7
 74
     1
 91
        4
 64
     7
 65
   257
 75
     1
175
     1
 42
1.0
 92
        8
 66
     7
 43
1.0
 76
     1
 77
     6
 78
     2
 67
     7
 79
     5
170
     0
171
     0
290
     0
174
     0
 93
        1
 44
0.0
173
     0
291
     1
 45
0.0
1001
ACAD
1000
AcDbSavedByObjectVersion
1070
     0
  0
VISUALSTYLE
  5
16FD4
102
{ACAD_XDICTIONARY
360
1703B
102
}
102
{ACAD_REACTORS
330
16FC5
102
}
330
16FC5
100
AcDbVisualStyle
  2
Facepattern
 70
    15
 71
     2
 72
     2
 73
     0
 90
        0
 40
-0.6
 41
-30.0
 62
     5
 63
     7
 74
     1
 91
        4
 64
     7
 65
   257
 75
     1
175
     1
 42
1.0
 92
        8
 66
     7
 43
1.0
 76
     1
 77
     6
 78
     2
 67
     7
 79
     5
170
     0
171
     0
290
     0
174
     0
 93
        1
 44
0.0
173
     0
291
     1
 45
0.0
1001
ACAD
1000
AcDbSavedByObjectVersion
1070
     0
  0
VISUALSTYLE
  5
16FC6
102
{ACAD_XDICTIONARY
360
1701F
102
}
102
{ACAD_REACTORS
330
16FC5
102
}
330
16FC5
100
AcDbVisualStyle
  2
Flat
 70
     0
 71
     2
 72
     1
 73
     1
 90
        2
 40
-0.6
 41
30.0
 62
     5
 63
     7
 74
     0
 91
        0
 64
     7
 65
   257
 75
     1
175
     1
 42
1.0
 92
        8
 66
     7
 43
1.0
 76
     1
 77
     6
 78
     2
 67
     7
 79
     5
170
     0
171
     0
290
     0
174
     0
 93
       13
 44
0.0
173
     0
291
     1
 45
0.0
1001
ACAD
1000
AcDbSavedByObjectVersion
1070
     0
  0
VISUALSTYLE
  5
16FC7
102
{ACAD_XDICTIONARY
360
17021
102
}
102
{ACAD_REACTORS
330
16FC5
102
}
330
16FC5
100
AcDbVisualStyle
  2
FlatWithEdges
 70
     1
 71
     2
 72
     1
 73
     1
 90
        2
 40
-0.6
 41
30.0
 62
     5
 63
     7
 74
     1
 91
        0
 64
     7
 65
   257
 75
     1
175
     1
 42
1.0
 92
        0
 66
   257
 43
1.0
 76
     1
 77
     6
 78
     2
 67
     7
 79
     5
170
     0
171
     0
290
     0
174
     0
 93
       13
 44
0.0
173
     0
291
     1
 45
0.0
1001
ACAD
1000
AcDbSavedByObjectVersion
1070
     0
  0
VISUALSTYLE
  5
16FC8
102
{ACAD_XDICTIONARY
360
17023
102
}
102
{ACAD_REACTORS
330
16FC5
102
}
330
16FC5
100
AcDbVisualStyle
  2
Gouraud
 70
     2
 71
     2
 72
     2
 73
     1
 90
        2
 40
-0.6
 41
30.0
 62
     5
 63
     7
 74
     0
 91
        0
 64
     7
 65
   257
 75
     1
175
     1
 42
1.0
 92
        0
 66
     7
 43
1.0
 76
     1
 77
     6
 78
     2
 67
     7
 79
     5
170
     0
171
     0
290
     0
174
     0
 93
       13
 44
0.0
173
     0
291
     1
 45
0.0
1001
ACAD
1000
AcDbSavedByObjectVersion
1070
     0
  0
VISUALSTYLE
  5
16FC9
102
{ACAD_XDICTIONARY
360
17025
102
}
102
{ACAD_REACTORS
330
16FC5
102
}
330
16FC5
100
AcDbVisualStyle
  2
GouraudWithEdges
 70
     3
 71
     2
 72
     2
 73
     1
 90
        2
 40
-0.6
 41
30.0
 62
     5
 63
     7
 74
     1
 91
        0
 64
     7
 65
   257
 75
     1
175
     1
 42
1.0
 92
        0
 66
   257
 43
1.0
 76
     1
 77
     6
 78
     2
 67
     7
 79
     5
170
     0
171
     0
290
     0
174
     0
 93
       13
 44
0.0
173
     0
291
     1
 45
0.0
1001
ACAD
1000
AcDbSavedByObjectVersion
1070
     0
  0
VISUALSTYLE
  5
16FCD
102
{ACAD_XDICTIONARY
360
1702D
102
}
102
{ACAD_REACTORS
330
16FC5
102
}
330
16FC5
100
AcDbVisualStyle
  2
Hidden
 70
     6
 71
     1
 72
     2
 73
     2
 90
        0
 40
-0.6
 41
-30.0
 62
     5
 63
     7
 74
     2
 91
        2
 64
     7
 65
   257
 75
     2
175
     1
 42
40.0
 92
        0
 66
   257
 43
1.0
 76
     1
 77
     6
 78
     2
 67
     7
 79
     3
170
     0
171
     0
290
     0
174
     0
 93
        1
 44
0.0
173
     0
291
     0
 45
0.0
1001
ACAD
1000
AcDbSavedByObjectVersion
1070
     0
  0
VISUALSTYLE
  5
16FDB
102
{ACAD_XDICTIONARY
360
17049
102
}
102
{ACAD_REACTORS
330
16FC5
102
}
330
16FC5
100
AcDbVisualStyle
  2
JitterOff
 70
    20
 71
     2
 72
     2
 73
     0
 90
        0
 40
-0.6
 41
-30.0
 62
     5
 63
     7
 74
     1
 91
        4
 64
     7
 65
   257
 75
     1
175
     1
 42
1.0
 92
       10
 66
     7
 43
1.0
 76
     1
 77
     6
 78
     2
 67
     7
 79
     5
170
     0
171
     0
290
     0
174
     0
 93
        1
 44
0.0
173
     0
291
     1
 45
0.0
1001
ACAD
1000
AcDbSavedByObjectVersion
1070
     0
  0
VISUALSTYLE
  5
16FD3
102
{ACAD_XDICTIONARY
360
17039
102
}
102
{ACAD_REACTORS
330
16FC5
102
}
330
16FC5
100
AcDbVisualStyle
  2
Linepattern
 70
    14
 71
     2
 72
     2
 73
     0
 90
        0
 40
-0.6
 41
-30.0
 62
     5
 63
     7
 74
     1
 91
        4
 64
     7
 65
   257
 75
     7
175
     7
 42
1.0
 92
        8
 66
     7
 43
1.0
 76
     1
 77
     6
 78
     2
 67
     7
 79
     5
170
     0
171
     0
290
     0
174
     0
 93
        1
 44
0.0
173
     0
291
     1
 45
0.0
1001
ACAD
1000
AcDbSavedByObjectVersion
1070
     0
  0
VISUALSTYLE
  5
16FDC
102
{ACAD_XDICTIONARY
360
1704B
102
}
102
{ACAD_REACTORS
330
16FC5
102
}
330
16FC5
100
AcDbVisualStyle
  2
OverhangOff
 70
    21
 71
     2
 72
     2
 73
     0
 90
        0
 40
-0.6
 41
-30.0
 62
     5
 63
     7
 74
     1
 91
        4
 64
     7
 65
   257
 75
     1
175
     1
 42
1.0
 92
        9
 66
     7
 43
1.0
 76
     1
 77
     6
 78
     2
 67
     7
 79
     5
170
     0
171
     0
290
     0
174
     0
 93
        1
 44
0.0
173
     0
291
     1
 45
0.0
1001
ACAD
1000
AcDbSavedByObjectVersion
1070
     0
  0
VISUALSTYLE
  5
16FCF
102
{ACAD_XDICTIONARY
360
17031
102
}
102
{ACAD_REACTORS
330
16FC5
102
}
330
16FC5
100
AcDbVisualStyle
  2
Realistic
 70
     8
 71
     2
 72
     3
 73
     0
 90
        2
 40
-0.6
 41
30.0
 62
     5
 63
     7
 74
     0
 91
        0
 64
     7
 65
   257
 75
     1
175
     1
 42
1.0
 92
        8
 66
   257
 43
1.0
 76
     1
 77
     6
 78
     2
 67
     7
 79
     3
170
     0
171
     0
290
     0
174
     0
 93
       13
 44
0.0
173
     0
291
     0
 45
0.0
1001
ACAD
1000
AcDbSavedByObjectVersion
1070
     0
  0
VISUALSTYLE
  5
16FDA
102
{ACAD_XDICTIONARY
360
17047
102
}
102
{ACAD_REACTORS
330
16FC5
102
}
330
16FC5
100
AcDbVisualStyle
  2
Shaded
 70
    27
 71
     2
 72
     2
 73
     1
 90
        2
 40
-0.6
 41
30.0
 62
     5
 63
     7
 74
     0
 91
        4
 64
     7
 65
   257
 75
     1
175
     1
 42
1.0
 92
        8
 66
   257
 43
1.0
 76
     1
 77
     6
 78
     2
 67
     8
 79
     3
170
     0
171
     0
290
     0
174
     0
 93
        5
 44
0.0
173
     0
291
     0
 45
0.0
1001
ACAD
1000
AcDbSavedByObjectVersion
1070
     0
  0
VISUALSTYLE
  5
16FD9
102
{ACAD_XDICTIONARY
360
17045
102
}
102
{ACAD_REACTORS
330
16FC5
102
}
330
16FC5
100
AcDbVisualStyle
  2
Shaded with edges
 70
    26
 71
     2
 72
     2
 73
     1
 90
        2
 40
-0.6
 41
30.0
 62
     5
 63
     7
 74
     1
 91
       10
 64
     7
 65
   257
 75
     2
175
     1
 42
1.0
 92
        8
 66
   257
 43
1.0
 76
     1
 77
     6
 78
     2
 67
     7
 79
     3
170
     0
171
     0
290
     0
174
     0
 93
        5
 44
0.0
173
     0
291
     0
 45
0.0
1001
ACAD
1000
AcDbSavedByObjectVersion
1070
     0
  0
VISUALSTYLE
  5
16FD6
102
{ACAD_XDICTIONARY
360
1703F
102
}
102
{ACAD_REACTORS
330
16FC5
102
}
330
16FC5
100
AcDbVisualStyle
  2
Shades of Gray
 70
    23
 71
     2
 72
     2
 73
     3
 90
        0
 40
-0.6
 41
-30.0
 62
     5
 63
     7
 74
     2
 91
        2
 64
     7
 65
     7
 75
     1
175
     1
 42
40.0
 92
        8
 66
     7
 43
1.0
 76
     1
 77
     6
 78
     2
 67
     7
 79
     3
170
     0
171
     0
290
     0
174
     0
 93
        1
 44
0.0
173
     0
291
     0
 45
0.0
1001
ACAD
1000
AcDbSavedByObjectVersion
1070
     0
  0
VISUALSTYLE
  5
16FD7
102
{ACAD_XDICTIONARY
360
17041
102
}
102
{ACAD_REACTORS
330
16FC5
102
}
330
16FC5
100
AcDbVisualStyle
  2
Sketchy
 70
    24
 71
     1
 72
     2
 73
     2
 90
        0
 40
-0.6
 41
-30.0
 62
     5
 63
     7
 74
     2
 91
        2
 64
     7
 65
     7
 75
     1
175
     1
 42
40.0
 92
       11
 66
     7
 43
1.0
 76
     1
 77
     6
 78
     2
 67
     7
 79
     6
170
     0
171
     0
290
     0
174
     0
 93
        1
 44
0.0
173
     0
291
     0
 45
0.0
1001
ACAD
1000
AcDbSavedByObjectVersion
1070
     0
  0
VISUALSTYLE
  5
16FD2
102
{ACAD_XDICTIONARY
360
17037
102
}
102
{ACAD_REACTORS
330
16FC5
102
}
330
16FC5
100
AcDbVisualStyle
  2
Thicken
 70
    13
 71
     2
 72
     2
 73
     0
 90
        0
 40
-0.6
 41
-30.0
 62
     5
 63
     7
 74
     1
 91
        4
 64
     7
 65
   257
 75
     1
175
     1
 42
1.0
 92
       12
 66
     7
 43
1.0
 76
     1
 77
     6
 78
     2
 67
     7
 79
     5
170
     0
171
     0
290
     0
174
     0
 93
        1
 44
0.0
173
     0
291
     1
 45
0.0
1001
ACAD
1000
AcDbSavedByObjectVersion
1070
     0
  0
VISUALSTYLE
  5
16FCC
102
{ACAD_XDICTIONARY
360
1702B
102
}
102
{ACAD_REACTORS
330
16FC5
102
}
330
16FC5
100
AcDbVisualStyle
  2
Wireframe
 70
     5
 71
     0
 72
     2
 73
     0
 90
        0
 40
-0.6
 41
-30.0
 62
     5
 63
     7
 74
     1
 91
        4
 64
     7
 65
   257
 75
     1
175
     1
 42
1.0
 92
        0
 66
   257
 43
1.0
 76
     1
 77
     6
 78
     2
 67
     7
 79
     3
170
     0
171
     0
290
     0
174
     0
 93
        1
 44
0.0
173
     0
291
     0
 45
0.0
1001
ACAD
1000
AcDbSavedByObjectVersion
1070
     0
  0
VISUALSTYLE
  5
16FD8
102
{ACAD_XDICTIONARY
360
17043
102
}
102
{ACAD_REACTORS
330
16FC5
102
}
330
16FC5
100
AcDbVisualStyle
  2
X-Ray
 70
    25
 71
     2
 72
     2
 73
     1
 90
        1
 40
0.5
 41
-30.0
 62
     5
 63
     7
 74
     1
 91
        0
 64
     7
 65
   257
 75
     1
175
     1
 42
1.0
 92
        8
 66
     7
 43
1.0
 76
     1
 77
     6
 78
     2
 67
     7
 79
     3
170
     0
171
     0
290
     0
174
     0
 93
       13
 44
0.0
173
     0
291
     0
 45
0.0
1001
ACAD
1000
AcDbSavedByObjectVersion
1070
     0
  0
DICTIONARYVAR
  5
17012
102
{ACAD_REACTORS
330
1700D
102
}
330
1700D
100
DictionaryVariables
280
     0
  1
1:1
  0
DICTIONARYVAR
  5
1700F
102
{ACAD_REACTORS
330
1700D
102
}
330
1700D
100
DictionaryVariables
280
     0
  1
STANDARD
  0
DICTIONARYVAR
  5
1700E
102
{ACAD_REACTORS
330
1700D
102
}
330
1700D
100
DictionaryVariables
280
     0
  1
STANDARD
  0
DICTIONARYVAR
  5
17010
102
{ACAD_REACTORS
330
1700D
102
}
330
1700D
100
DictionaryVariables
280
     0
  1
Imperial24
  0
DICTIONARYVAR
  5
17011
102
{ACAD_REACTORS
330
1700D
102
}
330
1700D
100
DictionaryVariables
280
     0
  1
Imperial24
  0
DICTIONARYVAR
  5
17015
102
{ACAD_REACTORS
330
1700D
102
}
330
1700D
100
DictionaryVariables
280
     0
  1
1
  0
DICTIONARYVAR
  5
17014
102
{ACAD_REACTORS
330
1700D
102
}
330
1700D
100
DictionaryVariables
280
     0
  1
0
  0
DICTIONARYVAR
  5
17013
102
{ACAD_REACTORS
330
1700D
102
}
330
1700D
100
DictionaryVariables
280
     0
  1
127
  0
DICTIONARYVAR
  5
17016
102
{ACAD_REACTORS
330
1700D
102
}
330
1700D
100
DictionaryVariables
280
     0
  1
2
  0
DICTIONARY
  5
17053
330
16FF8
100
AcDbDictionary
280
     1
281
     1
  3
ACAD_XREC_ROUNDTRIP
360
17054
  0
DICTIONARY
  5
17055
330
16FF9
100
AcDbDictionary
280
     1
281
     1
  3
ACAD_XREC_ROUNDTRIP
360
17056
  0
DICTIONARY
  5
17057
330
16FFA
100
AcDbDictionary
280
     1
281
     1
  3
ACAD_XREC_ROUNDTRIP
360
17058
  0
DICTIONARY
  5
16FB6
330
16FB5
100
AcDbDictionary
280
     1
281
     1
  3
ACAD_XREC_ROUNDTRIP
360
1701D
  3
BUMPTILE
360
16FB8
  3
DIFFUSETILE
360
16FB7
  3
OPACITYTILE
360
16FBB
  3
REFLECTIONTILE
360
16FBA
  3
REFRACTIONTILE
360
16FBC
  3
SPECULARTILE
360
16FB9
  0
DICTIONARY
  5
16FAE
330
16FAD
100
AcDbDictionary
280
     1
281
     1
  3
ACAD_XREC_ROUNDTRIP
360
1701C
  3
BUMPTILE
360
16FB0
  3
DIFFUSETILE
360
16FAF
  3
OPACITYTILE
360
16FB3
  3
REFLECTIONTILE
360
16FB2
  3
REFRACTIONTILE
360
16FB4
  3
SPECULARTILE
360
16FB1
  0
DICTIONARY
  5
16FBE
330
16FBD
100
AcDbDictionary
280
     1
281
     1
  3
ACAD_XREC_ROUNDTRIP
360
1701E
  3
BUMPTILE
360
16FC0
  3
DIFFUSETILE
360
16FBF
  3
OPACITYTILE
360
16FC3
  3
REFLECTIONTILE
360
16FC2
  3
REFRACTIONTILE
360
16FC4
  3
SPECULARTILE
360
16FC1
  0
DICTIONARY
  5
17051
330
16FF6
100
AcDbDictionary
280
     1
281
     1
  3
ACAD_XREC_ROUNDTRIP
360
17052
  0
DICTIONARY
  5
17018
330
16FE0
100
AcDbDictionary
280
     1
281
     1
  3
ACAD_ROUNDTRIP_2008_TABLESTYLE_CELLSTYLEMAP
360
17019
  3
ACAD_XREC_ROUNDTRIP
360
1704F
  0
DICTIONARY
  5
17029
330
16FCB
100
AcDbDictionary
280
     1
281
     1
  3
ACAD_XREC_ROUNDTRIP
360
1702A
  0
DICTIONARY
  5
17027
330
16FCA
100
AcDbDictionary
280
     1
281
     1
  3
ACAD_XREC_ROUNDTRIP
360
17028
  0
DICTIONARY
  5
17035
330
16FD1
100
AcDbDictionary
280
     1
281
     1
  3
ACAD_XREC_ROUNDTRIP
360
17036
  0
DICTIONARY
  5
1703D
330
16FD5
100
AcDbDictionary
280
     1
281
     1
  3
ACAD_XREC_ROUNDTRIP
360
1703E
  0
DICTIONARY
  5
1702F
330
16FCE
100
AcDbDictionary
280
     1
281
     1
  3
ACAD_XREC_ROUNDTRIP
360
17030
  0
DICTIONARY
  5
17033
330
16FD0
100
AcDbDictionary
280
     1
281
     1
  3
ACAD_XREC_ROUNDTRIP
360
17034
  0
DICTIONARY
  5
1704D
330
16FDD
100
AcDbDictionary
280
     1
281
     1
  3
ACAD_XREC_ROUNDTRIP
360
1704E
  0
DICTIONARY
  5
1703B
330
16FD4
100
AcDbDictionary
280
     1
281
     1
  3
ACAD_XREC_ROUNDTRIP
360
1703C
  0
DICTIONARY
  5
1701F
330
16FC6
100
AcDbDictionary
280
     1
281
     1
  3
ACAD_XREC_ROUNDTRIP
360
17020
  0
DICTIONARY
  5
17021
330
16FC7
100
AcDbDictionary
280
     1
281
     1
  3
ACAD_XREC_ROUNDTRIP
360
17022
  0
DICTIONARY
  5
17023
330
16FC8
100
AcDbDictionary
280
     1
281
     1
  3
ACAD_XREC_ROUNDTRIP
360
17024
  0
DICTIONARY
  5
17025
330
16FC9
100
AcDbDictionary
280
     1
281
     1
  3
ACAD_XREC_ROUNDTRIP
360
17026
  0
DICTIONARY
  5
1702D
330
16FCD
100
AcDbDictionary
280
     1
281
     1
  3
ACAD_XREC_ROUNDTRIP
360
1702E
  0
DICTIONARY
  5
17049
330
16FDB
100
AcDbDictionary
280
     1
281
     1
  3
ACAD_XREC_ROUNDTRIP
360
1704A
  0
DICTIONARY
  5
17039
330
16FD3
100
AcDbDictionary
280
     1
281
     1
  3
ACAD_XREC_ROUNDTRIP
360
1703A
  0
DICTIONARY
  5
1704B
330
16FDC
100
AcDbDictionary
280
     1
281
     1
  3
ACAD_XREC_ROUNDTRIP
360
1704C
  0
DICTIONARY
  5
17031
330
16FCF
100
AcDbDictionary
280
     1
281
     1
  3
ACAD_XREC_ROUNDTRIP
360
17032
  0
DICTIONARY
  5
17047
330
16FDA
100
AcDbDictionary
280
     1
281
     1
  3
ACAD_XREC_ROUNDTRIP
360
17048
  0
DICTIONARY
  5
17045
330
16FD9
100
AcDbDictionary
280
     1
281
     1
  3
ACAD_XREC_ROUNDTRIP
360
17046
  0
DICTIONARY
  5
1703F
330
16FD6
100
AcDbDictionary
280
     1
281
     1
  3
ACAD_XREC_ROUNDTRIP
360
17040
  0
DICTIONARY
  5
17041
330
16FD7
100
AcDbDictionary
280
     1
281
     1
  3
ACAD_XREC_ROUNDTRIP
360
17042
  0
DICTIONARY
  5
17037
330
16FD2
100
AcDbDictionary
280
     1
281
     1
  3
ACAD_XREC_ROUNDTRIP
360
17038
  0
DICTIONARY
  5
1702B
330
16FCC
100
AcDbDictionary
280
     1
281
     1
  3
ACAD_XREC_ROUNDTRIP
360
1702C
  0
DICTIONARY
  5
17043
330
16FD8
100
AcDbDictionary
280
     1
281
     1
  3
ACAD_XREC_ROUNDTRIP
360
17044
  0
XRECORD
  5
17054
102
{ACAD_REACTORS
330
17053
102
}
330
17053
100
AcDbXrecord
280
     1
102
DISPLAYNAME
  1
Imperial24
102
FLAGS
 90
        0
  0
XRECORD
  5
17056
102
{ACAD_REACTORS
330
17055
102
}
330
17055
100
AcDbXrecord
280
     1
102
SHADEPLOT
 70
     0
102
SHADEPLOTRESLEVEL
 70
     2
102
SHADEPLOTCUSTOMDPI
 70
   300
  0
XRECORD
  5
17058
102
{ACAD_REACTORS
330
17057
102
}
330
17057
100
AcDbXrecord
280
     1
102
SHADEPLOT
 70
     0
102
SHADEPLOTRESLEVEL
 70
     2
102
SHADEPLOTCUSTOMDPI
 70
   300
  0
XRECORD
  5
1701D
102
{ACAD_REACTORS
330
16FB6
102
}
330
16FB6
100
AcDbXrecord
280
     1
102
MATERIAL
148
0.0
149
0.0
149
0.0
 93
        0
 94
      127
282
     0
 72
     0
 77
     0
171
     0
175
     0
179
     0
273
     0
  0
XRECORD
  5
16FB8
102
{ACAD_REACTORS
330
16FB6
102
}
330
16FB6
100
AcDbXrecord
280
     1
270
     1
271
     1
  0
XRECORD
  5
16FB7
102
{ACAD_REACTORS
330
16FB6
102
}
330
16FB6
100
AcDbXrecord
280
     1
270
     1
271
     1
  0
XRECORD
  5
16FBB
102
{ACAD_REACTORS
330
16FB6
102
}
330
16FB6
100
AcDbXrecord
280
     1
270
     1
271
     1
  0
XRECORD
  5
16FBA
102
{ACAD_REACTORS
330
16FB6
102
}
330
16FB6
100
AcDbXrecord
280
     1
270
     1
271
     1
  0
XRECORD
  5
16FBC
102
{ACAD_REACTORS
330
16FB6
102
}
330
16FB6
100
AcDbXrecord
280
     1
270
     1
271
     1
  0
XRECORD
  5
16FB9
102
{ACAD_REACTORS
330
16FB6
102
}
330
16FB6
100
AcDbXrecord
280
     1
270
     1
271
     1
  0
XRECORD
  5
1701C
102
{ACAD_REACTORS
330
16FAE
102
}
330
16FAE
100
AcDbXrecord
280
     1
102
MATERIAL
148
0.0
149
0.0
149
0.0
 93
        0
 94
      127
282
     0
 72
     0
 77
     0
171
     0
175
     0
179
     0
273
     0
  0
XRECORD
  5
16FB0
102
{ACAD_REACTORS
330
16FAE
102
}
330
16FAE
100
AcDbXrecord
280
     1
270
     1
271
     1
  0
XRECORD
  5
16FAF
102
{ACAD_REACTORS
330
16FAE
102
}
330
16FAE
100
AcDbXrecord
280
     1
270
     1
271
     1
  0
XRECORD
  5
16FB3
102
{ACAD_REACTORS
330
16FAE
102
}
330
16FAE
100
AcDbXrecord
280
     1
270
     1
271
     1
  0
XRECORD
  5
16FB2
102
{ACAD_REACTORS
330
16FAE
102
}
330
16FAE
100
AcDbXrecord
280
     1
270
     1
271
     1
  0
XRECORD
  5
16FB4
102
{ACAD_REACTORS
330
16FAE
102
}
330
16FAE
100
AcDbXrecord
280
     1
270
     1
271
     1
  0
XRECORD
  5
16FB1
102
{ACAD_REACTORS
330
16FAE
102
}
330
16FAE
100
AcDbXrecord
280
     1
270
     1
271
     1
  0
XRECORD
  5
1701E
102
{ACAD_REACTORS
330
16FBE
102
}
330
16FBE
100
AcDbXrecord
280
     1
102
MATERIAL
148
0.0
149
0.0
149
0.0
 93
        0
 94
      127
282
     0
 72
     0
 77
     0
171
     0
175
     0
179
     0
273
     0
  0
XRECORD
  5
16FC0
102
{ACAD_REACTORS
330
16FBE
102
}
330
16FBE
100
AcDbXrecord
280
     1
270
     1
271
     1
  0
XRECORD
  5
16FBF
102
{ACAD_REACTORS
330
16FBE
102
}
330
16FBE
100
AcDbXrecord
280
     1
270
     1
271
     1
  0
XRECORD
  5
16FC3
102
{ACAD_REACTORS
330
16FBE
102
}
330
16FBE
100
AcDbXrecord
280
     1
270
     1
271
     1
  0
XRECORD
  5
16FC2
102
{ACAD_REACTORS
330
16FBE
102
}
330
16FBE
100
AcDbXrecord
280
     1
270
     1
271
     1
  0
XRECORD
  5
16FC4
102
{ACAD_REACTORS
330
16FBE
102
}
330
16FBE
100
AcDbXrecord
280
     1
270
     1
271
     1
  0
XRECORD
  5
16FC1
102
{ACAD_REACTORS
330
16FBE
102
}
330
16FBE
100
AcDbXrecord
280
     1
270
     1
271
     1
  0
XRECORD
  5
17052
102
{ACAD_REACTORS
330
17051
102
}
330
17051
100
AcDbXrecord
280
     1
102
DISPLAYNAME
  1
Imperial24
102
FLAGS
 90
        0
  0
CELLSTYLEMAP
  5
17019
102
{ACAD_REACTORS
330
17018
102
}
330
17018
100
AcDbCellStyleMap
 90
        3
300
CELLSTYLE
  1
TABLEFORMAT_BEGIN
 90
        5
170
     1
 91
        0
 92
    32768
 62
   257
 93
        1
300
CONTENTFORMAT
  1
CONTENTFORMAT_BEGIN
 90
        0
 91
        0
 92
      512
 93
        0
300

 40
0.0
140
1.0
 94
        5
 62
     0
340
16CF3
144
0.25
309
CONTENTFORMAT_END
171
     0
 94
        0
309
TABLEFORMAT_END
  1
CELLSTYLE_BEGIN
 90
        1
 91
        1
300
_TITLE
309
CELLSTYLE_END
300
CELLSTYLE
  1
TABLEFORMAT_BEGIN
 90
        5
170
     1
 91
        0
 92
        0
 62
   257
 93
        1
300
CONTENTFORMAT
  1
CONTENTFORMAT_BEGIN
 90
        0
 91
        0
 92
      512
 93
        0
300

 40
0.0
140
1.0
 94
        5
 62
     0
340
16CF3
144
0.18
309
CONTENTFORMAT_END
171
     0
 94
        0
309
TABLEFORMAT_END
  1
CELLSTYLE_BEGIN
 90
        2
 91
        1
300
_HEADER
309
CELLSTYLE_END
300
CELLSTYLE
  1
TABLEFORMAT_BEGIN
 90
        5
170
     1
 91
        0
 92
        0
 62
   257
 93
        1
300
CONTENTFORMAT
  1
CONTENTFORMAT_BEGIN
 90
        0
 91
        0
 92
      512
 93
        0
300

 40
0.0
140
1.0
 94
        2
 62
     0
340
16CF3
144
0.18
309
CONTENTFORMAT_END
171
     0
 94
        0
309
TABLEFORMAT_END
  1
CELLSTYLE_BEGIN
 90
        3
 91
        2
300
_DATA
309
CELLSTYLE_END
  0
XRECORD
  5
1704F
102
{ACAD_REACTORS
330
17018
102
}
330
17018
100
AcDbXrecord
280
     1
102
ACAD_ROUNDTRIP_PRE2007_TABLESTYLE
 90
      512
 91
        0
  1

 92
      512
 93
        0
  2

 94
      512
 95
        0
  3

  0
XRECORD
  5
1702A
102
{ACAD_REACTORS
330
17029
102
}
330
17029
100
AcDbXrecord
280
     1
102
RTVSPost2010Prop28
280
     1
102
RTVSPost2010PropOp28
 70
     1
102
RTVSPost2010Prop29
280
     1
102
RTVSPost2010PropOp29
 70
     1
102
RTVSPost2010Prop30
280
     0
102
RTVSPost2010PropOp30
 70
     1
102
RTVSPost2010Prop31
280
     0
102
RTVSPost2010PropOp31
 70
     1
102
RTVSPost2010Prop32
280
     0
102
RTVSPost2010PropOp32
 70
     1
102
RTVSPost2010Prop33
280
     0
102
RTVSPost2010PropOp33
 70
     1
102
RTVSPost2010Prop34
280
     0
102
RTVSPost2010PropOp34
 70
     1
102
RTVSPost2010Prop35
280
     0
102
RTVSPost2010PropOp35
 70
     1
102
RTVSPost2010Prop36
280
     0
102
RTVSPost2010PropOp36
 70
     1
102
RTVSPost2010Prop37
 90
       50
102
RTVSPost2010PropOp37
 70
     1
102
RTVSPost2010Prop38
140
0.0
102
RTVSPost2010PropOp38
 70
     1
102
RTVSPost2010Prop39
140
1.0
102
RTVSPost2010PropOp39
 70
     1
102
RTVSPost2010Prop40
 90
        0
102
RTVSPost2010PropOp40
 70
     1
102
RTVSPost2010Prop41ColorIndex
 90
       18
102
RTVSPost2010Prop41ColorRGB
 90
        0
102
RTVSPost2010PropOp41
 70
     1
102
RTVSPost2010Prop42
 90
       50
102
RTVSPost2010PropOp42
 70
     1
102
RTVSPost2010Prop43
 90
        3
102
RTVSPost2010PropOp43
 70
     1
102
RTVSPost2010Prop44ColorIndex
 90
        5
102
RTVSPost2010Prop44ColorRGB
 90
      255
102
RTVSPost2010PropOp44
 70
     1
102
RTVSPost2010Prop45
280
     0
102
RTVSPost2010PropOp45
 70
     1
102
RTVSPost2010Prop46
 90
       50
102
RTVSPost2010PropOp46
 70
     1
102
RTVSPost2010Prop47
 90
       50
102
RTVSPost2010PropOp47
 70
     1
102
RTVSPost2010Prop48
 90
       50
102
RTVSPost2010PropOp48
 70
     1
102
RTVSPost2010Prop49
280
     0
102
RTVSPost2010PropOp49
 70
     1
102
RTVSPost2010Prop50
 90
       50
102
RTVSPost2010PropOp50
 70
     1
102
RTVSPost2010Prop51ColorIndex
 90
      256
102
RTVSPost2010Prop51ColorRGB
 90
-16777216
102
RTVSPost2010PropOp51
 70
     0
102
RTVSPost2010Prop52
140
1.0
102
RTVSPost2010PropOp52
 70
     0
102
RTVSPost2010Prop53
 90
        2
102
RTVSPost2010PropOp53
 70
     1
102
RTVSPost2010Prop54
  1
strokes_ogs.tif
102
RTVSPost2010PropOp54
 70
     1
102
RTVSPost2010Prop55
280
     0
102
RTVSPost2010PropOp55
 70
     1
102
RTVSPost2010Prop56
140
1.0
102
RTVSPost2010PropOp56
 70
     1
102
RTVSPost2010Prop57
140
1.0
102
RTVSPost2010PropOp57
 70
     1
102
RTVSPropertyOp0
 70
     1
102
RTVSPropertyOp1
 70
     1
102
RTVSPropertyOp2
 70
     1
102
RTVSPropertyOp3
 70
     1
102
RTVSPropertyOp4
 70
     1
102
RTVSPropertyOp5
 70
     1
102
RTVSPropertyOp6
 70
     1
102
RTVSPropertyOp7
 70
     1
102
RTVSPropertyOp8
 70
     1
102
RTVSPropertyOp9
 70
     1
102
RTVSPropertyOp10
 70
     1
102
RTVSPropertyOp11
 70
     1
102
RTVSPropertyOp12
 70
     1
102
RTVSPropertyOp13
 70
     1
102
RTVSPropertyOp14
 70
     1
102
RTVSPropertyOp15
 70
     1
102
RTVSPropertyOp16
 70
     1
102
RTVSPropertyOp17
 70
     1
102
RTVSPropertyOp18
 70
     1
102
RTVSPropertyOp19
 70
     1
102
RTVSPropertyOp20
 70
     1
102
RTVSPropertyOp21
 70
     1
102
RTVSPropertyOp22
 70
     1
102
RTVSPropertyOp23
 70
     1
102
RTVSPropertyOp24
 70
     1
102
RTVSPropertyOp25
 70
     1
102
RTVSPropertyOp26
 70
     1
102
RTVSPropertyOp27
 70
     1
102
RTVSPropertyOp28
 70
     1
102
RTVSPropertyOp29
 70
     1
102
RTVSPropertyOp30
 70
     1
102
RTVSPropertyOp31
 70
     1
102
RTVSPropertyOp32
 70
     1
102
RTVSPropertyOp33
 70
     1
102
RTVSPropertyOp34
 70
     1
102
RTVSPropertyOp35
 70
     1
102
RTVSPropertyOp36
 70
     1
102
RTVSPropertyOp37
 70
     1
102
RTVSPropertyOp38
 70
     1
102
RTVSPropertyOp39
 70
     1
102
RTVSPropertyOp40
 70
     1
102
RTVSPropertyOp41
 70
     1
102
RTVSPropertyOp42
 70
     1
102
RTVSPropertyOp43
 70
     1
102
RTVSPropertyOp44
 70
     1
102
RTVSPropertyOp45
 70
     1
102
RTVSPropertyOp46
 70
     1
102
RTVSPropertyOp47
 70
     1
102
RTVSPropertyOp48
 70
     1
102
RTVSPropertyOp49
 70
     1
102
RTVSPropertyOp50
 70
     1
102
RTVSPropertyOp51
 70
     0
102
RTVSPropertyOp52
 70
     0
102
RTVSPropertyOp53
 70
     1
102
RTVSPropertyOp54
 70
     1
102
RTVSPropertyOp55
 70
     1
102
RTVSPropertyOp56
 70
     1
102
RTVSPropertyOp57
 70
     1
102
RTVSPropertyOp58
 70
     1
102
RTVSPropertyOp59
 70
     1
102
RTVSPropertyOp60
 70
     1
102
RTVSPropertyOp61
 70
     1
102
RTVSPropertyOp62
 70
     1
  0
XRECORD
  5
17028
102
{ACAD_REACTORS
330
17027
102
}
330
17027
100
AcDbXrecord
280
     1
102
RTVSPost2010Prop28
280
     0
102
RTVSPost2010PropOp28
 70
     1
102
RTVSPost2010Prop29
280
     1
102
RTVSPost2010PropOp29
 70
     1
102
RTVSPost2010Prop30
280
     1
102
RTVSPost2010PropOp30
 70
     1
102
RTVSPost2010Prop31
280
     0
102
RTVSPost2010PropOp31
 70
     1
102
RTVSPost2010Prop32
280
     0
102
RTVSPost2010PropOp32
 70
     1
102
RTVSPost2010Prop33
280
     0
102
RTVSPost2010PropOp33
 70
     1
102
RTVSPost2010Prop34
280
     0
102
RTVSPost2010PropOp34
 70
     1
102
RTVSPost2010Prop35
280
     0
102
RTVSPost2010PropOp35
 70
     1
102
RTVSPost2010Prop36
280
     0
102
RTVSPost2010PropOp36
 70
     1
102
RTVSPost2010Prop37
 90
       50
102
RTVSPost2010PropOp37
 70
     1
102
RTVSPost2010Prop38
140
0.0
102
RTVSPost2010PropOp38
 70
     1
102
RTVSPost2010Prop39
140
1.0
102
RTVSPost2010PropOp39
 70
     1
102
RTVSPost2010Prop40
 90
        0
102
RTVSPost2010PropOp40
 70
     1
102
RTVSPost2010Prop41ColorIndex
 90
       18
102
RTVSPost2010Prop41ColorRGB
 90
        0
102
RTVSPost2010PropOp41
 70
     1
102
RTVSPost2010Prop42
 90
       50
102
RTVSPost2010PropOp42
 70
     1
102
RTVSPost2010Prop43
 90
        3
102
RTVSPost2010PropOp43
 70
     1
102
RTVSPost2010Prop44ColorIndex
 90
        5
102
RTVSPost2010Prop44ColorRGB
 90
      255
102
RTVSPost2010PropOp44
 70
     1
102
RTVSPost2010Prop45
280
     0
102
RTVSPost2010PropOp45
 70
     1
102
RTVSPost2010Prop46
 90
       50
102
RTVSPost2010PropOp46
 70
     1
102
RTVSPost2010Prop47
 90
       50
102
RTVSPost2010PropOp47
 70
     1
102
RTVSPost2010Prop48
 90
       50
102
RTVSPost2010PropOp48
 70
     1
102
RTVSPost2010Prop49
280
     0
102
RTVSPost2010PropOp49
 70
     1
102
RTVSPost2010Prop50
 90
       50
102
RTVSPost2010PropOp50
 70
     1
102
RTVSPost2010Prop51ColorIndex
 90
      256
102
RTVSPost2010Prop51ColorRGB
 90
-16777216
102
RTVSPost2010PropOp51
 70
     0
102
RTVSPost2010Prop52
140
1.0
102
RTVSPost2010PropOp52
 70
     0
102
RTVSPost2010Prop53
 90
        2
102
RTVSPost2010PropOp53
 70
     1
102
RTVSPost2010Prop54
  1
strokes_ogs.tif
102
RTVSPost2010PropOp54
 70
     1
102
RTVSPost2010Prop55
280
     0
102
RTVSPost2010PropOp55
 70
     1
102
RTVSPost2010Prop56
140
1.0
102
RTVSPost2010PropOp56
 70
     1
102
RTVSPost2010Prop57
140
1.0
102
RTVSPost2010PropOp57
 70
     1
102
RTVSPropertyOp0
 70
     1
102
RTVSPropertyOp1
 70
     1
102
RTVSPropertyOp2
 70
     1
102
RTVSPropertyOp3
 70
     1
102
RTVSPropertyOp4
 70
     1
102
RTVSPropertyOp5
 70
     1
102
RTVSPropertyOp6
 70
     1
102
RTVSPropertyOp7
 70
     1
102
RTVSPropertyOp8
 70
     1
102
RTVSPropertyOp9
 70
     1
102
RTVSPropertyOp10
 70
     1
102
RTVSPropertyOp11
 70
     1
102
RTVSPropertyOp12
 70
     1
102
RTVSPropertyOp13
 70
     1
102
RTVSPropertyOp14
 70
     1
102
RTVSPropertyOp15
 70
     1
102
RTVSPropertyOp16
 70
     1
102
RTVSPropertyOp17
 70
     1
102
RTVSPropertyOp18
 70
     1
102
RTVSPropertyOp19
 70
     1
102
RTVSPropertyOp20
 70
     1
102
RTVSPropertyOp21
 70
     1
102
RTVSPropertyOp22
 70
     1
102
RTVSPropertyOp23
 70
     1
102
RTVSPropertyOp24
 70
     1
102
RTVSPropertyOp25
 70
     1
102
RTVSPropertyOp26
 70
     1
102
RTVSPropertyOp27
 70
     1
102
RTVSPropertyOp28
 70
     1
102
RTVSPropertyOp29
 70
     1
102
RTVSPropertyOp30
 70
     1
102
RTVSPropertyOp31
 70
     1
102
RTVSPropertyOp32
 70
     1
102
RTVSPropertyOp33
 70
     1
102
RTVSPropertyOp34
 70
     1
102
RTVSPropertyOp35
 70
     1
102
RTVSPropertyOp36
 70
     1
102
RTVSPropertyOp37
 70
     1
102
RTVSPropertyOp38
 70
     1
102
RTVSPropertyOp39
 70
     1
102
RTVSPropertyOp40
 70
     1
102
RTVSPropertyOp41
 70
     1
102
RTVSPropertyOp42
 70
     1
102
RTVSPropertyOp43
 70
     1
102
RTVSPropertyOp44
 70
     1
102
RTVSPropertyOp45
 70
     1
102
RTVSPropertyOp46
 70
     1
102
RTVSPropertyOp47
 70
     1
102
RTVSPropertyOp48
 70
     1
102
RTVSPropertyOp49
 70
     1
102
RTVSPropertyOp50
 70
     1
102
RTVSPropertyOp51
 70
     0
102
RTVSPropertyOp52
 70
     0
102
RTVSPropertyOp53
 70
     1
102
RTVSPropertyOp54
 70
     1
102
RTVSPropertyOp55
 70
     1
102
RTVSPropertyOp56
 70
     1
102
RTVSPropertyOp57
 70
     1
102
RTVSPropertyOp58
 70
     1
102
RTVSPropertyOp59
 70
     1
102
RTVSPropertyOp60
 70
     1
102
RTVSPropertyOp61
 70
     1
102
RTVSPropertyOp62
 70
     1
  0
XRECORD
  5
17036
102
{ACAD_REACTORS
330
17035
102
}
330
17035
100
AcDbXrecord
280
     1
102
RTVSPost2010Prop28
280
     0
102
RTVSPost2010PropOp28
 70
     1
102
RTVSPost2010Prop29
280
     1
102
RTVSPost2010PropOp29
 70
     1
102
RTVSPost2010Prop30
280
     1
102
RTVSPost2010PropOp30
 70
     1
102
RTVSPost2010Prop31
280
     0
102
RTVSPost2010PropOp31
 70
     1
102
RTVSPost2010Prop32
280
     0
102
RTVSPost2010PropOp32
 70
     1
102
RTVSPost2010Prop33
280
     0
102
RTVSPost2010PropOp33
 70
     1
102
RTVSPost2010Prop34
280
     0
102
RTVSPost2010PropOp34
 70
     1
102
RTVSPost2010Prop35
280
     0
102
RTVSPost2010PropOp35
 70
     1
102
RTVSPost2010Prop36
280
     0
102
RTVSPost2010PropOp36
 70
     1
102
RTVSPost2010Prop37
 90
       50
102
RTVSPost2010PropOp37
 70
     1
102
RTVSPost2010Prop38
140
0.0
102
RTVSPost2010PropOp38
 70
     1
102
RTVSPost2010Prop39
140
1.0
102
RTVSPost2010PropOp39
 70
     1
102
RTVSPost2010Prop40
 90
        0
102
RTVSPost2010PropOp40
 70
     1
102
RTVSPost2010Prop41ColorIndex
 90
       18
102
RTVSPost2010Prop41ColorRGB
 90
        0
102
RTVSPost2010PropOp41
 70
     1
102
RTVSPost2010Prop42
 90
       50
102
RTVSPost2010PropOp42
 70
     1
102
RTVSPost2010Prop43
 90
        3
102
RTVSPost2010PropOp43
 70
     1
102
RTVSPost2010Prop44ColorIndex
 90
        5
102
RTVSPost2010Prop44ColorRGB
 90
      255
102
RTVSPost2010PropOp44
 70
     1
102
RTVSPost2010Prop45
280
     0
102
RTVSPost2010PropOp45
 70
     1
102
RTVSPost2010Prop46
 90
       50
102
RTVSPost2010PropOp46
 70
     1
102
RTVSPost2010Prop47
 90
       50
102
RTVSPost2010PropOp47
 70
     1
102
RTVSPost2010Prop48
 90
       50
102
RTVSPost2010PropOp48
 70
     1
102
RTVSPost2010Prop49
280
     0
102
RTVSPost2010PropOp49
 70
     1
102
RTVSPost2010Prop50
 90
       50
102
RTVSPost2010PropOp50
 70
     1
102
RTVSPost2010Prop51ColorIndex
 90
      256
102
RTVSPost2010Prop51ColorRGB
 90
-16777216
102
RTVSPost2010PropOp51
 70
     0
102
RTVSPost2010Prop52
140
1.0
102
RTVSPost2010PropOp52
 70
     0
102
RTVSPost2010Prop53
 90
        2
102
RTVSPost2010PropOp53
 70
     1
102
RTVSPost2010Prop54
  1
strokes_ogs.tif
102
RTVSPost2010PropOp54
 70
     1
102
RTVSPost2010Prop55
280
     0
102
RTVSPost2010PropOp55
 70
     1
102
RTVSPost2010Prop56
140
1.0
102
RTVSPost2010PropOp56
 70
     1
102
RTVSPost2010Prop57
140
1.0
102
RTVSPost2010PropOp57
 70
     1
102
RTVSPropertyOp0
 70
     1
102
RTVSPropertyOp1
 70
     1
102
RTVSPropertyOp2
 70
     1
102
RTVSPropertyOp3
 70
     1
102
RTVSPropertyOp4
 70
     1
102
RTVSPropertyOp5
 70
     1
102
RTVSPropertyOp6
 70
     1
102
RTVSPropertyOp7
 70
     1
102
RTVSPropertyOp8
 70
     1
102
RTVSPropertyOp9
 70
     1
102
RTVSPropertyOp10
 70
     1
102
RTVSPropertyOp11
 70
     1
102
RTVSPropertyOp12
 70
     1
102
RTVSPropertyOp13
 70
     1
102
RTVSPropertyOp14
 70
     1
102
RTVSPropertyOp15
 70
     1
102
RTVSPropertyOp16
 70
     1
102
RTVSPropertyOp17
 70
     1
102
RTVSPropertyOp18
 70
     1
102
RTVSPropertyOp19
 70
     1
102
RTVSPropertyOp20
 70
     1
102
RTVSPropertyOp21
 70
     1
102
RTVSPropertyOp22
 70
     1
102
RTVSPropertyOp23
 70
     1
102
RTVSPropertyOp24
 70
     1
102
RTVSPropertyOp25
 70
     1
102
RTVSPropertyOp26
 70
     1
102
RTVSPropertyOp27
 70
     1
102
RTVSPropertyOp28
 70
     1
102
RTVSPropertyOp29
 70
     1
102
RTVSPropertyOp30
 70
     1
102
RTVSPropertyOp31
 70
     1
102
RTVSPropertyOp32
 70
     1
102
RTVSPropertyOp33
 70
     1
102
RTVSPropertyOp34
 70
     1
102
RTVSPropertyOp35
 70
     1
102
RTVSPropertyOp36
 70
     1
102
RTVSPropertyOp37
 70
     1
102
RTVSPropertyOp38
 70
     1
102
RTVSPropertyOp39
 70
     1
102
RTVSPropertyOp40
 70
     1
102
RTVSPropertyOp41
 70
     1
102
RTVSPropertyOp42
 70
     1
102
RTVSPropertyOp43
 70
     1
102
RTVSPropertyOp44
 70
     1
102
RTVSPropertyOp45
 70
     1
102
RTVSPropertyOp46
 70
     1
102
RTVSPropertyOp47
 70
     1
102
RTVSPropertyOp48
 70
     1
102
RTVSPropertyOp49
 70
     1
102
RTVSPropertyOp50
 70
     1
102
RTVSPropertyOp51
 70
     0
102
RTVSPropertyOp52
 70
     0
102
RTVSPropertyOp53
 70
     1
102
RTVSPropertyOp54
 70
     1
102
RTVSPropertyOp55
 70
     1
102
RTVSPropertyOp56
 70
     1
102
RTVSPropertyOp57
 70
     1
102
RTVSPropertyOp58
 70
     1
102
RTVSPropertyOp59
 70
     1
102
RTVSPropertyOp60
 70
     1
102
RTVSPropertyOp61
 70
     1
102
RTVSPropertyOp62
 70
     1
  0
XRECORD
  5
1703E
102
{ACAD_REACTORS
330
1703D
102
}
330
1703D
100
AcDbXrecord
280
     1
102
RTVSPost2010Prop28
280
     0
102
RTVSPost2010PropOp28
 70
     1
102
RTVSPost2010Prop29
280
     1
102
RTVSPost2010PropOp29
 70
     1
102
RTVSPost2010Prop30
280
     1
102
RTVSPost2010PropOp30
 70
     1
102
RTVSPost2010Prop31
280
     0
102
RTVSPost2010PropOp31
 70
     1
102
RTVSPost2010Prop32
280
     0
102
RTVSPost2010PropOp32
 70
     1
102
RTVSPost2010Prop33
280
     0
102
RTVSPost2010PropOp33
 70
     1
102
RTVSPost2010Prop34
280
     0
102
RTVSPost2010PropOp34
 70
     1
102
RTVSPost2010Prop35
280
     0
102
RTVSPost2010PropOp35
 70
     1
102
RTVSPost2010Prop36
280
     0
102
RTVSPost2010PropOp36
 70
     1
102
RTVSPost2010Prop37
 90
       50
102
RTVSPost2010PropOp37
 70
     1
102
RTVSPost2010Prop38
140
0.0
102
RTVSPost2010PropOp38
 70
     1
102
RTVSPost2010Prop39
140
1.0
102
RTVSPost2010PropOp39
 70
     1
102
RTVSPost2010Prop40
 90
        0
102
RTVSPost2010PropOp40
 70
     1
102
RTVSPost2010Prop41ColorIndex
 90
       18
102
RTVSPost2010Prop41ColorRGB
 90
        0
102
RTVSPost2010PropOp41
 70
     1
102
RTVSPost2010Prop42
 90
       50
102
RTVSPost2010PropOp42
 70
     1
102
RTVSPost2010Prop43
 90
        3
102
RTVSPost2010PropOp43
 70
     1
102
RTVSPost2010Prop44ColorIndex
 90
        5
102
RTVSPost2010Prop44ColorRGB
 90
      255
102
RTVSPost2010PropOp44
 70
     1
102
RTVSPost2010Prop45
280
     0
102
RTVSPost2010PropOp45
 70
     1
102
RTVSPost2010Prop46
 90
       50
102
RTVSPost2010PropOp46
 70
     1
102
RTVSPost2010Prop47
 90
       50
102
RTVSPost2010PropOp47
 70
     1
102
RTVSPost2010Prop48
 90
       50
102
RTVSPost2010PropOp48
 70
     1
102
RTVSPost2010Prop49
280
     0
102
RTVSPost2010PropOp49
 70
     1
102
RTVSPost2010Prop50
 90
       50
102
RTVSPost2010PropOp50
 70
     1
102
RTVSPost2010Prop51ColorIndex
 90
      256
102
RTVSPost2010Prop51ColorRGB
 90
-16777216
102
RTVSPost2010PropOp51
 70
     0
102
RTVSPost2010Prop52
140
1.0
102
RTVSPost2010PropOp52
 70
     0
102
RTVSPost2010Prop53
 90
        2
102
RTVSPost2010PropOp53
 70
     1
102
RTVSPost2010Prop54
  1
strokes_ogs.tif
102
RTVSPost2010PropOp54
 70
     1
102
RTVSPost2010Prop55
280
     0
102
RTVSPost2010PropOp55
 70
     1
102
RTVSPost2010Prop56
140
1.0
102
RTVSPost2010PropOp56
 70
     1
102
RTVSPost2010Prop57
140
1.0
102
RTVSPost2010PropOp57
 70
     1
102
RTVSPropertyOp0
 70
     1
102
RTVSPropertyOp1
 70
     1
102
RTVSPropertyOp2
 70
     1
102
RTVSPropertyOp3
 70
     1
102
RTVSPropertyOp4
 70
     1
102
RTVSPropertyOp5
 70
     1
102
RTVSPropertyOp6
 70
     1
102
RTVSPropertyOp7
 70
     1
102
RTVSPropertyOp8
 70
     1
102
RTVSPropertyOp9
 70
     1
102
RTVSPropertyOp10
 70
     1
102
RTVSPropertyOp11
 70
     1
102
RTVSPropertyOp12
 70
     1
102
RTVSPropertyOp13
 70
     1
102
RTVSPropertyOp14
 70
     1
102
RTVSPropertyOp15
 70
     1
102
RTVSPropertyOp16
 70
     1
102
RTVSPropertyOp17
 70
     1
102
RTVSPropertyOp18
 70
     1
102
RTVSPropertyOp19
 70
     1
102
RTVSPropertyOp20
 70
     1
102
RTVSPropertyOp21
 70
     1
102
RTVSPropertyOp22
 70
     1
102
RTVSPropertyOp23
 70
     1
102
RTVSPropertyOp24
 70
     1
102
RTVSPropertyOp25
 70
     1
102
RTVSPropertyOp26
 70
     1
102
RTVSPropertyOp27
 70
     1
102
RTVSPropertyOp28
 70
     1
102
RTVSPropertyOp29
 70
     1
102
RTVSPropertyOp30
 70
     1
102
RTVSPropertyOp31
 70
     1
102
RTVSPropertyOp32
 70
     1
102
RTVSPropertyOp33
 70
     1
102
RTVSPropertyOp34
 70
     1
102
RTVSPropertyOp35
 70
     1
102
RTVSPropertyOp36
 70
     1
102
RTVSPropertyOp37
 70
     1
102
RTVSPropertyOp38
 70
     1
102
RTVSPropertyOp39
 70
     1
102
RTVSPropertyOp40
 70
     1
102
RTVSPropertyOp41
 70
     1
102
RTVSPropertyOp42
 70
     1
102
RTVSPropertyOp43
 70
     1
102
RTVSPropertyOp44
 70
     1
102
RTVSPropertyOp45
 70
     1
102
RTVSPropertyOp46
 70
     1
102
RTVSPropertyOp47
 70
     1
102
RTVSPropertyOp48
 70
     1
102
RTVSPropertyOp49
 70
     1
102
RTVSPropertyOp50
 70
     1
102
RTVSPropertyOp51
 70
     0
102
RTVSPropertyOp52
 70
     0
102
RTVSPropertyOp53
 70
     1
102
RTVSPropertyOp54
 70
     1
102
RTVSPropertyOp55
 70
     1
102
RTVSPropertyOp56
 70
     1
102
RTVSPropertyOp57
 70
     1
102
RTVSPropertyOp58
 70
     1
102
RTVSPropertyOp59
 70
     1
102
RTVSPropertyOp60
 70
     1
102
RTVSPropertyOp61
 70
     1
102
RTVSPropertyOp62
 70
     1
  0
XRECORD
  5
17030
102
{ACAD_REACTORS
330
1702F
102
}
330
1702F
100
AcDbXrecord
280
     1
102
RTVSPost2010Prop28
280
     0
102
RTVSPost2010PropOp28
 70
     1
102
RTVSPost2010Prop29
280
     1
102
RTVSPost2010PropOp29
 70
     1
102
RTVSPost2010Prop30
280
     1
102
RTVSPost2010PropOp30
 70
     1
102
RTVSPost2010Prop31
280
     0
102
RTVSPost2010PropOp31
 70
     1
102
RTVSPost2010Prop32
280
     0
102
RTVSPost2010PropOp32
 70
     1
102
RTVSPost2010Prop33
280
     0
102
RTVSPost2010PropOp33
 70
     1
102
RTVSPost2010Prop34
280
     0
102
RTVSPost2010PropOp34
 70
     1
102
RTVSPost2010Prop35
280
     0
102
RTVSPost2010PropOp35
 70
     1
102
RTVSPost2010Prop36
280
     0
102
RTVSPost2010PropOp36
 70
     1
102
RTVSPost2010Prop37
 90
       50
102
RTVSPost2010PropOp37
 70
     1
102
RTVSPost2010Prop38
140
0.0
102
RTVSPost2010PropOp38
 70
     1
102
RTVSPost2010Prop39
140
1.0
102
RTVSPost2010PropOp39
 70
     1
102
RTVSPost2010Prop40
 90
        0
102
RTVSPost2010PropOp40
 70
     1
102
RTVSPost2010Prop41ColorIndex
 90
       18
102
RTVSPost2010Prop41ColorRGB
 90
        0
102
RTVSPost2010PropOp41
 70
     1
102
RTVSPost2010Prop42
 90
       50
102
RTVSPost2010PropOp42
 70
     1
102
RTVSPost2010Prop43
 90
        3
102
RTVSPost2010PropOp43
 70
     1
102
RTVSPost2010Prop44ColorIndex
 90
        5
102
RTVSPost2010Prop44ColorRGB
 90
      255
102
RTVSPost2010PropOp44
 70
     1
102
RTVSPost2010Prop45
280
     0
102
RTVSPost2010PropOp45
 70
     1
102
RTVSPost2010Prop46
 90
       50
102
RTVSPost2010PropOp46
 70
     1
102
RTVSPost2010Prop47
 90
       50
102
RTVSPost2010PropOp47
 70
     1
102
RTVSPost2010Prop48
 90
       50
102
RTVSPost2010PropOp48
 70
     1
102
RTVSPost2010Prop49
280
     0
102
RTVSPost2010PropOp49
 70
     1
102
RTVSPost2010Prop50
 90
       50
102
RTVSPost2010PropOp50
 70
     1
102
RTVSPost2010Prop51ColorIndex
 90
      256
102
RTVSPost2010Prop51ColorRGB
 90
-16777216
102
RTVSPost2010PropOp51
 70
     0
102
RTVSPost2010Prop52
140
1.0
102
RTVSPost2010PropOp52
 70
     0
102
RTVSPost2010Prop53
 90
        2
102
RTVSPost2010PropOp53
 70
     1
102
RTVSPost2010Prop54
  1
strokes_ogs.tif
102
RTVSPost2010PropOp54
 70
     1
102
RTVSPost2010Prop55
280
     0
102
RTVSPost2010PropOp55
 70
     1
102
RTVSPost2010Prop56
140
1.0
102
RTVSPost2010PropOp56
 70
     1
102
RTVSPost2010Prop57
140
1.0
102
RTVSPost2010PropOp57
 70
     1
102
RTVSPropertyOp0
 70
     1
102
RTVSPropertyOp1
 70
     1
102
RTVSPropertyOp2
 70
     1
102
RTVSPropertyOp3
 70
     1
102
RTVSPropertyOp4
 70
     1
102
RTVSPropertyOp5
 70
     1
102
RTVSPropertyOp6
 70
     1
102
RTVSPropertyOp7
 70
     1
102
RTVSPropertyOp8
 70
     1
102
RTVSPropertyOp9
 70
     1
102
RTVSPropertyOp10
 70
     1
102
RTVSPropertyOp11
 70
     1
102
RTVSPropertyOp12
 70
     1
102
RTVSPropertyOp13
 70
     1
102
RTVSPropertyOp14
 70
     1
102
RTVSPropertyOp15
 70
     1
102
RTVSPropertyOp16
 70
     1
102
RTVSPropertyOp17
 70
     1
102
RTVSPropertyOp18
 70
     1
102
RTVSPropertyOp19
 70
     1
102
RTVSPropertyOp20
 70
     1
102
RTVSPropertyOp21
 70
     1
102
RTVSPropertyOp22
 70
     1
102
RTVSPropertyOp23
 70
     1
102
RTVSPropertyOp24
 70
     1
102
RTVSPropertyOp25
 70
     1
102
RTVSPropertyOp26
 70
     1
102
RTVSPropertyOp27
 70
     1
102
RTVSPropertyOp28
 70
     1
102
RTVSPropertyOp29
 70
     1
102
RTVSPropertyOp30
 70
     1
102
RTVSPropertyOp31
 70
     1
102
RTVSPropertyOp32
 70
     1
102
RTVSPropertyOp33
 70
     1
102
RTVSPropertyOp34
 70
     1
102
RTVSPropertyOp35
 70
     1
102
RTVSPropertyOp36
 70
     1
102
RTVSPropertyOp37
 70
     1
102
RTVSPropertyOp38
 70
     1
102
RTVSPropertyOp39
 70
     1
102
RTVSPropertyOp40
 70
     1
102
RTVSPropertyOp41
 70
     1
102
RTVSPropertyOp42
 70
     1
102
RTVSPropertyOp43
 70
     1
102
RTVSPropertyOp44
 70
     1
102
RTVSPropertyOp45
 70
     1
102
RTVSPropertyOp46
 70
     1
102
RTVSPropertyOp47
 70
     1
102
RTVSPropertyOp48
 70
     1
102
RTVSPropertyOp49
 70
     1
102
RTVSPropertyOp50
 70
     1
102
RTVSPropertyOp51
 70
     0
102
RTVSPropertyOp52
 70
     0
102
RTVSPropertyOp53
 70
     1
102
RTVSPropertyOp54
 70
     1
102
RTVSPropertyOp55
 70
     1
102
RTVSPropertyOp56
 70
     1
102
RTVSPropertyOp57
 70
     1
102
RTVSPropertyOp58
 70
     1
102
RTVSPropertyOp59
 70
     1
102
RTVSPropertyOp60
 70
     1
102
RTVSPropertyOp61
 70
     1
102
RTVSPropertyOp62
 70
     1
  0
XRECORD
  5
17034
102
{ACAD_REACTORS
330
17033
102
}
330
17033
100
AcDbXrecord
280
     1
102
RTVSPost2010Prop28
280
     0
102
RTVSPost2010PropOp28
 70
     1
102
RTVSPost2010Prop29
280
     1
102
RTVSPost2010PropOp29
 70
     1
102
RTVSPost2010Prop30
280
     1
102
RTVSPost2010PropOp30
 70
     1
102
RTVSPost2010Prop31
280
     0
102
RTVSPost2010PropOp31
 70
     1
102
RTVSPost2010Prop32
280
     0
102
RTVSPost2010PropOp32
 70
     1
102
RTVSPost2010Prop33
280
     0
102
RTVSPost2010PropOp33
 70
     1
102
RTVSPost2010Prop34
280
     0
102
RTVSPost2010PropOp34
 70
     1
102
RTVSPost2010Prop35
280
     0
102
RTVSPost2010PropOp35
 70
     1
102
RTVSPost2010Prop36
280
     0
102
RTVSPost2010PropOp36
 70
     1
102
RTVSPost2010Prop37
 90
       50
102
RTVSPost2010PropOp37
 70
     1
102
RTVSPost2010Prop38
140
0.0
102
RTVSPost2010PropOp38
 70
     1
102
RTVSPost2010Prop39
140
1.0
102
RTVSPost2010PropOp39
 70
     1
102
RTVSPost2010Prop40
 90
        0
102
RTVSPost2010PropOp40
 70
     1
102
RTVSPost2010Prop41ColorIndex
 90
       18
102
RTVSPost2010Prop41ColorRGB
 90
        0
102
RTVSPost2010PropOp41
 70
     1
102
RTVSPost2010Prop42
 90
       50
102
RTVSPost2010PropOp42
 70
     1
102
RTVSPost2010Prop43
 90
        3
102
RTVSPost2010PropOp43
 70
     1
102
RTVSPost2010Prop44ColorIndex
 90
        5
102
RTVSPost2010Prop44ColorRGB
 90
      255
102
RTVSPost2010PropOp44
 70
     1
102
RTVSPost2010Prop45
280
     0
102
RTVSPost2010PropOp45
 70
     1
102
RTVSPost2010Prop46
 90
       50
102
RTVSPost2010PropOp46
 70
     1
102
RTVSPost2010Prop47
 90
       50
102
RTVSPost2010PropOp47
 70
     1
102
RTVSPost2010Prop48
 90
       50
102
RTVSPost2010PropOp48
 70
     1
102
RTVSPost2010Prop49
280
     0
102
RTVSPost2010PropOp49
 70
     1
102
RTVSPost2010Prop50
 90
       50
102
RTVSPost2010PropOp50
 70
     1
102
RTVSPost2010Prop51ColorIndex
 90
      256
102
RTVSPost2010Prop51ColorRGB
 90
-16777216
102
RTVSPost2010PropOp51
 70
     0
102
RTVSPost2010Prop52
140
1.0
102
RTVSPost2010PropOp52
 70
     0
102
RTVSPost2010Prop53
 90
        2
102
RTVSPost2010PropOp53
 70
     1
102
RTVSPost2010Prop54
  1
strokes_ogs.tif
102
RTVSPost2010PropOp54
 70
     1
102
RTVSPost2010Prop55
280
     0
102
RTVSPost2010PropOp55
 70
     1
102
RTVSPost2010Prop56
140
1.0
102
RTVSPost2010PropOp56
 70
     1
102
RTVSPost2010Prop57
140
1.0
102
RTVSPost2010PropOp57
 70
     1
102
RTVSPropertyOp0
 70
     1
102
RTVSPropertyOp1
 70
     1
102
RTVSPropertyOp2
 70
     1
102
RTVSPropertyOp3
 70
     1
102
RTVSPropertyOp4
 70
     1
102
RTVSPropertyOp5
 70
     1
102
RTVSPropertyOp6
 70
     1
102
RTVSPropertyOp7
 70
     1
102
RTVSPropertyOp8
 70
     1
102
RTVSPropertyOp9
 70
     1
102
RTVSPropertyOp10
 70
     1
102
RTVSPropertyOp11
 70
     1
102
RTVSPropertyOp12
 70
     1
102
RTVSPropertyOp13
 70
     1
102
RTVSPropertyOp14
 70
     1
102
RTVSPropertyOp15
 70
     1
102
RTVSPropertyOp16
 70
     1
102
RTVSPropertyOp17
 70
     1
102
RTVSPropertyOp18
 70
     1
102
RTVSPropertyOp19
 70
     1
102
RTVSPropertyOp20
 70
     1
102
RTVSPropertyOp21
 70
     1
102
RTVSPropertyOp22
 70
     1
102
RTVSPropertyOp23
 70
     1
102
RTVSPropertyOp24
 70
     1
102
RTVSPropertyOp25
 70
     1
102
RTVSPropertyOp26
 70
     1
102
RTVSPropertyOp27
 70
     1
102
RTVSPropertyOp28
 70
     1
102
RTVSPropertyOp29
 70
     1
102
RTVSPropertyOp30
 70
     1
102
RTVSPropertyOp31
 70
     1
102
RTVSPropertyOp32
 70
     1
102
RTVSPropertyOp33
 70
     1
102
RTVSPropertyOp34
 70
     1
102
RTVSPropertyOp35
 70
     1
102
RTVSPropertyOp36
 70
     1
102
RTVSPropertyOp37
 70
     1
102
RTVSPropertyOp38
 70
     1
102
RTVSPropertyOp39
 70
     1
102
RTVSPropertyOp40
 70
     1
102
RTVSPropertyOp41
 70
     1
102
RTVSPropertyOp42
 70
     1
102
RTVSPropertyOp43
 70
     1
102
RTVSPropertyOp44
 70
     1
102
RTVSPropertyOp45
 70
     1
102
RTVSPropertyOp46
 70
     1
102
RTVSPropertyOp47
 70
     1
102
RTVSPropertyOp48
 70
     1
102
RTVSPropertyOp49
 70
     1
102
RTVSPropertyOp50
 70
     1
102
RTVSPropertyOp51
 70
     0
102
RTVSPropertyOp52
 70
     0
102
RTVSPropertyOp53
 70
     1
102
RTVSPropertyOp54
 70
     1
102
RTVSPropertyOp55
 70
     1
102
RTVSPropertyOp56
 70
     1
102
RTVSPropertyOp57
 70
     1
102
RTVSPropertyOp58
 70
     1
102
RTVSPropertyOp59
 70
     1
102
RTVSPropertyOp60
 70
     1
102
RTVSPropertyOp61
 70
     1
102
RTVSPropertyOp62
 70
     1
  0
XRECORD
  5
1704E
102
{ACAD_REACTORS
330
1704D
102
}
330
1704D
100
AcDbXrecord
280
     1
102
RTVSPost2010Prop28
280
     0
102
RTVSPost2010PropOp28
 70
     1
102
RTVSPost2010Prop29
280
     1
102
RTVSPost2010PropOp29
 70
     1
102
RTVSPost2010Prop30
280
     1
102
RTVSPost2010PropOp30
 70
     1
102
RTVSPost2010Prop31
280
     0
102
RTVSPost2010PropOp31
 70
     1
102
RTVSPost2010Prop32
280
     0
102
RTVSPost2010PropOp32
 70
     1
102
RTVSPost2010Prop33
280
     0
102
RTVSPost2010PropOp33
 70
     1
102
RTVSPost2010Prop34
280
     0
102
RTVSPost2010PropOp34
 70
     1
102
RTVSPost2010Prop35
280
     0
102
RTVSPost2010PropOp35
 70
     1
102
RTVSPost2010Prop36
280
     0
102
RTVSPost2010PropOp36
 70
     1
102
RTVSPost2010Prop37
 90
       50
102
RTVSPost2010PropOp37
 70
     0
102
RTVSPost2010Prop38
140
0.0
102
RTVSPost2010PropOp38
 70
     0
102
RTVSPost2010Prop39
140
1.0
102
RTVSPost2010PropOp39
 70
     0
102
RTVSPost2010Prop40
 90
        0
102
RTVSPost2010PropOp40
 70
     0
102
RTVSPost2010Prop41ColorIndex
 90
       18
102
RTVSPost2010Prop41ColorRGB
 90
        0
102
RTVSPost2010PropOp41
 70
     0
102
RTVSPost2010Prop42
 90
       50
102
RTVSPost2010PropOp42
 70
     0
102
RTVSPost2010Prop43
 90
        3
102
RTVSPost2010PropOp43
 70
     0
102
RTVSPost2010Prop44ColorIndex
 90
        5
102
RTVSPost2010Prop44ColorRGB
 90
      255
102
RTVSPost2010PropOp44
 70
     0
102
RTVSPost2010Prop45
280
     0
102
RTVSPost2010PropOp45
 70
     1
102
RTVSPost2010Prop46
 90
       50
102
RTVSPost2010PropOp46
 70
     0
102
RTVSPost2010Prop47
 90
       50
102
RTVSPost2010PropOp47
 70
     0
102
RTVSPost2010Prop48
 90
       50
102
RTVSPost2010PropOp48
 70
     0
102
RTVSPost2010Prop49
280
     0
102
RTVSPost2010PropOp49
 70
     1
102
RTVSPost2010Prop50
 90
       50
102
RTVSPost2010PropOp50
 70
     0
102
RTVSPost2010Prop51ColorIndex
 90
      256
102
RTVSPost2010Prop51ColorRGB
 90
-16777216
102
RTVSPost2010PropOp51
 70
     0
102
RTVSPost2010Prop52
140
1.0
102
RTVSPost2010PropOp52
 70
     0
102
RTVSPost2010Prop53
 90
        2
102
RTVSPost2010PropOp53
 70
     0
102
RTVSPost2010Prop54
  1
strokes_ogs.tif
102
RTVSPost2010PropOp54
 70
     0
102
RTVSPost2010Prop55
280
     0
102
RTVSPost2010PropOp55
 70
     1
102
RTVSPost2010Prop56
140
1.0
102
RTVSPost2010PropOp56
 70
     0
102
RTVSPost2010Prop57
140
1.0
102
RTVSPost2010PropOp57
 70
     0
102
RTVSPropertyOp0
 70
     0
102
RTVSPropertyOp1
 70
     0
102
RTVSPropertyOp2
 70
     0
102
RTVSPropertyOp3
 70
     0
102
RTVSPropertyOp4
 70
     0
102
RTVSPropertyOp5
 70
     0
102
RTVSPropertyOp6
 70
     0
102
RTVSPropertyOp7
 70
     0
102
RTVSPropertyOp8
 70
     0
102
RTVSPropertyOp9
 70
     0
102
RTVSPropertyOp10
 70
     0
102
RTVSPropertyOp11
 70
     0
102
RTVSPropertyOp12
 70
     0
102
RTVSPropertyOp13
 70
     0
102
RTVSPropertyOp14
 70
     2
102
RTVSPropertyOp15
 70
     0
102
RTVSPropertyOp16
 70
     0
102
RTVSPropertyOp17
 70
     0
102
RTVSPropertyOp18
 70
     0
102
RTVSPropertyOp19
 70
     0
102
RTVSPropertyOp20
 70
     0
102
RTVSPropertyOp21
 70
     0
102
RTVSPropertyOp22
 70
     0
102
RTVSPropertyOp23
 70
     0
102
RTVSPropertyOp24
 70
     0
102
RTVSPropertyOp25
 70
     0
102
RTVSPropertyOp26
 70
     0
102
RTVSPropertyOp27
 70
     0
102
RTVSPropertyOp28
 70
     1
102
RTVSPropertyOp29
 70
     1
102
RTVSPropertyOp30
 70
     1
102
RTVSPropertyOp31
 70
     1
102
RTVSPropertyOp32
 70
     1
102
RTVSPropertyOp33
 70
     1
102
RTVSPropertyOp34
 70
     1
102
RTVSPropertyOp35
 70
     1
102
RTVSPropertyOp36
 70
     1
102
RTVSPropertyOp37
 70
     0
102
RTVSPropertyOp38
 70
     0
102
RTVSPropertyOp39
 70
     0
102
RTVSPropertyOp40
 70
     0
102
RTVSPropertyOp41
 70
     0
102
RTVSPropertyOp42
 70
     0
102
RTVSPropertyOp43
 70
     0
102
RTVSPropertyOp44
 70
     0
102
RTVSPropertyOp45
 70
     1
102
RTVSPropertyOp46
 70
     0
102
RTVSPropertyOp47
 70
     0
102
RTVSPropertyOp48
 70
     0
102
RTVSPropertyOp49
 70
     1
102
RTVSPropertyOp50
 70
     0
102
RTVSPropertyOp51
 70
     0
102
RTVSPropertyOp52
 70
     0
102
RTVSPropertyOp53
 70
     0
102
RTVSPropertyOp54
 70
     0
102
RTVSPropertyOp55
 70
     1
102
RTVSPropertyOp56
 70
     0
102
RTVSPropertyOp57
 70
     0
102
RTVSPropertyOp58
 70
     0
102
RTVSPropertyOp59
 70
     0
102
RTVSPropertyOp60
 70
     0
102
RTVSPropertyOp61
 70
     0
102
RTVSPropertyOp62
 70
     0
  0
XRECORD
  5
1703C
102
{ACAD_REACTORS
330
1703B
102
}
330
1703B
100
AcDbXrecord
280
     1
102
RTVSPost2010Prop28
280
     0
102
RTVSPost2010PropOp28
 70
     1
102
RTVSPost2010Prop29
280
     1
102
RTVSPost2010PropOp29
 70
     1
102
RTVSPost2010Prop30
280
     1
102
RTVSPost2010PropOp30
 70
     1
102
RTVSPost2010Prop31
280
     0
102
RTVSPost2010PropOp31
 70
     1
102
RTVSPost2010Prop32
280
     0
102
RTVSPost2010PropOp32
 70
     1
102
RTVSPost2010Prop33
280
     0
102
RTVSPost2010PropOp33
 70
     1
102
RTVSPost2010Prop34
280
     0
102
RTVSPost2010PropOp34
 70
     1
102
RTVSPost2010Prop35
280
     0
102
RTVSPost2010PropOp35
 70
     1
102
RTVSPost2010Prop36
280
     0
102
RTVSPost2010PropOp36
 70
     1
102
RTVSPost2010Prop37
 90
       50
102
RTVSPost2010PropOp37
 70
     1
102
RTVSPost2010Prop38
140
0.0
102
RTVSPost2010PropOp38
 70
     1
102
RTVSPost2010Prop39
140
1.0
102
RTVSPost2010PropOp39
 70
     1
102
RTVSPost2010Prop40
 90
        0
102
RTVSPost2010PropOp40
 70
     1
102
RTVSPost2010Prop41ColorIndex
 90
       18
102
RTVSPost2010Prop41ColorRGB
 90
        0
102
RTVSPost2010PropOp41
 70
     1
102
RTVSPost2010Prop42
 90
       50
102
RTVSPost2010PropOp42
 70
     1
102
RTVSPost2010Prop43
 90
        3
102
RTVSPost2010PropOp43
 70
     1
102
RTVSPost2010Prop44ColorIndex
 90
        5
102
RTVSPost2010Prop44ColorRGB
 90
      255
102
RTVSPost2010PropOp44
 70
     1
102
RTVSPost2010Prop45
280
     0
102
RTVSPost2010PropOp45
 70
     1
102
RTVSPost2010Prop46
 90
       50
102
RTVSPost2010PropOp46
 70
     1
102
RTVSPost2010Prop47
 90
       50
102
RTVSPost2010PropOp47
 70
     1
102
RTVSPost2010Prop48
 90
       50
102
RTVSPost2010PropOp48
 70
     1
102
RTVSPost2010Prop49
280
     0
102
RTVSPost2010PropOp49
 70
     1
102
RTVSPost2010Prop50
 90
       50
102
RTVSPost2010PropOp50
 70
     1
102
RTVSPost2010Prop51ColorIndex
 90
      256
102
RTVSPost2010Prop51ColorRGB
 90
-16777216
102
RTVSPost2010PropOp51
 70
     0
102
RTVSPost2010Prop52
140
1.0
102
RTVSPost2010PropOp52
 70
     0
102
RTVSPost2010Prop53
 90
        2
102
RTVSPost2010PropOp53
 70
     1
102
RTVSPost2010Prop54
  1
strokes_ogs.tif
102
RTVSPost2010PropOp54
 70
     1
102
RTVSPost2010Prop55
280
     0
102
RTVSPost2010PropOp55
 70
     1
102
RTVSPost2010Prop56
140
1.0
102
RTVSPost2010PropOp56
 70
     1
102
RTVSPost2010Prop57
140
1.0
102
RTVSPost2010PropOp57
 70
     1
102
RTVSPropertyOp0
 70
     1
102
RTVSPropertyOp1
 70
     1
102
RTVSPropertyOp2
 70
     1
102
RTVSPropertyOp3
 70
     1
102
RTVSPropertyOp4
 70
     1
102
RTVSPropertyOp5
 70
     1
102
RTVSPropertyOp6
 70
     1
102
RTVSPropertyOp7
 70
     1
102
RTVSPropertyOp8
 70
     1
102
RTVSPropertyOp9
 70
     1
102
RTVSPropertyOp10
 70
     1
102
RTVSPropertyOp11
 70
     1
102
RTVSPropertyOp12
 70
     1
102
RTVSPropertyOp13
 70
     1
102
RTVSPropertyOp14
 70
     1
102
RTVSPropertyOp15
 70
     1
102
RTVSPropertyOp16
 70
     1
102
RTVSPropertyOp17
 70
     1
102
RTVSPropertyOp18
 70
     1
102
RTVSPropertyOp19
 70
     1
102
RTVSPropertyOp20
 70
     1
102
RTVSPropertyOp21
 70
     1
102
RTVSPropertyOp22
 70
     1
102
RTVSPropertyOp23
 70
     1
102
RTVSPropertyOp24
 70
     1
102
RTVSPropertyOp25
 70
     1
102
RTVSPropertyOp26
 70
     1
102
RTVSPropertyOp27
 70
     1
102
RTVSPropertyOp28
 70
     1
102
RTVSPropertyOp29
 70
     1
102
RTVSPropertyOp30
 70
     1
102
RTVSPropertyOp31
 70
     1
102
RTVSPropertyOp32
 70
     1
102
RTVSPropertyOp33
 70
     1
102
RTVSPropertyOp34
 70
     1
102
RTVSPropertyOp35
 70
     1
102
RTVSPropertyOp36
 70
     1
102
RTVSPropertyOp37
 70
     1
102
RTVSPropertyOp38
 70
     1
102
RTVSPropertyOp39
 70
     1
102
RTVSPropertyOp40
 70
     1
102
RTVSPropertyOp41
 70
     1
102
RTVSPropertyOp42
 70
     1
102
RTVSPropertyOp43
 70
     1
102
RTVSPropertyOp44
 70
     1
102
RTVSPropertyOp45
 70
     1
102
RTVSPropertyOp46
 70
     1
102
RTVSPropertyOp47
 70
     1
102
RTVSPropertyOp48
 70
     1
102
RTVSPropertyOp49
 70
     1
102
RTVSPropertyOp50
 70
     1
102
RTVSPropertyOp51
 70
     0
102
RTVSPropertyOp52
 70
     0
102
RTVSPropertyOp53
 70
     1
102
RTVSPropertyOp54
 70
     1
102
RTVSPropertyOp55
 70
     1
102
RTVSPropertyOp56
 70
     1
102
RTVSPropertyOp57
 70
     1
102
RTVSPropertyOp58
 70
     1
102
RTVSPropertyOp59
 70
     1
102
RTVSPropertyOp60
 70
     1
102
RTVSPropertyOp61
 70
     1
102
RTVSPropertyOp62
 70
     1
  0
XRECORD
  5
17020
102
{ACAD_REACTORS
330
1701F
102
}
330
1701F
100
AcDbXrecord
280
     1
102
RTVSPost2010Prop28
280
     0
102
RTVSPost2010PropOp28
 70
     1
102
RTVSPost2010Prop29
280
     1
102
RTVSPost2010PropOp29
 70
     1
102
RTVSPost2010Prop30
280
     1
102
RTVSPost2010PropOp30
 70
     1
102
RTVSPost2010Prop31
280
     0
102
RTVSPost2010PropOp31
 70
     1
102
RTVSPost2010Prop32
280
     0
102
RTVSPost2010PropOp32
 70
     1
102
RTVSPost2010Prop33
280
     0
102
RTVSPost2010PropOp33
 70
     1
102
RTVSPost2010Prop34
280
     0
102
RTVSPost2010PropOp34
 70
     1
102
RTVSPost2010Prop35
280
     0
102
RTVSPost2010PropOp35
 70
     1
102
RTVSPost2010Prop36
280
     0
102
RTVSPost2010PropOp36
 70
     1
102
RTVSPost2010Prop37
 90
       50
102
RTVSPost2010PropOp37
 70
     1
102
RTVSPost2010Prop38
140
0.0
102
RTVSPost2010PropOp38
 70
     1
102
RTVSPost2010Prop39
140
1.0
102
RTVSPost2010PropOp39
 70
     1
102
RTVSPost2010Prop40
 90
        0
102
RTVSPost2010PropOp40
 70
     1
102
RTVSPost2010Prop41ColorIndex
 90
       18
102
RTVSPost2010Prop41ColorRGB
 90
        0
102
RTVSPost2010PropOp41
 70
     1
102
RTVSPost2010Prop42
 90
       50
102
RTVSPost2010PropOp42
 70
     1
102
RTVSPost2010Prop43
 90
        3
102
RTVSPost2010PropOp43
 70
     1
102
RTVSPost2010Prop44ColorIndex
 90
        5
102
RTVSPost2010Prop44ColorRGB
 90
      255
102
RTVSPost2010PropOp44
 70
     1
102
RTVSPost2010Prop45
280
     0
102
RTVSPost2010PropOp45
 70
     1
102
RTVSPost2010Prop46
 90
       50
102
RTVSPost2010PropOp46
 70
     1
102
RTVSPost2010Prop47
 90
       50
102
RTVSPost2010PropOp47
 70
     1
102
RTVSPost2010Prop48
 90
       50
102
RTVSPost2010PropOp48
 70
     1
102
RTVSPost2010Prop49
280
     0
102
RTVSPost2010PropOp49
 70
     1
102
RTVSPost2010Prop50
 90
       50
102
RTVSPost2010PropOp50
 70
     1
102
RTVSPost2010Prop51ColorIndex
 90
      256
102
RTVSPost2010Prop51ColorRGB
 90
-16777216
102
RTVSPost2010PropOp51
 70
     0
102
RTVSPost2010Prop52
140
1.0
102
RTVSPost2010PropOp52
 70
     0
102
RTVSPost2010Prop53
 90
        2
102
RTVSPost2010PropOp53
 70
     1
102
RTVSPost2010Prop54
  1
strokes_ogs.tif
102
RTVSPost2010PropOp54
 70
     1
102
RTVSPost2010Prop55
280
     0
102
RTVSPost2010PropOp55
 70
     1
102
RTVSPost2010Prop56
140
1.0
102
RTVSPost2010PropOp56
 70
     1
102
RTVSPost2010Prop57
140
1.0
102
RTVSPost2010PropOp57
 70
     1
102
RTVSPropertyOp0
 70
     1
102
RTVSPropertyOp1
 70
     1
102
RTVSPropertyOp2
 70
     1
102
RTVSPropertyOp3
 70
     1
102
RTVSPropertyOp4
 70
     1
102
RTVSPropertyOp5
 70
     1
102
RTVSPropertyOp6
 70
     1
102
RTVSPropertyOp7
 70
     1
102
RTVSPropertyOp8
 70
     1
102
RTVSPropertyOp9
 70
     1
102
RTVSPropertyOp10
 70
     1
102
RTVSPropertyOp11
 70
     1
102
RTVSPropertyOp12
 70
     1
102
RTVSPropertyOp13
 70
     1
102
RTVSPropertyOp14
 70
     1
102
RTVSPropertyOp15
 70
     1
102
RTVSPropertyOp16
 70
     1
102
RTVSPropertyOp17
 70
     1
102
RTVSPropertyOp18
 70
     1
102
RTVSPropertyOp19
 70
     1
102
RTVSPropertyOp20
 70
     1
102
RTVSPropertyOp21
 70
     1
102
RTVSPropertyOp22
 70
     1
102
RTVSPropertyOp23
 70
     1
102
RTVSPropertyOp24
 70
     1
102
RTVSPropertyOp25
 70
     1
102
RTVSPropertyOp26
 70
     1
102
RTVSPropertyOp27
 70
     1
102
RTVSPropertyOp28
 70
     1
102
RTVSPropertyOp29
 70
     1
102
RTVSPropertyOp30
 70
     1
102
RTVSPropertyOp31
 70
     1
102
RTVSPropertyOp32
 70
     1
102
RTVSPropertyOp33
 70
     1
102
RTVSPropertyOp34
 70
     1
102
RTVSPropertyOp35
 70
     1
102
RTVSPropertyOp36
 70
     1
102
RTVSPropertyOp37
 70
     1
102
RTVSPropertyOp38
 70
     1
102
RTVSPropertyOp39
 70
     1
102
RTVSPropertyOp40
 70
     1
102
RTVSPropertyOp41
 70
     1
102
RTVSPropertyOp42
 70
     1
102
RTVSPropertyOp43
 70
     1
102
RTVSPropertyOp44
 70
     1
102
RTVSPropertyOp45
 70
     1
102
RTVSPropertyOp46
 70
     1
102
RTVSPropertyOp47
 70
     1
102
RTVSPropertyOp48
 70
     1
102
RTVSPropertyOp49
 70
     1
102
RTVSPropertyOp50
 70
     1
102
RTVSPropertyOp51
 70
     0
102
RTVSPropertyOp52
 70
     0
102
RTVSPropertyOp53
 70
     1
102
RTVSPropertyOp54
 70
     1
102
RTVSPropertyOp55
 70
     1
102
RTVSPropertyOp56
 70
     1
102
RTVSPropertyOp57
 70
     1
102
RTVSPropertyOp58
 70
     1
102
RTVSPropertyOp59
 70
     1
102
RTVSPropertyOp60
 70
     1
102
RTVSPropertyOp61
 70
     1
102
RTVSPropertyOp62
 70
     1
  0
XRECORD
  5
17022
102
{ACAD_REACTORS
330
17021
102
}
330
17021
100
AcDbXrecord
280
     1
102
RTVSPost2010Prop28
280
     0
102
RTVSPost2010PropOp28
 70
     1
102
RTVSPost2010Prop29
280
     1
102
RTVSPost2010PropOp29
 70
     1
102
RTVSPost2010Prop30
280
     1
102
RTVSPost2010PropOp30
 70
     1
102
RTVSPost2010Prop31
280
     0
102
RTVSPost2010PropOp31
 70
     1
102
RTVSPost2010Prop32
280
     0
102
RTVSPost2010PropOp32
 70
     1
102
RTVSPost2010Prop33
280
     0
102
RTVSPost2010PropOp33
 70
     1
102
RTVSPost2010Prop34
280
     0
102
RTVSPost2010PropOp34
 70
     1
102
RTVSPost2010Prop35
280
     0
102
RTVSPost2010PropOp35
 70
     1
102
RTVSPost2010Prop36
280
     0
102
RTVSPost2010PropOp36
 70
     1
102
RTVSPost2010Prop37
 90
       50
102
RTVSPost2010PropOp37
 70
     1
102
RTVSPost2010Prop38
140
0.0
102
RTVSPost2010PropOp38
 70
     1
102
RTVSPost2010Prop39
140
1.0
102
RTVSPost2010PropOp39
 70
     1
102
RTVSPost2010Prop40
 90
        0
102
RTVSPost2010PropOp40
 70
     1
102
RTVSPost2010Prop41ColorIndex
 90
       18
102
RTVSPost2010Prop41ColorRGB
 90
        0
102
RTVSPost2010PropOp41
 70
     1
102
RTVSPost2010Prop42
 90
       50
102
RTVSPost2010PropOp42
 70
     1
102
RTVSPost2010Prop43
 90
        3
102
RTVSPost2010PropOp43
 70
     1
102
RTVSPost2010Prop44ColorIndex
 90
        5
102
RTVSPost2010Prop44ColorRGB
 90
      255
102
RTVSPost2010PropOp44
 70
     1
102
RTVSPost2010Prop45
280
     0
102
RTVSPost2010PropOp45
 70
     1
102
RTVSPost2010Prop46
 90
       50
102
RTVSPost2010PropOp46
 70
     1
102
RTVSPost2010Prop47
 90
       50
102
RTVSPost2010PropOp47
 70
     1
102
RTVSPost2010Prop48
 90
       50
102
RTVSPost2010PropOp48
 70
     1
102
RTVSPost2010Prop49
280
     0
102
RTVSPost2010PropOp49
 70
     1
102
RTVSPost2010Prop50
 90
       50
102
RTVSPost2010PropOp50
 70
     1
102
RTVSPost2010Prop51ColorIndex
 90
      256
102
RTVSPost2010Prop51ColorRGB
 90
-16777216
102
RTVSPost2010PropOp51
 70
     0
102
RTVSPost2010Prop52
140
1.0
102
RTVSPost2010PropOp52
 70
     0
102
RTVSPost2010Prop53
 90
        2
102
RTVSPost2010PropOp53
 70
     1
102
RTVSPost2010Prop54
  1
strokes_ogs.tif
102
RTVSPost2010PropOp54
 70
     1
102
RTVSPost2010Prop55
280
     0
102
RTVSPost2010PropOp55
 70
     1
102
RTVSPost2010Prop56
140
1.0
102
RTVSPost2010PropOp56
 70
     1
102
RTVSPost2010Prop57
140
1.0
102
RTVSPost2010PropOp57
 70
     1
102
RTVSPropertyOp0
 70
     1
102
RTVSPropertyOp1
 70
     1
102
RTVSPropertyOp2
 70
     1
102
RTVSPropertyOp3
 70
     1
102
RTVSPropertyOp4
 70
     1
102
RTVSPropertyOp5
 70
     1
102
RTVSPropertyOp6
 70
     1
102
RTVSPropertyOp7
 70
     1
102
RTVSPropertyOp8
 70
     1
102
RTVSPropertyOp9
 70
     1
102
RTVSPropertyOp10
 70
     1
102
RTVSPropertyOp11
 70
     1
102
RTVSPropertyOp12
 70
     1
102
RTVSPropertyOp13
 70
     1
102
RTVSPropertyOp14
 70
     1
102
RTVSPropertyOp15
 70
     1
102
RTVSPropertyOp16
 70
     1
102
RTVSPropertyOp17
 70
     1
102
RTVSPropertyOp18
 70
     1
102
RTVSPropertyOp19
 70
     1
102
RTVSPropertyOp20
 70
     1
102
RTVSPropertyOp21
 70
     1
102
RTVSPropertyOp22
 70
     1
102
RTVSPropertyOp23
 70
     1
102
RTVSPropertyOp24
 70
     1
102
RTVSPropertyOp25
 70
     1
102
RTVSPropertyOp26
 70
     1
102
RTVSPropertyOp27
 70
     1
102
RTVSPropertyOp28
 70
     1
102
RTVSPropertyOp29
 70
     1
102
RTVSPropertyOp30
 70
     1
102
RTVSPropertyOp31
 70
     1
102
RTVSPropertyOp32
 70
     1
102
RTVSPropertyOp33
 70
     1
102
RTVSPropertyOp34
 70
     1
102
RTVSPropertyOp35
 70
     1
102
RTVSPropertyOp36
 70
     1
102
RTVSPropertyOp37
 70
     1
102
RTVSPropertyOp38
 70
     1
102
RTVSPropertyOp39
 70
     1
102
RTVSPropertyOp40
 70
     1
102
RTVSPropertyOp41
 70
     1
102
RTVSPropertyOp42
 70
     1
102
RTVSPropertyOp43
 70
     1
102
RTVSPropertyOp44
 70
     1
102
RTVSPropertyOp45
 70
     1
102
RTVSPropertyOp46
 70
     1
102
RTVSPropertyOp47
 70
     1
102
RTVSPropertyOp48
 70
     1
102
RTVSPropertyOp49
 70
     1
102
RTVSPropertyOp50
 70
     1
102
RTVSPropertyOp51
 70
     0
102
RTVSPropertyOp52
 70
     0
102
RTVSPropertyOp53
 70
     1
102
RTVSPropertyOp54
 70
     1
102
RTVSPropertyOp55
 70
     1
102
RTVSPropertyOp56
 70
     1
102
RTVSPropertyOp57
 70
     1
102
RTVSPropertyOp58
 70
     1
102
RTVSPropertyOp59
 70
     1
102
RTVSPropertyOp60
 70
     1
102
RTVSPropertyOp61
 70
     1
102
RTVSPropertyOp62
 70
     1
  0
XRECORD
  5
17024
102
{ACAD_REACTORS
330
17023
102
}
330
17023
100
AcDbXrecord
280
     1
102
RTVSPost2010Prop28
280
     0
102
RTVSPost2010PropOp28
 70
     1
102
RTVSPost2010Prop29
280
     1
102
RTVSPost2010PropOp29
 70
     1
102
RTVSPost2010Prop30
280
     1
102
RTVSPost2010PropOp30
 70
     1
102
RTVSPost2010Prop31
280
     0
102
RTVSPost2010PropOp31
 70
     1
102
RTVSPost2010Prop32
280
     0
102
RTVSPost2010PropOp32
 70
     1
102
RTVSPost2010Prop33
280
     0
102
RTVSPost2010PropOp33
 70
     1
102
RTVSPost2010Prop34
280
     0
102
RTVSPost2010PropOp34
 70
     1
102
RTVSPost2010Prop35
280
     0
102
RTVSPost2010PropOp35
 70
     1
102
RTVSPost2010Prop36
280
     0
102
RTVSPost2010PropOp36
 70
     1
102
RTVSPost2010Prop37
 90
       50
102
RTVSPost2010PropOp37
 70
     1
102
RTVSPost2010Prop38
140
0.0
102
RTVSPost2010PropOp38
 70
     1
102
RTVSPost2010Prop39
140
1.0
102
RTVSPost2010PropOp39
 70
     1
102
RTVSPost2010Prop40
 90
        0
102
RTVSPost2010PropOp40
 70
     1
102
RTVSPost2010Prop41ColorIndex
 90
       18
102
RTVSPost2010Prop41ColorRGB
 90
        0
102
RTVSPost2010PropOp41
 70
     1
102
RTVSPost2010Prop42
 90
       50
102
RTVSPost2010PropOp42
 70
     1
102
RTVSPost2010Prop43
 90
        3
102
RTVSPost2010PropOp43
 70
     1
102
RTVSPost2010Prop44ColorIndex
 90
        5
102
RTVSPost2010Prop44ColorRGB
 90
      255
102
RTVSPost2010PropOp44
 70
     1
102
RTVSPost2010Prop45
280
     0
102
RTVSPost2010PropOp45
 70
     1
102
RTVSPost2010Prop46
 90
       50
102
RTVSPost2010PropOp46
 70
     1
102
RTVSPost2010Prop47
 90
       50
102
RTVSPost2010PropOp47
 70
     1
102
RTVSPost2010Prop48
 90
       50
102
RTVSPost2010PropOp48
 70
     1
102
RTVSPost2010Prop49
280
     0
102
RTVSPost2010PropOp49
 70
     1
102
RTVSPost2010Prop50
 90
       50
102
RTVSPost2010PropOp50
 70
     1
102
RTVSPost2010Prop51ColorIndex
 90
      256
102
RTVSPost2010Prop51ColorRGB
 90
-16777216
102
RTVSPost2010PropOp51
 70
     0
102
RTVSPost2010Prop52
140
1.0
102
RTVSPost2010PropOp52
 70
     0
102
RTVSPost2010Prop53
 90
        2
102
RTVSPost2010PropOp53
 70
     1
102
RTVSPost2010Prop54
  1
strokes_ogs.tif
102
RTVSPost2010PropOp54
 70
     1
102
RTVSPost2010Prop55
280
     0
102
RTVSPost2010PropOp55
 70
     1
102
RTVSPost2010Prop56
140
1.0
102
RTVSPost2010PropOp56
 70
     1
102
RTVSPost2010Prop57
140
1.0
102
RTVSPost2010PropOp57
 70
     1
102
RTVSPropertyOp0
 70
     1
102
RTVSPropertyOp1
 70
     1
102
RTVSPropertyOp2
 70
     1
102
RTVSPropertyOp3
 70
     1
102
RTVSPropertyOp4
 70
     1
102
RTVSPropertyOp5
 70
     1
102
RTVSPropertyOp6
 70
     1
102
RTVSPropertyOp7
 70
     1
102
RTVSPropertyOp8
 70
     1
102
RTVSPropertyOp9
 70
     1
102
RTVSPropertyOp10
 70
     1
102
RTVSPropertyOp11
 70
     1
102
RTVSPropertyOp12
 70
     1
102
RTVSPropertyOp13
 70
     1
102
RTVSPropertyOp14
 70
     1
102
RTVSPropertyOp15
 70
     1
102
RTVSPropertyOp16
 70
     1
102
RTVSPropertyOp17
 70
     1
102
RTVSPropertyOp18
 70
     1
102
RTVSPropertyOp19
 70
     1
102
RTVSPropertyOp20
 70
     1
102
RTVSPropertyOp21
 70
     1
102
RTVSPropertyOp22
 70
     1
102
RTVSPropertyOp23
 70
     1
102
RTVSPropertyOp24
 70
     1
102
RTVSPropertyOp25
 70
     1
102
RTVSPropertyOp26
 70
     1
102
RTVSPropertyOp27
 70
     1
102
RTVSPropertyOp28
 70
     1
102
RTVSPropertyOp29
 70
     1
102
RTVSPropertyOp30
 70
     1
102
RTVSPropertyOp31
 70
     1
102
RTVSPropertyOp32
 70
     1
102
RTVSPropertyOp33
 70
     1
102
RTVSPropertyOp34
 70
     1
102
RTVSPropertyOp35
 70
     1
102
RTVSPropertyOp36
 70
     1
102
RTVSPropertyOp37
 70
     1
102
RTVSPropertyOp38
 70
     1
102
RTVSPropertyOp39
 70
     1
102
RTVSPropertyOp40
 70
     1
102
RTVSPropertyOp41
 70
     1
102
RTVSPropertyOp42
 70
     1
102
RTVSPropertyOp43
 70
     1
102
RTVSPropertyOp44
 70
     1
102
RTVSPropertyOp45
 70
     1
102
RTVSPropertyOp46
 70
     1
102
RTVSPropertyOp47
 70
     1
102
RTVSPropertyOp48
 70
     1
102
RTVSPropertyOp49
 70
     1
102
RTVSPropertyOp50
 70
     1
102
RTVSPropertyOp51
 70
     0
102
RTVSPropertyOp52
 70
     0
102
RTVSPropertyOp53
 70
     1
102
RTVSPropertyOp54
 70
     1
102
RTVSPropertyOp55
 70
     1
102
RTVSPropertyOp56
 70
     1
102
RTVSPropertyOp57
 70
     1
102
RTVSPropertyOp58
 70
     1
102
RTVSPropertyOp59
 70
     1
102
RTVSPropertyOp60
 70
     1
102
RTVSPropertyOp61
 70
     1
102
RTVSPropertyOp62
 70
     1
  0
XRECORD
  5
17026
102
{ACAD_REACTORS
330
17025
102
}
330
17025
100
AcDbXrecord
280
     1
102
RTVSPost2010Prop28
280
     0
102
RTVSPost2010PropOp28
 70
     1
102
RTVSPost2010Prop29
280
     1
102
RTVSPost2010PropOp29
 70
     1
102
RTVSPost2010Prop30
280
     1
102
RTVSPost2010PropOp30
 70
     1
102
RTVSPost2010Prop31
280
     0
102
RTVSPost2010PropOp31
 70
     1
102
RTVSPost2010Prop32
280
     0
102
RTVSPost2010PropOp32
 70
     1
102
RTVSPost2010Prop33
280
     0
102
RTVSPost2010PropOp33
 70
     1
102
RTVSPost2010Prop34
280
     0
102
RTVSPost2010PropOp34
 70
     1
102
RTVSPost2010Prop35
280
     0
102
RTVSPost2010PropOp35
 70
     1
102
RTVSPost2010Prop36
280
     0
102
RTVSPost2010PropOp36
 70
     1
102
RTVSPost2010Prop37
 90
       50
102
RTVSPost2010PropOp37
 70
     1
102
RTVSPost2010Prop38
140
0.0
102
RTVSPost2010PropOp38
 70
     1
102
RTVSPost2010Prop39
140
1.0
102
RTVSPost2010PropOp39
 70
     1
102
RTVSPost2010Prop40
 90
        0
102
RTVSPost2010PropOp40
 70
     1
102
RTVSPost2010Prop41ColorIndex
 90
       18
102
RTVSPost2010Prop41ColorRGB
 90
        0
102
RTVSPost2010PropOp41
 70
     1
102
RTVSPost2010Prop42
 90
       50
102
RTVSPost2010PropOp42
 70
     1
102
RTVSPost2010Prop43
 90
        3
102
RTVSPost2010PropOp43
 70
     1
102
RTVSPost2010Prop44ColorIndex
 90
        5
102
RTVSPost2010Prop44ColorRGB
 90
      255
102
RTVSPost2010PropOp44
 70
     1
102
RTVSPost2010Prop45
280
     0
102
RTVSPost2010PropOp45
 70
     1
102
RTVSPost2010Prop46
 90
       50
102
RTVSPost2010PropOp46
 70
     1
102
RTVSPost2010Prop47
 90
       50
102
RTVSPost2010PropOp47
 70
     1
102
RTVSPost2010Prop48
 90
       50
102
RTVSPost2010PropOp48
 70
     1
102
RTVSPost2010Prop49
280
     0
102
RTVSPost2010PropOp49
 70
     1
102
RTVSPost2010Prop50
 90
       50
102
RTVSPost2010PropOp50
 70
     1
102
RTVSPost2010Prop51ColorIndex
 90
      256
102
RTVSPost2010Prop51ColorRGB
 90
-16777216
102
RTVSPost2010PropOp51
 70
     0
102
RTVSPost2010Prop52
140
1.0
102
RTVSPost2010PropOp52
 70
     0
102
RTVSPost2010Prop53
 90
        2
102
RTVSPost2010PropOp53
 70
     1
102
RTVSPost2010Prop54
  1
strokes_ogs.tif
102
RTVSPost2010PropOp54
 70
     1
102
RTVSPost2010Prop55
280
     0
102
RTVSPost2010PropOp55
 70
     1
102
RTVSPost2010Prop56
140
1.0
102
RTVSPost2010PropOp56
 70
     1
102
RTVSPost2010Prop57
140
1.0
102
RTVSPost2010PropOp57
 70
     1
102
RTVSPropertyOp0
 70
     1
102
RTVSPropertyOp1
 70
     1
102
RTVSPropertyOp2
 70
     1
102
RTVSPropertyOp3
 70
     1
102
RTVSPropertyOp4
 70
     1
102
RTVSPropertyOp5
 70
     1
102
RTVSPropertyOp6
 70
     1
102
RTVSPropertyOp7
 70
     1
102
RTVSPropertyOp8
 70
     1
102
RTVSPropertyOp9
 70
     1
102
RTVSPropertyOp10
 70
     1
102
RTVSPropertyOp11
 70
     1
102
RTVSPropertyOp12
 70
     1
102
RTVSPropertyOp13
 70
     1
102
RTVSPropertyOp14
 70
     1
102
RTVSPropertyOp15
 70
     1
102
RTVSPropertyOp16
 70
     1
102
RTVSPropertyOp17
 70
     1
102
RTVSPropertyOp18
 70
     1
102
RTVSPropertyOp19
 70
     1
102
RTVSPropertyOp20
 70
     1
102
RTVSPropertyOp21
 70
     1
102
RTVSPropertyOp22
 70
     1
102
RTVSPropertyOp23
 70
     1
102
RTVSPropertyOp24
 70
     1
102
RTVSPropertyOp25
 70
     1
102
RTVSPropertyOp26
 70
     1
102
RTVSPropertyOp27
 70
     1
102
RTVSPropertyOp28
 70
     1
102
RTVSPropertyOp29
 70
     1
102
RTVSPropertyOp30
 70
     1
102
RTVSPropertyOp31
 70
     1
102
RTVSPropertyOp32
 70
     1
102
RTVSPropertyOp33
 70
     1
102
RTVSPropertyOp34
 70
     1
102
RTVSPropertyOp35
 70
     1
102
RTVSPropertyOp36
 70
     1
102
RTVSPropertyOp37
 70
     1
102
RTVSPropertyOp38
 70
     1
102
RTVSPropertyOp39
 70
     1
102
RTVSPropertyOp40
 70
     1
102
RTVSPropertyOp41
 70
     1
102
RTVSPropertyOp42
 70
     1
102
RTVSPropertyOp43
 70
     1
102
RTVSPropertyOp44
 70
     1
102
RTVSPropertyOp45
 70
     1
102
RTVSPropertyOp46
 70
     1
102
RTVSPropertyOp47
 70
     1
102
RTVSPropertyOp48
 70
     1
102
RTVSPropertyOp49
 70
     1
102
RTVSPropertyOp50
 70
     1
102
RTVSPropertyOp51
 70
     0
102
RTVSPropertyOp52
 70
     0
102
RTVSPropertyOp53
 70
     1
102
RTVSPropertyOp54
 70
     1
102
RTVSPropertyOp55
 70
     1
102
RTVSPropertyOp56
 70
     1
102
RTVSPropertyOp57
 70
     1
102
RTVSPropertyOp58
 70
     1
102
RTVSPropertyOp59
 70
     1
102
RTVSPropertyOp60
 70
     1
102
RTVSPropertyOp61
 70
     1
102
RTVSPropertyOp62
 70
     1
  0
XRECORD
  5
1702E
102
{ACAD_REACTORS
330
1702D
102
}
330
1702D
100
AcDbXrecord
280
     1
102
RTVSPost2010Prop28
280
     0
102
RTVSPost2010PropOp28
 70
     1
102
RTVSPost2010Prop29
280
     1
102
RTVSPost2010PropOp29
 70
     1
102
RTVSPost2010Prop30
280
     1
102
RTVSPost2010PropOp30
 70
     1
102
RTVSPost2010Prop31
280
     0
102
RTVSPost2010PropOp31
 70
     1
102
RTVSPost2010Prop32
280
     0
102
RTVSPost2010PropOp32
 70
     1
102
RTVSPost2010Prop33
280
     0
102
RTVSPost2010PropOp33
 70
     1
102
RTVSPost2010Prop34
280
     0
102
RTVSPost2010PropOp34
 70
     1
102
RTVSPost2010Prop35
280
     0
102
RTVSPost2010PropOp35
 70
     1
102
RTVSPost2010Prop36
280
     0
102
RTVSPost2010PropOp36
 70
     1
102
RTVSPost2010Prop37
 90
       50
102
RTVSPost2010PropOp37
 70
     1
102
RTVSPost2010Prop38
140
0.0
102
RTVSPost2010PropOp38
 70
     1
102
RTVSPost2010Prop39
140
1.0
102
RTVSPost2010PropOp39
 70
     1
102
RTVSPost2010Prop40
 90
        0
102
RTVSPost2010PropOp40
 70
     1
102
RTVSPost2010Prop41ColorIndex
 90
       18
102
RTVSPost2010Prop41ColorRGB
 90
        0
102
RTVSPost2010PropOp41
 70
     1
102
RTVSPost2010Prop42
 90
       50
102
RTVSPost2010PropOp42
 70
     1
102
RTVSPost2010Prop43
 90
        3
102
RTVSPost2010PropOp43
 70
     1
102
RTVSPost2010Prop44ColorIndex
 90
        5
102
RTVSPost2010Prop44ColorRGB
 90
      255
102
RTVSPost2010PropOp44
 70
     1
102
RTVSPost2010Prop45
280
     0
102
RTVSPost2010PropOp45
 70
     1
102
RTVSPost2010Prop46
 90
       50
102
RTVSPost2010PropOp46
 70
     1
102
RTVSPost2010Prop47
 90
       50
102
RTVSPost2010PropOp47
 70
     1
102
RTVSPost2010Prop48
 90
       50
102
RTVSPost2010PropOp48
 70
     1
102
RTVSPost2010Prop49
280
     0
102
RTVSPost2010PropOp49
 70
     1
102
RTVSPost2010Prop50
 90
       50
102
RTVSPost2010PropOp50
 70
     1
102
RTVSPost2010Prop51ColorIndex
 90
      256
102
RTVSPost2010Prop51ColorRGB
 90
-16777216
102
RTVSPost2010PropOp51
 70
     0
102
RTVSPost2010Prop52
140
1.0
102
RTVSPost2010PropOp52
 70
     0
102
RTVSPost2010Prop53
 90
        2
102
RTVSPost2010PropOp53
 70
     1
102
RTVSPost2010Prop54
  1
strokes_ogs.tif
102
RTVSPost2010PropOp54
 70
     1
102
RTVSPost2010Prop55
280
     0
102
RTVSPost2010PropOp55
 70
     1
102
RTVSPost2010Prop56
140
1.0
102
RTVSPost2010PropOp56
 70
     1
102
RTVSPost2010Prop57
140
1.0
102
RTVSPost2010PropOp57
 70
     1
102
RTVSPropertyOp0
 70
     1
102
RTVSPropertyOp1
 70
     1
102
RTVSPropertyOp2
 70
     1
102
RTVSPropertyOp3
 70
     1
102
RTVSPropertyOp4
 70
     1
102
RTVSPropertyOp5
 70
     1
102
RTVSPropertyOp6
 70
     1
102
RTVSPropertyOp7
 70
     1
102
RTVSPropertyOp8
 70
     1
102
RTVSPropertyOp9
 70
     1
102
RTVSPropertyOp10
 70
     1
102
RTVSPropertyOp11
 70
     1
102
RTVSPropertyOp12
 70
     1
102
RTVSPropertyOp13
 70
     1
102
RTVSPropertyOp14
 70
     1
102
RTVSPropertyOp15
 70
     1
102
RTVSPropertyOp16
 70
     1
102
RTVSPropertyOp17
 70
     1
102
RTVSPropertyOp18
 70
     1
102
RTVSPropertyOp19
 70
     1
102
RTVSPropertyOp20
 70
     1
102
RTVSPropertyOp21
 70
     1
102
RTVSPropertyOp22
 70
     1
102
RTVSPropertyOp23
 70
     1
102
RTVSPropertyOp24
 70
     1
102
RTVSPropertyOp25
 70
     1
102
RTVSPropertyOp26
 70
     1
102
RTVSPropertyOp27
 70
     1
102
RTVSPropertyOp28
 70
     1
102
RTVSPropertyOp29
 70
     1
102
RTVSPropertyOp30
 70
     1
102
RTVSPropertyOp31
 70
     1
102
RTVSPropertyOp32
 70
     1
102
RTVSPropertyOp33
 70
     1
102
RTVSPropertyOp34
 70
     1
102
RTVSPropertyOp35
 70
     1
102
RTVSPropertyOp36
 70
     1
102
RTVSPropertyOp37
 70
     1
102
RTVSPropertyOp38
 70
     1
102
RTVSPropertyOp39
 70
     1
102
RTVSPropertyOp40
 70
     1
102
RTVSPropertyOp41
 70
     1
102
RTVSPropertyOp42
 70
     1
102
RTVSPropertyOp43
 70
     1
102
RTVSPropertyOp44
 70
     1
102
RTVSPropertyOp45
 70
     1
102
RTVSPropertyOp46
 70
     1
102
RTVSPropertyOp47
 70
     1
102
RTVSPropertyOp48
 70
     1
102
RTVSPropertyOp49
 70
     1
102
RTVSPropertyOp50
 70
     1
102
RTVSPropertyOp51
 70
     0
102
RTVSPropertyOp52
 70
     0
102
RTVSPropertyOp53
 70
     1
102
RTVSPropertyOp54
 70
     1
102
RTVSPropertyOp55
 70
     1
102
RTVSPropertyOp56
 70
     1
102
RTVSPropertyOp57
 70
     1
102
RTVSPropertyOp58
 70
     1
102
RTVSPropertyOp59
 70
     1
102
RTVSPropertyOp60
 70
     1
102
RTVSPropertyOp61
 70
     1
102
RTVSPropertyOp62
 70
     1
  0
XRECORD
  5
1704A
102
{ACAD_REACTORS
330
17049
102
}
330
17049
100
AcDbXrecord
280
     1
102
RTVSPost2010Prop28
280
     0
102
RTVSPost2010PropOp28
 70
     1
102
RTVSPost2010Prop29
280
     1
102
RTVSPost2010PropOp29
 70
     1
102
RTVSPost2010Prop30
280
     1
102
RTVSPost2010PropOp30
 70
     1
102
RTVSPost2010Prop31
280
     0
102
RTVSPost2010PropOp31
 70
     1
102
RTVSPost2010Prop32
280
     0
102
RTVSPost2010PropOp32
 70
     1
102
RTVSPost2010Prop33
280
     0
102
RTVSPost2010PropOp33
 70
     1
102
RTVSPost2010Prop34
280
     0
102
RTVSPost2010PropOp34
 70
     1
102
RTVSPost2010Prop35
280
     0
102
RTVSPost2010PropOp35
 70
     1
102
RTVSPost2010Prop36
280
     0
102
RTVSPost2010PropOp36
 70
     1
102
RTVSPost2010Prop37
 90
       50
102
RTVSPost2010PropOp37
 70
     0
102
RTVSPost2010Prop38
140
0.0
102
RTVSPost2010PropOp38
 70
     0
102
RTVSPost2010Prop39
140
1.0
102
RTVSPost2010PropOp39
 70
     0
102
RTVSPost2010Prop40
 90
        0
102
RTVSPost2010PropOp40
 70
     0
102
RTVSPost2010Prop41ColorIndex
 90
       18
102
RTVSPost2010Prop41ColorRGB
 90
        0
102
RTVSPost2010PropOp41
 70
     0
102
RTVSPost2010Prop42
 90
       50
102
RTVSPost2010PropOp42
 70
     0
102
RTVSPost2010Prop43
 90
        3
102
RTVSPost2010PropOp43
 70
     0
102
RTVSPost2010Prop44ColorIndex
 90
        5
102
RTVSPost2010Prop44ColorRGB
 90
      255
102
RTVSPost2010PropOp44
 70
     0
102
RTVSPost2010Prop45
280
     0
102
RTVSPost2010PropOp45
 70
     1
102
RTVSPost2010Prop46
 90
       50
102
RTVSPost2010PropOp46
 70
     0
102
RTVSPost2010Prop47
 90
       50
102
RTVSPost2010PropOp47
 70
     0
102
RTVSPost2010Prop48
 90
       50
102
RTVSPost2010PropOp48
 70
     0
102
RTVSPost2010Prop49
280
     0
102
RTVSPost2010PropOp49
 70
     1
102
RTVSPost2010Prop50
 90
       50
102
RTVSPost2010PropOp50
 70
     0
102
RTVSPost2010Prop51ColorIndex
 90
      256
102
RTVSPost2010Prop51ColorRGB
 90
-16777216
102
RTVSPost2010PropOp51
 70
     0
102
RTVSPost2010Prop52
140
1.0
102
RTVSPost2010PropOp52
 70
     0
102
RTVSPost2010Prop53
 90
        2
102
RTVSPost2010PropOp53
 70
     0
102
RTVSPost2010Prop54
  1
strokes_ogs.tif
102
RTVSPost2010PropOp54
 70
     0
102
RTVSPost2010Prop55
280
     0
102
RTVSPost2010PropOp55
 70
     1
102
RTVSPost2010Prop56
140
1.0
102
RTVSPost2010PropOp56
 70
     0
102
RTVSPost2010Prop57
140
1.0
102
RTVSPost2010PropOp57
 70
     0
102
RTVSPropertyOp0
 70
     0
102
RTVSPropertyOp1
 70
     0
102
RTVSPropertyOp2
 70
     0
102
RTVSPropertyOp3
 70
     0
102
RTVSPropertyOp4
 70
     0
102
RTVSPropertyOp5
 70
     0
102
RTVSPropertyOp6
 70
     0
102
RTVSPropertyOp7
 70
     0
102
RTVSPropertyOp8
 70
     0
102
RTVSPropertyOp9
 70
     0
102
RTVSPropertyOp10
 70
     0
102
RTVSPropertyOp11
 70
     0
102
RTVSPropertyOp12
 70
     0
102
RTVSPropertyOp13
 70
     0
102
RTVSPropertyOp14
 70
     2
102
RTVSPropertyOp15
 70
     0
102
RTVSPropertyOp16
 70
     0
102
RTVSPropertyOp17
 70
     0
102
RTVSPropertyOp18
 70
     0
102
RTVSPropertyOp19
 70
     0
102
RTVSPropertyOp20
 70
     0
102
RTVSPropertyOp21
 70
     0
102
RTVSPropertyOp22
 70
     0
102
RTVSPropertyOp23
 70
     0
102
RTVSPropertyOp24
 70
     0
102
RTVSPropertyOp25
 70
     0
102
RTVSPropertyOp26
 70
     0
102
RTVSPropertyOp27
 70
     0
102
RTVSPropertyOp28
 70
     1
102
RTVSPropertyOp29
 70
     1
102
RTVSPropertyOp30
 70
     1
102
RTVSPropertyOp31
 70
     1
102
RTVSPropertyOp32
 70
     1
102
RTVSPropertyOp33
 70
     1
102
RTVSPropertyOp34
 70
     1
102
RTVSPropertyOp35
 70
     1
102
RTVSPropertyOp36
 70
     1
102
RTVSPropertyOp37
 70
     0
102
RTVSPropertyOp38
 70
     0
102
RTVSPropertyOp39
 70
     0
102
RTVSPropertyOp40
 70
     0
102
RTVSPropertyOp41
 70
     0
102
RTVSPropertyOp42
 70
     0
102
RTVSPropertyOp43
 70
     0
102
RTVSPropertyOp44
 70
     0
102
RTVSPropertyOp45
 70
     1
102
RTVSPropertyOp46
 70
     0
102
RTVSPropertyOp47
 70
     0
102
RTVSPropertyOp48
 70
     0
102
RTVSPropertyOp49
 70
     1
102
RTVSPropertyOp50
 70
     0
102
RTVSPropertyOp51
 70
     0
102
RTVSPropertyOp52
 70
     0
102
RTVSPropertyOp53
 70
     0
102
RTVSPropertyOp54
 70
     0
102
RTVSPropertyOp55
 70
     1
102
RTVSPropertyOp56
 70
     0
102
RTVSPropertyOp57
 70
     0
102
RTVSPropertyOp58
 70
     0
102
RTVSPropertyOp59
 70
     0
102
RTVSPropertyOp60
 70
     0
102
RTVSPropertyOp61
 70
     0
102
RTVSPropertyOp62
 70
     0
  0
XRECORD
  5
1703A
102
{ACAD_REACTORS
330
17039
102
}
330
17039
100
AcDbXrecord
280
     1
102
RTVSPost2010Prop28
280
     0
102
RTVSPost2010PropOp28
 70
     1
102
RTVSPost2010Prop29
280
     1
102
RTVSPost2010PropOp29
 70
     1
102
RTVSPost2010Prop30
280
     1
102
RTVSPost2010PropOp30
 70
     1
102
RTVSPost2010Prop31
280
     0
102
RTVSPost2010PropOp31
 70
     1
102
RTVSPost2010Prop32
280
     0
102
RTVSPost2010PropOp32
 70
     1
102
RTVSPost2010Prop33
280
     0
102
RTVSPost2010PropOp33
 70
     1
102
RTVSPost2010Prop34
280
     0
102
RTVSPost2010PropOp34
 70
     1
102
RTVSPost2010Prop35
280
     0
102
RTVSPost2010PropOp35
 70
     1
102
RTVSPost2010Prop36
280
     0
102
RTVSPost2010PropOp36
 70
     1
102
RTVSPost2010Prop37
 90
       50
102
RTVSPost2010PropOp37
 70
     1
102
RTVSPost2010Prop38
140
0.0
102
RTVSPost2010PropOp38
 70
     1
102
RTVSPost2010Prop39
140
1.0
102
RTVSPost2010PropOp39
 70
     1
102
RTVSPost2010Prop40
 90
        0
102
RTVSPost2010PropOp40
 70
     1
102
RTVSPost2010Prop41ColorIndex
 90
       18
102
RTVSPost2010Prop41ColorRGB
 90
        0
102
RTVSPost2010PropOp41
 70
     1
102
RTVSPost2010Prop42
 90
       50
102
RTVSPost2010PropOp42
 70
     1
102
RTVSPost2010Prop43
 90
        3
102
RTVSPost2010PropOp43
 70
     1
102
RTVSPost2010Prop44ColorIndex
 90
        5
102
RTVSPost2010Prop44ColorRGB
 90
      255
102
RTVSPost2010PropOp44
 70
     1
102
RTVSPost2010Prop45
280
     0
102
RTVSPost2010PropOp45
 70
     1
102
RTVSPost2010Prop46
 90
       50
102
RTVSPost2010PropOp46
 70
     1
102
RTVSPost2010Prop47
 90
       50
102
RTVSPost2010PropOp47
 70
     1
102
RTVSPost2010Prop48
 90
       50
102
RTVSPost2010PropOp48
 70
     1
102
RTVSPost2010Prop49
280
     0
102
RTVSPost2010PropOp49
 70
     1
102
RTVSPost2010Prop50
 90
       50
102
RTVSPost2010PropOp50
 70
     1
102
RTVSPost2010Prop51ColorIndex
 90
      256
102
RTVSPost2010Prop51ColorRGB
 90
-16777216
102
RTVSPost2010PropOp51
 70
     0
102
RTVSPost2010Prop52
140
1.0
102
RTVSPost2010PropOp52
 70
     0
102
RTVSPost2010Prop53
 90
        2
102
RTVSPost2010PropOp53
 70
     1
102
RTVSPost2010Prop54
  1
strokes_ogs.tif
102
RTVSPost2010PropOp54
 70
     1
102
RTVSPost2010Prop55
280
     0
102
RTVSPost2010PropOp55
 70
     1
102
RTVSPost2010Prop56
140
1.0
102
RTVSPost2010PropOp56
 70
     1
102
RTVSPost2010Prop57
140
1.0
102
RTVSPost2010PropOp57
 70
     1
102
RTVSPropertyOp0
 70
     1
102
RTVSPropertyOp1
 70
     1
102
RTVSPropertyOp2
 70
     1
102
RTVSPropertyOp3
 70
     1
102
RTVSPropertyOp4
 70
     1
102
RTVSPropertyOp5
 70
     1
102
RTVSPropertyOp6
 70
     1
102
RTVSPropertyOp7
 70
     1
102
RTVSPropertyOp8
 70
     1
102
RTVSPropertyOp9
 70
     1
102
RTVSPropertyOp10
 70
     1
102
RTVSPropertyOp11
 70
     1
102
RTVSPropertyOp12
 70
     1
102
RTVSPropertyOp13
 70
     1
102
RTVSPropertyOp14
 70
     1
102
RTVSPropertyOp15
 70
     1
102
RTVSPropertyOp16
 70
     1
102
RTVSPropertyOp17
 70
     1
102
RTVSPropertyOp18
 70
     1
102
RTVSPropertyOp19
 70
     1
102
RTVSPropertyOp20
 70
     1
102
RTVSPropertyOp21
 70
     1
102
RTVSPropertyOp22
 70
     1
102
RTVSPropertyOp23
 70
     1
102
RTVSPropertyOp24
 70
     1
102
RTVSPropertyOp25
 70
     1
102
RTVSPropertyOp26
 70
     1
102
RTVSPropertyOp27
 70
     1
102
RTVSPropertyOp28
 70
     1
102
RTVSPropertyOp29
 70
     1
102
RTVSPropertyOp30
 70
     1
102
RTVSPropertyOp31
 70
     1
102
RTVSPropertyOp32
 70
     1
102
RTVSPropertyOp33
 70
     1
102
RTVSPropertyOp34
 70
     1
102
RTVSPropertyOp35
 70
     1
102
RTVSPropertyOp36
 70
     1
102
RTVSPropertyOp37
 70
     1
102
RTVSPropertyOp38
 70
     1
102
RTVSPropertyOp39
 70
     1
102
RTVSPropertyOp40
 70
     1
102
RTVSPropertyOp41
 70
     1
102
RTVSPropertyOp42
 70
     1
102
RTVSPropertyOp43
 70
     1
102
RTVSPropertyOp44
 70
     1
102
RTVSPropertyOp45
 70
     1
102
RTVSPropertyOp46
 70
     1
102
RTVSPropertyOp47
 70
     1
102
RTVSPropertyOp48
 70
     1
102
RTVSPropertyOp49
 70
     1
102
RTVSPropertyOp50
 70
     1
102
RTVSPropertyOp51
 70
     0
102
RTVSPropertyOp52
 70
     0
102
RTVSPropertyOp53
 70
     1
102
RTVSPropertyOp54
 70
     1
102
RTVSPropertyOp55
 70
     1
102
RTVSPropertyOp56
 70
     1
102
RTVSPropertyOp57
 70
     1
102
RTVSPropertyOp58
 70
     1
102
RTVSPropertyOp59
 70
     1
102
RTVSPropertyOp60
 70
     1
102
RTVSPropertyOp61
 70
     1
102
RTVSPropertyOp62
 70
     1
  0
XRECORD
  5
1704C
102
{ACAD_REACTORS
330
1704B
102
}
330
1704B
100
AcDbXrecord
280
     1
102
RTVSPost2010Prop28
280
     0
102
RTVSPost2010PropOp28
 70
     1
102
RTVSPost2010Prop29
280
     1
102
RTVSPost2010PropOp29
 70
     1
102
RTVSPost2010Prop30
280
     1
102
RTVSPost2010PropOp30
 70
     1
102
RTVSPost2010Prop31
280
     0
102
RTVSPost2010PropOp31
 70
     1
102
RTVSPost2010Prop32
280
     0
102
RTVSPost2010PropOp32
 70
     1
102
RTVSPost2010Prop33
280
     0
102
RTVSPost2010PropOp33
 70
     1
102
RTVSPost2010Prop34
280
     0
102
RTVSPost2010PropOp34
 70
     1
102
RTVSPost2010Prop35
280
     0
102
RTVSPost2010PropOp35
 70
     1
102
RTVSPost2010Prop36
280
     0
102
RTVSPost2010PropOp36
 70
     1
102
RTVSPost2010Prop37
 90
       50
102
RTVSPost2010PropOp37
 70
     0
102
RTVSPost2010Prop38
140
0.0
102
RTVSPost2010PropOp38
 70
     0
102
RTVSPost2010Prop39
140
1.0
102
RTVSPost2010PropOp39
 70
     0
102
RTVSPost2010Prop40
 90
        0
102
RTVSPost2010PropOp40
 70
     0
102
RTVSPost2010Prop41ColorIndex
 90
       18
102
RTVSPost2010Prop41ColorRGB
 90
        0
102
RTVSPost2010PropOp41
 70
     0
102
RTVSPost2010Prop42
 90
       50
102
RTVSPost2010PropOp42
 70
     0
102
RTVSPost2010Prop43
 90
        3
102
RTVSPost2010PropOp43
 70
     0
102
RTVSPost2010Prop44ColorIndex
 90
        5
102
RTVSPost2010Prop44ColorRGB
 90
      255
102
RTVSPost2010PropOp44
 70
     0
102
RTVSPost2010Prop45
280
     0
102
RTVSPost2010PropOp45
 70
     1
102
RTVSPost2010Prop46
 90
       50
102
RTVSPost2010PropOp46
 70
     0
102
RTVSPost2010Prop47
 90
       50
102
RTVSPost2010PropOp47
 70
     0
102
RTVSPost2010Prop48
 90
       50
102
RTVSPost2010PropOp48
 70
     0
102
RTVSPost2010Prop49
280
     0
102
RTVSPost2010PropOp49
 70
     1
102
RTVSPost2010Prop50
 90
       50
102
RTVSPost2010PropOp50
 70
     0
102
RTVSPost2010Prop51ColorIndex
 90
      256
102
RTVSPost2010Prop51ColorRGB
 90
-16777216
102
RTVSPost2010PropOp51
 70
     0
102
RTVSPost2010Prop52
140
1.0
102
RTVSPost2010PropOp52
 70
     0
102
RTVSPost2010Prop53
 90
        2
102
RTVSPost2010PropOp53
 70
     0
102
RTVSPost2010Prop54
  1
strokes_ogs.tif
102
RTVSPost2010PropOp54
 70
     0
102
RTVSPost2010Prop55
280
     0
102
RTVSPost2010PropOp55
 70
     1
102
RTVSPost2010Prop56
140
1.0
102
RTVSPost2010PropOp56
 70
     0
102
RTVSPost2010Prop57
140
1.0
102
RTVSPost2010PropOp57
 70
     0
102
RTVSPropertyOp0
 70
     0
102
RTVSPropertyOp1
 70
     0
102
RTVSPropertyOp2
 70
     0
102
RTVSPropertyOp3
 70
     0
102
RTVSPropertyOp4
 70
     0
102
RTVSPropertyOp5
 70
     0
102
RTVSPropertyOp6
 70
     0
102
RTVSPropertyOp7
 70
     0
102
RTVSPropertyOp8
 70
     0
102
RTVSPropertyOp9
 70
     0
102
RTVSPropertyOp10
 70
     0
102
RTVSPropertyOp11
 70
     0
102
RTVSPropertyOp12
 70
     0
102
RTVSPropertyOp13
 70
     0
102
RTVSPropertyOp14
 70
     2
102
RTVSPropertyOp15
 70
     0
102
RTVSPropertyOp16
 70
     0
102
RTVSPropertyOp17
 70
     0
102
RTVSPropertyOp18
 70
     0
102
RTVSPropertyOp19
 70
     0
102
RTVSPropertyOp20
 70
     0
102
RTVSPropertyOp21
 70
     0
102
RTVSPropertyOp22
 70
     0
102
RTVSPropertyOp23
 70
     0
102
RTVSPropertyOp24
 70
     0
102
RTVSPropertyOp25
 70
     0
102
RTVSPropertyOp26
 70
     0
102
RTVSPropertyOp27
 70
     0
102
RTVSPropertyOp28
 70
     1
102
RTVSPropertyOp29
 70
     1
102
RTVSPropertyOp30
 70
     1
102
RTVSPropertyOp31
 70
     1
102
RTVSPropertyOp32
 70
     1
102
RTVSPropertyOp33
 70
     1
102
RTVSPropertyOp34
 70
     1
102
RTVSPropertyOp35
 70
     1
102
RTVSPropertyOp36
 70
     1
102
RTVSPropertyOp37
 70
     0
102
RTVSPropertyOp38
 70
     0
102
RTVSPropertyOp39
 70
     0
102
RTVSPropertyOp40
 70
     0
102
RTVSPropertyOp41
 70
     0
102
RTVSPropertyOp42
 70
     0
102
RTVSPropertyOp43
 70
     0
102
RTVSPropertyOp44
 70
     0
102
RTVSPropertyOp45
 70
     1
102
RTVSPropertyOp46
 70
     0
102
RTVSPropertyOp47
 70
     0
102
RTVSPropertyOp48
 70
     0
102
RTVSPropertyOp49
 70
     1
102
RTVSPropertyOp50
 70
     0
102
RTVSPropertyOp51
 70
     0
102
RTVSPropertyOp52
 70
     0
102
RTVSPropertyOp53
 70
     0
102
RTVSPropertyOp54
 70
     0
102
RTVSPropertyOp55
 70
     1
102
RTVSPropertyOp56
 70
     0
102
RTVSPropertyOp57
 70
     0
102
RTVSPropertyOp58
 70
     0
102
RTVSPropertyOp59
 70
     0
102
RTVSPropertyOp60
 70
     0
102
RTVSPropertyOp61
 70
     0
102
RTVSPropertyOp62
 70
     0
  0
XRECORD
  5
17032
102
{ACAD_REACTORS
330
17031
102
}
330
17031
100
AcDbXrecord
280
     1
102
RTVSPost2010Prop28
280
     0
102
RTVSPost2010PropOp28
 70
     1
102
RTVSPost2010Prop29
280
     1
102
RTVSPost2010PropOp29
 70
     1
102
RTVSPost2010Prop30
280
     1
102
RTVSPost2010PropOp30
 70
     1
102
RTVSPost2010Prop31
280
     0
102
RTVSPost2010PropOp31
 70
     1
102
RTVSPost2010Prop32
280
     0
102
RTVSPost2010PropOp32
 70
     1
102
RTVSPost2010Prop33
280
     0
102
RTVSPost2010PropOp33
 70
     1
102
RTVSPost2010Prop34
280
     0
102
RTVSPost2010PropOp34
 70
     1
102
RTVSPost2010Prop35
280
     0
102
RTVSPost2010PropOp35
 70
     1
102
RTVSPost2010Prop36
280
     0
102
RTVSPost2010PropOp36
 70
     1
102
RTVSPost2010Prop37
 90
       50
102
RTVSPost2010PropOp37
 70
     1
102
RTVSPost2010Prop38
140
0.0
102
RTVSPost2010PropOp38
 70
     1
102
RTVSPost2010Prop39
140
1.0
102
RTVSPost2010PropOp39
 70
     1
102
RTVSPost2010Prop40
 90
        0
102
RTVSPost2010PropOp40
 70
     1
102
RTVSPost2010Prop41ColorIndex
 90
       18
102
RTVSPost2010Prop41ColorRGB
 90
        0
102
RTVSPost2010PropOp41
 70
     1
102
RTVSPost2010Prop42
 90
       50
102
RTVSPost2010PropOp42
 70
     1
102
RTVSPost2010Prop43
 90
        3
102
RTVSPost2010PropOp43
 70
     1
102
RTVSPost2010Prop44ColorIndex
 90
        5
102
RTVSPost2010Prop44ColorRGB
 90
      255
102
RTVSPost2010PropOp44
 70
     1
102
RTVSPost2010Prop45
280
     0
102
RTVSPost2010PropOp45
 70
     1
102
RTVSPost2010Prop46
 90
       50
102
RTVSPost2010PropOp46
 70
     1
102
RTVSPost2010Prop47
 90
       50
102
RTVSPost2010PropOp47
 70
     1
102
RTVSPost2010Prop48
 90
       50
102
RTVSPost2010PropOp48
 70
     1
102
RTVSPost2010Prop49
280
     0
102
RTVSPost2010PropOp49
 70
     1
102
RTVSPost2010Prop50
 90
       50
102
RTVSPost2010PropOp50
 70
     1
102
RTVSPost2010Prop51ColorIndex
 90
      256
102
RTVSPost2010Prop51ColorRGB
 90
-16777216
102
RTVSPost2010PropOp51
 70
     0
102
RTVSPost2010Prop52
140
1.0
102
RTVSPost2010PropOp52
 70
     0
102
RTVSPost2010Prop53
 90
        2
102
RTVSPost2010PropOp53
 70
     1
102
RTVSPost2010Prop54
  1
strokes_ogs.tif
102
RTVSPost2010PropOp54
 70
     1
102
RTVSPost2010Prop55
280
     0
102
RTVSPost2010PropOp55
 70
     1
102
RTVSPost2010Prop56
140
1.0
102
RTVSPost2010PropOp56
 70
     1
102
RTVSPost2010Prop57
140
1.0
102
RTVSPost2010PropOp57
 70
     1
102
RTVSPropertyOp0
 70
     1
102
RTVSPropertyOp1
 70
     1
102
RTVSPropertyOp2
 70
     1
102
RTVSPropertyOp3
 70
     1
102
RTVSPropertyOp4
 70
     1
102
RTVSPropertyOp5
 70
     1
102
RTVSPropertyOp6
 70
     1
102
RTVSPropertyOp7
 70
     1
102
RTVSPropertyOp8
 70
     1
102
RTVSPropertyOp9
 70
     1
102
RTVSPropertyOp10
 70
     1
102
RTVSPropertyOp11
 70
     1
102
RTVSPropertyOp12
 70
     1
102
RTVSPropertyOp13
 70
     1
102
RTVSPropertyOp14
 70
     1
102
RTVSPropertyOp15
 70
     1
102
RTVSPropertyOp16
 70
     1
102
RTVSPropertyOp17
 70
     1
102
RTVSPropertyOp18
 70
     1
102
RTVSPropertyOp19
 70
     1
102
RTVSPropertyOp20
 70
     1
102
RTVSPropertyOp21
 70
     1
102
RTVSPropertyOp22
 70
     1
102
RTVSPropertyOp23
 70
     1
102
RTVSPropertyOp24
 70
     1
102
RTVSPropertyOp25
 70
     1
102
RTVSPropertyOp26
 70
     1
102
RTVSPropertyOp27
 70
     1
102
RTVSPropertyOp28
 70
     1
102
RTVSPropertyOp29
 70
     1
102
RTVSPropertyOp30
 70
     1
102
RTVSPropertyOp31
 70
     1
102
RTVSPropertyOp32
 70
     1
102
RTVSPropertyOp33
 70
     1
102
RTVSPropertyOp34
 70
     1
102
RTVSPropertyOp35
 70
     1
102
RTVSPropertyOp36
 70
     1
102
RTVSPropertyOp37
 70
     1
102
RTVSPropertyOp38
 70
     1
102
RTVSPropertyOp39
 70
     1
102
RTVSPropertyOp40
 70
     1
102
RTVSPropertyOp41
 70
     1
102
RTVSPropertyOp42
 70
     1
102
RTVSPropertyOp43
 70
     1
102
RTVSPropertyOp44
 70
     1
102
RTVSPropertyOp45
 70
     1
102
RTVSPropertyOp46
 70
     1
102
RTVSPropertyOp47
 70
     1
102
RTVSPropertyOp48
 70
     1
102
RTVSPropertyOp49
 70
     1
102
RTVSPropertyOp50
 70
     1
102
RTVSPropertyOp51
 70
     0
102
RTVSPropertyOp52
 70
     0
102
RTVSPropertyOp53
 70
     1
102
RTVSPropertyOp54
 70
     1
102
RTVSPropertyOp55
 70
     1
102
RTVSPropertyOp56
 70
     1
102
RTVSPropertyOp57
 70
     1
102
RTVSPropertyOp58
 70
     1
102
RTVSPropertyOp59
 70
     1
102
RTVSPropertyOp60
 70
     1
102
RTVSPropertyOp61
 70
     1
102
RTVSPropertyOp62
 70
     1
  0
XRECORD
  5
17048
102
{ACAD_REACTORS
330
17047
102
}
330
17047
100
AcDbXrecord
280
     1
102
RTVSPost2010Prop28
280
     0
102
RTVSPost2010PropOp28
 70
     1
102
RTVSPost2010Prop29
280
     1
102
RTVSPost2010PropOp29
 70
     1
102
RTVSPost2010Prop30
280
     1
102
RTVSPost2010PropOp30
 70
     1
102
RTVSPost2010Prop31
280
     0
102
RTVSPost2010PropOp31
 70
     1
102
RTVSPost2010Prop32
280
     0
102
RTVSPost2010PropOp32
 70
     1
102
RTVSPost2010Prop33
280
     0
102
RTVSPost2010PropOp33
 70
     1
102
RTVSPost2010Prop34
280
     0
102
RTVSPost2010PropOp34
 70
     1
102
RTVSPost2010Prop35
280
     0
102
RTVSPost2010PropOp35
 70
     1
102
RTVSPost2010Prop36
280
     0
102
RTVSPost2010PropOp36
 70
     1
102
RTVSPost2010Prop37
 90
       50
102
RTVSPost2010PropOp37
 70
     1
102
RTVSPost2010Prop38
140
0.0
102
RTVSPost2010PropOp38
 70
     1
102
RTVSPost2010Prop39
140
1.0
102
RTVSPost2010PropOp39
 70
     1
102
RTVSPost2010Prop40
 90
        0
102
RTVSPost2010PropOp40
 70
     1
102
RTVSPost2010Prop41ColorIndex
 90
       18
102
RTVSPost2010Prop41ColorRGB
 90
        0
102
RTVSPost2010PropOp41
 70
     1
102
RTVSPost2010Prop42
 90
       50
102
RTVSPost2010PropOp42
 70
     1
102
RTVSPost2010Prop43
 90
        3
102
RTVSPost2010PropOp43
 70
     1
102
RTVSPost2010Prop44ColorIndex
 90
        5
102
RTVSPost2010Prop44ColorRGB
 90
      255
102
RTVSPost2010PropOp44
 70
     1
102
RTVSPost2010Prop45
280
     0
102
RTVSPost2010PropOp45
 70
     1
102
RTVSPost2010Prop46
 90
       50
102
RTVSPost2010PropOp46
 70
     1
102
RTVSPost2010Prop47
 90
       50
102
RTVSPost2010PropOp47
 70
     1
102
RTVSPost2010Prop48
 90
       50
102
RTVSPost2010PropOp48
 70
     1
102
RTVSPost2010Prop49
280
     0
102
RTVSPost2010PropOp49
 70
     1
102
RTVSPost2010Prop50
 90
       50
102
RTVSPost2010PropOp50
 70
     1
102
RTVSPost2010Prop51ColorIndex
 90
      256
102
RTVSPost2010Prop51ColorRGB
 90
-16777216
102
RTVSPost2010PropOp51
 70
     0
102
RTVSPost2010Prop52
140
1.0
102
RTVSPost2010PropOp52
 70
     0
102
RTVSPost2010Prop53
 90
        2
102
RTVSPost2010PropOp53
 70
     1
102
RTVSPost2010Prop54
  1
strokes_ogs.tif
102
RTVSPost2010PropOp54
 70
     1
102
RTVSPost2010Prop55
280
     0
102
RTVSPost2010PropOp55
 70
     1
102
RTVSPost2010Prop56
140
1.0
102
RTVSPost2010PropOp56
 70
     1
102
RTVSPost2010Prop57
140
1.0
102
RTVSPost2010PropOp57
 70
     1
102
RTVSPropertyOp0
 70
     1
102
RTVSPropertyOp1
 70
     1
102
RTVSPropertyOp2
 70
     1
102
RTVSPropertyOp3
 70
     1
102
RTVSPropertyOp4
 70
     1
102
RTVSPropertyOp5
 70
     1
102
RTVSPropertyOp6
 70
     1
102
RTVSPropertyOp7
 70
     1
102
RTVSPropertyOp8
 70
     1
102
RTVSPropertyOp9
 70
     1
102
RTVSPropertyOp10
 70
     1
102
RTVSPropertyOp11
 70
     1
102
RTVSPropertyOp12
 70
     1
102
RTVSPropertyOp13
 70
     1
102
RTVSPropertyOp14
 70
     1
102
RTVSPropertyOp15
 70
     1
102
RTVSPropertyOp16
 70
     1
102
RTVSPropertyOp17
 70
     1
102
RTVSPropertyOp18
 70
     1
102
RTVSPropertyOp19
 70
     1
102
RTVSPropertyOp20
 70
     1
102
RTVSPropertyOp21
 70
     1
102
RTVSPropertyOp22
 70
     1
102
RTVSPropertyOp23
 70
     1
102
RTVSPropertyOp24
 70
     1
102
RTVSPropertyOp25
 70
     1
102
RTVSPropertyOp26
 70
     1
102
RTVSPropertyOp27
 70
     1
102
RTVSPropertyOp28
 70
     1
102
RTVSPropertyOp29
 70
     1
102
RTVSPropertyOp30
 70
     1
102
RTVSPropertyOp31
 70
     1
102
RTVSPropertyOp32
 70
     1
102
RTVSPropertyOp33
 70
     1
102
RTVSPropertyOp34
 70
     1
102
RTVSPropertyOp35
 70
     1
102
RTVSPropertyOp36
 70
     1
102
RTVSPropertyOp37
 70
     1
102
RTVSPropertyOp38
 70
     1
102
RTVSPropertyOp39
 70
     1
102
RTVSPropertyOp40
 70
     1
102
RTVSPropertyOp41
 70
     1
102
RTVSPropertyOp42
 70
     1
102
RTVSPropertyOp43
 70
     1
102
RTVSPropertyOp44
 70
     1
102
RTVSPropertyOp45
 70
     1
102
RTVSPropertyOp46
 70
     1
102
RTVSPropertyOp47
 70
     1
102
RTVSPropertyOp48
 70
     1
102
RTVSPropertyOp49
 70
     1
102
RTVSPropertyOp50
 70
     1
102
RTVSPropertyOp51
 70
     0
102
RTVSPropertyOp52
 70
     0
102
RTVSPropertyOp53
 70
     1
102
RTVSPropertyOp54
 70
     1
102
RTVSPropertyOp55
 70
     1
102
RTVSPropertyOp56
 70
     1
102
RTVSPropertyOp57
 70
     1
102
RTVSPropertyOp58
 70
     1
102
RTVSPropertyOp59
 70
     1
102
RTVSPropertyOp60
 70
     1
102
RTVSPropertyOp61
 70
     1
102
RTVSPropertyOp62
 70
     1
  0
XRECORD
  5
17046
102
{ACAD_REACTORS
330
17045
102
}
330
17045
100
AcDbXrecord
280
     1
102
RTVSPost2010Prop28
280
     0
102
RTVSPost2010PropOp28
 70
     1
102
RTVSPost2010Prop29
280
     1
102
RTVSPost2010PropOp29
 70
     1
102
RTVSPost2010Prop30
280
     1
102
RTVSPost2010PropOp30
 70
     1
102
RTVSPost2010Prop31
280
     0
102
RTVSPost2010PropOp31
 70
     1
102
RTVSPost2010Prop32
280
     0
102
RTVSPost2010PropOp32
 70
     1
102
RTVSPost2010Prop33
280
     0
102
RTVSPost2010PropOp33
 70
     1
102
RTVSPost2010Prop34
280
     0
102
RTVSPost2010PropOp34
 70
     1
102
RTVSPost2010Prop35
280
     0
102
RTVSPost2010PropOp35
 70
     1
102
RTVSPost2010Prop36
280
     0
102
RTVSPost2010PropOp36
 70
     1
102
RTVSPost2010Prop37
 90
       50
102
RTVSPost2010PropOp37
 70
     1
102
RTVSPost2010Prop38
140
0.0
102
RTVSPost2010PropOp38
 70
     1
102
RTVSPost2010Prop39
140
1.0
102
RTVSPost2010PropOp39
 70
     1
102
RTVSPost2010Prop40
 90
        0
102
RTVSPost2010PropOp40
 70
     1
102
RTVSPost2010Prop41ColorIndex
 90
       18
102
RTVSPost2010Prop41ColorRGB
 90
        0
102
RTVSPost2010PropOp41
 70
     1
102
RTVSPost2010Prop42
 90
       50
102
RTVSPost2010PropOp42
 70
     1
102
RTVSPost2010Prop43
 90
        3
102
RTVSPost2010PropOp43
 70
     1
102
RTVSPost2010Prop44ColorIndex
 90
        5
102
RTVSPost2010Prop44ColorRGB
 90
      255
102
RTVSPost2010PropOp44
 70
     1
102
RTVSPost2010Prop45
280
     0
102
RTVSPost2010PropOp45
 70
     1
102
RTVSPost2010Prop46
 90
       50
102
RTVSPost2010PropOp46
 70
     1
102
RTVSPost2010Prop47
 90
       50
102
RTVSPost2010PropOp47
 70
     1
102
RTVSPost2010Prop48
 90
       50
102
RTVSPost2010PropOp48
 70
     1
102
RTVSPost2010Prop49
280
     0
102
RTVSPost2010PropOp49
 70
     1
102
RTVSPost2010Prop50
 90
       50
102
RTVSPost2010PropOp50
 70
     1
102
RTVSPost2010Prop51ColorIndex
 90
      256
102
RTVSPost2010Prop51ColorRGB
 90
-16777216
102
RTVSPost2010PropOp51
 70
     0
102
RTVSPost2010Prop52
140
1.0
102
RTVSPost2010PropOp52
 70
     0
102
RTVSPost2010Prop53
 90
        2
102
RTVSPost2010PropOp53
 70
     1
102
RTVSPost2010Prop54
  1
strokes_ogs.tif
102
RTVSPost2010PropOp54
 70
     1
102
RTVSPost2010Prop55
280
     0
102
RTVSPost2010PropOp55
 70
     1
102
RTVSPost2010Prop56
140
1.0
102
RTVSPost2010PropOp56
 70
     1
102
RTVSPost2010Prop57
140
1.0
102
RTVSPost2010PropOp57
 70
     1
102
RTVSPropertyOp0
 70
     1
102
RTVSPropertyOp1
 70
     1
102
RTVSPropertyOp2
 70
     1
102
RTVSPropertyOp3
 70
     1
102
RTVSPropertyOp4
 70
     1
102
RTVSPropertyOp5
 70
     1
102
RTVSPropertyOp6
 70
     1
102
RTVSPropertyOp7
 70
     1
102
RTVSPropertyOp8
 70
     1
102
RTVSPropertyOp9
 70
     1
102
RTVSPropertyOp10
 70
     1
102
RTVSPropertyOp11
 70
     1
102
RTVSPropertyOp12
 70
     1
102
RTVSPropertyOp13
 70
     1
102
RTVSPropertyOp14
 70
     1
102
RTVSPropertyOp15
 70
     1
102
RTVSPropertyOp16
 70
     1
102
RTVSPropertyOp17
 70
     1
102
RTVSPropertyOp18
 70
     1
102
RTVSPropertyOp19
 70
     1
102
RTVSPropertyOp20
 70
     1
102
RTVSPropertyOp21
 70
     1
102
RTVSPropertyOp22
 70
     1
102
RTVSPropertyOp23
 70
     1
102
RTVSPropertyOp24
 70
     1
102
RTVSPropertyOp25
 70
     1
102
RTVSPropertyOp26
 70
     1
102
RTVSPropertyOp27
 70
     1
102
RTVSPropertyOp28
 70
     1
102
RTVSPropertyOp29
 70
     1
102
RTVSPropertyOp30
 70
     1
102
RTVSPropertyOp31
 70
     1
102
RTVSPropertyOp32
 70
     1
102
RTVSPropertyOp33
 70
     1
102
RTVSPropertyOp34
 70
     1
102
RTVSPropertyOp35
 70
     1
102
RTVSPropertyOp36
 70
     1
102
RTVSPropertyOp37
 70
     1
102
RTVSPropertyOp38
 70
     1
102
RTVSPropertyOp39
 70
     1
102
RTVSPropertyOp40
 70
     1
102
RTVSPropertyOp41
 70
     1
102
RTVSPropertyOp42
 70
     1
102
RTVSPropertyOp43
 70
     1
102
RTVSPropertyOp44
 70
     1
102
RTVSPropertyOp45
 70
     1
102
RTVSPropertyOp46
 70
     1
102
RTVSPropertyOp47
 70
     1
102
RTVSPropertyOp48
 70
     1
102
RTVSPropertyOp49
 70
     1
102
RTVSPropertyOp50
 70
     1
102
RTVSPropertyOp51
 70
     0
102
RTVSPropertyOp52
 70
     0
102
RTVSPropertyOp53
 70
     1
102
RTVSPropertyOp54
 70
     1
102
RTVSPropertyOp55
 70
     1
102
RTVSPropertyOp56
 70
     1
102
RTVSPropertyOp57
 70
     1
102
RTVSPropertyOp58
 70
     1
102
RTVSPropertyOp59
 70
     1
102
RTVSPropertyOp60
 70
     1
102
RTVSPropertyOp61
 70
     1
102
RTVSPropertyOp62
 70
     1
  0
XRECORD
  5
17040
102
{ACAD_REACTORS
330
1703F
102
}
330
1703F
100
AcDbXrecord
280
     1
102
RTVSPost2010Prop28
280
     0
102
RTVSPost2010PropOp28
 70
     1
102
RTVSPost2010Prop29
280
     1
102
RTVSPost2010PropOp29
 70
     1
102
RTVSPost2010Prop30
280
     1
102
RTVSPost2010PropOp30
 70
     1
102
RTVSPost2010Prop31
280
     0
102
RTVSPost2010PropOp31
 70
     1
102
RTVSPost2010Prop32
280
     0
102
RTVSPost2010PropOp32
 70
     1
102
RTVSPost2010Prop33
280
     0
102
RTVSPost2010PropOp33
 70
     1
102
RTVSPost2010Prop34
280
     0
102
RTVSPost2010PropOp34
 70
     1
102
RTVSPost2010Prop35
280
     0
102
RTVSPost2010PropOp35
 70
     1
102
RTVSPost2010Prop36
280
     0
102
RTVSPost2010PropOp36
 70
     1
102
RTVSPost2010Prop37
 90
       50
102
RTVSPost2010PropOp37
 70
     1
102
RTVSPost2010Prop38
140
0.0
102
RTVSPost2010PropOp38
 70
     1
102
RTVSPost2010Prop39
140
1.0
102
RTVSPost2010PropOp39
 70
     1
102
RTVSPost2010Prop40
 90
        0
102
RTVSPost2010PropOp40
 70
     1
102
RTVSPost2010Prop41ColorIndex
 90
       18
102
RTVSPost2010Prop41ColorRGB
 90
        0
102
RTVSPost2010PropOp41
 70
     1
102
RTVSPost2010Prop42
 90
       50
102
RTVSPost2010PropOp42
 70
     1
102
RTVSPost2010Prop43
 90
        3
102
RTVSPost2010PropOp43
 70
     1
102
RTVSPost2010Prop44ColorIndex
 90
        5
102
RTVSPost2010Prop44ColorRGB
 90
      255
102
RTVSPost2010PropOp44
 70
     1
102
RTVSPost2010Prop45
280
     0
102
RTVSPost2010PropOp45
 70
     1
102
RTVSPost2010Prop46
 90
       50
102
RTVSPost2010PropOp46
 70
     1
102
RTVSPost2010Prop47
 90
       50
102
RTVSPost2010PropOp47
 70
     1
102
RTVSPost2010Prop48
 90
       50
102
RTVSPost2010PropOp48
 70
     1
102
RTVSPost2010Prop49
280
     0
102
RTVSPost2010PropOp49
 70
     1
102
RTVSPost2010Prop50
 90
       50
102
RTVSPost2010PropOp50
 70
     1
102
RTVSPost2010Prop51ColorIndex
 90
      256
102
RTVSPost2010Prop51ColorRGB
 90
-16777216
102
RTVSPost2010PropOp51
 70
     0
102
RTVSPost2010Prop52
140
1.0
102
RTVSPost2010PropOp52
 70
     0
102
RTVSPost2010Prop53
 90
        2
102
RTVSPost2010PropOp53
 70
     1
102
RTVSPost2010Prop54
  1
strokes_ogs.tif
102
RTVSPost2010PropOp54
 70
     1
102
RTVSPost2010Prop55
280
     0
102
RTVSPost2010PropOp55
 70
     1
102
RTVSPost2010Prop56
140
1.0
102
RTVSPost2010PropOp56
 70
     1
102
RTVSPost2010Prop57
140
1.0
102
RTVSPost2010PropOp57
 70
     1
102
RTVSPropertyOp0
 70
     1
102
RTVSPropertyOp1
 70
     1
102
RTVSPropertyOp2
 70
     1
102
RTVSPropertyOp3
 70
     1
102
RTVSPropertyOp4
 70
     1
102
RTVSPropertyOp5
 70
     1
102
RTVSPropertyOp6
 70
     1
102
RTVSPropertyOp7
 70
     1
102
RTVSPropertyOp8
 70
     1
102
RTVSPropertyOp9
 70
     1
102
RTVSPropertyOp10
 70
     1
102
RTVSPropertyOp11
 70
     1
102
RTVSPropertyOp12
 70
     1
102
RTVSPropertyOp13
 70
     1
102
RTVSPropertyOp14
 70
     1
102
RTVSPropertyOp15
 70
     1
102
RTVSPropertyOp16
 70
     1
102
RTVSPropertyOp17
 70
     1
102
RTVSPropertyOp18
 70
     1
102
RTVSPropertyOp19
 70
     1
102
RTVSPropertyOp20
 70
     1
102
RTVSPropertyOp21
 70
     1
102
RTVSPropertyOp22
 70
     1
102
RTVSPropertyOp23
 70
     1
102
RTVSPropertyOp24
 70
     1
102
RTVSPropertyOp25
 70
     1
102
RTVSPropertyOp26
 70
     1
102
RTVSPropertyOp27
 70
     1
102
RTVSPropertyOp28
 70
     1
102
RTVSPropertyOp29
 70
     1
102
RTVSPropertyOp30
 70
     1
102
RTVSPropertyOp31
 70
     1
102
RTVSPropertyOp32
 70
     1
102
RTVSPropertyOp33
 70
     1
102
RTVSPropertyOp34
 70
     1
102
RTVSPropertyOp35
 70
     1
102
RTVSPropertyOp36
 70
     1
102
RTVSPropertyOp37
 70
     1
102
RTVSPropertyOp38
 70
     1
102
RTVSPropertyOp39
 70
     1
102
RTVSPropertyOp40
 70
     1
102
RTVSPropertyOp41
 70
     1
102
RTVSPropertyOp42
 70
     1
102
RTVSPropertyOp43
 70
     1
102
RTVSPropertyOp44
 70
     1
102
RTVSPropertyOp45
 70
     1
102
RTVSPropertyOp46
 70
     1
102
RTVSPropertyOp47
 70
     1
102
RTVSPropertyOp48
 70
     1
102
RTVSPropertyOp49
 70
     1
102
RTVSPropertyOp50
 70
     1
102
RTVSPropertyOp51
 70
     0
102
RTVSPropertyOp52
 70
     0
102
RTVSPropertyOp53
 70
     1
102
RTVSPropertyOp54
 70
     1
102
RTVSPropertyOp55
 70
     1
102
RTVSPropertyOp56
 70
     1
102
RTVSPropertyOp57
 70
     1
102
RTVSPropertyOp58
 70
     1
102
RTVSPropertyOp59
 70
     1
102
RTVSPropertyOp60
 70
     1
102
RTVSPropertyOp61
 70
     1
102
RTVSPropertyOp62
 70
     1
  0
XRECORD
  5
17042
102
{ACAD_REACTORS
330
17041
102
}
330
17041
100
AcDbXrecord
280
     1
102
RTVSPost2010Prop28
280
     0
102
RTVSPost2010PropOp28
 70
     1
102
RTVSPost2010Prop29
280
     1
102
RTVSPost2010PropOp29
 70
     1
102
RTVSPost2010Prop30
280
     1
102
RTVSPost2010PropOp30
 70
     1
102
RTVSPost2010Prop31
280
     0
102
RTVSPost2010PropOp31
 70
     1
102
RTVSPost2010Prop32
280
     0
102
RTVSPost2010PropOp32
 70
     1
102
RTVSPost2010Prop33
280
     0
102
RTVSPost2010PropOp33
 70
     1
102
RTVSPost2010Prop34
280
     0
102
RTVSPost2010PropOp34
 70
     1
102
RTVSPost2010Prop35
280
     0
102
RTVSPost2010PropOp35
 70
     1
102
RTVSPost2010Prop36
280
     0
102
RTVSPost2010PropOp36
 70
     1
102
RTVSPost2010Prop37
 90
       50
102
RTVSPost2010PropOp37
 70
     1
102
RTVSPost2010Prop38
140
0.0
102
RTVSPost2010PropOp38
 70
     1
102
RTVSPost2010Prop39
140
1.0
102
RTVSPost2010PropOp39
 70
     1
102
RTVSPost2010Prop40
 90
        0
102
RTVSPost2010PropOp40
 70
     1
102
RTVSPost2010Prop41ColorIndex
 90
       18
102
RTVSPost2010Prop41ColorRGB
 90
        0
102
RTVSPost2010PropOp41
 70
     1
102
RTVSPost2010Prop42
 90
       50
102
RTVSPost2010PropOp42
 70
     1
102
RTVSPost2010Prop43
 90
        3
102
RTVSPost2010PropOp43
 70
     1
102
RTVSPost2010Prop44ColorIndex
 90
        5
102
RTVSPost2010Prop44ColorRGB
 90
      255
102
RTVSPost2010PropOp44
 70
     1
102
RTVSPost2010Prop45
280
     0
102
RTVSPost2010PropOp45
 70
     1
102
RTVSPost2010Prop46
 90
       50
102
RTVSPost2010PropOp46
 70
     1
102
RTVSPost2010Prop47
 90
       50
102
RTVSPost2010PropOp47
 70
     1
102
RTVSPost2010Prop48
 90
       50
102
RTVSPost2010PropOp48
 70
     1
102
RTVSPost2010Prop49
280
     0
102
RTVSPost2010PropOp49
 70
     1
102
RTVSPost2010Prop50
 90
       50
102
RTVSPost2010PropOp50
 70
     1
102
RTVSPost2010Prop51ColorIndex
 90
      256
102
RTVSPost2010Prop51ColorRGB
 90
-16777216
102
RTVSPost2010PropOp51
 70
     0
102
RTVSPost2010Prop52
140
1.0
102
RTVSPost2010PropOp52
 70
     0
102
RTVSPost2010Prop53
 90
        2
102
RTVSPost2010PropOp53
 70
     1
102
RTVSPost2010Prop54
  1
strokes_ogs.tif
102
RTVSPost2010PropOp54
 70
     1
102
RTVSPost2010Prop55
280
     0
102
RTVSPost2010PropOp55
 70
     1
102
RTVSPost2010Prop56
140
1.0
102
RTVSPost2010PropOp56
 70
     1
102
RTVSPost2010Prop57
140
1.0
102
RTVSPost2010PropOp57
 70
     1
102
RTVSPropertyOp0
 70
     1
102
RTVSPropertyOp1
 70
     1
102
RTVSPropertyOp2
 70
     1
102
RTVSPropertyOp3
 70
     1
102
RTVSPropertyOp4
 70
     1
102
RTVSPropertyOp5
 70
     1
102
RTVSPropertyOp6
 70
     1
102
RTVSPropertyOp7
 70
     1
102
RTVSPropertyOp8
 70
     1
102
RTVSPropertyOp9
 70
     1
102
RTVSPropertyOp10
 70
     1
102
RTVSPropertyOp11
 70
     1
102
RTVSPropertyOp12
 70
     1
102
RTVSPropertyOp13
 70
     1
102
RTVSPropertyOp14
 70
     1
102
RTVSPropertyOp15
 70
     1
102
RTVSPropertyOp16
 70
     1
102
RTVSPropertyOp17
 70
     1
102
RTVSPropertyOp18
 70
     1
102
RTVSPropertyOp19
 70
     1
102
RTVSPropertyOp20
 70
     1
102
RTVSPropertyOp21
 70
     1
102
RTVSPropertyOp22
 70
     1
102
RTVSPropertyOp23
 70
     1
102
RTVSPropertyOp24
 70
     1
102
RTVSPropertyOp25
 70
     1
102
RTVSPropertyOp26
 70
     1
102
RTVSPropertyOp27
 70
     1
102
RTVSPropertyOp28
 70
     1
102
RTVSPropertyOp29
 70
     1
102
RTVSPropertyOp30
 70
     1
102
RTVSPropertyOp31
 70
     1
102
RTVSPropertyOp32
 70
     1
102
RTVSPropertyOp33
 70
     1
102
RTVSPropertyOp34
 70
     1
102
RTVSPropertyOp35
 70
     1
102
RTVSPropertyOp36
 70
     1
102
RTVSPropertyOp37
 70
     1
102
RTVSPropertyOp38
 70
     1
102
RTVSPropertyOp39
 70
     1
102
RTVSPropertyOp40
 70
     1
102
RTVSPropertyOp41
 70
     1
102
RTVSPropertyOp42
 70
     1
102
RTVSPropertyOp43
 70
     1
102
RTVSPropertyOp44
 70
     1
102
RTVSPropertyOp45
 70
     1
102
RTVSPropertyOp46
 70
     1
102
RTVSPropertyOp47
 70
     1
102
RTVSPropertyOp48
 70
     1
102
RTVSPropertyOp49
 70
     1
102
RTVSPropertyOp50
 70
     1
102
RTVSPropertyOp51
 70
     0
102
RTVSPropertyOp52
 70
     0
102
RTVSPropertyOp53
 70
     1
102
RTVSPropertyOp54
 70
     1
102
RTVSPropertyOp55
 70
     1
102
RTVSPropertyOp56
 70
     1
102
RTVSPropertyOp57
 70
     1
102
RTVSPropertyOp58
 70
     1
102
RTVSPropertyOp59
 70
     1
102
RTVSPropertyOp60
 70
     1
102
RTVSPropertyOp61
 70
     1
102
RTVSPropertyOp62
 70
     1
  0
XRECORD
  5
17038
102
{ACAD_REACTORS
330
17037
102
}
330
17037
100
AcDbXrecord
280
     1
102
RTVSPost2010Prop28
280
     0
102
RTVSPost2010PropOp28
 70
     1
102
RTVSPost2010Prop29
280
     1
102
RTVSPost2010PropOp29
 70
     1
102
RTVSPost2010Prop30
280
     1
102
RTVSPost2010PropOp30
 70
     1
102
RTVSPost2010Prop31
280
     0
102
RTVSPost2010PropOp31
 70
     1
102
RTVSPost2010Prop32
280
     0
102
RTVSPost2010PropOp32
 70
     1
102
RTVSPost2010Prop33
280
     0
102
RTVSPost2010PropOp33
 70
     1
102
RTVSPost2010Prop34
280
     0
102
RTVSPost2010PropOp34
 70
     1
102
RTVSPost2010Prop35
280
     0
102
RTVSPost2010PropOp35
 70
     1
102
RTVSPost2010Prop36
280
     0
102
RTVSPost2010PropOp36
 70
     1
102
RTVSPost2010Prop37
 90
       50
102
RTVSPost2010PropOp37
 70
     1
102
RTVSPost2010Prop38
140
0.0
102
RTVSPost2010PropOp38
 70
     1
102
RTVSPost2010Prop39
140
1.0
102
RTVSPost2010PropOp39
 70
     1
102
RTVSPost2010Prop40
 90
        0
102
RTVSPost2010PropOp40
 70
     1
102
RTVSPost2010Prop41ColorIndex
 90
       18
102
RTVSPost2010Prop41ColorRGB
 90
        0
102
RTVSPost2010PropOp41
 70
     1
102
RTVSPost2010Prop42
 90
       50
102
RTVSPost2010PropOp42
 70
     1
102
RTVSPost2010Prop43
 90
        3
102
RTVSPost2010PropOp43
 70
     1
102
RTVSPost2010Prop44ColorIndex
 90
        5
102
RTVSPost2010Prop44ColorRGB
 90
      255
102
RTVSPost2010PropOp44
 70
     1
102
RTVSPost2010Prop45
280
     0
102
RTVSPost2010PropOp45
 70
     1
102
RTVSPost2010Prop46
 90
       50
102
RTVSPost2010PropOp46
 70
     1
102
RTVSPost2010Prop47
 90
       50
102
RTVSPost2010PropOp47
 70
     1
102
RTVSPost2010Prop48
 90
       50
102
RTVSPost2010PropOp48
 70
     1
102
RTVSPost2010Prop49
280
     0
102
RTVSPost2010PropOp49
 70
     1
102
RTVSPost2010Prop50
 90
       50
102
RTVSPost2010PropOp50
 70
     1
102
RTVSPost2010Prop51ColorIndex
 90
      256
102
RTVSPost2010Prop51ColorRGB
 90
-16777216
102
RTVSPost2010PropOp51
 70
     0
102
RTVSPost2010Prop52
140
1.0
102
RTVSPost2010PropOp52
 70
     0
102
RTVSPost2010Prop53
 90
        2
102
RTVSPost2010PropOp53
 70
     1
102
RTVSPost2010Prop54
  1
strokes_ogs.tif
102
RTVSPost2010PropOp54
 70
     1
102
RTVSPost2010Prop55
280
     0
102
RTVSPost2010PropOp55
 70
     1
102
RTVSPost2010Prop56
140
1.0
102
RTVSPost2010PropOp56
 70
     1
102
RTVSPost2010Prop57
140
1.0
102
RTVSPost2010PropOp57
 70
     1
102
RTVSPropertyOp0
 70
     1
102
RTVSPropertyOp1
 70
     1
102
RTVSPropertyOp2
 70
     1
102
RTVSPropertyOp3
 70
     1
102
RTVSPropertyOp4
 70
     1
102
RTVSPropertyOp5
 70
     1
102
RTVSPropertyOp6
 70
     1
102
RTVSPropertyOp7
 70
     1
102
RTVSPropertyOp8
 70
     1
102
RTVSPropertyOp9
 70
     1
102
RTVSPropertyOp10
 70
     1
102
RTVSPropertyOp11
 70
     1
102
RTVSPropertyOp12
 70
     1
102
RTVSPropertyOp13
 70
     1
102
RTVSPropertyOp14
 70
     1
102
RTVSPropertyOp15
 70
     1
102
RTVSPropertyOp16
 70
     1
102
RTVSPropertyOp17
 70
     1
102
RTVSPropertyOp18
 70
     1
102
RTVSPropertyOp19
 70
     1
102
RTVSPropertyOp20
 70
     1
102
RTVSPropertyOp21
 70
     1
102
RTVSPropertyOp22
 70
     1
102
RTVSPropertyOp23
 70
     1
102
RTVSPropertyOp24
 70
     1
102
RTVSPropertyOp25
 70
     1
102
RTVSPropertyOp26
 70
     1
102
RTVSPropertyOp27
 70
     1
102
RTVSPropertyOp28
 70
     1
102
RTVSPropertyOp29
 70
     1
102
RTVSPropertyOp30
 70
     1
102
RTVSPropertyOp31
 70
     1
102
RTVSPropertyOp32
 70
     1
102
RTVSPropertyOp33
 70
     1
102
RTVSPropertyOp34
 70
     1
102
RTVSPropertyOp35
 70
     1
102
RTVSPropertyOp36
 70
     1
102
RTVSPropertyOp37
 70
     1
102
RTVSPropertyOp38
 70
     1
102
RTVSPropertyOp39
 70
     1
102
RTVSPropertyOp40
 70
     1
102
RTVSPropertyOp41
 70
     1
102
RTVSPropertyOp42
 70
     1
102
RTVSPropertyOp43
 70
     1
102
RTVSPropertyOp44
 70
     1
102
RTVSPropertyOp45
 70
     1
102
RTVSPropertyOp46
 70
     1
102
RTVSPropertyOp47
 70
     1
102
RTVSPropertyOp48
 70
     1
102
RTVSPropertyOp49
 70
     1
102
RTVSPropertyOp50
 70
     1
102
RTVSPropertyOp51
 70
     0
102
RTVSPropertyOp52
 70
     0
102
RTVSPropertyOp53
 70
     1
102
RTVSPropertyOp54
 70
     1
102
RTVSPropertyOp55
 70
     1
102
RTVSPropertyOp56
 70
     1
102
RTVSPropertyOp57
 70
     1
102
RTVSPropertyOp58
 70
     1
102
RTVSPropertyOp59
 70
     1
102
RTVSPropertyOp60
 70
     1
102
RTVSPropertyOp61
 70
     1
102
RTVSPropertyOp62
 70
     1
  0
XRECORD
  5
1702C
102
{ACAD_REACTORS
330
1702B
102
}
330
1702B
100
AcDbXrecord
280
     1
102
RTVSPost2010Prop28
280
     0
102
RTVSPost2010PropOp28
 70
     1
102
RTVSPost2010Prop29
280
     1
102
RTVSPost2010PropOp29
 70
     1
102
RTVSPost2010Prop30
280
     1
102
RTVSPost2010PropOp30
 70
     1
102
RTVSPost2010Prop31
280
     0
102
RTVSPost2010PropOp31
 70
     1
102
RTVSPost2010Prop32
280
     0
102
RTVSPost2010PropOp32
 70
     1
102
RTVSPost2010Prop33
280
     0
102
RTVSPost2010PropOp33
 70
     1
102
RTVSPost2010Prop34
280
     0
102
RTVSPost2010PropOp34
 70
     1
102
RTVSPost2010Prop35
280
     0
102
RTVSPost2010PropOp35
 70
     1
102
RTVSPost2010Prop36
280
     0
102
RTVSPost2010PropOp36
 70
     1
102
RTVSPost2010Prop37
 90
       50
102
RTVSPost2010PropOp37
 70
     1
102
RTVSPost2010Prop38
140
0.0
102
RTVSPost2010PropOp38
 70
     1
102
RTVSPost2010Prop39
140
1.0
102
RTVSPost2010PropOp39
 70
     1
102
RTVSPost2010Prop40
 90
        0
102
RTVSPost2010PropOp40
 70
     1
102
RTVSPost2010Prop41ColorIndex
 90
       18
102
RTVSPost2010Prop41ColorRGB
 90
        0
102
RTVSPost2010PropOp41
 70
     1
102
RTVSPost2010Prop42
 90
       50
102
RTVSPost2010PropOp42
 70
     1
102
RTVSPost2010Prop43
 90
        3
102
RTVSPost2010PropOp43
 70
     1
102
RTVSPost2010Prop44ColorIndex
 90
        5
102
RTVSPost2010Prop44ColorRGB
 90
      255
102
RTVSPost2010PropOp44
 70
     1
102
RTVSPost2010Prop45
280
     0
102
RTVSPost2010PropOp45
 70
     1
102
RTVSPost2010Prop46
 90
       50
102
RTVSPost2010PropOp46
 70
     1
102
RTVSPost2010Prop47
 90
       50
102
RTVSPost2010PropOp47
 70
     1
102
RTVSPost2010Prop48
 90
       50
102
RTVSPost2010PropOp48
 70
     1
102
RTVSPost2010Prop49
280
     0
102
RTVSPost2010PropOp49
 70
     1
102
RTVSPost2010Prop50
 90
       50
102
RTVSPost2010PropOp50
 70
     1
102
RTVSPost2010Prop51ColorIndex
 90
      256
102
RTVSPost2010Prop51ColorRGB
 90
-16777216
102
RTVSPost2010PropOp51
 70
     0
102
RTVSPost2010Prop52
140
1.0
102
RTVSPost2010PropOp52
 70
     0
102
RTVSPost2010Prop53
 90
        2
102
RTVSPost2010PropOp53
 70
     1
102
RTVSPost2010Prop54
  1
strokes_ogs.tif
102
RTVSPost2010PropOp54
 70
     1
102
RTVSPost2010Prop55
280
     0
102
RTVSPost2010PropOp55
 70
     1
102
RTVSPost2010Prop56
140
1.0
102
RTVSPost2010PropOp56
 70
     1
102
RTVSPost2010Prop57
140
1.0
102
RTVSPost2010PropOp57
 70
     1
102
RTVSPropertyOp0
 70
     1
102
RTVSPropertyOp1
 70
     1
102
RTVSPropertyOp2
 70
     1
102
RTVSPropertyOp3
 70
     1
102
RTVSPropertyOp4
 70
     1
102
RTVSPropertyOp5
 70
     1
102
RTVSPropertyOp6
 70
     1
102
RTVSPropertyOp7
 70
     1
102
RTVSPropertyOp8
 70
     1
102
RTVSPropertyOp9
 70
     1
102
RTVSPropertyOp10
 70
     1
102
RTVSPropertyOp11
 70
     1
102
RTVSPropertyOp12
 70
     1
102
RTVSPropertyOp13
 70
     1
102
RTVSPropertyOp14
 70
     1
102
RTVSPropertyOp15
 70
     1
102
RTVSPropertyOp16
 70
     1
102
RTVSPropertyOp17
 70
     1
102
RTVSPropertyOp18
 70
     1
102
RTVSPropertyOp19
 70
     1
102
RTVSPropertyOp20
 70
     1
102
RTVSPropertyOp21
 70
     1
102
RTVSPropertyOp22
 70
     1
102
RTVSPropertyOp23
 70
     1
102
RTVSPropertyOp24
 70
     1
102
RTVSPropertyOp25
 70
     1
102
RTVSPropertyOp26
 70
     1
102
RTVSPropertyOp27
 70
     1
102
RTVSPropertyOp28
 70
     1
102
RTVSPropertyOp29
 70
     1
102
RTVSPropertyOp30
 70
     1
102
RTVSPropertyOp31
 70
     1
102
RTVSPropertyOp32
 70
     1
102
RTVSPropertyOp33
 70
     1
102
RTVSPropertyOp34
 70
     1
102
RTVSPropertyOp35
 70
     1
102
RTVSPropertyOp36
 70
     1
102
RTVSPropertyOp37
 70
     1
102
RTVSPropertyOp38
 70
     1
102
RTVSPropertyOp39
 70
     1
102
RTVSPropertyOp40
 70
     1
102
RTVSPropertyOp41
 70
     1
102
RTVSPropertyOp42
 70
     1
102
RTVSPropertyOp43
 70
     1
102
RTVSPropertyOp44
 70
     1
102
RTVSPropertyOp45
 70
     1
102
RTVSPropertyOp46
 70
     1
102
RTVSPropertyOp47
 70
     1
102
RTVSPropertyOp48
 70
     1
102
RTVSPropertyOp49
 70
     1
102
RTVSPropertyOp50
 70
     1
102
RTVSPropertyOp51
 70
     0
102
RTVSPropertyOp52
 70
     0
102
RTVSPropertyOp53
 70
     1
102
RTVSPropertyOp54
 70
     1
102
RTVSPropertyOp55
 70
     1
102
RTVSPropertyOp56
 70
     1
102
RTVSPropertyOp57
 70
     1
102
RTVSPropertyOp58
 70
     1
102
RTVSPropertyOp59
 70
     1
102
RTVSPropertyOp60
 70
     1
102
RTVSPropertyOp61
 70
     1
102
RTVSPropertyOp62
 70
     1
  0
XRECORD
  5
17044
102
{ACAD_REACTORS
330
17043
102
}
330
17043
100
AcDbXrecord
280
     1
102
RTVSPost2010Prop28
280
     0
102
RTVSPost2010PropOp28
 70
     1
102
RTVSPost2010Prop29
280
     1
102
RTVSPost2010PropOp29
 70
     1
102
RTVSPost2010Prop30
280
     1
102
RTVSPost2010PropOp30
 70
     1
102
RTVSPost2010Prop31
280
     0
102
RTVSPost2010PropOp31
 70
     1
102
RTVSPost2010Prop32
280
     0
102
RTVSPost2010PropOp32
 70
     1
102
RTVSPost2010Prop33
280
     0
102
RTVSPost2010PropOp33
 70
     1
102
RTVSPost2010Prop34
280
     0
102
RTVSPost2010PropOp34
 70
     1
102
RTVSPost2010Prop35
280
     0
102
RTVSPost2010PropOp35
 70
     1
102
RTVSPost2010Prop36
280
     0
102
RTVSPost2010PropOp36
 70
     1
102
RTVSPost2010Prop37
 90
       50
102
RTVSPost2010PropOp37
 70
     1
102
RTVSPost2010Prop38
140
0.0
102
RTVSPost2010PropOp38
 70
     1
102
RTVSPost2010Prop39
140
1.0
102
RTVSPost2010PropOp39
 70
     1
102
RTVSPost2010Prop40
 90
        0
102
RTVSPost2010PropOp40
 70
     1
102
RTVSPost2010Prop41ColorIndex
 90
       18
102
RTVSPost2010Prop41ColorRGB
 90
        0
102
RTVSPost2010PropOp41
 70
     1
102
RTVSPost2010Prop42
 90
       50
102
RTVSPost2010PropOp42
 70
     1
102
RTVSPost2010Prop43
 90
        3
102
RTVSPost2010PropOp43
 70
     1
102
RTVSPost2010Prop44ColorIndex
 90
        5
102
RTVSPost2010Prop44ColorRGB
 90
      255
102
RTVSPost2010PropOp44
 70
     1
102
RTVSPost2010Prop45
280
     0
102
RTVSPost2010PropOp45
 70
     1
102
RTVSPost2010Prop46
 90
       50
102
RTVSPost2010PropOp46
 70
     1
102
RTVSPost2010Prop47
 90
       50
102
RTVSPost2010PropOp47
 70
     1
102
RTVSPost2010Prop48
 90
       50
102
RTVSPost2010PropOp48
 70
     1
102
RTVSPost2010Prop49
280
     0
102
RTVSPost2010PropOp49
 70
     1
102
RTVSPost2010Prop50
 90
       50
102
RTVSPost2010PropOp50
 70
     1
102
RTVSPost2010Prop51ColorIndex
 90
      256
102
RTVSPost2010Prop51ColorRGB
 90
-16777216
102
RTVSPost2010PropOp51
 70
     0
102
RTVSPost2010Prop52
140
1.0
102
RTVSPost2010PropOp52
 70
     0
102
RTVSPost2010Prop53
 90
        2
102
RTVSPost2010PropOp53
 70
     1
102
RTVSPost2010Prop54
  1
strokes_ogs.tif
102
RTVSPost2010PropOp54
 70
     1
102
RTVSPost2010Prop55
280
     0
102
RTVSPost2010PropOp55
 70
     1
102
RTVSPost2010Prop56
140
1.0
102
RTVSPost2010PropOp56
 70
     1
102
RTVSPost2010Prop57
140
1.0
102
RTVSPost2010PropOp57
 70
     1
102
RTVSPropertyOp0
 70
     1
102
RTVSPropertyOp1
 70
     1
102
RTVSPropertyOp2
 70
     1
102
RTVSPropertyOp3
 70
     1
102
RTVSPropertyOp4
 70
     1
102
RTVSPropertyOp5
 70
     1
102
RTVSPropertyOp6
 70
     1
102
RTVSPropertyOp7
 70
     1
102
RTVSPropertyOp8
 70
     1
102
RTVSPropertyOp9
 70
     1
102
RTVSPropertyOp10
 70
     1
102
RTVSPropertyOp11
 70
     1
102
RTVSPropertyOp12
 70
     1
102
RTVSPropertyOp13
 70
     1
102
RTVSPropertyOp14
 70
     1
102
RTVSPropertyOp15
 70
     1
102
RTVSPropertyOp16
 70
     1
102
RTVSPropertyOp17
 70
     1
102
RTVSPropertyOp18
 70
     1
102
RTVSPropertyOp19
 70
     1
102
RTVSPropertyOp20
 70
     1
102
RTVSPropertyOp21
 70
     1
102
RTVSPropertyOp22
 70
     1
102
RTVSPropertyOp23
 70
     1
102
RTVSPropertyOp24
 70
     1
102
RTVSPropertyOp25
 70
     1
102
RTVSPropertyOp26
 70
     1
102
RTVSPropertyOp27
 70
     1
102
RTVSPropertyOp28
 70
     1
102
RTVSPropertyOp29
 70
     1
102
RTVSPropertyOp30
 70
     1
102
RTVSPropertyOp31
 70
     1
102
RTVSPropertyOp32
 70
     1
102
RTVSPropertyOp33
 70
     1
102
RTVSPropertyOp34
 70
     1
102
RTVSPropertyOp35
 70
     1
102
RTVSPropertyOp36
 70
     1
102
RTVSPropertyOp37
 70
     1
102
RTVSPropertyOp38
 70
     1
102
RTVSPropertyOp39
 70
     1
102
RTVSPropertyOp40
 70
     1
102
RTVSPropertyOp41
 70
     1
102
RTVSPropertyOp42
 70
     1
102
RTVSPropertyOp43
 70
     1
102
RTVSPropertyOp44
 70
     1
102
RTVSPropertyOp45
 70
     1
102
RTVSPropertyOp46
 70
     1
102
RTVSPropertyOp47
 70
     1
102
RTVSPropertyOp48
 70
     1
102
RTVSPropertyOp49
 70
     1
102
RTVSPropertyOp50
 70
     1
102
RTVSPropertyOp51
 70
     0
102
RTVSPropertyOp52
 70
     0
102
RTVSPropertyOp53
 70
     1
102
RTVSPropertyOp54
 70
     1
102
RTVSPropertyOp55
 70
     1
102
RTVSPropertyOp56
 70
     1
102
RTVSPropertyOp57
 70
     1
102
RTVSPropertyOp58
 70
     1
102
RTVSPropertyOp59
 70
     1
102
RTVSPropertyOp60
 70
     1
102
RTVSPropertyOp61
 70
     1
102
RTVSPropertyOp62
 70
     1
  0
ENDSEC
  0
EOF
