  0
SECTION
  2
HEADER
  9
$ACADVER
  1
AC1015
  9
$ACADMAINTVER
 70
    20
  9
$DWGCODEPAGE
  3
ANSI_932
  9
$INSBASE
 10
0.0
 20
0.0
 30
0.0
  9
$EXTMIN
 10
10.0
 20
9.999999999999998
 30
0.0
  9
$EXTMAX
 10
369.6256169999998
 20
272.654083
 30
0.0
  9
$LIMMIN
 10
0.0
 20
0.0
  9
$LIMMAX
 10
495.0
 20
341.25
  9
$ORTHOMODE
 70
     1
  9
$REGENMODE
 70
     1
  9
$FILLMODE
 70
     1
  9
$QTEXTMODE
 70
     0
  9
$MIRRTEXT
 70
     1
  9
$LTSCALE
 40
20.0
  9
$ATTMODE
 70
     1
  9
$TEXTSIZE
 40
5.0
  9
$TRACEWID
 40
1.0
  9
$TEXTSTYLE
  7
STANDARD
  9
$CLAYER
  8
0
  9
$CELTYPE
  6
BYLAYER
  9
$CECOLOR
 62
   256
  9
$CELTSCALE
 40
1.0
  9
$DISPSILH
 70
     0
  9
$DIMSCALE
 40
1.0
  9
$DIMASZ
 40
3.0
  9
$DIMEXO
 40
1.0
  9
$DIMDLI
 40
10.0
  9
$DIMRND
 40
0.0
  9
$DIMDLE
 40
0.0
  9
$DIMEXE
 40
1.0
  9
$DIMTP
 40
0.0
  9
$DIMTM
 40
0.0
  9
$DIMTXT
 40
3.2
  9
$DIMCEN
 40
0.0
  9
$DIMTSZ
 40
0.0
  9
$DIMTOL
 70
     0
  9
$DIMLIM
 70
     0
  9
$DIMTIH
 70
     0
  9
$DIMTOH
 70
     0
  9
$DIMSE1
 70
     0
  9
$DIMSE2
 70
     0
  9
$DIMTAD
 70
     3
  9
$DIMZIN
 70
     8
  9
$DIMBLK
  1

  9
$DIMASO
 70
     1
  9
$DIMSHO
 70
     1
  9
$DIMPOST
  1

  9
$DIMAPOST
  1

  9
$DIMALT
 70
     0
  9
$DIMALTD
 70
     2
  9
$DIMALTF
 40
25.4
  9
$DIMLFAC
 40
1.0
  9
$DIMTOFL
 70
     1
  9
$DIMTVP
 40
0.0
  9
$DIMTIX
 70
     0
  9
$DIMSOXD
 70
     0
  9
$DIMSAH
 70
     1
  9
$DIMBLK1
  1
OPEN
  9
$DIMBLK2
  1
OPEN
  9
$DIMSTYLE
  2
STANDARD
  9
$DIMCLRD
 70
     0
  9
$DIMCLRE
 70
     0
  9
$DIMCLRT
 70
     0
  9
$DIMTFAC
 40
1.0
  9
$DIMGAP
 40
1.0
  9
$DIMJUST
 70
     0
  9
$DIMSD1
 70
     0
  9
$DIMSD2
 70
     0
  9
$DIMTOLJ
 70
     1
  9
$DIMTZIN
 70
     0
  9
$DIMALTZ
 70
     0
  9
$DIMALTTZ
 70
     0
  9
$DIMUPT
 70
     0
  9
$DIMDEC
 70
     4
  9
$DIMTDEC
 70
     4
  9
$DIMALTU
 70
     2
  9
$DIMALTTD
 70
     2
  9
$DIMTXSTY
  7
STANDARD
  9
$DIMAUNIT
 70
     0
  9
$DIMADEC
 70
     0
  9
$DIMALTRND
 40
0.0
  9
$DIMAZIN
 70
     0
  9
$DIMDSEP
 70
    46
  9
$DIMATFIT
 70
     3
  9
$DIMFRAC
 70
     0
  9
$DIMLDRBLK
  1
OPEN
  9
$DIMLUNIT
 70
     2
  9
$DIMLWD
 70
    -2
  9
$DIMLWE
 70
    -2
  9
$DIMTMOVE
 70
     0
  9
$LUNITS
 70
     2
  9
$LUPREC
 70
     4
  9
$SKETCHINC
 40
1.0
  9
$FILLETRAD
 40
12.0
  9
$AUNITS
 70
     0
  9
$AUPREC
 70
     2
  9
$MENU
  1
.
  9
$ELEVATION
 40
0.0
  9
$PELEVATION
 40
0.0
  9
$THICKNESS
 40
0.0
  9
$LIMCHECK
 70
     0
  9
$CHAMFERA
 40
10.0
  9
$CHAMFERB
 40
10.0
  9
$CHAMFERC
 40
0.0
  9
$CHAMFERD
 40
0.0
  9
$SKPOLY
 70
     0
  9
$TDCREATE
 40
2451301.382498149
  9
$TDUCREATE
 40
2451301.007498149
  9
$TDUPDATE
 40
2457192.686768102
  9
$TDUUPDATE
 40
2457192.311768102
  9
$TDINDWG
 40
0.0000105903
  9
$TDUSRTIMER
 40
0.0000101042
  9
$USRTIMER
 70
     1
  9
$ANGBASE
 50
0.0
  9
$ANGDIR
 70
     0
  9
$PDMODE
 70
     0
  9
$PDSIZE
 40
0.0
  9
$PLINEWID
 40
0.0
  9
$SPLFRAME
 70
     0
  9
$SPLINETYPE
 70
     6
  9
$SPLINESEGS
 70
     8
  9
$HANDSEED
  5
B293
  9
$SURFTAB1
 70
     6
  9
$SURFTAB2
 70
     6
  9
$SURFTYPE
 70
     6
  9
$SURFU
 70
     6
  9
$SURFV
 70
     6
  9
$UCSBASE
  2

  9
$UCSNAME
  2

  9
$UCSORG
 10
0.0
 20
0.0
 30
0.0
  9
$UCSXDIR
 10
1.0
 20
0.0
 30
0.0
  9
$UCSYDIR
 10
0.0
 20
1.0
 30
0.0
  9
$UCSORTHOREF
  2

  9
$UCSORTHOVIEW
 70
     0
  9
$UCSORGTOP
 10
0.0
 20
0.0
 30
0.0
  9
$UCSORGBOTTOM
 10
0.0
 20
0.0
 30
0.0
  9
$UCSORGLEFT
 10
0.0
 20
0.0
 30
0.0
  9
$UCSORGRIGHT
 10
0.0
 20
0.0
 30
0.0
  9
$UCSORGFRONT
 10
0.0
 20
0.0
 30
0.0
  9
$UCSORGBACK
 10
0.0
 20
0.0
 30
0.0
  9
$PUCSBASE
  2

  9
$PUCSNAME
  2

  9
$PUCSORG
 10
0.0
 20
0.0
 30
0.0
  9
$PUCSXDIR
 10
1.0
 20
0.0
 30
0.0
  9
$PUCSYDIR
 10
0.0
 20
1.0
 30
0.0
  9
$PUCSORTHOREF
  2

  9
$PUCSORTHOVIEW
 70
     0
  9
$PUCSORGTOP
 10
0.0
 20
0.0
 30
0.0
  9
$PUCSORGBOTTOM
 10
0.0
 20
0.0
 30
0.0
  9
$PUCSORGLEFT
 10
0.0
 20
0.0
 30
0.0
  9
$PUCSORGRIGHT
 10
0.0
 20
0.0
 30
0.0
  9
$PUCSORGFRONT
 10
0.0
 20
0.0
 30
0.0
  9
$PUCSORGBACK
 10
0.0
 20
0.0
 30
0.0
  9
$USERI1
 70
     0
  9
$USERI2
 70
     0
  9
$USERI3
 70
     0
  9
$USERI4
 70
     0
  9
$USERI5
 70
     0
  9
$USERR1
 40
0.0
  9
$USERR2
 40
0.0
  9
$USERR3
 40
0.0
  9
$USERR4
 40
0.0
  9
$USERR5
 40
0.0
  9
$WORLDVIEW
 70
     1
  9
$SHADEDGE
 70
     3
  9
$SHADEDIF
 70
    70
  9
$TILEMODE
 70
     1
  9
$MAXACTVP
 70
    16
  9
$PINSBASE
 10
0.0
 20
0.0
 30
0.0
  9
$PLIMCHECK
 70
     0
  9
$PEXTMIN
 10
1.000000000000000E+20
 20
1.000000000000000E+20
 30
1.000000000000000E+20
  9
$PEXTMAX
 10
-1.000000000000000E+20
 20
-1.000000000000000E+20
 30
-1.000000000000000E+20
  9
$PLIMMIN
 10
0.0
 20
0.0
  9
$PLIMMAX
 10
420.0
 20
297.0
  9
$UNITMODE
 70
     0
  9
$VISRETAIN
 70
     0
  9
$PLINEGEN
 70
     0
  9
$PSLTSCALE
 70
     0
  9
$TREEDEPTH
 70
  3020
  9
$CMLSTYLE
  2
STANDARD
  9
$CMLJUST
 70
     0
  9
$CMLSCALE
 40
1.0
  9
$PROXYGRAPHICS
 70
     1
  9
$MEASUREMENT
 70
     0
  9
$CELWEIGHT
370
    -1
  9
$ENDCAPS
280
     0
  9
$JOINSTYLE
280
     0
  9
$LWDISPLAY
290
     0
  9
$INSUNITS
 70
     0
  9
$HYPERLINKBASE
  1

  9
$STYLESHEET
  1

  9
$XEDIT
290
     1
  9
$CEPSNTYPE
380
     0
  9
$PSTYLEMODE
290
     1
  9
$FINGERPRINTGUID
  2
{1F67614E-6B21-4AB3-B901-CC1115AC6F9A}
  9
$VERSIONGUID
  2
{74E7134F-5981-450A-BD25-8D062B78F6DB}
  9
$EXTNAMES
290
     1
  9
$PSVPSCALE
 40
0.0
  9
$OLESTARTUP
290
     0
  0
ENDSEC
  0
SECTION
  2
CLASSES
  0
CLASS
  1
ACDBDICTIONARYWDFLT
  2
AcDbDictionaryWithDefault
  3
ObjectDBX Classes
 90
        0
280
     0
281
     0
  0
CLASS
  1
ACDBPLACEHOLDER
  2
AcDbPlaceHolder
  3
ObjectDBX Classes
 90
        0
280
     0
281
     0
  0
CLASS
  1
LAYOUT
  2
AcDbLayout
  3
ObjectDBX Classes
 90
        0
280
     0
281
     0
  0
CLASS
  1
DICTIONARYVAR
  2
AcDbDictionaryVar
  3
ObjectDBX Classes
 90
        0
280
     0
281
     0
  0
CLASS
  1
MATERIAL
  2
AcDbMaterial
  3
ObjectDBX Classes
 90
     1153
280
     0
281
     0
  0
CLASS
  1
VISUALSTYLE
  2
AcDbVisualStyle
  3
ObjectDBX Classes
 90
     4095
280
     0
281
     0
  0
CLASS
  1
TABLESTYLE
  2
AcDbTableStyle
  3
ObjectDBX Classes
 90
     4095
280
     0
281
     0
  0
CLASS
  1
SCALE
  2
AcDbScale
  3
ObjectDBX Classes
 90
     1153
280
     0
281
     0
  0
CLASS
  1
MLEADERSTYLE
  2
AcDbMLeaderStyle
  3
ACDB_MLEADERSTYLE_CLASS
 90
     4095
280
     0
281
     0
  0
CLASS
  1
ACDBSECTIONVIEWSTYLE
  2
AcDbSectionViewStyle
  3
ObjectDBX Classes
 90
     1025
280
     0
281
     0
  0
CLASS
  1
ACDBDETAILVIEWSTYLE
  2
AcDbDetailViewStyle
  3
ObjectDBX Classes
 90
     1025
280
     0
281
     0
  0
CLASS
  1
CELLSTYLEMAP
  2
AcDbCellStyleMap
  3
ObjectDBX Classes
 90
     1152
280
     0
281
     0
  0
ENDSEC
  0
SECTION
  2
TABLES
  0
TABLE
  2
VPORT
  5
AF30
330
0
100
AcDbSymbolTable
 70
     1
  0
VPORT
  5
B1DC
330
AF30
100
AcDbSymbolTableRecord
100
AcDbViewportTableRecord
  2
*ACTIVE
 70
     0
 10
0.0
 20
0.0
 11
1.0
 21
1.0
 12
269.3712685864137
 22
141.3222606633757
 13
0.0
 23
0.0
 14
10.0
 24
10.0
 15
10.0
 25
10.0
 16
0.0
 26
0.0
 36
1.0
 17
0.0
 27
0.0
 37
0.0
 40
265.572664263215
 41
2.35006605019815
 42
50.0
 43
0.0
 44
0.0
 50
0.0
 51
0.0
 71
     0
 72
   100
 73
     1
 74
     0
 75
     0
 76
     0
 77
     0
 78
     0
281
     0
 65
     1
110
0.0
120
0.0
130
0.0
111
1.0
121
0.0
131
0.0
112
0.0
122
1.0
132
0.0
 79
     0
146
0.0
1001
ACAD_NAV_VCDISPLAY
1070
     3
  0
ENDTAB
  0
TABLE
  2
LTYPE
  5
AF2D
330
0
100
AcDbSymbolTable
 70
     4
  0
LTYPE
  5
AF3B
330
AF2D
100
AcDbSymbolTableRecord
100
AcDbLinetypeTableRecord
  2
BYBLOCK
 70
     0
  3

 72
    65
 73
     0
 40
0.0
  0
LTYPE
  5
AF3C
330
AF2D
100
AcDbSymbolTableRecord
100
AcDbLinetypeTableRecord
  2
BYLAYER
 70
     0
  3

 72
    65
 73
     0
 40
0.0
  0
LTYPE
  5
AF3D
330
AF2D
100
AcDbSymbolTableRecord
100
AcDbLinetypeTableRecord
  2
CONTINUOUS
 70
     0
  3
Solid line
 72
    65
 73
     0
 40
0.0
  0
LTYPE
  5
AF4B
330
AF2D
100
AcDbSymbolTableRecord
100
AcDbLinetypeTableRecord
  2
DASHED
 70
     0
  3
__ __ __ __ __ __ __ __ __ __ __ __ __ __ __ __
 72
    65
 73
     2
 40
0.75
 49
0.5
 74
     0
 49
-0.25
 74
     0
  0
LTYPE
  5
AF4C
330
AF2D
100
AcDbSymbolTableRecord
100
AcDbLinetypeTableRecord
  2
CENTER
 70
     0
  3
____ _ ____ _ ____ _ ____ _ ____ _ ____ _ ____ 
 72
    65
 73
     4
 40
2.0
 49
1.25
 74
     0
 49
-0.25
 74
     0
 49
0.25
 74
     0
 49
-0.25
 74
     0
  0
LTYPE
  5
AF4D
330
AF2D
100
AcDbSymbolTableRecord
100
AcDbLinetypeTableRecord
  2
PHANTOM
 70
     0
  3
______  __  __  ______  __  __  ______  __  __ 
 72
    65
 73
     6
 40
2.5
 49
1.25
 74
     0
 49
-0.25
 74
     0
 49
0.25
 74
     0
 49
-0.25
 74
     0
 49
0.25
 74
     0
 49
-0.25
 74
     0
  0
ENDTAB
  0
TABLE
  2
LAYER
  5
AF2A
330
0
100
AcDbSymbolTable
 70
     8
  0
LAYER
  5
AF38
102
{ACAD_XDICTIONARY
360
B237
102
}
330
AF2A
100
AcDbSymbolTableRecord
100
AcDbLayerTableRecord
  2
0
 70
     0
 62
     7
  6
CONTINUOUS
370
    -3
390
B1E5
  0
LAYER
  5
AF4E
102
{ACAD_XDICTIONARY
360
B239
102
}
330
AF2A
100
AcDbSymbolTableRecord
100
AcDbLayerTableRecord
  2
4
 70
     0
 62
     1
  6
CENTER
370
    -3
390
B1E5
  0
LAYER
  5
AF4F
102
{ACAD_XDICTIONARY
360
B23B
102
}
330
AF2A
100
AcDbSymbolTableRecord
100
AcDbLayerTableRecord
  2
5
 70
     0
 62
     6
  6
PHANTOM
370
    -3
390
B1E5
  0
LAYER
  5
AF50
102
{ACAD_XDICTIONARY
360
B23D
102
}
330
AF2A
100
AcDbSymbolTableRecord
100
AcDbLayerTableRecord
  2
1
 70
     0
 62
     7
  6
CONTINUOUS
370
    -3
390
B1E5
  0
LAYER
  5
AF51
102
{ACAD_XDICTIONARY
360
B23F
102
}
330
AF2A
100
AcDbSymbolTableRecord
100
AcDbLayerTableRecord
  2
2
 70
     0
 62
     4
  6
CONTINUOUS
370
    -3
390
B1E5
  0
LAYER
  5
AF52
102
{ACAD_XDICTIONARY
360
B241
102
}
330
AF2A
100
AcDbSymbolTableRecord
100
AcDbLayerTableRecord
  2
3
 70
     0
 62
     2
  6
DASHED
370
    -3
390
B1E5
  0
LAYER
  5
AF53
102
{ACAD_XDICTIONARY
360
B243
102
}
330
AF2A
100
AcDbSymbolTableRecord
100
AcDbLayerTableRecord
  2
6
 70
     0
 62
     5
  6
CONTINUOUS
370
    -3
390
B1E5
  0
LAYER
  5
AF54
102
{ACAD_XDICTIONARY
360
B245
102
}
330
AF2A
100
AcDbSymbolTableRecord
100
AcDbLayerTableRecord
  2
7
 70
     0
 62
     3
  6
CONTINUOUS
370
    -3
390
B1E5
  0
ENDTAB
  0
TABLE
  2
STYLE
  5
AF2B
330
0
100
AcDbSymbolTable
 70
     1
  0
STYLE
  5
AF39
330
AF2B
100
AcDbSymbolTableRecord
100
AcDbTextStyleTableRecord
  2
STANDARD
 70
     0
 40
0.0
 41
1.0
 50
0.0
 71
     0
 42
5.0
  3
txt
  4

  0
ENDTAB
  0
TABLE
  2
VIEW
  5
AF2E
330
0
100
AcDbSymbolTable
 70
     0
  0
ENDTAB
  0
TABLE
  2
UCS
  5
AF2F
330
0
100
AcDbSymbolTable
 70
     0
  0
ENDTAB
  0
TABLE
  2
APPID
  5
AF31
330
0
100
AcDbSymbolTable
 70
     3
  0
APPID
  5
AF3A
330
AF31
100
AcDbSymbolTableRecord
100
AcDbRegAppTableRecord
  2
ACAD
 70
     0
  0
APPID
  5
B251
330
AF31
100
AcDbSymbolTableRecord
100
AcDbRegAppTableRecord
  2
ACAD_NAV_VCDISPLAY
 70
     0
  0
APPID
  5
B28A
330
AF31
100
AcDbSymbolTableRecord
100
AcDbRegAppTableRecord
  2
ACAD_MLEADERVER
 70
     0
  0
ENDTAB
  0
TABLE
  2
DIMSTYLE
  5
AF32
330
0
100
AcDbSymbolTable
 70
     1
100
AcDbDimStyleTable
 71
     0
  0
DIMSTYLE
105
AF56
330
AF32
100
AcDbSymbolTableRecord
100
AcDbDimStyleTableRecord
  2
STANDARD
 70
     0
 41
3.0
 42
1.0
 43
10.0
 44
1.0
 73
     0
 74
     0
 77
     3
 78
     8
140
3.2
141
0.0
147
1.0
172
     1
173
     1
284
     8
285
     8
286
     8
340
AF39
  0
ENDTAB
  0
TABLE
  2
BLOCK_RECORD
  5
AF29
330
0
100
AcDbSymbolTable
 70
     1
  0
BLOCK_RECORD
  5
AF46
102
{ACAD_XDICTIONARY
360
B1DF
102
}
330
AF29
100
AcDbSymbolTableRecord
100
AcDbBlockTableRecord
  2
*MODEL_SPACE
340
B233
  0
BLOCK_RECORD
  5
AF42
102
{ACAD_XDICTIONARY
360
B1DD
102
}
330
AF29
100
AcDbSymbolTableRecord
100
AcDbBlockTableRecord
  2
*PAPER_SPACE
340
B234
  0
BLOCK_RECORD
  5
AF5E
330
AF29
100
AcDbSymbolTableRecord
100
AcDbBlockTableRecord
  2
_OPEN
340
0
  0
ENDTAB
  0
ENDSEC
  0
SECTION
  2
BLOCKS
  0
BLOCK
  5
AF47
330
AF46
100
AcDbEntity
  8
0
100
AcDbBlockBegin
  2
*MODEL_SPACE
 70
     0
 10
0.0
 20
0.0
 30
0.0
  3
*MODEL_SPACE
  1

  0
ENDBLK
  5
AF48
330
AF46
100
AcDbEntity
  8
0
100
AcDbBlockEnd
  0
BLOCK
  5
AF43
330
AF42
100
AcDbEntity
 67
     1
  8
0
100
AcDbBlockBegin
  2
*PAPER_SPACE
 70
     0
 10
0.0
 20
0.0
 30
0.0
  3
*PAPER_SPACE
  1

  0
ENDBLK
  5
AF44
330
AF42
100
AcDbEntity
 67
     1
  8
0
100
AcDbBlockEnd
  0
BLOCK
  5
AF5F
330
AF5E
100
AcDbEntity
  8
0
100
AcDbBlockBegin
  2
_OPEN
 70
     0
 10
0.0
 20
0.0
 30
0.0
  3
_OPEN
  1

  0
LINE
  5
AF60
330
AF5E
100
AcDbEntity
  8
0
  6
ByBlock
 62
     0
100
AcDbLine
 10
-1.0
 20
0.166667
 30
0.0
 11
0.0
 21
0.0
 31
0.0
  0
LINE
  5
AF61
330
AF5E
100
AcDbEntity
  8
0
  6
ByBlock
 62
     0
100
AcDbLine
 10
0.0
 20
0.0
 30
0.0
 11
-1.0
 21
-0.166667
 31
0.0
  0
LINE
  5
AF62
330
AF5E
100
AcDbEntity
  8
0
  6
ByBlock
 62
     0
100
AcDbLine
 10
0.0
 20
0.0
 30
0.0
 11
-1.0
 21
0.0
 31
0.0
  0
ENDBLK
  5
AF63
330
AF5E
100
AcDbEntity
  8
0
100
AcDbBlockEnd
  0
ENDSEC
  0
SECTION
  2
ENTITIES
  0
TEXT
  5
AF64
330
AF46
100
AcDbEntity
  8
7
  6
Continuous
100
AcDbText
 10
10.0
 20
18.0
 30
0.0
 40
3.0
  1
TYPE No.104-N
100
AcDbText
  0
TEXT
  5
AF65
330
AF46
100
AcDbEntity
  8
7
  6
Continuous
100
AcDbText
 10
10.0
 20
26.0
 30
0.0
 40
3.0
  1
CODE No.9053
100
AcDbText
  0
TEXT
  5
AF66
330
AF46
100
AcDbEntity
  8
1
  6
Continuous
100
AcDbText
 10
10.0
 20
10.0
 30
0.0
 40
1.399999999999999
  1
LAYER
100
AcDbText
  0
TEXT
  5
AF67
330
AF46
100
AcDbEntity
  8
1
  6
Continuous
100
AcDbText
 10
17.97951099999998
 20
10.04873699999998
 30
0.0
 40
1.399999999999999
  1
1
100
AcDbText
  0
TEXT
  5
AF68
330
AF46
100
AcDbEntity
  8
7
  6
Continuous
100
AcDbText
 10
29.97951099999999
 20
10.04873699999998
 30
0.0
 40
1.399999999999999
  1
7
100
AcDbText
  0
TEXT
  5
AF69
330
AF46
100
AcDbEntity
  8
4
  6
CENTER
100
AcDbText
 10
23.97951099999999
 20
10.04873699999998
 30
0.0
 40
1.399999999999999
  1
4
100
AcDbText
  0
TEXT
  5
AF6A
330
AF46
100
AcDbEntity
  8
3
  6
DASHED
100
AcDbText
 10
21.979511
 20
10.04873699999998
 30
0.0
 40
1.399999999999999
  1
3
100
AcDbText
  0
TEXT
  5
AF6B
330
AF46
100
AcDbEntity
  8
2
  6
Continuous
100
AcDbText
 10
19.97951099999999
 20
10.04873699999998
 30
0.0
 40
1.399999999999999
  1
2
100
AcDbText
  0
TEXT
  5
AF6C
330
AF46
100
AcDbEntity
  8
6
  6
Continuous
100
AcDbText
 10
27.979511
 20
10.04873699999998
 30
0.0
 40
1.399999999999999
  1
6
100
AcDbText
  0
TEXT
  5
AF6D
330
AF46
100
AcDbEntity
  8
5
  6
PHANTOM
100
AcDbText
 10
25.97951099999999
 20
10.04873699999998
 30
0.0
 40
1.399999999999999
  1
5
100
AcDbText
  0
LINE
  5
AF6E
330
AF46
100
AcDbEntity
  8
4
  6
CENTER
100
AcDbLine
 10
214.273585
 20
148.369317
 30
0.0
 11
257.7601399999999
 21
148.369317
 31
0.0
  0
LINE
  5
AF6F
330
AF46
100
AcDbEntity
  8
4
  6
CENTER
100
AcDbLine
 10
129.408073
 20
120.3698759999999
 30
0.0
 11
129.408073
 21
176.369876
 31
0.0
  0
LINE
  5
AF70
330
AF46
100
AcDbEntity
  8
4
  6
CENTER
100
AcDbLine
 10
101.408073
 20
148.369876
 30
0.0
 11
157.408073
 21
148.369876
 31
0.0
  0
ARC
  5
AF71
330
AF46
100
AcDbEntity
  8
1
  6
Continuous
100
AcDbCircle
 10
129.408073
 20
148.369876
 30
0.0
 40
25.0
100
AcDbArc
 50
98.15888300000001
 51
34.430256
  0
ARC
  5
AF72
330
AF46
100
AcDbEntity
  8
1
  6
Continuous
100
AcDbCircle
 10
129.408073
 20
148.369876
 30
0.0
 40
19.5
100
AcDbArc
 50
103.048216
 51
27.689818
  0
LINE
  5
AF73
330
AF46
100
AcDbEntity
  8
4
  6
CENTER
100
AcDbLine
 10
149.4081879999999
 20
164.545231
 30
0.0
 11
149.4081879999999
 21
194.9908529999999
 31
0.0
  0
LINE
  5
AF74
330
AF46
100
AcDbEntity
  8
4
  6
CENTER
100
AcDbLine
 10
183.908626
 20
246.654083
 30
0.0
 11
99.41836700000001
 21
246.654083
 31
0.0
  0
LINE
  5
AF75
330
AF46
100
AcDbEntity
  8
1
  6
Continuous
100
AcDbLine
 10
121.908626
 20
225.654083
 30
0.0
 11
176.9086259999999
 21
225.654083
 31
0.0
  0
LINE
  5
AF76
330
AF46
100
AcDbEntity
  8
1
  6
Continuous
100
AcDbLine
 10
121.908626
 20
267.6540829999999
 30
0.0
 11
176.9086259999999
 21
267.6540829999999
 31
0.0
  0
LINE
  5
AF77
330
AF46
100
AcDbEntity
  8
4
  6
CENTER
100
AcDbLine
 10
149.4086259999999
 20
272.654083
 30
0.0
 11
149.4086259999999
 21
220.522338
 31
0.0
  0
LINE
  5
AF78
330
AF46
100
AcDbEntity
  8
1
  6
Continuous
100
AcDbLine
 10
119.4086259999999
 20
265.154083
 30
0.0
 11
119.4086259999999
 21
228.154083
 31
0.0
  0
ARC
  5
AF79
330
AF46
100
AcDbEntity
  8
1
  6
Continuous
100
AcDbCircle
 10
204.4090339999999
 20
246.654083
 30
0.0
 40
100.0
100
AcDbArc
 50
174.730718
 51
185.269282
  0
CIRCLE
  5
AF7A
330
AF46
100
AcDbEntity
  8
1
  6
Continuous
100
AcDbCircle
 10
149.4086259999999
 20
246.654083
 30
0.0
 40
8.5
  0
LINE
  5
AF7B
330
AF46
100
AcDbEntity
  8
4
  6
CENTER
100
AcDbLine
 10
132.1586259999999
 20
232.1540829999999
 30
0.0
 11
119.6586259999999
 21
232.1540829999999
 31
0.0
  0
CIRCLE
  5
AF7C
330
AF46
100
AcDbEntity
  8
1
  6
Continuous
100
AcDbCircle
 10
125.9086259999999
 20
232.1540829999999
 30
0.0
 40
3.25
  0
LINE
  5
AF7D
330
AF46
100
AcDbEntity
  8
1
  6
Continuous
100
AcDbLine
 10
119.4086259999999
 20
235.654083
 30
0.0
 11
106.8231739999999
 21
235.654083
 31
0.0
  0
ARC
  5
AF7E
330
AF46
100
AcDbEntity
  8
1
  6
Continuous
100
AcDbCircle
 10
106.8231739999999
 20
237.654083
 30
0.0
 40
2.0
100
AcDbArc
 50
185.269282
 51
270.0
  0
LINE
  5
AF7F
330
AF46
100
AcDbEntity
  8
4
  6
CENTER
100
AcDbLine
 10
125.9086259999999
 20
238.4040829999999
 30
0.0
 11
125.9086259999999
 21
225.9040829999999
 31
0.0
  0
ARC
  5
AF80
330
AF46
100
AcDbEntity
  8
1
  6
Continuous
100
AcDbCircle
 10
121.908626
 20
228.154083
 30
0.0
 40
2.5
100
AcDbArc
 50
180.0
 51
270.0
  0
LINE
  5
AF81
330
AF46
100
AcDbEntity
  8
4
  6
CENTER
100
AcDbLine
 10
132.1586259999999
 20
261.154083
 30
0.0
 11
119.6586259999999
 21
261.154083
 31
0.0
  0
CIRCLE
  5
AF82
330
AF46
100
AcDbEntity
  8
1
  6
Continuous
100
AcDbCircle
 10
125.9086259999999
 20
261.154083
 30
0.0
 40
3.25
  0
LINE
  5
AF83
330
AF46
100
AcDbEntity
  8
4
  6
CENTER
100
AcDbLine
 10
125.9086259999999
 20
254.904083
 30
0.0
 11
125.9086259999999
 21
267.404083
 31
0.0
  0
ARC
  5
AF84
330
AF46
100
AcDbEntity
  8
1
  6
Continuous
100
AcDbCircle
 10
121.908626
 20
265.154083
 30
0.0
 40
2.5
100
AcDbArc
 50
90.0
 51
180.0
  0
LINE
  5
AF85
330
AF46
100
AcDbEntity
  8
1
  6
Continuous
100
AcDbLine
 10
119.4086259999999
 20
257.654083
 30
0.0
 11
106.8231739999999
 21
257.654083
 31
0.0
  0
ARC
  5
AF86
330
AF46
100
AcDbEntity
  8
1
  6
Continuous
100
AcDbCircle
 10
106.8231739999999
 20
255.654083
 30
0.0
 40
2.0
100
AcDbArc
 50
90.0
 51
174.730718
  0
LINE
  5
AF87
330
AF46
100
AcDbEntity
  8
4
  6
CENTER
100
AcDbLine
 10
179.158626
 20
232.1540829999999
 30
0.0
 11
166.658626
 21
232.1540829999999
 31
0.0
  0
LINE
  5
AF88
330
AF46
100
AcDbEntity
  8
4
  6
CENTER
100
AcDbLine
 10
172.908626
 20
238.4040829999999
 30
0.0
 11
172.908626
 21
225.9040829999999
 31
0.0
  0
CIRCLE
  5
AF89
330
AF46
100
AcDbEntity
  8
1
  6
Continuous
100
AcDbCircle
 10
172.908626
 20
232.1540829999999
 30
0.0
 40
3.25
  0
ARC
  5
AF8A
330
AF46
100
AcDbEntity
  8
1
  6
Continuous
100
AcDbCircle
 10
176.9086259999999
 20
228.154083
 30
0.0
 40
2.5
100
AcDbArc
 50
270.0
 51
0.0
  0
LINE
  5
AF8B
330
AF46
100
AcDbEntity
  8
4
  6
CENTER
100
AcDbLine
 10
172.908626
 20
254.904083
 30
0.0
 11
172.908626
 21
267.404083
 31
0.0
  0
ARC
  5
AF8C
330
AF46
100
AcDbEntity
  8
1
  6
Continuous
100
AcDbCircle
 10
176.9086259999999
 20
265.154083
 30
0.0
 40
2.5
100
AcDbArc
 50
0.0
 51
90.0
  0
LINE
  5
AF8D
330
AF46
100
AcDbEntity
  8
4
  6
CENTER
100
AcDbLine
 10
179.158626
 20
261.154083
 30
0.0
 11
166.658626
 21
261.154083
 31
0.0
  0
CIRCLE
  5
AF8E
330
AF46
100
AcDbEntity
  8
1
  6
Continuous
100
AcDbCircle
 10
172.908626
 20
261.154083
 30
0.0
 40
3.25
  0
LINE
  5
AF8F
330
AF46
100
AcDbEntity
  8
1
  6
Continuous
100
AcDbLine
 10
179.408626
 20
265.154083
 30
0.0
 11
179.408626
 21
228.154083
 31
0.0
  0
LINE
  5
AF90
330
AF46
100
AcDbEntity
  8
4
  6
CENTER
100
AcDbLine
 10
235.5168449999999
 20
194.9908529999999
 30
0.0
 11
235.5168449999999
 21
118.3693169999999
 31
0.0
  0
LINE
  5
AF91
330
AF46
100
AcDbEntity
  8
1
  6
Continuous
100
AcDbLine
 10
254.5168449999999
 20
179.471458
 30
0.0
 11
254.5168449999999
 21
157.6942949999998
 31
0.0
  0
LINE
  5
AF92
330
AF46
100
AcDbEntity
  8
1
  6
Continuous
100
AcDbLine
 10
246.853669
 20
142.2964629999998
 30
0.0
 11
246.5168449999999
 21
142.2370719999999
 31
0.0
  0
LINE
  5
AF93
330
AF46
100
AcDbEntity
  8
1
  6
Continuous
100
AcDbLine
 10
246.853669
 20
154.4421709999998
 30
0.0
 11
246.5168449999999
 21
154.501562
 31
0.0
  0
ARC
  5
AF94
330
AF46
100
AcDbEntity
  8
1
  6
Continuous
100
AcDbCircle
 10
244.516845
 20
125.783457
 30
0.0
 40
2.0
100
AcDbArc
 50
275.2692819999999
 51
0.0
  0
LINE
  5
AF95
330
AF46
100
AcDbEntity
  8
1
  6
Continuous
100
AcDbLine
 10
246.5168449999999
 20
170.955177
 30
0.0
 11
246.5168449999999
 21
125.783457
 31
0.0
  0
LINE
  5
AF96
330
AF46
100
AcDbEntity
  8
1
  6
Continuous
100
AcDbLine
 10
224.5168449999999
 20
170.955177
 30
0.0
 11
224.5168449999999
 21
125.783457
 31
0.0
  0
ARC
  5
AF97
330
AF46
100
AcDbEntity
  8
1
  6
Continuous
100
AcDbCircle
 10
235.5168449999999
 20
223.369317
 30
0.0
 40
100.0
100
AcDbArc
 50
264.730718
 51
275.2692819999999
  0
ARC
  5
AF98
330
AF46
100
AcDbEntity
  8
1
  6
Continuous
100
AcDbCircle
 10
226.5168449999999
 20
125.783457
 30
0.0
 40
2.0
100
AcDbArc
 50
180.0
 51
264.730718
  0
LINE
  5
AF99
330
AF46
100
AcDbEntity
  8
1
  6
Continuous
100
AcDbLine
 10
223.766845
 20
153.9497669999998
 30
0.0
 11
223.766845
 21
142.7888669999999
 31
0.0
  0
LINE
  5
AF9A
330
AF46
100
AcDbEntity
  8
1
  6
Continuous
100
AcDbLine
 10
222.777577
 20
145.369317
 30
0.0
 11
223.766845
 21
145.369317
 31
0.0
  0
ARC
  5
AF9B
330
AF46
100
AcDbEntity
  8
1
  6
Continuous
100
AcDbCircle
 10
224.266845
 20
142.7888669999999
 30
0.0
 40
0.5
100
AcDbArc
 50
180.0
 51
260.0
  0
LINE
  5
AF9C
330
AF46
100
AcDbEntity
  8
1
  6
Continuous
100
AcDbLine
 10
224.180021
 20
142.2964629999998
 30
0.0
 11
224.5168449999999
 21
142.2370719999999
 31
0.0
  0
LINE
  5
AF9D
330
AF46
100
AcDbEntity
  8
1
  6
Continuous
100
AcDbLine
 10
222.7650619999999
 20
151.3693169999999
 30
0.0
 11
223.766845
 21
151.3693169999999
 31
0.0
  0
ARC
  5
AF9E
330
AF46
100
AcDbEntity
  8
1
  6
Continuous
100
AcDbCircle
 10
224.266845
 20
153.9497669999998
 30
0.0
 40
0.5
100
AcDbArc
 50
100.0
 51
180.0
  0
LINE
  5
AF9F
330
AF46
100
AcDbEntity
  8
1
  6
Continuous
100
AcDbLine
 10
224.180021
 20
154.4421709999998
 30
0.0
 11
224.5168449999999
 21
154.501562
 31
0.0
  0
ARC
  5
AFA0
330
AF46
100
AcDbEntity
  8
1
  6
Continuous
100
AcDbCircle
 10
246.766845
 20
142.7888669999999
 30
0.0
 40
0.5
100
AcDbArc
 50
280.0
 51
0.0
  0
ARC
  5
AFA1
330
AF46
100
AcDbEntity
  8
1
  6
Continuous
100
AcDbCircle
 10
246.766845
 20
153.9497669999998
 30
0.0
 40
0.5
100
AcDbArc
 50
0.0
 51
80.0
  0
LINE
  5
AFA2
330
AF46
100
AcDbEntity
  8
1
  6
Continuous
100
AcDbLine
 10
222.1195209999999
 20
175.7677069999998
 30
0.0
 11
248.9141689999999
 21
175.7677069999998
 31
0.0
  0
ARC
  5
AFA3
330
AF46
100
AcDbEntity
  8
1
  6
Continuous
100
AcDbCircle
 10
244.516845
 20
170.955177
 30
0.0
 40
2.0
100
AcDbArc
 50
0.0
 51
84.73071800000003
  0
LINE
  5
AFA4
330
AF46
100
AcDbEntity
  8
1
  6
Continuous
100
AcDbLine
 10
217.0168449999999
 20
182.471527
 30
0.0
 11
254.0168449999999
 21
182.471312
 31
0.0
  0
ARC
  5
AFA5
330
AF46
100
AcDbEntity
  8
1
  6
Continuous
100
AcDbCircle
 10
219.516845
 20
179.471458
 30
0.0
 40
3.0
100
AcDbArc
 50
90.0
 51
180.0
  0
ARC
  5
AFA6
330
AF46
100
AcDbEntity
  8
1
  6
Continuous
100
AcDbCircle
 10
235.5168449999999
 20
73.36931699999998
 30
0.0
 40
100.0
100
AcDbArc
 50
84.73071800000003
 51
95.26928199999998
  0
ARC
  5
AFA7
330
AF46
100
AcDbEntity
  8
1
  6
Continuous
100
AcDbCircle
 10
226.5168449999999
 20
170.955177
 30
0.0
 40
2.0
100
AcDbArc
 50
95.26928199999998
 51
180.0
  0
ARC
  5
AFA8
330
AF46
100
AcDbEntity
  8
1
  6
Continuous
100
AcDbCircle
 10
239.257325
 20
166.1760909999999
 30
0.0
 40
13.262575
100
AcDbArc
 50
4.189117999999997
 51
46.32007700000001
  0
ARC
  5
AFA9
330
AF46
100
AcDbEntity
  8
1
  6
Continuous
100
AcDbCircle
 10
240.398089
 20
166.259645
 30
0.0
 40
14.11875499999999
100
AcDbArc
 50
0.0
 51
33.136856
  0
ARC
  5
AFAA
330
AF46
100
AcDbEntity
  8
1
  6
Continuous
100
AcDbCircle
 10
240.398089
 20
166.259645
 30
0.0
 40
12.118755
100
AcDbArc
 50
3.236625
 51
4.189117999999997
  0
ARC
  5
AFAB
330
AF46
100
AcDbEntity
  8
1
  6
Continuous
100
AcDbCircle
 10
248.9141689999999
 20
171.8190169999998
 30
0.0
 40
3.94869
100
AcDbArc
 50
33.136856
 51
90.0
  0
ARC
  5
AFAC
330
AF46
100
AcDbEntity
  8
1
  6
Continuous
100
AcDbCircle
 10
251.5168449999999
 20
179.471458
 30
0.0
 40
3.0
100
AcDbArc
 50
0.0
 51
90.0
  0
LINE
  5
AFAD
330
AF46
100
AcDbEntity
  8
1
  6
Continuous
100
AcDbLine
 10
179.408188
 20
188.369573
 30
0.0
 11
119.4081879999999
 21
188.369573
 31
0.0
  0
LINE
  5
AFAE
330
AF46
100
AcDbEntity
  8
1
  6
Continuous
100
AcDbLine
 10
179.408188
 20
190.369876
 30
0.0
 11
119.4081879999999
 21
190.369876
 31
0.0
  0
LINE
  5
AFAF
330
AF46
100
AcDbEntity
  8
1
  6
Continuous
100
AcDbLine
 10
165.977136
 20
182.498601
 30
0.0
 11
133.1581879999999
 21
182.498601
 31
0.0
  0
ARC
  5
AFB0
330
AF46
100
AcDbEntity
  8
1
  6
Continuous
100
AcDbCircle
 10
86.23925600000005
 20
212.636803
 30
0.0
 40
81.299728
100
AcDbArc
 50
325.0367509999999
 51
326.0955629999999
  0
ARC
  5
AFB1
330
AF46
100
AcDbEntity
  8
1
  6
Continuous
100
AcDbCircle
 10
158.8771219999999
 20
199.8073149999999
 30
0.0
 40
25.564794
100
AcDbArc
 50
277.268991
 51
287.097823
  0
ARC
  5
AFB2
330
AF46
100
AcDbEntity
  8
1
  6
Continuous
100
AcDbCircle
 10
166.121929
 20
147.5912319999999
 30
0.0
 40
27.174347
100
AcDbArc
 50
99.24101300000003
 51
101.2621379999999
  0
ARC
  5
AFB3
330
AF46
100
AcDbEntity
  8
1
  6
Continuous
100
AcDbCircle
 10
161.3085289999999
 20
180.7453689999999
 30
0.0
 40
6.348405999999997
100
AcDbArc
 50
274.060533
 51
277.268991
  0
ARC
  5
AFB4
330
AF46
100
AcDbEntity
  8
1
  6
Continuous
100
AcDbCircle
 10
176.1203489999998
 20
152.2291109999999
 30
0.0
 40
26.994778
100
AcDbArc
 50
137.7128429999999
 51
146.0955629999999
  0
ARC
  5
AFB5
330
AF46
100
AcDbEntity
  8
1
  6
Continuous
100
AcDbCircle
 10
112.6187849999999
 20
209.985074
 30
0.0
 40
58.84344099999999
100
AcDbArc
 50
317.712843
 51
320.298966
  0
ARC
  5
AFB6
330
AF46
100
AcDbEntity
  8
1
  6
Continuous
100
AcDbCircle
 10
164.236996
 20
165.997031
 30
0.0
 40
9.035839999999996
100
AcDbArc
 50
119.5473379999999
 51
131.621551
  0
ARC
  5
AFB7
330
AF46
100
AcDbEntity
  8
1
  6
Continuous
100
AcDbCircle
 10
161.492693
 20
170.838233
 30
0.0
 40
3.470911
100
AcDbArc
 50
101.2621379999999
 51
119.5473379999999
  0
ARC
  5
AFB8
330
AF46
100
AcDbEntity
  8
1
  6
Continuous
100
AcDbCircle
 10
160.401972
 20
170.313251
 30
0.0
 40
3.262005999999998
100
AcDbArc
 50
131.621551
 51
140.2989659999998
  0
ARC
  5
AFB9
330
AF46
100
AcDbEntity
  8
1
  6
Continuous
100
AcDbCircle
 10
163.1690709999998
 20
179.01377
 30
0.0
 40
4.757115999999999
100
AcDbArc
 50
16.00725999999999
 51
38.156408
  0
ARC
  5
AFBA
330
AF46
100
AcDbEntity
  8
1
  6
Continuous
100
AcDbCircle
 10
166.509469
 20
175.8890879999999
 30
0.0
 40
0.529613
100
AcDbArc
 50
257.3263379999999
 51
291.788685
  0
ARC
  5
AFBB
330
AF46
100
AcDbEntity
  8
1
  6
Continuous
100
AcDbCircle
 10
167.0381159999998
 20
185.499407
 30
0.0
 40
10.10755199999998
100
AcDbArc
 50
268.1173269999998
 51
270.623572
  0
LINE
  5
AFBC
330
AF46
100
AcDbEntity
  8
1
  6
Continuous
100
AcDbLine
 10
167.206219
 20
175.3819969999999
 30
0.0
 11
167.148119
 21
175.3924529999999
 31
0.0
  0
ARC
  5
AFBD
330
AF46
100
AcDbEntity
  8
1
  6
Continuous
100
AcDbCircle
 10
175.0779459999999
 20
178.5241919999999
 30
0.0
 40
6.985907
100
AcDbArc
 50
178.5787389999999
 51
186.9819969999998
  0
ARC
  5
AFBE
330
AF46
100
AcDbEntity
  8
1
  6
Continuous
100
AcDbCircle
 10
163.301721
 20
178.4759019999999
 30
0.0
 40
4.797585999999999
100
AcDbArc
 50
2.646974999999998
 51
17.117355
  0
ARC
  5
AFBF
330
AF46
100
AcDbEntity
  8
1
  6
Continuous
100
AcDbCircle
 10
157.549482
 20
176.704375
 30
0.0
 40
10.81643699999998
100
AcDbArc
 50
17.117355
 51
19.559647
  0
ARC
  5
AFC0
330
AF46
100
AcDbEntity
  8
1
  6
Continuous
100
AcDbCircle
 10
165.337872
 20
180.3367859999999
 30
0.0
 40
2.254351999999999
100
AcDbArc
 50
45.79309799999999
 51
73.52670899999998
  0
LINE
  5
AFC1
330
AF46
100
AcDbEntity
  8
1
  6
Continuous
100
AcDbLine
 10
134.864046
 20
178.2874209999999
 30
0.0
 11
134.864046
 21
149.0709879999998
 31
0.0
  0
CIRCLE
  5
AFC2
330
AF46
100
AcDbEntity
  8
1
  6
Continuous
100
AcDbCircle
 10
129.408073
 20
148.369876
 30
0.0
 40
4.25
  0
ARC
  5
AFC3
330
AF46
100
AcDbEntity
  8
1
  6
Continuous
100
AcDbCircle
 10
130.257608
 20
147.3515769999998
 30
0.0
 40
8.139077
100
AcDbArc
 50
172.1743569999999
 51
327.525749
  0
ARC
  5
AFC4
330
AF46
100
AcDbEntity
  8
1
  6
Continuous
100
AcDbCircle
 10
141.173177
 20
174.2241459999999
 30
0.0
 40
14.267886
100
AcDbArc
 50
314.297457
 51
325.0367509999999
  0
ARC
  5
AFC5
330
AF46
100
AcDbEntity
  8
1
  6
Continuous
100
AcDbCircle
 10
154.0360189999999
 20
161.041931
 30
0.0
 40
4.150134999999997
100
AcDbArc
 50
134.297457
 51
146.0310519999999
  0
LINE
  5
AFC6
330
AF46
100
AcDbEntity
  8
1
  6
Continuous
100
AcDbLine
 10
128.275711
 20
179.6524039999999
 30
0.0
 11
134.8762309999999
 21
179.6524039999999
 31
0.0
  0
ARC
  5
AFC7
330
AF46
100
AcDbEntity
  8
1
  6
Continuous
100
AcDbCircle
 10
128.275711
 20
185.919971
 30
0.0
 40
6.267566999999997
100
AcDbArc
 50
267.0048919999999
 51
274.398035
  0
ARC
  5
AFC8
330
AF46
100
AcDbEntity
  8
1
  6
Continuous
100
AcDbCircle
 10
133.756876
 20
178.155862
 30
0.0
 40
4.359511999999998
100
AcDbArc
 50
95.027632
 51
153.6752799999999
  0
ARC
  5
AFC9
330
AF46
100
AcDbEntity
  8
1
  6
Continuous
100
AcDbCircle
 10
129.485943
 20
180.1001079999998
 30
0.0
 40
0.409037
100
AcDbArc
 50
274.019213
 51
314.03143
  0
ARC
  5
AFCA
330
AF46
100
AcDbEntity
  8
1
  6
Continuous
100
AcDbCircle
 10
128.884097
 20
188.665634
 30
0.0
 40
8.995680999999997
100
AcDbArc
 50
269.1862479999999
 51
274.019213
  0
ARC
  5
AFCB
330
AF46
100
AcDbEntity
  8
1
  6
Continuous
100
AcDbCircle
 10
129.600515
 20
179.9815949999999
 30
0.0
 40
0.2441969999999999
100
AcDbArc
 50
314.03143
 51
351.316759
  0
ARC
  5
AFCC
330
AF46
100
AcDbEntity
  8
1
  6
Continuous
100
AcDbCircle
 10
129.1209529999999
 20
180.0548349999999
 30
0.0
 40
0.72932
100
AcDbArc
 50
351.316759
 51
2.694649
  0
ARC
  5
AFCD
330
AF46
100
AcDbEntity
  8
1
  6
Continuous
100
AcDbCircle
 10
123.287655
 20
178.2456399999999
 30
0.0
 40
1.132387999999999
100
AcDbArc
 50
350.4059339999998
 51
9.422450999999998
  0
ARC
  5
AFCE
330
AF46
100
AcDbEntity
  8
1
  6
Continuous
100
AcDbCircle
 10
124.828965
 20
177.963741
 30
0.0
 40
0.434857
100
AcDbArc
 50
167.628646
 51
207.2064849999999
  0
ARC
  5
AFCF
330
AF46
100
AcDbEntity
  8
1
  6
Continuous
100
AcDbCircle
 10
69.608378
 20
180.630882
 30
0.0
 40
54.840528
100
AcDbArc
 50
357.7010379999999
 51
358.7006819999999
  0
ARC
  5
AFD0
330
AF46
100
AcDbEntity
  8
1
  6
Continuous
100
AcDbCircle
 10
124.743789
 20
178.329744
 30
0.0
 40
0.640285
100
AcDbArc
 50
241.9011839999999
 51
272.3403379999999
  0
ARC
  5
AFD1
330
AF46
100
AcDbEntity
  8
1
  6
Continuous
100
AcDbCircle
 10
125.0337429999998
 20
178.744698
 30
0.0
 40
0.9207059999999998
100
AcDbArc
 50
103.0833209999999
 51
126.033477
  0
ARC
  5
AFD2
330
AF46
100
AcDbEntity
  8
1
  6
Continuous
100
AcDbCircle
 10
124.5747229999999
 20
179.3757089999998
 30
0.0
 40
0.140401
100
AcDbArc
 50
126.033477
 51
175.244581
  0
ARC
  5
AFD3
330
AF46
100
AcDbEntity
  8
1
  6
Continuous
100
AcDbCircle
 10
125.275484
 20
177.704509
 30
0.0
 40
1.988615
100
AcDbArc
 50
88.74659499999998
 51
103.0833209999999
  0
ARC
  5
AFD4
330
AF46
100
AcDbEntity
  8
1
  6
Continuous
100
AcDbCircle
 10
126.964977
 20
160.868749
 30
0.0
 40
18.81792199999998
100
AcDbArc
 50
87.00489199999998
 51
90.39154600000001
  0
ARC
  5
AFD5
330
AF46
100
AcDbEntity
  8
1
  6
Continuous
100
AcDbCircle
 10
126.3676889999999
 20
248.2698109999998
 30
0.0
 40
68.58518100000001
100
AcDbArc
 50
269.1238819999999
 51
270.391546
  0
ARC
  5
AFD6
330
AF46
100
AcDbEntity
  8
1
  6
Continuous
100
AcDbCircle
 10
231.7763649999999
 20
166.1760909999999
 30
0.0
 40
13.262575
100
AcDbArc
 50
133.679923
 51
177.089232
  0
ARC
  5
AFD7
330
AF46
100
AcDbEntity
  8
1
  6
Continuous
100
AcDbCircle
 10
222.1195209999999
 20
171.8190169999998
 30
0.0
 40
3.94869
100
AcDbArc
 50
90.0
 51
146.863144
  0
ARC
  5
AFD8
330
AF46
100
AcDbEntity
  8
1
  6
Continuous
100
AcDbCircle
 10
230.635601
 20
166.259645
 30
0.0
 40
14.11875499999999
100
AcDbArc
 50
146.863144
 51
180.0
  0
ARC
  5
AFD9
330
AF46
100
AcDbEntity
  8
1
  6
Continuous
100
AcDbCircle
 10
297.4320859999999
 20
162.4823079999999
 30
0.0
 40
79.02195899999998
100
AcDbArc
 50
176.7633749999999
 51
183.473732
  0
LINE
  5
AFDA
330
AF46
100
AcDbEntity
  8
1
  6
Continuous
100
AcDbLine
 10
216.5168449999999
 20
179.471458
 30
0.0
 11
216.5168449999999
 21
157.6942949999998
 31
0.0
  0
LINE
  5
AFDB
330
AF46
100
AcDbEntity
  8
1
  6
Continuous
100
AcDbLine
 10
220.793099
 20
139.2125
 30
0.0
 11
222.616845
 21
139.2125
 31
0.0
  0
ARC
  5
AFDC
330
AF46
100
AcDbEntity
  8
1
  6
Continuous
100
AcDbCircle
 10
126.486768
 20
489.3778189999999
 30
0.0
 40
311.6925539999999
100
AcDbArc
 50
269.6734769999998
 51
270.0096049999999
  0
CIRCLE
  5
AFDD
330
AF46
100
AcDbEntity
  8
1
  6
Continuous
100
AcDbCircle
 10
149.4086259999999
 20
246.654083
 30
0.0
 40
15.25
  0
CIRCLE
  5
AFDE
330
AF46
100
AcDbEntity
  8
1
  6
Continuous
100
AcDbCircle
 10
149.4086259999999
 20
246.654083
 30
0.0
 40
16.89999999999999
  0
LINE
  5
AFDF
330
AF46
100
AcDbEntity
  8
4
  6
CENTER
100
AcDbLine
 10
125.9081879999999
 20
183.369573
 30
0.0
 11
125.9081879999999
 21
194.9908529999999
 31
0.0
  0
LINE
  5
AFE0
330
AF46
100
AcDbEntity
  8
4
  6
CENTER
100
AcDbLine
 10
172.908188
 20
183.369573
 30
0.0
 11
172.908188
 21
194.9908529999999
 31
0.0
  0
LINE
  5
AFE1
330
AF46
100
AcDbEntity
  8
1
  6
Continuous
100
AcDbLine
 10
119.4081879999999
 20
188.369573
 30
0.0
 11
119.4081879999999
 21
190.369876
 31
0.0
  0
LINE
  5
AFE2
330
AF46
100
AcDbEntity
  8
1
  6
Continuous
100
AcDbLine
 10
179.408188
 20
188.369573
 30
0.0
 11
179.408188
 21
190.369876
 31
0.0
  0
LINE
  5
AFE3
330
AF46
100
AcDbEntity
  8
1
  6
Continuous
100
AcDbLine
 10
247.266845
 20
153.9497669999998
 30
0.0
 11
247.266845
 21
142.7888669999999
 31
0.0
  0
LINE
  5
AFE4
330
AF46
100
AcDbEntity
  8
1
  6
Continuous
100
AcDbLine
 10
247.266845
 20
151.3693169999999
 30
0.0
 11
248.2677269999999
 21
151.3693169999999
 31
0.0
  0
LINE
  5
AFE5
330
AF46
100
AcDbEntity
  8
1
  6
Continuous
100
AcDbLine
 10
247.266845
 20
145.369317
 30
0.0
 11
248.255212
 21
145.369317
 31
0.0
  0
LINE
  5
AFE6
330
AF46
100
AcDbEntity
  8
1
  6
Continuous
100
AcDbLine
 10
126.83638
 20
179.6862319999999
 30
0.0
 11
122.182483
 21
148.369876
 31
0.0
  0
LINE
  5
AFE7
330
AF46
100
AcDbEntity
  8
1
  6
Continuous
100
AcDbLine
 10
150.5941439999998
 20
163.360793
 30
0.0
 11
137.124
 21
142.98154
 31
0.0
  0
ARC
  5
AFE8
330
AF46
100
AcDbEntity
  8
1
  6
Continuous
100
AcDbCircle
 10
57.762867
 20
148.38967
 30
0.0
 40
6.779940999999999
100
AcDbArc
 50
321.02474
 51
38.73053499999999
  0
ARC
  5
AFE9
330
AF46
100
AcDbEntity
  8
1
  6
Continuous
100
AcDbCircle
 10
37.827067
 20
148.375191
 30
0.0
 40
6.770832999999998
100
AcDbArc
 50
141.11993
 51
218.8800699999999
  0
LINE
  5
AFEA
330
AF46
100
AcDbEntity
  8
1
  6
Continuous
100
AcDbLine
 10
32.55623400000001
 20
152.625191
 30
0.0
 11
32.55623400000001
 21
144.125191
 31
0.0
  0
LINE
  5
AFEB
330
AF46
100
AcDbEntity
  8
1
  6
Continuous
100
AcDbLine
 10
59.299511
 20
170.961051
 30
0.0
 11
59.299511
 21
125.789331
 31
0.0
  0
LINE
  5
AFEC
330
AF46
100
AcDbEntity
  8
1
  6
Continuous
100
AcDbLine
 10
37.29951099999999
 20
170.961051
 30
0.0
 11
37.29951099999999
 21
125.789331
 31
0.0
  0
ARC
  5
AFED
330
AF46
100
AcDbEntity
  8
1
  6
Continuous
100
AcDbCircle
 10
50.227455
 20
157.7001689999999
 30
0.0
 40
17.07205599999999
100
AcDbArc
 50
326.9847009999998
 51
0.0
  0
LINE
  5
AFEE
330
AF46
100
AcDbEntity
  8
1
  6
Continuous
100
AcDbLine
 10
63.105595
 20
178.1810189999999
 30
0.0
 11
63.02324399999999
 21
139.2125
 31
0.0
  0
LINE
  5
AFEF
330
AF46
100
AcDbEntity
  8
1
  6
Continuous
100
AcDbLine
 10
61.101434
 20
176.213919
 30
0.0
 11
61.023239
 21
139.2125
 31
0.0
  0
ARC
  5
AFF0
330
AF46
100
AcDbEntity
  8
1
  6
Continuous
100
AcDbCircle
 10
46.371567
 20
157.7001689999999
 30
0.0
 40
17.07205599999999
100
AcDbArc
 50
180.0
 51
207.4135329999998
  0
LINE
  5
AFF1
330
AF46
100
AcDbEntity
  8
1
  6
Continuous
100
AcDbLine
 10
33.49342699999999
 20
178.1810189999999
 30
0.0
 11
33.575778
 21
139.2125
 31
0.0
  0
LINE
  5
AFF2
330
AF46
100
AcDbEntity
  8
1
  6
Continuous
100
AcDbLine
 10
35.497588
 20
176.213919
 30
0.0
 11
35.575783
 21
139.2125
 31
0.0
  0
LINE
  5
AFF3
330
AF46
100
AcDbEntity
  8
4
  6
CENTER
100
AcDbLine
 10
26.056234
 20
148.375191
 30
0.0
 11
69.542799
 21
148.375191
 31
0.0
  0
LINE
  5
AFF4
330
AF46
100
AcDbEntity
  8
1
  6
Continuous
100
AcDbLine
 10
36.962687
 20
142.3023369999999
 30
0.0
 11
37.29951099999999
 21
142.2429459999999
 31
0.0
  0
ARC
  5
AFF5
330
AF46
100
AcDbEntity
  8
1
  6
Continuous
100
AcDbCircle
 10
39.29951099999998
 20
125.789331
 30
0.0
 40
2.0
100
AcDbArc
 50
180.0
 51
264.730718
  0
LINE
  5
AFF6
330
AF46
100
AcDbEntity
  8
1
  6
Continuous
100
AcDbLine
 10
36.54951099999999
 20
153.9556409999998
 30
0.0
 11
36.54951099999999
 21
142.7947409999999
 31
0.0
  0
LINE
  5
AFF7
330
AF46
100
AcDbEntity
  8
1
  6
Continuous
100
AcDbLine
 10
32.55623400000001
 20
144.125191
 30
0.0
 11
33.56530999999999
 21
144.125191
 31
0.0
  0
LINE
  5
AFF8
330
AF46
100
AcDbEntity
  8
1
  6
Continuous
100
AcDbLine
 10
35.56264500000001
 20
145.375191
 30
0.0
 11
36.54996099999999
 21
145.375191
 31
0.0
  0
ARC
  5
AFF9
330
AF46
100
AcDbEntity
  8
1
  6
Continuous
100
AcDbCircle
 10
37.04951099999997
 20
142.7947409999999
 30
0.0
 40
0.5
100
AcDbArc
 50
180.0
 51
260.0
  0
ARC
  5
AFFA
330
AF46
100
AcDbEntity
  8
1
  6
Continuous
100
AcDbCircle
 10
37.04951099999997
 20
142.7947409999999
 30
0.0
 40
0.5
100
AcDbArc
 50
180.0
 51
260.0
  0
LINE
  5
AFFB
330
AF46
100
AcDbEntity
  8
1
  6
Continuous
100
AcDbLine
 10
35.54983099999999
 20
151.375191
 30
0.0
 11
36.54996099999999
 21
151.375191
 31
0.0
  0
ARC
  5
AFFC
330
AF46
100
AcDbEntity
  8
1
  6
Continuous
100
AcDbCircle
 10
48.29951099999998
 20
223.375191
 30
0.0
 40
100.0
100
AcDbArc
 50
264.730718
 51
275.269983
  0
ARC
  5
AFFD
330
AF46
100
AcDbEntity
  8
1
  6
Continuous
100
AcDbCircle
 10
57.299511
 20
125.789331
 30
0.0
 40
2.0
100
AcDbArc
 50
275.2692819999999
 51
0.0
  0
LINE
  5
AFFE
330
AF46
100
AcDbEntity
  8
1
  6
Continuous
100
AcDbLine
 10
60.04951099999999
 20
153.9556409999998
 30
0.0
 11
60.04951099999999
 21
142.7947409999999
 31
0.0
  0
LINE
  5
AFFF
330
AF46
100
AcDbEntity
  8
1
  6
Continuous
100
AcDbLine
 10
60.04996099999999
 20
145.375191
 30
0.0
 11
61.036377
 21
145.375191
 31
0.0
  0
ARC
  5
B000
330
AF46
100
AcDbEntity
  8
1
  6
Continuous
100
AcDbCircle
 10
59.54951099999998
 20
142.7947409999999
 30
0.0
 40
0.5
100
AcDbArc
 50
280.0
 51
0.0
  0
LINE
  5
B001
330
AF46
100
AcDbEntity
  8
1
  6
Continuous
100
AcDbLine
 10
59.636335
 20
142.3023369999999
 30
0.0
 11
59.299511
 21
142.2429459999999
 31
0.0
  0
ARC
  5
B002
330
AF46
100
AcDbEntity
  8
1
  6
Continuous
100
AcDbCircle
 10
59.54951099999998
 20
142.7947409999999
 30
0.0
 40
0.5
100
AcDbArc
 50
280.0
 51
0.0
  0
LINE
  5
B003
330
AF46
100
AcDbEntity
  8
1
  6
Continuous
100
AcDbLine
 10
59.636335
 20
142.3023369999999
 30
0.0
 11
59.299511
 21
142.2429459999999
 31
0.0
  0
LINE
  5
B004
330
AF46
100
AcDbEntity
  8
1
  6
Continuous
100
AcDbLine
 10
60.04996099999999
 20
151.375191
 30
0.0
 11
61.049191
 21
151.375191
 31
0.0
  0
ARC
  5
B005
330
AF46
100
AcDbEntity
  8
1
  6
Continuous
100
AcDbCircle
 10
73.804074
 20
142.884994
 30
0.0
 40
10.77298599999999
100
AcDbArc
 50
147.8553939999999
 51
149.280112
  0
LINE
  5
B006
330
AF46
100
AcDbEntity
  8
1
  6
Continuous
100
AcDbLine
 10
34.986252
 20
184.0850069999999
 30
0.0
 11
36.986252
 21
182.4717729999999
 31
0.0
  0
LINE
  5
B007
330
AF46
100
AcDbEntity
  8
1
  6
Continuous
100
AcDbLine
 10
37.57203899999999
 20
184.0850069999999
 30
0.0
 11
35.57203899999999
 21
182.4717729999999
 31
0.0
  0
LINE
  5
B008
330
AF46
100
AcDbEntity
  8
1
  6
Continuous
100
AcDbLine
 10
36.962687
 20
154.448045
 30
0.0
 11
37.29951099999999
 21
154.507436
 31
0.0
  0
ARC
  5
B009
330
AF46
100
AcDbEntity
  8
1
  6
Continuous
100
AcDbCircle
 10
39.29951099999998
 20
170.961051
 30
0.0
 40
2.0
100
AcDbArc
 50
95.26928199999998
 51
180.0
  0
LINE
  5
B00A
330
AF46
100
AcDbEntity
  8
1
  6
Continuous
100
AcDbLine
 10
30.57502899999999
 20
186.048113
 30
0.0
 11
66.02489300000001
 21
186.048113
 31
0.0
  0
LINE
  5
B00B
330
AF46
100
AcDbEntity
  8
1
  6
Continuous
100
AcDbLine
 10
29.799961
 20
184.0850069999999
 30
0.0
 11
66.799961
 21
184.0850069999999
 31
0.0
  0
LINE
  5
B00C
330
AF46
100
AcDbEntity
  8
1
  6
Continuous
100
AcDbLine
 10
66.799961
 20
182.4717729999999
 30
0.0
 11
29.799961
 21
182.4717729999999
 31
0.0
  0
LINE
  5
B00D
330
AF46
100
AcDbEntity
  8
1
  6
Continuous
100
AcDbLine
 10
30.368731
 20
186.35962
 30
0.0
 11
66.060535
 21
186.35962
 31
0.0
  0
LINE
  5
B00E
330
AF46
100
AcDbEntity
  8
1
  6
Continuous
100
AcDbLine
 10
27.299961
 20
188.375175
 30
0.0
 11
69.299961
 21
188.375175
 31
0.0
  0
LINE
  5
B00F
330
AF46
100
AcDbEntity
  8
1
  6
Continuous
100
AcDbLine
 10
27.299961
 20
190.3751749999999
 30
0.0
 11
69.299961
 21
190.3751749999999
 31
0.0
  0
LINE
  5
B010
330
AF46
100
AcDbEntity
  8
1
  6
Continuous
100
AcDbLine
 10
34.99342399999999
 20
179.684189
 30
0.0
 11
61.605598
 21
179.684189
 31
0.0
  0
LINE
  5
B011
330
AF46
100
AcDbEntity
  8
1
  6
Continuous
100
AcDbLine
 10
29.299511
 20
179.972115
 30
0.0
 11
29.299511
 21
157.7001689999999
 31
0.0
  0
LINE
  5
B012
330
AF46
100
AcDbEntity
  8
1
  6
Continuous
100
AcDbLine
 10
32.55623400000001
 20
152.625191
 30
0.0
 11
33.54715699999999
 21
152.625191
 31
0.0
  0
ARC
  5
B013
330
AF46
100
AcDbEntity
  8
1
  6
Continuous
100
AcDbCircle
 10
37.04951099999997
 20
153.9556409999998
 30
0.0
 40
0.5
100
AcDbArc
 50
100.0
 51
180.0
  0
ARC
  5
B014
330
AF46
100
AcDbEntity
  8
1
  6
Continuous
100
AcDbCircle
 10
37.04951099999997
 20
153.9556409999998
 30
0.0
 40
0.5
100
AcDbArc
 50
100.0
 51
180.0
  0
ARC
  5
B015
330
AF46
100
AcDbEntity
  8
1
  6
Continuous
100
AcDbCircle
 10
30.53938699999999
 20
189.9706199999999
 30
0.0
 40
3.611
100
AcDbArc
 50
206.220637
 51
270.0
  0
ARC
  5
B016
330
AF46
100
AcDbEntity
  8
1
  6
Continuous
100
AcDbCircle
 10
31.799511
 20
179.972115
 30
0.0
 40
2.5
100
AcDbArc
 50
90.0
 51
180.0
  0
LINE
  5
B017
330
AF46
100
AcDbEntity
  8
1
  6
Continuous
100
AcDbLine
 10
32.157825
 20
184.0850069999999
 30
0.0
 11
34.15782500000001
 21
182.4717729999999
 31
0.0
  0
LINE
  5
B018
330
AF46
100
AcDbEntity
  8
1
  6
Continuous
100
AcDbLine
 10
33.329398
 20
184.0850069999999
 30
0.0
 11
31.32939799999999
 21
182.4717729999999
 31
0.0
  0
LINE
  5
B019
330
AF46
100
AcDbEntity
  8
1
  6
Continuous
100
AcDbLine
 10
34.743612
 20
184.0850069999999
 30
0.0
 11
32.74361199999999
 21
182.4717729999999
 31
0.0
  0
LINE
  5
B01A
330
AF46
100
AcDbEntity
  8
1
  6
Continuous
100
AcDbLine
 10
29.799961
 20
183.6144439999999
 30
0.0
 11
31.32939799999999
 21
182.4717729999999
 31
0.0
  0
LINE
  5
B01B
330
AF46
100
AcDbEntity
  8
1
  6
Continuous
100
AcDbLine
 10
29.799961
 20
183.3839969999999
 30
0.0
 11
30.500971
 21
184.0850069999999
 31
0.0
  0
LINE
  5
B01C
330
AF46
100
AcDbEntity
  8
1
  6
Continuous
100
AcDbLine
 10
31.91518499999999
 20
184.0850069999999
 30
0.0
 11
29.91518499999999
 21
182.4717729999999
 31
0.0
  0
LINE
  5
B01D
330
AF46
100
AcDbEntity
  8
1
  6
Continuous
100
AcDbLine
 10
29.799961
 20
184.0850069999999
 30
0.0
 11
29.799961
 21
182.4717729999999
 31
0.0
  0
ARC
  5
B01E
330
AF46
100
AcDbEntity
  8
1
  6
Continuous
100
AcDbCircle
 10
30.754292
 20
185.2310759999998
 30
0.0
 40
0.8364709999999998
100
AcDbArc
 50
102.3749159999999
 51
160.6585409999999
  0
ARC
  5
B01F
330
AF46
100
AcDbEntity
  8
1
  6
Continuous
100
AcDbCircle
 10
36.21173499999999
 20
186.936358
 30
0.0
 40
6.407901999999999
100
AcDbArc
 50
192.8787169999999
 51
206.4216889999999
  0
LINE
  5
B020
330
AF46
100
AcDbEntity
  8
1
  6
Continuous
100
AcDbLine
 10
36.157825
 20
184.0850069999999
 30
0.0
 11
34.15782500000001
 21
182.4717729999999
 31
0.0
  0
LINE
  5
B021
330
AF46
100
AcDbEntity
  8
1
  6
Continuous
100
AcDbLine
 10
27.299961
 20
188.375175
 30
0.0
 11
27.299961
 21
190.3751749999999
 31
0.0
  0
LINE
  5
B022
330
AF46
100
AcDbEntity
  8
1
  6
Continuous
100
AcDbLine
 10
67.299511
 20
179.972115
 30
0.0
 11
67.299511
 21
157.7001689999999
 31
0.0
  0
ARC
  5
B023
330
AF46
100
AcDbEntity
  8
1
  6
Continuous
100
AcDbCircle
 10
48.29951099999998
 20
73.375191
 30
0.0
 40
100.0
100
AcDbArc
 50
84.73001700000002
 51
95.26928199999998
  0
ARC
  5
B024
330
AF46
100
AcDbEntity
  8
1
  6
Continuous
100
AcDbCircle
 10
59.54951099999998
 20
153.9556409999998
 30
0.0
 40
0.5
100
AcDbArc
 50
0.0
 51
80.0
  0
LINE
  5
B025
330
AF46
100
AcDbEntity
  8
1
  6
Continuous
100
AcDbLine
 10
59.636335
 20
154.448045
 30
0.0
 11
59.299511
 21
154.507436
 31
0.0
  0
ARC
  5
B026
330
AF46
100
AcDbEntity
  8
1
  6
Continuous
100
AcDbCircle
 10
59.54951099999998
 20
153.9556409999998
 30
0.0
 40
0.5
100
AcDbArc
 50
0.0
 51
80.0
  0
LINE
  5
B027
330
AF46
100
AcDbEntity
  8
1
  6
Continuous
100
AcDbLine
 10
59.636335
 20
154.448045
 30
0.0
 11
59.299511
 21
154.507436
 31
0.0
  0
ARC
  5
B028
330
AF46
100
AcDbEntity
  8
1
  6
Continuous
100
AcDbCircle
 10
57.299511
 20
170.961051
 30
0.0
 40
2.0
100
AcDbArc
 50
0.0
 51
84.73071800000003
  0
LINE
  5
B029
330
AF46
100
AcDbEntity
  8
1
  6
Continuous
100
AcDbLine
 10
51.956815
 20
184.0850069999999
 30
0.0
 11
53.956815
 21
182.4717729999999
 31
0.0
  0
LINE
  5
B02A
330
AF46
100
AcDbEntity
  8
1
  6
Continuous
100
AcDbLine
 10
54.542602
 20
184.0850069999999
 30
0.0
 11
52.542602
 21
182.4717729999999
 31
0.0
  0
LINE
  5
B02B
330
AF46
100
AcDbEntity
  8
1
  6
Continuous
100
AcDbLine
 10
59.452029
 20
179.812332
 30
0.0
 11
48.29951099999998
 21
179.812332
 31
0.0
  0
LINE
  5
B02C
330
AF46
100
AcDbEntity
  8
1
  6
Continuous
100
AcDbLine
 10
43.47153399999998
 20
184.0850069999999
 30
0.0
 11
45.471534
 21
182.4717729999999
 31
0.0
  0
LINE
  5
B02D
330
AF46
100
AcDbEntity
  8
1
  6
Continuous
100
AcDbLine
 10
46.05731999999998
 20
184.0850069999999
 30
0.0
 11
44.05731999999999
 21
182.4717729999999
 31
0.0
  0
LINE
  5
B02E
330
AF46
100
AcDbEntity
  8
1
  6
Continuous
100
AcDbLine
 10
37.146993
 20
179.812332
 30
0.0
 11
48.29951099999998
 21
179.812332
 31
0.0
  0
LINE
  5
B02F
330
AF46
100
AcDbEntity
  8
1
  6
Continuous
100
AcDbLine
 10
40.643107
 20
184.0850069999999
 30
0.0
 11
42.643107
 21
182.4717729999999
 31
0.0
  0
LINE
  5
B030
330
AF46
100
AcDbEntity
  8
1
  6
Continuous
100
AcDbLine
 10
41.81467999999997
 20
184.0850069999999
 30
0.0
 11
39.81467999999999
 21
182.4717729999999
 31
0.0
  0
LINE
  5
B031
330
AF46
100
AcDbEntity
  8
1
  6
Continuous
100
AcDbLine
 10
37.81467999999998
 20
184.0850069999999
 30
0.0
 11
39.81467999999999
 21
182.4717729999999
 31
0.0
  0
LINE
  5
B032
330
AF46
100
AcDbEntity
  8
1
  6
Continuous
100
AcDbLine
 10
38.986252
 20
184.0850069999999
 30
0.0
 11
36.986252
 21
182.4717729999999
 31
0.0
  0
LINE
  5
B033
330
AF46
100
AcDbEntity
  8
1
  6
Continuous
100
AcDbLine
 10
40.40046599999999
 20
184.0850069999999
 30
0.0
 11
38.40046599999999
 21
182.4717729999999
 31
0.0
  0
LINE
  5
B034
330
AF46
100
AcDbEntity
  8
1
  6
Continuous
100
AcDbLine
 10
43.22889299999999
 20
184.0850069999999
 30
0.0
 11
41.22889299999999
 21
182.4717729999999
 31
0.0
  0
LINE
  5
B035
330
AF46
100
AcDbEntity
  8
1
  6
Continuous
100
AcDbLine
 10
44.643107
 20
184.0850069999999
 30
0.0
 11
42.643107
 21
182.4717729999999
 31
0.0
  0
LINE
  5
B036
330
AF46
100
AcDbEntity
  8
1
  6
Continuous
100
AcDbLine
 10
49.128388
 20
184.0850069999999
 30
0.0
 11
51.128388
 21
182.4717729999999
 31
0.0
  0
LINE
  5
B037
330
AF46
100
AcDbEntity
  8
1
  6
Continuous
100
AcDbLine
 10
50.29996099999999
 20
184.0850069999999
 30
0.0
 11
48.29996099999998
 21
182.4717729999999
 31
0.0
  0
LINE
  5
B038
330
AF46
100
AcDbEntity
  8
1
  6
Continuous
100
AcDbLine
 10
46.29996099999998
 20
184.0850069999999
 30
0.0
 11
48.29996099999998
 21
182.4717729999999
 31
0.0
  0
LINE
  5
B039
330
AF46
100
AcDbEntity
  8
1
  6
Continuous
100
AcDbLine
 10
47.47153400000001
 20
184.0850069999999
 30
0.0
 11
45.471534
 21
182.4717729999999
 31
0.0
  0
LINE
  5
B03A
330
AF46
100
AcDbEntity
  8
1
  6
Continuous
100
AcDbLine
 10
48.88574699999999
 20
184.0850069999999
 30
0.0
 11
46.88574699999999
 21
182.4717729999999
 31
0.0
  0
LINE
  5
B03B
330
AF46
100
AcDbEntity
  8
1
  6
Continuous
100
AcDbLine
 10
53.128388
 20
184.0850069999999
 30
0.0
 11
51.128388
 21
182.4717729999999
 31
0.0
  0
LINE
  5
B03C
330
AF46
100
AcDbEntity
  8
1
  6
Continuous
100
AcDbLine
 10
51.714175
 20
184.0850069999999
 30
0.0
 11
49.714175
 21
182.4717729999999
 31
0.0
  0
ARC
  5
B03D
330
AF46
100
AcDbEntity
  8
1
  6
Continuous
100
AcDbCircle
 10
66.060535
 20
189.9706199999999
 30
0.0
 40
3.611
100
AcDbArc
 50
270.0
 51
333.779363
  0
LINE
  5
B03E
330
AF46
100
AcDbEntity
  8
1
  6
Continuous
100
AcDbLine
 10
60.44209699999999
 20
184.0850069999999
 30
0.0
 11
62.44209699999998
 21
182.4717729999999
 31
0.0
  0
LINE
  5
B03F
330
AF46
100
AcDbEntity
  8
1
  6
Continuous
100
AcDbLine
 10
63.02788299999999
 20
184.0850069999999
 30
0.0
 11
61.027883
 21
182.4717729999999
 31
0.0
  0
LINE
  5
B040
330
AF46
100
AcDbEntity
  8
1
  6
Continuous
100
AcDbLine
 10
61.61366899999999
 20
184.0850069999999
 30
0.0
 11
59.61366899999998
 21
182.4717729999999
 31
0.0
  0
LINE
  5
B041
330
AF46
100
AcDbEntity
  8
1
  6
Continuous
100
AcDbLine
 10
58.78524200000001
 20
184.0850069999999
 30
0.0
 11
56.785242
 21
182.4717729999999
 31
0.0
  0
LINE
  5
B042
330
AF46
100
AcDbEntity
  8
1
  6
Continuous
100
AcDbLine
 10
54.78524199999998
 20
184.0850069999999
 30
0.0
 11
56.785242
 21
182.4717729999999
 31
0.0
  0
LINE
  5
B043
330
AF46
100
AcDbEntity
  8
1
  6
Continuous
100
AcDbLine
 10
57.371029
 20
184.0850069999999
 30
0.0
 11
55.371029
 21
182.4717729999999
 31
0.0
  0
LINE
  5
B044
330
AF46
100
AcDbEntity
  8
1
  6
Continuous
100
AcDbLine
 10
55.956815
 20
184.0850069999999
 30
0.0
 11
53.956815
 21
182.4717729999999
 31
0.0
  0
LINE
  5
B045
330
AF46
100
AcDbEntity
  8
1
  6
Continuous
100
AcDbLine
 10
57.61366899999998
 20
184.0850069999999
 30
0.0
 11
59.61366899999998
 21
182.4717729999999
 31
0.0
  0
LINE
  5
B046
330
AF46
100
AcDbEntity
  8
1
  6
Continuous
100
AcDbLine
 10
60.19945599999999
 20
184.0850069999999
 30
0.0
 11
58.199456
 21
182.4717729999999
 31
0.0
  0
ARC
  5
B047
330
AF46
100
AcDbEntity
  8
1
  6
Continuous
100
AcDbCircle
 10
64.799511
 20
179.972115
 30
0.0
 40
2.5
100
AcDbArc
 50
0.0
 51
90.0
  0
LINE
  5
B048
330
AF46
100
AcDbEntity
  8
1
  6
Continuous
100
AcDbLine
 10
66.799961
 20
183.6144439999999
 30
0.0
 11
65.27052399999999
 21
182.4717729999999
 31
0.0
  0
LINE
  5
B049
330
AF46
100
AcDbEntity
  8
1
  6
Continuous
100
AcDbLine
 10
65.85630999999999
 20
184.0850069999999
 30
0.0
 11
63.85631
 21
182.4717729999999
 31
0.0
  0
LINE
  5
B04A
330
AF46
100
AcDbEntity
  8
1
  6
Continuous
100
AcDbLine
 10
63.270524
 20
184.0850069999999
 30
0.0
 11
65.27052399999999
 21
182.4717729999999
 31
0.0
  0
LINE
  5
B04B
330
AF46
100
AcDbEntity
  8
1
  6
Continuous
100
AcDbLine
 10
64.442097
 20
184.0850069999999
 30
0.0
 11
62.44209699999998
 21
182.4717729999999
 31
0.0
  0
LINE
  5
B04C
330
AF46
100
AcDbEntity
  8
1
  6
Continuous
100
AcDbLine
 10
66.098951
 20
184.0850069999999
 30
0.0
 11
66.799961
 21
183.3839969999999
 31
0.0
  0
LINE
  5
B04D
330
AF46
100
AcDbEntity
  8
1
  6
Continuous
100
AcDbLine
 10
66.799961
 20
182.586996
 30
0.0
 11
66.68473699999998
 21
182.4717729999999
 31
0.0
  0
LINE
  5
B04E
330
AF46
100
AcDbEntity
  8
1
  6
Continuous
100
AcDbLine
 10
66.799961
 20
184.0850069999999
 30
0.0
 11
66.799961
 21
182.4717729999999
 31
0.0
  0
ARC
  5
B04F
330
AF46
100
AcDbEntity
  8
1
  6
Continuous
100
AcDbCircle
 10
65.84563
 20
185.2310759999998
 30
0.0
 40
0.8364709999999998
100
AcDbArc
 50
19.341459
 51
77.625084
  0
ARC
  5
B050
330
AF46
100
AcDbEntity
  8
1
  6
Continuous
100
AcDbCircle
 10
60.388187
 20
186.936358
 30
0.0
 40
6.407901999999999
100
AcDbArc
 50
334.3555600000001
 51
347.121283
  0
LINE
  5
B051
330
AF46
100
AcDbEntity
  8
1
  6
Continuous
100
AcDbLine
 10
69.299961
 20
190.3751749999999
 30
0.0
 11
69.299961
 21
188.375175
 31
0.0
  0
LINE
  5
B052
330
AF46
100
AcDbEntity
  8
4
  6
CENTER
100
AcDbLine
 10
48.29951099999998
 20
195.375175
 30
0.0
 11
48.29951099999998
 21
118.3751909999999
 31
0.0
  0
LINE
  5
B053
330
AF46
100
AcDbEntity
  8
1
  6
Continuous
100
AcDbLine
 10
225.031564
 20
184.084653
 30
0.0
 11
227.031564
 21
182.47142
 31
0.0
  0
LINE
  5
B054
330
AF46
100
AcDbEntity
  8
1
  6
Continuous
100
AcDbLine
 10
226.2031359999999
 20
184.084653
 30
0.0
 11
224.2031359999999
 21
182.47142
 31
0.0
  0
LINE
  5
B055
330
AF46
100
AcDbEntity
  8
1
  6
Continuous
100
AcDbLine
 10
227.61735
 20
184.084653
 30
0.0
 11
225.61735
 21
182.47142
 31
0.0
  0
LINE
  5
B056
330
AF46
100
AcDbEntity
  8
1
  6
Continuous
100
AcDbLine
 10
217.5856149999999
 20
186.3592659999999
 30
0.0
 11
253.277419
 21
186.3592659999999
 31
0.0
  0
LINE
  5
B057
330
AF46
100
AcDbEntity
  8
1
  6
Continuous
100
AcDbLine
 10
214.5168449999999
 20
190.374821
 30
0.0
 11
256.5168449999999
 21
190.374821
 31
0.0
  0
LINE
  5
B058
330
AF46
100
AcDbEntity
  8
1
  6
Continuous
100
AcDbLine
 10
214.5168449999999
 20
188.374821
 30
0.0
 11
256.5168449999999
 21
188.374821
 31
0.0
  0
LINE
  5
B059
330
AF46
100
AcDbEntity
  8
1
  6
Continuous
100
AcDbLine
 10
217.0168449999999
 20
184.084653
 30
0.0
 11
254.0168449999999
 21
184.084653
 31
0.0
  0
LINE
  5
B05A
330
AF46
100
AcDbEntity
  8
1
  6
Continuous
100
AcDbLine
 10
217.7919129999999
 20
186.047759
 30
0.0
 11
253.241777
 21
186.047759
 31
0.0
  0
LINE
  5
B05B
330
AF46
100
AcDbEntity
  8
1
  6
Continuous
100
AcDbLine
 10
222.2031359999999
 20
184.084653
 30
0.0
 11
224.2031359999999
 21
182.47142
 31
0.0
  0
LINE
  5
B05C
330
AF46
100
AcDbEntity
  8
1
  6
Continuous
100
AcDbLine
 10
223.374709
 20
184.084653
 30
0.0
 11
221.374709
 21
182.47142
 31
0.0
  0
LINE
  5
B05D
330
AF46
100
AcDbEntity
  8
1
  6
Continuous
100
AcDbLine
 10
219.374709
 20
184.084653
 30
0.0
 11
221.374709
 21
182.47142
 31
0.0
  0
LINE
  5
B05E
330
AF46
100
AcDbEntity
  8
1
  6
Continuous
100
AcDbLine
 10
220.546282
 20
184.084653
 30
0.0
 11
218.546282
 21
182.47142
 31
0.0
  0
LINE
  5
B05F
330
AF46
100
AcDbEntity
  8
1
  6
Continuous
100
AcDbLine
 10
221.960496
 20
184.084653
 30
0.0
 11
219.960496
 21
182.47142
 31
0.0
  0
LINE
  5
B060
330
AF46
100
AcDbEntity
  8
1
  6
Continuous
100
AcDbLine
 10
217.0168449999999
 20
183.61409
 30
0.0
 11
218.546282
 21
182.47142
 31
0.0
  0
LINE
  5
B061
330
AF46
100
AcDbEntity
  8
1
  6
Continuous
100
AcDbLine
 10
219.1320689999999
 20
184.084653
 30
0.0
 11
217.1320689999999
 21
182.47142
 31
0.0
  0
LINE
  5
B062
330
AF46
100
AcDbEntity
  8
1
  6
Continuous
100
AcDbLine
 10
217.0168449999999
 20
184.084653
 30
0.0
 11
217.0168449999999
 21
182.471527
 31
0.0
  0
LINE
  5
B063
330
AF46
100
AcDbEntity
  8
1
  6
Continuous
100
AcDbLine
 10
214.5168449999999
 20
188.374821
 30
0.0
 11
214.5168449999999
 21
190.374821
 31
0.0
  0
ARC
  5
B064
330
AF46
100
AcDbEntity
  8
1
  6
Continuous
100
AcDbCircle
 10
223.428619
 20
186.936004
 30
0.0
 40
6.407901999999999
100
AcDbArc
 50
192.8787169999999
 51
206.4216889999999
  0
ARC
  5
B065
330
AF46
100
AcDbEntity
  8
1
  6
Continuous
100
AcDbCircle
 10
217.9711759999999
 20
185.2307219999999
 30
0.0
 40
0.8364709999999998
100
AcDbArc
 50
102.3749159999999
 51
160.6585409999999
  0
LINE
  5
B066
330
AF46
100
AcDbEntity
  8
1
  6
Continuous
100
AcDbLine
 10
217.0168449999999
 20
183.383643
 30
0.0
 11
217.7178549999999
 21
184.084653
 31
0.0
  0
ARC
  5
B067
330
AF46
100
AcDbEntity
  8
1
  6
Continuous
100
AcDbCircle
 10
217.756271
 20
189.9702659999999
 30
0.0
 40
3.611
100
AcDbArc
 50
206.220637
 51
270.0
  0
LINE
  5
B068
330
AF46
100
AcDbEntity
  8
1
  6
Continuous
100
AcDbLine
 10
224.788923
 20
184.084653
 30
0.0
 11
222.788923
 21
182.47142
 31
0.0
  0
LINE
  5
B069
330
AF46
100
AcDbEntity
  8
1
  6
Continuous
100
AcDbLine
 10
243.173699
 20
184.084653
 30
0.0
 11
241.173699
 21
182.47142
 31
0.0
  0
LINE
  5
B06A
330
AF46
100
AcDbEntity
  8
1
  6
Continuous
100
AcDbLine
 10
236.345272
 20
184.084653
 30
0.0
 11
238.345272
 21
182.47142
 31
0.0
  0
LINE
  5
B06B
330
AF46
100
AcDbEntity
  8
1
  6
Continuous
100
AcDbLine
 10
238.931059
 20
184.084653
 30
0.0
 11
236.9310589999999
 21
182.47142
 31
0.0
  0
LINE
  5
B06C
330
AF46
100
AcDbEntity
  8
1
  6
Continuous
100
AcDbLine
 10
230.688418
 20
184.084653
 30
0.0
 11
232.6884179999999
 21
182.47142
 31
0.0
  0
LINE
  5
B06D
330
AF46
100
AcDbEntity
  8
1
  6
Continuous
100
AcDbLine
 10
233.2742039999998
 20
184.084653
 30
0.0
 11
231.2742039999999
 21
182.47142
 31
0.0
  0
LINE
  5
B06E
330
AF46
100
AcDbEntity
  8
1
  6
Continuous
100
AcDbLine
 10
231.859991
 20
184.084653
 30
0.0
 11
229.859991
 21
182.47142
 31
0.0
  0
LINE
  5
B06F
330
AF46
100
AcDbEntity
  8
1
  6
Continuous
100
AcDbLine
 10
237.5168449999999
 20
184.084653
 30
0.0
 11
235.5168449999999
 21
182.47142
 31
0.0
  0
LINE
  5
B070
330
AF46
100
AcDbEntity
  8
1
  6
Continuous
100
AcDbLine
 10
233.5168449999999
 20
184.084653
 30
0.0
 11
235.5168449999999
 21
182.47142
 31
0.0
  0
LINE
  5
B071
330
AF46
100
AcDbEntity
  8
1
  6
Continuous
100
AcDbLine
 10
234.6884179999999
 20
184.084653
 30
0.0
 11
232.6884179999999
 21
182.47142
 31
0.0
  0
LINE
  5
B072
330
AF46
100
AcDbEntity
  8
1
  6
Continuous
100
AcDbLine
 10
236.102631
 20
184.084653
 30
0.0
 11
234.102631
 21
182.47142
 31
0.0
  0
LINE
  5
B073
330
AF46
100
AcDbEntity
  8
1
  6
Continuous
100
AcDbLine
 10
239.173699
 20
184.084653
 30
0.0
 11
241.173699
 21
182.47142
 31
0.0
  0
LINE
  5
B074
330
AF46
100
AcDbEntity
  8
1
  6
Continuous
100
AcDbLine
 10
241.7594859999999
 20
184.084653
 30
0.0
 11
239.7594859999999
 21
182.47142
 31
0.0
  0
LINE
  5
B075
330
AF46
100
AcDbEntity
  8
1
  6
Continuous
100
AcDbLine
 10
240.345272
 20
184.084653
 30
0.0
 11
238.345272
 21
182.47142
 31
0.0
  0
LINE
  5
B076
330
AF46
100
AcDbEntity
  8
1
  6
Continuous
100
AcDbLine
 10
229.031564
 20
184.084653
 30
0.0
 11
227.031564
 21
182.47142
 31
0.0
  0
LINE
  5
B077
330
AF46
100
AcDbEntity
  8
1
  6
Continuous
100
AcDbLine
 10
227.859991
 20
184.084653
 30
0.0
 11
229.859991
 21
182.47142
 31
0.0
  0
LINE
  5
B078
330
AF46
100
AcDbEntity
  8
1
  6
Continuous
100
AcDbLine
 10
230.4457769999999
 20
184.084653
 30
0.0
 11
228.4457769999999
 21
182.47142
 31
0.0
  0
ARC
  5
B079
330
AF46
100
AcDbEntity
  8
1
  6
Continuous
100
AcDbCircle
 10
253.277419
 20
189.9702659999999
 30
0.0
 40
3.611
100
AcDbArc
 50
270.0
 51
333.779363
  0
LINE
  5
B07A
330
AF46
100
AcDbEntity
  8
1
  6
Continuous
100
AcDbLine
 10
247.658981
 20
184.084653
 30
0.0
 11
249.658981
 21
182.47142
 31
0.0
  0
LINE
  5
B07B
330
AF46
100
AcDbEntity
  8
1
  6
Continuous
100
AcDbLine
 10
250.244767
 20
184.084653
 30
0.0
 11
248.2447669999999
 21
182.47142
 31
0.0
  0
LINE
  5
B07C
330
AF46
100
AcDbEntity
  8
1
  6
Continuous
100
AcDbLine
 10
248.8305529999999
 20
184.084653
 30
0.0
 11
246.8305529999999
 21
182.47142
 31
0.0
  0
LINE
  5
B07D
330
AF46
100
AcDbEntity
  8
1
  6
Continuous
100
AcDbLine
 10
254.0168449999999
 20
183.61409
 30
0.0
 11
252.487408
 21
182.47142
 31
0.0
  0
LINE
  5
B07E
330
AF46
100
AcDbEntity
  8
1
  6
Continuous
100
AcDbLine
 10
253.0731939999999
 20
184.084653
 30
0.0
 11
251.0731939999998
 21
182.47142
 31
0.0
  0
LINE
  5
B07F
330
AF46
100
AcDbEntity
  8
1
  6
Continuous
100
AcDbLine
 10
250.487408
 20
184.084653
 30
0.0
 11
252.487408
 21
182.47142
 31
0.0
  0
LINE
  5
B080
330
AF46
100
AcDbEntity
  8
1
  6
Continuous
100
AcDbLine
 10
251.658981
 20
184.084653
 30
0.0
 11
249.658981
 21
182.47142
 31
0.0
  0
LINE
  5
B081
330
AF46
100
AcDbEntity
  8
1
  6
Continuous
100
AcDbLine
 10
254.0168449999999
 20
182.5866429999999
 30
0.0
 11
253.901621
 21
182.47142
 31
0.0
  0
LINE
  5
B082
330
AF46
100
AcDbEntity
  8
1
  6
Continuous
100
AcDbLine
 10
254.0168449999999
 20
184.084653
 30
0.0
 11
254.0168449999999
 21
182.471312
 31
0.0
  0
ARC
  5
B083
330
AF46
100
AcDbEntity
  8
1
  6
Continuous
100
AcDbCircle
 10
247.6050709999999
 20
186.936004
 30
0.0
 40
6.407901999999999
100
AcDbArc
 50
334.3555600000001
 51
347.121283
  0
ARC
  5
B084
330
AF46
100
AcDbEntity
  8
1
  6
Continuous
100
AcDbCircle
 10
253.062514
 20
185.2307219999999
 30
0.0
 40
0.8364709999999998
100
AcDbArc
 50
19.341459
 51
77.625084
  0
LINE
  5
B085
330
AF46
100
AcDbEntity
  8
1
  6
Continuous
100
AcDbLine
 10
253.3158349999999
 20
184.084653
 30
0.0
 11
254.0168449999999
 21
183.383643
 31
0.0
  0
LINE
  5
B086
330
AF46
100
AcDbEntity
  8
1
  6
Continuous
100
AcDbLine
 10
256.5168449999999
 20
190.374821
 30
0.0
 11
256.5168449999999
 21
188.374821
 31
0.0
  0
LINE
  5
B087
330
AF46
100
AcDbEntity
  8
1
  6
Continuous
100
AcDbLine
 10
242.0021259999999
 20
184.084653
 30
0.0
 11
244.0021259999999
 21
182.47142
 31
0.0
  0
LINE
  5
B088
330
AF46
100
AcDbEntity
  8
1
  6
Continuous
100
AcDbLine
 10
244.5879129999999
 20
184.084653
 30
0.0
 11
242.5879129999999
 21
182.47142
 31
0.0
  0
LINE
  5
B089
330
AF46
100
AcDbEntity
  8
1
  6
Continuous
100
AcDbLine
 10
246.0021259999999
 20
184.084653
 30
0.0
 11
244.0021259999999
 21
182.47142
 31
0.0
  0
LINE
  5
B08A
330
AF46
100
AcDbEntity
  8
1
  6
Continuous
100
AcDbLine
 10
244.8305529999999
 20
184.084653
 30
0.0
 11
246.8305529999999
 21
182.47142
 31
0.0
  0
LINE
  5
B08B
330
AF46
100
AcDbEntity
  8
1
  6
Continuous
100
AcDbLine
 10
247.41634
 20
184.084653
 30
0.0
 11
245.41634
 21
182.47142
 31
0.0
  0
LINE
  5
B08C
330
AF46
100
AcDbEntity
  8
1
  6
Continuous
100
AcDbLine
 10
138.922907
 20
184.111835
 30
0.0
 11
140.922907
 21
182.498601
 31
0.0
  0
LINE
  5
B08D
330
AF46
100
AcDbEntity
  8
1
  6
Continuous
100
AcDbLine
 10
140.094479
 20
184.111835
 30
0.0
 11
138.094479
 21
182.498601
 31
0.0
  0
LINE
  5
B08E
330
AF46
100
AcDbEntity
  8
1
  6
Continuous
100
AcDbLine
 10
141.508693
 20
184.111835
 30
0.0
 11
139.5086929999999
 21
182.498601
 31
0.0
  0
LINE
  5
B08F
330
AF46
100
AcDbEntity
  8
1
  6
Continuous
100
AcDbLine
 10
131.4769579999999
 20
186.386448
 30
0.0
 11
167.1687619999999
 21
186.386448
 31
0.0
  0
LINE
  5
B090
330
AF46
100
AcDbEntity
  8
1
  6
Continuous
100
AcDbLine
 10
167.908188
 20
182.498601
 30
0.0
 11
130.9081879999999
 21
182.498601
 31
0.0
  0
LINE
  5
B091
330
AF46
100
AcDbEntity
  8
1
  6
Continuous
100
AcDbLine
 10
130.9081879999999
 20
184.111835
 30
0.0
 11
167.908188
 21
184.111835
 31
0.0
  0
LINE
  5
B092
330
AF46
100
AcDbEntity
  8
1
  6
Continuous
100
AcDbLine
 10
131.6832559999998
 20
186.074941
 30
0.0
 11
167.13312
 21
186.074941
 31
0.0
  0
LINE
  5
B093
330
AF46
100
AcDbEntity
  8
1
  6
Continuous
100
AcDbLine
 10
136.094479
 20
184.111835
 30
0.0
 11
138.094479
 21
182.498601
 31
0.0
  0
LINE
  5
B094
330
AF46
100
AcDbEntity
  8
1
  6
Continuous
100
AcDbLine
 10
137.2660519999998
 20
184.111835
 30
0.0
 11
135.266052
 21
182.498601
 31
0.0
  0
LINE
  5
B095
330
AF46
100
AcDbEntity
  8
1
  6
Continuous
100
AcDbLine
 10
133.266052
 20
184.111835
 30
0.0
 11
135.266052
 21
182.498601
 31
0.0
  0
LINE
  5
B096
330
AF46
100
AcDbEntity
  8
1
  6
Continuous
100
AcDbLine
 10
134.437625
 20
184.111835
 30
0.0
 11
132.437625
 21
182.498601
 31
0.0
  0
LINE
  5
B097
330
AF46
100
AcDbEntity
  8
1
  6
Continuous
100
AcDbLine
 10
135.8518389999999
 20
184.111835
 30
0.0
 11
133.8518389999999
 21
182.498601
 31
0.0
  0
LINE
  5
B098
330
AF46
100
AcDbEntity
  8
1
  6
Continuous
100
AcDbLine
 10
130.9081879999999
 20
183.641272
 30
0.0
 11
132.437625
 21
182.498601
 31
0.0
  0
LINE
  5
B099
330
AF46
100
AcDbEntity
  8
1
  6
Continuous
100
AcDbLine
 10
133.023412
 20
184.111835
 30
0.0
 11
131.023412
 21
182.498601
 31
0.0
  0
LINE
  5
B09A
330
AF46
100
AcDbEntity
  8
1
  6
Continuous
100
AcDbLine
 10
130.9081879999999
 20
184.111835
 30
0.0
 11
130.9081879999999
 21
182.498601
 31
0.0
  0
ARC
  5
B09B
330
AF46
100
AcDbEntity
  8
1
  6
Continuous
100
AcDbCircle
 10
137.319962
 20
186.963186
 30
0.0
 40
6.407901999999999
100
AcDbArc
 50
192.8787169999999
 51
206.4216889999999
  0
ARC
  5
B09C
330
AF46
100
AcDbEntity
  8
1
  6
Continuous
100
AcDbCircle
 10
131.8625189999999
 20
185.2579039999999
 30
0.0
 40
0.8364709999999998
100
AcDbArc
 50
102.3749159999999
 51
160.6585409999999
  0
LINE
  5
B09D
330
AF46
100
AcDbEntity
  8
1
  6
Continuous
100
AcDbLine
 10
130.9081879999999
 20
183.4108249999999
 30
0.0
 11
131.6091979999999
 21
184.111835
 31
0.0
  0
ARC
  5
B09E
330
AF46
100
AcDbEntity
  8
1
  6
Continuous
100
AcDbCircle
 10
131.6476139999998
 20
189.997448
 30
0.0
 40
3.611
100
AcDbArc
 50
206.795657
 51
270.0
  0
LINE
  5
B09F
330
AF46
100
AcDbEntity
  8
1
  6
Continuous
100
AcDbLine
 10
138.6802659999998
 20
184.111835
 30
0.0
 11
136.6802659999999
 21
182.498601
 31
0.0
  0
LINE
  5
B0A0
330
AF46
100
AcDbEntity
  8
1
  6
Continuous
100
AcDbLine
 10
157.0650419999998
 20
184.111835
 30
0.0
 11
155.065042
 21
182.498601
 31
0.0
  0
LINE
  5
B0A1
330
AF46
100
AcDbEntity
  8
1
  6
Continuous
100
AcDbLine
 10
150.236615
 20
184.111835
 30
0.0
 11
152.236615
 21
182.498601
 31
0.0
  0
LINE
  5
B0A2
330
AF46
100
AcDbEntity
  8
1
  6
Continuous
100
AcDbLine
 10
152.822402
 20
184.111835
 30
0.0
 11
150.822402
 21
182.498601
 31
0.0
  0
LINE
  5
B0A3
330
AF46
100
AcDbEntity
  8
1
  6
Continuous
100
AcDbLine
 10
144.5797609999999
 20
184.111835
 30
0.0
 11
146.5797609999999
 21
182.498601
 31
0.0
  0
LINE
  5
B0A4
330
AF46
100
AcDbEntity
  8
1
  6
Continuous
100
AcDbLine
 10
147.1655469999998
 20
184.111835
 30
0.0
 11
145.165547
 21
182.498601
 31
0.0
  0
LINE
  5
B0A5
330
AF46
100
AcDbEntity
  8
1
  6
Continuous
100
AcDbLine
 10
145.751334
 20
184.111835
 30
0.0
 11
143.751334
 21
182.498601
 31
0.0
  0
LINE
  5
B0A6
330
AF46
100
AcDbEntity
  8
1
  6
Continuous
100
AcDbLine
 10
151.4081879999999
 20
184.111835
 30
0.0
 11
149.4081879999999
 21
182.498601
 31
0.0
  0
LINE
  5
B0A7
330
AF46
100
AcDbEntity
  8
1
  6
Continuous
100
AcDbLine
 10
147.4081879999999
 20
184.111835
 30
0.0
 11
149.4081879999999
 21
182.498601
 31
0.0
  0
LINE
  5
B0A8
330
AF46
100
AcDbEntity
  8
1
  6
Continuous
100
AcDbLine
 10
148.5797609999999
 20
184.111835
 30
0.0
 11
146.5797609999999
 21
182.498601
 31
0.0
  0
LINE
  5
B0A9
330
AF46
100
AcDbEntity
  8
1
  6
Continuous
100
AcDbLine
 10
149.993974
 20
184.111835
 30
0.0
 11
147.993974
 21
182.498601
 31
0.0
  0
LINE
  5
B0AA
330
AF46
100
AcDbEntity
  8
1
  6
Continuous
100
AcDbLine
 10
153.065042
 20
184.111835
 30
0.0
 11
155.065042
 21
182.498601
 31
0.0
  0
LINE
  5
B0AB
330
AF46
100
AcDbEntity
  8
1
  6
Continuous
100
AcDbLine
 10
155.650829
 20
184.111835
 30
0.0
 11
153.6508289999999
 21
182.498601
 31
0.0
  0
LINE
  5
B0AC
330
AF46
100
AcDbEntity
  8
1
  6
Continuous
100
AcDbLine
 10
154.236615
 20
184.111835
 30
0.0
 11
152.236615
 21
182.498601
 31
0.0
  0
LINE
  5
B0AD
330
AF46
100
AcDbEntity
  8
1
  6
Continuous
100
AcDbLine
 10
142.922907
 20
184.111835
 30
0.0
 11
140.922907
 21
182.498601
 31
0.0
  0
LINE
  5
B0AE
330
AF46
100
AcDbEntity
  8
1
  6
Continuous
100
AcDbLine
 10
141.751334
 20
184.111835
 30
0.0
 11
143.751334
 21
182.498601
 31
0.0
  0
LINE
  5
B0AF
330
AF46
100
AcDbEntity
  8
1
  6
Continuous
100
AcDbLine
 10
144.33712
 20
184.111835
 30
0.0
 11
142.33712
 21
182.498601
 31
0.0
  0
ARC
  5
B0B0
330
AF46
100
AcDbEntity
  8
1
  6
Continuous
100
AcDbCircle
 10
167.1687619999999
 20
189.997448
 30
0.0
 40
3.611
100
AcDbArc
 50
270.0
 51
333.204343
  0
LINE
  5
B0B1
330
AF46
100
AcDbEntity
  8
1
  6
Continuous
100
AcDbLine
 10
161.5503239999999
 20
184.111835
 30
0.0
 11
163.550324
 21
182.498601
 31
0.0
  0
LINE
  5
B0B2
330
AF46
100
AcDbEntity
  8
1
  6
Continuous
100
AcDbLine
 10
164.13611
 20
184.111835
 30
0.0
 11
162.13611
 21
182.498601
 31
0.0
  0
LINE
  5
B0B3
330
AF46
100
AcDbEntity
  8
1
  6
Continuous
100
AcDbLine
 10
162.7218959999999
 20
184.111835
 30
0.0
 11
160.7218959999999
 21
182.498601
 31
0.0
  0
LINE
  5
B0B4
330
AF46
100
AcDbEntity
  8
1
  6
Continuous
100
AcDbLine
 10
167.908188
 20
183.641272
 30
0.0
 11
166.3787509999998
 21
182.498601
 31
0.0
  0
LINE
  5
B0B5
330
AF46
100
AcDbEntity
  8
1
  6
Continuous
100
AcDbLine
 10
166.964537
 20
184.111835
 30
0.0
 11
164.9645369999998
 21
182.498601
 31
0.0
  0
LINE
  5
B0B6
330
AF46
100
AcDbEntity
  8
1
  6
Continuous
100
AcDbLine
 10
164.3787509999999
 20
184.111835
 30
0.0
 11
166.3787509999998
 21
182.498601
 31
0.0
  0
LINE
  5
B0B7
330
AF46
100
AcDbEntity
  8
1
  6
Continuous
100
AcDbLine
 10
165.5503239999999
 20
184.111835
 30
0.0
 11
163.550324
 21
182.498601
 31
0.0
  0
LINE
  5
B0B8
330
AF46
100
AcDbEntity
  8
1
  6
Continuous
100
AcDbLine
 10
167.908188
 20
182.6138239999999
 30
0.0
 11
167.7929639999999
 21
182.498601
 31
0.0
  0
LINE
  5
B0B9
330
AF46
100
AcDbEntity
  8
1
  6
Continuous
100
AcDbLine
 10
167.908188
 20
184.111835
 30
0.0
 11
167.908188
 21
182.498601
 31
0.0
  0
ARC
  5
B0BA
330
AF46
100
AcDbEntity
  8
1
  6
Continuous
100
AcDbCircle
 10
161.4964139999998
 20
186.963186
 30
0.0
 40
6.407901999999999
100
AcDbArc
 50
334.3555600000001
 51
347.121283
  0
ARC
  5
B0BB
330
AF46
100
AcDbEntity
  8
1
  6
Continuous
100
AcDbCircle
 10
166.953857
 20
185.2579039999999
 30
0.0
 40
0.8364709999999998
100
AcDbArc
 50
19.341459
 51
77.625084
  0
LINE
  5
B0BC
330
AF46
100
AcDbEntity
  8
1
  6
Continuous
100
AcDbLine
 10
167.207178
 20
184.111835
 30
0.0
 11
167.908188
 21
183.4108249999999
 31
0.0
  0
LINE
  5
B0BD
330
AF46
100
AcDbEntity
  8
1
  6
Continuous
100
AcDbLine
 10
155.8934689999999
 20
184.111835
 30
0.0
 11
157.8934689999998
 21
182.498601
 31
0.0
  0
LINE
  5
B0BE
330
AF46
100
AcDbEntity
  8
1
  6
Continuous
100
AcDbLine
 10
158.4792559999999
 20
184.111835
 30
0.0
 11
156.4792559999998
 21
182.498601
 31
0.0
  0
LINE
  5
B0BF
330
AF46
100
AcDbEntity
  8
1
  6
Continuous
100
AcDbLine
 10
159.8934689999999
 20
184.111835
 30
0.0
 11
157.8934689999998
 21
182.498601
 31
0.0
  0
LINE
  5
B0C0
330
AF46
100
AcDbEntity
  8
1
  6
Continuous
100
AcDbLine
 10
158.7218959999999
 20
184.111835
 30
0.0
 11
160.7218959999999
 21
182.498601
 31
0.0
  0
LINE
  5
B0C1
330
AF46
100
AcDbEntity
  8
1
  6
Continuous
100
AcDbLine
 10
161.3076829999999
 20
184.111835
 30
0.0
 11
159.307683
 21
182.498601
 31
0.0
  0
LINE
  5
B0C2
330
AF46
100
AcDbEntity
  8
4
  6
CENTER
100
AcDbLine
 10
33.79951099999999
 20
195.375175
 30
0.0
 11
33.79951099999999
 21
181.35962
 31
0.0
  0
LINE
  5
B0C3
330
AF46
100
AcDbEntity
  8
4
  6
CENTER
100
AcDbLine
 10
62.79951099999999
 20
195.375175
 30
0.0
 11
62.79951099999999
 21
181.35962
 31
0.0
  0
LINE
  5
B0C4
330
AF46
100
AcDbEntity
  8
1
  6
Continuous
100
AcDbLine
 10
63.02324399999999
 20
139.2125
 30
0.0
 11
61.023239
 21
139.2125
 31
0.0
  0
LINE
  5
B0C5
330
AF46
100
AcDbEntity
  8
1
  6
Continuous
100
AcDbLine
 10
35.575783
 20
139.2125
 30
0.0
 11
33.575778
 21
139.2125
 31
0.0
  0
ARC
  5
B0C6
330
AF46
100
AcDbEntity
  8
1
  6
Continuous
100
AcDbCircle
 10
61.605598
 20
178.184189
 30
0.0
 40
1.5
100
AcDbArc
 50
359.87892
 51
90.0
  0
ARC
  5
B0C7
330
AF46
100
AcDbEntity
  8
1
  6
Continuous
100
AcDbCircle
 10
34.99342399999999
 20
178.184189
 30
0.0
 40
1.5
100
AcDbArc
 50
90.0
 51
180.1210799999998
  0
LINE
  5
B0C8
330
AF46
100
AcDbEntity
  8
1
  6
Continuous
100
AcDbLine
 10
36.997585
 20
177.7170889999999
 30
0.0
 11
59.60143699999999
 21
177.7170889999999
 31
0.0
  0
ARC
  5
B0C9
330
AF46
100
AcDbEntity
  8
1
  6
Continuous
100
AcDbCircle
 10
59.60143699999999
 20
176.2170889999999
 30
0.0
 40
1.5
100
AcDbArc
 50
359.878918
 51
90.0
  0
ARC
  5
B0CA
330
AF46
100
AcDbEntity
  8
1
  6
Continuous
100
AcDbCircle
 10
36.997585
 20
176.2170889999999
 30
0.0
 40
1.5
100
AcDbArc
 50
90.0
 51
180.121082
  0
LINE
  5
B0CB
330
AF46
100
AcDbEntity
  8
4
  6
CENTER
100
AcDbLine
 10
221.0168449999999
 20
194.9908529999999
 30
0.0
 11
221.0168449999999
 21
181.0477589999999
 31
0.0
  0
LINE
  5
B0CC
330
AF46
100
AcDbEntity
  8
4
  6
CENTER
100
AcDbLine
 10
250.0168449999999
 20
194.9908529999999
 30
0.0
 11
250.0168449999999
 21
181.0477589999999
 31
0.0
  0
LINE
  5
B0CD
330
AF46
100
AcDbEntity
  8
1
  6
Continuous
100
AcDbLine
 10
58.62732499999999
 20
173.8123009999999
 30
0.0
 11
37.97169699999999
 21
173.8123009999999
 31
0.0
  0
LINE
  5
B0CE
330
AF46
100
AcDbEntity
  8
1
  6
Continuous
100
AcDbLine
 10
60.569129
 20
177.363201
 30
0.0
 11
36.029893
 21
177.363201
 31
0.0
  0
LINE
  5
B0CF
330
AF46
100
AcDbEntity
  8
1
  6
Continuous
100
AcDbLine
 10
35.543469
 20
176.5852549999999
 30
0.0
 11
61.102723
 21
176.5852549999999
 31
0.0
  0
LINE
  5
B0D0
330
AF46
100
AcDbEntity
  8
1
  6
Continuous
100
AcDbLine
 10
42.13940899999999
 20
173.212301
 30
0.0
 11
42.54151499999998
 21
173.8123009999999
 31
0.0
  0
LINE
  5
B0D1
330
AF46
100
AcDbEntity
  8
1
  6
Continuous
100
AcDbLine
 10
41.699511
 20
173.212301
 30
0.0
 11
42.59412799999998
 21
173.212301
 31
0.0
  0
ARC
  5
B0D2
330
AF46
100
AcDbEntity
  8
1
  6
Continuous
100
AcDbCircle
 10
38.46287
 20
177.729218
 30
0.0
 40
1.984499999999997
100
AcDbArc
 50
182.999869
 51
190.6283659999998
  0
ARC
  5
B0D3
330
AF46
100
AcDbEntity
  8
1
  6
Continuous
100
AcDbCircle
 10
41.15549399999999
 20
177.729218
 30
0.0
 40
1.984499999999997
100
AcDbArc
 50
180.350187
 51
190.6283659999998
  0
ARC
  5
B0D4
330
AF46
100
AcDbEntity
  8
1
  6
Continuous
100
AcDbCircle
 10
39.059021
 20
177.729218
 30
0.0
 40
1.984499999999997
100
AcDbArc
 50
180.350187
 51
190.6283659999998
  0
ARC
  5
B0D5
330
AF46
100
AcDbEntity
  8
1
  6
Continuous
100
AcDbCircle
 10
37.07670999999999
 20
175.726355
 30
0.0
 40
1.683363999999999
100
AcDbArc
 50
217.387795
 51
241.092262
  0
ARC
  5
B0D6
330
AF46
100
AcDbEntity
  8
1
  6
Continuous
100
AcDbCircle
 10
41.834391
 20
179.3622709999999
 30
0.0
 40
7.671302999999997
100
AcDbArc
 50
214.3194929999999
 51
217.387795
  0
LINE
  5
B0D7
330
AF46
100
AcDbEntity
  8
1
  6
Continuous
100
AcDbLine
 10
41.699511
 20
173.8123009999999
 30
0.0
 11
41.699511
 21
173.212301
 31
0.0
  0
ARC
  5
B0D8
330
AF46
100
AcDbEntity
  8
1
  6
Continuous
100
AcDbCircle
 10
37.97169699999999
 20
177.347103
 30
0.0
 40
3.534801999999998
100
AcDbArc
 50
241.092262
 51
270.0
  0
LINE
  5
B0D9
330
AF46
100
AcDbEntity
  8
1
  6
Continuous
100
AcDbLine
 10
54.00489399999999
 20
173.212301
 30
0.0
 11
54.89951099999998
 21
173.212301
 31
0.0
  0
ARC
  5
B0DA
330
AF46
100
AcDbEntity
  8
1
  6
Continuous
100
AcDbCircle
 10
48.29951099999998
 20
177.729218
 30
0.0
 40
1.985
100
AcDbArc
 50
349.374342
 51
359.649901
  0
ARC
  5
B0DB
330
AF46
100
AcDbEntity
  8
1
  6
Continuous
100
AcDbCircle
 10
48.29951099999998
 20
177.729218
 30
0.0
 40
1.985
100
AcDbArc
 50
180.350099
 51
190.6256579999999
  0
ARC
  5
B0DC
330
AF46
100
AcDbEntity
  8
1
  6
Continuous
100
AcDbCircle
 10
44.411898
 20
177.729218
 30
0.0
 40
1.984499999999997
100
AcDbArc
 50
180.350187
 51
190.6283659999998
  0
LINE
  5
B0DD
330
AF46
100
AcDbEntity
  8
1
  6
Continuous
100
AcDbLine
 10
49.039022
 20
173.3724559999998
 30
0.0
 11
49.531739
 21
173.8123009999999
 31
0.0
  0
LINE
  5
B0DE
330
AF46
100
AcDbEntity
  8
1
  6
Continuous
100
AcDbLine
 10
47.067283
 20
173.8123009999999
 30
0.0
 11
47.56
 21
173.3724559999998
 31
0.0
  0
ARC
  5
B0DF
330
AF46
100
AcDbEntity
  8
1
  6
Continuous
100
AcDbCircle
 10
55.443528
 20
177.729218
 30
0.0
 40
1.984499999999997
100
AcDbArc
 50
349.3716339999999
 51
359.649813
  0
ARC
  5
B0E0
330
AF46
100
AcDbEntity
  8
1
  6
Continuous
100
AcDbCircle
 10
52.187124
 20
177.729218
 30
0.0
 40
1.984499999999997
100
AcDbArc
 50
349.3716339999999
 51
359.649813
  0
LINE
  5
B0E1
330
AF46
100
AcDbEntity
  8
1
  6
Continuous
100
AcDbLine
 10
54.89951099999998
 20
173.8123009999999
 30
0.0
 11
54.89951099999998
 21
173.212301
 31
0.0
  0
LINE
  5
B0E2
330
AF46
100
AcDbEntity
  8
1
  6
Continuous
100
AcDbLine
 10
54.05750699999999
 20
173.8123009999999
 30
0.0
 11
54.459613
 21
173.212301
 31
0.0
  0
ARC
  5
B0E3
330
AF46
100
AcDbEntity
  8
1
  6
Continuous
100
AcDbCircle
 10
57.54000099999998
 20
177.729218
 30
0.0
 40
1.984499999999997
100
AcDbArc
 50
349.3716339999999
 51
359.649813
  0
ARC
  5
B0E4
330
AF46
100
AcDbEntity
  8
1
  6
Continuous
100
AcDbCircle
 10
58.136152
 20
177.729218
 30
0.0
 40
1.984499999999997
100
AcDbArc
 50
349.3716339999999
 51
357.000131
  0
ARC
  5
B0E5
330
AF46
100
AcDbEntity
  8
1
  6
Continuous
100
AcDbCircle
 10
59.52231199999999
 20
175.726355
 30
0.0
 40
1.683363999999999
100
AcDbArc
 50
298.9077379999999
 51
322.6122049999998
  0
ARC
  5
B0E6
330
AF46
100
AcDbEntity
  8
1
  6
Continuous
100
AcDbCircle
 10
58.62732499999999
 20
177.347103
 30
0.0
 40
3.534801999999998
100
AcDbArc
 50
270.0
 51
298.9077379999999
  0
ARC
  5
B0E7
330
AF46
100
AcDbEntity
  8
1
  6
Continuous
100
AcDbCircle
 10
54.76463100000001
 20
179.3622709999999
 30
0.0
 40
7.671302999999997
100
AcDbArc
 50
322.6122049999998
 51
325.668552
  0
LINE
  5
B0E8
330
AF46
100
AcDbEntity
  8
1
  6
Continuous
100
AcDbLine
 10
245.8446589999998
 20
173.8123009999999
 30
0.0
 11
225.1890309999998
 21
173.8123009999999
 31
0.0
  0
LINE
  5
B0E9
330
AF46
100
AcDbEntity
  8
1
  6
Continuous
100
AcDbLine
 10
229.3567429999999
 20
173.212301
 30
0.0
 11
229.758849
 21
173.8123009999999
 31
0.0
  0
ARC
  5
B0EA
330
AF46
100
AcDbEntity
  8
1
  6
Continuous
100
AcDbCircle
 10
224.2940439999999
 20
175.726355
 30
0.0
 40
1.683363999999999
100
AcDbArc
 50
217.387795
 51
241.092262
  0
ARC
  5
B0EB
330
AF46
100
AcDbEntity
  8
1
  6
Continuous
100
AcDbCircle
 10
229.051725
 20
179.3622709999999
 30
0.0
 40
7.671302999999997
100
AcDbArc
 50
214.3194929999999
 51
217.387795
  0
LINE
  5
B0EC
330
AF46
100
AcDbEntity
  8
1
  6
Continuous
100
AcDbLine
 10
228.916845
 20
173.8123009999999
 30
0.0
 11
228.916845
 21
173.212301
 31
0.0
  0
ARC
  5
B0ED
330
AF46
100
AcDbEntity
  8
1
  6
Continuous
100
AcDbCircle
 10
225.1890309999998
 20
177.347103
 30
0.0
 40
3.534801999999998
100
AcDbArc
 50
241.092262
 51
270.0
  0
LINE
  5
B0EE
330
AF46
100
AcDbEntity
  8
1
  6
Continuous
100
AcDbLine
 10
228.916845
 20
173.212301
 30
0.0
 11
229.8114609999998
 21
173.212301
 31
0.0
  0
LINE
  5
B0EF
330
AF46
100
AcDbEntity
  8
1
  6
Continuous
100
AcDbLine
 10
234.284617
 20
173.8123009999999
 30
0.0
 11
234.7773339999999
 21
173.3724559999998
 31
0.0
  0
LINE
  5
B0F0
330
AF46
100
AcDbEntity
  8
1
  6
Continuous
100
AcDbLine
 10
236.256356
 20
173.3724559999998
 30
0.0
 11
236.749073
 21
173.8123009999999
 31
0.0
  0
LINE
  5
B0F1
330
AF46
100
AcDbEntity
  8
1
  6
Continuous
100
AcDbLine
 10
242.116845
 20
173.8123009999999
 30
0.0
 11
242.116845
 21
173.212301
 31
0.0
  0
LINE
  5
B0F2
330
AF46
100
AcDbEntity
  8
1
  6
Continuous
100
AcDbLine
 10
241.274841
 20
173.8123009999999
 30
0.0
 11
241.676947
 21
173.212301
 31
0.0
  0
ARC
  5
B0F3
330
AF46
100
AcDbEntity
  8
1
  6
Continuous
100
AcDbCircle
 10
246.7396459999999
 20
175.726355
 30
0.0
 40
1.683363999999999
100
AcDbArc
 50
298.9077379999999
 51
322.6122049999998
  0
ARC
  5
B0F4
330
AF46
100
AcDbEntity
  8
1
  6
Continuous
100
AcDbCircle
 10
245.8446589999998
 20
177.347103
 30
0.0
 40
3.534801999999998
100
AcDbArc
 50
270.0
 51
298.9077379999999
  0
ARC
  5
B0F5
330
AF46
100
AcDbEntity
  8
1
  6
Continuous
100
AcDbCircle
 10
241.9819649999999
 20
179.3622709999999
 30
0.0
 40
7.671302999999997
100
AcDbArc
 50
322.6122049999998
 51
325.668552
  0
LINE
  5
B0F6
330
AF46
100
AcDbEntity
  8
1
  6
Continuous
100
AcDbLine
 10
241.2222279999999
 20
173.212301
 30
0.0
 11
242.116845
 21
173.212301
 31
0.0
  0
LINE
  5
B0F7
330
AF46
100
AcDbEntity
  8
1
  6
Continuous
100
AcDbLine
 10
222.715852
 20
175.7677069999998
 30
0.0
 11
222.793116
 21
139.2066269999999
 31
0.0
  0
LINE
  5
B0F8
330
AF46
100
AcDbEntity
  8
1
  6
Continuous
100
AcDbLine
 10
248.317837
 20
175.7677069999998
 30
0.0
 11
248.2405729999999
 21
139.2066269999999
 31
0.0
  0
LINE
  5
B0F9
330
AF46
100
AcDbEntity
  8
1
  6
Continuous
100
AcDbLine
 10
222.793116
 20
139.2066269999999
 30
0.0
 11
220.793111
 21
139.2066269999999
 31
0.0
  0
LINE
  5
B0FA
330
AF46
100
AcDbEntity
  8
1
  6
Continuous
100
AcDbLine
 10
250.2405779999999
 20
139.2066269999999
 30
0.0
 11
248.2405729999999
 21
139.2066269999999
 31
0.0
  0
LINE
  5
B0FB
330
AF46
100
AcDbEntity
  8
1
  6
Continuous
100
AcDbLine
 10
220.786038
 20
142.5537789999999
 30
0.0
 11
220.793111
 21
139.2066269999999
 31
0.0
  0
ARC
  5
B0FC
330
AF46
100
AcDbEntity
  8
1
  6
Continuous
100
AcDbCircle
 10
226.0535079999999
 20
148.38967
 30
0.0
 40
6.779940999999999
100
AcDbArc
 50
180.9908509999999
 51
213.9306609999999
  0
LINE
  5
B0FD
330
AF46
100
AcDbEntity
  8
1
  6
Continuous
100
AcDbLine
 10
251.260141
 20
147.3528589999999
 30
0.0
 11
251.260141
 21
144.125191
 31
0.0
  0
ARC
  5
B0FE
330
AF46
100
AcDbEntity
  8
1
  6
Continuous
100
AcDbCircle
 10
245.989308
 20
148.375191
 30
0.0
 40
6.770832999999998
100
AcDbArc
 50
321.1199299999999
 51
12.459047
  0
LINE
  5
B0FF
330
AF46
100
AcDbEntity
  8
1
  6
Continuous
100
AcDbLine
 10
251.260141
 20
144.125191
 30
0.0
 11
250.354336
 21
144.125191
 31
0.0
  0
LINE
  5
B100
330
AF46
100
AcDbEntity
  8
1
  6
Continuous
100
AcDbLine
 10
168.1584039999999
 20
177.616486
 30
0.0
 11
168.4081879999999
 21
175.762876
 31
0.0
  0
LINE
  5
B101
330
AF46
100
AcDbEntity
  8
1
  6
Continuous
100
AcDbLine
 10
167.206219
 20
175.3819969999999
 30
0.0
 11
168.4081879999999
 21
175.762876
 31
0.0
  0
LINE
  5
B102
330
AF46
100
AcDbEntity
  8
4
  6
CENTER
100
AcDbLine
 10
298.1255019999998
 20
183.369573
 30
0.0
 11
298.1255019999998
 21
194.9908529999999
 31
0.0
  0
LINE
  5
B103
330
AF46
100
AcDbEntity
  8
4
  6
CENTER
100
AcDbLine
 10
345.125502
 20
183.369573
 30
0.0
 11
345.125502
 21
194.9908529999999
 31
0.0
  0
LINE
  5
B104
330
AF46
100
AcDbEntity
  8
4
  6
CENTER
100
AcDbLine
 10
321.6255019999999
 20
164.545231
 30
0.0
 11
321.6255019999999
 21
194.9908529999999
 31
0.0
  0
ARC
  5
B105
330
AF46
100
AcDbEntity
  8
1
  6
Continuous
100
AcDbCircle
 10
341.625617
 20
148.369876
 30
0.0
 40
19.5
100
AcDbArc
 50
152.3101819999999
 51
76.951784
  0
ARC
  5
B106
330
AF46
100
AcDbEntity
  8
1
  6
Continuous
100
AcDbCircle
 10
341.625617
 20
148.369876
 30
0.0
 40
25.0
100
AcDbArc
 50
145.5697439999999
 51
81.84111699999998
  0
LINE
  5
B107
330
AF46
100
AcDbEntity
  8
4
  6
CENTER
100
AcDbLine
 10
369.6256169999998
 20
148.369876
 30
0.0
 11
313.6256169999999
 21
148.369876
 31
0.0
  0
LINE
  5
B108
330
AF46
100
AcDbEntity
  8
1
  6
Continuous
100
AcDbLine
 10
291.6255019999999
 20
190.369876
 30
0.0
 11
351.625502
 21
190.369876
 31
0.0
  0
LINE
  5
B109
330
AF46
100
AcDbEntity
  8
1
  6
Continuous
100
AcDbLine
 10
291.6255019999999
 20
188.369573
 30
0.0
 11
351.625502
 21
188.369573
 31
0.0
  0
ARC
  5
B10A
330
AF46
100
AcDbEntity
  8
1
  6
Continuous
100
AcDbCircle
 10
340.776082
 20
147.3515769999998
 30
0.0
 40
8.139077
100
AcDbArc
 50
212.4742509999999
 51
7.825642999999997
  0
CIRCLE
  5
B10B
330
AF46
100
AcDbEntity
  8
1
  6
Continuous
100
AcDbCircle
 10
341.625617
 20
148.369876
 30
0.0
 40
4.25
  0
LINE
  5
B10C
330
AF46
100
AcDbEntity
  8
1
  6
Continuous
100
AcDbLine
 10
320.439546
 20
163.360793
 30
0.0
 11
333.909689
 21
142.98154
 31
0.0
  0
LINE
  5
B10D
330
AF46
100
AcDbEntity
  8
1
  6
Continuous
100
AcDbLine
 10
323.8681429999999
 20
184.111835
 30
0.0
 11
325.8681429999999
 21
182.498601
 31
0.0
  0
LINE
  5
B10E
330
AF46
100
AcDbEntity
  8
1
  6
Continuous
100
AcDbLine
 10
322.453929
 20
184.111835
 30
0.0
 11
324.453929
 21
182.498601
 31
0.0
  0
LINE
  5
B10F
330
AF46
100
AcDbEntity
  8
1
  6
Continuous
100
AcDbLine
 10
339.350434
 20
186.074941
 30
0.0
 11
303.90057
 21
186.074941
 31
0.0
  0
LINE
  5
B110
330
AF46
100
AcDbEntity
  8
1
  6
Continuous
100
AcDbLine
 10
340.1255019999999
 20
184.111835
 30
0.0
 11
303.1255019999999
 21
184.111835
 31
0.0
  0
LINE
  5
B111
330
AF46
100
AcDbEntity
  8
1
  6
Continuous
100
AcDbLine
 10
303.1255019999999
 20
182.498601
 30
0.0
 11
340.1255019999999
 21
182.498601
 31
0.0
  0
LINE
  5
B112
330
AF46
100
AcDbEntity
  8
1
  6
Continuous
100
AcDbLine
 10
339.556732
 20
186.386448
 30
0.0
 11
303.8649279999999
 21
186.386448
 31
0.0
  0
LINE
  5
B113
330
AF46
100
AcDbEntity
  8
1
  6
Continuous
100
AcDbLine
 10
305.0565529999999
 20
182.498601
 30
0.0
 11
337.8755019999999
 21
182.498601
 31
0.0
  0
LINE
  5
B114
330
AF46
100
AcDbEntity
  8
1
  6
Continuous
100
AcDbLine
 10
344.1973089999998
 20
179.6862319999999
 30
0.0
 11
348.851206
 21
148.369876
 31
0.0
  0
LINE
  5
B115
330
AF46
100
AcDbEntity
  8
1
  6
Continuous
100
AcDbLine
 10
336.169644
 20
178.2874209999999
 30
0.0
 11
336.169644
 21
149.0709879999998
 31
0.0
  0
ARC
  5
B116
330
AF46
100
AcDbEntity
  8
1
  6
Continuous
100
AcDbCircle
 10
337.276814
 20
178.155862
 30
0.0
 40
4.359511999999998
100
AcDbArc
 50
26.32472
 51
84.97236800000001
  0
LINE
  5
B117
330
AF46
100
AcDbEntity
  8
1
  6
Continuous
100
AcDbLine
 10
342.7579789999999
 20
179.6524039999999
 30
0.0
 11
336.1574589999999
 21
179.6524039999999
 31
0.0
  0
ARC
  5
B118
330
AF46
100
AcDbEntity
  8
1
  6
Continuous
100
AcDbCircle
 10
339.3860759999999
 20
189.997448
 30
0.0
 40
3.611
100
AcDbArc
 50
270.0
 51
333.779363
  0
ARC
  5
B119
330
AF46
100
AcDbEntity
  8
1
  6
Continuous
100
AcDbCircle
 10
342.1495929999999
 20
188.665634
 30
0.0
 40
8.995680999999997
100
AcDbArc
 50
265.980787
 51
270.813752
  0
ARC
  5
B11A
330
AF46
100
AcDbEntity
  8
1
  6
Continuous
100
AcDbCircle
 10
344.546921
 20
489.3778189999999
 30
0.0
 40
311.6925539999999
100
AcDbArc
 50
269.9903949999999
 51
270.3265229999999
  0
ARC
  5
B11B
330
AF46
100
AcDbEntity
  8
1
  6
Continuous
100
AcDbCircle
 10
344.6660009999998
 20
248.2698109999998
 30
0.0
 40
68.58518100000001
100
AcDbArc
 50
269.608454
 51
270.876118
  0
ARC
  5
B11C
330
AF46
100
AcDbEntity
  8
1
  6
Continuous
100
AcDbCircle
 10
344.068713
 20
160.868749
 30
0.0
 40
18.81792199999998
100
AcDbArc
 50
89.60845400000003
 51
92.995108
  0
ARC
  5
B11D
330
AF46
100
AcDbEntity
  8
1
  6
Continuous
100
AcDbCircle
 10
345.758206
 20
177.704509
 30
0.0
 40
1.988615
100
AcDbArc
 50
76.916679
 51
91.25340499999998
  0
ARC
  5
B11E
330
AF46
100
AcDbEntity
  8
1
  6
Continuous
100
AcDbCircle
 10
346.4589669999999
 20
179.3757089999998
 30
0.0
 40
0.140401
100
AcDbArc
 50
4.755418999999998
 51
53.96652299999998
  0
ARC
  5
B11F
330
AF46
100
AcDbEntity
  8
1
  6
Continuous
100
AcDbCircle
 10
345.999947
 20
178.744698
 30
0.0
 40
0.9207059999999998
100
AcDbArc
 50
53.96652299999998
 51
76.916679
  0
ARC
  5
B120
330
AF46
100
AcDbEntity
  8
1
  6
Continuous
100
AcDbCircle
 10
346.289901
 20
178.329744
 30
0.0
 40
0.640285
100
AcDbArc
 50
267.659662
 51
298.0988159999998
  0
ARC
  5
B121
330
AF46
100
AcDbEntity
  8
1
  6
Continuous
100
AcDbCircle
 10
401.425312
 20
180.630882
 30
0.0
 40
54.840528
100
AcDbArc
 50
181.299318
 51
182.2989619999999
  0
ARC
  5
B122
330
AF46
100
AcDbEntity
  8
1
  6
Continuous
100
AcDbCircle
 10
346.2047249999998
 20
177.963741
 30
0.0
 40
0.434857
100
AcDbArc
 50
332.793515
 51
12.371354
  0
ARC
  5
B123
330
AF46
100
AcDbEntity
  8
1
  6
Continuous
100
AcDbCircle
 10
347.746034
 20
178.2456399999999
 30
0.0
 40
1.132387999999999
100
AcDbArc
 50
170.577549
 51
189.5940659999999
  0
ARC
  5
B124
330
AF46
100
AcDbEntity
  8
1
  6
Continuous
100
AcDbCircle
 10
342.7579789999999
 20
185.919971
 30
0.0
 40
6.267566999999997
100
AcDbArc
 50
265.601965
 51
272.995108
  0
ARC
  5
B125
330
AF46
100
AcDbEntity
  8
1
  6
Continuous
100
AcDbCircle
 10
341.9127369999998
 20
180.0548349999999
 30
0.0
 40
0.72932
100
AcDbArc
 50
177.3053509999998
 51
188.6832409999999
  0
ARC
  5
B126
330
AF46
100
AcDbEntity
  8
1
  6
Continuous
100
AcDbCircle
 10
341.433175
 20
179.9815949999999
 30
0.0
 40
0.2441969999999999
100
AcDbArc
 50
188.6832409999999
 51
225.96857
  0
ARC
  5
B127
330
AF46
100
AcDbEntity
  8
1
  6
Continuous
100
AcDbCircle
 10
341.547747
 20
180.1001079999998
 30
0.0
 40
0.409037
100
AcDbArc
 50
225.96857
 51
265.980787
  0
LINE
  5
B128
330
AF46
100
AcDbEntity
  8
1
  6
Continuous
100
AcDbLine
 10
351.625502
 20
188.369573
 30
0.0
 11
351.625502
 21
190.369876
 31
0.0
  0
LINE
  5
B129
330
AF46
100
AcDbEntity
  8
1
  6
Continuous
100
AcDbLine
 10
325.2823559999999
 20
184.111835
 30
0.0
 11
327.2823559999999
 21
182.498601
 31
0.0
  0
LINE
  5
B12A
330
AF46
100
AcDbEntity
  8
1
  6
Continuous
100
AcDbLine
 10
326.453929
 20
184.111835
 30
0.0
 11
324.453929
 21
182.498601
 31
0.0
  0
LINE
  5
B12B
330
AF46
100
AcDbEntity
  8
1
  6
Continuous
100
AcDbLine
 10
326.69657
 20
184.111835
 30
0.0
 11
328.69657
 21
182.498601
 31
0.0
  0
LINE
  5
B12C
330
AF46
100
AcDbEntity
  8
1
  6
Continuous
100
AcDbLine
 10
329.2823559999998
 20
184.111835
 30
0.0
 11
327.2823559999999
 21
182.498601
 31
0.0
  0
LINE
  5
B12D
330
AF46
100
AcDbEntity
  8
1
  6
Continuous
100
AcDbLine
 10
328.110783
 20
184.111835
 30
0.0
 11
330.110783
 21
182.498601
 31
0.0
  0
LINE
  5
B12E
330
AF46
100
AcDbEntity
  8
1
  6
Continuous
100
AcDbLine
 10
329.5249969999999
 20
184.111835
 30
0.0
 11
331.5249969999999
 21
182.498601
 31
0.0
  0
LINE
  5
B12F
330
AF46
100
AcDbEntity
  8
1
  6
Continuous
100
AcDbLine
 10
330.939211
 20
184.111835
 30
0.0
 11
332.939211
 21
182.498601
 31
0.0
  0
LINE
  5
B130
330
AF46
100
AcDbEntity
  8
1
  6
Continuous
100
AcDbLine
 10
332.110783
 20
184.111835
 30
0.0
 11
330.110783
 21
182.498601
 31
0.0
  0
LINE
  5
B131
330
AF46
100
AcDbEntity
  8
1
  6
Continuous
100
AcDbLine
 10
338.0102779999999
 20
184.111835
 30
0.0
 11
340.0102779999999
 21
182.498601
 31
0.0
  0
LINE
  5
B132
330
AF46
100
AcDbEntity
  8
1
  6
Continuous
100
AcDbLine
 10
336.596065
 20
184.111835
 30
0.0
 11
338.596065
 21
182.498601
 31
0.0
  0
LINE
  5
B133
330
AF46
100
AcDbEntity
  8
1
  6
Continuous
100
AcDbLine
 10
340.1255019999999
 20
183.4108249999999
 30
0.0
 11
339.4244919999998
 21
184.111835
 31
0.0
  0
ARC
  5
B134
330
AF46
100
AcDbEntity
  8
1
  6
Continuous
100
AcDbCircle
 10
339.171171
 20
185.2579039999999
 30
0.0
 40
0.8364709999999998
100
AcDbArc
 50
19.341459
 51
77.625084
  0
ARC
  5
B135
330
AF46
100
AcDbEntity
  8
1
  6
Continuous
100
AcDbCircle
 10
333.713728
 20
186.963186
 30
0.0
 40
6.407901999999999
100
AcDbArc
 50
333.5783109999999
 51
347.121283
  0
LINE
  5
B136
330
AF46
100
AcDbEntity
  8
1
  6
Continuous
100
AcDbLine
 10
340.1255019999999
 20
184.111835
 30
0.0
 11
340.1255019999999
 21
182.498601
 31
0.0
  0
LINE
  5
B137
330
AF46
100
AcDbEntity
  8
1
  6
Continuous
100
AcDbLine
 10
340.1255019999999
 20
183.641272
 30
0.0
 11
338.596065
 21
182.498601
 31
0.0
  0
LINE
  5
B138
330
AF46
100
AcDbEntity
  8
1
  6
Continuous
100
AcDbLine
 10
335.181851
 20
184.111835
 30
0.0
 11
337.181851
 21
182.498601
 31
0.0
  0
LINE
  5
B139
330
AF46
100
AcDbEntity
  8
1
  6
Continuous
100
AcDbLine
 10
337.767638
 20
184.111835
 30
0.0
 11
335.767638
 21
182.498601
 31
0.0
  0
LINE
  5
B13A
330
AF46
100
AcDbEntity
  8
1
  6
Continuous
100
AcDbLine
 10
332.353424
 20
184.111835
 30
0.0
 11
334.353424
 21
182.498601
 31
0.0
  0
LINE
  5
B13B
330
AF46
100
AcDbEntity
  8
1
  6
Continuous
100
AcDbLine
 10
333.7676379999999
 20
184.111835
 30
0.0
 11
335.767638
 21
182.498601
 31
0.0
  0
LINE
  5
B13C
330
AF46
100
AcDbEntity
  8
1
  6
Continuous
100
AcDbLine
 10
334.939211
 20
184.111835
 30
0.0
 11
332.939211
 21
182.498601
 31
0.0
  0
ARC
  5
B13D
330
AF46
100
AcDbEntity
  8
1
  6
Continuous
100
AcDbCircle
 10
294.9133409999999
 20
152.2291109999999
 30
0.0
 40
26.994778
100
AcDbArc
 50
33.904437
 51
42.287157
  0
ARC
  5
B13E
330
AF46
100
AcDbEntity
  8
1
  6
Continuous
100
AcDbCircle
 10
384.7944339999998
 20
212.636803
 30
0.0
 40
81.299728
100
AcDbArc
 50
213.904437
 51
214.9632489999999
  0
ARC
  5
B13F
330
AF46
100
AcDbEntity
  8
1
  6
Continuous
100
AcDbCircle
 10
316.9976709999999
 20
161.041931
 30
0.0
 40
4.150134999999997
100
AcDbArc
 50
33.968948
 51
45.702543
  0
ARC
  5
B140
330
AF46
100
AcDbEntity
  8
1
  6
Continuous
100
AcDbCircle
 10
329.8605129999998
 20
174.2241459999999
 30
0.0
 40
14.267886
100
AcDbArc
 50
214.9632489999999
 51
225.7025429999999
  0
ARC
  5
B141
330
AF46
100
AcDbEntity
  8
1
  6
Continuous
100
AcDbCircle
 10
312.1565679999998
 20
199.8073149999999
 30
0.0
 40
25.564794
100
AcDbArc
 50
252.9021769999999
 51
262.7310089999999
  0
LINE
  5
B142
330
AF46
100
AcDbEntity
  8
1
  6
Continuous
100
AcDbLine
 10
308.311794
 20
184.111835
 30
0.0
 11
310.311794
 21
182.498601
 31
0.0
  0
LINE
  5
B143
330
AF46
100
AcDbEntity
  8
1
  6
Continuous
100
AcDbLine
 10
306.89758
 20
184.111835
 30
0.0
 11
308.89758
 21
182.498601
 31
0.0
  0
LINE
  5
B144
330
AF46
100
AcDbEntity
  8
1
  6
Continuous
100
AcDbLine
 10
309.4833659999999
 20
184.111835
 30
0.0
 11
307.4833659999999
 21
182.498601
 31
0.0
  0
ARC
  5
B145
330
AF46
100
AcDbEntity
  8
1
  6
Continuous
100
AcDbCircle
 10
304.911761
 20
147.5912319999999
 30
0.0
 40
27.174347
100
AcDbArc
 50
78.73786199999997
 51
80.75898700000001
  0
LINE
  5
B146
330
AF46
100
AcDbEntity
  8
1
  6
Continuous
100
AcDbLine
 10
309.7260069999999
 20
184.111835
 30
0.0
 11
311.7260069999999
 21
182.498601
 31
0.0
  0
LINE
  5
B147
330
AF46
100
AcDbEntity
  8
1
  6
Continuous
100
AcDbLine
 10
312.311794
 20
184.111835
 30
0.0
 11
310.311794
 21
182.498601
 31
0.0
  0
LINE
  5
B148
330
AF46
100
AcDbEntity
  8
1
  6
Continuous
100
AcDbLine
 10
311.140221
 20
184.111835
 30
0.0
 11
313.140221
 21
182.498601
 31
0.0
  0
LINE
  5
B149
330
AF46
100
AcDbEntity
  8
1
  6
Continuous
100
AcDbLine
 10
312.5544339999998
 20
184.111835
 30
0.0
 11
314.5544339999998
 21
182.498601
 31
0.0
  0
LINE
  5
B14A
330
AF46
100
AcDbEntity
  8
1
  6
Continuous
100
AcDbLine
 10
315.140221
 20
184.111835
 30
0.0
 11
313.140221
 21
182.498601
 31
0.0
  0
LINE
  5
B14B
330
AF46
100
AcDbEntity
  8
1
  6
Continuous
100
AcDbLine
 10
315.382861
 20
184.111835
 30
0.0
 11
317.382861
 21
182.498601
 31
0.0
  0
LINE
  5
B14C
330
AF46
100
AcDbEntity
  8
1
  6
Continuous
100
AcDbLine
 10
317.9686479999999
 20
184.111835
 30
0.0
 11
315.9686479999999
 21
182.498601
 31
0.0
  0
LINE
  5
B14D
330
AF46
100
AcDbEntity
  8
1
  6
Continuous
100
AcDbLine
 10
313.9686479999999
 20
184.111835
 30
0.0
 11
315.9686479999999
 21
182.498601
 31
0.0
  0
ARC
  5
B14E
330
AF46
100
AcDbEntity
  8
1
  6
Continuous
100
AcDbCircle
 10
310.631718
 20
170.313251
 30
0.0
 40
3.262005999999998
100
AcDbArc
 50
39.701034
 51
48.378449
  0
ARC
  5
B14F
330
AF46
100
AcDbEntity
  8
1
  6
Continuous
100
AcDbCircle
 10
309.5409969999999
 20
170.838233
 30
0.0
 40
3.470911
100
AcDbArc
 50
60.452662
 51
78.73786199999997
  0
ARC
  5
B150
330
AF46
100
AcDbEntity
  8
1
  6
Continuous
100
AcDbCircle
 10
306.796694
 20
165.997031
 30
0.0
 40
9.035839999999996
100
AcDbArc
 50
48.378449
 51
60.452662
  0
ARC
  5
B151
330
AF46
100
AcDbEntity
  8
1
  6
Continuous
100
AcDbCircle
 10
358.4149049999999
 20
209.985074
 30
0.0
 40
58.84344099999999
100
AcDbArc
 50
219.7010339999999
 51
222.287157
  0
ARC
  5
B152
330
AF46
100
AcDbEntity
  8
1
  6
Continuous
100
AcDbCircle
 10
309.725161
 20
180.7453689999999
 30
0.0
 40
6.348405999999997
100
AcDbArc
 50
262.7310089999999
 51
265.9394669999999
  0
LINE
  5
B153
330
AF46
100
AcDbEntity
  8
1
  6
Continuous
100
AcDbLine
 10
321.0397159999998
 20
184.111835
 30
0.0
 11
323.0397159999998
 21
182.498601
 31
0.0
  0
LINE
  5
B154
330
AF46
100
AcDbEntity
  8
1
  6
Continuous
100
AcDbLine
 10
323.6255019999999
 20
184.111835
 30
0.0
 11
321.6255019999999
 21
182.498601
 31
0.0
  0
LINE
  5
B155
330
AF46
100
AcDbEntity
  8
1
  6
Continuous
100
AcDbLine
 10
319.6255019999999
 20
184.111835
 30
0.0
 11
321.6255019999999
 21
182.498601
 31
0.0
  0
LINE
  5
B156
330
AF46
100
AcDbEntity
  8
1
  6
Continuous
100
AcDbLine
 10
320.797075
 20
184.111835
 30
0.0
 11
318.797075
 21
182.498601
 31
0.0
  0
LINE
  5
B157
330
AF46
100
AcDbEntity
  8
1
  6
Continuous
100
AcDbLine
 10
316.797075
 20
184.111835
 30
0.0
 11
318.797075
 21
182.498601
 31
0.0
  0
LINE
  5
B158
330
AF46
100
AcDbEntity
  8
1
  6
Continuous
100
AcDbLine
 10
318.2112879999999
 20
184.111835
 30
0.0
 11
320.2112879999999
 21
182.498601
 31
0.0
  0
LINE
  5
B159
330
AF46
100
AcDbEntity
  8
1
  6
Continuous
100
AcDbLine
 10
305.4833659999999
 20
184.111835
 30
0.0
 11
307.4833659999999
 21
182.498601
 31
0.0
  0
LINE
  5
B15A
330
AF46
100
AcDbEntity
  8
1
  6
Continuous
100
AcDbLine
 10
306.654939
 20
184.111835
 30
0.0
 11
304.654939
 21
182.498601
 31
0.0
  0
LINE
  5
B15B
330
AF46
100
AcDbEntity
  8
1
  6
Continuous
100
AcDbLine
 10
303.8265119999999
 20
184.111835
 30
0.0
 11
303.1255019999999
 21
183.4108249999999
 31
0.0
  0
ARC
  5
B15C
330
AF46
100
AcDbEntity
  8
1
  6
Continuous
100
AcDbCircle
 10
304.079833
 20
185.2579039999999
 30
0.0
 40
0.8364709999999998
100
AcDbArc
 50
102.3749159999999
 51
160.6585409999999
  0
ARC
  5
B15D
330
AF46
100
AcDbEntity
  8
1
  6
Continuous
100
AcDbCircle
 10
309.5372759999999
 20
186.963186
 30
0.0
 40
6.407901999999999
100
AcDbArc
 50
192.8787169999999
 51
205.64444
  0
LINE
  5
B15E
330
AF46
100
AcDbEntity
  8
1
  6
Continuous
100
AcDbLine
 10
303.1255019999999
 20
184.111835
 30
0.0
 11
303.1255019999999
 21
182.498601
 31
0.0
  0
LINE
  5
B15F
330
AF46
100
AcDbEntity
  8
1
  6
Continuous
100
AcDbLine
 10
303.1255019999999
 20
182.6138239999999
 30
0.0
 11
303.2407259999998
 21
182.498601
 31
0.0
  0
ARC
  5
B160
330
AF46
100
AcDbEntity
  8
1
  6
Continuous
100
AcDbCircle
 10
313.484208
 20
176.704375
 30
0.0
 40
10.81643699999998
100
AcDbArc
 50
160.4403529999999
 51
162.882645
  0
ARC
  5
B161
330
AF46
100
AcDbEntity
  8
1
  6
Continuous
100
AcDbCircle
 10
307.7319689999999
 20
178.4759019999999
 30
0.0
 40
4.797585999999999
100
AcDbArc
 50
162.882645
 51
177.353025
  0
ARC
  5
B162
330
AF46
100
AcDbEntity
  8
1
  6
Continuous
100
AcDbCircle
 10
295.9557439999999
 20
178.5241919999999
 30
0.0
 40
6.985907
100
AcDbArc
 50
353.0180029999999
 51
1.421261
  0
LINE
  5
B163
330
AF46
100
AcDbEntity
  8
1
  6
Continuous
100
AcDbLine
 10
303.827471
 20
175.3819969999999
 30
0.0
 11
303.8855709999999
 21
175.3924529999999
 31
0.0
  0
ARC
  5
B164
330
AF46
100
AcDbEntity
  8
1
  6
Continuous
100
AcDbCircle
 10
303.9955739999999
 20
185.499407
 30
0.0
 40
10.10755199999998
100
AcDbArc
 50
269.3764279999999
 51
271.8826729999999
  0
ARC
  5
B165
330
AF46
100
AcDbEntity
  8
1
  6
Continuous
100
AcDbCircle
 10
307.864618
 20
179.01377
 30
0.0
 40
4.757115999999999
100
AcDbArc
 50
141.843592
 51
163.9927399999999
  0
LINE
  5
B166
330
AF46
100
AcDbEntity
  8
1
  6
Continuous
100
AcDbLine
 10
302.875285
 20
177.616486
 30
0.0
 11
302.6255019999999
 21
175.762876
 31
0.0
  0
LINE
  5
B167
330
AF46
100
AcDbEntity
  8
1
  6
Continuous
100
AcDbLine
 10
303.827471
 20
175.3819969999999
 30
0.0
 11
302.6255019999999
 21
175.762876
 31
0.0
  0
LINE
  5
B168
330
AF46
100
AcDbEntity
  8
1
  6
Continuous
100
AcDbLine
 10
304.0691529999999
 20
184.111835
 30
0.0
 11
306.0691529999999
 21
182.498601
 31
0.0
  0
LINE
  5
B169
330
AF46
100
AcDbEntity
  8
1
  6
Continuous
100
AcDbLine
 10
303.1255019999999
 20
183.641272
 30
0.0
 11
304.654939
 21
182.498601
 31
0.0
  0
ARC
  5
B16A
330
AF46
100
AcDbEntity
  8
1
  6
Continuous
100
AcDbCircle
 10
305.6958179999999
 20
180.3367859999999
 30
0.0
 40
2.254351999999999
100
AcDbArc
 50
106.473291
 51
134.206902
  0
ARC
  5
B16B
330
AF46
100
AcDbEntity
  8
1
  6
Continuous
100
AcDbCircle
 10
304.524221
 20
175.8890879999999
 30
0.0
 40
0.529613
100
AcDbArc
 50
248.2113149999999
 51
282.6736619999999
  0
ARC
  5
B16C
330
AF46
100
AcDbEntity
  8
1
  6
Continuous
100
AcDbCircle
 10
303.8649279999999
 20
189.997448
 30
0.0
 40
3.611
100
AcDbArc
 50
206.220637
 51
270.0
  0
LINE
  5
B16D
330
AF46
100
AcDbEntity
  8
1
  6
Continuous
100
AcDbLine
 10
291.6255019999999
 20
188.369573
 30
0.0
 11
291.6255019999999
 21
190.369876
 31
0.0
  0
LINE
  5
B16E
330
AF46
100
AcDbEntity
  8
4
  6
CENTER
100
AcDbLine
 10
341.625617
 20
120.3698759999999
 30
0.0
 11
341.625617
 21
176.369876
 31
0.0
  0
LINE
  5
B16F
330
AF46
100
AcDbEntity
  8
4
  6
CENTER
100
AcDbLine
 10
183.908626
 20
67.085669
 30
0.0
 11
99.41836700000001
 21
67.085669
 31
0.0
  0
LINE
  5
B170
330
AF46
100
AcDbEntity
  8
4
  6
CENTER
100
AcDbLine
 10
179.158626
 20
52.58566899999999
 30
0.0
 11
166.658626
 21
52.58566899999999
 31
0.0
  0
LINE
  5
B171
330
AF46
100
AcDbEntity
  8
4
  6
CENTER
100
AcDbLine
 10
179.158626
 20
81.58566899999998
 30
0.0
 11
166.658626
 21
81.58566899999998
 31
0.0
  0
ARC
  5
B172
330
AF46
100
AcDbEntity
  8
1
  6
Continuous
100
AcDbCircle
 10
176.9086259999999
 20
85.58566899999998
 30
0.0
 40
2.5
100
AcDbArc
 50
0.0
 51
90.0
  0
ARC
  5
B173
330
AF46
100
AcDbEntity
  8
1
  6
Continuous
100
AcDbCircle
 10
176.9086259999999
 20
48.585669
 30
0.0
 40
2.5
100
AcDbArc
 50
270.0
 51
0.0
  0
LINE
  5
B174
330
AF46
100
AcDbEntity
  8
1
  6
Continuous
100
AcDbLine
 10
119.4086259999999
 20
48.585669
 30
0.0
 11
119.4086259999999
 21
56.08566899999999
 31
0.0
  0
LINE
  5
B175
330
AF46
100
AcDbEntity
  8
4
  6
CENTER
100
AcDbLine
 10
149.4086259999999
 20
41.085669
 30
0.0
 11
149.4086259999999
 21
93.217414
 31
0.0
  0
LINE
  5
B176
330
AF46
100
AcDbEntity
  8
4
  6
CENTER
100
AcDbLine
 10
125.9086259999999
 20
75.33566899999998
 30
0.0
 11
125.9086259999999
 21
87.83566899999998
 31
0.0
  0
LINE
  5
B177
330
AF46
100
AcDbEntity
  8
4
  6
CENTER
100
AcDbLine
 10
172.908626
 20
75.33566899999998
 30
0.0
 11
172.908626
 21
87.83566899999998
 31
0.0
  0
LINE
  5
B178
330
AF46
100
AcDbEntity
  8
1
  6
Continuous
100
AcDbLine
 10
121.908626
 20
88.08566899999998
 30
0.0
 11
176.9086259999999
 21
88.08566899999998
 31
0.0
  0
LINE
  5
B179
330
AF46
100
AcDbEntity
  8
4
  6
CENTER
100
AcDbLine
 10
132.1586259999999
 20
81.58566899999998
 30
0.0
 11
119.6586259999999
 21
81.58566899999998
 31
0.0
  0
ARC
  5
B17A
330
AF46
100
AcDbEntity
  8
1
  6
Continuous
100
AcDbCircle
 10
125.9086259999999
 20
81.58566899999998
 30
0.0
 40
3.25
100
AcDbArc
 50
31.645449
 51
175.962152
  0
ARC
  5
B17B
330
AF46
100
AcDbEntity
  8
1
  6
Continuous
100
AcDbCircle
 10
121.908626
 20
85.58566899999998
 30
0.0
 40
2.5
100
AcDbArc
 50
90.0
 51
180.0
  0
CIRCLE
  5
B17C
330
AF46
100
AcDbEntity
  8
1
  6
Continuous
100
AcDbCircle
 10
172.908626
 20
81.58566899999998
 30
0.0
 40
3.25
  0
LINE
  5
B17D
330
AF46
100
AcDbEntity
  8
1
  6
Continuous
100
AcDbLine
 10
121.908626
 20
46.085669
 30
0.0
 11
176.9086259999999
 21
46.085669
 31
0.0
  0
ARC
  5
B17E
330
AF46
100
AcDbEntity
  8
1
  6
Continuous
100
AcDbCircle
 10
125.9086259999999
 20
52.58566899999999
 30
0.0
 40
3.25
100
AcDbArc
 50
122.2042279999999
 51
147.000273
  0
LINE
  5
B17F
330
AF46
100
AcDbEntity
  8
4
  6
CENTER
100
AcDbLine
 10
125.9086259999999
 20
58.83566899999999
 30
0.0
 11
125.9086259999999
 21
46.335669
 31
0.0
  0
LINE
  5
B180
330
AF46
100
AcDbEntity
  8
4
  6
CENTER
100
AcDbLine
 10
132.1586259999999
 20
52.58566899999999
 30
0.0
 11
119.6586259999999
 21
52.58566899999999
 31
0.0
  0
ARC
  5
B181
330
AF46
100
AcDbEntity
  8
1
  6
Continuous
100
AcDbCircle
 10
121.908626
 20
48.585669
 30
0.0
 40
2.5
100
AcDbArc
 50
180.0
 51
270.0
  0
LINE
  5
B182
330
AF46
100
AcDbEntity
  8
4
  6
CENTER
100
AcDbLine
 10
172.908626
 20
58.83566899999999
 30
0.0
 11
172.908626
 21
46.335669
 31
0.0
  0
CIRCLE
  5
B183
330
AF46
100
AcDbEntity
  8
1
  6
Continuous
100
AcDbCircle
 10
172.908626
 20
52.58566899999999
 30
0.0
 40
3.25
  0
LINE
  5
B184
330
AF46
100
AcDbEntity
  8
1
  6
Continuous
100
AcDbLine
 10
179.408626
 20
48.585669
 30
0.0
 11
179.408626
 21
85.58566899999998
 31
0.0
  0
ARC
  5
B185
330
AF46
100
AcDbEntity
  8
1
  6
Continuous
100
AcDbCircle
 10
129.408073
 20
56.613225
 30
0.0
 40
6.770832999999998
100
AcDbArc
 50
231.11993
 51
308.8800700000001
  0
LINE
  5
B186
330
AF46
100
AcDbEntity
  8
1
  6
Continuous
100
AcDbLine
 10
126.408073
 20
54.33598899999999
 30
0.0
 11
126.408073
 21
55.336119
 31
0.0
  0
LINE
  5
B187
330
AF46
100
AcDbEntity
  8
1
  6
Continuous
100
AcDbLine
 10
123.3352189999999
 20
55.74884499999999
 30
0.0
 11
123.275828
 21
56.08566899999999
 31
0.0
  0
ARC
  5
B188
330
AF46
100
AcDbEntity
  8
1
  6
Continuous
100
AcDbCircle
 10
123.827623
 20
55.835669
 30
0.0
 40
0.5
100
AcDbArc
 50
190.0
 51
270.0
  0
ARC
  5
B189
330
AF46
100
AcDbEntity
  8
1
  6
Continuous
100
AcDbCircle
 10
123.827623
 20
55.835669
 30
0.0
 40
0.5
100
AcDbArc
 50
190.0
 51
270.0
  0
LINE
  5
B18A
330
AF46
100
AcDbEntity
  8
1
  6
Continuous
100
AcDbLine
 10
125.158073
 20
51.34239199999999
 30
0.0
 11
125.158073
 21
52.333315
 31
0.0
  0
LINE
  5
B18B
330
AF46
100
AcDbEntity
  8
1
  6
Continuous
100
AcDbLine
 10
135.480927
 20
55.74884499999999
 30
0.0
 11
135.5403179999999
 21
56.08566899999999
 31
0.0
  0
LINE
  5
B18C
330
AF46
100
AcDbEntity
  8
1
  6
Continuous
100
AcDbLine
 10
132.408073
 20
54.34880299999999
 30
0.0
 11
132.408073
 21
55.336119
 31
0.0
  0
ARC
  5
B18D
330
AF46
100
AcDbEntity
  8
1
  6
Continuous
100
AcDbCircle
 10
134.9885229999999
 20
55.835669
 30
0.0
 40
0.5
100
AcDbArc
 50
270.0
 51
350.0
  0
ARC
  5
B18E
330
AF46
100
AcDbEntity
  8
1
  6
Continuous
100
AcDbCircle
 10
134.9885229999999
 20
55.835669
 30
0.0
 40
0.5
100
AcDbArc
 50
270.0
 51
350.0
  0
LINE
  5
B18F
330
AF46
100
AcDbEntity
  8
1
  6
Continuous
100
AcDbLine
 10
133.658073
 20
51.34239199999999
 30
0.0
 11
133.658073
 21
52.333591
 31
0.0
  0
LINE
  5
B190
330
AF46
100
AcDbEntity
  8
1
  6
Continuous
100
AcDbLine
 10
125.158073
 20
51.34239199999999
 30
0.0
 11
133.658073
 21
51.34239199999999
 31
0.0
  0
LINE
  5
B191
330
AF46
100
AcDbEntity
  8
1
  6
Continuous
100
AcDbLine
 10
123.827623
 20
55.335669
 30
0.0
 11
134.9885229999999
 21
55.335669
 31
0.0
  0
ARC
  5
B192
330
AF46
100
AcDbEntity
  8
1
  6
Continuous
100
AcDbCircle
 10
129.393594
 20
76.549025
 30
0.0
 40
6.779940999999999
100
AcDbArc
 50
51.02474
 51
128.730535
  0
LINE
  5
B193
330
AF46
100
AcDbEntity
  8
1
  6
Continuous
100
AcDbLine
 10
126.408073
 20
78.83611899999998
 30
0.0
 11
126.408073
 21
79.82242099999997
 31
0.0
  0
ARC
  5
B194
330
AF46
100
AcDbEntity
  8
1
  6
Continuous
100
AcDbCircle
 10
123.827623
 20
78.33566899999998
 30
0.0
 40
0.5
100
AcDbArc
 50
90.0
 51
170.0
  0
LINE
  5
B195
330
AF46
100
AcDbEntity
  8
1
  6
Continuous
100
AcDbLine
 10
123.3352189999999
 20
78.422493
 30
0.0
 11
123.275828
 21
78.08566899999998
 31
0.0
  0
ARC
  5
B196
330
AF46
100
AcDbEntity
  8
1
  6
Continuous
100
AcDbCircle
 10
123.827623
 20
78.33566899999998
 30
0.0
 40
0.5
100
AcDbArc
 50
90.0
 51
170.0
  0
LINE
  5
B197
330
AF46
100
AcDbEntity
  8
1
  6
Continuous
100
AcDbLine
 10
123.3352189999999
 20
78.422493
 30
0.0
 11
123.275828
 21
78.08566899999998
 31
0.0
  0
LINE
  5
B198
330
AF46
100
AcDbEntity
  8
1
  6
Continuous
100
AcDbLine
 10
132.408073
 20
78.83611899999998
 30
0.0
 11
132.408073
 21
79.822535
 31
0.0
  0
ARC
  5
B199
330
AF46
100
AcDbEntity
  8
1
  6
Continuous
100
AcDbCircle
 10
134.9885229999999
 20
78.33566899999998
 30
0.0
 40
0.5
100
AcDbArc
 50
10.0
 51
90.0
  0
LINE
  5
B19A
330
AF46
100
AcDbEntity
  8
1
  6
Continuous
100
AcDbLine
 10
135.480927
 20
78.422493
 30
0.0
 11
135.5403179999999
 21
78.08566899999998
 31
0.0
  0
ARC
  5
B19B
330
AF46
100
AcDbEntity
  8
1
  6
Continuous
100
AcDbCircle
 10
134.9885229999999
 20
78.33566899999998
 30
0.0
 40
0.5
100
AcDbArc
 50
10.0
 51
90.0
  0
LINE
  5
B19C
330
AF46
100
AcDbEntity
  8
1
  6
Continuous
100
AcDbLine
 10
135.480927
 20
78.422493
 30
0.0
 11
135.5403179999999
 21
78.08566899999998
 31
0.0
  0
LINE
  5
B19D
330
AF46
100
AcDbEntity
  8
1
  6
Continuous
100
AcDbLine
 10
123.827623
 20
78.83566899999998
 30
0.0
 11
134.9885229999999
 21
78.83566899999998
 31
0.0
  0
LINE
  5
B19E
330
AF46
100
AcDbEntity
  8
1
  6
Continuous
100
AcDbLine
 10
134.3212709999999
 20
81.83914799999998
 30
0.0
 11
122.118531
 21
81.81336100000001
 31
0.0
  0
LINE
  5
B19F
330
AF46
100
AcDbEntity
  8
1
  6
Continuous
100
AcDbLine
 10
134.325498
 20
79.83915299999998
 30
0.0
 11
122.118531
 21
79.813356
 31
0.0
  0
LINE
  5
B1A0
330
AF46
100
AcDbEntity
  8
1
  6
Continuous
100
AcDbLine
 10
134.3212709999999
 20
52.33219
 30
0.0
 11
122.118531
 21
52.35797699999999
 31
0.0
  0
LINE
  5
B1A1
330
AF46
100
AcDbEntity
  8
1
  6
Continuous
100
AcDbLine
 10
134.325498
 20
54.332186
 30
0.0
 11
122.118531
 21
54.35798199999999
 31
0.0
  0
LINE
  5
B1A2
330
AF46
100
AcDbEntity
  8
1
  6
Continuous
100
AcDbLine
 10
106.8222129999999
 20
56.08566899999999
 30
0.0
 11
151.9939329999999
 21
56.08566899999999
 31
0.0
  0
LINE
  5
B1A3
330
AF46
100
AcDbEntity
  8
1
  6
Continuous
100
AcDbLine
 10
106.8222129999999
 20
78.08566899999998
 30
0.0
 11
151.9939329999999
 21
78.08566899999998
 31
0.0
  0
ARC
  5
B1A4
330
AF46
100
AcDbEntity
  8
1
  6
Continuous
100
AcDbCircle
 10
54.408073
 20
67.085669
 30
0.0
 40
100.0
100
AcDbArc
 50
354.730718
 51
5.269982999999998
  0
ARC
  5
B1A5
330
AF46
100
AcDbEntity
  8
1
  6
Continuous
100
AcDbCircle
 10
151.9939329999999
 20
76.08566899999998
 30
0.0
 40
2.0
100
AcDbArc
 50
5.269281999999998
 51
90.0
  0
ARC
  5
B1A6
330
AF46
100
AcDbEntity
  8
1
  6
Continuous
100
AcDbCircle
 10
151.9939329999999
 20
58.08566899999998
 30
0.0
 40
2.0
100
AcDbArc
 50
270.0
 51
354.730718
  0
ARC
  5
B1A7
330
AF46
100
AcDbEntity
  8
1
  6
Continuous
100
AcDbCircle
 10
106.8222129999999
 20
58.08566899999998
 30
0.0
 40
2.0
100
AcDbArc
 50
185.269282
 51
270.0
  0
ARC
  5
B1A8
330
AF46
100
AcDbEntity
  8
1
  6
Continuous
100
AcDbCircle
 10
204.408073
 20
67.085669
 30
0.0
 40
100.0
100
AcDbArc
 50
174.730017
 51
185.269282
  0
ARC
  5
B1A9
330
AF46
100
AcDbEntity
  8
1
  6
Continuous
100
AcDbCircle
 10
106.8222129999999
 20
76.08566899999998
 30
0.0
 40
2.0
100
AcDbArc
 50
90.0
 51
174.730718
  0
LINE
  5
B1AA
330
AF46
100
AcDbEntity
  8
4
  6
CENTER
100
AcDbLine
 10
129.408073
 20
93.217414
 30
0.0
 11
129.408073
 21
41.085669
 31
0.0
  0
LINE
  5
B1AB
330
AF46
100
AcDbEntity
  8
1
  6
Continuous
100
AcDbLine
 10
119.4086259999999
 20
78.08566899999998
 30
0.0
 11
119.4086259999999
 21
85.58566899999998
 31
0.0
  0
LINE
  5
B1AC
330
AF46
100
AcDbEntity
  8
1
  6
Continuous
100
AcDbLine
 10
122.118531
 20
81.81336100000001
 30
0.0
 11
122.118531
 21
79.813356
 31
0.0
  0
LINE
  5
B1AD
330
AF46
100
AcDbEntity
  8
1
  6
Continuous
100
AcDbLine
 10
122.118531
 20
54.35798199999999
 30
0.0
 11
122.118531
 21
52.35797699999999
 31
0.0
  0
ARC
  5
B1AE
330
AF46
100
AcDbEntity
  8
1
  6
Continuous
100
AcDbCircle
 10
149.4086259999999
 20
67.085669
 30
0.0
 40
19.0
100
AcDbArc
 50
238.601835
 51
121.398165
  0
ARC
  5
B1AF
330
AF46
100
AcDbEntity
  8
1
  6
Continuous
100
AcDbCircle
 10
149.4086259999999
 20
67.085669
 30
0.0
 40
17.0
100
AcDbArc
 50
238.601834
 51
121.3981659999999
  0
ARC
  5
B1B0
330
AF46
100
AcDbEntity
  8
1
  6
Continuous
100
AcDbCircle
 10
134.3001389999998
 20
91.83912599999999
 30
0.0
 40
10.0
100
AcDbArc
 50
270.12108
 51
301.398165
  0
ARC
  5
B1B1
330
AF46
100
AcDbEntity
  8
1
  6
Continuous
100
AcDbCircle
 10
134.3001389999998
 20
91.83912599999999
 30
0.0
 40
12.0
100
AcDbArc
 50
270.121082
 51
301.398166
  0
ARC
  5
B1B2
330
AF46
100
AcDbEntity
  8
1
  6
Continuous
100
AcDbCircle
 10
134.3001389999998
 20
42.332212
 30
0.0
 40
10.0
100
AcDbArc
 50
58.60183499999998
 51
89.87891999999998
  0
ARC
  5
B1B3
330
AF46
100
AcDbEntity
  8
1
  6
Continuous
100
AcDbCircle
 10
134.3001389999998
 20
42.332212
 30
0.0
 40
12.0
100
AcDbArc
 50
58.601834
 51
89.87891799999998
  0
ARC
  5
B1B4
330
AF46
100
AcDbEntity
  8
1
  6
Continuous
100
AcDbCircle
 10
125.9086259999999
 20
81.58566899999998
 30
0.0
 40
3.25
100
AcDbArc
 50
212.999727
 51
237.795772
  0
ARC
  5
B1B5
330
AF46
100
AcDbEntity
  8
1
  6
Continuous
100
AcDbCircle
 10
125.9086259999999
 20
52.58566899999999
 30
0.0
 40
3.25
100
AcDbArc
 50
184.037848
 51
307.681712
  0
ARC
  5
B1B6
330
AF46
100
AcDbEntity
  8
1
  6
Continuous
100
AcDbCircle
 10
149.4086259999999
 20
67.085669
 30
0.0
 40
13.2
100
AcDbArc
 50
236.44269
 51
123.55731
  0
ARC
  5
B1B7
330
AF46
100
AcDbEntity
  8
1
  6
Continuous
100
AcDbCircle
 10
149.4086259999999
 20
67.085669
 30
0.0
 40
15.09999999999999
100
AcDbArc
 50
226.758852
 51
133.241148
  0
ARC
  5
B1B8
330
AF46
100
AcDbEntity
  8
1
  6
Continuous
100
AcDbCircle
 10
149.4086259999999
 20
67.085669
 30
0.0
 40
5.4
100
AcDbArc
 50
337.185281
 51
22.814719
  0
ARC
  5
B1B9
330
AF46
100
AcDbEntity
  8
1
  6
Continuous
100
AcDbCircle
 10
149.4086259999999
 20
67.085669
 30
0.0
 40
20.983387
100
AcDbArc
 50
224.683268
 51
135.316732
  0
LINE
  5
B1BA
330
AF46
100
AcDbEntity
  8
1
  6
Continuous
100
AcDbLine
 10
129.149562
 20
231.9115329999999
 30
0.0
 11
122.6666929999999
 21
231.9252329999999
 31
0.0
  0
ARC
  5
B1BB
330
AF46
100
AcDbEntity
  8
1
  6
Continuous
100
AcDbCircle
 10
129.393594
 20
237.190727
 30
0.0
 40
6.779940999999999
100
AcDbArc
 50
231.269465
 51
263.9191809999999
  0
LINE
  5
B1BC
330
AF46
100
AcDbEntity
  8
1
  6
Continuous
100
AcDbLine
 10
126.218194
 20
233.917733
 30
0.0
 11
123.1829379999998
 21
233.9241470000001
 31
0.0
  0
LINE
  5
B1BD
330
AF46
100
AcDbEntity
  8
1
  6
Continuous
100
AcDbLine
 10
124.176575
 20
234.904083
 30
0.0
 11
125.949333
 21
234.904083
 31
0.0
  0
ARC
  5
B1BE
330
AF46
100
AcDbEntity
  8
1
  6
Continuous
100
AcDbCircle
 10
125.9086259999999
 20
232.1540829999999
 30
0.0
 40
3.25
100
AcDbArc
 50
122.2042279999999
 51
147.000273
  0
ARC
  5
B1BF
330
AF46
100
AcDbEntity
  8
1
  6
Continuous
100
AcDbCircle
 10
125.9086259999999
 20
261.154083
 30
0.0
 40
3.25
100
AcDbArc
 50
52.31828799999998
 51
175.962152
  0
LINE
  5
B1C0
330
AF46
100
AcDbEntity
  8
1
  6
Continuous
100
AcDbLine
 10
125.158073
 20
262.3973599999998
 30
0.0
 11
128.911418
 21
262.3973599999998
 31
0.0
  0
ARC
  5
B1C1
330
AF46
100
AcDbEntity
  8
1
  6
Continuous
100
AcDbCircle
 10
129.408073
 20
257.126527
 30
0.0
 40
6.770832999999998
100
AcDbArc
 50
102.9105539999999
 51
128.8800699999999
  0
LINE
  5
B1C2
330
AF46
100
AcDbEntity
  8
1
  6
Continuous
100
AcDbLine
 10
125.158073
 20
262.3973599999998
 30
0.0
 11
125.158073
 21
261.4064369999999
 31
0.0
  0
LINE
  5
B1C3
330
AF46
100
AcDbEntity
  8
1
  6
Continuous
100
AcDbLine
 10
124.176575
 20
258.404083
 30
0.0
 11
125.949333
 21
258.404083
 31
0.0
  0
LINE
  5
B1C4
330
AF46
100
AcDbEntity
  8
1
  6
Continuous
100
AcDbLine
 10
129.149562
 20
261.396633
 30
0.0
 11
122.6666929999999
 21
261.3829329999999
 31
0.0
  0
LINE
  5
B1C5
330
AF46
100
AcDbEntity
  8
1
  6
Continuous
100
AcDbLine
 10
126.218194
 20
259.3904339999999
 30
0.0
 11
123.1829379999998
 21
259.3840189999998
 31
0.0
  0
ARC
  5
B1C6
330
AF46
100
AcDbEntity
  8
1
  6
Continuous
100
AcDbCircle
 10
170.999358
 20
67.085669
 30
0.0
 40
46.55713999999998
100
AcDbArc
 50
164.1235529999999
 51
165.381723
  0
ARC
  5
B1C7
330
AF46
100
AcDbEntity
  8
1
  6
Continuous
100
AcDbCircle
 10
170.999358
 20
67.085669
 30
0.0
 40
46.55713999999998
100
AcDbArc
 50
194.618277
 51
195.876447
  0
ARC
  5
B1C8
330
AF46
100
AcDbEntity
  8
1
  6
Continuous
100
AcDbCircle
 10
170.999358
 20
246.654083
 30
0.0
 40
46.55713999999998
100
AcDbArc
 50
193.9847279999999
 51
198.45441
  0
ARC
  5
B1C9
330
AF46
100
AcDbEntity
  8
1
  6
Continuous
100
AcDbCircle
 10
170.999358
 20
246.654083
 30
0.0
 40
46.55713999999998
100
AcDbArc
 50
161.54559
 51
166.015272
  0
ARC
  5
B1CA
330
AF46
100
AcDbEntity
  8
1
  6
Continuous
100
AcDbCircle
 10
173.601604
 20
162.4823079999999
 30
0.0
 40
79.02195899999998
100
AcDbArc
 50
356.526268
 51
3.236625
  0
LINE
  5
B1CB
330
AF46
100
AcDbEntity
  8
1
  6
Continuous
100
AcDbLine
 10
250.247651
 20
142.5537789999999
 30
0.0
 11
250.2405779999999
 21
139.2066269999999
 31
0.0
  0
ARC
  5
B1CC
330
AF46
100
AcDbEntity
  8
1
  6
Continuous
100
AcDbCircle
 10
237.4447889999999
 20
157.6942949999998
 30
0.0
 40
17.07205599999999
100
AcDbArc
 50
328.555994
 51
0.0
  0
ARC
  5
B1CD
330
AF46
100
AcDbEntity
  8
1
  6
Continuous
100
AcDbCircle
 10
235.406318
 20
157.6942949999998
 30
0.0
 40
17.07205599999999
100
AcDbArc
 50
328.702125
 51
0.0
  0
ARC
  5
B1CE
330
AF46
100
AcDbEntity
  8
1
  6
Continuous
100
AcDbCircle
 10
262.2476239999999
 20
142.5284199999999
 30
0.0
 40
12.0
100
AcDbArc
 50
148.5559939999999
 51
179.8789199999999
  0
ARC
  5
B1CF
330
AF46
100
AcDbEntity
  8
1
  6
Continuous
100
AcDbCircle
 10
260.2477529999998
 20
142.5917279999999
 30
0.0
 40
12.0
100
AcDbArc
 50
148.7021249999999
 51
179.8789179999999
  0
ARC
  5
B1D0
330
AF46
100
AcDbEntity
  8
1
  6
Continuous
100
AcDbCircle
 10
235.6273709999999
 20
157.6942949999998
 30
0.0
 40
17.07205599999999
100
AcDbArc
 50
180.0
 51
211.2978749999999
  0
ARC
  5
B1D1
330
AF46
100
AcDbEntity
  8
1
  6
Continuous
100
AcDbCircle
 10
233.5889009999999
 20
157.6942949999998
 30
0.0
 40
17.07205599999999
100
AcDbArc
 50
180.0
 51
211.444006
  0
ARC
  5
B1D2
330
AF46
100
AcDbEntity
  8
1
  6
Continuous
100
AcDbCircle
 10
208.7860649999998
 20
142.5284199999999
 30
0.0
 40
12.0
100
AcDbArc
 50
0.12108
 51
31.44400599999999
  0
ARC
  5
B1D3
330
AF46
100
AcDbEntity
  8
1
  6
Continuous
100
AcDbCircle
 10
210.7859359999999
 20
142.5917279999999
 30
0.0
 40
12.0
100
AcDbArc
 50
0.121082
 51
31.297875
  0
LINE
  5
B1D4
330
AF46
100
AcDbEntity
  8
4
  6
CENTER
100
AcDbLine
 10
129.408626
 20
272.654083
 30
0.0
 11
129.408626
 21
220.522338
 31
0.0
  0
ENDSEC
  0
SECTION
  2
OBJECTS
  0
DICTIONARY
  5
AF34
330
0
100
AcDbDictionary
281
     1
  3
ACAD_CIP_PREVIOUS_PRODUCT_INFO
350
B236
  3
ACAD_COLOR
350
B218
  3
ACAD_DETAILVIEWSTYLE
350
B231
  3
ACAD_GROUP
350
AF35
  3
ACAD_LAYOUT
350
AF41
  3
ACAD_MATERIAL
350
B1E6
  3
ACAD_MLEADERSTYLE
350
B22D
  3
ACAD_MLINESTYLE
350
AF3E
  3
ACAD_PLOTSETTINGS
350
AF40
  3
ACAD_PLOTSTYLENAME
350
B1E4
  3
ACAD_SCALELIST
350
B21B
  3
ACAD_SECTIONVIEWSTYLE
350
B22F
  3
ACAD_TABLESTYLE
350
B219
  3
ACAD_VISUALSTYLE
350
B1FF
  3
ACDB_RECOMPOSE_DATA
350
B254
  3
AcDbVariableDictionary
350
B247
  3
DWGPROPS
350
B255
  0
DICTIONARY
  5
B237
330
AF38
100
AcDbDictionary
280
     1
281
     1
  3
ADSK_XREC_LAYER_RECONCILED
360
B238
  0
DICTIONARY
  5
B239
330
AF4E
100
AcDbDictionary
280
     1
281
     1
  3
ADSK_XREC_LAYER_RECONCILED
360
B23A
  0
DICTIONARY
  5
B23B
330
AF4F
100
AcDbDictionary
280
     1
281
     1
  3
ADSK_XREC_LAYER_RECONCILED
360
B23C
  0
DICTIONARY
  5
B23D
330
AF50
100
AcDbDictionary
280
     1
281
     1
  3
ADSK_XREC_LAYER_RECONCILED
360
B23E
  0
DICTIONARY
  5
B23F
330
AF51
100
AcDbDictionary
280
     1
281
     1
  3
ADSK_XREC_LAYER_RECONCILED
360
B240
  0
DICTIONARY
  5
B241
330
AF52
100
AcDbDictionary
280
     1
281
     1
  3
ADSK_XREC_LAYER_RECONCILED
360
B242
  0
DICTIONARY
  5
B243
330
AF53
100
AcDbDictionary
280
     1
281
     1
  3
ADSK_XREC_LAYER_RECONCILED
360
B244
  0
DICTIONARY
  5
B245
330
AF54
100
AcDbDictionary
280
     1
281
     1
  3
ADSK_XREC_LAYER_RECONCILED
360
B246
  0
DICTIONARY
  5
B1DF
330
AF46
100
AcDbDictionary
281
     1
  3
ACAD_LAYOUTSELFREF
350
B1E0
  0
DICTIONARY
  5
B1DD
330
AF42
100
AcDbDictionary
281
     1
  3
ACAD_LAYOUTSELFREF
350
B1DE
  0
XRECORD
  5
B236
102
{ACAD_REACTORS
330
AF34
102
}
330
AF34
100
AcDbXrecord
280
     1
300
ACDLT
300
2014
300
ACDLT_F_S
  0
DICTIONARY
  5
B218
102
{ACAD_REACTORS
330
AF34
102
}
330
AF34
100
AcDbDictionary
281
     1
  0
DICTIONARY
  5
B231
102
{ACAD_REACTORS
330
AF34
102
}
330
AF34
100
AcDbDictionary
281
     1
  3
Imperial24
350
B232
  0
DICTIONARY
  5
AF35
102
{ACAD_REACTORS
330
AF34
102
}
330
AF34
100
AcDbDictionary
281
     1
  0
DICTIONARY
  5
AF41
102
{ACAD_REACTORS
330
AF34
102
}
330
AF34
100
AcDbDictionary
281
     1
  3
Model
350
B233
  3
レイアウト1
350
B234
  0
DICTIONARY
  5
B1E6
102
{ACAD_REACTORS
330
AF34
102
}
330
AF34
100
AcDbDictionary
281
     1
  3
ByBlock
350
B1EF
  3
ByLayer
350
B1E7
  3
Global
350
B1F7
  0
DICTIONARY
  5
B22D
102
{ACAD_REACTORS
330
AF34
102
}
330
AF34
100
AcDbDictionary
281
     1
  3
Standard
350
B22E
  0
DICTIONARY
  5
AF3E
102
{ACAD_REACTORS
330
AF34
102
}
330
AF34
100
AcDbDictionary
281
     1
  3
STANDARD
350
AF3F
  0
DICTIONARY
  5
AF40
102
{ACAD_REACTORS
330
AF34
102
}
330
AF34
100
AcDbDictionary
281
     1
  0
ACDBDICTIONARYWDFLT
  5
B1E4
102
{ACAD_REACTORS
330
AF34
102
}
330
AF34
100
AcDbDictionary
281
     1
  3
Normal
350
B1E5
100
AcDbDictionaryWithDefault
340
B1E5
  0
DICTIONARY
  5
B21B
102
{ACAD_REACTORS
330
AF34
102
}
330
AF34
100
AcDbDictionary
281
     1
  3
A0
350
B21C
  3
A1
350
B21D
  3
A2
350
B21E
  3
A3
350
B21F
  3
A4
350
B220
  3
A5
350
B221
  3
A6
350
B222
  3
A7
350
B223
  3
A8
350
B224
  3
A9
350
B225
  3
B0
350
B226
  3
B1
350
B227
  3
B2
350
B228
  3
B3
350
B229
  3
B4
350
B22A
  3
B5
350
B22B
  3
B6
350
B22C
  0
DICTIONARY
  5
B22F
102
{ACAD_REACTORS
330
AF34
102
}
330
AF34
100
AcDbDictionary
281
     1
  3
Imperial24
350
B230
  0
DICTIONARY
  5
B219
102
{ACAD_REACTORS
330
AF34
102
}
330
AF34
100
AcDbDictionary
281
     1
  3
Standard
350
B21A
  0
DICTIONARY
  5
B1FF
102
{ACAD_REACTORS
330
AF34
102
}
330
AF34
100
AcDbDictionary
281
     1
  3
2dWireframe
350
B205
  3
Basic
350
B204
  3
Brighten
350
B20B
  3
ColorChange
350
B20F
  3
Conceptual
350
B208
  3
Dim
350
B20A
  3
EdgeColorOff
350
B217
  3
Facepattern
350
B20E
  3
Flat
350
B200
  3
FlatWithEdges
350
B201
  3
Gouraud
350
B202
  3
GouraudWithEdges
350
B203
  3
Hidden
350
B207
  3
JitterOff
350
B215
  3
Linepattern
350
B20D
  3
OverhangOff
350
B216
  3
Realistic
350
B209
  3
Shaded
350
B214
  3
Shaded with edges
350
B213
  3
Shades of Gray
350
B210
  3
Sketchy
350
B211
  3
Thicken
350
B20C
  3
Wireframe
350
B206
  3
X-Ray
350
B212
  0
XRECORD
  5
B254
102
{ACAD_REACTORS
330
AF34
102
}
330
AF34
100
AcDbXrecord
280
     1
 90
        1
330
B21A
  0
DICTIONARY
  5
B247
102
{ACAD_REACTORS
330
AF34
102
}
330
AF34
100
AcDbDictionary
281
     1
  3
CANNOSCALE
350
B24C
  3
CMLEADERSTYLE
350
B249
  3
CTABLESTYLE
350
B248
  3
CVIEWDETAILSTYLE
350
B24A
  3
CVIEWSECTIONSTYLE
350
B24B
  3
DIMASSOC
350
B24F
  3
INDEXCTL
350
B24E
  3
SORTENTS
350
B24D
  3
XCLIPFRAME
350
B250
  0
XRECORD
  5
B255
102
{ACAD_REACTORS
330
AF34
102
}
330
AF34
100
AcDbXrecord
280
     1
  1
DWGPROPS COOKIE
  2

  3

  4

  6

  7

  8
Yoshitsune
  9

300
=
301
=
302
=
303
=
304
=
305
=
306
=
307
=
308
=
309
=
 40
0.0000099189814815
 41
2451301.382498149
 42
2457192.686768102
  1

 90
        0
  0
XRECORD
  5
B238
102
{ACAD_REACTORS
330
B237
102
}
330
B237
100
AcDbXrecord
280
     1
290
     1
  0
XRECORD
  5
B23A
102
{ACAD_REACTORS
330
B239
102
}
330
B239
100
AcDbXrecord
280
     1
290
     1
  0
XRECORD
  5
B23C
102
{ACAD_REACTORS
330
B23B
102
}
330
B23B
100
AcDbXrecord
280
     1
290
     1
  0
XRECORD
  5
B23E
102
{ACAD_REACTORS
330
B23D
102
}
330
B23D
100
AcDbXrecord
280
     1
290
     1
  0
XRECORD
  5
B240
102
{ACAD_REACTORS
330
B23F
102
}
330
B23F
100
AcDbXrecord
280
     1
290
     1
  0
XRECORD
  5
B242
102
{ACAD_REACTORS
330
B241
102
}
330
B241
100
AcDbXrecord
280
     1
290
     1
  0
XRECORD
  5
B244
102
{ACAD_REACTORS
330
B243
102
}
330
B243
100
AcDbXrecord
280
     1
290
     1
  0
XRECORD
  5
B246
102
{ACAD_REACTORS
330
B245
102
}
330
B245
100
AcDbXrecord
280
     1
290
     1
  0
XRECORD
  5
B1E0
102
{ACAD_REACTORS
330
B1DF
102
}
330
B1DF
100
AcDbXrecord
280
     1
340
AF46
  0
XRECORD
  5
B1DE
102
{ACAD_REACTORS
330
B1DD
102
}
330
B1DD
100
AcDbXrecord
280
     1
340
AF42
  0
ACDBDETAILVIEWSTYLE
  5
B232
102
{ACAD_XDICTIONARY
360
B28D
102
}
102
{ACAD_REACTORS
330
B231
102
}
330
B231
100
AcDbModelDocViewStyle
 70
     0
  3
Imperial24
290
     0
100
AcDbDetailViewStyle
 70
     0
 71
     0
 90
        3
 71
     1
340
AF39
 40
0.24
340
0
 40
0.24
300

 40
0.36
280
     3
 71
     2
340
AF3D
 90
       25
 71
     3
340
AF39
 40
0.24
 90
        1
 40
0.75
 90
        1
300
%<\AcVar ViewType \f "%tc1">% %<\AcVar ViewDetailId>%\PSCALE %<\AcVar ViewScale \f "%sn">%
 71
     4
340
AF3D
 90
       25
340
AF3D
 90
       25
280
     0
  0
LAYOUT
  5
B233
102
{ACAD_XDICTIONARY
360
B28F
102
}
102
{ACAD_REACTORS
330
AF41
102
}
330
AF41
100
AcDbPlotSettings
  1

  2
Canon LBP9100C
  4

  6

 40
0.0
 41
0.0
 42
0.0
 43
0.0
 44
0.0
 45
0.0
 46
0.0
 47
0.0
 48
0.0
 49
0.0
140
0.0
141
0.0
142
1.0
143
1.0
 70
  1712
 72
     0
 73
     0
 74
     0
  7

 75
     0
147
1.0
148
0.0
149
0.0
100
AcDbLayout
  1
Model
 70
     1
 71
     0
 10
0.0
 20
0.0
 11
12.0
 21
9.0
 12
0.0
 22
0.0
 32
0.0
 14
0.0
 24
0.0
 34
0.0
 15
0.0
 25
0.0
 35
0.0
146
0.0
 13
0.0
 23
0.0
 33
0.0
 16
1.0
 26
0.0
 36
0.0
 17
0.0
 27
1.0
 37
0.0
 76
     0
330
AF46
331
B1DC
  0
LAYOUT
  5
B234
102
{ACAD_XDICTIONARY
360
B291
102
}
102
{ACAD_REACTORS
330
AF41
102
}
330
AF41
100
AcDbPlotSettings
  1

  2
Canon LBP9100C
  4

  6

 40
0.0
 41
0.0
 42
0.0
 43
0.0
 44
0.0
 45
0.0
 46
0.0
 47
0.0
 48
0.0
 49
0.0
140
0.0
141
0.0
142
1.0
143
1.0
 70
   688
 72
     0
 73
     0
 74
     5
  7

 75
    16
147
1.0
148
0.0
149
0.0
100
AcDbLayout
  1
レイアウト1
 70
     0
 71
     1
 10
0.0
 20
0.0
 11
420.0
 21
297.0
 12
0.0
 22
0.0
 32
0.0
 14
1.000000000000000E+20
 24
1.000000000000000E+20
 34
1.000000000000000E+20
 15
-1.000000000000000E+20
 25
-1.000000000000000E+20
 35
-1.000000000000000E+20
146
0.0
 13
0.0
 23
0.0
 33
0.0
 16
1.0
 26
0.0
 36
0.0
 17
0.0
 27
1.0
 37
0.0
 76
     0
330
AF42
  0
MATERIAL
  5
B1EF
102
{ACAD_XDICTIONARY
360
B1F0
102
}
102
{ACAD_REACTORS
330
B1E6
102
}
330
B1E6
100
AcDbMaterial
  1
ByBlock
 72
     0
 43
0.0208333333333333
 43
0.0
 43
0.0
 43
0.0
 43
0.0
 43
0.0208333333333333
 43
0.0
 43
0.0
 43
0.0
 43
0.0
 43
1.0
 43
0.0
 43
0.0
 43
0.0
 43
0.0
 43
1.0
 77
     0
 47
0.0208333333333333
 47
0.0
 47
0.0
 47
0.0
 47
0.0
 47
0.0208333333333333
 47
0.0
 47
0.0
 47
0.0
 47
0.0
 47
1.0
 47
0.0
 47
0.0
 47
0.0
 47
0.0
 47
1.0
171
     0
 49
0.0208333333333333
 49
0.0
 49
0.0
 49
0.0
 49
0.0
 49
0.0208333333333333
 49
0.0
 49
0.0
 49
0.0
 49
0.0
 49
1.0
 49
0.0
 49
0.0
 49
0.0
 49
0.0
 49
1.0
175
     0
142
0.0208333333333333
142
0.0
142
0.0
142
0.0
142
0.0
142
0.0208333333333333
142
0.0
142
0.0
142
0.0
142
0.0
142
1.0
142
0.0
142
0.0
142
0.0
142
0.0
142
1.0
179
     0
144
0.0208333333333333
144
0.0
144
0.0
144
0.0
144
0.0
144
0.0208333333333333
144
0.0
144
0.0
144
0.0
144
0.0
144
1.0
144
0.0
144
0.0
144
0.0
144
0.0
144
1.0
147
0.0208333333333333
147
0.0
147
0.0
147
0.0
147
0.0
147
0.0208333333333333
147
0.0
147
0.0
147
0.0
147
0.0
147
1.0
147
0.0
147
0.0
147
0.0
147
0.0
147
1.0
  0
MATERIAL
  5
B1E7
102
{ACAD_XDICTIONARY
360
B1E8
102
}
102
{ACAD_REACTORS
330
B1E6
102
}
330
B1E6
100
AcDbMaterial
  1
ByLayer
 72
     0
 43
0.0208333333333333
 43
0.0
 43
0.0
 43
0.0
 43
0.0
 43
0.0208333333333333
 43
0.0
 43
0.0
 43
0.0
 43
0.0
 43
1.0
 43
0.0
 43
0.0
 43
0.0
 43
0.0
 43
1.0
 77
     0
 47
0.0208333333333333
 47
0.0
 47
0.0
 47
0.0
 47
0.0
 47
0.0208333333333333
 47
0.0
 47
0.0
 47
0.0
 47
0.0
 47
1.0
 47
0.0
 47
0.0
 47
0.0
 47
0.0
 47
1.0
171
     0
 49
0.0208333333333333
 49
0.0
 49
0.0
 49
0.0
 49
0.0
 49
0.0208333333333333
 49
0.0
 49
0.0
 49
0.0
 49
0.0
 49
1.0
 49
0.0
 49
0.0
 49
0.0
 49
0.0
 49
1.0
175
     0
142
0.0208333333333333
142
0.0
142
0.0
142
0.0
142
0.0
142
0.0208333333333333
142
0.0
142
0.0
142
0.0
142
0.0
142
1.0
142
0.0
142
0.0
142
0.0
142
0.0
142
1.0
179
     0
144
0.0208333333333333
144
0.0
144
0.0
144
0.0
144
0.0
144
0.0208333333333333
144
0.0
144
0.0
144
0.0
144
0.0
144
1.0
144
0.0
144
0.0
144
0.0
144
0.0
144
1.0
147
0.0208333333333333
147
0.0
147
0.0
147
0.0
147
0.0
147
0.0208333333333333
147
0.0
147
0.0
147
0.0
147
0.0
147
1.0
147
0.0
147
0.0
147
0.0
147
0.0
147
1.0
  0
MATERIAL
  5
B1F7
102
{ACAD_XDICTIONARY
360
B1F8
102
}
102
{ACAD_REACTORS
330
B1E6
102
}
330
B1E6
100
AcDbMaterial
  1
Global
 72
     0
 43
0.0208333333333333
 43
0.0
 43
0.0
 43
0.0
 43
0.0
 43
0.0208333333333333
 43
0.0
 43
0.0
 43
0.0
 43
0.0
 43
1.0
 43
0.0
 43
0.0
 43
0.0
 43
0.0
 43
1.0
 77
     0
 47
0.0208333333333333
 47
0.0
 47
0.0
 47
0.0
 47
0.0
 47
0.0208333333333333
 47
0.0
 47
0.0
 47
0.0
 47
0.0
 47
1.0
 47
0.0
 47
0.0
 47
0.0
 47
0.0
 47
1.0
171
     0
 49
0.0208333333333333
 49
0.0
 49
0.0
 49
0.0
 49
0.0
 49
0.0208333333333333
 49
0.0
 49
0.0
 49
0.0
 49
0.0
 49
1.0
 49
0.0
 49
0.0
 49
0.0
 49
0.0
 49
1.0
175
     0
142
0.0208333333333333
142
0.0
142
0.0
142
0.0
142
0.0
142
0.0208333333333333
142
0.0
142
0.0
142
0.0
142
0.0
142
1.0
142
0.0
142
0.0
142
0.0
142
0.0
142
1.0
179
     0
144
0.0208333333333333
144
0.0
144
0.0
144
0.0
144
0.0
144
0.0208333333333333
144
0.0
144
0.0
144
0.0
144
0.0
144
1.0
144
0.0
144
0.0
144
0.0
144
0.0
144
1.0
147
0.0208333333333333
147
0.0
147
0.0
147
0.0
147
0.0
147
0.0208333333333333
147
0.0
147
0.0
147
0.0
147
0.0
147
1.0
147
0.0
147
0.0
147
0.0
147
0.0
147
1.0
  0
MLEADERSTYLE
  5
B22E
102
{ACAD_REACTORS
330
B22D
102
}
330
B22D
100
AcDbMLeaderStyle
170
     2
171
     1
172
     0
 90
        2
 40
0.0
 41
0.0
173
     1
 91
-1056964608
340
AF3B
 92
       -2
290
     1
 42
0.09
291
     1
 43
0.36
  3
Standard
 44
0.18
300

342
AF39
174
     1
178
     6
175
     1
176
     0
 93
-1056964608
 45
0.18
292
     0
297
     0
 46
0.18
 94
-1056964608
 47
1.0
 49
1.0
140
1.0
293
     1
141
0.0
294
     1
177
     0
142
1.0
295
     0
296
     0
143
0.125
1001
ACAD_MLEADERVER
1070
     2
  0
MLINESTYLE
  5
AF3F
102
{ACAD_REACTORS
330
AF3E
102
}
330
AF3E
100
AcDbMlineStyle
  2
STANDARD
 70
     0
  3

 62
   256
 51
90.0
 52
90.0
 71
     2
 49
0.5
 62
   256
  6
BYLAYER
 49
-0.5
 62
   256
  6
BYLAYER
  0
ACDBPLACEHOLDER
  5
B1E5
102
{ACAD_REACTORS
330
B1E4
102
}
330
B1E4
  0
SCALE
  5
B21C
102
{ACAD_REACTORS
330
B21B
102
}
330
B21B
100
AcDbScale
 70
     0
300
1:1
140
1.0
141
1.0
290
     1
  0
SCALE
  5
B21D
102
{ACAD_REACTORS
330
B21B
102
}
330
B21B
100
AcDbScale
 70
     0
300
1/128" = 1'-0"
140
0.0078125
141
12.0
290
     0
  0
SCALE
  5
B21E
102
{ACAD_REACTORS
330
B21B
102
}
330
B21B
100
AcDbScale
 70
     0
300
1/64" = 1'-0"
140
0.015625
141
12.0
290
     0
  0
SCALE
  5
B21F
102
{ACAD_REACTORS
330
B21B
102
}
330
B21B
100
AcDbScale
 70
     0
300
1/32" = 1'-0"
140
0.03125
141
12.0
290
     0
  0
SCALE
  5
B220
102
{ACAD_REACTORS
330
B21B
102
}
330
B21B
100
AcDbScale
 70
     0
300
1/16" = 1'-0"
140
0.0625
141
12.0
290
     0
  0
SCALE
  5
B221
102
{ACAD_REACTORS
330
B21B
102
}
330
B21B
100
AcDbScale
 70
     0
300
3/32" = 1'-0"
140
0.09375
141
12.0
290
     0
  0
SCALE
  5
B222
102
{ACAD_REACTORS
330
B21B
102
}
330
B21B
100
AcDbScale
 70
     0
300
1/8" = 1'-0"
140
0.125
141
12.0
290
     0
  0
SCALE
  5
B223
102
{ACAD_REACTORS
330
B21B
102
}
330
B21B
100
AcDbScale
 70
     0
300
3/16" = 1'-0"
140
0.1875
141
12.0
290
     0
  0
SCALE
  5
B224
102
{ACAD_REACTORS
330
B21B
102
}
330
B21B
100
AcDbScale
 70
     0
300
1/4" = 1'-0"
140
0.25
141
12.0
290
     0
  0
SCALE
  5
B225
102
{ACAD_REACTORS
330
B21B
102
}
330
B21B
100
AcDbScale
 70
     0
300
3/8" = 1'-0"
140
0.375
141
12.0
290
     0
  0
SCALE
  5
B226
102
{ACAD_REACTORS
330
B21B
102
}
330
B21B
100
AcDbScale
 70
     0
300
1/2" = 1'-0"
140
0.5
141
12.0
290
     0
  0
SCALE
  5
B227
102
{ACAD_REACTORS
330
B21B
102
}
330
B21B
100
AcDbScale
 70
     0
300
3/4" = 1'-0"
140
0.75
141
12.0
290
     0
  0
SCALE
  5
B228
102
{ACAD_REACTORS
330
B21B
102
}
330
B21B
100
AcDbScale
 70
     0
300
1" = 1'-0"
140
1.0
141
12.0
290
     0
  0
SCALE
  5
B229
102
{ACAD_REACTORS
330
B21B
102
}
330
B21B
100
AcDbScale
 70
     0
300
1-1/2" = 1'-0"
140
1.5
141
12.0
290
     0
  0
SCALE
  5
B22A
102
{ACAD_REACTORS
330
B21B
102
}
330
B21B
100
AcDbScale
 70
     0
300
3" = 1'-0"
140
3.0
141
12.0
290
     0
  0
SCALE
  5
B22B
102
{ACAD_REACTORS
330
B21B
102
}
330
B21B
100
AcDbScale
 70
     0
300
6" = 1'-0"
140
6.0
141
12.0
290
     0
  0
SCALE
  5
B22C
102
{ACAD_REACTORS
330
B21B
102
}
330
B21B
100
AcDbScale
 70
     0
300
1'-0" = 1'-0"
140
12.0
141
12.0
290
     0
  0
ACDBSECTIONVIEWSTYLE
  5
B230
102
{ACAD_XDICTIONARY
360
B28B
102
}
102
{ACAD_REACTORS
330
B22F
102
}
330
B22F
100
AcDbModelDocViewStyle
 70
     0
  3
Imperial24
290
     0
100
AcDbSectionViewStyle
 70
     0
 71
     0
 90
       78
 71
     1
340
AF39
 40
0.24
340
0
340
0
 40
0.24
300
I, O, Q, S, X, Z
 40
0.48
 90
        3
 40
0.18
 90
        1
 71
     2
340
AF3D
 90
       25
340
AF3D
 90
       50
 40
0.24
 40
0.0
 40
0.24
 71
     3
340
AF39
 40
0.24
 90
        1
 40
0.75
 90
        1
300
%<\AcVar ViewType \f "%tc1">% %<\AcVar ViewSectionStartId>%-%<\AcVar ViewSectionEndId>%\PSCALE %<\AcVar ViewScale \f "%sn">%
 71
     4
300
ANSI31
 40
1.0
 90
        0
290
     0
290
     0
 90
        6
 40
0.0
 40
1.570796326794896
 40
0.2617993877991494
 40
1.308996938995747
 40
-0.2617993877991494
 40
1.832595714594046
  0
TABLESTYLE
  5
B21A
102
{ACAD_XDICTIONARY
360
B252
102
}
102
{ACAD_REACTORS
330
B219
102
}
330
B219
100
AcDbTableStyle
  3
Standard
 70
     0
 71
     0
 40
0.06
 41
0.06
280
     0
281
     0
  7
STANDARD
140
0.18
170
     2
 62
     0
 63
     7
283
     0
274
    -2
284
     1
 64
     0
275
    -2
285
     1
 65
     0
276
    -2
286
     1
 66
     0
277
    -2
287
     1
 67
     0
278
    -2
288
     1
 68
     0
279
    -2
289
     1
 69
     0
  7
STANDARD
140
0.25
170
     5
 62
     0
 63
     7
283
     0
274
    -2
284
     1
 64
     0
275
    -2
285
     1
 65
     0
276
    -2
286
     1
 66
     0
277
    -2
287
     1
 67
     0
278
    -2
288
     1
 68
     0
279
    -2
289
     1
 69
     0
  7
STANDARD
140
0.18
170
     5
 62
     0
 63
     7
283
     0
274
    -2
284
     1
 64
     0
275
    -2
285
     1
 65
     0
276
    -2
286
     1
 66
     0
277
    -2
287
     1
 67
     0
278
    -2
288
     1
 68
     0
279
    -2
289
     1
 69
     0
  0
VISUALSTYLE
  5
B205
102
{ACAD_XDICTIONARY
360
B263
102
}
102
{ACAD_REACTORS
330
B1FF
102
}
330
B1FF
100
AcDbVisualStyle
  2
2dWireframe
 70
     4
 71
     0
 72
     2
 73
     0
 90
        0
 40
-0.6
 41
-30.0
 62
     5
 63
     7
 74
     1
 91
        4
 64
     7
 65
   257
 75
     1
175
     1
 42
1.0
 92
        0
 66
   257
 43
1.0
 76
     1
 77
     6
 78
     2
 67
     7
 79
     5
170
     0
171
     0
290
     0
174
     0
 93
        1
 44
0.0
173
     0
291
     0
 45
0.0
1001
ACAD
1000
AcDbSavedByObjectVersion
1070
     0
  0
VISUALSTYLE
  5
B204
102
{ACAD_XDICTIONARY
360
B261
102
}
102
{ACAD_REACTORS
330
B1FF
102
}
330
B1FF
100
AcDbVisualStyle
  2
Basic
 70
     7
 71
     1
 72
     0
 73
     1
 90
        0
 40
-0.6
 41
-30.0
 62
     5
 63
     7
 74
     0
 91
        4
 64
     7
 65
   257
 75
     1
175
     1
 42
1.0
 92
        8
 66
     7
 43
1.0
 76
     1
 77
     6
 78
     2
 67
     7
 79
     5
170
     0
171
     0
290
     0
174
     0
 93
        1
 44
0.0
173
     0
291
     1
 45
0.0
1001
ACAD
1000
AcDbSavedByObjectVersion
1070
     0
  0
VISUALSTYLE
  5
B20B
102
{ACAD_XDICTIONARY
360
B26F
102
}
102
{ACAD_REACTORS
330
B1FF
102
}
330
B1FF
100
AcDbVisualStyle
  2
Brighten
 70
    12
 71
     2
 72
     2
 73
     0
 90
        0
 40
-0.6
 41
-30.0
 62
     5
 63
     7
 74
     1
 91
        4
 64
     7
 65
   257
 75
     1
175
     1
 42
1.0
 92
        8
 66
     7
 43
1.0
 76
     1
 77
     6
 78
     2
 67
     7
 79
     5
170
     0
171
     0
290
     0
174
     0
 93
        1
 44
50.0
173
     0
291
     1
 45
0.0
1001
ACAD
1000
AcDbSavedByObjectVersion
1070
     0
  0
VISUALSTYLE
  5
B20F
102
{ACAD_XDICTIONARY
360
B277
102
}
102
{ACAD_REACTORS
330
B1FF
102
}
330
B1FF
100
AcDbVisualStyle
  2
ColorChange
 70
    16
 71
     2
 72
     2
 73
     3
 90
        0
 40
-0.6
 41
-30.0
 62
     5
 63
     8
 74
     1
 91
        4
 64
     7
 65
   257
 75
     1
175
     1
 42
1.0
 92
        8
 66
     8
 43
1.0
 76
     1
 77
     6
 78
     2
 67
     7
 79
     5
170
     0
171
     0
290
     0
174
     0
 93
        1
 44
0.0
173
     0
291
     1
 45
0.0
1001
ACAD
1000
AcDbSavedByObjectVersion
1070
     0
  0
VISUALSTYLE
  5
B208
102
{ACAD_XDICTIONARY
360
B269
102
}
102
{ACAD_REACTORS
330
B1FF
102
}
330
B1FF
100
AcDbVisualStyle
  2
Conceptual
 70
     9
 71
     3
 72
     2
 73
     0
 90
        0
 40
-0.6
 41
-30.0
 62
     5
 63
     7
 74
     2
 91
        2
 64
     7
 65
   257
 75
     1
175
     1
 42
179.0
 92
        8
 66
     7
 43
1.0
 76
     1
 77
     6
 78
     2
 67
     7
 79
     3
170
     0
171
     0
290
     0
174
     0
 93
        1
 44
0.0
173
     0
291
     0
 45
0.0
1001
ACAD
1000
AcDbSavedByObjectVersion
1070
     0
  0
VISUALSTYLE
  5
B20A
102
{ACAD_XDICTIONARY
360
B26D
102
}
102
{ACAD_REACTORS
330
B1FF
102
}
330
B1FF
100
AcDbVisualStyle
  2
Dim
 70
    11
 71
     2
 72
     2
 73
     0
 90
        0
 40
-0.6
 41
-30.0
 62
     5
 63
     7
 74
     1
 91
        4
 64
     7
 65
   257
 75
     1
175
     1
 42
1.0
 92
        8
 66
     7
 43
1.0
 76
     1
 77
     6
 78
     2
 67
     7
 79
     5
170
     0
171
     0
290
     0
174
     0
 93
        1
 44
-50.0
173
     0
291
     1
 45
0.0
1001
ACAD
1000
AcDbSavedByObjectVersion
1070
     0
  0
VISUALSTYLE
  5
B217
102
{ACAD_XDICTIONARY
360
B287
102
}
102
{ACAD_REACTORS
330
B1FF
102
}
330
B1FF
100
AcDbVisualStyle
  2
EdgeColorOff
 70
    22
 71
     2
 72
     2
 73
     0
 90
        0
 40
-0.6
 41
-30.0
 62
     5
 63
     7
 74
     1
 91
        4
 64
     7
 65
   257
 75
     1
175
     1
 42
1.0
 92
        8
 66
     7
 43
1.0
 76
     1
 77
     6
 78
     2
 67
     7
 79
     5
170
     0
171
     0
290
     0
174
     0
 93
        1
 44
0.0
173
     0
291
     1
 45
0.0
1001
ACAD
1000
AcDbSavedByObjectVersion
1070
     0
  0
VISUALSTYLE
  5
B20E
102
{ACAD_XDICTIONARY
360
B275
102
}
102
{ACAD_REACTORS
330
B1FF
102
}
330
B1FF
100
AcDbVisualStyle
  2
Facepattern
 70
    15
 71
     2
 72
     2
 73
     0
 90
        0
 40
-0.6
 41
-30.0
 62
     5
 63
     7
 74
     1
 91
        4
 64
     7
 65
   257
 75
     1
175
     1
 42
1.0
 92
        8
 66
     7
 43
1.0
 76
     1
 77
     6
 78
     2
 67
     7
 79
     5
170
     0
171
     0
290
     0
174
     0
 93
        1
 44
0.0
173
     0
291
     1
 45
0.0
1001
ACAD
1000
AcDbSavedByObjectVersion
1070
     0
  0
VISUALSTYLE
  5
B200
102
{ACAD_XDICTIONARY
360
B259
102
}
102
{ACAD_REACTORS
330
B1FF
102
}
330
B1FF
100
AcDbVisualStyle
  2
Flat
 70
     0
 71
     2
 72
     1
 73
     1
 90
        2
 40
-0.6
 41
30.0
 62
     5
 63
     7
 74
     0
 91
        0
 64
     7
 65
   257
 75
     1
175
     1
 42
1.0
 92
        8
 66
     7
 43
1.0
 76
     1
 77
     6
 78
     2
 67
     7
 79
     5
170
     0
171
     0
290
     0
174
     0
 93
       13
 44
0.0
173
     0
291
     1
 45
0.0
1001
ACAD
1000
AcDbSavedByObjectVersion
1070
     0
  0
VISUALSTYLE
  5
B201
102
{ACAD_XDICTIONARY
360
B25B
102
}
102
{ACAD_REACTORS
330
B1FF
102
}
330
B1FF
100
AcDbVisualStyle
  2
FlatWithEdges
 70
     1
 71
     2
 72
     1
 73
     1
 90
        2
 40
-0.6
 41
30.0
 62
     5
 63
     7
 74
     1
 91
        0
 64
     7
 65
   257
 75
     1
175
     1
 42
1.0
 92
        0
 66
   257
 43
1.0
 76
     1
 77
     6
 78
     2
 67
     7
 79
     5
170
     0
171
     0
290
     0
174
     0
 93
       13
 44
0.0
173
     0
291
     1
 45
0.0
1001
ACAD
1000
AcDbSavedByObjectVersion
1070
     0
  0
VISUALSTYLE
  5
B202
102
{ACAD_XDICTIONARY
360
B25D
102
}
102
{ACAD_REACTORS
330
B1FF
102
}
330
B1FF
100
AcDbVisualStyle
  2
Gouraud
 70
     2
 71
     2
 72
     2
 73
     1
 90
        2
 40
-0.6
 41
30.0
 62
     5
 63
     7
 74
     0
 91
        0
 64
     7
 65
   257
 75
     1
175
     1
 42
1.0
 92
        0
 66
     7
 43
1.0
 76
     1
 77
     6
 78
     2
 67
     7
 79
     5
170
     0
171
     0
290
     0
174
     0
 93
       13
 44
0.0
173
     0
291
     1
 45
0.0
1001
ACAD
1000
AcDbSavedByObjectVersion
1070
     0
  0
VISUALSTYLE
  5
B203
102
{ACAD_XDICTIONARY
360
B25F
102
}
102
{ACAD_REACTORS
330
B1FF
102
}
330
B1FF
100
AcDbVisualStyle
  2
GouraudWithEdges
 70
     3
 71
     2
 72
     2
 73
     1
 90
        2
 40
-0.6
 41
30.0
 62
     5
 63
     7
 74
     1
 91
        0
 64
     7
 65
   257
 75
     1
175
     1
 42
1.0
 92
        0
 66
   257
 43
1.0
 76
     1
 77
     6
 78
     2
 67
     7
 79
     5
170
     0
171
     0
290
     0
174
     0
 93
       13
 44
0.0
173
     0
291
     1
 45
0.0
1001
ACAD
1000
AcDbSavedByObjectVersion
1070
     0
  0
VISUALSTYLE
  5
B207
102
{ACAD_XDICTIONARY
360
B267
102
}
102
{ACAD_REACTORS
330
B1FF
102
}
330
B1FF
100
AcDbVisualStyle
  2
Hidden
 70
     6
 71
     1
 72
     2
 73
     2
 90
        0
 40
-0.6
 41
-30.0
 62
     5
 63
     7
 74
     2
 91
        2
 64
     7
 65
   257
 75
     2
175
     1
 42
40.0
 92
        0
 66
   257
 43
1.0
 76
     1
 77
     6
 78
     2
 67
     7
 79
     3
170
     0
171
     0
290
     0
174
     0
 93
        1
 44
0.0
173
     0
291
     0
 45
0.0
1001
ACAD
1000
AcDbSavedByObjectVersion
1070
     0
  0
VISUALSTYLE
  5
B215
102
{ACAD_XDICTIONARY
360
B283
102
}
102
{ACAD_REACTORS
330
B1FF
102
}
330
B1FF
100
AcDbVisualStyle
  2
JitterOff
 70
    20
 71
     2
 72
     2
 73
     0
 90
        0
 40
-0.6
 41
-30.0
 62
     5
 63
     7
 74
     1
 91
        4
 64
     7
 65
   257
 75
     1
175
     1
 42
1.0
 92
       10
 66
     7
 43
1.0
 76
     1
 77
     6
 78
     2
 67
     7
 79
     5
170
     0
171
     0
290
     0
174
     0
 93
        1
 44
0.0
173
     0
291
     1
 45
0.0
1001
ACAD
1000
AcDbSavedByObjectVersion
1070
     0
  0
VISUALSTYLE
  5
B20D
102
{ACAD_XDICTIONARY
360
B273
102
}
102
{ACAD_REACTORS
330
B1FF
102
}
330
B1FF
100
AcDbVisualStyle
  2
Linepattern
 70
    14
 71
     2
 72
     2
 73
     0
 90
        0
 40
-0.6
 41
-30.0
 62
     5
 63
     7
 74
     1
 91
        4
 64
     7
 65
   257
 75
     7
175
     7
 42
1.0
 92
        8
 66
     7
 43
1.0
 76
     1
 77
     6
 78
     2
 67
     7
 79
     5
170
     0
171
     0
290
     0
174
     0
 93
        1
 44
0.0
173
     0
291
     1
 45
0.0
1001
ACAD
1000
AcDbSavedByObjectVersion
1070
     0
  0
VISUALSTYLE
  5
B216
102
{ACAD_XDICTIONARY
360
B285
102
}
102
{ACAD_REACTORS
330
B1FF
102
}
330
B1FF
100
AcDbVisualStyle
  2
OverhangOff
 70
    21
 71
     2
 72
     2
 73
     0
 90
        0
 40
-0.6
 41
-30.0
 62
     5
 63
     7
 74
     1
 91
        4
 64
     7
 65
   257
 75
     1
175
     1
 42
1.0
 92
        9
 66
     7
 43
1.0
 76
     1
 77
     6
 78
     2
 67
     7
 79
     5
170
     0
171
     0
290
     0
174
     0
 93
        1
 44
0.0
173
     0
291
     1
 45
0.0
1001
ACAD
1000
AcDbSavedByObjectVersion
1070
     0
  0
VISUALSTYLE
  5
B209
102
{ACAD_XDICTIONARY
360
B26B
102
}
102
{ACAD_REACTORS
330
B1FF
102
}
330
B1FF
100
AcDbVisualStyle
  2
Realistic
 70
     8
 71
     2
 72
     3
 73
     0
 90
        2
 40
-0.6
 41
30.0
 62
     5
 63
     7
 74
     0
 91
        0
 64
     7
 65
   257
 75
     1
175
     1
 42
1.0
 92
        8
 66
   257
 43
1.0
 76
     1
 77
     6
 78
     2
 67
     7
 79
     3
170
     0
171
     0
290
     0
174
     0
 93
       13
 44
0.0
173
     0
291
     0
 45
0.0
1001
ACAD
1000
AcDbSavedByObjectVersion
1070
     0
  0
VISUALSTYLE
  5
B214
102
{ACAD_XDICTIONARY
360
B281
102
}
102
{ACAD_REACTORS
330
B1FF
102
}
330
B1FF
100
AcDbVisualStyle
  2
Shaded
 70
    27
 71
     2
 72
     2
 73
     1
 90
        2
 40
-0.6
 41
30.0
 62
     5
 63
     7
 74
     0
 91
        4
 64
     7
 65
   257
 75
     1
175
     1
 42
1.0
 92
        8
 66
   257
 43
1.0
 76
     1
 77
     6
 78
     2
 67
     8
 79
     3
170
     0
171
     0
290
     0
174
     0
 93
        5
 44
0.0
173
     0
291
     0
 45
0.0
1001
ACAD
1000
AcDbSavedByObjectVersion
1070
     0
  0
VISUALSTYLE
  5
B213
102
{ACAD_XDICTIONARY
360
B27F
102
}
102
{ACAD_REACTORS
330
B1FF
102
}
330
B1FF
100
AcDbVisualStyle
  2
Shaded with edges
 70
    26
 71
     2
 72
     2
 73
     1
 90
        2
 40
-0.6
 41
30.0
 62
     5
 63
     7
 74
     1
 91
       10
 64
     7
 65
   257
 75
     2
175
     1
 42
1.0
 92
        8
 66
   257
 43
1.0
 76
     1
 77
     6
 78
     2
 67
     7
 79
     3
170
     0
171
     0
290
     0
174
     0
 93
        5
 44
0.0
173
     0
291
     0
 45
0.0
1001
ACAD
1000
AcDbSavedByObjectVersion
1070
     0
  0
VISUALSTYLE
  5
B210
102
{ACAD_XDICTIONARY
360
B279
102
}
102
{ACAD_REACTORS
330
B1FF
102
}
330
B1FF
100
AcDbVisualStyle
  2
Shades of Gray
 70
    23
 71
     2
 72
     2
 73
     3
 90
        0
 40
-0.6
 41
-30.0
 62
     5
 63
     7
 74
     2
 91
        2
 64
     7
 65
     7
 75
     1
175
     1
 42
40.0
 92
        8
 66
     7
 43
1.0
 76
     1
 77
     6
 78
     2
 67
     7
 79
     3
170
     0
171
     0
290
     0
174
     0
 93
        1
 44
0.0
173
     0
291
     0
 45
0.0
1001
ACAD
1000
AcDbSavedByObjectVersion
1070
     0
  0
VISUALSTYLE
  5
B211
102
{ACAD_XDICTIONARY
360
B27B
102
}
102
{ACAD_REACTORS
330
B1FF
102
}
330
B1FF
100
AcDbVisualStyle
  2
Sketchy
 70
    24
 71
     1
 72
     2
 73
     2
 90
        0
 40
-0.6
 41
-30.0
 62
     5
 63
     7
 74
     2
 91
        2
 64
     7
 65
     7
 75
     1
175
     1
 42
40.0
 92
       11
 66
     7
 43
1.0
 76
     1
 77
     6
 78
     2
 67
     7
 79
     6
170
     0
171
     0
290
     0
174
     0
 93
        1
 44
0.0
173
     0
291
     0
 45
0.0
1001
ACAD
1000
AcDbSavedByObjectVersion
1070
     0
  0
VISUALSTYLE
  5
B20C
102
{ACAD_XDICTIONARY
360
B271
102
}
102
{ACAD_REACTORS
330
B1FF
102
}
330
B1FF
100
AcDbVisualStyle
  2
Thicken
 70
    13
 71
     2
 72
     2
 73
     0
 90
        0
 40
-0.6
 41
-30.0
 62
     5
 63
     7
 74
     1
 91
        4
 64
     7
 65
   257
 75
     1
175
     1
 42
1.0
 92
       12
 66
     7
 43
1.0
 76
     1
 77
     6
 78
     2
 67
     7
 79
     5
170
     0
171
     0
290
     0
174
     0
 93
        1
 44
0.0
173
     0
291
     1
 45
0.0
1001
ACAD
1000
AcDbSavedByObjectVersion
1070
     0
  0
VISUALSTYLE
  5
B206
102
{ACAD_XDICTIONARY
360
B265
102
}
102
{ACAD_REACTORS
330
B1FF
102
}
330
B1FF
100
AcDbVisualStyle
  2
Wireframe
 70
     5
 71
     0
 72
     2
 73
     0
 90
        0
 40
-0.6
 41
-30.0
 62
     5
 63
     7
 74
     1
 91
        4
 64
     7
 65
   257
 75
     1
175
     1
 42
1.0
 92
        0
 66
   257
 43
1.0
 76
     1
 77
     6
 78
     2
 67
     7
 79
     3
170
     0
171
     0
290
     0
174
     0
 93
        1
 44
0.0
173
     0
291
     0
 45
0.0
1001
ACAD
1000
AcDbSavedByObjectVersion
1070
     0
  0
VISUALSTYLE
  5
B212
102
{ACAD_XDICTIONARY
360
B27D
102
}
102
{ACAD_REACTORS
330
B1FF
102
}
330
B1FF
100
AcDbVisualStyle
  2
X-Ray
 70
    25
 71
     2
 72
     2
 73
     1
 90
        1
 40
0.5
 41
-30.0
 62
     5
 63
     7
 74
     1
 91
        0
 64
     7
 65
   257
 75
     1
175
     1
 42
1.0
 92
        8
 66
     7
 43
1.0
 76
     1
 77
     6
 78
     2
 67
     7
 79
     3
170
     0
171
     0
290
     0
174
     0
 93
       13
 44
0.0
173
     0
291
     0
 45
0.0
1001
ACAD
1000
AcDbSavedByObjectVersion
1070
     0
  0
DICTIONARYVAR
  5
B24C
102
{ACAD_REACTORS
330
B247
102
}
330
B247
100
DictionaryVariables
280
     0
  1
1:1
  0
DICTIONARYVAR
  5
B249
102
{ACAD_REACTORS
330
B247
102
}
330
B247
100
DictionaryVariables
280
     0
  1
STANDARD
  0
DICTIONARYVAR
  5
B248
102
{ACAD_REACTORS
330
B247
102
}
330
B247
100
DictionaryVariables
280
     0
  1
STANDARD
  0
DICTIONARYVAR
  5
B24A
102
{ACAD_REACTORS
330
B247
102
}
330
B247
100
DictionaryVariables
280
     0
  1
Imperial24
  0
DICTIONARYVAR
  5
B24B
102
{ACAD_REACTORS
330
B247
102
}
330
B247
100
DictionaryVariables
280
     0
  1
Imperial24
  0
DICTIONARYVAR
  5
B24F
102
{ACAD_REACTORS
330
B247
102
}
330
B247
100
DictionaryVariables
280
     0
  1
1
  0
DICTIONARYVAR
  5
B24E
102
{ACAD_REACTORS
330
B247
102
}
330
B247
100
DictionaryVariables
280
     0
  1
0
  0
DICTIONARYVAR
  5
B24D
102
{ACAD_REACTORS
330
B247
102
}
330
B247
100
DictionaryVariables
280
     0
  1
127
  0
DICTIONARYVAR
  5
B250
102
{ACAD_REACTORS
330
B247
102
}
330
B247
100
DictionaryVariables
280
     0
  1
2
  0
DICTIONARY
  5
B28D
330
B232
100
AcDbDictionary
280
     1
281
     1
  3
ACAD_XREC_ROUNDTRIP
360
B28E
  0
DICTIONARY
  5
B28F
330
B233
100
AcDbDictionary
280
     1
281
     1
  3
ACAD_XREC_ROUNDTRIP
360
B290
  0
DICTIONARY
  5
B291
330
B234
100
AcDbDictionary
280
     1
281
     1
  3
ACAD_XREC_ROUNDTRIP
360
B292
  0
DICTIONARY
  5
B1F0
330
B1EF
100
AcDbDictionary
280
     1
281
     1
  3
ACAD_XREC_ROUNDTRIP
360
B257
  3
BUMPTILE
360
B1F2
  3
DIFFUSETILE
360
B1F1
  3
OPACITYTILE
360
B1F5
  3
REFLECTIONTILE
360
B1F4
  3
REFRACTIONTILE
360
B1F6
  3
SPECULARTILE
360
B1F3
  0
DICTIONARY
  5
B1E8
330
B1E7
100
AcDbDictionary
280
     1
281
     1
  3
ACAD_XREC_ROUNDTRIP
360
B256
  3
BUMPTILE
360
B1EA
  3
DIFFUSETILE
360
B1E9
  3
OPACITYTILE
360
B1ED
  3
REFLECTIONTILE
360
B1EC
  3
REFRACTIONTILE
360
B1EE
  3
SPECULARTILE
360
B1EB
  0
DICTIONARY
  5
B1F8
330
B1F7
100
AcDbDictionary
280
     1
281
     1
  3
ACAD_XREC_ROUNDTRIP
360
B258
  3
BUMPTILE
360
B1FA
  3
DIFFUSETILE
360
B1F9
  3
OPACITYTILE
360
B1FD
  3
REFLECTIONTILE
360
B1FC
  3
REFRACTIONTILE
360
B1FE
  3
SPECULARTILE
360
B1FB
  0
DICTIONARY
  5
B28B
330
B230
100
AcDbDictionary
280
     1
281
     1
  3
ACAD_XREC_ROUNDTRIP
360
B28C
  0
DICTIONARY
  5
B252
330
B21A
100
AcDbDictionary
280
     1
281
     1
  3
ACAD_ROUNDTRIP_2008_TABLESTYLE_CELLSTYLEMAP
360
B253
  3
ACAD_XREC_ROUNDTRIP
360
B289
  0
DICTIONARY
  5
B263
330
B205
100
AcDbDictionary
280
     1
281
     1
  3
ACAD_XREC_ROUNDTRIP
360
B264
  0
DICTIONARY
  5
B261
330
B204
100
AcDbDictionary
280
     1
281
     1
  3
ACAD_XREC_ROUNDTRIP
360
B262
  0
DICTIONARY
  5
B26F
330
B20B
100
AcDbDictionary
280
     1
281
     1
  3
ACAD_XREC_ROUNDTRIP
360
B270
  0
DICTIONARY
  5
B277
330
B20F
100
AcDbDictionary
280
     1
281
     1
  3
ACAD_XREC_ROUNDTRIP
360
B278
  0
DICTIONARY
  5
B269
330
B208
100
AcDbDictionary
280
     1
281
     1
  3
ACAD_XREC_ROUNDTRIP
360
B26A
  0
DICTIONARY
  5
B26D
330
B20A
100
AcDbDictionary
280
     1
281
     1
  3
ACAD_XREC_ROUNDTRIP
360
B26E
  0
DICTIONARY
  5
B287
330
B217
100
AcDbDictionary
280
     1
281
     1
  3
ACAD_XREC_ROUNDTRIP
360
B288
  0
DICTIONARY
  5
B275
330
B20E
100
AcDbDictionary
280
     1
281
     1
  3
ACAD_XREC_ROUNDTRIP
360
B276
  0
DICTIONARY
  5
B259
330
B200
100
AcDbDictionary
280
     1
281
     1
  3
ACAD_XREC_ROUNDTRIP
360
B25A
  0
DICTIONARY
  5
B25B
330
B201
100
AcDbDictionary
280
     1
281
     1
  3
ACAD_XREC_ROUNDTRIP
360
B25C
  0
DICTIONARY
  5
B25D
330
B202
100
AcDbDictionary
280
     1
281
     1
  3
ACAD_XREC_ROUNDTRIP
360
B25E
  0
DICTIONARY
  5
B25F
330
B203
100
AcDbDictionary
280
     1
281
     1
  3
ACAD_XREC_ROUNDTRIP
360
B260
  0
DICTIONARY
  5
B267
330
B207
100
AcDbDictionary
280
     1
281
     1
  3
ACAD_XREC_ROUNDTRIP
360
B268
  0
DICTIONARY
  5
B283
330
B215
100
AcDbDictionary
280
     1
281
     1
  3
ACAD_XREC_ROUNDTRIP
360
B284
  0
DICTIONARY
  5
B273
330
B20D
100
AcDbDictionary
280
     1
281
     1
  3
ACAD_XREC_ROUNDTRIP
360
B274
  0
DICTIONARY
  5
B285
330
B216
100
AcDbDictionary
280
     1
281
     1
  3
ACAD_XREC_ROUNDTRIP
360
B286
  0
DICTIONARY
  5
B26B
330
B209
100
AcDbDictionary
280
     1
281
     1
  3
ACAD_XREC_ROUNDTRIP
360
B26C
  0
DICTIONARY
  5
B281
330
B214
100
AcDbDictionary
280
     1
281
     1
  3
ACAD_XREC_ROUNDTRIP
360
B282
  0
DICTIONARY
  5
B27F
330
B213
100
AcDbDictionary
280
     1
281
     1
  3
ACAD_XREC_ROUNDTRIP
360
B280
  0
DICTIONARY
  5
B279
330
B210
100
AcDbDictionary
280
     1
281
     1
  3
ACAD_XREC_ROUNDTRIP
360
B27A
  0
DICTIONARY
  5
B27B
330
B211
100
AcDbDictionary
280
     1
281
     1
  3
ACAD_XREC_ROUNDTRIP
360
B27C
  0
DICTIONARY
  5
B271
330
B20C
100
AcDbDictionary
280
     1
281
     1
  3
ACAD_XREC_ROUNDTRIP
360
B272
  0
DICTIONARY
  5
B265
330
B206
100
AcDbDictionary
280
     1
281
     1
  3
ACAD_XREC_ROUNDTRIP
360
B266
  0
DICTIONARY
  5
B27D
330
B212
100
AcDbDictionary
280
     1
281
     1
  3
ACAD_XREC_ROUNDTRIP
360
B27E
  0
XRECORD
  5
B28E
102
{ACAD_REACTORS
330
B28D
102
}
330
B28D
100
AcDbXrecord
280
     1
102
DISPLAYNAME
  1
Imperial24
102
FLAGS
 90
        0
  0
XRECORD
  5
B290
102
{ACAD_REACTORS
330
B28F
102
}
330
B28F
100
AcDbXrecord
280
     1
102
SHADEPLOT
 70
     0
102
SHADEPLOTRESLEVEL
 70
     2
102
SHADEPLOTCUSTOMDPI
 70
   300
  0
XRECORD
  5
B292
102
{ACAD_REACTORS
330
B291
102
}
330
B291
100
AcDbXrecord
280
     1
102
SHADEPLOT
 70
     0
102
SHADEPLOTRESLEVEL
 70
     2
102
SHADEPLOTCUSTOMDPI
 70
   300
  0
XRECORD
  5
B257
102
{ACAD_REACTORS
330
B1F0
102
}
330
B1F0
100
AcDbXrecord
280
     1
102
MATERIAL
148
0.0
149
0.0
149
0.0
 93
        0
 94
      127
282
     0
 72
     0
 77
     0
171
     0
175
     0
179
     0
273
     0
  0
XRECORD
  5
B1F2
102
{ACAD_REACTORS
330
B1F0
102
}
330
B1F0
100
AcDbXrecord
280
     1
270
     1
271
     1
  0
XRECORD
  5
B1F1
102
{ACAD_REACTORS
330
B1F0
102
}
330
B1F0
100
AcDbXrecord
280
     1
270
     1
271
     1
  0
XRECORD
  5
B1F5
102
{ACAD_REACTORS
330
B1F0
102
}
330
B1F0
100
AcDbXrecord
280
     1
270
     1
271
     1
  0
XRECORD
  5
B1F4
102
{ACAD_REACTORS
330
B1F0
102
}
330
B1F0
100
AcDbXrecord
280
     1
270
     1
271
     1
  0
XRECORD
  5
B1F6
102
{ACAD_REACTORS
330
B1F0
102
}
330
B1F0
100
AcDbXrecord
280
     1
270
     1
271
     1
  0
XRECORD
  5
B1F3
102
{ACAD_REACTORS
330
B1F0
102
}
330
B1F0
100
AcDbXrecord
280
     1
270
     1
271
     1
  0
XRECORD
  5
B256
102
{ACAD_REACTORS
330
B1E8
102
}
330
B1E8
100
AcDbXrecord
280
     1
102
MATERIAL
148
0.0
149
0.0
149
0.0
 93
        0
 94
      127
282
     0
 72
     0
 77
     0
171
     0
175
     0
179
     0
273
     0
  0
XRECORD
  5
B1EA
102
{ACAD_REACTORS
330
B1E8
102
}
330
B1E8
100
AcDbXrecord
280
     1
270
     1
271
     1
  0
XRECORD
  5
B1E9
102
{ACAD_REACTORS
330
B1E8
102
}
330
B1E8
100
AcDbXrecord
280
     1
270
     1
271
     1
  0
XRECORD
  5
B1ED
102
{ACAD_REACTORS
330
B1E8
102
}
330
B1E8
100
AcDbXrecord
280
     1
270
     1
271
     1
  0
XRECORD
  5
B1EC
102
{ACAD_REACTORS
330
B1E8
102
}
330
B1E8
100
AcDbXrecord
280
     1
270
     1
271
     1
  0
XRECORD
  5
B1EE
102
{ACAD_REACTORS
330
B1E8
102
}
330
B1E8
100
AcDbXrecord
280
     1
270
     1
271
     1
  0
XRECORD
  5
B1EB
102
{ACAD_REACTORS
330
B1E8
102
}
330
B1E8
100
AcDbXrecord
280
     1
270
     1
271
     1
  0
XRECORD
  5
B258
102
{ACAD_REACTORS
330
B1F8
102
}
330
B1F8
100
AcDbXrecord
280
     1
102
MATERIAL
148
0.0
149
0.0
149
0.0
 93
        0
 94
      127
282
     0
 72
     0
 77
     0
171
     0
175
     0
179
     0
273
     0
  0
XRECORD
  5
B1FA
102
{ACAD_REACTORS
330
B1F8
102
}
330
B1F8
100
AcDbXrecord
280
     1
270
     1
271
     1
  0
XRECORD
  5
B1F9
102
{ACAD_REACTORS
330
B1F8
102
}
330
B1F8
100
AcDbXrecord
280
     1
270
     1
271
     1
  0
XRECORD
  5
B1FD
102
{ACAD_REACTORS
330
B1F8
102
}
330
B1F8
100
AcDbXrecord
280
     1
270
     1
271
     1
  0
XRECORD
  5
B1FC
102
{ACAD_REACTORS
330
B1F8
102
}
330
B1F8
100
AcDbXrecord
280
     1
270
     1
271
     1
  0
XRECORD
  5
B1FE
102
{ACAD_REACTORS
330
B1F8
102
}
330
B1F8
100
AcDbXrecord
280
     1
270
     1
271
     1
  0
XRECORD
  5
B1FB
102
{ACAD_REACTORS
330
B1F8
102
}
330
B1F8
100
AcDbXrecord
280
     1
270
     1
271
     1
  0
XRECORD
  5
B28C
102
{ACAD_REACTORS
330
B28B
102
}
330
B28B
100
AcDbXrecord
280
     1
102
DISPLAYNAME
  1
Imperial24
102
FLAGS
 90
        0
  0
CELLSTYLEMAP
  5
B253
102
{ACAD_REACTORS
330
B252
102
}
330
B252
100
AcDbCellStyleMap
 90
        3
300
CELLSTYLE
  1
TABLEFORMAT_BEGIN
 90
        5
170
     1
 91
        0
 92
    32768
 62
   257
 93
        1
300
CONTENTFORMAT
  1
CONTENTFORMAT_BEGIN
 90
        0
 91
        0
 92
      512
 93
        0
300

 40
0.0
140
1.0
 94
        5
 62
     0
340
AF39
144
0.25
309
CONTENTFORMAT_END
171
     0
 94
        0
309
TABLEFORMAT_END
  1
CELLSTYLE_BEGIN
 90
        1
 91
        1
300
_TITLE
309
CELLSTYLE_END
300
CELLSTYLE
  1
TABLEFORMAT_BEGIN
 90
        5
170
     1
 91
        0
 92
        0
 62
   257
 93
        1
300
CONTENTFORMAT
  1
CONTENTFORMAT_BEGIN
 90
        0
 91
        0
 92
      512
 93
        0
300

 40
0.0
140
1.0
 94
        5
 62
     0
340
AF39
144
0.18
309
CONTENTFORMAT_END
171
     0
 94
        0
309
TABLEFORMAT_END
  1
CELLSTYLE_BEGIN
 90
        2
 91
        1
300
_HEADER
309
CELLSTYLE_END
300
CELLSTYLE
  1
TABLEFORMAT_BEGIN
 90
        5
170
     1
 91
        0
 92
        0
 62
   257
 93
        1
300
CONTENTFORMAT
  1
CONTENTFORMAT_BEGIN
 90
        0
 91
        0
 92
      512
 93
        0
300

 40
0.0
140
1.0
 94
        2
 62
     0
340
AF39
144
0.18
309
CONTENTFORMAT_END
171
     0
 94
        0
309
TABLEFORMAT_END
  1
CELLSTYLE_BEGIN
 90
        3
 91
        2
300
_DATA
309
CELLSTYLE_END
  0
XRECORD
  5
B289
102
{ACAD_REACTORS
330
B252
102
}
330
B252
100
AcDbXrecord
280
     1
102
ACAD_ROUNDTRIP_PRE2007_TABLESTYLE
 90
      512
 91
        0
  1

 92
      512
 93
        0
  2

 94
      512
 95
        0
  3

  0
XRECORD
  5
B264
102
{ACAD_REACTORS
330
B263
102
}
330
B263
100
AcDbXrecord
280
     1
102
RTVSPost2010Prop28
280
     1
102
RTVSPost2010PropOp28
 70
     1
102
RTVSPost2010Prop29
280
     1
102
RTVSPost2010PropOp29
 70
     1
102
RTVSPost2010Prop30
280
     0
102
RTVSPost2010PropOp30
 70
     1
102
RTVSPost2010Prop31
280
     0
102
RTVSPost2010PropOp31
 70
     1
102
RTVSPost2010Prop32
280
     0
102
RTVSPost2010PropOp32
 70
     1
102
RTVSPost2010Prop33
280
     0
102
RTVSPost2010PropOp33
 70
     1
102
RTVSPost2010Prop34
280
     0
102
RTVSPost2010PropOp34
 70
     1
102
RTVSPost2010Prop35
280
     0
102
RTVSPost2010PropOp35
 70
     1
102
RTVSPost2010Prop36
280
     0
102
RTVSPost2010PropOp36
 70
     1
102
RTVSPost2010Prop37
 90
       50
102
RTVSPost2010PropOp37
 70
     1
102
RTVSPost2010Prop38
140
0.0
102
RTVSPost2010PropOp38
 70
     1
102
RTVSPost2010Prop39
140
1.0
102
RTVSPost2010PropOp39
 70
     1
102
RTVSPost2010Prop40
 90
        0
102
RTVSPost2010PropOp40
 70
     1
102
RTVSPost2010Prop41ColorIndex
 90
       18
102
RTVSPost2010Prop41ColorRGB
 90
        0
102
RTVSPost2010PropOp41
 70
     1
102
RTVSPost2010Prop42
 90
       50
102
RTVSPost2010PropOp42
 70
     1
102
RTVSPost2010Prop43
 90
        3
102
RTVSPost2010PropOp43
 70
     1
102
RTVSPost2010Prop44ColorIndex
 90
        5
102
RTVSPost2010Prop44ColorRGB
 90
      255
102
RTVSPost2010PropOp44
 70
     1
102
RTVSPost2010Prop45
280
     0
102
RTVSPost2010PropOp45
 70
     1
102
RTVSPost2010Prop46
 90
       50
102
RTVSPost2010PropOp46
 70
     1
102
RTVSPost2010Prop47
 90
       50
102
RTVSPost2010PropOp47
 70
     1
102
RTVSPost2010Prop48
 90
       50
102
RTVSPost2010PropOp48
 70
     1
102
RTVSPost2010Prop49
280
     0
102
RTVSPost2010PropOp49
 70
     1
102
RTVSPost2010Prop50
 90
       50
102
RTVSPost2010PropOp50
 70
     1
102
RTVSPost2010Prop51ColorIndex
 90
      256
102
RTVSPost2010Prop51ColorRGB
 90
-16777216
102
RTVSPost2010PropOp51
 70
     0
102
RTVSPost2010Prop52
140
1.0
102
RTVSPost2010PropOp52
 70
     0
102
RTVSPost2010Prop53
 90
        2
102
RTVSPost2010PropOp53
 70
     1
102
RTVSPost2010Prop54
  1
strokes_ogs.tif
102
RTVSPost2010PropOp54
 70
     1
102
RTVSPost2010Prop55
280
     0
102
RTVSPost2010PropOp55
 70
     1
102
RTVSPost2010Prop56
140
1.0
102
RTVSPost2010PropOp56
 70
     1
102
RTVSPost2010Prop57
140
1.0
102
RTVSPost2010PropOp57
 70
     1
102
RTVSPropertyOp0
 70
     1
102
RTVSPropertyOp1
 70
     1
102
RTVSPropertyOp2
 70
     1
102
RTVSPropertyOp3
 70
     1
102
RTVSPropertyOp4
 70
     1
102
RTVSPropertyOp5
 70
     1
102
RTVSPropertyOp6
 70
     1
102
RTVSPropertyOp7
 70
     1
102
RTVSPropertyOp8
 70
     1
102
RTVSPropertyOp9
 70
     1
102
RTVSPropertyOp10
 70
     1
102
RTVSPropertyOp11
 70
     1
102
RTVSPropertyOp12
 70
     1
102
RTVSPropertyOp13
 70
     1
102
RTVSPropertyOp14
 70
     1
102
RTVSPropertyOp15
 70
     1
102
RTVSPropertyOp16
 70
     1
102
RTVSPropertyOp17
 70
     1
102
RTVSPropertyOp18
 70
     1
102
RTVSPropertyOp19
 70
     1
102
RTVSPropertyOp20
 70
     1
102
RTVSPropertyOp21
 70
     1
102
RTVSPropertyOp22
 70
     1
102
RTVSPropertyOp23
 70
     1
102
RTVSPropertyOp24
 70
     1
102
RTVSPropertyOp25
 70
     1
102
RTVSPropertyOp26
 70
     1
102
RTVSPropertyOp27
 70
     1
102
RTVSPropertyOp28
 70
     1
102
RTVSPropertyOp29
 70
     1
102
RTVSPropertyOp30
 70
     1
102
RTVSPropertyOp31
 70
     1
102
RTVSPropertyOp32
 70
     1
102
RTVSPropertyOp33
 70
     1
102
RTVSPropertyOp34
 70
     1
102
RTVSPropertyOp35
 70
     1
102
RTVSPropertyOp36
 70
     1
102
RTVSPropertyOp37
 70
     1
102
RTVSPropertyOp38
 70
     1
102
RTVSPropertyOp39
 70
     1
102
RTVSPropertyOp40
 70
     1
102
RTVSPropertyOp41
 70
     1
102
RTVSPropertyOp42
 70
     1
102
RTVSPropertyOp43
 70
     1
102
RTVSPropertyOp44
 70
     1
102
RTVSPropertyOp45
 70
     1
102
RTVSPropertyOp46
 70
     1
102
RTVSPropertyOp47
 70
     1
102
RTVSPropertyOp48
 70
     1
102
RTVSPropertyOp49
 70
     1
102
RTVSPropertyOp50
 70
     1
102
RTVSPropertyOp51
 70
     0
102
RTVSPropertyOp52
 70
     0
102
RTVSPropertyOp53
 70
     1
102
RTVSPropertyOp54
 70
     1
102
RTVSPropertyOp55
 70
     1
102
RTVSPropertyOp56
 70
     1
102
RTVSPropertyOp57
 70
     1
102
RTVSPropertyOp58
 70
     1
102
RTVSPropertyOp59
 70
     1
102
RTVSPropertyOp60
 70
     1
102
RTVSPropertyOp61
 70
     1
102
RTVSPropertyOp62
 70
     1
  0
XRECORD
  5
B262
102
{ACAD_REACTORS
330
B261
102
}
330
B261
100
AcDbXrecord
280
     1
102
RTVSPost2010Prop28
280
     0
102
RTVSPost2010PropOp28
 70
     1
102
RTVSPost2010Prop29
280
     1
102
RTVSPost2010PropOp29
 70
     1
102
RTVSPost2010Prop30
280
     1
102
RTVSPost2010PropOp30
 70
     1
102
RTVSPost2010Prop31
280
     0
102
RTVSPost2010PropOp31
 70
     1
102
RTVSPost2010Prop32
280
     0
102
RTVSPost2010PropOp32
 70
     1
102
RTVSPost2010Prop33
280
     0
102
RTVSPost2010PropOp33
 70
     1
102
RTVSPost2010Prop34
280
     0
102
RTVSPost2010PropOp34
 70
     1
102
RTVSPost2010Prop35
280
     0
102
RTVSPost2010PropOp35
 70
     1
102
RTVSPost2010Prop36
280
     0
102
RTVSPost2010PropOp36
 70
     1
102
RTVSPost2010Prop37
 90
       50
102
RTVSPost2010PropOp37
 70
     1
102
RTVSPost2010Prop38
140
0.0
102
RTVSPost2010PropOp38
 70
     1
102
RTVSPost2010Prop39
140
1.0
102
RTVSPost2010PropOp39
 70
     1
102
RTVSPost2010Prop40
 90
        0
102
RTVSPost2010PropOp40
 70
     1
102
RTVSPost2010Prop41ColorIndex
 90
       18
102
RTVSPost2010Prop41ColorRGB
 90
        0
102
RTVSPost2010PropOp41
 70
     1
102
RTVSPost2010Prop42
 90
       50
102
RTVSPost2010PropOp42
 70
     1
102
RTVSPost2010Prop43
 90
        3
102
RTVSPost2010PropOp43
 70
     1
102
RTVSPost2010Prop44ColorIndex
 90
        5
102
RTVSPost2010Prop44ColorRGB
 90
      255
102
RTVSPost2010PropOp44
 70
     1
102
RTVSPost2010Prop45
280
     0
102
RTVSPost2010PropOp45
 70
     1
102
RTVSPost2010Prop46
 90
       50
102
RTVSPost2010PropOp46
 70
     1
102
RTVSPost2010Prop47
 90
       50
102
RTVSPost2010PropOp47
 70
     1
102
RTVSPost2010Prop48
 90
       50
102
RTVSPost2010PropOp48
 70
     1
102
RTVSPost2010Prop49
280
     0
102
RTVSPost2010PropOp49
 70
     1
102
RTVSPost2010Prop50
 90
       50
102
RTVSPost2010PropOp50
 70
     1
102
RTVSPost2010Prop51ColorIndex
 90
      256
102
RTVSPost2010Prop51ColorRGB
 90
-16777216
102
RTVSPost2010PropOp51
 70
     0
102
RTVSPost2010Prop52
140
1.0
102
RTVSPost2010PropOp52
 70
     0
102
RTVSPost2010Prop53
 90
        2
102
RTVSPost2010PropOp53
 70
     1
102
RTVSPost2010Prop54
  1
strokes_ogs.tif
102
RTVSPost2010PropOp54
 70
     1
102
RTVSPost2010Prop55
280
     0
102
RTVSPost2010PropOp55
 70
     1
102
RTVSPost2010Prop56
140
1.0
102
RTVSPost2010PropOp56
 70
     1
102
RTVSPost2010Prop57
140
1.0
102
RTVSPost2010PropOp57
 70
     1
102
RTVSPropertyOp0
 70
     1
102
RTVSPropertyOp1
 70
     1
102
RTVSPropertyOp2
 70
     1
102
RTVSPropertyOp3
 70
     1
102
RTVSPropertyOp4
 70
     1
102
RTVSPropertyOp5
 70
     1
102
RTVSPropertyOp6
 70
     1
102
RTVSPropertyOp7
 70
     1
102
RTVSPropertyOp8
 70
     1
102
RTVSPropertyOp9
 70
     1
102
RTVSPropertyOp10
 70
     1
102
RTVSPropertyOp11
 70
     1
102
RTVSPropertyOp12
 70
     1
102
RTVSPropertyOp13
 70
     1
102
RTVSPropertyOp14
 70
     1
102
RTVSPropertyOp15
 70
     1
102
RTVSPropertyOp16
 70
     1
102
RTVSPropertyOp17
 70
     1
102
RTVSPropertyOp18
 70
     1
102
RTVSPropertyOp19
 70
     1
102
RTVSPropertyOp20
 70
     1
102
RTVSPropertyOp21
 70
     1
102
RTVSPropertyOp22
 70
     1
102
RTVSPropertyOp23
 70
     1
102
RTVSPropertyOp24
 70
     1
102
RTVSPropertyOp25
 70
     1
102
RTVSPropertyOp26
 70
     1
102
RTVSPropertyOp27
 70
     1
102
RTVSPropertyOp28
 70
     1
102
RTVSPropertyOp29
 70
     1
102
RTVSPropertyOp30
 70
     1
102
RTVSPropertyOp31
 70
     1
102
RTVSPropertyOp32
 70
     1
102
RTVSPropertyOp33
 70
     1
102
RTVSPropertyOp34
 70
     1
102
RTVSPropertyOp35
 70
     1
102
RTVSPropertyOp36
 70
     1
102
RTVSPropertyOp37
 70
     1
102
RTVSPropertyOp38
 70
     1
102
RTVSPropertyOp39
 70
     1
102
RTVSPropertyOp40
 70
     1
102
RTVSPropertyOp41
 70
     1
102
RTVSPropertyOp42
 70
     1
102
RTVSPropertyOp43
 70
     1
102
RTVSPropertyOp44
 70
     1
102
RTVSPropertyOp45
 70
     1
102
RTVSPropertyOp46
 70
     1
102
RTVSPropertyOp47
 70
     1
102
RTVSPropertyOp48
 70
     1
102
RTVSPropertyOp49
 70
     1
102
RTVSPropertyOp50
 70
     1
102
RTVSPropertyOp51
 70
     0
102
RTVSPropertyOp52
 70
     0
102
RTVSPropertyOp53
 70
     1
102
RTVSPropertyOp54
 70
     1
102
RTVSPropertyOp55
 70
     1
102
RTVSPropertyOp56
 70
     1
102
RTVSPropertyOp57
 70
     1
102
RTVSPropertyOp58
 70
     1
102
RTVSPropertyOp59
 70
     1
102
RTVSPropertyOp60
 70
     1
102
RTVSPropertyOp61
 70
     1
102
RTVSPropertyOp62
 70
     1
  0
XRECORD
  5
B270
102
{ACAD_REACTORS
330
B26F
102
}
330
B26F
100
AcDbXrecord
280
     1
102
RTVSPost2010Prop28
280
     0
102
RTVSPost2010PropOp28
 70
     1
102
RTVSPost2010Prop29
280
     1
102
RTVSPost2010PropOp29
 70
     1
102
RTVSPost2010Prop30
280
     1
102
RTVSPost2010PropOp30
 70
     1
102
RTVSPost2010Prop31
280
     0
102
RTVSPost2010PropOp31
 70
     1
102
RTVSPost2010Prop32
280
     0
102
RTVSPost2010PropOp32
 70
     1
102
RTVSPost2010Prop33
280
     0
102
RTVSPost2010PropOp33
 70
     1
102
RTVSPost2010Prop34
280
     0
102
RTVSPost2010PropOp34
 70
     1
102
RTVSPost2010Prop35
280
     0
102
RTVSPost2010PropOp35
 70
     1
102
RTVSPost2010Prop36
280
     0
102
RTVSPost2010PropOp36
 70
     1
102
RTVSPost2010Prop37
 90
       50
102
RTVSPost2010PropOp37
 70
     1
102
RTVSPost2010Prop38
140
0.0
102
RTVSPost2010PropOp38
 70
     1
102
RTVSPost2010Prop39
140
1.0
102
RTVSPost2010PropOp39
 70
     1
102
RTVSPost2010Prop40
 90
        0
102
RTVSPost2010PropOp40
 70
     1
102
RTVSPost2010Prop41ColorIndex
 90
       18
102
RTVSPost2010Prop41ColorRGB
 90
        0
102
RTVSPost2010PropOp41
 70
     1
102
RTVSPost2010Prop42
 90
       50
102
RTVSPost2010PropOp42
 70
     1
102
RTVSPost2010Prop43
 90
        3
102
RTVSPost2010PropOp43
 70
     1
102
RTVSPost2010Prop44ColorIndex
 90
        5
102
RTVSPost2010Prop44ColorRGB
 90
      255
102
RTVSPost2010PropOp44
 70
     1
102
RTVSPost2010Prop45
280
     0
102
RTVSPost2010PropOp45
 70
     1
102
RTVSPost2010Prop46
 90
       50
102
RTVSPost2010PropOp46
 70
     1
102
RTVSPost2010Prop47
 90
       50
102
RTVSPost2010PropOp47
 70
     1
102
RTVSPost2010Prop48
 90
       50
102
RTVSPost2010PropOp48
 70
     1
102
RTVSPost2010Prop49
280
     0
102
RTVSPost2010PropOp49
 70
     1
102
RTVSPost2010Prop50
 90
       50
102
RTVSPost2010PropOp50
 70
     1
102
RTVSPost2010Prop51ColorIndex
 90
      256
102
RTVSPost2010Prop51ColorRGB
 90
-16777216
102
RTVSPost2010PropOp51
 70
     0
102
RTVSPost2010Prop52
140
1.0
102
RTVSPost2010PropOp52
 70
     0
102
RTVSPost2010Prop53
 90
        2
102
RTVSPost2010PropOp53
 70
     1
102
RTVSPost2010Prop54
  1
strokes_ogs.tif
102
RTVSPost2010PropOp54
 70
     1
102
RTVSPost2010Prop55
280
     0
102
RTVSPost2010PropOp55
 70
     1
102
RTVSPost2010Prop56
140
1.0
102
RTVSPost2010PropOp56
 70
     1
102
RTVSPost2010Prop57
140
1.0
102
RTVSPost2010PropOp57
 70
     1
102
RTVSPropertyOp0
 70
     1
102
RTVSPropertyOp1
 70
     1
102
RTVSPropertyOp2
 70
     1
102
RTVSPropertyOp3
 70
     1
102
RTVSPropertyOp4
 70
     1
102
RTVSPropertyOp5
 70
     1
102
RTVSPropertyOp6
 70
     1
102
RTVSPropertyOp7
 70
     1
102
RTVSPropertyOp8
 70
     1
102
RTVSPropertyOp9
 70
     1
102
RTVSPropertyOp10
 70
     1
102
RTVSPropertyOp11
 70
     1
102
RTVSPropertyOp12
 70
     1
102
RTVSPropertyOp13
 70
     1
102
RTVSPropertyOp14
 70
     1
102
RTVSPropertyOp15
 70
     1
102
RTVSPropertyOp16
 70
     1
102
RTVSPropertyOp17
 70
     1
102
RTVSPropertyOp18
 70
     1
102
RTVSPropertyOp19
 70
     1
102
RTVSPropertyOp20
 70
     1
102
RTVSPropertyOp21
 70
     1
102
RTVSPropertyOp22
 70
     1
102
RTVSPropertyOp23
 70
     1
102
RTVSPropertyOp24
 70
     1
102
RTVSPropertyOp25
 70
     1
102
RTVSPropertyOp26
 70
     1
102
RTVSPropertyOp27
 70
     1
102
RTVSPropertyOp28
 70
     1
102
RTVSPropertyOp29
 70
     1
102
RTVSPropertyOp30
 70
     1
102
RTVSPropertyOp31
 70
     1
102
RTVSPropertyOp32
 70
     1
102
RTVSPropertyOp33
 70
     1
102
RTVSPropertyOp34
 70
     1
102
RTVSPropertyOp35
 70
     1
102
RTVSPropertyOp36
 70
     1
102
RTVSPropertyOp37
 70
     1
102
RTVSPropertyOp38
 70
     1
102
RTVSPropertyOp39
 70
     1
102
RTVSPropertyOp40
 70
     1
102
RTVSPropertyOp41
 70
     1
102
RTVSPropertyOp42
 70
     1
102
RTVSPropertyOp43
 70
     1
102
RTVSPropertyOp44
 70
     1
102
RTVSPropertyOp45
 70
     1
102
RTVSPropertyOp46
 70
     1
102
RTVSPropertyOp47
 70
     1
102
RTVSPropertyOp48
 70
     1
102
RTVSPropertyOp49
 70
     1
102
RTVSPropertyOp50
 70
     1
102
RTVSPropertyOp51
 70
     0
102
RTVSPropertyOp52
 70
     0
102
RTVSPropertyOp53
 70
     1
102
RTVSPropertyOp54
 70
     1
102
RTVSPropertyOp55
 70
     1
102
RTVSPropertyOp56
 70
     1
102
RTVSPropertyOp57
 70
     1
102
RTVSPropertyOp58
 70
     1
102
RTVSPropertyOp59
 70
     1
102
RTVSPropertyOp60
 70
     1
102
RTVSPropertyOp61
 70
     1
102
RTVSPropertyOp62
 70
     1
  0
XRECORD
  5
B278
102
{ACAD_REACTORS
330
B277
102
}
330
B277
100
AcDbXrecord
280
     1
102
RTVSPost2010Prop28
280
     0
102
RTVSPost2010PropOp28
 70
     1
102
RTVSPost2010Prop29
280
     1
102
RTVSPost2010PropOp29
 70
     1
102
RTVSPost2010Prop30
280
     1
102
RTVSPost2010PropOp30
 70
     1
102
RTVSPost2010Prop31
280
     0
102
RTVSPost2010PropOp31
 70
     1
102
RTVSPost2010Prop32
280
     0
102
RTVSPost2010PropOp32
 70
     1
102
RTVSPost2010Prop33
280
     0
102
RTVSPost2010PropOp33
 70
     1
102
RTVSPost2010Prop34
280
     0
102
RTVSPost2010PropOp34
 70
     1
102
RTVSPost2010Prop35
280
     0
102
RTVSPost2010PropOp35
 70
     1
102
RTVSPost2010Prop36
280
     0
102
RTVSPost2010PropOp36
 70
     1
102
RTVSPost2010Prop37
 90
       50
102
RTVSPost2010PropOp37
 70
     1
102
RTVSPost2010Prop38
140
0.0
102
RTVSPost2010PropOp38
 70
     1
102
RTVSPost2010Prop39
140
1.0
102
RTVSPost2010PropOp39
 70
     1
102
RTVSPost2010Prop40
 90
        0
102
RTVSPost2010PropOp40
 70
     1
102
RTVSPost2010Prop41ColorIndex
 90
       18
102
RTVSPost2010Prop41ColorRGB
 90
        0
102
RTVSPost2010PropOp41
 70
     1
102
RTVSPost2010Prop42
 90
       50
102
RTVSPost2010PropOp42
 70
     1
102
RTVSPost2010Prop43
 90
        3
102
RTVSPost2010PropOp43
 70
     1
102
RTVSPost2010Prop44ColorIndex
 90
        5
102
RTVSPost2010Prop44ColorRGB
 90
      255
102
RTVSPost2010PropOp44
 70
     1
102
RTVSPost2010Prop45
280
     0
102
RTVSPost2010PropOp45
 70
     1
102
RTVSPost2010Prop46
 90
       50
102
RTVSPost2010PropOp46
 70
     1
102
RTVSPost2010Prop47
 90
       50
102
RTVSPost2010PropOp47
 70
     1
102
RTVSPost2010Prop48
 90
       50
102
RTVSPost2010PropOp48
 70
     1
102
RTVSPost2010Prop49
280
     0
102
RTVSPost2010PropOp49
 70
     1
102
RTVSPost2010Prop50
 90
       50
102
RTVSPost2010PropOp50
 70
     1
102
RTVSPost2010Prop51ColorIndex
 90
      256
102
RTVSPost2010Prop51ColorRGB
 90
-16777216
102
RTVSPost2010PropOp51
 70
     0
102
RTVSPost2010Prop52
140
1.0
102
RTVSPost2010PropOp52
 70
     0
102
RTVSPost2010Prop53
 90
        2
102
RTVSPost2010PropOp53
 70
     1
102
RTVSPost2010Prop54
  1
strokes_ogs.tif
102
RTVSPost2010PropOp54
 70
     1
102
RTVSPost2010Prop55
280
     0
102
RTVSPost2010PropOp55
 70
     1
102
RTVSPost2010Prop56
140
1.0
102
RTVSPost2010PropOp56
 70
     1
102
RTVSPost2010Prop57
140
1.0
102
RTVSPost2010PropOp57
 70
     1
102
RTVSPropertyOp0
 70
     1
102
RTVSPropertyOp1
 70
     1
102
RTVSPropertyOp2
 70
     1
102
RTVSPropertyOp3
 70
     1
102
RTVSPropertyOp4
 70
     1
102
RTVSPropertyOp5
 70
     1
102
RTVSPropertyOp6
 70
     1
102
RTVSPropertyOp7
 70
     1
102
RTVSPropertyOp8
 70
     1
102
RTVSPropertyOp9
 70
     1
102
RTVSPropertyOp10
 70
     1
102
RTVSPropertyOp11
 70
     1
102
RTVSPropertyOp12
 70
     1
102
RTVSPropertyOp13
 70
     1
102
RTVSPropertyOp14
 70
     1
102
RTVSPropertyOp15
 70
     1
102
RTVSPropertyOp16
 70
     1
102
RTVSPropertyOp17
 70
     1
102
RTVSPropertyOp18
 70
     1
102
RTVSPropertyOp19
 70
     1
102
RTVSPropertyOp20
 70
     1
102
RTVSPropertyOp21
 70
     1
102
RTVSPropertyOp22
 70
     1
102
RTVSPropertyOp23
 70
     1
102
RTVSPropertyOp24
 70
     1
102
RTVSPropertyOp25
 70
     1
102
RTVSPropertyOp26
 70
     1
102
RTVSPropertyOp27
 70
     1
102
RTVSPropertyOp28
 70
     1
102
RTVSPropertyOp29
 70
     1
102
RTVSPropertyOp30
 70
     1
102
RTVSPropertyOp31
 70
     1
102
RTVSPropertyOp32
 70
     1
102
RTVSPropertyOp33
 70
     1
102
RTVSPropertyOp34
 70
     1
102
RTVSPropertyOp35
 70
     1
102
RTVSPropertyOp36
 70
     1
102
RTVSPropertyOp37
 70
     1
102
RTVSPropertyOp38
 70
     1
102
RTVSPropertyOp39
 70
     1
102
RTVSPropertyOp40
 70
     1
102
RTVSPropertyOp41
 70
     1
102
RTVSPropertyOp42
 70
     1
102
RTVSPropertyOp43
 70
     1
102
RTVSPropertyOp44
 70
     1
102
RTVSPropertyOp45
 70
     1
102
RTVSPropertyOp46
 70
     1
102
RTVSPropertyOp47
 70
     1
102
RTVSPropertyOp48
 70
     1
102
RTVSPropertyOp49
 70
     1
102
RTVSPropertyOp50
 70
     1
102
RTVSPropertyOp51
 70
     0
102
RTVSPropertyOp52
 70
     0
102
RTVSPropertyOp53
 70
     1
102
RTVSPropertyOp54
 70
     1
102
RTVSPropertyOp55
 70
     1
102
RTVSPropertyOp56
 70
     1
102
RTVSPropertyOp57
 70
     1
102
RTVSPropertyOp58
 70
     1
102
RTVSPropertyOp59
 70
     1
102
RTVSPropertyOp60
 70
     1
102
RTVSPropertyOp61
 70
     1
102
RTVSPropertyOp62
 70
     1
  0
XRECORD
  5
B26A
102
{ACAD_REACTORS
330
B269
102
}
330
B269
100
AcDbXrecord
280
     1
102
RTVSPost2010Prop28
280
     0
102
RTVSPost2010PropOp28
 70
     1
102
RTVSPost2010Prop29
280
     1
102
RTVSPost2010PropOp29
 70
     1
102
RTVSPost2010Prop30
280
     1
102
RTVSPost2010PropOp30
 70
     1
102
RTVSPost2010Prop31
280
     0
102
RTVSPost2010PropOp31
 70
     1
102
RTVSPost2010Prop32
280
     0
102
RTVSPost2010PropOp32
 70
     1
102
RTVSPost2010Prop33
280
     0
102
RTVSPost2010PropOp33
 70
     1
102
RTVSPost2010Prop34
280
     0
102
RTVSPost2010PropOp34
 70
     1
102
RTVSPost2010Prop35
280
     0
102
RTVSPost2010PropOp35
 70
     1
102
RTVSPost2010Prop36
280
     0
102
RTVSPost2010PropOp36
 70
     1
102
RTVSPost2010Prop37
 90
       50
102
RTVSPost2010PropOp37
 70
     1
102
RTVSPost2010Prop38
140
0.0
102
RTVSPost2010PropOp38
 70
     1
102
RTVSPost2010Prop39
140
1.0
102
RTVSPost2010PropOp39
 70
     1
102
RTVSPost2010Prop40
 90
        0
102
RTVSPost2010PropOp40
 70
     1
102
RTVSPost2010Prop41ColorIndex
 90
       18
102
RTVSPost2010Prop41ColorRGB
 90
        0
102
RTVSPost2010PropOp41
 70
     1
102
RTVSPost2010Prop42
 90
       50
102
RTVSPost2010PropOp42
 70
     1
102
RTVSPost2010Prop43
 90
        3
102
RTVSPost2010PropOp43
 70
     1
102
RTVSPost2010Prop44ColorIndex
 90
        5
102
RTVSPost2010Prop44ColorRGB
 90
      255
102
RTVSPost2010PropOp44
 70
     1
102
RTVSPost2010Prop45
280
     0
102
RTVSPost2010PropOp45
 70
     1
102
RTVSPost2010Prop46
 90
       50
102
RTVSPost2010PropOp46
 70
     1
102
RTVSPost2010Prop47
 90
       50
102
RTVSPost2010PropOp47
 70
     1
102
RTVSPost2010Prop48
 90
       50
102
RTVSPost2010PropOp48
 70
     1
102
RTVSPost2010Prop49
280
     0
102
RTVSPost2010PropOp49
 70
     1
102
RTVSPost2010Prop50
 90
       50
102
RTVSPost2010PropOp50
 70
     1
102
RTVSPost2010Prop51ColorIndex
 90
      256
102
RTVSPost2010Prop51ColorRGB
 90
-16777216
102
RTVSPost2010PropOp51
 70
     0
102
RTVSPost2010Prop52
140
1.0
102
RTVSPost2010PropOp52
 70
     0
102
RTVSPost2010Prop53
 90
        2
102
RTVSPost2010PropOp53
 70
     1
102
RTVSPost2010Prop54
  1
strokes_ogs.tif
102
RTVSPost2010PropOp54
 70
     1
102
RTVSPost2010Prop55
280
     0
102
RTVSPost2010PropOp55
 70
     1
102
RTVSPost2010Prop56
140
1.0
102
RTVSPost2010PropOp56
 70
     1
102
RTVSPost2010Prop57
140
1.0
102
RTVSPost2010PropOp57
 70
     1
102
RTVSPropertyOp0
 70
     1
102
RTVSPropertyOp1
 70
     1
102
RTVSPropertyOp2
 70
     1
102
RTVSPropertyOp3
 70
     1
102
RTVSPropertyOp4
 70
     1
102
RTVSPropertyOp5
 70
     1
102
RTVSPropertyOp6
 70
     1
102
RTVSPropertyOp7
 70
     1
102
RTVSPropertyOp8
 70
     1
102
RTVSPropertyOp9
 70
     1
102
RTVSPropertyOp10
 70
     1
102
RTVSPropertyOp11
 70
     1
102
RTVSPropertyOp12
 70
     1
102
RTVSPropertyOp13
 70
     1
102
RTVSPropertyOp14
 70
     1
102
RTVSPropertyOp15
 70
     1
102
RTVSPropertyOp16
 70
     1
102
RTVSPropertyOp17
 70
     1
102
RTVSPropertyOp18
 70
     1
102
RTVSPropertyOp19
 70
     1
102
RTVSPropertyOp20
 70
     1
102
RTVSPropertyOp21
 70
     1
102
RTVSPropertyOp22
 70
     1
102
RTVSPropertyOp23
 70
     1
102
RTVSPropertyOp24
 70
     1
102
RTVSPropertyOp25
 70
     1
102
RTVSPropertyOp26
 70
     1
102
RTVSPropertyOp27
 70
     1
102
RTVSPropertyOp28
 70
     1
102
RTVSPropertyOp29
 70
     1
102
RTVSPropertyOp30
 70
     1
102
RTVSPropertyOp31
 70
     1
102
RTVSPropertyOp32
 70
     1
102
RTVSPropertyOp33
 70
     1
102
RTVSPropertyOp34
 70
     1
102
RTVSPropertyOp35
 70
     1
102
RTVSPropertyOp36
 70
     1
102
RTVSPropertyOp37
 70
     1
102
RTVSPropertyOp38
 70
     1
102
RTVSPropertyOp39
 70
     1
102
RTVSPropertyOp40
 70
     1
102
RTVSPropertyOp41
 70
     1
102
RTVSPropertyOp42
 70
     1
102
RTVSPropertyOp43
 70
     1
102
RTVSPropertyOp44
 70
     1
102
RTVSPropertyOp45
 70
     1
102
RTVSPropertyOp46
 70
     1
102
RTVSPropertyOp47
 70
     1
102
RTVSPropertyOp48
 70
     1
102
RTVSPropertyOp49
 70
     1
102
RTVSPropertyOp50
 70
     1
102
RTVSPropertyOp51
 70
     0
102
RTVSPropertyOp52
 70
     0
102
RTVSPropertyOp53
 70
     1
102
RTVSPropertyOp54
 70
     1
102
RTVSPropertyOp55
 70
     1
102
RTVSPropertyOp56
 70
     1
102
RTVSPropertyOp57
 70
     1
102
RTVSPropertyOp58
 70
     1
102
RTVSPropertyOp59
 70
     1
102
RTVSPropertyOp60
 70
     1
102
RTVSPropertyOp61
 70
     1
102
RTVSPropertyOp62
 70
     1
  0
XRECORD
  5
B26E
102
{ACAD_REACTORS
330
B26D
102
}
330
B26D
100
AcDbXrecord
280
     1
102
RTVSPost2010Prop28
280
     0
102
RTVSPost2010PropOp28
 70
     1
102
RTVSPost2010Prop29
280
     1
102
RTVSPost2010PropOp29
 70
     1
102
RTVSPost2010Prop30
280
     1
102
RTVSPost2010PropOp30
 70
     1
102
RTVSPost2010Prop31
280
     0
102
RTVSPost2010PropOp31
 70
     1
102
RTVSPost2010Prop32
280
     0
102
RTVSPost2010PropOp32
 70
     1
102
RTVSPost2010Prop33
280
     0
102
RTVSPost2010PropOp33
 70
     1
102
RTVSPost2010Prop34
280
     0
102
RTVSPost2010PropOp34
 70
     1
102
RTVSPost2010Prop35
280
     0
102
RTVSPost2010PropOp35
 70
     1
102
RTVSPost2010Prop36
280
     0
102
RTVSPost2010PropOp36
 70
     1
102
RTVSPost2010Prop37
 90
       50
102
RTVSPost2010PropOp37
 70
     1
102
RTVSPost2010Prop38
140
0.0
102
RTVSPost2010PropOp38
 70
     1
102
RTVSPost2010Prop39
140
1.0
102
RTVSPost2010PropOp39
 70
     1
102
RTVSPost2010Prop40
 90
        0
102
RTVSPost2010PropOp40
 70
     1
102
RTVSPost2010Prop41ColorIndex
 90
       18
102
RTVSPost2010Prop41ColorRGB
 90
        0
102
RTVSPost2010PropOp41
 70
     1
102
RTVSPost2010Prop42
 90
       50
102
RTVSPost2010PropOp42
 70
     1
102
RTVSPost2010Prop43
 90
        3
102
RTVSPost2010PropOp43
 70
     1
102
RTVSPost2010Prop44ColorIndex
 90
        5
102
RTVSPost2010Prop44ColorRGB
 90
      255
102
RTVSPost2010PropOp44
 70
     1
102
RTVSPost2010Prop45
280
     0
102
RTVSPost2010PropOp45
 70
     1
102
RTVSPost2010Prop46
 90
       50
102
RTVSPost2010PropOp46
 70
     1
102
RTVSPost2010Prop47
 90
       50
102
RTVSPost2010PropOp47
 70
     1
102
RTVSPost2010Prop48
 90
       50
102
RTVSPost2010PropOp48
 70
     1
102
RTVSPost2010Prop49
280
     0
102
RTVSPost2010PropOp49
 70
     1
102
RTVSPost2010Prop50
 90
       50
102
RTVSPost2010PropOp50
 70
     1
102
RTVSPost2010Prop51ColorIndex
 90
      256
102
RTVSPost2010Prop51ColorRGB
 90
-16777216
102
RTVSPost2010PropOp51
 70
     0
102
RTVSPost2010Prop52
140
1.0
102
RTVSPost2010PropOp52
 70
     0
102
RTVSPost2010Prop53
 90
        2
102
RTVSPost2010PropOp53
 70
     1
102
RTVSPost2010Prop54
  1
strokes_ogs.tif
102
RTVSPost2010PropOp54
 70
     1
102
RTVSPost2010Prop55
280
     0
102
RTVSPost2010PropOp55
 70
     1
102
RTVSPost2010Prop56
140
1.0
102
RTVSPost2010PropOp56
 70
     1
102
RTVSPost2010Prop57
140
1.0
102
RTVSPost2010PropOp57
 70
     1
102
RTVSPropertyOp0
 70
     1
102
RTVSPropertyOp1
 70
     1
102
RTVSPropertyOp2
 70
     1
102
RTVSPropertyOp3
 70
     1
102
RTVSPropertyOp4
 70
     1
102
RTVSPropertyOp5
 70
     1
102
RTVSPropertyOp6
 70
     1
102
RTVSPropertyOp7
 70
     1
102
RTVSPropertyOp8
 70
     1
102
RTVSPropertyOp9
 70
     1
102
RTVSPropertyOp10
 70
     1
102
RTVSPropertyOp11
 70
     1
102
RTVSPropertyOp12
 70
     1
102
RTVSPropertyOp13
 70
     1
102
RTVSPropertyOp14
 70
     1
102
RTVSPropertyOp15
 70
     1
102
RTVSPropertyOp16
 70
     1
102
RTVSPropertyOp17
 70
     1
102
RTVSPropertyOp18
 70
     1
102
RTVSPropertyOp19
 70
     1
102
RTVSPropertyOp20
 70
     1
102
RTVSPropertyOp21
 70
     1
102
RTVSPropertyOp22
 70
     1
102
RTVSPropertyOp23
 70
     1
102
RTVSPropertyOp24
 70
     1
102
RTVSPropertyOp25
 70
     1
102
RTVSPropertyOp26
 70
     1
102
RTVSPropertyOp27
 70
     1
102
RTVSPropertyOp28
 70
     1
102
RTVSPropertyOp29
 70
     1
102
RTVSPropertyOp30
 70
     1
102
RTVSPropertyOp31
 70
     1
102
RTVSPropertyOp32
 70
     1
102
RTVSPropertyOp33
 70
     1
102
RTVSPropertyOp34
 70
     1
102
RTVSPropertyOp35
 70
     1
102
RTVSPropertyOp36
 70
     1
102
RTVSPropertyOp37
 70
     1
102
RTVSPropertyOp38
 70
     1
102
RTVSPropertyOp39
 70
     1
102
RTVSPropertyOp40
 70
     1
102
RTVSPropertyOp41
 70
     1
102
RTVSPropertyOp42
 70
     1
102
RTVSPropertyOp43
 70
     1
102
RTVSPropertyOp44
 70
     1
102
RTVSPropertyOp45
 70
     1
102
RTVSPropertyOp46
 70
     1
102
RTVSPropertyOp47
 70
     1
102
RTVSPropertyOp48
 70
     1
102
RTVSPropertyOp49
 70
     1
102
RTVSPropertyOp50
 70
     1
102
RTVSPropertyOp51
 70
     0
102
RTVSPropertyOp52
 70
     0
102
RTVSPropertyOp53
 70
     1
102
RTVSPropertyOp54
 70
     1
102
RTVSPropertyOp55
 70
     1
102
RTVSPropertyOp56
 70
     1
102
RTVSPropertyOp57
 70
     1
102
RTVSPropertyOp58
 70
     1
102
RTVSPropertyOp59
 70
     1
102
RTVSPropertyOp60
 70
     1
102
RTVSPropertyOp61
 70
     1
102
RTVSPropertyOp62
 70
     1
  0
XRECORD
  5
B288
102
{ACAD_REACTORS
330
B287
102
}
330
B287
100
AcDbXrecord
280
     1
102
RTVSPost2010Prop28
280
     0
102
RTVSPost2010PropOp28
 70
     1
102
RTVSPost2010Prop29
280
     1
102
RTVSPost2010PropOp29
 70
     1
102
RTVSPost2010Prop30
280
     1
102
RTVSPost2010PropOp30
 70
     1
102
RTVSPost2010Prop31
280
     0
102
RTVSPost2010PropOp31
 70
     1
102
RTVSPost2010Prop32
280
     0
102
RTVSPost2010PropOp32
 70
     1
102
RTVSPost2010Prop33
280
     0
102
RTVSPost2010PropOp33
 70
     1
102
RTVSPost2010Prop34
280
     0
102
RTVSPost2010PropOp34
 70
     1
102
RTVSPost2010Prop35
280
     0
102
RTVSPost2010PropOp35
 70
     1
102
RTVSPost2010Prop36
280
     0
102
RTVSPost2010PropOp36
 70
     1
102
RTVSPost2010Prop37
 90
       50
102
RTVSPost2010PropOp37
 70
     0
102
RTVSPost2010Prop38
140
0.0
102
RTVSPost2010PropOp38
 70
     0
102
RTVSPost2010Prop39
140
1.0
102
RTVSPost2010PropOp39
 70
     0
102
RTVSPost2010Prop40
 90
        0
102
RTVSPost2010PropOp40
 70
     0
102
RTVSPost2010Prop41ColorIndex
 90
       18
102
RTVSPost2010Prop41ColorRGB
 90
        0
102
RTVSPost2010PropOp41
 70
     0
102
RTVSPost2010Prop42
 90
       50
102
RTVSPost2010PropOp42
 70
     0
102
RTVSPost2010Prop43
 90
        3
102
RTVSPost2010PropOp43
 70
     0
102
RTVSPost2010Prop44ColorIndex
 90
        5
102
RTVSPost2010Prop44ColorRGB
 90
      255
102
RTVSPost2010PropOp44
 70
     0
102
RTVSPost2010Prop45
280
     0
102
RTVSPost2010PropOp45
 70
     1
102
RTVSPost2010Prop46
 90
       50
102
RTVSPost2010PropOp46
 70
     0
102
RTVSPost2010Prop47
 90
       50
102
RTVSPost2010PropOp47
 70
     0
102
RTVSPost2010Prop48
 90
       50
102
RTVSPost2010PropOp48
 70
     0
102
RTVSPost2010Prop49
280
     0
102
RTVSPost2010PropOp49
 70
     1
102
RTVSPost2010Prop50
 90
       50
102
RTVSPost2010PropOp50
 70
     0
102
RTVSPost2010Prop51ColorIndex
 90
      256
102
RTVSPost2010Prop51ColorRGB
 90
-16777216
102
RTVSPost2010PropOp51
 70
     0
102
RTVSPost2010Prop52
140
1.0
102
RTVSPost2010PropOp52
 70
     0
102
RTVSPost2010Prop53
 90
        2
102
RTVSPost2010PropOp53
 70
     0
102
RTVSPost2010Prop54
  1
strokes_ogs.tif
102
RTVSPost2010PropOp54
 70
     0
102
RTVSPost2010Prop55
280
     0
102
RTVSPost2010PropOp55
 70
     1
102
RTVSPost2010Prop56
140
1.0
102
RTVSPost2010PropOp56
 70
     0
102
RTVSPost2010Prop57
140
1.0
102
RTVSPost2010PropOp57
 70
     0
102
RTVSPropertyOp0
 70
     0
102
RTVSPropertyOp1
 70
     0
102
RTVSPropertyOp2
 70
     0
102
RTVSPropertyOp3
 70
     0
102
RTVSPropertyOp4
 70
     0
102
RTVSPropertyOp5
 70
     0
102
RTVSPropertyOp6
 70
     0
102
RTVSPropertyOp7
 70
     0
102
RTVSPropertyOp8
 70
     0
102
RTVSPropertyOp9
 70
     0
102
RTVSPropertyOp10
 70
     0
102
RTVSPropertyOp11
 70
     0
102
RTVSPropertyOp12
 70
     0
102
RTVSPropertyOp13
 70
     0
102
RTVSPropertyOp14
 70
     2
102
RTVSPropertyOp15
 70
     0
102
RTVSPropertyOp16
 70
     0
102
RTVSPropertyOp17
 70
     0
102
RTVSPropertyOp18
 70
     0
102
RTVSPropertyOp19
 70
     0
102
RTVSPropertyOp20
 70
     0
102
RTVSPropertyOp21
 70
     0
102
RTVSPropertyOp22
 70
     0
102
RTVSPropertyOp23
 70
     0
102
RTVSPropertyOp24
 70
     0
102
RTVSPropertyOp25
 70
     0
102
RTVSPropertyOp26
 70
     0
102
RTVSPropertyOp27
 70
     0
102
RTVSPropertyOp28
 70
     1
102
RTVSPropertyOp29
 70
     1
102
RTVSPropertyOp30
 70
     1
102
RTVSPropertyOp31
 70
     1
102
RTVSPropertyOp32
 70
     1
102
RTVSPropertyOp33
 70
     1
102
RTVSPropertyOp34
 70
     1
102
RTVSPropertyOp35
 70
     1
102
RTVSPropertyOp36
 70
     1
102
RTVSPropertyOp37
 70
     0
102
RTVSPropertyOp38
 70
     0
102
RTVSPropertyOp39
 70
     0
102
RTVSPropertyOp40
 70
     0
102
RTVSPropertyOp41
 70
     0
102
RTVSPropertyOp42
 70
     0
102
RTVSPropertyOp43
 70
     0
102
RTVSPropertyOp44
 70
     0
102
RTVSPropertyOp45
 70
     1
102
RTVSPropertyOp46
 70
     0
102
RTVSPropertyOp47
 70
     0
102
RTVSPropertyOp48
 70
     0
102
RTVSPropertyOp49
 70
     1
102
RTVSPropertyOp50
 70
     0
102
RTVSPropertyOp51
 70
     0
102
RTVSPropertyOp52
 70
     0
102
RTVSPropertyOp53
 70
     0
102
RTVSPropertyOp54
 70
     0
102
RTVSPropertyOp55
 70
     1
102
RTVSPropertyOp56
 70
     0
102
RTVSPropertyOp57
 70
     0
102
RTVSPropertyOp58
 70
     0
102
RTVSPropertyOp59
 70
     0
102
RTVSPropertyOp60
 70
     0
102
RTVSPropertyOp61
 70
     0
102
RTVSPropertyOp62
 70
     0
  0
XRECORD
  5
B276
102
{ACAD_REACTORS
330
B275
102
}
330
B275
100
AcDbXrecord
280
     1
102
RTVSPost2010Prop28
280
     0
102
RTVSPost2010PropOp28
 70
     1
102
RTVSPost2010Prop29
280
     1
102
RTVSPost2010PropOp29
 70
     1
102
RTVSPost2010Prop30
280
     1
102
RTVSPost2010PropOp30
 70
     1
102
RTVSPost2010Prop31
280
     0
102
RTVSPost2010PropOp31
 70
     1
102
RTVSPost2010Prop32
280
     0
102
RTVSPost2010PropOp32
 70
     1
102
RTVSPost2010Prop33
280
     0
102
RTVSPost2010PropOp33
 70
     1
102
RTVSPost2010Prop34
280
     0
102
RTVSPost2010PropOp34
 70
     1
102
RTVSPost2010Prop35
280
     0
102
RTVSPost2010PropOp35
 70
     1
102
RTVSPost2010Prop36
280
     0
102
RTVSPost2010PropOp36
 70
     1
102
RTVSPost2010Prop37
 90
       50
102
RTVSPost2010PropOp37
 70
     1
102
RTVSPost2010Prop38
140
0.0
102
RTVSPost2010PropOp38
 70
     1
102
RTVSPost2010Prop39
140
1.0
102
RTVSPost2010PropOp39
 70
     1
102
RTVSPost2010Prop40
 90
        0
102
RTVSPost2010PropOp40
 70
     1
102
RTVSPost2010Prop41ColorIndex
 90
       18
102
RTVSPost2010Prop41ColorRGB
 90
        0
102
RTVSPost2010PropOp41
 70
     1
102
RTVSPost2010Prop42
 90
       50
102
RTVSPost2010PropOp42
 70
     1
102
RTVSPost2010Prop43
 90
        3
102
RTVSPost2010PropOp43
 70
     1
102
RTVSPost2010Prop44ColorIndex
 90
        5
102
RTVSPost2010Prop44ColorRGB
 90
      255
102
RTVSPost2010PropOp44
 70
     1
102
RTVSPost2010Prop45
280
     0
102
RTVSPost2010PropOp45
 70
     1
102
RTVSPost2010Prop46
 90
       50
102
RTVSPost2010PropOp46
 70
     1
102
RTVSPost2010Prop47
 90
       50
102
RTVSPost2010PropOp47
 70
     1
102
RTVSPost2010Prop48
 90
       50
102
RTVSPost2010PropOp48
 70
     1
102
RTVSPost2010Prop49
280
     0
102
RTVSPost2010PropOp49
 70
     1
102
RTVSPost2010Prop50
 90
       50
102
RTVSPost2010PropOp50
 70
     1
102
RTVSPost2010Prop51ColorIndex
 90
      256
102
RTVSPost2010Prop51ColorRGB
 90
-16777216
102
RTVSPost2010PropOp51
 70
     0
102
RTVSPost2010Prop52
140
1.0
102
RTVSPost2010PropOp52
 70
     0
102
RTVSPost2010Prop53
 90
        2
102
RTVSPost2010PropOp53
 70
     1
102
RTVSPost2010Prop54
  1
strokes_ogs.tif
102
RTVSPost2010PropOp54
 70
     1
102
RTVSPost2010Prop55
280
     0
102
RTVSPost2010PropOp55
 70
     1
102
RTVSPost2010Prop56
140
1.0
102
RTVSPost2010PropOp56
 70
     1
102
RTVSPost2010Prop57
140
1.0
102
RTVSPost2010PropOp57
 70
     1
102
RTVSPropertyOp0
 70
     1
102
RTVSPropertyOp1
 70
     1
102
RTVSPropertyOp2
 70
     1
102
RTVSPropertyOp3
 70
     1
102
RTVSPropertyOp4
 70
     1
102
RTVSPropertyOp5
 70
     1
102
RTVSPropertyOp6
 70
     1
102
RTVSPropertyOp7
 70
     1
102
RTVSPropertyOp8
 70
     1
102
RTVSPropertyOp9
 70
     1
102
RTVSPropertyOp10
 70
     1
102
RTVSPropertyOp11
 70
     1
102
RTVSPropertyOp12
 70
     1
102
RTVSPropertyOp13
 70
     1
102
RTVSPropertyOp14
 70
     1
102
RTVSPropertyOp15
 70
     1
102
RTVSPropertyOp16
 70
     1
102
RTVSPropertyOp17
 70
     1
102
RTVSPropertyOp18
 70
     1
102
RTVSPropertyOp19
 70
     1
102
RTVSPropertyOp20
 70
     1
102
RTVSPropertyOp21
 70
     1
102
RTVSPropertyOp22
 70
     1
102
RTVSPropertyOp23
 70
     1
102
RTVSPropertyOp24
 70
     1
102
RTVSPropertyOp25
 70
     1
102
RTVSPropertyOp26
 70
     1
102
RTVSPropertyOp27
 70
     1
102
RTVSPropertyOp28
 70
     1
102
RTVSPropertyOp29
 70
     1
102
RTVSPropertyOp30
 70
     1
102
RTVSPropertyOp31
 70
     1
102
RTVSPropertyOp32
 70
     1
102
RTVSPropertyOp33
 70
     1
102
RTVSPropertyOp34
 70
     1
102
RTVSPropertyOp35
 70
     1
102
RTVSPropertyOp36
 70
     1
102
RTVSPropertyOp37
 70
     1
102
RTVSPropertyOp38
 70
     1
102
RTVSPropertyOp39
 70
     1
102
RTVSPropertyOp40
 70
     1
102
RTVSPropertyOp41
 70
     1
102
RTVSPropertyOp42
 70
     1
102
RTVSPropertyOp43
 70
     1
102
RTVSPropertyOp44
 70
     1
102
RTVSPropertyOp45
 70
     1
102
RTVSPropertyOp46
 70
     1
102
RTVSPropertyOp47
 70
     1
102
RTVSPropertyOp48
 70
     1
102
RTVSPropertyOp49
 70
     1
102
RTVSPropertyOp50
 70
     1
102
RTVSPropertyOp51
 70
     0
102
RTVSPropertyOp52
 70
     0
102
RTVSPropertyOp53
 70
     1
102
RTVSPropertyOp54
 70
     1
102
RTVSPropertyOp55
 70
     1
102
RTVSPropertyOp56
 70
     1
102
RTVSPropertyOp57
 70
     1
102
RTVSPropertyOp58
 70
     1
102
RTVSPropertyOp59
 70
     1
102
RTVSPropertyOp60
 70
     1
102
RTVSPropertyOp61
 70
     1
102
RTVSPropertyOp62
 70
     1
  0
XRECORD
  5
B25A
102
{ACAD_REACTORS
330
B259
102
}
330
B259
100
AcDbXrecord
280
     1
102
RTVSPost2010Prop28
280
     0
102
RTVSPost2010PropOp28
 70
     1
102
RTVSPost2010Prop29
280
     1
102
RTVSPost2010PropOp29
 70
     1
102
RTVSPost2010Prop30
280
     1
102
RTVSPost2010PropOp30
 70
     1
102
RTVSPost2010Prop31
280
     0
102
RTVSPost2010PropOp31
 70
     1
102
RTVSPost2010Prop32
280
     0
102
RTVSPost2010PropOp32
 70
     1
102
RTVSPost2010Prop33
280
     0
102
RTVSPost2010PropOp33
 70
     1
102
RTVSPost2010Prop34
280
     0
102
RTVSPost2010PropOp34
 70
     1
102
RTVSPost2010Prop35
280
     0
102
RTVSPost2010PropOp35
 70
     1
102
RTVSPost2010Prop36
280
     0
102
RTVSPost2010PropOp36
 70
     1
102
RTVSPost2010Prop37
 90
       50
102
RTVSPost2010PropOp37
 70
     1
102
RTVSPost2010Prop38
140
0.0
102
RTVSPost2010PropOp38
 70
     1
102
RTVSPost2010Prop39
140
1.0
102
RTVSPost2010PropOp39
 70
     1
102
RTVSPost2010Prop40
 90
        0
102
RTVSPost2010PropOp40
 70
     1
102
RTVSPost2010Prop41ColorIndex
 90
       18
102
RTVSPost2010Prop41ColorRGB
 90
        0
102
RTVSPost2010PropOp41
 70
     1
102
RTVSPost2010Prop42
 90
       50
102
RTVSPost2010PropOp42
 70
     1
102
RTVSPost2010Prop43
 90
        3
102
RTVSPost2010PropOp43
 70
     1
102
RTVSPost2010Prop44ColorIndex
 90
        5
102
RTVSPost2010Prop44ColorRGB
 90
      255
102
RTVSPost2010PropOp44
 70
     1
102
RTVSPost2010Prop45
280
     0
102
RTVSPost2010PropOp45
 70
     1
102
RTVSPost2010Prop46
 90
       50
102
RTVSPost2010PropOp46
 70
     1
102
RTVSPost2010Prop47
 90
       50
102
RTVSPost2010PropOp47
 70
     1
102
RTVSPost2010Prop48
 90
       50
102
RTVSPost2010PropOp48
 70
     1
102
RTVSPost2010Prop49
280
     0
102
RTVSPost2010PropOp49
 70
     1
102
RTVSPost2010Prop50
 90
       50
102
RTVSPost2010PropOp50
 70
     1
102
RTVSPost2010Prop51ColorIndex
 90
      256
102
RTVSPost2010Prop51ColorRGB
 90
-16777216
102
RTVSPost2010PropOp51
 70
     0
102
RTVSPost2010Prop52
140
1.0
102
RTVSPost2010PropOp52
 70
     0
102
RTVSPost2010Prop53
 90
        2
102
RTVSPost2010PropOp53
 70
     1
102
RTVSPost2010Prop54
  1
strokes_ogs.tif
102
RTVSPost2010PropOp54
 70
     1
102
RTVSPost2010Prop55
280
     0
102
RTVSPost2010PropOp55
 70
     1
102
RTVSPost2010Prop56
140
1.0
102
RTVSPost2010PropOp56
 70
     1
102
RTVSPost2010Prop57
140
1.0
102
RTVSPost2010PropOp57
 70
     1
102
RTVSPropertyOp0
 70
     1
102
RTVSPropertyOp1
 70
     1
102
RTVSPropertyOp2
 70
     1
102
RTVSPropertyOp3
 70
     1
102
RTVSPropertyOp4
 70
     1
102
RTVSPropertyOp5
 70
     1
102
RTVSPropertyOp6
 70
     1
102
RTVSPropertyOp7
 70
     1
102
RTVSPropertyOp8
 70
     1
102
RTVSPropertyOp9
 70
     1
102
RTVSPropertyOp10
 70
     1
102
RTVSPropertyOp11
 70
     1
102
RTVSPropertyOp12
 70
     1
102
RTVSPropertyOp13
 70
     1
102
RTVSPropertyOp14
 70
     1
102
RTVSPropertyOp15
 70
     1
102
RTVSPropertyOp16
 70
     1
102
RTVSPropertyOp17
 70
     1
102
RTVSPropertyOp18
 70
     1
102
RTVSPropertyOp19
 70
     1
102
RTVSPropertyOp20
 70
     1
102
RTVSPropertyOp21
 70
     1
102
RTVSPropertyOp22
 70
     1
102
RTVSPropertyOp23
 70
     1
102
RTVSPropertyOp24
 70
     1
102
RTVSPropertyOp25
 70
     1
102
RTVSPropertyOp26
 70
     1
102
RTVSPropertyOp27
 70
     1
102
RTVSPropertyOp28
 70
     1
102
RTVSPropertyOp29
 70
     1
102
RTVSPropertyOp30
 70
     1
102
RTVSPropertyOp31
 70
     1
102
RTVSPropertyOp32
 70
     1
102
RTVSPropertyOp33
 70
     1
102
RTVSPropertyOp34
 70
     1
102
RTVSPropertyOp35
 70
     1
102
RTVSPropertyOp36
 70
     1
102
RTVSPropertyOp37
 70
     1
102
RTVSPropertyOp38
 70
     1
102
RTVSPropertyOp39
 70
     1
102
RTVSPropertyOp40
 70
     1
102
RTVSPropertyOp41
 70
     1
102
RTVSPropertyOp42
 70
     1
102
RTVSPropertyOp43
 70
     1
102
RTVSPropertyOp44
 70
     1
102
RTVSPropertyOp45
 70
     1
102
RTVSPropertyOp46
 70
     1
102
RTVSPropertyOp47
 70
     1
102
RTVSPropertyOp48
 70
     1
102
RTVSPropertyOp49
 70
     1
102
RTVSPropertyOp50
 70
     1
102
RTVSPropertyOp51
 70
     0
102
RTVSPropertyOp52
 70
     0
102
RTVSPropertyOp53
 70
     1
102
RTVSPropertyOp54
 70
     1
102
RTVSPropertyOp55
 70
     1
102
RTVSPropertyOp56
 70
     1
102
RTVSPropertyOp57
 70
     1
102
RTVSPropertyOp58
 70
     1
102
RTVSPropertyOp59
 70
     1
102
RTVSPropertyOp60
 70
     1
102
RTVSPropertyOp61
 70
     1
102
RTVSPropertyOp62
 70
     1
  0
XRECORD
  5
B25C
102
{ACAD_REACTORS
330
B25B
102
}
330
B25B
100
AcDbXrecord
280
     1
102
RTVSPost2010Prop28
280
     0
102
RTVSPost2010PropOp28
 70
     1
102
RTVSPost2010Prop29
280
     1
102
RTVSPost2010PropOp29
 70
     1
102
RTVSPost2010Prop30
280
     1
102
RTVSPost2010PropOp30
 70
     1
102
RTVSPost2010Prop31
280
     0
102
RTVSPost2010PropOp31
 70
     1
102
RTVSPost2010Prop32
280
     0
102
RTVSPost2010PropOp32
 70
     1
102
RTVSPost2010Prop33
280
     0
102
RTVSPost2010PropOp33
 70
     1
102
RTVSPost2010Prop34
280
     0
102
RTVSPost2010PropOp34
 70
     1
102
RTVSPost2010Prop35
280
     0
102
RTVSPost2010PropOp35
 70
     1
102
RTVSPost2010Prop36
280
     0
102
RTVSPost2010PropOp36
 70
     1
102
RTVSPost2010Prop37
 90
       50
102
RTVSPost2010PropOp37
 70
     1
102
RTVSPost2010Prop38
140
0.0
102
RTVSPost2010PropOp38
 70
     1
102
RTVSPost2010Prop39
140
1.0
102
RTVSPost2010PropOp39
 70
     1
102
RTVSPost2010Prop40
 90
        0
102
RTVSPost2010PropOp40
 70
     1
102
RTVSPost2010Prop41ColorIndex
 90
       18
102
RTVSPost2010Prop41ColorRGB
 90
        0
102
RTVSPost2010PropOp41
 70
     1
102
RTVSPost2010Prop42
 90
       50
102
RTVSPost2010PropOp42
 70
     1
102
RTVSPost2010Prop43
 90
        3
102
RTVSPost2010PropOp43
 70
     1
102
RTVSPost2010Prop44ColorIndex
 90
        5
102
RTVSPost2010Prop44ColorRGB
 90
      255
102
RTVSPost2010PropOp44
 70
     1
102
RTVSPost2010Prop45
280
     0
102
RTVSPost2010PropOp45
 70
     1
102
RTVSPost2010Prop46
 90
       50
102
RTVSPost2010PropOp46
 70
     1
102
RTVSPost2010Prop47
 90
       50
102
RTVSPost2010PropOp47
 70
     1
102
RTVSPost2010Prop48
 90
       50
102
RTVSPost2010PropOp48
 70
     1
102
RTVSPost2010Prop49
280
     0
102
RTVSPost2010PropOp49
 70
     1
102
RTVSPost2010Prop50
 90
       50
102
RTVSPost2010PropOp50
 70
     1
102
RTVSPost2010Prop51ColorIndex
 90
      256
102
RTVSPost2010Prop51ColorRGB
 90
-16777216
102
RTVSPost2010PropOp51
 70
     0
102
RTVSPost2010Prop52
140
1.0
102
RTVSPost2010PropOp52
 70
     0
102
RTVSPost2010Prop53
 90
        2
102
RTVSPost2010PropOp53
 70
     1
102
RTVSPost2010Prop54
  1
strokes_ogs.tif
102
RTVSPost2010PropOp54
 70
     1
102
RTVSPost2010Prop55
280
     0
102
RTVSPost2010PropOp55
 70
     1
102
RTVSPost2010Prop56
140
1.0
102
RTVSPost2010PropOp56
 70
     1
102
RTVSPost2010Prop57
140
1.0
102
RTVSPost2010PropOp57
 70
     1
102
RTVSPropertyOp0
 70
     1
102
RTVSPropertyOp1
 70
     1
102
RTVSPropertyOp2
 70
     1
102
RTVSPropertyOp3
 70
     1
102
RTVSPropertyOp4
 70
     1
102
RTVSPropertyOp5
 70
     1
102
RTVSPropertyOp6
 70
     1
102
RTVSPropertyOp7
 70
     1
102
RTVSPropertyOp8
 70
     1
102
RTVSPropertyOp9
 70
     1
102
RTVSPropertyOp10
 70
     1
102
RTVSPropertyOp11
 70
     1
102
RTVSPropertyOp12
 70
     1
102
RTVSPropertyOp13
 70
     1
102
RTVSPropertyOp14
 70
     1
102
RTVSPropertyOp15
 70
     1
102
RTVSPropertyOp16
 70
     1
102
RTVSPropertyOp17
 70
     1
102
RTVSPropertyOp18
 70
     1
102
RTVSPropertyOp19
 70
     1
102
RTVSPropertyOp20
 70
     1
102
RTVSPropertyOp21
 70
     1
102
RTVSPropertyOp22
 70
     1
102
RTVSPropertyOp23
 70
     1
102
RTVSPropertyOp24
 70
     1
102
RTVSPropertyOp25
 70
     1
102
RTVSPropertyOp26
 70
     1
102
RTVSPropertyOp27
 70
     1
102
RTVSPropertyOp28
 70
     1
102
RTVSPropertyOp29
 70
     1
102
RTVSPropertyOp30
 70
     1
102
RTVSPropertyOp31
 70
     1
102
RTVSPropertyOp32
 70
     1
102
RTVSPropertyOp33
 70
     1
102
RTVSPropertyOp34
 70
     1
102
RTVSPropertyOp35
 70
     1
102
RTVSPropertyOp36
 70
     1
102
RTVSPropertyOp37
 70
     1
102
RTVSPropertyOp38
 70
     1
102
RTVSPropertyOp39
 70
     1
102
RTVSPropertyOp40
 70
     1
102
RTVSPropertyOp41
 70
     1
102
RTVSPropertyOp42
 70
     1
102
RTVSPropertyOp43
 70
     1
102
RTVSPropertyOp44
 70
     1
102
RTVSPropertyOp45
 70
     1
102
RTVSPropertyOp46
 70
     1
102
RTVSPropertyOp47
 70
     1
102
RTVSPropertyOp48
 70
     1
102
RTVSPropertyOp49
 70
     1
102
RTVSPropertyOp50
 70
     1
102
RTVSPropertyOp51
 70
     0
102
RTVSPropertyOp52
 70
     0
102
RTVSPropertyOp53
 70
     1
102
RTVSPropertyOp54
 70
     1
102
RTVSPropertyOp55
 70
     1
102
RTVSPropertyOp56
 70
     1
102
RTVSPropertyOp57
 70
     1
102
RTVSPropertyOp58
 70
     1
102
RTVSPropertyOp59
 70
     1
102
RTVSPropertyOp60
 70
     1
102
RTVSPropertyOp61
 70
     1
102
RTVSPropertyOp62
 70
     1
  0
XRECORD
  5
B25E
102
{ACAD_REACTORS
330
B25D
102
}
330
B25D
100
AcDbXrecord
280
     1
102
RTVSPost2010Prop28
280
     0
102
RTVSPost2010PropOp28
 70
     1
102
RTVSPost2010Prop29
280
     1
102
RTVSPost2010PropOp29
 70
     1
102
RTVSPost2010Prop30
280
     1
102
RTVSPost2010PropOp30
 70
     1
102
RTVSPost2010Prop31
280
     0
102
RTVSPost2010PropOp31
 70
     1
102
RTVSPost2010Prop32
280
     0
102
RTVSPost2010PropOp32
 70
     1
102
RTVSPost2010Prop33
280
     0
102
RTVSPost2010PropOp33
 70
     1
102
RTVSPost2010Prop34
280
     0
102
RTVSPost2010PropOp34
 70
     1
102
RTVSPost2010Prop35
280
     0
102
RTVSPost2010PropOp35
 70
     1
102
RTVSPost2010Prop36
280
     0
102
RTVSPost2010PropOp36
 70
     1
102
RTVSPost2010Prop37
 90
       50
102
RTVSPost2010PropOp37
 70
     1
102
RTVSPost2010Prop38
140
0.0
102
RTVSPost2010PropOp38
 70
     1
102
RTVSPost2010Prop39
140
1.0
102
RTVSPost2010PropOp39
 70
     1
102
RTVSPost2010Prop40
 90
        0
102
RTVSPost2010PropOp40
 70
     1
102
RTVSPost2010Prop41ColorIndex
 90
       18
102
RTVSPost2010Prop41ColorRGB
 90
        0
102
RTVSPost2010PropOp41
 70
     1
102
RTVSPost2010Prop42
 90
       50
102
RTVSPost2010PropOp42
 70
     1
102
RTVSPost2010Prop43
 90
        3
102
RTVSPost2010PropOp43
 70
     1
102
RTVSPost2010Prop44ColorIndex
 90
        5
102
RTVSPost2010Prop44ColorRGB
 90
      255
102
RTVSPost2010PropOp44
 70
     1
102
RTVSPost2010Prop45
280
     0
102
RTVSPost2010PropOp45
 70
     1
102
RTVSPost2010Prop46
 90
       50
102
RTVSPost2010PropOp46
 70
     1
102
RTVSPost2010Prop47
 90
       50
102
RTVSPost2010PropOp47
 70
     1
102
RTVSPost2010Prop48
 90
       50
102
RTVSPost2010PropOp48
 70
     1
102
RTVSPost2010Prop49
280
     0
102
RTVSPost2010PropOp49
 70
     1
102
RTVSPost2010Prop50
 90
       50
102
RTVSPost2010PropOp50
 70
     1
102
RTVSPost2010Prop51ColorIndex
 90
      256
102
RTVSPost2010Prop51ColorRGB
 90
-16777216
102
RTVSPost2010PropOp51
 70
     0
102
RTVSPost2010Prop52
140
1.0
102
RTVSPost2010PropOp52
 70
     0
102
RTVSPost2010Prop53
 90
        2
102
RTVSPost2010PropOp53
 70
     1
102
RTVSPost2010Prop54
  1
strokes_ogs.tif
102
RTVSPost2010PropOp54
 70
     1
102
RTVSPost2010Prop55
280
     0
102
RTVSPost2010PropOp55
 70
     1
102
RTVSPost2010Prop56
140
1.0
102
RTVSPost2010PropOp56
 70
     1
102
RTVSPost2010Prop57
140
1.0
102
RTVSPost2010PropOp57
 70
     1
102
RTVSPropertyOp0
 70
     1
102
RTVSPropertyOp1
 70
     1
102
RTVSPropertyOp2
 70
     1
102
RTVSPropertyOp3
 70
     1
102
RTVSPropertyOp4
 70
     1
102
RTVSPropertyOp5
 70
     1
102
RTVSPropertyOp6
 70
     1
102
RTVSPropertyOp7
 70
     1
102
RTVSPropertyOp8
 70
     1
102
RTVSPropertyOp9
 70
     1
102
RTVSPropertyOp10
 70
     1
102
RTVSPropertyOp11
 70
     1
102
RTVSPropertyOp12
 70
     1
102
RTVSPropertyOp13
 70
     1
102
RTVSPropertyOp14
 70
     1
102
RTVSPropertyOp15
 70
     1
102
RTVSPropertyOp16
 70
     1
102
RTVSPropertyOp17
 70
     1
102
RTVSPropertyOp18
 70
     1
102
RTVSPropertyOp19
 70
     1
102
RTVSPropertyOp20
 70
     1
102
RTVSPropertyOp21
 70
     1
102
RTVSPropertyOp22
 70
     1
102
RTVSPropertyOp23
 70
     1
102
RTVSPropertyOp24
 70
     1
102
RTVSPropertyOp25
 70
     1
102
RTVSPropertyOp26
 70
     1
102
RTVSPropertyOp27
 70
     1
102
RTVSPropertyOp28
 70
     1
102
RTVSPropertyOp29
 70
     1
102
RTVSPropertyOp30
 70
     1
102
RTVSPropertyOp31
 70
     1
102
RTVSPropertyOp32
 70
     1
102
RTVSPropertyOp33
 70
     1
102
RTVSPropertyOp34
 70
     1
102
RTVSPropertyOp35
 70
     1
102
RTVSPropertyOp36
 70
     1
102
RTVSPropertyOp37
 70
     1
102
RTVSPropertyOp38
 70
     1
102
RTVSPropertyOp39
 70
     1
102
RTVSPropertyOp40
 70
     1
102
RTVSPropertyOp41
 70
     1
102
RTVSPropertyOp42
 70
     1
102
RTVSPropertyOp43
 70
     1
102
RTVSPropertyOp44
 70
     1
102
RTVSPropertyOp45
 70
     1
102
RTVSPropertyOp46
 70
     1
102
RTVSPropertyOp47
 70
     1
102
RTVSPropertyOp48
 70
     1
102
RTVSPropertyOp49
 70
     1
102
RTVSPropertyOp50
 70
     1
102
RTVSPropertyOp51
 70
     0
102
RTVSPropertyOp52
 70
     0
102
RTVSPropertyOp53
 70
     1
102
RTVSPropertyOp54
 70
     1
102
RTVSPropertyOp55
 70
     1
102
RTVSPropertyOp56
 70
     1
102
RTVSPropertyOp57
 70
     1
102
RTVSPropertyOp58
 70
     1
102
RTVSPropertyOp59
 70
     1
102
RTVSPropertyOp60
 70
     1
102
RTVSPropertyOp61
 70
     1
102
RTVSPropertyOp62
 70
     1
  0
XRECORD
  5
B260
102
{ACAD_REACTORS
330
B25F
102
}
330
B25F
100
AcDbXrecord
280
     1
102
RTVSPost2010Prop28
280
     0
102
RTVSPost2010PropOp28
 70
     1
102
RTVSPost2010Prop29
280
     1
102
RTVSPost2010PropOp29
 70
     1
102
RTVSPost2010Prop30
280
     1
102
RTVSPost2010PropOp30
 70
     1
102
RTVSPost2010Prop31
280
     0
102
RTVSPost2010PropOp31
 70
     1
102
RTVSPost2010Prop32
280
     0
102
RTVSPost2010PropOp32
 70
     1
102
RTVSPost2010Prop33
280
     0
102
RTVSPost2010PropOp33
 70
     1
102
RTVSPost2010Prop34
280
     0
102
RTVSPost2010PropOp34
 70
     1
102
RTVSPost2010Prop35
280
     0
102
RTVSPost2010PropOp35
 70
     1
102
RTVSPost2010Prop36
280
     0
102
RTVSPost2010PropOp36
 70
     1
102
RTVSPost2010Prop37
 90
       50
102
RTVSPost2010PropOp37
 70
     1
102
RTVSPost2010Prop38
140
0.0
102
RTVSPost2010PropOp38
 70
     1
102
RTVSPost2010Prop39
140
1.0
102
RTVSPost2010PropOp39
 70
     1
102
RTVSPost2010Prop40
 90
        0
102
RTVSPost2010PropOp40
 70
     1
102
RTVSPost2010Prop41ColorIndex
 90
       18
102
RTVSPost2010Prop41ColorRGB
 90
        0
102
RTVSPost2010PropOp41
 70
     1
102
RTVSPost2010Prop42
 90
       50
102
RTVSPost2010PropOp42
 70
     1
102
RTVSPost2010Prop43
 90
        3
102
RTVSPost2010PropOp43
 70
     1
102
RTVSPost2010Prop44ColorIndex
 90
        5
102
RTVSPost2010Prop44ColorRGB
 90
      255
102
RTVSPost2010PropOp44
 70
     1
102
RTVSPost2010Prop45
280
     0
102
RTVSPost2010PropOp45
 70
     1
102
RTVSPost2010Prop46
 90
       50
102
RTVSPost2010PropOp46
 70
     1
102
RTVSPost2010Prop47
 90
       50
102
RTVSPost2010PropOp47
 70
     1
102
RTVSPost2010Prop48
 90
       50
102
RTVSPost2010PropOp48
 70
     1
102
RTVSPost2010Prop49
280
     0
102
RTVSPost2010PropOp49
 70
     1
102
RTVSPost2010Prop50
 90
       50
102
RTVSPost2010PropOp50
 70
     1
102
RTVSPost2010Prop51ColorIndex
 90
      256
102
RTVSPost2010Prop51ColorRGB
 90
-16777216
102
RTVSPost2010PropOp51
 70
     0
102
RTVSPost2010Prop52
140
1.0
102
RTVSPost2010PropOp52
 70
     0
102
RTVSPost2010Prop53
 90
        2
102
RTVSPost2010PropOp53
 70
     1
102
RTVSPost2010Prop54
  1
strokes_ogs.tif
102
RTVSPost2010PropOp54
 70
     1
102
RTVSPost2010Prop55
280
     0
102
RTVSPost2010PropOp55
 70
     1
102
RTVSPost2010Prop56
140
1.0
102
RTVSPost2010PropOp56
 70
     1
102
RTVSPost2010Prop57
140
1.0
102
RTVSPost2010PropOp57
 70
     1
102
RTVSPropertyOp0
 70
     1
102
RTVSPropertyOp1
 70
     1
102
RTVSPropertyOp2
 70
     1
102
RTVSPropertyOp3
 70
     1
102
RTVSPropertyOp4
 70
     1
102
RTVSPropertyOp5
 70
     1
102
RTVSPropertyOp6
 70
     1
102
RTVSPropertyOp7
 70
     1
102
RTVSPropertyOp8
 70
     1
102
RTVSPropertyOp9
 70
     1
102
RTVSPropertyOp10
 70
     1
102
RTVSPropertyOp11
 70
     1
102
RTVSPropertyOp12
 70
     1
102
RTVSPropertyOp13
 70
     1
102
RTVSPropertyOp14
 70
     1
102
RTVSPropertyOp15
 70
     1
102
RTVSPropertyOp16
 70
     1
102
RTVSPropertyOp17
 70
     1
102
RTVSPropertyOp18
 70
     1
102
RTVSPropertyOp19
 70
     1
102
RTVSPropertyOp20
 70
     1
102
RTVSPropertyOp21
 70
     1
102
RTVSPropertyOp22
 70
     1
102
RTVSPropertyOp23
 70
     1
102
RTVSPropertyOp24
 70
     1
102
RTVSPropertyOp25
 70
     1
102
RTVSPropertyOp26
 70
     1
102
RTVSPropertyOp27
 70
     1
102
RTVSPropertyOp28
 70
     1
102
RTVSPropertyOp29
 70
     1
102
RTVSPropertyOp30
 70
     1
102
RTVSPropertyOp31
 70
     1
102
RTVSPropertyOp32
 70
     1
102
RTVSPropertyOp33
 70
     1
102
RTVSPropertyOp34
 70
     1
102
RTVSPropertyOp35
 70
     1
102
RTVSPropertyOp36
 70
     1
102
RTVSPropertyOp37
 70
     1
102
RTVSPropertyOp38
 70
     1
102
RTVSPropertyOp39
 70
     1
102
RTVSPropertyOp40
 70
     1
102
RTVSPropertyOp41
 70
     1
102
RTVSPropertyOp42
 70
     1
102
RTVSPropertyOp43
 70
     1
102
RTVSPropertyOp44
 70
     1
102
RTVSPropertyOp45
 70
     1
102
RTVSPropertyOp46
 70
     1
102
RTVSPropertyOp47
 70
     1
102
RTVSPropertyOp48
 70
     1
102
RTVSPropertyOp49
 70
     1
102
RTVSPropertyOp50
 70
     1
102
RTVSPropertyOp51
 70
     0
102
RTVSPropertyOp52
 70
     0
102
RTVSPropertyOp53
 70
     1
102
RTVSPropertyOp54
 70
     1
102
RTVSPropertyOp55
 70
     1
102
RTVSPropertyOp56
 70
     1
102
RTVSPropertyOp57
 70
     1
102
RTVSPropertyOp58
 70
     1
102
RTVSPropertyOp59
 70
     1
102
RTVSPropertyOp60
 70
     1
102
RTVSPropertyOp61
 70
     1
102
RTVSPropertyOp62
 70
     1
  0
XRECORD
  5
B268
102
{ACAD_REACTORS
330
B267
102
}
330
B267
100
AcDbXrecord
280
     1
102
RTVSPost2010Prop28
280
     0
102
RTVSPost2010PropOp28
 70
     1
102
RTVSPost2010Prop29
280
     1
102
RTVSPost2010PropOp29
 70
     1
102
RTVSPost2010Prop30
280
     1
102
RTVSPost2010PropOp30
 70
     1
102
RTVSPost2010Prop31
280
     0
102
RTVSPost2010PropOp31
 70
     1
102
RTVSPost2010Prop32
280
     0
102
RTVSPost2010PropOp32
 70
     1
102
RTVSPost2010Prop33
280
     0
102
RTVSPost2010PropOp33
 70
     1
102
RTVSPost2010Prop34
280
     0
102
RTVSPost2010PropOp34
 70
     1
102
RTVSPost2010Prop35
280
     0
102
RTVSPost2010PropOp35
 70
     1
102
RTVSPost2010Prop36
280
     0
102
RTVSPost2010PropOp36
 70
     1
102
RTVSPost2010Prop37
 90
       50
102
RTVSPost2010PropOp37
 70
     1
102
RTVSPost2010Prop38
140
0.0
102
RTVSPost2010PropOp38
 70
     1
102
RTVSPost2010Prop39
140
1.0
102
RTVSPost2010PropOp39
 70
     1
102
RTVSPost2010Prop40
 90
        0
102
RTVSPost2010PropOp40
 70
     1
102
RTVSPost2010Prop41ColorIndex
 90
       18
102
RTVSPost2010Prop41ColorRGB
 90
        0
102
RTVSPost2010PropOp41
 70
     1
102
RTVSPost2010Prop42
 90
       50
102
RTVSPost2010PropOp42
 70
     1
102
RTVSPost2010Prop43
 90
        3
102
RTVSPost2010PropOp43
 70
     1
102
RTVSPost2010Prop44ColorIndex
 90
        5
102
RTVSPost2010Prop44ColorRGB
 90
      255
102
RTVSPost2010PropOp44
 70
     1
102
RTVSPost2010Prop45
280
     0
102
RTVSPost2010PropOp45
 70
     1
102
RTVSPost2010Prop46
 90
       50
102
RTVSPost2010PropOp46
 70
     1
102
RTVSPost2010Prop47
 90
       50
102
RTVSPost2010PropOp47
 70
     1
102
RTVSPost2010Prop48
 90
       50
102
RTVSPost2010PropOp48
 70
     1
102
RTVSPost2010Prop49
280
     0
102
RTVSPost2010PropOp49
 70
     1
102
RTVSPost2010Prop50
 90
       50
102
RTVSPost2010PropOp50
 70
     1
102
RTVSPost2010Prop51ColorIndex
 90
      256
102
RTVSPost2010Prop51ColorRGB
 90
-16777216
102
RTVSPost2010PropOp51
 70
     0
102
RTVSPost2010Prop52
140
1.0
102
RTVSPost2010PropOp52
 70
     0
102
RTVSPost2010Prop53
 90
        2
102
RTVSPost2010PropOp53
 70
     1
102
RTVSPost2010Prop54
  1
strokes_ogs.tif
102
RTVSPost2010PropOp54
 70
     1
102
RTVSPost2010Prop55
280
     0
102
RTVSPost2010PropOp55
 70
     1
102
RTVSPost2010Prop56
140
1.0
102
RTVSPost2010PropOp56
 70
     1
102
RTVSPost2010Prop57
140
1.0
102
RTVSPost2010PropOp57
 70
     1
102
RTVSPropertyOp0
 70
     1
102
RTVSPropertyOp1
 70
     1
102
RTVSPropertyOp2
 70
     1
102
RTVSPropertyOp3
 70
     1
102
RTVSPropertyOp4
 70
     1
102
RTVSPropertyOp5
 70
     1
102
RTVSPropertyOp6
 70
     1
102
RTVSPropertyOp7
 70
     1
102
RTVSPropertyOp8
 70
     1
102
RTVSPropertyOp9
 70
     1
102
RTVSPropertyOp10
 70
     1
102
RTVSPropertyOp11
 70
     1
102
RTVSPropertyOp12
 70
     1
102
RTVSPropertyOp13
 70
     1
102
RTVSPropertyOp14
 70
     1
102
RTVSPropertyOp15
 70
     1
102
RTVSPropertyOp16
 70
     1
102
RTVSPropertyOp17
 70
     1
102
RTVSPropertyOp18
 70
     1
102
RTVSPropertyOp19
 70
     1
102
RTVSPropertyOp20
 70
     1
102
RTVSPropertyOp21
 70
     1
102
RTVSPropertyOp22
 70
     1
102
RTVSPropertyOp23
 70
     1
102
RTVSPropertyOp24
 70
     1
102
RTVSPropertyOp25
 70
     1
102
RTVSPropertyOp26
 70
     1
102
RTVSPropertyOp27
 70
     1
102
RTVSPropertyOp28
 70
     1
102
RTVSPropertyOp29
 70
     1
102
RTVSPropertyOp30
 70
     1
102
RTVSPropertyOp31
 70
     1
102
RTVSPropertyOp32
 70
     1
102
RTVSPropertyOp33
 70
     1
102
RTVSPropertyOp34
 70
     1
102
RTVSPropertyOp35
 70
     1
102
RTVSPropertyOp36
 70
     1
102
RTVSPropertyOp37
 70
     1
102
RTVSPropertyOp38
 70
     1
102
RTVSPropertyOp39
 70
     1
102
RTVSPropertyOp40
 70
     1
102
RTVSPropertyOp41
 70
     1
102
RTVSPropertyOp42
 70
     1
102
RTVSPropertyOp43
 70
     1
102
RTVSPropertyOp44
 70
     1
102
RTVSPropertyOp45
 70
     1
102
RTVSPropertyOp46
 70
     1
102
RTVSPropertyOp47
 70
     1
102
RTVSPropertyOp48
 70
     1
102
RTVSPropertyOp49
 70
     1
102
RTVSPropertyOp50
 70
     1
102
RTVSPropertyOp51
 70
     0
102
RTVSPropertyOp52
 70
     0
102
RTVSPropertyOp53
 70
     1
102
RTVSPropertyOp54
 70
     1
102
RTVSPropertyOp55
 70
     1
102
RTVSPropertyOp56
 70
     1
102
RTVSPropertyOp57
 70
     1
102
RTVSPropertyOp58
 70
     1
102
RTVSPropertyOp59
 70
     1
102
RTVSPropertyOp60
 70
     1
102
RTVSPropertyOp61
 70
     1
102
RTVSPropertyOp62
 70
     1
  0
XRECORD
  5
B284
102
{ACAD_REACTORS
330
B283
102
}
330
B283
100
AcDbXrecord
280
     1
102
RTVSPost2010Prop28
280
     0
102
RTVSPost2010PropOp28
 70
     1
102
RTVSPost2010Prop29
280
     1
102
RTVSPost2010PropOp29
 70
     1
102
RTVSPost2010Prop30
280
     1
102
RTVSPost2010PropOp30
 70
     1
102
RTVSPost2010Prop31
280
     0
102
RTVSPost2010PropOp31
 70
     1
102
RTVSPost2010Prop32
280
     0
102
RTVSPost2010PropOp32
 70
     1
102
RTVSPost2010Prop33
280
     0
102
RTVSPost2010PropOp33
 70
     1
102
RTVSPost2010Prop34
280
     0
102
RTVSPost2010PropOp34
 70
     1
102
RTVSPost2010Prop35
280
     0
102
RTVSPost2010PropOp35
 70
     1
102
RTVSPost2010Prop36
280
     0
102
RTVSPost2010PropOp36
 70
     1
102
RTVSPost2010Prop37
 90
       50
102
RTVSPost2010PropOp37
 70
     0
102
RTVSPost2010Prop38
140
0.0
102
RTVSPost2010PropOp38
 70
     0
102
RTVSPost2010Prop39
140
1.0
102
RTVSPost2010PropOp39
 70
     0
102
RTVSPost2010Prop40
 90
        0
102
RTVSPost2010PropOp40
 70
     0
102
RTVSPost2010Prop41ColorIndex
 90
       18
102
RTVSPost2010Prop41ColorRGB
 90
        0
102
RTVSPost2010PropOp41
 70
     0
102
RTVSPost2010Prop42
 90
       50
102
RTVSPost2010PropOp42
 70
     0
102
RTVSPost2010Prop43
 90
        3
102
RTVSPost2010PropOp43
 70
     0
102
RTVSPost2010Prop44ColorIndex
 90
        5
102
RTVSPost2010Prop44ColorRGB
 90
      255
102
RTVSPost2010PropOp44
 70
     0
102
RTVSPost2010Prop45
280
     0
102
RTVSPost2010PropOp45
 70
     1
102
RTVSPost2010Prop46
 90
       50
102
RTVSPost2010PropOp46
 70
     0
102
RTVSPost2010Prop47
 90
       50
102
RTVSPost2010PropOp47
 70
     0
102
RTVSPost2010Prop48
 90
       50
102
RTVSPost2010PropOp48
 70
     0
102
RTVSPost2010Prop49
280
     0
102
RTVSPost2010PropOp49
 70
     1
102
RTVSPost2010Prop50
 90
       50
102
RTVSPost2010PropOp50
 70
     0
102
RTVSPost2010Prop51ColorIndex
 90
      256
102
RTVSPost2010Prop51ColorRGB
 90
-16777216
102
RTVSPost2010PropOp51
 70
     0
102
RTVSPost2010Prop52
140
1.0
102
RTVSPost2010PropOp52
 70
     0
102
RTVSPost2010Prop53
 90
        2
102
RTVSPost2010PropOp53
 70
     0
102
RTVSPost2010Prop54
  1
strokes_ogs.tif
102
RTVSPost2010PropOp54
 70
     0
102
RTVSPost2010Prop55
280
     0
102
RTVSPost2010PropOp55
 70
     1
102
RTVSPost2010Prop56
140
1.0
102
RTVSPost2010PropOp56
 70
     0
102
RTVSPost2010Prop57
140
1.0
102
RTVSPost2010PropOp57
 70
     0
102
RTVSPropertyOp0
 70
     0
102
RTVSPropertyOp1
 70
     0
102
RTVSPropertyOp2
 70
     0
102
RTVSPropertyOp3
 70
     0
102
RTVSPropertyOp4
 70
     0
102
RTVSPropertyOp5
 70
     0
102
RTVSPropertyOp6
 70
     0
102
RTVSPropertyOp7
 70
     0
102
RTVSPropertyOp8
 70
     0
102
RTVSPropertyOp9
 70
     0
102
RTVSPropertyOp10
 70
     0
102
RTVSPropertyOp11
 70
     0
102
RTVSPropertyOp12
 70
     0
102
RTVSPropertyOp13
 70
     0
102
RTVSPropertyOp14
 70
     2
102
RTVSPropertyOp15
 70
     0
102
RTVSPropertyOp16
 70
     0
102
RTVSPropertyOp17
 70
     0
102
RTVSPropertyOp18
 70
     0
102
RTVSPropertyOp19
 70
     0
102
RTVSPropertyOp20
 70
     0
102
RTVSPropertyOp21
 70
     0
102
RTVSPropertyOp22
 70
     0
102
RTVSPropertyOp23
 70
     0
102
RTVSPropertyOp24
 70
     0
102
RTVSPropertyOp25
 70
     0
102
RTVSPropertyOp26
 70
     0
102
RTVSPropertyOp27
 70
     0
102
RTVSPropertyOp28
 70
     1
102
RTVSPropertyOp29
 70
     1
102
RTVSPropertyOp30
 70
     1
102
RTVSPropertyOp31
 70
     1
102
RTVSPropertyOp32
 70
     1
102
RTVSPropertyOp33
 70
     1
102
RTVSPropertyOp34
 70
     1
102
RTVSPropertyOp35
 70
     1
102
RTVSPropertyOp36
 70
     1
102
RTVSPropertyOp37
 70
     0
102
RTVSPropertyOp38
 70
     0
102
RTVSPropertyOp39
 70
     0
102
RTVSPropertyOp40
 70
     0
102
RTVSPropertyOp41
 70
     0
102
RTVSPropertyOp42
 70
     0
102
RTVSPropertyOp43
 70
     0
102
RTVSPropertyOp44
 70
     0
102
RTVSPropertyOp45
 70
     1
102
RTVSPropertyOp46
 70
     0
102
RTVSPropertyOp47
 70
     0
102
RTVSPropertyOp48
 70
     0
102
RTVSPropertyOp49
 70
     1
102
RTVSPropertyOp50
 70
     0
102
RTVSPropertyOp51
 70
     0
102
RTVSPropertyOp52
 70
     0
102
RTVSPropertyOp53
 70
     0
102
RTVSPropertyOp54
 70
     0
102
RTVSPropertyOp55
 70
     1
102
RTVSPropertyOp56
 70
     0
102
RTVSPropertyOp57
 70
     0
102
RTVSPropertyOp58
 70
     0
102
RTVSPropertyOp59
 70
     0
102
RTVSPropertyOp60
 70
     0
102
RTVSPropertyOp61
 70
     0
102
RTVSPropertyOp62
 70
     0
  0
XRECORD
  5
B274
102
{ACAD_REACTORS
330
B273
102
}
330
B273
100
AcDbXrecord
280
     1
102
RTVSPost2010Prop28
280
     0
102
RTVSPost2010PropOp28
 70
     1
102
RTVSPost2010Prop29
280
     1
102
RTVSPost2010PropOp29
 70
     1
102
RTVSPost2010Prop30
280
     1
102
RTVSPost2010PropOp30
 70
     1
102
RTVSPost2010Prop31
280
     0
102
RTVSPost2010PropOp31
 70
     1
102
RTVSPost2010Prop32
280
     0
102
RTVSPost2010PropOp32
 70
     1
102
RTVSPost2010Prop33
280
     0
102
RTVSPost2010PropOp33
 70
     1
102
RTVSPost2010Prop34
280
     0
102
RTVSPost2010PropOp34
 70
     1
102
RTVSPost2010Prop35
280
     0
102
RTVSPost2010PropOp35
 70
     1
102
RTVSPost2010Prop36
280
     0
102
RTVSPost2010PropOp36
 70
     1
102
RTVSPost2010Prop37
 90
       50
102
RTVSPost2010PropOp37
 70
     1
102
RTVSPost2010Prop38
140
0.0
102
RTVSPost2010PropOp38
 70
     1
102
RTVSPost2010Prop39
140
1.0
102
RTVSPost2010PropOp39
 70
     1
102
RTVSPost2010Prop40
 90
        0
102
RTVSPost2010PropOp40
 70
     1
102
RTVSPost2010Prop41ColorIndex
 90
       18
102
RTVSPost2010Prop41ColorRGB
 90
        0
102
RTVSPost2010PropOp41
 70
     1
102
RTVSPost2010Prop42
 90
       50
102
RTVSPost2010PropOp42
 70
     1
102
RTVSPost2010Prop43
 90
        3
102
RTVSPost2010PropOp43
 70
     1
102
RTVSPost2010Prop44ColorIndex
 90
        5
102
RTVSPost2010Prop44ColorRGB
 90
      255
102
RTVSPost2010PropOp44
 70
     1
102
RTVSPost2010Prop45
280
     0
102
RTVSPost2010PropOp45
 70
     1
102
RTVSPost2010Prop46
 90
       50
102
RTVSPost2010PropOp46
 70
     1
102
RTVSPost2010Prop47
 90
       50
102
RTVSPost2010PropOp47
 70
     1
102
RTVSPost2010Prop48
 90
       50
102
RTVSPost2010PropOp48
 70
     1
102
RTVSPost2010Prop49
280
     0
102
RTVSPost2010PropOp49
 70
     1
102
RTVSPost2010Prop50
 90
       50
102
RTVSPost2010PropOp50
 70
     1
102
RTVSPost2010Prop51ColorIndex
 90
      256
102
RTVSPost2010Prop51ColorRGB
 90
-16777216
102
RTVSPost2010PropOp51
 70
     0
102
RTVSPost2010Prop52
140
1.0
102
RTVSPost2010PropOp52
 70
     0
102
RTVSPost2010Prop53
 90
        2
102
RTVSPost2010PropOp53
 70
     1
102
RTVSPost2010Prop54
  1
strokes_ogs.tif
102
RTVSPost2010PropOp54
 70
     1
102
RTVSPost2010Prop55
280
     0
102
RTVSPost2010PropOp55
 70
     1
102
RTVSPost2010Prop56
140
1.0
102
RTVSPost2010PropOp56
 70
     1
102
RTVSPost2010Prop57
140
1.0
102
RTVSPost2010PropOp57
 70
     1
102
RTVSPropertyOp0
 70
     1
102
RTVSPropertyOp1
 70
     1
102
RTVSPropertyOp2
 70
     1
102
RTVSPropertyOp3
 70
     1
102
RTVSPropertyOp4
 70
     1
102
RTVSPropertyOp5
 70
     1
102
RTVSPropertyOp6
 70
     1
102
RTVSPropertyOp7
 70
     1
102
RTVSPropertyOp8
 70
     1
102
RTVSPropertyOp9
 70
     1
102
RTVSPropertyOp10
 70
     1
102
RTVSPropertyOp11
 70
     1
102
RTVSPropertyOp12
 70
     1
102
RTVSPropertyOp13
 70
     1
102
RTVSPropertyOp14
 70
     1
102
RTVSPropertyOp15
 70
     1
102
RTVSPropertyOp16
 70
     1
102
RTVSPropertyOp17
 70
     1
102
RTVSPropertyOp18
 70
     1
102
RTVSPropertyOp19
 70
     1
102
RTVSPropertyOp20
 70
     1
102
RTVSPropertyOp21
 70
     1
102
RTVSPropertyOp22
 70
     1
102
RTVSPropertyOp23
 70
     1
102
RTVSPropertyOp24
 70
     1
102
RTVSPropertyOp25
 70
     1
102
RTVSPropertyOp26
 70
     1
102
RTVSPropertyOp27
 70
     1
102
RTVSPropertyOp28
 70
     1
102
RTVSPropertyOp29
 70
     1
102
RTVSPropertyOp30
 70
     1
102
RTVSPropertyOp31
 70
     1
102
RTVSPropertyOp32
 70
     1
102
RTVSPropertyOp33
 70
     1
102
RTVSPropertyOp34
 70
     1
102
RTVSPropertyOp35
 70
     1
102
RTVSPropertyOp36
 70
     1
102
RTVSPropertyOp37
 70
     1
102
RTVSPropertyOp38
 70
     1
102
RTVSPropertyOp39
 70
     1
102
RTVSPropertyOp40
 70
     1
102
RTVSPropertyOp41
 70
     1
102
RTVSPropertyOp42
 70
     1
102
RTVSPropertyOp43
 70
     1
102
RTVSPropertyOp44
 70
     1
102
RTVSPropertyOp45
 70
     1
102
RTVSPropertyOp46
 70
     1
102
RTVSPropertyOp47
 70
     1
102
RTVSPropertyOp48
 70
     1
102
RTVSPropertyOp49
 70
     1
102
RTVSPropertyOp50
 70
     1
102
RTVSPropertyOp51
 70
     0
102
RTVSPropertyOp52
 70
     0
102
RTVSPropertyOp53
 70
     1
102
RTVSPropertyOp54
 70
     1
102
RTVSPropertyOp55
 70
     1
102
RTVSPropertyOp56
 70
     1
102
RTVSPropertyOp57
 70
     1
102
RTVSPropertyOp58
 70
     1
102
RTVSPropertyOp59
 70
     1
102
RTVSPropertyOp60
 70
     1
102
RTVSPropertyOp61
 70
     1
102
RTVSPropertyOp62
 70
     1
  0
XRECORD
  5
B286
102
{ACAD_REACTORS
330
B285
102
}
330
B285
100
AcDbXrecord
280
     1
102
RTVSPost2010Prop28
280
     0
102
RTVSPost2010PropOp28
 70
     1
102
RTVSPost2010Prop29
280
     1
102
RTVSPost2010PropOp29
 70
     1
102
RTVSPost2010Prop30
280
     1
102
RTVSPost2010PropOp30
 70
     1
102
RTVSPost2010Prop31
280
     0
102
RTVSPost2010PropOp31
 70
     1
102
RTVSPost2010Prop32
280
     0
102
RTVSPost2010PropOp32
 70
     1
102
RTVSPost2010Prop33
280
     0
102
RTVSPost2010PropOp33
 70
     1
102
RTVSPost2010Prop34
280
     0
102
RTVSPost2010PropOp34
 70
     1
102
RTVSPost2010Prop35
280
     0
102
RTVSPost2010PropOp35
 70
     1
102
RTVSPost2010Prop36
280
     0
102
RTVSPost2010PropOp36
 70
     1
102
RTVSPost2010Prop37
 90
       50
102
RTVSPost2010PropOp37
 70
     0
102
RTVSPost2010Prop38
140
0.0
102
RTVSPost2010PropOp38
 70
     0
102
RTVSPost2010Prop39
140
1.0
102
RTVSPost2010PropOp39
 70
     0
102
RTVSPost2010Prop40
 90
        0
102
RTVSPost2010PropOp40
 70
     0
102
RTVSPost2010Prop41ColorIndex
 90
       18
102
RTVSPost2010Prop41ColorRGB
 90
        0
102
RTVSPost2010PropOp41
 70
     0
102
RTVSPost2010Prop42
 90
       50
102
RTVSPost2010PropOp42
 70
     0
102
RTVSPost2010Prop43
 90
        3
102
RTVSPost2010PropOp43
 70
     0
102
RTVSPost2010Prop44ColorIndex
 90
        5
102
RTVSPost2010Prop44ColorRGB
 90
      255
102
RTVSPost2010PropOp44
 70
     0
102
RTVSPost2010Prop45
280
     0
102
RTVSPost2010PropOp45
 70
     1
102
RTVSPost2010Prop46
 90
       50
102
RTVSPost2010PropOp46
 70
     0
102
RTVSPost2010Prop47
 90
       50
102
RTVSPost2010PropOp47
 70
     0
102
RTVSPost2010Prop48
 90
       50
102
RTVSPost2010PropOp48
 70
     0
102
RTVSPost2010Prop49
280
     0
102
RTVSPost2010PropOp49
 70
     1
102
RTVSPost2010Prop50
 90
       50
102
RTVSPost2010PropOp50
 70
     0
102
RTVSPost2010Prop51ColorIndex
 90
      256
102
RTVSPost2010Prop51ColorRGB
 90
-16777216
102
RTVSPost2010PropOp51
 70
     0
102
RTVSPost2010Prop52
140
1.0
102
RTVSPost2010PropOp52
 70
     0
102
RTVSPost2010Prop53
 90
        2
102
RTVSPost2010PropOp53
 70
     0
102
RTVSPost2010Prop54
  1
strokes_ogs.tif
102
RTVSPost2010PropOp54
 70
     0
102
RTVSPost2010Prop55
280
     0
102
RTVSPost2010PropOp55
 70
     1
102
RTVSPost2010Prop56
140
1.0
102
RTVSPost2010PropOp56
 70
     0
102
RTVSPost2010Prop57
140
1.0
102
RTVSPost2010PropOp57
 70
     0
102
RTVSPropertyOp0
 70
     0
102
RTVSPropertyOp1
 70
     0
102
RTVSPropertyOp2
 70
     0
102
RTVSPropertyOp3
 70
     0
102
RTVSPropertyOp4
 70
     0
102
RTVSPropertyOp5
 70
     0
102
RTVSPropertyOp6
 70
     0
102
RTVSPropertyOp7
 70
     0
102
RTVSPropertyOp8
 70
     0
102
RTVSPropertyOp9
 70
     0
102
RTVSPropertyOp10
 70
     0
102
RTVSPropertyOp11
 70
     0
102
RTVSPropertyOp12
 70
     0
102
RTVSPropertyOp13
 70
     0
102
RTVSPropertyOp14
 70
     2
102
RTVSPropertyOp15
 70
     0
102
RTVSPropertyOp16
 70
     0
102
RTVSPropertyOp17
 70
     0
102
RTVSPropertyOp18
 70
     0
102
RTVSPropertyOp19
 70
     0
102
RTVSPropertyOp20
 70
     0
102
RTVSPropertyOp21
 70
     0
102
RTVSPropertyOp22
 70
     0
102
RTVSPropertyOp23
 70
     0
102
RTVSPropertyOp24
 70
     0
102
RTVSPropertyOp25
 70
     0
102
RTVSPropertyOp26
 70
     0
102
RTVSPropertyOp27
 70
     0
102
RTVSPropertyOp28
 70
     1
102
RTVSPropertyOp29
 70
     1
102
RTVSPropertyOp30
 70
     1
102
RTVSPropertyOp31
 70
     1
102
RTVSPropertyOp32
 70
     1
102
RTVSPropertyOp33
 70
     1
102
RTVSPropertyOp34
 70
     1
102
RTVSPropertyOp35
 70
     1
102
RTVSPropertyOp36
 70
     1
102
RTVSPropertyOp37
 70
     0
102
RTVSPropertyOp38
 70
     0
102
RTVSPropertyOp39
 70
     0
102
RTVSPropertyOp40
 70
     0
102
RTVSPropertyOp41
 70
     0
102
RTVSPropertyOp42
 70
     0
102
RTVSPropertyOp43
 70
     0
102
RTVSPropertyOp44
 70
     0
102
RTVSPropertyOp45
 70
     1
102
RTVSPropertyOp46
 70
     0
102
RTVSPropertyOp47
 70
     0
102
RTVSPropertyOp48
 70
     0
102
RTVSPropertyOp49
 70
     1
102
RTVSPropertyOp50
 70
     0
102
RTVSPropertyOp51
 70
     0
102
RTVSPropertyOp52
 70
     0
102
RTVSPropertyOp53
 70
     0
102
RTVSPropertyOp54
 70
     0
102
RTVSPropertyOp55
 70
     1
102
RTVSPropertyOp56
 70
     0
102
RTVSPropertyOp57
 70
     0
102
RTVSPropertyOp58
 70
     0
102
RTVSPropertyOp59
 70
     0
102
RTVSPropertyOp60
 70
     0
102
RTVSPropertyOp61
 70
     0
102
RTVSPropertyOp62
 70
     0
  0
XRECORD
  5
B26C
102
{ACAD_REACTORS
330
B26B
102
}
330
B26B
100
AcDbXrecord
280
     1
102
RTVSPost2010Prop28
280
     0
102
RTVSPost2010PropOp28
 70
     1
102
RTVSPost2010Prop29
280
     1
102
RTVSPost2010PropOp29
 70
     1
102
RTVSPost2010Prop30
280
     1
102
RTVSPost2010PropOp30
 70
     1
102
RTVSPost2010Prop31
280
     0
102
RTVSPost2010PropOp31
 70
     1
102
RTVSPost2010Prop32
280
     0
102
RTVSPost2010PropOp32
 70
     1
102
RTVSPost2010Prop33
280
     0
102
RTVSPost2010PropOp33
 70
     1
102
RTVSPost2010Prop34
280
     0
102
RTVSPost2010PropOp34
 70
     1
102
RTVSPost2010Prop35
280
     0
102
RTVSPost2010PropOp35
 70
     1
102
RTVSPost2010Prop36
280
     0
102
RTVSPost2010PropOp36
 70
     1
102
RTVSPost2010Prop37
 90
       50
102
RTVSPost2010PropOp37
 70
     1
102
RTVSPost2010Prop38
140
0.0
102
RTVSPost2010PropOp38
 70
     1
102
RTVSPost2010Prop39
140
1.0
102
RTVSPost2010PropOp39
 70
     1
102
RTVSPost2010Prop40
 90
        0
102
RTVSPost2010PropOp40
 70
     1
102
RTVSPost2010Prop41ColorIndex
 90
       18
102
RTVSPost2010Prop41ColorRGB
 90
        0
102
RTVSPost2010PropOp41
 70
     1
102
RTVSPost2010Prop42
 90
       50
102
RTVSPost2010PropOp42
 70
     1
102
RTVSPost2010Prop43
 90
        3
102
RTVSPost2010PropOp43
 70
     1
102
RTVSPost2010Prop44ColorIndex
 90
        5
102
RTVSPost2010Prop44ColorRGB
 90
      255
102
RTVSPost2010PropOp44
 70
     1
102
RTVSPost2010Prop45
280
     0
102
RTVSPost2010PropOp45
 70
     1
102
RTVSPost2010Prop46
 90
       50
102
RTVSPost2010PropOp46
 70
     1
102
RTVSPost2010Prop47
 90
       50
102
RTVSPost2010PropOp47
 70
     1
102
RTVSPost2010Prop48
 90
       50
102
RTVSPost2010PropOp48
 70
     1
102
RTVSPost2010Prop49
280
     0
102
RTVSPost2010PropOp49
 70
     1
102
RTVSPost2010Prop50
 90
       50
102
RTVSPost2010PropOp50
 70
     1
102
RTVSPost2010Prop51ColorIndex
 90
      256
102
RTVSPost2010Prop51ColorRGB
 90
-16777216
102
RTVSPost2010PropOp51
 70
     0
102
RTVSPost2010Prop52
140
1.0
102
RTVSPost2010PropOp52
 70
     0
102
RTVSPost2010Prop53
 90
        2
102
RTVSPost2010PropOp53
 70
     1
102
RTVSPost2010Prop54
  1
strokes_ogs.tif
102
RTVSPost2010PropOp54
 70
     1
102
RTVSPost2010Prop55
280
     0
102
RTVSPost2010PropOp55
 70
     1
102
RTVSPost2010Prop56
140
1.0
102
RTVSPost2010PropOp56
 70
     1
102
RTVSPost2010Prop57
140
1.0
102
RTVSPost2010PropOp57
 70
     1
102
RTVSPropertyOp0
 70
     1
102
RTVSPropertyOp1
 70
     1
102
RTVSPropertyOp2
 70
     1
102
RTVSPropertyOp3
 70
     1
102
RTVSPropertyOp4
 70
     1
102
RTVSPropertyOp5
 70
     1
102
RTVSPropertyOp6
 70
     1
102
RTVSPropertyOp7
 70
     1
102
RTVSPropertyOp8
 70
     1
102
RTVSPropertyOp9
 70
     1
102
RTVSPropertyOp10
 70
     1
102
RTVSPropertyOp11
 70
     1
102
RTVSPropertyOp12
 70
     1
102
RTVSPropertyOp13
 70
     1
102
RTVSPropertyOp14
 70
     1
102
RTVSPropertyOp15
 70
     1
102
RTVSPropertyOp16
 70
     1
102
RTVSPropertyOp17
 70
     1
102
RTVSPropertyOp18
 70
     1
102
RTVSPropertyOp19
 70
     1
102
RTVSPropertyOp20
 70
     1
102
RTVSPropertyOp21
 70
     1
102
RTVSPropertyOp22
 70
     1
102
RTVSPropertyOp23
 70
     1
102
RTVSPropertyOp24
 70
     1
102
RTVSPropertyOp25
 70
     1
102
RTVSPropertyOp26
 70
     1
102
RTVSPropertyOp27
 70
     1
102
RTVSPropertyOp28
 70
     1
102
RTVSPropertyOp29
 70
     1
102
RTVSPropertyOp30
 70
     1
102
RTVSPropertyOp31
 70
     1
102
RTVSPropertyOp32
 70
     1
102
RTVSPropertyOp33
 70
     1
102
RTVSPropertyOp34
 70
     1
102
RTVSPropertyOp35
 70
     1
102
RTVSPropertyOp36
 70
     1
102
RTVSPropertyOp37
 70
     1
102
RTVSPropertyOp38
 70
     1
102
RTVSPropertyOp39
 70
     1
102
RTVSPropertyOp40
 70
     1
102
RTVSPropertyOp41
 70
     1
102
RTVSPropertyOp42
 70
     1
102
RTVSPropertyOp43
 70
     1
102
RTVSPropertyOp44
 70
     1
102
RTVSPropertyOp45
 70
     1
102
RTVSPropertyOp46
 70
     1
102
RTVSPropertyOp47
 70
     1
102
RTVSPropertyOp48
 70
     1
102
RTVSPropertyOp49
 70
     1
102
RTVSPropertyOp50
 70
     1
102
RTVSPropertyOp51
 70
     0
102
RTVSPropertyOp52
 70
     0
102
RTVSPropertyOp53
 70
     1
102
RTVSPropertyOp54
 70
     1
102
RTVSPropertyOp55
 70
     1
102
RTVSPropertyOp56
 70
     1
102
RTVSPropertyOp57
 70
     1
102
RTVSPropertyOp58
 70
     1
102
RTVSPropertyOp59
 70
     1
102
RTVSPropertyOp60
 70
     1
102
RTVSPropertyOp61
 70
     1
102
RTVSPropertyOp62
 70
     1
  0
XRECORD
  5
B282
102
{ACAD_REACTORS
330
B281
102
}
330
B281
100
AcDbXrecord
280
     1
102
RTVSPost2010Prop28
280
     0
102
RTVSPost2010PropOp28
 70
     1
102
RTVSPost2010Prop29
280
     1
102
RTVSPost2010PropOp29
 70
     1
102
RTVSPost2010Prop30
280
     1
102
RTVSPost2010PropOp30
 70
     1
102
RTVSPost2010Prop31
280
     0
102
RTVSPost2010PropOp31
 70
     1
102
RTVSPost2010Prop32
280
     0
102
RTVSPost2010PropOp32
 70
     1
102
RTVSPost2010Prop33
280
     0
102
RTVSPost2010PropOp33
 70
     1
102
RTVSPost2010Prop34
280
     0
102
RTVSPost2010PropOp34
 70
     1
102
RTVSPost2010Prop35
280
     0
102
RTVSPost2010PropOp35
 70
     1
102
RTVSPost2010Prop36
280
     0
102
RTVSPost2010PropOp36
 70
     1
102
RTVSPost2010Prop37
 90
       50
102
RTVSPost2010PropOp37
 70
     1
102
RTVSPost2010Prop38
140
0.0
102
RTVSPost2010PropOp38
 70
     1
102
RTVSPost2010Prop39
140
1.0
102
RTVSPost2010PropOp39
 70
     1
102
RTVSPost2010Prop40
 90
        0
102
RTVSPost2010PropOp40
 70
     1
102
RTVSPost2010Prop41ColorIndex
 90
       18
102
RTVSPost2010Prop41ColorRGB
 90
        0
102
RTVSPost2010PropOp41
 70
     1
102
RTVSPost2010Prop42
 90
       50
102
RTVSPost2010PropOp42
 70
     1
102
RTVSPost2010Prop43
 90
        3
102
RTVSPost2010PropOp43
 70
     1
102
RTVSPost2010Prop44ColorIndex
 90
        5
102
RTVSPost2010Prop44ColorRGB
 90
      255
102
RTVSPost2010PropOp44
 70
     1
102
RTVSPost2010Prop45
280
     0
102
RTVSPost2010PropOp45
 70
     1
102
RTVSPost2010Prop46
 90
       50
102
RTVSPost2010PropOp46
 70
     1
102
RTVSPost2010Prop47
 90
       50
102
RTVSPost2010PropOp47
 70
     1
102
RTVSPost2010Prop48
 90
       50
102
RTVSPost2010PropOp48
 70
     1
102
RTVSPost2010Prop49
280
     0
102
RTVSPost2010PropOp49
 70
     1
102
RTVSPost2010Prop50
 90
       50
102
RTVSPost2010PropOp50
 70
     1
102
RTVSPost2010Prop51ColorIndex
 90
      256
102
RTVSPost2010Prop51ColorRGB
 90
-16777216
102
RTVSPost2010PropOp51
 70
     0
102
RTVSPost2010Prop52
140
1.0
102
RTVSPost2010PropOp52
 70
     0
102
RTVSPost2010Prop53
 90
        2
102
RTVSPost2010PropOp53
 70
     1
102
RTVSPost2010Prop54
  1
strokes_ogs.tif
102
RTVSPost2010PropOp54
 70
     1
102
RTVSPost2010Prop55
280
     0
102
RTVSPost2010PropOp55
 70
     1
102
RTVSPost2010Prop56
140
1.0
102
RTVSPost2010PropOp56
 70
     1
102
RTVSPost2010Prop57
140
1.0
102
RTVSPost2010PropOp57
 70
     1
102
RTVSPropertyOp0
 70
     1
102
RTVSPropertyOp1
 70
     1
102
RTVSPropertyOp2
 70
     1
102
RTVSPropertyOp3
 70
     1
102
RTVSPropertyOp4
 70
     1
102
RTVSPropertyOp5
 70
     1
102
RTVSPropertyOp6
 70
     1
102
RTVSPropertyOp7
 70
     1
102
RTVSPropertyOp8
 70
     1
102
RTVSPropertyOp9
 70
     1
102
RTVSPropertyOp10
 70
     1
102
RTVSPropertyOp11
 70
     1
102
RTVSPropertyOp12
 70
     1
102
RTVSPropertyOp13
 70
     1
102
RTVSPropertyOp14
 70
     1
102
RTVSPropertyOp15
 70
     1
102
RTVSPropertyOp16
 70
     1
102
RTVSPropertyOp17
 70
     1
102
RTVSPropertyOp18
 70
     1
102
RTVSPropertyOp19
 70
     1
102
RTVSPropertyOp20
 70
     1
102
RTVSPropertyOp21
 70
     1
102
RTVSPropertyOp22
 70
     1
102
RTVSPropertyOp23
 70
     1
102
RTVSPropertyOp24
 70
     1
102
RTVSPropertyOp25
 70
     1
102
RTVSPropertyOp26
 70
     1
102
RTVSPropertyOp27
 70
     1
102
RTVSPropertyOp28
 70
     1
102
RTVSPropertyOp29
 70
     1
102
RTVSPropertyOp30
 70
     1
102
RTVSPropertyOp31
 70
     1
102
RTVSPropertyOp32
 70
     1
102
RTVSPropertyOp33
 70
     1
102
RTVSPropertyOp34
 70
     1
102
RTVSPropertyOp35
 70
     1
102
RTVSPropertyOp36
 70
     1
102
RTVSPropertyOp37
 70
     1
102
RTVSPropertyOp38
 70
     1
102
RTVSPropertyOp39
 70
     1
102
RTVSPropertyOp40
 70
     1
102
RTVSPropertyOp41
 70
     1
102
RTVSPropertyOp42
 70
     1
102
RTVSPropertyOp43
 70
     1
102
RTVSPropertyOp44
 70
     1
102
RTVSPropertyOp45
 70
     1
102
RTVSPropertyOp46
 70
     1
102
RTVSPropertyOp47
 70
     1
102
RTVSPropertyOp48
 70
     1
102
RTVSPropertyOp49
 70
     1
102
RTVSPropertyOp50
 70
     1
102
RTVSPropertyOp51
 70
     0
102
RTVSPropertyOp52
 70
     0
102
RTVSPropertyOp53
 70
     1
102
RTVSPropertyOp54
 70
     1
102
RTVSPropertyOp55
 70
     1
102
RTVSPropertyOp56
 70
     1
102
RTVSPropertyOp57
 70
     1
102
RTVSPropertyOp58
 70
     1
102
RTVSPropertyOp59
 70
     1
102
RTVSPropertyOp60
 70
     1
102
RTVSPropertyOp61
 70
     1
102
RTVSPropertyOp62
 70
     1
  0
XRECORD
  5
B280
102
{ACAD_REACTORS
330
B27F
102
}
330
B27F
100
AcDbXrecord
280
     1
102
RTVSPost2010Prop28
280
     0
102
RTVSPost2010PropOp28
 70
     1
102
RTVSPost2010Prop29
280
     1
102
RTVSPost2010PropOp29
 70
     1
102
RTVSPost2010Prop30
280
     1
102
RTVSPost2010PropOp30
 70
     1
102
RTVSPost2010Prop31
280
     0
102
RTVSPost2010PropOp31
 70
     1
102
RTVSPost2010Prop32
280
     0
102
RTVSPost2010PropOp32
 70
     1
102
RTVSPost2010Prop33
280
     0
102
RTVSPost2010PropOp33
 70
     1
102
RTVSPost2010Prop34
280
     0
102
RTVSPost2010PropOp34
 70
     1
102
RTVSPost2010Prop35
280
     0
102
RTVSPost2010PropOp35
 70
     1
102
RTVSPost2010Prop36
280
     0
102
RTVSPost2010PropOp36
 70
     1
102
RTVSPost2010Prop37
 90
       50
102
RTVSPost2010PropOp37
 70
     1
102
RTVSPost2010Prop38
140
0.0
102
RTVSPost2010PropOp38
 70
     1
102
RTVSPost2010Prop39
140
1.0
102
RTVSPost2010PropOp39
 70
     1
102
RTVSPost2010Prop40
 90
        0
102
RTVSPost2010PropOp40
 70
     1
102
RTVSPost2010Prop41ColorIndex
 90
       18
102
RTVSPost2010Prop41ColorRGB
 90
        0
102
RTVSPost2010PropOp41
 70
     1
102
RTVSPost2010Prop42
 90
       50
102
RTVSPost2010PropOp42
 70
     1
102
RTVSPost2010Prop43
 90
        3
102
RTVSPost2010PropOp43
 70
     1
102
RTVSPost2010Prop44ColorIndex
 90
        5
102
RTVSPost2010Prop44ColorRGB
 90
      255
102
RTVSPost2010PropOp44
 70
     1
102
RTVSPost2010Prop45
280
     0
102
RTVSPost2010PropOp45
 70
     1
102
RTVSPost2010Prop46
 90
       50
102
RTVSPost2010PropOp46
 70
     1
102
RTVSPost2010Prop47
 90
       50
102
RTVSPost2010PropOp47
 70
     1
102
RTVSPost2010Prop48
 90
       50
102
RTVSPost2010PropOp48
 70
     1
102
RTVSPost2010Prop49
280
     0
102
RTVSPost2010PropOp49
 70
     1
102
RTVSPost2010Prop50
 90
       50
102
RTVSPost2010PropOp50
 70
     1
102
RTVSPost2010Prop51ColorIndex
 90
      256
102
RTVSPost2010Prop51ColorRGB
 90
-16777216
102
RTVSPost2010PropOp51
 70
     0
102
RTVSPost2010Prop52
140
1.0
102
RTVSPost2010PropOp52
 70
     0
102
RTVSPost2010Prop53
 90
        2
102
RTVSPost2010PropOp53
 70
     1
102
RTVSPost2010Prop54
  1
strokes_ogs.tif
102
RTVSPost2010PropOp54
 70
     1
102
RTVSPost2010Prop55
280
     0
102
RTVSPost2010PropOp55
 70
     1
102
RTVSPost2010Prop56
140
1.0
102
RTVSPost2010PropOp56
 70
     1
102
RTVSPost2010Prop57
140
1.0
102
RTVSPost2010PropOp57
 70
     1
102
RTVSPropertyOp0
 70
     1
102
RTVSPropertyOp1
 70
     1
102
RTVSPropertyOp2
 70
     1
102
RTVSPropertyOp3
 70
     1
102
RTVSPropertyOp4
 70
     1
102
RTVSPropertyOp5
 70
     1
102
RTVSPropertyOp6
 70
     1
102
RTVSPropertyOp7
 70
     1
102
RTVSPropertyOp8
 70
     1
102
RTVSPropertyOp9
 70
     1
102
RTVSPropertyOp10
 70
     1
102
RTVSPropertyOp11
 70
     1
102
RTVSPropertyOp12
 70
     1
102
RTVSPropertyOp13
 70
     1
102
RTVSPropertyOp14
 70
     1
102
RTVSPropertyOp15
 70
     1
102
RTVSPropertyOp16
 70
     1
102
RTVSPropertyOp17
 70
     1
102
RTVSPropertyOp18
 70
     1
102
RTVSPropertyOp19
 70
     1
102
RTVSPropertyOp20
 70
     1
102
RTVSPropertyOp21
 70
     1
102
RTVSPropertyOp22
 70
     1
102
RTVSPropertyOp23
 70
     1
102
RTVSPropertyOp24
 70
     1
102
RTVSPropertyOp25
 70
     1
102
RTVSPropertyOp26
 70
     1
102
RTVSPropertyOp27
 70
     1
102
RTVSPropertyOp28
 70
     1
102
RTVSPropertyOp29
 70
     1
102
RTVSPropertyOp30
 70
     1
102
RTVSPropertyOp31
 70
     1
102
RTVSPropertyOp32
 70
     1
102
RTVSPropertyOp33
 70
     1
102
RTVSPropertyOp34
 70
     1
102
RTVSPropertyOp35
 70
     1
102
RTVSPropertyOp36
 70
     1
102
RTVSPropertyOp37
 70
     1
102
RTVSPropertyOp38
 70
     1
102
RTVSPropertyOp39
 70
     1
102
RTVSPropertyOp40
 70
     1
102
RTVSPropertyOp41
 70
     1
102
RTVSPropertyOp42
 70
     1
102
RTVSPropertyOp43
 70
     1
102
RTVSPropertyOp44
 70
     1
102
RTVSPropertyOp45
 70
     1
102
RTVSPropertyOp46
 70
     1
102
RTVSPropertyOp47
 70
     1
102
RTVSPropertyOp48
 70
     1
102
RTVSPropertyOp49
 70
     1
102
RTVSPropertyOp50
 70
     1
102
RTVSPropertyOp51
 70
     0
102
RTVSPropertyOp52
 70
     0
102
RTVSPropertyOp53
 70
     1
102
RTVSPropertyOp54
 70
     1
102
RTVSPropertyOp55
 70
     1
102
RTVSPropertyOp56
 70
     1
102
RTVSPropertyOp57
 70
     1
102
RTVSPropertyOp58
 70
     1
102
RTVSPropertyOp59
 70
     1
102
RTVSPropertyOp60
 70
     1
102
RTVSPropertyOp61
 70
     1
102
RTVSPropertyOp62
 70
     1
  0
XRECORD
  5
B27A
102
{ACAD_REACTORS
330
B279
102
}
330
B279
100
AcDbXrecord
280
     1
102
RTVSPost2010Prop28
280
     0
102
RTVSPost2010PropOp28
 70
     1
102
RTVSPost2010Prop29
280
     1
102
RTVSPost2010PropOp29
 70
     1
102
RTVSPost2010Prop30
280
     1
102
RTVSPost2010PropOp30
 70
     1
102
RTVSPost2010Prop31
280
     0
102
RTVSPost2010PropOp31
 70
     1
102
RTVSPost2010Prop32
280
     0
102
RTVSPost2010PropOp32
 70
     1
102
RTVSPost2010Prop33
280
     0
102
RTVSPost2010PropOp33
 70
     1
102
RTVSPost2010Prop34
280
     0
102
RTVSPost2010PropOp34
 70
     1
102
RTVSPost2010Prop35
280
     0
102
RTVSPost2010PropOp35
 70
     1
102
RTVSPost2010Prop36
280
     0
102
RTVSPost2010PropOp36
 70
     1
102
RTVSPost2010Prop37
 90
       50
102
RTVSPost2010PropOp37
 70
     1
102
RTVSPost2010Prop38
140
0.0
102
RTVSPost2010PropOp38
 70
     1
102
RTVSPost2010Prop39
140
1.0
102
RTVSPost2010PropOp39
 70
     1
102
RTVSPost2010Prop40
 90
        0
102
RTVSPost2010PropOp40
 70
     1
102
RTVSPost2010Prop41ColorIndex
 90
       18
102
RTVSPost2010Prop41ColorRGB
 90
        0
102
RTVSPost2010PropOp41
 70
     1
102
RTVSPost2010Prop42
 90
       50
102
RTVSPost2010PropOp42
 70
     1
102
RTVSPost2010Prop43
 90
        3
102
RTVSPost2010PropOp43
 70
     1
102
RTVSPost2010Prop44ColorIndex
 90
        5
102
RTVSPost2010Prop44ColorRGB
 90
      255
102
RTVSPost2010PropOp44
 70
     1
102
RTVSPost2010Prop45
280
     0
102
RTVSPost2010PropOp45
 70
     1
102
RTVSPost2010Prop46
 90
       50
102
RTVSPost2010PropOp46
 70
     1
102
RTVSPost2010Prop47
 90
       50
102
RTVSPost2010PropOp47
 70
     1
102
RTVSPost2010Prop48
 90
       50
102
RTVSPost2010PropOp48
 70
     1
102
RTVSPost2010Prop49
280
     0
102
RTVSPost2010PropOp49
 70
     1
102
RTVSPost2010Prop50
 90
       50
102
RTVSPost2010PropOp50
 70
     1
102
RTVSPost2010Prop51ColorIndex
 90
      256
102
RTVSPost2010Prop51ColorRGB
 90
-16777216
102
RTVSPost2010PropOp51
 70
     0
102
RTVSPost2010Prop52
140
1.0
102
RTVSPost2010PropOp52
 70
     0
102
RTVSPost2010Prop53
 90
        2
102
RTVSPost2010PropOp53
 70
     1
102
RTVSPost2010Prop54
  1
strokes_ogs.tif
102
RTVSPost2010PropOp54
 70
     1
102
RTVSPost2010Prop55
280
     0
102
RTVSPost2010PropOp55
 70
     1
102
RTVSPost2010Prop56
140
1.0
102
RTVSPost2010PropOp56
 70
     1
102
RTVSPost2010Prop57
140
1.0
102
RTVSPost2010PropOp57
 70
     1
102
RTVSPropertyOp0
 70
     1
102
RTVSPropertyOp1
 70
     1
102
RTVSPropertyOp2
 70
     1
102
RTVSPropertyOp3
 70
     1
102
RTVSPropertyOp4
 70
     1
102
RTVSPropertyOp5
 70
     1
102
RTVSPropertyOp6
 70
     1
102
RTVSPropertyOp7
 70
     1
102
RTVSPropertyOp8
 70
     1
102
RTVSPropertyOp9
 70
     1
102
RTVSPropertyOp10
 70
     1
102
RTVSPropertyOp11
 70
     1
102
RTVSPropertyOp12
 70
     1
102
RTVSPropertyOp13
 70
     1
102
RTVSPropertyOp14
 70
     1
102
RTVSPropertyOp15
 70
     1
102
RTVSPropertyOp16
 70
     1
102
RTVSPropertyOp17
 70
     1
102
RTVSPropertyOp18
 70
     1
102
RTVSPropertyOp19
 70
     1
102
RTVSPropertyOp20
 70
     1
102
RTVSPropertyOp21
 70
     1
102
RTVSPropertyOp22
 70
     1
102
RTVSPropertyOp23
 70
     1
102
RTVSPropertyOp24
 70
     1
102
RTVSPropertyOp25
 70
     1
102
RTVSPropertyOp26
 70
     1
102
RTVSPropertyOp27
 70
     1
102
RTVSPropertyOp28
 70
     1
102
RTVSPropertyOp29
 70
     1
102
RTVSPropertyOp30
 70
     1
102
RTVSPropertyOp31
 70
     1
102
RTVSPropertyOp32
 70
     1
102
RTVSPropertyOp33
 70
     1
102
RTVSPropertyOp34
 70
     1
102
RTVSPropertyOp35
 70
     1
102
RTVSPropertyOp36
 70
     1
102
RTVSPropertyOp37
 70
     1
102
RTVSPropertyOp38
 70
     1
102
RTVSPropertyOp39
 70
     1
102
RTVSPropertyOp40
 70
     1
102
RTVSPropertyOp41
 70
     1
102
RTVSPropertyOp42
 70
     1
102
RTVSPropertyOp43
 70
     1
102
RTVSPropertyOp44
 70
     1
102
RTVSPropertyOp45
 70
     1
102
RTVSPropertyOp46
 70
     1
102
RTVSPropertyOp47
 70
     1
102
RTVSPropertyOp48
 70
     1
102
RTVSPropertyOp49
 70
     1
102
RTVSPropertyOp50
 70
     1
102
RTVSPropertyOp51
 70
     0
102
RTVSPropertyOp52
 70
     0
102
RTVSPropertyOp53
 70
     1
102
RTVSPropertyOp54
 70
     1
102
RTVSPropertyOp55
 70
     1
102
RTVSPropertyOp56
 70
     1
102
RTVSPropertyOp57
 70
     1
102
RTVSPropertyOp58
 70
     1
102
RTVSPropertyOp59
 70
     1
102
RTVSPropertyOp60
 70
     1
102
RTVSPropertyOp61
 70
     1
102
RTVSPropertyOp62
 70
     1
  0
XRECORD
  5
B27C
102
{ACAD_REACTORS
330
B27B
102
}
330
B27B
100
AcDbXrecord
280
     1
102
RTVSPost2010Prop28
280
     0
102
RTVSPost2010PropOp28
 70
     1
102
RTVSPost2010Prop29
280
     1
102
RTVSPost2010PropOp29
 70
     1
102
RTVSPost2010Prop30
280
     1
102
RTVSPost2010PropOp30
 70
     1
102
RTVSPost2010Prop31
280
     0
102
RTVSPost2010PropOp31
 70
     1
102
RTVSPost2010Prop32
280
     0
102
RTVSPost2010PropOp32
 70
     1
102
RTVSPost2010Prop33
280
     0
102
RTVSPost2010PropOp33
 70
     1
102
RTVSPost2010Prop34
280
     0
102
RTVSPost2010PropOp34
 70
     1
102
RTVSPost2010Prop35
280
     0
102
RTVSPost2010PropOp35
 70
     1
102
RTVSPost2010Prop36
280
     0
102
RTVSPost2010PropOp36
 70
     1
102
RTVSPost2010Prop37
 90
       50
102
RTVSPost2010PropOp37
 70
     1
102
RTVSPost2010Prop38
140
0.0
102
RTVSPost2010PropOp38
 70
     1
102
RTVSPost2010Prop39
140
1.0
102
RTVSPost2010PropOp39
 70
     1
102
RTVSPost2010Prop40
 90
        0
102
RTVSPost2010PropOp40
 70
     1
102
RTVSPost2010Prop41ColorIndex
 90
       18
102
RTVSPost2010Prop41ColorRGB
 90
        0
102
RTVSPost2010PropOp41
 70
     1
102
RTVSPost2010Prop42
 90
       50
102
RTVSPost2010PropOp42
 70
     1
102
RTVSPost2010Prop43
 90
        3
102
RTVSPost2010PropOp43
 70
     1
102
RTVSPost2010Prop44ColorIndex
 90
        5
102
RTVSPost2010Prop44ColorRGB
 90
      255
102
RTVSPost2010PropOp44
 70
     1
102
RTVSPost2010Prop45
280
     0
102
RTVSPost2010PropOp45
 70
     1
102
RTVSPost2010Prop46
 90
       50
102
RTVSPost2010PropOp46
 70
     1
102
RTVSPost2010Prop47
 90
       50
102
RTVSPost2010PropOp47
 70
     1
102
RTVSPost2010Prop48
 90
       50
102
RTVSPost2010PropOp48
 70
     1
102
RTVSPost2010Prop49
280
     0
102
RTVSPost2010PropOp49
 70
     1
102
RTVSPost2010Prop50
 90
       50
102
RTVSPost2010PropOp50
 70
     1
102
RTVSPost2010Prop51ColorIndex
 90
      256
102
RTVSPost2010Prop51ColorRGB
 90
-16777216
102
RTVSPost2010PropOp51
 70
     0
102
RTVSPost2010Prop52
140
1.0
102
RTVSPost2010PropOp52
 70
     0
102
RTVSPost2010Prop53
 90
        2
102
RTVSPost2010PropOp53
 70
     1
102
RTVSPost2010Prop54
  1
strokes_ogs.tif
102
RTVSPost2010PropOp54
 70
     1
102
RTVSPost2010Prop55
280
     0
102
RTVSPost2010PropOp55
 70
     1
102
RTVSPost2010Prop56
140
1.0
102
RTVSPost2010PropOp56
 70
     1
102
RTVSPost2010Prop57
140
1.0
102
RTVSPost2010PropOp57
 70
     1
102
RTVSPropertyOp0
 70
     1
102
RTVSPropertyOp1
 70
     1
102
RTVSPropertyOp2
 70
     1
102
RTVSPropertyOp3
 70
     1
102
RTVSPropertyOp4
 70
     1
102
RTVSPropertyOp5
 70
     1
102
RTVSPropertyOp6
 70
     1
102
RTVSPropertyOp7
 70
     1
102
RTVSPropertyOp8
 70
     1
102
RTVSPropertyOp9
 70
     1
102
RTVSPropertyOp10
 70
     1
102
RTVSPropertyOp11
 70
     1
102
RTVSPropertyOp12
 70
     1
102
RTVSPropertyOp13
 70
     1
102
RTVSPropertyOp14
 70
     1
102
RTVSPropertyOp15
 70
     1
102
RTVSPropertyOp16
 70
     1
102
RTVSPropertyOp17
 70
     1
102
RTVSPropertyOp18
 70
     1
102
RTVSPropertyOp19
 70
     1
102
RTVSPropertyOp20
 70
     1
102
RTVSPropertyOp21
 70
     1
102
RTVSPropertyOp22
 70
     1
102
RTVSPropertyOp23
 70
     1
102
RTVSPropertyOp24
 70
     1
102
RTVSPropertyOp25
 70
     1
102
RTVSPropertyOp26
 70
     1
102
RTVSPropertyOp27
 70
     1
102
RTVSPropertyOp28
 70
     1
102
RTVSPropertyOp29
 70
     1
102
RTVSPropertyOp30
 70
     1
102
RTVSPropertyOp31
 70
     1
102
RTVSPropertyOp32
 70
     1
102
RTVSPropertyOp33
 70
     1
102
RTVSPropertyOp34
 70
     1
102
RTVSPropertyOp35
 70
     1
102
RTVSPropertyOp36
 70
     1
102
RTVSPropertyOp37
 70
     1
102
RTVSPropertyOp38
 70
     1
102
RTVSPropertyOp39
 70
     1
102
RTVSPropertyOp40
 70
     1
102
RTVSPropertyOp41
 70
     1
102
RTVSPropertyOp42
 70
     1
102
RTVSPropertyOp43
 70
     1
102
RTVSPropertyOp44
 70
     1
102
RTVSPropertyOp45
 70
     1
102
RTVSPropertyOp46
 70
     1
102
RTVSPropertyOp47
 70
     1
102
RTVSPropertyOp48
 70
     1
102
RTVSPropertyOp49
 70
     1
102
RTVSPropertyOp50
 70
     1
102
RTVSPropertyOp51
 70
     0
102
RTVSPropertyOp52
 70
     0
102
RTVSPropertyOp53
 70
     1
102
RTVSPropertyOp54
 70
     1
102
RTVSPropertyOp55
 70
     1
102
RTVSPropertyOp56
 70
     1
102
RTVSPropertyOp57
 70
     1
102
RTVSPropertyOp58
 70
     1
102
RTVSPropertyOp59
 70
     1
102
RTVSPropertyOp60
 70
     1
102
RTVSPropertyOp61
 70
     1
102
RTVSPropertyOp62
 70
     1
  0
XRECORD
  5
B272
102
{ACAD_REACTORS
330
B271
102
}
330
B271
100
AcDbXrecord
280
     1
102
RTVSPost2010Prop28
280
     0
102
RTVSPost2010PropOp28
 70
     1
102
RTVSPost2010Prop29
280
     1
102
RTVSPost2010PropOp29
 70
     1
102
RTVSPost2010Prop30
280
     1
102
RTVSPost2010PropOp30
 70
     1
102
RTVSPost2010Prop31
280
     0
102
RTVSPost2010PropOp31
 70
     1
102
RTVSPost2010Prop32
280
     0
102
RTVSPost2010PropOp32
 70
     1
102
RTVSPost2010Prop33
280
     0
102
RTVSPost2010PropOp33
 70
     1
102
RTVSPost2010Prop34
280
     0
102
RTVSPost2010PropOp34
 70
     1
102
RTVSPost2010Prop35
280
     0
102
RTVSPost2010PropOp35
 70
     1
102
RTVSPost2010Prop36
280
     0
102
RTVSPost2010PropOp36
 70
     1
102
RTVSPost2010Prop37
 90
       50
102
RTVSPost2010PropOp37
 70
     1
102
RTVSPost2010Prop38
140
0.0
102
RTVSPost2010PropOp38
 70
     1
102
RTVSPost2010Prop39
140
1.0
102
RTVSPost2010PropOp39
 70
     1
102
RTVSPost2010Prop40
 90
        0
102
RTVSPost2010PropOp40
 70
     1
102
RTVSPost2010Prop41ColorIndex
 90
       18
102
RTVSPost2010Prop41ColorRGB
 90
        0
102
RTVSPost2010PropOp41
 70
     1
102
RTVSPost2010Prop42
 90
       50
102
RTVSPost2010PropOp42
 70
     1
102
RTVSPost2010Prop43
 90
        3
102
RTVSPost2010PropOp43
 70
     1
102
RTVSPost2010Prop44ColorIndex
 90
        5
102
RTVSPost2010Prop44ColorRGB
 90
      255
102
RTVSPost2010PropOp44
 70
     1
102
RTVSPost2010Prop45
280
     0
102
RTVSPost2010PropOp45
 70
     1
102
RTVSPost2010Prop46
 90
       50
102
RTVSPost2010PropOp46
 70
     1
102
RTVSPost2010Prop47
 90
       50
102
RTVSPost2010PropOp47
 70
     1
102
RTVSPost2010Prop48
 90
       50
102
RTVSPost2010PropOp48
 70
     1
102
RTVSPost2010Prop49
280
     0
102
RTVSPost2010PropOp49
 70
     1
102
RTVSPost2010Prop50
 90
       50
102
RTVSPost2010PropOp50
 70
     1
102
RTVSPost2010Prop51ColorIndex
 90
      256
102
RTVSPost2010Prop51ColorRGB
 90
-16777216
102
RTVSPost2010PropOp51
 70
     0
102
RTVSPost2010Prop52
140
1.0
102
RTVSPost2010PropOp52
 70
     0
102
RTVSPost2010Prop53
 90
        2
102
RTVSPost2010PropOp53
 70
     1
102
RTVSPost2010Prop54
  1
strokes_ogs.tif
102
RTVSPost2010PropOp54
 70
     1
102
RTVSPost2010Prop55
280
     0
102
RTVSPost2010PropOp55
 70
     1
102
RTVSPost2010Prop56
140
1.0
102
RTVSPost2010PropOp56
 70
     1
102
RTVSPost2010Prop57
140
1.0
102
RTVSPost2010PropOp57
 70
     1
102
RTVSPropertyOp0
 70
     1
102
RTVSPropertyOp1
 70
     1
102
RTVSPropertyOp2
 70
     1
102
RTVSPropertyOp3
 70
     1
102
RTVSPropertyOp4
 70
     1
102
RTVSPropertyOp5
 70
     1
102
RTVSPropertyOp6
 70
     1
102
RTVSPropertyOp7
 70
     1
102
RTVSPropertyOp8
 70
     1
102
RTVSPropertyOp9
 70
     1
102
RTVSPropertyOp10
 70
     1
102
RTVSPropertyOp11
 70
     1
102
RTVSPropertyOp12
 70
     1
102
RTVSPropertyOp13
 70
     1
102
RTVSPropertyOp14
 70
     1
102
RTVSPropertyOp15
 70
     1
102
RTVSPropertyOp16
 70
     1
102
RTVSPropertyOp17
 70
     1
102
RTVSPropertyOp18
 70
     1
102
RTVSPropertyOp19
 70
     1
102
RTVSPropertyOp20
 70
     1
102
RTVSPropertyOp21
 70
     1
102
RTVSPropertyOp22
 70
     1
102
RTVSPropertyOp23
 70
     1
102
RTVSPropertyOp24
 70
     1
102
RTVSPropertyOp25
 70
     1
102
RTVSPropertyOp26
 70
     1
102
RTVSPropertyOp27
 70
     1
102
RTVSPropertyOp28
 70
     1
102
RTVSPropertyOp29
 70
     1
102
RTVSPropertyOp30
 70
     1
102
RTVSPropertyOp31
 70
     1
102
RTVSPropertyOp32
 70
     1
102
RTVSPropertyOp33
 70
     1
102
RTVSPropertyOp34
 70
     1
102
RTVSPropertyOp35
 70
     1
102
RTVSPropertyOp36
 70
     1
102
RTVSPropertyOp37
 70
     1
102
RTVSPropertyOp38
 70
     1
102
RTVSPropertyOp39
 70
     1
102
RTVSPropertyOp40
 70
     1
102
RTVSPropertyOp41
 70
     1
102
RTVSPropertyOp42
 70
     1
102
RTVSPropertyOp43
 70
     1
102
RTVSPropertyOp44
 70
     1
102
RTVSPropertyOp45
 70
     1
102
RTVSPropertyOp46
 70
     1
102
RTVSPropertyOp47
 70
     1
102
RTVSPropertyOp48
 70
     1
102
RTVSPropertyOp49
 70
     1
102
RTVSPropertyOp50
 70
     1
102
RTVSPropertyOp51
 70
     0
102
RTVSPropertyOp52
 70
     0
102
RTVSPropertyOp53
 70
     1
102
RTVSPropertyOp54
 70
     1
102
RTVSPropertyOp55
 70
     1
102
RTVSPropertyOp56
 70
     1
102
RTVSPropertyOp57
 70
     1
102
RTVSPropertyOp58
 70
     1
102
RTVSPropertyOp59
 70
     1
102
RTVSPropertyOp60
 70
     1
102
RTVSPropertyOp61
 70
     1
102
RTVSPropertyOp62
 70
     1
  0
XRECORD
  5
B266
102
{ACAD_REACTORS
330
B265
102
}
330
B265
100
AcDbXrecord
280
     1
102
RTVSPost2010Prop28
280
     0
102
RTVSPost2010PropOp28
 70
     1
102
RTVSPost2010Prop29
280
     1
102
RTVSPost2010PropOp29
 70
     1
102
RTVSPost2010Prop30
280
     1
102
RTVSPost2010PropOp30
 70
     1
102
RTVSPost2010Prop31
280
     0
102
RTVSPost2010PropOp31
 70
     1
102
RTVSPost2010Prop32
280
     0
102
RTVSPost2010PropOp32
 70
     1
102
RTVSPost2010Prop33
280
     0
102
RTVSPost2010PropOp33
 70
     1
102
RTVSPost2010Prop34
280
     0
102
RTVSPost2010PropOp34
 70
     1
102
RTVSPost2010Prop35
280
     0
102
RTVSPost2010PropOp35
 70
     1
102
RTVSPost2010Prop36
280
     0
102
RTVSPost2010PropOp36
 70
     1
102
RTVSPost2010Prop37
 90
       50
102
RTVSPost2010PropOp37
 70
     1
102
RTVSPost2010Prop38
140
0.0
102
RTVSPost2010PropOp38
 70
     1
102
RTVSPost2010Prop39
140
1.0
102
RTVSPost2010PropOp39
 70
     1
102
RTVSPost2010Prop40
 90
        0
102
RTVSPost2010PropOp40
 70
     1
102
RTVSPost2010Prop41ColorIndex
 90
       18
102
RTVSPost2010Prop41ColorRGB
 90
        0
102
RTVSPost2010PropOp41
 70
     1
102
RTVSPost2010Prop42
 90
       50
102
RTVSPost2010PropOp42
 70
     1
102
RTVSPost2010Prop43
 90
        3
102
RTVSPost2010PropOp43
 70
     1
102
RTVSPost2010Prop44ColorIndex
 90
        5
102
RTVSPost2010Prop44ColorRGB
 90
      255
102
RTVSPost2010PropOp44
 70
     1
102
RTVSPost2010Prop45
280
     0
102
RTVSPost2010PropOp45
 70
     1
102
RTVSPost2010Prop46
 90
       50
102
RTVSPost2010PropOp46
 70
     1
102
RTVSPost2010Prop47
 90
       50
102
RTVSPost2010PropOp47
 70
     1
102
RTVSPost2010Prop48
 90
       50
102
RTVSPost2010PropOp48
 70
     1
102
RTVSPost2010Prop49
280
     0
102
RTVSPost2010PropOp49
 70
     1
102
RTVSPost2010Prop50
 90
       50
102
RTVSPost2010PropOp50
 70
     1
102
RTVSPost2010Prop51ColorIndex
 90
      256
102
RTVSPost2010Prop51ColorRGB
 90
-16777216
102
RTVSPost2010PropOp51
 70
     0
102
RTVSPost2010Prop52
140
1.0
102
RTVSPost2010PropOp52
 70
     0
102
RTVSPost2010Prop53
 90
        2
102
RTVSPost2010PropOp53
 70
     1
102
RTVSPost2010Prop54
  1
strokes_ogs.tif
102
RTVSPost2010PropOp54
 70
     1
102
RTVSPost2010Prop55
280
     0
102
RTVSPost2010PropOp55
 70
     1
102
RTVSPost2010Prop56
140
1.0
102
RTVSPost2010PropOp56
 70
     1
102
RTVSPost2010Prop57
140
1.0
102
RTVSPost2010PropOp57
 70
     1
102
RTVSPropertyOp0
 70
     1
102
RTVSPropertyOp1
 70
     1
102
RTVSPropertyOp2
 70
     1
102
RTVSPropertyOp3
 70
     1
102
RTVSPropertyOp4
 70
     1
102
RTVSPropertyOp5
 70
     1
102
RTVSPropertyOp6
 70
     1
102
RTVSPropertyOp7
 70
     1
102
RTVSPropertyOp8
 70
     1
102
RTVSPropertyOp9
 70
     1
102
RTVSPropertyOp10
 70
     1
102
RTVSPropertyOp11
 70
     1
102
RTVSPropertyOp12
 70
     1
102
RTVSPropertyOp13
 70
     1
102
RTVSPropertyOp14
 70
     1
102
RTVSPropertyOp15
 70
     1
102
RTVSPropertyOp16
 70
     1
102
RTVSPropertyOp17
 70
     1
102
RTVSPropertyOp18
 70
     1
102
RTVSPropertyOp19
 70
     1
102
RTVSPropertyOp20
 70
     1
102
RTVSPropertyOp21
 70
     1
102
RTVSPropertyOp22
 70
     1
102
RTVSPropertyOp23
 70
     1
102
RTVSPropertyOp24
 70
     1
102
RTVSPropertyOp25
 70
     1
102
RTVSPropertyOp26
 70
     1
102
RTVSPropertyOp27
 70
     1
102
RTVSPropertyOp28
 70
     1
102
RTVSPropertyOp29
 70
     1
102
RTVSPropertyOp30
 70
     1
102
RTVSPropertyOp31
 70
     1
102
RTVSPropertyOp32
 70
     1
102
RTVSPropertyOp33
 70
     1
102
RTVSPropertyOp34
 70
     1
102
RTVSPropertyOp35
 70
     1
102
RTVSPropertyOp36
 70
     1
102
RTVSPropertyOp37
 70
     1
102
RTVSPropertyOp38
 70
     1
102
RTVSPropertyOp39
 70
     1
102
RTVSPropertyOp40
 70
     1
102
RTVSPropertyOp41
 70
     1
102
RTVSPropertyOp42
 70
     1
102
RTVSPropertyOp43
 70
     1
102
RTVSPropertyOp44
 70
     1
102
RTVSPropertyOp45
 70
     1
102
RTVSPropertyOp46
 70
     1
102
RTVSPropertyOp47
 70
     1
102
RTVSPropertyOp48
 70
     1
102
RTVSPropertyOp49
 70
     1
102
RTVSPropertyOp50
 70
     1
102
RTVSPropertyOp51
 70
     0
102
RTVSPropertyOp52
 70
     0
102
RTVSPropertyOp53
 70
     1
102
RTVSPropertyOp54
 70
     1
102
RTVSPropertyOp55
 70
     1
102
RTVSPropertyOp56
 70
     1
102
RTVSPropertyOp57
 70
     1
102
RTVSPropertyOp58
 70
     1
102
RTVSPropertyOp59
 70
     1
102
RTVSPropertyOp60
 70
     1
102
RTVSPropertyOp61
 70
     1
102
RTVSPropertyOp62
 70
     1
  0
XRECORD
  5
B27E
102
{ACAD_REACTORS
330
B27D
102
}
330
B27D
100
AcDbXrecord
280
     1
102
RTVSPost2010Prop28
280
     0
102
RTVSPost2010PropOp28
 70
     1
102
RTVSPost2010Prop29
280
     1
102
RTVSPost2010PropOp29
 70
     1
102
RTVSPost2010Prop30
280
     1
102
RTVSPost2010PropOp30
 70
     1
102
RTVSPost2010Prop31
280
     0
102
RTVSPost2010PropOp31
 70
     1
102
RTVSPost2010Prop32
280
     0
102
RTVSPost2010PropOp32
 70
     1
102
RTVSPost2010Prop33
280
     0
102
RTVSPost2010PropOp33
 70
     1
102
RTVSPost2010Prop34
280
     0
102
RTVSPost2010PropOp34
 70
     1
102
RTVSPost2010Prop35
280
     0
102
RTVSPost2010PropOp35
 70
     1
102
RTVSPost2010Prop36
280
     0
102
RTVSPost2010PropOp36
 70
     1
102
RTVSPost2010Prop37
 90
       50
102
RTVSPost2010PropOp37
 70
     1
102
RTVSPost2010Prop38
140
0.0
102
RTVSPost2010PropOp38
 70
     1
102
RTVSPost2010Prop39
140
1.0
102
RTVSPost2010PropOp39
 70
     1
102
RTVSPost2010Prop40
 90
        0
102
RTVSPost2010PropOp40
 70
     1
102
RTVSPost2010Prop41ColorIndex
 90
       18
102
RTVSPost2010Prop41ColorRGB
 90
        0
102
RTVSPost2010PropOp41
 70
     1
102
RTVSPost2010Prop42
 90
       50
102
RTVSPost2010PropOp42
 70
     1
102
RTVSPost2010Prop43
 90
        3
102
RTVSPost2010PropOp43
 70
     1
102
RTVSPost2010Prop44ColorIndex
 90
        5
102
RTVSPost2010Prop44ColorRGB
 90
      255
102
RTVSPost2010PropOp44
 70
     1
102
RTVSPost2010Prop45
280
     0
102
RTVSPost2010PropOp45
 70
     1
102
RTVSPost2010Prop46
 90
       50
102
RTVSPost2010PropOp46
 70
     1
102
RTVSPost2010Prop47
 90
       50
102
RTVSPost2010PropOp47
 70
     1
102
RTVSPost2010Prop48
 90
       50
102
RTVSPost2010PropOp48
 70
     1
102
RTVSPost2010Prop49
280
     0
102
RTVSPost2010PropOp49
 70
     1
102
RTVSPost2010Prop50
 90
       50
102
RTVSPost2010PropOp50
 70
     1
102
RTVSPost2010Prop51ColorIndex
 90
      256
102
RTVSPost2010Prop51ColorRGB
 90
-16777216
102
RTVSPost2010PropOp51
 70
     0
102
RTVSPost2010Prop52
140
1.0
102
RTVSPost2010PropOp52
 70
     0
102
RTVSPost2010Prop53
 90
        2
102
RTVSPost2010PropOp53
 70
     1
102
RTVSPost2010Prop54
  1
strokes_ogs.tif
102
RTVSPost2010PropOp54
 70
     1
102
RTVSPost2010Prop55
280
     0
102
RTVSPost2010PropOp55
 70
     1
102
RTVSPost2010Prop56
140
1.0
102
RTVSPost2010PropOp56
 70
     1
102
RTVSPost2010Prop57
140
1.0
102
RTVSPost2010PropOp57
 70
     1
102
RTVSPropertyOp0
 70
     1
102
RTVSPropertyOp1
 70
     1
102
RTVSPropertyOp2
 70
     1
102
RTVSPropertyOp3
 70
     1
102
RTVSPropertyOp4
 70
     1
102
RTVSPropertyOp5
 70
     1
102
RTVSPropertyOp6
 70
     1
102
RTVSPropertyOp7
 70
     1
102
RTVSPropertyOp8
 70
     1
102
RTVSPropertyOp9
 70
     1
102
RTVSPropertyOp10
 70
     1
102
RTVSPropertyOp11
 70
     1
102
RTVSPropertyOp12
 70
     1
102
RTVSPropertyOp13
 70
     1
102
RTVSPropertyOp14
 70
     1
102
RTVSPropertyOp15
 70
     1
102
RTVSPropertyOp16
 70
     1
102
RTVSPropertyOp17
 70
     1
102
RTVSPropertyOp18
 70
     1
102
RTVSPropertyOp19
 70
     1
102
RTVSPropertyOp20
 70
     1
102
RTVSPropertyOp21
 70
     1
102
RTVSPropertyOp22
 70
     1
102
RTVSPropertyOp23
 70
     1
102
RTVSPropertyOp24
 70
     1
102
RTVSPropertyOp25
 70
     1
102
RTVSPropertyOp26
 70
     1
102
RTVSPropertyOp27
 70
     1
102
RTVSPropertyOp28
 70
     1
102
RTVSPropertyOp29
 70
     1
102
RTVSPropertyOp30
 70
     1
102
RTVSPropertyOp31
 70
     1
102
RTVSPropertyOp32
 70
     1
102
RTVSPropertyOp33
 70
     1
102
RTVSPropertyOp34
 70
     1
102
RTVSPropertyOp35
 70
     1
102
RTVSPropertyOp36
 70
     1
102
RTVSPropertyOp37
 70
     1
102
RTVSPropertyOp38
 70
     1
102
RTVSPropertyOp39
 70
     1
102
RTVSPropertyOp40
 70
     1
102
RTVSPropertyOp41
 70
     1
102
RTVSPropertyOp42
 70
     1
102
RTVSPropertyOp43
 70
     1
102
RTVSPropertyOp44
 70
     1
102
RTVSPropertyOp45
 70
     1
102
RTVSPropertyOp46
 70
     1
102
RTVSPropertyOp47
 70
     1
102
RTVSPropertyOp48
 70
     1
102
RTVSPropertyOp49
 70
     1
102
RTVSPropertyOp50
 70
     1
102
RTVSPropertyOp51
 70
     0
102
RTVSPropertyOp52
 70
     0
102
RTVSPropertyOp53
 70
     1
102
RTVSPropertyOp54
 70
     1
102
RTVSPropertyOp55
 70
     1
102
RTVSPropertyOp56
 70
     1
102
RTVSPropertyOp57
 70
     1
102
RTVSPropertyOp58
 70
     1
102
RTVSPropertyOp59
 70
     1
102
RTVSPropertyOp60
 70
     1
102
RTVSPropertyOp61
 70
     1
102
RTVSPropertyOp62
 70
     1
  0
ENDSEC
  0
EOF
