  0
SECTION
  2
HEADER
  9
$ACADVER
  1
AC1015
  9
$ACADMAINTVER
 70
    20
  9
$DWGCODEPAGE
  3
ANSI_932
  9
$INSBASE
 10
0.0
 20
0.0
 30
0.0
  9
$EXTMIN
 10
10.0
 20
9.999999999999998
 30
0.0
  9
$EXTMAX
 10
594.4998199999997
 20
427.5822259999998
 30
0.0
  9
$LIMMIN
 10
0.0
 20
0.0
  9
$LIMMAX
 10
653.3999999999998
 20
450.45
  9
$ORTHOMODE
 70
     1
  9
$REGENMODE
 70
     1
  9
$FILLMODE
 70
     1
  9
$QTEXTMODE
 70
     0
  9
$MIRRTEXT
 70
     1
  9
$LTSCALE
 40
20.0
  9
$ATTMODE
 70
     1
  9
$TEXTSIZE
 40
5.0
  9
$TRACEWID
 40
1.0
  9
$TEXTSTYLE
  7
STANDARD
  9
$CLAYER
  8
0
  9
$CELTYPE
  6
BYLAYER
  9
$CECOLOR
 62
   256
  9
$CELTSCALE
 40
1.0
  9
$DISPSILH
 70
     0
  9
$DIMSCALE
 40
1.0
  9
$DIMASZ
 40
3.0
  9
$DIMEXO
 40
1.0
  9
$DIMDLI
 40
10.0
  9
$DIMRND
 40
0.0
  9
$DIMDLE
 40
0.0
  9
$DIMEXE
 40
1.0
  9
$DIMTP
 40
0.0
  9
$DIMTM
 40
0.0
  9
$DIMTXT
 40
3.2
  9
$DIMCEN
 40
0.0
  9
$DIMTSZ
 40
0.0
  9
$DIMTOL
 70
     0
  9
$DIMLIM
 70
     0
  9
$DIMTIH
 70
     0
  9
$DIMTOH
 70
     0
  9
$DIMSE1
 70
     0
  9
$DIMSE2
 70
     0
  9
$DIMTAD
 70
     3
  9
$DIMZIN
 70
     8
  9
$DIMBLK
  1

  9
$DIMASO
 70
     1
  9
$DIMSHO
 70
     1
  9
$DIMPOST
  1

  9
$DIMAPOST
  1

  9
$DIMALT
 70
     0
  9
$DIMALTD
 70
     2
  9
$DIMALTF
 40
25.4
  9
$DIMLFAC
 40
1.0
  9
$DIMTOFL
 70
     1
  9
$DIMTVP
 40
0.0
  9
$DIMTIX
 70
     0
  9
$DIMSOXD
 70
     0
  9
$DIMSAH
 70
     1
  9
$DIMBLK1
  1
OPEN
  9
$DIMBLK2
  1
OPEN
  9
$DIMSTYLE
  2
STANDARD
  9
$DIMCLRD
 70
     0
  9
$DIMCLRE
 70
     0
  9
$DIMCLRT
 70
     0
  9
$DIMTFAC
 40
1.0
  9
$DIMGAP
 40
1.0
  9
$DIMJUST
 70
     0
  9
$DIMSD1
 70
     0
  9
$DIMSD2
 70
     0
  9
$DIMTOLJ
 70
     1
  9
$DIMTZIN
 70
     0
  9
$DIMALTZ
 70
     0
  9
$DIMALTTZ
 70
     0
  9
$DIMUPT
 70
     0
  9
$DIMDEC
 70
     4
  9
$DIMTDEC
 70
     4
  9
$DIMALTU
 70
     2
  9
$DIMALTTD
 70
     2
  9
$DIMTXSTY
  7
STANDARD
  9
$DIMAUNIT
 70
     0
  9
$DIMADEC
 70
     0
  9
$DIMALTRND
 40
0.0
  9
$DIMAZIN
 70
     0
  9
$DIMDSEP
 70
    46
  9
$DIMATFIT
 70
     3
  9
$DIMFRAC
 70
     0
  9
$DIMLDRBLK
  1
OPEN
  9
$DIMLUNIT
 70
     2
  9
$DIMLWD
 70
    -2
  9
$DIMLWE
 70
    -2
  9
$DIMTMOVE
 70
     0
  9
$LUNITS
 70
     2
  9
$LUPREC
 70
     4
  9
$SKETCHINC
 40
1.0
  9
$FILLETRAD
 40
5.0
  9
$AUNITS
 70
     0
  9
$AUPREC
 70
     2
  9
$MENU
  1
.
  9
$ELEVATION
 40
0.0
  9
$PELEVATION
 40
0.0
  9
$THICKNESS
 40
0.0
  9
$LIMCHECK
 70
     0
  9
$CHAMFERA
 40
10.0
  9
$CHAMFERB
 40
10.0
  9
$CHAMFERC
 40
0.0
  9
$CHAMFERD
 40
0.0
  9
$SKPOLY
 70
     0
  9
$TDCREATE
 40
2451301.435604282
  9
$TDUCREATE
 40
2451301.060604282
  9
$TDUPDATE
 40
2457192.686796239
  9
$TDUUPDATE
 40
2457192.311796239
  9
$TDINDWG
 40
0.0071710880
  9
$TDUSRTIMER
 40
0.0071704051
  9
$USRTIMER
 70
     1
  9
$ANGBASE
 50
0.0
  9
$ANGDIR
 70
     0
  9
$PDMODE
 70
     0
  9
$PDSIZE
 40
0.0
  9
$PLINEWID
 40
0.0
  9
$SPLFRAME
 70
     0
  9
$SPLINETYPE
 70
     6
  9
$SPLINESEGS
 70
     8
  9
$HANDSEED
  5
BD31
  9
$SURFTAB1
 70
     6
  9
$SURFTAB2
 70
     6
  9
$SURFTYPE
 70
     6
  9
$SURFU
 70
     6
  9
$SURFV
 70
     6
  9
$UCSBASE
  2

  9
$UCSNAME
  2

  9
$UCSORG
 10
0.0
 20
0.0
 30
0.0
  9
$UCSXDIR
 10
1.0
 20
0.0
 30
0.0
  9
$UCSYDIR
 10
0.0
 20
1.0
 30
0.0
  9
$UCSORTHOREF
  2

  9
$UCSORTHOVIEW
 70
     0
  9
$UCSORGTOP
 10
0.0
 20
0.0
 30
0.0
  9
$UCSORGBOTTOM
 10
0.0
 20
0.0
 30
0.0
  9
$UCSORGLEFT
 10
0.0
 20
0.0
 30
0.0
  9
$UCSORGRIGHT
 10
0.0
 20
0.0
 30
0.0
  9
$UCSORGFRONT
 10
0.0
 20
0.0
 30
0.0
  9
$UCSORGBACK
 10
0.0
 20
0.0
 30
0.0
  9
$PUCSBASE
  2

  9
$PUCSNAME
  2

  9
$PUCSORG
 10
0.0
 20
0.0
 30
0.0
  9
$PUCSXDIR
 10
1.0
 20
0.0
 30
0.0
  9
$PUCSYDIR
 10
0.0
 20
1.0
 30
0.0
  9
$PUCSORTHOREF
  2

  9
$PUCSORTHOVIEW
 70
     0
  9
$PUCSORGTOP
 10
0.0
 20
0.0
 30
0.0
  9
$PUCSORGBOTTOM
 10
0.0
 20
0.0
 30
0.0
  9
$PUCSORGLEFT
 10
0.0
 20
0.0
 30
0.0
  9
$PUCSORGRIGHT
 10
0.0
 20
0.0
 30
0.0
  9
$PUCSORGFRONT
 10
0.0
 20
0.0
 30
0.0
  9
$PUCSORGBACK
 10
0.0
 20
0.0
 30
0.0
  9
$USERI1
 70
     0
  9
$USERI2
 70
     0
  9
$USERI3
 70
     0
  9
$USERI4
 70
     0
  9
$USERI5
 70
     0
  9
$USERR1
 40
0.0
  9
$USERR2
 40
0.0
  9
$USERR3
 40
0.0
  9
$USERR4
 40
0.0
  9
$USERR5
 40
0.0
  9
$WORLDVIEW
 70
     1
  9
$SHADEDGE
 70
     3
  9
$SHADEDIF
 70
    70
  9
$TILEMODE
 70
     1
  9
$MAXACTVP
 70
    16
  9
$PINSBASE
 10
0.0
 20
0.0
 30
0.0
  9
$PLIMCHECK
 70
     0
  9
$PEXTMIN
 10
1.000000000000000E+20
 20
1.000000000000000E+20
 30
1.000000000000000E+20
  9
$PEXTMAX
 10
-1.000000000000000E+20
 20
-1.000000000000000E+20
 30
-1.000000000000000E+20
  9
$PLIMMIN
 10
0.0
 20
0.0
  9
$PLIMMAX
 10
420.0
 20
297.0
  9
$UNITMODE
 70
     0
  9
$VISRETAIN
 70
     0
  9
$PLINEGEN
 70
     0
  9
$PSLTSCALE
 70
     0
  9
$TREEDEPTH
 70
  3020
  9
$CMLSTYLE
  2
STANDARD
  9
$CMLJUST
 70
     0
  9
$CMLSCALE
 40
1.0
  9
$PROXYGRAPHICS
 70
     1
  9
$MEASUREMENT
 70
     0
  9
$CELWEIGHT
370
    -1
  9
$ENDCAPS
280
     0
  9
$JOINSTYLE
280
     0
  9
$LWDISPLAY
290
     0
  9
$INSUNITS
 70
     0
  9
$HYPERLINKBASE
  1

  9
$STYLESHEET
  1

  9
$XEDIT
290
     1
  9
$CEPSNTYPE
380
     0
  9
$PSTYLEMODE
290
     1
  9
$FINGERPRINTGUID
  2
{8F48F637-D37E-456E-B6DB-AF939BF16762}
  9
$VERSIONGUID
  2
{3ADDB2BA-A1C2-4DD8-BCB6-143A3358DC1D}
  9
$EXTNAMES
290
     1
  9
$PSVPSCALE
 40
0.0
  9
$OLESTARTUP
290
     0
  0
ENDSEC
  0
SECTION
  2
CLASSES
  0
CLASS
  1
ACDBDICTIONARYWDFLT
  2
AcDbDictionaryWithDefault
  3
ObjectDBX Classes
 90
        0
280
     0
281
     0
  0
CLASS
  1
ACDBPLACEHOLDER
  2
AcDbPlaceHolder
  3
ObjectDBX Classes
 90
        0
280
     0
281
     0
  0
CLASS
  1
LAYOUT
  2
AcDbLayout
  3
ObjectDBX Classes
 90
        0
280
     0
281
     0
  0
CLASS
  1
DICTIONARYVAR
  2
AcDbDictionaryVar
  3
ObjectDBX Classes
 90
        0
280
     0
281
     0
  0
CLASS
  1
MATERIAL
  2
AcDbMaterial
  3
ObjectDBX Classes
 90
     1153
280
     0
281
     0
  0
CLASS
  1
VISUALSTYLE
  2
AcDbVisualStyle
  3
ObjectDBX Classes
 90
     4095
280
     0
281
     0
  0
CLASS
  1
TABLESTYLE
  2
AcDbTableStyle
  3
ObjectDBX Classes
 90
     4095
280
     0
281
     0
  0
CLASS
  1
SCALE
  2
AcDbScale
  3
ObjectDBX Classes
 90
     1153
280
     0
281
     0
  0
CLASS
  1
MLEADERSTYLE
  2
AcDbMLeaderStyle
  3
ACDB_MLEADERSTYLE_CLASS
 90
     4095
280
     0
281
     0
  0
CLASS
  1
ACDBSECTIONVIEWSTYLE
  2
AcDbSectionViewStyle
  3
ObjectDBX Classes
 90
     1025
280
     0
281
     0
  0
CLASS
  1
ACDBDETAILVIEWSTYLE
  2
AcDbDetailViewStyle
  3
ObjectDBX Classes
 90
     1025
280
     0
281
     0
  0
CLASS
  1
CELLSTYLEMAP
  2
AcDbCellStyleMap
  3
ObjectDBX Classes
 90
     1152
280
     0
281
     0
  0
ENDSEC
  0
SECTION
  2
TABLES
  0
TABLE
  2
VPORT
  5
B8BF
330
0
100
AcDbSymbolTable
 70
     1
  0
VPORT
  5
BC7A
330
B8BF
100
AcDbSymbolTableRecord
100
AcDbViewportTableRecord
  2
*ACTIVE
 70
     0
 10
0.0
 20
0.0
 11
1.0
 21
1.0
 12
428.7388249340853
 22
218.7984454077592
 13
0.0
 23
0.0
 14
10.0
 24
10.0
 15
10.0
 25
10.0
 16
0.0
 26
0.0
 36
1.0
 17
0.0
 27
0.0
 37
0.0
 40
422.2376352840592
 41
2.35006605019815
 42
50.0
 43
0.0
 44
0.0
 50
0.0
 51
0.0
 71
     0
 72
   100
 73
     1
 74
     0
 75
     0
 76
     0
 77
     0
 78
     0
281
     0
 65
     1
110
0.0
120
0.0
130
0.0
111
1.0
121
0.0
131
0.0
112
0.0
122
1.0
132
0.0
 79
     0
146
0.0
1001
ACAD_NAV_VCDISPLAY
1070
     3
  0
ENDTAB
  0
TABLE
  2
LTYPE
  5
B8BC
330
0
100
AcDbSymbolTable
 70
     4
  0
LTYPE
  5
B8CA
330
B8BC
100
AcDbSymbolTableRecord
100
AcDbLinetypeTableRecord
  2
BYBLOCK
 70
     0
  3

 72
    65
 73
     0
 40
0.0
  0
LTYPE
  5
B8CB
330
B8BC
100
AcDbSymbolTableRecord
100
AcDbLinetypeTableRecord
  2
BYLAYER
 70
     0
  3

 72
    65
 73
     0
 40
0.0
  0
LTYPE
  5
B8CC
330
B8BC
100
AcDbSymbolTableRecord
100
AcDbLinetypeTableRecord
  2
CONTINUOUS
 70
     0
  3
Solid line
 72
    65
 73
     0
 40
0.0
  0
LTYPE
  5
B8DA
330
B8BC
100
AcDbSymbolTableRecord
100
AcDbLinetypeTableRecord
  2
DASHED
 70
     0
  3
__ __ __ __ __ __ __ __ __ __ __ __ __ __ __ __
 72
    65
 73
     2
 40
0.75
 49
0.5
 74
     0
 49
-0.25
 74
     0
  0
LTYPE
  5
B8DB
330
B8BC
100
AcDbSymbolTableRecord
100
AcDbLinetypeTableRecord
  2
CENTER
 70
     0
  3
____ _ ____ _ ____ _ ____ _ ____ _ ____ _ ____ 
 72
    65
 73
     4
 40
2.0
 49
1.25
 74
     0
 49
-0.25
 74
     0
 49
0.25
 74
     0
 49
-0.25
 74
     0
  0
LTYPE
  5
B8DC
330
B8BC
100
AcDbSymbolTableRecord
100
AcDbLinetypeTableRecord
  2
PHANTOM
 70
     0
  3
______  __  __  ______  __  __  ______  __  __ 
 72
    65
 73
     6
 40
2.5
 49
1.25
 74
     0
 49
-0.25
 74
     0
 49
0.25
 74
     0
 49
-0.25
 74
     0
 49
0.25
 74
     0
 49
-0.25
 74
     0
  0
ENDTAB
  0
TABLE
  2
LAYER
  5
B8B9
330
0
100
AcDbSymbolTable
 70
     8
  0
LAYER
  5
B8C7
102
{ACAD_XDICTIONARY
360
BCD5
102
}
330
B8B9
100
AcDbSymbolTableRecord
100
AcDbLayerTableRecord
  2
0
 70
     0
 62
     7
  6
CONTINUOUS
370
    -3
390
BC83
  0
LAYER
  5
B8DD
102
{ACAD_XDICTIONARY
360
BCD7
102
}
330
B8B9
100
AcDbSymbolTableRecord
100
AcDbLayerTableRecord
  2
4
 70
     0
 62
     1
  6
CENTER
370
    -3
390
BC83
  0
LAYER
  5
B8DE
102
{ACAD_XDICTIONARY
360
BCD9
102
}
330
B8B9
100
AcDbSymbolTableRecord
100
AcDbLayerTableRecord
  2
5
 70
     0
 62
     6
  6
PHANTOM
370
    -3
390
BC83
  0
LAYER
  5
B8DF
102
{ACAD_XDICTIONARY
360
BCDB
102
}
330
B8B9
100
AcDbSymbolTableRecord
100
AcDbLayerTableRecord
  2
1
 70
     0
 62
     7
  6
CONTINUOUS
370
    -3
390
BC83
  0
LAYER
  5
B8E0
102
{ACAD_XDICTIONARY
360
BCDD
102
}
330
B8B9
100
AcDbSymbolTableRecord
100
AcDbLayerTableRecord
  2
2
 70
     0
 62
     4
  6
CONTINUOUS
370
    -3
390
BC83
  0
LAYER
  5
B8E1
102
{ACAD_XDICTIONARY
360
BCDF
102
}
330
B8B9
100
AcDbSymbolTableRecord
100
AcDbLayerTableRecord
  2
3
 70
     0
 62
     2
  6
DASHED
370
    -3
390
BC83
  0
LAYER
  5
B8E2
102
{ACAD_XDICTIONARY
360
BCE1
102
}
330
B8B9
100
AcDbSymbolTableRecord
100
AcDbLayerTableRecord
  2
6
 70
     0
 62
     5
  6
CONTINUOUS
370
    -3
390
BC83
  0
LAYER
  5
B8E3
102
{ACAD_XDICTIONARY
360
BCE3
102
}
330
B8B9
100
AcDbSymbolTableRecord
100
AcDbLayerTableRecord
  2
7
 70
     0
 62
     3
  6
CONTINUOUS
370
    -3
390
BC83
  0
ENDTAB
  0
TABLE
  2
STYLE
  5
B8BA
330
0
100
AcDbSymbolTable
 70
     1
  0
STYLE
  5
B8C8
330
B8BA
100
AcDbSymbolTableRecord
100
AcDbTextStyleTableRecord
  2
STANDARD
 70
     0
 40
0.0
 41
1.0
 50
0.0
 71
     0
 42
5.0
  3
txt
  4

  0
ENDTAB
  0
TABLE
  2
VIEW
  5
B8BD
330
0
100
AcDbSymbolTable
 70
     0
  0
ENDTAB
  0
TABLE
  2
UCS
  5
B8BE
330
0
100
AcDbSymbolTable
 70
     0
  0
ENDTAB
  0
TABLE
  2
APPID
  5
B8C0
330
0
100
AcDbSymbolTable
 70
     3
  0
APPID
  5
B8C9
330
B8C0
100
AcDbSymbolTableRecord
100
AcDbRegAppTableRecord
  2
ACAD
 70
     0
  0
APPID
  5
BCEF
330
B8C0
100
AcDbSymbolTableRecord
100
AcDbRegAppTableRecord
  2
ACAD_NAV_VCDISPLAY
 70
     0
  0
APPID
  5
BD28
330
B8C0
100
AcDbSymbolTableRecord
100
AcDbRegAppTableRecord
  2
ACAD_MLEADERVER
 70
     0
  0
ENDTAB
  0
TABLE
  2
DIMSTYLE
  5
B8C1
330
0
100
AcDbSymbolTable
 70
     1
100
AcDbDimStyleTable
 71
     0
  0
DIMSTYLE
105
B8E5
330
B8C1
100
AcDbSymbolTableRecord
100
AcDbDimStyleTableRecord
  2
STANDARD
 70
     0
 41
3.0
 42
1.0
 43
10.0
 44
1.0
 73
     0
 74
     0
 77
     3
 78
     8
140
3.2
141
0.0
147
1.0
172
     1
173
     1
284
     8
285
     8
286
     8
340
B8C8
  0
ENDTAB
  0
TABLE
  2
BLOCK_RECORD
  5
B8B8
330
0
100
AcDbSymbolTable
 70
     1
  0
BLOCK_RECORD
  5
B8D5
102
{ACAD_XDICTIONARY
360
BC7D
102
}
330
B8B8
100
AcDbSymbolTableRecord
100
AcDbBlockTableRecord
  2
*MODEL_SPACE
340
BCD1
  0
BLOCK_RECORD
  5
B8D1
102
{ACAD_XDICTIONARY
360
BC7B
102
}
330
B8B8
100
AcDbSymbolTableRecord
100
AcDbBlockTableRecord
  2
*PAPER_SPACE
340
BCD2
  0
BLOCK_RECORD
  5
B8ED
330
B8B8
100
AcDbSymbolTableRecord
100
AcDbBlockTableRecord
  2
_OPEN
340
0
  0
ENDTAB
  0
ENDSEC
  0
SECTION
  2
BLOCKS
  0
BLOCK
  5
B8D6
330
B8D5
100
AcDbEntity
  8
0
100
AcDbBlockBegin
  2
*MODEL_SPACE
 70
     0
 10
0.0
 20
0.0
 30
0.0
  3
*MODEL_SPACE
  1

  0
ENDBLK
  5
B8D7
330
B8D5
100
AcDbEntity
  8
0
100
AcDbBlockEnd
  0
BLOCK
  5
B8D2
330
B8D1
100
AcDbEntity
 67
     1
  8
0
100
AcDbBlockBegin
  2
*PAPER_SPACE
 70
     0
 10
0.0
 20
0.0
 30
0.0
  3
*PAPER_SPACE
  1

  0
ENDBLK
  5
B8D3
330
B8D1
100
AcDbEntity
 67
     1
  8
0
100
AcDbBlockEnd
  0
BLOCK
  5
B8EE
330
B8ED
100
AcDbEntity
  8
0
100
AcDbBlockBegin
  2
_OPEN
 70
     0
 10
0.0
 20
0.0
 30
0.0
  3
_OPEN
  1

  0
LINE
  5
B8EF
330
B8ED
100
AcDbEntity
  8
0
  6
ByBlock
 62
     0
100
AcDbLine
 10
-1.0
 20
0.166667
 30
0.0
 11
0.0
 21
0.0
 31
0.0
  0
LINE
  5
B8F0
330
B8ED
100
AcDbEntity
  8
0
  6
ByBlock
 62
     0
100
AcDbLine
 10
0.0
 20
0.0
 30
0.0
 11
-1.0
 21
-0.166667
 31
0.0
  0
LINE
  5
B8F1
330
B8ED
100
AcDbEntity
  8
0
  6
ByBlock
 62
     0
100
AcDbLine
 10
0.0
 20
0.0
 30
0.0
 11
-1.0
 21
0.0
 31
0.0
  0
ENDBLK
  5
B8F2
330
B8ED
100
AcDbEntity
  8
0
100
AcDbBlockEnd
  0
ENDSEC
  0
SECTION
  2
ENTITIES
  0
TEXT
  5
B8F3
330
B8D5
100
AcDbEntity
  8
7
  6
Continuous
100
AcDbText
 10
10.0
 20
18.0
 30
0.0
 40
3.0
  1
TYPE No.105A.F
100
AcDbText
  0
TEXT
  5
B8F4
330
B8D5
100
AcDbEntity
  8
7
  6
Continuous
100
AcDbText
 10
10.0
 20
26.0
 30
0.0
 40
3.0
  1
CODE No.9132
100
AcDbText
  0
TEXT
  5
B8F5
330
B8D5
100
AcDbEntity
  8
1
  6
Continuous
100
AcDbText
 10
10.0
 20
10.0
 30
0.0
 40
1.399999999999999
  1
LAYER
100
AcDbText
  0
TEXT
  5
B8F6
330
B8D5
100
AcDbEntity
  8
1
  6
Continuous
100
AcDbText
 10
17.97951099999998
 20
10.04873699999998
 30
0.0
 40
1.399999999999999
  1
1
100
AcDbText
  0
TEXT
  5
B8F7
330
B8D5
100
AcDbEntity
  8
7
  6
Continuous
100
AcDbText
 10
29.97951099999999
 20
10.04873699999998
 30
0.0
 40
1.399999999999999
  1
7
100
AcDbText
  0
TEXT
  5
B8F8
330
B8D5
100
AcDbEntity
  8
4
  6
CENTER
100
AcDbText
 10
23.97951099999999
 20
10.04873699999998
 30
0.0
 40
1.399999999999999
  1
4
100
AcDbText
  0
TEXT
  5
B8F9
330
B8D5
100
AcDbEntity
  8
3
  6
DASHED
100
AcDbText
 10
21.979511
 20
10.04873699999998
 30
0.0
 40
1.399999999999999
  1
3
100
AcDbText
  0
TEXT
  5
B8FA
330
B8D5
100
AcDbEntity
  8
2
  6
Continuous
100
AcDbText
 10
19.97951099999999
 20
10.04873699999998
 30
0.0
 40
1.399999999999999
  1
2
100
AcDbText
  0
TEXT
  5
B8FB
330
B8D5
100
AcDbEntity
  8
6
  6
Continuous
100
AcDbText
 10
27.979511
 20
10.04873699999998
 30
0.0
 40
1.399999999999999
  1
6
100
AcDbText
  0
TEXT
  5
B8FC
330
B8D5
100
AcDbEntity
  8
5
  6
PHANTOM
100
AcDbText
 10
25.97951099999999
 20
10.04873699999998
 30
0.0
 40
1.399999999999999
  1
5
100
AcDbText
  0
LINE
  5
B8FD
330
B8D5
100
AcDbEntity
  8
4
  6
CENTER
100
AcDbLine
 10
281.0085399999999
 20
380.082222
 30
0.0
 11
162.0284639999999
 21
380.082222
 31
0.0
  0
LINE
  5
B8FE
330
B8D5
100
AcDbEntity
  8
4
  6
CENTER
100
AcDbLine
 10
198.0
 20
190.0411129999999
 30
0.0
 11
198.0
 21
259.041113
 31
0.0
  0
LINE
  5
B8FF
330
B8D5
100
AcDbEntity
  8
4
  6
CENTER
100
AcDbLine
 10
232.5
 20
224.5411129999999
 30
0.0
 11
163.4999999999998
 21
224.5411129999999
 31
0.0
  0
LINE
  5
B900
330
B8D5
100
AcDbEntity
  8
1
  6
Continuous
100
AcDbLine
 10
226.77491
 20
264.2411129999999
 30
0.0
 11
228.9528349999999
 21
266.4190379999999
 31
0.0
  0
LINE
  5
B901
330
B8D5
100
AcDbEntity
  8
1
  6
Continuous
100
AcDbLine
 10
228.9528349999999
 20
264.2411129999999
 30
0.0
 11
226.77491
 21
266.4190379999999
 31
0.0
  0
LINE
  5
B902
330
B8D5
100
AcDbEntity
  8
1
  6
Continuous
100
AcDbLine
 10
268.0
 20
271.2411169999999
 30
0.0
 11
182.0
 21
271.2411169999999
 31
0.0
  0
ARC
  5
B903
330
B8D5
100
AcDbEntity
  8
1
  6
Continuous
100
AcDbCircle
 10
198.0
 20
224.5411129999999
 30
0.0
 40
31.5
100
AcDbArc
 50
111.41847
 51
31.7947
  0
LINE
  5
B904
330
B8D5
100
AcDbEntity
  8
1
  6
Continuous
100
AcDbLine
 10
247.6628629999999
 20
266.4190379999999
 30
0.0
 11
202.3378629999998
 21
266.4190379999999
 31
0.0
  0
LINE
  5
B905
330
B8D5
100
AcDbEntity
  8
1
  6
Continuous
100
AcDbLine
 10
247.9328629999999
 20
268.404037
 30
0.0
 11
202.882863
 21
268.404037
 31
0.0
  0
LINE
  5
B906
330
B8D5
100
AcDbEntity
  8
1
  6
Continuous
100
AcDbLine
 10
180.4999999999997
 20
271.7411169999999
 30
0.0
 11
271.000004
 21
271.7411169999999
 31
0.0
  0
LINE
  5
B907
330
B8D5
100
AcDbEntity
  8
1
  6
Continuous
100
AcDbLine
 10
246.9326399999999
 20
269.6411109999999
 30
0.0
 11
203.0199429999999
 21
269.6411109999999
 31
0.0
  0
LINE
  5
B908
330
B8D5
100
AcDbEntity
  8
1
  6
Continuous
100
AcDbLine
 10
179.0
 20
274.041113
 30
0.0
 11
271.000004
 21
274.041113
 31
0.0
  0
LINE
  5
B909
330
B8D5
100
AcDbEntity
  8
1
  6
Continuous
100
AcDbLine
 10
202.3378629999998
 20
264.2411129999999
 30
0.0
 11
266.0
 21
264.2411129999999
 31
0.0
  0
LINE
  5
B90A
330
B8D5
100
AcDbEntity
  8
1
  6
Continuous
100
AcDbLine
 10
259.0
 20
249.2411129999999
 30
0.0
 11
259.0
 21
230.824117
 31
0.0
  0
LINE
  5
B90B
330
B8D5
100
AcDbEntity
  8
1
  6
Continuous
100
AcDbLine
 10
266.0
 20
249.2411129999999
 30
0.0
 11
266.0
 21
230.824117
 31
0.0
  0
LINE
  5
B90C
330
B8D5
100
AcDbEntity
  8
1
  6
Continuous
100
AcDbLine
 10
252.0
 20
249.2411129999999
 30
0.0
 11
252.0
 21
230.824117
 31
0.0
  0
LINE
  5
B90D
330
B8D5
100
AcDbEntity
  8
1
  6
Continuous
100
AcDbLine
 10
265.75
 20
229.741117
 30
0.0
 11
252.2499999999999
 21
229.741117
 31
0.0
  0
ARC
  5
B90E
330
B8D5
100
AcDbEntity
  8
1
  6
Continuous
100
AcDbCircle
 10
262.5
 20
235.938204
 30
0.0
 40
6.197085999999997
100
AcDbArc
 50
235.612877
 51
304.3871229999999
  0
LINE
  5
B90F
330
B8D5
100
AcDbEntity
  8
1
  6
Continuous
100
AcDbLine
 10
266.0
 20
230.824117
 30
0.0
 11
265.75
 21
229.741117
 31
0.0
  0
ARC
  5
B910
330
B8D5
100
AcDbEntity
  8
1
  6
Continuous
100
AcDbCircle
 10
255.5
 20
235.938204
 30
0.0
 40
6.197085999999997
100
AcDbArc
 50
235.612877
 51
304.3871229999999
  0
LINE
  5
B911
330
B8D5
100
AcDbEntity
  8
1
  6
Continuous
100
AcDbLine
 10
252.0
 20
230.824117
 30
0.0
 11
252.2499999999999
 21
229.741117
 31
0.0
  0
LINE
  5
B912
330
B8D5
100
AcDbEntity
  8
1
  6
Continuous
100
AcDbLine
 10
270.0
 20
249.2411129999999
 30
0.0
 11
239.808337
 21
249.2411129999999
 31
0.0
  0
ARC
  5
B913
330
B8D5
100
AcDbEntity
  8
1
  6
Continuous
100
AcDbCircle
 10
260.3999999999999
 20
265.341117
 30
0.0
 40
1.1
100
AcDbArc
 50
270.0
 51
90.0
  0
ARC
  5
B914
330
B8D5
100
AcDbEntity
  8
1
  6
Continuous
100
AcDbCircle
 10
266.0
 20
260.2411129999999
 30
0.0
 40
4.0
100
AcDbArc
 50
0.0
 51
90.0
  0
LINE
  5
B915
330
B8D5
100
AcDbEntity
  8
1
  6
Continuous
100
AcDbLine
 10
270.0
 20
260.2411129999999
 30
0.0
 11
270.0
 21
249.2411129999999
 31
0.0
  0
LINE
  5
B916
330
B8D5
100
AcDbEntity
  8
4
  6
CENTER
100
AcDbLine
 10
262.5
 20
268.9538079999999
 30
0.0
 11
262.5
 21
276.00614
 31
0.0
  0
LINE
  5
B917
330
B8D5
100
AcDbEntity
  8
1
  6
Continuous
100
AcDbLine
 10
271.000004
 20
271.7411169999999
 30
0.0
 11
271.000004
 21
274.041113
 31
0.0
  0
ARC
  5
B918
330
B8D5
100
AcDbEntity
  8
1
  6
Continuous
100
AcDbCircle
 10
268.0
 20
273.7411169999999
 30
0.0
 40
2.5
100
AcDbArc
 50
270.0
 51
306.869904
  0
LINE
  5
B919
330
B8D5
100
AcDbEntity
  8
1
  6
Continuous
100
AcDbLine
 10
266.0
 20
271.2411169999999
 30
0.0
 11
266.0
 21
264.2411129999999
 31
0.0
  0
LINE
  5
B91A
330
B8D5
100
AcDbEntity
  8
1
  6
Continuous
100
AcDbLine
 10
242.33126
 20
264.2411129999999
 30
0.0
 11
244.5091839999999
 21
266.4190379999999
 31
0.0
  0
LINE
  5
B91B
330
B8D5
100
AcDbEntity
  8
1
  6
Continuous
100
AcDbLine
 10
243.745473
 20
264.2411129999999
 30
0.0
 11
245.923398
 21
266.4190379999999
 31
0.0
  0
LINE
  5
B91C
330
B8D5
100
AcDbEntity
  8
1
  6
Continuous
100
AcDbLine
 10
244.5091839999999
 20
264.2411129999999
 30
0.0
 11
242.33126
 21
266.4190379999999
 31
0.0
  0
LINE
  5
B91D
330
B8D5
100
AcDbEntity
  8
1
  6
Continuous
100
AcDbLine
 10
245.923398
 20
264.2411129999999
 30
0.0
 11
243.745473
 21
266.4190379999999
 31
0.0
  0
LINE
  5
B91E
330
B8D5
100
AcDbEntity
  8
4
  6
CENTER
100
AcDbLine
 10
259.0
 20
276.233646
 30
0.0
 11
259.0
 21
174.336738
 31
0.0
  0
LINE
  5
B91F
330
B8D5
100
AcDbEntity
  8
1
  6
Continuous
100
AcDbLine
 10
259.0
 20
271.2411169999999
 30
0.0
 11
259.0
 21
266.441117
 31
0.0
  0
ARC
  5
B920
330
B8D5
100
AcDbEntity
  8
1
  6
Continuous
100
AcDbCircle
 10
257.6
 20
265.341117
 30
0.0
 40
1.1
100
AcDbArc
 50
90.0
 51
270.0
  0
LINE
  5
B921
330
B8D5
100
AcDbEntity
  8
1
  6
Continuous
100
AcDbLine
 10
258.1
 20
264.7411169999999
 30
0.0
 11
258.1
 21
265.941117
 31
0.0
  0
LINE
  5
B922
330
B8D5
100
AcDbEntity
  8
1
  6
Continuous
100
AcDbLine
 10
259.8999999999999
 20
264.7411169999999
 30
0.0
 11
259.8999999999999
 21
265.941117
 31
0.0
  0
LINE
  5
B923
330
B8D5
100
AcDbEntity
  8
1
  6
Continuous
100
AcDbLine
 10
260.3999999999999
 20
266.441117
 30
0.0
 11
257.6
 21
266.441117
 31
0.0
  0
LINE
  5
B924
330
B8D5
100
AcDbEntity
  8
1
  6
Continuous
100
AcDbLine
 10
260.3999999999999
 20
264.2411169999999
 30
0.0
 11
257.6
 21
264.2411169999999
 31
0.0
  0
ARC
  5
B925
330
B8D5
100
AcDbEntity
  8
1
  6
Continuous
100
AcDbCircle
 10
258.6
 20
264.7411169999999
 30
0.0
 40
0.5
100
AcDbArc
 50
180.0
 51
270.0
  0
ARC
  5
B926
330
B8D5
100
AcDbEntity
  8
1
  6
Continuous
100
AcDbCircle
 10
259.3999999999999
 20
264.7411169999999
 30
0.0
 40
0.5
100
AcDbArc
 50
270.0
 51
0.0
  0
ARC
  5
B927
330
B8D5
100
AcDbEntity
  8
1
  6
Continuous
100
AcDbCircle
 10
258.6
 20
265.941117
 30
0.0
 40
0.5
100
AcDbArc
 50
90.0
 51
180.0
  0
ARC
  5
B928
330
B8D5
100
AcDbEntity
  8
1
  6
Continuous
100
AcDbCircle
 10
259.3999999999999
 20
265.941117
 30
0.0
 40
0.5
100
AcDbArc
 50
0.0
 51
90.0
  0
LINE
  5
B929
330
B8D5
100
AcDbEntity
  8
1
  6
Continuous
100
AcDbLine
 10
252.0
 20
271.2411169999999
 30
0.0
 11
252.0
 21
264.2411129999999
 31
0.0
  0
ARC
  5
B92A
330
B8D5
100
AcDbEntity
  8
1
  6
Continuous
100
AcDbCircle
 10
244.3313809999999
 20
269.9542649999999
 30
0.0
 40
4.697225
100
AcDbArc
 50
317.4697509999999
 51
333.713305
  0
LINE
  5
B92B
330
B8D5
100
AcDbEntity
  8
1
  6
Continuous
100
AcDbLine
 10
245.1596869999999
 20
264.2411129999999
 30
0.0
 11
247.3376109999999
 21
266.4190379999999
 31
0.0
  0
LINE
  5
B92C
330
B8D5
100
AcDbEntity
  8
1
  6
Continuous
100
AcDbLine
 10
246.5739
 20
264.2411129999999
 30
0.0
 11
247.6628629999999
 21
265.330075
 31
0.0
  0
LINE
  5
B92D
330
B8D5
100
AcDbEntity
  8
1
  6
Continuous
100
AcDbLine
 10
247.3376109999999
 20
264.2411129999999
 30
0.0
 11
245.1596869999999
 21
266.4190379999999
 31
0.0
  0
LINE
  5
B92E
330
B8D5
100
AcDbEntity
  8
1
  6
Continuous
100
AcDbLine
 10
246.5739
 20
266.4190379999999
 30
0.0
 11
247.6628629999999
 21
265.330075
 31
0.0
  0
LINE
  5
B92F
330
B8D5
100
AcDbEntity
  8
1
  6
Continuous
100
AcDbLine
 10
247.6628629999999
 20
266.4190379999999
 30
0.0
 11
247.6628629999999
 21
264.2411129999999
 31
0.0
  0
LINE
  5
B930
330
B8D5
100
AcDbEntity
  8
1
  6
Continuous
100
AcDbLine
 10
247.792863
 20
266.779038
 30
0.0
 11
247.6628629999999
 21
266.4190379999999
 31
0.0
  0
ARC
  5
B931
330
B8D5
100
AcDbEntity
  8
1
  6
Continuous
100
AcDbCircle
 10
246.9800559999999
 20
273.6411109999999
 30
0.0
 40
4.0
100
AcDbArc
 50
269.99762
 51
323.1302119999999
  0
ARC
  5
B932
330
B8D5
100
AcDbEntity
  8
1
  6
Continuous
100
AcDbCircle
 10
247.6688919999999
 20
267.484185
 30
0.0
 40
0.9569799999999998
100
AcDbArc
 50
24.04026499999999
 51
73.98808699999998
  0
ARC
  5
B933
330
B8D5
100
AcDbEntity
  8
1
  6
Continuous
100
AcDbCircle
 10
242.083438
 20
264.910212
 30
0.0
 40
6.206012999999998
100
AcDbArc
 50
38.387915
 51
49.668171
  0
LINE
  5
B934
330
B8D5
100
AcDbEntity
  8
1
  6
Continuous
100
AcDbLine
 10
247.117863
 20
268.404037
 30
0.0
 11
246.9478629999999
 21
268.764037
 31
0.0
  0
LINE
  5
B935
330
B8D5
100
AcDbEntity
  8
1
  6
Continuous
100
AcDbLine
 10
235.260192
 20
264.2411129999999
 30
0.0
 11
237.4381159999999
 21
266.4190379999999
 31
0.0
  0
LINE
  5
B936
330
B8D5
100
AcDbEntity
  8
1
  6
Continuous
100
AcDbLine
 10
237.4381159999999
 20
264.2411129999999
 30
0.0
 11
235.260192
 21
266.4190379999999
 31
0.0
  0
LINE
  5
B937
330
B8D5
100
AcDbEntity
  8
1
  6
Continuous
100
AcDbLine
 10
239.5028319999999
 20
264.2411129999999
 30
0.0
 11
241.6807569999999
 21
266.4190379999999
 31
0.0
  0
LINE
  5
B938
330
B8D5
100
AcDbEntity
  8
1
  6
Continuous
100
AcDbLine
 10
241.6807569999999
 20
264.2411129999999
 30
0.0
 11
239.5028319999999
 21
266.4190379999999
 31
0.0
  0
LINE
  5
B939
330
B8D5
100
AcDbEntity
  8
1
  6
Continuous
100
AcDbLine
 10
240.9170459999999
 20
264.2411129999999
 30
0.0
 11
243.0949709999999
 21
266.4190379999999
 31
0.0
  0
LINE
  5
B93A
330
B8D5
100
AcDbEntity
  8
1
  6
Continuous
100
AcDbLine
 10
243.0949709999999
 20
264.2411129999999
 30
0.0
 11
240.9170459999999
 21
266.4190379999999
 31
0.0
  0
LINE
  5
B93B
330
B8D5
100
AcDbEntity
  8
1
  6
Continuous
100
AcDbLine
 10
236.6744049999998
 20
264.2411129999999
 30
0.0
 11
238.85233
 21
266.4190379999999
 31
0.0
  0
LINE
  5
B93C
330
B8D5
100
AcDbEntity
  8
1
  6
Continuous
100
AcDbLine
 10
238.088619
 20
264.2411129999999
 30
0.0
 11
240.2665439999999
 21
266.4190379999999
 31
0.0
  0
LINE
  5
B93D
330
B8D5
100
AcDbEntity
  8
1
  6
Continuous
100
AcDbLine
 10
238.85233
 20
264.2411129999999
 30
0.0
 11
236.6744049999998
 21
266.4190379999999
 31
0.0
  0
LINE
  5
B93E
330
B8D5
100
AcDbEntity
  8
1
  6
Continuous
100
AcDbLine
 10
240.2665439999999
 20
264.2411129999999
 30
0.0
 11
238.088619
 21
266.4190379999999
 31
0.0
  0
LINE
  5
B93F
330
B8D5
100
AcDbEntity
  8
1
  6
Continuous
100
AcDbLine
 10
231.0175509999999
 20
264.2411129999999
 30
0.0
 11
233.1954759999999
 21
266.4190379999999
 31
0.0
  0
LINE
  5
B940
330
B8D5
100
AcDbEntity
  8
1
  6
Continuous
100
AcDbLine
 10
233.1954759999999
 20
264.2411129999999
 30
0.0
 11
231.0175509999999
 21
266.4190379999999
 31
0.0
  0
LINE
  5
B941
330
B8D5
100
AcDbEntity
  8
1
  6
Continuous
100
AcDbLine
 10
232.4317649999999
 20
264.2411129999999
 30
0.0
 11
234.609689
 21
266.4190379999999
 31
0.0
  0
LINE
  5
B942
330
B8D5
100
AcDbEntity
  8
1
  6
Continuous
100
AcDbLine
 10
233.8459779999999
 20
264.2411129999999
 30
0.0
 11
236.0239029999999
 21
266.4190379999999
 31
0.0
  0
LINE
  5
B943
330
B8D5
100
AcDbEntity
  8
1
  6
Continuous
100
AcDbLine
 10
234.609689
 20
264.2411129999999
 30
0.0
 11
232.4317649999999
 21
266.4190379999999
 31
0.0
  0
LINE
  5
B944
330
B8D5
100
AcDbEntity
  8
1
  6
Continuous
100
AcDbLine
 10
236.0239029999999
 20
264.2411129999999
 30
0.0
 11
233.8459779999999
 21
266.4190379999999
 31
0.0
  0
LINE
  5
B945
330
B8D5
100
AcDbEntity
  8
1
  6
Continuous
100
AcDbLine
 10
228.1891239999999
 20
264.2411129999999
 30
0.0
 11
230.367049
 21
266.4190379999999
 31
0.0
  0
LINE
  5
B946
330
B8D5
100
AcDbEntity
  8
1
  6
Continuous
100
AcDbLine
 10
229.6033369999999
 20
264.2411129999999
 30
0.0
 11
231.781262
 21
266.4190379999999
 31
0.0
  0
LINE
  5
B947
330
B8D5
100
AcDbEntity
  8
1
  6
Continuous
100
AcDbLine
 10
230.367049
 20
264.2411129999999
 30
0.0
 11
228.1891239999999
 21
266.4190379999999
 31
0.0
  0
LINE
  5
B948
330
B8D5
100
AcDbEntity
  8
1
  6
Continuous
100
AcDbLine
 10
231.781262
 20
264.2411129999999
 30
0.0
 11
229.6033369999999
 21
266.4190379999999
 31
0.0
  0
LINE
  5
B949
330
B8D5
100
AcDbEntity
  8
1
  6
Continuous
100
AcDbLine
 10
224.1338240000001
 20
240.090387
 30
0.0
 11
211.7915439999999
 21
218.228795
 31
0.0
  0
LINE
  5
B94A
330
B8D5
100
AcDbEntity
  8
1
  6
Continuous
100
AcDbLine
 10
185.692437
 20
259.9639009999999
 30
0.0
 11
190.9839939999999
 21
219.852564
 31
0.0
  0
ARC
  5
B94B
330
B8D5
100
AcDbEntity
  8
1
  6
Continuous
100
AcDbCircle
 10
195.4453409999999
 20
220.4411129999999
 30
0.0
 40
4.5
100
AcDbArc
 50
187.515162
 51
270.0
  0
LINE
  5
B94C
330
B8D5
100
AcDbEntity
  8
1
  6
Continuous
100
AcDbLine
 10
207.8729159999999
 20
215.941113
 30
0.0
 11
195.4453409999999
 21
215.941113
 31
0.0
  0
ARC
  5
B94D
330
B8D5
100
AcDbEntity
  8
1
  6
Continuous
100
AcDbCircle
 10
198.0
 20
224.5411129999999
 30
0.0
 40
37.5
100
AcDbArc
 50
86.17744600000001
 51
114.07926
  0
LINE
  5
B94E
330
B8D5
100
AcDbEntity
  8
4
  6
CENTER
100
AcDbLine
 10
225.0
 20
276.233646
 30
0.0
 11
225.0
 21
259.929127
 31
0.0
  0
LINE
  5
B94F
330
B8D5
100
AcDbEntity
  8
1
  6
Continuous
100
AcDbLine
 10
209.804348
 20
264.2411129999999
 30
0.0
 11
211.982272
 21
266.4190379999999
 31
0.0
  0
LINE
  5
B950
330
B8D5
100
AcDbEntity
  8
1
  6
Continuous
100
AcDbLine
 10
211.218561
 20
264.2411129999999
 30
0.0
 11
213.3964859999999
 21
266.4190379999999
 31
0.0
  0
LINE
  5
B951
330
B8D5
100
AcDbEntity
  8
1
  6
Continuous
100
AcDbLine
 10
211.982272
 20
264.2411129999999
 30
0.0
 11
209.804348
 21
266.4190379999999
 31
0.0
  0
LINE
  5
B952
330
B8D5
100
AcDbEntity
  8
1
  6
Continuous
100
AcDbLine
 10
213.3964859999999
 20
264.2411129999999
 30
0.0
 11
211.218561
 21
266.4190379999999
 31
0.0
  0
LINE
  5
B953
330
B8D5
100
AcDbEntity
  8
1
  6
Continuous
100
AcDbLine
 10
200.4999999999999
 20
261.957687
 30
0.0
 11
216.1170339999999
 21
261.957687
 31
0.0
  0
LINE
  5
B954
330
B8D5
100
AcDbEntity
  8
1
  6
Continuous
100
AcDbLine
 10
218.2896289999999
 20
264.2411129999999
 30
0.0
 11
220.467554
 21
266.4190379999999
 31
0.0
  0
LINE
  5
B955
330
B8D5
100
AcDbEntity
  8
1
  6
Continuous
100
AcDbLine
 10
219.703843
 20
264.2411129999999
 30
0.0
 11
221.8817669999999
 21
266.4190379999999
 31
0.0
  0
LINE
  5
B956
330
B8D5
100
AcDbEntity
  8
1
  6
Continuous
100
AcDbLine
 10
220.467554
 20
264.2411129999999
 30
0.0
 11
218.2896289999999
 21
266.4190379999999
 31
0.0
  0
LINE
  5
B957
330
B8D5
100
AcDbEntity
  8
1
  6
Continuous
100
AcDbLine
 10
221.8817669999999
 20
264.2411129999999
 30
0.0
 11
219.703843
 21
266.4190379999999
 31
0.0
  0
LINE
  5
B958
330
B8D5
100
AcDbEntity
  8
1
  6
Continuous
100
AcDbLine
 10
222.5322699999999
 20
264.2411129999999
 30
0.0
 11
224.7101939999998
 21
266.4190379999999
 31
0.0
  0
LINE
  5
B959
330
B8D5
100
AcDbEntity
  8
1
  6
Continuous
100
AcDbLine
 10
223.946483
 20
264.2411129999999
 30
0.0
 11
226.1244079999999
 21
266.4190379999999
 31
0.0
  0
LINE
  5
B95A
330
B8D5
100
AcDbEntity
  8
1
  6
Continuous
100
AcDbLine
 10
224.7101939999998
 20
264.2411129999999
 30
0.0
 11
222.5322699999999
 21
266.4190379999999
 31
0.0
  0
LINE
  5
B95B
330
B8D5
100
AcDbEntity
  8
1
  6
Continuous
100
AcDbLine
 10
226.1244079999999
 20
264.2411129999999
 30
0.0
 11
223.946483
 21
266.4190379999999
 31
0.0
  0
LINE
  5
B95C
330
B8D5
100
AcDbEntity
  8
1
  6
Continuous
100
AcDbLine
 10
225.3606969999999
 20
264.2411129999999
 30
0.0
 11
227.5386220000001
 21
266.4190379999999
 31
0.0
  0
LINE
  5
B95D
330
B8D5
100
AcDbEntity
  8
1
  6
Continuous
100
AcDbLine
 10
227.5386220000001
 20
264.2411129999999
 30
0.0
 11
225.3606969999999
 21
266.4190379999999
 31
0.0
  0
LINE
  5
B95E
330
B8D5
100
AcDbEntity
  8
1
  6
Continuous
100
AcDbLine
 10
221.1180559999998
 20
264.2411129999999
 30
0.0
 11
223.295981
 21
266.4190379999999
 31
0.0
  0
LINE
  5
B95F
330
B8D5
100
AcDbEntity
  8
1
  6
Continuous
100
AcDbLine
 10
223.295981
 20
264.2411129999999
 30
0.0
 11
221.1180559999998
 21
266.4190379999999
 31
0.0
  0
LINE
  5
B960
330
B8D5
100
AcDbEntity
  8
1
  6
Continuous
100
AcDbLine
 10
214.0469879999999
 20
264.2411129999999
 30
0.0
 11
216.2249129999999
 21
266.4190379999999
 31
0.0
  0
LINE
  5
B961
330
B8D5
100
AcDbEntity
  8
1
  6
Continuous
100
AcDbLine
 10
215.461202
 20
264.2411129999999
 30
0.0
 11
217.6391269999998
 21
266.4190379999999
 31
0.0
  0
LINE
  5
B962
330
B8D5
100
AcDbEntity
  8
1
  6
Continuous
100
AcDbLine
 10
216.2249129999999
 20
264.2411129999999
 30
0.0
 11
214.0469879999999
 21
266.4190379999999
 31
0.0
  0
LINE
  5
B963
330
B8D5
100
AcDbEntity
  8
1
  6
Continuous
100
AcDbLine
 10
217.6391269999998
 20
264.2411129999999
 30
0.0
 11
215.461202
 21
266.4190379999999
 31
0.0
  0
LINE
  5
B964
330
B8D5
100
AcDbEntity
  8
1
  6
Continuous
100
AcDbLine
 10
216.875415
 20
264.2411129999999
 30
0.0
 11
219.05334
 21
266.4190379999999
 31
0.0
  0
LINE
  5
B965
330
B8D5
100
AcDbEntity
  8
1
  6
Continuous
100
AcDbLine
 10
219.05334
 20
264.2411129999999
 30
0.0
 11
216.875415
 21
266.4190379999999
 31
0.0
  0
LINE
  5
B966
330
B8D5
100
AcDbEntity
  8
1
  6
Continuous
100
AcDbLine
 10
212.632775
 20
264.2411129999999
 30
0.0
 11
214.810699
 21
266.4190379999999
 31
0.0
  0
LINE
  5
B967
330
B8D5
100
AcDbEntity
  8
1
  6
Continuous
100
AcDbLine
 10
214.810699
 20
264.2411129999999
 30
0.0
 11
212.632775
 21
266.4190379999999
 31
0.0
  0
LINE
  5
B968
330
B8D5
100
AcDbEntity
  8
1
  6
Continuous
100
AcDbLine
 10
202.3378629999998
 20
265.2599099999998
 30
0.0
 11
203.496991
 21
266.4190379999999
 31
0.0
  0
LINE
  5
B969
330
B8D5
100
AcDbEntity
  8
1
  6
Continuous
100
AcDbLine
 10
202.7332799999999
 20
264.2411129999999
 30
0.0
 11
204.911205
 21
266.4190379999999
 31
0.0
  0
LINE
  5
B96A
330
B8D5
100
AcDbEntity
  8
1
  6
Continuous
100
AcDbLine
 10
203.496991
 20
264.2411129999999
 30
0.0
 11
202.3378629999998
 21
265.4002409999999
 31
0.0
  0
LINE
  5
B96B
330
B8D5
100
AcDbEntity
  8
1
  6
Continuous
100
AcDbLine
 10
204.911205
 20
264.2411129999999
 30
0.0
 11
202.7332799999999
 21
266.4190379999999
 31
0.0
  0
ARC
  5
B96C
330
B8D5
100
AcDbEntity
  8
1
  6
Continuous
100
AcDbCircle
 10
207.9172879999999
 20
264.910212
 30
0.0
 40
6.206012999999998
100
AcDbArc
 50
130.3317199999999
 51
141.612085
  0
ARC
  5
B96D
330
B8D5
100
AcDbEntity
  8
1
  6
Continuous
100
AcDbCircle
 10
203.7817599999999
 20
260.741113
 30
0.0
 40
3.5
100
AcDbArc
 50
90.0
 51
159.6598659999999
  0
LINE
  5
B96E
330
B8D5
100
AcDbEntity
  8
1
  6
Continuous
100
AcDbLine
 10
205.561707
 20
264.2411129999999
 30
0.0
 11
207.739632
 21
266.4190379999999
 31
0.0
  0
LINE
  5
B96F
330
B8D5
100
AcDbEntity
  8
1
  6
Continuous
100
AcDbLine
 10
206.97592
 20
264.2411129999999
 30
0.0
 11
209.1538449999999
 21
266.4190379999999
 31
0.0
  0
LINE
  5
B970
330
B8D5
100
AcDbEntity
  8
1
  6
Continuous
100
AcDbLine
 10
207.739632
 20
264.2411129999999
 30
0.0
 11
205.561707
 21
266.4190379999999
 31
0.0
  0
LINE
  5
B971
330
B8D5
100
AcDbEntity
  8
1
  6
Continuous
100
AcDbLine
 10
209.1538449999999
 20
264.2411129999999
 30
0.0
 11
206.97592
 21
266.4190379999999
 31
0.0
  0
LINE
  5
B972
330
B8D5
100
AcDbEntity
  8
1
  6
Continuous
100
AcDbLine
 10
208.3901339999999
 20
264.2411129999999
 30
0.0
 11
210.5680589999999
 21
266.4190379999999
 31
0.0
  0
LINE
  5
B973
330
B8D5
100
AcDbEntity
  8
1
  6
Continuous
100
AcDbLine
 10
210.5680589999999
 20
264.2411129999999
 30
0.0
 11
208.3901339999999
 21
266.4190379999999
 31
0.0
  0
LINE
  5
B974
330
B8D5
100
AcDbEntity
  8
1
  6
Continuous
100
AcDbLine
 10
204.147493
 20
264.2411129999999
 30
0.0
 11
206.3254179999999
 21
266.4190379999999
 31
0.0
  0
LINE
  5
B975
330
B8D5
100
AcDbEntity
  8
1
  6
Continuous
100
AcDbLine
 10
206.3254179999999
 20
264.2411129999999
 30
0.0
 11
204.147493
 21
266.4190379999999
 31
0.0
  0
ARC
  5
B976
330
B8D5
100
AcDbEntity
  8
1
  6
Continuous
100
AcDbCircle
 10
205.669345
 20
269.9542649999999
 30
0.0
 40
4.697225
100
AcDbArc
 50
206.286695
 51
222.530249
  0
LINE
  5
B977
330
B8D5
100
AcDbEntity
  8
1
  6
Continuous
100
AcDbLine
 10
202.3378629999998
 20
266.4190379999999
 30
0.0
 11
202.3378629999998
 21
264.2411129999999
 31
0.0
  0
LINE
  5
B978
330
B8D5
100
AcDbEntity
  8
1
  6
Continuous
100
AcDbLine
 10
202.2078629999997
 20
266.779038
 30
0.0
 11
202.3378629999998
 21
266.4190379999999
 31
0.0
  0
LINE
  5
B979
330
B8D5
100
AcDbEntity
  8
1
  6
Continuous
100
AcDbLine
 10
202.882863
 20
268.404037
 30
0.0
 11
203.052863
 21
268.764037
 31
0.0
  0
LINE
  5
B97A
330
B8D5
100
AcDbEntity
  8
1
  6
Continuous
100
AcDbLine
 10
202.0678629999999
 20
268.404037
 30
0.0
 11
202.882863
 21
268.404037
 31
0.0
  0
ARC
  5
B97B
330
B8D5
100
AcDbEntity
  8
1
  6
Continuous
100
AcDbCircle
 10
202.3318339999999
 20
267.484185
 30
0.0
 40
0.9569799999999998
100
AcDbArc
 50
106.011913
 51
155.9597349999999
  0
ARC
  5
B97C
330
B8D5
100
AcDbEntity
  8
1
  6
Continuous
100
AcDbCircle
 10
203.0199429999999
 20
273.6411109999999
 30
0.0
 40
4.0
100
AcDbArc
 50
216.8697879999997
 51
270.0023799999997
  0
LINE
  5
B97D
330
B8D5
100
AcDbEntity
  8
1
  6
Continuous
100
AcDbLine
 10
182.6999999999999
 20
258.777935
 30
0.0
 11
183.6383999999999
 21
256.6780769999999
 31
0.0
  0
ARC
  5
B97E
330
B8D5
100
AcDbEntity
  8
1
  6
Continuous
100
AcDbCircle
 10
198.0
 20
224.5411129999999
 30
0.0
 40
35.20000000000001
100
AcDbArc
 50
109.9322699999999
 51
114.07926
  0
LINE
  5
B97F
330
B8D5
100
AcDbEntity
  8
4
  6
CENTER
100
AcDbLine
 10
187.5
 20
268.9538079999999
 30
0.0
 11
187.5
 21
275.7786489999999
 31
0.0
  0
LINE
  5
B980
330
B8D5
100
AcDbEntity
  8
1
  6
Continuous
100
AcDbLine
 10
179.0
 20
271.7411169999999
 30
0.0
 11
179.0
 21
274.041113
 31
0.0
  0
ARC
  5
B981
330
B8D5
100
AcDbEntity
  8
1
  6
Continuous
100
AcDbCircle
 10
182.0
 20
273.7411169999999
 30
0.0
 40
2.5
100
AcDbArc
 50
233.130096
 51
270.0
  0
LINE
  5
B982
330
B8D5
100
AcDbEntity
  8
1
  6
Continuous
100
AcDbLine
 10
179.0
 20
271.7411169999999
 30
0.0
 11
180.4999999999997
 21
271.7411169999999
 31
0.0
  0
LINE
  5
B983
330
B8D5
100
AcDbEntity
  8
4
  6
CENTER
100
AcDbLine
 10
262.499955
 20
410.3322219999998
 30
0.0
 11
262.499955
 21
424.832226
 31
0.0
  0
LINE
  5
B984
330
B8D5
100
AcDbEntity
  8
4
  6
CENTER
100
AcDbLine
 10
187.499955
 20
410.3322219999998
 30
0.0
 11
187.499955
 21
424.832226
 31
0.0
  0
LINE
  5
B985
330
B8D5
100
AcDbEntity
  8
4
  6
CENTER
100
AcDbLine
 10
224.9999549999997
 20
332.582222
 30
0.0
 11
224.9999549999997
 21
427.5822259999998
 31
0.0
  0
CIRCLE
  5
B986
330
B8D5
100
AcDbEntity
  8
1
  6
Continuous
100
AcDbCircle
 10
224.9999549999997
 20
380.082222
 30
0.0
 40
43.0
  0
ARC
  5
B987
330
B8D5
100
AcDbEntity
  8
1
  6
Continuous
100
AcDbCircle
 10
262.499955
 20
417.5822219999998
 30
0.0
 40
8.5
100
AcDbArc
 50
0.0
 51
90.0
  0
CIRCLE
  5
B988
330
B8D5
100
AcDbEntity
  8
1
  6
Continuous
100
AcDbCircle
 10
224.9999549999997
 20
380.082222
 30
0.0
 40
42.5
  0
CIRCLE
  5
B989
330
B8D5
100
AcDbEntity
  8
1
  6
Continuous
100
AcDbCircle
 10
224.9999549999997
 20
380.082222
 30
0.0
 40
23.39999999999999
  0
CIRCLE
  5
B98A
330
B8D5
100
AcDbEntity
  8
1
  6
Continuous
100
AcDbCircle
 10
224.9999549999997
 20
380.082222
 30
0.0
 40
21.49999999999999
  0
CIRCLE
  5
B98B
330
B8D5
100
AcDbEntity
  8
1
  6
Continuous
100
AcDbCircle
 10
224.9999549999997
 20
380.082222
 30
0.0
 40
12.0
  0
LINE
  5
B98C
330
B8D5
100
AcDbEntity
  8
1
  6
Continuous
100
AcDbLine
 10
262.499955
 20
334.082222
 30
0.0
 11
187.499955
 21
334.082222
 31
0.0
  0
ARC
  5
B98D
330
B8D5
100
AcDbEntity
  8
1
  6
Continuous
100
AcDbCircle
 10
258.9999549999999
 20
380.082222
 30
0.0
 40
18.85
100
AcDbArc
 50
309.539109
 51
50.46089099999999
  0
LINE
  5
B98E
330
B8D5
100
AcDbEntity
  8
1
  6
Continuous
100
AcDbLine
 10
270.999955
 20
342.582222
 30
0.0
 11
270.999955
 21
417.5822219999998
 31
0.0
  0
LINE
  5
B98F
330
B8D5
100
AcDbEntity
  8
4
  6
CENTER
100
AcDbLine
 10
269.7499549999997
 20
342.582222
 30
0.0
 11
255.2499549999998
 21
342.582222
 31
0.0
  0
CIRCLE
  5
B990
330
B8D5
100
AcDbEntity
  8
1
  6
Continuous
100
AcDbCircle
 10
262.499955
 20
342.582222
 30
0.0
 40
4.25
  0
LINE
  5
B991
330
B8D5
100
AcDbEntity
  8
4
  6
CENTER
100
AcDbLine
 10
262.499955
 20
335.3322219999999
 30
0.0
 11
262.499955
 21
349.8322219999997
 31
0.0
  0
ARC
  5
B992
330
B8D5
100
AcDbEntity
  8
1
  6
Continuous
100
AcDbCircle
 10
262.499955
 20
342.582222
 30
0.0
 40
8.5
100
AcDbArc
 50
270.0
 51
0.0
  0
LINE
  5
B993
330
B8D5
100
AcDbEntity
  8
4
  6
CENTER
100
AcDbLine
 10
269.7499549999997
 20
417.5822219999998
 30
0.0
 11
255.2499549999998
 21
417.5822219999998
 31
0.0
  0
CIRCLE
  5
B994
330
B8D5
100
AcDbEntity
  8
1
  6
Continuous
100
AcDbCircle
 10
262.499955
 20
417.5822219999998
 30
0.0
 40
4.25
  0
LINE
  5
B995
330
B8D5
100
AcDbEntity
  8
1
  6
Continuous
100
AcDbLine
 10
178.999955
 20
342.582222
 30
0.0
 11
178.999955
 21
417.582226
 31
0.0
  0
ARC
  5
B996
330
B8D5
100
AcDbEntity
  8
1
  6
Continuous
100
AcDbCircle
 10
187.499955
 20
342.582222
 30
0.0
 40
8.5
100
AcDbArc
 50
180.0
 51
270.0
  0
LINE
  5
B997
330
B8D5
100
AcDbEntity
  8
4
  6
CENTER
100
AcDbLine
 10
187.499955
 20
335.3322219999999
 30
0.0
 11
187.499955
 21
349.8322219999997
 31
0.0
  0
CIRCLE
  5
B998
330
B8D5
100
AcDbEntity
  8
1
  6
Continuous
100
AcDbCircle
 10
187.499955
 20
342.582222
 30
0.0
 40
4.25
  0
LINE
  5
B999
330
B8D5
100
AcDbEntity
  8
4
  6
CENTER
100
AcDbLine
 10
194.749955
 20
342.582222
 30
0.0
 11
180.249955
 21
342.582222
 31
0.0
  0
LINE
  5
B99A
330
B8D5
100
AcDbEntity
  8
4
  6
CENTER
100
AcDbLine
 10
194.749955
 20
417.5822219999998
 30
0.0
 11
180.249955
 21
417.5822219999998
 31
0.0
  0
CIRCLE
  5
B99B
330
B8D5
100
AcDbEntity
  8
1
  6
Continuous
100
AcDbCircle
 10
187.499955
 20
417.5822219999998
 30
0.0
 40
4.25
  0
LINE
  5
B99C
330
B8D5
100
AcDbEntity
  8
1
  6
Continuous
100
AcDbLine
 10
262.499955
 20
426.082226
 30
0.0
 11
187.499955
 21
426.082226
 31
0.0
  0
LINE
  5
B99D
330
B8D5
100
AcDbEntity
  8
4
  6
CENTER
100
AcDbLine
 10
71.0
 20
192.8776169999999
 30
0.0
 11
71.0
 21
190.0411129999999
 31
0.0
  0
LINE
  5
B99E
330
B8D5
100
AcDbEntity
  8
4
  6
CENTER
100
AcDbLine
 10
95.929839
 20
224.5411129999999
 30
0.0
 11
47.08211799999999
 21
224.5411129999999
 31
0.0
  0
LINE
  5
B99F
330
B8D5
100
AcDbEntity
  8
1
  6
Continuous
100
AcDbLine
 10
65.703843
 20
264.2411129999999
 30
0.0
 11
67.88176700000001
 21
266.4190379999999
 31
0.0
  0
LINE
  5
B9A0
330
B8D5
100
AcDbEntity
  8
1
  6
Continuous
100
AcDbLine
 10
67.88176700000001
 20
264.2411129999999
 30
0.0
 11
65.703843
 21
266.4190379999999
 31
0.0
  0
LINE
  5
B9A1
330
B8D5
100
AcDbEntity
  8
1
  6
Continuous
100
AcDbLine
 10
114.0
 20
271.2411169999999
 30
0.0
 11
28.0
 21
271.2411169999999
 31
0.0
  0
ARC
  5
B9A2
330
B8D5
100
AcDbEntity
  8
1
  6
Continuous
100
AcDbCircle
 10
71.0
 20
233.0411129999998
 30
0.0
 40
40.0
100
AcDbArc
 50
256.4810919999998
 51
283.518908
  0
ARC
  5
B9A3
330
B8D5
100
AcDbEntity
  8
1
  6
Continuous
100
AcDbCircle
 10
71.0
 20
216.0411129999999
 30
0.0
 40
40.0
100
AcDbArc
 50
76.481092
 51
103.5189079999999
  0
LINE
  5
B9A4
330
B8D5
100
AcDbEntity
  8
1
  6
Continuous
100
AcDbLine
 10
85.995789
 20
261.957687
 30
0.0
 11
56.0
 21
261.957687
 31
0.0
  0
LINE
  5
B9A5
330
B8D5
100
AcDbEntity
  8
1
  6
Continuous
100
AcDbLine
 10
93.662863
 20
266.4190379999999
 30
0.0
 11
48.33786299999999
 21
266.4190379999999
 31
0.0
  0
LINE
  5
B9A6
330
B8D5
100
AcDbEntity
  8
1
  6
Continuous
100
AcDbLine
 10
93.93286299999996
 20
268.404037
 30
0.0
 11
48.882863
 21
268.404037
 31
0.0
  0
LINE
  5
B9A7
330
B8D5
100
AcDbEntity
  8
1
  6
Continuous
100
AcDbLine
 10
26.5
 20
271.7411169999999
 30
0.0
 11
117.000004
 21
271.7411169999999
 31
0.0
  0
LINE
  5
B9A8
330
B8D5
100
AcDbEntity
  8
1
  6
Continuous
100
AcDbLine
 10
92.93264
 20
269.6411109999999
 30
0.0
 11
49.019943
 21
269.6411109999999
 31
0.0
  0
LINE
  5
B9A9
330
B8D5
100
AcDbEntity
  8
1
  6
Continuous
100
AcDbLine
 10
25.0
 20
274.041113
 30
0.0
 11
117.000004
 21
274.041113
 31
0.0
  0
LINE
  5
B9AA
330
B8D5
100
AcDbEntity
  8
1
  6
Continuous
100
AcDbLine
 10
48.33786299999999
 20
264.2411129999999
 30
0.0
 11
93.662863
 21
264.2411129999999
 31
0.0
  0
LINE
  5
B9AB
330
B8D5
100
AcDbEntity
  8
4
  6
CENTER
100
AcDbLine
 10
71.0
 20
276.24829
 30
0.0
 11
71.0
 21
193.0411129999999
 31
0.0
  0
LINE
  5
B9AC
330
B8D5
100
AcDbEntity
  8
1
  6
Continuous
100
AcDbLine
 10
84.0
 20
237.0426129999999
 30
0.0
 11
81.5
 21
240.612983
 31
0.0
  0
LINE
  5
B9AD
330
B8D5
100
AcDbEntity
  8
1
  6
Continuous
100
AcDbLine
 10
81.5
 20
253.474387
 30
0.0
 11
81.5
 21
195.6078389999999
 31
0.0
  0
LINE
  5
B9AE
330
B8D5
100
AcDbEntity
  8
1
  6
Continuous
100
AcDbLine
 10
89.50000000000001
 20
255.5411129999999
 30
0.0
 11
88.67049799999998
 21
215.941113
 31
0.0
  0
LINE
  5
B9AF
330
B8D5
100
AcDbEntity
  8
1
  6
Continuous
100
AcDbLine
 10
87.19034399999998
 20
255.0801449999999
 30
0.0
 11
86.37049799999998
 21
215.941113
 31
0.0
  0
LINE
  5
B9B0
330
B8D5
100
AcDbEntity
  8
1
  6
Continuous
100
AcDbLine
 10
85.5
 20
216.5411129999998
 30
0.0
 11
84.0
 21
215.041113
 31
0.0
  0
LINE
  5
B9B1
330
B8D5
100
AcDbEntity
  8
1
  6
Continuous
100
AcDbLine
 10
84.0
 20
237.0426129999999
 30
0.0
 11
84.0
 21
212.039613
 31
0.0
  0
LINE
  5
B9B2
330
B8D5
100
AcDbEntity
  8
1
  6
Continuous
100
AcDbLine
 10
84.0
 20
212.039613
 30
0.0
 11
81.5
 21
208.469243
 31
0.0
  0
ARC
  5
B9B3
330
B8D5
100
AcDbEntity
  8
1
  6
Continuous
100
AcDbCircle
 10
80.0
 20
195.6078389999999
 30
0.0
 40
1.5
100
AcDbArc
 50
283.518908
 51
0.0
  0
LINE
  5
B9B4
330
B8D5
100
AcDbEntity
  8
1
  6
Continuous
100
AcDbLine
 10
50.685716
 20
230.291113
 30
0.0
 11
50.685716
 21
218.7911129999999
 31
0.0
  0
ARC
  5
B9B5
330
B8D5
100
AcDbEntity
  8
1
  6
Continuous
100
AcDbCircle
 10
59.47135799999998
 20
224.5411129999999
 30
0.0
 40
10.5
100
AcDbArc
 50
146.796177
 51
213.203823
  0
LINE
  5
B9B6
330
B8D5
100
AcDbEntity
  8
1
  6
Continuous
100
AcDbLine
 10
85.5
 20
216.5411129999998
 30
0.0
 11
85.5
 21
232.5411129999999
 31
0.0
  0
LINE
  5
B9B7
330
B8D5
100
AcDbEntity
  8
1
  6
Continuous
100
AcDbLine
 10
52.97135799999999
 20
220.5411129999998
 30
0.0
 11
53.23314599999999
 21
220.5411129999998
 31
0.0
  0
LINE
  5
B9B8
330
B8D5
100
AcDbEntity
  8
1
  6
Continuous
100
AcDbLine
 10
50.685716
 20
218.7911129999999
 30
0.0
 11
52.97135799999999
 21
218.7911129999999
 31
0.0
  0
LINE
  5
B9B9
330
B8D5
100
AcDbEntity
  8
1
  6
Continuous
100
AcDbLine
 10
86.466854
 20
220.5411129999998
 30
0.0
 11
85.5
 21
220.5411129999998
 31
0.0
  0
LINE
  5
B9BA
330
B8D5
100
AcDbEntity
  8
1
  6
Continuous
100
AcDbLine
 10
85.5
 20
232.5411129999999
 30
0.0
 11
84.0
 21
234.041113
 31
0.0
  0
LINE
  5
B9BB
330
B8D5
100
AcDbEntity
  8
1
  6
Continuous
100
AcDbLine
 10
50.685716
 20
230.291113
 30
0.0
 11
52.97135799999999
 21
230.291113
 31
0.0
  0
LINE
  5
B9BC
330
B8D5
100
AcDbEntity
  8
1
  6
Continuous
100
AcDbLine
 10
52.97135799999999
 20
228.5411129999999
 30
0.0
 11
53.06556999999999
 21
228.5411129999999
 31
0.0
  0
LINE
  5
B9BD
330
B8D5
100
AcDbEntity
  8
1
  6
Continuous
100
AcDbLine
 10
86.63442999999999
 20
228.5411129999999
 30
0.0
 11
85.5
 21
228.5411129999999
 31
0.0
  0
LINE
  5
B9BE
330
B8D5
100
AcDbEntity
  8
1
  6
Continuous
100
AcDbLine
 10
117.000004
 20
271.7411169999999
 30
0.0
 11
117.000004
 21
274.041113
 31
0.0
  0
LINE
  5
B9BF
330
B8D5
100
AcDbEntity
  8
4
  6
CENTER
100
AcDbLine
 10
108.4999999999999
 20
268.7409609999999
 30
0.0
 11
108.4999999999999
 21
276.24829
 31
0.0
  0
ARC
  5
B9C0
330
B8D5
100
AcDbEntity
  8
1
  6
Continuous
100
AcDbCircle
 10
114.0
 20
273.7411169999999
 30
0.0
 40
2.5
100
AcDbArc
 50
270.0
 51
306.869904
  0
ARC
  5
B9C1
330
B8D5
100
AcDbEntity
  8
1
  6
Continuous
100
AcDbCircle
 10
85.995789
 20
258.457687
 30
0.0
 40
3.5
100
AcDbArc
 50
0.0
 51
90.0
  0
ARC
  5
B9C2
330
B8D5
100
AcDbEntity
  8
1
  6
Continuous
100
AcDbCircle
 10
91.15
 20
260.2411129999999
 30
0.0
 40
4.0
100
AcDbArc
 50
0.0
 51
90.0
  0
LINE
  5
B9C3
330
B8D5
100
AcDbEntity
  8
1
  6
Continuous
100
AcDbLine
 10
89.495789
 20
255.34011
 30
0.0
 11
89.495789
 21
258.457687
 31
0.0
  0
ARC
  5
B9C4
330
B8D5
100
AcDbEntity
  8
1
  6
Continuous
100
AcDbCircle
 10
80.0
 20
253.474387
 30
0.0
 40
1.5
100
AcDbArc
 50
0.0
 51
76.481092
  0
LINE
  5
B9C5
330
B8D5
100
AcDbEntity
  8
1
  6
Continuous
100
AcDbLine
 10
81.26019199999998
 20
264.2411129999999
 30
0.0
 11
83.43811599999998
 21
266.4190379999999
 31
0.0
  0
LINE
  5
B9C6
330
B8D5
100
AcDbEntity
  8
1
  6
Continuous
100
AcDbLine
 10
82.67440499999997
 20
264.2411129999999
 30
0.0
 11
84.85232999999999
 21
266.4190379999999
 31
0.0
  0
LINE
  5
B9C7
330
B8D5
100
AcDbEntity
  8
1
  6
Continuous
100
AcDbLine
 10
83.43811599999998
 20
264.2411129999999
 30
0.0
 11
81.26019199999998
 21
266.4190379999999
 31
0.0
  0
LINE
  5
B9C8
330
B8D5
100
AcDbEntity
  8
1
  6
Continuous
100
AcDbLine
 10
84.85232999999999
 20
264.2411129999999
 30
0.0
 11
82.67440499999997
 21
266.4190379999999
 31
0.0
  0
LINE
  5
B9C9
330
B8D5
100
AcDbEntity
  8
1
  6
Continuous
100
AcDbLine
 10
89.74547300000002
 20
264.2411129999999
 30
0.0
 11
91.92339799999999
 21
266.4190379999999
 31
0.0
  0
LINE
  5
B9CA
330
B8D5
100
AcDbEntity
  8
1
  6
Continuous
100
AcDbLine
 10
91.15968700000001
 20
264.2411129999999
 30
0.0
 11
93.337611
 21
266.4190379999999
 31
0.0
  0
LINE
  5
B9CB
330
B8D5
100
AcDbEntity
  8
1
  6
Continuous
100
AcDbLine
 10
91.92339799999999
 20
264.2411129999999
 30
0.0
 11
89.74547300000002
 21
266.4190379999999
 31
0.0
  0
LINE
  5
B9CC
330
B8D5
100
AcDbEntity
  8
1
  6
Continuous
100
AcDbLine
 10
93.337611
 20
264.2411129999999
 30
0.0
 11
91.15968700000001
 21
266.4190379999999
 31
0.0
  0
ARC
  5
B9CD
330
B8D5
100
AcDbEntity
  8
1
  6
Continuous
100
AcDbCircle
 10
90.331381
 20
269.9542649999999
 30
0.0
 40
4.697225
100
AcDbArc
 50
317.4697509999999
 51
333.713305
  0
LINE
  5
B9CE
330
B8D5
100
AcDbEntity
  8
1
  6
Continuous
100
AcDbLine
 10
92.57389999999999
 20
264.2411129999999
 30
0.0
 11
93.662863
 21
265.330075
 31
0.0
  0
LINE
  5
B9CF
330
B8D5
100
AcDbEntity
  8
1
  6
Continuous
100
AcDbLine
 10
92.57389999999999
 20
266.4190379999999
 30
0.0
 11
93.662863
 21
265.330075
 31
0.0
  0
LINE
  5
B9D0
330
B8D5
100
AcDbEntity
  8
1
  6
Continuous
100
AcDbLine
 10
93.662863
 20
266.4190379999999
 30
0.0
 11
93.662863
 21
264.2411129999999
 31
0.0
  0
LINE
  5
B9D1
330
B8D5
100
AcDbEntity
  8
1
  6
Continuous
100
AcDbLine
 10
93.792863
 20
266.779038
 30
0.0
 11
93.662863
 21
266.4190379999999
 31
0.0
  0
ARC
  5
B9D2
330
B8D5
100
AcDbEntity
  8
1
  6
Continuous
100
AcDbCircle
 10
92.98005600000001
 20
273.6411109999999
 30
0.0
 40
4.0
100
AcDbArc
 50
269.99762
 51
323.1302119999999
  0
ARC
  5
B9D3
330
B8D5
100
AcDbEntity
  8
1
  6
Continuous
100
AcDbCircle
 10
88.08343800000001
 20
264.910212
 30
0.0
 40
6.206012999999998
100
AcDbArc
 50
38.387915
 51
49.668171
  0
LINE
  5
B9D4
330
B8D5
100
AcDbEntity
  8
1
  6
Continuous
100
AcDbLine
 10
93.11786299999999
 20
268.404037
 30
0.0
 11
92.947863
 21
268.764037
 31
0.0
  0
ARC
  5
B9D5
330
B8D5
100
AcDbEntity
  8
1
  6
Continuous
100
AcDbCircle
 10
93.66889200000001
 20
267.484185
 30
0.0
 40
0.9569799999999998
100
AcDbArc
 50
24.04026499999999
 51
73.98808699999998
  0
LINE
  5
B9D6
330
B8D5
100
AcDbEntity
  8
1
  6
Continuous
100
AcDbLine
 10
85.502832
 20
264.2411129999999
 30
0.0
 11
87.680757
 21
266.4190379999999
 31
0.0
  0
LINE
  5
B9D7
330
B8D5
100
AcDbEntity
  8
1
  6
Continuous
100
AcDbLine
 10
86.91704599999999
 20
264.2411129999999
 30
0.0
 11
89.09497100000001
 21
266.4190379999999
 31
0.0
  0
LINE
  5
B9D8
330
B8D5
100
AcDbEntity
  8
1
  6
Continuous
100
AcDbLine
 10
87.680757
 20
264.2411129999999
 30
0.0
 11
85.502832
 21
266.4190379999999
 31
0.0
  0
LINE
  5
B9D9
330
B8D5
100
AcDbEntity
  8
1
  6
Continuous
100
AcDbLine
 10
89.09497100000001
 20
264.2411129999999
 30
0.0
 11
86.91704599999999
 21
266.4190379999999
 31
0.0
  0
LINE
  5
B9DA
330
B8D5
100
AcDbEntity
  8
1
  6
Continuous
100
AcDbLine
 10
88.33126
 20
264.2411129999999
 30
0.0
 11
90.50918399999996
 21
266.4190379999999
 31
0.0
  0
LINE
  5
B9DB
330
B8D5
100
AcDbEntity
  8
1
  6
Continuous
100
AcDbLine
 10
90.50918399999996
 20
264.2411129999999
 30
0.0
 11
88.33126
 21
266.4190379999999
 31
0.0
  0
LINE
  5
B9DC
330
B8D5
100
AcDbEntity
  8
1
  6
Continuous
100
AcDbLine
 10
84.08861899999998
 20
264.2411129999999
 30
0.0
 11
86.26654399999997
 21
266.4190379999999
 31
0.0
  0
LINE
  5
B9DD
330
B8D5
100
AcDbEntity
  8
1
  6
Continuous
100
AcDbLine
 10
86.26654399999997
 20
264.2411129999999
 30
0.0
 11
84.08861899999998
 21
266.4190379999999
 31
0.0
  0
LINE
  5
B9DE
330
B8D5
100
AcDbEntity
  8
1
  6
Continuous
100
AcDbLine
 10
74.18912399999998
 20
264.2411129999999
 30
0.0
 11
76.36704899999998
 21
266.4190379999999
 31
0.0
  0
LINE
  5
B9DF
330
B8D5
100
AcDbEntity
  8
1
  6
Continuous
100
AcDbLine
 10
76.36704899999998
 20
264.2411129999999
 30
0.0
 11
74.18912399999998
 21
266.4190379999999
 31
0.0
  0
LINE
  5
B9E0
330
B8D5
100
AcDbEntity
  8
1
  6
Continuous
100
AcDbLine
 10
77.01755099999998
 20
264.2411129999999
 30
0.0
 11
79.195476
 21
266.4190379999999
 31
0.0
  0
LINE
  5
B9E1
330
B8D5
100
AcDbEntity
  8
1
  6
Continuous
100
AcDbLine
 10
78.431765
 20
264.2411129999999
 30
0.0
 11
80.609689
 21
266.4190379999999
 31
0.0
  0
LINE
  5
B9E2
330
B8D5
100
AcDbEntity
  8
1
  6
Continuous
100
AcDbLine
 10
79.195476
 20
264.2411129999999
 30
0.0
 11
77.01755099999998
 21
266.4190379999999
 31
0.0
  0
LINE
  5
B9E3
330
B8D5
100
AcDbEntity
  8
1
  6
Continuous
100
AcDbLine
 10
80.609689
 20
264.2411129999999
 30
0.0
 11
78.431765
 21
266.4190379999999
 31
0.0
  0
LINE
  5
B9E4
330
B8D5
100
AcDbEntity
  8
1
  6
Continuous
100
AcDbLine
 10
79.845978
 20
264.2411129999999
 30
0.0
 11
82.02390300000002
 21
266.4190379999999
 31
0.0
  0
LINE
  5
B9E5
330
B8D5
100
AcDbEntity
  8
1
  6
Continuous
100
AcDbLine
 10
82.02390300000002
 20
264.2411129999999
 30
0.0
 11
79.845978
 21
266.4190379999999
 31
0.0
  0
LINE
  5
B9E6
330
B8D5
100
AcDbEntity
  8
1
  6
Continuous
100
AcDbLine
 10
75.60333699999998
 20
264.2411129999999
 30
0.0
 11
77.78126199999999
 21
266.4190379999999
 31
0.0
  0
LINE
  5
B9E7
330
B8D5
100
AcDbEntity
  8
1
  6
Continuous
100
AcDbLine
 10
77.78126199999999
 20
264.2411129999999
 30
0.0
 11
75.60333699999998
 21
266.4190379999999
 31
0.0
  0
LINE
  5
B9E8
330
B8D5
100
AcDbEntity
  8
1
  6
Continuous
100
AcDbLine
 10
69.946483
 20
264.2411129999999
 30
0.0
 11
72.124408
 21
266.4190379999999
 31
0.0
  0
LINE
  5
B9E9
330
B8D5
100
AcDbEntity
  8
1
  6
Continuous
100
AcDbLine
 10
72.124408
 20
264.2411129999999
 30
0.0
 11
69.946483
 21
266.4190379999999
 31
0.0
  0
LINE
  5
B9EA
330
B8D5
100
AcDbEntity
  8
1
  6
Continuous
100
AcDbLine
 10
71.360697
 20
264.2411129999999
 30
0.0
 11
73.538622
 21
266.4190379999999
 31
0.0
  0
LINE
  5
B9EB
330
B8D5
100
AcDbEntity
  8
1
  6
Continuous
100
AcDbLine
 10
72.77490999999997
 20
264.2411129999999
 30
0.0
 11
74.95283499999998
 21
266.4190379999999
 31
0.0
  0
LINE
  5
B9EC
330
B8D5
100
AcDbEntity
  8
1
  6
Continuous
100
AcDbLine
 10
73.538622
 20
264.2411129999999
 30
0.0
 11
71.360697
 21
266.4190379999999
 31
0.0
  0
LINE
  5
B9ED
330
B8D5
100
AcDbEntity
  8
1
  6
Continuous
100
AcDbLine
 10
74.95283499999998
 20
264.2411129999999
 30
0.0
 11
72.77490999999997
 21
266.4190379999999
 31
0.0
  0
LINE
  5
B9EE
330
B8D5
100
AcDbEntity
  8
1
  6
Continuous
100
AcDbLine
 10
67.11805600000001
 20
264.2411129999999
 30
0.0
 11
69.29598100000001
 21
266.4190379999999
 31
0.0
  0
LINE
  5
B9EF
330
B8D5
100
AcDbEntity
  8
1
  6
Continuous
100
AcDbLine
 10
68.53227
 20
264.2411129999999
 30
0.0
 11
70.710194
 21
266.4190379999999
 31
0.0
  0
LINE
  5
B9F0
330
B8D5
100
AcDbEntity
  8
1
  6
Continuous
100
AcDbLine
 10
69.29598100000001
 20
264.2411129999999
 30
0.0
 11
67.11805600000001
 21
266.4190379999999
 31
0.0
  0
LINE
  5
B9F1
330
B8D5
100
AcDbEntity
  8
1
  6
Continuous
100
AcDbLine
 10
70.710194
 20
264.2411129999999
 30
0.0
 11
68.53227
 21
266.4190379999999
 31
0.0
  0
LINE
  5
B9F2
330
B8D5
100
AcDbEntity
  8
1
  6
Continuous
100
AcDbLine
 10
58.0
 20
237.0426129999999
 30
0.0
 11
60.5
 21
240.612983
 31
0.0
  0
LINE
  5
B9F3
330
B8D5
100
AcDbEntity
  8
1
  6
Continuous
100
AcDbLine
 10
60.5
 20
253.474387
 30
0.0
 11
60.5
 21
195.6078389999999
 31
0.0
  0
LINE
  5
B9F4
330
B8D5
100
AcDbEntity
  8
1
  6
Continuous
100
AcDbLine
 10
52.5
 20
255.5411129999999
 30
0.0
 11
53.32950199999999
 21
215.941113
 31
0.0
  0
LINE
  5
B9F5
330
B8D5
100
AcDbEntity
  8
1
  6
Continuous
100
AcDbLine
 10
54.80965600000001
 20
255.0801449999999
 30
0.0
 11
55.629502
 21
215.941113
 31
0.0
  0
LINE
  5
B9F6
330
B8D5
100
AcDbEntity
  8
1
  6
Continuous
100
AcDbLine
 10
56.5
 20
216.5411129999998
 30
0.0
 11
58.0
 21
215.041113
 31
0.0
  0
LINE
  5
B9F7
330
B8D5
100
AcDbEntity
  8
1
  6
Continuous
100
AcDbLine
 10
58.0
 20
237.0426129999999
 30
0.0
 11
58.0
 21
212.039613
 31
0.0
  0
ARC
  5
B9F8
330
B8D5
100
AcDbEntity
  8
1
  6
Continuous
100
AcDbCircle
 10
62.0
 20
195.6078389999999
 30
0.0
 40
1.5
100
AcDbArc
 50
180.0
 51
256.4810919999998
  0
LINE
  5
B9F9
330
B8D5
100
AcDbEntity
  8
1
  6
Continuous
100
AcDbLine
 10
58.0
 20
212.039613
 30
0.0
 11
60.5
 21
208.469243
 31
0.0
  0
ARC
  5
B9FA
330
B8D5
100
AcDbEntity
  8
1
  6
Continuous
100
AcDbCircle
 10
81.765427
 20
224.7000029999999
 30
0.0
 40
9.08699
100
AcDbArc
 50
325.408429
 51
32.191571
  0
LINE
  5
B9FB
330
B8D5
100
AcDbEntity
  8
1
  6
Continuous
100
AcDbLine
 10
89.455488
 20
229.541113
 30
0.0
 11
89.24601700000001
 21
219.541113
 31
0.0
  0
LINE
  5
B9FC
330
B8D5
100
AcDbEntity
  8
1
  6
Continuous
100
AcDbLine
 10
56.5
 20
232.5411129999999
 30
0.0
 11
56.5
 21
216.5411129999998
 31
0.0
  0
LINE
  5
B9FD
330
B8D5
100
AcDbEntity
  8
1
  6
Continuous
100
AcDbLine
 10
56.5
 20
220.5411129999998
 30
0.0
 11
55.53314499999999
 21
220.5411129999998
 31
0.0
  0
LINE
  5
B9FE
330
B8D5
100
AcDbEntity
  8
1
  6
Continuous
100
AcDbLine
 10
88.745908
 20
219.541113
 30
0.0
 11
89.24601700000001
 21
219.541113
 31
0.0
  0
LINE
  5
B9FF
330
B8D5
100
AcDbEntity
  8
1
  6
Continuous
100
AcDbLine
 10
56.5
 20
232.5411129999999
 30
0.0
 11
58.0
 21
234.041113
 31
0.0
  0
LINE
  5
BA00
330
B8D5
100
AcDbEntity
  8
1
  6
Continuous
100
AcDbLine
 10
56.5
 20
228.5411129999999
 30
0.0
 11
55.36556899999999
 21
228.5411129999999
 31
0.0
  0
LINE
  5
BA01
330
B8D5
100
AcDbEntity
  8
1
  6
Continuous
100
AcDbLine
 10
88.95537799999997
 20
229.541113
 30
0.0
 11
89.455488
 21
229.541113
 31
0.0
  0
ARC
  5
BA02
330
B8D5
100
AcDbEntity
  8
1
  6
Continuous
100
AcDbCircle
 10
56.00421
 20
258.457687
 30
0.0
 40
3.5
100
AcDbArc
 50
90.0
 51
180.0
  0
ARC
  5
BA03
330
B8D5
100
AcDbEntity
  8
1
  6
Continuous
100
AcDbCircle
 10
50.85
 20
260.2411129999999
 30
0.0
 40
4.0
100
AcDbArc
 50
90.0
 51
180.0
  0
ARC
  5
BA04
330
B8D5
100
AcDbEntity
  8
1
  6
Continuous
100
AcDbCircle
 10
62.0
 20
253.474387
 30
0.0
 40
1.5
100
AcDbArc
 50
103.5189079999999
 51
180.0
  0
LINE
  5
BA05
330
B8D5
100
AcDbEntity
  8
1
  6
Continuous
100
AcDbLine
 10
52.50421
 20
255.34011
 30
0.0
 11
52.50421
 21
258.457687
 31
0.0
  0
LINE
  5
BA06
330
B8D5
100
AcDbEntity
  8
1
  6
Continuous
100
AcDbLine
 10
48.73328
 20
264.2411129999999
 30
0.0
 11
50.91120499999998
 21
266.4190379999999
 31
0.0
  0
LINE
  5
BA07
330
B8D5
100
AcDbEntity
  8
1
  6
Continuous
100
AcDbLine
 10
50.147493
 20
264.2411129999999
 30
0.0
 11
52.32541799999999
 21
266.4190379999999
 31
0.0
  0
LINE
  5
BA08
330
B8D5
100
AcDbEntity
  8
1
  6
Continuous
100
AcDbLine
 10
50.91120499999998
 20
264.2411129999999
 30
0.0
 11
48.73328
 21
266.4190379999999
 31
0.0
  0
LINE
  5
BA09
330
B8D5
100
AcDbEntity
  8
1
  6
Continuous
100
AcDbLine
 10
52.32541799999999
 20
264.2411129999999
 30
0.0
 11
50.147493
 21
266.4190379999999
 31
0.0
  0
LINE
  5
BA0A
330
B8D5
100
AcDbEntity
  8
1
  6
Continuous
100
AcDbLine
 10
57.218561
 20
264.2411129999999
 30
0.0
 11
59.39648599999999
 21
266.4190379999999
 31
0.0
  0
LINE
  5
BA0B
330
B8D5
100
AcDbEntity
  8
1
  6
Continuous
100
AcDbLine
 10
59.39648599999999
 20
264.2411129999999
 30
0.0
 11
57.218561
 21
266.4190379999999
 31
0.0
  0
LINE
  5
BA0C
330
B8D5
100
AcDbEntity
  8
1
  6
Continuous
100
AcDbLine
 10
61.461202
 20
264.2411129999999
 30
0.0
 11
63.639127
 21
266.4190379999999
 31
0.0
  0
LINE
  5
BA0D
330
B8D5
100
AcDbEntity
  8
1
  6
Continuous
100
AcDbLine
 10
63.639127
 20
264.2411129999999
 30
0.0
 11
61.461202
 21
266.4190379999999
 31
0.0
  0
LINE
  5
BA0E
330
B8D5
100
AcDbEntity
  8
1
  6
Continuous
100
AcDbLine
 10
62.87541499999999
 20
264.2411129999999
 30
0.0
 11
65.05334000000001
 21
266.4190379999999
 31
0.0
  0
LINE
  5
BA0F
330
B8D5
100
AcDbEntity
  8
1
  6
Continuous
100
AcDbLine
 10
64.28962900000001
 20
264.2411129999999
 30
0.0
 11
66.467554
 21
266.4190379999999
 31
0.0
  0
LINE
  5
BA10
330
B8D5
100
AcDbEntity
  8
1
  6
Continuous
100
AcDbLine
 10
65.05334000000001
 20
264.2411129999999
 30
0.0
 11
62.87541499999999
 21
266.4190379999999
 31
0.0
  0
LINE
  5
BA11
330
B8D5
100
AcDbEntity
  8
1
  6
Continuous
100
AcDbLine
 10
66.467554
 20
264.2411129999999
 30
0.0
 11
64.28962900000001
 21
266.4190379999999
 31
0.0
  0
LINE
  5
BA12
330
B8D5
100
AcDbEntity
  8
1
  6
Continuous
100
AcDbLine
 10
58.632775
 20
264.2411129999999
 30
0.0
 11
60.810699
 21
266.4190379999999
 31
0.0
  0
LINE
  5
BA13
330
B8D5
100
AcDbEntity
  8
1
  6
Continuous
100
AcDbLine
 10
60.04698799999999
 20
264.2411129999999
 30
0.0
 11
62.224913
 21
266.4190379999999
 31
0.0
  0
LINE
  5
BA14
330
B8D5
100
AcDbEntity
  8
1
  6
Continuous
100
AcDbLine
 10
60.810699
 20
264.2411129999999
 30
0.0
 11
58.632775
 21
266.4190379999999
 31
0.0
  0
LINE
  5
BA15
330
B8D5
100
AcDbEntity
  8
1
  6
Continuous
100
AcDbLine
 10
62.224913
 20
264.2411129999999
 30
0.0
 11
60.04698799999999
 21
266.4190379999999
 31
0.0
  0
LINE
  5
BA16
330
B8D5
100
AcDbEntity
  8
1
  6
Continuous
100
AcDbLine
 10
52.97591999999998
 20
264.2411129999999
 30
0.0
 11
55.15384499999999
 21
266.4190379999999
 31
0.0
  0
LINE
  5
BA17
330
B8D5
100
AcDbEntity
  8
1
  6
Continuous
100
AcDbLine
 10
54.390134
 20
264.2411129999999
 30
0.0
 11
56.568059
 21
266.4190379999999
 31
0.0
  0
LINE
  5
BA18
330
B8D5
100
AcDbEntity
  8
1
  6
Continuous
100
AcDbLine
 10
55.15384499999999
 20
264.2411129999999
 30
0.0
 11
52.97591999999998
 21
266.4190379999999
 31
0.0
  0
LINE
  5
BA19
330
B8D5
100
AcDbEntity
  8
1
  6
Continuous
100
AcDbLine
 10
56.568059
 20
264.2411129999999
 30
0.0
 11
54.390134
 21
266.4190379999999
 31
0.0
  0
LINE
  5
BA1A
330
B8D5
100
AcDbEntity
  8
1
  6
Continuous
100
AcDbLine
 10
55.80434799999999
 20
264.2411129999999
 30
0.0
 11
57.98227199999999
 21
266.4190379999999
 31
0.0
  0
LINE
  5
BA1B
330
B8D5
100
AcDbEntity
  8
1
  6
Continuous
100
AcDbLine
 10
57.98227199999999
 20
264.2411129999999
 30
0.0
 11
55.80434799999999
 21
266.4190379999999
 31
0.0
  0
LINE
  5
BA1C
330
B8D5
100
AcDbEntity
  8
1
  6
Continuous
100
AcDbLine
 10
51.561707
 20
264.2411129999999
 30
0.0
 11
53.73963199999999
 21
266.4190379999999
 31
0.0
  0
LINE
  5
BA1D
330
B8D5
100
AcDbEntity
  8
1
  6
Continuous
100
AcDbLine
 10
53.73963199999999
 20
264.2411129999999
 30
0.0
 11
51.561707
 21
266.4190379999999
 31
0.0
  0
ARC
  5
BA1E
330
B8D5
100
AcDbEntity
  8
1
  6
Continuous
100
AcDbCircle
 10
51.66934499999999
 20
269.9542649999999
 30
0.0
 40
4.697225
100
AcDbArc
 50
206.286695
 51
222.530249
  0
LINE
  5
BA1F
330
B8D5
100
AcDbEntity
  8
1
  6
Continuous
100
AcDbLine
 10
48.33786299999999
 20
265.2599099999998
 30
0.0
 11
49.496991
 21
266.4190379999999
 31
0.0
  0
LINE
  5
BA20
330
B8D5
100
AcDbEntity
  8
1
  6
Continuous
100
AcDbLine
 10
49.496991
 20
264.2411129999999
 30
0.0
 11
48.33786299999999
 21
265.4002409999999
 31
0.0
  0
LINE
  5
BA21
330
B8D5
100
AcDbEntity
  8
1
  6
Continuous
100
AcDbLine
 10
48.33786299999999
 20
266.4190379999999
 30
0.0
 11
48.33786299999999
 21
264.2411129999999
 31
0.0
  0
LINE
  5
BA22
330
B8D5
100
AcDbEntity
  8
1
  6
Continuous
100
AcDbLine
 10
48.207863
 20
266.779038
 30
0.0
 11
48.33786299999999
 21
266.4190379999999
 31
0.0
  0
ARC
  5
BA23
330
B8D5
100
AcDbEntity
  8
1
  6
Continuous
100
AcDbCircle
 10
49.019943
 20
273.6411109999999
 30
0.0
 40
4.0
100
AcDbArc
 50
216.8697879999997
 51
270.0023799999997
  0
ARC
  5
BA24
330
B8D5
100
AcDbEntity
  8
1
  6
Continuous
100
AcDbCircle
 10
53.917288
 20
264.910212
 30
0.0
 40
6.206012999999998
100
AcDbArc
 50
130.3317199999999
 51
141.612085
  0
LINE
  5
BA25
330
B8D5
100
AcDbEntity
  8
1
  6
Continuous
100
AcDbLine
 10
48.882863
 20
268.404037
 30
0.0
 11
49.052863
 21
268.764037
 31
0.0
  0
LINE
  5
BA26
330
B8D5
100
AcDbEntity
  8
1
  6
Continuous
100
AcDbLine
 10
48.067863
 20
268.404037
 30
0.0
 11
48.882863
 21
268.404037
 31
0.0
  0
ARC
  5
BA27
330
B8D5
100
AcDbEntity
  8
1
  6
Continuous
100
AcDbCircle
 10
48.331834
 20
267.484185
 30
0.0
 40
0.9569799999999998
100
AcDbArc
 50
106.011913
 51
155.9597349999999
  0
LINE
  5
BA28
330
B8D5
100
AcDbEntity
  8
4
  6
CENTER
100
AcDbLine
 10
33.5
 20
268.7409609999999
 30
0.0
 11
33.5
 21
276.020799
 31
0.0
  0
LINE
  5
BA29
330
B8D5
100
AcDbEntity
  8
1
  6
Continuous
100
AcDbLine
 10
25.0
 20
271.7411169999999
 30
0.0
 11
25.0
 21
274.041113
 31
0.0
  0
LINE
  5
BA2A
330
B8D5
100
AcDbEntity
  8
1
  6
Continuous
100
AcDbLine
 10
25.0
 20
271.7411169999999
 30
0.0
 11
26.5
 21
271.7411169999999
 31
0.0
  0
ARC
  5
BA2B
330
B8D5
100
AcDbEntity
  8
1
  6
Continuous
100
AcDbCircle
 10
28.0
 20
273.7411169999999
 30
0.0
 40
2.5
100
AcDbArc
 50
233.130096
 51
270.0
  0
ARC
  5
BA2C
330
B8D5
100
AcDbEntity
  8
1
  6
Continuous
100
AcDbCircle
 10
187.499955
 20
417.582226
 30
0.0
 40
8.5
100
AcDbArc
 50
90.0
 51
180.0
  0
LINE
  5
BA2D
330
B8D5
100
AcDbEntity
  8
2
  6
Continuous
100
AcDbLine
 10
254.812
 20
214.5411129999998
 30
0.0
 11
254.812
 21
229.741117
 31
0.0
  0
LINE
  5
BA2E
330
B8D5
100
AcDbEntity
  8
2
  6
Continuous
100
AcDbLine
 10
263.1879999999998
 20
214.5411129999998
 30
0.0
 11
263.1879999999998
 21
229.741117
 31
0.0
  0
LINE
  5
BA2F
330
B8D5
100
AcDbEntity
  8
1
  6
Continuous
100
AcDbLine
 10
254.0
 20
229.741117
 30
0.0
 11
254.0
 21
211.541113
 31
0.0
  0
LINE
  5
BA30
330
B8D5
100
AcDbEntity
  8
1
  6
Continuous
100
AcDbLine
 10
264.0
 20
229.741117
 30
0.0
 11
264.0
 21
211.541113
 31
0.0
  0
LINE
  5
BA31
330
B8D5
100
AcDbEntity
  8
1
  6
Continuous
100
AcDbLine
 10
276.25
 20
193.0411129999999
 30
0.0
 11
241.7499999999999
 21
193.0411129999999
 31
0.0
  0
LINE
  5
BA32
330
B8D5
100
AcDbEntity
  8
1
  6
Continuous
100
AcDbLine
 10
274.85
 20
205.5411129999999
 30
0.0
 11
243.15
 21
205.5411129999999
 31
0.0
  0
LINE
  5
BA33
330
B8D5
100
AcDbEntity
  8
1
  6
Continuous
100
AcDbLine
 10
277.85
 20
199.5411129999999
 30
0.0
 11
240.1499999999999
 21
199.5411129999999
 31
0.0
  0
LINE
  5
BA34
330
B8D5
100
AcDbEntity
  8
1
  6
Continuous
100
AcDbLine
 10
240.1499999999999
 20
199.5411129999999
 30
0.0
 11
240.1499999999999
 21
202.541113
 31
0.0
  0
LINE
  5
BA35
330
B8D5
100
AcDbEntity
  8
1
  6
Continuous
100
AcDbLine
 10
241.7499999999999
 20
199.5411129999999
 30
0.0
 11
241.7499999999999
 21
193.0411129999999
 31
0.0
  0
ARC
  5
BA36
330
B8D5
100
AcDbEntity
  8
1
  6
Continuous
100
AcDbCircle
 10
243.15
 20
202.541113
 30
0.0
 40
3.0
100
AcDbArc
 50
90.0
 51
180.0
  0
ARC
  5
BA37
330
B8D5
100
AcDbEntity
  8
1
  6
Continuous
100
AcDbCircle
 10
274.85
 20
202.541113
 30
0.0
 40
3.0
100
AcDbArc
 50
0.0
 51
90.0
  0
LINE
  5
BA38
330
B8D5
100
AcDbEntity
  8
1
  6
Continuous
100
AcDbLine
 10
264.0
 20
214.5411129999998
 30
0.0
 11
254.0
 21
214.5411129999998
 31
0.0
  0
LINE
  5
BA39
330
B8D5
100
AcDbEntity
  8
1
  6
Continuous
100
AcDbLine
 10
269.4999999999997
 20
206.0411129999998
 30
0.0
 11
248.4999999999998
 21
206.0411129999998
 31
0.0
  0
LINE
  5
BA3A
330
B8D5
100
AcDbEntity
  8
1
  6
Continuous
100
AcDbLine
 10
266.25
 20
206.541113
 30
0.0
 11
251.75
 21
206.541113
 31
0.0
  0
ARC
  5
BA3B
330
B8D5
100
AcDbEntity
  8
1
  6
Continuous
100
AcDbCircle
 10
259.0
 20
217.1661129999999
 30
0.0
 40
10.625
100
AcDbArc
 50
244.942385
 51
295.057615
  0
LINE
  5
BA3C
330
B8D5
100
AcDbEntity
  8
1
  6
Continuous
100
AcDbLine
 10
269.0
 20
211.541113
 30
0.0
 11
249.0
 21
211.541113
 31
0.0
  0
LINE
  5
BA3D
330
B8D5
100
AcDbEntity
  8
2
  6
Continuous
100
AcDbLine
 10
254.0
 20
213.1346879999999
 30
0.0
 11
254.812
 21
214.5411129999998
 31
0.0
  0
LINE
  5
BA3E
330
B8D5
100
AcDbEntity
  8
1
  6
Continuous
100
AcDbLine
 10
248.4999999999998
 20
206.0411129999998
 30
0.0
 11
248.4999999999998
 21
205.5411129999999
 31
0.0
  0
LINE
  5
BA3F
330
B8D5
100
AcDbEntity
  8
1
  6
Continuous
100
AcDbLine
 10
255.5
 20
206.055805
 30
0.0
 11
255.5
 21
206.541113
 31
0.0
  0
ARC
  5
BA40
330
B8D5
100
AcDbEntity
  8
1
  6
Continuous
100
AcDbCircle
 10
251.75
 20
210.8223629999999
 30
0.0
 40
4.28125
100
AcDbArc
 50
230.0337869999999
 51
309.966213
  0
LINE
  5
BA41
330
B8D5
100
AcDbEntity
  8
1
  6
Continuous
100
AcDbLine
 10
254.4999999999999
 20
211.541113
 30
0.0
 11
254.4999999999999
 21
207.5411129999999
 31
0.0
  0
LINE
  5
BA42
330
B8D5
100
AcDbEntity
  8
1
  6
Continuous
100
AcDbLine
 10
249.0
 20
211.541113
 30
0.0
 11
249.0
 21
207.5411129999999
 31
0.0
  0
LINE
  5
BA43
330
B8D5
100
AcDbEntity
  8
2
  6
Continuous
100
AcDbLine
 10
264.0
 20
213.1346879999999
 30
0.0
 11
263.1879999999998
 21
214.5411129999998
 31
0.0
  0
LINE
  5
BA44
330
B8D5
100
AcDbEntity
  8
1
  6
Continuous
100
AcDbLine
 10
269.4999999999997
 20
206.0411129999998
 30
0.0
 11
269.4999999999997
 21
205.5411129999999
 31
0.0
  0
LINE
  5
BA45
330
B8D5
100
AcDbEntity
  8
1
  6
Continuous
100
AcDbLine
 10
262.5
 20
206.541113
 30
0.0
 11
262.5
 21
206.055805
 31
0.0
  0
ARC
  5
BA46
330
B8D5
100
AcDbEntity
  8
1
  6
Continuous
100
AcDbCircle
 10
266.25
 20
210.8223629999999
 30
0.0
 40
4.28125
100
AcDbArc
 50
230.0337869999999
 51
309.966213
  0
LINE
  5
BA47
330
B8D5
100
AcDbEntity
  8
1
  6
Continuous
100
AcDbLine
 10
263.5
 20
211.541113
 30
0.0
 11
263.5
 21
207.5411129999999
 31
0.0
  0
LINE
  5
BA48
330
B8D5
100
AcDbEntity
  8
1
  6
Continuous
100
AcDbLine
 10
269.0
 20
211.541113
 30
0.0
 11
269.0
 21
207.5411129999999
 31
0.0
  0
LINE
  5
BA49
330
B8D5
100
AcDbEntity
  8
1
  6
Continuous
100
AcDbLine
 10
277.85
 20
202.541113
 30
0.0
 11
277.85
 21
199.5411129999999
 31
0.0
  0
LINE
  5
BA4A
330
B8D5
100
AcDbEntity
  8
1
  6
Continuous
100
AcDbLine
 10
276.25
 20
199.5411129999999
 30
0.0
 11
276.25
 21
193.0411129999999
 31
0.0
  0
LINE
  5
BA4B
330
B8D5
100
AcDbEntity
  8
1
  6
Continuous
100
AcDbLine
 10
383.9999099999998
 20
229.741117
 30
0.0
 11
383.9999099999998
 21
211.541113
 31
0.0
  0
LINE
  5
BA4C
330
B8D5
100
AcDbEntity
  8
1
  6
Continuous
100
AcDbLine
 10
373.9999099999999
 20
229.741117
 30
0.0
 11
373.9999099999999
 21
211.541113
 31
0.0
  0
LINE
  5
BA4D
330
B8D5
100
AcDbEntity
  8
2
  6
Continuous
100
AcDbLine
 10
383.18791
 20
214.5411129999998
 30
0.0
 11
383.18791
 21
229.741117
 31
0.0
  0
LINE
  5
BA4E
330
B8D5
100
AcDbEntity
  8
2
  6
Continuous
100
AcDbLine
 10
374.81191
 20
214.5411129999998
 30
0.0
 11
374.81191
 21
229.741117
 31
0.0
  0
ARC
  5
BA4F
330
B8D5
100
AcDbEntity
  8
1
  6
Continuous
100
AcDbCircle
 10
394.84991
 20
202.541113
 30
0.0
 40
3.0
100
AcDbArc
 50
0.0
 51
90.0
  0
LINE
  5
BA50
330
B8D5
100
AcDbEntity
  8
1
  6
Continuous
100
AcDbLine
 10
360.1499099999998
 20
199.5411129999999
 30
0.0
 11
397.84991
 21
199.5411129999999
 31
0.0
  0
LINE
  5
BA51
330
B8D5
100
AcDbEntity
  8
1
  6
Continuous
100
AcDbLine
 10
363.1499099999999
 20
205.5411129999999
 30
0.0
 11
394.84991
 21
205.5411129999999
 31
0.0
  0
LINE
  5
BA52
330
B8D5
100
AcDbEntity
  8
1
  6
Continuous
100
AcDbLine
 10
361.7499099999998
 20
193.0411129999999
 30
0.0
 11
396.24991
 21
193.0411129999999
 31
0.0
  0
LINE
  5
BA53
330
B8D5
100
AcDbEntity
  8
1
  6
Continuous
100
AcDbLine
 10
360.1499099999998
 20
202.541113
 30
0.0
 11
360.1499099999998
 21
199.5411129999999
 31
0.0
  0
LINE
  5
BA54
330
B8D5
100
AcDbEntity
  8
1
  6
Continuous
100
AcDbLine
 10
361.7499099999998
 20
199.5411129999999
 30
0.0
 11
361.7499099999998
 21
193.0411129999999
 31
0.0
  0
ARC
  5
BA55
330
B8D5
100
AcDbEntity
  8
1
  6
Continuous
100
AcDbCircle
 10
363.1499099999999
 20
202.541113
 30
0.0
 40
3.0
100
AcDbArc
 50
90.0
 51
180.0
  0
LINE
  5
BA56
330
B8D5
100
AcDbEntity
  8
1
  6
Continuous
100
AcDbLine
 10
397.84991
 20
199.5411129999999
 30
0.0
 11
397.84991
 21
202.541113
 31
0.0
  0
LINE
  5
BA57
330
B8D5
100
AcDbEntity
  8
1
  6
Continuous
100
AcDbLine
 10
396.24991
 20
199.5411129999999
 30
0.0
 11
396.24991
 21
193.0411129999999
 31
0.0
  0
ARC
  5
BA58
330
B8D5
100
AcDbEntity
  8
1
  6
Continuous
100
AcDbCircle
 10
383.24991
 20
216.072363
 30
0.0
 40
9.53125
100
AcDbArc
 50
243.5189599999999
 51
296.48104
  0
LINE
  5
BA59
330
B8D5
100
AcDbEntity
  8
1
  6
Continuous
100
AcDbLine
 10
387.49991
 20
211.541113
 30
0.0
 11
370.49991
 21
211.541113
 31
0.0
  0
LINE
  5
BA5A
330
B8D5
100
AcDbEntity
  8
1
  6
Continuous
100
AcDbLine
 10
387.49991
 20
206.541113
 30
0.0
 11
370.49991
 21
206.541113
 31
0.0
  0
LINE
  5
BA5B
330
B8D5
100
AcDbEntity
  8
1
  6
Continuous
100
AcDbLine
 10
389.49991
 20
206.0411129999998
 30
0.0
 11
368.49991
 21
206.0411129999998
 31
0.0
  0
LINE
  5
BA5C
330
B8D5
100
AcDbEntity
  8
1
  6
Continuous
100
AcDbLine
 10
383.9999099999998
 20
214.5411129999998
 30
0.0
 11
373.9999099999999
 21
214.5411129999998
 31
0.0
  0
ARC
  5
BA5D
330
B8D5
100
AcDbEntity
  8
1
  6
Continuous
100
AcDbCircle
 10
374.74991
 20
216.072363
 30
0.0
 40
9.53125
100
AcDbArc
 50
243.5189599999999
 51
296.48104
  0
LINE
  5
BA5E
330
B8D5
100
AcDbEntity
  8
1
  6
Continuous
100
AcDbLine
 10
370.49991
 20
206.541113
 30
0.0
 11
370.49991
 21
211.541113
 31
0.0
  0
LINE
  5
BA5F
330
B8D5
100
AcDbEntity
  8
1
  6
Continuous
100
AcDbLine
 10
378.99991
 20
211.541113
 30
0.0
 11
378.99991
 21
207.5411129999999
 31
0.0
  0
LINE
  5
BA60
330
B8D5
100
AcDbEntity
  8
1
  6
Continuous
100
AcDbLine
 10
375.49991
 20
206.055805
 30
0.0
 11
375.49991
 21
206.541113
 31
0.0
  0
LINE
  5
BA61
330
B8D5
100
AcDbEntity
  8
2
  6
Continuous
100
AcDbLine
 10
373.9999099999999
 20
213.1346879999999
 30
0.0
 11
374.81191
 21
214.5411129999998
 31
0.0
  0
LINE
  5
BA62
330
B8D5
100
AcDbEntity
  8
1
  6
Continuous
100
AcDbLine
 10
387.49991
 20
206.541113
 30
0.0
 11
387.49991
 21
211.541113
 31
0.0
  0
LINE
  5
BA63
330
B8D5
100
AcDbEntity
  8
1
  6
Continuous
100
AcDbLine
 10
382.4999099999999
 20
206.541113
 30
0.0
 11
382.4999099999999
 21
206.055805
 31
0.0
  0
LINE
  5
BA64
330
B8D5
100
AcDbEntity
  8
2
  6
Continuous
100
AcDbLine
 10
383.9999099999998
 20
213.1346879999999
 30
0.0
 11
383.18791
 21
214.5411129999998
 31
0.0
  0
ARC
  5
BA65
330
B8D5
100
AcDbEntity
  8
1
  6
Continuous
100
AcDbCircle
 10
378.99991
 20
234.82445
 30
0.0
 40
5.083332999999997
100
AcDbArc
 50
217.340992
 51
322.6590079999998
  0
LINE
  5
BA66
330
B8D5
100
AcDbEntity
  8
1
  6
Continuous
100
AcDbLine
 10
385.062088
 20
229.741117
 30
0.0
 11
372.9377319999999
 21
229.741117
 31
0.0
  0
ARC
  5
BA67
330
B8D5
100
AcDbEntity
  8
1
  6
Continuous
100
AcDbCircle
 10
372.9377319999999
 20
231.76195
 30
0.0
 40
2.020833
100
AcDbArc
 50
236.8756809999999
 51
359.409312
  0
LINE
  5
BA68
330
B8D5
100
AcDbEntity
  8
1
  6
Continuous
100
AcDbLine
 10
371.833433
 20
230.0695289999999
 30
0.0
 11
370.917006
 21
230.5986279999999
 31
0.0
  0
LINE
  5
BA69
330
B8D5
100
AcDbEntity
  8
1
  6
Continuous
100
AcDbLine
 10
374.958458
 20
231.741117
 30
0.0
 11
374.958458
 21
249.2411129999999
 31
0.0
  0
LINE
  5
BA6A
330
B8D5
100
AcDbEntity
  8
1
  6
Continuous
100
AcDbLine
 10
370.917006
 20
230.5986279999999
 30
0.0
 11
370.917006
 21
249.2411129999999
 31
0.0
  0
LINE
  5
BA6B
330
B8D5
100
AcDbEntity
  8
1
  6
Continuous
100
AcDbLine
 10
386.166387
 20
230.0695289999999
 30
0.0
 11
387.082814
 21
230.5986279999999
 31
0.0
  0
ARC
  5
BA6C
330
B8D5
100
AcDbEntity
  8
1
  6
Continuous
100
AcDbCircle
 10
385.062088
 20
231.76195
 30
0.0
 40
2.020833
100
AcDbArc
 50
180.5906879999998
 51
303.124319
  0
LINE
  5
BA6D
330
B8D5
100
AcDbEntity
  8
1
  6
Continuous
100
AcDbLine
 10
383.0413619999998
 20
231.741117
 30
0.0
 11
383.0413619999998
 21
249.2411129999999
 31
0.0
  0
LINE
  5
BA6E
330
B8D5
100
AcDbEntity
  8
1
  6
Continuous
100
AcDbLine
 10
387.082814
 20
230.5986279999999
 30
0.0
 11
387.082814
 21
249.2411129999999
 31
0.0
  0
LINE
  5
BA6F
330
B8D5
100
AcDbEntity
  8
1
  6
Continuous
100
AcDbLine
 10
374.958458
 20
264.2411129999999
 30
0.0
 11
374.958458
 21
271.2411169999999
 31
0.0
  0
LINE
  5
BA70
330
B8D5
100
AcDbEntity
  8
1
  6
Continuous
100
AcDbLine
 10
370.917006
 20
264.2411129999999
 30
0.0
 11
370.917006
 21
271.2411169999999
 31
0.0
  0
LINE
  5
BA71
330
B8D5
100
AcDbEntity
  8
1
  6
Continuous
100
AcDbLine
 10
387.082814
 20
264.2411129999999
 30
0.0
 11
387.082814
 21
271.2411169999999
 31
0.0
  0
LINE
  5
BA72
330
B8D5
100
AcDbEntity
  8
1
  6
Continuous
100
AcDbLine
 10
383.0413619999998
 20
264.2411129999999
 30
0.0
 11
383.0413619999998
 21
271.2411169999999
 31
0.0
  0
LINE
  5
BA73
330
B8D5
100
AcDbEntity
  8
4
  6
CENTER
100
AcDbLine
 10
259.0
 20
400.932222
 30
0.0
 11
259.0
 21
359.2322219999999
 31
0.0
  0
LINE
  5
BA74
330
B8D5
100
AcDbEntity
  8
1
  6
Continuous
100
AcDbLine
 10
178.999955
 20
369.582222
 30
0.0
 11
169.0667259999998
 21
369.582222
 31
0.0
  0
ARC
  5
BA75
330
B8D5
100
AcDbEntity
  8
1
  6
Continuous
100
AcDbCircle
 10
206.4999999999999
 20
380.082222
 30
0.0
 40
40.0
100
AcDbArc
 50
166.4810789999999
 51
193.518921
  0
ARC
  5
BA76
330
B8D5
100
AcDbEntity
  8
1
  6
Continuous
100
AcDbCircle
 10
169.0667259999998
 20
371.082222
 30
0.0
 40
1.5
100
AcDbArc
 50
193.518921
 51
270.0
  0
LINE
  5
BA77
330
B8D5
100
AcDbEntity
  8
1
  6
Continuous
100
AcDbLine
 10
178.999955
 20
390.582222
 30
0.0
 11
169.0667259999998
 21
390.582222
 31
0.0
  0
ARC
  5
BA78
330
B8D5
100
AcDbEntity
  8
1
  6
Continuous
100
AcDbCircle
 10
169.0667259999998
 20
389.082222
 30
0.0
 40
1.5
100
AcDbArc
 50
90.0
 51
166.4810789999999
  0
LINE
  5
BA79
330
B8D5
100
AcDbEntity
  8
1
  6
Continuous
100
AcDbLine
 10
88.817778
 20
215.941113
 30
0.0
 11
86.37049799999998
 21
215.941113
 31
0.0
  0
LINE
  5
BA7A
330
B8D5
100
AcDbEntity
  8
1
  6
Continuous
100
AcDbLine
 10
55.629502
 20
215.941113
 30
0.0
 11
53.18222200000001
 21
215.941113
 31
0.0
  0
ARC
  5
BA7B
330
B8D5
100
AcDbEntity
  8
1
  6
Continuous
100
AcDbCircle
 10
84.690892
 20
255.1325009999999
 30
0.0
 40
2.5
100
AcDbArc
 50
358.8
 51
97.975544
  0
ARC
  5
BA7C
330
B8D5
100
AcDbEntity
  8
1
  6
Continuous
100
AcDbCircle
 10
57.309108
 20
255.1325009999999
 30
0.0
 40
2.5
100
AcDbArc
 50
82.024456
 51
181.1999999999999
  0
ARC
  5
BA7D
330
B8D5
100
AcDbEntity
  8
1
  6
Continuous
100
AcDbCircle
 10
71.0
 20
352.850885
 30
0.0
 40
96.17280800000001
100
AcDbArc
 50
262.0244559999998
 51
277.975544
  0
ARC
  5
BA7E
330
B8D5
100
AcDbEntity
  8
1
  6
Continuous
100
AcDbCircle
 10
84.69104599999999
 20
255.1639009999999
 30
0.0
 40
4.799999999999998
100
AcDbArc
 50
358.8
 51
99.90159900000001
  0
ARC
  5
BA7F
330
B8D5
100
AcDbEntity
  8
1
  6
Continuous
100
AcDbCircle
 10
57.30895400000001
 20
255.1639009999999
 30
0.0
 40
4.799999999999998
100
AcDbArc
 50
80.09840099999998
 51
181.1999999999999
  0
ARC
  5
BA80
330
B8D5
100
AcDbEntity
  8
1
  6
Continuous
100
AcDbCircle
 10
71.0
 20
333.5971279999998
 30
0.0
 40
74.819193
100
AcDbArc
 50
260.0984009999999
 51
279.901599
  0
LINE
  5
BA81
330
B8D5
100
AcDbEntity
  8
1
  6
Continuous
100
AcDbLine
 10
52.97135799999999
 20
218.7911129999999
 30
0.0
 11
52.97135799999999
 21
230.291113
 31
0.0
  0
LINE
  5
BA82
330
B8D5
100
AcDbEntity
  8
1
  6
Continuous
100
AcDbLine
 10
403.1499099999998
 20
260.2411129999999
 30
0.0
 11
403.1499099999998
 21
241.6246239999999
 31
0.0
  0
LINE
  5
BA83
330
B8D5
100
AcDbEntity
  8
1
  6
Continuous
100
AcDbLine
 10
395.044035
 20
248.0997049999998
 30
0.0
 11
394.370408
 21
215.941113
 31
0.0
  0
LINE
  5
BA84
330
B8D5
100
AcDbEntity
  8
1
  6
Continuous
100
AcDbLine
 10
389.49991
 20
249.2411129999999
 30
0.0
 11
389.4999099999998
 21
205.5411129999999
 31
0.0
  0
LINE
  5
BA85
330
B8D5
100
AcDbEntity
  8
1
  6
Continuous
100
AcDbLine
 10
354.84991
 20
260.2411129999999
 30
0.0
 11
354.84991
 21
241.6246239999999
 31
0.0
  0
LINE
  5
BA86
330
B8D5
100
AcDbEntity
  8
1
  6
Continuous
100
AcDbLine
 10
362.9557849999998
 20
248.0997049999998
 30
0.0
 11
363.629412
 21
215.941113
 31
0.0
  0
LINE
  5
BA87
330
B8D5
100
AcDbEntity
  8
1
  6
Continuous
100
AcDbLine
 10
368.49991
 20
249.2411129999999
 30
0.0
 11
368.49991
 21
205.5411129999999
 31
0.0
  0
LINE
  5
BA88
330
B8D5
100
AcDbEntity
  8
4
  6
CENTER
100
AcDbLine
 10
378.99991
 20
276.24829
 30
0.0
 11
378.99991
 21
193.0411129999999
 31
0.0
  0
LINE
  5
BA89
330
B8D5
100
AcDbEntity
  8
1
  6
Continuous
100
AcDbLine
 10
393.49991
 20
228.5411129999999
 30
0.0
 11
394.634341
 21
228.5411129999999
 31
0.0
  0
LINE
  5
BA8A
330
B8D5
100
AcDbEntity
  8
1
  6
Continuous
100
AcDbLine
 10
393.49991
 20
220.5411129999998
 30
0.0
 11
394.4667649999997
 21
220.5411129999998
 31
0.0
  0
LINE
  5
BA8B
330
B8D5
100
AcDbEntity
  8
4
  6
CENTER
100
AcDbLine
 10
354.0700709999999
 20
224.5411129999999
 30
0.0
 11
402.917792
 21
224.5411129999999
 31
0.0
  0
LINE
  5
BA8C
330
B8D5
100
AcDbEntity
  8
1
  6
Continuous
100
AcDbLine
 10
394.370408
 20
215.941113
 30
0.0
 11
396.8176879999999
 21
215.941113
 31
0.0
  0
LINE
  5
BA8D
330
B8D5
100
AcDbEntity
  8
4
  6
CENTER
100
AcDbLine
 10
378.99991
 20
192.8776169999999
 30
0.0
 11
378.99991
 21
190.0411129999999
 31
0.0
  0
LINE
  5
BA8E
330
B8D5
100
AcDbEntity
  8
1
  6
Continuous
100
AcDbLine
 10
361.1821319999998
 20
215.941113
 30
0.0
 11
363.629412
 21
215.941113
 31
0.0
  0
LINE
  5
BA8F
330
B8D5
100
AcDbEntity
  8
1
  6
Continuous
100
AcDbLine
 10
393.49991
 20
232.5411129999999
 30
0.0
 11
393.49991
 21
216.5411129999998
 31
0.0
  0
LINE
  5
BA90
330
B8D5
100
AcDbEntity
  8
1
  6
Continuous
100
AcDbLine
 10
391.99991
 20
237.0426129999999
 30
0.0
 11
391.99991
 21
212.039613
 31
0.0
  0
LINE
  5
BA91
330
B8D5
100
AcDbEntity
  8
1
  6
Continuous
100
AcDbLine
 10
364.49991
 20
216.5411129999998
 30
0.0
 11
364.49991
 21
232.5411129999999
 31
0.0
  0
LINE
  5
BA92
330
B8D5
100
AcDbEntity
  8
1
  6
Continuous
100
AcDbLine
 10
365.99991
 20
237.0426129999999
 30
0.0
 11
365.99991
 21
212.039613
 31
0.0
  0
LINE
  5
BA93
330
B8D5
100
AcDbEntity
  8
1
  6
Continuous
100
AcDbLine
 10
391.99991
 20
212.039613
 30
0.0
 11
389.49991
 21
208.469243
 31
0.0
  0
LINE
  5
BA94
330
B8D5
100
AcDbEntity
  8
1
  6
Continuous
100
AcDbLine
 10
393.49991
 20
216.5411129999998
 30
0.0
 11
391.99991
 21
215.041113
 31
0.0
  0
LINE
  5
BA95
330
B8D5
100
AcDbEntity
  8
1
  6
Continuous
100
AcDbLine
 10
365.99991
 20
212.039613
 30
0.0
 11
368.49991
 21
208.469243
 31
0.0
  0
LINE
  5
BA96
330
B8D5
100
AcDbEntity
  8
1
  6
Continuous
100
AcDbLine
 10
364.49991
 20
216.5411129999998
 30
0.0
 11
365.99991
 21
215.041113
 31
0.0
  0
LINE
  5
BA97
330
B8D5
100
AcDbEntity
  8
1
  6
Continuous
100
AcDbLine
 10
393.49991
 20
232.5411129999999
 30
0.0
 11
391.99991
 21
234.041113
 31
0.0
  0
LINE
  5
BA98
330
B8D5
100
AcDbEntity
  8
1
  6
Continuous
100
AcDbLine
 10
391.99991
 20
237.0426129999999
 30
0.0
 11
389.49991
 21
240.612983
 31
0.0
  0
LINE
  5
BA99
330
B8D5
100
AcDbEntity
  8
1
  6
Continuous
100
AcDbLine
 10
363.3654799999998
 20
228.5411129999999
 30
0.0
 11
364.49991
 21
228.5411129999999
 31
0.0
  0
LINE
  5
BA9A
330
B8D5
100
AcDbEntity
  8
1
  6
Continuous
100
AcDbLine
 10
364.49991
 20
232.5411129999999
 30
0.0
 11
365.99991
 21
234.041113
 31
0.0
  0
LINE
  5
BA9B
330
B8D5
100
AcDbEntity
  8
1
  6
Continuous
100
AcDbLine
 10
363.5330559999999
 20
220.5411129999998
 30
0.0
 11
364.49991
 21
220.5411129999998
 31
0.0
  0
LINE
  5
BA9C
330
B8D5
100
AcDbEntity
  8
1
  6
Continuous
100
AcDbLine
 10
365.99991
 20
237.0426129999999
 30
0.0
 11
368.49991
 21
240.612983
 31
0.0
  0
LINE
  5
BA9D
330
B8D5
100
AcDbEntity
  8
1
  6
Continuous
100
AcDbLine
 10
392.017638
 20
264.2411129999999
 30
0.0
 11
394.1955619999998
 21
266.4190379999999
 31
0.0
  0
LINE
  5
BA9E
330
B8D5
100
AcDbEntity
  8
1
  6
Continuous
100
AcDbLine
 10
394.1955619999998
 20
264.2411129999999
 30
0.0
 11
392.017638
 21
266.4190379999999
 31
0.0
  0
LINE
  5
BA9F
330
B8D5
100
AcDbEntity
  8
1
  6
Continuous
100
AcDbLine
 10
393.431851
 20
264.2411129999999
 30
0.0
 11
395.6097759999997
 21
266.4190379999999
 31
0.0
  0
LINE
  5
BAA0
330
B8D5
100
AcDbEntity
  8
1
  6
Continuous
100
AcDbLine
 10
395.6097759999997
 20
264.2411129999999
 30
0.0
 11
393.431851
 21
266.4190379999999
 31
0.0
  0
LINE
  5
BAA1
330
B8D5
100
AcDbEntity
  8
1
  6
Continuous
100
AcDbLine
 10
401.6620469999998
 20
264.2411129999999
 30
0.0
 11
356.3370469999999
 21
264.2411129999999
 31
0.0
  0
LINE
  5
BAA2
330
B8D5
100
AcDbEntity
  8
1
  6
Continuous
100
AcDbLine
 10
424.9999099999998
 20
274.041113
 30
0.0
 11
332.999906
 21
274.041113
 31
0.0
  0
LINE
  5
BAA3
330
B8D5
100
AcDbEntity
  8
1
  6
Continuous
100
AcDbLine
 10
357.06727
 20
269.6411109999999
 30
0.0
 11
370.917006
 21
269.6411109999999
 31
0.0
  0
LINE
  5
BAA4
330
B8D5
100
AcDbEntity
  8
1
  6
Continuous
100
AcDbLine
 10
423.4999099999998
 20
271.7411169999999
 30
0.0
 11
332.999906
 21
271.7411169999999
 31
0.0
  0
LINE
  5
BAA5
330
B8D5
100
AcDbEntity
  8
1
  6
Continuous
100
AcDbLine
 10
356.067047
 20
268.404037
 30
0.0
 11
370.917006
 21
268.404037
 31
0.0
  0
LINE
  5
BAA6
330
B8D5
100
AcDbEntity
  8
1
  6
Continuous
100
AcDbLine
 10
356.3370469999999
 20
266.4190379999999
 30
0.0
 11
370.917006
 21
266.4190379999999
 31
0.0
  0
LINE
  5
BAA7
330
B8D5
100
AcDbEntity
  8
1
  6
Continuous
100
AcDbLine
 10
335.99991
 20
271.2411169999999
 30
0.0
 11
421.9999099999998
 21
271.2411169999999
 31
0.0
  0
ARC
  5
BAA8
330
B8D5
100
AcDbEntity
  8
1
  6
Continuous
100
AcDbCircle
 10
399.14991
 20
260.2411129999999
 30
0.0
 40
4.0
100
AcDbArc
 50
0.0
 51
90.0
  0
ARC
  5
BAA9
330
B8D5
100
AcDbEntity
  8
1
  6
Continuous
100
AcDbCircle
 10
421.9999099999998
 20
273.7411169999999
 30
0.0
 40
2.5
100
AcDbArc
 50
270.0
 51
306.869904
  0
LINE
  5
BAAA
330
B8D5
100
AcDbEntity
  8
1
  6
Continuous
100
AcDbLine
 10
424.9999099999998
 20
271.7411169999999
 30
0.0
 11
423.4999099999998
 21
271.7411169999999
 31
0.0
  0
LINE
  5
BAAB
330
B8D5
100
AcDbEntity
  8
1
  6
Continuous
100
AcDbLine
 10
424.9999099999998
 20
271.7411169999999
 30
0.0
 11
424.9999099999998
 21
274.041113
 31
0.0
  0
LINE
  5
BAAC
330
B8D5
100
AcDbEntity
  8
4
  6
CENTER
100
AcDbLine
 10
416.49991
 20
268.7409609999999
 30
0.0
 11
416.49991
 21
276.020799
 31
0.0
  0
ARC
  5
BAAD
330
B8D5
100
AcDbEntity
  8
1
  6
Continuous
100
AcDbCircle
 10
401.6680759999998
 20
267.484185
 30
0.0
 40
0.9569799999999998
100
AcDbArc
 50
24.04026499999999
 51
73.98808699999998
  0
LINE
  5
BAAE
330
B8D5
100
AcDbEntity
  8
1
  6
Continuous
100
AcDbLine
 10
401.932047
 20
268.404037
 30
0.0
 11
401.117047
 21
268.404037
 31
0.0
  0
LINE
  5
BAAF
330
B8D5
100
AcDbEntity
  8
1
  6
Continuous
100
AcDbLine
 10
401.117047
 20
268.404037
 30
0.0
 11
400.947047
 21
268.764037
 31
0.0
  0
ARC
  5
BAB0
330
B8D5
100
AcDbEntity
  8
1
  6
Continuous
100
AcDbCircle
 10
396.082622
 20
264.910212
 30
0.0
 40
6.206012999999998
100
AcDbArc
 50
38.387915
 51
49.66827999999999
  0
ARC
  5
BAB1
330
B8D5
100
AcDbEntity
  8
1
  6
Continuous
100
AcDbCircle
 10
400.9799669999998
 20
273.6411109999999
 30
0.0
 40
4.0
100
AcDbArc
 50
269.99762
 51
323.1302119999999
  0
LINE
  5
BAB2
330
B8D5
100
AcDbEntity
  8
1
  6
Continuous
100
AcDbLine
 10
401.7920469999998
 20
266.779038
 30
0.0
 11
401.6620469999998
 21
266.4190379999999
 31
0.0
  0
LINE
  5
BAB3
330
B8D5
100
AcDbEntity
  8
1
  6
Continuous
100
AcDbLine
 10
401.6620469999998
 20
266.4190379999999
 30
0.0
 11
401.6620469999998
 21
264.2411129999999
 31
0.0
  0
LINE
  5
BAB4
330
B8D5
100
AcDbEntity
  8
1
  6
Continuous
100
AcDbLine
 10
400.502919
 20
264.2411129999999
 30
0.0
 11
401.6620469999998
 21
265.4002409999999
 31
0.0
  0
LINE
  5
BAB5
330
B8D5
100
AcDbEntity
  8
1
  6
Continuous
100
AcDbLine
 10
401.6620469999998
 20
265.2599099999998
 30
0.0
 11
400.502919
 21
266.4190379999999
 31
0.0
  0
ARC
  5
BAB6
330
B8D5
100
AcDbEntity
  8
1
  6
Continuous
100
AcDbCircle
 10
398.3305649999999
 20
269.9542649999999
 30
0.0
 40
4.697225
100
AcDbArc
 50
317.4697509999999
 51
333.713305
  0
LINE
  5
BAB7
330
B8D5
100
AcDbEntity
  8
1
  6
Continuous
100
AcDbLine
 10
396.2602779999999
 20
264.2411129999999
 30
0.0
 11
398.4382029999999
 21
266.4190379999999
 31
0.0
  0
LINE
  5
BAB8
330
B8D5
100
AcDbEntity
  8
1
  6
Continuous
100
AcDbLine
 10
398.4382029999999
 20
264.2411129999999
 30
0.0
 11
396.2602779999999
 21
266.4190379999999
 31
0.0
  0
LINE
  5
BAB9
330
B8D5
100
AcDbEntity
  8
1
  6
Continuous
100
AcDbLine
 10
394.846065
 20
264.2411129999999
 30
0.0
 11
397.0239899999999
 21
266.4190379999999
 31
0.0
  0
LINE
  5
BABA
330
B8D5
100
AcDbEntity
  8
1
  6
Continuous
100
AcDbLine
 10
397.0239899999999
 20
264.2411129999999
 30
0.0
 11
394.846065
 21
266.4190379999999
 31
0.0
  0
LINE
  5
BABB
330
B8D5
100
AcDbEntity
  8
1
  6
Continuous
100
AcDbLine
 10
397.6744919999999
 20
264.2411129999999
 30
0.0
 11
399.8524169999998
 21
266.4190379999999
 31
0.0
  0
LINE
  5
BABC
330
B8D5
100
AcDbEntity
  8
1
  6
Continuous
100
AcDbLine
 10
399.0887049999998
 20
264.2411129999999
 30
0.0
 11
401.2666299999998
 21
266.4190379999999
 31
0.0
  0
LINE
  5
BABD
330
B8D5
100
AcDbEntity
  8
1
  6
Continuous
100
AcDbLine
 10
399.8524169999998
 20
264.2411129999999
 30
0.0
 11
397.6744919999999
 21
266.4190379999999
 31
0.0
  0
LINE
  5
BABE
330
B8D5
100
AcDbEntity
  8
1
  6
Continuous
100
AcDbLine
 10
401.2666299999998
 20
264.2411129999999
 30
0.0
 11
399.0887049999998
 21
266.4190379999999
 31
0.0
  0
LINE
  5
BABF
330
B8D5
100
AcDbEntity
  8
1
  6
Continuous
100
AcDbLine
 10
360.904939
 20
264.2411129999999
 30
0.0
 11
363.0828639999998
 21
266.4190379999999
 31
0.0
  0
LINE
  5
BAC0
330
B8D5
100
AcDbEntity
  8
1
  6
Continuous
100
AcDbLine
 10
363.0828639999998
 20
264.2411129999999
 30
0.0
 11
360.904939
 21
266.4190379999999
 31
0.0
  0
LINE
  5
BAC1
330
B8D5
100
AcDbEntity
  8
1
  6
Continuous
100
AcDbLine
 10
387.7749969999999
 20
264.2411129999999
 30
0.0
 11
389.952922
 21
266.4190379999999
 31
0.0
  0
LINE
  5
BAC2
330
B8D5
100
AcDbEntity
  8
1
  6
Continuous
100
AcDbLine
 10
389.189211
 20
264.2411129999999
 30
0.0
 11
391.367135
 21
266.4190379999999
 31
0.0
  0
LINE
  5
BAC3
330
B8D5
100
AcDbEntity
  8
1
  6
Continuous
100
AcDbLine
 10
389.952922
 20
264.2411129999999
 30
0.0
 11
387.7749969999999
 21
266.4190379999999
 31
0.0
  0
LINE
  5
BAC4
330
B8D5
100
AcDbEntity
  8
1
  6
Continuous
100
AcDbLine
 10
391.367135
 20
264.2411129999999
 30
0.0
 11
389.189211
 21
266.4190379999999
 31
0.0
  0
LINE
  5
BAC5
330
B8D5
100
AcDbEntity
  8
1
  6
Continuous
100
AcDbLine
 10
387.082814
 20
264.9631439999997
 30
0.0
 11
388.538708
 21
266.4190379999999
 31
0.0
  0
LINE
  5
BAC6
330
B8D5
100
AcDbEntity
  8
1
  6
Continuous
100
AcDbLine
 10
388.538708
 20
264.2411129999999
 30
0.0
 11
387.082814
 21
265.6970069999999
 31
0.0
  0
LINE
  5
BAC7
330
B8D5
100
AcDbEntity
  8
1
  6
Continuous
100
AcDbLine
 10
390.603424
 20
264.2411129999999
 30
0.0
 11
392.7813489999999
 21
266.4190379999999
 31
0.0
  0
LINE
  5
BAC8
330
B8D5
100
AcDbEntity
  8
1
  6
Continuous
100
AcDbLine
 10
392.7813489999999
 20
264.2411129999999
 30
0.0
 11
390.603424
 21
266.4190379999999
 31
0.0
  0
LINE
  5
BAC9
330
B8D5
100
AcDbEntity
  8
1
  6
Continuous
100
AcDbLine
 10
367.9760069999999
 20
264.2411129999999
 30
0.0
 11
370.153932
 21
266.4190379999999
 31
0.0
  0
LINE
  5
BACA
330
B8D5
100
AcDbEntity
  8
1
  6
Continuous
100
AcDbLine
 10
370.153932
 20
264.2411129999999
 30
0.0
 11
367.9760069999999
 21
266.4190379999999
 31
0.0
  0
LINE
  5
BACB
330
B8D5
100
AcDbEntity
  8
1
  6
Continuous
100
AcDbLine
 10
369.390221
 20
264.2411129999999
 30
0.0
 11
370.917006
 21
265.7678989999999
 31
0.0
  0
LINE
  5
BACC
330
B8D5
100
AcDbEntity
  8
1
  6
Continuous
100
AcDbLine
 10
370.917006
 20
264.8922519999999
 30
0.0
 11
369.390221
 21
266.4190379999999
 31
0.0
  0
LINE
  5
BACD
330
B8D5
100
AcDbEntity
  8
1
  6
Continuous
100
AcDbLine
 10
363.7333659999998
 20
264.2411129999999
 30
0.0
 11
365.911291
 21
266.4190379999999
 31
0.0
  0
LINE
  5
BACE
330
B8D5
100
AcDbEntity
  8
1
  6
Continuous
100
AcDbLine
 10
365.911291
 20
264.2411129999999
 30
0.0
 11
363.7333659999998
 21
266.4190379999999
 31
0.0
  0
LINE
  5
BACF
330
B8D5
100
AcDbEntity
  8
1
  6
Continuous
100
AcDbLine
 10
362.3191529999999
 20
264.2411129999999
 30
0.0
 11
364.4970779999999
 21
266.4190379999999
 31
0.0
  0
LINE
  5
BAD0
330
B8D5
100
AcDbEntity
  8
1
  6
Continuous
100
AcDbLine
 10
364.4970779999999
 20
264.2411129999999
 30
0.0
 11
362.3191529999999
 21
266.4190379999999
 31
0.0
  0
LINE
  5
BAD1
330
B8D5
100
AcDbEntity
  8
1
  6
Continuous
100
AcDbLine
 10
365.14758
 20
264.2411129999999
 30
0.0
 11
367.3255049999998
 21
266.4190379999999
 31
0.0
  0
LINE
  5
BAD2
330
B8D5
100
AcDbEntity
  8
1
  6
Continuous
100
AcDbLine
 10
366.561794
 20
264.2411129999999
 30
0.0
 11
368.739718
 21
266.4190379999999
 31
0.0
  0
LINE
  5
BAD3
330
B8D5
100
AcDbEntity
  8
1
  6
Continuous
100
AcDbLine
 10
367.3255049999998
 20
264.2411129999999
 30
0.0
 11
365.14758
 21
266.4190379999999
 31
0.0
  0
LINE
  5
BAD4
330
B8D5
100
AcDbEntity
  8
1
  6
Continuous
100
AcDbLine
 10
368.739718
 20
264.2411129999999
 30
0.0
 11
366.561794
 21
266.4190379999999
 31
0.0
  0
ARC
  5
BAD5
330
B8D5
100
AcDbEntity
  8
1
  6
Continuous
100
AcDbCircle
 10
358.84991
 20
260.2411129999999
 30
0.0
 40
4.0
100
AcDbArc
 50
90.0
 51
180.0
  0
LINE
  5
BAD6
330
B8D5
100
AcDbEntity
  8
1
  6
Continuous
100
AcDbLine
 10
359.4907259999998
 20
264.2411129999999
 30
0.0
 11
361.66865
 21
266.4190379999999
 31
0.0
  0
LINE
  5
BAD7
330
B8D5
100
AcDbEntity
  8
1
  6
Continuous
100
AcDbLine
 10
361.66865
 20
264.2411129999999
 30
0.0
 11
359.4907259999998
 21
266.4190379999999
 31
0.0
  0
ARC
  5
BAD8
330
B8D5
100
AcDbEntity
  8
1
  6
Continuous
100
AcDbCircle
 10
356.3310179999998
 20
267.484185
 30
0.0
 40
0.9569799999999998
100
AcDbArc
 50
106.011913
 51
155.9597349999999
  0
LINE
  5
BAD9
330
B8D5
100
AcDbEntity
  8
1
  6
Continuous
100
AcDbLine
 10
356.8820469999997
 20
268.404037
 30
0.0
 11
357.052047
 21
268.764037
 31
0.0
  0
ARC
  5
BADA
330
B8D5
100
AcDbEntity
  8
1
  6
Continuous
100
AcDbCircle
 10
361.916472
 20
264.910212
 30
0.0
 40
6.206012999999998
100
AcDbArc
 50
130.3318289999999
 51
141.612085
  0
ARC
  5
BADB
330
B8D5
100
AcDbEntity
  8
1
  6
Continuous
100
AcDbCircle
 10
357.019854
 20
273.6411109999999
 30
0.0
 40
4.0
100
AcDbArc
 50
216.8697879999997
 51
270.0023799999997
  0
LINE
  5
BADC
330
B8D5
100
AcDbEntity
  8
1
  6
Continuous
100
AcDbLine
 10
356.207047
 20
266.779038
 30
0.0
 11
356.3370469999999
 21
266.4190379999999
 31
0.0
  0
LINE
  5
BADD
330
B8D5
100
AcDbEntity
  8
1
  6
Continuous
100
AcDbLine
 10
356.3370469999999
 20
266.4190379999999
 30
0.0
 11
356.3370469999999
 21
264.2411129999999
 31
0.0
  0
LINE
  5
BADE
330
B8D5
100
AcDbEntity
  8
1
  6
Continuous
100
AcDbLine
 10
357.42601
 20
266.4190379999999
 30
0.0
 11
356.3370469999999
 21
265.330075
 31
0.0
  0
LINE
  5
BADF
330
B8D5
100
AcDbEntity
  8
1
  6
Continuous
100
AcDbLine
 10
357.42601
 20
264.2411129999999
 30
0.0
 11
356.3370469999999
 21
265.330075
 31
0.0
  0
ARC
  5
BAE0
330
B8D5
100
AcDbEntity
  8
1
  6
Continuous
100
AcDbCircle
 10
359.6685289999999
 20
269.9542649999999
 30
0.0
 40
4.697225
100
AcDbArc
 50
206.286695
 51
222.530249
  0
LINE
  5
BAE1
330
B8D5
100
AcDbEntity
  8
1
  6
Continuous
100
AcDbLine
 10
356.662299
 20
264.2411129999999
 30
0.0
 11
358.8402229999999
 21
266.4190379999999
 31
0.0
  0
LINE
  5
BAE2
330
B8D5
100
AcDbEntity
  8
1
  6
Continuous
100
AcDbLine
 10
358.0765119999999
 20
264.2411129999999
 30
0.0
 11
360.2544369999998
 21
266.4190379999999
 31
0.0
  0
LINE
  5
BAE3
330
B8D5
100
AcDbEntity
  8
1
  6
Continuous
100
AcDbLine
 10
358.8402229999999
 20
264.2411129999999
 30
0.0
 11
356.662299
 21
266.4190379999999
 31
0.0
  0
LINE
  5
BAE4
330
B8D5
100
AcDbEntity
  8
1
  6
Continuous
100
AcDbLine
 10
360.2544369999998
 20
264.2411129999999
 30
0.0
 11
358.0765119999999
 21
266.4190379999999
 31
0.0
  0
ARC
  5
BAE5
330
B8D5
100
AcDbEntity
  8
1
  6
Continuous
100
AcDbCircle
 10
335.99991
 20
273.7411169999999
 30
0.0
 40
2.5
100
AcDbArc
 50
233.130096
 51
270.0
  0
LINE
  5
BAE6
330
B8D5
100
AcDbEntity
  8
4
  6
CENTER
100
AcDbLine
 10
341.49991
 20
268.7409609999999
 30
0.0
 11
341.49991
 21
276.24829
 31
0.0
  0
LINE
  5
BAE7
330
B8D5
100
AcDbEntity
  8
1
  6
Continuous
100
AcDbLine
 10
332.999906
 20
271.7411169999999
 30
0.0
 11
332.999906
 21
274.041113
 31
0.0
  0
LINE
  5
BAE8
330
B8D5
100
AcDbEntity
  8
1
  6
Continuous
100
AcDbLine
 10
395.810375
 20
249.2411129999999
 30
0.0
 11
362.1894449999999
 21
249.2411129999999
 31
0.0
  0
ARC
  5
BAE9
330
B8D5
100
AcDbEntity
  8
1
  6
Continuous
100
AcDbCircle
 10
385.9999099999998
 20
260.2411129999999
 30
0.0
 40
4.0
100
AcDbArc
 50
0.0
 51
90.0
  0
LINE
  5
BAEA
330
B8D5
100
AcDbEntity
  8
1
  6
Continuous
100
AcDbLine
 10
389.99991
 20
260.2411129999999
 30
0.0
 11
389.99991
 21
249.2411129999999
 31
0.0
  0
ARC
  5
BAEB
330
B8D5
100
AcDbEntity
  8
1
  6
Continuous
100
AcDbCircle
 10
371.9999099999999
 20
260.2411129999999
 30
0.0
 40
4.0
100
AcDbArc
 50
90.0
 51
180.0
  0
LINE
  5
BAEC
330
B8D5
100
AcDbEntity
  8
1
  6
Continuous
100
AcDbLine
 10
367.9999099999998
 20
260.2411129999999
 30
0.0
 11
367.9999099999998
 21
249.2411129999999
 31
0.0
  0
LINE
  5
BAED
330
B8D5
100
AcDbEntity
  8
1
  6
Continuous
100
AcDbLine
 10
387.082814
 20
269.6411109999999
 30
0.0
 11
400.9799669999998
 21
269.6411109999999
 31
0.0
  0
LINE
  5
BAEE
330
B8D5
100
AcDbEntity
  8
1
  6
Continuous
100
AcDbLine
 10
387.082814
 20
268.404037
 30
0.0
 11
401.117047
 21
268.404037
 31
0.0
  0
LINE
  5
BAEF
330
B8D5
100
AcDbEntity
  8
1
  6
Continuous
100
AcDbLine
 10
387.082814
 20
266.4190379999999
 30
0.0
 11
401.6620469999998
 21
266.4190379999999
 31
0.0
  0
ARC
  5
BAF0
330
B8D5
100
AcDbEntity
  8
1
  6
Continuous
100
AcDbCircle
 10
207.8729159999999
 20
220.4411129999999
 30
0.0
 40
4.5
100
AcDbArc
 50
270.0
 51
330.5524679999999
  0
ARC
  5
BAF1
330
B8D5
100
AcDbEntity
  8
1
  6
Continuous
100
AcDbCircle
 10
239.808337
 20
231.241113
 30
0.0
 40
18.0
100
AcDbArc
 50
90.0
 51
150.552468
  0
ARC
  5
BAF2
330
B8D5
100
AcDbEntity
  8
1
  6
Continuous
100
AcDbCircle
 10
423.752857
 20
241.6246239999999
 30
0.0
 40
68.902947
100
AcDbArc
 50
180.0
 51
200.7320479999999
  0
ARC
  5
BAF3
330
B8D5
100
AcDbEntity
  8
1
  6
Continuous
100
AcDbCircle
 10
334.246963
 20
241.6246239999999
 30
0.0
 40
68.902947
100
AcDbArc
 50
339.267952
 51
0.0
  0
ARC
  5
BAF4
330
B8D5
100
AcDbEntity
  8
1
  6
Continuous
100
AcDbCircle
 10
396.8176879999999
 20
217.941113
 30
0.0
 40
2.0
100
AcDbArc
 50
270.0
 51
339.267952
  0
ARC
  5
BAF5
330
B8D5
100
AcDbEntity
  8
1
  6
Continuous
100
AcDbCircle
 10
361.1821319999998
 20
217.941113
 30
0.0
 40
2.0
100
AcDbArc
 50
200.7320479999999
 51
270.0
  0
ARC
  5
BAF6
330
B8D5
100
AcDbEntity
  8
1
  6
Continuous
100
AcDbCircle
 10
334.246963
 20
241.6246239999999
 30
0.0
 40
66.602947
100
AcDbArc
 50
338.1939609999997
 51
357.0575939999998
  0
ARC
  5
BAF7
330
B8D5
100
AcDbEntity
  8
1
  6
Continuous
100
AcDbCircle
 10
423.752857
 20
241.6246239999999
 30
0.0
 40
66.602947
100
AcDbArc
 50
182.942406
 51
201.806039
  0
ARC
  5
BAF8
330
B8D5
100
AcDbEntity
  8
1
  6
Continuous
100
AcDbCircle
 10
363.308242
 20
217.441113
 30
0.0
 40
1.5
100
AcDbArc
 50
201.806039
 51
270.0
  0
ARC
  5
BAF9
330
B8D5
100
AcDbEntity
  8
1
  6
Continuous
100
AcDbCircle
 10
394.6915779999998
 20
217.441113
 30
0.0
 40
1.5
100
AcDbArc
 50
270.0
 51
338.1939609999997
  0
ARC
  5
BAFA
330
B8D5
100
AcDbEntity
  8
1
  6
Continuous
100
AcDbCircle
 10
367.723874
 20
238.7447419999999
 30
0.0
 40
10.5
100
AcDbArc
 50
88.49356899999998
 51
182.942406
  0
ARC
  5
BAFB
330
B8D5
100
AcDbEntity
  8
1
  6
Continuous
100
AcDbCircle
 10
367.723874
 20
238.7447419999999
 30
0.0
 40
12.8
100
AcDbArc
 50
135.1976789999999
 51
182.942406
  0
ARC
  5
BAFC
330
B8D5
100
AcDbEntity
  8
1
  6
Continuous
100
AcDbCircle
 10
362.1894449999999
 20
244.2411129999999
 30
0.0
 40
5.0
100
AcDbArc
 50
90.0
 51
135.1976789999999
  0
ARC
  5
BAFD
330
B8D5
100
AcDbEntity
  8
1
  6
Continuous
100
AcDbCircle
 10
390.275946
 20
238.7447419999999
 30
0.0
 40
10.5
100
AcDbArc
 50
357.0575939999998
 51
91.50643100000001
  0
ARC
  5
BAFE
330
B8D5
100
AcDbEntity
  8
1
  6
Continuous
100
AcDbCircle
 10
395.810375
 20
244.2411129999999
 30
0.0
 40
5.0
100
AcDbArc
 50
44.802321
 51
90.0
  0
ARC
  5
BAFF
330
B8D5
100
AcDbEntity
  8
1
  6
Continuous
100
AcDbCircle
 10
390.275946
 20
238.7447419999999
 30
0.0
 40
12.8
100
AcDbArc
 50
357.0575939999998
 51
44.802321
  0
LINE
  5
BB00
330
B8D5
100
AcDbEntity
  8
1
  6
Continuous
100
AcDbLine
 10
46.85
 20
260.2411129999999
 30
0.0
 11
46.85
 21
241.6246239999999
 31
0.0
  0
LINE
  5
BB01
330
B8D5
100
AcDbEntity
  8
1
  6
Continuous
100
AcDbLine
 10
95.15
 20
260.2411129999999
 30
0.0
 11
95.15
 21
241.6246239999999
 31
0.0
  0
ARC
  5
BB02
330
B8D5
100
AcDbEntity
  8
1
  6
Continuous
100
AcDbCircle
 10
26.247053
 20
241.6246239999999
 30
0.0
 40
68.902947
100
AcDbArc
 50
339.267952
 51
0.0
  0
ARC
  5
BB03
330
B8D5
100
AcDbEntity
  8
1
  6
Continuous
100
AcDbCircle
 10
115.7529469999999
 20
241.6246239999999
 30
0.0
 40
68.902947
100
AcDbArc
 50
180.0
 51
194.2564509999997
  0
ARC
  5
BB04
330
B8D5
100
AcDbEntity
  8
1
  6
Continuous
100
AcDbCircle
 10
53.18222200000001
 20
217.941113
 30
0.0
 40
2.0
100
AcDbArc
 50
200.7320479999999
 51
270.0
  0
ARC
  5
BB05
330
B8D5
100
AcDbEntity
  8
1
  6
Continuous
100
AcDbCircle
 10
88.817778
 20
217.941113
 30
0.0
 40
2.0
100
AcDbArc
 50
270.0
 51
339.267952
  0
ARC
  5
BB06
330
B8D5
100
AcDbEntity
  8
1
  6
Continuous
100
AcDbCircle
 10
115.7529469999999
 20
241.6246239999999
 30
0.0
 40
68.902947
100
AcDbArc
 50
199.3529559999998
 51
200.7320479999999
  0
ARC
  5
BB07
330
B8D5
100
AcDbEntity
  8
1
  6
Continuous
100
AcDbCircle
 10
390.5286419999998
 20
224.5411129999999
 30
0.0
 40
10.5
100
AcDbArc
 50
326.7961769999997
 51
0.631053
  0
LINE
  5
BB08
330
B8D5
100
AcDbEntity
  8
1
  6
Continuous
100
AcDbLine
 10
399.3142839999999
 20
218.956147
 30
0.0
 11
399.3142839999999
 21
218.7911129999999
 31
0.0
  0
LINE
  5
BB09
330
B8D5
100
AcDbEntity
  8
1
  6
Continuous
100
AcDbLine
 10
399.3142839999999
 20
218.7911129999999
 30
0.0
 11
399.256554
 21
218.7911129999999
 31
0.0
  0
LINE
  5
BB0A
330
B8D5
100
AcDbEntity
  8
1
  6
Continuous
100
AcDbLine
 10
52.15009000000002
 20
199.5411129999999
 30
0.0
 11
52.15009000000002
 21
202.541113
 31
0.0
  0
LINE
  5
BB0B
330
B8D5
100
AcDbEntity
  8
1
  6
Continuous
100
AcDbLine
 10
88.25008999999999
 20
193.0411129999999
 30
0.0
 11
53.75009
 21
193.0411129999999
 31
0.0
  0
LINE
  5
BB0C
330
B8D5
100
AcDbEntity
  8
1
  6
Continuous
100
AcDbLine
 10
89.85009000000003
 20
199.5411129999999
 30
0.0
 11
81.5
 21
199.5411129999999
 31
0.0
  0
LINE
  5
BB0D
330
B8D5
100
AcDbEntity
  8
1
  6
Continuous
100
AcDbLine
 10
53.75009
 20
199.5411129999999
 30
0.0
 11
53.75009
 21
193.0411129999999
 31
0.0
  0
LINE
  5
BB0E
330
B8D5
100
AcDbEntity
  8
1
  6
Continuous
100
AcDbLine
 10
86.85008999999999
 20
205.5411129999999
 30
0.0
 11
81.5
 21
205.5411129999999
 31
0.0
  0
ARC
  5
BB0F
330
B8D5
100
AcDbEntity
  8
1
  6
Continuous
100
AcDbCircle
 10
55.15009
 20
202.541113
 30
0.0
 40
3.0
100
AcDbArc
 50
90.0
 51
180.0
  0
LINE
  5
BB10
330
B8D5
100
AcDbEntity
  8
1
  6
Continuous
100
AcDbLine
 10
89.85009000000003
 20
202.541113
 30
0.0
 11
89.85009000000003
 21
199.5411129999999
 31
0.0
  0
LINE
  5
BB11
330
B8D5
100
AcDbEntity
  8
1
  6
Continuous
100
AcDbLine
 10
88.25008999999999
 20
199.5411129999999
 30
0.0
 11
88.25008999999999
 21
193.0411129999999
 31
0.0
  0
ARC
  5
BB12
330
B8D5
100
AcDbEntity
  8
1
  6
Continuous
100
AcDbCircle
 10
86.85008999999999
 20
202.541113
 30
0.0
 40
3.0
100
AcDbArc
 50
0.0
 51
90.0
  0
LINE
  5
BB13
330
B8D5
100
AcDbEntity
  8
1
  6
Continuous
100
AcDbLine
 10
60.5
 20
205.5411129999999
 30
0.0
 11
55.15009
 21
205.5411129999999
 31
0.0
  0
LINE
  5
BB14
330
B8D5
100
AcDbEntity
  8
1
  6
Continuous
100
AcDbLine
 10
60.5
 20
199.5411129999999
 30
0.0
 11
52.15009000000002
 21
199.5411129999999
 31
0.0
  0
LINE
  5
BB15
330
B8D5
100
AcDbEntity
  8
1
  6
Continuous
100
AcDbLine
 10
82.55207199999999
 20
249.2411129999999
 30
0.0
 11
81.5
 21
249.2411129999999
 31
0.0
  0
LINE
  5
BB16
330
B8D5
100
AcDbEntity
  8
1
  6
Continuous
100
AcDbLine
 10
60.5
 20
249.2411129999999
 30
0.0
 11
59.447928
 21
249.2411129999999
 31
0.0
  0
ARC
  5
BB17
330
B8D5
100
AcDbEntity
  8
1
  6
Continuous
100
AcDbCircle
 10
82.276036
 20
238.7447419999999
 30
0.0
 40
10.5
100
AcDbArc
 50
62.992722
 51
91.50643100000001
  0
ARC
  5
BB18
330
B8D5
100
AcDbEntity
  8
1
  6
Continuous
100
AcDbCircle
 10
59.723964
 20
238.7447419999999
 30
0.0
 40
10.5
100
AcDbArc
 50
88.49356899999998
 51
117.0072779999999
  0
CIRCLE
  5
BB19
330
B8D5
100
AcDbEntity
  8
1
  6
Continuous
100
AcDbCircle
 10
198.0
 20
224.5411129999999
 30
0.0
 40
5.0
  0
ARC
  5
BB1A
330
B8D5
100
AcDbEntity
  8
1
  6
Continuous
100
AcDbCircle
 10
518.1914830000001
 20
231.241113
 30
0.0
 40
18.0
100
AcDbArc
 50
29.447532
 51
90.0
  0
LINE
  5
BB1B
330
B8D5
100
AcDbEntity
  8
1
  6
Continuous
100
AcDbLine
 10
572.3073829999997
 20
259.9639009999999
 30
0.0
 11
567.015826
 21
219.852564
 31
0.0
  0
LINE
  5
BB1C
330
B8D5
100
AcDbEntity
  8
4
  6
CENTER
100
AcDbLine
 10
498.99982
 20
276.233646
 30
0.0
 11
498.99982
 21
174.336738
 31
0.0
  0
LINE
  5
BB1D
330
B8D5
100
AcDbEntity
  8
1
  6
Continuous
100
AcDbLine
 10
505.9998199999998
 20
249.2411129999999
 30
0.0
 11
505.9998199999998
 21
230.824117
 31
0.0
  0
LINE
  5
BB1E
330
B8D5
100
AcDbEntity
  8
1
  6
Continuous
100
AcDbLine
 10
491.99982
 20
249.2411129999999
 30
0.0
 11
491.99982
 21
230.824117
 31
0.0
  0
LINE
  5
BB1F
330
B8D5
100
AcDbEntity
  8
1
  6
Continuous
100
AcDbLine
 10
498.99982
 20
249.2411129999999
 30
0.0
 11
498.99982
 21
230.824117
 31
0.0
  0
ARC
  5
BB20
330
B8D5
100
AcDbEntity
  8
1
  6
Continuous
100
AcDbCircle
 10
559.9998199999999
 20
224.5411129999999
 30
0.0
 40
31.5
100
AcDbArc
 50
148.2053
 51
68.58153
  0
LINE
  5
BB21
330
B8D5
100
AcDbEntity
  8
4
  6
CENTER
100
AcDbLine
 10
559.9998199999999
 20
190.0411129999999
 30
0.0
 11
559.9998199999999
 21
259.041113
 31
0.0
  0
LINE
  5
BB22
330
B8D5
100
AcDbEntity
  8
4
  6
CENTER
100
AcDbLine
 10
525.49982
 20
224.5411129999999
 30
0.0
 11
594.4998199999997
 21
224.5411129999999
 31
0.0
  0
ARC
  5
BB23
330
B8D5
100
AcDbEntity
  8
1
  6
Continuous
100
AcDbCircle
 10
562.554479
 20
220.4411129999999
 30
0.0
 40
4.5
100
AcDbArc
 50
270.0
 51
352.4848379999999
  0
LINE
  5
BB24
330
B8D5
100
AcDbEntity
  8
1
  6
Continuous
100
AcDbLine
 10
533.865996
 20
240.090387
 30
0.0
 11
546.2082759999998
 21
218.228795
 31
0.0
  0
ARC
  5
BB25
330
B8D5
100
AcDbEntity
  8
1
  6
Continuous
100
AcDbCircle
 10
550.1269039999998
 20
220.4411129999999
 30
0.0
 40
4.5
100
AcDbArc
 50
209.447532
 51
270.0
  0
LINE
  5
BB26
330
B8D5
100
AcDbEntity
  8
1
  6
Continuous
100
AcDbLine
 10
550.1269039999998
 20
215.941113
 30
0.0
 11
562.554479
 21
215.941113
 31
0.0
  0
LINE
  5
BB27
330
B8D5
100
AcDbEntity
  8
1
  6
Continuous
100
AcDbLine
 10
480.14982
 20
202.541113
 30
0.0
 11
480.14982
 21
199.5411129999999
 31
0.0
  0
LINE
  5
BB28
330
B8D5
100
AcDbEntity
  8
1
  6
Continuous
100
AcDbLine
 10
517.8498199999998
 20
199.5411129999999
 30
0.0
 11
517.8498199999998
 21
202.541113
 31
0.0
  0
LINE
  5
BB29
330
B8D5
100
AcDbEntity
  8
1
  6
Continuous
100
AcDbLine
 10
480.14982
 20
199.5411129999999
 30
0.0
 11
517.8498199999998
 21
199.5411129999999
 31
0.0
  0
LINE
  5
BB2A
330
B8D5
100
AcDbEntity
  8
1
  6
Continuous
100
AcDbLine
 10
481.74982
 20
193.0411129999999
 30
0.0
 11
516.2498199999999
 21
193.0411129999999
 31
0.0
  0
LINE
  5
BB2B
330
B8D5
100
AcDbEntity
  8
1
  6
Continuous
100
AcDbLine
 10
516.2498199999999
 20
199.5411129999999
 30
0.0
 11
516.2498199999999
 21
193.0411129999999
 31
0.0
  0
LINE
  5
BB2C
330
B8D5
100
AcDbEntity
  8
1
  6
Continuous
100
AcDbLine
 10
481.74982
 20
199.5411129999999
 30
0.0
 11
481.74982
 21
193.0411129999999
 31
0.0
  0
LINE
  5
BB2D
330
B8D5
100
AcDbEntity
  8
1
  6
Continuous
100
AcDbLine
 10
488.9998199999998
 20
211.541113
 30
0.0
 11
508.99982
 21
211.541113
 31
0.0
  0
ARC
  5
BB2E
330
B8D5
100
AcDbEntity
  8
1
  6
Continuous
100
AcDbCircle
 10
498.99982
 20
217.1661129999999
 30
0.0
 40
10.625
100
AcDbArc
 50
244.942385
 51
295.057615
  0
LINE
  5
BB2F
330
B8D5
100
AcDbEntity
  8
1
  6
Continuous
100
AcDbLine
 10
491.7498199999998
 20
206.541113
 30
0.0
 11
506.24982
 21
206.541113
 31
0.0
  0
LINE
  5
BB30
330
B8D5
100
AcDbEntity
  8
1
  6
Continuous
100
AcDbLine
 10
488.49982
 20
206.0411129999998
 30
0.0
 11
509.49982
 21
206.0411129999998
 31
0.0
  0
LINE
  5
BB31
330
B8D5
100
AcDbEntity
  8
1
  6
Continuous
100
AcDbLine
 10
493.9998199999998
 20
214.5411129999998
 30
0.0
 11
503.99982
 21
214.5411129999998
 31
0.0
  0
LINE
  5
BB32
330
B8D5
100
AcDbEntity
  8
1
  6
Continuous
100
AcDbLine
 10
483.1498199999998
 20
205.5411129999999
 30
0.0
 11
514.84982
 21
205.5411129999999
 31
0.0
  0
ARC
  5
BB33
330
B8D5
100
AcDbEntity
  8
1
  6
Continuous
100
AcDbCircle
 10
495.49982
 20
235.938204
 30
0.0
 40
6.197085999999997
100
AcDbArc
 50
235.612877
 51
304.3871229999999
  0
LINE
  5
BB34
330
B8D5
100
AcDbEntity
  8
1
  6
Continuous
100
AcDbLine
 10
492.2498199999998
 20
229.741117
 30
0.0
 11
505.74982
 21
229.741117
 31
0.0
  0
LINE
  5
BB35
330
B8D5
100
AcDbEntity
  8
1
  6
Continuous
100
AcDbLine
 10
503.99982
 20
229.741117
 30
0.0
 11
503.99982
 21
211.541113
 31
0.0
  0
LINE
  5
BB36
330
B8D5
100
AcDbEntity
  8
2
  6
Continuous
100
AcDbLine
 10
503.18782
 20
214.5411129999998
 30
0.0
 11
503.18782
 21
229.741117
 31
0.0
  0
ARC
  5
BB37
330
B8D5
100
AcDbEntity
  8
1
  6
Continuous
100
AcDbCircle
 10
514.84982
 20
202.541113
 30
0.0
 40
3.0
100
AcDbArc
 50
0.0
 51
90.0
  0
LINE
  5
BB38
330
B8D5
100
AcDbEntity
  8
1
  6
Continuous
100
AcDbLine
 10
508.99982
 20
211.541113
 30
0.0
 11
508.99982
 21
207.5411129999999
 31
0.0
  0
LINE
  5
BB39
330
B8D5
100
AcDbEntity
  8
1
  6
Continuous
100
AcDbLine
 10
503.49982
 20
211.541113
 30
0.0
 11
503.49982
 21
207.5411129999999
 31
0.0
  0
ARC
  5
BB3A
330
B8D5
100
AcDbEntity
  8
1
  6
Continuous
100
AcDbCircle
 10
506.24982
 20
210.8223629999999
 30
0.0
 40
4.28125
100
AcDbArc
 50
230.0337869999999
 51
309.966213
  0
LINE
  5
BB3B
330
B8D5
100
AcDbEntity
  8
1
  6
Continuous
100
AcDbLine
 10
502.4998199999997
 20
206.055805
 30
0.0
 11
502.4998199999997
 21
206.541113
 31
0.0
  0
LINE
  5
BB3C
330
B8D5
100
AcDbEntity
  8
1
  6
Continuous
100
AcDbLine
 10
509.49982
 20
206.0411129999998
 30
0.0
 11
509.49982
 21
205.5411129999999
 31
0.0
  0
LINE
  5
BB3D
330
B8D5
100
AcDbEntity
  8
2
  6
Continuous
100
AcDbLine
 10
503.99982
 20
213.1346879999999
 30
0.0
 11
503.18782
 21
214.5411129999998
 31
0.0
  0
LINE
  5
BB3E
330
B8D5
100
AcDbEntity
  8
1
  6
Continuous
100
AcDbLine
 10
505.9998199999998
 20
230.824117
 30
0.0
 11
505.74982
 21
229.741117
 31
0.0
  0
ARC
  5
BB3F
330
B8D5
100
AcDbEntity
  8
1
  6
Continuous
100
AcDbCircle
 10
502.4998199999997
 20
235.938204
 30
0.0
 40
6.197085999999997
100
AcDbArc
 50
235.612877
 51
304.3871229999999
  0
LINE
  5
BB40
330
B8D5
100
AcDbEntity
  8
1
  6
Continuous
100
AcDbLine
 10
493.9998199999998
 20
229.741117
 30
0.0
 11
493.9998199999998
 21
211.541113
 31
0.0
  0
LINE
  5
BB41
330
B8D5
100
AcDbEntity
  8
2
  6
Continuous
100
AcDbLine
 10
494.81182
 20
214.5411129999998
 30
0.0
 11
494.81182
 21
229.741117
 31
0.0
  0
ARC
  5
BB42
330
B8D5
100
AcDbEntity
  8
1
  6
Continuous
100
AcDbCircle
 10
483.1498199999998
 20
202.541113
 30
0.0
 40
3.0
100
AcDbArc
 50
90.0
 51
180.0
  0
LINE
  5
BB43
330
B8D5
100
AcDbEntity
  8
1
  6
Continuous
100
AcDbLine
 10
488.9998199999998
 20
211.541113
 30
0.0
 11
488.9998199999998
 21
207.5411129999999
 31
0.0
  0
LINE
  5
BB44
330
B8D5
100
AcDbEntity
  8
1
  6
Continuous
100
AcDbLine
 10
494.4998199999998
 20
211.541113
 30
0.0
 11
494.4998199999998
 21
207.5411129999999
 31
0.0
  0
ARC
  5
BB45
330
B8D5
100
AcDbEntity
  8
1
  6
Continuous
100
AcDbCircle
 10
491.7498199999998
 20
210.8223629999999
 30
0.0
 40
4.28125
100
AcDbArc
 50
230.0337869999999
 51
309.966213
  0
LINE
  5
BB46
330
B8D5
100
AcDbEntity
  8
1
  6
Continuous
100
AcDbLine
 10
495.49982
 20
206.541113
 30
0.0
 11
495.49982
 21
206.055805
 31
0.0
  0
LINE
  5
BB47
330
B8D5
100
AcDbEntity
  8
1
  6
Continuous
100
AcDbLine
 10
488.49982
 20
206.0411129999998
 30
0.0
 11
488.49982
 21
205.5411129999999
 31
0.0
  0
LINE
  5
BB48
330
B8D5
100
AcDbEntity
  8
2
  6
Continuous
100
AcDbLine
 10
493.9998199999998
 20
213.1346879999999
 30
0.0
 11
494.81182
 21
214.5411129999998
 31
0.0
  0
LINE
  5
BB49
330
B8D5
100
AcDbEntity
  8
1
  6
Continuous
100
AcDbLine
 10
491.99982
 20
230.824117
 30
0.0
 11
492.2498199999998
 21
229.741117
 31
0.0
  0
LINE
  5
BB4A
330
B8D5
100
AcDbEntity
  8
1
  6
Continuous
100
AcDbLine
 10
530.4611979999998
 20
264.2411129999999
 30
0.0
 11
532.639123
 21
266.4190379999999
 31
0.0
  0
LINE
  5
BB4B
330
B8D5
100
AcDbEntity
  8
1
  6
Continuous
100
AcDbLine
 10
532.639123
 20
264.2411129999999
 30
0.0
 11
530.4611979999998
 21
266.4190379999999
 31
0.0
  0
LINE
  5
BB4C
330
B8D5
100
AcDbEntity
  8
1
  6
Continuous
100
AcDbLine
 10
555.661957
 20
264.2411129999999
 30
0.0
 11
491.99982
 21
264.2411129999999
 31
0.0
  0
LINE
  5
BB4D
330
B8D5
100
AcDbEntity
  8
1
  6
Continuous
100
AcDbLine
 10
578.99982
 20
274.041113
 30
0.0
 11
486.999816
 21
274.041113
 31
0.0
  0
LINE
  5
BB4E
330
B8D5
100
AcDbEntity
  8
1
  6
Continuous
100
AcDbLine
 10
511.06718
 20
269.6411109999999
 30
0.0
 11
554.9798769999996
 21
269.6411109999999
 31
0.0
  0
LINE
  5
BB4F
330
B8D5
100
AcDbEntity
  8
1
  6
Continuous
100
AcDbLine
 10
577.4998199999997
 20
271.7411169999999
 30
0.0
 11
486.999816
 21
271.7411169999999
 31
0.0
  0
LINE
  5
BB50
330
B8D5
100
AcDbEntity
  8
1
  6
Continuous
100
AcDbLine
 10
510.0669569999998
 20
268.404037
 30
0.0
 11
555.1169569999998
 21
268.404037
 31
0.0
  0
LINE
  5
BB51
330
B8D5
100
AcDbEntity
  8
1
  6
Continuous
100
AcDbLine
 10
510.3369569999999
 20
266.4190379999999
 30
0.0
 11
555.661957
 21
266.4190379999999
 31
0.0
  0
LINE
  5
BB52
330
B8D5
100
AcDbEntity
  8
1
  6
Continuous
100
AcDbLine
 10
489.9998199999997
 20
271.2411169999999
 30
0.0
 11
575.99982
 21
271.2411169999999
 31
0.0
  0
LINE
  5
BB53
330
B8D5
100
AcDbEntity
  8
1
  6
Continuous
100
AcDbLine
 10
529.046985
 20
264.2411129999999
 30
0.0
 11
531.2249099999998
 21
266.4190379999999
 31
0.0
  0
LINE
  5
BB54
330
B8D5
100
AcDbEntity
  8
1
  6
Continuous
100
AcDbLine
 10
531.2249099999998
 20
264.2411129999999
 30
0.0
 11
529.046985
 21
266.4190379999999
 31
0.0
  0
ARC
  5
BB55
330
B8D5
100
AcDbEntity
  8
1
  6
Continuous
100
AcDbCircle
 10
559.9998199999999
 20
224.5411129999999
 30
0.0
 40
37.5
100
AcDbArc
 50
65.92074000000001
 51
93.82255399999998
  0
ARC
  5
BB56
330
B8D5
100
AcDbEntity
  8
1
  6
Continuous
100
AcDbCircle
 10
559.9998199999999
 20
224.5411129999999
 30
0.0
 40
35.20000000000001
100
AcDbArc
 50
65.92074000000001
 51
70.06773000000001
  0
LINE
  5
BB57
330
B8D5
100
AcDbEntity
  8
1
  6
Continuous
100
AcDbLine
 10
575.2998199999998
 20
258.777935
 30
0.0
 11
574.3614199999998
 21
256.6780769999999
 31
0.0
  0
LINE
  5
BB58
330
B8D5
100
AcDbEntity
  8
1
  6
Continuous
100
AcDbLine
 10
578.99982
 20
271.7411169999999
 30
0.0
 11
577.4998199999997
 21
271.7411169999999
 31
0.0
  0
LINE
  5
BB59
330
B8D5
100
AcDbEntity
  8
1
  6
Continuous
100
AcDbLine
 10
578.99982
 20
271.7411169999999
 30
0.0
 11
578.99982
 21
274.041113
 31
0.0
  0
ARC
  5
BB5A
330
B8D5
100
AcDbEntity
  8
1
  6
Continuous
100
AcDbCircle
 10
575.99982
 20
273.7411169999999
 30
0.0
 40
2.5
100
AcDbArc
 50
270.0
 51
306.869904
  0
LINE
  5
BB5B
330
B8D5
100
AcDbEntity
  8
4
  6
CENTER
100
AcDbLine
 10
570.49982
 20
268.9538079999999
 30
0.0
 11
570.49982
 21
275.7786489999999
 31
0.0
  0
ARC
  5
BB5C
330
B8D5
100
AcDbEntity
  8
1
  6
Continuous
100
AcDbCircle
 10
554.2180599999998
 20
260.741113
 30
0.0
 40
3.5
100
AcDbArc
 50
20.340134
 51
90.0
  0
LINE
  5
BB5D
330
B8D5
100
AcDbEntity
  8
4
  6
CENTER
100
AcDbLine
 10
532.99982
 20
276.233646
 30
0.0
 11
532.99982
 21
259.929127
 31
0.0
  0
LINE
  5
BB5E
330
B8D5
100
AcDbEntity
  8
1
  6
Continuous
100
AcDbLine
 10
557.49982
 20
261.957687
 30
0.0
 11
541.882786
 21
261.957687
 31
0.0
  0
LINE
  5
BB5F
330
B8D5
100
AcDbEntity
  8
1
  6
Continuous
100
AcDbLine
 10
544.603334
 20
264.2411129999999
 30
0.0
 11
546.781259
 21
266.4190379999999
 31
0.0
  0
LINE
  5
BB60
330
B8D5
100
AcDbEntity
  8
1
  6
Continuous
100
AcDbLine
 10
546.017548
 20
264.2411129999999
 30
0.0
 11
548.195472
 21
266.4190379999999
 31
0.0
  0
LINE
  5
BB61
330
B8D5
100
AcDbEntity
  8
1
  6
Continuous
100
AcDbLine
 10
546.781259
 20
264.2411129999999
 30
0.0
 11
544.603334
 21
266.4190379999999
 31
0.0
  0
LINE
  5
BB62
330
B8D5
100
AcDbEntity
  8
1
  6
Continuous
100
AcDbLine
 10
548.195472
 20
264.2411129999999
 30
0.0
 11
546.017548
 21
266.4190379999999
 31
0.0
  0
ARC
  5
BB63
330
B8D5
100
AcDbEntity
  8
1
  6
Continuous
100
AcDbCircle
 10
554.9798769999996
 20
273.6411109999999
 30
0.0
 40
4.0
100
AcDbArc
 50
269.99762
 51
323.1302119999999
  0
ARC
  5
BB64
330
B8D5
100
AcDbEntity
  8
1
  6
Continuous
100
AcDbCircle
 10
555.667986
 20
267.484185
 30
0.0
 40
0.9569799999999998
100
AcDbArc
 50
24.04026499999999
 51
73.98808699999998
  0
LINE
  5
BB65
330
B8D5
100
AcDbEntity
  8
1
  6
Continuous
100
AcDbLine
 10
555.931957
 20
268.404037
 30
0.0
 11
555.1169569999998
 21
268.404037
 31
0.0
  0
LINE
  5
BB66
330
B8D5
100
AcDbEntity
  8
1
  6
Continuous
100
AcDbLine
 10
555.1169569999998
 20
268.404037
 30
0.0
 11
554.946957
 21
268.764037
 31
0.0
  0
LINE
  5
BB67
330
B8D5
100
AcDbEntity
  8
1
  6
Continuous
100
AcDbLine
 10
555.791957
 20
266.779038
 30
0.0
 11
555.661957
 21
266.4190379999999
 31
0.0
  0
LINE
  5
BB68
330
B8D5
100
AcDbEntity
  8
1
  6
Continuous
100
AcDbLine
 10
555.661957
 20
266.4190379999999
 30
0.0
 11
555.661957
 21
264.2411129999999
 31
0.0
  0
ARC
  5
BB69
330
B8D5
100
AcDbEntity
  8
1
  6
Continuous
100
AcDbCircle
 10
552.330475
 20
269.9542649999999
 30
0.0
 40
4.697225
100
AcDbArc
 50
317.4697509999999
 51
333.713305
  0
LINE
  5
BB6A
330
B8D5
100
AcDbEntity
  8
1
  6
Continuous
100
AcDbLine
 10
551.6744019999999
 20
264.2411129999999
 30
0.0
 11
553.8523269999997
 21
266.4190379999999
 31
0.0
  0
LINE
  5
BB6B
330
B8D5
100
AcDbEntity
  8
1
  6
Continuous
100
AcDbLine
 10
553.8523269999997
 20
264.2411129999999
 30
0.0
 11
551.6744019999999
 21
266.4190379999999
 31
0.0
  0
LINE
  5
BB6C
330
B8D5
100
AcDbEntity
  8
1
  6
Continuous
100
AcDbLine
 10
547.431761
 20
264.2411129999999
 30
0.0
 11
549.609686
 21
266.4190379999999
 31
0.0
  0
LINE
  5
BB6D
330
B8D5
100
AcDbEntity
  8
1
  6
Continuous
100
AcDbLine
 10
549.609686
 20
264.2411129999999
 30
0.0
 11
547.431761
 21
266.4190379999999
 31
0.0
  0
LINE
  5
BB6E
330
B8D5
100
AcDbEntity
  8
1
  6
Continuous
100
AcDbLine
 10
548.8459749999998
 20
264.2411129999999
 30
0.0
 11
551.0239
 21
266.4190379999999
 31
0.0
  0
LINE
  5
BB6F
330
B8D5
100
AcDbEntity
  8
1
  6
Continuous
100
AcDbLine
 10
550.2601879999998
 20
264.2411129999999
 30
0.0
 11
552.438113
 21
266.4190379999999
 31
0.0
  0
LINE
  5
BB70
330
B8D5
100
AcDbEntity
  8
1
  6
Continuous
100
AcDbLine
 10
551.0239
 20
264.2411129999999
 30
0.0
 11
548.8459749999998
 21
266.4190379999999
 31
0.0
  0
LINE
  5
BB71
330
B8D5
100
AcDbEntity
  8
1
  6
Continuous
100
AcDbLine
 10
552.438113
 20
264.2411129999999
 30
0.0
 11
550.2601879999998
 21
266.4190379999999
 31
0.0
  0
ARC
  5
BB72
330
B8D5
100
AcDbEntity
  8
1
  6
Continuous
100
AcDbCircle
 10
550.082532
 20
264.910212
 30
0.0
 40
6.206012999999998
100
AcDbArc
 50
38.387915
 51
49.66827999999999
  0
LINE
  5
BB73
330
B8D5
100
AcDbEntity
  8
1
  6
Continuous
100
AcDbLine
 10
553.0886149999997
 20
264.2411129999999
 30
0.0
 11
555.2665400000002
 21
266.4190379999999
 31
0.0
  0
LINE
  5
BB74
330
B8D5
100
AcDbEntity
  8
1
  6
Continuous
100
AcDbLine
 10
554.502829
 20
264.2411129999999
 30
0.0
 11
555.661957
 21
265.4002409999999
 31
0.0
  0
LINE
  5
BB75
330
B8D5
100
AcDbEntity
  8
1
  6
Continuous
100
AcDbLine
 10
555.2665400000002
 20
264.2411129999999
 30
0.0
 11
553.0886149999997
 21
266.4190379999999
 31
0.0
  0
LINE
  5
BB76
330
B8D5
100
AcDbEntity
  8
1
  6
Continuous
100
AcDbLine
 10
555.661957
 20
265.2599099999998
 30
0.0
 11
554.502829
 21
266.4190379999999
 31
0.0
  0
LINE
  5
BB77
330
B8D5
100
AcDbEntity
  8
1
  6
Continuous
100
AcDbLine
 10
543.1891209999998
 20
264.2411129999999
 30
0.0
 11
545.3670449999998
 21
266.4190379999999
 31
0.0
  0
LINE
  5
BB78
330
B8D5
100
AcDbEntity
  8
1
  6
Continuous
100
AcDbLine
 10
545.3670449999998
 20
264.2411129999999
 30
0.0
 11
543.1891209999998
 21
266.4190379999999
 31
0.0
  0
LINE
  5
BB79
330
B8D5
100
AcDbEntity
  8
1
  6
Continuous
100
AcDbLine
 10
538.9464799999998
 20
264.2411129999999
 30
0.0
 11
541.124405
 21
266.4190379999999
 31
0.0
  0
LINE
  5
BB7A
330
B8D5
100
AcDbEntity
  8
1
  6
Continuous
100
AcDbLine
 10
541.124405
 20
264.2411129999999
 30
0.0
 11
538.9464799999998
 21
266.4190379999999
 31
0.0
  0
LINE
  5
BB7B
330
B8D5
100
AcDbEntity
  8
1
  6
Continuous
100
AcDbLine
 10
540.3606929999998
 20
264.2411129999999
 30
0.0
 11
542.5386179999998
 21
266.4190379999999
 31
0.0
  0
LINE
  5
BB7C
330
B8D5
100
AcDbEntity
  8
1
  6
Continuous
100
AcDbLine
 10
541.774907
 20
264.2411129999999
 30
0.0
 11
543.9528319999998
 21
266.4190379999999
 31
0.0
  0
LINE
  5
BB7D
330
B8D5
100
AcDbEntity
  8
1
  6
Continuous
100
AcDbLine
 10
542.5386179999998
 20
264.2411129999999
 30
0.0
 11
540.3606929999998
 21
266.4190379999999
 31
0.0
  0
LINE
  5
BB7E
330
B8D5
100
AcDbEntity
  8
1
  6
Continuous
100
AcDbLine
 10
543.9528319999998
 20
264.2411129999999
 30
0.0
 11
541.774907
 21
266.4190379999999
 31
0.0
  0
LINE
  5
BB7F
330
B8D5
100
AcDbEntity
  8
1
  6
Continuous
100
AcDbLine
 10
534.703839
 20
264.2411129999999
 30
0.0
 11
536.8817639999998
 21
266.4190379999999
 31
0.0
  0
LINE
  5
BB80
330
B8D5
100
AcDbEntity
  8
1
  6
Continuous
100
AcDbLine
 10
536.8817639999998
 20
264.2411129999999
 30
0.0
 11
534.703839
 21
266.4190379999999
 31
0.0
  0
LINE
  5
BB81
330
B8D5
100
AcDbEntity
  8
1
  6
Continuous
100
AcDbLine
 10
531.875412
 20
264.2411129999999
 30
0.0
 11
534.0533370000001
 21
266.4190379999999
 31
0.0
  0
LINE
  5
BB82
330
B8D5
100
AcDbEntity
  8
1
  6
Continuous
100
AcDbLine
 10
533.289626
 20
264.2411129999999
 30
0.0
 11
535.4675499999998
 21
266.4190379999999
 31
0.0
  0
LINE
  5
BB83
330
B8D5
100
AcDbEntity
  8
1
  6
Continuous
100
AcDbLine
 10
534.0533370000001
 20
264.2411129999999
 30
0.0
 11
531.875412
 21
266.4190379999999
 31
0.0
  0
LINE
  5
BB84
330
B8D5
100
AcDbEntity
  8
1
  6
Continuous
100
AcDbLine
 10
535.4675499999998
 20
264.2411129999999
 30
0.0
 11
533.289626
 21
266.4190379999999
 31
0.0
  0
LINE
  5
BB85
330
B8D5
100
AcDbEntity
  8
1
  6
Continuous
100
AcDbLine
 10
536.118053
 20
264.2411129999999
 30
0.0
 11
538.295977
 21
266.4190379999999
 31
0.0
  0
LINE
  5
BB86
330
B8D5
100
AcDbEntity
  8
1
  6
Continuous
100
AcDbLine
 10
537.5322660000001
 20
264.2411129999999
 30
0.0
 11
539.7101909999999
 21
266.4190379999999
 31
0.0
  0
LINE
  5
BB87
330
B8D5
100
AcDbEntity
  8
1
  6
Continuous
100
AcDbLine
 10
538.295977
 20
264.2411129999999
 30
0.0
 11
536.118053
 21
266.4190379999999
 31
0.0
  0
LINE
  5
BB88
330
B8D5
100
AcDbEntity
  8
1
  6
Continuous
100
AcDbLine
 10
539.7101909999999
 20
264.2411129999999
 30
0.0
 11
537.5322660000001
 21
266.4190379999999
 31
0.0
  0
LINE
  5
BB89
330
B8D5
100
AcDbEntity
  8
1
  6
Continuous
100
AcDbLine
 10
497.59982
 20
264.2411169999999
 30
0.0
 11
500.3998199999998
 21
264.2411169999999
 31
0.0
  0
LINE
  5
BB8A
330
B8D5
100
AcDbEntity
  8
1
  6
Continuous
100
AcDbLine
 10
497.59982
 20
266.441117
 30
0.0
 11
500.3998199999998
 21
266.441117
 31
0.0
  0
LINE
  5
BB8B
330
B8D5
100
AcDbEntity
  8
1
  6
Continuous
100
AcDbLine
 10
487.99982
 20
249.2411129999999
 30
0.0
 11
518.1914830000001
 21
249.2411129999999
 31
0.0
  0
LINE
  5
BB8C
330
B8D5
100
AcDbEntity
  8
1
  6
Continuous
100
AcDbLine
 10
513.490636
 20
264.2411129999999
 30
0.0
 11
515.6685599999998
 21
266.4190379999999
 31
0.0
  0
LINE
  5
BB8D
330
B8D5
100
AcDbEntity
  8
1
  6
Continuous
100
AcDbLine
 10
515.6685599999998
 20
264.2411129999999
 30
0.0
 11
513.490636
 21
266.4190379999999
 31
0.0
  0
LINE
  5
BB8E
330
B8D5
100
AcDbEntity
  8
1
  6
Continuous
100
AcDbLine
 10
526.218558
 20
264.2411129999999
 30
0.0
 11
528.396483
 21
266.4190379999999
 31
0.0
  0
LINE
  5
BB8F
330
B8D5
100
AcDbEntity
  8
1
  6
Continuous
100
AcDbLine
 10
527.632771
 20
264.2411129999999
 30
0.0
 11
529.810696
 21
266.4190379999999
 31
0.0
  0
LINE
  5
BB90
330
B8D5
100
AcDbEntity
  8
1
  6
Continuous
100
AcDbLine
 10
528.396483
 20
264.2411129999999
 30
0.0
 11
526.218558
 21
266.4190379999999
 31
0.0
  0
LINE
  5
BB91
330
B8D5
100
AcDbEntity
  8
1
  6
Continuous
100
AcDbLine
 10
529.810696
 20
264.2411129999999
 30
0.0
 11
527.632771
 21
266.4190379999999
 31
0.0
  0
LINE
  5
BB92
330
B8D5
100
AcDbEntity
  8
1
  6
Continuous
100
AcDbLine
 10
521.9759169999996
 20
264.2411129999999
 30
0.0
 11
524.1538419999999
 21
266.4190379999999
 31
0.0
  0
LINE
  5
BB93
330
B8D5
100
AcDbEntity
  8
1
  6
Continuous
100
AcDbLine
 10
523.390131
 20
264.2411129999999
 30
0.0
 11
525.568055
 21
266.4190379999999
 31
0.0
  0
LINE
  5
BB94
330
B8D5
100
AcDbEntity
  8
1
  6
Continuous
100
AcDbLine
 10
524.1538419999999
 20
264.2411129999999
 30
0.0
 11
521.9759169999996
 21
266.4190379999999
 31
0.0
  0
LINE
  5
BB95
330
B8D5
100
AcDbEntity
  8
1
  6
Continuous
100
AcDbLine
 10
525.568055
 20
264.2411129999999
 30
0.0
 11
523.390131
 21
266.4190379999999
 31
0.0
  0
LINE
  5
BB96
330
B8D5
100
AcDbEntity
  8
1
  6
Continuous
100
AcDbLine
 10
524.804344
 20
264.2411129999999
 30
0.0
 11
526.9822689999998
 21
266.4190379999999
 31
0.0
  0
LINE
  5
BB97
330
B8D5
100
AcDbEntity
  8
1
  6
Continuous
100
AcDbLine
 10
526.9822689999998
 20
264.2411129999999
 30
0.0
 11
524.804344
 21
266.4190379999999
 31
0.0
  0
LINE
  5
BB98
330
B8D5
100
AcDbEntity
  8
1
  6
Continuous
100
AcDbLine
 10
517.7332759999997
 20
264.2411129999999
 30
0.0
 11
519.911201
 21
266.4190379999999
 31
0.0
  0
LINE
  5
BB99
330
B8D5
100
AcDbEntity
  8
1
  6
Continuous
100
AcDbLine
 10
519.1474900000002
 20
264.2411129999999
 30
0.0
 11
521.325415
 21
266.4190379999999
 31
0.0
  0
LINE
  5
BB9A
330
B8D5
100
AcDbEntity
  8
1
  6
Continuous
100
AcDbLine
 10
519.911201
 20
264.2411129999999
 30
0.0
 11
517.7332759999997
 21
266.4190379999999
 31
0.0
  0
LINE
  5
BB9B
330
B8D5
100
AcDbEntity
  8
1
  6
Continuous
100
AcDbLine
 10
521.325415
 20
264.2411129999999
 30
0.0
 11
519.1474900000002
 21
266.4190379999999
 31
0.0
  0
LINE
  5
BB9C
330
B8D5
100
AcDbEntity
  8
1
  6
Continuous
100
AcDbLine
 10
514.904849
 20
264.2411129999999
 30
0.0
 11
517.082774
 21
266.4190379999999
 31
0.0
  0
LINE
  5
BB9D
330
B8D5
100
AcDbEntity
  8
1
  6
Continuous
100
AcDbLine
 10
517.082774
 20
264.2411129999999
 30
0.0
 11
514.904849
 21
266.4190379999999
 31
0.0
  0
LINE
  5
BB9E
330
B8D5
100
AcDbEntity
  8
1
  6
Continuous
100
AcDbLine
 10
516.319063
 20
264.2411129999999
 30
0.0
 11
518.4969879999996
 21
266.4190379999999
 31
0.0
  0
LINE
  5
BB9F
330
B8D5
100
AcDbEntity
  8
1
  6
Continuous
100
AcDbLine
 10
518.4969879999996
 20
264.2411129999999
 30
0.0
 11
516.319063
 21
266.4190379999999
 31
0.0
  0
LINE
  5
BBA0
330
B8D5
100
AcDbEntity
  8
1
  6
Continuous
100
AcDbLine
 10
520.5617039999999
 20
264.2411129999999
 30
0.0
 11
522.739628
 21
266.4190379999999
 31
0.0
  0
LINE
  5
BBA1
330
B8D5
100
AcDbEntity
  8
1
  6
Continuous
100
AcDbLine
 10
522.739628
 20
264.2411129999999
 30
0.0
 11
520.5617039999999
 21
266.4190379999999
 31
0.0
  0
LINE
  5
BBA2
330
B8D5
100
AcDbEntity
  8
1
  6
Continuous
100
AcDbLine
 10
510.881957
 20
268.404037
 30
0.0
 11
511.051957
 21
268.764037
 31
0.0
  0
ARC
  5
BBA3
330
B8D5
100
AcDbEntity
  8
1
  6
Continuous
100
AcDbCircle
 10
515.9163819999998
 20
264.910212
 30
0.0
 40
6.206012999999998
100
AcDbArc
 50
130.3318289999999
 51
141.612085
  0
ARC
  5
BBA4
330
B8D5
100
AcDbEntity
  8
1
  6
Continuous
100
AcDbCircle
 10
510.3309279999998
 20
267.484185
 30
0.0
 40
0.9569799999999998
100
AcDbArc
 50
106.011913
 51
155.9597349999999
  0
ARC
  5
BBA5
330
B8D5
100
AcDbEntity
  8
1
  6
Continuous
100
AcDbCircle
 10
511.0197639999998
 20
273.6411109999999
 30
0.0
 40
4.0
100
AcDbArc
 50
216.8697879999997
 51
270.0023799999997
  0
LINE
  5
BBA6
330
B8D5
100
AcDbEntity
  8
1
  6
Continuous
100
AcDbLine
 10
510.206957
 20
266.779038
 30
0.0
 11
510.3369569999999
 21
266.4190379999999
 31
0.0
  0
LINE
  5
BBA7
330
B8D5
100
AcDbEntity
  8
1
  6
Continuous
100
AcDbLine
 10
510.3369569999999
 20
266.4190379999999
 30
0.0
 11
510.3369569999999
 21
264.2411129999999
 31
0.0
  0
LINE
  5
BBA8
330
B8D5
100
AcDbEntity
  8
1
  6
Continuous
100
AcDbLine
 10
511.42592
 20
266.4190379999999
 30
0.0
 11
510.3369569999999
 21
265.330075
 31
0.0
  0
LINE
  5
BBA9
330
B8D5
100
AcDbEntity
  8
1
  6
Continuous
100
AcDbLine
 10
510.662209
 20
264.2411129999999
 30
0.0
 11
512.840133
 21
266.4190379999999
 31
0.0
  0
LINE
  5
BBAA
330
B8D5
100
AcDbEntity
  8
1
  6
Continuous
100
AcDbLine
 10
511.42592
 20
264.2411129999999
 30
0.0
 11
510.3369569999999
 21
265.330075
 31
0.0
  0
LINE
  5
BBAB
330
B8D5
100
AcDbEntity
  8
1
  6
Continuous
100
AcDbLine
 10
512.840133
 20
264.2411129999999
 30
0.0
 11
510.662209
 21
266.4190379999999
 31
0.0
  0
ARC
  5
BBAC
330
B8D5
100
AcDbEntity
  8
1
  6
Continuous
100
AcDbCircle
 10
513.6684389999998
 20
269.9542649999999
 30
0.0
 40
4.697225
100
AcDbArc
 50
206.286695
 51
222.530249
  0
LINE
  5
BBAD
330
B8D5
100
AcDbEntity
  8
1
  6
Continuous
100
AcDbLine
 10
505.9998199999998
 20
271.2411169999999
 30
0.0
 11
505.9998199999998
 21
264.2411129999999
 31
0.0
  0
ARC
  5
BBAE
330
B8D5
100
AcDbEntity
  8
1
  6
Continuous
100
AcDbCircle
 10
499.39982
 20
265.941117
 30
0.0
 40
0.5
100
AcDbArc
 50
0.0
 51
90.0
  0
ARC
  5
BBAF
330
B8D5
100
AcDbEntity
  8
1
  6
Continuous
100
AcDbCircle
 10
499.39982
 20
264.7411169999999
 30
0.0
 40
0.5
100
AcDbArc
 50
270.0
 51
0.0
  0
LINE
  5
BBB0
330
B8D5
100
AcDbEntity
  8
1
  6
Continuous
100
AcDbLine
 10
499.8998199999999
 20
264.7411169999999
 30
0.0
 11
499.8998199999999
 21
265.941117
 31
0.0
  0
ARC
  5
BBB1
330
B8D5
100
AcDbEntity
  8
1
  6
Continuous
100
AcDbCircle
 10
500.3998199999998
 20
265.341117
 30
0.0
 40
1.1
100
AcDbArc
 50
270.0
 51
90.0
  0
LINE
  5
BBB2
330
B8D5
100
AcDbEntity
  8
1
  6
Continuous
100
AcDbLine
 10
498.99982
 20
271.2411169999999
 30
0.0
 11
498.99982
 21
266.441117
 31
0.0
  0
LINE
  5
BBB3
330
B8D5
100
AcDbEntity
  8
1
  6
Continuous
100
AcDbLine
 10
512.0764219999998
 20
264.2411129999999
 30
0.0
 11
514.2543469999999
 21
266.4190379999999
 31
0.0
  0
LINE
  5
BBB4
330
B8D5
100
AcDbEntity
  8
1
  6
Continuous
100
AcDbLine
 10
514.2543469999999
 20
264.2411129999999
 30
0.0
 11
512.0764219999998
 21
266.4190379999999
 31
0.0
  0
ARC
  5
BBB5
330
B8D5
100
AcDbEntity
  8
1
  6
Continuous
100
AcDbCircle
 10
491.99982
 20
260.2411129999999
 30
0.0
 40
4.0
100
AcDbArc
 50
90.0
 51
180.0
  0
LINE
  5
BBB6
330
B8D5
100
AcDbEntity
  8
1
  6
Continuous
100
AcDbLine
 10
487.99982
 20
260.2411129999999
 30
0.0
 11
487.99982
 21
249.2411129999999
 31
0.0
  0
ARC
  5
BBB7
330
B8D5
100
AcDbEntity
  8
1
  6
Continuous
100
AcDbCircle
 10
498.59982
 20
265.941117
 30
0.0
 40
0.5
100
AcDbArc
 50
90.0
 51
180.0
  0
ARC
  5
BBB8
330
B8D5
100
AcDbEntity
  8
1
  6
Continuous
100
AcDbCircle
 10
498.59982
 20
264.7411169999999
 30
0.0
 40
0.5
100
AcDbArc
 50
180.0
 51
270.0
  0
LINE
  5
BBB9
330
B8D5
100
AcDbEntity
  8
1
  6
Continuous
100
AcDbLine
 10
498.09982
 20
264.7411169999999
 30
0.0
 11
498.09982
 21
265.941117
 31
0.0
  0
LINE
  5
BBBA
330
B8D5
100
AcDbEntity
  8
1
  6
Continuous
100
AcDbLine
 10
491.99982
 20
271.2411169999999
 30
0.0
 11
491.99982
 21
264.2411129999999
 31
0.0
  0
ARC
  5
BBBB
330
B8D5
100
AcDbEntity
  8
1
  6
Continuous
100
AcDbCircle
 10
489.9998199999997
 20
273.7411169999999
 30
0.0
 40
2.5
100
AcDbArc
 50
233.130096
 51
270.0
  0
LINE
  5
BBBC
330
B8D5
100
AcDbEntity
  8
1
  6
Continuous
100
AcDbLine
 10
486.999816
 20
271.7411169999999
 30
0.0
 11
486.999816
 21
274.041113
 31
0.0
  0
LINE
  5
BBBD
330
B8D5
100
AcDbEntity
  8
4
  6
CENTER
100
AcDbLine
 10
495.49982
 20
268.9538079999999
 30
0.0
 11
495.49982
 21
276.00614
 31
0.0
  0
ARC
  5
BBBE
330
B8D5
100
AcDbEntity
  8
1
  6
Continuous
100
AcDbCircle
 10
497.59982
 20
265.341117
 30
0.0
 40
1.1
100
AcDbArc
 50
90.0
 51
270.0
  0
CIRCLE
  5
BBBF
330
B8D5
100
AcDbEntity
  8
1
  6
Continuous
100
AcDbCircle
 10
559.9998199999999
 20
224.5411129999999
 30
0.0
 40
5.75
  0
LINE
  5
BBC0
330
B8D5
100
AcDbEntity
  8
1
  6
Continuous
100
AcDbLine
 10
270.999955
 20
124.500004
 30
0.0
 11
270.999955
 21
101.537019
 31
0.0
  0
LINE
  5
BBC1
330
B8D5
100
AcDbEntity
  8
4
  6
CENTER
100
AcDbLine
 10
259.0
 20
66.15000400000001
 30
0.0
 11
259.0
 21
107.8500039999999
 31
0.0
  0
LINE
  5
BBC2
330
B8D5
100
AcDbEntity
  8
4
  6
CENTER
100
AcDbLine
 10
198.0
 20
109.4330199999999
 30
0.0
 11
198.0
 21
63.13165399999999
 31
0.0
  0
LINE
  5
BBC3
330
B8D5
100
AcDbEntity
  8
1
  6
Continuous
100
AcDbLine
 10
178.999955
 20
124.500004
 30
0.0
 11
178.999955
 21
97.50000400000001
 31
0.0
  0
LINE
  5
BBC4
330
B8D5
100
AcDbEntity
  8
4
  6
CENTER
100
AcDbLine
 10
224.9999549999997
 20
134.5000039999999
 30
0.0
 11
224.9999549999997
 21
39.5
 31
0.0
  0
LINE
  5
BBC5
330
B8D5
100
AcDbEntity
  8
1
  6
Continuous
100
AcDbLine
 10
262.499955
 20
133.0000039999999
 30
0.0
 11
187.499955
 21
133.0000039999999
 31
0.0
  0
LINE
  5
BBC6
330
B8D5
100
AcDbEntity
  8
4
  6
CENTER
100
AcDbLine
 10
194.749955
 20
124.500004
 30
0.0
 11
180.249955
 21
124.500004
 31
0.0
  0
CIRCLE
  5
BBC7
330
B8D5
100
AcDbEntity
  8
1
  6
Continuous
100
AcDbCircle
 10
187.499955
 20
124.500004
 30
0.0
 40
4.25
  0
ARC
  5
BBC8
330
B8D5
100
AcDbEntity
  8
1
  6
Continuous
100
AcDbCircle
 10
187.499955
 20
124.500004
 30
0.0
 40
8.5
100
AcDbArc
 50
90.0
 51
180.0
  0
LINE
  5
BBC9
330
B8D5
100
AcDbEntity
  8
4
  6
CENTER
100
AcDbLine
 10
187.499955
 20
131.7500039999997
 30
0.0
 11
187.499955
 21
117.250004
 31
0.0
  0
LINE
  5
BBCA
330
B8D5
100
AcDbEntity
  8
4
  6
CENTER
100
AcDbLine
 10
262.499955
 20
131.7500039999997
 30
0.0
 11
262.499955
 21
117.250004
 31
0.0
  0
CIRCLE
  5
BBCB
330
B8D5
100
AcDbEntity
  8
1
  6
Continuous
100
AcDbCircle
 10
262.499955
 20
124.500004
 30
0.0
 40
4.25
  0
LINE
  5
BBCC
330
B8D5
100
AcDbEntity
  8
4
  6
CENTER
100
AcDbLine
 10
269.7499549999997
 20
124.500004
 30
0.0
 11
255.2499549999998
 21
124.500004
 31
0.0
  0
ARC
  5
BBCD
330
B8D5
100
AcDbEntity
  8
1
  6
Continuous
100
AcDbCircle
 10
262.499955
 20
124.500004
 30
0.0
 40
8.5
100
AcDbArc
 50
0.0
 51
90.0
  0
LINE
  5
BBCE
330
B8D5
100
AcDbEntity
  8
1
  6
Continuous
100
AcDbLine
 10
262.499955
 20
41.0
 30
0.0
 11
187.499955
 21
41.0
 31
0.0
  0
LINE
  5
BBCF
330
B8D5
100
AcDbEntity
  8
4
  6
CENTER
100
AcDbLine
 10
281.0085399999999
 20
87.000004
 30
0.0
 11
162.0284639999999
 21
87.000004
 31
0.0
  0
CIRCLE
  5
BBD0
330
B8D5
100
AcDbEntity
  8
1
  6
Continuous
100
AcDbCircle
 10
187.499955
 20
49.500004
 30
0.0
 40
4.25
  0
LINE
  5
BBD1
330
B8D5
100
AcDbEntity
  8
4
  6
CENTER
100
AcDbLine
 10
194.749955
 20
49.500004
 30
0.0
 11
180.249955
 21
49.500004
 31
0.0
  0
ARC
  5
BBD2
330
B8D5
100
AcDbEntity
  8
1
  6
Continuous
100
AcDbCircle
 10
187.499955
 20
49.5
 30
0.0
 40
8.5
100
AcDbArc
 50
180.0
 51
270.0
  0
ARC
  5
BBD3
330
B8D5
100
AcDbEntity
  8
1
  6
Continuous
100
AcDbCircle
 10
206.4999999999999
 20
87.000004
 30
0.0
 40
40.0
100
AcDbArc
 50
166.4810789999999
 51
193.518921
  0
ARC
  5
BBD4
330
B8D5
100
AcDbEntity
  8
1
  6
Continuous
100
AcDbCircle
 10
169.0667259999998
 20
96.000004
 30
0.0
 40
1.5
100
AcDbArc
 50
90.0
 51
166.4810789999999
  0
LINE
  5
BBD5
330
B8D5
100
AcDbEntity
  8
1
  6
Continuous
100
AcDbLine
 10
226.933274
 20
97.50000400000001
 30
0.0
 11
169.0667259999998
 21
97.50000400000001
 31
0.0
  0
ARC
  5
BBD6
330
B8D5
100
AcDbEntity
  8
1
  6
Continuous
100
AcDbCircle
 10
169.0667259999998
 20
78.000004
 30
0.0
 40
1.5
100
AcDbArc
 50
193.518921
 51
270.0
  0
LINE
  5
BBD7
330
B8D5
100
AcDbEntity
  8
1
  6
Continuous
100
AcDbLine
 10
226.933274
 20
76.500004
 30
0.0
 11
169.0667259999998
 21
76.500004
 31
0.0
  0
LINE
  5
BBD8
330
B8D5
100
AcDbEntity
  8
4
  6
CENTER
100
AcDbLine
 10
187.499955
 20
56.750004
 30
0.0
 11
187.499955
 21
42.25
 31
0.0
  0
CIRCLE
  5
BBD9
330
B8D5
100
AcDbEntity
  8
1
  6
Continuous
100
AcDbCircle
 10
262.499955
 20
49.500004
 30
0.0
 40
4.25
  0
LINE
  5
BBDA
330
B8D5
100
AcDbEntity
  8
4
  6
CENTER
100
AcDbLine
 10
269.7499549999997
 20
49.500004
 30
0.0
 11
255.2499549999998
 21
49.500004
 31
0.0
  0
ARC
  5
BBDB
330
B8D5
100
AcDbEntity
  8
1
  6
Continuous
100
AcDbCircle
 10
262.499955
 20
49.500004
 30
0.0
 40
8.5
100
AcDbArc
 50
270.0
 51
0.0
  0
LINE
  5
BBDC
330
B8D5
100
AcDbEntity
  8
4
  6
CENTER
100
AcDbLine
 10
262.499955
 20
56.750004
 30
0.0
 11
262.499955
 21
42.25
 31
0.0
  0
CIRCLE
  5
BBDD
330
B8D5
100
AcDbEntity
  8
1
  6
Continuous
100
AcDbCircle
 10
259.0
 20
87.00004599999996
 30
0.0
 40
18.85
  0
LINE
  5
BBDE
330
B8D5
100
AcDbEntity
  8
1
  6
Continuous
100
AcDbLine
 10
270.999955
 20
72.46307299999998
 30
0.0
 11
270.999955
 21
49.500004
 31
0.0
  0
ARC
  5
BBDF
330
B8D5
100
AcDbEntity
  8
1
  6
Continuous
100
AcDbCircle
 10
189.4999999999997
 20
87.000004
 30
0.0
 40
40.0
100
AcDbArc
 50
346.481079
 51
13.51892099999999
  0
ARC
  5
BBE0
330
B8D5
100
AcDbEntity
  8
1
  6
Continuous
100
AcDbCircle
 10
226.933274
 20
78.000004
 30
0.0
 40
1.5
100
AcDbArc
 50
270.0
 51
346.481079
  0
ARC
  5
BBE1
330
B8D5
100
AcDbEntity
  8
1
  6
Continuous
100
AcDbCircle
 10
226.933274
 20
96.000004
 30
0.0
 40
1.5
100
AcDbArc
 50
13.51892099999999
 51
90.0
  0
LINE
  5
BBE2
330
B8D5
100
AcDbEntity
  8
1
  6
Continuous
100
AcDbLine
 10
178.999955
 20
76.500004
 30
0.0
 11
178.999955
 21
49.5
 31
0.0
  0
CIRCLE
  5
BBE3
330
B8D5
100
AcDbEntity
  8
1
  6
Continuous
100
AcDbCircle
 10
259.0
 20
87.00004599999996
 30
0.0
 40
17.25
  0
ARC
  5
BBE4
330
B8D5
100
AcDbEntity
  8
1
  6
Continuous
100
AcDbCircle
 10
259.0
 20
87.00004599999996
 30
0.0
 40
5.5
100
AcDbArc
 50
318.5691279999999
 51
221.430826
  0
ARC
  5
BBE5
330
B8D5
100
AcDbEntity
  8
1
  6
Continuous
100
AcDbCircle
 10
259.0
 20
87.00004599999996
 30
0.0
 40
2.049999999999998
100
AcDbArc
 50
33.17763999999999
 51
56.82235999999999
  0
ARC
  5
BBE6
330
B8D5
100
AcDbEntity
  8
1
  6
Continuous
100
AcDbCircle
 10
259.0
 20
93.00004599999999
 30
0.0
 40
6.0
100
AcDbArc
 50
0.0
 51
180.0
  0
ARC
  5
BBE7
330
B8D5
100
AcDbEntity
  8
1
  6
Continuous
100
AcDbCircle
 10
259.0
 20
87.00004599999996
 30
0.0
 40
2.049999999999998
100
AcDbArc
 50
303.17764
 51
326.82236
  0
LINE
  5
BBE8
330
B8D5
100
AcDbEntity
  8
1
  6
Continuous
100
AcDbLine
 10
260.1083389999997
 20
86.50726099999998
 30
0.0
 11
260.7158049999998
 21
85.87821099999997
 31
0.0
  0
ARC
  5
BBE9
330
B8D5
100
AcDbEntity
  8
1
  6
Continuous
100
AcDbCircle
 10
259.0
 20
87.00004599999996
 30
0.0
 40
6.0
100
AcDbArc
 50
180.0
 51
0.0
  0
CIRCLE
  5
BBEA
330
B8D5
100
AcDbEntity
  8
1
  6
Continuous
100
AcDbCircle
 10
259.0
 20
87.00004599999996
 30
0.0
 40
3.5
  0
LINE
  5
BBEB
330
B8D5
100
AcDbEntity
  8
1
  6
Continuous
100
AcDbLine
 10
260.1083389999997
 20
87.49283199999998
 30
0.0
 11
260.7158049999998
 21
88.121881
 31
0.0
  0
LINE
  5
BBEC
330
B8D5
100
AcDbEntity
  8
1
  6
Continuous
100
AcDbLine
 10
255.1205669999999
 20
87.000048
 30
0.0
 11
255.4726159999999
 21
87.000048
 31
0.0
  0
ARC
  5
BBED
330
B8D5
100
AcDbEntity
  8
1
  6
Continuous
100
AcDbCircle
 10
255.1205669999999
 20
87.40004799999999
 30
0.0
 40
0.4
100
AcDbArc
 50
174.1132429999999
 51
270.000001
  0
ARC
  5
BBEE
330
B8D5
100
AcDbEntity
  8
1
  6
Continuous
100
AcDbCircle
 10
255.17625
 20
83.625298
 30
0.0
 40
0.4
100
AcDbArc
 50
221.430871
 51
329.999948
  0
LINE
  5
BBEF
330
B8D5
100
AcDbEntity
  8
1
  6
Continuous
100
AcDbLine
 10
255.522661
 20
83.42530100000002
 30
0.0
 11
256.3004259999999
 21
84.77242399999999
 31
0.0
  0
LINE
  5
BBF0
330
B8D5
100
AcDbEntity
  8
1
  6
Continuous
100
AcDbLine
 10
257.673155
 20
90.645524
 30
0.0
 11
257.80293
 21
90.288971
 31
0.0
  0
ARC
  5
BBF1
330
B8D5
100
AcDbEntity
  8
1
  6
Continuous
100
AcDbCircle
 10
257.297279
 20
90.508713
 30
0.0
 40
0.4
100
AcDbArc
 50
20.000122
 51
115.886945
  0
ARC
  5
BBF2
330
B8D5
100
AcDbEntity
  8
1
  6
Continuous
100
AcDbCircle
 10
259.0
 20
87.00004599999996
 30
0.0
 40
4.299999999999998
100
AcDbArc
 50
115.8868629999999
 51
174.113188
  0
LINE
  5
BBF3
330
B8D5
100
AcDbEntity
  8
1
  6
Continuous
100
AcDbLine
 10
259.4927859999998
 20
88.108385
 30
0.0
 11
260.1218349999999
 21
88.715851
 31
0.0
  0
ARC
  5
BBF4
330
B8D5
100
AcDbEntity
  8
1
  6
Continuous
100
AcDbCircle
 10
259.0
 20
87.00004599999996
 30
0.0
 40
2.049999999999998
100
AcDbArc
 50
123.1776399999999
 51
146.8223599999998
  0
LINE
  5
BBF5
330
B8D5
100
AcDbEntity
  8
1
  6
Continuous
100
AcDbLine
 10
258.5072139999999
 20
88.108385
 30
0.0
 11
257.8781649999999
 21
88.715851
 31
0.0
  0
LINE
  5
BBF6
330
B8D5
100
AcDbEntity
  8
1
  6
Continuous
100
AcDbLine
 10
259.9289799999999
 20
87.00004599999996
 30
0.0
 11
260.1083389999997
 21
87.49283199999998
 31
0.0
  0
LINE
  5
BBF7
330
B8D5
100
AcDbEntity
  8
1
  6
Continuous
100
AcDbLine
 10
259.9289799999999
 20
87.00004599999996
 30
0.0
 11
260.1083389999997
 21
86.50726099999998
 31
0.0
  0
LINE
  5
BBF8
330
B8D5
100
AcDbEntity
  8
1
  6
Continuous
100
AcDbLine
 10
259.0
 20
86.071067
 30
0.0
 11
259.4927859999998
 21
85.89170699999998
 31
0.0
  0
LINE
  5
BBF9
330
B8D5
100
AcDbEntity
  8
1
  6
Continuous
100
AcDbLine
 10
259.4927859999998
 20
85.89170699999998
 30
0.0
 11
260.1218349999999
 21
85.28424099999998
 31
0.0
  0
ARC
  5
BBFA
330
B8D5
100
AcDbEntity
  8
1
  6
Continuous
100
AcDbCircle
 10
259.0
 20
87.00004599999996
 30
0.0
 40
2.049999999999998
100
AcDbArc
 50
213.17764
 51
236.8223599999998
  0
LINE
  5
BBFB
330
B8D5
100
AcDbEntity
  8
1
  6
Continuous
100
AcDbLine
 10
257.8916609999997
 20
86.50726099999998
 30
0.0
 11
257.284195
 21
85.87821099999997
 31
0.0
  0
LINE
  5
BBFC
330
B8D5
100
AcDbEntity
  8
1
  6
Continuous
100
AcDbLine
 10
258.0710199999999
 20
87.00004599999996
 30
0.0
 11
257.8916609999997
 21
86.50726099999998
 31
0.0
  0
LINE
  5
BBFD
330
B8D5
100
AcDbEntity
  8
1
  6
Continuous
100
AcDbLine
 10
258.0710199999999
 20
87.00004599999996
 30
0.0
 11
257.8916609999997
 21
87.49283199999998
 31
0.0
  0
LINE
  5
BBFE
330
B8D5
100
AcDbEntity
  8
1
  6
Continuous
100
AcDbLine
 10
258.5072139999999
 20
85.89170699999998
 30
0.0
 11
257.8781649999999
 21
85.28424099999998
 31
0.0
  0
LINE
  5
BBFF
330
B8D5
100
AcDbEntity
  8
1
  6
Continuous
100
AcDbLine
 10
259.0
 20
86.071067
 30
0.0
 11
258.5072139999999
 21
85.89170699999998
 31
0.0
  0
LINE
  5
BC00
330
B8D5
100
AcDbEntity
  8
1
  6
Continuous
100
AcDbLine
 10
253.0
 20
93.00004599999999
 30
0.0
 11
253.0
 21
87.00004599999996
 31
0.0
  0
LINE
  5
BC01
330
B8D5
100
AcDbEntity
  8
1
  6
Continuous
100
AcDbLine
 10
259.0
 20
87.92902599999996
 30
0.0
 11
258.5072139999999
 21
88.108385
 31
0.0
  0
LINE
  5
BC02
330
B8D5
100
AcDbEntity
  8
1
  6
Continuous
100
AcDbLine
 10
259.0
 20
87.92902599999996
 30
0.0
 11
259.4927859999998
 21
88.108385
 31
0.0
  0
LINE
  5
BC03
330
B8D5
100
AcDbEntity
  8
1
  6
Continuous
100
AcDbLine
 10
257.8916609999997
 20
87.49283199999998
 30
0.0
 11
257.284195
 21
88.121881
 31
0.0
  0
LINE
  5
BC04
330
B8D5
100
AcDbEntity
  8
1
  6
Continuous
100
AcDbLine
 10
262.879433
 20
87.000048
 30
0.0
 11
262.5
 21
87.00004599999996
 31
0.0
  0
LINE
  5
BC05
330
B8D5
100
AcDbEntity
  8
1
  6
Continuous
100
AcDbLine
 10
261.6995769999999
 20
84.772428
 30
0.0
 11
262.477341
 21
83.42530100000002
 31
0.0
  0
ARC
  5
BC06
330
B8D5
100
AcDbEntity
  8
1
  6
Continuous
100
AcDbCircle
 10
262.82375
 20
83.625298
 30
0.0
 40
0.4
100
AcDbArc
 50
209.999934
 51
318.568933
  0
ARC
  5
BC07
330
B8D5
100
AcDbEntity
  8
1
  6
Continuous
100
AcDbCircle
 10
262.879433
 20
87.40004799999999
 30
0.0
 40
0.4
100
AcDbArc
 50
270.0000179999999
 51
5.886752999999998
  0
ARC
  5
BC08
330
B8D5
100
AcDbEntity
  8
1
  6
Continuous
100
AcDbCircle
 10
259.0
 20
87.00004599999996
 30
0.0
 40
4.299999999999998
100
AcDbArc
 50
5.886828999999999
 51
64.113162
  0
ARC
  5
BC09
330
B8D5
100
AcDbEntity
  8
1
  6
Continuous
100
AcDbCircle
 10
260.702721
 20
90.508713
 30
0.0
 40
0.4
100
AcDbArc
 50
64.113073
 51
159.9999949999999
  0
LINE
  5
BC0A
330
B8D5
100
AcDbEntity
  8
1
  6
Continuous
100
AcDbLine
 10
260.1970689999999
 20
90.288971
 30
0.0
 11
260.3268429999999
 21
90.645524
 31
0.0
  0
LINE
  5
BC0B
330
B8D5
100
AcDbEntity
  8
1
  6
Continuous
100
AcDbLine
 10
265.0
 20
93.00004599999999
 30
0.0
 11
265.0
 21
87.00004599999996
 31
0.0
  0
LINE
  5
BC0C
330
B8D5
100
AcDbEntity
  8
1
  6
Continuous
100
AcDbLine
 10
203.75
 20
68.971362
 30
0.0
 11
192.25
 21
68.971362
 31
0.0
  0
LINE
  5
BC0D
330
B8D5
100
AcDbEntity
  8
1
  6
Continuous
100
AcDbLine
 10
190.0
 20
72.50000400000002
 30
0.0
 11
206.0
 21
72.50000400000002
 31
0.0
  0
LINE
  5
BC0E
330
B8D5
100
AcDbEntity
  8
1
  6
Continuous
100
AcDbLine
 10
185.4985
 20
74.000004
 30
0.0
 11
210.5014999999999
 21
74.000004
 31
0.0
  0
ARC
  5
BC0F
330
B8D5
100
AcDbEntity
  8
1
  6
Continuous
100
AcDbCircle
 10
198.0
 20
75.471362
 30
0.0
 40
10.5
100
AcDbArc
 50
236.7961769999999
 51
303.2038229999999
  0
LINE
  5
BC10
330
B8D5
100
AcDbEntity
  8
1
  6
Continuous
100
AcDbLine
 10
192.25
 20
66.68571999999999
 30
0.0
 11
203.75
 21
66.68571999999999
 31
0.0
  0
LINE
  5
BC11
330
B8D5
100
AcDbEntity
  8
1
  6
Continuous
100
AcDbLine
 10
210.5014999999999
 20
74.000004
 30
0.0
 11
214.0718699999999
 21
76.500004
 31
0.0
  0
LINE
  5
BC12
330
B8D5
100
AcDbEntity
  8
1
  6
Continuous
100
AcDbLine
 10
206.0
 20
72.50000400000002
 30
0.0
 11
207.5
 21
74.000004
 31
0.0
  0
LINE
  5
BC13
330
B8D5
100
AcDbEntity
  8
1
  6
Continuous
100
AcDbLine
 10
203.75
 20
66.68571999999999
 30
0.0
 11
203.75
 21
68.971362
 31
0.0
  0
LINE
  5
BC14
330
B8D5
100
AcDbEntity
  8
1
  6
Continuous
100
AcDbLine
 10
194.0
 20
72.50000400000002
 30
0.0
 11
194.0
 21
71.62950600000002
 31
0.0
  0
LINE
  5
BC15
330
B8D5
100
AcDbEntity
  8
1
  6
Continuous
100
AcDbLine
 10
190.0
 20
72.50000400000002
 30
0.0
 11
188.4999999999998
 21
74.000004
 31
0.0
  0
LINE
  5
BC16
330
B8D5
100
AcDbEntity
  8
1
  6
Continuous
100
AcDbLine
 10
202.0
 20
72.50000400000002
 30
0.0
 11
202.0
 21
71.62950600000002
 31
0.0
  0
LINE
  5
BC17
330
B8D5
100
AcDbEntity
  8
1
  6
Continuous
100
AcDbLine
 10
185.4985
 20
74.000004
 30
0.0
 11
181.92813
 21
76.500004
 31
0.0
  0
LINE
  5
BC18
330
B8D5
100
AcDbEntity
  8
1
  6
Continuous
100
AcDbLine
 10
194.0
 20
68.971362
 30
0.0
 11
194.0
 21
69.32950600000001
 31
0.0
  0
LINE
  5
BC19
330
B8D5
100
AcDbEntity
  8
1
  6
Continuous
100
AcDbLine
 10
192.25
 20
66.68571999999999
 30
0.0
 11
192.25
 21
68.971362
 31
0.0
  0
LINE
  5
BC1A
330
B8D5
100
AcDbEntity
  8
1
  6
Continuous
100
AcDbLine
 10
202.0
 20
68.971362
 30
0.0
 11
202.0
 21
69.32950600000001
 31
0.0
  0
LINE
  5
BC1B
330
B8D5
100
AcDbEntity
  8
1
  6
Continuous
100
AcDbLine
 10
193.0
 20
105.4554919999997
 30
0.0
 11
203.0
 21
105.246021
 31
0.0
  0
ARC
  5
BC1C
330
B8D5
100
AcDbEntity
  8
1
  6
Continuous
100
AcDbCircle
 10
197.8411099999999
 20
97.76543100000001
 30
0.0
 40
9.08699
100
AcDbArc
 50
55.40842900000001
 51
122.1915709999999
  0
LINE
  5
BC1D
330
B8D5
100
AcDbEntity
  8
1
  6
Continuous
100
AcDbLine
 10
206.0
 20
101.500004
 30
0.0
 11
190.0
 21
101.500004
 31
0.0
  0
LINE
  5
BC1E
330
B8D5
100
AcDbEntity
  8
1
  6
Continuous
100
AcDbLine
 10
185.4985
 20
100.0000039999999
 30
0.0
 11
210.5014999999999
 21
100.0000039999999
 31
0.0
  0
LINE
  5
BC1F
330
B8D5
100
AcDbEntity
  8
1
  6
Continuous
100
AcDbLine
 10
203.0
 20
104.745912
 30
0.0
 11
203.0
 21
105.246021
 31
0.0
  0
LINE
  5
BC20
330
B8D5
100
AcDbEntity
  8
1
  6
Continuous
100
AcDbLine
 10
210.5014999999999
 20
100.0000039999999
 30
0.0
 11
214.0718699999999
 21
97.50000400000001
 31
0.0
  0
LINE
  5
BC21
330
B8D5
100
AcDbEntity
  8
1
  6
Continuous
100
AcDbLine
 10
206.0
 20
101.500004
 30
0.0
 11
207.5
 21
100.0000039999999
 31
0.0
  0
LINE
  5
BC22
330
B8D5
100
AcDbEntity
  8
1
  6
Continuous
100
AcDbLine
 10
193.0
 20
104.955382
 30
0.0
 11
193.0
 21
105.4554919999997
 31
0.0
  0
LINE
  5
BC23
330
B8D5
100
AcDbEntity
  8
1
  6
Continuous
100
AcDbLine
 10
194.0
 20
102.3705019999999
 30
0.0
 11
194.0
 21
101.500004
 31
0.0
  0
LINE
  5
BC24
330
B8D5
100
AcDbEntity
  8
1
  6
Continuous
100
AcDbLine
 10
190.0
 20
101.500004
 30
0.0
 11
188.4999999999998
 21
100.0000039999999
 31
0.0
  0
LINE
  5
BC25
330
B8D5
100
AcDbEntity
  8
1
  6
Continuous
100
AcDbLine
 10
202.0
 20
102.3705019999999
 30
0.0
 11
202.0
 21
101.500004
 31
0.0
  0
LINE
  5
BC26
330
B8D5
100
AcDbEntity
  8
1
  6
Continuous
100
AcDbLine
 10
185.4985
 20
100.0000039999999
 30
0.0
 11
181.92813
 21
97.50000400000001
 31
0.0
  0
LINE
  5
BC27
330
B8D5
100
AcDbEntity
  8
1
  6
Continuous
100
AcDbLine
 10
206.6758989999999
 20
71.62950600000002
 30
0.0
 11
186.3682049999999
 21
71.62950600000002
 31
0.0
  0
LINE
  5
BC28
330
B8D5
100
AcDbEntity
  8
1
  6
Continuous
100
AcDbLine
 10
206.6758989999999
 20
102.3705019999999
 30
0.0
 11
186.3682049999999
 21
102.3705019999999
 31
0.0
  0
LINE
  5
BC29
330
B8D5
100
AcDbEntity
  8
1
  6
Continuous
100
AcDbLine
 10
206.6758989999999
 20
104.670502
 30
0.0
 11
187.722081
 21
104.670502
 31
0.0
  0
LINE
  5
BC2A
330
B8D5
100
AcDbEntity
  8
1
  6
Continuous
100
AcDbLine
 10
206.6758989999999
 20
69.32950600000001
 30
0.0
 11
187.722081
 21
69.32950600000001
 31
0.0
  0
LINE
  5
BC2B
330
B8D5
100
AcDbEntity
  8
1
  6
Continuous
100
AcDbLine
 10
193.0
 20
104.955382
 30
0.0
 11
203.0
 21
104.745912
 31
0.0
  0
LINE
  5
BC2C
330
B8D5
100
AcDbEntity
  8
1
  6
Continuous
100
AcDbLine
 10
194.0
 20
104.9344349999998
 30
0.0
 11
194.0
 21
104.670502
 31
0.0
  0
LINE
  5
BC2D
330
B8D5
100
AcDbEntity
  8
1
  6
Continuous
100
AcDbLine
 10
202.0
 20
104.766859
 30
0.0
 11
202.0
 21
104.670502
 31
0.0
  0
ARC
  5
BC2E
330
B8D5
100
AcDbEntity
  8
1
  6
Continuous
100
AcDbCircle
 10
234.8387379999997
 20
87.000004
 30
0.0
 40
51.200338
100
AcDbArc
 50
162.9442689999999
 51
165.4718509999999
  0
ARC
  5
BC2F
330
B8D5
100
AcDbEntity
  8
1
  6
Continuous
100
AcDbCircle
 10
236.3688259999999
 20
87.000004
 30
0.0
 40
53.668826
100
AcDbArc
 50
163.0024819999999
 51
167.090406
  0
ARC
  5
BC30
330
B8D5
100
AcDbEntity
  8
1
  6
Continuous
100
AcDbCircle
 10
186.3682049999999
 20
101.870502
 30
0.0
 40
0.5
100
AcDbArc
 50
90.0
 51
162.9442689999999
  0
ARC
  5
BC31
330
B8D5
100
AcDbEntity
  8
1
  6
Continuous
100
AcDbCircle
 10
186.3682049999999
 20
72.129506
 30
0.0
 40
0.5
100
AcDbArc
 50
197.055731
 51
270.0
  0
ARC
  5
BC32
330
B8D5
100
AcDbEntity
  8
1
  6
Continuous
100
AcDbCircle
 10
187.722081
 20
101.870502
 30
0.0
 40
2.799999999999998
100
AcDbArc
 50
90.0
 51
163.0024819999999
  0
ARC
  5
BC33
330
B8D5
100
AcDbEntity
  8
1
  6
Continuous
100
AcDbCircle
 10
187.722081
 20
72.129506
 30
0.0
 40
2.799999999999998
100
AcDbArc
 50
196.9975179999999
 51
270.0
  0
ARC
  5
BC34
330
B8D5
100
AcDbEntity
  8
1
  6
Continuous
100
AcDbCircle
 10
234.8387379999997
 20
87.000004
 30
0.0
 40
51.200338
100
AcDbArc
 50
194.5281489999999
 51
197.055731
  0
ARC
  5
BC35
330
B8D5
100
AcDbEntity
  8
1
  6
Continuous
100
AcDbCircle
 10
236.3688259999999
 20
87.000004
 30
0.0
 40
53.668826
100
AcDbArc
 50
192.909594
 51
196.9975179999999
  0
ARC
  5
BC36
330
B8D5
100
AcDbEntity
  8
1
  6
Continuous
100
AcDbCircle
 10
224.9999549999997
 20
87.000004
 30
0.0
 40
24.15
100
AcDbArc
 50
44.25471199999999
 51
128.947833
  0
ARC
  5
BC37
330
B8D5
100
AcDbEntity
  8
1
  6
Continuous
100
AcDbCircle
 10
224.9999549999997
 20
87.000004
 30
0.0
 40
21.85
100
AcDbArc
 50
44.25471199999999
 51
128.947833
  0
LINE
  5
BC38
330
B8D5
100
AcDbEntity
  8
1
  6
Continuous
100
AcDbLine
 10
245.701347
 20
100.35925
 30
0.0
 11
242.2972609999999
 21
103.8530659999999
 31
0.0
  0
LINE
  5
BC39
330
B8D5
100
AcDbEntity
  8
1
  6
Continuous
100
AcDbLine
 10
245.7013879999998
 20
73.64080099999998
 30
0.0
 11
242.2972609999999
 21
70.146942
 31
0.0
  0
LINE
  5
BC3A
330
B8D5
100
AcDbEntity
  8
1
  6
Continuous
100
AcDbLine
 10
244.169689
 20
75.36456699999998
 30
0.0
 11
240.649898
 21
71.75199499999997
 31
0.0
  0
LINE
  5
BC3B
330
B8D5
100
AcDbEntity
  8
1
  6
Continuous
100
AcDbLine
 10
244.169652
 20
98.635479
 30
0.0
 11
240.649898
 21
102.2480129999999
 31
0.0
  0
ARC
  5
BC3C
330
B8D5
100
AcDbEntity
  8
1
  6
Continuous
100
AcDbCircle
 10
224.9999549999997
 20
87.000004
 30
0.0
 40
21.85
100
AcDbArc
 50
231.0521669999999
 51
315.745288
  0
ARC
  5
BC3D
330
B8D5
100
AcDbEntity
  8
1
  6
Continuous
100
AcDbCircle
 10
224.9999549999997
 20
87.000004
 30
0.0
 40
24.15
100
AcDbArc
 50
231.0521669999999
 51
315.745288
  0
ARC
  5
BC3E
330
B8D5
100
AcDbEntity
  8
1
  6
Continuous
100
AcDbCircle
 10
206.6758989999999
 20
109.6705019999999
 30
0.0
 40
5.0
100
AcDbArc
 50
270.0
 51
308.9478329999999
  0
ARC
  5
BC3F
330
B8D5
100
AcDbEntity
  8
1
  6
Continuous
100
AcDbCircle
 10
206.6758989999999
 20
109.6705019999999
 30
0.0
 40
7.299999999999998
100
AcDbArc
 50
270.0
 51
308.9478329999999
  0
ARC
  5
BC40
330
B8D5
100
AcDbEntity
  8
1
  6
Continuous
100
AcDbCircle
 10
206.6758989999999
 20
64.32950600000001
 30
0.0
 40
7.299999999999998
100
AcDbArc
 50
51.05216699999998
 51
90.0
  0
ARC
  5
BC41
330
B8D5
100
AcDbEntity
  8
1
  6
Continuous
100
AcDbCircle
 10
206.6758989999999
 20
64.32950600000001
 30
0.0
 40
5.0
100
AcDbArc
 50
51.05216699999998
 51
90.0
  0
ARC
  5
BC42
330
B8D5
100
AcDbEntity
  8
1
  6
Continuous
100
AcDbCircle
 10
224.9999549999997
 20
87.000004
 30
0.0
 40
25.18001599999999
100
AcDbArc
 50
33.07951
 51
135.3794659999997
  0
ARC
  5
BC43
330
B8D5
100
AcDbEntity
  8
1
  6
Continuous
100
AcDbCircle
 10
224.9999549999997
 20
87.000004
 30
0.0
 40
25.18001599999999
100
AcDbArc
 50
224.6205339999999
 51
326.9206319999997
  0
ARC
  5
BC44
330
B8D5
100
AcDbEntity
  8
1
  6
Continuous
100
AcDbCircle
 10
224.9999549999997
 20
87.000004
 30
0.0
 40
44.49995499999999
100
AcDbArc
 50
23.21822499999999
 51
166.352059
  0
ARC
  5
BC45
330
B8D5
100
AcDbEntity
  8
1
  6
Continuous
100
AcDbCircle
 10
224.9999549999997
 20
87.000004
 30
0.0
 40
41.499955
100
AcDbArc
 50
26.617162
 51
154.820171
  0
ARC
  5
BC46
330
B8D5
100
AcDbEntity
  8
1
  6
Continuous
100
AcDbCircle
 10
224.9999549999997
 20
87.000004
 30
0.0
 40
44.49995499999999
100
AcDbArc
 50
193.647941
 51
336.7819169999999
  0
ARC
  5
BC47
330
B8D5
100
AcDbEntity
  8
1
  6
Continuous
100
AcDbCircle
 10
224.9999549999997
 20
87.000004
 30
0.0
 40
41.499955
100
AcDbArc
 50
205.179829
 51
333.3829799999999
  0
ARC
  5
BC48
330
B8D5
100
AcDbEntity
  8
1
  6
Continuous
100
AcDbCircle
 10
559.9998199999999
 20
224.5411129999999
 30
0.0
 40
24.0
100
AcDbArc
 50
158.4763389999999
 51
64.101512
  0
ARC
  5
BC49
330
B8D5
100
AcDbEntity
  8
1
  6
Continuous
100
AcDbCircle
 10
559.9998199999999
 20
224.5411129999999
 30
0.0
 40
17.5
100
AcDbArc
 50
179.1711809999999
 51
56.857793
  0
ARC
  5
BC4A
330
B8D5
100
AcDbEntity
  8
1
  6
Continuous
100
AcDbCircle
 10
559.9998199999999
 20
224.5411129999999
 30
0.0
 40
12.5015
100
AcDbArc
 50
223.465482
 51
45.22409099999999
  0
ARC
  5
BC4B
330
B8D5
100
AcDbEntity
  8
1
  6
Continuous
100
AcDbCircle
 10
198.0
 20
224.5411129999999
 30
0.0
 40
24.0
100
AcDbArc
 50
115.8984879999997
 51
21.52366099999999
  0
ARC
  5
BC4C
330
B8D5
100
AcDbEntity
  8
1
  6
Continuous
100
AcDbCircle
 10
198.0
 20
224.5411129999999
 30
0.0
 40
17.5
100
AcDbArc
 50
123.142207
 51
0.828819
  0
ARC
  5
BC4D
330
B8D5
100
AcDbEntity
  8
1
  6
Continuous
100
AcDbCircle
 10
198.0
 20
224.5411129999999
 30
0.0
 40
12.5015
100
AcDbArc
 50
134.775909
 51
316.534518
  0
LINE
  5
BC4E
330
B8D5
100
AcDbEntity
  8
4
  6
CENTER
100
AcDbLine
 10
198.0
 20
402.515242
 30
0.0
 11
198.0
 21
356.2138759999998
 31
0.0
  0
ARC
  5
BC4F
330
B8D5
100
AcDbEntity
  8
5
  6
PHANTOM
100
AcDbCircle
 10
483.1498199999998
 20
187.5411129999999
 30
0.0
 40
3.0
100
AcDbArc
 50
90.0
 51
180.0
  0
LINE
  5
BC50
330
B8D5
100
AcDbEntity
  8
5
  6
PHANTOM
100
AcDbLine
 10
480.14982
 20
184.541113
 30
0.0
 11
517.8498199999998
 21
184.541113
 31
0.0
  0
LINE
  5
BC51
330
B8D5
100
AcDbEntity
  8
5
  6
PHANTOM
100
AcDbLine
 10
483.1498199999998
 20
190.541113
 30
0.0
 11
514.84982
 21
190.541113
 31
0.0
  0
LINE
  5
BC52
330
B8D5
100
AcDbEntity
  8
5
  6
PHANTOM
100
AcDbLine
 10
481.74982
 20
178.041113
 30
0.0
 11
516.2498199999999
 21
178.041113
 31
0.0
  0
LINE
  5
BC53
330
B8D5
100
AcDbEntity
  8
5
  6
PHANTOM
100
AcDbLine
 10
481.74982
 20
184.541113
 30
0.0
 11
481.74982
 21
178.041113
 31
0.0
  0
LINE
  5
BC54
330
B8D5
100
AcDbEntity
  8
5
  6
PHANTOM
100
AcDbLine
 10
480.14982
 20
187.5411129999999
 30
0.0
 11
480.14982
 21
184.541113
 31
0.0
  0
ARC
  5
BC55
330
B8D5
100
AcDbEntity
  8
5
  6
PHANTOM
100
AcDbCircle
 10
514.84982
 20
187.5411129999999
 30
0.0
 40
3.0
100
AcDbArc
 50
0.0
 51
90.0
  0
LINE
  5
BC56
330
B8D5
100
AcDbEntity
  8
5
  6
PHANTOM
100
AcDbLine
 10
516.2498199999999
 20
184.541113
 30
0.0
 11
516.2498199999999
 21
178.041113
 31
0.0
  0
LINE
  5
BC57
330
B8D5
100
AcDbEntity
  8
5
  6
PHANTOM
100
AcDbLine
 10
517.8498199999998
 20
184.541113
 30
0.0
 11
517.8498199999998
 21
187.5411129999999
 31
0.0
  0
ARC
  5
BC58
330
B8D5
100
AcDbEntity
  8
5
  6
PHANTOM
100
AcDbCircle
 10
483.1498199999998
 20
217.541113
 30
0.0
 40
3.0
100
AcDbArc
 50
90.0
 51
180.0
  0
LINE
  5
BC59
330
B8D5
100
AcDbEntity
  8
5
  6
PHANTOM
100
AcDbLine
 10
481.74982
 20
208.0411129999998
 30
0.0
 11
516.2498199999999
 21
208.0411129999998
 31
0.0
  0
LINE
  5
BC5A
330
B8D5
100
AcDbEntity
  8
5
  6
PHANTOM
100
AcDbLine
 10
480.14982
 20
214.5411129999998
 30
0.0
 11
517.8498199999998
 21
214.5411129999998
 31
0.0
  0
LINE
  5
BC5B
330
B8D5
100
AcDbEntity
  8
5
  6
PHANTOM
100
AcDbLine
 10
481.74982
 20
214.5411129999998
 30
0.0
 11
481.74982
 21
208.0411129999998
 31
0.0
  0
LINE
  5
BC5C
330
B8D5
100
AcDbEntity
  8
5
  6
PHANTOM
100
AcDbLine
 10
480.14982
 20
217.541113
 30
0.0
 11
480.14982
 21
214.5411129999998
 31
0.0
  0
LINE
  5
BC5D
330
B8D5
100
AcDbEntity
  8
5
  6
PHANTOM
100
AcDbLine
 10
483.1498199999998
 20
220.5411129999998
 30
0.0
 11
514.84982
 21
220.5411129999998
 31
0.0
  0
ARC
  5
BC5E
330
B8D5
100
AcDbEntity
  8
5
  6
PHANTOM
100
AcDbCircle
 10
514.84982
 20
217.541113
 30
0.0
 40
3.0
100
AcDbArc
 50
0.0
 51
90.0
  0
LINE
  5
BC5F
330
B8D5
100
AcDbEntity
  8
5
  6
PHANTOM
100
AcDbLine
 10
516.2498199999999
 20
214.5411129999998
 30
0.0
 11
516.2498199999999
 21
208.0411129999998
 31
0.0
  0
LINE
  5
BC60
330
B8D5
100
AcDbEntity
  8
5
  6
PHANTOM
100
AcDbLine
 10
517.8498199999998
 20
214.5411129999998
 30
0.0
 11
517.8498199999998
 21
217.541113
 31
0.0
  0
LINE
  5
BC61
330
B8D5
100
AcDbEntity
  8
5
  6
PHANTOM
100
AcDbLine
 10
243.15
 20
220.5411129999998
 30
0.0
 11
274.85
 21
220.5411129999998
 31
0.0
  0
LINE
  5
BC62
330
B8D5
100
AcDbEntity
  8
5
  6
PHANTOM
100
AcDbLine
 10
240.1499999999999
 20
214.5411129999998
 30
0.0
 11
277.85
 21
214.5411129999998
 31
0.0
  0
LINE
  5
BC63
330
B8D5
100
AcDbEntity
  8
5
  6
PHANTOM
100
AcDbLine
 10
241.7499999999999
 20
208.0411129999998
 30
0.0
 11
276.25
 21
208.0411129999998
 31
0.0
  0
ARC
  5
BC64
330
B8D5
100
AcDbEntity
  8
5
  6
PHANTOM
100
AcDbCircle
 10
274.85
 20
217.541113
 30
0.0
 40
3.0
100
AcDbArc
 50
0.0
 51
90.0
  0
LINE
  5
BC65
330
B8D5
100
AcDbEntity
  8
5
  6
PHANTOM
100
AcDbLine
 10
277.85
 20
214.5411129999998
 30
0.0
 11
277.85
 21
217.541113
 31
0.0
  0
LINE
  5
BC66
330
B8D5
100
AcDbEntity
  8
5
  6
PHANTOM
100
AcDbLine
 10
276.25
 20
214.5411129999998
 30
0.0
 11
276.25
 21
208.0411129999998
 31
0.0
  0
ARC
  5
BC67
330
B8D5
100
AcDbEntity
  8
5
  6
PHANTOM
100
AcDbCircle
 10
243.15
 20
217.541113
 30
0.0
 40
3.0
100
AcDbArc
 50
90.0
 51
180.0
  0
LINE
  5
BC68
330
B8D5
100
AcDbEntity
  8
5
  6
PHANTOM
100
AcDbLine
 10
240.1499999999999
 20
217.541113
 30
0.0
 11
240.1499999999999
 21
214.5411129999998
 31
0.0
  0
LINE
  5
BC69
330
B8D5
100
AcDbEntity
  8
5
  6
PHANTOM
100
AcDbLine
 10
241.7499999999999
 20
214.5411129999998
 30
0.0
 11
241.7499999999999
 21
208.0411129999998
 31
0.0
  0
ARC
  5
BC6A
330
B8D5
100
AcDbEntity
  8
5
  6
PHANTOM
100
AcDbCircle
 10
243.15
 20
187.5411129999999
 30
0.0
 40
3.0
100
AcDbArc
 50
90.0
 51
180.0
  0
LINE
  5
BC6B
330
B8D5
100
AcDbEntity
  8
5
  6
PHANTOM
100
AcDbLine
 10
240.1499999999999
 20
184.541113
 30
0.0
 11
277.85
 21
184.541113
 31
0.0
  0
LINE
  5
BC6C
330
B8D5
100
AcDbEntity
  8
5
  6
PHANTOM
100
AcDbLine
 10
241.7499999999999
 20
184.541113
 30
0.0
 11
241.7499999999999
 21
178.041113
 31
0.0
  0
LINE
  5
BC6D
330
B8D5
100
AcDbEntity
  8
5
  6
PHANTOM
100
AcDbLine
 10
240.1499999999999
 20
187.5411129999999
 30
0.0
 11
240.1499999999999
 21
184.541113
 31
0.0
  0
LINE
  5
BC6E
330
B8D5
100
AcDbEntity
  8
5
  6
PHANTOM
100
AcDbLine
 10
243.15
 20
190.541113
 30
0.0
 11
274.85
 21
190.541113
 31
0.0
  0
ARC
  5
BC6F
330
B8D5
100
AcDbEntity
  8
5
  6
PHANTOM
100
AcDbCircle
 10
274.85
 20
187.5411129999999
 30
0.0
 40
3.0
100
AcDbArc
 50
0.0
 51
90.0
  0
LINE
  5
BC70
330
B8D5
100
AcDbEntity
  8
5
  6
PHANTOM
100
AcDbLine
 10
241.7499999999999
 20
178.041113
 30
0.0
 11
276.25
 21
178.041113
 31
0.0
  0
LINE
  5
BC71
330
B8D5
100
AcDbEntity
  8
5
  6
PHANTOM
100
AcDbLine
 10
276.25
 20
184.541113
 30
0.0
 11
276.25
 21
178.041113
 31
0.0
  0
LINE
  5
BC72
330
B8D5
100
AcDbEntity
  8
5
  6
PHANTOM
100
AcDbLine
 10
277.85
 20
184.541113
 30
0.0
 11
277.85
 21
187.5411129999999
 31
0.0
  0
ENDSEC
  0
SECTION
  2
OBJECTS
  0
DICTIONARY
  5
B8C3
330
0
100
AcDbDictionary
281
     1
  3
ACAD_CIP_PREVIOUS_PRODUCT_INFO
350
BCD4
  3
ACAD_COLOR
350
BCB6
  3
ACAD_DETAILVIEWSTYLE
350
BCCF
  3
ACAD_GROUP
350
B8C4
  3
ACAD_LAYOUT
350
B8D0
  3
ACAD_MATERIAL
350
BC84
  3
ACAD_MLEADERSTYLE
350
BCCB
  3
ACAD_MLINESTYLE
350
B8CD
  3
ACAD_PLOTSETTINGS
350
B8CF
  3
ACAD_PLOTSTYLENAME
350
BC82
  3
ACAD_SCALELIST
350
BCB9
  3
ACAD_SECTIONVIEWSTYLE
350
BCCD
  3
ACAD_TABLESTYLE
350
BCB7
  3
ACAD_VISUALSTYLE
350
BC9D
  3
ACDB_RECOMPOSE_DATA
350
BCF2
  3
AcDbVariableDictionary
350
BCE5
  3
DWGPROPS
350
BCF3
  0
DICTIONARY
  5
BCD5
330
B8C7
100
AcDbDictionary
280
     1
281
     1
  3
ADSK_XREC_LAYER_RECONCILED
360
BCD6
  0
DICTIONARY
  5
BCD7
330
B8DD
100
AcDbDictionary
280
     1
281
     1
  3
ADSK_XREC_LAYER_RECONCILED
360
BCD8
  0
DICTIONARY
  5
BCD9
330
B8DE
100
AcDbDictionary
280
     1
281
     1
  3
ADSK_XREC_LAYER_RECONCILED
360
BCDA
  0
DICTIONARY
  5
BCDB
330
B8DF
100
AcDbDictionary
280
     1
281
     1
  3
ADSK_XREC_LAYER_RECONCILED
360
BCDC
  0
DICTIONARY
  5
BCDD
330
B8E0
100
AcDbDictionary
280
     1
281
     1
  3
ADSK_XREC_LAYER_RECONCILED
360
BCDE
  0
DICTIONARY
  5
BCDF
330
B8E1
100
AcDbDictionary
280
     1
281
     1
  3
ADSK_XREC_LAYER_RECONCILED
360
BCE0
  0
DICTIONARY
  5
BCE1
330
B8E2
100
AcDbDictionary
280
     1
281
     1
  3
ADSK_XREC_LAYER_RECONCILED
360
BCE2
  0
DICTIONARY
  5
BCE3
330
B8E3
100
AcDbDictionary
280
     1
281
     1
  3
ADSK_XREC_LAYER_RECONCILED
360
BCE4
  0
DICTIONARY
  5
BC7D
330
B8D5
100
AcDbDictionary
281
     1
  3
ACAD_LAYOUTSELFREF
350
BC7E
  0
DICTIONARY
  5
BC7B
330
B8D1
100
AcDbDictionary
281
     1
  3
ACAD_LAYOUTSELFREF
350
BC7C
  0
XRECORD
  5
BCD4
102
{ACAD_REACTORS
330
B8C3
102
}
330
B8C3
100
AcDbXrecord
280
     1
300
ACDLT
300
2014
300
ACDLT_F_S
  0
DICTIONARY
  5
BCB6
102
{ACAD_REACTORS
330
B8C3
102
}
330
B8C3
100
AcDbDictionary
281
     1
  0
DICTIONARY
  5
BCCF
102
{ACAD_REACTORS
330
B8C3
102
}
330
B8C3
100
AcDbDictionary
281
     1
  3
Imperial24
350
BCD0
  0
DICTIONARY
  5
B8C4
102
{ACAD_REACTORS
330
B8C3
102
}
330
B8C3
100
AcDbDictionary
281
     1
  0
DICTIONARY
  5
B8D0
102
{ACAD_REACTORS
330
B8C3
102
}
330
B8C3
100
AcDbDictionary
281
     1
  3
Model
350
BCD1
  3
レイアウト1
350
BCD2
  0
DICTIONARY
  5
BC84
102
{ACAD_REACTORS
330
B8C3
102
}
330
B8C3
100
AcDbDictionary
281
     1
  3
ByBlock
350
BC8D
  3
ByLayer
350
BC85
  3
Global
350
BC95
  0
DICTIONARY
  5
BCCB
102
{ACAD_REACTORS
330
B8C3
102
}
330
B8C3
100
AcDbDictionary
281
     1
  3
Standard
350
BCCC
  0
DICTIONARY
  5
B8CD
102
{ACAD_REACTORS
330
B8C3
102
}
330
B8C3
100
AcDbDictionary
281
     1
  3
STANDARD
350
B8CE
  0
DICTIONARY
  5
B8CF
102
{ACAD_REACTORS
330
B8C3
102
}
330
B8C3
100
AcDbDictionary
281
     1
  0
ACDBDICTIONARYWDFLT
  5
BC82
102
{ACAD_REACTORS
330
B8C3
102
}
330
B8C3
100
AcDbDictionary
281
     1
  3
Normal
350
BC83
100
AcDbDictionaryWithDefault
340
BC83
  0
DICTIONARY
  5
BCB9
102
{ACAD_REACTORS
330
B8C3
102
}
330
B8C3
100
AcDbDictionary
281
     1
  3
A0
350
BCBA
  3
A1
350
BCBB
  3
A2
350
BCBC
  3
A3
350
BCBD
  3
A4
350
BCBE
  3
A5
350
BCBF
  3
A6
350
BCC0
  3
A7
350
BCC1
  3
A8
350
BCC2
  3
A9
350
BCC3
  3
B0
350
BCC4
  3
B1
350
BCC5
  3
B2
350
BCC6
  3
B3
350
BCC7
  3
B4
350
BCC8
  3
B5
350
BCC9
  3
B6
350
BCCA
  0
DICTIONARY
  5
BCCD
102
{ACAD_REACTORS
330
B8C3
102
}
330
B8C3
100
AcDbDictionary
281
     1
  3
Imperial24
350
BCCE
  0
DICTIONARY
  5
BCB7
102
{ACAD_REACTORS
330
B8C3
102
}
330
B8C3
100
AcDbDictionary
281
     1
  3
Standard
350
BCB8
  0
DICTIONARY
  5
BC9D
102
{ACAD_REACTORS
330
B8C3
102
}
330
B8C3
100
AcDbDictionary
281
     1
  3
2dWireframe
350
BCA3
  3
Basic
350
BCA2
  3
Brighten
350
BCA9
  3
ColorChange
350
BCAD
  3
Conceptual
350
BCA6
  3
Dim
350
BCA8
  3
EdgeColorOff
350
BCB5
  3
Facepattern
350
BCAC
  3
Flat
350
BC9E
  3
FlatWithEdges
350
BC9F
  3
Gouraud
350
BCA0
  3
GouraudWithEdges
350
BCA1
  3
Hidden
350
BCA5
  3
JitterOff
350
BCB3
  3
Linepattern
350
BCAB
  3
OverhangOff
350
BCB4
  3
Realistic
350
BCA7
  3
Shaded
350
BCB2
  3
Shaded with edges
350
BCB1
  3
Shades of Gray
350
BCAE
  3
Sketchy
350
BCAF
  3
Thicken
350
BCAA
  3
Wireframe
350
BCA4
  3
X-Ray
350
BCB0
  0
XRECORD
  5
BCF2
102
{ACAD_REACTORS
330
B8C3
102
}
330
B8C3
100
AcDbXrecord
280
     1
 90
        1
330
BCB8
  0
DICTIONARY
  5
BCE5
102
{ACAD_REACTORS
330
B8C3
102
}
330
B8C3
100
AcDbDictionary
281
     1
  3
CANNOSCALE
350
BCEA
  3
CMLEADERSTYLE
350
BCE7
  3
CTABLESTYLE
350
BCE6
  3
CVIEWDETAILSTYLE
350
BCE8
  3
CVIEWSECTIONSTYLE
350
BCE9
  3
DIMASSOC
350
BCED
  3
INDEXCTL
350
BCEC
  3
SORTENTS
350
BCEB
  3
XCLIPFRAME
350
BCEE
  0
XRECORD
  5
BCF3
102
{ACAD_REACTORS
330
B8C3
102
}
330
B8C3
100
AcDbXrecord
280
     1
  1
DWGPROPS COOKIE
  2

  3

  4

  6

  7

  8
Yoshitsune
  9

300
=
301
=
302
=
303
=
304
=
305
=
306
=
307
=
308
=
309
=
 40
0.0071704050925926
 41
2451301.435604282
 42
2457192.686796239
  1

 90
        0
  0
XRECORD
  5
BCD6
102
{ACAD_REACTORS
330
BCD5
102
}
330
BCD5
100
AcDbXrecord
280
     1
290
     1
  0
XRECORD
  5
BCD8
102
{ACAD_REACTORS
330
BCD7
102
}
330
BCD7
100
AcDbXrecord
280
     1
290
     1
  0
XRECORD
  5
BCDA
102
{ACAD_REACTORS
330
BCD9
102
}
330
BCD9
100
AcDbXrecord
280
     1
290
     1
  0
XRECORD
  5
BCDC
102
{ACAD_REACTORS
330
BCDB
102
}
330
BCDB
100
AcDbXrecord
280
     1
290
     1
  0
XRECORD
  5
BCDE
102
{ACAD_REACTORS
330
BCDD
102
}
330
BCDD
100
AcDbXrecord
280
     1
290
     1
  0
XRECORD
  5
BCE0
102
{ACAD_REACTORS
330
BCDF
102
}
330
BCDF
100
AcDbXrecord
280
     1
290
     1
  0
XRECORD
  5
BCE2
102
{ACAD_REACTORS
330
BCE1
102
}
330
BCE1
100
AcDbXrecord
280
     1
290
     1
  0
XRECORD
  5
BCE4
102
{ACAD_REACTORS
330
BCE3
102
}
330
BCE3
100
AcDbXrecord
280
     1
290
     1
  0
XRECORD
  5
BC7E
102
{ACAD_REACTORS
330
BC7D
102
}
330
BC7D
100
AcDbXrecord
280
     1
340
B8D5
  0
XRECORD
  5
BC7C
102
{ACAD_REACTORS
330
BC7B
102
}
330
BC7B
100
AcDbXrecord
280
     1
340
B8D1
  0
ACDBDETAILVIEWSTYLE
  5
BCD0
102
{ACAD_XDICTIONARY
360
BD2B
102
}
102
{ACAD_REACTORS
330
BCCF
102
}
330
BCCF
100
AcDbModelDocViewStyle
 70
     0
  3
Imperial24
290
     0
100
AcDbDetailViewStyle
 70
     0
 71
     0
 90
        3
 71
     1
340
B8C8
 40
0.24
340
0
 40
0.24
300

 40
0.36
280
     3
 71
     2
340
B8CC
 90
       25
 71
     3
340
B8C8
 40
0.24
 90
        1
 40
0.75
 90
        1
300
%<\AcVar ViewType \f "%tc1">% %<\AcVar ViewDetailId>%\PSCALE %<\AcVar ViewScale \f "%sn">%
 71
     4
340
B8CC
 90
       25
340
B8CC
 90
       25
280
     0
  0
LAYOUT
  5
BCD1
102
{ACAD_XDICTIONARY
360
BD2D
102
}
102
{ACAD_REACTORS
330
B8D0
102
}
330
B8D0
100
AcDbPlotSettings
  1

  2
Canon LBP9100C
  4

  6

 40
0.0
 41
0.0
 42
0.0
 43
0.0
 44
0.0
 45
0.0
 46
0.0
 47
0.0
 48
0.0
 49
0.0
140
0.0
141
0.0
142
1.0
143
1.0
 70
  1712
 72
     0
 73
     0
 74
     0
  7

 75
     0
147
1.0
148
0.0
149
0.0
100
AcDbLayout
  1
Model
 70
     1
 71
     0
 10
0.0
 20
0.0
 11
12.0
 21
9.0
 12
0.0
 22
0.0
 32
0.0
 14
0.0
 24
0.0
 34
0.0
 15
0.0
 25
0.0
 35
0.0
146
0.0
 13
0.0
 23
0.0
 33
0.0
 16
1.0
 26
0.0
 36
0.0
 17
0.0
 27
1.0
 37
0.0
 76
     0
330
B8D5
331
BC7A
  0
LAYOUT
  5
BCD2
102
{ACAD_XDICTIONARY
360
BD2F
102
}
102
{ACAD_REACTORS
330
B8D0
102
}
330
B8D0
100
AcDbPlotSettings
  1

  2
Canon LBP9100C
  4

  6

 40
0.0
 41
0.0
 42
0.0
 43
0.0
 44
0.0
 45
0.0
 46
0.0
 47
0.0
 48
0.0
 49
0.0
140
0.0
141
0.0
142
1.0
143
1.0
 70
   688
 72
     0
 73
     0
 74
     5
  7

 75
    16
147
1.0
148
0.0
149
0.0
100
AcDbLayout
  1
レイアウト1
 70
     0
 71
     1
 10
0.0
 20
0.0
 11
420.0
 21
297.0
 12
0.0
 22
0.0
 32
0.0
 14
1.000000000000000E+20
 24
1.000000000000000E+20
 34
1.000000000000000E+20
 15
-1.000000000000000E+20
 25
-1.000000000000000E+20
 35
-1.000000000000000E+20
146
0.0
 13
0.0
 23
0.0
 33
0.0
 16
1.0
 26
0.0
 36
0.0
 17
0.0
 27
1.0
 37
0.0
 76
     0
330
B8D1
  0
MATERIAL
  5
BC8D
102
{ACAD_XDICTIONARY
360
BC8E
102
}
102
{ACAD_REACTORS
330
BC84
102
}
330
BC84
100
AcDbMaterial
  1
ByBlock
 72
     0
 43
0.0208333333333333
 43
0.0
 43
0.0
 43
0.0
 43
0.0
 43
0.0208333333333333
 43
0.0
 43
0.0
 43
0.0
 43
0.0
 43
1.0
 43
0.0
 43
0.0
 43
0.0
 43
0.0
 43
1.0
 77
     0
 47
0.0208333333333333
 47
0.0
 47
0.0
 47
0.0
 47
0.0
 47
0.0208333333333333
 47
0.0
 47
0.0
 47
0.0
 47
0.0
 47
1.0
 47
0.0
 47
0.0
 47
0.0
 47
0.0
 47
1.0
171
     0
 49
0.0208333333333333
 49
0.0
 49
0.0
 49
0.0
 49
0.0
 49
0.0208333333333333
 49
0.0
 49
0.0
 49
0.0
 49
0.0
 49
1.0
 49
0.0
 49
0.0
 49
0.0
 49
0.0
 49
1.0
175
     0
142
0.0208333333333333
142
0.0
142
0.0
142
0.0
142
0.0
142
0.0208333333333333
142
0.0
142
0.0
142
0.0
142
0.0
142
1.0
142
0.0
142
0.0
142
0.0
142
0.0
142
1.0
179
     0
144
0.0208333333333333
144
0.0
144
0.0
144
0.0
144
0.0
144
0.0208333333333333
144
0.0
144
0.0
144
0.0
144
0.0
144
1.0
144
0.0
144
0.0
144
0.0
144
0.0
144
1.0
147
0.0208333333333333
147
0.0
147
0.0
147
0.0
147
0.0
147
0.0208333333333333
147
0.0
147
0.0
147
0.0
147
0.0
147
1.0
147
0.0
147
0.0
147
0.0
147
0.0
147
1.0
  0
MATERIAL
  5
BC85
102
{ACAD_XDICTIONARY
360
BC86
102
}
102
{ACAD_REACTORS
330
BC84
102
}
330
BC84
100
AcDbMaterial
  1
ByLayer
 72
     0
 43
0.0208333333333333
 43
0.0
 43
0.0
 43
0.0
 43
0.0
 43
0.0208333333333333
 43
0.0
 43
0.0
 43
0.0
 43
0.0
 43
1.0
 43
0.0
 43
0.0
 43
0.0
 43
0.0
 43
1.0
 77
     0
 47
0.0208333333333333
 47
0.0
 47
0.0
 47
0.0
 47
0.0
 47
0.0208333333333333
 47
0.0
 47
0.0
 47
0.0
 47
0.0
 47
1.0
 47
0.0
 47
0.0
 47
0.0
 47
0.0
 47
1.0
171
     0
 49
0.0208333333333333
 49
0.0
 49
0.0
 49
0.0
 49
0.0
 49
0.0208333333333333
 49
0.0
 49
0.0
 49
0.0
 49
0.0
 49
1.0
 49
0.0
 49
0.0
 49
0.0
 49
0.0
 49
1.0
175
     0
142
0.0208333333333333
142
0.0
142
0.0
142
0.0
142
0.0
142
0.0208333333333333
142
0.0
142
0.0
142
0.0
142
0.0
142
1.0
142
0.0
142
0.0
142
0.0
142
0.0
142
1.0
179
     0
144
0.0208333333333333
144
0.0
144
0.0
144
0.0
144
0.0
144
0.0208333333333333
144
0.0
144
0.0
144
0.0
144
0.0
144
1.0
144
0.0
144
0.0
144
0.0
144
0.0
144
1.0
147
0.0208333333333333
147
0.0
147
0.0
147
0.0
147
0.0
147
0.0208333333333333
147
0.0
147
0.0
147
0.0
147
0.0
147
1.0
147
0.0
147
0.0
147
0.0
147
0.0
147
1.0
  0
MATERIAL
  5
BC95
102
{ACAD_XDICTIONARY
360
BC96
102
}
102
{ACAD_REACTORS
330
BC84
102
}
330
BC84
100
AcDbMaterial
  1
Global
 72
     0
 43
0.0208333333333333
 43
0.0
 43
0.0
 43
0.0
 43
0.0
 43
0.0208333333333333
 43
0.0
 43
0.0
 43
0.0
 43
0.0
 43
1.0
 43
0.0
 43
0.0
 43
0.0
 43
0.0
 43
1.0
 77
     0
 47
0.0208333333333333
 47
0.0
 47
0.0
 47
0.0
 47
0.0
 47
0.0208333333333333
 47
0.0
 47
0.0
 47
0.0
 47
0.0
 47
1.0
 47
0.0
 47
0.0
 47
0.0
 47
0.0
 47
1.0
171
     0
 49
0.0208333333333333
 49
0.0
 49
0.0
 49
0.0
 49
0.0
 49
0.0208333333333333
 49
0.0
 49
0.0
 49
0.0
 49
0.0
 49
1.0
 49
0.0
 49
0.0
 49
0.0
 49
0.0
 49
1.0
175
     0
142
0.0208333333333333
142
0.0
142
0.0
142
0.0
142
0.0
142
0.0208333333333333
142
0.0
142
0.0
142
0.0
142
0.0
142
1.0
142
0.0
142
0.0
142
0.0
142
0.0
142
1.0
179
     0
144
0.0208333333333333
144
0.0
144
0.0
144
0.0
144
0.0
144
0.0208333333333333
144
0.0
144
0.0
144
0.0
144
0.0
144
1.0
144
0.0
144
0.0
144
0.0
144
0.0
144
1.0
147
0.0208333333333333
147
0.0
147
0.0
147
0.0
147
0.0
147
0.0208333333333333
147
0.0
147
0.0
147
0.0
147
0.0
147
1.0
147
0.0
147
0.0
147
0.0
147
0.0
147
1.0
  0
MLEADERSTYLE
  5
BCCC
102
{ACAD_REACTORS
330
BCCB
102
}
330
BCCB
100
AcDbMLeaderStyle
170
     2
171
     1
172
     0
 90
        2
 40
0.0
 41
0.0
173
     1
 91
-1056964608
340
B8CA
 92
       -2
290
     1
 42
0.09
291
     1
 43
0.36
  3
Standard
 44
0.18
300

342
B8C8
174
     1
178
     6
175
     1
176
     0
 93
-1056964608
 45
0.18
292
     0
297
     0
 46
0.18
 94
-1056964608
 47
1.0
 49
1.0
140
1.0
293
     1
141
0.0
294
     1
177
     0
142
1.0
295
     0
296
     0
143
0.125
1001
ACAD_MLEADERVER
1070
     2
  0
MLINESTYLE
  5
B8CE
102
{ACAD_REACTORS
330
B8CD
102
}
330
B8CD
100
AcDbMlineStyle
  2
STANDARD
 70
     0
  3

 62
   256
 51
90.0
 52
90.0
 71
     2
 49
0.5
 62
   256
  6
BYLAYER
 49
-0.5
 62
   256
  6
BYLAYER
  0
ACDBPLACEHOLDER
  5
BC83
102
{ACAD_REACTORS
330
BC82
102
}
330
BC82
  0
SCALE
  5
BCBA
102
{ACAD_REACTORS
330
BCB9
102
}
330
BCB9
100
AcDbScale
 70
     0
300
1:1
140
1.0
141
1.0
290
     1
  0
SCALE
  5
BCBB
102
{ACAD_REACTORS
330
BCB9
102
}
330
BCB9
100
AcDbScale
 70
     0
300
1/128" = 1'-0"
140
0.0078125
141
12.0
290
     0
  0
SCALE
  5
BCBC
102
{ACAD_REACTORS
330
BCB9
102
}
330
BCB9
100
AcDbScale
 70
     0
300
1/64" = 1'-0"
140
0.015625
141
12.0
290
     0
  0
SCALE
  5
BCBD
102
{ACAD_REACTORS
330
BCB9
102
}
330
BCB9
100
AcDbScale
 70
     0
300
1/32" = 1'-0"
140
0.03125
141
12.0
290
     0
  0
SCALE
  5
BCBE
102
{ACAD_REACTORS
330
BCB9
102
}
330
BCB9
100
AcDbScale
 70
     0
300
1/16" = 1'-0"
140
0.0625
141
12.0
290
     0
  0
SCALE
  5
BCBF
102
{ACAD_REACTORS
330
BCB9
102
}
330
BCB9
100
AcDbScale
 70
     0
300
3/32" = 1'-0"
140
0.09375
141
12.0
290
     0
  0
SCALE
  5
BCC0
102
{ACAD_REACTORS
330
BCB9
102
}
330
BCB9
100
AcDbScale
 70
     0
300
1/8" = 1'-0"
140
0.125
141
12.0
290
     0
  0
SCALE
  5
BCC1
102
{ACAD_REACTORS
330
BCB9
102
}
330
BCB9
100
AcDbScale
 70
     0
300
3/16" = 1'-0"
140
0.1875
141
12.0
290
     0
  0
SCALE
  5
BCC2
102
{ACAD_REACTORS
330
BCB9
102
}
330
BCB9
100
AcDbScale
 70
     0
300
1/4" = 1'-0"
140
0.25
141
12.0
290
     0
  0
SCALE
  5
BCC3
102
{ACAD_REACTORS
330
BCB9
102
}
330
BCB9
100
AcDbScale
 70
     0
300
3/8" = 1'-0"
140
0.375
141
12.0
290
     0
  0
SCALE
  5
BCC4
102
{ACAD_REACTORS
330
BCB9
102
}
330
BCB9
100
AcDbScale
 70
     0
300
1/2" = 1'-0"
140
0.5
141
12.0
290
     0
  0
SCALE
  5
BCC5
102
{ACAD_REACTORS
330
BCB9
102
}
330
BCB9
100
AcDbScale
 70
     0
300
3/4" = 1'-0"
140
0.75
141
12.0
290
     0
  0
SCALE
  5
BCC6
102
{ACAD_REACTORS
330
BCB9
102
}
330
BCB9
100
AcDbScale
 70
     0
300
1" = 1'-0"
140
1.0
141
12.0
290
     0
  0
SCALE
  5
BCC7
102
{ACAD_REACTORS
330
BCB9
102
}
330
BCB9
100
AcDbScale
 70
     0
300
1-1/2" = 1'-0"
140
1.5
141
12.0
290
     0
  0
SCALE
  5
BCC8
102
{ACAD_REACTORS
330
BCB9
102
}
330
BCB9
100
AcDbScale
 70
     0
300
3" = 1'-0"
140
3.0
141
12.0
290
     0
  0
SCALE
  5
BCC9
102
{ACAD_REACTORS
330
BCB9
102
}
330
BCB9
100
AcDbScale
 70
     0
300
6" = 1'-0"
140
6.0
141
12.0
290
     0
  0
SCALE
  5
BCCA
102
{ACAD_REACTORS
330
BCB9
102
}
330
BCB9
100
AcDbScale
 70
     0
300
1'-0" = 1'-0"
140
12.0
141
12.0
290
     0
  0
ACDBSECTIONVIEWSTYLE
  5
BCCE
102
{ACAD_XDICTIONARY
360
BD29
102
}
102
{ACAD_REACTORS
330
BCCD
102
}
330
BCCD
100
AcDbModelDocViewStyle
 70
     0
  3
Imperial24
290
     0
100
AcDbSectionViewStyle
 70
     0
 71
     0
 90
       78
 71
     1
340
B8C8
 40
0.24
340
0
340
0
 40
0.24
300
I, O, Q, S, X, Z
 40
0.48
 90
        3
 40
0.18
 90
        1
 71
     2
340
B8CC
 90
       25
340
B8CC
 90
       50
 40
0.24
 40
0.0
 40
0.24
 71
     3
340
B8C8
 40
0.24
 90
        1
 40
0.75
 90
        1
300
%<\AcVar ViewType \f "%tc1">% %<\AcVar ViewSectionStartId>%-%<\AcVar ViewSectionEndId>%\PSCALE %<\AcVar ViewScale \f "%sn">%
 71
     4
300
ANSI31
 40
1.0
 90
        0
290
     0
290
     0
 90
        6
 40
0.0
 40
1.570796326794896
 40
0.2617993877991494
 40
1.308996938995747
 40
-0.2617993877991494
 40
1.832595714594046
  0
TABLESTYLE
  5
BCB8
102
{ACAD_XDICTIONARY
360
BCF0
102
}
102
{ACAD_REACTORS
330
BCB7
102
}
330
BCB7
100
AcDbTableStyle
  3
Standard
 70
     0
 71
     0
 40
0.06
 41
0.06
280
     0
281
     0
  7
STANDARD
140
0.18
170
     2
 62
     0
 63
     7
283
     0
274
    -2
284
     1
 64
     0
275
    -2
285
     1
 65
     0
276
    -2
286
     1
 66
     0
277
    -2
287
     1
 67
     0
278
    -2
288
     1
 68
     0
279
    -2
289
     1
 69
     0
  7
STANDARD
140
0.25
170
     5
 62
     0
 63
     7
283
     0
274
    -2
284
     1
 64
     0
275
    -2
285
     1
 65
     0
276
    -2
286
     1
 66
     0
277
    -2
287
     1
 67
     0
278
    -2
288
     1
 68
     0
279
    -2
289
     1
 69
     0
  7
STANDARD
140
0.18
170
     5
 62
     0
 63
     7
283
     0
274
    -2
284
     1
 64
     0
275
    -2
285
     1
 65
     0
276
    -2
286
     1
 66
     0
277
    -2
287
     1
 67
     0
278
    -2
288
     1
 68
     0
279
    -2
289
     1
 69
     0
  0
VISUALSTYLE
  5
BCA3
102
{ACAD_XDICTIONARY
360
BD01
102
}
102
{ACAD_REACTORS
330
BC9D
102
}
330
BC9D
100
AcDbVisualStyle
  2
2dWireframe
 70
     4
 71
     0
 72
     2
 73
     0
 90
        0
 40
-0.6
 41
-30.0
 62
     5
 63
     7
 74
     1
 91
        4
 64
     7
 65
   257
 75
     1
175
     1
 42
1.0
 92
        0
 66
   257
 43
1.0
 76
     1
 77
     6
 78
     2
 67
     7
 79
     5
170
     0
171
     0
290
     0
174
     0
 93
        1
 44
0.0
173
     0
291
     0
 45
0.0
1001
ACAD
1000
AcDbSavedByObjectVersion
1070
     0
  0
VISUALSTYLE
  5
BCA2
102
{ACAD_XDICTIONARY
360
BCFF
102
}
102
{ACAD_REACTORS
330
BC9D
102
}
330
BC9D
100
AcDbVisualStyle
  2
Basic
 70
     7
 71
     1
 72
     0
 73
     1
 90
        0
 40
-0.6
 41
-30.0
 62
     5
 63
     7
 74
     0
 91
        4
 64
     7
 65
   257
 75
     1
175
     1
 42
1.0
 92
        8
 66
     7
 43
1.0
 76
     1
 77
     6
 78
     2
 67
     7
 79
     5
170
     0
171
     0
290
     0
174
     0
 93
        1
 44
0.0
173
     0
291
     1
 45
0.0
1001
ACAD
1000
AcDbSavedByObjectVersion
1070
     0
  0
VISUALSTYLE
  5
BCA9
102
{ACAD_XDICTIONARY
360
BD0D
102
}
102
{ACAD_REACTORS
330
BC9D
102
}
330
BC9D
100
AcDbVisualStyle
  2
Brighten
 70
    12
 71
     2
 72
     2
 73
     0
 90
        0
 40
-0.6
 41
-30.0
 62
     5
 63
     7
 74
     1
 91
        4
 64
     7
 65
   257
 75
     1
175
     1
 42
1.0
 92
        8
 66
     7
 43
1.0
 76
     1
 77
     6
 78
     2
 67
     7
 79
     5
170
     0
171
     0
290
     0
174
     0
 93
        1
 44
50.0
173
     0
291
     1
 45
0.0
1001
ACAD
1000
AcDbSavedByObjectVersion
1070
     0
  0
VISUALSTYLE
  5
BCAD
102
{ACAD_XDICTIONARY
360
BD15
102
}
102
{ACAD_REACTORS
330
BC9D
102
}
330
BC9D
100
AcDbVisualStyle
  2
ColorChange
 70
    16
 71
     2
 72
     2
 73
     3
 90
        0
 40
-0.6
 41
-30.0
 62
     5
 63
     8
 74
     1
 91
        4
 64
     7
 65
   257
 75
     1
175
     1
 42
1.0
 92
        8
 66
     8
 43
1.0
 76
     1
 77
     6
 78
     2
 67
     7
 79
     5
170
     0
171
     0
290
     0
174
     0
 93
        1
 44
0.0
173
     0
291
     1
 45
0.0
1001
ACAD
1000
AcDbSavedByObjectVersion
1070
     0
  0
VISUALSTYLE
  5
BCA6
102
{ACAD_XDICTIONARY
360
BD07
102
}
102
{ACAD_REACTORS
330
BC9D
102
}
330
BC9D
100
AcDbVisualStyle
  2
Conceptual
 70
     9
 71
     3
 72
     2
 73
     0
 90
        0
 40
-0.6
 41
-30.0
 62
     5
 63
     7
 74
     2
 91
        2
 64
     7
 65
   257
 75
     1
175
     1
 42
179.0
 92
        8
 66
     7
 43
1.0
 76
     1
 77
     6
 78
     2
 67
     7
 79
     3
170
     0
171
     0
290
     0
174
     0
 93
        1
 44
0.0
173
     0
291
     0
 45
0.0
1001
ACAD
1000
AcDbSavedByObjectVersion
1070
     0
  0
VISUALSTYLE
  5
BCA8
102
{ACAD_XDICTIONARY
360
BD0B
102
}
102
{ACAD_REACTORS
330
BC9D
102
}
330
BC9D
100
AcDbVisualStyle
  2
Dim
 70
    11
 71
     2
 72
     2
 73
     0
 90
        0
 40
-0.6
 41
-30.0
 62
     5
 63
     7
 74
     1
 91
        4
 64
     7
 65
   257
 75
     1
175
     1
 42
1.0
 92
        8
 66
     7
 43
1.0
 76
     1
 77
     6
 78
     2
 67
     7
 79
     5
170
     0
171
     0
290
     0
174
     0
 93
        1
 44
-50.0
173
     0
291
     1
 45
0.0
1001
ACAD
1000
AcDbSavedByObjectVersion
1070
     0
  0
VISUALSTYLE
  5
BCB5
102
{ACAD_XDICTIONARY
360
BD25
102
}
102
{ACAD_REACTORS
330
BC9D
102
}
330
BC9D
100
AcDbVisualStyle
  2
EdgeColorOff
 70
    22
 71
     2
 72
     2
 73
     0
 90
        0
 40
-0.6
 41
-30.0
 62
     5
 63
     7
 74
     1
 91
        4
 64
     7
 65
   257
 75
     1
175
     1
 42
1.0
 92
        8
 66
     7
 43
1.0
 76
     1
 77
     6
 78
     2
 67
     7
 79
     5
170
     0
171
     0
290
     0
174
     0
 93
        1
 44
0.0
173
     0
291
     1
 45
0.0
1001
ACAD
1000
AcDbSavedByObjectVersion
1070
     0
  0
VISUALSTYLE
  5
BCAC
102
{ACAD_XDICTIONARY
360
BD13
102
}
102
{ACAD_REACTORS
330
BC9D
102
}
330
BC9D
100
AcDbVisualStyle
  2
Facepattern
 70
    15
 71
     2
 72
     2
 73
     0
 90
        0
 40
-0.6
 41
-30.0
 62
     5
 63
     7
 74
     1
 91
        4
 64
     7
 65
   257
 75
     1
175
     1
 42
1.0
 92
        8
 66
     7
 43
1.0
 76
     1
 77
     6
 78
     2
 67
     7
 79
     5
170
     0
171
     0
290
     0
174
     0
 93
        1
 44
0.0
173
     0
291
     1
 45
0.0
1001
ACAD
1000
AcDbSavedByObjectVersion
1070
     0
  0
VISUALSTYLE
  5
BC9E
102
{ACAD_XDICTIONARY
360
BCF7
102
}
102
{ACAD_REACTORS
330
BC9D
102
}
330
BC9D
100
AcDbVisualStyle
  2
Flat
 70
     0
 71
     2
 72
     1
 73
     1
 90
        2
 40
-0.6
 41
30.0
 62
     5
 63
     7
 74
     0
 91
        0
 64
     7
 65
   257
 75
     1
175
     1
 42
1.0
 92
        8
 66
     7
 43
1.0
 76
     1
 77
     6
 78
     2
 67
     7
 79
     5
170
     0
171
     0
290
     0
174
     0
 93
       13
 44
0.0
173
     0
291
     1
 45
0.0
1001
ACAD
1000
AcDbSavedByObjectVersion
1070
     0
  0
VISUALSTYLE
  5
BC9F
102
{ACAD_XDICTIONARY
360
BCF9
102
}
102
{ACAD_REACTORS
330
BC9D
102
}
330
BC9D
100
AcDbVisualStyle
  2
FlatWithEdges
 70
     1
 71
     2
 72
     1
 73
     1
 90
        2
 40
-0.6
 41
30.0
 62
     5
 63
     7
 74
     1
 91
        0
 64
     7
 65
   257
 75
     1
175
     1
 42
1.0
 92
        0
 66
   257
 43
1.0
 76
     1
 77
     6
 78
     2
 67
     7
 79
     5
170
     0
171
     0
290
     0
174
     0
 93
       13
 44
0.0
173
     0
291
     1
 45
0.0
1001
ACAD
1000
AcDbSavedByObjectVersion
1070
     0
  0
VISUALSTYLE
  5
BCA0
102
{ACAD_XDICTIONARY
360
BCFB
102
}
102
{ACAD_REACTORS
330
BC9D
102
}
330
BC9D
100
AcDbVisualStyle
  2
Gouraud
 70
     2
 71
     2
 72
     2
 73
     1
 90
        2
 40
-0.6
 41
30.0
 62
     5
 63
     7
 74
     0
 91
        0
 64
     7
 65
   257
 75
     1
175
     1
 42
1.0
 92
        0
 66
     7
 43
1.0
 76
     1
 77
     6
 78
     2
 67
     7
 79
     5
170
     0
171
     0
290
     0
174
     0
 93
       13
 44
0.0
173
     0
291
     1
 45
0.0
1001
ACAD
1000
AcDbSavedByObjectVersion
1070
     0
  0
VISUALSTYLE
  5
BCA1
102
{ACAD_XDICTIONARY
360
BCFD
102
}
102
{ACAD_REACTORS
330
BC9D
102
}
330
BC9D
100
AcDbVisualStyle
  2
GouraudWithEdges
 70
     3
 71
     2
 72
     2
 73
     1
 90
        2
 40
-0.6
 41
30.0
 62
     5
 63
     7
 74
     1
 91
        0
 64
     7
 65
   257
 75
     1
175
     1
 42
1.0
 92
        0
 66
   257
 43
1.0
 76
     1
 77
     6
 78
     2
 67
     7
 79
     5
170
     0
171
     0
290
     0
174
     0
 93
       13
 44
0.0
173
     0
291
     1
 45
0.0
1001
ACAD
1000
AcDbSavedByObjectVersion
1070
     0
  0
VISUALSTYLE
  5
BCA5
102
{ACAD_XDICTIONARY
360
BD05
102
}
102
{ACAD_REACTORS
330
BC9D
102
}
330
BC9D
100
AcDbVisualStyle
  2
Hidden
 70
     6
 71
     1
 72
     2
 73
     2
 90
        0
 40
-0.6
 41
-30.0
 62
     5
 63
     7
 74
     2
 91
        2
 64
     7
 65
   257
 75
     2
175
     1
 42
40.0
 92
        0
 66
   257
 43
1.0
 76
     1
 77
     6
 78
     2
 67
     7
 79
     3
170
     0
171
     0
290
     0
174
     0
 93
        1
 44
0.0
173
     0
291
     0
 45
0.0
1001
ACAD
1000
AcDbSavedByObjectVersion
1070
     0
  0
VISUALSTYLE
  5
BCB3
102
{ACAD_XDICTIONARY
360
BD21
102
}
102
{ACAD_REACTORS
330
BC9D
102
}
330
BC9D
100
AcDbVisualStyle
  2
JitterOff
 70
    20
 71
     2
 72
     2
 73
     0
 90
        0
 40
-0.6
 41
-30.0
 62
     5
 63
     7
 74
     1
 91
        4
 64
     7
 65
   257
 75
     1
175
     1
 42
1.0
 92
       10
 66
     7
 43
1.0
 76
     1
 77
     6
 78
     2
 67
     7
 79
     5
170
     0
171
     0
290
     0
174
     0
 93
        1
 44
0.0
173
     0
291
     1
 45
0.0
1001
ACAD
1000
AcDbSavedByObjectVersion
1070
     0
  0
VISUALSTYLE
  5
BCAB
102
{ACAD_XDICTIONARY
360
BD11
102
}
102
{ACAD_REACTORS
330
BC9D
102
}
330
BC9D
100
AcDbVisualStyle
  2
Linepattern
 70
    14
 71
     2
 72
     2
 73
     0
 90
        0
 40
-0.6
 41
-30.0
 62
     5
 63
     7
 74
     1
 91
        4
 64
     7
 65
   257
 75
     7
175
     7
 42
1.0
 92
        8
 66
     7
 43
1.0
 76
     1
 77
     6
 78
     2
 67
     7
 79
     5
170
     0
171
     0
290
     0
174
     0
 93
        1
 44
0.0
173
     0
291
     1
 45
0.0
1001
ACAD
1000
AcDbSavedByObjectVersion
1070
     0
  0
VISUALSTYLE
  5
BCB4
102
{ACAD_XDICTIONARY
360
BD23
102
}
102
{ACAD_REACTORS
330
BC9D
102
}
330
BC9D
100
AcDbVisualStyle
  2
OverhangOff
 70
    21
 71
     2
 72
     2
 73
     0
 90
        0
 40
-0.6
 41
-30.0
 62
     5
 63
     7
 74
     1
 91
        4
 64
     7
 65
   257
 75
     1
175
     1
 42
1.0
 92
        9
 66
     7
 43
1.0
 76
     1
 77
     6
 78
     2
 67
     7
 79
     5
170
     0
171
     0
290
     0
174
     0
 93
        1
 44
0.0
173
     0
291
     1
 45
0.0
1001
ACAD
1000
AcDbSavedByObjectVersion
1070
     0
  0
VISUALSTYLE
  5
BCA7
102
{ACAD_XDICTIONARY
360
BD09
102
}
102
{ACAD_REACTORS
330
BC9D
102
}
330
BC9D
100
AcDbVisualStyle
  2
Realistic
 70
     8
 71
     2
 72
     3
 73
     0
 90
        2
 40
-0.6
 41
30.0
 62
     5
 63
     7
 74
     0
 91
        0
 64
     7
 65
   257
 75
     1
175
     1
 42
1.0
 92
        8
 66
   257
 43
1.0
 76
     1
 77
     6
 78
     2
 67
     7
 79
     3
170
     0
171
     0
290
     0
174
     0
 93
       13
 44
0.0
173
     0
291
     0
 45
0.0
1001
ACAD
1000
AcDbSavedByObjectVersion
1070
     0
  0
VISUALSTYLE
  5
BCB2
102
{ACAD_XDICTIONARY
360
BD1F
102
}
102
{ACAD_REACTORS
330
BC9D
102
}
330
BC9D
100
AcDbVisualStyle
  2
Shaded
 70
    27
 71
     2
 72
     2
 73
     1
 90
        2
 40
-0.6
 41
30.0
 62
     5
 63
     7
 74
     0
 91
        4
 64
     7
 65
   257
 75
     1
175
     1
 42
1.0
 92
        8
 66
   257
 43
1.0
 76
     1
 77
     6
 78
     2
 67
     8
 79
     3
170
     0
171
     0
290
     0
174
     0
 93
        5
 44
0.0
173
     0
291
     0
 45
0.0
1001
ACAD
1000
AcDbSavedByObjectVersion
1070
     0
  0
VISUALSTYLE
  5
BCB1
102
{ACAD_XDICTIONARY
360
BD1D
102
}
102
{ACAD_REACTORS
330
BC9D
102
}
330
BC9D
100
AcDbVisualStyle
  2
Shaded with edges
 70
    26
 71
     2
 72
     2
 73
     1
 90
        2
 40
-0.6
 41
30.0
 62
     5
 63
     7
 74
     1
 91
       10
 64
     7
 65
   257
 75
     2
175
     1
 42
1.0
 92
        8
 66
   257
 43
1.0
 76
     1
 77
     6
 78
     2
 67
     7
 79
     3
170
     0
171
     0
290
     0
174
     0
 93
        5
 44
0.0
173
     0
291
     0
 45
0.0
1001
ACAD
1000
AcDbSavedByObjectVersion
1070
     0
  0
VISUALSTYLE
  5
BCAE
102
{ACAD_XDICTIONARY
360
BD17
102
}
102
{ACAD_REACTORS
330
BC9D
102
}
330
BC9D
100
AcDbVisualStyle
  2
Shades of Gray
 70
    23
 71
     2
 72
     2
 73
     3
 90
        0
 40
-0.6
 41
-30.0
 62
     5
 63
     7
 74
     2
 91
        2
 64
     7
 65
     7
 75
     1
175
     1
 42
40.0
 92
        8
 66
     7
 43
1.0
 76
     1
 77
     6
 78
     2
 67
     7
 79
     3
170
     0
171
     0
290
     0
174
     0
 93
        1
 44
0.0
173
     0
291
     0
 45
0.0
1001
ACAD
1000
AcDbSavedByObjectVersion
1070
     0
  0
VISUALSTYLE
  5
BCAF
102
{ACAD_XDICTIONARY
360
BD19
102
}
102
{ACAD_REACTORS
330
BC9D
102
}
330
BC9D
100
AcDbVisualStyle
  2
Sketchy
 70
    24
 71
     1
 72
     2
 73
     2
 90
        0
 40
-0.6
 41
-30.0
 62
     5
 63
     7
 74
     2
 91
        2
 64
     7
 65
     7
 75
     1
175
     1
 42
40.0
 92
       11
 66
     7
 43
1.0
 76
     1
 77
     6
 78
     2
 67
     7
 79
     6
170
     0
171
     0
290
     0
174
     0
 93
        1
 44
0.0
173
     0
291
     0
 45
0.0
1001
ACAD
1000
AcDbSavedByObjectVersion
1070
     0
  0
VISUALSTYLE
  5
BCAA
102
{ACAD_XDICTIONARY
360
BD0F
102
}
102
{ACAD_REACTORS
330
BC9D
102
}
330
BC9D
100
AcDbVisualStyle
  2
Thicken
 70
    13
 71
     2
 72
     2
 73
     0
 90
        0
 40
-0.6
 41
-30.0
 62
     5
 63
     7
 74
     1
 91
        4
 64
     7
 65
   257
 75
     1
175
     1
 42
1.0
 92
       12
 66
     7
 43
1.0
 76
     1
 77
     6
 78
     2
 67
     7
 79
     5
170
     0
171
     0
290
     0
174
     0
 93
        1
 44
0.0
173
     0
291
     1
 45
0.0
1001
ACAD
1000
AcDbSavedByObjectVersion
1070
     0
  0
VISUALSTYLE
  5
BCA4
102
{ACAD_XDICTIONARY
360
BD03
102
}
102
{ACAD_REACTORS
330
BC9D
102
}
330
BC9D
100
AcDbVisualStyle
  2
Wireframe
 70
     5
 71
     0
 72
     2
 73
     0
 90
        0
 40
-0.6
 41
-30.0
 62
     5
 63
     7
 74
     1
 91
        4
 64
     7
 65
   257
 75
     1
175
     1
 42
1.0
 92
        0
 66
   257
 43
1.0
 76
     1
 77
     6
 78
     2
 67
     7
 79
     3
170
     0
171
     0
290
     0
174
     0
 93
        1
 44
0.0
173
     0
291
     0
 45
0.0
1001
ACAD
1000
AcDbSavedByObjectVersion
1070
     0
  0
VISUALSTYLE
  5
BCB0
102
{ACAD_XDICTIONARY
360
BD1B
102
}
102
{ACAD_REACTORS
330
BC9D
102
}
330
BC9D
100
AcDbVisualStyle
  2
X-Ray
 70
    25
 71
     2
 72
     2
 73
     1
 90
        1
 40
0.5
 41
-30.0
 62
     5
 63
     7
 74
     1
 91
        0
 64
     7
 65
   257
 75
     1
175
     1
 42
1.0
 92
        8
 66
     7
 43
1.0
 76
     1
 77
     6
 78
     2
 67
     7
 79
     3
170
     0
171
     0
290
     0
174
     0
 93
       13
 44
0.0
173
     0
291
     0
 45
0.0
1001
ACAD
1000
AcDbSavedByObjectVersion
1070
     0
  0
DICTIONARYVAR
  5
BCEA
102
{ACAD_REACTORS
330
BCE5
102
}
330
BCE5
100
DictionaryVariables
280
     0
  1
1:1
  0
DICTIONARYVAR
  5
BCE7
102
{ACAD_REACTORS
330
BCE5
102
}
330
BCE5
100
DictionaryVariables
280
     0
  1
STANDARD
  0
DICTIONARYVAR
  5
BCE6
102
{ACAD_REACTORS
330
BCE5
102
}
330
BCE5
100
DictionaryVariables
280
     0
  1
STANDARD
  0
DICTIONARYVAR
  5
BCE8
102
{ACAD_REACTORS
330
BCE5
102
}
330
BCE5
100
DictionaryVariables
280
     0
  1
Imperial24
  0
DICTIONARYVAR
  5
BCE9
102
{ACAD_REACTORS
330
BCE5
102
}
330
BCE5
100
DictionaryVariables
280
     0
  1
Imperial24
  0
DICTIONARYVAR
  5
BCED
102
{ACAD_REACTORS
330
BCE5
102
}
330
BCE5
100
DictionaryVariables
280
     0
  1
1
  0
DICTIONARYVAR
  5
BCEC
102
{ACAD_REACTORS
330
BCE5
102
}
330
BCE5
100
DictionaryVariables
280
     0
  1
0
  0
DICTIONARYVAR
  5
BCEB
102
{ACAD_REACTORS
330
BCE5
102
}
330
BCE5
100
DictionaryVariables
280
     0
  1
127
  0
DICTIONARYVAR
  5
BCEE
102
{ACAD_REACTORS
330
BCE5
102
}
330
BCE5
100
DictionaryVariables
280
     0
  1
2
  0
DICTIONARY
  5
BD2B
330
BCD0
100
AcDbDictionary
280
     1
281
     1
  3
ACAD_XREC_ROUNDTRIP
360
BD2C
  0
DICTIONARY
  5
BD2D
330
BCD1
100
AcDbDictionary
280
     1
281
     1
  3
ACAD_XREC_ROUNDTRIP
360
BD2E
  0
DICTIONARY
  5
BD2F
330
BCD2
100
AcDbDictionary
280
     1
281
     1
  3
ACAD_XREC_ROUNDTRIP
360
BD30
  0
DICTIONARY
  5
BC8E
330
BC8D
100
AcDbDictionary
280
     1
281
     1
  3
ACAD_XREC_ROUNDTRIP
360
BCF5
  3
BUMPTILE
360
BC90
  3
DIFFUSETILE
360
BC8F
  3
OPACITYTILE
360
BC93
  3
REFLECTIONTILE
360
BC92
  3
REFRACTIONTILE
360
BC94
  3
SPECULARTILE
360
BC91
  0
DICTIONARY
  5
BC86
330
BC85
100
AcDbDictionary
280
     1
281
     1
  3
ACAD_XREC_ROUNDTRIP
360
BCF4
  3
BUMPTILE
360
BC88
  3
DIFFUSETILE
360
BC87
  3
OPACITYTILE
360
BC8B
  3
REFLECTIONTILE
360
BC8A
  3
REFRACTIONTILE
360
BC8C
  3
SPECULARTILE
360
BC89
  0
DICTIONARY
  5
BC96
330
BC95
100
AcDbDictionary
280
     1
281
     1
  3
ACAD_XREC_ROUNDTRIP
360
BCF6
  3
BUMPTILE
360
BC98
  3
DIFFUSETILE
360
BC97
  3
OPACITYTILE
360
BC9B
  3
REFLECTIONTILE
360
BC9A
  3
REFRACTIONTILE
360
BC9C
  3
SPECULARTILE
360
BC99
  0
DICTIONARY
  5
BD29
330
BCCE
100
AcDbDictionary
280
     1
281
     1
  3
ACAD_XREC_ROUNDTRIP
360
BD2A
  0
DICTIONARY
  5
BCF0
330
BCB8
100
AcDbDictionary
280
     1
281
     1
  3
ACAD_ROUNDTRIP_2008_TABLESTYLE_CELLSTYLEMAP
360
BCF1
  3
ACAD_XREC_ROUNDTRIP
360
BD27
  0
DICTIONARY
  5
BD01
330
BCA3
100
AcDbDictionary
280
     1
281
     1
  3
ACAD_XREC_ROUNDTRIP
360
BD02
  0
DICTIONARY
  5
BCFF
330
BCA2
100
AcDbDictionary
280
     1
281
     1
  3
ACAD_XREC_ROUNDTRIP
360
BD00
  0
DICTIONARY
  5
BD0D
330
BCA9
100
AcDbDictionary
280
     1
281
     1
  3
ACAD_XREC_ROUNDTRIP
360
BD0E
  0
DICTIONARY
  5
BD15
330
BCAD
100
AcDbDictionary
280
     1
281
     1
  3
ACAD_XREC_ROUNDTRIP
360
BD16
  0
DICTIONARY
  5
BD07
330
BCA6
100
AcDbDictionary
280
     1
281
     1
  3
ACAD_XREC_ROUNDTRIP
360
BD08
  0
DICTIONARY
  5
BD0B
330
BCA8
100
AcDbDictionary
280
     1
281
     1
  3
ACAD_XREC_ROUNDTRIP
360
BD0C
  0
DICTIONARY
  5
BD25
330
BCB5
100
AcDbDictionary
280
     1
281
     1
  3
ACAD_XREC_ROUNDTRIP
360
BD26
  0
DICTIONARY
  5
BD13
330
BCAC
100
AcDbDictionary
280
     1
281
     1
  3
ACAD_XREC_ROUNDTRIP
360
BD14
  0
DICTIONARY
  5
BCF7
330
BC9E
100
AcDbDictionary
280
     1
281
     1
  3
ACAD_XREC_ROUNDTRIP
360
BCF8
  0
DICTIONARY
  5
BCF9
330
BC9F
100
AcDbDictionary
280
     1
281
     1
  3
ACAD_XREC_ROUNDTRIP
360
BCFA
  0
DICTIONARY
  5
BCFB
330
BCA0
100
AcDbDictionary
280
     1
281
     1
  3
ACAD_XREC_ROUNDTRIP
360
BCFC
  0
DICTIONARY
  5
BCFD
330
BCA1
100
AcDbDictionary
280
     1
281
     1
  3
ACAD_XREC_ROUNDTRIP
360
BCFE
  0
DICTIONARY
  5
BD05
330
BCA5
100
AcDbDictionary
280
     1
281
     1
  3
ACAD_XREC_ROUNDTRIP
360
BD06
  0
DICTIONARY
  5
BD21
330
BCB3
100
AcDbDictionary
280
     1
281
     1
  3
ACAD_XREC_ROUNDTRIP
360
BD22
  0
DICTIONARY
  5
BD11
330
BCAB
100
AcDbDictionary
280
     1
281
     1
  3
ACAD_XREC_ROUNDTRIP
360
BD12
  0
DICTIONARY
  5
BD23
330
BCB4
100
AcDbDictionary
280
     1
281
     1
  3
ACAD_XREC_ROUNDTRIP
360
BD24
  0
DICTIONARY
  5
BD09
330
BCA7
100
AcDbDictionary
280
     1
281
     1
  3
ACAD_XREC_ROUNDTRIP
360
BD0A
  0
DICTIONARY
  5
BD1F
330
BCB2
100
AcDbDictionary
280
     1
281
     1
  3
ACAD_XREC_ROUNDTRIP
360
BD20
  0
DICTIONARY
  5
BD1D
330
BCB1
100
AcDbDictionary
280
     1
281
     1
  3
ACAD_XREC_ROUNDTRIP
360
BD1E
  0
DICTIONARY
  5
BD17
330
BCAE
100
AcDbDictionary
280
     1
281
     1
  3
ACAD_XREC_ROUNDTRIP
360
BD18
  0
DICTIONARY
  5
BD19
330
BCAF
100
AcDbDictionary
280
     1
281
     1
  3
ACAD_XREC_ROUNDTRIP
360
BD1A
  0
DICTIONARY
  5
BD0F
330
BCAA
100
AcDbDictionary
280
     1
281
     1
  3
ACAD_XREC_ROUNDTRIP
360
BD10
  0
DICTIONARY
  5
BD03
330
BCA4
100
AcDbDictionary
280
     1
281
     1
  3
ACAD_XREC_ROUNDTRIP
360
BD04
  0
DICTIONARY
  5
BD1B
330
BCB0
100
AcDbDictionary
280
     1
281
     1
  3
ACAD_XREC_ROUNDTRIP
360
BD1C
  0
XRECORD
  5
BD2C
102
{ACAD_REACTORS
330
BD2B
102
}
330
BD2B
100
AcDbXrecord
280
     1
102
DISPLAYNAME
  1
Imperial24
102
FLAGS
 90
        0
  0
XRECORD
  5
BD2E
102
{ACAD_REACTORS
330
BD2D
102
}
330
BD2D
100
AcDbXrecord
280
     1
102
SHADEPLOT
 70
     0
102
SHADEPLOTRESLEVEL
 70
     2
102
SHADEPLOTCUSTOMDPI
 70
   300
  0
XRECORD
  5
BD30
102
{ACAD_REACTORS
330
BD2F
102
}
330
BD2F
100
AcDbXrecord
280
     1
102
SHADEPLOT
 70
     0
102
SHADEPLOTRESLEVEL
 70
     2
102
SHADEPLOTCUSTOMDPI
 70
   300
  0
XRECORD
  5
BCF5
102
{ACAD_REACTORS
330
BC8E
102
}
330
BC8E
100
AcDbXrecord
280
     1
102
MATERIAL
148
0.0
149
0.0
149
0.0
 93
        0
 94
      127
282
     0
 72
     0
 77
     0
171
     0
175
     0
179
     0
273
     0
  0
XRECORD
  5
BC90
102
{ACAD_REACTORS
330
BC8E
102
}
330
BC8E
100
AcDbXrecord
280
     1
270
     1
271
     1
  0
XRECORD
  5
BC8F
102
{ACAD_REACTORS
330
BC8E
102
}
330
BC8E
100
AcDbXrecord
280
     1
270
     1
271
     1
  0
XRECORD
  5
BC93
102
{ACAD_REACTORS
330
BC8E
102
}
330
BC8E
100
AcDbXrecord
280
     1
270
     1
271
     1
  0
XRECORD
  5
BC92
102
{ACAD_REACTORS
330
BC8E
102
}
330
BC8E
100
AcDbXrecord
280
     1
270
     1
271
     1
  0
XRECORD
  5
BC94
102
{ACAD_REACTORS
330
BC8E
102
}
330
BC8E
100
AcDbXrecord
280
     1
270
     1
271
     1
  0
XRECORD
  5
BC91
102
{ACAD_REACTORS
330
BC8E
102
}
330
BC8E
100
AcDbXrecord
280
     1
270
     1
271
     1
  0
XRECORD
  5
BCF4
102
{ACAD_REACTORS
330
BC86
102
}
330
BC86
100
AcDbXrecord
280
     1
102
MATERIAL
148
0.0
149
0.0
149
0.0
 93
        0
 94
      127
282
     0
 72
     0
 77
     0
171
     0
175
     0
179
     0
273
     0
  0
XRECORD
  5
BC88
102
{ACAD_REACTORS
330
BC86
102
}
330
BC86
100
AcDbXrecord
280
     1
270
     1
271
     1
  0
XRECORD
  5
BC87
102
{ACAD_REACTORS
330
BC86
102
}
330
BC86
100
AcDbXrecord
280
     1
270
     1
271
     1
  0
XRECORD
  5
BC8B
102
{ACAD_REACTORS
330
BC86
102
}
330
BC86
100
AcDbXrecord
280
     1
270
     1
271
     1
  0
XRECORD
  5
BC8A
102
{ACAD_REACTORS
330
BC86
102
}
330
BC86
100
AcDbXrecord
280
     1
270
     1
271
     1
  0
XRECORD
  5
BC8C
102
{ACAD_REACTORS
330
BC86
102
}
330
BC86
100
AcDbXrecord
280
     1
270
     1
271
     1
  0
XRECORD
  5
BC89
102
{ACAD_REACTORS
330
BC86
102
}
330
BC86
100
AcDbXrecord
280
     1
270
     1
271
     1
  0
XRECORD
  5
BCF6
102
{ACAD_REACTORS
330
BC96
102
}
330
BC96
100
AcDbXrecord
280
     1
102
MATERIAL
148
0.0
149
0.0
149
0.0
 93
        0
 94
      127
282
     0
 72
     0
 77
     0
171
     0
175
     0
179
     0
273
     0
  0
XRECORD
  5
BC98
102
{ACAD_REACTORS
330
BC96
102
}
330
BC96
100
AcDbXrecord
280
     1
270
     1
271
     1
  0
XRECORD
  5
BC97
102
{ACAD_REACTORS
330
BC96
102
}
330
BC96
100
AcDbXrecord
280
     1
270
     1
271
     1
  0
XRECORD
  5
BC9B
102
{ACAD_REACTORS
330
BC96
102
}
330
BC96
100
AcDbXrecord
280
     1
270
     1
271
     1
  0
XRECORD
  5
BC9A
102
{ACAD_REACTORS
330
BC96
102
}
330
BC96
100
AcDbXrecord
280
     1
270
     1
271
     1
  0
XRECORD
  5
BC9C
102
{ACAD_REACTORS
330
BC96
102
}
330
BC96
100
AcDbXrecord
280
     1
270
     1
271
     1
  0
XRECORD
  5
BC99
102
{ACAD_REACTORS
330
BC96
102
}
330
BC96
100
AcDbXrecord
280
     1
270
     1
271
     1
  0
XRECORD
  5
BD2A
102
{ACAD_REACTORS
330
BD29
102
}
330
BD29
100
AcDbXrecord
280
     1
102
DISPLAYNAME
  1
Imperial24
102
FLAGS
 90
        0
  0
CELLSTYLEMAP
  5
BCF1
102
{ACAD_REACTORS
330
BCF0
102
}
330
BCF0
100
AcDbCellStyleMap
 90
        3
300
CELLSTYLE
  1
TABLEFORMAT_BEGIN
 90
        5
170
     1
 91
        0
 92
    32768
 62
   257
 93
        1
300
CONTENTFORMAT
  1
CONTENTFORMAT_BEGIN
 90
        0
 91
        0
 92
      512
 93
        0
300

 40
0.0
140
1.0
 94
        5
 62
     0
340
B8C8
144
0.25
309
CONTENTFORMAT_END
171
     0
 94
        0
309
TABLEFORMAT_END
  1
CELLSTYLE_BEGIN
 90
        1
 91
        1
300
_TITLE
309
CELLSTYLE_END
300
CELLSTYLE
  1
TABLEFORMAT_BEGIN
 90
        5
170
     1
 91
        0
 92
        0
 62
   257
 93
        1
300
CONTENTFORMAT
  1
CONTENTFORMAT_BEGIN
 90
        0
 91
        0
 92
      512
 93
        0
300

 40
0.0
140
1.0
 94
        5
 62
     0
340
B8C8
144
0.18
309
CONTENTFORMAT_END
171
     0
 94
        0
309
TABLEFORMAT_END
  1
CELLSTYLE_BEGIN
 90
        2
 91
        1
300
_HEADER
309
CELLSTYLE_END
300
CELLSTYLE
  1
TABLEFORMAT_BEGIN
 90
        5
170
     1
 91
        0
 92
        0
 62
   257
 93
        1
300
CONTENTFORMAT
  1
CONTENTFORMAT_BEGIN
 90
        0
 91
        0
 92
      512
 93
        0
300

 40
0.0
140
1.0
 94
        2
 62
     0
340
B8C8
144
0.18
309
CONTENTFORMAT_END
171
     0
 94
        0
309
TABLEFORMAT_END
  1
CELLSTYLE_BEGIN
 90
        3
 91
        2
300
_DATA
309
CELLSTYLE_END
  0
XRECORD
  5
BD27
102
{ACAD_REACTORS
330
BCF0
102
}
330
BCF0
100
AcDbXrecord
280
     1
102
ACAD_ROUNDTRIP_PRE2007_TABLESTYLE
 90
      512
 91
        0
  1

 92
      512
 93
        0
  2

 94
      512
 95
        0
  3

  0
XRECORD
  5
BD02
102
{ACAD_REACTORS
330
BD01
102
}
330
BD01
100
AcDbXrecord
280
     1
102
RTVSPost2010Prop28
280
     1
102
RTVSPost2010PropOp28
 70
     1
102
RTVSPost2010Prop29
280
     1
102
RTVSPost2010PropOp29
 70
     1
102
RTVSPost2010Prop30
280
     0
102
RTVSPost2010PropOp30
 70
     1
102
RTVSPost2010Prop31
280
     0
102
RTVSPost2010PropOp31
 70
     1
102
RTVSPost2010Prop32
280
     0
102
RTVSPost2010PropOp32
 70
     1
102
RTVSPost2010Prop33
280
     0
102
RTVSPost2010PropOp33
 70
     1
102
RTVSPost2010Prop34
280
     0
102
RTVSPost2010PropOp34
 70
     1
102
RTVSPost2010Prop35
280
     0
102
RTVSPost2010PropOp35
 70
     1
102
RTVSPost2010Prop36
280
     0
102
RTVSPost2010PropOp36
 70
     1
102
RTVSPost2010Prop37
 90
       50
102
RTVSPost2010PropOp37
 70
     1
102
RTVSPost2010Prop38
140
0.0
102
RTVSPost2010PropOp38
 70
     1
102
RTVSPost2010Prop39
140
1.0
102
RTVSPost2010PropOp39
 70
     1
102
RTVSPost2010Prop40
 90
        0
102
RTVSPost2010PropOp40
 70
     1
102
RTVSPost2010Prop41ColorIndex
 90
       18
102
RTVSPost2010Prop41ColorRGB
 90
        0
102
RTVSPost2010PropOp41
 70
     1
102
RTVSPost2010Prop42
 90
       50
102
RTVSPost2010PropOp42
 70
     1
102
RTVSPost2010Prop43
 90
        3
102
RTVSPost2010PropOp43
 70
     1
102
RTVSPost2010Prop44ColorIndex
 90
        5
102
RTVSPost2010Prop44ColorRGB
 90
      255
102
RTVSPost2010PropOp44
 70
     1
102
RTVSPost2010Prop45
280
     0
102
RTVSPost2010PropOp45
 70
     1
102
RTVSPost2010Prop46
 90
       50
102
RTVSPost2010PropOp46
 70
     1
102
RTVSPost2010Prop47
 90
       50
102
RTVSPost2010PropOp47
 70
     1
102
RTVSPost2010Prop48
 90
       50
102
RTVSPost2010PropOp48
 70
     1
102
RTVSPost2010Prop49
280
     0
102
RTVSPost2010PropOp49
 70
     1
102
RTVSPost2010Prop50
 90
       50
102
RTVSPost2010PropOp50
 70
     1
102
RTVSPost2010Prop51ColorIndex
 90
      256
102
RTVSPost2010Prop51ColorRGB
 90
-16777216
102
RTVSPost2010PropOp51
 70
     0
102
RTVSPost2010Prop52
140
1.0
102
RTVSPost2010PropOp52
 70
     0
102
RTVSPost2010Prop53
 90
        2
102
RTVSPost2010PropOp53
 70
     1
102
RTVSPost2010Prop54
  1
strokes_ogs.tif
102
RTVSPost2010PropOp54
 70
     1
102
RTVSPost2010Prop55
280
     0
102
RTVSPost2010PropOp55
 70
     1
102
RTVSPost2010Prop56
140
1.0
102
RTVSPost2010PropOp56
 70
     1
102
RTVSPost2010Prop57
140
1.0
102
RTVSPost2010PropOp57
 70
     1
102
RTVSPropertyOp0
 70
     1
102
RTVSPropertyOp1
 70
     1
102
RTVSPropertyOp2
 70
     1
102
RTVSPropertyOp3
 70
     1
102
RTVSPropertyOp4
 70
     1
102
RTVSPropertyOp5
 70
     1
102
RTVSPropertyOp6
 70
     1
102
RTVSPropertyOp7
 70
     1
102
RTVSPropertyOp8
 70
     1
102
RTVSPropertyOp9
 70
     1
102
RTVSPropertyOp10
 70
     1
102
RTVSPropertyOp11
 70
     1
102
RTVSPropertyOp12
 70
     1
102
RTVSPropertyOp13
 70
     1
102
RTVSPropertyOp14
 70
     1
102
RTVSPropertyOp15
 70
     1
102
RTVSPropertyOp16
 70
     1
102
RTVSPropertyOp17
 70
     1
102
RTVSPropertyOp18
 70
     1
102
RTVSPropertyOp19
 70
     1
102
RTVSPropertyOp20
 70
     1
102
RTVSPropertyOp21
 70
     1
102
RTVSPropertyOp22
 70
     1
102
RTVSPropertyOp23
 70
     1
102
RTVSPropertyOp24
 70
     1
102
RTVSPropertyOp25
 70
     1
102
RTVSPropertyOp26
 70
     1
102
RTVSPropertyOp27
 70
     1
102
RTVSPropertyOp28
 70
     1
102
RTVSPropertyOp29
 70
     1
102
RTVSPropertyOp30
 70
     1
102
RTVSPropertyOp31
 70
     1
102
RTVSPropertyOp32
 70
     1
102
RTVSPropertyOp33
 70
     1
102
RTVSPropertyOp34
 70
     1
102
RTVSPropertyOp35
 70
     1
102
RTVSPropertyOp36
 70
     1
102
RTVSPropertyOp37
 70
     1
102
RTVSPropertyOp38
 70
     1
102
RTVSPropertyOp39
 70
     1
102
RTVSPropertyOp40
 70
     1
102
RTVSPropertyOp41
 70
     1
102
RTVSPropertyOp42
 70
     1
102
RTVSPropertyOp43
 70
     1
102
RTVSPropertyOp44
 70
     1
102
RTVSPropertyOp45
 70
     1
102
RTVSPropertyOp46
 70
     1
102
RTVSPropertyOp47
 70
     1
102
RTVSPropertyOp48
 70
     1
102
RTVSPropertyOp49
 70
     1
102
RTVSPropertyOp50
 70
     1
102
RTVSPropertyOp51
 70
     0
102
RTVSPropertyOp52
 70
     0
102
RTVSPropertyOp53
 70
     1
102
RTVSPropertyOp54
 70
     1
102
RTVSPropertyOp55
 70
     1
102
RTVSPropertyOp56
 70
     1
102
RTVSPropertyOp57
 70
     1
102
RTVSPropertyOp58
 70
     1
102
RTVSPropertyOp59
 70
     1
102
RTVSPropertyOp60
 70
     1
102
RTVSPropertyOp61
 70
     1
102
RTVSPropertyOp62
 70
     1
  0
XRECORD
  5
BD00
102
{ACAD_REACTORS
330
BCFF
102
}
330
BCFF
100
AcDbXrecord
280
     1
102
RTVSPost2010Prop28
280
     0
102
RTVSPost2010PropOp28
 70
     1
102
RTVSPost2010Prop29
280
     1
102
RTVSPost2010PropOp29
 70
     1
102
RTVSPost2010Prop30
280
     1
102
RTVSPost2010PropOp30
 70
     1
102
RTVSPost2010Prop31
280
     0
102
RTVSPost2010PropOp31
 70
     1
102
RTVSPost2010Prop32
280
     0
102
RTVSPost2010PropOp32
 70
     1
102
RTVSPost2010Prop33
280
     0
102
RTVSPost2010PropOp33
 70
     1
102
RTVSPost2010Prop34
280
     0
102
RTVSPost2010PropOp34
 70
     1
102
RTVSPost2010Prop35
280
     0
102
RTVSPost2010PropOp35
 70
     1
102
RTVSPost2010Prop36
280
     0
102
RTVSPost2010PropOp36
 70
     1
102
RTVSPost2010Prop37
 90
       50
102
RTVSPost2010PropOp37
 70
     1
102
RTVSPost2010Prop38
140
0.0
102
RTVSPost2010PropOp38
 70
     1
102
RTVSPost2010Prop39
140
1.0
102
RTVSPost2010PropOp39
 70
     1
102
RTVSPost2010Prop40
 90
        0
102
RTVSPost2010PropOp40
 70
     1
102
RTVSPost2010Prop41ColorIndex
 90
       18
102
RTVSPost2010Prop41ColorRGB
 90
        0
102
RTVSPost2010PropOp41
 70
     1
102
RTVSPost2010Prop42
 90
       50
102
RTVSPost2010PropOp42
 70
     1
102
RTVSPost2010Prop43
 90
        3
102
RTVSPost2010PropOp43
 70
     1
102
RTVSPost2010Prop44ColorIndex
 90
        5
102
RTVSPost2010Prop44ColorRGB
 90
      255
102
RTVSPost2010PropOp44
 70
     1
102
RTVSPost2010Prop45
280
     0
102
RTVSPost2010PropOp45
 70
     1
102
RTVSPost2010Prop46
 90
       50
102
RTVSPost2010PropOp46
 70
     1
102
RTVSPost2010Prop47
 90
       50
102
RTVSPost2010PropOp47
 70
     1
102
RTVSPost2010Prop48
 90
       50
102
RTVSPost2010PropOp48
 70
     1
102
RTVSPost2010Prop49
280
     0
102
RTVSPost2010PropOp49
 70
     1
102
RTVSPost2010Prop50
 90
       50
102
RTVSPost2010PropOp50
 70
     1
102
RTVSPost2010Prop51ColorIndex
 90
      256
102
RTVSPost2010Prop51ColorRGB
 90
-16777216
102
RTVSPost2010PropOp51
 70
     0
102
RTVSPost2010Prop52
140
1.0
102
RTVSPost2010PropOp52
 70
     0
102
RTVSPost2010Prop53
 90
        2
102
RTVSPost2010PropOp53
 70
     1
102
RTVSPost2010Prop54
  1
strokes_ogs.tif
102
RTVSPost2010PropOp54
 70
     1
102
RTVSPost2010Prop55
280
     0
102
RTVSPost2010PropOp55
 70
     1
102
RTVSPost2010Prop56
140
1.0
102
RTVSPost2010PropOp56
 70
     1
102
RTVSPost2010Prop57
140
1.0
102
RTVSPost2010PropOp57
 70
     1
102
RTVSPropertyOp0
 70
     1
102
RTVSPropertyOp1
 70
     1
102
RTVSPropertyOp2
 70
     1
102
RTVSPropertyOp3
 70
     1
102
RTVSPropertyOp4
 70
     1
102
RTVSPropertyOp5
 70
     1
102
RTVSPropertyOp6
 70
     1
102
RTVSPropertyOp7
 70
     1
102
RTVSPropertyOp8
 70
     1
102
RTVSPropertyOp9
 70
     1
102
RTVSPropertyOp10
 70
     1
102
RTVSPropertyOp11
 70
     1
102
RTVSPropertyOp12
 70
     1
102
RTVSPropertyOp13
 70
     1
102
RTVSPropertyOp14
 70
     1
102
RTVSPropertyOp15
 70
     1
102
RTVSPropertyOp16
 70
     1
102
RTVSPropertyOp17
 70
     1
102
RTVSPropertyOp18
 70
     1
102
RTVSPropertyOp19
 70
     1
102
RTVSPropertyOp20
 70
     1
102
RTVSPropertyOp21
 70
     1
102
RTVSPropertyOp22
 70
     1
102
RTVSPropertyOp23
 70
     1
102
RTVSPropertyOp24
 70
     1
102
RTVSPropertyOp25
 70
     1
102
RTVSPropertyOp26
 70
     1
102
RTVSPropertyOp27
 70
     1
102
RTVSPropertyOp28
 70
     1
102
RTVSPropertyOp29
 70
     1
102
RTVSPropertyOp30
 70
     1
102
RTVSPropertyOp31
 70
     1
102
RTVSPropertyOp32
 70
     1
102
RTVSPropertyOp33
 70
     1
102
RTVSPropertyOp34
 70
     1
102
RTVSPropertyOp35
 70
     1
102
RTVSPropertyOp36
 70
     1
102
RTVSPropertyOp37
 70
     1
102
RTVSPropertyOp38
 70
     1
102
RTVSPropertyOp39
 70
     1
102
RTVSPropertyOp40
 70
     1
102
RTVSPropertyOp41
 70
     1
102
RTVSPropertyOp42
 70
     1
102
RTVSPropertyOp43
 70
     1
102
RTVSPropertyOp44
 70
     1
102
RTVSPropertyOp45
 70
     1
102
RTVSPropertyOp46
 70
     1
102
RTVSPropertyOp47
 70
     1
102
RTVSPropertyOp48
 70
     1
102
RTVSPropertyOp49
 70
     1
102
RTVSPropertyOp50
 70
     1
102
RTVSPropertyOp51
 70
     0
102
RTVSPropertyOp52
 70
     0
102
RTVSPropertyOp53
 70
     1
102
RTVSPropertyOp54
 70
     1
102
RTVSPropertyOp55
 70
     1
102
RTVSPropertyOp56
 70
     1
102
RTVSPropertyOp57
 70
     1
102
RTVSPropertyOp58
 70
     1
102
RTVSPropertyOp59
 70
     1
102
RTVSPropertyOp60
 70
     1
102
RTVSPropertyOp61
 70
     1
102
RTVSPropertyOp62
 70
     1
  0
XRECORD
  5
BD0E
102
{ACAD_REACTORS
330
BD0D
102
}
330
BD0D
100
AcDbXrecord
280
     1
102
RTVSPost2010Prop28
280
     0
102
RTVSPost2010PropOp28
 70
     1
102
RTVSPost2010Prop29
280
     1
102
RTVSPost2010PropOp29
 70
     1
102
RTVSPost2010Prop30
280
     1
102
RTVSPost2010PropOp30
 70
     1
102
RTVSPost2010Prop31
280
     0
102
RTVSPost2010PropOp31
 70
     1
102
RTVSPost2010Prop32
280
     0
102
RTVSPost2010PropOp32
 70
     1
102
RTVSPost2010Prop33
280
     0
102
RTVSPost2010PropOp33
 70
     1
102
RTVSPost2010Prop34
280
     0
102
RTVSPost2010PropOp34
 70
     1
102
RTVSPost2010Prop35
280
     0
102
RTVSPost2010PropOp35
 70
     1
102
RTVSPost2010Prop36
280
     0
102
RTVSPost2010PropOp36
 70
     1
102
RTVSPost2010Prop37
 90
       50
102
RTVSPost2010PropOp37
 70
     1
102
RTVSPost2010Prop38
140
0.0
102
RTVSPost2010PropOp38
 70
     1
102
RTVSPost2010Prop39
140
1.0
102
RTVSPost2010PropOp39
 70
     1
102
RTVSPost2010Prop40
 90
        0
102
RTVSPost2010PropOp40
 70
     1
102
RTVSPost2010Prop41ColorIndex
 90
       18
102
RTVSPost2010Prop41ColorRGB
 90
        0
102
RTVSPost2010PropOp41
 70
     1
102
RTVSPost2010Prop42
 90
       50
102
RTVSPost2010PropOp42
 70
     1
102
RTVSPost2010Prop43
 90
        3
102
RTVSPost2010PropOp43
 70
     1
102
RTVSPost2010Prop44ColorIndex
 90
        5
102
RTVSPost2010Prop44ColorRGB
 90
      255
102
RTVSPost2010PropOp44
 70
     1
102
RTVSPost2010Prop45
280
     0
102
RTVSPost2010PropOp45
 70
     1
102
RTVSPost2010Prop46
 90
       50
102
RTVSPost2010PropOp46
 70
     1
102
RTVSPost2010Prop47
 90
       50
102
RTVSPost2010PropOp47
 70
     1
102
RTVSPost2010Prop48
 90
       50
102
RTVSPost2010PropOp48
 70
     1
102
RTVSPost2010Prop49
280
     0
102
RTVSPost2010PropOp49
 70
     1
102
RTVSPost2010Prop50
 90
       50
102
RTVSPost2010PropOp50
 70
     1
102
RTVSPost2010Prop51ColorIndex
 90
      256
102
RTVSPost2010Prop51ColorRGB
 90
-16777216
102
RTVSPost2010PropOp51
 70
     0
102
RTVSPost2010Prop52
140
1.0
102
RTVSPost2010PropOp52
 70
     0
102
RTVSPost2010Prop53
 90
        2
102
RTVSPost2010PropOp53
 70
     1
102
RTVSPost2010Prop54
  1
strokes_ogs.tif
102
RTVSPost2010PropOp54
 70
     1
102
RTVSPost2010Prop55
280
     0
102
RTVSPost2010PropOp55
 70
     1
102
RTVSPost2010Prop56
140
1.0
102
RTVSPost2010PropOp56
 70
     1
102
RTVSPost2010Prop57
140
1.0
102
RTVSPost2010PropOp57
 70
     1
102
RTVSPropertyOp0
 70
     1
102
RTVSPropertyOp1
 70
     1
102
RTVSPropertyOp2
 70
     1
102
RTVSPropertyOp3
 70
     1
102
RTVSPropertyOp4
 70
     1
102
RTVSPropertyOp5
 70
     1
102
RTVSPropertyOp6
 70
     1
102
RTVSPropertyOp7
 70
     1
102
RTVSPropertyOp8
 70
     1
102
RTVSPropertyOp9
 70
     1
102
RTVSPropertyOp10
 70
     1
102
RTVSPropertyOp11
 70
     1
102
RTVSPropertyOp12
 70
     1
102
RTVSPropertyOp13
 70
     1
102
RTVSPropertyOp14
 70
     1
102
RTVSPropertyOp15
 70
     1
102
RTVSPropertyOp16
 70
     1
102
RTVSPropertyOp17
 70
     1
102
RTVSPropertyOp18
 70
     1
102
RTVSPropertyOp19
 70
     1
102
RTVSPropertyOp20
 70
     1
102
RTVSPropertyOp21
 70
     1
102
RTVSPropertyOp22
 70
     1
102
RTVSPropertyOp23
 70
     1
102
RTVSPropertyOp24
 70
     1
102
RTVSPropertyOp25
 70
     1
102
RTVSPropertyOp26
 70
     1
102
RTVSPropertyOp27
 70
     1
102
RTVSPropertyOp28
 70
     1
102
RTVSPropertyOp29
 70
     1
102
RTVSPropertyOp30
 70
     1
102
RTVSPropertyOp31
 70
     1
102
RTVSPropertyOp32
 70
     1
102
RTVSPropertyOp33
 70
     1
102
RTVSPropertyOp34
 70
     1
102
RTVSPropertyOp35
 70
     1
102
RTVSPropertyOp36
 70
     1
102
RTVSPropertyOp37
 70
     1
102
RTVSPropertyOp38
 70
     1
102
RTVSPropertyOp39
 70
     1
102
RTVSPropertyOp40
 70
     1
102
RTVSPropertyOp41
 70
     1
102
RTVSPropertyOp42
 70
     1
102
RTVSPropertyOp43
 70
     1
102
RTVSPropertyOp44
 70
     1
102
RTVSPropertyOp45
 70
     1
102
RTVSPropertyOp46
 70
     1
102
RTVSPropertyOp47
 70
     1
102
RTVSPropertyOp48
 70
     1
102
RTVSPropertyOp49
 70
     1
102
RTVSPropertyOp50
 70
     1
102
RTVSPropertyOp51
 70
     0
102
RTVSPropertyOp52
 70
     0
102
RTVSPropertyOp53
 70
     1
102
RTVSPropertyOp54
 70
     1
102
RTVSPropertyOp55
 70
     1
102
RTVSPropertyOp56
 70
     1
102
RTVSPropertyOp57
 70
     1
102
RTVSPropertyOp58
 70
     1
102
RTVSPropertyOp59
 70
     1
102
RTVSPropertyOp60
 70
     1
102
RTVSPropertyOp61
 70
     1
102
RTVSPropertyOp62
 70
     1
  0
XRECORD
  5
BD16
102
{ACAD_REACTORS
330
BD15
102
}
330
BD15
100
AcDbXrecord
280
     1
102
RTVSPost2010Prop28
280
     0
102
RTVSPost2010PropOp28
 70
     1
102
RTVSPost2010Prop29
280
     1
102
RTVSPost2010PropOp29
 70
     1
102
RTVSPost2010Prop30
280
     1
102
RTVSPost2010PropOp30
 70
     1
102
RTVSPost2010Prop31
280
     0
102
RTVSPost2010PropOp31
 70
     1
102
RTVSPost2010Prop32
280
     0
102
RTVSPost2010PropOp32
 70
     1
102
RTVSPost2010Prop33
280
     0
102
RTVSPost2010PropOp33
 70
     1
102
RTVSPost2010Prop34
280
     0
102
RTVSPost2010PropOp34
 70
     1
102
RTVSPost2010Prop35
280
     0
102
RTVSPost2010PropOp35
 70
     1
102
RTVSPost2010Prop36
280
     0
102
RTVSPost2010PropOp36
 70
     1
102
RTVSPost2010Prop37
 90
       50
102
RTVSPost2010PropOp37
 70
     1
102
RTVSPost2010Prop38
140
0.0
102
RTVSPost2010PropOp38
 70
     1
102
RTVSPost2010Prop39
140
1.0
102
RTVSPost2010PropOp39
 70
     1
102
RTVSPost2010Prop40
 90
        0
102
RTVSPost2010PropOp40
 70
     1
102
RTVSPost2010Prop41ColorIndex
 90
       18
102
RTVSPost2010Prop41ColorRGB
 90
        0
102
RTVSPost2010PropOp41
 70
     1
102
RTVSPost2010Prop42
 90
       50
102
RTVSPost2010PropOp42
 70
     1
102
RTVSPost2010Prop43
 90
        3
102
RTVSPost2010PropOp43
 70
     1
102
RTVSPost2010Prop44ColorIndex
 90
        5
102
RTVSPost2010Prop44ColorRGB
 90
      255
102
RTVSPost2010PropOp44
 70
     1
102
RTVSPost2010Prop45
280
     0
102
RTVSPost2010PropOp45
 70
     1
102
RTVSPost2010Prop46
 90
       50
102
RTVSPost2010PropOp46
 70
     1
102
RTVSPost2010Prop47
 90
       50
102
RTVSPost2010PropOp47
 70
     1
102
RTVSPost2010Prop48
 90
       50
102
RTVSPost2010PropOp48
 70
     1
102
RTVSPost2010Prop49
280
     0
102
RTVSPost2010PropOp49
 70
     1
102
RTVSPost2010Prop50
 90
       50
102
RTVSPost2010PropOp50
 70
     1
102
RTVSPost2010Prop51ColorIndex
 90
      256
102
RTVSPost2010Prop51ColorRGB
 90
-16777216
102
RTVSPost2010PropOp51
 70
     0
102
RTVSPost2010Prop52
140
1.0
102
RTVSPost2010PropOp52
 70
     0
102
RTVSPost2010Prop53
 90
        2
102
RTVSPost2010PropOp53
 70
     1
102
RTVSPost2010Prop54
  1
strokes_ogs.tif
102
RTVSPost2010PropOp54
 70
     1
102
RTVSPost2010Prop55
280
     0
102
RTVSPost2010PropOp55
 70
     1
102
RTVSPost2010Prop56
140
1.0
102
RTVSPost2010PropOp56
 70
     1
102
RTVSPost2010Prop57
140
1.0
102
RTVSPost2010PropOp57
 70
     1
102
RTVSPropertyOp0
 70
     1
102
RTVSPropertyOp1
 70
     1
102
RTVSPropertyOp2
 70
     1
102
RTVSPropertyOp3
 70
     1
102
RTVSPropertyOp4
 70
     1
102
RTVSPropertyOp5
 70
     1
102
RTVSPropertyOp6
 70
     1
102
RTVSPropertyOp7
 70
     1
102
RTVSPropertyOp8
 70
     1
102
RTVSPropertyOp9
 70
     1
102
RTVSPropertyOp10
 70
     1
102
RTVSPropertyOp11
 70
     1
102
RTVSPropertyOp12
 70
     1
102
RTVSPropertyOp13
 70
     1
102
RTVSPropertyOp14
 70
     1
102
RTVSPropertyOp15
 70
     1
102
RTVSPropertyOp16
 70
     1
102
RTVSPropertyOp17
 70
     1
102
RTVSPropertyOp18
 70
     1
102
RTVSPropertyOp19
 70
     1
102
RTVSPropertyOp20
 70
     1
102
RTVSPropertyOp21
 70
     1
102
RTVSPropertyOp22
 70
     1
102
RTVSPropertyOp23
 70
     1
102
RTVSPropertyOp24
 70
     1
102
RTVSPropertyOp25
 70
     1
102
RTVSPropertyOp26
 70
     1
102
RTVSPropertyOp27
 70
     1
102
RTVSPropertyOp28
 70
     1
102
RTVSPropertyOp29
 70
     1
102
RTVSPropertyOp30
 70
     1
102
RTVSPropertyOp31
 70
     1
102
RTVSPropertyOp32
 70
     1
102
RTVSPropertyOp33
 70
     1
102
RTVSPropertyOp34
 70
     1
102
RTVSPropertyOp35
 70
     1
102
RTVSPropertyOp36
 70
     1
102
RTVSPropertyOp37
 70
     1
102
RTVSPropertyOp38
 70
     1
102
RTVSPropertyOp39
 70
     1
102
RTVSPropertyOp40
 70
     1
102
RTVSPropertyOp41
 70
     1
102
RTVSPropertyOp42
 70
     1
102
RTVSPropertyOp43
 70
     1
102
RTVSPropertyOp44
 70
     1
102
RTVSPropertyOp45
 70
     1
102
RTVSPropertyOp46
 70
     1
102
RTVSPropertyOp47
 70
     1
102
RTVSPropertyOp48
 70
     1
102
RTVSPropertyOp49
 70
     1
102
RTVSPropertyOp50
 70
     1
102
RTVSPropertyOp51
 70
     0
102
RTVSPropertyOp52
 70
     0
102
RTVSPropertyOp53
 70
     1
102
RTVSPropertyOp54
 70
     1
102
RTVSPropertyOp55
 70
     1
102
RTVSPropertyOp56
 70
     1
102
RTVSPropertyOp57
 70
     1
102
RTVSPropertyOp58
 70
     1
102
RTVSPropertyOp59
 70
     1
102
RTVSPropertyOp60
 70
     1
102
RTVSPropertyOp61
 70
     1
102
RTVSPropertyOp62
 70
     1
  0
XRECORD
  5
BD08
102
{ACAD_REACTORS
330
BD07
102
}
330
BD07
100
AcDbXrecord
280
     1
102
RTVSPost2010Prop28
280
     0
102
RTVSPost2010PropOp28
 70
     1
102
RTVSPost2010Prop29
280
     1
102
RTVSPost2010PropOp29
 70
     1
102
RTVSPost2010Prop30
280
     1
102
RTVSPost2010PropOp30
 70
     1
102
RTVSPost2010Prop31
280
     0
102
RTVSPost2010PropOp31
 70
     1
102
RTVSPost2010Prop32
280
     0
102
RTVSPost2010PropOp32
 70
     1
102
RTVSPost2010Prop33
280
     0
102
RTVSPost2010PropOp33
 70
     1
102
RTVSPost2010Prop34
280
     0
102
RTVSPost2010PropOp34
 70
     1
102
RTVSPost2010Prop35
280
     0
102
RTVSPost2010PropOp35
 70
     1
102
RTVSPost2010Prop36
280
     0
102
RTVSPost2010PropOp36
 70
     1
102
RTVSPost2010Prop37
 90
       50
102
RTVSPost2010PropOp37
 70
     1
102
RTVSPost2010Prop38
140
0.0
102
RTVSPost2010PropOp38
 70
     1
102
RTVSPost2010Prop39
140
1.0
102
RTVSPost2010PropOp39
 70
     1
102
RTVSPost2010Prop40
 90
        0
102
RTVSPost2010PropOp40
 70
     1
102
RTVSPost2010Prop41ColorIndex
 90
       18
102
RTVSPost2010Prop41ColorRGB
 90
        0
102
RTVSPost2010PropOp41
 70
     1
102
RTVSPost2010Prop42
 90
       50
102
RTVSPost2010PropOp42
 70
     1
102
RTVSPost2010Prop43
 90
        3
102
RTVSPost2010PropOp43
 70
     1
102
RTVSPost2010Prop44ColorIndex
 90
        5
102
RTVSPost2010Prop44ColorRGB
 90
      255
102
RTVSPost2010PropOp44
 70
     1
102
RTVSPost2010Prop45
280
     0
102
RTVSPost2010PropOp45
 70
     1
102
RTVSPost2010Prop46
 90
       50
102
RTVSPost2010PropOp46
 70
     1
102
RTVSPost2010Prop47
 90
       50
102
RTVSPost2010PropOp47
 70
     1
102
RTVSPost2010Prop48
 90
       50
102
RTVSPost2010PropOp48
 70
     1
102
RTVSPost2010Prop49
280
     0
102
RTVSPost2010PropOp49
 70
     1
102
RTVSPost2010Prop50
 90
       50
102
RTVSPost2010PropOp50
 70
     1
102
RTVSPost2010Prop51ColorIndex
 90
      256
102
RTVSPost2010Prop51ColorRGB
 90
-16777216
102
RTVSPost2010PropOp51
 70
     0
102
RTVSPost2010Prop52
140
1.0
102
RTVSPost2010PropOp52
 70
     0
102
RTVSPost2010Prop53
 90
        2
102
RTVSPost2010PropOp53
 70
     1
102
RTVSPost2010Prop54
  1
strokes_ogs.tif
102
RTVSPost2010PropOp54
 70
     1
102
RTVSPost2010Prop55
280
     0
102
RTVSPost2010PropOp55
 70
     1
102
RTVSPost2010Prop56
140
1.0
102
RTVSPost2010PropOp56
 70
     1
102
RTVSPost2010Prop57
140
1.0
102
RTVSPost2010PropOp57
 70
     1
102
RTVSPropertyOp0
 70
     1
102
RTVSPropertyOp1
 70
     1
102
RTVSPropertyOp2
 70
     1
102
RTVSPropertyOp3
 70
     1
102
RTVSPropertyOp4
 70
     1
102
RTVSPropertyOp5
 70
     1
102
RTVSPropertyOp6
 70
     1
102
RTVSPropertyOp7
 70
     1
102
RTVSPropertyOp8
 70
     1
102
RTVSPropertyOp9
 70
     1
102
RTVSPropertyOp10
 70
     1
102
RTVSPropertyOp11
 70
     1
102
RTVSPropertyOp12
 70
     1
102
RTVSPropertyOp13
 70
     1
102
RTVSPropertyOp14
 70
     1
102
RTVSPropertyOp15
 70
     1
102
RTVSPropertyOp16
 70
     1
102
RTVSPropertyOp17
 70
     1
102
RTVSPropertyOp18
 70
     1
102
RTVSPropertyOp19
 70
     1
102
RTVSPropertyOp20
 70
     1
102
RTVSPropertyOp21
 70
     1
102
RTVSPropertyOp22
 70
     1
102
RTVSPropertyOp23
 70
     1
102
RTVSPropertyOp24
 70
     1
102
RTVSPropertyOp25
 70
     1
102
RTVSPropertyOp26
 70
     1
102
RTVSPropertyOp27
 70
     1
102
RTVSPropertyOp28
 70
     1
102
RTVSPropertyOp29
 70
     1
102
RTVSPropertyOp30
 70
     1
102
RTVSPropertyOp31
 70
     1
102
RTVSPropertyOp32
 70
     1
102
RTVSPropertyOp33
 70
     1
102
RTVSPropertyOp34
 70
     1
102
RTVSPropertyOp35
 70
     1
102
RTVSPropertyOp36
 70
     1
102
RTVSPropertyOp37
 70
     1
102
RTVSPropertyOp38
 70
     1
102
RTVSPropertyOp39
 70
     1
102
RTVSPropertyOp40
 70
     1
102
RTVSPropertyOp41
 70
     1
102
RTVSPropertyOp42
 70
     1
102
RTVSPropertyOp43
 70
     1
102
RTVSPropertyOp44
 70
     1
102
RTVSPropertyOp45
 70
     1
102
RTVSPropertyOp46
 70
     1
102
RTVSPropertyOp47
 70
     1
102
RTVSPropertyOp48
 70
     1
102
RTVSPropertyOp49
 70
     1
102
RTVSPropertyOp50
 70
     1
102
RTVSPropertyOp51
 70
     0
102
RTVSPropertyOp52
 70
     0
102
RTVSPropertyOp53
 70
     1
102
RTVSPropertyOp54
 70
     1
102
RTVSPropertyOp55
 70
     1
102
RTVSPropertyOp56
 70
     1
102
RTVSPropertyOp57
 70
     1
102
RTVSPropertyOp58
 70
     1
102
RTVSPropertyOp59
 70
     1
102
RTVSPropertyOp60
 70
     1
102
RTVSPropertyOp61
 70
     1
102
RTVSPropertyOp62
 70
     1
  0
XRECORD
  5
BD0C
102
{ACAD_REACTORS
330
BD0B
102
}
330
BD0B
100
AcDbXrecord
280
     1
102
RTVSPost2010Prop28
280
     0
102
RTVSPost2010PropOp28
 70
     1
102
RTVSPost2010Prop29
280
     1
102
RTVSPost2010PropOp29
 70
     1
102
RTVSPost2010Prop30
280
     1
102
RTVSPost2010PropOp30
 70
     1
102
RTVSPost2010Prop31
280
     0
102
RTVSPost2010PropOp31
 70
     1
102
RTVSPost2010Prop32
280
     0
102
RTVSPost2010PropOp32
 70
     1
102
RTVSPost2010Prop33
280
     0
102
RTVSPost2010PropOp33
 70
     1
102
RTVSPost2010Prop34
280
     0
102
RTVSPost2010PropOp34
 70
     1
102
RTVSPost2010Prop35
280
     0
102
RTVSPost2010PropOp35
 70
     1
102
RTVSPost2010Prop36
280
     0
102
RTVSPost2010PropOp36
 70
     1
102
RTVSPost2010Prop37
 90
       50
102
RTVSPost2010PropOp37
 70
     1
102
RTVSPost2010Prop38
140
0.0
102
RTVSPost2010PropOp38
 70
     1
102
RTVSPost2010Prop39
140
1.0
102
RTVSPost2010PropOp39
 70
     1
102
RTVSPost2010Prop40
 90
        0
102
RTVSPost2010PropOp40
 70
     1
102
RTVSPost2010Prop41ColorIndex
 90
       18
102
RTVSPost2010Prop41ColorRGB
 90
        0
102
RTVSPost2010PropOp41
 70
     1
102
RTVSPost2010Prop42
 90
       50
102
RTVSPost2010PropOp42
 70
     1
102
RTVSPost2010Prop43
 90
        3
102
RTVSPost2010PropOp43
 70
     1
102
RTVSPost2010Prop44ColorIndex
 90
        5
102
RTVSPost2010Prop44ColorRGB
 90
      255
102
RTVSPost2010PropOp44
 70
     1
102
RTVSPost2010Prop45
280
     0
102
RTVSPost2010PropOp45
 70
     1
102
RTVSPost2010Prop46
 90
       50
102
RTVSPost2010PropOp46
 70
     1
102
RTVSPost2010Prop47
 90
       50
102
RTVSPost2010PropOp47
 70
     1
102
RTVSPost2010Prop48
 90
       50
102
RTVSPost2010PropOp48
 70
     1
102
RTVSPost2010Prop49
280
     0
102
RTVSPost2010PropOp49
 70
     1
102
RTVSPost2010Prop50
 90
       50
102
RTVSPost2010PropOp50
 70
     1
102
RTVSPost2010Prop51ColorIndex
 90
      256
102
RTVSPost2010Prop51ColorRGB
 90
-16777216
102
RTVSPost2010PropOp51
 70
     0
102
RTVSPost2010Prop52
140
1.0
102
RTVSPost2010PropOp52
 70
     0
102
RTVSPost2010Prop53
 90
        2
102
RTVSPost2010PropOp53
 70
     1
102
RTVSPost2010Prop54
  1
strokes_ogs.tif
102
RTVSPost2010PropOp54
 70
     1
102
RTVSPost2010Prop55
280
     0
102
RTVSPost2010PropOp55
 70
     1
102
RTVSPost2010Prop56
140
1.0
102
RTVSPost2010PropOp56
 70
     1
102
RTVSPost2010Prop57
140
1.0
102
RTVSPost2010PropOp57
 70
     1
102
RTVSPropertyOp0
 70
     1
102
RTVSPropertyOp1
 70
     1
102
RTVSPropertyOp2
 70
     1
102
RTVSPropertyOp3
 70
     1
102
RTVSPropertyOp4
 70
     1
102
RTVSPropertyOp5
 70
     1
102
RTVSPropertyOp6
 70
     1
102
RTVSPropertyOp7
 70
     1
102
RTVSPropertyOp8
 70
     1
102
RTVSPropertyOp9
 70
     1
102
RTVSPropertyOp10
 70
     1
102
RTVSPropertyOp11
 70
     1
102
RTVSPropertyOp12
 70
     1
102
RTVSPropertyOp13
 70
     1
102
RTVSPropertyOp14
 70
     1
102
RTVSPropertyOp15
 70
     1
102
RTVSPropertyOp16
 70
     1
102
RTVSPropertyOp17
 70
     1
102
RTVSPropertyOp18
 70
     1
102
RTVSPropertyOp19
 70
     1
102
RTVSPropertyOp20
 70
     1
102
RTVSPropertyOp21
 70
     1
102
RTVSPropertyOp22
 70
     1
102
RTVSPropertyOp23
 70
     1
102
RTVSPropertyOp24
 70
     1
102
RTVSPropertyOp25
 70
     1
102
RTVSPropertyOp26
 70
     1
102
RTVSPropertyOp27
 70
     1
102
RTVSPropertyOp28
 70
     1
102
RTVSPropertyOp29
 70
     1
102
RTVSPropertyOp30
 70
     1
102
RTVSPropertyOp31
 70
     1
102
RTVSPropertyOp32
 70
     1
102
RTVSPropertyOp33
 70
     1
102
RTVSPropertyOp34
 70
     1
102
RTVSPropertyOp35
 70
     1
102
RTVSPropertyOp36
 70
     1
102
RTVSPropertyOp37
 70
     1
102
RTVSPropertyOp38
 70
     1
102
RTVSPropertyOp39
 70
     1
102
RTVSPropertyOp40
 70
     1
102
RTVSPropertyOp41
 70
     1
102
RTVSPropertyOp42
 70
     1
102
RTVSPropertyOp43
 70
     1
102
RTVSPropertyOp44
 70
     1
102
RTVSPropertyOp45
 70
     1
102
RTVSPropertyOp46
 70
     1
102
RTVSPropertyOp47
 70
     1
102
RTVSPropertyOp48
 70
     1
102
RTVSPropertyOp49
 70
     1
102
RTVSPropertyOp50
 70
     1
102
RTVSPropertyOp51
 70
     0
102
RTVSPropertyOp52
 70
     0
102
RTVSPropertyOp53
 70
     1
102
RTVSPropertyOp54
 70
     1
102
RTVSPropertyOp55
 70
     1
102
RTVSPropertyOp56
 70
     1
102
RTVSPropertyOp57
 70
     1
102
RTVSPropertyOp58
 70
     1
102
RTVSPropertyOp59
 70
     1
102
RTVSPropertyOp60
 70
     1
102
RTVSPropertyOp61
 70
     1
102
RTVSPropertyOp62
 70
     1
  0
XRECORD
  5
BD26
102
{ACAD_REACTORS
330
BD25
102
}
330
BD25
100
AcDbXrecord
280
     1
102
RTVSPost2010Prop28
280
     0
102
RTVSPost2010PropOp28
 70
     1
102
RTVSPost2010Prop29
280
     1
102
RTVSPost2010PropOp29
 70
     1
102
RTVSPost2010Prop30
280
     1
102
RTVSPost2010PropOp30
 70
     1
102
RTVSPost2010Prop31
280
     0
102
RTVSPost2010PropOp31
 70
     1
102
RTVSPost2010Prop32
280
     0
102
RTVSPost2010PropOp32
 70
     1
102
RTVSPost2010Prop33
280
     0
102
RTVSPost2010PropOp33
 70
     1
102
RTVSPost2010Prop34
280
     0
102
RTVSPost2010PropOp34
 70
     1
102
RTVSPost2010Prop35
280
     0
102
RTVSPost2010PropOp35
 70
     1
102
RTVSPost2010Prop36
280
     0
102
RTVSPost2010PropOp36
 70
     1
102
RTVSPost2010Prop37
 90
       50
102
RTVSPost2010PropOp37
 70
     0
102
RTVSPost2010Prop38
140
0.0
102
RTVSPost2010PropOp38
 70
     0
102
RTVSPost2010Prop39
140
1.0
102
RTVSPost2010PropOp39
 70
     0
102
RTVSPost2010Prop40
 90
        0
102
RTVSPost2010PropOp40
 70
     0
102
RTVSPost2010Prop41ColorIndex
 90
       18
102
RTVSPost2010Prop41ColorRGB
 90
        0
102
RTVSPost2010PropOp41
 70
     0
102
RTVSPost2010Prop42
 90
       50
102
RTVSPost2010PropOp42
 70
     0
102
RTVSPost2010Prop43
 90
        3
102
RTVSPost2010PropOp43
 70
     0
102
RTVSPost2010Prop44ColorIndex
 90
        5
102
RTVSPost2010Prop44ColorRGB
 90
      255
102
RTVSPost2010PropOp44
 70
     0
102
RTVSPost2010Prop45
280
     0
102
RTVSPost2010PropOp45
 70
     1
102
RTVSPost2010Prop46
 90
       50
102
RTVSPost2010PropOp46
 70
     0
102
RTVSPost2010Prop47
 90
       50
102
RTVSPost2010PropOp47
 70
     0
102
RTVSPost2010Prop48
 90
       50
102
RTVSPost2010PropOp48
 70
     0
102
RTVSPost2010Prop49
280
     0
102
RTVSPost2010PropOp49
 70
     1
102
RTVSPost2010Prop50
 90
       50
102
RTVSPost2010PropOp50
 70
     0
102
RTVSPost2010Prop51ColorIndex
 90
      256
102
RTVSPost2010Prop51ColorRGB
 90
-16777216
102
RTVSPost2010PropOp51
 70
     0
102
RTVSPost2010Prop52
140
1.0
102
RTVSPost2010PropOp52
 70
     0
102
RTVSPost2010Prop53
 90
        2
102
RTVSPost2010PropOp53
 70
     0
102
RTVSPost2010Prop54
  1
strokes_ogs.tif
102
RTVSPost2010PropOp54
 70
     0
102
RTVSPost2010Prop55
280
     0
102
RTVSPost2010PropOp55
 70
     1
102
RTVSPost2010Prop56
140
1.0
102
RTVSPost2010PropOp56
 70
     0
102
RTVSPost2010Prop57
140
1.0
102
RTVSPost2010PropOp57
 70
     0
102
RTVSPropertyOp0
 70
     0
102
RTVSPropertyOp1
 70
     0
102
RTVSPropertyOp2
 70
     0
102
RTVSPropertyOp3
 70
     0
102
RTVSPropertyOp4
 70
     0
102
RTVSPropertyOp5
 70
     0
102
RTVSPropertyOp6
 70
     0
102
RTVSPropertyOp7
 70
     0
102
RTVSPropertyOp8
 70
     0
102
RTVSPropertyOp9
 70
     0
102
RTVSPropertyOp10
 70
     0
102
RTVSPropertyOp11
 70
     0
102
RTVSPropertyOp12
 70
     0
102
RTVSPropertyOp13
 70
     0
102
RTVSPropertyOp14
 70
     2
102
RTVSPropertyOp15
 70
     0
102
RTVSPropertyOp16
 70
     0
102
RTVSPropertyOp17
 70
     0
102
RTVSPropertyOp18
 70
     0
102
RTVSPropertyOp19
 70
     0
102
RTVSPropertyOp20
 70
     0
102
RTVSPropertyOp21
 70
     0
102
RTVSPropertyOp22
 70
     0
102
RTVSPropertyOp23
 70
     0
102
RTVSPropertyOp24
 70
     0
102
RTVSPropertyOp25
 70
     0
102
RTVSPropertyOp26
 70
     0
102
RTVSPropertyOp27
 70
     0
102
RTVSPropertyOp28
 70
     1
102
RTVSPropertyOp29
 70
     1
102
RTVSPropertyOp30
 70
     1
102
RTVSPropertyOp31
 70
     1
102
RTVSPropertyOp32
 70
     1
102
RTVSPropertyOp33
 70
     1
102
RTVSPropertyOp34
 70
     1
102
RTVSPropertyOp35
 70
     1
102
RTVSPropertyOp36
 70
     1
102
RTVSPropertyOp37
 70
     0
102
RTVSPropertyOp38
 70
     0
102
RTVSPropertyOp39
 70
     0
102
RTVSPropertyOp40
 70
     0
102
RTVSPropertyOp41
 70
     0
102
RTVSPropertyOp42
 70
     0
102
RTVSPropertyOp43
 70
     0
102
RTVSPropertyOp44
 70
     0
102
RTVSPropertyOp45
 70
     1
102
RTVSPropertyOp46
 70
     0
102
RTVSPropertyOp47
 70
     0
102
RTVSPropertyOp48
 70
     0
102
RTVSPropertyOp49
 70
     1
102
RTVSPropertyOp50
 70
     0
102
RTVSPropertyOp51
 70
     0
102
RTVSPropertyOp52
 70
     0
102
RTVSPropertyOp53
 70
     0
102
RTVSPropertyOp54
 70
     0
102
RTVSPropertyOp55
 70
     1
102
RTVSPropertyOp56
 70
     0
102
RTVSPropertyOp57
 70
     0
102
RTVSPropertyOp58
 70
     0
102
RTVSPropertyOp59
 70
     0
102
RTVSPropertyOp60
 70
     0
102
RTVSPropertyOp61
 70
     0
102
RTVSPropertyOp62
 70
     0
  0
XRECORD
  5
BD14
102
{ACAD_REACTORS
330
BD13
102
}
330
BD13
100
AcDbXrecord
280
     1
102
RTVSPost2010Prop28
280
     0
102
RTVSPost2010PropOp28
 70
     1
102
RTVSPost2010Prop29
280
     1
102
RTVSPost2010PropOp29
 70
     1
102
RTVSPost2010Prop30
280
     1
102
RTVSPost2010PropOp30
 70
     1
102
RTVSPost2010Prop31
280
     0
102
RTVSPost2010PropOp31
 70
     1
102
RTVSPost2010Prop32
280
     0
102
RTVSPost2010PropOp32
 70
     1
102
RTVSPost2010Prop33
280
     0
102
RTVSPost2010PropOp33
 70
     1
102
RTVSPost2010Prop34
280
     0
102
RTVSPost2010PropOp34
 70
     1
102
RTVSPost2010Prop35
280
     0
102
RTVSPost2010PropOp35
 70
     1
102
RTVSPost2010Prop36
280
     0
102
RTVSPost2010PropOp36
 70
     1
102
RTVSPost2010Prop37
 90
       50
102
RTVSPost2010PropOp37
 70
     1
102
RTVSPost2010Prop38
140
0.0
102
RTVSPost2010PropOp38
 70
     1
102
RTVSPost2010Prop39
140
1.0
102
RTVSPost2010PropOp39
 70
     1
102
RTVSPost2010Prop40
 90
        0
102
RTVSPost2010PropOp40
 70
     1
102
RTVSPost2010Prop41ColorIndex
 90
       18
102
RTVSPost2010Prop41ColorRGB
 90
        0
102
RTVSPost2010PropOp41
 70
     1
102
RTVSPost2010Prop42
 90
       50
102
RTVSPost2010PropOp42
 70
     1
102
RTVSPost2010Prop43
 90
        3
102
RTVSPost2010PropOp43
 70
     1
102
RTVSPost2010Prop44ColorIndex
 90
        5
102
RTVSPost2010Prop44ColorRGB
 90
      255
102
RTVSPost2010PropOp44
 70
     1
102
RTVSPost2010Prop45
280
     0
102
RTVSPost2010PropOp45
 70
     1
102
RTVSPost2010Prop46
 90
       50
102
RTVSPost2010PropOp46
 70
     1
102
RTVSPost2010Prop47
 90
       50
102
RTVSPost2010PropOp47
 70
     1
102
RTVSPost2010Prop48
 90
       50
102
RTVSPost2010PropOp48
 70
     1
102
RTVSPost2010Prop49
280
     0
102
RTVSPost2010PropOp49
 70
     1
102
RTVSPost2010Prop50
 90
       50
102
RTVSPost2010PropOp50
 70
     1
102
RTVSPost2010Prop51ColorIndex
 90
      256
102
RTVSPost2010Prop51ColorRGB
 90
-16777216
102
RTVSPost2010PropOp51
 70
     0
102
RTVSPost2010Prop52
140
1.0
102
RTVSPost2010PropOp52
 70
     0
102
RTVSPost2010Prop53
 90
        2
102
RTVSPost2010PropOp53
 70
     1
102
RTVSPost2010Prop54
  1
strokes_ogs.tif
102
RTVSPost2010PropOp54
 70
     1
102
RTVSPost2010Prop55
280
     0
102
RTVSPost2010PropOp55
 70
     1
102
RTVSPost2010Prop56
140
1.0
102
RTVSPost2010PropOp56
 70
     1
102
RTVSPost2010Prop57
140
1.0
102
RTVSPost2010PropOp57
 70
     1
102
RTVSPropertyOp0
 70
     1
102
RTVSPropertyOp1
 70
     1
102
RTVSPropertyOp2
 70
     1
102
RTVSPropertyOp3
 70
     1
102
RTVSPropertyOp4
 70
     1
102
RTVSPropertyOp5
 70
     1
102
RTVSPropertyOp6
 70
     1
102
RTVSPropertyOp7
 70
     1
102
RTVSPropertyOp8
 70
     1
102
RTVSPropertyOp9
 70
     1
102
RTVSPropertyOp10
 70
     1
102
RTVSPropertyOp11
 70
     1
102
RTVSPropertyOp12
 70
     1
102
RTVSPropertyOp13
 70
     1
102
RTVSPropertyOp14
 70
     1
102
RTVSPropertyOp15
 70
     1
102
RTVSPropertyOp16
 70
     1
102
RTVSPropertyOp17
 70
     1
102
RTVSPropertyOp18
 70
     1
102
RTVSPropertyOp19
 70
     1
102
RTVSPropertyOp20
 70
     1
102
RTVSPropertyOp21
 70
     1
102
RTVSPropertyOp22
 70
     1
102
RTVSPropertyOp23
 70
     1
102
RTVSPropertyOp24
 70
     1
102
RTVSPropertyOp25
 70
     1
102
RTVSPropertyOp26
 70
     1
102
RTVSPropertyOp27
 70
     1
102
RTVSPropertyOp28
 70
     1
102
RTVSPropertyOp29
 70
     1
102
RTVSPropertyOp30
 70
     1
102
RTVSPropertyOp31
 70
     1
102
RTVSPropertyOp32
 70
     1
102
RTVSPropertyOp33
 70
     1
102
RTVSPropertyOp34
 70
     1
102
RTVSPropertyOp35
 70
     1
102
RTVSPropertyOp36
 70
     1
102
RTVSPropertyOp37
 70
     1
102
RTVSPropertyOp38
 70
     1
102
RTVSPropertyOp39
 70
     1
102
RTVSPropertyOp40
 70
     1
102
RTVSPropertyOp41
 70
     1
102
RTVSPropertyOp42
 70
     1
102
RTVSPropertyOp43
 70
     1
102
RTVSPropertyOp44
 70
     1
102
RTVSPropertyOp45
 70
     1
102
RTVSPropertyOp46
 70
     1
102
RTVSPropertyOp47
 70
     1
102
RTVSPropertyOp48
 70
     1
102
RTVSPropertyOp49
 70
     1
102
RTVSPropertyOp50
 70
     1
102
RTVSPropertyOp51
 70
     0
102
RTVSPropertyOp52
 70
     0
102
RTVSPropertyOp53
 70
     1
102
RTVSPropertyOp54
 70
     1
102
RTVSPropertyOp55
 70
     1
102
RTVSPropertyOp56
 70
     1
102
RTVSPropertyOp57
 70
     1
102
RTVSPropertyOp58
 70
     1
102
RTVSPropertyOp59
 70
     1
102
RTVSPropertyOp60
 70
     1
102
RTVSPropertyOp61
 70
     1
102
RTVSPropertyOp62
 70
     1
  0
XRECORD
  5
BCF8
102
{ACAD_REACTORS
330
BCF7
102
}
330
BCF7
100
AcDbXrecord
280
     1
102
RTVSPost2010Prop28
280
     0
102
RTVSPost2010PropOp28
 70
     1
102
RTVSPost2010Prop29
280
     1
102
RTVSPost2010PropOp29
 70
     1
102
RTVSPost2010Prop30
280
     1
102
RTVSPost2010PropOp30
 70
     1
102
RTVSPost2010Prop31
280
     0
102
RTVSPost2010PropOp31
 70
     1
102
RTVSPost2010Prop32
280
     0
102
RTVSPost2010PropOp32
 70
     1
102
RTVSPost2010Prop33
280
     0
102
RTVSPost2010PropOp33
 70
     1
102
RTVSPost2010Prop34
280
     0
102
RTVSPost2010PropOp34
 70
     1
102
RTVSPost2010Prop35
280
     0
102
RTVSPost2010PropOp35
 70
     1
102
RTVSPost2010Prop36
280
     0
102
RTVSPost2010PropOp36
 70
     1
102
RTVSPost2010Prop37
 90
       50
102
RTVSPost2010PropOp37
 70
     1
102
RTVSPost2010Prop38
140
0.0
102
RTVSPost2010PropOp38
 70
     1
102
RTVSPost2010Prop39
140
1.0
102
RTVSPost2010PropOp39
 70
     1
102
RTVSPost2010Prop40
 90
        0
102
RTVSPost2010PropOp40
 70
     1
102
RTVSPost2010Prop41ColorIndex
 90
       18
102
RTVSPost2010Prop41ColorRGB
 90
        0
102
RTVSPost2010PropOp41
 70
     1
102
RTVSPost2010Prop42
 90
       50
102
RTVSPost2010PropOp42
 70
     1
102
RTVSPost2010Prop43
 90
        3
102
RTVSPost2010PropOp43
 70
     1
102
RTVSPost2010Prop44ColorIndex
 90
        5
102
RTVSPost2010Prop44ColorRGB
 90
      255
102
RTVSPost2010PropOp44
 70
     1
102
RTVSPost2010Prop45
280
     0
102
RTVSPost2010PropOp45
 70
     1
102
RTVSPost2010Prop46
 90
       50
102
RTVSPost2010PropOp46
 70
     1
102
RTVSPost2010Prop47
 90
       50
102
RTVSPost2010PropOp47
 70
     1
102
RTVSPost2010Prop48
 90
       50
102
RTVSPost2010PropOp48
 70
     1
102
RTVSPost2010Prop49
280
     0
102
RTVSPost2010PropOp49
 70
     1
102
RTVSPost2010Prop50
 90
       50
102
RTVSPost2010PropOp50
 70
     1
102
RTVSPost2010Prop51ColorIndex
 90
      256
102
RTVSPost2010Prop51ColorRGB
 90
-16777216
102
RTVSPost2010PropOp51
 70
     0
102
RTVSPost2010Prop52
140
1.0
102
RTVSPost2010PropOp52
 70
     0
102
RTVSPost2010Prop53
 90
        2
102
RTVSPost2010PropOp53
 70
     1
102
RTVSPost2010Prop54
  1
strokes_ogs.tif
102
RTVSPost2010PropOp54
 70
     1
102
RTVSPost2010Prop55
280
     0
102
RTVSPost2010PropOp55
 70
     1
102
RTVSPost2010Prop56
140
1.0
102
RTVSPost2010PropOp56
 70
     1
102
RTVSPost2010Prop57
140
1.0
102
RTVSPost2010PropOp57
 70
     1
102
RTVSPropertyOp0
 70
     1
102
RTVSPropertyOp1
 70
     1
102
RTVSPropertyOp2
 70
     1
102
RTVSPropertyOp3
 70
     1
102
RTVSPropertyOp4
 70
     1
102
RTVSPropertyOp5
 70
     1
102
RTVSPropertyOp6
 70
     1
102
RTVSPropertyOp7
 70
     1
102
RTVSPropertyOp8
 70
     1
102
RTVSPropertyOp9
 70
     1
102
RTVSPropertyOp10
 70
     1
102
RTVSPropertyOp11
 70
     1
102
RTVSPropertyOp12
 70
     1
102
RTVSPropertyOp13
 70
     1
102
RTVSPropertyOp14
 70
     1
102
RTVSPropertyOp15
 70
     1
102
RTVSPropertyOp16
 70
     1
102
RTVSPropertyOp17
 70
     1
102
RTVSPropertyOp18
 70
     1
102
RTVSPropertyOp19
 70
     1
102
RTVSPropertyOp20
 70
     1
102
RTVSPropertyOp21
 70
     1
102
RTVSPropertyOp22
 70
     1
102
RTVSPropertyOp23
 70
     1
102
RTVSPropertyOp24
 70
     1
102
RTVSPropertyOp25
 70
     1
102
RTVSPropertyOp26
 70
     1
102
RTVSPropertyOp27
 70
     1
102
RTVSPropertyOp28
 70
     1
102
RTVSPropertyOp29
 70
     1
102
RTVSPropertyOp30
 70
     1
102
RTVSPropertyOp31
 70
     1
102
RTVSPropertyOp32
 70
     1
102
RTVSPropertyOp33
 70
     1
102
RTVSPropertyOp34
 70
     1
102
RTVSPropertyOp35
 70
     1
102
RTVSPropertyOp36
 70
     1
102
RTVSPropertyOp37
 70
     1
102
RTVSPropertyOp38
 70
     1
102
RTVSPropertyOp39
 70
     1
102
RTVSPropertyOp40
 70
     1
102
RTVSPropertyOp41
 70
     1
102
RTVSPropertyOp42
 70
     1
102
RTVSPropertyOp43
 70
     1
102
RTVSPropertyOp44
 70
     1
102
RTVSPropertyOp45
 70
     1
102
RTVSPropertyOp46
 70
     1
102
RTVSPropertyOp47
 70
     1
102
RTVSPropertyOp48
 70
     1
102
RTVSPropertyOp49
 70
     1
102
RTVSPropertyOp50
 70
     1
102
RTVSPropertyOp51
 70
     0
102
RTVSPropertyOp52
 70
     0
102
RTVSPropertyOp53
 70
     1
102
RTVSPropertyOp54
 70
     1
102
RTVSPropertyOp55
 70
     1
102
RTVSPropertyOp56
 70
     1
102
RTVSPropertyOp57
 70
     1
102
RTVSPropertyOp58
 70
     1
102
RTVSPropertyOp59
 70
     1
102
RTVSPropertyOp60
 70
     1
102
RTVSPropertyOp61
 70
     1
102
RTVSPropertyOp62
 70
     1
  0
XRECORD
  5
BCFA
102
{ACAD_REACTORS
330
BCF9
102
}
330
BCF9
100
AcDbXrecord
280
     1
102
RTVSPost2010Prop28
280
     0
102
RTVSPost2010PropOp28
 70
     1
102
RTVSPost2010Prop29
280
     1
102
RTVSPost2010PropOp29
 70
     1
102
RTVSPost2010Prop30
280
     1
102
RTVSPost2010PropOp30
 70
     1
102
RTVSPost2010Prop31
280
     0
102
RTVSPost2010PropOp31
 70
     1
102
RTVSPost2010Prop32
280
     0
102
RTVSPost2010PropOp32
 70
     1
102
RTVSPost2010Prop33
280
     0
102
RTVSPost2010PropOp33
 70
     1
102
RTVSPost2010Prop34
280
     0
102
RTVSPost2010PropOp34
 70
     1
102
RTVSPost2010Prop35
280
     0
102
RTVSPost2010PropOp35
 70
     1
102
RTVSPost2010Prop36
280
     0
102
RTVSPost2010PropOp36
 70
     1
102
RTVSPost2010Prop37
 90
       50
102
RTVSPost2010PropOp37
 70
     1
102
RTVSPost2010Prop38
140
0.0
102
RTVSPost2010PropOp38
 70
     1
102
RTVSPost2010Prop39
140
1.0
102
RTVSPost2010PropOp39
 70
     1
102
RTVSPost2010Prop40
 90
        0
102
RTVSPost2010PropOp40
 70
     1
102
RTVSPost2010Prop41ColorIndex
 90
       18
102
RTVSPost2010Prop41ColorRGB
 90
        0
102
RTVSPost2010PropOp41
 70
     1
102
RTVSPost2010Prop42
 90
       50
102
RTVSPost2010PropOp42
 70
     1
102
RTVSPost2010Prop43
 90
        3
102
RTVSPost2010PropOp43
 70
     1
102
RTVSPost2010Prop44ColorIndex
 90
        5
102
RTVSPost2010Prop44ColorRGB
 90
      255
102
RTVSPost2010PropOp44
 70
     1
102
RTVSPost2010Prop45
280
     0
102
RTVSPost2010PropOp45
 70
     1
102
RTVSPost2010Prop46
 90
       50
102
RTVSPost2010PropOp46
 70
     1
102
RTVSPost2010Prop47
 90
       50
102
RTVSPost2010PropOp47
 70
     1
102
RTVSPost2010Prop48
 90
       50
102
RTVSPost2010PropOp48
 70
     1
102
RTVSPost2010Prop49
280
     0
102
RTVSPost2010PropOp49
 70
     1
102
RTVSPost2010Prop50
 90
       50
102
RTVSPost2010PropOp50
 70
     1
102
RTVSPost2010Prop51ColorIndex
 90
      256
102
RTVSPost2010Prop51ColorRGB
 90
-16777216
102
RTVSPost2010PropOp51
 70
     0
102
RTVSPost2010Prop52
140
1.0
102
RTVSPost2010PropOp52
 70
     0
102
RTVSPost2010Prop53
 90
        2
102
RTVSPost2010PropOp53
 70
     1
102
RTVSPost2010Prop54
  1
strokes_ogs.tif
102
RTVSPost2010PropOp54
 70
     1
102
RTVSPost2010Prop55
280
     0
102
RTVSPost2010PropOp55
 70
     1
102
RTVSPost2010Prop56
140
1.0
102
RTVSPost2010PropOp56
 70
     1
102
RTVSPost2010Prop57
140
1.0
102
RTVSPost2010PropOp57
 70
     1
102
RTVSPropertyOp0
 70
     1
102
RTVSPropertyOp1
 70
     1
102
RTVSPropertyOp2
 70
     1
102
RTVSPropertyOp3
 70
     1
102
RTVSPropertyOp4
 70
     1
102
RTVSPropertyOp5
 70
     1
102
RTVSPropertyOp6
 70
     1
102
RTVSPropertyOp7
 70
     1
102
RTVSPropertyOp8
 70
     1
102
RTVSPropertyOp9
 70
     1
102
RTVSPropertyOp10
 70
     1
102
RTVSPropertyOp11
 70
     1
102
RTVSPropertyOp12
 70
     1
102
RTVSPropertyOp13
 70
     1
102
RTVSPropertyOp14
 70
     1
102
RTVSPropertyOp15
 70
     1
102
RTVSPropertyOp16
 70
     1
102
RTVSPropertyOp17
 70
     1
102
RTVSPropertyOp18
 70
     1
102
RTVSPropertyOp19
 70
     1
102
RTVSPropertyOp20
 70
     1
102
RTVSPropertyOp21
 70
     1
102
RTVSPropertyOp22
 70
     1
102
RTVSPropertyOp23
 70
     1
102
RTVSPropertyOp24
 70
     1
102
RTVSPropertyOp25
 70
     1
102
RTVSPropertyOp26
 70
     1
102
RTVSPropertyOp27
 70
     1
102
RTVSPropertyOp28
 70
     1
102
RTVSPropertyOp29
 70
     1
102
RTVSPropertyOp30
 70
     1
102
RTVSPropertyOp31
 70
     1
102
RTVSPropertyOp32
 70
     1
102
RTVSPropertyOp33
 70
     1
102
RTVSPropertyOp34
 70
     1
102
RTVSPropertyOp35
 70
     1
102
RTVSPropertyOp36
 70
     1
102
RTVSPropertyOp37
 70
     1
102
RTVSPropertyOp38
 70
     1
102
RTVSPropertyOp39
 70
     1
102
RTVSPropertyOp40
 70
     1
102
RTVSPropertyOp41
 70
     1
102
RTVSPropertyOp42
 70
     1
102
RTVSPropertyOp43
 70
     1
102
RTVSPropertyOp44
 70
     1
102
RTVSPropertyOp45
 70
     1
102
RTVSPropertyOp46
 70
     1
102
RTVSPropertyOp47
 70
     1
102
RTVSPropertyOp48
 70
     1
102
RTVSPropertyOp49
 70
     1
102
RTVSPropertyOp50
 70
     1
102
RTVSPropertyOp51
 70
     0
102
RTVSPropertyOp52
 70
     0
102
RTVSPropertyOp53
 70
     1
102
RTVSPropertyOp54
 70
     1
102
RTVSPropertyOp55
 70
     1
102
RTVSPropertyOp56
 70
     1
102
RTVSPropertyOp57
 70
     1
102
RTVSPropertyOp58
 70
     1
102
RTVSPropertyOp59
 70
     1
102
RTVSPropertyOp60
 70
     1
102
RTVSPropertyOp61
 70
     1
102
RTVSPropertyOp62
 70
     1
  0
XRECORD
  5
BCFC
102
{ACAD_REACTORS
330
BCFB
102
}
330
BCFB
100
AcDbXrecord
280
     1
102
RTVSPost2010Prop28
280
     0
102
RTVSPost2010PropOp28
 70
     1
102
RTVSPost2010Prop29
280
     1
102
RTVSPost2010PropOp29
 70
     1
102
RTVSPost2010Prop30
280
     1
102
RTVSPost2010PropOp30
 70
     1
102
RTVSPost2010Prop31
280
     0
102
RTVSPost2010PropOp31
 70
     1
102
RTVSPost2010Prop32
280
     0
102
RTVSPost2010PropOp32
 70
     1
102
RTVSPost2010Prop33
280
     0
102
RTVSPost2010PropOp33
 70
     1
102
RTVSPost2010Prop34
280
     0
102
RTVSPost2010PropOp34
 70
     1
102
RTVSPost2010Prop35
280
     0
102
RTVSPost2010PropOp35
 70
     1
102
RTVSPost2010Prop36
280
     0
102
RTVSPost2010PropOp36
 70
     1
102
RTVSPost2010Prop37
 90
       50
102
RTVSPost2010PropOp37
 70
     1
102
RTVSPost2010Prop38
140
0.0
102
RTVSPost2010PropOp38
 70
     1
102
RTVSPost2010Prop39
140
1.0
102
RTVSPost2010PropOp39
 70
     1
102
RTVSPost2010Prop40
 90
        0
102
RTVSPost2010PropOp40
 70
     1
102
RTVSPost2010Prop41ColorIndex
 90
       18
102
RTVSPost2010Prop41ColorRGB
 90
        0
102
RTVSPost2010PropOp41
 70
     1
102
RTVSPost2010Prop42
 90
       50
102
RTVSPost2010PropOp42
 70
     1
102
RTVSPost2010Prop43
 90
        3
102
RTVSPost2010PropOp43
 70
     1
102
RTVSPost2010Prop44ColorIndex
 90
        5
102
RTVSPost2010Prop44ColorRGB
 90
      255
102
RTVSPost2010PropOp44
 70
     1
102
RTVSPost2010Prop45
280
     0
102
RTVSPost2010PropOp45
 70
     1
102
RTVSPost2010Prop46
 90
       50
102
RTVSPost2010PropOp46
 70
     1
102
RTVSPost2010Prop47
 90
       50
102
RTVSPost2010PropOp47
 70
     1
102
RTVSPost2010Prop48
 90
       50
102
RTVSPost2010PropOp48
 70
     1
102
RTVSPost2010Prop49
280
     0
102
RTVSPost2010PropOp49
 70
     1
102
RTVSPost2010Prop50
 90
       50
102
RTVSPost2010PropOp50
 70
     1
102
RTVSPost2010Prop51ColorIndex
 90
      256
102
RTVSPost2010Prop51ColorRGB
 90
-16777216
102
RTVSPost2010PropOp51
 70
     0
102
RTVSPost2010Prop52
140
1.0
102
RTVSPost2010PropOp52
 70
     0
102
RTVSPost2010Prop53
 90
        2
102
RTVSPost2010PropOp53
 70
     1
102
RTVSPost2010Prop54
  1
strokes_ogs.tif
102
RTVSPost2010PropOp54
 70
     1
102
RTVSPost2010Prop55
280
     0
102
RTVSPost2010PropOp55
 70
     1
102
RTVSPost2010Prop56
140
1.0
102
RTVSPost2010PropOp56
 70
     1
102
RTVSPost2010Prop57
140
1.0
102
RTVSPost2010PropOp57
 70
     1
102
RTVSPropertyOp0
 70
     1
102
RTVSPropertyOp1
 70
     1
102
RTVSPropertyOp2
 70
     1
102
RTVSPropertyOp3
 70
     1
102
RTVSPropertyOp4
 70
     1
102
RTVSPropertyOp5
 70
     1
102
RTVSPropertyOp6
 70
     1
102
RTVSPropertyOp7
 70
     1
102
RTVSPropertyOp8
 70
     1
102
RTVSPropertyOp9
 70
     1
102
RTVSPropertyOp10
 70
     1
102
RTVSPropertyOp11
 70
     1
102
RTVSPropertyOp12
 70
     1
102
RTVSPropertyOp13
 70
     1
102
RTVSPropertyOp14
 70
     1
102
RTVSPropertyOp15
 70
     1
102
RTVSPropertyOp16
 70
     1
102
RTVSPropertyOp17
 70
     1
102
RTVSPropertyOp18
 70
     1
102
RTVSPropertyOp19
 70
     1
102
RTVSPropertyOp20
 70
     1
102
RTVSPropertyOp21
 70
     1
102
RTVSPropertyOp22
 70
     1
102
RTVSPropertyOp23
 70
     1
102
RTVSPropertyOp24
 70
     1
102
RTVSPropertyOp25
 70
     1
102
RTVSPropertyOp26
 70
     1
102
RTVSPropertyOp27
 70
     1
102
RTVSPropertyOp28
 70
     1
102
RTVSPropertyOp29
 70
     1
102
RTVSPropertyOp30
 70
     1
102
RTVSPropertyOp31
 70
     1
102
RTVSPropertyOp32
 70
     1
102
RTVSPropertyOp33
 70
     1
102
RTVSPropertyOp34
 70
     1
102
RTVSPropertyOp35
 70
     1
102
RTVSPropertyOp36
 70
     1
102
RTVSPropertyOp37
 70
     1
102
RTVSPropertyOp38
 70
     1
102
RTVSPropertyOp39
 70
     1
102
RTVSPropertyOp40
 70
     1
102
RTVSPropertyOp41
 70
     1
102
RTVSPropertyOp42
 70
     1
102
RTVSPropertyOp43
 70
     1
102
RTVSPropertyOp44
 70
     1
102
RTVSPropertyOp45
 70
     1
102
RTVSPropertyOp46
 70
     1
102
RTVSPropertyOp47
 70
     1
102
RTVSPropertyOp48
 70
     1
102
RTVSPropertyOp49
 70
     1
102
RTVSPropertyOp50
 70
     1
102
RTVSPropertyOp51
 70
     0
102
RTVSPropertyOp52
 70
     0
102
RTVSPropertyOp53
 70
     1
102
RTVSPropertyOp54
 70
     1
102
RTVSPropertyOp55
 70
     1
102
RTVSPropertyOp56
 70
     1
102
RTVSPropertyOp57
 70
     1
102
RTVSPropertyOp58
 70
     1
102
RTVSPropertyOp59
 70
     1
102
RTVSPropertyOp60
 70
     1
102
RTVSPropertyOp61
 70
     1
102
RTVSPropertyOp62
 70
     1
  0
XRECORD
  5
BCFE
102
{ACAD_REACTORS
330
BCFD
102
}
330
BCFD
100
AcDbXrecord
280
     1
102
RTVSPost2010Prop28
280
     0
102
RTVSPost2010PropOp28
 70
     1
102
RTVSPost2010Prop29
280
     1
102
RTVSPost2010PropOp29
 70
     1
102
RTVSPost2010Prop30
280
     1
102
RTVSPost2010PropOp30
 70
     1
102
RTVSPost2010Prop31
280
     0
102
RTVSPost2010PropOp31
 70
     1
102
RTVSPost2010Prop32
280
     0
102
RTVSPost2010PropOp32
 70
     1
102
RTVSPost2010Prop33
280
     0
102
RTVSPost2010PropOp33
 70
     1
102
RTVSPost2010Prop34
280
     0
102
RTVSPost2010PropOp34
 70
     1
102
RTVSPost2010Prop35
280
     0
102
RTVSPost2010PropOp35
 70
     1
102
RTVSPost2010Prop36
280
     0
102
RTVSPost2010PropOp36
 70
     1
102
RTVSPost2010Prop37
 90
       50
102
RTVSPost2010PropOp37
 70
     1
102
RTVSPost2010Prop38
140
0.0
102
RTVSPost2010PropOp38
 70
     1
102
RTVSPost2010Prop39
140
1.0
102
RTVSPost2010PropOp39
 70
     1
102
RTVSPost2010Prop40
 90
        0
102
RTVSPost2010PropOp40
 70
     1
102
RTVSPost2010Prop41ColorIndex
 90
       18
102
RTVSPost2010Prop41ColorRGB
 90
        0
102
RTVSPost2010PropOp41
 70
     1
102
RTVSPost2010Prop42
 90
       50
102
RTVSPost2010PropOp42
 70
     1
102
RTVSPost2010Prop43
 90
        3
102
RTVSPost2010PropOp43
 70
     1
102
RTVSPost2010Prop44ColorIndex
 90
        5
102
RTVSPost2010Prop44ColorRGB
 90
      255
102
RTVSPost2010PropOp44
 70
     1
102
RTVSPost2010Prop45
280
     0
102
RTVSPost2010PropOp45
 70
     1
102
RTVSPost2010Prop46
 90
       50
102
RTVSPost2010PropOp46
 70
     1
102
RTVSPost2010Prop47
 90
       50
102
RTVSPost2010PropOp47
 70
     1
102
RTVSPost2010Prop48
 90
       50
102
RTVSPost2010PropOp48
 70
     1
102
RTVSPost2010Prop49
280
     0
102
RTVSPost2010PropOp49
 70
     1
102
RTVSPost2010Prop50
 90
       50
102
RTVSPost2010PropOp50
 70
     1
102
RTVSPost2010Prop51ColorIndex
 90
      256
102
RTVSPost2010Prop51ColorRGB
 90
-16777216
102
RTVSPost2010PropOp51
 70
     0
102
RTVSPost2010Prop52
140
1.0
102
RTVSPost2010PropOp52
 70
     0
102
RTVSPost2010Prop53
 90
        2
102
RTVSPost2010PropOp53
 70
     1
102
RTVSPost2010Prop54
  1
strokes_ogs.tif
102
RTVSPost2010PropOp54
 70
     1
102
RTVSPost2010Prop55
280
     0
102
RTVSPost2010PropOp55
 70
     1
102
RTVSPost2010Prop56
140
1.0
102
RTVSPost2010PropOp56
 70
     1
102
RTVSPost2010Prop57
140
1.0
102
RTVSPost2010PropOp57
 70
     1
102
RTVSPropertyOp0
 70
     1
102
RTVSPropertyOp1
 70
     1
102
RTVSPropertyOp2
 70
     1
102
RTVSPropertyOp3
 70
     1
102
RTVSPropertyOp4
 70
     1
102
RTVSPropertyOp5
 70
     1
102
RTVSPropertyOp6
 70
     1
102
RTVSPropertyOp7
 70
     1
102
RTVSPropertyOp8
 70
     1
102
RTVSPropertyOp9
 70
     1
102
RTVSPropertyOp10
 70
     1
102
RTVSPropertyOp11
 70
     1
102
RTVSPropertyOp12
 70
     1
102
RTVSPropertyOp13
 70
     1
102
RTVSPropertyOp14
 70
     1
102
RTVSPropertyOp15
 70
     1
102
RTVSPropertyOp16
 70
     1
102
RTVSPropertyOp17
 70
     1
102
RTVSPropertyOp18
 70
     1
102
RTVSPropertyOp19
 70
     1
102
RTVSPropertyOp20
 70
     1
102
RTVSPropertyOp21
 70
     1
102
RTVSPropertyOp22
 70
     1
102
RTVSPropertyOp23
 70
     1
102
RTVSPropertyOp24
 70
     1
102
RTVSPropertyOp25
 70
     1
102
RTVSPropertyOp26
 70
     1
102
RTVSPropertyOp27
 70
     1
102
RTVSPropertyOp28
 70
     1
102
RTVSPropertyOp29
 70
     1
102
RTVSPropertyOp30
 70
     1
102
RTVSPropertyOp31
 70
     1
102
RTVSPropertyOp32
 70
     1
102
RTVSPropertyOp33
 70
     1
102
RTVSPropertyOp34
 70
     1
102
RTVSPropertyOp35
 70
     1
102
RTVSPropertyOp36
 70
     1
102
RTVSPropertyOp37
 70
     1
102
RTVSPropertyOp38
 70
     1
102
RTVSPropertyOp39
 70
     1
102
RTVSPropertyOp40
 70
     1
102
RTVSPropertyOp41
 70
     1
102
RTVSPropertyOp42
 70
     1
102
RTVSPropertyOp43
 70
     1
102
RTVSPropertyOp44
 70
     1
102
RTVSPropertyOp45
 70
     1
102
RTVSPropertyOp46
 70
     1
102
RTVSPropertyOp47
 70
     1
102
RTVSPropertyOp48
 70
     1
102
RTVSPropertyOp49
 70
     1
102
RTVSPropertyOp50
 70
     1
102
RTVSPropertyOp51
 70
     0
102
RTVSPropertyOp52
 70
     0
102
RTVSPropertyOp53
 70
     1
102
RTVSPropertyOp54
 70
     1
102
RTVSPropertyOp55
 70
     1
102
RTVSPropertyOp56
 70
     1
102
RTVSPropertyOp57
 70
     1
102
RTVSPropertyOp58
 70
     1
102
RTVSPropertyOp59
 70
     1
102
RTVSPropertyOp60
 70
     1
102
RTVSPropertyOp61
 70
     1
102
RTVSPropertyOp62
 70
     1
  0
XRECORD
  5
BD06
102
{ACAD_REACTORS
330
BD05
102
}
330
BD05
100
AcDbXrecord
280
     1
102
RTVSPost2010Prop28
280
     0
102
RTVSPost2010PropOp28
 70
     1
102
RTVSPost2010Prop29
280
     1
102
RTVSPost2010PropOp29
 70
     1
102
RTVSPost2010Prop30
280
     1
102
RTVSPost2010PropOp30
 70
     1
102
RTVSPost2010Prop31
280
     0
102
RTVSPost2010PropOp31
 70
     1
102
RTVSPost2010Prop32
280
     0
102
RTVSPost2010PropOp32
 70
     1
102
RTVSPost2010Prop33
280
     0
102
RTVSPost2010PropOp33
 70
     1
102
RTVSPost2010Prop34
280
     0
102
RTVSPost2010PropOp34
 70
     1
102
RTVSPost2010Prop35
280
     0
102
RTVSPost2010PropOp35
 70
     1
102
RTVSPost2010Prop36
280
     0
102
RTVSPost2010PropOp36
 70
     1
102
RTVSPost2010Prop37
 90
       50
102
RTVSPost2010PropOp37
 70
     1
102
RTVSPost2010Prop38
140
0.0
102
RTVSPost2010PropOp38
 70
     1
102
RTVSPost2010Prop39
140
1.0
102
RTVSPost2010PropOp39
 70
     1
102
RTVSPost2010Prop40
 90
        0
102
RTVSPost2010PropOp40
 70
     1
102
RTVSPost2010Prop41ColorIndex
 90
       18
102
RTVSPost2010Prop41ColorRGB
 90
        0
102
RTVSPost2010PropOp41
 70
     1
102
RTVSPost2010Prop42
 90
       50
102
RTVSPost2010PropOp42
 70
     1
102
RTVSPost2010Prop43
 90
        3
102
RTVSPost2010PropOp43
 70
     1
102
RTVSPost2010Prop44ColorIndex
 90
        5
102
RTVSPost2010Prop44ColorRGB
 90
      255
102
RTVSPost2010PropOp44
 70
     1
102
RTVSPost2010Prop45
280
     0
102
RTVSPost2010PropOp45
 70
     1
102
RTVSPost2010Prop46
 90
       50
102
RTVSPost2010PropOp46
 70
     1
102
RTVSPost2010Prop47
 90
       50
102
RTVSPost2010PropOp47
 70
     1
102
RTVSPost2010Prop48
 90
       50
102
RTVSPost2010PropOp48
 70
     1
102
RTVSPost2010Prop49
280
     0
102
RTVSPost2010PropOp49
 70
     1
102
RTVSPost2010Prop50
 90
       50
102
RTVSPost2010PropOp50
 70
     1
102
RTVSPost2010Prop51ColorIndex
 90
      256
102
RTVSPost2010Prop51ColorRGB
 90
-16777216
102
RTVSPost2010PropOp51
 70
     0
102
RTVSPost2010Prop52
140
1.0
102
RTVSPost2010PropOp52
 70
     0
102
RTVSPost2010Prop53
 90
        2
102
RTVSPost2010PropOp53
 70
     1
102
RTVSPost2010Prop54
  1
strokes_ogs.tif
102
RTVSPost2010PropOp54
 70
     1
102
RTVSPost2010Prop55
280
     0
102
RTVSPost2010PropOp55
 70
     1
102
RTVSPost2010Prop56
140
1.0
102
RTVSPost2010PropOp56
 70
     1
102
RTVSPost2010Prop57
140
1.0
102
RTVSPost2010PropOp57
 70
     1
102
RTVSPropertyOp0
 70
     1
102
RTVSPropertyOp1
 70
     1
102
RTVSPropertyOp2
 70
     1
102
RTVSPropertyOp3
 70
     1
102
RTVSPropertyOp4
 70
     1
102
RTVSPropertyOp5
 70
     1
102
RTVSPropertyOp6
 70
     1
102
RTVSPropertyOp7
 70
     1
102
RTVSPropertyOp8
 70
     1
102
RTVSPropertyOp9
 70
     1
102
RTVSPropertyOp10
 70
     1
102
RTVSPropertyOp11
 70
     1
102
RTVSPropertyOp12
 70
     1
102
RTVSPropertyOp13
 70
     1
102
RTVSPropertyOp14
 70
     1
102
RTVSPropertyOp15
 70
     1
102
RTVSPropertyOp16
 70
     1
102
RTVSPropertyOp17
 70
     1
102
RTVSPropertyOp18
 70
     1
102
RTVSPropertyOp19
 70
     1
102
RTVSPropertyOp20
 70
     1
102
RTVSPropertyOp21
 70
     1
102
RTVSPropertyOp22
 70
     1
102
RTVSPropertyOp23
 70
     1
102
RTVSPropertyOp24
 70
     1
102
RTVSPropertyOp25
 70
     1
102
RTVSPropertyOp26
 70
     1
102
RTVSPropertyOp27
 70
     1
102
RTVSPropertyOp28
 70
     1
102
RTVSPropertyOp29
 70
     1
102
RTVSPropertyOp30
 70
     1
102
RTVSPropertyOp31
 70
     1
102
RTVSPropertyOp32
 70
     1
102
RTVSPropertyOp33
 70
     1
102
RTVSPropertyOp34
 70
     1
102
RTVSPropertyOp35
 70
     1
102
RTVSPropertyOp36
 70
     1
102
RTVSPropertyOp37
 70
     1
102
RTVSPropertyOp38
 70
     1
102
RTVSPropertyOp39
 70
     1
102
RTVSPropertyOp40
 70
     1
102
RTVSPropertyOp41
 70
     1
102
RTVSPropertyOp42
 70
     1
102
RTVSPropertyOp43
 70
     1
102
RTVSPropertyOp44
 70
     1
102
RTVSPropertyOp45
 70
     1
102
RTVSPropertyOp46
 70
     1
102
RTVSPropertyOp47
 70
     1
102
RTVSPropertyOp48
 70
     1
102
RTVSPropertyOp49
 70
     1
102
RTVSPropertyOp50
 70
     1
102
RTVSPropertyOp51
 70
     0
102
RTVSPropertyOp52
 70
     0
102
RTVSPropertyOp53
 70
     1
102
RTVSPropertyOp54
 70
     1
102
RTVSPropertyOp55
 70
     1
102
RTVSPropertyOp56
 70
     1
102
RTVSPropertyOp57
 70
     1
102
RTVSPropertyOp58
 70
     1
102
RTVSPropertyOp59
 70
     1
102
RTVSPropertyOp60
 70
     1
102
RTVSPropertyOp61
 70
     1
102
RTVSPropertyOp62
 70
     1
  0
XRECORD
  5
BD22
102
{ACAD_REACTORS
330
BD21
102
}
330
BD21
100
AcDbXrecord
280
     1
102
RTVSPost2010Prop28
280
     0
102
RTVSPost2010PropOp28
 70
     1
102
RTVSPost2010Prop29
280
     1
102
RTVSPost2010PropOp29
 70
     1
102
RTVSPost2010Prop30
280
     1
102
RTVSPost2010PropOp30
 70
     1
102
RTVSPost2010Prop31
280
     0
102
RTVSPost2010PropOp31
 70
     1
102
RTVSPost2010Prop32
280
     0
102
RTVSPost2010PropOp32
 70
     1
102
RTVSPost2010Prop33
280
     0
102
RTVSPost2010PropOp33
 70
     1
102
RTVSPost2010Prop34
280
     0
102
RTVSPost2010PropOp34
 70
     1
102
RTVSPost2010Prop35
280
     0
102
RTVSPost2010PropOp35
 70
     1
102
RTVSPost2010Prop36
280
     0
102
RTVSPost2010PropOp36
 70
     1
102
RTVSPost2010Prop37
 90
       50
102
RTVSPost2010PropOp37
 70
     0
102
RTVSPost2010Prop38
140
0.0
102
RTVSPost2010PropOp38
 70
     0
102
RTVSPost2010Prop39
140
1.0
102
RTVSPost2010PropOp39
 70
     0
102
RTVSPost2010Prop40
 90
        0
102
RTVSPost2010PropOp40
 70
     0
102
RTVSPost2010Prop41ColorIndex
 90
       18
102
RTVSPost2010Prop41ColorRGB
 90
        0
102
RTVSPost2010PropOp41
 70
     0
102
RTVSPost2010Prop42
 90
       50
102
RTVSPost2010PropOp42
 70
     0
102
RTVSPost2010Prop43
 90
        3
102
RTVSPost2010PropOp43
 70
     0
102
RTVSPost2010Prop44ColorIndex
 90
        5
102
RTVSPost2010Prop44ColorRGB
 90
      255
102
RTVSPost2010PropOp44
 70
     0
102
RTVSPost2010Prop45
280
     0
102
RTVSPost2010PropOp45
 70
     1
102
RTVSPost2010Prop46
 90
       50
102
RTVSPost2010PropOp46
 70
     0
102
RTVSPost2010Prop47
 90
       50
102
RTVSPost2010PropOp47
 70
     0
102
RTVSPost2010Prop48
 90
       50
102
RTVSPost2010PropOp48
 70
     0
102
RTVSPost2010Prop49
280
     0
102
RTVSPost2010PropOp49
 70
     1
102
RTVSPost2010Prop50
 90
       50
102
RTVSPost2010PropOp50
 70
     0
102
RTVSPost2010Prop51ColorIndex
 90
      256
102
RTVSPost2010Prop51ColorRGB
 90
-16777216
102
RTVSPost2010PropOp51
 70
     0
102
RTVSPost2010Prop52
140
1.0
102
RTVSPost2010PropOp52
 70
     0
102
RTVSPost2010Prop53
 90
        2
102
RTVSPost2010PropOp53
 70
     0
102
RTVSPost2010Prop54
  1
strokes_ogs.tif
102
RTVSPost2010PropOp54
 70
     0
102
RTVSPost2010Prop55
280
     0
102
RTVSPost2010PropOp55
 70
     1
102
RTVSPost2010Prop56
140
1.0
102
RTVSPost2010PropOp56
 70
     0
102
RTVSPost2010Prop57
140
1.0
102
RTVSPost2010PropOp57
 70
     0
102
RTVSPropertyOp0
 70
     0
102
RTVSPropertyOp1
 70
     0
102
RTVSPropertyOp2
 70
     0
102
RTVSPropertyOp3
 70
     0
102
RTVSPropertyOp4
 70
     0
102
RTVSPropertyOp5
 70
     0
102
RTVSPropertyOp6
 70
     0
102
RTVSPropertyOp7
 70
     0
102
RTVSPropertyOp8
 70
     0
102
RTVSPropertyOp9
 70
     0
102
RTVSPropertyOp10
 70
     0
102
RTVSPropertyOp11
 70
     0
102
RTVSPropertyOp12
 70
     0
102
RTVSPropertyOp13
 70
     0
102
RTVSPropertyOp14
 70
     2
102
RTVSPropertyOp15
 70
     0
102
RTVSPropertyOp16
 70
     0
102
RTVSPropertyOp17
 70
     0
102
RTVSPropertyOp18
 70
     0
102
RTVSPropertyOp19
 70
     0
102
RTVSPropertyOp20
 70
     0
102
RTVSPropertyOp21
 70
     0
102
RTVSPropertyOp22
 70
     0
102
RTVSPropertyOp23
 70
     0
102
RTVSPropertyOp24
 70
     0
102
RTVSPropertyOp25
 70
     0
102
RTVSPropertyOp26
 70
     0
102
RTVSPropertyOp27
 70
     0
102
RTVSPropertyOp28
 70
     1
102
RTVSPropertyOp29
 70
     1
102
RTVSPropertyOp30
 70
     1
102
RTVSPropertyOp31
 70
     1
102
RTVSPropertyOp32
 70
     1
102
RTVSPropertyOp33
 70
     1
102
RTVSPropertyOp34
 70
     1
102
RTVSPropertyOp35
 70
     1
102
RTVSPropertyOp36
 70
     1
102
RTVSPropertyOp37
 70
     0
102
RTVSPropertyOp38
 70
     0
102
RTVSPropertyOp39
 70
     0
102
RTVSPropertyOp40
 70
     0
102
RTVSPropertyOp41
 70
     0
102
RTVSPropertyOp42
 70
     0
102
RTVSPropertyOp43
 70
     0
102
RTVSPropertyOp44
 70
     0
102
RTVSPropertyOp45
 70
     1
102
RTVSPropertyOp46
 70
     0
102
RTVSPropertyOp47
 70
     0
102
RTVSPropertyOp48
 70
     0
102
RTVSPropertyOp49
 70
     1
102
RTVSPropertyOp50
 70
     0
102
RTVSPropertyOp51
 70
     0
102
RTVSPropertyOp52
 70
     0
102
RTVSPropertyOp53
 70
     0
102
RTVSPropertyOp54
 70
     0
102
RTVSPropertyOp55
 70
     1
102
RTVSPropertyOp56
 70
     0
102
RTVSPropertyOp57
 70
     0
102
RTVSPropertyOp58
 70
     0
102
RTVSPropertyOp59
 70
     0
102
RTVSPropertyOp60
 70
     0
102
RTVSPropertyOp61
 70
     0
102
RTVSPropertyOp62
 70
     0
  0
XRECORD
  5
BD12
102
{ACAD_REACTORS
330
BD11
102
}
330
BD11
100
AcDbXrecord
280
     1
102
RTVSPost2010Prop28
280
     0
102
RTVSPost2010PropOp28
 70
     1
102
RTVSPost2010Prop29
280
     1
102
RTVSPost2010PropOp29
 70
     1
102
RTVSPost2010Prop30
280
     1
102
RTVSPost2010PropOp30
 70
     1
102
RTVSPost2010Prop31
280
     0
102
RTVSPost2010PropOp31
 70
     1
102
RTVSPost2010Prop32
280
     0
102
RTVSPost2010PropOp32
 70
     1
102
RTVSPost2010Prop33
280
     0
102
RTVSPost2010PropOp33
 70
     1
102
RTVSPost2010Prop34
280
     0
102
RTVSPost2010PropOp34
 70
     1
102
RTVSPost2010Prop35
280
     0
102
RTVSPost2010PropOp35
 70
     1
102
RTVSPost2010Prop36
280
     0
102
RTVSPost2010PropOp36
 70
     1
102
RTVSPost2010Prop37
 90
       50
102
RTVSPost2010PropOp37
 70
     1
102
RTVSPost2010Prop38
140
0.0
102
RTVSPost2010PropOp38
 70
     1
102
RTVSPost2010Prop39
140
1.0
102
RTVSPost2010PropOp39
 70
     1
102
RTVSPost2010Prop40
 90
        0
102
RTVSPost2010PropOp40
 70
     1
102
RTVSPost2010Prop41ColorIndex
 90
       18
102
RTVSPost2010Prop41ColorRGB
 90
        0
102
RTVSPost2010PropOp41
 70
     1
102
RTVSPost2010Prop42
 90
       50
102
RTVSPost2010PropOp42
 70
     1
102
RTVSPost2010Prop43
 90
        3
102
RTVSPost2010PropOp43
 70
     1
102
RTVSPost2010Prop44ColorIndex
 90
        5
102
RTVSPost2010Prop44ColorRGB
 90
      255
102
RTVSPost2010PropOp44
 70
     1
102
RTVSPost2010Prop45
280
     0
102
RTVSPost2010PropOp45
 70
     1
102
RTVSPost2010Prop46
 90
       50
102
RTVSPost2010PropOp46
 70
     1
102
RTVSPost2010Prop47
 90
       50
102
RTVSPost2010PropOp47
 70
     1
102
RTVSPost2010Prop48
 90
       50
102
RTVSPost2010PropOp48
 70
     1
102
RTVSPost2010Prop49
280
     0
102
RTVSPost2010PropOp49
 70
     1
102
RTVSPost2010Prop50
 90
       50
102
RTVSPost2010PropOp50
 70
     1
102
RTVSPost2010Prop51ColorIndex
 90
      256
102
RTVSPost2010Prop51ColorRGB
 90
-16777216
102
RTVSPost2010PropOp51
 70
     0
102
RTVSPost2010Prop52
140
1.0
102
RTVSPost2010PropOp52
 70
     0
102
RTVSPost2010Prop53
 90
        2
102
RTVSPost2010PropOp53
 70
     1
102
RTVSPost2010Prop54
  1
strokes_ogs.tif
102
RTVSPost2010PropOp54
 70
     1
102
RTVSPost2010Prop55
280
     0
102
RTVSPost2010PropOp55
 70
     1
102
RTVSPost2010Prop56
140
1.0
102
RTVSPost2010PropOp56
 70
     1
102
RTVSPost2010Prop57
140
1.0
102
RTVSPost2010PropOp57
 70
     1
102
RTVSPropertyOp0
 70
     1
102
RTVSPropertyOp1
 70
     1
102
RTVSPropertyOp2
 70
     1
102
RTVSPropertyOp3
 70
     1
102
RTVSPropertyOp4
 70
     1
102
RTVSPropertyOp5
 70
     1
102
RTVSPropertyOp6
 70
     1
102
RTVSPropertyOp7
 70
     1
102
RTVSPropertyOp8
 70
     1
102
RTVSPropertyOp9
 70
     1
102
RTVSPropertyOp10
 70
     1
102
RTVSPropertyOp11
 70
     1
102
RTVSPropertyOp12
 70
     1
102
RTVSPropertyOp13
 70
     1
102
RTVSPropertyOp14
 70
     1
102
RTVSPropertyOp15
 70
     1
102
RTVSPropertyOp16
 70
     1
102
RTVSPropertyOp17
 70
     1
102
RTVSPropertyOp18
 70
     1
102
RTVSPropertyOp19
 70
     1
102
RTVSPropertyOp20
 70
     1
102
RTVSPropertyOp21
 70
     1
102
RTVSPropertyOp22
 70
     1
102
RTVSPropertyOp23
 70
     1
102
RTVSPropertyOp24
 70
     1
102
RTVSPropertyOp25
 70
     1
102
RTVSPropertyOp26
 70
     1
102
RTVSPropertyOp27
 70
     1
102
RTVSPropertyOp28
 70
     1
102
RTVSPropertyOp29
 70
     1
102
RTVSPropertyOp30
 70
     1
102
RTVSPropertyOp31
 70
     1
102
RTVSPropertyOp32
 70
     1
102
RTVSPropertyOp33
 70
     1
102
RTVSPropertyOp34
 70
     1
102
RTVSPropertyOp35
 70
     1
102
RTVSPropertyOp36
 70
     1
102
RTVSPropertyOp37
 70
     1
102
RTVSPropertyOp38
 70
     1
102
RTVSPropertyOp39
 70
     1
102
RTVSPropertyOp40
 70
     1
102
RTVSPropertyOp41
 70
     1
102
RTVSPropertyOp42
 70
     1
102
RTVSPropertyOp43
 70
     1
102
RTVSPropertyOp44
 70
     1
102
RTVSPropertyOp45
 70
     1
102
RTVSPropertyOp46
 70
     1
102
RTVSPropertyOp47
 70
     1
102
RTVSPropertyOp48
 70
     1
102
RTVSPropertyOp49
 70
     1
102
RTVSPropertyOp50
 70
     1
102
RTVSPropertyOp51
 70
     0
102
RTVSPropertyOp52
 70
     0
102
RTVSPropertyOp53
 70
     1
102
RTVSPropertyOp54
 70
     1
102
RTVSPropertyOp55
 70
     1
102
RTVSPropertyOp56
 70
     1
102
RTVSPropertyOp57
 70
     1
102
RTVSPropertyOp58
 70
     1
102
RTVSPropertyOp59
 70
     1
102
RTVSPropertyOp60
 70
     1
102
RTVSPropertyOp61
 70
     1
102
RTVSPropertyOp62
 70
     1
  0
XRECORD
  5
BD24
102
{ACAD_REACTORS
330
BD23
102
}
330
BD23
100
AcDbXrecord
280
     1
102
RTVSPost2010Prop28
280
     0
102
RTVSPost2010PropOp28
 70
     1
102
RTVSPost2010Prop29
280
     1
102
RTVSPost2010PropOp29
 70
     1
102
RTVSPost2010Prop30
280
     1
102
RTVSPost2010PropOp30
 70
     1
102
RTVSPost2010Prop31
280
     0
102
RTVSPost2010PropOp31
 70
     1
102
RTVSPost2010Prop32
280
     0
102
RTVSPost2010PropOp32
 70
     1
102
RTVSPost2010Prop33
280
     0
102
RTVSPost2010PropOp33
 70
     1
102
RTVSPost2010Prop34
280
     0
102
RTVSPost2010PropOp34
 70
     1
102
RTVSPost2010Prop35
280
     0
102
RTVSPost2010PropOp35
 70
     1
102
RTVSPost2010Prop36
280
     0
102
RTVSPost2010PropOp36
 70
     1
102
RTVSPost2010Prop37
 90
       50
102
RTVSPost2010PropOp37
 70
     0
102
RTVSPost2010Prop38
140
0.0
102
RTVSPost2010PropOp38
 70
     0
102
RTVSPost2010Prop39
140
1.0
102
RTVSPost2010PropOp39
 70
     0
102
RTVSPost2010Prop40
 90
        0
102
RTVSPost2010PropOp40
 70
     0
102
RTVSPost2010Prop41ColorIndex
 90
       18
102
RTVSPost2010Prop41ColorRGB
 90
        0
102
RTVSPost2010PropOp41
 70
     0
102
RTVSPost2010Prop42
 90
       50
102
RTVSPost2010PropOp42
 70
     0
102
RTVSPost2010Prop43
 90
        3
102
RTVSPost2010PropOp43
 70
     0
102
RTVSPost2010Prop44ColorIndex
 90
        5
102
RTVSPost2010Prop44ColorRGB
 90
      255
102
RTVSPost2010PropOp44
 70
     0
102
RTVSPost2010Prop45
280
     0
102
RTVSPost2010PropOp45
 70
     1
102
RTVSPost2010Prop46
 90
       50
102
RTVSPost2010PropOp46
 70
     0
102
RTVSPost2010Prop47
 90
       50
102
RTVSPost2010PropOp47
 70
     0
102
RTVSPost2010Prop48
 90
       50
102
RTVSPost2010PropOp48
 70
     0
102
RTVSPost2010Prop49
280
     0
102
RTVSPost2010PropOp49
 70
     1
102
RTVSPost2010Prop50
 90
       50
102
RTVSPost2010PropOp50
 70
     0
102
RTVSPost2010Prop51ColorIndex
 90
      256
102
RTVSPost2010Prop51ColorRGB
 90
-16777216
102
RTVSPost2010PropOp51
 70
     0
102
RTVSPost2010Prop52
140
1.0
102
RTVSPost2010PropOp52
 70
     0
102
RTVSPost2010Prop53
 90
        2
102
RTVSPost2010PropOp53
 70
     0
102
RTVSPost2010Prop54
  1
strokes_ogs.tif
102
RTVSPost2010PropOp54
 70
     0
102
RTVSPost2010Prop55
280
     0
102
RTVSPost2010PropOp55
 70
     1
102
RTVSPost2010Prop56
140
1.0
102
RTVSPost2010PropOp56
 70
     0
102
RTVSPost2010Prop57
140
1.0
102
RTVSPost2010PropOp57
 70
     0
102
RTVSPropertyOp0
 70
     0
102
RTVSPropertyOp1
 70
     0
102
RTVSPropertyOp2
 70
     0
102
RTVSPropertyOp3
 70
     0
102
RTVSPropertyOp4
 70
     0
102
RTVSPropertyOp5
 70
     0
102
RTVSPropertyOp6
 70
     0
102
RTVSPropertyOp7
 70
     0
102
RTVSPropertyOp8
 70
     0
102
RTVSPropertyOp9
 70
     0
102
RTVSPropertyOp10
 70
     0
102
RTVSPropertyOp11
 70
     0
102
RTVSPropertyOp12
 70
     0
102
RTVSPropertyOp13
 70
     0
102
RTVSPropertyOp14
 70
     2
102
RTVSPropertyOp15
 70
     0
102
RTVSPropertyOp16
 70
     0
102
RTVSPropertyOp17
 70
     0
102
RTVSPropertyOp18
 70
     0
102
RTVSPropertyOp19
 70
     0
102
RTVSPropertyOp20
 70
     0
102
RTVSPropertyOp21
 70
     0
102
RTVSPropertyOp22
 70
     0
102
RTVSPropertyOp23
 70
     0
102
RTVSPropertyOp24
 70
     0
102
RTVSPropertyOp25
 70
     0
102
RTVSPropertyOp26
 70
     0
102
RTVSPropertyOp27
 70
     0
102
RTVSPropertyOp28
 70
     1
102
RTVSPropertyOp29
 70
     1
102
RTVSPropertyOp30
 70
     1
102
RTVSPropertyOp31
 70
     1
102
RTVSPropertyOp32
 70
     1
102
RTVSPropertyOp33
 70
     1
102
RTVSPropertyOp34
 70
     1
102
RTVSPropertyOp35
 70
     1
102
RTVSPropertyOp36
 70
     1
102
RTVSPropertyOp37
 70
     0
102
RTVSPropertyOp38
 70
     0
102
RTVSPropertyOp39
 70
     0
102
RTVSPropertyOp40
 70
     0
102
RTVSPropertyOp41
 70
     0
102
RTVSPropertyOp42
 70
     0
102
RTVSPropertyOp43
 70
     0
102
RTVSPropertyOp44
 70
     0
102
RTVSPropertyOp45
 70
     1
102
RTVSPropertyOp46
 70
     0
102
RTVSPropertyOp47
 70
     0
102
RTVSPropertyOp48
 70
     0
102
RTVSPropertyOp49
 70
     1
102
RTVSPropertyOp50
 70
     0
102
RTVSPropertyOp51
 70
     0
102
RTVSPropertyOp52
 70
     0
102
RTVSPropertyOp53
 70
     0
102
RTVSPropertyOp54
 70
     0
102
RTVSPropertyOp55
 70
     1
102
RTVSPropertyOp56
 70
     0
102
RTVSPropertyOp57
 70
     0
102
RTVSPropertyOp58
 70
     0
102
RTVSPropertyOp59
 70
     0
102
RTVSPropertyOp60
 70
     0
102
RTVSPropertyOp61
 70
     0
102
RTVSPropertyOp62
 70
     0
  0
XRECORD
  5
BD0A
102
{ACAD_REACTORS
330
BD09
102
}
330
BD09
100
AcDbXrecord
280
     1
102
RTVSPost2010Prop28
280
     0
102
RTVSPost2010PropOp28
 70
     1
102
RTVSPost2010Prop29
280
     1
102
RTVSPost2010PropOp29
 70
     1
102
RTVSPost2010Prop30
280
     1
102
RTVSPost2010PropOp30
 70
     1
102
RTVSPost2010Prop31
280
     0
102
RTVSPost2010PropOp31
 70
     1
102
RTVSPost2010Prop32
280
     0
102
RTVSPost2010PropOp32
 70
     1
102
RTVSPost2010Prop33
280
     0
102
RTVSPost2010PropOp33
 70
     1
102
RTVSPost2010Prop34
280
     0
102
RTVSPost2010PropOp34
 70
     1
102
RTVSPost2010Prop35
280
     0
102
RTVSPost2010PropOp35
 70
     1
102
RTVSPost2010Prop36
280
     0
102
RTVSPost2010PropOp36
 70
     1
102
RTVSPost2010Prop37
 90
       50
102
RTVSPost2010PropOp37
 70
     1
102
RTVSPost2010Prop38
140
0.0
102
RTVSPost2010PropOp38
 70
     1
102
RTVSPost2010Prop39
140
1.0
102
RTVSPost2010PropOp39
 70
     1
102
RTVSPost2010Prop40
 90
        0
102
RTVSPost2010PropOp40
 70
     1
102
RTVSPost2010Prop41ColorIndex
 90
       18
102
RTVSPost2010Prop41ColorRGB
 90
        0
102
RTVSPost2010PropOp41
 70
     1
102
RTVSPost2010Prop42
 90
       50
102
RTVSPost2010PropOp42
 70
     1
102
RTVSPost2010Prop43
 90
        3
102
RTVSPost2010PropOp43
 70
     1
102
RTVSPost2010Prop44ColorIndex
 90
        5
102
RTVSPost2010Prop44ColorRGB
 90
      255
102
RTVSPost2010PropOp44
 70
     1
102
RTVSPost2010Prop45
280
     0
102
RTVSPost2010PropOp45
 70
     1
102
RTVSPost2010Prop46
 90
       50
102
RTVSPost2010PropOp46
 70
     1
102
RTVSPost2010Prop47
 90
       50
102
RTVSPost2010PropOp47
 70
     1
102
RTVSPost2010Prop48
 90
       50
102
RTVSPost2010PropOp48
 70
     1
102
RTVSPost2010Prop49
280
     0
102
RTVSPost2010PropOp49
 70
     1
102
RTVSPost2010Prop50
 90
       50
102
RTVSPost2010PropOp50
 70
     1
102
RTVSPost2010Prop51ColorIndex
 90
      256
102
RTVSPost2010Prop51ColorRGB
 90
-16777216
102
RTVSPost2010PropOp51
 70
     0
102
RTVSPost2010Prop52
140
1.0
102
RTVSPost2010PropOp52
 70
     0
102
RTVSPost2010Prop53
 90
        2
102
RTVSPost2010PropOp53
 70
     1
102
RTVSPost2010Prop54
  1
strokes_ogs.tif
102
RTVSPost2010PropOp54
 70
     1
102
RTVSPost2010Prop55
280
     0
102
RTVSPost2010PropOp55
 70
     1
102
RTVSPost2010Prop56
140
1.0
102
RTVSPost2010PropOp56
 70
     1
102
RTVSPost2010Prop57
140
1.0
102
RTVSPost2010PropOp57
 70
     1
102
RTVSPropertyOp0
 70
     1
102
RTVSPropertyOp1
 70
     1
102
RTVSPropertyOp2
 70
     1
102
RTVSPropertyOp3
 70
     1
102
RTVSPropertyOp4
 70
     1
102
RTVSPropertyOp5
 70
     1
102
RTVSPropertyOp6
 70
     1
102
RTVSPropertyOp7
 70
     1
102
RTVSPropertyOp8
 70
     1
102
RTVSPropertyOp9
 70
     1
102
RTVSPropertyOp10
 70
     1
102
RTVSPropertyOp11
 70
     1
102
RTVSPropertyOp12
 70
     1
102
RTVSPropertyOp13
 70
     1
102
RTVSPropertyOp14
 70
     1
102
RTVSPropertyOp15
 70
     1
102
RTVSPropertyOp16
 70
     1
102
RTVSPropertyOp17
 70
     1
102
RTVSPropertyOp18
 70
     1
102
RTVSPropertyOp19
 70
     1
102
RTVSPropertyOp20
 70
     1
102
RTVSPropertyOp21
 70
     1
102
RTVSPropertyOp22
 70
     1
102
RTVSPropertyOp23
 70
     1
102
RTVSPropertyOp24
 70
     1
102
RTVSPropertyOp25
 70
     1
102
RTVSPropertyOp26
 70
     1
102
RTVSPropertyOp27
 70
     1
102
RTVSPropertyOp28
 70
     1
102
RTVSPropertyOp29
 70
     1
102
RTVSPropertyOp30
 70
     1
102
RTVSPropertyOp31
 70
     1
102
RTVSPropertyOp32
 70
     1
102
RTVSPropertyOp33
 70
     1
102
RTVSPropertyOp34
 70
     1
102
RTVSPropertyOp35
 70
     1
102
RTVSPropertyOp36
 70
     1
102
RTVSPropertyOp37
 70
     1
102
RTVSPropertyOp38
 70
     1
102
RTVSPropertyOp39
 70
     1
102
RTVSPropertyOp40
 70
     1
102
RTVSPropertyOp41
 70
     1
102
RTVSPropertyOp42
 70
     1
102
RTVSPropertyOp43
 70
     1
102
RTVSPropertyOp44
 70
     1
102
RTVSPropertyOp45
 70
     1
102
RTVSPropertyOp46
 70
     1
102
RTVSPropertyOp47
 70
     1
102
RTVSPropertyOp48
 70
     1
102
RTVSPropertyOp49
 70
     1
102
RTVSPropertyOp50
 70
     1
102
RTVSPropertyOp51
 70
     0
102
RTVSPropertyOp52
 70
     0
102
RTVSPropertyOp53
 70
     1
102
RTVSPropertyOp54
 70
     1
102
RTVSPropertyOp55
 70
     1
102
RTVSPropertyOp56
 70
     1
102
RTVSPropertyOp57
 70
     1
102
RTVSPropertyOp58
 70
     1
102
RTVSPropertyOp59
 70
     1
102
RTVSPropertyOp60
 70
     1
102
RTVSPropertyOp61
 70
     1
102
RTVSPropertyOp62
 70
     1
  0
XRECORD
  5
BD20
102
{ACAD_REACTORS
330
BD1F
102
}
330
BD1F
100
AcDbXrecord
280
     1
102
RTVSPost2010Prop28
280
     0
102
RTVSPost2010PropOp28
 70
     1
102
RTVSPost2010Prop29
280
     1
102
RTVSPost2010PropOp29
 70
     1
102
RTVSPost2010Prop30
280
     1
102
RTVSPost2010PropOp30
 70
     1
102
RTVSPost2010Prop31
280
     0
102
RTVSPost2010PropOp31
 70
     1
102
RTVSPost2010Prop32
280
     0
102
RTVSPost2010PropOp32
 70
     1
102
RTVSPost2010Prop33
280
     0
102
RTVSPost2010PropOp33
 70
     1
102
RTVSPost2010Prop34
280
     0
102
RTVSPost2010PropOp34
 70
     1
102
RTVSPost2010Prop35
280
     0
102
RTVSPost2010PropOp35
 70
     1
102
RTVSPost2010Prop36
280
     0
102
RTVSPost2010PropOp36
 70
     1
102
RTVSPost2010Prop37
 90
       50
102
RTVSPost2010PropOp37
 70
     1
102
RTVSPost2010Prop38
140
0.0
102
RTVSPost2010PropOp38
 70
     1
102
RTVSPost2010Prop39
140
1.0
102
RTVSPost2010PropOp39
 70
     1
102
RTVSPost2010Prop40
 90
        0
102
RTVSPost2010PropOp40
 70
     1
102
RTVSPost2010Prop41ColorIndex
 90
       18
102
RTVSPost2010Prop41ColorRGB
 90
        0
102
RTVSPost2010PropOp41
 70
     1
102
RTVSPost2010Prop42
 90
       50
102
RTVSPost2010PropOp42
 70
     1
102
RTVSPost2010Prop43
 90
        3
102
RTVSPost2010PropOp43
 70
     1
102
RTVSPost2010Prop44ColorIndex
 90
        5
102
RTVSPost2010Prop44ColorRGB
 90
      255
102
RTVSPost2010PropOp44
 70
     1
102
RTVSPost2010Prop45
280
     0
102
RTVSPost2010PropOp45
 70
     1
102
RTVSPost2010Prop46
 90
       50
102
RTVSPost2010PropOp46
 70
     1
102
RTVSPost2010Prop47
 90
       50
102
RTVSPost2010PropOp47
 70
     1
102
RTVSPost2010Prop48
 90
       50
102
RTVSPost2010PropOp48
 70
     1
102
RTVSPost2010Prop49
280
     0
102
RTVSPost2010PropOp49
 70
     1
102
RTVSPost2010Prop50
 90
       50
102
RTVSPost2010PropOp50
 70
     1
102
RTVSPost2010Prop51ColorIndex
 90
      256
102
RTVSPost2010Prop51ColorRGB
 90
-16777216
102
RTVSPost2010PropOp51
 70
     0
102
RTVSPost2010Prop52
140
1.0
102
RTVSPost2010PropOp52
 70
     0
102
RTVSPost2010Prop53
 90
        2
102
RTVSPost2010PropOp53
 70
     1
102
RTVSPost2010Prop54
  1
strokes_ogs.tif
102
RTVSPost2010PropOp54
 70
     1
102
RTVSPost2010Prop55
280
     0
102
RTVSPost2010PropOp55
 70
     1
102
RTVSPost2010Prop56
140
1.0
102
RTVSPost2010PropOp56
 70
     1
102
RTVSPost2010Prop57
140
1.0
102
RTVSPost2010PropOp57
 70
     1
102
RTVSPropertyOp0
 70
     1
102
RTVSPropertyOp1
 70
     1
102
RTVSPropertyOp2
 70
     1
102
RTVSPropertyOp3
 70
     1
102
RTVSPropertyOp4
 70
     1
102
RTVSPropertyOp5
 70
     1
102
RTVSPropertyOp6
 70
     1
102
RTVSPropertyOp7
 70
     1
102
RTVSPropertyOp8
 70
     1
102
RTVSPropertyOp9
 70
     1
102
RTVSPropertyOp10
 70
     1
102
RTVSPropertyOp11
 70
     1
102
RTVSPropertyOp12
 70
     1
102
RTVSPropertyOp13
 70
     1
102
RTVSPropertyOp14
 70
     1
102
RTVSPropertyOp15
 70
     1
102
RTVSPropertyOp16
 70
     1
102
RTVSPropertyOp17
 70
     1
102
RTVSPropertyOp18
 70
     1
102
RTVSPropertyOp19
 70
     1
102
RTVSPropertyOp20
 70
     1
102
RTVSPropertyOp21
 70
     1
102
RTVSPropertyOp22
 70
     1
102
RTVSPropertyOp23
 70
     1
102
RTVSPropertyOp24
 70
     1
102
RTVSPropertyOp25
 70
     1
102
RTVSPropertyOp26
 70
     1
102
RTVSPropertyOp27
 70
     1
102
RTVSPropertyOp28
 70
     1
102
RTVSPropertyOp29
 70
     1
102
RTVSPropertyOp30
 70
     1
102
RTVSPropertyOp31
 70
     1
102
RTVSPropertyOp32
 70
     1
102
RTVSPropertyOp33
 70
     1
102
RTVSPropertyOp34
 70
     1
102
RTVSPropertyOp35
 70
     1
102
RTVSPropertyOp36
 70
     1
102
RTVSPropertyOp37
 70
     1
102
RTVSPropertyOp38
 70
     1
102
RTVSPropertyOp39
 70
     1
102
RTVSPropertyOp40
 70
     1
102
RTVSPropertyOp41
 70
     1
102
RTVSPropertyOp42
 70
     1
102
RTVSPropertyOp43
 70
     1
102
RTVSPropertyOp44
 70
     1
102
RTVSPropertyOp45
 70
     1
102
RTVSPropertyOp46
 70
     1
102
RTVSPropertyOp47
 70
     1
102
RTVSPropertyOp48
 70
     1
102
RTVSPropertyOp49
 70
     1
102
RTVSPropertyOp50
 70
     1
102
RTVSPropertyOp51
 70
     0
102
RTVSPropertyOp52
 70
     0
102
RTVSPropertyOp53
 70
     1
102
RTVSPropertyOp54
 70
     1
102
RTVSPropertyOp55
 70
     1
102
RTVSPropertyOp56
 70
     1
102
RTVSPropertyOp57
 70
     1
102
RTVSPropertyOp58
 70
     1
102
RTVSPropertyOp59
 70
     1
102
RTVSPropertyOp60
 70
     1
102
RTVSPropertyOp61
 70
     1
102
RTVSPropertyOp62
 70
     1
  0
XRECORD
  5
BD1E
102
{ACAD_REACTORS
330
BD1D
102
}
330
BD1D
100
AcDbXrecord
280
     1
102
RTVSPost2010Prop28
280
     0
102
RTVSPost2010PropOp28
 70
     1
102
RTVSPost2010Prop29
280
     1
102
RTVSPost2010PropOp29
 70
     1
102
RTVSPost2010Prop30
280
     1
102
RTVSPost2010PropOp30
 70
     1
102
RTVSPost2010Prop31
280
     0
102
RTVSPost2010PropOp31
 70
     1
102
RTVSPost2010Prop32
280
     0
102
RTVSPost2010PropOp32
 70
     1
102
RTVSPost2010Prop33
280
     0
102
RTVSPost2010PropOp33
 70
     1
102
RTVSPost2010Prop34
280
     0
102
RTVSPost2010PropOp34
 70
     1
102
RTVSPost2010Prop35
280
     0
102
RTVSPost2010PropOp35
 70
     1
102
RTVSPost2010Prop36
280
     0
102
RTVSPost2010PropOp36
 70
     1
102
RTVSPost2010Prop37
 90
       50
102
RTVSPost2010PropOp37
 70
     1
102
RTVSPost2010Prop38
140
0.0
102
RTVSPost2010PropOp38
 70
     1
102
RTVSPost2010Prop39
140
1.0
102
RTVSPost2010PropOp39
 70
     1
102
RTVSPost2010Prop40
 90
        0
102
RTVSPost2010PropOp40
 70
     1
102
RTVSPost2010Prop41ColorIndex
 90
       18
102
RTVSPost2010Prop41ColorRGB
 90
        0
102
RTVSPost2010PropOp41
 70
     1
102
RTVSPost2010Prop42
 90
       50
102
RTVSPost2010PropOp42
 70
     1
102
RTVSPost2010Prop43
 90
        3
102
RTVSPost2010PropOp43
 70
     1
102
RTVSPost2010Prop44ColorIndex
 90
        5
102
RTVSPost2010Prop44ColorRGB
 90
      255
102
RTVSPost2010PropOp44
 70
     1
102
RTVSPost2010Prop45
280
     0
102
RTVSPost2010PropOp45
 70
     1
102
RTVSPost2010Prop46
 90
       50
102
RTVSPost2010PropOp46
 70
     1
102
RTVSPost2010Prop47
 90
       50
102
RTVSPost2010PropOp47
 70
     1
102
RTVSPost2010Prop48
 90
       50
102
RTVSPost2010PropOp48
 70
     1
102
RTVSPost2010Prop49
280
     0
102
RTVSPost2010PropOp49
 70
     1
102
RTVSPost2010Prop50
 90
       50
102
RTVSPost2010PropOp50
 70
     1
102
RTVSPost2010Prop51ColorIndex
 90
      256
102
RTVSPost2010Prop51ColorRGB
 90
-16777216
102
RTVSPost2010PropOp51
 70
     0
102
RTVSPost2010Prop52
140
1.0
102
RTVSPost2010PropOp52
 70
     0
102
RTVSPost2010Prop53
 90
        2
102
RTVSPost2010PropOp53
 70
     1
102
RTVSPost2010Prop54
  1
strokes_ogs.tif
102
RTVSPost2010PropOp54
 70
     1
102
RTVSPost2010Prop55
280
     0
102
RTVSPost2010PropOp55
 70
     1
102
RTVSPost2010Prop56
140
1.0
102
RTVSPost2010PropOp56
 70
     1
102
RTVSPost2010Prop57
140
1.0
102
RTVSPost2010PropOp57
 70
     1
102
RTVSPropertyOp0
 70
     1
102
RTVSPropertyOp1
 70
     1
102
RTVSPropertyOp2
 70
     1
102
RTVSPropertyOp3
 70
     1
102
RTVSPropertyOp4
 70
     1
102
RTVSPropertyOp5
 70
     1
102
RTVSPropertyOp6
 70
     1
102
RTVSPropertyOp7
 70
     1
102
RTVSPropertyOp8
 70
     1
102
RTVSPropertyOp9
 70
     1
102
RTVSPropertyOp10
 70
     1
102
RTVSPropertyOp11
 70
     1
102
RTVSPropertyOp12
 70
     1
102
RTVSPropertyOp13
 70
     1
102
RTVSPropertyOp14
 70
     1
102
RTVSPropertyOp15
 70
     1
102
RTVSPropertyOp16
 70
     1
102
RTVSPropertyOp17
 70
     1
102
RTVSPropertyOp18
 70
     1
102
RTVSPropertyOp19
 70
     1
102
RTVSPropertyOp20
 70
     1
102
RTVSPropertyOp21
 70
     1
102
RTVSPropertyOp22
 70
     1
102
RTVSPropertyOp23
 70
     1
102
RTVSPropertyOp24
 70
     1
102
RTVSPropertyOp25
 70
     1
102
RTVSPropertyOp26
 70
     1
102
RTVSPropertyOp27
 70
     1
102
RTVSPropertyOp28
 70
     1
102
RTVSPropertyOp29
 70
     1
102
RTVSPropertyOp30
 70
     1
102
RTVSPropertyOp31
 70
     1
102
RTVSPropertyOp32
 70
     1
102
RTVSPropertyOp33
 70
     1
102
RTVSPropertyOp34
 70
     1
102
RTVSPropertyOp35
 70
     1
102
RTVSPropertyOp36
 70
     1
102
RTVSPropertyOp37
 70
     1
102
RTVSPropertyOp38
 70
     1
102
RTVSPropertyOp39
 70
     1
102
RTVSPropertyOp40
 70
     1
102
RTVSPropertyOp41
 70
     1
102
RTVSPropertyOp42
 70
     1
102
RTVSPropertyOp43
 70
     1
102
RTVSPropertyOp44
 70
     1
102
RTVSPropertyOp45
 70
     1
102
RTVSPropertyOp46
 70
     1
102
RTVSPropertyOp47
 70
     1
102
RTVSPropertyOp48
 70
     1
102
RTVSPropertyOp49
 70
     1
102
RTVSPropertyOp50
 70
     1
102
RTVSPropertyOp51
 70
     0
102
RTVSPropertyOp52
 70
     0
102
RTVSPropertyOp53
 70
     1
102
RTVSPropertyOp54
 70
     1
102
RTVSPropertyOp55
 70
     1
102
RTVSPropertyOp56
 70
     1
102
RTVSPropertyOp57
 70
     1
102
RTVSPropertyOp58
 70
     1
102
RTVSPropertyOp59
 70
     1
102
RTVSPropertyOp60
 70
     1
102
RTVSPropertyOp61
 70
     1
102
RTVSPropertyOp62
 70
     1
  0
XRECORD
  5
BD18
102
{ACAD_REACTORS
330
BD17
102
}
330
BD17
100
AcDbXrecord
280
     1
102
RTVSPost2010Prop28
280
     0
102
RTVSPost2010PropOp28
 70
     1
102
RTVSPost2010Prop29
280
     1
102
RTVSPost2010PropOp29
 70
     1
102
RTVSPost2010Prop30
280
     1
102
RTVSPost2010PropOp30
 70
     1
102
RTVSPost2010Prop31
280
     0
102
RTVSPost2010PropOp31
 70
     1
102
RTVSPost2010Prop32
280
     0
102
RTVSPost2010PropOp32
 70
     1
102
RTVSPost2010Prop33
280
     0
102
RTVSPost2010PropOp33
 70
     1
102
RTVSPost2010Prop34
280
     0
102
RTVSPost2010PropOp34
 70
     1
102
RTVSPost2010Prop35
280
     0
102
RTVSPost2010PropOp35
 70
     1
102
RTVSPost2010Prop36
280
     0
102
RTVSPost2010PropOp36
 70
     1
102
RTVSPost2010Prop37
 90
       50
102
RTVSPost2010PropOp37
 70
     1
102
RTVSPost2010Prop38
140
0.0
102
RTVSPost2010PropOp38
 70
     1
102
RTVSPost2010Prop39
140
1.0
102
RTVSPost2010PropOp39
 70
     1
102
RTVSPost2010Prop40
 90
        0
102
RTVSPost2010PropOp40
 70
     1
102
RTVSPost2010Prop41ColorIndex
 90
       18
102
RTVSPost2010Prop41ColorRGB
 90
        0
102
RTVSPost2010PropOp41
 70
     1
102
RTVSPost2010Prop42
 90
       50
102
RTVSPost2010PropOp42
 70
     1
102
RTVSPost2010Prop43
 90
        3
102
RTVSPost2010PropOp43
 70
     1
102
RTVSPost2010Prop44ColorIndex
 90
        5
102
RTVSPost2010Prop44ColorRGB
 90
      255
102
RTVSPost2010PropOp44
 70
     1
102
RTVSPost2010Prop45
280
     0
102
RTVSPost2010PropOp45
 70
     1
102
RTVSPost2010Prop46
 90
       50
102
RTVSPost2010PropOp46
 70
     1
102
RTVSPost2010Prop47
 90
       50
102
RTVSPost2010PropOp47
 70
     1
102
RTVSPost2010Prop48
 90
       50
102
RTVSPost2010PropOp48
 70
     1
102
RTVSPost2010Prop49
280
     0
102
RTVSPost2010PropOp49
 70
     1
102
RTVSPost2010Prop50
 90
       50
102
RTVSPost2010PropOp50
 70
     1
102
RTVSPost2010Prop51ColorIndex
 90
      256
102
RTVSPost2010Prop51ColorRGB
 90
-16777216
102
RTVSPost2010PropOp51
 70
     0
102
RTVSPost2010Prop52
140
1.0
102
RTVSPost2010PropOp52
 70
     0
102
RTVSPost2010Prop53
 90
        2
102
RTVSPost2010PropOp53
 70
     1
102
RTVSPost2010Prop54
  1
strokes_ogs.tif
102
RTVSPost2010PropOp54
 70
     1
102
RTVSPost2010Prop55
280
     0
102
RTVSPost2010PropOp55
 70
     1
102
RTVSPost2010Prop56
140
1.0
102
RTVSPost2010PropOp56
 70
     1
102
RTVSPost2010Prop57
140
1.0
102
RTVSPost2010PropOp57
 70
     1
102
RTVSPropertyOp0
 70
     1
102
RTVSPropertyOp1
 70
     1
102
RTVSPropertyOp2
 70
     1
102
RTVSPropertyOp3
 70
     1
102
RTVSPropertyOp4
 70
     1
102
RTVSPropertyOp5
 70
     1
102
RTVSPropertyOp6
 70
     1
102
RTVSPropertyOp7
 70
     1
102
RTVSPropertyOp8
 70
     1
102
RTVSPropertyOp9
 70
     1
102
RTVSPropertyOp10
 70
     1
102
RTVSPropertyOp11
 70
     1
102
RTVSPropertyOp12
 70
     1
102
RTVSPropertyOp13
 70
     1
102
RTVSPropertyOp14
 70
     1
102
RTVSPropertyOp15
 70
     1
102
RTVSPropertyOp16
 70
     1
102
RTVSPropertyOp17
 70
     1
102
RTVSPropertyOp18
 70
     1
102
RTVSPropertyOp19
 70
     1
102
RTVSPropertyOp20
 70
     1
102
RTVSPropertyOp21
 70
     1
102
RTVSPropertyOp22
 70
     1
102
RTVSPropertyOp23
 70
     1
102
RTVSPropertyOp24
 70
     1
102
RTVSPropertyOp25
 70
     1
102
RTVSPropertyOp26
 70
     1
102
RTVSPropertyOp27
 70
     1
102
RTVSPropertyOp28
 70
     1
102
RTVSPropertyOp29
 70
     1
102
RTVSPropertyOp30
 70
     1
102
RTVSPropertyOp31
 70
     1
102
RTVSPropertyOp32
 70
     1
102
RTVSPropertyOp33
 70
     1
102
RTVSPropertyOp34
 70
     1
102
RTVSPropertyOp35
 70
     1
102
RTVSPropertyOp36
 70
     1
102
RTVSPropertyOp37
 70
     1
102
RTVSPropertyOp38
 70
     1
102
RTVSPropertyOp39
 70
     1
102
RTVSPropertyOp40
 70
     1
102
RTVSPropertyOp41
 70
     1
102
RTVSPropertyOp42
 70
     1
102
RTVSPropertyOp43
 70
     1
102
RTVSPropertyOp44
 70
     1
102
RTVSPropertyOp45
 70
     1
102
RTVSPropertyOp46
 70
     1
102
RTVSPropertyOp47
 70
     1
102
RTVSPropertyOp48
 70
     1
102
RTVSPropertyOp49
 70
     1
102
RTVSPropertyOp50
 70
     1
102
RTVSPropertyOp51
 70
     0
102
RTVSPropertyOp52
 70
     0
102
RTVSPropertyOp53
 70
     1
102
RTVSPropertyOp54
 70
     1
102
RTVSPropertyOp55
 70
     1
102
RTVSPropertyOp56
 70
     1
102
RTVSPropertyOp57
 70
     1
102
RTVSPropertyOp58
 70
     1
102
RTVSPropertyOp59
 70
     1
102
RTVSPropertyOp60
 70
     1
102
RTVSPropertyOp61
 70
     1
102
RTVSPropertyOp62
 70
     1
  0
XRECORD
  5
BD1A
102
{ACAD_REACTORS
330
BD19
102
}
330
BD19
100
AcDbXrecord
280
     1
102
RTVSPost2010Prop28
280
     0
102
RTVSPost2010PropOp28
 70
     1
102
RTVSPost2010Prop29
280
     1
102
RTVSPost2010PropOp29
 70
     1
102
RTVSPost2010Prop30
280
     1
102
RTVSPost2010PropOp30
 70
     1
102
RTVSPost2010Prop31
280
     0
102
RTVSPost2010PropOp31
 70
     1
102
RTVSPost2010Prop32
280
     0
102
RTVSPost2010PropOp32
 70
     1
102
RTVSPost2010Prop33
280
     0
102
RTVSPost2010PropOp33
 70
     1
102
RTVSPost2010Prop34
280
     0
102
RTVSPost2010PropOp34
 70
     1
102
RTVSPost2010Prop35
280
     0
102
RTVSPost2010PropOp35
 70
     1
102
RTVSPost2010Prop36
280
     0
102
RTVSPost2010PropOp36
 70
     1
102
RTVSPost2010Prop37
 90
       50
102
RTVSPost2010PropOp37
 70
     1
102
RTVSPost2010Prop38
140
0.0
102
RTVSPost2010PropOp38
 70
     1
102
RTVSPost2010Prop39
140
1.0
102
RTVSPost2010PropOp39
 70
     1
102
RTVSPost2010Prop40
 90
        0
102
RTVSPost2010PropOp40
 70
     1
102
RTVSPost2010Prop41ColorIndex
 90
       18
102
RTVSPost2010Prop41ColorRGB
 90
        0
102
RTVSPost2010PropOp41
 70
     1
102
RTVSPost2010Prop42
 90
       50
102
RTVSPost2010PropOp42
 70
     1
102
RTVSPost2010Prop43
 90
        3
102
RTVSPost2010PropOp43
 70
     1
102
RTVSPost2010Prop44ColorIndex
 90
        5
102
RTVSPost2010Prop44ColorRGB
 90
      255
102
RTVSPost2010PropOp44
 70
     1
102
RTVSPost2010Prop45
280
     0
102
RTVSPost2010PropOp45
 70
     1
102
RTVSPost2010Prop46
 90
       50
102
RTVSPost2010PropOp46
 70
     1
102
RTVSPost2010Prop47
 90
       50
102
RTVSPost2010PropOp47
 70
     1
102
RTVSPost2010Prop48
 90
       50
102
RTVSPost2010PropOp48
 70
     1
102
RTVSPost2010Prop49
280
     0
102
RTVSPost2010PropOp49
 70
     1
102
RTVSPost2010Prop50
 90
       50
102
RTVSPost2010PropOp50
 70
     1
102
RTVSPost2010Prop51ColorIndex
 90
      256
102
RTVSPost2010Prop51ColorRGB
 90
-16777216
102
RTVSPost2010PropOp51
 70
     0
102
RTVSPost2010Prop52
140
1.0
102
RTVSPost2010PropOp52
 70
     0
102
RTVSPost2010Prop53
 90
        2
102
RTVSPost2010PropOp53
 70
     1
102
RTVSPost2010Prop54
  1
strokes_ogs.tif
102
RTVSPost2010PropOp54
 70
     1
102
RTVSPost2010Prop55
280
     0
102
RTVSPost2010PropOp55
 70
     1
102
RTVSPost2010Prop56
140
1.0
102
RTVSPost2010PropOp56
 70
     1
102
RTVSPost2010Prop57
140
1.0
102
RTVSPost2010PropOp57
 70
     1
102
RTVSPropertyOp0
 70
     1
102
RTVSPropertyOp1
 70
     1
102
RTVSPropertyOp2
 70
     1
102
RTVSPropertyOp3
 70
     1
102
RTVSPropertyOp4
 70
     1
102
RTVSPropertyOp5
 70
     1
102
RTVSPropertyOp6
 70
     1
102
RTVSPropertyOp7
 70
     1
102
RTVSPropertyOp8
 70
     1
102
RTVSPropertyOp9
 70
     1
102
RTVSPropertyOp10
 70
     1
102
RTVSPropertyOp11
 70
     1
102
RTVSPropertyOp12
 70
     1
102
RTVSPropertyOp13
 70
     1
102
RTVSPropertyOp14
 70
     1
102
RTVSPropertyOp15
 70
     1
102
RTVSPropertyOp16
 70
     1
102
RTVSPropertyOp17
 70
     1
102
RTVSPropertyOp18
 70
     1
102
RTVSPropertyOp19
 70
     1
102
RTVSPropertyOp20
 70
     1
102
RTVSPropertyOp21
 70
     1
102
RTVSPropertyOp22
 70
     1
102
RTVSPropertyOp23
 70
     1
102
RTVSPropertyOp24
 70
     1
102
RTVSPropertyOp25
 70
     1
102
RTVSPropertyOp26
 70
     1
102
RTVSPropertyOp27
 70
     1
102
RTVSPropertyOp28
 70
     1
102
RTVSPropertyOp29
 70
     1
102
RTVSPropertyOp30
 70
     1
102
RTVSPropertyOp31
 70
     1
102
RTVSPropertyOp32
 70
     1
102
RTVSPropertyOp33
 70
     1
102
RTVSPropertyOp34
 70
     1
102
RTVSPropertyOp35
 70
     1
102
RTVSPropertyOp36
 70
     1
102
RTVSPropertyOp37
 70
     1
102
RTVSPropertyOp38
 70
     1
102
RTVSPropertyOp39
 70
     1
102
RTVSPropertyOp40
 70
     1
102
RTVSPropertyOp41
 70
     1
102
RTVSPropertyOp42
 70
     1
102
RTVSPropertyOp43
 70
     1
102
RTVSPropertyOp44
 70
     1
102
RTVSPropertyOp45
 70
     1
102
RTVSPropertyOp46
 70
     1
102
RTVSPropertyOp47
 70
     1
102
RTVSPropertyOp48
 70
     1
102
RTVSPropertyOp49
 70
     1
102
RTVSPropertyOp50
 70
     1
102
RTVSPropertyOp51
 70
     0
102
RTVSPropertyOp52
 70
     0
102
RTVSPropertyOp53
 70
     1
102
RTVSPropertyOp54
 70
     1
102
RTVSPropertyOp55
 70
     1
102
RTVSPropertyOp56
 70
     1
102
RTVSPropertyOp57
 70
     1
102
RTVSPropertyOp58
 70
     1
102
RTVSPropertyOp59
 70
     1
102
RTVSPropertyOp60
 70
     1
102
RTVSPropertyOp61
 70
     1
102
RTVSPropertyOp62
 70
     1
  0
XRECORD
  5
BD10
102
{ACAD_REACTORS
330
BD0F
102
}
330
BD0F
100
AcDbXrecord
280
     1
102
RTVSPost2010Prop28
280
     0
102
RTVSPost2010PropOp28
 70
     1
102
RTVSPost2010Prop29
280
     1
102
RTVSPost2010PropOp29
 70
     1
102
RTVSPost2010Prop30
280
     1
102
RTVSPost2010PropOp30
 70
     1
102
RTVSPost2010Prop31
280
     0
102
RTVSPost2010PropOp31
 70
     1
102
RTVSPost2010Prop32
280
     0
102
RTVSPost2010PropOp32
 70
     1
102
RTVSPost2010Prop33
280
     0
102
RTVSPost2010PropOp33
 70
     1
102
RTVSPost2010Prop34
280
     0
102
RTVSPost2010PropOp34
 70
     1
102
RTVSPost2010Prop35
280
     0
102
RTVSPost2010PropOp35
 70
     1
102
RTVSPost2010Prop36
280
     0
102
RTVSPost2010PropOp36
 70
     1
102
RTVSPost2010Prop37
 90
       50
102
RTVSPost2010PropOp37
 70
     1
102
RTVSPost2010Prop38
140
0.0
102
RTVSPost2010PropOp38
 70
     1
102
RTVSPost2010Prop39
140
1.0
102
RTVSPost2010PropOp39
 70
     1
102
RTVSPost2010Prop40
 90
        0
102
RTVSPost2010PropOp40
 70
     1
102
RTVSPost2010Prop41ColorIndex
 90
       18
102
RTVSPost2010Prop41ColorRGB
 90
        0
102
RTVSPost2010PropOp41
 70
     1
102
RTVSPost2010Prop42
 90
       50
102
RTVSPost2010PropOp42
 70
     1
102
RTVSPost2010Prop43
 90
        3
102
RTVSPost2010PropOp43
 70
     1
102
RTVSPost2010Prop44ColorIndex
 90
        5
102
RTVSPost2010Prop44ColorRGB
 90
      255
102
RTVSPost2010PropOp44
 70
     1
102
RTVSPost2010Prop45
280
     0
102
RTVSPost2010PropOp45
 70
     1
102
RTVSPost2010Prop46
 90
       50
102
RTVSPost2010PropOp46
 70
     1
102
RTVSPost2010Prop47
 90
       50
102
RTVSPost2010PropOp47
 70
     1
102
RTVSPost2010Prop48
 90
       50
102
RTVSPost2010PropOp48
 70
     1
102
RTVSPost2010Prop49
280
     0
102
RTVSPost2010PropOp49
 70
     1
102
RTVSPost2010Prop50
 90
       50
102
RTVSPost2010PropOp50
 70
     1
102
RTVSPost2010Prop51ColorIndex
 90
      256
102
RTVSPost2010Prop51ColorRGB
 90
-16777216
102
RTVSPost2010PropOp51
 70
     0
102
RTVSPost2010Prop52
140
1.0
102
RTVSPost2010PropOp52
 70
     0
102
RTVSPost2010Prop53
 90
        2
102
RTVSPost2010PropOp53
 70
     1
102
RTVSPost2010Prop54
  1
strokes_ogs.tif
102
RTVSPost2010PropOp54
 70
     1
102
RTVSPost2010Prop55
280
     0
102
RTVSPost2010PropOp55
 70
     1
102
RTVSPost2010Prop56
140
1.0
102
RTVSPost2010PropOp56
 70
     1
102
RTVSPost2010Prop57
140
1.0
102
RTVSPost2010PropOp57
 70
     1
102
RTVSPropertyOp0
 70
     1
102
RTVSPropertyOp1
 70
     1
102
RTVSPropertyOp2
 70
     1
102
RTVSPropertyOp3
 70
     1
102
RTVSPropertyOp4
 70
     1
102
RTVSPropertyOp5
 70
     1
102
RTVSPropertyOp6
 70
     1
102
RTVSPropertyOp7
 70
     1
102
RTVSPropertyOp8
 70
     1
102
RTVSPropertyOp9
 70
     1
102
RTVSPropertyOp10
 70
     1
102
RTVSPropertyOp11
 70
     1
102
RTVSPropertyOp12
 70
     1
102
RTVSPropertyOp13
 70
     1
102
RTVSPropertyOp14
 70
     1
102
RTVSPropertyOp15
 70
     1
102
RTVSPropertyOp16
 70
     1
102
RTVSPropertyOp17
 70
     1
102
RTVSPropertyOp18
 70
     1
102
RTVSPropertyOp19
 70
     1
102
RTVSPropertyOp20
 70
     1
102
RTVSPropertyOp21
 70
     1
102
RTVSPropertyOp22
 70
     1
102
RTVSPropertyOp23
 70
     1
102
RTVSPropertyOp24
 70
     1
102
RTVSPropertyOp25
 70
     1
102
RTVSPropertyOp26
 70
     1
102
RTVSPropertyOp27
 70
     1
102
RTVSPropertyOp28
 70
     1
102
RTVSPropertyOp29
 70
     1
102
RTVSPropertyOp30
 70
     1
102
RTVSPropertyOp31
 70
     1
102
RTVSPropertyOp32
 70
     1
102
RTVSPropertyOp33
 70
     1
102
RTVSPropertyOp34
 70
     1
102
RTVSPropertyOp35
 70
     1
102
RTVSPropertyOp36
 70
     1
102
RTVSPropertyOp37
 70
     1
102
RTVSPropertyOp38
 70
     1
102
RTVSPropertyOp39
 70
     1
102
RTVSPropertyOp40
 70
     1
102
RTVSPropertyOp41
 70
     1
102
RTVSPropertyOp42
 70
     1
102
RTVSPropertyOp43
 70
     1
102
RTVSPropertyOp44
 70
     1
102
RTVSPropertyOp45
 70
     1
102
RTVSPropertyOp46
 70
     1
102
RTVSPropertyOp47
 70
     1
102
RTVSPropertyOp48
 70
     1
102
RTVSPropertyOp49
 70
     1
102
RTVSPropertyOp50
 70
     1
102
RTVSPropertyOp51
 70
     0
102
RTVSPropertyOp52
 70
     0
102
RTVSPropertyOp53
 70
     1
102
RTVSPropertyOp54
 70
     1
102
RTVSPropertyOp55
 70
     1
102
RTVSPropertyOp56
 70
     1
102
RTVSPropertyOp57
 70
     1
102
RTVSPropertyOp58
 70
     1
102
RTVSPropertyOp59
 70
     1
102
RTVSPropertyOp60
 70
     1
102
RTVSPropertyOp61
 70
     1
102
RTVSPropertyOp62
 70
     1
  0
XRECORD
  5
BD04
102
{ACAD_REACTORS
330
BD03
102
}
330
BD03
100
AcDbXrecord
280
     1
102
RTVSPost2010Prop28
280
     0
102
RTVSPost2010PropOp28
 70
     1
102
RTVSPost2010Prop29
280
     1
102
RTVSPost2010PropOp29
 70
     1
102
RTVSPost2010Prop30
280
     1
102
RTVSPost2010PropOp30
 70
     1
102
RTVSPost2010Prop31
280
     0
102
RTVSPost2010PropOp31
 70
     1
102
RTVSPost2010Prop32
280
     0
102
RTVSPost2010PropOp32
 70
     1
102
RTVSPost2010Prop33
280
     0
102
RTVSPost2010PropOp33
 70
     1
102
RTVSPost2010Prop34
280
     0
102
RTVSPost2010PropOp34
 70
     1
102
RTVSPost2010Prop35
280
     0
102
RTVSPost2010PropOp35
 70
     1
102
RTVSPost2010Prop36
280
     0
102
RTVSPost2010PropOp36
 70
     1
102
RTVSPost2010Prop37
 90
       50
102
RTVSPost2010PropOp37
 70
     1
102
RTVSPost2010Prop38
140
0.0
102
RTVSPost2010PropOp38
 70
     1
102
RTVSPost2010Prop39
140
1.0
102
RTVSPost2010PropOp39
 70
     1
102
RTVSPost2010Prop40
 90
        0
102
RTVSPost2010PropOp40
 70
     1
102
RTVSPost2010Prop41ColorIndex
 90
       18
102
RTVSPost2010Prop41ColorRGB
 90
        0
102
RTVSPost2010PropOp41
 70
     1
102
RTVSPost2010Prop42
 90
       50
102
RTVSPost2010PropOp42
 70
     1
102
RTVSPost2010Prop43
 90
        3
102
RTVSPost2010PropOp43
 70
     1
102
RTVSPost2010Prop44ColorIndex
 90
        5
102
RTVSPost2010Prop44ColorRGB
 90
      255
102
RTVSPost2010PropOp44
 70
     1
102
RTVSPost2010Prop45
280
     0
102
RTVSPost2010PropOp45
 70
     1
102
RTVSPost2010Prop46
 90
       50
102
RTVSPost2010PropOp46
 70
     1
102
RTVSPost2010Prop47
 90
       50
102
RTVSPost2010PropOp47
 70
     1
102
RTVSPost2010Prop48
 90
       50
102
RTVSPost2010PropOp48
 70
     1
102
RTVSPost2010Prop49
280
     0
102
RTVSPost2010PropOp49
 70
     1
102
RTVSPost2010Prop50
 90
       50
102
RTVSPost2010PropOp50
 70
     1
102
RTVSPost2010Prop51ColorIndex
 90
      256
102
RTVSPost2010Prop51ColorRGB
 90
-16777216
102
RTVSPost2010PropOp51
 70
     0
102
RTVSPost2010Prop52
140
1.0
102
RTVSPost2010PropOp52
 70
     0
102
RTVSPost2010Prop53
 90
        2
102
RTVSPost2010PropOp53
 70
     1
102
RTVSPost2010Prop54
  1
strokes_ogs.tif
102
RTVSPost2010PropOp54
 70
     1
102
RTVSPost2010Prop55
280
     0
102
RTVSPost2010PropOp55
 70
     1
102
RTVSPost2010Prop56
140
1.0
102
RTVSPost2010PropOp56
 70
     1
102
RTVSPost2010Prop57
140
1.0
102
RTVSPost2010PropOp57
 70
     1
102
RTVSPropertyOp0
 70
     1
102
RTVSPropertyOp1
 70
     1
102
RTVSPropertyOp2
 70
     1
102
RTVSPropertyOp3
 70
     1
102
RTVSPropertyOp4
 70
     1
102
RTVSPropertyOp5
 70
     1
102
RTVSPropertyOp6
 70
     1
102
RTVSPropertyOp7
 70
     1
102
RTVSPropertyOp8
 70
     1
102
RTVSPropertyOp9
 70
     1
102
RTVSPropertyOp10
 70
     1
102
RTVSPropertyOp11
 70
     1
102
RTVSPropertyOp12
 70
     1
102
RTVSPropertyOp13
 70
     1
102
RTVSPropertyOp14
 70
     1
102
RTVSPropertyOp15
 70
     1
102
RTVSPropertyOp16
 70
     1
102
RTVSPropertyOp17
 70
     1
102
RTVSPropertyOp18
 70
     1
102
RTVSPropertyOp19
 70
     1
102
RTVSPropertyOp20
 70
     1
102
RTVSPropertyOp21
 70
     1
102
RTVSPropertyOp22
 70
     1
102
RTVSPropertyOp23
 70
     1
102
RTVSPropertyOp24
 70
     1
102
RTVSPropertyOp25
 70
     1
102
RTVSPropertyOp26
 70
     1
102
RTVSPropertyOp27
 70
     1
102
RTVSPropertyOp28
 70
     1
102
RTVSPropertyOp29
 70
     1
102
RTVSPropertyOp30
 70
     1
102
RTVSPropertyOp31
 70
     1
102
RTVSPropertyOp32
 70
     1
102
RTVSPropertyOp33
 70
     1
102
RTVSPropertyOp34
 70
     1
102
RTVSPropertyOp35
 70
     1
102
RTVSPropertyOp36
 70
     1
102
RTVSPropertyOp37
 70
     1
102
RTVSPropertyOp38
 70
     1
102
RTVSPropertyOp39
 70
     1
102
RTVSPropertyOp40
 70
     1
102
RTVSPropertyOp41
 70
     1
102
RTVSPropertyOp42
 70
     1
102
RTVSPropertyOp43
 70
     1
102
RTVSPropertyOp44
 70
     1
102
RTVSPropertyOp45
 70
     1
102
RTVSPropertyOp46
 70
     1
102
RTVSPropertyOp47
 70
     1
102
RTVSPropertyOp48
 70
     1
102
RTVSPropertyOp49
 70
     1
102
RTVSPropertyOp50
 70
     1
102
RTVSPropertyOp51
 70
     0
102
RTVSPropertyOp52
 70
     0
102
RTVSPropertyOp53
 70
     1
102
RTVSPropertyOp54
 70
     1
102
RTVSPropertyOp55
 70
     1
102
RTVSPropertyOp56
 70
     1
102
RTVSPropertyOp57
 70
     1
102
RTVSPropertyOp58
 70
     1
102
RTVSPropertyOp59
 70
     1
102
RTVSPropertyOp60
 70
     1
102
RTVSPropertyOp61
 70
     1
102
RTVSPropertyOp62
 70
     1
  0
XRECORD
  5
BD1C
102
{ACAD_REACTORS
330
BD1B
102
}
330
BD1B
100
AcDbXrecord
280
     1
102
RTVSPost2010Prop28
280
     0
102
RTVSPost2010PropOp28
 70
     1
102
RTVSPost2010Prop29
280
     1
102
RTVSPost2010PropOp29
 70
     1
102
RTVSPost2010Prop30
280
     1
102
RTVSPost2010PropOp30
 70
     1
102
RTVSPost2010Prop31
280
     0
102
RTVSPost2010PropOp31
 70
     1
102
RTVSPost2010Prop32
280
     0
102
RTVSPost2010PropOp32
 70
     1
102
RTVSPost2010Prop33
280
     0
102
RTVSPost2010PropOp33
 70
     1
102
RTVSPost2010Prop34
280
     0
102
RTVSPost2010PropOp34
 70
     1
102
RTVSPost2010Prop35
280
     0
102
RTVSPost2010PropOp35
 70
     1
102
RTVSPost2010Prop36
280
     0
102
RTVSPost2010PropOp36
 70
     1
102
RTVSPost2010Prop37
 90
       50
102
RTVSPost2010PropOp37
 70
     1
102
RTVSPost2010Prop38
140
0.0
102
RTVSPost2010PropOp38
 70
     1
102
RTVSPost2010Prop39
140
1.0
102
RTVSPost2010PropOp39
 70
     1
102
RTVSPost2010Prop40
 90
        0
102
RTVSPost2010PropOp40
 70
     1
102
RTVSPost2010Prop41ColorIndex
 90
       18
102
RTVSPost2010Prop41ColorRGB
 90
        0
102
RTVSPost2010PropOp41
 70
     1
102
RTVSPost2010Prop42
 90
       50
102
RTVSPost2010PropOp42
 70
     1
102
RTVSPost2010Prop43
 90
        3
102
RTVSPost2010PropOp43
 70
     1
102
RTVSPost2010Prop44ColorIndex
 90
        5
102
RTVSPost2010Prop44ColorRGB
 90
      255
102
RTVSPost2010PropOp44
 70
     1
102
RTVSPost2010Prop45
280
     0
102
RTVSPost2010PropOp45
 70
     1
102
RTVSPost2010Prop46
 90
       50
102
RTVSPost2010PropOp46
 70
     1
102
RTVSPost2010Prop47
 90
       50
102
RTVSPost2010PropOp47
 70
     1
102
RTVSPost2010Prop48
 90
       50
102
RTVSPost2010PropOp48
 70
     1
102
RTVSPost2010Prop49
280
     0
102
RTVSPost2010PropOp49
 70
     1
102
RTVSPost2010Prop50
 90
       50
102
RTVSPost2010PropOp50
 70
     1
102
RTVSPost2010Prop51ColorIndex
 90
      256
102
RTVSPost2010Prop51ColorRGB
 90
-16777216
102
RTVSPost2010PropOp51
 70
     0
102
RTVSPost2010Prop52
140
1.0
102
RTVSPost2010PropOp52
 70
     0
102
RTVSPost2010Prop53
 90
        2
102
RTVSPost2010PropOp53
 70
     1
102
RTVSPost2010Prop54
  1
strokes_ogs.tif
102
RTVSPost2010PropOp54
 70
     1
102
RTVSPost2010Prop55
280
     0
102
RTVSPost2010PropOp55
 70
     1
102
RTVSPost2010Prop56
140
1.0
102
RTVSPost2010PropOp56
 70
     1
102
RTVSPost2010Prop57
140
1.0
102
RTVSPost2010PropOp57
 70
     1
102
RTVSPropertyOp0
 70
     1
102
RTVSPropertyOp1
 70
     1
102
RTVSPropertyOp2
 70
     1
102
RTVSPropertyOp3
 70
     1
102
RTVSPropertyOp4
 70
     1
102
RTVSPropertyOp5
 70
     1
102
RTVSPropertyOp6
 70
     1
102
RTVSPropertyOp7
 70
     1
102
RTVSPropertyOp8
 70
     1
102
RTVSPropertyOp9
 70
     1
102
RTVSPropertyOp10
 70
     1
102
RTVSPropertyOp11
 70
     1
102
RTVSPropertyOp12
 70
     1
102
RTVSPropertyOp13
 70
     1
102
RTVSPropertyOp14
 70
     1
102
RTVSPropertyOp15
 70
     1
102
RTVSPropertyOp16
 70
     1
102
RTVSPropertyOp17
 70
     1
102
RTVSPropertyOp18
 70
     1
102
RTVSPropertyOp19
 70
     1
102
RTVSPropertyOp20
 70
     1
102
RTVSPropertyOp21
 70
     1
102
RTVSPropertyOp22
 70
     1
102
RTVSPropertyOp23
 70
     1
102
RTVSPropertyOp24
 70
     1
102
RTVSPropertyOp25
 70
     1
102
RTVSPropertyOp26
 70
     1
102
RTVSPropertyOp27
 70
     1
102
RTVSPropertyOp28
 70
     1
102
RTVSPropertyOp29
 70
     1
102
RTVSPropertyOp30
 70
     1
102
RTVSPropertyOp31
 70
     1
102
RTVSPropertyOp32
 70
     1
102
RTVSPropertyOp33
 70
     1
102
RTVSPropertyOp34
 70
     1
102
RTVSPropertyOp35
 70
     1
102
RTVSPropertyOp36
 70
     1
102
RTVSPropertyOp37
 70
     1
102
RTVSPropertyOp38
 70
     1
102
RTVSPropertyOp39
 70
     1
102
RTVSPropertyOp40
 70
     1
102
RTVSPropertyOp41
 70
     1
102
RTVSPropertyOp42
 70
     1
102
RTVSPropertyOp43
 70
     1
102
RTVSPropertyOp44
 70
     1
102
RTVSPropertyOp45
 70
     1
102
RTVSPropertyOp46
 70
     1
102
RTVSPropertyOp47
 70
     1
102
RTVSPropertyOp48
 70
     1
102
RTVSPropertyOp49
 70
     1
102
RTVSPropertyOp50
 70
     1
102
RTVSPropertyOp51
 70
     0
102
RTVSPropertyOp52
 70
     0
102
RTVSPropertyOp53
 70
     1
102
RTVSPropertyOp54
 70
     1
102
RTVSPropertyOp55
 70
     1
102
RTVSPropertyOp56
 70
     1
102
RTVSPropertyOp57
 70
     1
102
RTVSPropertyOp58
 70
     1
102
RTVSPropertyOp59
 70
     1
102
RTVSPropertyOp60
 70
     1
102
RTVSPropertyOp61
 70
     1
102
RTVSPropertyOp62
 70
     1
  0
ENDSEC
  0
EOF
