  0
SECTION
  2
HEADER
  9
$ACADVER
  1
AC1015
  9
$ACADMAINTVER
 70
    20
  9
$DWGCODEPAGE
  3
ANSI_932
  9
$INSBASE
 10
0.0
 20
0.0
 30
0.0
  9
$EXTMIN
 10
10.0
 20
9.999999999999998
 30
0.0
  9
$EXTMAX
 10
594.4998199999997
 20
427.5822259999998
 30
0.0
  9
$LIMMIN
 10
0.0
 20
0.0
  9
$LIMMAX
 10
653.3999999999998
 20
450.45
  9
$ORTHOMODE
 70
     1
  9
$REGENMODE
 70
     1
  9
$FILLMODE
 70
     1
  9
$QTEXTMODE
 70
     0
  9
$MIRRTEXT
 70
     1
  9
$LTSCALE
 40
20.0
  9
$ATTMODE
 70
     1
  9
$TEXTSIZE
 40
5.0
  9
$TRACEWID
 40
1.0
  9
$TEXTSTYLE
  7
STANDARD
  9
$CLAYER
  8
0
  9
$CELTYPE
  6
BYLAYER
  9
$CECOLOR
 62
   256
  9
$CELTSCALE
 40
1.0
  9
$DISPSILH
 70
     0
  9
$DIMSCALE
 40
1.0
  9
$DIMASZ
 40
3.0
  9
$DIMEXO
 40
1.0
  9
$DIMDLI
 40
10.0
  9
$DIMRND
 40
0.0
  9
$DIMDLE
 40
0.0
  9
$DIMEXE
 40
1.0
  9
$DIMTP
 40
0.0
  9
$DIMTM
 40
0.0
  9
$DIMTXT
 40
3.2
  9
$DIMCEN
 40
0.0
  9
$DIMTSZ
 40
0.0
  9
$DIMTOL
 70
     0
  9
$DIMLIM
 70
     0
  9
$DIMTIH
 70
     0
  9
$DIMTOH
 70
     0
  9
$DIMSE1
 70
     0
  9
$DIMSE2
 70
     0
  9
$DIMTAD
 70
     3
  9
$DIMZIN
 70
     8
  9
$DIMBLK
  1

  9
$DIMASO
 70
     1
  9
$DIMSHO
 70
     1
  9
$DIMPOST
  1

  9
$DIMAPOST
  1

  9
$DIMALT
 70
     0
  9
$DIMALTD
 70
     2
  9
$DIMALTF
 40
25.4
  9
$DIMLFAC
 40
1.0
  9
$DIMTOFL
 70
     1
  9
$DIMTVP
 40
0.0
  9
$DIMTIX
 70
     0
  9
$DIMSOXD
 70
     0
  9
$DIMSAH
 70
     1
  9
$DIMBLK1
  1
OPEN
  9
$DIMBLK2
  1
OPEN
  9
$DIMSTYLE
  2
STANDARD
  9
$DIMCLRD
 70
     0
  9
$DIMCLRE
 70
     0
  9
$DIMCLRT
 70
     0
  9
$DIMTFAC
 40
1.0
  9
$DIMGAP
 40
1.0
  9
$DIMJUST
 70
     0
  9
$DIMSD1
 70
     0
  9
$DIMSD2
 70
     0
  9
$DIMTOLJ
 70
     1
  9
$DIMTZIN
 70
     0
  9
$DIMALTZ
 70
     0
  9
$DIMALTTZ
 70
     0
  9
$DIMUPT
 70
     0
  9
$DIMDEC
 70
     4
  9
$DIMTDEC
 70
     4
  9
$DIMALTU
 70
     2
  9
$DIMALTTD
 70
     2
  9
$DIMTXSTY
  7
STANDARD
  9
$DIMAUNIT
 70
     0
  9
$DIMADEC
 70
     0
  9
$DIMALTRND
 40
0.0
  9
$DIMAZIN
 70
     0
  9
$DIMDSEP
 70
    46
  9
$DIMATFIT
 70
     3
  9
$DIMFRAC
 70
     0
  9
$DIMLDRBLK
  1
OPEN
  9
$DIMLUNIT
 70
     2
  9
$DIMLWD
 70
    -2
  9
$DIMLWE
 70
    -2
  9
$DIMTMOVE
 70
     0
  9
$LUNITS
 70
     2
  9
$LUPREC
 70
     4
  9
$SKETCHINC
 40
1.0
  9
$FILLETRAD
 40
5.0
  9
$AUNITS
 70
     0
  9
$AUPREC
 70
     2
  9
$MENU
  1
.
  9
$ELEVATION
 40
0.0
  9
$PELEVATION
 40
0.0
  9
$THICKNESS
 40
0.0
  9
$LIMCHECK
 70
     0
  9
$CHAMFERA
 40
10.0
  9
$CHAMFERB
 40
10.0
  9
$CHAMFERC
 40
0.0
  9
$CHAMFERD
 40
0.0
  9
$SKPOLY
 70
     0
  9
$TDCREATE
 40
2451301.436114121
  9
$TDUCREATE
 40
2451301.061114120
  9
$TDUPDATE
 40
2457192.686804502
  9
$TDUUPDATE
 40
2457192.311804502
  9
$TDINDWG
 40
0.0339884606
  9
$TDUSRTIMER
 40
0.0339878472
  9
$USRTIMER
 70
     1
  9
$ANGBASE
 50
0.0
  9
$ANGDIR
 70
     0
  9
$PDMODE
 70
     0
  9
$PDSIZE
 40
0.0
  9
$PLINEWID
 40
0.0
  9
$SPLFRAME
 70
     0
  9
$SPLINETYPE
 70
     6
  9
$SPLINESEGS
 70
     8
  9
$HANDSEED
  5
C425
  9
$SURFTAB1
 70
     6
  9
$SURFTAB2
 70
     6
  9
$SURFTYPE
 70
     6
  9
$SURFU
 70
     6
  9
$SURFV
 70
     6
  9
$UCSBASE
  2

  9
$UCSNAME
  2

  9
$UCSORG
 10
0.0
 20
0.0
 30
0.0
  9
$UCSXDIR
 10
1.0
 20
0.0
 30
0.0
  9
$UCSYDIR
 10
0.0
 20
1.0
 30
0.0
  9
$UCSORTHOREF
  2

  9
$UCSORTHOVIEW
 70
     0
  9
$UCSORGTOP
 10
0.0
 20
0.0
 30
0.0
  9
$UCSORGBOTTOM
 10
0.0
 20
0.0
 30
0.0
  9
$UCSORGLEFT
 10
0.0
 20
0.0
 30
0.0
  9
$UCSORGRIGHT
 10
0.0
 20
0.0
 30
0.0
  9
$UCSORGFRONT
 10
0.0
 20
0.0
 30
0.0
  9
$UCSORGBACK
 10
0.0
 20
0.0
 30
0.0
  9
$PUCSBASE
  2

  9
$PUCSNAME
  2

  9
$PUCSORG
 10
0.0
 20
0.0
 30
0.0
  9
$PUCSXDIR
 10
1.0
 20
0.0
 30
0.0
  9
$PUCSYDIR
 10
0.0
 20
1.0
 30
0.0
  9
$PUCSORTHOREF
  2

  9
$PUCSORTHOVIEW
 70
     0
  9
$PUCSORGTOP
 10
0.0
 20
0.0
 30
0.0
  9
$PUCSORGBOTTOM
 10
0.0
 20
0.0
 30
0.0
  9
$PUCSORGLEFT
 10
0.0
 20
0.0
 30
0.0
  9
$PUCSORGRIGHT
 10
0.0
 20
0.0
 30
0.0
  9
$PUCSORGFRONT
 10
0.0
 20
0.0
 30
0.0
  9
$PUCSORGBACK
 10
0.0
 20
0.0
 30
0.0
  9
$USERI1
 70
     0
  9
$USERI2
 70
     0
  9
$USERI3
 70
     0
  9
$USERI4
 70
     0
  9
$USERI5
 70
     0
  9
$USERR1
 40
0.0
  9
$USERR2
 40
0.0
  9
$USERR3
 40
0.0
  9
$USERR4
 40
0.0
  9
$USERR5
 40
0.0
  9
$WORLDVIEW
 70
     1
  9
$SHADEDGE
 70
     3
  9
$SHADEDIF
 70
    70
  9
$TILEMODE
 70
     1
  9
$MAXACTVP
 70
    16
  9
$PINSBASE
 10
0.0
 20
0.0
 30
0.0
  9
$PLIMCHECK
 70
     0
  9
$PEXTMIN
 10
1.000000000000000E+20
 20
1.000000000000000E+20
 30
1.000000000000000E+20
  9
$PEXTMAX
 10
-1.000000000000000E+20
 20
-1.000000000000000E+20
 30
-1.000000000000000E+20
  9
$PLIMMIN
 10
0.0
 20
0.0
  9
$PLIMMAX
 10
420.0
 20
297.0
  9
$UNITMODE
 70
     0
  9
$VISRETAIN
 70
     0
  9
$PLINEGEN
 70
     0
  9
$PSLTSCALE
 70
     0
  9
$TREEDEPTH
 70
  3020
  9
$CMLSTYLE
  2
STANDARD
  9
$CMLJUST
 70
     0
  9
$CMLSCALE
 40
1.0
  9
$PROXYGRAPHICS
 70
     1
  9
$MEASUREMENT
 70
     0
  9
$CELWEIGHT
370
    -1
  9
$ENDCAPS
280
     0
  9
$JOINSTYLE
280
     0
  9
$LWDISPLAY
290
     0
  9
$INSUNITS
 70
     0
  9
$HYPERLINKBASE
  1

  9
$STYLESHEET
  1

  9
$XEDIT
290
     1
  9
$CEPSNTYPE
380
     0
  9
$PSTYLEMODE
290
     1
  9
$FINGERPRINTGUID
  2
{657615D4-3F1C-4ABC-807B-FB771EA58D24}
  9
$VERSIONGUID
  2
{01F6B9A2-39AA-4EAC-9D9C-F7C26878E52E}
  9
$EXTNAMES
290
     1
  9
$PSVPSCALE
 40
0.0
  9
$OLESTARTUP
290
     0
  0
ENDSEC
  0
SECTION
  2
CLASSES
  0
CLASS
  1
ACDBDICTIONARYWDFLT
  2
AcDbDictionaryWithDefault
  3
ObjectDBX Classes
 90
        0
280
     0
281
     0
  0
CLASS
  1
ACDBPLACEHOLDER
  2
AcDbPlaceHolder
  3
ObjectDBX Classes
 90
        0
280
     0
281
     0
  0
CLASS
  1
LAYOUT
  2
AcDbLayout
  3
ObjectDBX Classes
 90
        0
280
     0
281
     0
  0
CLASS
  1
DICTIONARYVAR
  2
AcDbDictionaryVar
  3
ObjectDBX Classes
 90
        0
280
     0
281
     0
  0
CLASS
  1
MATERIAL
  2
AcDbMaterial
  3
ObjectDBX Classes
 90
     1153
280
     0
281
     0
  0
CLASS
  1
VISUALSTYLE
  2
AcDbVisualStyle
  3
ObjectDBX Classes
 90
     4095
280
     0
281
     0
  0
CLASS
  1
TABLESTYLE
  2
AcDbTableStyle
  3
ObjectDBX Classes
 90
     4095
280
     0
281
     0
  0
CLASS
  1
SCALE
  2
AcDbScale
  3
ObjectDBX Classes
 90
     1153
280
     0
281
     0
  0
CLASS
  1
MLEADERSTYLE
  2
AcDbMLeaderStyle
  3
ACDB_MLEADERSTYLE_CLASS
 90
     4095
280
     0
281
     0
  0
CLASS
  1
ACDBSECTIONVIEWSTYLE
  2
AcDbSectionViewStyle
  3
ObjectDBX Classes
 90
     1025
280
     0
281
     0
  0
CLASS
  1
ACDBDETAILVIEWSTYLE
  2
AcDbDetailViewStyle
  3
ObjectDBX Classes
 90
     1025
280
     0
281
     0
  0
CLASS
  1
CELLSTYLEMAP
  2
AcDbCellStyleMap
  3
ObjectDBX Classes
 90
     1152
280
     0
281
     0
  0
ENDSEC
  0
SECTION
  2
TABLES
  0
TABLE
  2
VPORT
  5
BFBD
330
0
100
AcDbSymbolTable
 70
     1
  0
VPORT
  5
C36E
330
BFBD
100
AcDbSymbolTableRecord
100
AcDbViewportTableRecord
  2
*ACTIVE
 70
     0
 10
0.0
 20
0.0
 11
1.0
 21
1.0
 12
428.7388249340853
 22
218.7984454077592
 13
0.0
 23
0.0
 14
10.0
 24
10.0
 15
10.0
 25
10.0
 16
0.0
 26
0.0
 36
1.0
 17
0.0
 27
0.0
 37
0.0
 40
422.2376352840592
 41
2.35006605019815
 42
50.0
 43
0.0
 44
0.0
 50
0.0
 51
0.0
 71
     0
 72
   100
 73
     1
 74
     0
 75
     0
 76
     0
 77
     0
 78
     0
281
     0
 65
     1
110
0.0
120
0.0
130
0.0
111
1.0
121
0.0
131
0.0
112
0.0
122
1.0
132
0.0
 79
     0
146
0.0
1001
ACAD_NAV_VCDISPLAY
1070
     3
  0
ENDTAB
  0
TABLE
  2
LTYPE
  5
BFBA
330
0
100
AcDbSymbolTable
 70
     4
  0
LTYPE
  5
BFC8
330
BFBA
100
AcDbSymbolTableRecord
100
AcDbLinetypeTableRecord
  2
BYBLOCK
 70
     0
  3

 72
    65
 73
     0
 40
0.0
  0
LTYPE
  5
BFC9
330
BFBA
100
AcDbSymbolTableRecord
100
AcDbLinetypeTableRecord
  2
BYLAYER
 70
     0
  3

 72
    65
 73
     0
 40
0.0
  0
LTYPE
  5
BFCA
330
BFBA
100
AcDbSymbolTableRecord
100
AcDbLinetypeTableRecord
  2
CONTINUOUS
 70
     0
  3
Solid line
 72
    65
 73
     0
 40
0.0
  0
LTYPE
  5
BFD8
330
BFBA
100
AcDbSymbolTableRecord
100
AcDbLinetypeTableRecord
  2
DASHED
 70
     0
  3
__ __ __ __ __ __ __ __ __ __ __ __ __ __ __ __
 72
    65
 73
     2
 40
0.75
 49
0.5
 74
     0
 49
-0.25
 74
     0
  0
LTYPE
  5
BFD9
330
BFBA
100
AcDbSymbolTableRecord
100
AcDbLinetypeTableRecord
  2
CENTER
 70
     0
  3
____ _ ____ _ ____ _ ____ _ ____ _ ____ _ ____ 
 72
    65
 73
     4
 40
2.0
 49
1.25
 74
     0
 49
-0.25
 74
     0
 49
0.25
 74
     0
 49
-0.25
 74
     0
  0
LTYPE
  5
BFDA
330
BFBA
100
AcDbSymbolTableRecord
100
AcDbLinetypeTableRecord
  2
PHANTOM
 70
     0
  3
______  __  __  ______  __  __  ______  __  __ 
 72
    65
 73
     6
 40
2.5
 49
1.25
 74
     0
 49
-0.25
 74
     0
 49
0.25
 74
     0
 49
-0.25
 74
     0
 49
0.25
 74
     0
 49
-0.25
 74
     0
  0
ENDTAB
  0
TABLE
  2
LAYER
  5
BFB7
330
0
100
AcDbSymbolTable
 70
     8
  0
LAYER
  5
BFC5
102
{ACAD_XDICTIONARY
360
C3C9
102
}
330
BFB7
100
AcDbSymbolTableRecord
100
AcDbLayerTableRecord
  2
0
 70
     0
 62
     7
  6
CONTINUOUS
370
    -3
390
C377
  0
LAYER
  5
BFDB
102
{ACAD_XDICTIONARY
360
C3CB
102
}
330
BFB7
100
AcDbSymbolTableRecord
100
AcDbLayerTableRecord
  2
4
 70
     0
 62
     1
  6
CENTER
370
    -3
390
C377
  0
LAYER
  5
BFDC
102
{ACAD_XDICTIONARY
360
C3CD
102
}
330
BFB7
100
AcDbSymbolTableRecord
100
AcDbLayerTableRecord
  2
5
 70
     0
 62
     6
  6
PHANTOM
370
    -3
390
C377
  0
LAYER
  5
BFDD
102
{ACAD_XDICTIONARY
360
C3CF
102
}
330
BFB7
100
AcDbSymbolTableRecord
100
AcDbLayerTableRecord
  2
1
 70
     0
 62
     7
  6
CONTINUOUS
370
    -3
390
C377
  0
LAYER
  5
BFDE
102
{ACAD_XDICTIONARY
360
C3D1
102
}
330
BFB7
100
AcDbSymbolTableRecord
100
AcDbLayerTableRecord
  2
2
 70
     0
 62
     4
  6
CONTINUOUS
370
    -3
390
C377
  0
LAYER
  5
BFDF
102
{ACAD_XDICTIONARY
360
C3D3
102
}
330
BFB7
100
AcDbSymbolTableRecord
100
AcDbLayerTableRecord
  2
3
 70
     0
 62
     2
  6
DASHED
370
    -3
390
C377
  0
LAYER
  5
BFE0
102
{ACAD_XDICTIONARY
360
C3D5
102
}
330
BFB7
100
AcDbSymbolTableRecord
100
AcDbLayerTableRecord
  2
6
 70
     0
 62
     5
  6
CONTINUOUS
370
    -3
390
C377
  0
LAYER
  5
BFE1
102
{ACAD_XDICTIONARY
360
C3D7
102
}
330
BFB7
100
AcDbSymbolTableRecord
100
AcDbLayerTableRecord
  2
7
 70
     0
 62
     3
  6
CONTINUOUS
370
    -3
390
C377
  0
ENDTAB
  0
TABLE
  2
STYLE
  5
BFB8
330
0
100
AcDbSymbolTable
 70
     1
  0
STYLE
  5
BFC6
330
BFB8
100
AcDbSymbolTableRecord
100
AcDbTextStyleTableRecord
  2
STANDARD
 70
     0
 40
0.0
 41
1.0
 50
0.0
 71
     0
 42
5.0
  3
txt
  4

  0
ENDTAB
  0
TABLE
  2
VIEW
  5
BFBB
330
0
100
AcDbSymbolTable
 70
     0
  0
ENDTAB
  0
TABLE
  2
UCS
  5
BFBC
330
0
100
AcDbSymbolTable
 70
     0
  0
ENDTAB
  0
TABLE
  2
APPID
  5
BFBE
330
0
100
AcDbSymbolTable
 70
     3
  0
APPID
  5
BFC7
330
BFBE
100
AcDbSymbolTableRecord
100
AcDbRegAppTableRecord
  2
ACAD
 70
     0
  0
APPID
  5
C3E3
330
BFBE
100
AcDbSymbolTableRecord
100
AcDbRegAppTableRecord
  2
ACAD_NAV_VCDISPLAY
 70
     0
  0
APPID
  5
C41C
330
BFBE
100
AcDbSymbolTableRecord
100
AcDbRegAppTableRecord
  2
ACAD_MLEADERVER
 70
     0
  0
ENDTAB
  0
TABLE
  2
DIMSTYLE
  5
BFBF
330
0
100
AcDbSymbolTable
 70
     1
100
AcDbDimStyleTable
 71
     0
  0
DIMSTYLE
105
BFE3
330
BFBF
100
AcDbSymbolTableRecord
100
AcDbDimStyleTableRecord
  2
STANDARD
 70
     0
 41
3.0
 42
1.0
 43
10.0
 44
1.0
 73
     0
 74
     0
 77
     3
 78
     8
140
3.2
141
0.0
147
1.0
172
     1
173
     1
284
     8
285
     8
286
     8
340
BFC6
  0
ENDTAB
  0
TABLE
  2
BLOCK_RECORD
  5
BFB6
330
0
100
AcDbSymbolTable
 70
     1
  0
BLOCK_RECORD
  5
BFD3
102
{ACAD_XDICTIONARY
360
C371
102
}
330
BFB6
100
AcDbSymbolTableRecord
100
AcDbBlockTableRecord
  2
*MODEL_SPACE
340
C3C5
  0
BLOCK_RECORD
  5
BFCF
102
{ACAD_XDICTIONARY
360
C36F
102
}
330
BFB6
100
AcDbSymbolTableRecord
100
AcDbBlockTableRecord
  2
*PAPER_SPACE
340
C3C6
  0
BLOCK_RECORD
  5
BFEB
330
BFB6
100
AcDbSymbolTableRecord
100
AcDbBlockTableRecord
  2
_OPEN
340
0
  0
ENDTAB
  0
ENDSEC
  0
SECTION
  2
BLOCKS
  0
BLOCK
  5
BFD4
330
BFD3
100
AcDbEntity
  8
0
100
AcDbBlockBegin
  2
*MODEL_SPACE
 70
     0
 10
0.0
 20
0.0
 30
0.0
  3
*MODEL_SPACE
  1

  0
ENDBLK
  5
BFD5
330
BFD3
100
AcDbEntity
  8
0
100
AcDbBlockEnd
  0
BLOCK
  5
BFD0
330
BFCF
100
AcDbEntity
 67
     1
  8
0
100
AcDbBlockBegin
  2
*PAPER_SPACE
 70
     0
 10
0.0
 20
0.0
 30
0.0
  3
*PAPER_SPACE
  1

  0
ENDBLK
  5
BFD1
330
BFCF
100
AcDbEntity
 67
     1
  8
0
100
AcDbBlockEnd
  0
BLOCK
  5
BFEC
330
BFEB
100
AcDbEntity
  8
0
100
AcDbBlockBegin
  2
_OPEN
 70
     0
 10
0.0
 20
0.0
 30
0.0
  3
_OPEN
  1

  0
LINE
  5
BFED
330
BFEB
100
AcDbEntity
  8
0
  6
ByBlock
 62
     0
100
AcDbLine
 10
-1.0
 20
0.166667
 30
0.0
 11
0.0
 21
0.0
 31
0.0
  0
LINE
  5
BFEE
330
BFEB
100
AcDbEntity
  8
0
  6
ByBlock
 62
     0
100
AcDbLine
 10
0.0
 20
0.0
 30
0.0
 11
-1.0
 21
-0.166667
 31
0.0
  0
LINE
  5
BFEF
330
BFEB
100
AcDbEntity
  8
0
  6
ByBlock
 62
     0
100
AcDbLine
 10
0.0
 20
0.0
 30
0.0
 11
-1.0
 21
0.0
 31
0.0
  0
ENDBLK
  5
BFF0
330
BFEB
100
AcDbEntity
  8
0
100
AcDbBlockEnd
  0
ENDSEC
  0
SECTION
  2
ENTITIES
  0
TEXT
  5
BFF1
330
BFD3
100
AcDbEntity
  8
7
  6
Continuous
100
AcDbText
 10
10.0
 20
18.0
 30
0.0
 40
3.0
  1
TYPE No.105A.F-N
100
AcDbText
  0
TEXT
  5
BFF2
330
BFD3
100
AcDbEntity
  8
7
  6
Continuous
100
AcDbText
 10
10.0
 20
26.0
 30
0.0
 40
3.0
  1
CODE No.9139
100
AcDbText
  0
TEXT
  5
BFF3
330
BFD3
100
AcDbEntity
  8
1
  6
Continuous
100
AcDbText
 10
10.0
 20
10.0
 30
0.0
 40
1.399999999999999
  1
LAYER
100
AcDbText
  0
TEXT
  5
BFF4
330
BFD3
100
AcDbEntity
  8
1
  6
Continuous
100
AcDbText
 10
17.97951099999998
 20
10.04873699999998
 30
0.0
 40
1.399999999999999
  1
1
100
AcDbText
  0
TEXT
  5
BFF5
330
BFD3
100
AcDbEntity
  8
7
  6
Continuous
100
AcDbText
 10
29.97951099999999
 20
10.04873699999998
 30
0.0
 40
1.399999999999999
  1
7
100
AcDbText
  0
TEXT
  5
BFF6
330
BFD3
100
AcDbEntity
  8
4
  6
CENTER
100
AcDbText
 10
23.97951099999999
 20
10.04873699999998
 30
0.0
 40
1.399999999999999
  1
4
100
AcDbText
  0
TEXT
  5
BFF7
330
BFD3
100
AcDbEntity
  8
3
  6
DASHED
100
AcDbText
 10
21.979511
 20
10.04873699999998
 30
0.0
 40
1.399999999999999
  1
3
100
AcDbText
  0
TEXT
  5
BFF8
330
BFD3
100
AcDbEntity
  8
2
  6
Continuous
100
AcDbText
 10
19.97951099999999
 20
10.04873699999998
 30
0.0
 40
1.399999999999999
  1
2
100
AcDbText
  0
TEXT
  5
BFF9
330
BFD3
100
AcDbEntity
  8
6
  6
Continuous
100
AcDbText
 10
27.979511
 20
10.04873699999998
 30
0.0
 40
1.399999999999999
  1
6
100
AcDbText
  0
TEXT
  5
BFFA
330
BFD3
100
AcDbEntity
  8
5
  6
PHANTOM
100
AcDbText
 10
25.97951099999999
 20
10.04873699999998
 30
0.0
 40
1.399999999999999
  1
5
100
AcDbText
  0
LINE
  5
BFFB
330
BFD3
100
AcDbEntity
  8
4
  6
CENTER
100
AcDbLine
 10
281.0085399999999
 20
380.082222
 30
0.0
 11
162.0284639999999
 21
380.082222
 31
0.0
  0
LINE
  5
BFFC
330
BFD3
100
AcDbEntity
  8
4
  6
CENTER
100
AcDbLine
 10
198.0
 20
190.0411129999999
 30
0.0
 11
198.0
 21
259.041113
 31
0.0
  0
LINE
  5
BFFD
330
BFD3
100
AcDbEntity
  8
4
  6
CENTER
100
AcDbLine
 10
232.5
 20
224.5411129999999
 30
0.0
 11
163.4999999999998
 21
224.5411129999999
 31
0.0
  0
LINE
  5
BFFE
330
BFD3
100
AcDbEntity
  8
1
  6
Continuous
100
AcDbLine
 10
226.77491
 20
264.2411129999999
 30
0.0
 11
228.9528349999999
 21
266.4190379999999
 31
0.0
  0
LINE
  5
BFFF
330
BFD3
100
AcDbEntity
  8
1
  6
Continuous
100
AcDbLine
 10
228.9528349999999
 20
264.2411129999999
 30
0.0
 11
226.77491
 21
266.4190379999999
 31
0.0
  0
LINE
  5
C000
330
BFD3
100
AcDbEntity
  8
1
  6
Continuous
100
AcDbLine
 10
268.0
 20
271.2411169999999
 30
0.0
 11
182.0
 21
271.2411169999999
 31
0.0
  0
ARC
  5
C001
330
BFD3
100
AcDbEntity
  8
1
  6
Continuous
100
AcDbCircle
 10
198.0
 20
224.5411129999999
 30
0.0
 40
31.5
100
AcDbArc
 50
111.41847
 51
31.7947
  0
LINE
  5
C002
330
BFD3
100
AcDbEntity
  8
1
  6
Continuous
100
AcDbLine
 10
247.6628629999999
 20
266.4190379999999
 30
0.0
 11
202.3378629999998
 21
266.4190379999999
 31
0.0
  0
LINE
  5
C003
330
BFD3
100
AcDbEntity
  8
1
  6
Continuous
100
AcDbLine
 10
247.9328629999999
 20
268.404037
 30
0.0
 11
202.882863
 21
268.404037
 31
0.0
  0
LINE
  5
C004
330
BFD3
100
AcDbEntity
  8
1
  6
Continuous
100
AcDbLine
 10
180.4999999999997
 20
271.7411169999999
 30
0.0
 11
271.000004
 21
271.7411169999999
 31
0.0
  0
LINE
  5
C005
330
BFD3
100
AcDbEntity
  8
1
  6
Continuous
100
AcDbLine
 10
246.9326399999999
 20
269.6411109999999
 30
0.0
 11
203.0199429999999
 21
269.6411109999999
 31
0.0
  0
LINE
  5
C006
330
BFD3
100
AcDbEntity
  8
1
  6
Continuous
100
AcDbLine
 10
179.0
 20
274.041113
 30
0.0
 11
271.000004
 21
274.041113
 31
0.0
  0
LINE
  5
C007
330
BFD3
100
AcDbEntity
  8
1
  6
Continuous
100
AcDbLine
 10
202.3378629999998
 20
264.2411129999999
 30
0.0
 11
266.0
 21
264.2411129999999
 31
0.0
  0
LINE
  5
C008
330
BFD3
100
AcDbEntity
  8
1
  6
Continuous
100
AcDbLine
 10
259.0
 20
249.2411129999999
 30
0.0
 11
259.0
 21
230.824117
 31
0.0
  0
LINE
  5
C009
330
BFD3
100
AcDbEntity
  8
1
  6
Continuous
100
AcDbLine
 10
266.0
 20
249.2411129999999
 30
0.0
 11
266.0
 21
230.824117
 31
0.0
  0
LINE
  5
C00A
330
BFD3
100
AcDbEntity
  8
1
  6
Continuous
100
AcDbLine
 10
252.0
 20
249.2411129999999
 30
0.0
 11
252.0
 21
230.824117
 31
0.0
  0
LINE
  5
C00B
330
BFD3
100
AcDbEntity
  8
1
  6
Continuous
100
AcDbLine
 10
265.75
 20
229.741117
 30
0.0
 11
252.2499999999999
 21
229.741117
 31
0.0
  0
ARC
  5
C00C
330
BFD3
100
AcDbEntity
  8
1
  6
Continuous
100
AcDbCircle
 10
262.5
 20
235.938204
 30
0.0
 40
6.197085999999997
100
AcDbArc
 50
235.612877
 51
304.3871229999999
  0
LINE
  5
C00D
330
BFD3
100
AcDbEntity
  8
1
  6
Continuous
100
AcDbLine
 10
266.0
 20
230.824117
 30
0.0
 11
265.75
 21
229.741117
 31
0.0
  0
ARC
  5
C00E
330
BFD3
100
AcDbEntity
  8
1
  6
Continuous
100
AcDbCircle
 10
255.5
 20
235.938204
 30
0.0
 40
6.197085999999997
100
AcDbArc
 50
235.612877
 51
304.3871229999999
  0
LINE
  5
C00F
330
BFD3
100
AcDbEntity
  8
1
  6
Continuous
100
AcDbLine
 10
252.0
 20
230.824117
 30
0.0
 11
252.2499999999999
 21
229.741117
 31
0.0
  0
LINE
  5
C010
330
BFD3
100
AcDbEntity
  8
1
  6
Continuous
100
AcDbLine
 10
270.0
 20
249.2411129999999
 30
0.0
 11
239.808337
 21
249.2411129999999
 31
0.0
  0
ARC
  5
C011
330
BFD3
100
AcDbEntity
  8
1
  6
Continuous
100
AcDbCircle
 10
260.3999999999999
 20
265.341117
 30
0.0
 40
1.1
100
AcDbArc
 50
270.0
 51
90.0
  0
ARC
  5
C012
330
BFD3
100
AcDbEntity
  8
1
  6
Continuous
100
AcDbCircle
 10
266.0
 20
260.2411129999999
 30
0.0
 40
4.0
100
AcDbArc
 50
0.0
 51
90.0
  0
LINE
  5
C013
330
BFD3
100
AcDbEntity
  8
1
  6
Continuous
100
AcDbLine
 10
270.0
 20
260.2411129999999
 30
0.0
 11
270.0
 21
249.2411129999999
 31
0.0
  0
LINE
  5
C014
330
BFD3
100
AcDbEntity
  8
4
  6
CENTER
100
AcDbLine
 10
262.5
 20
268.9538079999999
 30
0.0
 11
262.5
 21
276.00614
 31
0.0
  0
LINE
  5
C015
330
BFD3
100
AcDbEntity
  8
1
  6
Continuous
100
AcDbLine
 10
271.000004
 20
271.7411169999999
 30
0.0
 11
271.000004
 21
274.041113
 31
0.0
  0
ARC
  5
C016
330
BFD3
100
AcDbEntity
  8
1
  6
Continuous
100
AcDbCircle
 10
268.0
 20
273.7411169999999
 30
0.0
 40
2.5
100
AcDbArc
 50
270.0
 51
306.869904
  0
LINE
  5
C017
330
BFD3
100
AcDbEntity
  8
1
  6
Continuous
100
AcDbLine
 10
266.0
 20
271.2411169999999
 30
0.0
 11
266.0
 21
264.2411129999999
 31
0.0
  0
LINE
  5
C018
330
BFD3
100
AcDbEntity
  8
1
  6
Continuous
100
AcDbLine
 10
242.33126
 20
264.2411129999999
 30
0.0
 11
244.5091839999999
 21
266.4190379999999
 31
0.0
  0
LINE
  5
C019
330
BFD3
100
AcDbEntity
  8
1
  6
Continuous
100
AcDbLine
 10
243.745473
 20
264.2411129999999
 30
0.0
 11
245.923398
 21
266.4190379999999
 31
0.0
  0
LINE
  5
C01A
330
BFD3
100
AcDbEntity
  8
1
  6
Continuous
100
AcDbLine
 10
244.5091839999999
 20
264.2411129999999
 30
0.0
 11
242.33126
 21
266.4190379999999
 31
0.0
  0
LINE
  5
C01B
330
BFD3
100
AcDbEntity
  8
1
  6
Continuous
100
AcDbLine
 10
245.923398
 20
264.2411129999999
 30
0.0
 11
243.745473
 21
266.4190379999999
 31
0.0
  0
LINE
  5
C01C
330
BFD3
100
AcDbEntity
  8
4
  6
CENTER
100
AcDbLine
 10
259.0
 20
276.233646
 30
0.0
 11
259.0
 21
174.336738
 31
0.0
  0
LINE
  5
C01D
330
BFD3
100
AcDbEntity
  8
1
  6
Continuous
100
AcDbLine
 10
259.0
 20
271.2411169999999
 30
0.0
 11
259.0
 21
266.441117
 31
0.0
  0
ARC
  5
C01E
330
BFD3
100
AcDbEntity
  8
1
  6
Continuous
100
AcDbCircle
 10
257.6
 20
265.341117
 30
0.0
 40
1.1
100
AcDbArc
 50
90.0
 51
270.0
  0
LINE
  5
C01F
330
BFD3
100
AcDbEntity
  8
1
  6
Continuous
100
AcDbLine
 10
258.1
 20
264.7411169999999
 30
0.0
 11
258.1
 21
265.941117
 31
0.0
  0
LINE
  5
C020
330
BFD3
100
AcDbEntity
  8
1
  6
Continuous
100
AcDbLine
 10
259.8999999999999
 20
264.7411169999999
 30
0.0
 11
259.8999999999999
 21
265.941117
 31
0.0
  0
LINE
  5
C021
330
BFD3
100
AcDbEntity
  8
1
  6
Continuous
100
AcDbLine
 10
260.3999999999999
 20
266.441117
 30
0.0
 11
257.6
 21
266.441117
 31
0.0
  0
LINE
  5
C022
330
BFD3
100
AcDbEntity
  8
1
  6
Continuous
100
AcDbLine
 10
260.3999999999999
 20
264.2411169999999
 30
0.0
 11
257.6
 21
264.2411169999999
 31
0.0
  0
ARC
  5
C023
330
BFD3
100
AcDbEntity
  8
1
  6
Continuous
100
AcDbCircle
 10
258.6
 20
264.7411169999999
 30
0.0
 40
0.5
100
AcDbArc
 50
180.0
 51
270.0
  0
ARC
  5
C024
330
BFD3
100
AcDbEntity
  8
1
  6
Continuous
100
AcDbCircle
 10
259.3999999999999
 20
264.7411169999999
 30
0.0
 40
0.5
100
AcDbArc
 50
270.0
 51
0.0
  0
ARC
  5
C025
330
BFD3
100
AcDbEntity
  8
1
  6
Continuous
100
AcDbCircle
 10
258.6
 20
265.941117
 30
0.0
 40
0.5
100
AcDbArc
 50
90.0
 51
180.0
  0
ARC
  5
C026
330
BFD3
100
AcDbEntity
  8
1
  6
Continuous
100
AcDbCircle
 10
259.3999999999999
 20
265.941117
 30
0.0
 40
0.5
100
AcDbArc
 50
0.0
 51
90.0
  0
LINE
  5
C027
330
BFD3
100
AcDbEntity
  8
1
  6
Continuous
100
AcDbLine
 10
252.0
 20
271.2411169999999
 30
0.0
 11
252.0
 21
264.2411129999999
 31
0.0
  0
ARC
  5
C028
330
BFD3
100
AcDbEntity
  8
1
  6
Continuous
100
AcDbCircle
 10
244.3313809999999
 20
269.9542649999999
 30
0.0
 40
4.697225
100
AcDbArc
 50
317.4697509999999
 51
333.713305
  0
LINE
  5
C029
330
BFD3
100
AcDbEntity
  8
1
  6
Continuous
100
AcDbLine
 10
245.1596869999999
 20
264.2411129999999
 30
0.0
 11
247.3376109999999
 21
266.4190379999999
 31
0.0
  0
LINE
  5
C02A
330
BFD3
100
AcDbEntity
  8
1
  6
Continuous
100
AcDbLine
 10
246.5739
 20
264.2411129999999
 30
0.0
 11
247.6628629999999
 21
265.330075
 31
0.0
  0
LINE
  5
C02B
330
BFD3
100
AcDbEntity
  8
1
  6
Continuous
100
AcDbLine
 10
247.3376109999999
 20
264.2411129999999
 30
0.0
 11
245.1596869999999
 21
266.4190379999999
 31
0.0
  0
LINE
  5
C02C
330
BFD3
100
AcDbEntity
  8
1
  6
Continuous
100
AcDbLine
 10
246.5739
 20
266.4190379999999
 30
0.0
 11
247.6628629999999
 21
265.330075
 31
0.0
  0
LINE
  5
C02D
330
BFD3
100
AcDbEntity
  8
1
  6
Continuous
100
AcDbLine
 10
247.6628629999999
 20
266.4190379999999
 30
0.0
 11
247.6628629999999
 21
264.2411129999999
 31
0.0
  0
LINE
  5
C02E
330
BFD3
100
AcDbEntity
  8
1
  6
Continuous
100
AcDbLine
 10
247.792863
 20
266.779038
 30
0.0
 11
247.6628629999999
 21
266.4190379999999
 31
0.0
  0
ARC
  5
C02F
330
BFD3
100
AcDbEntity
  8
1
  6
Continuous
100
AcDbCircle
 10
246.9800559999999
 20
273.6411109999999
 30
0.0
 40
4.0
100
AcDbArc
 50
269.99762
 51
323.1302119999999
  0
ARC
  5
C030
330
BFD3
100
AcDbEntity
  8
1
  6
Continuous
100
AcDbCircle
 10
247.6688919999999
 20
267.484185
 30
0.0
 40
0.9569799999999998
100
AcDbArc
 50
24.04026499999999
 51
73.98808699999998
  0
ARC
  5
C031
330
BFD3
100
AcDbEntity
  8
1
  6
Continuous
100
AcDbCircle
 10
242.083438
 20
264.910212
 30
0.0
 40
6.206012999999998
100
AcDbArc
 50
38.387915
 51
49.668171
  0
LINE
  5
C032
330
BFD3
100
AcDbEntity
  8
1
  6
Continuous
100
AcDbLine
 10
247.117863
 20
268.404037
 30
0.0
 11
246.9478629999999
 21
268.764037
 31
0.0
  0
LINE
  5
C033
330
BFD3
100
AcDbEntity
  8
1
  6
Continuous
100
AcDbLine
 10
235.260192
 20
264.2411129999999
 30
0.0
 11
237.4381159999999
 21
266.4190379999999
 31
0.0
  0
LINE
  5
C034
330
BFD3
100
AcDbEntity
  8
1
  6
Continuous
100
AcDbLine
 10
237.4381159999999
 20
264.2411129999999
 30
0.0
 11
235.260192
 21
266.4190379999999
 31
0.0
  0
LINE
  5
C035
330
BFD3
100
AcDbEntity
  8
1
  6
Continuous
100
AcDbLine
 10
239.5028319999999
 20
264.2411129999999
 30
0.0
 11
241.6807569999999
 21
266.4190379999999
 31
0.0
  0
LINE
  5
C036
330
BFD3
100
AcDbEntity
  8
1
  6
Continuous
100
AcDbLine
 10
241.6807569999999
 20
264.2411129999999
 30
0.0
 11
239.5028319999999
 21
266.4190379999999
 31
0.0
  0
LINE
  5
C037
330
BFD3
100
AcDbEntity
  8
1
  6
Continuous
100
AcDbLine
 10
240.9170459999999
 20
264.2411129999999
 30
0.0
 11
243.0949709999999
 21
266.4190379999999
 31
0.0
  0
LINE
  5
C038
330
BFD3
100
AcDbEntity
  8
1
  6
Continuous
100
AcDbLine
 10
243.0949709999999
 20
264.2411129999999
 30
0.0
 11
240.9170459999999
 21
266.4190379999999
 31
0.0
  0
LINE
  5
C039
330
BFD3
100
AcDbEntity
  8
1
  6
Continuous
100
AcDbLine
 10
236.6744049999998
 20
264.2411129999999
 30
0.0
 11
238.85233
 21
266.4190379999999
 31
0.0
  0
LINE
  5
C03A
330
BFD3
100
AcDbEntity
  8
1
  6
Continuous
100
AcDbLine
 10
238.088619
 20
264.2411129999999
 30
0.0
 11
240.2665439999999
 21
266.4190379999999
 31
0.0
  0
LINE
  5
C03B
330
BFD3
100
AcDbEntity
  8
1
  6
Continuous
100
AcDbLine
 10
238.85233
 20
264.2411129999999
 30
0.0
 11
236.6744049999998
 21
266.4190379999999
 31
0.0
  0
LINE
  5
C03C
330
BFD3
100
AcDbEntity
  8
1
  6
Continuous
100
AcDbLine
 10
240.2665439999999
 20
264.2411129999999
 30
0.0
 11
238.088619
 21
266.4190379999999
 31
0.0
  0
LINE
  5
C03D
330
BFD3
100
AcDbEntity
  8
1
  6
Continuous
100
AcDbLine
 10
231.0175509999999
 20
264.2411129999999
 30
0.0
 11
233.1954759999999
 21
266.4190379999999
 31
0.0
  0
LINE
  5
C03E
330
BFD3
100
AcDbEntity
  8
1
  6
Continuous
100
AcDbLine
 10
233.1954759999999
 20
264.2411129999999
 30
0.0
 11
231.0175509999999
 21
266.4190379999999
 31
0.0
  0
LINE
  5
C03F
330
BFD3
100
AcDbEntity
  8
1
  6
Continuous
100
AcDbLine
 10
232.4317649999999
 20
264.2411129999999
 30
0.0
 11
234.609689
 21
266.4190379999999
 31
0.0
  0
LINE
  5
C040
330
BFD3
100
AcDbEntity
  8
1
  6
Continuous
100
AcDbLine
 10
233.8459779999999
 20
264.2411129999999
 30
0.0
 11
236.0239029999999
 21
266.4190379999999
 31
0.0
  0
LINE
  5
C041
330
BFD3
100
AcDbEntity
  8
1
  6
Continuous
100
AcDbLine
 10
234.609689
 20
264.2411129999999
 30
0.0
 11
232.4317649999999
 21
266.4190379999999
 31
0.0
  0
LINE
  5
C042
330
BFD3
100
AcDbEntity
  8
1
  6
Continuous
100
AcDbLine
 10
236.0239029999999
 20
264.2411129999999
 30
0.0
 11
233.8459779999999
 21
266.4190379999999
 31
0.0
  0
LINE
  5
C043
330
BFD3
100
AcDbEntity
  8
1
  6
Continuous
100
AcDbLine
 10
228.1891239999999
 20
264.2411129999999
 30
0.0
 11
230.367049
 21
266.4190379999999
 31
0.0
  0
LINE
  5
C044
330
BFD3
100
AcDbEntity
  8
1
  6
Continuous
100
AcDbLine
 10
229.6033369999999
 20
264.2411129999999
 30
0.0
 11
231.781262
 21
266.4190379999999
 31
0.0
  0
LINE
  5
C045
330
BFD3
100
AcDbEntity
  8
1
  6
Continuous
100
AcDbLine
 10
230.367049
 20
264.2411129999999
 30
0.0
 11
228.1891239999999
 21
266.4190379999999
 31
0.0
  0
LINE
  5
C046
330
BFD3
100
AcDbEntity
  8
1
  6
Continuous
100
AcDbLine
 10
231.781262
 20
264.2411129999999
 30
0.0
 11
229.6033369999999
 21
266.4190379999999
 31
0.0
  0
LINE
  5
C047
330
BFD3
100
AcDbEntity
  8
1
  6
Continuous
100
AcDbLine
 10
224.1338240000001
 20
240.090387
 30
0.0
 11
211.7915439999999
 21
218.228795
 31
0.0
  0
LINE
  5
C048
330
BFD3
100
AcDbEntity
  8
1
  6
Continuous
100
AcDbLine
 10
185.692437
 20
259.9639009999999
 30
0.0
 11
190.9839939999999
 21
219.852564
 31
0.0
  0
ARC
  5
C049
330
BFD3
100
AcDbEntity
  8
1
  6
Continuous
100
AcDbCircle
 10
195.4453409999999
 20
220.4411129999999
 30
0.0
 40
4.5
100
AcDbArc
 50
187.515162
 51
270.0
  0
LINE
  5
C04A
330
BFD3
100
AcDbEntity
  8
1
  6
Continuous
100
AcDbLine
 10
207.8729159999999
 20
215.941113
 30
0.0
 11
195.4453409999999
 21
215.941113
 31
0.0
  0
ARC
  5
C04B
330
BFD3
100
AcDbEntity
  8
1
  6
Continuous
100
AcDbCircle
 10
198.0
 20
224.5411129999999
 30
0.0
 40
37.5
100
AcDbArc
 50
86.17744600000001
 51
114.07926
  0
LINE
  5
C04C
330
BFD3
100
AcDbEntity
  8
4
  6
CENTER
100
AcDbLine
 10
225.0
 20
276.233646
 30
0.0
 11
225.0
 21
259.929127
 31
0.0
  0
LINE
  5
C04D
330
BFD3
100
AcDbEntity
  8
1
  6
Continuous
100
AcDbLine
 10
209.804348
 20
264.2411129999999
 30
0.0
 11
211.982272
 21
266.4190379999999
 31
0.0
  0
LINE
  5
C04E
330
BFD3
100
AcDbEntity
  8
1
  6
Continuous
100
AcDbLine
 10
211.218561
 20
264.2411129999999
 30
0.0
 11
213.3964859999999
 21
266.4190379999999
 31
0.0
  0
LINE
  5
C04F
330
BFD3
100
AcDbEntity
  8
1
  6
Continuous
100
AcDbLine
 10
211.982272
 20
264.2411129999999
 30
0.0
 11
209.804348
 21
266.4190379999999
 31
0.0
  0
LINE
  5
C050
330
BFD3
100
AcDbEntity
  8
1
  6
Continuous
100
AcDbLine
 10
213.3964859999999
 20
264.2411129999999
 30
0.0
 11
211.218561
 21
266.4190379999999
 31
0.0
  0
LINE
  5
C051
330
BFD3
100
AcDbEntity
  8
1
  6
Continuous
100
AcDbLine
 10
200.4999999999999
 20
261.957687
 30
0.0
 11
216.1170339999999
 21
261.957687
 31
0.0
  0
LINE
  5
C052
330
BFD3
100
AcDbEntity
  8
1
  6
Continuous
100
AcDbLine
 10
218.2896289999999
 20
264.2411129999999
 30
0.0
 11
220.467554
 21
266.4190379999999
 31
0.0
  0
LINE
  5
C053
330
BFD3
100
AcDbEntity
  8
1
  6
Continuous
100
AcDbLine
 10
219.703843
 20
264.2411129999999
 30
0.0
 11
221.8817669999999
 21
266.4190379999999
 31
0.0
  0
LINE
  5
C054
330
BFD3
100
AcDbEntity
  8
1
  6
Continuous
100
AcDbLine
 10
220.467554
 20
264.2411129999999
 30
0.0
 11
218.2896289999999
 21
266.4190379999999
 31
0.0
  0
LINE
  5
C055
330
BFD3
100
AcDbEntity
  8
1
  6
Continuous
100
AcDbLine
 10
221.8817669999999
 20
264.2411129999999
 30
0.0
 11
219.703843
 21
266.4190379999999
 31
0.0
  0
LINE
  5
C056
330
BFD3
100
AcDbEntity
  8
1
  6
Continuous
100
AcDbLine
 10
222.5322699999999
 20
264.2411129999999
 30
0.0
 11
224.7101939999998
 21
266.4190379999999
 31
0.0
  0
LINE
  5
C057
330
BFD3
100
AcDbEntity
  8
1
  6
Continuous
100
AcDbLine
 10
223.946483
 20
264.2411129999999
 30
0.0
 11
226.1244079999999
 21
266.4190379999999
 31
0.0
  0
LINE
  5
C058
330
BFD3
100
AcDbEntity
  8
1
  6
Continuous
100
AcDbLine
 10
224.7101939999998
 20
264.2411129999999
 30
0.0
 11
222.5322699999999
 21
266.4190379999999
 31
0.0
  0
LINE
  5
C059
330
BFD3
100
AcDbEntity
  8
1
  6
Continuous
100
AcDbLine
 10
226.1244079999999
 20
264.2411129999999
 30
0.0
 11
223.946483
 21
266.4190379999999
 31
0.0
  0
LINE
  5
C05A
330
BFD3
100
AcDbEntity
  8
1
  6
Continuous
100
AcDbLine
 10
225.3606969999999
 20
264.2411129999999
 30
0.0
 11
227.5386220000001
 21
266.4190379999999
 31
0.0
  0
LINE
  5
C05B
330
BFD3
100
AcDbEntity
  8
1
  6
Continuous
100
AcDbLine
 10
227.5386220000001
 20
264.2411129999999
 30
0.0
 11
225.3606969999999
 21
266.4190379999999
 31
0.0
  0
LINE
  5
C05C
330
BFD3
100
AcDbEntity
  8
1
  6
Continuous
100
AcDbLine
 10
221.1180559999998
 20
264.2411129999999
 30
0.0
 11
223.295981
 21
266.4190379999999
 31
0.0
  0
LINE
  5
C05D
330
BFD3
100
AcDbEntity
  8
1
  6
Continuous
100
AcDbLine
 10
223.295981
 20
264.2411129999999
 30
0.0
 11
221.1180559999998
 21
266.4190379999999
 31
0.0
  0
LINE
  5
C05E
330
BFD3
100
AcDbEntity
  8
1
  6
Continuous
100
AcDbLine
 10
214.0469879999999
 20
264.2411129999999
 30
0.0
 11
216.2249129999999
 21
266.4190379999999
 31
0.0
  0
LINE
  5
C05F
330
BFD3
100
AcDbEntity
  8
1
  6
Continuous
100
AcDbLine
 10
215.461202
 20
264.2411129999999
 30
0.0
 11
217.6391269999998
 21
266.4190379999999
 31
0.0
  0
LINE
  5
C060
330
BFD3
100
AcDbEntity
  8
1
  6
Continuous
100
AcDbLine
 10
216.2249129999999
 20
264.2411129999999
 30
0.0
 11
214.0469879999999
 21
266.4190379999999
 31
0.0
  0
LINE
  5
C061
330
BFD3
100
AcDbEntity
  8
1
  6
Continuous
100
AcDbLine
 10
217.6391269999998
 20
264.2411129999999
 30
0.0
 11
215.461202
 21
266.4190379999999
 31
0.0
  0
LINE
  5
C062
330
BFD3
100
AcDbEntity
  8
1
  6
Continuous
100
AcDbLine
 10
216.875415
 20
264.2411129999999
 30
0.0
 11
219.05334
 21
266.4190379999999
 31
0.0
  0
LINE
  5
C063
330
BFD3
100
AcDbEntity
  8
1
  6
Continuous
100
AcDbLine
 10
219.05334
 20
264.2411129999999
 30
0.0
 11
216.875415
 21
266.4190379999999
 31
0.0
  0
LINE
  5
C064
330
BFD3
100
AcDbEntity
  8
1
  6
Continuous
100
AcDbLine
 10
212.632775
 20
264.2411129999999
 30
0.0
 11
214.810699
 21
266.4190379999999
 31
0.0
  0
LINE
  5
C065
330
BFD3
100
AcDbEntity
  8
1
  6
Continuous
100
AcDbLine
 10
214.810699
 20
264.2411129999999
 30
0.0
 11
212.632775
 21
266.4190379999999
 31
0.0
  0
LINE
  5
C066
330
BFD3
100
AcDbEntity
  8
1
  6
Continuous
100
AcDbLine
 10
202.3378629999998
 20
265.2599099999998
 30
0.0
 11
203.496991
 21
266.4190379999999
 31
0.0
  0
LINE
  5
C067
330
BFD3
100
AcDbEntity
  8
1
  6
Continuous
100
AcDbLine
 10
202.7332799999999
 20
264.2411129999999
 30
0.0
 11
204.911205
 21
266.4190379999999
 31
0.0
  0
LINE
  5
C068
330
BFD3
100
AcDbEntity
  8
1
  6
Continuous
100
AcDbLine
 10
203.496991
 20
264.2411129999999
 30
0.0
 11
202.3378629999998
 21
265.4002409999999
 31
0.0
  0
LINE
  5
C069
330
BFD3
100
AcDbEntity
  8
1
  6
Continuous
100
AcDbLine
 10
204.911205
 20
264.2411129999999
 30
0.0
 11
202.7332799999999
 21
266.4190379999999
 31
0.0
  0
ARC
  5
C06A
330
BFD3
100
AcDbEntity
  8
1
  6
Continuous
100
AcDbCircle
 10
207.9172879999999
 20
264.910212
 30
0.0
 40
6.206012999999998
100
AcDbArc
 50
130.3317199999999
 51
141.612085
  0
ARC
  5
C06B
330
BFD3
100
AcDbEntity
  8
1
  6
Continuous
100
AcDbCircle
 10
203.7817599999999
 20
260.741113
 30
0.0
 40
3.5
100
AcDbArc
 50
90.0
 51
159.6598659999999
  0
LINE
  5
C06C
330
BFD3
100
AcDbEntity
  8
1
  6
Continuous
100
AcDbLine
 10
205.561707
 20
264.2411129999999
 30
0.0
 11
207.739632
 21
266.4190379999999
 31
0.0
  0
LINE
  5
C06D
330
BFD3
100
AcDbEntity
  8
1
  6
Continuous
100
AcDbLine
 10
206.97592
 20
264.2411129999999
 30
0.0
 11
209.1538449999999
 21
266.4190379999999
 31
0.0
  0
LINE
  5
C06E
330
BFD3
100
AcDbEntity
  8
1
  6
Continuous
100
AcDbLine
 10
207.739632
 20
264.2411129999999
 30
0.0
 11
205.561707
 21
266.4190379999999
 31
0.0
  0
LINE
  5
C06F
330
BFD3
100
AcDbEntity
  8
1
  6
Continuous
100
AcDbLine
 10
209.1538449999999
 20
264.2411129999999
 30
0.0
 11
206.97592
 21
266.4190379999999
 31
0.0
  0
LINE
  5
C070
330
BFD3
100
AcDbEntity
  8
1
  6
Continuous
100
AcDbLine
 10
208.3901339999999
 20
264.2411129999999
 30
0.0
 11
210.5680589999999
 21
266.4190379999999
 31
0.0
  0
LINE
  5
C071
330
BFD3
100
AcDbEntity
  8
1
  6
Continuous
100
AcDbLine
 10
210.5680589999999
 20
264.2411129999999
 30
0.0
 11
208.3901339999999
 21
266.4190379999999
 31
0.0
  0
LINE
  5
C072
330
BFD3
100
AcDbEntity
  8
1
  6
Continuous
100
AcDbLine
 10
204.147493
 20
264.2411129999999
 30
0.0
 11
206.3254179999999
 21
266.4190379999999
 31
0.0
  0
LINE
  5
C073
330
BFD3
100
AcDbEntity
  8
1
  6
Continuous
100
AcDbLine
 10
206.3254179999999
 20
264.2411129999999
 30
0.0
 11
204.147493
 21
266.4190379999999
 31
0.0
  0
ARC
  5
C074
330
BFD3
100
AcDbEntity
  8
1
  6
Continuous
100
AcDbCircle
 10
205.669345
 20
269.9542649999999
 30
0.0
 40
4.697225
100
AcDbArc
 50
206.286695
 51
222.530249
  0
LINE
  5
C075
330
BFD3
100
AcDbEntity
  8
1
  6
Continuous
100
AcDbLine
 10
202.3378629999998
 20
266.4190379999999
 30
0.0
 11
202.3378629999998
 21
264.2411129999999
 31
0.0
  0
LINE
  5
C076
330
BFD3
100
AcDbEntity
  8
1
  6
Continuous
100
AcDbLine
 10
202.2078629999997
 20
266.779038
 30
0.0
 11
202.3378629999998
 21
266.4190379999999
 31
0.0
  0
LINE
  5
C077
330
BFD3
100
AcDbEntity
  8
1
  6
Continuous
100
AcDbLine
 10
202.882863
 20
268.404037
 30
0.0
 11
203.052863
 21
268.764037
 31
0.0
  0
LINE
  5
C078
330
BFD3
100
AcDbEntity
  8
1
  6
Continuous
100
AcDbLine
 10
202.0678629999999
 20
268.404037
 30
0.0
 11
202.882863
 21
268.404037
 31
0.0
  0
ARC
  5
C079
330
BFD3
100
AcDbEntity
  8
1
  6
Continuous
100
AcDbCircle
 10
202.3318339999999
 20
267.484185
 30
0.0
 40
0.9569799999999998
100
AcDbArc
 50
106.011913
 51
155.9597349999999
  0
ARC
  5
C07A
330
BFD3
100
AcDbEntity
  8
1
  6
Continuous
100
AcDbCircle
 10
203.0199429999999
 20
273.6411109999999
 30
0.0
 40
4.0
100
AcDbArc
 50
216.8697879999997
 51
270.0023799999997
  0
LINE
  5
C07B
330
BFD3
100
AcDbEntity
  8
1
  6
Continuous
100
AcDbLine
 10
182.6999999999999
 20
258.777935
 30
0.0
 11
183.6383999999999
 21
256.6780769999999
 31
0.0
  0
ARC
  5
C07C
330
BFD3
100
AcDbEntity
  8
1
  6
Continuous
100
AcDbCircle
 10
198.0
 20
224.5411129999999
 30
0.0
 40
35.20000000000001
100
AcDbArc
 50
109.9322699999999
 51
114.07926
  0
LINE
  5
C07D
330
BFD3
100
AcDbEntity
  8
4
  6
CENTER
100
AcDbLine
 10
187.5
 20
268.9538079999999
 30
0.0
 11
187.5
 21
275.7786489999999
 31
0.0
  0
LINE
  5
C07E
330
BFD3
100
AcDbEntity
  8
1
  6
Continuous
100
AcDbLine
 10
179.0
 20
271.7411169999999
 30
0.0
 11
179.0
 21
274.041113
 31
0.0
  0
ARC
  5
C07F
330
BFD3
100
AcDbEntity
  8
1
  6
Continuous
100
AcDbCircle
 10
182.0
 20
273.7411169999999
 30
0.0
 40
2.5
100
AcDbArc
 50
233.130096
 51
270.0
  0
LINE
  5
C080
330
BFD3
100
AcDbEntity
  8
1
  6
Continuous
100
AcDbLine
 10
179.0
 20
271.7411169999999
 30
0.0
 11
180.4999999999997
 21
271.7411169999999
 31
0.0
  0
LINE
  5
C081
330
BFD3
100
AcDbEntity
  8
4
  6
CENTER
100
AcDbLine
 10
262.499955
 20
410.3322219999998
 30
0.0
 11
262.499955
 21
424.832226
 31
0.0
  0
LINE
  5
C082
330
BFD3
100
AcDbEntity
  8
4
  6
CENTER
100
AcDbLine
 10
187.499955
 20
410.3322219999998
 30
0.0
 11
187.499955
 21
424.832226
 31
0.0
  0
LINE
  5
C083
330
BFD3
100
AcDbEntity
  8
4
  6
CENTER
100
AcDbLine
 10
224.9999549999997
 20
332.582222
 30
0.0
 11
224.9999549999997
 21
427.5822259999998
 31
0.0
  0
CIRCLE
  5
C084
330
BFD3
100
AcDbEntity
  8
1
  6
Continuous
100
AcDbCircle
 10
224.9999549999997
 20
380.082222
 30
0.0
 40
43.0
  0
ARC
  5
C085
330
BFD3
100
AcDbEntity
  8
1
  6
Continuous
100
AcDbCircle
 10
262.499955
 20
417.5822219999998
 30
0.0
 40
8.5
100
AcDbArc
 50
0.0
 51
90.0
  0
CIRCLE
  5
C086
330
BFD3
100
AcDbEntity
  8
1
  6
Continuous
100
AcDbCircle
 10
224.9999549999997
 20
380.082222
 30
0.0
 40
42.5
  0
CIRCLE
  5
C087
330
BFD3
100
AcDbEntity
  8
1
  6
Continuous
100
AcDbCircle
 10
224.9999549999997
 20
380.082222
 30
0.0
 40
23.39999999999999
  0
CIRCLE
  5
C088
330
BFD3
100
AcDbEntity
  8
1
  6
Continuous
100
AcDbCircle
 10
224.9999549999997
 20
380.082222
 30
0.0
 40
21.49999999999999
  0
CIRCLE
  5
C089
330
BFD3
100
AcDbEntity
  8
1
  6
Continuous
100
AcDbCircle
 10
224.9999549999997
 20
380.082222
 30
0.0
 40
12.0
  0
LINE
  5
C08A
330
BFD3
100
AcDbEntity
  8
1
  6
Continuous
100
AcDbLine
 10
262.499955
 20
334.082222
 30
0.0
 11
187.499955
 21
334.082222
 31
0.0
  0
ARC
  5
C08B
330
BFD3
100
AcDbEntity
  8
1
  6
Continuous
100
AcDbCircle
 10
258.9999549999999
 20
380.082222
 30
0.0
 40
18.85
100
AcDbArc
 50
309.539109
 51
50.46089099999999
  0
LINE
  5
C08C
330
BFD3
100
AcDbEntity
  8
1
  6
Continuous
100
AcDbLine
 10
270.999955
 20
342.582222
 30
0.0
 11
270.999955
 21
417.5822219999998
 31
0.0
  0
LINE
  5
C08D
330
BFD3
100
AcDbEntity
  8
4
  6
CENTER
100
AcDbLine
 10
269.7499549999997
 20
342.582222
 30
0.0
 11
255.2499549999998
 21
342.582222
 31
0.0
  0
CIRCLE
  5
C08E
330
BFD3
100
AcDbEntity
  8
1
  6
Continuous
100
AcDbCircle
 10
262.499955
 20
342.582222
 30
0.0
 40
4.25
  0
LINE
  5
C08F
330
BFD3
100
AcDbEntity
  8
4
  6
CENTER
100
AcDbLine
 10
262.499955
 20
335.3322219999999
 30
0.0
 11
262.499955
 21
349.8322219999997
 31
0.0
  0
ARC
  5
C090
330
BFD3
100
AcDbEntity
  8
1
  6
Continuous
100
AcDbCircle
 10
262.499955
 20
342.582222
 30
0.0
 40
8.5
100
AcDbArc
 50
270.0
 51
0.0
  0
LINE
  5
C091
330
BFD3
100
AcDbEntity
  8
4
  6
CENTER
100
AcDbLine
 10
269.7499549999997
 20
417.5822219999998
 30
0.0
 11
255.2499549999998
 21
417.5822219999998
 31
0.0
  0
CIRCLE
  5
C092
330
BFD3
100
AcDbEntity
  8
1
  6
Continuous
100
AcDbCircle
 10
262.499955
 20
417.5822219999998
 30
0.0
 40
4.25
  0
LINE
  5
C093
330
BFD3
100
AcDbEntity
  8
1
  6
Continuous
100
AcDbLine
 10
178.999955
 20
342.582222
 30
0.0
 11
178.999955
 21
417.582226
 31
0.0
  0
ARC
  5
C094
330
BFD3
100
AcDbEntity
  8
1
  6
Continuous
100
AcDbCircle
 10
187.499955
 20
342.582222
 30
0.0
 40
8.5
100
AcDbArc
 50
180.0
 51
270.0
  0
LINE
  5
C095
330
BFD3
100
AcDbEntity
  8
4
  6
CENTER
100
AcDbLine
 10
187.499955
 20
335.3322219999999
 30
0.0
 11
187.499955
 21
349.8322219999997
 31
0.0
  0
CIRCLE
  5
C096
330
BFD3
100
AcDbEntity
  8
1
  6
Continuous
100
AcDbCircle
 10
187.499955
 20
342.582222
 30
0.0
 40
4.25
  0
LINE
  5
C097
330
BFD3
100
AcDbEntity
  8
4
  6
CENTER
100
AcDbLine
 10
194.749955
 20
342.582222
 30
0.0
 11
180.249955
 21
342.582222
 31
0.0
  0
LINE
  5
C098
330
BFD3
100
AcDbEntity
  8
4
  6
CENTER
100
AcDbLine
 10
194.749955
 20
417.5822219999998
 30
0.0
 11
180.249955
 21
417.5822219999998
 31
0.0
  0
CIRCLE
  5
C099
330
BFD3
100
AcDbEntity
  8
1
  6
Continuous
100
AcDbCircle
 10
187.499955
 20
417.5822219999998
 30
0.0
 40
4.25
  0
LINE
  5
C09A
330
BFD3
100
AcDbEntity
  8
1
  6
Continuous
100
AcDbLine
 10
262.499955
 20
426.082226
 30
0.0
 11
187.499955
 21
426.082226
 31
0.0
  0
LINE
  5
C09B
330
BFD3
100
AcDbEntity
  8
4
  6
CENTER
100
AcDbLine
 10
71.0
 20
192.8776169999999
 30
0.0
 11
71.0
 21
190.0411129999999
 31
0.0
  0
LINE
  5
C09C
330
BFD3
100
AcDbEntity
  8
4
  6
CENTER
100
AcDbLine
 10
95.929839
 20
224.5411129999999
 30
0.0
 11
47.08211799999999
 21
224.5411129999999
 31
0.0
  0
LINE
  5
C09D
330
BFD3
100
AcDbEntity
  8
1
  6
Continuous
100
AcDbLine
 10
65.703843
 20
264.2411129999999
 30
0.0
 11
67.88176700000001
 21
266.4190379999999
 31
0.0
  0
LINE
  5
C09E
330
BFD3
100
AcDbEntity
  8
1
  6
Continuous
100
AcDbLine
 10
67.88176700000001
 20
264.2411129999999
 30
0.0
 11
65.703843
 21
266.4190379999999
 31
0.0
  0
LINE
  5
C09F
330
BFD3
100
AcDbEntity
  8
1
  6
Continuous
100
AcDbLine
 10
114.0
 20
271.2411169999999
 30
0.0
 11
28.0
 21
271.2411169999999
 31
0.0
  0
LINE
  5
C0A0
330
BFD3
100
AcDbEntity
  8
1
  6
Continuous
100
AcDbLine
 10
85.995789
 20
261.957687
 30
0.0
 11
56.0
 21
261.957687
 31
0.0
  0
LINE
  5
C0A1
330
BFD3
100
AcDbEntity
  8
1
  6
Continuous
100
AcDbLine
 10
93.662863
 20
266.4190379999999
 30
0.0
 11
48.33786299999999
 21
266.4190379999999
 31
0.0
  0
LINE
  5
C0A2
330
BFD3
100
AcDbEntity
  8
1
  6
Continuous
100
AcDbLine
 10
93.93286299999996
 20
268.404037
 30
0.0
 11
48.882863
 21
268.404037
 31
0.0
  0
LINE
  5
C0A3
330
BFD3
100
AcDbEntity
  8
1
  6
Continuous
100
AcDbLine
 10
26.5
 20
271.7411169999999
 30
0.0
 11
117.000004
 21
271.7411169999999
 31
0.0
  0
LINE
  5
C0A4
330
BFD3
100
AcDbEntity
  8
1
  6
Continuous
100
AcDbLine
 10
92.93264
 20
269.6411109999999
 30
0.0
 11
49.019943
 21
269.6411109999999
 31
0.0
  0
LINE
  5
C0A5
330
BFD3
100
AcDbEntity
  8
1
  6
Continuous
100
AcDbLine
 10
25.0
 20
274.041113
 30
0.0
 11
117.000004
 21
274.041113
 31
0.0
  0
LINE
  5
C0A6
330
BFD3
100
AcDbEntity
  8
1
  6
Continuous
100
AcDbLine
 10
48.33786299999999
 20
264.2411129999999
 30
0.0
 11
93.662863
 21
264.2411129999999
 31
0.0
  0
LINE
  5
C0A7
330
BFD3
100
AcDbEntity
  8
4
  6
CENTER
100
AcDbLine
 10
71.0
 20
276.24829
 30
0.0
 11
71.0
 21
193.0411129999999
 31
0.0
  0
LINE
  5
C0A8
330
BFD3
100
AcDbEntity
  8
1
  6
Continuous
100
AcDbLine
 10
89.50000000000001
 20
255.5411129999999
 30
0.0
 11
88.67049799999998
 21
215.941113
 31
0.0
  0
LINE
  5
C0A9
330
BFD3
100
AcDbEntity
  8
1
  6
Continuous
100
AcDbLine
 10
87.19034399999998
 20
255.0801449999999
 30
0.0
 11
86.37049799999998
 21
215.941113
 31
0.0
  0
LINE
  5
C0AA
330
BFD3
100
AcDbEntity
  8
1
  6
Continuous
100
AcDbLine
 10
50.685716
 20
230.291113
 30
0.0
 11
50.685716
 21
218.7911129999999
 31
0.0
  0
ARC
  5
C0AB
330
BFD3
100
AcDbEntity
  8
1
  6
Continuous
100
AcDbCircle
 10
59.47135799999998
 20
224.5411129999999
 30
0.0
 40
10.5
100
AcDbArc
 50
146.796177
 51
213.203823
  0
LINE
  5
C0AC
330
BFD3
100
AcDbEntity
  8
1
  6
Continuous
100
AcDbLine
 10
52.97135799999999
 20
220.5411129999998
 30
0.0
 11
53.23314599999999
 21
220.5411129999998
 31
0.0
  0
LINE
  5
C0AD
330
BFD3
100
AcDbEntity
  8
1
  6
Continuous
100
AcDbLine
 10
50.685716
 20
218.7911129999999
 30
0.0
 11
52.97135799999999
 21
218.7911129999999
 31
0.0
  0
LINE
  5
C0AE
330
BFD3
100
AcDbEntity
  8
1
  6
Continuous
100
AcDbLine
 10
50.685716
 20
230.291113
 30
0.0
 11
52.97135799999999
 21
230.291113
 31
0.0
  0
LINE
  5
C0AF
330
BFD3
100
AcDbEntity
  8
1
  6
Continuous
100
AcDbLine
 10
52.97135799999999
 20
228.5411129999999
 30
0.0
 11
53.06556999999999
 21
228.5411129999999
 31
0.0
  0
LINE
  5
C0B0
330
BFD3
100
AcDbEntity
  8
1
  6
Continuous
100
AcDbLine
 10
117.000004
 20
271.7411169999999
 30
0.0
 11
117.000004
 21
274.041113
 31
0.0
  0
LINE
  5
C0B1
330
BFD3
100
AcDbEntity
  8
4
  6
CENTER
100
AcDbLine
 10
108.4999999999999
 20
268.7409609999999
 30
0.0
 11
108.4999999999999
 21
276.24829
 31
0.0
  0
ARC
  5
C0B2
330
BFD3
100
AcDbEntity
  8
1
  6
Continuous
100
AcDbCircle
 10
114.0
 20
273.7411169999999
 30
0.0
 40
2.5
100
AcDbArc
 50
270.0
 51
306.869904
  0
ARC
  5
C0B3
330
BFD3
100
AcDbEntity
  8
1
  6
Continuous
100
AcDbCircle
 10
85.995789
 20
258.457687
 30
0.0
 40
3.5
100
AcDbArc
 50
0.0
 51
90.0
  0
ARC
  5
C0B4
330
BFD3
100
AcDbEntity
  8
1
  6
Continuous
100
AcDbCircle
 10
91.15
 20
260.2411129999999
 30
0.0
 40
4.0
100
AcDbArc
 50
0.0
 51
90.0
  0
LINE
  5
C0B5
330
BFD3
100
AcDbEntity
  8
1
  6
Continuous
100
AcDbLine
 10
89.495789
 20
255.34011
 30
0.0
 11
89.495789
 21
258.457687
 31
0.0
  0
LINE
  5
C0B6
330
BFD3
100
AcDbEntity
  8
1
  6
Continuous
100
AcDbLine
 10
81.26019199999998
 20
264.2411129999999
 30
0.0
 11
83.43811599999998
 21
266.4190379999999
 31
0.0
  0
LINE
  5
C0B7
330
BFD3
100
AcDbEntity
  8
1
  6
Continuous
100
AcDbLine
 10
82.67440499999997
 20
264.2411129999999
 30
0.0
 11
84.85232999999999
 21
266.4190379999999
 31
0.0
  0
LINE
  5
C0B8
330
BFD3
100
AcDbEntity
  8
1
  6
Continuous
100
AcDbLine
 10
83.43811599999998
 20
264.2411129999999
 30
0.0
 11
81.26019199999998
 21
266.4190379999999
 31
0.0
  0
LINE
  5
C0B9
330
BFD3
100
AcDbEntity
  8
1
  6
Continuous
100
AcDbLine
 10
84.85232999999999
 20
264.2411129999999
 30
0.0
 11
82.67440499999997
 21
266.4190379999999
 31
0.0
  0
LINE
  5
C0BA
330
BFD3
100
AcDbEntity
  8
1
  6
Continuous
100
AcDbLine
 10
89.74547300000002
 20
264.2411129999999
 30
0.0
 11
91.92339799999999
 21
266.4190379999999
 31
0.0
  0
LINE
  5
C0BB
330
BFD3
100
AcDbEntity
  8
1
  6
Continuous
100
AcDbLine
 10
91.15968700000001
 20
264.2411129999999
 30
0.0
 11
93.337611
 21
266.4190379999999
 31
0.0
  0
LINE
  5
C0BC
330
BFD3
100
AcDbEntity
  8
1
  6
Continuous
100
AcDbLine
 10
91.92339799999999
 20
264.2411129999999
 30
0.0
 11
89.74547300000002
 21
266.4190379999999
 31
0.0
  0
LINE
  5
C0BD
330
BFD3
100
AcDbEntity
  8
1
  6
Continuous
100
AcDbLine
 10
93.337611
 20
264.2411129999999
 30
0.0
 11
91.15968700000001
 21
266.4190379999999
 31
0.0
  0
ARC
  5
C0BE
330
BFD3
100
AcDbEntity
  8
1
  6
Continuous
100
AcDbCircle
 10
90.331381
 20
269.9542649999999
 30
0.0
 40
4.697225
100
AcDbArc
 50
317.4697509999999
 51
333.713305
  0
LINE
  5
C0BF
330
BFD3
100
AcDbEntity
  8
1
  6
Continuous
100
AcDbLine
 10
92.57389999999999
 20
264.2411129999999
 30
0.0
 11
93.662863
 21
265.330075
 31
0.0
  0
LINE
  5
C0C0
330
BFD3
100
AcDbEntity
  8
1
  6
Continuous
100
AcDbLine
 10
92.57389999999999
 20
266.4190379999999
 30
0.0
 11
93.662863
 21
265.330075
 31
0.0
  0
LINE
  5
C0C1
330
BFD3
100
AcDbEntity
  8
1
  6
Continuous
100
AcDbLine
 10
93.662863
 20
266.4190379999999
 30
0.0
 11
93.662863
 21
264.2411129999999
 31
0.0
  0
LINE
  5
C0C2
330
BFD3
100
AcDbEntity
  8
1
  6
Continuous
100
AcDbLine
 10
93.792863
 20
266.779038
 30
0.0
 11
93.662863
 21
266.4190379999999
 31
0.0
  0
ARC
  5
C0C3
330
BFD3
100
AcDbEntity
  8
1
  6
Continuous
100
AcDbCircle
 10
92.98005600000001
 20
273.6411109999999
 30
0.0
 40
4.0
100
AcDbArc
 50
269.99762
 51
323.1302119999999
  0
ARC
  5
C0C4
330
BFD3
100
AcDbEntity
  8
1
  6
Continuous
100
AcDbCircle
 10
88.08343800000001
 20
264.910212
 30
0.0
 40
6.206012999999998
100
AcDbArc
 50
38.387915
 51
49.668171
  0
LINE
  5
C0C5
330
BFD3
100
AcDbEntity
  8
1
  6
Continuous
100
AcDbLine
 10
93.11786299999999
 20
268.404037
 30
0.0
 11
92.947863
 21
268.764037
 31
0.0
  0
ARC
  5
C0C6
330
BFD3
100
AcDbEntity
  8
1
  6
Continuous
100
AcDbCircle
 10
93.66889200000001
 20
267.484185
 30
0.0
 40
0.9569799999999998
100
AcDbArc
 50
24.04026499999999
 51
73.98808699999998
  0
LINE
  5
C0C7
330
BFD3
100
AcDbEntity
  8
1
  6
Continuous
100
AcDbLine
 10
85.502832
 20
264.2411129999999
 30
0.0
 11
87.680757
 21
266.4190379999999
 31
0.0
  0
LINE
  5
C0C8
330
BFD3
100
AcDbEntity
  8
1
  6
Continuous
100
AcDbLine
 10
86.91704599999999
 20
264.2411129999999
 30
0.0
 11
89.09497100000001
 21
266.4190379999999
 31
0.0
  0
LINE
  5
C0C9
330
BFD3
100
AcDbEntity
  8
1
  6
Continuous
100
AcDbLine
 10
87.680757
 20
264.2411129999999
 30
0.0
 11
85.502832
 21
266.4190379999999
 31
0.0
  0
LINE
  5
C0CA
330
BFD3
100
AcDbEntity
  8
1
  6
Continuous
100
AcDbLine
 10
89.09497100000001
 20
264.2411129999999
 30
0.0
 11
86.91704599999999
 21
266.4190379999999
 31
0.0
  0
LINE
  5
C0CB
330
BFD3
100
AcDbEntity
  8
1
  6
Continuous
100
AcDbLine
 10
88.33126
 20
264.2411129999999
 30
0.0
 11
90.50918399999996
 21
266.4190379999999
 31
0.0
  0
LINE
  5
C0CC
330
BFD3
100
AcDbEntity
  8
1
  6
Continuous
100
AcDbLine
 10
90.50918399999996
 20
264.2411129999999
 30
0.0
 11
88.33126
 21
266.4190379999999
 31
0.0
  0
LINE
  5
C0CD
330
BFD3
100
AcDbEntity
  8
1
  6
Continuous
100
AcDbLine
 10
84.08861899999998
 20
264.2411129999999
 30
0.0
 11
86.26654399999997
 21
266.4190379999999
 31
0.0
  0
LINE
  5
C0CE
330
BFD3
100
AcDbEntity
  8
1
  6
Continuous
100
AcDbLine
 10
86.26654399999997
 20
264.2411129999999
 30
0.0
 11
84.08861899999998
 21
266.4190379999999
 31
0.0
  0
LINE
  5
C0CF
330
BFD3
100
AcDbEntity
  8
1
  6
Continuous
100
AcDbLine
 10
74.18912399999998
 20
264.2411129999999
 30
0.0
 11
76.36704899999998
 21
266.4190379999999
 31
0.0
  0
LINE
  5
C0D0
330
BFD3
100
AcDbEntity
  8
1
  6
Continuous
100
AcDbLine
 10
76.36704899999998
 20
264.2411129999999
 30
0.0
 11
74.18912399999998
 21
266.4190379999999
 31
0.0
  0
LINE
  5
C0D1
330
BFD3
100
AcDbEntity
  8
1
  6
Continuous
100
AcDbLine
 10
77.01755099999998
 20
264.2411129999999
 30
0.0
 11
79.195476
 21
266.4190379999999
 31
0.0
  0
LINE
  5
C0D2
330
BFD3
100
AcDbEntity
  8
1
  6
Continuous
100
AcDbLine
 10
78.431765
 20
264.2411129999999
 30
0.0
 11
80.609689
 21
266.4190379999999
 31
0.0
  0
LINE
  5
C0D3
330
BFD3
100
AcDbEntity
  8
1
  6
Continuous
100
AcDbLine
 10
79.195476
 20
264.2411129999999
 30
0.0
 11
77.01755099999998
 21
266.4190379999999
 31
0.0
  0
LINE
  5
C0D4
330
BFD3
100
AcDbEntity
  8
1
  6
Continuous
100
AcDbLine
 10
80.609689
 20
264.2411129999999
 30
0.0
 11
78.431765
 21
266.4190379999999
 31
0.0
  0
LINE
  5
C0D5
330
BFD3
100
AcDbEntity
  8
1
  6
Continuous
100
AcDbLine
 10
79.845978
 20
264.2411129999999
 30
0.0
 11
82.02390300000002
 21
266.4190379999999
 31
0.0
  0
LINE
  5
C0D6
330
BFD3
100
AcDbEntity
  8
1
  6
Continuous
100
AcDbLine
 10
82.02390300000002
 20
264.2411129999999
 30
0.0
 11
79.845978
 21
266.4190379999999
 31
0.0
  0
LINE
  5
C0D7
330
BFD3
100
AcDbEntity
  8
1
  6
Continuous
100
AcDbLine
 10
75.60333699999998
 20
264.2411129999999
 30
0.0
 11
77.78126199999999
 21
266.4190379999999
 31
0.0
  0
LINE
  5
C0D8
330
BFD3
100
AcDbEntity
  8
1
  6
Continuous
100
AcDbLine
 10
77.78126199999999
 20
264.2411129999999
 30
0.0
 11
75.60333699999998
 21
266.4190379999999
 31
0.0
  0
LINE
  5
C0D9
330
BFD3
100
AcDbEntity
  8
1
  6
Continuous
100
AcDbLine
 10
69.946483
 20
264.2411129999999
 30
0.0
 11
72.124408
 21
266.4190379999999
 31
0.0
  0
LINE
  5
C0DA
330
BFD3
100
AcDbEntity
  8
1
  6
Continuous
100
AcDbLine
 10
72.124408
 20
264.2411129999999
 30
0.0
 11
69.946483
 21
266.4190379999999
 31
0.0
  0
LINE
  5
C0DB
330
BFD3
100
AcDbEntity
  8
1
  6
Continuous
100
AcDbLine
 10
71.360697
 20
264.2411129999999
 30
0.0
 11
73.538622
 21
266.4190379999999
 31
0.0
  0
LINE
  5
C0DC
330
BFD3
100
AcDbEntity
  8
1
  6
Continuous
100
AcDbLine
 10
72.77490999999997
 20
264.2411129999999
 30
0.0
 11
74.95283499999998
 21
266.4190379999999
 31
0.0
  0
LINE
  5
C0DD
330
BFD3
100
AcDbEntity
  8
1
  6
Continuous
100
AcDbLine
 10
73.538622
 20
264.2411129999999
 30
0.0
 11
71.360697
 21
266.4190379999999
 31
0.0
  0
LINE
  5
C0DE
330
BFD3
100
AcDbEntity
  8
1
  6
Continuous
100
AcDbLine
 10
74.95283499999998
 20
264.2411129999999
 30
0.0
 11
72.77490999999997
 21
266.4190379999999
 31
0.0
  0
LINE
  5
C0DF
330
BFD3
100
AcDbEntity
  8
1
  6
Continuous
100
AcDbLine
 10
67.11805600000001
 20
264.2411129999999
 30
0.0
 11
69.29598100000001
 21
266.4190379999999
 31
0.0
  0
LINE
  5
C0E0
330
BFD3
100
AcDbEntity
  8
1
  6
Continuous
100
AcDbLine
 10
68.53227
 20
264.2411129999999
 30
0.0
 11
70.710194
 21
266.4190379999999
 31
0.0
  0
LINE
  5
C0E1
330
BFD3
100
AcDbEntity
  8
1
  6
Continuous
100
AcDbLine
 10
69.29598100000001
 20
264.2411129999999
 30
0.0
 11
67.11805600000001
 21
266.4190379999999
 31
0.0
  0
LINE
  5
C0E2
330
BFD3
100
AcDbEntity
  8
1
  6
Continuous
100
AcDbLine
 10
70.710194
 20
264.2411129999999
 30
0.0
 11
68.53227
 21
266.4190379999999
 31
0.0
  0
LINE
  5
C0E3
330
BFD3
100
AcDbEntity
  8
1
  6
Continuous
100
AcDbLine
 10
52.5
 20
255.5411129999999
 30
0.0
 11
53.32950199999999
 21
215.941113
 31
0.0
  0
LINE
  5
C0E4
330
BFD3
100
AcDbEntity
  8
1
  6
Continuous
100
AcDbLine
 10
54.80965600000001
 20
255.0801449999999
 30
0.0
 11
55.629502
 21
215.941113
 31
0.0
  0
ARC
  5
C0E5
330
BFD3
100
AcDbEntity
  8
1
  6
Continuous
100
AcDbCircle
 10
81.765427
 20
224.7000029999999
 30
0.0
 40
9.08699
100
AcDbArc
 50
325.408429
 51
32.191571
  0
LINE
  5
C0E6
330
BFD3
100
AcDbEntity
  8
1
  6
Continuous
100
AcDbLine
 10
89.455488
 20
229.541113
 30
0.0
 11
89.24601700000001
 21
219.541113
 31
0.0
  0
LINE
  5
C0E7
330
BFD3
100
AcDbEntity
  8
1
  6
Continuous
100
AcDbLine
 10
88.745908
 20
219.541113
 30
0.0
 11
89.24601700000001
 21
219.541113
 31
0.0
  0
LINE
  5
C0E8
330
BFD3
100
AcDbEntity
  8
1
  6
Continuous
100
AcDbLine
 10
88.95537799999997
 20
229.541113
 30
0.0
 11
89.455488
 21
229.541113
 31
0.0
  0
ARC
  5
C0E9
330
BFD3
100
AcDbEntity
  8
1
  6
Continuous
100
AcDbCircle
 10
56.00421
 20
258.457687
 30
0.0
 40
3.5
100
AcDbArc
 50
90.0
 51
180.0
  0
ARC
  5
C0EA
330
BFD3
100
AcDbEntity
  8
1
  6
Continuous
100
AcDbCircle
 10
50.85
 20
260.2411129999999
 30
0.0
 40
4.0
100
AcDbArc
 50
90.0
 51
180.0
  0
LINE
  5
C0EB
330
BFD3
100
AcDbEntity
  8
1
  6
Continuous
100
AcDbLine
 10
52.50421
 20
255.34011
 30
0.0
 11
52.50421
 21
258.457687
 31
0.0
  0
LINE
  5
C0EC
330
BFD3
100
AcDbEntity
  8
1
  6
Continuous
100
AcDbLine
 10
48.73328
 20
264.2411129999999
 30
0.0
 11
50.91120499999998
 21
266.4190379999999
 31
0.0
  0
LINE
  5
C0ED
330
BFD3
100
AcDbEntity
  8
1
  6
Continuous
100
AcDbLine
 10
50.147493
 20
264.2411129999999
 30
0.0
 11
52.32541799999999
 21
266.4190379999999
 31
0.0
  0
LINE
  5
C0EE
330
BFD3
100
AcDbEntity
  8
1
  6
Continuous
100
AcDbLine
 10
50.91120499999998
 20
264.2411129999999
 30
0.0
 11
48.73328
 21
266.4190379999999
 31
0.0
  0
LINE
  5
C0EF
330
BFD3
100
AcDbEntity
  8
1
  6
Continuous
100
AcDbLine
 10
52.32541799999999
 20
264.2411129999999
 30
0.0
 11
50.147493
 21
266.4190379999999
 31
0.0
  0
LINE
  5
C0F0
330
BFD3
100
AcDbEntity
  8
1
  6
Continuous
100
AcDbLine
 10
57.218561
 20
264.2411129999999
 30
0.0
 11
59.39648599999999
 21
266.4190379999999
 31
0.0
  0
LINE
  5
C0F1
330
BFD3
100
AcDbEntity
  8
1
  6
Continuous
100
AcDbLine
 10
59.39648599999999
 20
264.2411129999999
 30
0.0
 11
57.218561
 21
266.4190379999999
 31
0.0
  0
LINE
  5
C0F2
330
BFD3
100
AcDbEntity
  8
1
  6
Continuous
100
AcDbLine
 10
61.461202
 20
264.2411129999999
 30
0.0
 11
63.639127
 21
266.4190379999999
 31
0.0
  0
LINE
  5
C0F3
330
BFD3
100
AcDbEntity
  8
1
  6
Continuous
100
AcDbLine
 10
63.639127
 20
264.2411129999999
 30
0.0
 11
61.461202
 21
266.4190379999999
 31
0.0
  0
LINE
  5
C0F4
330
BFD3
100
AcDbEntity
  8
1
  6
Continuous
100
AcDbLine
 10
62.87541499999999
 20
264.2411129999999
 30
0.0
 11
65.05334000000001
 21
266.4190379999999
 31
0.0
  0
LINE
  5
C0F5
330
BFD3
100
AcDbEntity
  8
1
  6
Continuous
100
AcDbLine
 10
64.28962900000001
 20
264.2411129999999
 30
0.0
 11
66.467554
 21
266.4190379999999
 31
0.0
  0
LINE
  5
C0F6
330
BFD3
100
AcDbEntity
  8
1
  6
Continuous
100
AcDbLine
 10
65.05334000000001
 20
264.2411129999999
 30
0.0
 11
62.87541499999999
 21
266.4190379999999
 31
0.0
  0
LINE
  5
C0F7
330
BFD3
100
AcDbEntity
  8
1
  6
Continuous
100
AcDbLine
 10
66.467554
 20
264.2411129999999
 30
0.0
 11
64.28962900000001
 21
266.4190379999999
 31
0.0
  0
LINE
  5
C0F8
330
BFD3
100
AcDbEntity
  8
1
  6
Continuous
100
AcDbLine
 10
58.632775
 20
264.2411129999999
 30
0.0
 11
60.810699
 21
266.4190379999999
 31
0.0
  0
LINE
  5
C0F9
330
BFD3
100
AcDbEntity
  8
1
  6
Continuous
100
AcDbLine
 10
60.04698799999999
 20
264.2411129999999
 30
0.0
 11
62.224913
 21
266.4190379999999
 31
0.0
  0
LINE
  5
C0FA
330
BFD3
100
AcDbEntity
  8
1
  6
Continuous
100
AcDbLine
 10
60.810699
 20
264.2411129999999
 30
0.0
 11
58.632775
 21
266.4190379999999
 31
0.0
  0
LINE
  5
C0FB
330
BFD3
100
AcDbEntity
  8
1
  6
Continuous
100
AcDbLine
 10
62.224913
 20
264.2411129999999
 30
0.0
 11
60.04698799999999
 21
266.4190379999999
 31
0.0
  0
LINE
  5
C0FC
330
BFD3
100
AcDbEntity
  8
1
  6
Continuous
100
AcDbLine
 10
52.97591999999998
 20
264.2411129999999
 30
0.0
 11
55.15384499999999
 21
266.4190379999999
 31
0.0
  0
LINE
  5
C0FD
330
BFD3
100
AcDbEntity
  8
1
  6
Continuous
100
AcDbLine
 10
54.390134
 20
264.2411129999999
 30
0.0
 11
56.568059
 21
266.4190379999999
 31
0.0
  0
LINE
  5
C0FE
330
BFD3
100
AcDbEntity
  8
1
  6
Continuous
100
AcDbLine
 10
55.15384499999999
 20
264.2411129999999
 30
0.0
 11
52.97591999999998
 21
266.4190379999999
 31
0.0
  0
LINE
  5
C0FF
330
BFD3
100
AcDbEntity
  8
1
  6
Continuous
100
AcDbLine
 10
56.568059
 20
264.2411129999999
 30
0.0
 11
54.390134
 21
266.4190379999999
 31
0.0
  0
LINE
  5
C100
330
BFD3
100
AcDbEntity
  8
1
  6
Continuous
100
AcDbLine
 10
55.80434799999999
 20
264.2411129999999
 30
0.0
 11
57.98227199999999
 21
266.4190379999999
 31
0.0
  0
LINE
  5
C101
330
BFD3
100
AcDbEntity
  8
1
  6
Continuous
100
AcDbLine
 10
57.98227199999999
 20
264.2411129999999
 30
0.0
 11
55.80434799999999
 21
266.4190379999999
 31
0.0
  0
LINE
  5
C102
330
BFD3
100
AcDbEntity
  8
1
  6
Continuous
100
AcDbLine
 10
51.561707
 20
264.2411129999999
 30
0.0
 11
53.73963199999999
 21
266.4190379999999
 31
0.0
  0
LINE
  5
C103
330
BFD3
100
AcDbEntity
  8
1
  6
Continuous
100
AcDbLine
 10
53.73963199999999
 20
264.2411129999999
 30
0.0
 11
51.561707
 21
266.4190379999999
 31
0.0
  0
ARC
  5
C104
330
BFD3
100
AcDbEntity
  8
1
  6
Continuous
100
AcDbCircle
 10
51.66934499999999
 20
269.9542649999999
 30
0.0
 40
4.697225
100
AcDbArc
 50
206.286695
 51
222.530249
  0
LINE
  5
C105
330
BFD3
100
AcDbEntity
  8
1
  6
Continuous
100
AcDbLine
 10
48.33786299999999
 20
265.2599099999998
 30
0.0
 11
49.496991
 21
266.4190379999999
 31
0.0
  0
LINE
  5
C106
330
BFD3
100
AcDbEntity
  8
1
  6
Continuous
100
AcDbLine
 10
49.496991
 20
264.2411129999999
 30
0.0
 11
48.33786299999999
 21
265.4002409999999
 31
0.0
  0
LINE
  5
C107
330
BFD3
100
AcDbEntity
  8
1
  6
Continuous
100
AcDbLine
 10
48.33786299999999
 20
266.4190379999999
 30
0.0
 11
48.33786299999999
 21
264.2411129999999
 31
0.0
  0
LINE
  5
C108
330
BFD3
100
AcDbEntity
  8
1
  6
Continuous
100
AcDbLine
 10
48.207863
 20
266.779038
 30
0.0
 11
48.33786299999999
 21
266.4190379999999
 31
0.0
  0
ARC
  5
C109
330
BFD3
100
AcDbEntity
  8
1
  6
Continuous
100
AcDbCircle
 10
49.019943
 20
273.6411109999999
 30
0.0
 40
4.0
100
AcDbArc
 50
216.8697879999997
 51
270.0023799999997
  0
ARC
  5
C10A
330
BFD3
100
AcDbEntity
  8
1
  6
Continuous
100
AcDbCircle
 10
53.917288
 20
264.910212
 30
0.0
 40
6.206012999999998
100
AcDbArc
 50
130.3317199999999
 51
141.612085
  0
LINE
  5
C10B
330
BFD3
100
AcDbEntity
  8
1
  6
Continuous
100
AcDbLine
 10
48.882863
 20
268.404037
 30
0.0
 11
49.052863
 21
268.764037
 31
0.0
  0
LINE
  5
C10C
330
BFD3
100
AcDbEntity
  8
1
  6
Continuous
100
AcDbLine
 10
48.067863
 20
268.404037
 30
0.0
 11
48.882863
 21
268.404037
 31
0.0
  0
ARC
  5
C10D
330
BFD3
100
AcDbEntity
  8
1
  6
Continuous
100
AcDbCircle
 10
48.331834
 20
267.484185
 30
0.0
 40
0.9569799999999998
100
AcDbArc
 50
106.011913
 51
155.9597349999999
  0
LINE
  5
C10E
330
BFD3
100
AcDbEntity
  8
4
  6
CENTER
100
AcDbLine
 10
33.5
 20
268.7409609999999
 30
0.0
 11
33.5
 21
276.020799
 31
0.0
  0
LINE
  5
C10F
330
BFD3
100
AcDbEntity
  8
1
  6
Continuous
100
AcDbLine
 10
25.0
 20
271.7411169999999
 30
0.0
 11
25.0
 21
274.041113
 31
0.0
  0
LINE
  5
C110
330
BFD3
100
AcDbEntity
  8
1
  6
Continuous
100
AcDbLine
 10
25.0
 20
271.7411169999999
 30
0.0
 11
26.5
 21
271.7411169999999
 31
0.0
  0
ARC
  5
C111
330
BFD3
100
AcDbEntity
  8
1
  6
Continuous
100
AcDbCircle
 10
28.0
 20
273.7411169999999
 30
0.0
 40
2.5
100
AcDbArc
 50
233.130096
 51
270.0
  0
ARC
  5
C112
330
BFD3
100
AcDbEntity
  8
1
  6
Continuous
100
AcDbCircle
 10
187.499955
 20
417.582226
 30
0.0
 40
8.5
100
AcDbArc
 50
90.0
 51
180.0
  0
LINE
  5
C113
330
BFD3
100
AcDbEntity
  8
2
  6
Continuous
100
AcDbLine
 10
254.812
 20
214.5411129999998
 30
0.0
 11
254.812
 21
229.741117
 31
0.0
  0
LINE
  5
C114
330
BFD3
100
AcDbEntity
  8
2
  6
Continuous
100
AcDbLine
 10
263.1879999999998
 20
214.5411129999998
 30
0.0
 11
263.1879999999998
 21
229.741117
 31
0.0
  0
LINE
  5
C115
330
BFD3
100
AcDbEntity
  8
1
  6
Continuous
100
AcDbLine
 10
254.0
 20
229.741117
 30
0.0
 11
254.0
 21
211.541113
 31
0.0
  0
LINE
  5
C116
330
BFD3
100
AcDbEntity
  8
1
  6
Continuous
100
AcDbLine
 10
264.0
 20
229.741117
 30
0.0
 11
264.0
 21
211.541113
 31
0.0
  0
LINE
  5
C117
330
BFD3
100
AcDbEntity
  8
1
  6
Continuous
100
AcDbLine
 10
276.25
 20
193.0411129999999
 30
0.0
 11
241.7499999999999
 21
193.0411129999999
 31
0.0
  0
LINE
  5
C118
330
BFD3
100
AcDbEntity
  8
1
  6
Continuous
100
AcDbLine
 10
274.85
 20
205.5411129999999
 30
0.0
 11
243.15
 21
205.5411129999999
 31
0.0
  0
LINE
  5
C119
330
BFD3
100
AcDbEntity
  8
1
  6
Continuous
100
AcDbLine
 10
277.85
 20
199.5411129999999
 30
0.0
 11
240.1499999999999
 21
199.5411129999999
 31
0.0
  0
LINE
  5
C11A
330
BFD3
100
AcDbEntity
  8
1
  6
Continuous
100
AcDbLine
 10
240.1499999999999
 20
199.5411129999999
 30
0.0
 11
240.1499999999999
 21
202.541113
 31
0.0
  0
LINE
  5
C11B
330
BFD3
100
AcDbEntity
  8
1
  6
Continuous
100
AcDbLine
 10
241.7499999999999
 20
199.5411129999999
 30
0.0
 11
241.7499999999999
 21
193.0411129999999
 31
0.0
  0
ARC
  5
C11C
330
BFD3
100
AcDbEntity
  8
1
  6
Continuous
100
AcDbCircle
 10
243.15
 20
202.541113
 30
0.0
 40
3.0
100
AcDbArc
 50
90.0
 51
180.0
  0
ARC
  5
C11D
330
BFD3
100
AcDbEntity
  8
1
  6
Continuous
100
AcDbCircle
 10
274.85
 20
202.541113
 30
0.0
 40
3.0
100
AcDbArc
 50
0.0
 51
90.0
  0
LINE
  5
C11E
330
BFD3
100
AcDbEntity
  8
1
  6
Continuous
100
AcDbLine
 10
264.0
 20
214.5411129999998
 30
0.0
 11
254.0
 21
214.5411129999998
 31
0.0
  0
LINE
  5
C11F
330
BFD3
100
AcDbEntity
  8
1
  6
Continuous
100
AcDbLine
 10
269.4999999999997
 20
206.0411129999998
 30
0.0
 11
248.4999999999998
 21
206.0411129999998
 31
0.0
  0
LINE
  5
C120
330
BFD3
100
AcDbEntity
  8
1
  6
Continuous
100
AcDbLine
 10
266.25
 20
206.541113
 30
0.0
 11
251.75
 21
206.541113
 31
0.0
  0
ARC
  5
C121
330
BFD3
100
AcDbEntity
  8
1
  6
Continuous
100
AcDbCircle
 10
259.0
 20
217.1661129999999
 30
0.0
 40
10.625
100
AcDbArc
 50
244.942385
 51
295.057615
  0
LINE
  5
C122
330
BFD3
100
AcDbEntity
  8
1
  6
Continuous
100
AcDbLine
 10
269.0
 20
211.541113
 30
0.0
 11
249.0
 21
211.541113
 31
0.0
  0
LINE
  5
C123
330
BFD3
100
AcDbEntity
  8
2
  6
Continuous
100
AcDbLine
 10
254.0
 20
213.1346879999999
 30
0.0
 11
254.812
 21
214.5411129999998
 31
0.0
  0
LINE
  5
C124
330
BFD3
100
AcDbEntity
  8
1
  6
Continuous
100
AcDbLine
 10
248.4999999999998
 20
206.0411129999998
 30
0.0
 11
248.4999999999998
 21
205.5411129999999
 31
0.0
  0
LINE
  5
C125
330
BFD3
100
AcDbEntity
  8
1
  6
Continuous
100
AcDbLine
 10
255.5
 20
206.055805
 30
0.0
 11
255.5
 21
206.541113
 31
0.0
  0
ARC
  5
C126
330
BFD3
100
AcDbEntity
  8
1
  6
Continuous
100
AcDbCircle
 10
251.75
 20
210.8223629999999
 30
0.0
 40
4.28125
100
AcDbArc
 50
230.0337869999999
 51
309.966213
  0
LINE
  5
C127
330
BFD3
100
AcDbEntity
  8
1
  6
Continuous
100
AcDbLine
 10
254.4999999999999
 20
211.541113
 30
0.0
 11
254.4999999999999
 21
207.5411129999999
 31
0.0
  0
LINE
  5
C128
330
BFD3
100
AcDbEntity
  8
1
  6
Continuous
100
AcDbLine
 10
249.0
 20
211.541113
 30
0.0
 11
249.0
 21
207.5411129999999
 31
0.0
  0
LINE
  5
C129
330
BFD3
100
AcDbEntity
  8
2
  6
Continuous
100
AcDbLine
 10
264.0
 20
213.1346879999999
 30
0.0
 11
263.1879999999998
 21
214.5411129999998
 31
0.0
  0
LINE
  5
C12A
330
BFD3
100
AcDbEntity
  8
1
  6
Continuous
100
AcDbLine
 10
269.4999999999997
 20
206.0411129999998
 30
0.0
 11
269.4999999999997
 21
205.5411129999999
 31
0.0
  0
LINE
  5
C12B
330
BFD3
100
AcDbEntity
  8
1
  6
Continuous
100
AcDbLine
 10
262.5
 20
206.541113
 30
0.0
 11
262.5
 21
206.055805
 31
0.0
  0
ARC
  5
C12C
330
BFD3
100
AcDbEntity
  8
1
  6
Continuous
100
AcDbCircle
 10
266.25
 20
210.8223629999999
 30
0.0
 40
4.28125
100
AcDbArc
 50
230.0337869999999
 51
309.966213
  0
LINE
  5
C12D
330
BFD3
100
AcDbEntity
  8
1
  6
Continuous
100
AcDbLine
 10
263.5
 20
211.541113
 30
0.0
 11
263.5
 21
207.5411129999999
 31
0.0
  0
LINE
  5
C12E
330
BFD3
100
AcDbEntity
  8
1
  6
Continuous
100
AcDbLine
 10
269.0
 20
211.541113
 30
0.0
 11
269.0
 21
207.5411129999999
 31
0.0
  0
LINE
  5
C12F
330
BFD3
100
AcDbEntity
  8
1
  6
Continuous
100
AcDbLine
 10
277.85
 20
202.541113
 30
0.0
 11
277.85
 21
199.5411129999999
 31
0.0
  0
LINE
  5
C130
330
BFD3
100
AcDbEntity
  8
1
  6
Continuous
100
AcDbLine
 10
276.25
 20
199.5411129999999
 30
0.0
 11
276.25
 21
193.0411129999999
 31
0.0
  0
LINE
  5
C131
330
BFD3
100
AcDbEntity
  8
1
  6
Continuous
100
AcDbLine
 10
383.9999099999998
 20
229.741117
 30
0.0
 11
383.9999099999998
 21
211.541113
 31
0.0
  0
LINE
  5
C132
330
BFD3
100
AcDbEntity
  8
1
  6
Continuous
100
AcDbLine
 10
373.9999099999999
 20
229.741117
 30
0.0
 11
373.9999099999999
 21
211.541113
 31
0.0
  0
LINE
  5
C133
330
BFD3
100
AcDbEntity
  8
2
  6
Continuous
100
AcDbLine
 10
383.18791
 20
214.5411129999998
 30
0.0
 11
383.18791
 21
229.741117
 31
0.0
  0
LINE
  5
C134
330
BFD3
100
AcDbEntity
  8
2
  6
Continuous
100
AcDbLine
 10
374.81191
 20
214.5411129999998
 30
0.0
 11
374.81191
 21
229.741117
 31
0.0
  0
ARC
  5
C135
330
BFD3
100
AcDbEntity
  8
1
  6
Continuous
100
AcDbCircle
 10
394.84991
 20
202.541113
 30
0.0
 40
3.0
100
AcDbArc
 50
0.0
 51
90.0
  0
LINE
  5
C136
330
BFD3
100
AcDbEntity
  8
1
  6
Continuous
100
AcDbLine
 10
360.1499099999998
 20
199.5411129999999
 30
0.0
 11
397.84991
 21
199.5411129999999
 31
0.0
  0
LINE
  5
C137
330
BFD3
100
AcDbEntity
  8
1
  6
Continuous
100
AcDbLine
 10
363.1499099999999
 20
205.5411129999999
 30
0.0
 11
394.84991
 21
205.5411129999999
 31
0.0
  0
LINE
  5
C138
330
BFD3
100
AcDbEntity
  8
1
  6
Continuous
100
AcDbLine
 10
361.7499099999998
 20
193.0411129999999
 30
0.0
 11
396.24991
 21
193.0411129999999
 31
0.0
  0
LINE
  5
C139
330
BFD3
100
AcDbEntity
  8
1
  6
Continuous
100
AcDbLine
 10
360.1499099999998
 20
202.541113
 30
0.0
 11
360.1499099999998
 21
199.5411129999999
 31
0.0
  0
LINE
  5
C13A
330
BFD3
100
AcDbEntity
  8
1
  6
Continuous
100
AcDbLine
 10
361.7499099999998
 20
199.5411129999999
 30
0.0
 11
361.7499099999998
 21
193.0411129999999
 31
0.0
  0
ARC
  5
C13B
330
BFD3
100
AcDbEntity
  8
1
  6
Continuous
100
AcDbCircle
 10
363.1499099999999
 20
202.541113
 30
0.0
 40
3.0
100
AcDbArc
 50
90.0
 51
180.0
  0
LINE
  5
C13C
330
BFD3
100
AcDbEntity
  8
1
  6
Continuous
100
AcDbLine
 10
397.84991
 20
199.5411129999999
 30
0.0
 11
397.84991
 21
202.541113
 31
0.0
  0
LINE
  5
C13D
330
BFD3
100
AcDbEntity
  8
1
  6
Continuous
100
AcDbLine
 10
396.24991
 20
199.5411129999999
 30
0.0
 11
396.24991
 21
193.0411129999999
 31
0.0
  0
ARC
  5
C13E
330
BFD3
100
AcDbEntity
  8
1
  6
Continuous
100
AcDbCircle
 10
383.24991
 20
216.072363
 30
0.0
 40
9.53125
100
AcDbArc
 50
243.5189599999999
 51
296.48104
  0
LINE
  5
C13F
330
BFD3
100
AcDbEntity
  8
1
  6
Continuous
100
AcDbLine
 10
387.49991
 20
211.541113
 30
0.0
 11
370.49991
 21
211.541113
 31
0.0
  0
LINE
  5
C140
330
BFD3
100
AcDbEntity
  8
1
  6
Continuous
100
AcDbLine
 10
387.49991
 20
206.541113
 30
0.0
 11
370.49991
 21
206.541113
 31
0.0
  0
LINE
  5
C141
330
BFD3
100
AcDbEntity
  8
1
  6
Continuous
100
AcDbLine
 10
389.49991
 20
206.0411129999998
 30
0.0
 11
368.49991
 21
206.0411129999998
 31
0.0
  0
LINE
  5
C142
330
BFD3
100
AcDbEntity
  8
1
  6
Continuous
100
AcDbLine
 10
383.9999099999998
 20
214.5411129999998
 30
0.0
 11
373.9999099999999
 21
214.5411129999998
 31
0.0
  0
ARC
  5
C143
330
BFD3
100
AcDbEntity
  8
1
  6
Continuous
100
AcDbCircle
 10
374.74991
 20
216.072363
 30
0.0
 40
9.53125
100
AcDbArc
 50
243.5189599999999
 51
296.48104
  0
LINE
  5
C144
330
BFD3
100
AcDbEntity
  8
1
  6
Continuous
100
AcDbLine
 10
370.49991
 20
206.541113
 30
0.0
 11
370.49991
 21
211.541113
 31
0.0
  0
LINE
  5
C145
330
BFD3
100
AcDbEntity
  8
1
  6
Continuous
100
AcDbLine
 10
378.99991
 20
211.541113
 30
0.0
 11
378.99991
 21
207.5411129999999
 31
0.0
  0
LINE
  5
C146
330
BFD3
100
AcDbEntity
  8
1
  6
Continuous
100
AcDbLine
 10
375.49991
 20
206.055805
 30
0.0
 11
375.49991
 21
206.541113
 31
0.0
  0
LINE
  5
C147
330
BFD3
100
AcDbEntity
  8
2
  6
Continuous
100
AcDbLine
 10
373.9999099999999
 20
213.1346879999999
 30
0.0
 11
374.81191
 21
214.5411129999998
 31
0.0
  0
LINE
  5
C148
330
BFD3
100
AcDbEntity
  8
1
  6
Continuous
100
AcDbLine
 10
387.49991
 20
206.541113
 30
0.0
 11
387.49991
 21
211.541113
 31
0.0
  0
LINE
  5
C149
330
BFD3
100
AcDbEntity
  8
1
  6
Continuous
100
AcDbLine
 10
382.4999099999999
 20
206.541113
 30
0.0
 11
382.4999099999999
 21
206.055805
 31
0.0
  0
LINE
  5
C14A
330
BFD3
100
AcDbEntity
  8
2
  6
Continuous
100
AcDbLine
 10
383.9999099999998
 20
213.1346879999999
 30
0.0
 11
383.18791
 21
214.5411129999998
 31
0.0
  0
ARC
  5
C14B
330
BFD3
100
AcDbEntity
  8
1
  6
Continuous
100
AcDbCircle
 10
378.99991
 20
234.82445
 30
0.0
 40
5.083332999999997
100
AcDbArc
 50
217.340992
 51
322.6590079999998
  0
LINE
  5
C14C
330
BFD3
100
AcDbEntity
  8
1
  6
Continuous
100
AcDbLine
 10
385.062088
 20
229.741117
 30
0.0
 11
372.9377319999999
 21
229.741117
 31
0.0
  0
ARC
  5
C14D
330
BFD3
100
AcDbEntity
  8
1
  6
Continuous
100
AcDbCircle
 10
372.9377319999999
 20
231.76195
 30
0.0
 40
2.020833
100
AcDbArc
 50
236.8756809999999
 51
359.409312
  0
LINE
  5
C14E
330
BFD3
100
AcDbEntity
  8
1
  6
Continuous
100
AcDbLine
 10
371.833433
 20
230.0695289999999
 30
0.0
 11
370.917006
 21
230.5986279999999
 31
0.0
  0
LINE
  5
C14F
330
BFD3
100
AcDbEntity
  8
1
  6
Continuous
100
AcDbLine
 10
374.958458
 20
231.741117
 30
0.0
 11
374.958458
 21
249.2411129999999
 31
0.0
  0
LINE
  5
C150
330
BFD3
100
AcDbEntity
  8
1
  6
Continuous
100
AcDbLine
 10
370.917006
 20
230.5986279999999
 30
0.0
 11
370.917006
 21
249.2411129999999
 31
0.0
  0
LINE
  5
C151
330
BFD3
100
AcDbEntity
  8
1
  6
Continuous
100
AcDbLine
 10
386.166387
 20
230.0695289999999
 30
0.0
 11
387.082814
 21
230.5986279999999
 31
0.0
  0
ARC
  5
C152
330
BFD3
100
AcDbEntity
  8
1
  6
Continuous
100
AcDbCircle
 10
385.062088
 20
231.76195
 30
0.0
 40
2.020833
100
AcDbArc
 50
180.5906879999998
 51
303.124319
  0
LINE
  5
C153
330
BFD3
100
AcDbEntity
  8
1
  6
Continuous
100
AcDbLine
 10
383.0413619999998
 20
231.741117
 30
0.0
 11
383.0413619999998
 21
249.2411129999999
 31
0.0
  0
LINE
  5
C154
330
BFD3
100
AcDbEntity
  8
1
  6
Continuous
100
AcDbLine
 10
387.082814
 20
230.5986279999999
 30
0.0
 11
387.082814
 21
249.2411129999999
 31
0.0
  0
LINE
  5
C155
330
BFD3
100
AcDbEntity
  8
1
  6
Continuous
100
AcDbLine
 10
374.958458
 20
264.2411129999999
 30
0.0
 11
374.958458
 21
271.2411169999999
 31
0.0
  0
LINE
  5
C156
330
BFD3
100
AcDbEntity
  8
1
  6
Continuous
100
AcDbLine
 10
370.917006
 20
264.2411129999999
 30
0.0
 11
370.917006
 21
271.2411169999999
 31
0.0
  0
LINE
  5
C157
330
BFD3
100
AcDbEntity
  8
1
  6
Continuous
100
AcDbLine
 10
387.082814
 20
264.2411129999999
 30
0.0
 11
387.082814
 21
271.2411169999999
 31
0.0
  0
LINE
  5
C158
330
BFD3
100
AcDbEntity
  8
1
  6
Continuous
100
AcDbLine
 10
383.0413619999998
 20
264.2411129999999
 30
0.0
 11
383.0413619999998
 21
271.2411169999999
 31
0.0
  0
LINE
  5
C159
330
BFD3
100
AcDbEntity
  8
4
  6
CENTER
100
AcDbLine
 10
259.0
 20
400.932222
 30
0.0
 11
259.0
 21
359.2322219999999
 31
0.0
  0
LINE
  5
C15A
330
BFD3
100
AcDbEntity
  8
1
  6
Continuous
100
AcDbLine
 10
88.817778
 20
215.941113
 30
0.0
 11
86.37049799999998
 21
215.941113
 31
0.0
  0
LINE
  5
C15B
330
BFD3
100
AcDbEntity
  8
1
  6
Continuous
100
AcDbLine
 10
55.629502
 20
215.941113
 30
0.0
 11
53.18222200000001
 21
215.941113
 31
0.0
  0
ARC
  5
C15C
330
BFD3
100
AcDbEntity
  8
1
  6
Continuous
100
AcDbCircle
 10
84.690892
 20
255.1325009999999
 30
0.0
 40
2.5
100
AcDbArc
 50
358.8
 51
97.975544
  0
ARC
  5
C15D
330
BFD3
100
AcDbEntity
  8
1
  6
Continuous
100
AcDbCircle
 10
57.309108
 20
255.1325009999999
 30
0.0
 40
2.5
100
AcDbArc
 50
82.024456
 51
181.1999999999999
  0
ARC
  5
C15E
330
BFD3
100
AcDbEntity
  8
1
  6
Continuous
100
AcDbCircle
 10
71.0
 20
352.850885
 30
0.0
 40
96.17280800000001
100
AcDbArc
 50
262.0244559999998
 51
277.975544
  0
ARC
  5
C15F
330
BFD3
100
AcDbEntity
  8
1
  6
Continuous
100
AcDbCircle
 10
84.69104599999999
 20
255.1639009999999
 30
0.0
 40
4.799999999999998
100
AcDbArc
 50
358.8
 51
99.90159900000001
  0
ARC
  5
C160
330
BFD3
100
AcDbEntity
  8
1
  6
Continuous
100
AcDbCircle
 10
57.30895400000001
 20
255.1639009999999
 30
0.0
 40
4.799999999999998
100
AcDbArc
 50
80.09840099999998
 51
181.1999999999999
  0
ARC
  5
C161
330
BFD3
100
AcDbEntity
  8
1
  6
Continuous
100
AcDbCircle
 10
71.0
 20
333.5971279999998
 30
0.0
 40
74.819193
100
AcDbArc
 50
260.0984009999999
 51
279.901599
  0
LINE
  5
C162
330
BFD3
100
AcDbEntity
  8
1
  6
Continuous
100
AcDbLine
 10
52.97135799999999
 20
218.7911129999999
 30
0.0
 11
52.97135799999999
 21
230.291113
 31
0.0
  0
LINE
  5
C163
330
BFD3
100
AcDbEntity
  8
1
  6
Continuous
100
AcDbLine
 10
403.1499099999998
 20
260.2411129999999
 30
0.0
 11
403.1499099999998
 21
241.6246239999999
 31
0.0
  0
LINE
  5
C164
330
BFD3
100
AcDbEntity
  8
1
  6
Continuous
100
AcDbLine
 10
395.044035
 20
248.0997049999998
 30
0.0
 11
394.370408
 21
215.941113
 31
0.0
  0
LINE
  5
C165
330
BFD3
100
AcDbEntity
  8
1
  6
Continuous
100
AcDbLine
 10
389.49991
 20
206.0411129999998
 30
0.0
 11
389.49991
 21
205.5411129999999
 31
0.0
  0
LINE
  5
C166
330
BFD3
100
AcDbEntity
  8
1
  6
Continuous
100
AcDbLine
 10
354.84991
 20
260.2411129999999
 30
0.0
 11
354.84991
 21
241.6246239999999
 31
0.0
  0
LINE
  5
C167
330
BFD3
100
AcDbEntity
  8
1
  6
Continuous
100
AcDbLine
 10
362.9557849999998
 20
248.0997049999998
 30
0.0
 11
363.629412
 21
215.941113
 31
0.0
  0
LINE
  5
C168
330
BFD3
100
AcDbEntity
  8
1
  6
Continuous
100
AcDbLine
 10
368.49991
 20
206.0411129999998
 30
0.0
 11
368.49991
 21
205.5411129999999
 31
0.0
  0
LINE
  5
C169
330
BFD3
100
AcDbEntity
  8
4
  6
CENTER
100
AcDbLine
 10
378.99991
 20
276.24829
 30
0.0
 11
378.99991
 21
193.0411129999999
 31
0.0
  0
LINE
  5
C16A
330
BFD3
100
AcDbEntity
  8
4
  6
CENTER
100
AcDbLine
 10
354.0700709999999
 20
224.5411129999999
 30
0.0
 11
402.917792
 21
224.5411129999999
 31
0.0
  0
LINE
  5
C16B
330
BFD3
100
AcDbEntity
  8
1
  6
Continuous
100
AcDbLine
 10
394.370408
 20
215.941113
 30
0.0
 11
396.8176879999999
 21
215.941113
 31
0.0
  0
LINE
  5
C16C
330
BFD3
100
AcDbEntity
  8
4
  6
CENTER
100
AcDbLine
 10
378.99991
 20
192.8776169999999
 30
0.0
 11
378.99991
 21
190.0411129999999
 31
0.0
  0
LINE
  5
C16D
330
BFD3
100
AcDbEntity
  8
1
  6
Continuous
100
AcDbLine
 10
361.1821319999998
 20
215.941113
 30
0.0
 11
363.629412
 21
215.941113
 31
0.0
  0
LINE
  5
C16E
330
BFD3
100
AcDbEntity
  8
1
  6
Continuous
100
AcDbLine
 10
392.017638
 20
264.2411129999999
 30
0.0
 11
394.1955619999998
 21
266.4190379999999
 31
0.0
  0
LINE
  5
C16F
330
BFD3
100
AcDbEntity
  8
1
  6
Continuous
100
AcDbLine
 10
394.1955619999998
 20
264.2411129999999
 30
0.0
 11
392.017638
 21
266.4190379999999
 31
0.0
  0
LINE
  5
C170
330
BFD3
100
AcDbEntity
  8
1
  6
Continuous
100
AcDbLine
 10
393.431851
 20
264.2411129999999
 30
0.0
 11
395.6097759999997
 21
266.4190379999999
 31
0.0
  0
LINE
  5
C171
330
BFD3
100
AcDbEntity
  8
1
  6
Continuous
100
AcDbLine
 10
395.6097759999997
 20
264.2411129999999
 30
0.0
 11
393.431851
 21
266.4190379999999
 31
0.0
  0
LINE
  5
C172
330
BFD3
100
AcDbEntity
  8
1
  6
Continuous
100
AcDbLine
 10
401.6620469999998
 20
264.2411129999999
 30
0.0
 11
356.3370469999999
 21
264.2411129999999
 31
0.0
  0
LINE
  5
C173
330
BFD3
100
AcDbEntity
  8
1
  6
Continuous
100
AcDbLine
 10
424.9999099999998
 20
274.041113
 30
0.0
 11
332.999906
 21
274.041113
 31
0.0
  0
LINE
  5
C174
330
BFD3
100
AcDbEntity
  8
1
  6
Continuous
100
AcDbLine
 10
357.06727
 20
269.6411109999999
 30
0.0
 11
370.917006
 21
269.6411109999999
 31
0.0
  0
LINE
  5
C175
330
BFD3
100
AcDbEntity
  8
1
  6
Continuous
100
AcDbLine
 10
423.4999099999998
 20
271.7411169999999
 30
0.0
 11
332.999906
 21
271.7411169999999
 31
0.0
  0
LINE
  5
C176
330
BFD3
100
AcDbEntity
  8
1
  6
Continuous
100
AcDbLine
 10
356.067047
 20
268.404037
 30
0.0
 11
370.917006
 21
268.404037
 31
0.0
  0
LINE
  5
C177
330
BFD3
100
AcDbEntity
  8
1
  6
Continuous
100
AcDbLine
 10
356.3370469999999
 20
266.4190379999999
 30
0.0
 11
370.917006
 21
266.4190379999999
 31
0.0
  0
LINE
  5
C178
330
BFD3
100
AcDbEntity
  8
1
  6
Continuous
100
AcDbLine
 10
335.99991
 20
271.2411169999999
 30
0.0
 11
421.9999099999998
 21
271.2411169999999
 31
0.0
  0
ARC
  5
C179
330
BFD3
100
AcDbEntity
  8
1
  6
Continuous
100
AcDbCircle
 10
399.14991
 20
260.2411129999999
 30
0.0
 40
4.0
100
AcDbArc
 50
0.0
 51
90.0
  0
ARC
  5
C17A
330
BFD3
100
AcDbEntity
  8
1
  6
Continuous
100
AcDbCircle
 10
421.9999099999998
 20
273.7411169999999
 30
0.0
 40
2.5
100
AcDbArc
 50
270.0
 51
306.869904
  0
LINE
  5
C17B
330
BFD3
100
AcDbEntity
  8
1
  6
Continuous
100
AcDbLine
 10
424.9999099999998
 20
271.7411169999999
 30
0.0
 11
423.4999099999998
 21
271.7411169999999
 31
0.0
  0
LINE
  5
C17C
330
BFD3
100
AcDbEntity
  8
1
  6
Continuous
100
AcDbLine
 10
424.9999099999998
 20
271.7411169999999
 30
0.0
 11
424.9999099999998
 21
274.041113
 31
0.0
  0
LINE
  5
C17D
330
BFD3
100
AcDbEntity
  8
4
  6
CENTER
100
AcDbLine
 10
416.49991
 20
268.7409609999999
 30
0.0
 11
416.49991
 21
276.020799
 31
0.0
  0
ARC
  5
C17E
330
BFD3
100
AcDbEntity
  8
1
  6
Continuous
100
AcDbCircle
 10
401.6680759999998
 20
267.484185
 30
0.0
 40
0.9569799999999998
100
AcDbArc
 50
24.04026499999999
 51
73.98808699999998
  0
LINE
  5
C17F
330
BFD3
100
AcDbEntity
  8
1
  6
Continuous
100
AcDbLine
 10
401.932047
 20
268.404037
 30
0.0
 11
401.117047
 21
268.404037
 31
0.0
  0
LINE
  5
C180
330
BFD3
100
AcDbEntity
  8
1
  6
Continuous
100
AcDbLine
 10
401.117047
 20
268.404037
 30
0.0
 11
400.947047
 21
268.764037
 31
0.0
  0
ARC
  5
C181
330
BFD3
100
AcDbEntity
  8
1
  6
Continuous
100
AcDbCircle
 10
396.082622
 20
264.910212
 30
0.0
 40
6.206012999999998
100
AcDbArc
 50
38.387915
 51
49.66827999999999
  0
ARC
  5
C182
330
BFD3
100
AcDbEntity
  8
1
  6
Continuous
100
AcDbCircle
 10
400.9799669999998
 20
273.6411109999999
 30
0.0
 40
4.0
100
AcDbArc
 50
269.99762
 51
323.1302119999999
  0
LINE
  5
C183
330
BFD3
100
AcDbEntity
  8
1
  6
Continuous
100
AcDbLine
 10
401.7920469999998
 20
266.779038
 30
0.0
 11
401.6620469999998
 21
266.4190379999999
 31
0.0
  0
LINE
  5
C184
330
BFD3
100
AcDbEntity
  8
1
  6
Continuous
100
AcDbLine
 10
401.6620469999998
 20
266.4190379999999
 30
0.0
 11
401.6620469999998
 21
264.2411129999999
 31
0.0
  0
LINE
  5
C185
330
BFD3
100
AcDbEntity
  8
1
  6
Continuous
100
AcDbLine
 10
400.502919
 20
264.2411129999999
 30
0.0
 11
401.6620469999998
 21
265.4002409999999
 31
0.0
  0
LINE
  5
C186
330
BFD3
100
AcDbEntity
  8
1
  6
Continuous
100
AcDbLine
 10
401.6620469999998
 20
265.2599099999998
 30
0.0
 11
400.502919
 21
266.4190379999999
 31
0.0
  0
ARC
  5
C187
330
BFD3
100
AcDbEntity
  8
1
  6
Continuous
100
AcDbCircle
 10
398.3305649999999
 20
269.9542649999999
 30
0.0
 40
4.697225
100
AcDbArc
 50
317.4697509999999
 51
333.713305
  0
LINE
  5
C188
330
BFD3
100
AcDbEntity
  8
1
  6
Continuous
100
AcDbLine
 10
396.2602779999999
 20
264.2411129999999
 30
0.0
 11
398.4382029999999
 21
266.4190379999999
 31
0.0
  0
LINE
  5
C189
330
BFD3
100
AcDbEntity
  8
1
  6
Continuous
100
AcDbLine
 10
398.4382029999999
 20
264.2411129999999
 30
0.0
 11
396.2602779999999
 21
266.4190379999999
 31
0.0
  0
LINE
  5
C18A
330
BFD3
100
AcDbEntity
  8
1
  6
Continuous
100
AcDbLine
 10
394.846065
 20
264.2411129999999
 30
0.0
 11
397.0239899999999
 21
266.4190379999999
 31
0.0
  0
LINE
  5
C18B
330
BFD3
100
AcDbEntity
  8
1
  6
Continuous
100
AcDbLine
 10
397.0239899999999
 20
264.2411129999999
 30
0.0
 11
394.846065
 21
266.4190379999999
 31
0.0
  0
LINE
  5
C18C
330
BFD3
100
AcDbEntity
  8
1
  6
Continuous
100
AcDbLine
 10
397.6744919999999
 20
264.2411129999999
 30
0.0
 11
399.8524169999998
 21
266.4190379999999
 31
0.0
  0
LINE
  5
C18D
330
BFD3
100
AcDbEntity
  8
1
  6
Continuous
100
AcDbLine
 10
399.0887049999998
 20
264.2411129999999
 30
0.0
 11
401.2666299999998
 21
266.4190379999999
 31
0.0
  0
LINE
  5
C18E
330
BFD3
100
AcDbEntity
  8
1
  6
Continuous
100
AcDbLine
 10
399.8524169999998
 20
264.2411129999999
 30
0.0
 11
397.6744919999999
 21
266.4190379999999
 31
0.0
  0
LINE
  5
C18F
330
BFD3
100
AcDbEntity
  8
1
  6
Continuous
100
AcDbLine
 10
401.2666299999998
 20
264.2411129999999
 30
0.0
 11
399.0887049999998
 21
266.4190379999999
 31
0.0
  0
LINE
  5
C190
330
BFD3
100
AcDbEntity
  8
1
  6
Continuous
100
AcDbLine
 10
360.904939
 20
264.2411129999999
 30
0.0
 11
363.0828639999998
 21
266.4190379999999
 31
0.0
  0
LINE
  5
C191
330
BFD3
100
AcDbEntity
  8
1
  6
Continuous
100
AcDbLine
 10
363.0828639999998
 20
264.2411129999999
 30
0.0
 11
360.904939
 21
266.4190379999999
 31
0.0
  0
LINE
  5
C192
330
BFD3
100
AcDbEntity
  8
1
  6
Continuous
100
AcDbLine
 10
387.7749969999999
 20
264.2411129999999
 30
0.0
 11
389.952922
 21
266.4190379999999
 31
0.0
  0
LINE
  5
C193
330
BFD3
100
AcDbEntity
  8
1
  6
Continuous
100
AcDbLine
 10
389.189211
 20
264.2411129999999
 30
0.0
 11
391.367135
 21
266.4190379999999
 31
0.0
  0
LINE
  5
C194
330
BFD3
100
AcDbEntity
  8
1
  6
Continuous
100
AcDbLine
 10
389.952922
 20
264.2411129999999
 30
0.0
 11
387.7749969999999
 21
266.4190379999999
 31
0.0
  0
LINE
  5
C195
330
BFD3
100
AcDbEntity
  8
1
  6
Continuous
100
AcDbLine
 10
391.367135
 20
264.2411129999999
 30
0.0
 11
389.189211
 21
266.4190379999999
 31
0.0
  0
LINE
  5
C196
330
BFD3
100
AcDbEntity
  8
1
  6
Continuous
100
AcDbLine
 10
387.082814
 20
264.9631439999997
 30
0.0
 11
388.538708
 21
266.4190379999999
 31
0.0
  0
LINE
  5
C197
330
BFD3
100
AcDbEntity
  8
1
  6
Continuous
100
AcDbLine
 10
388.538708
 20
264.2411129999999
 30
0.0
 11
387.082814
 21
265.6970069999999
 31
0.0
  0
LINE
  5
C198
330
BFD3
100
AcDbEntity
  8
1
  6
Continuous
100
AcDbLine
 10
390.603424
 20
264.2411129999999
 30
0.0
 11
392.7813489999999
 21
266.4190379999999
 31
0.0
  0
LINE
  5
C199
330
BFD3
100
AcDbEntity
  8
1
  6
Continuous
100
AcDbLine
 10
392.7813489999999
 20
264.2411129999999
 30
0.0
 11
390.603424
 21
266.4190379999999
 31
0.0
  0
LINE
  5
C19A
330
BFD3
100
AcDbEntity
  8
1
  6
Continuous
100
AcDbLine
 10
367.9760069999999
 20
264.2411129999999
 30
0.0
 11
370.153932
 21
266.4190379999999
 31
0.0
  0
LINE
  5
C19B
330
BFD3
100
AcDbEntity
  8
1
  6
Continuous
100
AcDbLine
 10
370.153932
 20
264.2411129999999
 30
0.0
 11
367.9760069999999
 21
266.4190379999999
 31
0.0
  0
LINE
  5
C19C
330
BFD3
100
AcDbEntity
  8
1
  6
Continuous
100
AcDbLine
 10
369.390221
 20
264.2411129999999
 30
0.0
 11
370.917006
 21
265.7678989999999
 31
0.0
  0
LINE
  5
C19D
330
BFD3
100
AcDbEntity
  8
1
  6
Continuous
100
AcDbLine
 10
370.917006
 20
264.8922519999999
 30
0.0
 11
369.390221
 21
266.4190379999999
 31
0.0
  0
LINE
  5
C19E
330
BFD3
100
AcDbEntity
  8
1
  6
Continuous
100
AcDbLine
 10
363.7333659999998
 20
264.2411129999999
 30
0.0
 11
365.911291
 21
266.4190379999999
 31
0.0
  0
LINE
  5
C19F
330
BFD3
100
AcDbEntity
  8
1
  6
Continuous
100
AcDbLine
 10
365.911291
 20
264.2411129999999
 30
0.0
 11
363.7333659999998
 21
266.4190379999999
 31
0.0
  0
LINE
  5
C1A0
330
BFD3
100
AcDbEntity
  8
1
  6
Continuous
100
AcDbLine
 10
362.3191529999999
 20
264.2411129999999
 30
0.0
 11
364.4970779999999
 21
266.4190379999999
 31
0.0
  0
LINE
  5
C1A1
330
BFD3
100
AcDbEntity
  8
1
  6
Continuous
100
AcDbLine
 10
364.4970779999999
 20
264.2411129999999
 30
0.0
 11
362.3191529999999
 21
266.4190379999999
 31
0.0
  0
LINE
  5
C1A2
330
BFD3
100
AcDbEntity
  8
1
  6
Continuous
100
AcDbLine
 10
365.14758
 20
264.2411129999999
 30
0.0
 11
367.3255049999998
 21
266.4190379999999
 31
0.0
  0
LINE
  5
C1A3
330
BFD3
100
AcDbEntity
  8
1
  6
Continuous
100
AcDbLine
 10
366.561794
 20
264.2411129999999
 30
0.0
 11
368.739718
 21
266.4190379999999
 31
0.0
  0
LINE
  5
C1A4
330
BFD3
100
AcDbEntity
  8
1
  6
Continuous
100
AcDbLine
 10
367.3255049999998
 20
264.2411129999999
 30
0.0
 11
365.14758
 21
266.4190379999999
 31
0.0
  0
LINE
  5
C1A5
330
BFD3
100
AcDbEntity
  8
1
  6
Continuous
100
AcDbLine
 10
368.739718
 20
264.2411129999999
 30
0.0
 11
366.561794
 21
266.4190379999999
 31
0.0
  0
ARC
  5
C1A6
330
BFD3
100
AcDbEntity
  8
1
  6
Continuous
100
AcDbCircle
 10
358.84991
 20
260.2411129999999
 30
0.0
 40
4.0
100
AcDbArc
 50
90.0
 51
180.0
  0
LINE
  5
C1A7
330
BFD3
100
AcDbEntity
  8
1
  6
Continuous
100
AcDbLine
 10
359.4907259999998
 20
264.2411129999999
 30
0.0
 11
361.66865
 21
266.4190379999999
 31
0.0
  0
LINE
  5
C1A8
330
BFD3
100
AcDbEntity
  8
1
  6
Continuous
100
AcDbLine
 10
361.66865
 20
264.2411129999999
 30
0.0
 11
359.4907259999998
 21
266.4190379999999
 31
0.0
  0
ARC
  5
C1A9
330
BFD3
100
AcDbEntity
  8
1
  6
Continuous
100
AcDbCircle
 10
356.3310179999998
 20
267.484185
 30
0.0
 40
0.9569799999999998
100
AcDbArc
 50
106.011913
 51
155.9597349999999
  0
LINE
  5
C1AA
330
BFD3
100
AcDbEntity
  8
1
  6
Continuous
100
AcDbLine
 10
356.8820469999997
 20
268.404037
 30
0.0
 11
357.052047
 21
268.764037
 31
0.0
  0
ARC
  5
C1AB
330
BFD3
100
AcDbEntity
  8
1
  6
Continuous
100
AcDbCircle
 10
361.916472
 20
264.910212
 30
0.0
 40
6.206012999999998
100
AcDbArc
 50
130.3318289999999
 51
141.612085
  0
ARC
  5
C1AC
330
BFD3
100
AcDbEntity
  8
1
  6
Continuous
100
AcDbCircle
 10
357.019854
 20
273.6411109999999
 30
0.0
 40
4.0
100
AcDbArc
 50
216.8697879999997
 51
270.0023799999997
  0
LINE
  5
C1AD
330
BFD3
100
AcDbEntity
  8
1
  6
Continuous
100
AcDbLine
 10
356.207047
 20
266.779038
 30
0.0
 11
356.3370469999999
 21
266.4190379999999
 31
0.0
  0
LINE
  5
C1AE
330
BFD3
100
AcDbEntity
  8
1
  6
Continuous
100
AcDbLine
 10
356.3370469999999
 20
266.4190379999999
 30
0.0
 11
356.3370469999999
 21
264.2411129999999
 31
0.0
  0
LINE
  5
C1AF
330
BFD3
100
AcDbEntity
  8
1
  6
Continuous
100
AcDbLine
 10
357.42601
 20
266.4190379999999
 30
0.0
 11
356.3370469999999
 21
265.330075
 31
0.0
  0
LINE
  5
C1B0
330
BFD3
100
AcDbEntity
  8
1
  6
Continuous
100
AcDbLine
 10
357.42601
 20
264.2411129999999
 30
0.0
 11
356.3370469999999
 21
265.330075
 31
0.0
  0
ARC
  5
C1B1
330
BFD3
100
AcDbEntity
  8
1
  6
Continuous
100
AcDbCircle
 10
359.6685289999999
 20
269.9542649999999
 30
0.0
 40
4.697225
100
AcDbArc
 50
206.286695
 51
222.530249
  0
LINE
  5
C1B2
330
BFD3
100
AcDbEntity
  8
1
  6
Continuous
100
AcDbLine
 10
356.662299
 20
264.2411129999999
 30
0.0
 11
358.8402229999999
 21
266.4190379999999
 31
0.0
  0
LINE
  5
C1B3
330
BFD3
100
AcDbEntity
  8
1
  6
Continuous
100
AcDbLine
 10
358.0765119999999
 20
264.2411129999999
 30
0.0
 11
360.2544369999998
 21
266.4190379999999
 31
0.0
  0
LINE
  5
C1B4
330
BFD3
100
AcDbEntity
  8
1
  6
Continuous
100
AcDbLine
 10
358.8402229999999
 20
264.2411129999999
 30
0.0
 11
356.662299
 21
266.4190379999999
 31
0.0
  0
LINE
  5
C1B5
330
BFD3
100
AcDbEntity
  8
1
  6
Continuous
100
AcDbLine
 10
360.2544369999998
 20
264.2411129999999
 30
0.0
 11
358.0765119999999
 21
266.4190379999999
 31
0.0
  0
ARC
  5
C1B6
330
BFD3
100
AcDbEntity
  8
1
  6
Continuous
100
AcDbCircle
 10
335.99991
 20
273.7411169999999
 30
0.0
 40
2.5
100
AcDbArc
 50
233.130096
 51
270.0
  0
LINE
  5
C1B7
330
BFD3
100
AcDbEntity
  8
4
  6
CENTER
100
AcDbLine
 10
341.49991
 20
268.7409609999999
 30
0.0
 11
341.49991
 21
276.24829
 31
0.0
  0
LINE
  5
C1B8
330
BFD3
100
AcDbEntity
  8
1
  6
Continuous
100
AcDbLine
 10
332.999906
 20
271.7411169999999
 30
0.0
 11
332.999906
 21
274.041113
 31
0.0
  0
LINE
  5
C1B9
330
BFD3
100
AcDbEntity
  8
1
  6
Continuous
100
AcDbLine
 10
395.810375
 20
249.2411129999999
 30
0.0
 11
362.1894449999999
 21
249.2411129999999
 31
0.0
  0
ARC
  5
C1BA
330
BFD3
100
AcDbEntity
  8
1
  6
Continuous
100
AcDbCircle
 10
385.9999099999998
 20
260.2411129999999
 30
0.0
 40
4.0
100
AcDbArc
 50
0.0
 51
90.0
  0
LINE
  5
C1BB
330
BFD3
100
AcDbEntity
  8
1
  6
Continuous
100
AcDbLine
 10
389.99991
 20
260.2411129999999
 30
0.0
 11
389.99991
 21
249.2411129999999
 31
0.0
  0
ARC
  5
C1BC
330
BFD3
100
AcDbEntity
  8
1
  6
Continuous
100
AcDbCircle
 10
371.9999099999999
 20
260.2411129999999
 30
0.0
 40
4.0
100
AcDbArc
 50
90.0
 51
180.0
  0
LINE
  5
C1BD
330
BFD3
100
AcDbEntity
  8
1
  6
Continuous
100
AcDbLine
 10
367.9999099999998
 20
260.2411129999999
 30
0.0
 11
367.9999099999998
 21
249.2411129999999
 31
0.0
  0
LINE
  5
C1BE
330
BFD3
100
AcDbEntity
  8
1
  6
Continuous
100
AcDbLine
 10
387.082814
 20
269.6411109999999
 30
0.0
 11
400.9799669999998
 21
269.6411109999999
 31
0.0
  0
LINE
  5
C1BF
330
BFD3
100
AcDbEntity
  8
1
  6
Continuous
100
AcDbLine
 10
387.082814
 20
268.404037
 30
0.0
 11
401.117047
 21
268.404037
 31
0.0
  0
LINE
  5
C1C0
330
BFD3
100
AcDbEntity
  8
1
  6
Continuous
100
AcDbLine
 10
387.082814
 20
266.4190379999999
 30
0.0
 11
401.6620469999998
 21
266.4190379999999
 31
0.0
  0
ARC
  5
C1C1
330
BFD3
100
AcDbEntity
  8
1
  6
Continuous
100
AcDbCircle
 10
207.8729159999999
 20
220.4411129999999
 30
0.0
 40
4.5
100
AcDbArc
 50
270.0
 51
330.5524679999999
  0
ARC
  5
C1C2
330
BFD3
100
AcDbEntity
  8
1
  6
Continuous
100
AcDbCircle
 10
239.808337
 20
231.241113
 30
0.0
 40
18.0
100
AcDbArc
 50
90.0
 51
150.552468
  0
ARC
  5
C1C3
330
BFD3
100
AcDbEntity
  8
1
  6
Continuous
100
AcDbCircle
 10
423.752857
 20
241.6246239999999
 30
0.0
 40
68.902947
100
AcDbArc
 50
180.0
 51
200.7320479999999
  0
ARC
  5
C1C4
330
BFD3
100
AcDbEntity
  8
1
  6
Continuous
100
AcDbCircle
 10
334.246963
 20
241.6246239999999
 30
0.0
 40
68.902947
100
AcDbArc
 50
339.267952
 51
0.0
  0
ARC
  5
C1C5
330
BFD3
100
AcDbEntity
  8
1
  6
Continuous
100
AcDbCircle
 10
396.8176879999999
 20
217.941113
 30
0.0
 40
2.0
100
AcDbArc
 50
270.0
 51
339.267952
  0
ARC
  5
C1C6
330
BFD3
100
AcDbEntity
  8
1
  6
Continuous
100
AcDbCircle
 10
361.1821319999998
 20
217.941113
 30
0.0
 40
2.0
100
AcDbArc
 50
200.7320479999999
 51
270.0
  0
ARC
  5
C1C7
330
BFD3
100
AcDbEntity
  8
1
  6
Continuous
100
AcDbCircle
 10
334.246963
 20
241.6246239999999
 30
0.0
 40
66.602947
100
AcDbArc
 50
338.1939609999997
 51
357.0575939999998
  0
ARC
  5
C1C8
330
BFD3
100
AcDbEntity
  8
1
  6
Continuous
100
AcDbCircle
 10
423.752857
 20
241.6246239999999
 30
0.0
 40
66.602947
100
AcDbArc
 50
182.942406
 51
201.806039
  0
ARC
  5
C1C9
330
BFD3
100
AcDbEntity
  8
1
  6
Continuous
100
AcDbCircle
 10
363.308242
 20
217.441113
 30
0.0
 40
1.5
100
AcDbArc
 50
201.806039
 51
270.0
  0
ARC
  5
C1CA
330
BFD3
100
AcDbEntity
  8
1
  6
Continuous
100
AcDbCircle
 10
394.6915779999998
 20
217.441113
 30
0.0
 40
1.5
100
AcDbArc
 50
270.0
 51
338.1939609999997
  0
ARC
  5
C1CB
330
BFD3
100
AcDbEntity
  8
1
  6
Continuous
100
AcDbCircle
 10
367.723874
 20
238.7447419999999
 30
0.0
 40
10.5
100
AcDbArc
 50
88.49356899999998
 51
182.942406
  0
ARC
  5
C1CC
330
BFD3
100
AcDbEntity
  8
1
  6
Continuous
100
AcDbCircle
 10
367.723874
 20
238.7447419999999
 30
0.0
 40
12.8
100
AcDbArc
 50
135.1976789999999
 51
182.942406
  0
ARC
  5
C1CD
330
BFD3
100
AcDbEntity
  8
1
  6
Continuous
100
AcDbCircle
 10
362.1894449999999
 20
244.2411129999999
 30
0.0
 40
5.0
100
AcDbArc
 50
90.0
 51
135.1976789999999
  0
ARC
  5
C1CE
330
BFD3
100
AcDbEntity
  8
1
  6
Continuous
100
AcDbCircle
 10
390.275946
 20
238.7447419999999
 30
0.0
 40
10.5
100
AcDbArc
 50
357.0575939999998
 51
91.50643100000001
  0
ARC
  5
C1CF
330
BFD3
100
AcDbEntity
  8
1
  6
Continuous
100
AcDbCircle
 10
395.810375
 20
244.2411129999999
 30
0.0
 40
5.0
100
AcDbArc
 50
44.802321
 51
90.0
  0
ARC
  5
C1D0
330
BFD3
100
AcDbEntity
  8
1
  6
Continuous
100
AcDbCircle
 10
390.275946
 20
238.7447419999999
 30
0.0
 40
12.8
100
AcDbArc
 50
357.0575939999998
 51
44.802321
  0
LINE
  5
C1D1
330
BFD3
100
AcDbEntity
  8
1
  6
Continuous
100
AcDbLine
 10
46.85
 20
260.2411129999999
 30
0.0
 11
46.85
 21
241.6246239999999
 31
0.0
  0
LINE
  5
C1D2
330
BFD3
100
AcDbEntity
  8
1
  6
Continuous
100
AcDbLine
 10
95.15
 20
260.2411129999999
 30
0.0
 11
95.15
 21
241.6246239999999
 31
0.0
  0
ARC
  5
C1D3
330
BFD3
100
AcDbEntity
  8
1
  6
Continuous
100
AcDbCircle
 10
26.247053
 20
241.6246239999999
 30
0.0
 40
68.902947
100
AcDbArc
 50
339.267952
 51
0.0
  0
ARC
  5
C1D4
330
BFD3
100
AcDbEntity
  8
1
  6
Continuous
100
AcDbCircle
 10
115.7529469999999
 20
241.6246239999999
 30
0.0
 40
68.902947
100
AcDbArc
 50
180.0
 51
194.2564509999997
  0
ARC
  5
C1D5
330
BFD3
100
AcDbEntity
  8
1
  6
Continuous
100
AcDbCircle
 10
53.18222200000001
 20
217.941113
 30
0.0
 40
2.0
100
AcDbArc
 50
200.7320479999999
 51
270.0
  0
ARC
  5
C1D6
330
BFD3
100
AcDbEntity
  8
1
  6
Continuous
100
AcDbCircle
 10
88.817778
 20
217.941113
 30
0.0
 40
2.0
100
AcDbArc
 50
270.0
 51
339.267952
  0
ARC
  5
C1D7
330
BFD3
100
AcDbEntity
  8
1
  6
Continuous
100
AcDbCircle
 10
115.7529469999999
 20
241.6246239999999
 30
0.0
 40
68.902947
100
AcDbArc
 50
199.3529559999998
 51
200.7320479999999
  0
ARC
  5
C1D8
330
BFD3
100
AcDbEntity
  8
1
  6
Continuous
100
AcDbCircle
 10
390.5286419999998
 20
224.5411129999999
 30
0.0
 40
10.5
100
AcDbArc
 50
326.7961769999997
 51
0.631053
  0
LINE
  5
C1D9
330
BFD3
100
AcDbEntity
  8
1
  6
Continuous
100
AcDbLine
 10
399.3142839999999
 20
218.956147
 30
0.0
 11
399.3142839999999
 21
218.7911129999999
 31
0.0
  0
LINE
  5
C1DA
330
BFD3
100
AcDbEntity
  8
1
  6
Continuous
100
AcDbLine
 10
399.3142839999999
 20
218.7911129999999
 30
0.0
 11
399.256554
 21
218.7911129999999
 31
0.0
  0
LINE
  5
C1DB
330
BFD3
100
AcDbEntity
  8
1
  6
Continuous
100
AcDbLine
 10
52.15009000000002
 20
199.5411129999999
 30
0.0
 11
52.15009000000002
 21
202.541113
 31
0.0
  0
LINE
  5
C1DC
330
BFD3
100
AcDbEntity
  8
1
  6
Continuous
100
AcDbLine
 10
88.25008999999999
 20
193.0411129999999
 30
0.0
 11
53.75009
 21
193.0411129999999
 31
0.0
  0
LINE
  5
C1DD
330
BFD3
100
AcDbEntity
  8
1
  6
Continuous
100
AcDbLine
 10
89.85009000000003
 20
199.5411129999999
 30
0.0
 11
83.49999999999999
 21
199.5411129999999
 31
0.0
  0
LINE
  5
C1DE
330
BFD3
100
AcDbEntity
  8
1
  6
Continuous
100
AcDbLine
 10
53.75009
 20
199.5411129999999
 30
0.0
 11
53.75009
 21
193.0411129999999
 31
0.0
  0
LINE
  5
C1DF
330
BFD3
100
AcDbEntity
  8
1
  6
Continuous
100
AcDbLine
 10
86.85008999999999
 20
205.5411129999999
 30
0.0
 11
83.49999999999999
 21
205.5411129999999
 31
0.0
  0
ARC
  5
C1E0
330
BFD3
100
AcDbEntity
  8
1
  6
Continuous
100
AcDbCircle
 10
55.15009
 20
202.541113
 30
0.0
 40
3.0
100
AcDbArc
 50
90.0
 51
180.0
  0
LINE
  5
C1E1
330
BFD3
100
AcDbEntity
  8
1
  6
Continuous
100
AcDbLine
 10
89.85009000000003
 20
202.541113
 30
0.0
 11
89.85009000000003
 21
199.5411129999999
 31
0.0
  0
LINE
  5
C1E2
330
BFD3
100
AcDbEntity
  8
1
  6
Continuous
100
AcDbLine
 10
88.25008999999999
 20
199.5411129999999
 30
0.0
 11
88.25008999999999
 21
193.0411129999999
 31
0.0
  0
ARC
  5
C1E3
330
BFD3
100
AcDbEntity
  8
1
  6
Continuous
100
AcDbCircle
 10
86.85008999999999
 20
202.541113
 30
0.0
 40
3.0
100
AcDbArc
 50
0.0
 51
90.0
  0
LINE
  5
C1E4
330
BFD3
100
AcDbEntity
  8
1
  6
Continuous
100
AcDbLine
 10
58.5
 20
205.5411129999999
 30
0.0
 11
55.15009
 21
205.5411129999999
 31
0.0
  0
LINE
  5
C1E5
330
BFD3
100
AcDbEntity
  8
1
  6
Continuous
100
AcDbLine
 10
58.5
 20
199.5411129999999
 30
0.0
 11
52.15009000000002
 21
199.5411129999999
 31
0.0
  0
ARC
  5
C1E6
330
BFD3
100
AcDbEntity
  8
1
  6
Continuous
100
AcDbCircle
 10
82.276036
 20
238.7447419999999
 30
0.0
 40
10.5
100
AcDbArc
 50
62.992722
 51
83.30592699999998
  0
ARC
  5
C1E7
330
BFD3
100
AcDbEntity
  8
1
  6
Continuous
100
AcDbCircle
 10
59.723964
 20
238.7447419999999
 30
0.0
 40
10.5
100
AcDbArc
 50
96.69407300000001
 51
117.0072779999999
  0
CIRCLE
  5
C1E8
330
BFD3
100
AcDbEntity
  8
1
  6
Continuous
100
AcDbCircle
 10
198.0
 20
224.5411129999999
 30
0.0
 40
5.0
  0
ARC
  5
C1E9
330
BFD3
100
AcDbEntity
  8
1
  6
Continuous
100
AcDbCircle
 10
518.1914830000001
 20
231.241113
 30
0.0
 40
18.0
100
AcDbArc
 50
29.447532
 51
90.0
  0
LINE
  5
C1EA
330
BFD3
100
AcDbEntity
  8
1
  6
Continuous
100
AcDbLine
 10
572.3073829999997
 20
259.9639009999999
 30
0.0
 11
567.015826
 21
219.852564
 31
0.0
  0
LINE
  5
C1EB
330
BFD3
100
AcDbEntity
  8
4
  6
CENTER
100
AcDbLine
 10
498.99982
 20
276.233646
 30
0.0
 11
498.99982
 21
174.336738
 31
0.0
  0
LINE
  5
C1EC
330
BFD3
100
AcDbEntity
  8
1
  6
Continuous
100
AcDbLine
 10
505.9998199999998
 20
249.2411129999999
 30
0.0
 11
505.9998199999998
 21
230.824117
 31
0.0
  0
LINE
  5
C1ED
330
BFD3
100
AcDbEntity
  8
1
  6
Continuous
100
AcDbLine
 10
491.99982
 20
249.2411129999999
 30
0.0
 11
491.99982
 21
230.824117
 31
0.0
  0
LINE
  5
C1EE
330
BFD3
100
AcDbEntity
  8
1
  6
Continuous
100
AcDbLine
 10
498.99982
 20
249.2411129999999
 30
0.0
 11
498.99982
 21
230.824117
 31
0.0
  0
ARC
  5
C1EF
330
BFD3
100
AcDbEntity
  8
1
  6
Continuous
100
AcDbCircle
 10
559.9998199999999
 20
224.5411129999999
 30
0.0
 40
31.5
100
AcDbArc
 50
148.2053
 51
68.58153
  0
LINE
  5
C1F0
330
BFD3
100
AcDbEntity
  8
4
  6
CENTER
100
AcDbLine
 10
559.9998199999999
 20
190.0411129999999
 30
0.0
 11
559.9998199999999
 21
259.041113
 31
0.0
  0
LINE
  5
C1F1
330
BFD3
100
AcDbEntity
  8
4
  6
CENTER
100
AcDbLine
 10
525.49982
 20
224.5411129999999
 30
0.0
 11
594.4998199999997
 21
224.5411129999999
 31
0.0
  0
ARC
  5
C1F2
330
BFD3
100
AcDbEntity
  8
1
  6
Continuous
100
AcDbCircle
 10
562.554479
 20
220.4411129999999
 30
0.0
 40
4.5
100
AcDbArc
 50
270.0
 51
352.4848379999999
  0
LINE
  5
C1F3
330
BFD3
100
AcDbEntity
  8
1
  6
Continuous
100
AcDbLine
 10
533.865996
 20
240.090387
 30
0.0
 11
546.2082759999998
 21
218.228795
 31
0.0
  0
ARC
  5
C1F4
330
BFD3
100
AcDbEntity
  8
1
  6
Continuous
100
AcDbCircle
 10
550.1269039999998
 20
220.4411129999999
 30
0.0
 40
4.5
100
AcDbArc
 50
209.447532
 51
270.0
  0
LINE
  5
C1F5
330
BFD3
100
AcDbEntity
  8
1
  6
Continuous
100
AcDbLine
 10
550.1269039999998
 20
215.941113
 30
0.0
 11
562.554479
 21
215.941113
 31
0.0
  0
LINE
  5
C1F6
330
BFD3
100
AcDbEntity
  8
1
  6
Continuous
100
AcDbLine
 10
480.14982
 20
202.541113
 30
0.0
 11
480.14982
 21
199.5411129999999
 31
0.0
  0
LINE
  5
C1F7
330
BFD3
100
AcDbEntity
  8
1
  6
Continuous
100
AcDbLine
 10
517.8498199999998
 20
199.5411129999999
 30
0.0
 11
517.8498199999998
 21
202.541113
 31
0.0
  0
LINE
  5
C1F8
330
BFD3
100
AcDbEntity
  8
1
  6
Continuous
100
AcDbLine
 10
480.14982
 20
199.5411129999999
 30
0.0
 11
517.8498199999998
 21
199.5411129999999
 31
0.0
  0
LINE
  5
C1F9
330
BFD3
100
AcDbEntity
  8
1
  6
Continuous
100
AcDbLine
 10
481.74982
 20
193.0411129999999
 30
0.0
 11
516.2498199999999
 21
193.0411129999999
 31
0.0
  0
LINE
  5
C1FA
330
BFD3
100
AcDbEntity
  8
1
  6
Continuous
100
AcDbLine
 10
516.2498199999999
 20
199.5411129999999
 30
0.0
 11
516.2498199999999
 21
193.0411129999999
 31
0.0
  0
LINE
  5
C1FB
330
BFD3
100
AcDbEntity
  8
1
  6
Continuous
100
AcDbLine
 10
481.74982
 20
199.5411129999999
 30
0.0
 11
481.74982
 21
193.0411129999999
 31
0.0
  0
LINE
  5
C1FC
330
BFD3
100
AcDbEntity
  8
1
  6
Continuous
100
AcDbLine
 10
488.9998199999998
 20
211.541113
 30
0.0
 11
508.99982
 21
211.541113
 31
0.0
  0
ARC
  5
C1FD
330
BFD3
100
AcDbEntity
  8
1
  6
Continuous
100
AcDbCircle
 10
498.99982
 20
217.1661129999999
 30
0.0
 40
10.625
100
AcDbArc
 50
244.942385
 51
295.057615
  0
LINE
  5
C1FE
330
BFD3
100
AcDbEntity
  8
1
  6
Continuous
100
AcDbLine
 10
491.7498199999998
 20
206.541113
 30
0.0
 11
506.24982
 21
206.541113
 31
0.0
  0
LINE
  5
C1FF
330
BFD3
100
AcDbEntity
  8
1
  6
Continuous
100
AcDbLine
 10
488.49982
 20
206.0411129999998
 30
0.0
 11
509.49982
 21
206.0411129999998
 31
0.0
  0
LINE
  5
C200
330
BFD3
100
AcDbEntity
  8
1
  6
Continuous
100
AcDbLine
 10
493.9998199999998
 20
214.5411129999998
 30
0.0
 11
503.99982
 21
214.5411129999998
 31
0.0
  0
LINE
  5
C201
330
BFD3
100
AcDbEntity
  8
1
  6
Continuous
100
AcDbLine
 10
483.1498199999998
 20
205.5411129999999
 30
0.0
 11
514.84982
 21
205.5411129999999
 31
0.0
  0
ARC
  5
C202
330
BFD3
100
AcDbEntity
  8
1
  6
Continuous
100
AcDbCircle
 10
495.49982
 20
235.938204
 30
0.0
 40
6.197085999999997
100
AcDbArc
 50
235.612877
 51
304.3871229999999
  0
LINE
  5
C203
330
BFD3
100
AcDbEntity
  8
1
  6
Continuous
100
AcDbLine
 10
492.2498199999998
 20
229.741117
 30
0.0
 11
505.74982
 21
229.741117
 31
0.0
  0
LINE
  5
C204
330
BFD3
100
AcDbEntity
  8
1
  6
Continuous
100
AcDbLine
 10
503.99982
 20
229.741117
 30
0.0
 11
503.99982
 21
211.541113
 31
0.0
  0
LINE
  5
C205
330
BFD3
100
AcDbEntity
  8
2
  6
Continuous
100
AcDbLine
 10
503.18782
 20
214.5411129999998
 30
0.0
 11
503.18782
 21
229.741117
 31
0.0
  0
ARC
  5
C206
330
BFD3
100
AcDbEntity
  8
1
  6
Continuous
100
AcDbCircle
 10
514.84982
 20
202.541113
 30
0.0
 40
3.0
100
AcDbArc
 50
0.0
 51
90.0
  0
LINE
  5
C207
330
BFD3
100
AcDbEntity
  8
1
  6
Continuous
100
AcDbLine
 10
508.99982
 20
211.541113
 30
0.0
 11
508.99982
 21
207.5411129999999
 31
0.0
  0
LINE
  5
C208
330
BFD3
100
AcDbEntity
  8
1
  6
Continuous
100
AcDbLine
 10
503.49982
 20
211.541113
 30
0.0
 11
503.49982
 21
207.5411129999999
 31
0.0
  0
ARC
  5
C209
330
BFD3
100
AcDbEntity
  8
1
  6
Continuous
100
AcDbCircle
 10
506.24982
 20
210.8223629999999
 30
0.0
 40
4.28125
100
AcDbArc
 50
230.0337869999999
 51
309.966213
  0
LINE
  5
C20A
330
BFD3
100
AcDbEntity
  8
1
  6
Continuous
100
AcDbLine
 10
502.4998199999997
 20
206.055805
 30
0.0
 11
502.4998199999997
 21
206.541113
 31
0.0
  0
LINE
  5
C20B
330
BFD3
100
AcDbEntity
  8
1
  6
Continuous
100
AcDbLine
 10
509.49982
 20
206.0411129999998
 30
0.0
 11
509.49982
 21
205.5411129999999
 31
0.0
  0
LINE
  5
C20C
330
BFD3
100
AcDbEntity
  8
2
  6
Continuous
100
AcDbLine
 10
503.99982
 20
213.1346879999999
 30
0.0
 11
503.18782
 21
214.5411129999998
 31
0.0
  0
LINE
  5
C20D
330
BFD3
100
AcDbEntity
  8
1
  6
Continuous
100
AcDbLine
 10
505.9998199999998
 20
230.824117
 30
0.0
 11
505.74982
 21
229.741117
 31
0.0
  0
ARC
  5
C20E
330
BFD3
100
AcDbEntity
  8
1
  6
Continuous
100
AcDbCircle
 10
502.4998199999997
 20
235.938204
 30
0.0
 40
6.197085999999997
100
AcDbArc
 50
235.612877
 51
304.3871229999999
  0
LINE
  5
C20F
330
BFD3
100
AcDbEntity
  8
1
  6
Continuous
100
AcDbLine
 10
493.9998199999998
 20
229.741117
 30
0.0
 11
493.9998199999998
 21
211.541113
 31
0.0
  0
LINE
  5
C210
330
BFD3
100
AcDbEntity
  8
2
  6
Continuous
100
AcDbLine
 10
494.81182
 20
214.5411129999998
 30
0.0
 11
494.81182
 21
229.741117
 31
0.0
  0
ARC
  5
C211
330
BFD3
100
AcDbEntity
  8
1
  6
Continuous
100
AcDbCircle
 10
483.1498199999998
 20
202.541113
 30
0.0
 40
3.0
100
AcDbArc
 50
90.0
 51
180.0
  0
LINE
  5
C212
330
BFD3
100
AcDbEntity
  8
1
  6
Continuous
100
AcDbLine
 10
488.9998199999998
 20
211.541113
 30
0.0
 11
488.9998199999998
 21
207.5411129999999
 31
0.0
  0
LINE
  5
C213
330
BFD3
100
AcDbEntity
  8
1
  6
Continuous
100
AcDbLine
 10
494.4998199999998
 20
211.541113
 30
0.0
 11
494.4998199999998
 21
207.5411129999999
 31
0.0
  0
ARC
  5
C214
330
BFD3
100
AcDbEntity
  8
1
  6
Continuous
100
AcDbCircle
 10
491.7498199999998
 20
210.8223629999999
 30
0.0
 40
4.28125
100
AcDbArc
 50
230.0337869999999
 51
309.966213
  0
LINE
  5
C215
330
BFD3
100
AcDbEntity
  8
1
  6
Continuous
100
AcDbLine
 10
495.49982
 20
206.541113
 30
0.0
 11
495.49982
 21
206.055805
 31
0.0
  0
LINE
  5
C216
330
BFD3
100
AcDbEntity
  8
1
  6
Continuous
100
AcDbLine
 10
488.49982
 20
206.0411129999998
 30
0.0
 11
488.49982
 21
205.5411129999999
 31
0.0
  0
LINE
  5
C217
330
BFD3
100
AcDbEntity
  8
2
  6
Continuous
100
AcDbLine
 10
493.9998199999998
 20
213.1346879999999
 30
0.0
 11
494.81182
 21
214.5411129999998
 31
0.0
  0
LINE
  5
C218
330
BFD3
100
AcDbEntity
  8
1
  6
Continuous
100
AcDbLine
 10
491.99982
 20
230.824117
 30
0.0
 11
492.2498199999998
 21
229.741117
 31
0.0
  0
LINE
  5
C219
330
BFD3
100
AcDbEntity
  8
1
  6
Continuous
100
AcDbLine
 10
530.4611979999998
 20
264.2411129999999
 30
0.0
 11
532.639123
 21
266.4190379999999
 31
0.0
  0
LINE
  5
C21A
330
BFD3
100
AcDbEntity
  8
1
  6
Continuous
100
AcDbLine
 10
532.639123
 20
264.2411129999999
 30
0.0
 11
530.4611979999998
 21
266.4190379999999
 31
0.0
  0
LINE
  5
C21B
330
BFD3
100
AcDbEntity
  8
1
  6
Continuous
100
AcDbLine
 10
555.661957
 20
264.2411129999999
 30
0.0
 11
491.99982
 21
264.2411129999999
 31
0.0
  0
LINE
  5
C21C
330
BFD3
100
AcDbEntity
  8
1
  6
Continuous
100
AcDbLine
 10
578.99982
 20
274.041113
 30
0.0
 11
486.999816
 21
274.041113
 31
0.0
  0
LINE
  5
C21D
330
BFD3
100
AcDbEntity
  8
1
  6
Continuous
100
AcDbLine
 10
511.06718
 20
269.6411109999999
 30
0.0
 11
554.9798769999996
 21
269.6411109999999
 31
0.0
  0
LINE
  5
C21E
330
BFD3
100
AcDbEntity
  8
1
  6
Continuous
100
AcDbLine
 10
577.4998199999997
 20
271.7411169999999
 30
0.0
 11
486.999816
 21
271.7411169999999
 31
0.0
  0
LINE
  5
C21F
330
BFD3
100
AcDbEntity
  8
1
  6
Continuous
100
AcDbLine
 10
510.0669569999998
 20
268.404037
 30
0.0
 11
555.1169569999998
 21
268.404037
 31
0.0
  0
LINE
  5
C220
330
BFD3
100
AcDbEntity
  8
1
  6
Continuous
100
AcDbLine
 10
510.3369569999999
 20
266.4190379999999
 30
0.0
 11
555.661957
 21
266.4190379999999
 31
0.0
  0
LINE
  5
C221
330
BFD3
100
AcDbEntity
  8
1
  6
Continuous
100
AcDbLine
 10
489.9998199999997
 20
271.2411169999999
 30
0.0
 11
575.99982
 21
271.2411169999999
 31
0.0
  0
LINE
  5
C222
330
BFD3
100
AcDbEntity
  8
1
  6
Continuous
100
AcDbLine
 10
529.046985
 20
264.2411129999999
 30
0.0
 11
531.2249099999998
 21
266.4190379999999
 31
0.0
  0
LINE
  5
C223
330
BFD3
100
AcDbEntity
  8
1
  6
Continuous
100
AcDbLine
 10
531.2249099999998
 20
264.2411129999999
 30
0.0
 11
529.046985
 21
266.4190379999999
 31
0.0
  0
ARC
  5
C224
330
BFD3
100
AcDbEntity
  8
1
  6
Continuous
100
AcDbCircle
 10
559.9998199999999
 20
224.5411129999999
 30
0.0
 40
37.5
100
AcDbArc
 50
65.92074000000001
 51
93.82255399999998
  0
ARC
  5
C225
330
BFD3
100
AcDbEntity
  8
1
  6
Continuous
100
AcDbCircle
 10
559.9998199999999
 20
224.5411129999999
 30
0.0
 40
35.20000000000001
100
AcDbArc
 50
65.92074000000001
 51
70.06773000000001
  0
LINE
  5
C226
330
BFD3
100
AcDbEntity
  8
1
  6
Continuous
100
AcDbLine
 10
575.2998199999998
 20
258.777935
 30
0.0
 11
574.3614199999998
 21
256.6780769999999
 31
0.0
  0
LINE
  5
C227
330
BFD3
100
AcDbEntity
  8
1
  6
Continuous
100
AcDbLine
 10
578.99982
 20
271.7411169999999
 30
0.0
 11
577.4998199999997
 21
271.7411169999999
 31
0.0
  0
LINE
  5
C228
330
BFD3
100
AcDbEntity
  8
1
  6
Continuous
100
AcDbLine
 10
578.99982
 20
271.7411169999999
 30
0.0
 11
578.99982
 21
274.041113
 31
0.0
  0
ARC
  5
C229
330
BFD3
100
AcDbEntity
  8
1
  6
Continuous
100
AcDbCircle
 10
575.99982
 20
273.7411169999999
 30
0.0
 40
2.5
100
AcDbArc
 50
270.0
 51
306.869904
  0
LINE
  5
C22A
330
BFD3
100
AcDbEntity
  8
4
  6
CENTER
100
AcDbLine
 10
570.49982
 20
268.9538079999999
 30
0.0
 11
570.49982
 21
275.7786489999999
 31
0.0
  0
ARC
  5
C22B
330
BFD3
100
AcDbEntity
  8
1
  6
Continuous
100
AcDbCircle
 10
554.2180599999998
 20
260.741113
 30
0.0
 40
3.5
100
AcDbArc
 50
20.340134
 51
90.0
  0
LINE
  5
C22C
330
BFD3
100
AcDbEntity
  8
4
  6
CENTER
100
AcDbLine
 10
532.99982
 20
276.233646
 30
0.0
 11
532.99982
 21
259.929127
 31
0.0
  0
LINE
  5
C22D
330
BFD3
100
AcDbEntity
  8
1
  6
Continuous
100
AcDbLine
 10
557.49982
 20
261.957687
 30
0.0
 11
541.882786
 21
261.957687
 31
0.0
  0
LINE
  5
C22E
330
BFD3
100
AcDbEntity
  8
1
  6
Continuous
100
AcDbLine
 10
544.603334
 20
264.2411129999999
 30
0.0
 11
546.781259
 21
266.4190379999999
 31
0.0
  0
LINE
  5
C22F
330
BFD3
100
AcDbEntity
  8
1
  6
Continuous
100
AcDbLine
 10
546.017548
 20
264.2411129999999
 30
0.0
 11
548.195472
 21
266.4190379999999
 31
0.0
  0
LINE
  5
C230
330
BFD3
100
AcDbEntity
  8
1
  6
Continuous
100
AcDbLine
 10
546.781259
 20
264.2411129999999
 30
0.0
 11
544.603334
 21
266.4190379999999
 31
0.0
  0
LINE
  5
C231
330
BFD3
100
AcDbEntity
  8
1
  6
Continuous
100
AcDbLine
 10
548.195472
 20
264.2411129999999
 30
0.0
 11
546.017548
 21
266.4190379999999
 31
0.0
  0
ARC
  5
C232
330
BFD3
100
AcDbEntity
  8
1
  6
Continuous
100
AcDbCircle
 10
554.9798769999996
 20
273.6411109999999
 30
0.0
 40
4.0
100
AcDbArc
 50
269.99762
 51
323.1302119999999
  0
ARC
  5
C233
330
BFD3
100
AcDbEntity
  8
1
  6
Continuous
100
AcDbCircle
 10
555.667986
 20
267.484185
 30
0.0
 40
0.9569799999999998
100
AcDbArc
 50
24.04026499999999
 51
73.98808699999998
  0
LINE
  5
C234
330
BFD3
100
AcDbEntity
  8
1
  6
Continuous
100
AcDbLine
 10
555.931957
 20
268.404037
 30
0.0
 11
555.1169569999998
 21
268.404037
 31
0.0
  0
LINE
  5
C235
330
BFD3
100
AcDbEntity
  8
1
  6
Continuous
100
AcDbLine
 10
555.1169569999998
 20
268.404037
 30
0.0
 11
554.946957
 21
268.764037
 31
0.0
  0
LINE
  5
C236
330
BFD3
100
AcDbEntity
  8
1
  6
Continuous
100
AcDbLine
 10
555.791957
 20
266.779038
 30
0.0
 11
555.661957
 21
266.4190379999999
 31
0.0
  0
LINE
  5
C237
330
BFD3
100
AcDbEntity
  8
1
  6
Continuous
100
AcDbLine
 10
555.661957
 20
266.4190379999999
 30
0.0
 11
555.661957
 21
264.2411129999999
 31
0.0
  0
ARC
  5
C238
330
BFD3
100
AcDbEntity
  8
1
  6
Continuous
100
AcDbCircle
 10
552.330475
 20
269.9542649999999
 30
0.0
 40
4.697225
100
AcDbArc
 50
317.4697509999999
 51
333.713305
  0
LINE
  5
C239
330
BFD3
100
AcDbEntity
  8
1
  6
Continuous
100
AcDbLine
 10
551.6744019999999
 20
264.2411129999999
 30
0.0
 11
553.8523269999997
 21
266.4190379999999
 31
0.0
  0
LINE
  5
C23A
330
BFD3
100
AcDbEntity
  8
1
  6
Continuous
100
AcDbLine
 10
553.8523269999997
 20
264.2411129999999
 30
0.0
 11
551.6744019999999
 21
266.4190379999999
 31
0.0
  0
LINE
  5
C23B
330
BFD3
100
AcDbEntity
  8
1
  6
Continuous
100
AcDbLine
 10
547.431761
 20
264.2411129999999
 30
0.0
 11
549.609686
 21
266.4190379999999
 31
0.0
  0
LINE
  5
C23C
330
BFD3
100
AcDbEntity
  8
1
  6
Continuous
100
AcDbLine
 10
549.609686
 20
264.2411129999999
 30
0.0
 11
547.431761
 21
266.4190379999999
 31
0.0
  0
LINE
  5
C23D
330
BFD3
100
AcDbEntity
  8
1
  6
Continuous
100
AcDbLine
 10
548.8459749999998
 20
264.2411129999999
 30
0.0
 11
551.0239
 21
266.4190379999999
 31
0.0
  0
LINE
  5
C23E
330
BFD3
100
AcDbEntity
  8
1
  6
Continuous
100
AcDbLine
 10
550.2601879999998
 20
264.2411129999999
 30
0.0
 11
552.438113
 21
266.4190379999999
 31
0.0
  0
LINE
  5
C23F
330
BFD3
100
AcDbEntity
  8
1
  6
Continuous
100
AcDbLine
 10
551.0239
 20
264.2411129999999
 30
0.0
 11
548.8459749999998
 21
266.4190379999999
 31
0.0
  0
LINE
  5
C240
330
BFD3
100
AcDbEntity
  8
1
  6
Continuous
100
AcDbLine
 10
552.438113
 20
264.2411129999999
 30
0.0
 11
550.2601879999998
 21
266.4190379999999
 31
0.0
  0
ARC
  5
C241
330
BFD3
100
AcDbEntity
  8
1
  6
Continuous
100
AcDbCircle
 10
550.082532
 20
264.910212
 30
0.0
 40
6.206012999999998
100
AcDbArc
 50
38.387915
 51
49.66827999999999
  0
LINE
  5
C242
330
BFD3
100
AcDbEntity
  8
1
  6
Continuous
100
AcDbLine
 10
553.0886149999997
 20
264.2411129999999
 30
0.0
 11
555.2665400000002
 21
266.4190379999999
 31
0.0
  0
LINE
  5
C243
330
BFD3
100
AcDbEntity
  8
1
  6
Continuous
100
AcDbLine
 10
554.502829
 20
264.2411129999999
 30
0.0
 11
555.661957
 21
265.4002409999999
 31
0.0
  0
LINE
  5
C244
330
BFD3
100
AcDbEntity
  8
1
  6
Continuous
100
AcDbLine
 10
555.2665400000002
 20
264.2411129999999
 30
0.0
 11
553.0886149999997
 21
266.4190379999999
 31
0.0
  0
LINE
  5
C245
330
BFD3
100
AcDbEntity
  8
1
  6
Continuous
100
AcDbLine
 10
555.661957
 20
265.2599099999998
 30
0.0
 11
554.502829
 21
266.4190379999999
 31
0.0
  0
LINE
  5
C246
330
BFD3
100
AcDbEntity
  8
1
  6
Continuous
100
AcDbLine
 10
543.1891209999998
 20
264.2411129999999
 30
0.0
 11
545.3670449999998
 21
266.4190379999999
 31
0.0
  0
LINE
  5
C247
330
BFD3
100
AcDbEntity
  8
1
  6
Continuous
100
AcDbLine
 10
545.3670449999998
 20
264.2411129999999
 30
0.0
 11
543.1891209999998
 21
266.4190379999999
 31
0.0
  0
LINE
  5
C248
330
BFD3
100
AcDbEntity
  8
1
  6
Continuous
100
AcDbLine
 10
538.9464799999998
 20
264.2411129999999
 30
0.0
 11
541.124405
 21
266.4190379999999
 31
0.0
  0
LINE
  5
C249
330
BFD3
100
AcDbEntity
  8
1
  6
Continuous
100
AcDbLine
 10
541.124405
 20
264.2411129999999
 30
0.0
 11
538.9464799999998
 21
266.4190379999999
 31
0.0
  0
LINE
  5
C24A
330
BFD3
100
AcDbEntity
  8
1
  6
Continuous
100
AcDbLine
 10
540.3606929999998
 20
264.2411129999999
 30
0.0
 11
542.5386179999998
 21
266.4190379999999
 31
0.0
  0
LINE
  5
C24B
330
BFD3
100
AcDbEntity
  8
1
  6
Continuous
100
AcDbLine
 10
541.774907
 20
264.2411129999999
 30
0.0
 11
543.9528319999998
 21
266.4190379999999
 31
0.0
  0
LINE
  5
C24C
330
BFD3
100
AcDbEntity
  8
1
  6
Continuous
100
AcDbLine
 10
542.5386179999998
 20
264.2411129999999
 30
0.0
 11
540.3606929999998
 21
266.4190379999999
 31
0.0
  0
LINE
  5
C24D
330
BFD3
100
AcDbEntity
  8
1
  6
Continuous
100
AcDbLine
 10
543.9528319999998
 20
264.2411129999999
 30
0.0
 11
541.774907
 21
266.4190379999999
 31
0.0
  0
LINE
  5
C24E
330
BFD3
100
AcDbEntity
  8
1
  6
Continuous
100
AcDbLine
 10
534.703839
 20
264.2411129999999
 30
0.0
 11
536.8817639999998
 21
266.4190379999999
 31
0.0
  0
LINE
  5
C24F
330
BFD3
100
AcDbEntity
  8
1
  6
Continuous
100
AcDbLine
 10
536.8817639999998
 20
264.2411129999999
 30
0.0
 11
534.703839
 21
266.4190379999999
 31
0.0
  0
LINE
  5
C250
330
BFD3
100
AcDbEntity
  8
1
  6
Continuous
100
AcDbLine
 10
531.875412
 20
264.2411129999999
 30
0.0
 11
534.0533370000001
 21
266.4190379999999
 31
0.0
  0
LINE
  5
C251
330
BFD3
100
AcDbEntity
  8
1
  6
Continuous
100
AcDbLine
 10
533.289626
 20
264.2411129999999
 30
0.0
 11
535.4675499999998
 21
266.4190379999999
 31
0.0
  0
LINE
  5
C252
330
BFD3
100
AcDbEntity
  8
1
  6
Continuous
100
AcDbLine
 10
534.0533370000001
 20
264.2411129999999
 30
0.0
 11
531.875412
 21
266.4190379999999
 31
0.0
  0
LINE
  5
C253
330
BFD3
100
AcDbEntity
  8
1
  6
Continuous
100
AcDbLine
 10
535.4675499999998
 20
264.2411129999999
 30
0.0
 11
533.289626
 21
266.4190379999999
 31
0.0
  0
LINE
  5
C254
330
BFD3
100
AcDbEntity
  8
1
  6
Continuous
100
AcDbLine
 10
536.118053
 20
264.2411129999999
 30
0.0
 11
538.295977
 21
266.4190379999999
 31
0.0
  0
LINE
  5
C255
330
BFD3
100
AcDbEntity
  8
1
  6
Continuous
100
AcDbLine
 10
537.5322660000001
 20
264.2411129999999
 30
0.0
 11
539.7101909999999
 21
266.4190379999999
 31
0.0
  0
LINE
  5
C256
330
BFD3
100
AcDbEntity
  8
1
  6
Continuous
100
AcDbLine
 10
538.295977
 20
264.2411129999999
 30
0.0
 11
536.118053
 21
266.4190379999999
 31
0.0
  0
LINE
  5
C257
330
BFD3
100
AcDbEntity
  8
1
  6
Continuous
100
AcDbLine
 10
539.7101909999999
 20
264.2411129999999
 30
0.0
 11
537.5322660000001
 21
266.4190379999999
 31
0.0
  0
LINE
  5
C258
330
BFD3
100
AcDbEntity
  8
1
  6
Continuous
100
AcDbLine
 10
497.59982
 20
264.2411169999999
 30
0.0
 11
500.3998199999998
 21
264.2411169999999
 31
0.0
  0
LINE
  5
C259
330
BFD3
100
AcDbEntity
  8
1
  6
Continuous
100
AcDbLine
 10
497.59982
 20
266.441117
 30
0.0
 11
500.3998199999998
 21
266.441117
 31
0.0
  0
LINE
  5
C25A
330
BFD3
100
AcDbEntity
  8
1
  6
Continuous
100
AcDbLine
 10
487.99982
 20
249.2411129999999
 30
0.0
 11
518.1914830000001
 21
249.2411129999999
 31
0.0
  0
LINE
  5
C25B
330
BFD3
100
AcDbEntity
  8
1
  6
Continuous
100
AcDbLine
 10
513.490636
 20
264.2411129999999
 30
0.0
 11
515.6685599999998
 21
266.4190379999999
 31
0.0
  0
LINE
  5
C25C
330
BFD3
100
AcDbEntity
  8
1
  6
Continuous
100
AcDbLine
 10
515.6685599999998
 20
264.2411129999999
 30
0.0
 11
513.490636
 21
266.4190379999999
 31
0.0
  0
LINE
  5
C25D
330
BFD3
100
AcDbEntity
  8
1
  6
Continuous
100
AcDbLine
 10
526.218558
 20
264.2411129999999
 30
0.0
 11
528.396483
 21
266.4190379999999
 31
0.0
  0
LINE
  5
C25E
330
BFD3
100
AcDbEntity
  8
1
  6
Continuous
100
AcDbLine
 10
527.632771
 20
264.2411129999999
 30
0.0
 11
529.810696
 21
266.4190379999999
 31
0.0
  0
LINE
  5
C25F
330
BFD3
100
AcDbEntity
  8
1
  6
Continuous
100
AcDbLine
 10
528.396483
 20
264.2411129999999
 30
0.0
 11
526.218558
 21
266.4190379999999
 31
0.0
  0
LINE
  5
C260
330
BFD3
100
AcDbEntity
  8
1
  6
Continuous
100
AcDbLine
 10
529.810696
 20
264.2411129999999
 30
0.0
 11
527.632771
 21
266.4190379999999
 31
0.0
  0
LINE
  5
C261
330
BFD3
100
AcDbEntity
  8
1
  6
Continuous
100
AcDbLine
 10
521.9759169999996
 20
264.2411129999999
 30
0.0
 11
524.1538419999999
 21
266.4190379999999
 31
0.0
  0
LINE
  5
C262
330
BFD3
100
AcDbEntity
  8
1
  6
Continuous
100
AcDbLine
 10
523.390131
 20
264.2411129999999
 30
0.0
 11
525.568055
 21
266.4190379999999
 31
0.0
  0
LINE
  5
C263
330
BFD3
100
AcDbEntity
  8
1
  6
Continuous
100
AcDbLine
 10
524.1538419999999
 20
264.2411129999999
 30
0.0
 11
521.9759169999996
 21
266.4190379999999
 31
0.0
  0
LINE
  5
C264
330
BFD3
100
AcDbEntity
  8
1
  6
Continuous
100
AcDbLine
 10
525.568055
 20
264.2411129999999
 30
0.0
 11
523.390131
 21
266.4190379999999
 31
0.0
  0
LINE
  5
C265
330
BFD3
100
AcDbEntity
  8
1
  6
Continuous
100
AcDbLine
 10
524.804344
 20
264.2411129999999
 30
0.0
 11
526.9822689999998
 21
266.4190379999999
 31
0.0
  0
LINE
  5
C266
330
BFD3
100
AcDbEntity
  8
1
  6
Continuous
100
AcDbLine
 10
526.9822689999998
 20
264.2411129999999
 30
0.0
 11
524.804344
 21
266.4190379999999
 31
0.0
  0
LINE
  5
C267
330
BFD3
100
AcDbEntity
  8
1
  6
Continuous
100
AcDbLine
 10
517.7332759999997
 20
264.2411129999999
 30
0.0
 11
519.911201
 21
266.4190379999999
 31
0.0
  0
LINE
  5
C268
330
BFD3
100
AcDbEntity
  8
1
  6
Continuous
100
AcDbLine
 10
519.1474900000002
 20
264.2411129999999
 30
0.0
 11
521.325415
 21
266.4190379999999
 31
0.0
  0
LINE
  5
C269
330
BFD3
100
AcDbEntity
  8
1
  6
Continuous
100
AcDbLine
 10
519.911201
 20
264.2411129999999
 30
0.0
 11
517.7332759999997
 21
266.4190379999999
 31
0.0
  0
LINE
  5
C26A
330
BFD3
100
AcDbEntity
  8
1
  6
Continuous
100
AcDbLine
 10
521.325415
 20
264.2411129999999
 30
0.0
 11
519.1474900000002
 21
266.4190379999999
 31
0.0
  0
LINE
  5
C26B
330
BFD3
100
AcDbEntity
  8
1
  6
Continuous
100
AcDbLine
 10
514.904849
 20
264.2411129999999
 30
0.0
 11
517.082774
 21
266.4190379999999
 31
0.0
  0
LINE
  5
C26C
330
BFD3
100
AcDbEntity
  8
1
  6
Continuous
100
AcDbLine
 10
517.082774
 20
264.2411129999999
 30
0.0
 11
514.904849
 21
266.4190379999999
 31
0.0
  0
LINE
  5
C26D
330
BFD3
100
AcDbEntity
  8
1
  6
Continuous
100
AcDbLine
 10
516.319063
 20
264.2411129999999
 30
0.0
 11
518.4969879999996
 21
266.4190379999999
 31
0.0
  0
LINE
  5
C26E
330
BFD3
100
AcDbEntity
  8
1
  6
Continuous
100
AcDbLine
 10
518.4969879999996
 20
264.2411129999999
 30
0.0
 11
516.319063
 21
266.4190379999999
 31
0.0
  0
LINE
  5
C26F
330
BFD3
100
AcDbEntity
  8
1
  6
Continuous
100
AcDbLine
 10
520.5617039999999
 20
264.2411129999999
 30
0.0
 11
522.739628
 21
266.4190379999999
 31
0.0
  0
LINE
  5
C270
330
BFD3
100
AcDbEntity
  8
1
  6
Continuous
100
AcDbLine
 10
522.739628
 20
264.2411129999999
 30
0.0
 11
520.5617039999999
 21
266.4190379999999
 31
0.0
  0
LINE
  5
C271
330
BFD3
100
AcDbEntity
  8
1
  6
Continuous
100
AcDbLine
 10
510.881957
 20
268.404037
 30
0.0
 11
511.051957
 21
268.764037
 31
0.0
  0
ARC
  5
C272
330
BFD3
100
AcDbEntity
  8
1
  6
Continuous
100
AcDbCircle
 10
515.9163819999998
 20
264.910212
 30
0.0
 40
6.206012999999998
100
AcDbArc
 50
130.3318289999999
 51
141.612085
  0
ARC
  5
C273
330
BFD3
100
AcDbEntity
  8
1
  6
Continuous
100
AcDbCircle
 10
510.3309279999998
 20
267.484185
 30
0.0
 40
0.9569799999999998
100
AcDbArc
 50
106.011913
 51
155.9597349999999
  0
ARC
  5
C274
330
BFD3
100
AcDbEntity
  8
1
  6
Continuous
100
AcDbCircle
 10
511.0197639999998
 20
273.6411109999999
 30
0.0
 40
4.0
100
AcDbArc
 50
216.8697879999997
 51
270.0023799999997
  0
LINE
  5
C275
330
BFD3
100
AcDbEntity
  8
1
  6
Continuous
100
AcDbLine
 10
510.206957
 20
266.779038
 30
0.0
 11
510.3369569999999
 21
266.4190379999999
 31
0.0
  0
LINE
  5
C276
330
BFD3
100
AcDbEntity
  8
1
  6
Continuous
100
AcDbLine
 10
510.3369569999999
 20
266.4190379999999
 30
0.0
 11
510.3369569999999
 21
264.2411129999999
 31
0.0
  0
LINE
  5
C277
330
BFD3
100
AcDbEntity
  8
1
  6
Continuous
100
AcDbLine
 10
511.42592
 20
266.4190379999999
 30
0.0
 11
510.3369569999999
 21
265.330075
 31
0.0
  0
LINE
  5
C278
330
BFD3
100
AcDbEntity
  8
1
  6
Continuous
100
AcDbLine
 10
510.662209
 20
264.2411129999999
 30
0.0
 11
512.840133
 21
266.4190379999999
 31
0.0
  0
LINE
  5
C279
330
BFD3
100
AcDbEntity
  8
1
  6
Continuous
100
AcDbLine
 10
511.42592
 20
264.2411129999999
 30
0.0
 11
510.3369569999999
 21
265.330075
 31
0.0
  0
LINE
  5
C27A
330
BFD3
100
AcDbEntity
  8
1
  6
Continuous
100
AcDbLine
 10
512.840133
 20
264.2411129999999
 30
0.0
 11
510.662209
 21
266.4190379999999
 31
0.0
  0
ARC
  5
C27B
330
BFD3
100
AcDbEntity
  8
1
  6
Continuous
100
AcDbCircle
 10
513.6684389999998
 20
269.9542649999999
 30
0.0
 40
4.697225
100
AcDbArc
 50
206.286695
 51
222.530249
  0
LINE
  5
C27C
330
BFD3
100
AcDbEntity
  8
1
  6
Continuous
100
AcDbLine
 10
505.9998199999998
 20
271.2411169999999
 30
0.0
 11
505.9998199999998
 21
264.2411129999999
 31
0.0
  0
ARC
  5
C27D
330
BFD3
100
AcDbEntity
  8
1
  6
Continuous
100
AcDbCircle
 10
499.39982
 20
265.941117
 30
0.0
 40
0.5
100
AcDbArc
 50
0.0
 51
90.0
  0
ARC
  5
C27E
330
BFD3
100
AcDbEntity
  8
1
  6
Continuous
100
AcDbCircle
 10
499.39982
 20
264.7411169999999
 30
0.0
 40
0.5
100
AcDbArc
 50
270.0
 51
0.0
  0
LINE
  5
C27F
330
BFD3
100
AcDbEntity
  8
1
  6
Continuous
100
AcDbLine
 10
499.8998199999999
 20
264.7411169999999
 30
0.0
 11
499.8998199999999
 21
265.941117
 31
0.0
  0
ARC
  5
C280
330
BFD3
100
AcDbEntity
  8
1
  6
Continuous
100
AcDbCircle
 10
500.3998199999998
 20
265.341117
 30
0.0
 40
1.1
100
AcDbArc
 50
270.0
 51
90.0
  0
LINE
  5
C281
330
BFD3
100
AcDbEntity
  8
1
  6
Continuous
100
AcDbLine
 10
498.99982
 20
271.2411169999999
 30
0.0
 11
498.99982
 21
266.441117
 31
0.0
  0
LINE
  5
C282
330
BFD3
100
AcDbEntity
  8
1
  6
Continuous
100
AcDbLine
 10
512.0764219999998
 20
264.2411129999999
 30
0.0
 11
514.2543469999999
 21
266.4190379999999
 31
0.0
  0
LINE
  5
C283
330
BFD3
100
AcDbEntity
  8
1
  6
Continuous
100
AcDbLine
 10
514.2543469999999
 20
264.2411129999999
 30
0.0
 11
512.0764219999998
 21
266.4190379999999
 31
0.0
  0
ARC
  5
C284
330
BFD3
100
AcDbEntity
  8
1
  6
Continuous
100
AcDbCircle
 10
491.99982
 20
260.2411129999999
 30
0.0
 40
4.0
100
AcDbArc
 50
90.0
 51
180.0
  0
LINE
  5
C285
330
BFD3
100
AcDbEntity
  8
1
  6
Continuous
100
AcDbLine
 10
487.99982
 20
260.2411129999999
 30
0.0
 11
487.99982
 21
249.2411129999999
 31
0.0
  0
ARC
  5
C286
330
BFD3
100
AcDbEntity
  8
1
  6
Continuous
100
AcDbCircle
 10
498.59982
 20
265.941117
 30
0.0
 40
0.5
100
AcDbArc
 50
90.0
 51
180.0
  0
ARC
  5
C287
330
BFD3
100
AcDbEntity
  8
1
  6
Continuous
100
AcDbCircle
 10
498.59982
 20
264.7411169999999
 30
0.0
 40
0.5
100
AcDbArc
 50
180.0
 51
270.0
  0
LINE
  5
C288
330
BFD3
100
AcDbEntity
  8
1
  6
Continuous
100
AcDbLine
 10
498.09982
 20
264.7411169999999
 30
0.0
 11
498.09982
 21
265.941117
 31
0.0
  0
LINE
  5
C289
330
BFD3
100
AcDbEntity
  8
1
  6
Continuous
100
AcDbLine
 10
491.99982
 20
271.2411169999999
 30
0.0
 11
491.99982
 21
264.2411129999999
 31
0.0
  0
ARC
  5
C28A
330
BFD3
100
AcDbEntity
  8
1
  6
Continuous
100
AcDbCircle
 10
489.9998199999997
 20
273.7411169999999
 30
0.0
 40
2.5
100
AcDbArc
 50
233.130096
 51
270.0
  0
LINE
  5
C28B
330
BFD3
100
AcDbEntity
  8
1
  6
Continuous
100
AcDbLine
 10
486.999816
 20
271.7411169999999
 30
0.0
 11
486.999816
 21
274.041113
 31
0.0
  0
LINE
  5
C28C
330
BFD3
100
AcDbEntity
  8
4
  6
CENTER
100
AcDbLine
 10
495.49982
 20
268.9538079999999
 30
0.0
 11
495.49982
 21
276.00614
 31
0.0
  0
ARC
  5
C28D
330
BFD3
100
AcDbEntity
  8
1
  6
Continuous
100
AcDbCircle
 10
497.59982
 20
265.341117
 30
0.0
 40
1.1
100
AcDbArc
 50
90.0
 51
270.0
  0
CIRCLE
  5
C28E
330
BFD3
100
AcDbEntity
  8
1
  6
Continuous
100
AcDbCircle
 10
559.9998199999999
 20
224.5411129999999
 30
0.0
 40
5.75
  0
LINE
  5
C28F
330
BFD3
100
AcDbEntity
  8
1
  6
Continuous
100
AcDbLine
 10
270.999955
 20
124.500004
 30
0.0
 11
270.999955
 21
101.537019
 31
0.0
  0
LINE
  5
C290
330
BFD3
100
AcDbEntity
  8
4
  6
CENTER
100
AcDbLine
 10
259.0
 20
66.15000400000001
 30
0.0
 11
259.0
 21
107.8500039999999
 31
0.0
  0
LINE
  5
C291
330
BFD3
100
AcDbEntity
  8
4
  6
CENTER
100
AcDbLine
 10
198.0
 20
109.4330199999999
 30
0.0
 11
198.0
 21
63.13165399999999
 31
0.0
  0
LINE
  5
C292
330
BFD3
100
AcDbEntity
  8
1
  6
Continuous
100
AcDbLine
 10
178.999955
 20
124.500004
 30
0.0
 11
178.999955
 21
99.500004
 31
0.0
  0
LINE
  5
C293
330
BFD3
100
AcDbEntity
  8
4
  6
CENTER
100
AcDbLine
 10
224.9999549999997
 20
134.5000039999999
 30
0.0
 11
224.9999549999997
 21
39.5
 31
0.0
  0
LINE
  5
C294
330
BFD3
100
AcDbEntity
  8
1
  6
Continuous
100
AcDbLine
 10
262.499955
 20
133.0000039999999
 30
0.0
 11
187.499955
 21
133.0000039999999
 31
0.0
  0
LINE
  5
C295
330
BFD3
100
AcDbEntity
  8
4
  6
CENTER
100
AcDbLine
 10
194.749955
 20
124.500004
 30
0.0
 11
180.249955
 21
124.500004
 31
0.0
  0
CIRCLE
  5
C296
330
BFD3
100
AcDbEntity
  8
1
  6
Continuous
100
AcDbCircle
 10
187.499955
 20
124.500004
 30
0.0
 40
4.25
  0
ARC
  5
C297
330
BFD3
100
AcDbEntity
  8
1
  6
Continuous
100
AcDbCircle
 10
187.499955
 20
124.500004
 30
0.0
 40
8.5
100
AcDbArc
 50
90.0
 51
180.0
  0
LINE
  5
C298
330
BFD3
100
AcDbEntity
  8
4
  6
CENTER
100
AcDbLine
 10
187.499955
 20
131.7500039999997
 30
0.0
 11
187.499955
 21
117.250004
 31
0.0
  0
LINE
  5
C299
330
BFD3
100
AcDbEntity
  8
4
  6
CENTER
100
AcDbLine
 10
262.499955
 20
131.7500039999997
 30
0.0
 11
262.499955
 21
117.250004
 31
0.0
  0
CIRCLE
  5
C29A
330
BFD3
100
AcDbEntity
  8
1
  6
Continuous
100
AcDbCircle
 10
262.499955
 20
124.500004
 30
0.0
 40
4.25
  0
LINE
  5
C29B
330
BFD3
100
AcDbEntity
  8
4
  6
CENTER
100
AcDbLine
 10
269.7499549999997
 20
124.500004
 30
0.0
 11
255.2499549999998
 21
124.500004
 31
0.0
  0
ARC
  5
C29C
330
BFD3
100
AcDbEntity
  8
1
  6
Continuous
100
AcDbCircle
 10
262.499955
 20
124.500004
 30
0.0
 40
8.5
100
AcDbArc
 50
0.0
 51
90.0
  0
LINE
  5
C29D
330
BFD3
100
AcDbEntity
  8
1
  6
Continuous
100
AcDbLine
 10
262.499955
 20
41.0
 30
0.0
 11
187.499955
 21
41.0
 31
0.0
  0
LINE
  5
C29E
330
BFD3
100
AcDbEntity
  8
4
  6
CENTER
100
AcDbLine
 10
281.0085399999999
 20
87.000004
 30
0.0
 11
162.0284639999999
 21
87.000004
 31
0.0
  0
CIRCLE
  5
C29F
330
BFD3
100
AcDbEntity
  8
1
  6
Continuous
100
AcDbCircle
 10
187.499955
 20
49.500004
 30
0.0
 40
4.25
  0
LINE
  5
C2A0
330
BFD3
100
AcDbEntity
  8
4
  6
CENTER
100
AcDbLine
 10
194.749955
 20
49.500004
 30
0.0
 11
180.249955
 21
49.500004
 31
0.0
  0
ARC
  5
C2A1
330
BFD3
100
AcDbEntity
  8
1
  6
Continuous
100
AcDbCircle
 10
187.499955
 20
49.5
 30
0.0
 40
8.5
100
AcDbArc
 50
180.0
 51
270.0
  0
LINE
  5
C2A2
330
BFD3
100
AcDbEntity
  8
4
  6
CENTER
100
AcDbLine
 10
187.499955
 20
56.750004
 30
0.0
 11
187.499955
 21
42.25
 31
0.0
  0
CIRCLE
  5
C2A3
330
BFD3
100
AcDbEntity
  8
1
  6
Continuous
100
AcDbCircle
 10
262.499955
 20
49.500004
 30
0.0
 40
4.25
  0
LINE
  5
C2A4
330
BFD3
100
AcDbEntity
  8
4
  6
CENTER
100
AcDbLine
 10
269.7499549999997
 20
49.500004
 30
0.0
 11
255.2499549999998
 21
49.500004
 31
0.0
  0
ARC
  5
C2A5
330
BFD3
100
AcDbEntity
  8
1
  6
Continuous
100
AcDbCircle
 10
262.499955
 20
49.500004
 30
0.0
 40
8.5
100
AcDbArc
 50
270.0
 51
0.0
  0
LINE
  5
C2A6
330
BFD3
100
AcDbEntity
  8
4
  6
CENTER
100
AcDbLine
 10
262.499955
 20
56.750004
 30
0.0
 11
262.499955
 21
42.25
 31
0.0
  0
CIRCLE
  5
C2A7
330
BFD3
100
AcDbEntity
  8
1
  6
Continuous
100
AcDbCircle
 10
259.0
 20
87.00004599999996
 30
0.0
 40
18.85
  0
LINE
  5
C2A8
330
BFD3
100
AcDbEntity
  8
1
  6
Continuous
100
AcDbLine
 10
270.999955
 20
72.46307299999998
 30
0.0
 11
270.999955
 21
49.500004
 31
0.0
  0
LINE
  5
C2A9
330
BFD3
100
AcDbEntity
  8
1
  6
Continuous
100
AcDbLine
 10
178.999955
 20
74.500004
 30
0.0
 11
178.999955
 21
49.5
 31
0.0
  0
CIRCLE
  5
C2AA
330
BFD3
100
AcDbEntity
  8
1
  6
Continuous
100
AcDbCircle
 10
259.0
 20
87.00004599999996
 30
0.0
 40
17.25
  0
ARC
  5
C2AB
330
BFD3
100
AcDbEntity
  8
1
  6
Continuous
100
AcDbCircle
 10
259.0
 20
87.00004599999996
 30
0.0
 40
5.5
100
AcDbArc
 50
318.5691279999999
 51
221.430826
  0
ARC
  5
C2AC
330
BFD3
100
AcDbEntity
  8
1
  6
Continuous
100
AcDbCircle
 10
259.0
 20
87.00004599999996
 30
0.0
 40
2.049999999999998
100
AcDbArc
 50
33.17763999999999
 51
56.82235999999999
  0
ARC
  5
C2AD
330
BFD3
100
AcDbEntity
  8
1
  6
Continuous
100
AcDbCircle
 10
259.0
 20
93.00004599999999
 30
0.0
 40
6.0
100
AcDbArc
 50
0.0
 51
180.0
  0
ARC
  5
C2AE
330
BFD3
100
AcDbEntity
  8
1
  6
Continuous
100
AcDbCircle
 10
259.0
 20
87.00004599999996
 30
0.0
 40
2.049999999999998
100
AcDbArc
 50
303.17764
 51
326.82236
  0
LINE
  5
C2AF
330
BFD3
100
AcDbEntity
  8
1
  6
Continuous
100
AcDbLine
 10
260.1083389999997
 20
86.50726099999998
 30
0.0
 11
260.7158049999998
 21
85.87821099999997
 31
0.0
  0
ARC
  5
C2B0
330
BFD3
100
AcDbEntity
  8
1
  6
Continuous
100
AcDbCircle
 10
259.0
 20
87.00004599999996
 30
0.0
 40
6.0
100
AcDbArc
 50
180.0
 51
0.0
  0
CIRCLE
  5
C2B1
330
BFD3
100
AcDbEntity
  8
1
  6
Continuous
100
AcDbCircle
 10
259.0
 20
87.00004599999996
 30
0.0
 40
3.5
  0
LINE
  5
C2B2
330
BFD3
100
AcDbEntity
  8
1
  6
Continuous
100
AcDbLine
 10
260.1083389999997
 20
87.49283199999998
 30
0.0
 11
260.7158049999998
 21
88.121881
 31
0.0
  0
LINE
  5
C2B3
330
BFD3
100
AcDbEntity
  8
1
  6
Continuous
100
AcDbLine
 10
255.1205669999999
 20
87.000048
 30
0.0
 11
255.4726159999999
 21
87.000048
 31
0.0
  0
ARC
  5
C2B4
330
BFD3
100
AcDbEntity
  8
1
  6
Continuous
100
AcDbCircle
 10
255.1205669999999
 20
87.40004799999999
 30
0.0
 40
0.4
100
AcDbArc
 50
174.1132429999999
 51
270.000001
  0
ARC
  5
C2B5
330
BFD3
100
AcDbEntity
  8
1
  6
Continuous
100
AcDbCircle
 10
255.17625
 20
83.625298
 30
0.0
 40
0.4
100
AcDbArc
 50
221.430871
 51
329.999948
  0
LINE
  5
C2B6
330
BFD3
100
AcDbEntity
  8
1
  6
Continuous
100
AcDbLine
 10
255.522661
 20
83.42530100000002
 30
0.0
 11
256.3004259999999
 21
84.77242399999999
 31
0.0
  0
LINE
  5
C2B7
330
BFD3
100
AcDbEntity
  8
1
  6
Continuous
100
AcDbLine
 10
257.673155
 20
90.645524
 30
0.0
 11
257.80293
 21
90.288971
 31
0.0
  0
ARC
  5
C2B8
330
BFD3
100
AcDbEntity
  8
1
  6
Continuous
100
AcDbCircle
 10
257.297279
 20
90.508713
 30
0.0
 40
0.4
100
AcDbArc
 50
20.000122
 51
115.886945
  0
ARC
  5
C2B9
330
BFD3
100
AcDbEntity
  8
1
  6
Continuous
100
AcDbCircle
 10
259.0
 20
87.00004599999996
 30
0.0
 40
4.299999999999998
100
AcDbArc
 50
115.8868629999999
 51
174.113188
  0
LINE
  5
C2BA
330
BFD3
100
AcDbEntity
  8
1
  6
Continuous
100
AcDbLine
 10
259.4927859999998
 20
88.108385
 30
0.0
 11
260.1218349999999
 21
88.715851
 31
0.0
  0
ARC
  5
C2BB
330
BFD3
100
AcDbEntity
  8
1
  6
Continuous
100
AcDbCircle
 10
259.0
 20
87.00004599999996
 30
0.0
 40
2.049999999999998
100
AcDbArc
 50
123.1776399999999
 51
146.8223599999998
  0
LINE
  5
C2BC
330
BFD3
100
AcDbEntity
  8
1
  6
Continuous
100
AcDbLine
 10
258.5072139999999
 20
88.108385
 30
0.0
 11
257.8781649999999
 21
88.715851
 31
0.0
  0
LINE
  5
C2BD
330
BFD3
100
AcDbEntity
  8
1
  6
Continuous
100
AcDbLine
 10
259.9289799999999
 20
87.00004599999996
 30
0.0
 11
260.1083389999997
 21
87.49283199999998
 31
0.0
  0
LINE
  5
C2BE
330
BFD3
100
AcDbEntity
  8
1
  6
Continuous
100
AcDbLine
 10
259.9289799999999
 20
87.00004599999996
 30
0.0
 11
260.1083389999997
 21
86.50726099999998
 31
0.0
  0
LINE
  5
C2BF
330
BFD3
100
AcDbEntity
  8
1
  6
Continuous
100
AcDbLine
 10
259.0
 20
86.071067
 30
0.0
 11
259.4927859999998
 21
85.89170699999998
 31
0.0
  0
LINE
  5
C2C0
330
BFD3
100
AcDbEntity
  8
1
  6
Continuous
100
AcDbLine
 10
259.4927859999998
 20
85.89170699999998
 30
0.0
 11
260.1218349999999
 21
85.28424099999998
 31
0.0
  0
ARC
  5
C2C1
330
BFD3
100
AcDbEntity
  8
1
  6
Continuous
100
AcDbCircle
 10
259.0
 20
87.00004599999996
 30
0.0
 40
2.049999999999998
100
AcDbArc
 50
213.17764
 51
236.8223599999998
  0
LINE
  5
C2C2
330
BFD3
100
AcDbEntity
  8
1
  6
Continuous
100
AcDbLine
 10
257.8916609999997
 20
86.50726099999998
 30
0.0
 11
257.284195
 21
85.87821099999997
 31
0.0
  0
LINE
  5
C2C3
330
BFD3
100
AcDbEntity
  8
1
  6
Continuous
100
AcDbLine
 10
258.0710199999999
 20
87.00004599999996
 30
0.0
 11
257.8916609999997
 21
86.50726099999998
 31
0.0
  0
LINE
  5
C2C4
330
BFD3
100
AcDbEntity
  8
1
  6
Continuous
100
AcDbLine
 10
258.0710199999999
 20
87.00004599999996
 30
0.0
 11
257.8916609999997
 21
87.49283199999998
 31
0.0
  0
LINE
  5
C2C5
330
BFD3
100
AcDbEntity
  8
1
  6
Continuous
100
AcDbLine
 10
258.5072139999999
 20
85.89170699999998
 30
0.0
 11
257.8781649999999
 21
85.28424099999998
 31
0.0
  0
LINE
  5
C2C6
330
BFD3
100
AcDbEntity
  8
1
  6
Continuous
100
AcDbLine
 10
259.0
 20
86.071067
 30
0.0
 11
258.5072139999999
 21
85.89170699999998
 31
0.0
  0
LINE
  5
C2C7
330
BFD3
100
AcDbEntity
  8
1
  6
Continuous
100
AcDbLine
 10
253.0
 20
93.00004599999999
 30
0.0
 11
253.0
 21
87.00004599999996
 31
0.0
  0
LINE
  5
C2C8
330
BFD3
100
AcDbEntity
  8
1
  6
Continuous
100
AcDbLine
 10
259.0
 20
87.92902599999996
 30
0.0
 11
258.5072139999999
 21
88.108385
 31
0.0
  0
LINE
  5
C2C9
330
BFD3
100
AcDbEntity
  8
1
  6
Continuous
100
AcDbLine
 10
259.0
 20
87.92902599999996
 30
0.0
 11
259.4927859999998
 21
88.108385
 31
0.0
  0
LINE
  5
C2CA
330
BFD3
100
AcDbEntity
  8
1
  6
Continuous
100
AcDbLine
 10
257.8916609999997
 20
87.49283199999998
 30
0.0
 11
257.284195
 21
88.121881
 31
0.0
  0
LINE
  5
C2CB
330
BFD3
100
AcDbEntity
  8
1
  6
Continuous
100
AcDbLine
 10
262.879433
 20
87.000048
 30
0.0
 11
262.5
 21
87.00004599999996
 31
0.0
  0
LINE
  5
C2CC
330
BFD3
100
AcDbEntity
  8
1
  6
Continuous
100
AcDbLine
 10
261.6995769999999
 20
84.772428
 30
0.0
 11
262.477341
 21
83.42530100000002
 31
0.0
  0
ARC
  5
C2CD
330
BFD3
100
AcDbEntity
  8
1
  6
Continuous
100
AcDbCircle
 10
262.82375
 20
83.625298
 30
0.0
 40
0.4
100
AcDbArc
 50
209.999934
 51
318.568933
  0
ARC
  5
C2CE
330
BFD3
100
AcDbEntity
  8
1
  6
Continuous
100
AcDbCircle
 10
262.879433
 20
87.40004799999999
 30
0.0
 40
0.4
100
AcDbArc
 50
270.0000179999999
 51
5.886752999999998
  0
ARC
  5
C2CF
330
BFD3
100
AcDbEntity
  8
1
  6
Continuous
100
AcDbCircle
 10
259.0
 20
87.00004599999996
 30
0.0
 40
4.299999999999998
100
AcDbArc
 50
5.886828999999999
 51
64.113162
  0
ARC
  5
C2D0
330
BFD3
100
AcDbEntity
  8
1
  6
Continuous
100
AcDbCircle
 10
260.702721
 20
90.508713
 30
0.0
 40
0.4
100
AcDbArc
 50
64.113073
 51
159.9999949999999
  0
LINE
  5
C2D1
330
BFD3
100
AcDbEntity
  8
1
  6
Continuous
100
AcDbLine
 10
260.1970689999999
 20
90.288971
 30
0.0
 11
260.3268429999999
 21
90.645524
 31
0.0
  0
LINE
  5
C2D2
330
BFD3
100
AcDbEntity
  8
1
  6
Continuous
100
AcDbLine
 10
265.0
 20
93.00004599999999
 30
0.0
 11
265.0
 21
87.00004599999996
 31
0.0
  0
LINE
  5
C2D3
330
BFD3
100
AcDbEntity
  8
1
  6
Continuous
100
AcDbLine
 10
203.75
 20
68.971362
 30
0.0
 11
192.25
 21
68.971362
 31
0.0
  0
ARC
  5
C2D4
330
BFD3
100
AcDbEntity
  8
1
  6
Continuous
100
AcDbCircle
 10
198.0
 20
75.471362
 30
0.0
 40
10.5
100
AcDbArc
 50
236.7961769999999
 51
303.2038229999999
  0
LINE
  5
C2D5
330
BFD3
100
AcDbEntity
  8
1
  6
Continuous
100
AcDbLine
 10
192.25
 20
66.68571999999999
 30
0.0
 11
203.75
 21
66.68571999999999
 31
0.0
  0
LINE
  5
C2D6
330
BFD3
100
AcDbEntity
  8
1
  6
Continuous
100
AcDbLine
 10
203.75
 20
66.68571999999999
 30
0.0
 11
203.75
 21
68.971362
 31
0.0
  0
LINE
  5
C2D7
330
BFD3
100
AcDbEntity
  8
1
  6
Continuous
100
AcDbLine
 10
194.0
 20
68.971362
 30
0.0
 11
194.0
 21
69.32950600000001
 31
0.0
  0
LINE
  5
C2D8
330
BFD3
100
AcDbEntity
  8
1
  6
Continuous
100
AcDbLine
 10
192.25
 20
66.68571999999999
 30
0.0
 11
192.25
 21
68.971362
 31
0.0
  0
LINE
  5
C2D9
330
BFD3
100
AcDbEntity
  8
1
  6
Continuous
100
AcDbLine
 10
202.0
 20
68.971362
 30
0.0
 11
202.0
 21
69.32950600000001
 31
0.0
  0
LINE
  5
C2DA
330
BFD3
100
AcDbEntity
  8
1
  6
Continuous
100
AcDbLine
 10
193.0
 20
105.4554919999997
 30
0.0
 11
203.0
 21
105.246021
 31
0.0
  0
ARC
  5
C2DB
330
BFD3
100
AcDbEntity
  8
1
  6
Continuous
100
AcDbCircle
 10
197.8411099999999
 20
97.76543100000001
 30
0.0
 40
9.08699
100
AcDbArc
 50
55.40842900000001
 51
122.1915709999999
  0
LINE
  5
C2DC
330
BFD3
100
AcDbEntity
  8
1
  6
Continuous
100
AcDbLine
 10
203.0
 20
104.745912
 30
0.0
 11
203.0
 21
105.246021
 31
0.0
  0
LINE
  5
C2DD
330
BFD3
100
AcDbEntity
  8
1
  6
Continuous
100
AcDbLine
 10
193.0
 20
104.955382
 30
0.0
 11
193.0
 21
105.4554919999997
 31
0.0
  0
LINE
  5
C2DE
330
BFD3
100
AcDbEntity
  8
1
  6
Continuous
100
AcDbLine
 10
206.6758989999999
 20
71.62950600000002
 30
0.0
 11
186.3682049999999
 21
71.62950600000002
 31
0.0
  0
LINE
  5
C2DF
330
BFD3
100
AcDbEntity
  8
1
  6
Continuous
100
AcDbLine
 10
206.6758989999999
 20
102.3705019999999
 30
0.0
 11
186.3682049999999
 21
102.3705019999999
 31
0.0
  0
LINE
  5
C2E0
330
BFD3
100
AcDbEntity
  8
1
  6
Continuous
100
AcDbLine
 10
206.6758989999999
 20
104.670502
 30
0.0
 11
187.722081
 21
104.670502
 31
0.0
  0
LINE
  5
C2E1
330
BFD3
100
AcDbEntity
  8
1
  6
Continuous
100
AcDbLine
 10
206.6758989999999
 20
69.32950600000001
 30
0.0
 11
187.722081
 21
69.32950600000001
 31
0.0
  0
LINE
  5
C2E2
330
BFD3
100
AcDbEntity
  8
1
  6
Continuous
100
AcDbLine
 10
193.0
 20
104.955382
 30
0.0
 11
203.0
 21
104.745912
 31
0.0
  0
LINE
  5
C2E3
330
BFD3
100
AcDbEntity
  8
1
  6
Continuous
100
AcDbLine
 10
194.0
 20
104.9344349999998
 30
0.0
 11
194.0
 21
104.670502
 31
0.0
  0
LINE
  5
C2E4
330
BFD3
100
AcDbEntity
  8
1
  6
Continuous
100
AcDbLine
 10
202.0
 20
104.766859
 30
0.0
 11
202.0
 21
104.670502
 31
0.0
  0
ARC
  5
C2E5
330
BFD3
100
AcDbEntity
  8
1
  6
Continuous
100
AcDbCircle
 10
234.8387379999997
 20
87.000004
 30
0.0
 40
51.200338
100
AcDbArc
 50
162.9442689999999
 51
165.8690419999998
  0
ARC
  5
C2E6
330
BFD3
100
AcDbEntity
  8
1
  6
Continuous
100
AcDbCircle
 10
236.3688259999999
 20
87.000004
 30
0.0
 40
53.668826
100
AcDbArc
 50
163.0024819999999
 51
166.53155
  0
ARC
  5
C2E7
330
BFD3
100
AcDbEntity
  8
1
  6
Continuous
100
AcDbCircle
 10
186.3682049999999
 20
101.870502
 30
0.0
 40
0.5
100
AcDbArc
 50
90.0
 51
162.9442689999999
  0
ARC
  5
C2E8
330
BFD3
100
AcDbEntity
  8
1
  6
Continuous
100
AcDbCircle
 10
186.3682049999999
 20
72.129506
 30
0.0
 40
0.5
100
AcDbArc
 50
197.055731
 51
270.0
  0
ARC
  5
C2E9
330
BFD3
100
AcDbEntity
  8
1
  6
Continuous
100
AcDbCircle
 10
187.722081
 20
101.870502
 30
0.0
 40
2.799999999999998
100
AcDbArc
 50
90.0
 51
163.0024819999999
  0
ARC
  5
C2EA
330
BFD3
100
AcDbEntity
  8
1
  6
Continuous
100
AcDbCircle
 10
187.722081
 20
72.129506
 30
0.0
 40
2.799999999999998
100
AcDbArc
 50
196.9975179999999
 51
270.0
  0
ARC
  5
C2EB
330
BFD3
100
AcDbEntity
  8
1
  6
Continuous
100
AcDbCircle
 10
234.8387379999997
 20
87.000004
 30
0.0
 40
51.200338
100
AcDbArc
 50
194.130958
 51
197.055731
  0
ARC
  5
C2EC
330
BFD3
100
AcDbEntity
  8
1
  6
Continuous
100
AcDbCircle
 10
236.3688259999999
 20
87.000004
 30
0.0
 40
53.668826
100
AcDbArc
 50
193.46845
 51
196.9975179999999
  0
ARC
  5
C2ED
330
BFD3
100
AcDbEntity
  8
1
  6
Continuous
100
AcDbCircle
 10
224.9999549999997
 20
87.000004
 30
0.0
 40
24.15
100
AcDbArc
 50
44.25471199999999
 51
128.947833
  0
ARC
  5
C2EE
330
BFD3
100
AcDbEntity
  8
1
  6
Continuous
100
AcDbCircle
 10
224.9999549999997
 20
87.000004
 30
0.0
 40
21.85
100
AcDbArc
 50
44.25471199999999
 51
128.947833
  0
LINE
  5
C2EF
330
BFD3
100
AcDbEntity
  8
1
  6
Continuous
100
AcDbLine
 10
245.701347
 20
100.35925
 30
0.0
 11
242.2972609999999
 21
103.8530659999999
 31
0.0
  0
LINE
  5
C2F0
330
BFD3
100
AcDbEntity
  8
1
  6
Continuous
100
AcDbLine
 10
245.7013879999998
 20
73.64080099999998
 30
0.0
 11
242.2972609999999
 21
70.146942
 31
0.0
  0
LINE
  5
C2F1
330
BFD3
100
AcDbEntity
  8
1
  6
Continuous
100
AcDbLine
 10
244.169689
 20
75.36456699999998
 30
0.0
 11
240.649898
 21
71.75199499999997
 31
0.0
  0
LINE
  5
C2F2
330
BFD3
100
AcDbEntity
  8
1
  6
Continuous
100
AcDbLine
 10
244.169652
 20
98.635479
 30
0.0
 11
240.649898
 21
102.2480129999999
 31
0.0
  0
ARC
  5
C2F3
330
BFD3
100
AcDbEntity
  8
1
  6
Continuous
100
AcDbCircle
 10
224.9999549999997
 20
87.000004
 30
0.0
 40
21.85
100
AcDbArc
 50
231.0521669999999
 51
315.745288
  0
ARC
  5
C2F4
330
BFD3
100
AcDbEntity
  8
1
  6
Continuous
100
AcDbCircle
 10
224.9999549999997
 20
87.000004
 30
0.0
 40
24.15
100
AcDbArc
 50
231.0521669999999
 51
315.745288
  0
ARC
  5
C2F5
330
BFD3
100
AcDbEntity
  8
1
  6
Continuous
100
AcDbCircle
 10
206.6758989999999
 20
109.6705019999999
 30
0.0
 40
5.0
100
AcDbArc
 50
270.0
 51
308.9478329999999
  0
ARC
  5
C2F6
330
BFD3
100
AcDbEntity
  8
1
  6
Continuous
100
AcDbCircle
 10
206.6758989999999
 20
109.6705019999999
 30
0.0
 40
7.299999999999998
100
AcDbArc
 50
270.0
 51
308.9478329999999
  0
ARC
  5
C2F7
330
BFD3
100
AcDbEntity
  8
1
  6
Continuous
100
AcDbCircle
 10
206.6758989999999
 20
64.32950600000001
 30
0.0
 40
7.299999999999998
100
AcDbArc
 50
51.05216699999998
 51
90.0
  0
ARC
  5
C2F8
330
BFD3
100
AcDbEntity
  8
1
  6
Continuous
100
AcDbCircle
 10
206.6758989999999
 20
64.32950600000001
 30
0.0
 40
5.0
100
AcDbArc
 50
51.05216699999998
 51
90.0
  0
ARC
  5
C2F9
330
BFD3
100
AcDbEntity
  8
1
  6
Continuous
100
AcDbCircle
 10
224.9999549999997
 20
87.000004
 30
0.0
 40
25.18001599999999
100
AcDbArc
 50
33.07951
 51
135.3794659999997
  0
ARC
  5
C2FA
330
BFD3
100
AcDbEntity
  8
1
  6
Continuous
100
AcDbCircle
 10
224.9999549999997
 20
87.000004
 30
0.0
 40
25.18001599999999
100
AcDbArc
 50
224.6205339999999
 51
326.9206319999997
  0
ARC
  5
C2FB
330
BFD3
100
AcDbEntity
  8
1
  6
Continuous
100
AcDbCircle
 10
224.9999549999997
 20
87.000004
 30
0.0
 40
44.49995499999999
100
AcDbArc
 50
23.21822499999999
 51
163.686123
  0
ARC
  5
C2FC
330
BFD3
100
AcDbEntity
  8
1
  6
Continuous
100
AcDbCircle
 10
224.9999549999997
 20
87.000004
 30
0.0
 40
41.499955
100
AcDbArc
 50
26.617162
 51
154.820171
  0
ARC
  5
C2FD
330
BFD3
100
AcDbEntity
  8
1
  6
Continuous
100
AcDbCircle
 10
224.9999549999997
 20
87.000004
 30
0.0
 40
44.49995499999999
100
AcDbArc
 50
196.3138769999999
 51
336.7819169999999
  0
ARC
  5
C2FE
330
BFD3
100
AcDbEntity
  8
1
  6
Continuous
100
AcDbCircle
 10
224.9999549999997
 20
87.000004
 30
0.0
 40
41.499955
100
AcDbArc
 50
205.179829
 51
333.3829799999999
  0
LINE
  5
C2FF
330
BFD3
100
AcDbEntity
  8
4
  6
CENTER
100
AcDbLine
 10
198.0
 20
402.515242
 30
0.0
 11
198.0
 21
356.2138759999998
 31
0.0
  0
ARC
  5
C300
330
BFD3
100
AcDbEntity
  8
1
  6
Continuous
100
AcDbCircle
 10
559.9998199999999
 20
224.5411129999999
 30
0.0
 40
22.5
100
AcDbArc
 50
161.645304
 51
62.82728099999999
  0
ARC
  5
C301
330
BFD3
100
AcDbEntity
  8
1
  6
Continuous
100
AcDbCircle
 10
205.0836679999999
 20
101.0000039999999
 30
0.0
 40
1.0
100
AcDbArc
 50
5.000037999999999
 51
90.0
  0
ARC
  5
C302
330
BFD3
100
AcDbEntity
  8
1
  6
Continuous
100
AcDbCircle
 10
190.916332
 20
101.0000039999999
 30
0.0
 40
1.0
100
AcDbArc
 50
90.0
 51
174.9999689999999
  0
LINE
  5
C303
330
BFD3
100
AcDbEntity
  8
1
  6
Continuous
100
AcDbLine
 10
192.25
 20
102.3705019999999
 30
0.0
 11
192.25
 21
102.0000039999999
 31
0.0
  0
LINE
  5
C304
330
BFD3
100
AcDbEntity
  8
1
  6
Continuous
100
AcDbLine
 10
203.75
 20
102.3705019999999
 30
0.0
 11
203.75
 21
102.0000039999999
 31
0.0
  0
LINE
  5
C305
330
BFD3
100
AcDbEntity
  8
1
  6
Continuous
100
AcDbLine
 10
190.916332
 20
72.000004
 30
0.0
 11
205.0836679999999
 21
72.000004
 31
0.0
  0
LINE
  5
C306
330
BFD3
100
AcDbEntity
  8
1
  6
Continuous
100
AcDbLine
 10
226.7900379999999
 20
74.500004
 30
0.0
 11
169.209962
 21
74.500004
 31
0.0
  0
LINE
  5
C307
330
BFD3
100
AcDbEntity
  8
1
  6
Continuous
100
AcDbLine
 10
190.916332
 20
102.0000039999999
 30
0.0
 11
205.0836679999999
 21
102.0000039999999
 31
0.0
  0
LINE
  5
C308
330
BFD3
100
AcDbEntity
  8
1
  6
Continuous
100
AcDbLine
 10
226.7900379999999
 20
99.500004
 30
0.0
 11
169.209962
 21
99.500004
 31
0.0
  0
ARC
  5
C309
330
BFD3
100
AcDbEntity
  8
1
  6
Continuous
100
AcDbCircle
 10
246.4999999999998
 20
87.000004
 30
0.0
 40
80.0
100
AcDbArc
 50
172.26362
 51
187.73638
  0
ARC
  5
C30A
330
BFD3
100
AcDbEntity
  8
1
  6
Continuous
100
AcDbCircle
 10
169.209962
 20
76.500004
 30
0.0
 40
2.0
100
AcDbArc
 50
187.73638
 51
270.0
  0
LINE
  5
C30B
330
BFD3
100
AcDbEntity
  8
1
  6
Continuous
100
AcDbLine
 10
192.25
 20
72.000004
 30
0.0
 11
192.25
 21
71.62950600000002
 31
0.0
  0
ARC
  5
C30C
330
BFD3
100
AcDbEntity
  8
1
  6
Continuous
100
AcDbCircle
 10
190.916332
 20
73.000004
 30
0.0
 40
1.0
100
AcDbArc
 50
185.000031
 51
270.0
  0
LINE
  5
C30D
330
BFD3
100
AcDbEntity
  8
1
  6
Continuous
100
AcDbLine
 10
189.920135
 20
72.912846
 30
0.0
 11
189.7812759999999
 21
74.500004
 31
0.0
  0
ARC
  5
C30E
330
BFD3
100
AcDbEntity
  8
1
  6
Continuous
100
AcDbCircle
 10
169.209962
 20
97.50000400000001
 30
0.0
 40
2.0
100
AcDbArc
 50
90.0
 51
172.26362
  0
LINE
  5
C30F
330
BFD3
100
AcDbEntity
  8
1
  6
Continuous
100
AcDbLine
 10
189.920135
 20
101.0871609999999
 30
0.0
 11
189.7812759999999
 21
99.500004
 31
0.0
  0
ARC
  5
C310
330
BFD3
100
AcDbEntity
  8
1
  6
Continuous
100
AcDbCircle
 10
205.0836679999999
 20
73.000004
 30
0.0
 40
1.0
100
AcDbArc
 50
270.0
 51
354.9999619999999
  0
LINE
  5
C311
330
BFD3
100
AcDbEntity
  8
1
  6
Continuous
100
AcDbLine
 10
203.75
 20
72.000004
 30
0.0
 11
203.75
 21
71.62950600000002
 31
0.0
  0
LINE
  5
C312
330
BFD3
100
AcDbEntity
  8
1
  6
Continuous
100
AcDbLine
 10
206.0798639999999
 20
72.912846
 30
0.0
 11
206.218723
 21
74.500004
 31
0.0
  0
LINE
  5
C313
330
BFD3
100
AcDbEntity
  8
1
  6
Continuous
100
AcDbLine
 10
206.0798639999999
 20
101.0871609999999
 30
0.0
 11
206.218723
 21
99.500004
 31
0.0
  0
ARC
  5
C314
330
BFD3
100
AcDbEntity
  8
1
  6
Continuous
100
AcDbCircle
 10
149.5
 20
87.000004
 30
0.0
 40
80.0
100
AcDbArc
 50
352.2636199999997
 51
7.736380000000001
  0
ARC
  5
C315
330
BFD3
100
AcDbEntity
  8
1
  6
Continuous
100
AcDbCircle
 10
226.7900379999999
 20
76.500004
 30
0.0
 40
2.0
100
AcDbArc
 50
270.0
 51
352.2636199999997
  0
ARC
  5
C316
330
BFD3
100
AcDbEntity
  8
1
  6
Continuous
100
AcDbCircle
 10
226.7900379999999
 20
97.50000400000001
 30
0.0
 40
2.0
100
AcDbArc
 50
7.736380000000001
 51
90.0
  0
ARC
  5
C317
330
BFD3
100
AcDbEntity
  8
1
  6
Continuous
100
AcDbCircle
 10
198.0
 20
224.5411129999999
 30
0.0
 40
22.5
100
AcDbArc
 50
117.172719
 51
18.354696
  0
ARC
  5
C318
330
BFD3
100
AcDbEntity
  8
1
  6
Continuous
100
AcDbCircle
 10
246.4999999999998
 20
380.082222
 30
0.0
 40
80.0
100
AcDbArc
 50
172.26362
 51
187.73638
  0
LINE
  5
C319
330
BFD3
100
AcDbEntity
  8
1
  6
Continuous
100
AcDbLine
 10
178.999955
 20
392.582222
 30
0.0
 11
169.209962
 21
392.582222
 31
0.0
  0
ARC
  5
C31A
330
BFD3
100
AcDbEntity
  8
1
  6
Continuous
100
AcDbCircle
 10
169.209962
 20
390.582222
 30
0.0
 40
2.0
100
AcDbArc
 50
90.0
 51
172.26362
  0
LINE
  5
C31B
330
BFD3
100
AcDbEntity
  8
1
  6
Continuous
100
AcDbLine
 10
178.999955
 20
367.582222
 30
0.0
 11
169.209962
 21
367.582222
 31
0.0
  0
ARC
  5
C31C
330
BFD3
100
AcDbEntity
  8
1
  6
Continuous
100
AcDbCircle
 10
169.209962
 20
369.582222
 30
0.0
 40
2.0
100
AcDbArc
 50
187.73638
 51
270.0
  0
ARC
  5
C31D
330
BFD3
100
AcDbEntity
  8
1
  6
Continuous
100
AcDbCircle
 10
71.0
 20
273.0411129999998
 30
0.0
 40
80.0
100
AcDbArc
 50
262.26362
 51
277.7363799999998
  0
ARC
  5
C31E
330
BFD3
100
AcDbEntity
  8
1
  6
Continuous
100
AcDbCircle
 10
71.0
 20
176.041113
 30
0.0
 40
80.0
100
AcDbArc
 50
82.26361999999998
 51
97.73638000000001
  0
LINE
  5
C31F
330
BFD3
100
AcDbEntity
  8
1
  6
Continuous
100
AcDbLine
 10
56.0
 20
231.624781
 30
0.0
 11
56.0
 21
217.457445
 31
0.0
  0
LINE
  5
C320
330
BFD3
100
AcDbEntity
  8
1
  6
Continuous
100
AcDbLine
 10
58.5
 20
195.7510749999999
 30
0.0
 11
58.5
 21
253.3311509999998
 31
0.0
  0
ARC
  5
C321
330
BFD3
100
AcDbEntity
  8
1
  6
Continuous
100
AcDbCircle
 10
60.5
 20
253.3311509999998
 30
0.0
 40
2.0
100
AcDbArc
 50
97.73638000000001
 51
180.0
  0
ARC
  5
C322
330
BFD3
100
AcDbEntity
  8
1
  6
Continuous
100
AcDbCircle
 10
57.0
 20
231.624781
 30
0.0
 40
1.0
100
AcDbArc
 50
95.00003100000002
 51
180.0
  0
LINE
  5
C323
330
BFD3
100
AcDbEntity
  8
1
  6
Continuous
100
AcDbLine
 10
56.91284200000001
 20
232.6209779999998
 30
0.0
 11
58.5
 21
232.759837
 31
0.0
  0
LINE
  5
C324
330
BFD3
100
AcDbEntity
  8
1
  6
Continuous
100
AcDbLine
 10
56.0
 20
218.7911129999999
 30
0.0
 11
55.569803
 21
218.7911129999999
 31
0.0
  0
LINE
  5
C325
330
BFD3
100
AcDbEntity
  8
1
  6
Continuous
100
AcDbLine
 10
56.0
 20
230.291113
 30
0.0
 11
55.328912
 21
230.291113
 31
0.0
  0
ARC
  5
C326
330
BFD3
100
AcDbEntity
  8
1
  6
Continuous
100
AcDbCircle
 10
57.0
 20
217.457445
 30
0.0
 40
1.0
100
AcDbArc
 50
180.0
 51
264.999962
  0
LINE
  5
C327
330
BFD3
100
AcDbEntity
  8
1
  6
Continuous
100
AcDbLine
 10
56.91284200000001
 20
216.461249
 30
0.0
 11
58.5
 21
216.3223899999999
 31
0.0
  0
ARC
  5
C328
330
BFD3
100
AcDbEntity
  8
1
  6
Continuous
100
AcDbCircle
 10
60.5
 20
195.7510749999999
 30
0.0
 40
2.0
100
AcDbArc
 50
180.0
 51
262.26362
  0
LINE
  5
C329
330
BFD3
100
AcDbEntity
  8
1
  6
Continuous
100
AcDbLine
 10
86.0
 20
231.624781
 30
0.0
 11
86.0
 21
217.457445
 31
0.0
  0
LINE
  5
C32A
330
BFD3
100
AcDbEntity
  8
1
  6
Continuous
100
AcDbLine
 10
83.49999999999999
 20
195.7510749999999
 30
0.0
 11
83.49999999999999
 21
253.3311509999998
 31
0.0
  0
ARC
  5
C32B
330
BFD3
100
AcDbEntity
  8
1
  6
Continuous
100
AcDbCircle
 10
81.5
 20
253.3311509999998
 30
0.0
 40
2.0
100
AcDbArc
 50
0.0
 51
82.26361999999998
  0
ARC
  5
C32C
330
BFD3
100
AcDbEntity
  8
1
  6
Continuous
100
AcDbCircle
 10
85.0
 20
231.624781
 30
0.0
 40
1.0
100
AcDbArc
 50
0.0
 51
84.99996899999997
  0
LINE
  5
C32D
330
BFD3
100
AcDbEntity
  8
1
  6
Continuous
100
AcDbLine
 10
85.08715699999997
 20
232.6209779999998
 30
0.0
 11
83.49999999999999
 21
232.759837
 31
0.0
  0
LINE
  5
C32E
330
BFD3
100
AcDbEntity
  8
1
  6
Continuous
100
AcDbLine
 10
86.43019699999996
 20
218.7911129999999
 30
0.0
 11
86.0
 21
218.7911129999999
 31
0.0
  0
LINE
  5
C32F
330
BFD3
100
AcDbEntity
  8
1
  6
Continuous
100
AcDbLine
 10
86.67108799999999
 20
230.291113
 30
0.0
 11
86.0
 21
230.291113
 31
0.0
  0
ARC
  5
C330
330
BFD3
100
AcDbEntity
  8
1
  6
Continuous
100
AcDbCircle
 10
85.0
 20
217.457445
 30
0.0
 40
1.0
100
AcDbArc
 50
275.0000379999999
 51
0.0
  0
LINE
  5
C331
330
BFD3
100
AcDbEntity
  8
1
  6
Continuous
100
AcDbLine
 10
85.08715699999997
 20
216.461249
 30
0.0
 11
83.49999999999999
 21
216.3223899999999
 31
0.0
  0
ARC
  5
C332
330
BFD3
100
AcDbEntity
  8
1
  6
Continuous
100
AcDbCircle
 10
81.5
 20
195.7510749999999
 30
0.0
 40
2.0
100
AcDbArc
 50
277.7363799999998
 51
0.0
  0
LINE
  5
C333
330
BFD3
100
AcDbEntity
  8
1
  6
Continuous
100
AcDbLine
 10
391.49991
 20
205.5411129999999
 30
0.0
 11
391.49991
 21
249.2411129999999
 31
0.0
  0
LINE
  5
C334
330
BFD3
100
AcDbEntity
  8
1
  6
Continuous
100
AcDbLine
 10
366.49991
 20
205.5411129999999
 30
0.0
 11
366.49991
 21
249.2411129999999
 31
0.0
  0
LINE
  5
C335
330
BFD3
100
AcDbEntity
  8
1
  6
Continuous
100
AcDbLine
 10
363.99991
 20
231.624781
 30
0.0
 11
363.99991
 21
217.457445
 31
0.0
  0
LINE
  5
C336
330
BFD3
100
AcDbEntity
  8
1
  6
Continuous
100
AcDbLine
 10
363.99991
 20
230.291113
 30
0.0
 11
363.328822
 21
230.291113
 31
0.0
  0
ARC
  5
C337
330
BFD3
100
AcDbEntity
  8
1
  6
Continuous
100
AcDbCircle
 10
364.99991
 20
231.624781
 30
0.0
 40
1.0
100
AcDbArc
 50
95.00003100000002
 51
180.0
  0
LINE
  5
C338
330
BFD3
100
AcDbEntity
  8
1
  6
Continuous
100
AcDbLine
 10
364.912752
 20
232.6209779999998
 30
0.0
 11
366.49991
 21
232.759837
 31
0.0
  0
LINE
  5
C339
330
BFD3
100
AcDbEntity
  8
1
  6
Continuous
100
AcDbLine
 10
363.99991
 20
218.7911129999999
 30
0.0
 11
363.569713
 21
218.7911129999999
 31
0.0
  0
ARC
  5
C33A
330
BFD3
100
AcDbEntity
  8
1
  6
Continuous
100
AcDbCircle
 10
364.99991
 20
217.457445
 30
0.0
 40
1.0
100
AcDbArc
 50
180.0
 51
264.999962
  0
LINE
  5
C33B
330
BFD3
100
AcDbEntity
  8
1
  6
Continuous
100
AcDbLine
 10
364.912752
 20
216.461249
 30
0.0
 11
366.49991
 21
216.3223899999999
 31
0.0
  0
LINE
  5
C33C
330
BFD3
100
AcDbEntity
  8
1
  6
Continuous
100
AcDbLine
 10
394.4301069999998
 20
218.7911129999999
 30
0.0
 11
393.9999099999998
 21
218.7911129999999
 31
0.0
  0
ARC
  5
C33D
330
BFD3
100
AcDbEntity
  8
1
  6
Continuous
100
AcDbCircle
 10
392.99991
 20
217.457445
 30
0.0
 40
1.0
100
AcDbArc
 50
275.0000379999999
 51
0.0
  0
LINE
  5
C33E
330
BFD3
100
AcDbEntity
  8
1
  6
Continuous
100
AcDbLine
 10
393.087067
 20
216.461249
 30
0.0
 11
391.49991
 21
216.3223899999999
 31
0.0
  0
LINE
  5
C33F
330
BFD3
100
AcDbEntity
  8
1
  6
Continuous
100
AcDbLine
 10
393.9999099999998
 20
231.624781
 30
0.0
 11
393.9999099999998
 21
217.457445
 31
0.0
  0
LINE
  5
C340
330
BFD3
100
AcDbEntity
  8
1
  6
Continuous
100
AcDbLine
 10
394.6709979999998
 20
230.291113
 30
0.0
 11
393.9999099999998
 21
230.291113
 31
0.0
  0
ARC
  5
C341
330
BFD3
100
AcDbEntity
  8
1
  6
Continuous
100
AcDbCircle
 10
392.99991
 20
231.624781
 30
0.0
 40
1.0
100
AcDbArc
 50
0.0
 51
84.99996899999997
  0
LINE
  5
C342
330
BFD3
100
AcDbEntity
  8
1
  6
Continuous
100
AcDbLine
 10
393.087067
 20
232.6209779999998
 30
0.0
 11
391.49991
 21
232.759837
 31
0.0
  0
LINE
  5
C343
330
BFD3
100
AcDbEntity
  8
5
  6
PHANTOM
100
AcDbLine
 10
277.85
 20
214.5411129999998
 30
0.0
 11
240.1499999999999
 21
214.5411129999998
 31
0.0
  0
LINE
  5
C344
330
BFD3
100
AcDbEntity
  8
5
  6
PHANTOM
100
AcDbLine
 10
276.25
 20
208.0411129999998
 30
0.0
 11
241.7499999999999
 21
208.0411129999998
 31
0.0
  0
LINE
  5
C345
330
BFD3
100
AcDbEntity
  8
5
  6
PHANTOM
100
AcDbLine
 10
274.85
 20
220.5411129999998
 30
0.0
 11
243.15
 21
220.5411129999998
 31
0.0
  0
LINE
  5
C346
330
BFD3
100
AcDbEntity
  8
5
  6
PHANTOM
100
AcDbLine
 10
241.7499999999999
 20
214.5411129999998
 30
0.0
 11
241.7499999999999
 21
208.0411129999998
 31
0.0
  0
ARC
  5
C347
330
BFD3
100
AcDbEntity
  8
5
  6
PHANTOM
100
AcDbCircle
 10
243.15
 20
217.541113
 30
0.0
 40
3.0
100
AcDbArc
 50
90.0
 51
180.0
  0
LINE
  5
C348
330
BFD3
100
AcDbEntity
  8
5
  6
PHANTOM
100
AcDbLine
 10
240.1499999999999
 20
214.5411129999998
 30
0.0
 11
240.1499999999999
 21
217.541113
 31
0.0
  0
ARC
  5
C349
330
BFD3
100
AcDbEntity
  8
5
  6
PHANTOM
100
AcDbCircle
 10
274.85
 20
217.541113
 30
0.0
 40
3.0
100
AcDbArc
 50
0.0
 51
90.0
  0
LINE
  5
C34A
330
BFD3
100
AcDbEntity
  8
5
  6
PHANTOM
100
AcDbLine
 10
276.25
 20
214.5411129999998
 30
0.0
 11
276.25
 21
208.0411129999998
 31
0.0
  0
LINE
  5
C34B
330
BFD3
100
AcDbEntity
  8
5
  6
PHANTOM
100
AcDbLine
 10
277.85
 20
217.541113
 30
0.0
 11
277.85
 21
214.5411129999998
 31
0.0
  0
LINE
  5
C34C
330
BFD3
100
AcDbEntity
  8
5
  6
PHANTOM
100
AcDbLine
 10
276.25
 20
178.041113
 30
0.0
 11
241.7499999999999
 21
178.041113
 31
0.0
  0
LINE
  5
C34D
330
BFD3
100
AcDbEntity
  8
5
  6
PHANTOM
100
AcDbLine
 10
277.85
 20
184.541113
 30
0.0
 11
240.1499999999999
 21
184.541113
 31
0.0
  0
LINE
  5
C34E
330
BFD3
100
AcDbEntity
  8
5
  6
PHANTOM
100
AcDbLine
 10
274.85
 20
190.541113
 30
0.0
 11
243.15
 21
190.541113
 31
0.0
  0
LINE
  5
C34F
330
BFD3
100
AcDbEntity
  8
5
  6
PHANTOM
100
AcDbLine
 10
240.1499999999999
 20
184.541113
 30
0.0
 11
240.1499999999999
 21
187.5411129999999
 31
0.0
  0
LINE
  5
C350
330
BFD3
100
AcDbEntity
  8
5
  6
PHANTOM
100
AcDbLine
 10
241.7499999999999
 20
184.541113
 30
0.0
 11
241.7499999999999
 21
178.041113
 31
0.0
  0
ARC
  5
C351
330
BFD3
100
AcDbEntity
  8
5
  6
PHANTOM
100
AcDbCircle
 10
243.15
 20
187.5411129999999
 30
0.0
 40
3.0
100
AcDbArc
 50
90.0
 51
180.0
  0
ARC
  5
C352
330
BFD3
100
AcDbEntity
  8
5
  6
PHANTOM
100
AcDbCircle
 10
274.85
 20
187.5411129999999
 30
0.0
 40
3.0
100
AcDbArc
 50
0.0
 51
90.0
  0
LINE
  5
C353
330
BFD3
100
AcDbEntity
  8
5
  6
PHANTOM
100
AcDbLine
 10
277.85
 20
187.5411129999999
 30
0.0
 11
277.85
 21
184.541113
 31
0.0
  0
LINE
  5
C354
330
BFD3
100
AcDbEntity
  8
5
  6
PHANTOM
100
AcDbLine
 10
276.25
 20
184.541113
 30
0.0
 11
276.25
 21
178.041113
 31
0.0
  0
LINE
  5
C355
330
BFD3
100
AcDbEntity
  8
5
  6
PHANTOM
100
AcDbLine
 10
516.2498199999999
 20
208.0411129999998
 30
0.0
 11
481.74982
 21
208.0411129999998
 31
0.0
  0
LINE
  5
C356
330
BFD3
100
AcDbEntity
  8
5
  6
PHANTOM
100
AcDbLine
 10
517.8498199999998
 20
214.5411129999998
 30
0.0
 11
480.14982
 21
214.5411129999998
 31
0.0
  0
LINE
  5
C357
330
BFD3
100
AcDbEntity
  8
5
  6
PHANTOM
100
AcDbLine
 10
514.84982
 20
220.5411129999998
 30
0.0
 11
483.1498199999998
 21
220.5411129999998
 31
0.0
  0
LINE
  5
C358
330
BFD3
100
AcDbEntity
  8
5
  6
PHANTOM
100
AcDbLine
 10
480.14982
 20
214.5411129999998
 30
0.0
 11
480.14982
 21
217.541113
 31
0.0
  0
LINE
  5
C359
330
BFD3
100
AcDbEntity
  8
5
  6
PHANTOM
100
AcDbLine
 10
481.74982
 20
214.5411129999998
 30
0.0
 11
481.74982
 21
208.0411129999998
 31
0.0
  0
ARC
  5
C35A
330
BFD3
100
AcDbEntity
  8
5
  6
PHANTOM
100
AcDbCircle
 10
483.1498199999998
 20
217.541113
 30
0.0
 40
3.0
100
AcDbArc
 50
90.0
 51
180.0
  0
ARC
  5
C35B
330
BFD3
100
AcDbEntity
  8
5
  6
PHANTOM
100
AcDbCircle
 10
514.84982
 20
217.541113
 30
0.0
 40
3.0
100
AcDbArc
 50
0.0
 51
90.0
  0
LINE
  5
C35C
330
BFD3
100
AcDbEntity
  8
5
  6
PHANTOM
100
AcDbLine
 10
517.8498199999998
 20
217.541113
 30
0.0
 11
517.8498199999998
 21
214.5411129999998
 31
0.0
  0
LINE
  5
C35D
330
BFD3
100
AcDbEntity
  8
5
  6
PHANTOM
100
AcDbLine
 10
516.2498199999999
 20
214.5411129999998
 30
0.0
 11
516.2498199999999
 21
208.0411129999998
 31
0.0
  0
ARC
  5
C35E
330
BFD3
100
AcDbEntity
  8
5
  6
PHANTOM
100
AcDbCircle
 10
514.84982
 20
187.5411129999999
 30
0.0
 40
3.0
100
AcDbArc
 50
0.0
 51
90.0
  0
LINE
  5
C35F
330
BFD3
100
AcDbEntity
  8
5
  6
PHANTOM
100
AcDbLine
 10
517.8498199999998
 20
184.541113
 30
0.0
 11
480.14982
 21
184.541113
 31
0.0
  0
LINE
  5
C360
330
BFD3
100
AcDbEntity
  8
5
  6
PHANTOM
100
AcDbLine
 10
516.2498199999999
 20
178.041113
 30
0.0
 11
481.74982
 21
178.041113
 31
0.0
  0
LINE
  5
C361
330
BFD3
100
AcDbEntity
  8
5
  6
PHANTOM
100
AcDbLine
 10
514.84982
 20
190.541113
 30
0.0
 11
483.1498199999998
 21
190.541113
 31
0.0
  0
LINE
  5
C362
330
BFD3
100
AcDbEntity
  8
5
  6
PHANTOM
100
AcDbLine
 10
516.2498199999999
 20
184.541113
 30
0.0
 11
516.2498199999999
 21
178.041113
 31
0.0
  0
LINE
  5
C363
330
BFD3
100
AcDbEntity
  8
5
  6
PHANTOM
100
AcDbLine
 10
517.8498199999998
 20
187.5411129999999
 30
0.0
 11
517.8498199999998
 21
184.541113
 31
0.0
  0
ARC
  5
C364
330
BFD3
100
AcDbEntity
  8
5
  6
PHANTOM
100
AcDbCircle
 10
483.1498199999998
 20
187.5411129999999
 30
0.0
 40
3.0
100
AcDbArc
 50
90.0
 51
180.0
  0
LINE
  5
C365
330
BFD3
100
AcDbEntity
  8
5
  6
PHANTOM
100
AcDbLine
 10
481.74982
 20
184.541113
 30
0.0
 11
481.74982
 21
178.041113
 31
0.0
  0
LINE
  5
C366
330
BFD3
100
AcDbEntity
  8
5
  6
PHANTOM
100
AcDbLine
 10
480.14982
 20
184.541113
 30
0.0
 11
480.14982
 21
187.5411129999999
 31
0.0
  0
ENDSEC
  0
SECTION
  2
OBJECTS
  0
DICTIONARY
  5
BFC1
330
0
100
AcDbDictionary
281
     1
  3
ACAD_CIP_PREVIOUS_PRODUCT_INFO
350
C3C8
  3
ACAD_COLOR
350
C3AA
  3
ACAD_DETAILVIEWSTYLE
350
C3C3
  3
ACAD_GROUP
350
BFC2
  3
ACAD_LAYOUT
350
BFCE
  3
ACAD_MATERIAL
350
C378
  3
ACAD_MLEADERSTYLE
350
C3BF
  3
ACAD_MLINESTYLE
350
BFCB
  3
ACAD_PLOTSETTINGS
350
BFCD
  3
ACAD_PLOTSTYLENAME
350
C376
  3
ACAD_SCALELIST
350
C3AD
  3
ACAD_SECTIONVIEWSTYLE
350
C3C1
  3
ACAD_TABLESTYLE
350
C3AB
  3
ACAD_VISUALSTYLE
350
C391
  3
ACDB_RECOMPOSE_DATA
350
C3E6
  3
AcDbVariableDictionary
350
C3D9
  3
DWGPROPS
350
C3E7
  0
DICTIONARY
  5
C3C9
330
BFC5
100
AcDbDictionary
280
     1
281
     1
  3
ADSK_XREC_LAYER_RECONCILED
360
C3CA
  0
DICTIONARY
  5
C3CB
330
BFDB
100
AcDbDictionary
280
     1
281
     1
  3
ADSK_XREC_LAYER_RECONCILED
360
C3CC
  0
DICTIONARY
  5
C3CD
330
BFDC
100
AcDbDictionary
280
     1
281
     1
  3
ADSK_XREC_LAYER_RECONCILED
360
C3CE
  0
DICTIONARY
  5
C3CF
330
BFDD
100
AcDbDictionary
280
     1
281
     1
  3
ADSK_XREC_LAYER_RECONCILED
360
C3D0
  0
DICTIONARY
  5
C3D1
330
BFDE
100
AcDbDictionary
280
     1
281
     1
  3
ADSK_XREC_LAYER_RECONCILED
360
C3D2
  0
DICTIONARY
  5
C3D3
330
BFDF
100
AcDbDictionary
280
     1
281
     1
  3
ADSK_XREC_LAYER_RECONCILED
360
C3D4
  0
DICTIONARY
  5
C3D5
330
BFE0
100
AcDbDictionary
280
     1
281
     1
  3
ADSK_XREC_LAYER_RECONCILED
360
C3D6
  0
DICTIONARY
  5
C3D7
330
BFE1
100
AcDbDictionary
280
     1
281
     1
  3
ADSK_XREC_LAYER_RECONCILED
360
C3D8
  0
DICTIONARY
  5
C371
330
BFD3
100
AcDbDictionary
281
     1
  3
ACAD_LAYOUTSELFREF
350
C372
  0
DICTIONARY
  5
C36F
330
BFCF
100
AcDbDictionary
281
     1
  3
ACAD_LAYOUTSELFREF
350
C370
  0
XRECORD
  5
C3C8
102
{ACAD_REACTORS
330
BFC1
102
}
330
BFC1
100
AcDbXrecord
280
     1
300
ACDLT
300
2014
300
ACDLT_F_S
  0
DICTIONARY
  5
C3AA
102
{ACAD_REACTORS
330
BFC1
102
}
330
BFC1
100
AcDbDictionary
281
     1
  0
DICTIONARY
  5
C3C3
102
{ACAD_REACTORS
330
BFC1
102
}
330
BFC1
100
AcDbDictionary
281
     1
  3
Imperial24
350
C3C4
  0
DICTIONARY
  5
BFC2
102
{ACAD_REACTORS
330
BFC1
102
}
330
BFC1
100
AcDbDictionary
281
     1
  0
DICTIONARY
  5
BFCE
102
{ACAD_REACTORS
330
BFC1
102
}
330
BFC1
100
AcDbDictionary
281
     1
  3
Model
350
C3C5
  3
レイアウト1
350
C3C6
  0
DICTIONARY
  5
C378
102
{ACAD_REACTORS
330
BFC1
102
}
330
BFC1
100
AcDbDictionary
281
     1
  3
ByBlock
350
C381
  3
ByLayer
350
C379
  3
Global
350
C389
  0
DICTIONARY
  5
C3BF
102
{ACAD_REACTORS
330
BFC1
102
}
330
BFC1
100
AcDbDictionary
281
     1
  3
Standard
350
C3C0
  0
DICTIONARY
  5
BFCB
102
{ACAD_REACTORS
330
BFC1
102
}
330
BFC1
100
AcDbDictionary
281
     1
  3
STANDARD
350
BFCC
  0
DICTIONARY
  5
BFCD
102
{ACAD_REACTORS
330
BFC1
102
}
330
BFC1
100
AcDbDictionary
281
     1
  0
ACDBDICTIONARYWDFLT
  5
C376
102
{ACAD_REACTORS
330
BFC1
102
}
330
BFC1
100
AcDbDictionary
281
     1
  3
Normal
350
C377
100
AcDbDictionaryWithDefault
340
C377
  0
DICTIONARY
  5
C3AD
102
{ACAD_REACTORS
330
BFC1
102
}
330
BFC1
100
AcDbDictionary
281
     1
  3
A0
350
C3AE
  3
A1
350
C3AF
  3
A2
350
C3B0
  3
A3
350
C3B1
  3
A4
350
C3B2
  3
A5
350
C3B3
  3
A6
350
C3B4
  3
A7
350
C3B5
  3
A8
350
C3B6
  3
A9
350
C3B7
  3
B0
350
C3B8
  3
B1
350
C3B9
  3
B2
350
C3BA
  3
B3
350
C3BB
  3
B4
350
C3BC
  3
B5
350
C3BD
  3
B6
350
C3BE
  0
DICTIONARY
  5
C3C1
102
{ACAD_REACTORS
330
BFC1
102
}
330
BFC1
100
AcDbDictionary
281
     1
  3
Imperial24
350
C3C2
  0
DICTIONARY
  5
C3AB
102
{ACAD_REACTORS
330
BFC1
102
}
330
BFC1
100
AcDbDictionary
281
     1
  3
Standard
350
C3AC
  0
DICTIONARY
  5
C391
102
{ACAD_REACTORS
330
BFC1
102
}
330
BFC1
100
AcDbDictionary
281
     1
  3
2dWireframe
350
C397
  3
Basic
350
C396
  3
Brighten
350
C39D
  3
ColorChange
350
C3A1
  3
Conceptual
350
C39A
  3
Dim
350
C39C
  3
EdgeColorOff
350
C3A9
  3
Facepattern
350
C3A0
  3
Flat
350
C392
  3
FlatWithEdges
350
C393
  3
Gouraud
350
C394
  3
GouraudWithEdges
350
C395
  3
Hidden
350
C399
  3
JitterOff
350
C3A7
  3
Linepattern
350
C39F
  3
OverhangOff
350
C3A8
  3
Realistic
350
C39B
  3
Shaded
350
C3A6
  3
Shaded with edges
350
C3A5
  3
Shades of Gray
350
C3A2
  3
Sketchy
350
C3A3
  3
Thicken
350
C39E
  3
Wireframe
350
C398
  3
X-Ray
350
C3A4
  0
XRECORD
  5
C3E6
102
{ACAD_REACTORS
330
BFC1
102
}
330
BFC1
100
AcDbXrecord
280
     1
 90
        1
330
C3AC
  0
DICTIONARY
  5
C3D9
102
{ACAD_REACTORS
330
BFC1
102
}
330
BFC1
100
AcDbDictionary
281
     1
  3
CANNOSCALE
350
C3DE
  3
CMLEADERSTYLE
350
C3DB
  3
CTABLESTYLE
350
C3DA
  3
CVIEWDETAILSTYLE
350
C3DC
  3
CVIEWSECTIONSTYLE
350
C3DD
  3
DIMASSOC
350
C3E1
  3
INDEXCTL
350
C3E0
  3
SORTENTS
350
C3DF
  3
XCLIPFRAME
350
C3E2
  0
XRECORD
  5
C3E7
102
{ACAD_REACTORS
330
BFC1
102
}
330
BFC1
100
AcDbXrecord
280
     1
  1
DWGPROPS COOKIE
  2

  3

  4

  6

  7

  8
Yoshitsune
  9

300
=
301
=
302
=
303
=
304
=
305
=
306
=
307
=
308
=
309
=
 40
0.0339877893518519
 41
2451301.436114121
 42
2457192.686804502
  1

 90
        0
  0
XRECORD
  5
C3CA
102
{ACAD_REACTORS
330
C3C9
102
}
330
C3C9
100
AcDbXrecord
280
     1
290
     1
  0
XRECORD
  5
C3CC
102
{ACAD_REACTORS
330
C3CB
102
}
330
C3CB
100
AcDbXrecord
280
     1
290
     1
  0
XRECORD
  5
C3CE
102
{ACAD_REACTORS
330
C3CD
102
}
330
C3CD
100
AcDbXrecord
280
     1
290
     1
  0
XRECORD
  5
C3D0
102
{ACAD_REACTORS
330
C3CF
102
}
330
C3CF
100
AcDbXrecord
280
     1
290
     1
  0
XRECORD
  5
C3D2
102
{ACAD_REACTORS
330
C3D1
102
}
330
C3D1
100
AcDbXrecord
280
     1
290
     1
  0
XRECORD
  5
C3D4
102
{ACAD_REACTORS
330
C3D3
102
}
330
C3D3
100
AcDbXrecord
280
     1
290
     1
  0
XRECORD
  5
C3D6
102
{ACAD_REACTORS
330
C3D5
102
}
330
C3D5
100
AcDbXrecord
280
     1
290
     1
  0
XRECORD
  5
C3D8
102
{ACAD_REACTORS
330
C3D7
102
}
330
C3D7
100
AcDbXrecord
280
     1
290
     1
  0
XRECORD
  5
C372
102
{ACAD_REACTORS
330
C371
102
}
330
C371
100
AcDbXrecord
280
     1
340
BFD3
  0
XRECORD
  5
C370
102
{ACAD_REACTORS
330
C36F
102
}
330
C36F
100
AcDbXrecord
280
     1
340
BFCF
  0
ACDBDETAILVIEWSTYLE
  5
C3C4
102
{ACAD_XDICTIONARY
360
C41F
102
}
102
{ACAD_REACTORS
330
C3C3
102
}
330
C3C3
100
AcDbModelDocViewStyle
 70
     0
  3
Imperial24
290
     0
100
AcDbDetailViewStyle
 70
     0
 71
     0
 90
        3
 71
     1
340
BFC6
 40
0.24
340
0
 40
0.24
300

 40
0.36
280
     3
 71
     2
340
BFCA
 90
       25
 71
     3
340
BFC6
 40
0.24
 90
        1
 40
0.75
 90
        1
300
%<\AcVar ViewType \f "%tc1">% %<\AcVar ViewDetailId>%\PSCALE %<\AcVar ViewScale \f "%sn">%
 71
     4
340
BFCA
 90
       25
340
BFCA
 90
       25
280
     0
  0
LAYOUT
  5
C3C5
102
{ACAD_XDICTIONARY
360
C421
102
}
102
{ACAD_REACTORS
330
BFCE
102
}
330
BFCE
100
AcDbPlotSettings
  1

  2
Canon LBP9100C
  4

  6

 40
0.0
 41
0.0
 42
0.0
 43
0.0
 44
0.0
 45
0.0
 46
0.0
 47
0.0
 48
0.0
 49
0.0
140
0.0
141
0.0
142
1.0
143
1.0
 70
  1712
 72
     0
 73
     0
 74
     0
  7

 75
     0
147
1.0
148
0.0
149
0.0
100
AcDbLayout
  1
Model
 70
     1
 71
     0
 10
0.0
 20
0.0
 11
12.0
 21
9.0
 12
0.0
 22
0.0
 32
0.0
 14
0.0
 24
0.0
 34
0.0
 15
0.0
 25
0.0
 35
0.0
146
0.0
 13
0.0
 23
0.0
 33
0.0
 16
1.0
 26
0.0
 36
0.0
 17
0.0
 27
1.0
 37
0.0
 76
     0
330
BFD3
331
C36E
  0
LAYOUT
  5
C3C6
102
{ACAD_XDICTIONARY
360
C423
102
}
102
{ACAD_REACTORS
330
BFCE
102
}
330
BFCE
100
AcDbPlotSettings
  1

  2
Canon LBP9100C
  4

  6

 40
0.0
 41
0.0
 42
0.0
 43
0.0
 44
0.0
 45
0.0
 46
0.0
 47
0.0
 48
0.0
 49
0.0
140
0.0
141
0.0
142
1.0
143
1.0
 70
   688
 72
     0
 73
     0
 74
     5
  7

 75
    16
147
1.0
148
0.0
149
0.0
100
AcDbLayout
  1
レイアウト1
 70
     0
 71
     1
 10
0.0
 20
0.0
 11
420.0
 21
297.0
 12
0.0
 22
0.0
 32
0.0
 14
1.000000000000000E+20
 24
1.000000000000000E+20
 34
1.000000000000000E+20
 15
-1.000000000000000E+20
 25
-1.000000000000000E+20
 35
-1.000000000000000E+20
146
0.0
 13
0.0
 23
0.0
 33
0.0
 16
1.0
 26
0.0
 36
0.0
 17
0.0
 27
1.0
 37
0.0
 76
     0
330
BFCF
  0
MATERIAL
  5
C381
102
{ACAD_XDICTIONARY
360
C382
102
}
102
{ACAD_REACTORS
330
C378
102
}
330
C378
100
AcDbMaterial
  1
ByBlock
 72
     0
 43
0.0208333333333333
 43
0.0
 43
0.0
 43
0.0
 43
0.0
 43
0.0208333333333333
 43
0.0
 43
0.0
 43
0.0
 43
0.0
 43
1.0
 43
0.0
 43
0.0
 43
0.0
 43
0.0
 43
1.0
 77
     0
 47
0.0208333333333333
 47
0.0
 47
0.0
 47
0.0
 47
0.0
 47
0.0208333333333333
 47
0.0
 47
0.0
 47
0.0
 47
0.0
 47
1.0
 47
0.0
 47
0.0
 47
0.0
 47
0.0
 47
1.0
171
     0
 49
0.0208333333333333
 49
0.0
 49
0.0
 49
0.0
 49
0.0
 49
0.0208333333333333
 49
0.0
 49
0.0
 49
0.0
 49
0.0
 49
1.0
 49
0.0
 49
0.0
 49
0.0
 49
0.0
 49
1.0
175
     0
142
0.0208333333333333
142
0.0
142
0.0
142
0.0
142
0.0
142
0.0208333333333333
142
0.0
142
0.0
142
0.0
142
0.0
142
1.0
142
0.0
142
0.0
142
0.0
142
0.0
142
1.0
179
     0
144
0.0208333333333333
144
0.0
144
0.0
144
0.0
144
0.0
144
0.0208333333333333
144
0.0
144
0.0
144
0.0
144
0.0
144
1.0
144
0.0
144
0.0
144
0.0
144
0.0
144
1.0
147
0.0208333333333333
147
0.0
147
0.0
147
0.0
147
0.0
147
0.0208333333333333
147
0.0
147
0.0
147
0.0
147
0.0
147
1.0
147
0.0
147
0.0
147
0.0
147
0.0
147
1.0
  0
MATERIAL
  5
C379
102
{ACAD_XDICTIONARY
360
C37A
102
}
102
{ACAD_REACTORS
330
C378
102
}
330
C378
100
AcDbMaterial
  1
ByLayer
 72
     0
 43
0.0208333333333333
 43
0.0
 43
0.0
 43
0.0
 43
0.0
 43
0.0208333333333333
 43
0.0
 43
0.0
 43
0.0
 43
0.0
 43
1.0
 43
0.0
 43
0.0
 43
0.0
 43
0.0
 43
1.0
 77
     0
 47
0.0208333333333333
 47
0.0
 47
0.0
 47
0.0
 47
0.0
 47
0.0208333333333333
 47
0.0
 47
0.0
 47
0.0
 47
0.0
 47
1.0
 47
0.0
 47
0.0
 47
0.0
 47
0.0
 47
1.0
171
     0
 49
0.0208333333333333
 49
0.0
 49
0.0
 49
0.0
 49
0.0
 49
0.0208333333333333
 49
0.0
 49
0.0
 49
0.0
 49
0.0
 49
1.0
 49
0.0
 49
0.0
 49
0.0
 49
0.0
 49
1.0
175
     0
142
0.0208333333333333
142
0.0
142
0.0
142
0.0
142
0.0
142
0.0208333333333333
142
0.0
142
0.0
142
0.0
142
0.0
142
1.0
142
0.0
142
0.0
142
0.0
142
0.0
142
1.0
179
     0
144
0.0208333333333333
144
0.0
144
0.0
144
0.0
144
0.0
144
0.0208333333333333
144
0.0
144
0.0
144
0.0
144
0.0
144
1.0
144
0.0
144
0.0
144
0.0
144
0.0
144
1.0
147
0.0208333333333333
147
0.0
147
0.0
147
0.0
147
0.0
147
0.0208333333333333
147
0.0
147
0.0
147
0.0
147
0.0
147
1.0
147
0.0
147
0.0
147
0.0
147
0.0
147
1.0
  0
MATERIAL
  5
C389
102
{ACAD_XDICTIONARY
360
C38A
102
}
102
{ACAD_REACTORS
330
C378
102
}
330
C378
100
AcDbMaterial
  1
Global
 72
     0
 43
0.0208333333333333
 43
0.0
 43
0.0
 43
0.0
 43
0.0
 43
0.0208333333333333
 43
0.0
 43
0.0
 43
0.0
 43
0.0
 43
1.0
 43
0.0
 43
0.0
 43
0.0
 43
0.0
 43
1.0
 77
     0
 47
0.0208333333333333
 47
0.0
 47
0.0
 47
0.0
 47
0.0
 47
0.0208333333333333
 47
0.0
 47
0.0
 47
0.0
 47
0.0
 47
1.0
 47
0.0
 47
0.0
 47
0.0
 47
0.0
 47
1.0
171
     0
 49
0.0208333333333333
 49
0.0
 49
0.0
 49
0.0
 49
0.0
 49
0.0208333333333333
 49
0.0
 49
0.0
 49
0.0
 49
0.0
 49
1.0
 49
0.0
 49
0.0
 49
0.0
 49
0.0
 49
1.0
175
     0
142
0.0208333333333333
142
0.0
142
0.0
142
0.0
142
0.0
142
0.0208333333333333
142
0.0
142
0.0
142
0.0
142
0.0
142
1.0
142
0.0
142
0.0
142
0.0
142
0.0
142
1.0
179
     0
144
0.0208333333333333
144
0.0
144
0.0
144
0.0
144
0.0
144
0.0208333333333333
144
0.0
144
0.0
144
0.0
144
0.0
144
1.0
144
0.0
144
0.0
144
0.0
144
0.0
144
1.0
147
0.0208333333333333
147
0.0
147
0.0
147
0.0
147
0.0
147
0.0208333333333333
147
0.0
147
0.0
147
0.0
147
0.0
147
1.0
147
0.0
147
0.0
147
0.0
147
0.0
147
1.0
  0
MLEADERSTYLE
  5
C3C0
102
{ACAD_REACTORS
330
C3BF
102
}
330
C3BF
100
AcDbMLeaderStyle
170
     2
171
     1
172
     0
 90
        2
 40
0.0
 41
0.0
173
     1
 91
-1056964608
340
BFC8
 92
       -2
290
     1
 42
0.09
291
     1
 43
0.36
  3
Standard
 44
0.18
300

342
BFC6
174
     1
178
     6
175
     1
176
     0
 93
-1056964608
 45
0.18
292
     0
297
     0
 46
0.18
 94
-1056964608
 47
1.0
 49
1.0
140
1.0
293
     1
141
0.0
294
     1
177
     0
142
1.0
295
     0
296
     0
143
0.125
1001
ACAD_MLEADERVER
1070
     2
  0
MLINESTYLE
  5
BFCC
102
{ACAD_REACTORS
330
BFCB
102
}
330
BFCB
100
AcDbMlineStyle
  2
STANDARD
 70
     0
  3

 62
   256
 51
90.0
 52
90.0
 71
     2
 49
0.5
 62
   256
  6
BYLAYER
 49
-0.5
 62
   256
  6
BYLAYER
  0
ACDBPLACEHOLDER
  5
C377
102
{ACAD_REACTORS
330
C376
102
}
330
C376
  0
SCALE
  5
C3AE
102
{ACAD_REACTORS
330
C3AD
102
}
330
C3AD
100
AcDbScale
 70
     0
300
1:1
140
1.0
141
1.0
290
     1
  0
SCALE
  5
C3AF
102
{ACAD_REACTORS
330
C3AD
102
}
330
C3AD
100
AcDbScale
 70
     0
300
1/128" = 1'-0"
140
0.0078125
141
12.0
290
     0
  0
SCALE
  5
C3B0
102
{ACAD_REACTORS
330
C3AD
102
}
330
C3AD
100
AcDbScale
 70
     0
300
1/64" = 1'-0"
140
0.015625
141
12.0
290
     0
  0
SCALE
  5
C3B1
102
{ACAD_REACTORS
330
C3AD
102
}
330
C3AD
100
AcDbScale
 70
     0
300
1/32" = 1'-0"
140
0.03125
141
12.0
290
     0
  0
SCALE
  5
C3B2
102
{ACAD_REACTORS
330
C3AD
102
}
330
C3AD
100
AcDbScale
 70
     0
300
1/16" = 1'-0"
140
0.0625
141
12.0
290
     0
  0
SCALE
  5
C3B3
102
{ACAD_REACTORS
330
C3AD
102
}
330
C3AD
100
AcDbScale
 70
     0
300
3/32" = 1'-0"
140
0.09375
141
12.0
290
     0
  0
SCALE
  5
C3B4
102
{ACAD_REACTORS
330
C3AD
102
}
330
C3AD
100
AcDbScale
 70
     0
300
1/8" = 1'-0"
140
0.125
141
12.0
290
     0
  0
SCALE
  5
C3B5
102
{ACAD_REACTORS
330
C3AD
102
}
330
C3AD
100
AcDbScale
 70
     0
300
3/16" = 1'-0"
140
0.1875
141
12.0
290
     0
  0
SCALE
  5
C3B6
102
{ACAD_REACTORS
330
C3AD
102
}
330
C3AD
100
AcDbScale
 70
     0
300
1/4" = 1'-0"
140
0.25
141
12.0
290
     0
  0
SCALE
  5
C3B7
102
{ACAD_REACTORS
330
C3AD
102
}
330
C3AD
100
AcDbScale
 70
     0
300
3/8" = 1'-0"
140
0.375
141
12.0
290
     0
  0
SCALE
  5
C3B8
102
{ACAD_REACTORS
330
C3AD
102
}
330
C3AD
100
AcDbScale
 70
     0
300
1/2" = 1'-0"
140
0.5
141
12.0
290
     0
  0
SCALE
  5
C3B9
102
{ACAD_REACTORS
330
C3AD
102
}
330
C3AD
100
AcDbScale
 70
     0
300
3/4" = 1'-0"
140
0.75
141
12.0
290
     0
  0
SCALE
  5
C3BA
102
{ACAD_REACTORS
330
C3AD
102
}
330
C3AD
100
AcDbScale
 70
     0
300
1" = 1'-0"
140
1.0
141
12.0
290
     0
  0
SCALE
  5
C3BB
102
{ACAD_REACTORS
330
C3AD
102
}
330
C3AD
100
AcDbScale
 70
     0
300
1-1/2" = 1'-0"
140
1.5
141
12.0
290
     0
  0
SCALE
  5
C3BC
102
{ACAD_REACTORS
330
C3AD
102
}
330
C3AD
100
AcDbScale
 70
     0
300
3" = 1'-0"
140
3.0
141
12.0
290
     0
  0
SCALE
  5
C3BD
102
{ACAD_REACTORS
330
C3AD
102
}
330
C3AD
100
AcDbScale
 70
     0
300
6" = 1'-0"
140
6.0
141
12.0
290
     0
  0
SCALE
  5
C3BE
102
{ACAD_REACTORS
330
C3AD
102
}
330
C3AD
100
AcDbScale
 70
     0
300
1'-0" = 1'-0"
140
12.0
141
12.0
290
     0
  0
ACDBSECTIONVIEWSTYLE
  5
C3C2
102
{ACAD_XDICTIONARY
360
C41D
102
}
102
{ACAD_REACTORS
330
C3C1
102
}
330
C3C1
100
AcDbModelDocViewStyle
 70
     0
  3
Imperial24
290
     0
100
AcDbSectionViewStyle
 70
     0
 71
     0
 90
       78
 71
     1
340
BFC6
 40
0.24
340
0
340
0
 40
0.24
300
I, O, Q, S, X, Z
 40
0.48
 90
        3
 40
0.18
 90
        1
 71
     2
340
BFCA
 90
       25
340
BFCA
 90
       50
 40
0.24
 40
0.0
 40
0.24
 71
     3
340
BFC6
 40
0.24
 90
        1
 40
0.75
 90
        1
300
%<\AcVar ViewType \f "%tc1">% %<\AcVar ViewSectionStartId>%-%<\AcVar ViewSectionEndId>%\PSCALE %<\AcVar ViewScale \f "%sn">%
 71
     4
300
ANSI31
 40
1.0
 90
        0
290
     0
290
     0
 90
        6
 40
0.0
 40
1.570796326794896
 40
0.2617993877991494
 40
1.308996938995747
 40
-0.2617993877991494
 40
1.832595714594046
  0
TABLESTYLE
  5
C3AC
102
{ACAD_XDICTIONARY
360
C3E4
102
}
102
{ACAD_REACTORS
330
C3AB
102
}
330
C3AB
100
AcDbTableStyle
  3
Standard
 70
     0
 71
     0
 40
0.06
 41
0.06
280
     0
281
     0
  7
STANDARD
140
0.18
170
     2
 62
     0
 63
     7
283
     0
274
    -2
284
     1
 64
     0
275
    -2
285
     1
 65
     0
276
    -2
286
     1
 66
     0
277
    -2
287
     1
 67
     0
278
    -2
288
     1
 68
     0
279
    -2
289
     1
 69
     0
  7
STANDARD
140
0.25
170
     5
 62
     0
 63
     7
283
     0
274
    -2
284
     1
 64
     0
275
    -2
285
     1
 65
     0
276
    -2
286
     1
 66
     0
277
    -2
287
     1
 67
     0
278
    -2
288
     1
 68
     0
279
    -2
289
     1
 69
     0
  7
STANDARD
140
0.18
170
     5
 62
     0
 63
     7
283
     0
274
    -2
284
     1
 64
     0
275
    -2
285
     1
 65
     0
276
    -2
286
     1
 66
     0
277
    -2
287
     1
 67
     0
278
    -2
288
     1
 68
     0
279
    -2
289
     1
 69
     0
  0
VISUALSTYLE
  5
C397
102
{ACAD_XDICTIONARY
360
C3F5
102
}
102
{ACAD_REACTORS
330
C391
102
}
330
C391
100
AcDbVisualStyle
  2
2dWireframe
 70
     4
 71
     0
 72
     2
 73
     0
 90
        0
 40
-0.6
 41
-30.0
 62
     5
 63
     7
 74
     1
 91
        4
 64
     7
 65
   257
 75
     1
175
     1
 42
1.0
 92
        0
 66
   257
 43
1.0
 76
     1
 77
     6
 78
     2
 67
     7
 79
     5
170
     0
171
     0
290
     0
174
     0
 93
        1
 44
0.0
173
     0
291
     0
 45
0.0
1001
ACAD
1000
AcDbSavedByObjectVersion
1070
     0
  0
VISUALSTYLE
  5
C396
102
{ACAD_XDICTIONARY
360
C3F3
102
}
102
{ACAD_REACTORS
330
C391
102
}
330
C391
100
AcDbVisualStyle
  2
Basic
 70
     7
 71
     1
 72
     0
 73
     1
 90
        0
 40
-0.6
 41
-30.0
 62
     5
 63
     7
 74
     0
 91
        4
 64
     7
 65
   257
 75
     1
175
     1
 42
1.0
 92
        8
 66
     7
 43
1.0
 76
     1
 77
     6
 78
     2
 67
     7
 79
     5
170
     0
171
     0
290
     0
174
     0
 93
        1
 44
0.0
173
     0
291
     1
 45
0.0
1001
ACAD
1000
AcDbSavedByObjectVersion
1070
     0
  0
VISUALSTYLE
  5
C39D
102
{ACAD_XDICTIONARY
360
C401
102
}
102
{ACAD_REACTORS
330
C391
102
}
330
C391
100
AcDbVisualStyle
  2
Brighten
 70
    12
 71
     2
 72
     2
 73
     0
 90
        0
 40
-0.6
 41
-30.0
 62
     5
 63
     7
 74
     1
 91
        4
 64
     7
 65
   257
 75
     1
175
     1
 42
1.0
 92
        8
 66
     7
 43
1.0
 76
     1
 77
     6
 78
     2
 67
     7
 79
     5
170
     0
171
     0
290
     0
174
     0
 93
        1
 44
50.0
173
     0
291
     1
 45
0.0
1001
ACAD
1000
AcDbSavedByObjectVersion
1070
     0
  0
VISUALSTYLE
  5
C3A1
102
{ACAD_XDICTIONARY
360
C409
102
}
102
{ACAD_REACTORS
330
C391
102
}
330
C391
100
AcDbVisualStyle
  2
ColorChange
 70
    16
 71
     2
 72
     2
 73
     3
 90
        0
 40
-0.6
 41
-30.0
 62
     5
 63
     8
 74
     1
 91
        4
 64
     7
 65
   257
 75
     1
175
     1
 42
1.0
 92
        8
 66
     8
 43
1.0
 76
     1
 77
     6
 78
     2
 67
     7
 79
     5
170
     0
171
     0
290
     0
174
     0
 93
        1
 44
0.0
173
     0
291
     1
 45
0.0
1001
ACAD
1000
AcDbSavedByObjectVersion
1070
     0
  0
VISUALSTYLE
  5
C39A
102
{ACAD_XDICTIONARY
360
C3FB
102
}
102
{ACAD_REACTORS
330
C391
102
}
330
C391
100
AcDbVisualStyle
  2
Conceptual
 70
     9
 71
     3
 72
     2
 73
     0
 90
        0
 40
-0.6
 41
-30.0
 62
     5
 63
     7
 74
     2
 91
        2
 64
     7
 65
   257
 75
     1
175
     1
 42
179.0
 92
        8
 66
     7
 43
1.0
 76
     1
 77
     6
 78
     2
 67
     7
 79
     3
170
     0
171
     0
290
     0
174
     0
 93
        1
 44
0.0
173
     0
291
     0
 45
0.0
1001
ACAD
1000
AcDbSavedByObjectVersion
1070
     0
  0
VISUALSTYLE
  5
C39C
102
{ACAD_XDICTIONARY
360
C3FF
102
}
102
{ACAD_REACTORS
330
C391
102
}
330
C391
100
AcDbVisualStyle
  2
Dim
 70
    11
 71
     2
 72
     2
 73
     0
 90
        0
 40
-0.6
 41
-30.0
 62
     5
 63
     7
 74
     1
 91
        4
 64
     7
 65
   257
 75
     1
175
     1
 42
1.0
 92
        8
 66
     7
 43
1.0
 76
     1
 77
     6
 78
     2
 67
     7
 79
     5
170
     0
171
     0
290
     0
174
     0
 93
        1
 44
-50.0
173
     0
291
     1
 45
0.0
1001
ACAD
1000
AcDbSavedByObjectVersion
1070
     0
  0
VISUALSTYLE
  5
C3A9
102
{ACAD_XDICTIONARY
360
C419
102
}
102
{ACAD_REACTORS
330
C391
102
}
330
C391
100
AcDbVisualStyle
  2
EdgeColorOff
 70
    22
 71
     2
 72
     2
 73
     0
 90
        0
 40
-0.6
 41
-30.0
 62
     5
 63
     7
 74
     1
 91
        4
 64
     7
 65
   257
 75
     1
175
     1
 42
1.0
 92
        8
 66
     7
 43
1.0
 76
     1
 77
     6
 78
     2
 67
     7
 79
     5
170
     0
171
     0
290
     0
174
     0
 93
        1
 44
0.0
173
     0
291
     1
 45
0.0
1001
ACAD
1000
AcDbSavedByObjectVersion
1070
     0
  0
VISUALSTYLE
  5
C3A0
102
{ACAD_XDICTIONARY
360
C407
102
}
102
{ACAD_REACTORS
330
C391
102
}
330
C391
100
AcDbVisualStyle
  2
Facepattern
 70
    15
 71
     2
 72
     2
 73
     0
 90
        0
 40
-0.6
 41
-30.0
 62
     5
 63
     7
 74
     1
 91
        4
 64
     7
 65
   257
 75
     1
175
     1
 42
1.0
 92
        8
 66
     7
 43
1.0
 76
     1
 77
     6
 78
     2
 67
     7
 79
     5
170
     0
171
     0
290
     0
174
     0
 93
        1
 44
0.0
173
     0
291
     1
 45
0.0
1001
ACAD
1000
AcDbSavedByObjectVersion
1070
     0
  0
VISUALSTYLE
  5
C392
102
{ACAD_XDICTIONARY
360
C3EB
102
}
102
{ACAD_REACTORS
330
C391
102
}
330
C391
100
AcDbVisualStyle
  2
Flat
 70
     0
 71
     2
 72
     1
 73
     1
 90
        2
 40
-0.6
 41
30.0
 62
     5
 63
     7
 74
     0
 91
        0
 64
     7
 65
   257
 75
     1
175
     1
 42
1.0
 92
        8
 66
     7
 43
1.0
 76
     1
 77
     6
 78
     2
 67
     7
 79
     5
170
     0
171
     0
290
     0
174
     0
 93
       13
 44
0.0
173
     0
291
     1
 45
0.0
1001
ACAD
1000
AcDbSavedByObjectVersion
1070
     0
  0
VISUALSTYLE
  5
C393
102
{ACAD_XDICTIONARY
360
C3ED
102
}
102
{ACAD_REACTORS
330
C391
102
}
330
C391
100
AcDbVisualStyle
  2
FlatWithEdges
 70
     1
 71
     2
 72
     1
 73
     1
 90
        2
 40
-0.6
 41
30.0
 62
     5
 63
     7
 74
     1
 91
        0
 64
     7
 65
   257
 75
     1
175
     1
 42
1.0
 92
        0
 66
   257
 43
1.0
 76
     1
 77
     6
 78
     2
 67
     7
 79
     5
170
     0
171
     0
290
     0
174
     0
 93
       13
 44
0.0
173
     0
291
     1
 45
0.0
1001
ACAD
1000
AcDbSavedByObjectVersion
1070
     0
  0
VISUALSTYLE
  5
C394
102
{ACAD_XDICTIONARY
360
C3EF
102
}
102
{ACAD_REACTORS
330
C391
102
}
330
C391
100
AcDbVisualStyle
  2
Gouraud
 70
     2
 71
     2
 72
     2
 73
     1
 90
        2
 40
-0.6
 41
30.0
 62
     5
 63
     7
 74
     0
 91
        0
 64
     7
 65
   257
 75
     1
175
     1
 42
1.0
 92
        0
 66
     7
 43
1.0
 76
     1
 77
     6
 78
     2
 67
     7
 79
     5
170
     0
171
     0
290
     0
174
     0
 93
       13
 44
0.0
173
     0
291
     1
 45
0.0
1001
ACAD
1000
AcDbSavedByObjectVersion
1070
     0
  0
VISUALSTYLE
  5
C395
102
{ACAD_XDICTIONARY
360
C3F1
102
}
102
{ACAD_REACTORS
330
C391
102
}
330
C391
100
AcDbVisualStyle
  2
GouraudWithEdges
 70
     3
 71
     2
 72
     2
 73
     1
 90
        2
 40
-0.6
 41
30.0
 62
     5
 63
     7
 74
     1
 91
        0
 64
     7
 65
   257
 75
     1
175
     1
 42
1.0
 92
        0
 66
   257
 43
1.0
 76
     1
 77
     6
 78
     2
 67
     7
 79
     5
170
     0
171
     0
290
     0
174
     0
 93
       13
 44
0.0
173
     0
291
     1
 45
0.0
1001
ACAD
1000
AcDbSavedByObjectVersion
1070
     0
  0
VISUALSTYLE
  5
C399
102
{ACAD_XDICTIONARY
360
C3F9
102
}
102
{ACAD_REACTORS
330
C391
102
}
330
C391
100
AcDbVisualStyle
  2
Hidden
 70
     6
 71
     1
 72
     2
 73
     2
 90
        0
 40
-0.6
 41
-30.0
 62
     5
 63
     7
 74
     2
 91
        2
 64
     7
 65
   257
 75
     2
175
     1
 42
40.0
 92
        0
 66
   257
 43
1.0
 76
     1
 77
     6
 78
     2
 67
     7
 79
     3
170
     0
171
     0
290
     0
174
     0
 93
        1
 44
0.0
173
     0
291
     0
 45
0.0
1001
ACAD
1000
AcDbSavedByObjectVersion
1070
     0
  0
VISUALSTYLE
  5
C3A7
102
{ACAD_XDICTIONARY
360
C415
102
}
102
{ACAD_REACTORS
330
C391
102
}
330
C391
100
AcDbVisualStyle
  2
JitterOff
 70
    20
 71
     2
 72
     2
 73
     0
 90
        0
 40
-0.6
 41
-30.0
 62
     5
 63
     7
 74
     1
 91
        4
 64
     7
 65
   257
 75
     1
175
     1
 42
1.0
 92
       10
 66
     7
 43
1.0
 76
     1
 77
     6
 78
     2
 67
     7
 79
     5
170
     0
171
     0
290
     0
174
     0
 93
        1
 44
0.0
173
     0
291
     1
 45
0.0
1001
ACAD
1000
AcDbSavedByObjectVersion
1070
     0
  0
VISUALSTYLE
  5
C39F
102
{ACAD_XDICTIONARY
360
C405
102
}
102
{ACAD_REACTORS
330
C391
102
}
330
C391
100
AcDbVisualStyle
  2
Linepattern
 70
    14
 71
     2
 72
     2
 73
     0
 90
        0
 40
-0.6
 41
-30.0
 62
     5
 63
     7
 74
     1
 91
        4
 64
     7
 65
   257
 75
     7
175
     7
 42
1.0
 92
        8
 66
     7
 43
1.0
 76
     1
 77
     6
 78
     2
 67
     7
 79
     5
170
     0
171
     0
290
     0
174
     0
 93
        1
 44
0.0
173
     0
291
     1
 45
0.0
1001
ACAD
1000
AcDbSavedByObjectVersion
1070
     0
  0
VISUALSTYLE
  5
C3A8
102
{ACAD_XDICTIONARY
360
C417
102
}
102
{ACAD_REACTORS
330
C391
102
}
330
C391
100
AcDbVisualStyle
  2
OverhangOff
 70
    21
 71
     2
 72
     2
 73
     0
 90
        0
 40
-0.6
 41
-30.0
 62
     5
 63
     7
 74
     1
 91
        4
 64
     7
 65
   257
 75
     1
175
     1
 42
1.0
 92
        9
 66
     7
 43
1.0
 76
     1
 77
     6
 78
     2
 67
     7
 79
     5
170
     0
171
     0
290
     0
174
     0
 93
        1
 44
0.0
173
     0
291
     1
 45
0.0
1001
ACAD
1000
AcDbSavedByObjectVersion
1070
     0
  0
VISUALSTYLE
  5
C39B
102
{ACAD_XDICTIONARY
360
C3FD
102
}
102
{ACAD_REACTORS
330
C391
102
}
330
C391
100
AcDbVisualStyle
  2
Realistic
 70
     8
 71
     2
 72
     3
 73
     0
 90
        2
 40
-0.6
 41
30.0
 62
     5
 63
     7
 74
     0
 91
        0
 64
     7
 65
   257
 75
     1
175
     1
 42
1.0
 92
        8
 66
   257
 43
1.0
 76
     1
 77
     6
 78
     2
 67
     7
 79
     3
170
     0
171
     0
290
     0
174
     0
 93
       13
 44
0.0
173
     0
291
     0
 45
0.0
1001
ACAD
1000
AcDbSavedByObjectVersion
1070
     0
  0
VISUALSTYLE
  5
C3A6
102
{ACAD_XDICTIONARY
360
C413
102
}
102
{ACAD_REACTORS
330
C391
102
}
330
C391
100
AcDbVisualStyle
  2
Shaded
 70
    27
 71
     2
 72
     2
 73
     1
 90
        2
 40
-0.6
 41
30.0
 62
     5
 63
     7
 74
     0
 91
        4
 64
     7
 65
   257
 75
     1
175
     1
 42
1.0
 92
        8
 66
   257
 43
1.0
 76
     1
 77
     6
 78
     2
 67
     8
 79
     3
170
     0
171
     0
290
     0
174
     0
 93
        5
 44
0.0
173
     0
291
     0
 45
0.0
1001
ACAD
1000
AcDbSavedByObjectVersion
1070
     0
  0
VISUALSTYLE
  5
C3A5
102
{ACAD_XDICTIONARY
360
C411
102
}
102
{ACAD_REACTORS
330
C391
102
}
330
C391
100
AcDbVisualStyle
  2
Shaded with edges
 70
    26
 71
     2
 72
     2
 73
     1
 90
        2
 40
-0.6
 41
30.0
 62
     5
 63
     7
 74
     1
 91
       10
 64
     7
 65
   257
 75
     2
175
     1
 42
1.0
 92
        8
 66
   257
 43
1.0
 76
     1
 77
     6
 78
     2
 67
     7
 79
     3
170
     0
171
     0
290
     0
174
     0
 93
        5
 44
0.0
173
     0
291
     0
 45
0.0
1001
ACAD
1000
AcDbSavedByObjectVersion
1070
     0
  0
VISUALSTYLE
  5
C3A2
102
{ACAD_XDICTIONARY
360
C40B
102
}
102
{ACAD_REACTORS
330
C391
102
}
330
C391
100
AcDbVisualStyle
  2
Shades of Gray
 70
    23
 71
     2
 72
     2
 73
     3
 90
        0
 40
-0.6
 41
-30.0
 62
     5
 63
     7
 74
     2
 91
        2
 64
     7
 65
     7
 75
     1
175
     1
 42
40.0
 92
        8
 66
     7
 43
1.0
 76
     1
 77
     6
 78
     2
 67
     7
 79
     3
170
     0
171
     0
290
     0
174
     0
 93
        1
 44
0.0
173
     0
291
     0
 45
0.0
1001
ACAD
1000
AcDbSavedByObjectVersion
1070
     0
  0
VISUALSTYLE
  5
C3A3
102
{ACAD_XDICTIONARY
360
C40D
102
}
102
{ACAD_REACTORS
330
C391
102
}
330
C391
100
AcDbVisualStyle
  2
Sketchy
 70
    24
 71
     1
 72
     2
 73
     2
 90
        0
 40
-0.6
 41
-30.0
 62
     5
 63
     7
 74
     2
 91
        2
 64
     7
 65
     7
 75
     1
175
     1
 42
40.0
 92
       11
 66
     7
 43
1.0
 76
     1
 77
     6
 78
     2
 67
     7
 79
     6
170
     0
171
     0
290
     0
174
     0
 93
        1
 44
0.0
173
     0
291
     0
 45
0.0
1001
ACAD
1000
AcDbSavedByObjectVersion
1070
     0
  0
VISUALSTYLE
  5
C39E
102
{ACAD_XDICTIONARY
360
C403
102
}
102
{ACAD_REACTORS
330
C391
102
}
330
C391
100
AcDbVisualStyle
  2
Thicken
 70
    13
 71
     2
 72
     2
 73
     0
 90
        0
 40
-0.6
 41
-30.0
 62
     5
 63
     7
 74
     1
 91
        4
 64
     7
 65
   257
 75
     1
175
     1
 42
1.0
 92
       12
 66
     7
 43
1.0
 76
     1
 77
     6
 78
     2
 67
     7
 79
     5
170
     0
171
     0
290
     0
174
     0
 93
        1
 44
0.0
173
     0
291
     1
 45
0.0
1001
ACAD
1000
AcDbSavedByObjectVersion
1070
     0
  0
VISUALSTYLE
  5
C398
102
{ACAD_XDICTIONARY
360
C3F7
102
}
102
{ACAD_REACTORS
330
C391
102
}
330
C391
100
AcDbVisualStyle
  2
Wireframe
 70
     5
 71
     0
 72
     2
 73
     0
 90
        0
 40
-0.6
 41
-30.0
 62
     5
 63
     7
 74
     1
 91
        4
 64
     7
 65
   257
 75
     1
175
     1
 42
1.0
 92
        0
 66
   257
 43
1.0
 76
     1
 77
     6
 78
     2
 67
     7
 79
     3
170
     0
171
     0
290
     0
174
     0
 93
        1
 44
0.0
173
     0
291
     0
 45
0.0
1001
ACAD
1000
AcDbSavedByObjectVersion
1070
     0
  0
VISUALSTYLE
  5
C3A4
102
{ACAD_XDICTIONARY
360
C40F
102
}
102
{ACAD_REACTORS
330
C391
102
}
330
C391
100
AcDbVisualStyle
  2
X-Ray
 70
    25
 71
     2
 72
     2
 73
     1
 90
        1
 40
0.5
 41
-30.0
 62
     5
 63
     7
 74
     1
 91
        0
 64
     7
 65
   257
 75
     1
175
     1
 42
1.0
 92
        8
 66
     7
 43
1.0
 76
     1
 77
     6
 78
     2
 67
     7
 79
     3
170
     0
171
     0
290
     0
174
     0
 93
       13
 44
0.0
173
     0
291
     0
 45
0.0
1001
ACAD
1000
AcDbSavedByObjectVersion
1070
     0
  0
DICTIONARYVAR
  5
C3DE
102
{ACAD_REACTORS
330
C3D9
102
}
330
C3D9
100
DictionaryVariables
280
     0
  1
1:1
  0
DICTIONARYVAR
  5
C3DB
102
{ACAD_REACTORS
330
C3D9
102
}
330
C3D9
100
DictionaryVariables
280
     0
  1
STANDARD
  0
DICTIONARYVAR
  5
C3DA
102
{ACAD_REACTORS
330
C3D9
102
}
330
C3D9
100
DictionaryVariables
280
     0
  1
STANDARD
  0
DICTIONARYVAR
  5
C3DC
102
{ACAD_REACTORS
330
C3D9
102
}
330
C3D9
100
DictionaryVariables
280
     0
  1
Imperial24
  0
DICTIONARYVAR
  5
C3DD
102
{ACAD_REACTORS
330
C3D9
102
}
330
C3D9
100
DictionaryVariables
280
     0
  1
Imperial24
  0
DICTIONARYVAR
  5
C3E1
102
{ACAD_REACTORS
330
C3D9
102
}
330
C3D9
100
DictionaryVariables
280
     0
  1
1
  0
DICTIONARYVAR
  5
C3E0
102
{ACAD_REACTORS
330
C3D9
102
}
330
C3D9
100
DictionaryVariables
280
     0
  1
0
  0
DICTIONARYVAR
  5
C3DF
102
{ACAD_REACTORS
330
C3D9
102
}
330
C3D9
100
DictionaryVariables
280
     0
  1
127
  0
DICTIONARYVAR
  5
C3E2
102
{ACAD_REACTORS
330
C3D9
102
}
330
C3D9
100
DictionaryVariables
280
     0
  1
2
  0
DICTIONARY
  5
C41F
330
C3C4
100
AcDbDictionary
280
     1
281
     1
  3
ACAD_XREC_ROUNDTRIP
360
C420
  0
DICTIONARY
  5
C421
330
C3C5
100
AcDbDictionary
280
     1
281
     1
  3
ACAD_XREC_ROUNDTRIP
360
C422
  0
DICTIONARY
  5
C423
330
C3C6
100
AcDbDictionary
280
     1
281
     1
  3
ACAD_XREC_ROUNDTRIP
360
C424
  0
DICTIONARY
  5
C382
330
C381
100
AcDbDictionary
280
     1
281
     1
  3
ACAD_XREC_ROUNDTRIP
360
C3E9
  3
BUMPTILE
360
C384
  3
DIFFUSETILE
360
C383
  3
OPACITYTILE
360
C387
  3
REFLECTIONTILE
360
C386
  3
REFRACTIONTILE
360
C388
  3
SPECULARTILE
360
C385
  0
DICTIONARY
  5
C37A
330
C379
100
AcDbDictionary
280
     1
281
     1
  3
ACAD_XREC_ROUNDTRIP
360
C3E8
  3
BUMPTILE
360
C37C
  3
DIFFUSETILE
360
C37B
  3
OPACITYTILE
360
C37F
  3
REFLECTIONTILE
360
C37E
  3
REFRACTIONTILE
360
C380
  3
SPECULARTILE
360
C37D
  0
DICTIONARY
  5
C38A
330
C389
100
AcDbDictionary
280
     1
281
     1
  3
ACAD_XREC_ROUNDTRIP
360
C3EA
  3
BUMPTILE
360
C38C
  3
DIFFUSETILE
360
C38B
  3
OPACITYTILE
360
C38F
  3
REFLECTIONTILE
360
C38E
  3
REFRACTIONTILE
360
C390
  3
SPECULARTILE
360
C38D
  0
DICTIONARY
  5
C41D
330
C3C2
100
AcDbDictionary
280
     1
281
     1
  3
ACAD_XREC_ROUNDTRIP
360
C41E
  0
DICTIONARY
  5
C3E4
330
C3AC
100
AcDbDictionary
280
     1
281
     1
  3
ACAD_ROUNDTRIP_2008_TABLESTYLE_CELLSTYLEMAP
360
C3E5
  3
ACAD_XREC_ROUNDTRIP
360
C41B
  0
DICTIONARY
  5
C3F5
330
C397
100
AcDbDictionary
280
     1
281
     1
  3
ACAD_XREC_ROUNDTRIP
360
C3F6
  0
DICTIONARY
  5
C3F3
330
C396
100
AcDbDictionary
280
     1
281
     1
  3
ACAD_XREC_ROUNDTRIP
360
C3F4
  0
DICTIONARY
  5
C401
330
C39D
100
AcDbDictionary
280
     1
281
     1
  3
ACAD_XREC_ROUNDTRIP
360
C402
  0
DICTIONARY
  5
C409
330
C3A1
100
AcDbDictionary
280
     1
281
     1
  3
ACAD_XREC_ROUNDTRIP
360
C40A
  0
DICTIONARY
  5
C3FB
330
C39A
100
AcDbDictionary
280
     1
281
     1
  3
ACAD_XREC_ROUNDTRIP
360
C3FC
  0
DICTIONARY
  5
C3FF
330
C39C
100
AcDbDictionary
280
     1
281
     1
  3
ACAD_XREC_ROUNDTRIP
360
C400
  0
DICTIONARY
  5
C419
330
C3A9
100
AcDbDictionary
280
     1
281
     1
  3
ACAD_XREC_ROUNDTRIP
360
C41A
  0
DICTIONARY
  5
C407
330
C3A0
100
AcDbDictionary
280
     1
281
     1
  3
ACAD_XREC_ROUNDTRIP
360
C408
  0
DICTIONARY
  5
C3EB
330
C392
100
AcDbDictionary
280
     1
281
     1
  3
ACAD_XREC_ROUNDTRIP
360
C3EC
  0
DICTIONARY
  5
C3ED
330
C393
100
AcDbDictionary
280
     1
281
     1
  3
ACAD_XREC_ROUNDTRIP
360
C3EE
  0
DICTIONARY
  5
C3EF
330
C394
100
AcDbDictionary
280
     1
281
     1
  3
ACAD_XREC_ROUNDTRIP
360
C3F0
  0
DICTIONARY
  5
C3F1
330
C395
100
AcDbDictionary
280
     1
281
     1
  3
ACAD_XREC_ROUNDTRIP
360
C3F2
  0
DICTIONARY
  5
C3F9
330
C399
100
AcDbDictionary
280
     1
281
     1
  3
ACAD_XREC_ROUNDTRIP
360
C3FA
  0
DICTIONARY
  5
C415
330
C3A7
100
AcDbDictionary
280
     1
281
     1
  3
ACAD_XREC_ROUNDTRIP
360
C416
  0
DICTIONARY
  5
C405
330
C39F
100
AcDbDictionary
280
     1
281
     1
  3
ACAD_XREC_ROUNDTRIP
360
C406
  0
DICTIONARY
  5
C417
330
C3A8
100
AcDbDictionary
280
     1
281
     1
  3
ACAD_XREC_ROUNDTRIP
360
C418
  0
DICTIONARY
  5
C3FD
330
C39B
100
AcDbDictionary
280
     1
281
     1
  3
ACAD_XREC_ROUNDTRIP
360
C3FE
  0
DICTIONARY
  5
C413
330
C3A6
100
AcDbDictionary
280
     1
281
     1
  3
ACAD_XREC_ROUNDTRIP
360
C414
  0
DICTIONARY
  5
C411
330
C3A5
100
AcDbDictionary
280
     1
281
     1
  3
ACAD_XREC_ROUNDTRIP
360
C412
  0
DICTIONARY
  5
C40B
330
C3A2
100
AcDbDictionary
280
     1
281
     1
  3
ACAD_XREC_ROUNDTRIP
360
C40C
  0
DICTIONARY
  5
C40D
330
C3A3
100
AcDbDictionary
280
     1
281
     1
  3
ACAD_XREC_ROUNDTRIP
360
C40E
  0
DICTIONARY
  5
C403
330
C39E
100
AcDbDictionary
280
     1
281
     1
  3
ACAD_XREC_ROUNDTRIP
360
C404
  0
DICTIONARY
  5
C3F7
330
C398
100
AcDbDictionary
280
     1
281
     1
  3
ACAD_XREC_ROUNDTRIP
360
C3F8
  0
DICTIONARY
  5
C40F
330
C3A4
100
AcDbDictionary
280
     1
281
     1
  3
ACAD_XREC_ROUNDTRIP
360
C410
  0
XRECORD
  5
C420
102
{ACAD_REACTORS
330
C41F
102
}
330
C41F
100
AcDbXrecord
280
     1
102
DISPLAYNAME
  1
Imperial24
102
FLAGS
 90
        0
  0
XRECORD
  5
C422
102
{ACAD_REACTORS
330
C421
102
}
330
C421
100
AcDbXrecord
280
     1
102
SHADEPLOT
 70
     0
102
SHADEPLOTRESLEVEL
 70
     2
102
SHADEPLOTCUSTOMDPI
 70
   300
  0
XRECORD
  5
C424
102
{ACAD_REACTORS
330
C423
102
}
330
C423
100
AcDbXrecord
280
     1
102
SHADEPLOT
 70
     0
102
SHADEPLOTRESLEVEL
 70
     2
102
SHADEPLOTCUSTOMDPI
 70
   300
  0
XRECORD
  5
C3E9
102
{ACAD_REACTORS
330
C382
102
}
330
C382
100
AcDbXrecord
280
     1
102
MATERIAL
148
0.0
149
0.0
149
0.0
 93
        0
 94
      127
282
     0
 72
     0
 77
     0
171
     0
175
     0
179
     0
273
     0
  0
XRECORD
  5
C384
102
{ACAD_REACTORS
330
C382
102
}
330
C382
100
AcDbXrecord
280
     1
270
     1
271
     1
  0
XRECORD
  5
C383
102
{ACAD_REACTORS
330
C382
102
}
330
C382
100
AcDbXrecord
280
     1
270
     1
271
     1
  0
XRECORD
  5
C387
102
{ACAD_REACTORS
330
C382
102
}
330
C382
100
AcDbXrecord
280
     1
270
     1
271
     1
  0
XRECORD
  5
C386
102
{ACAD_REACTORS
330
C382
102
}
330
C382
100
AcDbXrecord
280
     1
270
     1
271
     1
  0
XRECORD
  5
C388
102
{ACAD_REACTORS
330
C382
102
}
330
C382
100
AcDbXrecord
280
     1
270
     1
271
     1
  0
XRECORD
  5
C385
102
{ACAD_REACTORS
330
C382
102
}
330
C382
100
AcDbXrecord
280
     1
270
     1
271
     1
  0
XRECORD
  5
C3E8
102
{ACAD_REACTORS
330
C37A
102
}
330
C37A
100
AcDbXrecord
280
     1
102
MATERIAL
148
0.0
149
0.0
149
0.0
 93
        0
 94
      127
282
     0
 72
     0
 77
     0
171
     0
175
     0
179
     0
273
     0
  0
XRECORD
  5
C37C
102
{ACAD_REACTORS
330
C37A
102
}
330
C37A
100
AcDbXrecord
280
     1
270
     1
271
     1
  0
XRECORD
  5
C37B
102
{ACAD_REACTORS
330
C37A
102
}
330
C37A
100
AcDbXrecord
280
     1
270
     1
271
     1
  0
XRECORD
  5
C37F
102
{ACAD_REACTORS
330
C37A
102
}
330
C37A
100
AcDbXrecord
280
     1
270
     1
271
     1
  0
XRECORD
  5
C37E
102
{ACAD_REACTORS
330
C37A
102
}
330
C37A
100
AcDbXrecord
280
     1
270
     1
271
     1
  0
XRECORD
  5
C380
102
{ACAD_REACTORS
330
C37A
102
}
330
C37A
100
AcDbXrecord
280
     1
270
     1
271
     1
  0
XRECORD
  5
C37D
102
{ACAD_REACTORS
330
C37A
102
}
330
C37A
100
AcDbXrecord
280
     1
270
     1
271
     1
  0
XRECORD
  5
C3EA
102
{ACAD_REACTORS
330
C38A
102
}
330
C38A
100
AcDbXrecord
280
     1
102
MATERIAL
148
0.0
149
0.0
149
0.0
 93
        0
 94
      127
282
     0
 72
     0
 77
     0
171
     0
175
     0
179
     0
273
     0
  0
XRECORD
  5
C38C
102
{ACAD_REACTORS
330
C38A
102
}
330
C38A
100
AcDbXrecord
280
     1
270
     1
271
     1
  0
XRECORD
  5
C38B
102
{ACAD_REACTORS
330
C38A
102
}
330
C38A
100
AcDbXrecord
280
     1
270
     1
271
     1
  0
XRECORD
  5
C38F
102
{ACAD_REACTORS
330
C38A
102
}
330
C38A
100
AcDbXrecord
280
     1
270
     1
271
     1
  0
XRECORD
  5
C38E
102
{ACAD_REACTORS
330
C38A
102
}
330
C38A
100
AcDbXrecord
280
     1
270
     1
271
     1
  0
XRECORD
  5
C390
102
{ACAD_REACTORS
330
C38A
102
}
330
C38A
100
AcDbXrecord
280
     1
270
     1
271
     1
  0
XRECORD
  5
C38D
102
{ACAD_REACTORS
330
C38A
102
}
330
C38A
100
AcDbXrecord
280
     1
270
     1
271
     1
  0
XRECORD
  5
C41E
102
{ACAD_REACTORS
330
C41D
102
}
330
C41D
100
AcDbXrecord
280
     1
102
DISPLAYNAME
  1
Imperial24
102
FLAGS
 90
        0
  0
CELLSTYLEMAP
  5
C3E5
102
{ACAD_REACTORS
330
C3E4
102
}
330
C3E4
100
AcDbCellStyleMap
 90
        3
300
CELLSTYLE
  1
TABLEFORMAT_BEGIN
 90
        5
170
     1
 91
        0
 92
    32768
 62
   257
 93
        1
300
CONTENTFORMAT
  1
CONTENTFORMAT_BEGIN
 90
        0
 91
        0
 92
      512
 93
        0
300

 40
0.0
140
1.0
 94
        5
 62
     0
340
BFC6
144
0.25
309
CONTENTFORMAT_END
171
     0
 94
        0
309
TABLEFORMAT_END
  1
CELLSTYLE_BEGIN
 90
        1
 91
        1
300
_TITLE
309
CELLSTYLE_END
300
CELLSTYLE
  1
TABLEFORMAT_BEGIN
 90
        5
170
     1
 91
        0
 92
        0
 62
   257
 93
        1
300
CONTENTFORMAT
  1
CONTENTFORMAT_BEGIN
 90
        0
 91
        0
 92
      512
 93
        0
300

 40
0.0
140
1.0
 94
        5
 62
     0
340
BFC6
144
0.18
309
CONTENTFORMAT_END
171
     0
 94
        0
309
TABLEFORMAT_END
  1
CELLSTYLE_BEGIN
 90
        2
 91
        1
300
_HEADER
309
CELLSTYLE_END
300
CELLSTYLE
  1
TABLEFORMAT_BEGIN
 90
        5
170
     1
 91
        0
 92
        0
 62
   257
 93
        1
300
CONTENTFORMAT
  1
CONTENTFORMAT_BEGIN
 90
        0
 91
        0
 92
      512
 93
        0
300

 40
0.0
140
1.0
 94
        2
 62
     0
340
BFC6
144
0.18
309
CONTENTFORMAT_END
171
     0
 94
        0
309
TABLEFORMAT_END
  1
CELLSTYLE_BEGIN
 90
        3
 91
        2
300
_DATA
309
CELLSTYLE_END
  0
XRECORD
  5
C41B
102
{ACAD_REACTORS
330
C3E4
102
}
330
C3E4
100
AcDbXrecord
280
     1
102
ACAD_ROUNDTRIP_PRE2007_TABLESTYLE
 90
      512
 91
        0
  1

 92
      512
 93
        0
  2

 94
      512
 95
        0
  3

  0
XRECORD
  5
C3F6
102
{ACAD_REACTORS
330
C3F5
102
}
330
C3F5
100
AcDbXrecord
280
     1
102
RTVSPost2010Prop28
280
     1
102
RTVSPost2010PropOp28
 70
     1
102
RTVSPost2010Prop29
280
     1
102
RTVSPost2010PropOp29
 70
     1
102
RTVSPost2010Prop30
280
     0
102
RTVSPost2010PropOp30
 70
     1
102
RTVSPost2010Prop31
280
     0
102
RTVSPost2010PropOp31
 70
     1
102
RTVSPost2010Prop32
280
     0
102
RTVSPost2010PropOp32
 70
     1
102
RTVSPost2010Prop33
280
     0
102
RTVSPost2010PropOp33
 70
     1
102
RTVSPost2010Prop34
280
     0
102
RTVSPost2010PropOp34
 70
     1
102
RTVSPost2010Prop35
280
     0
102
RTVSPost2010PropOp35
 70
     1
102
RTVSPost2010Prop36
280
     0
102
RTVSPost2010PropOp36
 70
     1
102
RTVSPost2010Prop37
 90
       50
102
RTVSPost2010PropOp37
 70
     1
102
RTVSPost2010Prop38
140
0.0
102
RTVSPost2010PropOp38
 70
     1
102
RTVSPost2010Prop39
140
1.0
102
RTVSPost2010PropOp39
 70
     1
102
RTVSPost2010Prop40
 90
        0
102
RTVSPost2010PropOp40
 70
     1
102
RTVSPost2010Prop41ColorIndex
 90
       18
102
RTVSPost2010Prop41ColorRGB
 90
        0
102
RTVSPost2010PropOp41
 70
     1
102
RTVSPost2010Prop42
 90
       50
102
RTVSPost2010PropOp42
 70
     1
102
RTVSPost2010Prop43
 90
        3
102
RTVSPost2010PropOp43
 70
     1
102
RTVSPost2010Prop44ColorIndex
 90
        5
102
RTVSPost2010Prop44ColorRGB
 90
      255
102
RTVSPost2010PropOp44
 70
     1
102
RTVSPost2010Prop45
280
     0
102
RTVSPost2010PropOp45
 70
     1
102
RTVSPost2010Prop46
 90
       50
102
RTVSPost2010PropOp46
 70
     1
102
RTVSPost2010Prop47
 90
       50
102
RTVSPost2010PropOp47
 70
     1
102
RTVSPost2010Prop48
 90
       50
102
RTVSPost2010PropOp48
 70
     1
102
RTVSPost2010Prop49
280
     0
102
RTVSPost2010PropOp49
 70
     1
102
RTVSPost2010Prop50
 90
       50
102
RTVSPost2010PropOp50
 70
     1
102
RTVSPost2010Prop51ColorIndex
 90
      256
102
RTVSPost2010Prop51ColorRGB
 90
-16777216
102
RTVSPost2010PropOp51
 70
     0
102
RTVSPost2010Prop52
140
1.0
102
RTVSPost2010PropOp52
 70
     0
102
RTVSPost2010Prop53
 90
        2
102
RTVSPost2010PropOp53
 70
     1
102
RTVSPost2010Prop54
  1
strokes_ogs.tif
102
RTVSPost2010PropOp54
 70
     1
102
RTVSPost2010Prop55
280
     0
102
RTVSPost2010PropOp55
 70
     1
102
RTVSPost2010Prop56
140
1.0
102
RTVSPost2010PropOp56
 70
     1
102
RTVSPost2010Prop57
140
1.0
102
RTVSPost2010PropOp57
 70
     1
102
RTVSPropertyOp0
 70
     1
102
RTVSPropertyOp1
 70
     1
102
RTVSPropertyOp2
 70
     1
102
RTVSPropertyOp3
 70
     1
102
RTVSPropertyOp4
 70
     1
102
RTVSPropertyOp5
 70
     1
102
RTVSPropertyOp6
 70
     1
102
RTVSPropertyOp7
 70
     1
102
RTVSPropertyOp8
 70
     1
102
RTVSPropertyOp9
 70
     1
102
RTVSPropertyOp10
 70
     1
102
RTVSPropertyOp11
 70
     1
102
RTVSPropertyOp12
 70
     1
102
RTVSPropertyOp13
 70
     1
102
RTVSPropertyOp14
 70
     1
102
RTVSPropertyOp15
 70
     1
102
RTVSPropertyOp16
 70
     1
102
RTVSPropertyOp17
 70
     1
102
RTVSPropertyOp18
 70
     1
102
RTVSPropertyOp19
 70
     1
102
RTVSPropertyOp20
 70
     1
102
RTVSPropertyOp21
 70
     1
102
RTVSPropertyOp22
 70
     1
102
RTVSPropertyOp23
 70
     1
102
RTVSPropertyOp24
 70
     1
102
RTVSPropertyOp25
 70
     1
102
RTVSPropertyOp26
 70
     1
102
RTVSPropertyOp27
 70
     1
102
RTVSPropertyOp28
 70
     1
102
RTVSPropertyOp29
 70
     1
102
RTVSPropertyOp30
 70
     1
102
RTVSPropertyOp31
 70
     1
102
RTVSPropertyOp32
 70
     1
102
RTVSPropertyOp33
 70
     1
102
RTVSPropertyOp34
 70
     1
102
RTVSPropertyOp35
 70
     1
102
RTVSPropertyOp36
 70
     1
102
RTVSPropertyOp37
 70
     1
102
RTVSPropertyOp38
 70
     1
102
RTVSPropertyOp39
 70
     1
102
RTVSPropertyOp40
 70
     1
102
RTVSPropertyOp41
 70
     1
102
RTVSPropertyOp42
 70
     1
102
RTVSPropertyOp43
 70
     1
102
RTVSPropertyOp44
 70
     1
102
RTVSPropertyOp45
 70
     1
102
RTVSPropertyOp46
 70
     1
102
RTVSPropertyOp47
 70
     1
102
RTVSPropertyOp48
 70
     1
102
RTVSPropertyOp49
 70
     1
102
RTVSPropertyOp50
 70
     1
102
RTVSPropertyOp51
 70
     0
102
RTVSPropertyOp52
 70
     0
102
RTVSPropertyOp53
 70
     1
102
RTVSPropertyOp54
 70
     1
102
RTVSPropertyOp55
 70
     1
102
RTVSPropertyOp56
 70
     1
102
RTVSPropertyOp57
 70
     1
102
RTVSPropertyOp58
 70
     1
102
RTVSPropertyOp59
 70
     1
102
RTVSPropertyOp60
 70
     1
102
RTVSPropertyOp61
 70
     1
102
RTVSPropertyOp62
 70
     1
  0
XRECORD
  5
C3F4
102
{ACAD_REACTORS
330
C3F3
102
}
330
C3F3
100
AcDbXrecord
280
     1
102
RTVSPost2010Prop28
280
     0
102
RTVSPost2010PropOp28
 70
     1
102
RTVSPost2010Prop29
280
     1
102
RTVSPost2010PropOp29
 70
     1
102
RTVSPost2010Prop30
280
     1
102
RTVSPost2010PropOp30
 70
     1
102
RTVSPost2010Prop31
280
     0
102
RTVSPost2010PropOp31
 70
     1
102
RTVSPost2010Prop32
280
     0
102
RTVSPost2010PropOp32
 70
     1
102
RTVSPost2010Prop33
280
     0
102
RTVSPost2010PropOp33
 70
     1
102
RTVSPost2010Prop34
280
     0
102
RTVSPost2010PropOp34
 70
     1
102
RTVSPost2010Prop35
280
     0
102
RTVSPost2010PropOp35
 70
     1
102
RTVSPost2010Prop36
280
     0
102
RTVSPost2010PropOp36
 70
     1
102
RTVSPost2010Prop37
 90
       50
102
RTVSPost2010PropOp37
 70
     1
102
RTVSPost2010Prop38
140
0.0
102
RTVSPost2010PropOp38
 70
     1
102
RTVSPost2010Prop39
140
1.0
102
RTVSPost2010PropOp39
 70
     1
102
RTVSPost2010Prop40
 90
        0
102
RTVSPost2010PropOp40
 70
     1
102
RTVSPost2010Prop41ColorIndex
 90
       18
102
RTVSPost2010Prop41ColorRGB
 90
        0
102
RTVSPost2010PropOp41
 70
     1
102
RTVSPost2010Prop42
 90
       50
102
RTVSPost2010PropOp42
 70
     1
102
RTVSPost2010Prop43
 90
        3
102
RTVSPost2010PropOp43
 70
     1
102
RTVSPost2010Prop44ColorIndex
 90
        5
102
RTVSPost2010Prop44ColorRGB
 90
      255
102
RTVSPost2010PropOp44
 70
     1
102
RTVSPost2010Prop45
280
     0
102
RTVSPost2010PropOp45
 70
     1
102
RTVSPost2010Prop46
 90
       50
102
RTVSPost2010PropOp46
 70
     1
102
RTVSPost2010Prop47
 90
       50
102
RTVSPost2010PropOp47
 70
     1
102
RTVSPost2010Prop48
 90
       50
102
RTVSPost2010PropOp48
 70
     1
102
RTVSPost2010Prop49
280
     0
102
RTVSPost2010PropOp49
 70
     1
102
RTVSPost2010Prop50
 90
       50
102
RTVSPost2010PropOp50
 70
     1
102
RTVSPost2010Prop51ColorIndex
 90
      256
102
RTVSPost2010Prop51ColorRGB
 90
-16777216
102
RTVSPost2010PropOp51
 70
     0
102
RTVSPost2010Prop52
140
1.0
102
RTVSPost2010PropOp52
 70
     0
102
RTVSPost2010Prop53
 90
        2
102
RTVSPost2010PropOp53
 70
     1
102
RTVSPost2010Prop54
  1
strokes_ogs.tif
102
RTVSPost2010PropOp54
 70
     1
102
RTVSPost2010Prop55
280
     0
102
RTVSPost2010PropOp55
 70
     1
102
RTVSPost2010Prop56
140
1.0
102
RTVSPost2010PropOp56
 70
     1
102
RTVSPost2010Prop57
140
1.0
102
RTVSPost2010PropOp57
 70
     1
102
RTVSPropertyOp0
 70
     1
102
RTVSPropertyOp1
 70
     1
102
RTVSPropertyOp2
 70
     1
102
RTVSPropertyOp3
 70
     1
102
RTVSPropertyOp4
 70
     1
102
RTVSPropertyOp5
 70
     1
102
RTVSPropertyOp6
 70
     1
102
RTVSPropertyOp7
 70
     1
102
RTVSPropertyOp8
 70
     1
102
RTVSPropertyOp9
 70
     1
102
RTVSPropertyOp10
 70
     1
102
RTVSPropertyOp11
 70
     1
102
RTVSPropertyOp12
 70
     1
102
RTVSPropertyOp13
 70
     1
102
RTVSPropertyOp14
 70
     1
102
RTVSPropertyOp15
 70
     1
102
RTVSPropertyOp16
 70
     1
102
RTVSPropertyOp17
 70
     1
102
RTVSPropertyOp18
 70
     1
102
RTVSPropertyOp19
 70
     1
102
RTVSPropertyOp20
 70
     1
102
RTVSPropertyOp21
 70
     1
102
RTVSPropertyOp22
 70
     1
102
RTVSPropertyOp23
 70
     1
102
RTVSPropertyOp24
 70
     1
102
RTVSPropertyOp25
 70
     1
102
RTVSPropertyOp26
 70
     1
102
RTVSPropertyOp27
 70
     1
102
RTVSPropertyOp28
 70
     1
102
RTVSPropertyOp29
 70
     1
102
RTVSPropertyOp30
 70
     1
102
RTVSPropertyOp31
 70
     1
102
RTVSPropertyOp32
 70
     1
102
RTVSPropertyOp33
 70
     1
102
RTVSPropertyOp34
 70
     1
102
RTVSPropertyOp35
 70
     1
102
RTVSPropertyOp36
 70
     1
102
RTVSPropertyOp37
 70
     1
102
RTVSPropertyOp38
 70
     1
102
RTVSPropertyOp39
 70
     1
102
RTVSPropertyOp40
 70
     1
102
RTVSPropertyOp41
 70
     1
102
RTVSPropertyOp42
 70
     1
102
RTVSPropertyOp43
 70
     1
102
RTVSPropertyOp44
 70
     1
102
RTVSPropertyOp45
 70
     1
102
RTVSPropertyOp46
 70
     1
102
RTVSPropertyOp47
 70
     1
102
RTVSPropertyOp48
 70
     1
102
RTVSPropertyOp49
 70
     1
102
RTVSPropertyOp50
 70
     1
102
RTVSPropertyOp51
 70
     0
102
RTVSPropertyOp52
 70
     0
102
RTVSPropertyOp53
 70
     1
102
RTVSPropertyOp54
 70
     1
102
RTVSPropertyOp55
 70
     1
102
RTVSPropertyOp56
 70
     1
102
RTVSPropertyOp57
 70
     1
102
RTVSPropertyOp58
 70
     1
102
RTVSPropertyOp59
 70
     1
102
RTVSPropertyOp60
 70
     1
102
RTVSPropertyOp61
 70
     1
102
RTVSPropertyOp62
 70
     1
  0
XRECORD
  5
C402
102
{ACAD_REACTORS
330
C401
102
}
330
C401
100
AcDbXrecord
280
     1
102
RTVSPost2010Prop28
280
     0
102
RTVSPost2010PropOp28
 70
     1
102
RTVSPost2010Prop29
280
     1
102
RTVSPost2010PropOp29
 70
     1
102
RTVSPost2010Prop30
280
     1
102
RTVSPost2010PropOp30
 70
     1
102
RTVSPost2010Prop31
280
     0
102
RTVSPost2010PropOp31
 70
     1
102
RTVSPost2010Prop32
280
     0
102
RTVSPost2010PropOp32
 70
     1
102
RTVSPost2010Prop33
280
     0
102
RTVSPost2010PropOp33
 70
     1
102
RTVSPost2010Prop34
280
     0
102
RTVSPost2010PropOp34
 70
     1
102
RTVSPost2010Prop35
280
     0
102
RTVSPost2010PropOp35
 70
     1
102
RTVSPost2010Prop36
280
     0
102
RTVSPost2010PropOp36
 70
     1
102
RTVSPost2010Prop37
 90
       50
102
RTVSPost2010PropOp37
 70
     1
102
RTVSPost2010Prop38
140
0.0
102
RTVSPost2010PropOp38
 70
     1
102
RTVSPost2010Prop39
140
1.0
102
RTVSPost2010PropOp39
 70
     1
102
RTVSPost2010Prop40
 90
        0
102
RTVSPost2010PropOp40
 70
     1
102
RTVSPost2010Prop41ColorIndex
 90
       18
102
RTVSPost2010Prop41ColorRGB
 90
        0
102
RTVSPost2010PropOp41
 70
     1
102
RTVSPost2010Prop42
 90
       50
102
RTVSPost2010PropOp42
 70
     1
102
RTVSPost2010Prop43
 90
        3
102
RTVSPost2010PropOp43
 70
     1
102
RTVSPost2010Prop44ColorIndex
 90
        5
102
RTVSPost2010Prop44ColorRGB
 90
      255
102
RTVSPost2010PropOp44
 70
     1
102
RTVSPost2010Prop45
280
     0
102
RTVSPost2010PropOp45
 70
     1
102
RTVSPost2010Prop46
 90
       50
102
RTVSPost2010PropOp46
 70
     1
102
RTVSPost2010Prop47
 90
       50
102
RTVSPost2010PropOp47
 70
     1
102
RTVSPost2010Prop48
 90
       50
102
RTVSPost2010PropOp48
 70
     1
102
RTVSPost2010Prop49
280
     0
102
RTVSPost2010PropOp49
 70
     1
102
RTVSPost2010Prop50
 90
       50
102
RTVSPost2010PropOp50
 70
     1
102
RTVSPost2010Prop51ColorIndex
 90
      256
102
RTVSPost2010Prop51ColorRGB
 90
-16777216
102
RTVSPost2010PropOp51
 70
     0
102
RTVSPost2010Prop52
140
1.0
102
RTVSPost2010PropOp52
 70
     0
102
RTVSPost2010Prop53
 90
        2
102
RTVSPost2010PropOp53
 70
     1
102
RTVSPost2010Prop54
  1
strokes_ogs.tif
102
RTVSPost2010PropOp54
 70
     1
102
RTVSPost2010Prop55
280
     0
102
RTVSPost2010PropOp55
 70
     1
102
RTVSPost2010Prop56
140
1.0
102
RTVSPost2010PropOp56
 70
     1
102
RTVSPost2010Prop57
140
1.0
102
RTVSPost2010PropOp57
 70
     1
102
RTVSPropertyOp0
 70
     1
102
RTVSPropertyOp1
 70
     1
102
RTVSPropertyOp2
 70
     1
102
RTVSPropertyOp3
 70
     1
102
RTVSPropertyOp4
 70
     1
102
RTVSPropertyOp5
 70
     1
102
RTVSPropertyOp6
 70
     1
102
RTVSPropertyOp7
 70
     1
102
RTVSPropertyOp8
 70
     1
102
RTVSPropertyOp9
 70
     1
102
RTVSPropertyOp10
 70
     1
102
RTVSPropertyOp11
 70
     1
102
RTVSPropertyOp12
 70
     1
102
RTVSPropertyOp13
 70
     1
102
RTVSPropertyOp14
 70
     1
102
RTVSPropertyOp15
 70
     1
102
RTVSPropertyOp16
 70
     1
102
RTVSPropertyOp17
 70
     1
102
RTVSPropertyOp18
 70
     1
102
RTVSPropertyOp19
 70
     1
102
RTVSPropertyOp20
 70
     1
102
RTVSPropertyOp21
 70
     1
102
RTVSPropertyOp22
 70
     1
102
RTVSPropertyOp23
 70
     1
102
RTVSPropertyOp24
 70
     1
102
RTVSPropertyOp25
 70
     1
102
RTVSPropertyOp26
 70
     1
102
RTVSPropertyOp27
 70
     1
102
RTVSPropertyOp28
 70
     1
102
RTVSPropertyOp29
 70
     1
102
RTVSPropertyOp30
 70
     1
102
RTVSPropertyOp31
 70
     1
102
RTVSPropertyOp32
 70
     1
102
RTVSPropertyOp33
 70
     1
102
RTVSPropertyOp34
 70
     1
102
RTVSPropertyOp35
 70
     1
102
RTVSPropertyOp36
 70
     1
102
RTVSPropertyOp37
 70
     1
102
RTVSPropertyOp38
 70
     1
102
RTVSPropertyOp39
 70
     1
102
RTVSPropertyOp40
 70
     1
102
RTVSPropertyOp41
 70
     1
102
RTVSPropertyOp42
 70
     1
102
RTVSPropertyOp43
 70
     1
102
RTVSPropertyOp44
 70
     1
102
RTVSPropertyOp45
 70
     1
102
RTVSPropertyOp46
 70
     1
102
RTVSPropertyOp47
 70
     1
102
RTVSPropertyOp48
 70
     1
102
RTVSPropertyOp49
 70
     1
102
RTVSPropertyOp50
 70
     1
102
RTVSPropertyOp51
 70
     0
102
RTVSPropertyOp52
 70
     0
102
RTVSPropertyOp53
 70
     1
102
RTVSPropertyOp54
 70
     1
102
RTVSPropertyOp55
 70
     1
102
RTVSPropertyOp56
 70
     1
102
RTVSPropertyOp57
 70
     1
102
RTVSPropertyOp58
 70
     1
102
RTVSPropertyOp59
 70
     1
102
RTVSPropertyOp60
 70
     1
102
RTVSPropertyOp61
 70
     1
102
RTVSPropertyOp62
 70
     1
  0
XRECORD
  5
C40A
102
{ACAD_REACTORS
330
C409
102
}
330
C409
100
AcDbXrecord
280
     1
102
RTVSPost2010Prop28
280
     0
102
RTVSPost2010PropOp28
 70
     1
102
RTVSPost2010Prop29
280
     1
102
RTVSPost2010PropOp29
 70
     1
102
RTVSPost2010Prop30
280
     1
102
RTVSPost2010PropOp30
 70
     1
102
RTVSPost2010Prop31
280
     0
102
RTVSPost2010PropOp31
 70
     1
102
RTVSPost2010Prop32
280
     0
102
RTVSPost2010PropOp32
 70
     1
102
RTVSPost2010Prop33
280
     0
102
RTVSPost2010PropOp33
 70
     1
102
RTVSPost2010Prop34
280
     0
102
RTVSPost2010PropOp34
 70
     1
102
RTVSPost2010Prop35
280
     0
102
RTVSPost2010PropOp35
 70
     1
102
RTVSPost2010Prop36
280
     0
102
RTVSPost2010PropOp36
 70
     1
102
RTVSPost2010Prop37
 90
       50
102
RTVSPost2010PropOp37
 70
     1
102
RTVSPost2010Prop38
140
0.0
102
RTVSPost2010PropOp38
 70
     1
102
RTVSPost2010Prop39
140
1.0
102
RTVSPost2010PropOp39
 70
     1
102
RTVSPost2010Prop40
 90
        0
102
RTVSPost2010PropOp40
 70
     1
102
RTVSPost2010Prop41ColorIndex
 90
       18
102
RTVSPost2010Prop41ColorRGB
 90
        0
102
RTVSPost2010PropOp41
 70
     1
102
RTVSPost2010Prop42
 90
       50
102
RTVSPost2010PropOp42
 70
     1
102
RTVSPost2010Prop43
 90
        3
102
RTVSPost2010PropOp43
 70
     1
102
RTVSPost2010Prop44ColorIndex
 90
        5
102
RTVSPost2010Prop44ColorRGB
 90
      255
102
RTVSPost2010PropOp44
 70
     1
102
RTVSPost2010Prop45
280
     0
102
RTVSPost2010PropOp45
 70
     1
102
RTVSPost2010Prop46
 90
       50
102
RTVSPost2010PropOp46
 70
     1
102
RTVSPost2010Prop47
 90
       50
102
RTVSPost2010PropOp47
 70
     1
102
RTVSPost2010Prop48
 90
       50
102
RTVSPost2010PropOp48
 70
     1
102
RTVSPost2010Prop49
280
     0
102
RTVSPost2010PropOp49
 70
     1
102
RTVSPost2010Prop50
 90
       50
102
RTVSPost2010PropOp50
 70
     1
102
RTVSPost2010Prop51ColorIndex
 90
      256
102
RTVSPost2010Prop51ColorRGB
 90
-16777216
102
RTVSPost2010PropOp51
 70
     0
102
RTVSPost2010Prop52
140
1.0
102
RTVSPost2010PropOp52
 70
     0
102
RTVSPost2010Prop53
 90
        2
102
RTVSPost2010PropOp53
 70
     1
102
RTVSPost2010Prop54
  1
strokes_ogs.tif
102
RTVSPost2010PropOp54
 70
     1
102
RTVSPost2010Prop55
280
     0
102
RTVSPost2010PropOp55
 70
     1
102
RTVSPost2010Prop56
140
1.0
102
RTVSPost2010PropOp56
 70
     1
102
RTVSPost2010Prop57
140
1.0
102
RTVSPost2010PropOp57
 70
     1
102
RTVSPropertyOp0
 70
     1
102
RTVSPropertyOp1
 70
     1
102
RTVSPropertyOp2
 70
     1
102
RTVSPropertyOp3
 70
     1
102
RTVSPropertyOp4
 70
     1
102
RTVSPropertyOp5
 70
     1
102
RTVSPropertyOp6
 70
     1
102
RTVSPropertyOp7
 70
     1
102
RTVSPropertyOp8
 70
     1
102
RTVSPropertyOp9
 70
     1
102
RTVSPropertyOp10
 70
     1
102
RTVSPropertyOp11
 70
     1
102
RTVSPropertyOp12
 70
     1
102
RTVSPropertyOp13
 70
     1
102
RTVSPropertyOp14
 70
     1
102
RTVSPropertyOp15
 70
     1
102
RTVSPropertyOp16
 70
     1
102
RTVSPropertyOp17
 70
     1
102
RTVSPropertyOp18
 70
     1
102
RTVSPropertyOp19
 70
     1
102
RTVSPropertyOp20
 70
     1
102
RTVSPropertyOp21
 70
     1
102
RTVSPropertyOp22
 70
     1
102
RTVSPropertyOp23
 70
     1
102
RTVSPropertyOp24
 70
     1
102
RTVSPropertyOp25
 70
     1
102
RTVSPropertyOp26
 70
     1
102
RTVSPropertyOp27
 70
     1
102
RTVSPropertyOp28
 70
     1
102
RTVSPropertyOp29
 70
     1
102
RTVSPropertyOp30
 70
     1
102
RTVSPropertyOp31
 70
     1
102
RTVSPropertyOp32
 70
     1
102
RTVSPropertyOp33
 70
     1
102
RTVSPropertyOp34
 70
     1
102
RTVSPropertyOp35
 70
     1
102
RTVSPropertyOp36
 70
     1
102
RTVSPropertyOp37
 70
     1
102
RTVSPropertyOp38
 70
     1
102
RTVSPropertyOp39
 70
     1
102
RTVSPropertyOp40
 70
     1
102
RTVSPropertyOp41
 70
     1
102
RTVSPropertyOp42
 70
     1
102
RTVSPropertyOp43
 70
     1
102
RTVSPropertyOp44
 70
     1
102
RTVSPropertyOp45
 70
     1
102
RTVSPropertyOp46
 70
     1
102
RTVSPropertyOp47
 70
     1
102
RTVSPropertyOp48
 70
     1
102
RTVSPropertyOp49
 70
     1
102
RTVSPropertyOp50
 70
     1
102
RTVSPropertyOp51
 70
     0
102
RTVSPropertyOp52
 70
     0
102
RTVSPropertyOp53
 70
     1
102
RTVSPropertyOp54
 70
     1
102
RTVSPropertyOp55
 70
     1
102
RTVSPropertyOp56
 70
     1
102
RTVSPropertyOp57
 70
     1
102
RTVSPropertyOp58
 70
     1
102
RTVSPropertyOp59
 70
     1
102
RTVSPropertyOp60
 70
     1
102
RTVSPropertyOp61
 70
     1
102
RTVSPropertyOp62
 70
     1
  0
XRECORD
  5
C3FC
102
{ACAD_REACTORS
330
C3FB
102
}
330
C3FB
100
AcDbXrecord
280
     1
102
RTVSPost2010Prop28
280
     0
102
RTVSPost2010PropOp28
 70
     1
102
RTVSPost2010Prop29
280
     1
102
RTVSPost2010PropOp29
 70
     1
102
RTVSPost2010Prop30
280
     1
102
RTVSPost2010PropOp30
 70
     1
102
RTVSPost2010Prop31
280
     0
102
RTVSPost2010PropOp31
 70
     1
102
RTVSPost2010Prop32
280
     0
102
RTVSPost2010PropOp32
 70
     1
102
RTVSPost2010Prop33
280
     0
102
RTVSPost2010PropOp33
 70
     1
102
RTVSPost2010Prop34
280
     0
102
RTVSPost2010PropOp34
 70
     1
102
RTVSPost2010Prop35
280
     0
102
RTVSPost2010PropOp35
 70
     1
102
RTVSPost2010Prop36
280
     0
102
RTVSPost2010PropOp36
 70
     1
102
RTVSPost2010Prop37
 90
       50
102
RTVSPost2010PropOp37
 70
     1
102
RTVSPost2010Prop38
140
0.0
102
RTVSPost2010PropOp38
 70
     1
102
RTVSPost2010Prop39
140
1.0
102
RTVSPost2010PropOp39
 70
     1
102
RTVSPost2010Prop40
 90
        0
102
RTVSPost2010PropOp40
 70
     1
102
RTVSPost2010Prop41ColorIndex
 90
       18
102
RTVSPost2010Prop41ColorRGB
 90
        0
102
RTVSPost2010PropOp41
 70
     1
102
RTVSPost2010Prop42
 90
       50
102
RTVSPost2010PropOp42
 70
     1
102
RTVSPost2010Prop43
 90
        3
102
RTVSPost2010PropOp43
 70
     1
102
RTVSPost2010Prop44ColorIndex
 90
        5
102
RTVSPost2010Prop44ColorRGB
 90
      255
102
RTVSPost2010PropOp44
 70
     1
102
RTVSPost2010Prop45
280
     0
102
RTVSPost2010PropOp45
 70
     1
102
RTVSPost2010Prop46
 90
       50
102
RTVSPost2010PropOp46
 70
     1
102
RTVSPost2010Prop47
 90
       50
102
RTVSPost2010PropOp47
 70
     1
102
RTVSPost2010Prop48
 90
       50
102
RTVSPost2010PropOp48
 70
     1
102
RTVSPost2010Prop49
280
     0
102
RTVSPost2010PropOp49
 70
     1
102
RTVSPost2010Prop50
 90
       50
102
RTVSPost2010PropOp50
 70
     1
102
RTVSPost2010Prop51ColorIndex
 90
      256
102
RTVSPost2010Prop51ColorRGB
 90
-16777216
102
RTVSPost2010PropOp51
 70
     0
102
RTVSPost2010Prop52
140
1.0
102
RTVSPost2010PropOp52
 70
     0
102
RTVSPost2010Prop53
 90
        2
102
RTVSPost2010PropOp53
 70
     1
102
RTVSPost2010Prop54
  1
strokes_ogs.tif
102
RTVSPost2010PropOp54
 70
     1
102
RTVSPost2010Prop55
280
     0
102
RTVSPost2010PropOp55
 70
     1
102
RTVSPost2010Prop56
140
1.0
102
RTVSPost2010PropOp56
 70
     1
102
RTVSPost2010Prop57
140
1.0
102
RTVSPost2010PropOp57
 70
     1
102
RTVSPropertyOp0
 70
     1
102
RTVSPropertyOp1
 70
     1
102
RTVSPropertyOp2
 70
     1
102
RTVSPropertyOp3
 70
     1
102
RTVSPropertyOp4
 70
     1
102
RTVSPropertyOp5
 70
     1
102
RTVSPropertyOp6
 70
     1
102
RTVSPropertyOp7
 70
     1
102
RTVSPropertyOp8
 70
     1
102
RTVSPropertyOp9
 70
     1
102
RTVSPropertyOp10
 70
     1
102
RTVSPropertyOp11
 70
     1
102
RTVSPropertyOp12
 70
     1
102
RTVSPropertyOp13
 70
     1
102
RTVSPropertyOp14
 70
     1
102
RTVSPropertyOp15
 70
     1
102
RTVSPropertyOp16
 70
     1
102
RTVSPropertyOp17
 70
     1
102
RTVSPropertyOp18
 70
     1
102
RTVSPropertyOp19
 70
     1
102
RTVSPropertyOp20
 70
     1
102
RTVSPropertyOp21
 70
     1
102
RTVSPropertyOp22
 70
     1
102
RTVSPropertyOp23
 70
     1
102
RTVSPropertyOp24
 70
     1
102
RTVSPropertyOp25
 70
     1
102
RTVSPropertyOp26
 70
     1
102
RTVSPropertyOp27
 70
     1
102
RTVSPropertyOp28
 70
     1
102
RTVSPropertyOp29
 70
     1
102
RTVSPropertyOp30
 70
     1
102
RTVSPropertyOp31
 70
     1
102
RTVSPropertyOp32
 70
     1
102
RTVSPropertyOp33
 70
     1
102
RTVSPropertyOp34
 70
     1
102
RTVSPropertyOp35
 70
     1
102
RTVSPropertyOp36
 70
     1
102
RTVSPropertyOp37
 70
     1
102
RTVSPropertyOp38
 70
     1
102
RTVSPropertyOp39
 70
     1
102
RTVSPropertyOp40
 70
     1
102
RTVSPropertyOp41
 70
     1
102
RTVSPropertyOp42
 70
     1
102
RTVSPropertyOp43
 70
     1
102
RTVSPropertyOp44
 70
     1
102
RTVSPropertyOp45
 70
     1
102
RTVSPropertyOp46
 70
     1
102
RTVSPropertyOp47
 70
     1
102
RTVSPropertyOp48
 70
     1
102
RTVSPropertyOp49
 70
     1
102
RTVSPropertyOp50
 70
     1
102
RTVSPropertyOp51
 70
     0
102
RTVSPropertyOp52
 70
     0
102
RTVSPropertyOp53
 70
     1
102
RTVSPropertyOp54
 70
     1
102
RTVSPropertyOp55
 70
     1
102
RTVSPropertyOp56
 70
     1
102
RTVSPropertyOp57
 70
     1
102
RTVSPropertyOp58
 70
     1
102
RTVSPropertyOp59
 70
     1
102
RTVSPropertyOp60
 70
     1
102
RTVSPropertyOp61
 70
     1
102
RTVSPropertyOp62
 70
     1
  0
XRECORD
  5
C400
102
{ACAD_REACTORS
330
C3FF
102
}
330
C3FF
100
AcDbXrecord
280
     1
102
RTVSPost2010Prop28
280
     0
102
RTVSPost2010PropOp28
 70
     1
102
RTVSPost2010Prop29
280
     1
102
RTVSPost2010PropOp29
 70
     1
102
RTVSPost2010Prop30
280
     1
102
RTVSPost2010PropOp30
 70
     1
102
RTVSPost2010Prop31
280
     0
102
RTVSPost2010PropOp31
 70
     1
102
RTVSPost2010Prop32
280
     0
102
RTVSPost2010PropOp32
 70
     1
102
RTVSPost2010Prop33
280
     0
102
RTVSPost2010PropOp33
 70
     1
102
RTVSPost2010Prop34
280
     0
102
RTVSPost2010PropOp34
 70
     1
102
RTVSPost2010Prop35
280
     0
102
RTVSPost2010PropOp35
 70
     1
102
RTVSPost2010Prop36
280
     0
102
RTVSPost2010PropOp36
 70
     1
102
RTVSPost2010Prop37
 90
       50
102
RTVSPost2010PropOp37
 70
     1
102
RTVSPost2010Prop38
140
0.0
102
RTVSPost2010PropOp38
 70
     1
102
RTVSPost2010Prop39
140
1.0
102
RTVSPost2010PropOp39
 70
     1
102
RTVSPost2010Prop40
 90
        0
102
RTVSPost2010PropOp40
 70
     1
102
RTVSPost2010Prop41ColorIndex
 90
       18
102
RTVSPost2010Prop41ColorRGB
 90
        0
102
RTVSPost2010PropOp41
 70
     1
102
RTVSPost2010Prop42
 90
       50
102
RTVSPost2010PropOp42
 70
     1
102
RTVSPost2010Prop43
 90
        3
102
RTVSPost2010PropOp43
 70
     1
102
RTVSPost2010Prop44ColorIndex
 90
        5
102
RTVSPost2010Prop44ColorRGB
 90
      255
102
RTVSPost2010PropOp44
 70
     1
102
RTVSPost2010Prop45
280
     0
102
RTVSPost2010PropOp45
 70
     1
102
RTVSPost2010Prop46
 90
       50
102
RTVSPost2010PropOp46
 70
     1
102
RTVSPost2010Prop47
 90
       50
102
RTVSPost2010PropOp47
 70
     1
102
RTVSPost2010Prop48
 90
       50
102
RTVSPost2010PropOp48
 70
     1
102
RTVSPost2010Prop49
280
     0
102
RTVSPost2010PropOp49
 70
     1
102
RTVSPost2010Prop50
 90
       50
102
RTVSPost2010PropOp50
 70
     1
102
RTVSPost2010Prop51ColorIndex
 90
      256
102
RTVSPost2010Prop51ColorRGB
 90
-16777216
102
RTVSPost2010PropOp51
 70
     0
102
RTVSPost2010Prop52
140
1.0
102
RTVSPost2010PropOp52
 70
     0
102
RTVSPost2010Prop53
 90
        2
102
RTVSPost2010PropOp53
 70
     1
102
RTVSPost2010Prop54
  1
strokes_ogs.tif
102
RTVSPost2010PropOp54
 70
     1
102
RTVSPost2010Prop55
280
     0
102
RTVSPost2010PropOp55
 70
     1
102
RTVSPost2010Prop56
140
1.0
102
RTVSPost2010PropOp56
 70
     1
102
RTVSPost2010Prop57
140
1.0
102
RTVSPost2010PropOp57
 70
     1
102
RTVSPropertyOp0
 70
     1
102
RTVSPropertyOp1
 70
     1
102
RTVSPropertyOp2
 70
     1
102
RTVSPropertyOp3
 70
     1
102
RTVSPropertyOp4
 70
     1
102
RTVSPropertyOp5
 70
     1
102
RTVSPropertyOp6
 70
     1
102
RTVSPropertyOp7
 70
     1
102
RTVSPropertyOp8
 70
     1
102
RTVSPropertyOp9
 70
     1
102
RTVSPropertyOp10
 70
     1
102
RTVSPropertyOp11
 70
     1
102
RTVSPropertyOp12
 70
     1
102
RTVSPropertyOp13
 70
     1
102
RTVSPropertyOp14
 70
     1
102
RTVSPropertyOp15
 70
     1
102
RTVSPropertyOp16
 70
     1
102
RTVSPropertyOp17
 70
     1
102
RTVSPropertyOp18
 70
     1
102
RTVSPropertyOp19
 70
     1
102
RTVSPropertyOp20
 70
     1
102
RTVSPropertyOp21
 70
     1
102
RTVSPropertyOp22
 70
     1
102
RTVSPropertyOp23
 70
     1
102
RTVSPropertyOp24
 70
     1
102
RTVSPropertyOp25
 70
     1
102
RTVSPropertyOp26
 70
     1
102
RTVSPropertyOp27
 70
     1
102
RTVSPropertyOp28
 70
     1
102
RTVSPropertyOp29
 70
     1
102
RTVSPropertyOp30
 70
     1
102
RTVSPropertyOp31
 70
     1
102
RTVSPropertyOp32
 70
     1
102
RTVSPropertyOp33
 70
     1
102
RTVSPropertyOp34
 70
     1
102
RTVSPropertyOp35
 70
     1
102
RTVSPropertyOp36
 70
     1
102
RTVSPropertyOp37
 70
     1
102
RTVSPropertyOp38
 70
     1
102
RTVSPropertyOp39
 70
     1
102
RTVSPropertyOp40
 70
     1
102
RTVSPropertyOp41
 70
     1
102
RTVSPropertyOp42
 70
     1
102
RTVSPropertyOp43
 70
     1
102
RTVSPropertyOp44
 70
     1
102
RTVSPropertyOp45
 70
     1
102
RTVSPropertyOp46
 70
     1
102
RTVSPropertyOp47
 70
     1
102
RTVSPropertyOp48
 70
     1
102
RTVSPropertyOp49
 70
     1
102
RTVSPropertyOp50
 70
     1
102
RTVSPropertyOp51
 70
     0
102
RTVSPropertyOp52
 70
     0
102
RTVSPropertyOp53
 70
     1
102
RTVSPropertyOp54
 70
     1
102
RTVSPropertyOp55
 70
     1
102
RTVSPropertyOp56
 70
     1
102
RTVSPropertyOp57
 70
     1
102
RTVSPropertyOp58
 70
     1
102
RTVSPropertyOp59
 70
     1
102
RTVSPropertyOp60
 70
     1
102
RTVSPropertyOp61
 70
     1
102
RTVSPropertyOp62
 70
     1
  0
XRECORD
  5
C41A
102
{ACAD_REACTORS
330
C419
102
}
330
C419
100
AcDbXrecord
280
     1
102
RTVSPost2010Prop28
280
     0
102
RTVSPost2010PropOp28
 70
     1
102
RTVSPost2010Prop29
280
     1
102
RTVSPost2010PropOp29
 70
     1
102
RTVSPost2010Prop30
280
     1
102
RTVSPost2010PropOp30
 70
     1
102
RTVSPost2010Prop31
280
     0
102
RTVSPost2010PropOp31
 70
     1
102
RTVSPost2010Prop32
280
     0
102
RTVSPost2010PropOp32
 70
     1
102
RTVSPost2010Prop33
280
     0
102
RTVSPost2010PropOp33
 70
     1
102
RTVSPost2010Prop34
280
     0
102
RTVSPost2010PropOp34
 70
     1
102
RTVSPost2010Prop35
280
     0
102
RTVSPost2010PropOp35
 70
     1
102
RTVSPost2010Prop36
280
     0
102
RTVSPost2010PropOp36
 70
     1
102
RTVSPost2010Prop37
 90
       50
102
RTVSPost2010PropOp37
 70
     0
102
RTVSPost2010Prop38
140
0.0
102
RTVSPost2010PropOp38
 70
     0
102
RTVSPost2010Prop39
140
1.0
102
RTVSPost2010PropOp39
 70
     0
102
RTVSPost2010Prop40
 90
        0
102
RTVSPost2010PropOp40
 70
     0
102
RTVSPost2010Prop41ColorIndex
 90
       18
102
RTVSPost2010Prop41ColorRGB
 90
        0
102
RTVSPost2010PropOp41
 70
     0
102
RTVSPost2010Prop42
 90
       50
102
RTVSPost2010PropOp42
 70
     0
102
RTVSPost2010Prop43
 90
        3
102
RTVSPost2010PropOp43
 70
     0
102
RTVSPost2010Prop44ColorIndex
 90
        5
102
RTVSPost2010Prop44ColorRGB
 90
      255
102
RTVSPost2010PropOp44
 70
     0
102
RTVSPost2010Prop45
280
     0
102
RTVSPost2010PropOp45
 70
     1
102
RTVSPost2010Prop46
 90
       50
102
RTVSPost2010PropOp46
 70
     0
102
RTVSPost2010Prop47
 90
       50
102
RTVSPost2010PropOp47
 70
     0
102
RTVSPost2010Prop48
 90
       50
102
RTVSPost2010PropOp48
 70
     0
102
RTVSPost2010Prop49
280
     0
102
RTVSPost2010PropOp49
 70
     1
102
RTVSPost2010Prop50
 90
       50
102
RTVSPost2010PropOp50
 70
     0
102
RTVSPost2010Prop51ColorIndex
 90
      256
102
RTVSPost2010Prop51ColorRGB
 90
-16777216
102
RTVSPost2010PropOp51
 70
     0
102
RTVSPost2010Prop52
140
1.0
102
RTVSPost2010PropOp52
 70
     0
102
RTVSPost2010Prop53
 90
        2
102
RTVSPost2010PropOp53
 70
     0
102
RTVSPost2010Prop54
  1
strokes_ogs.tif
102
RTVSPost2010PropOp54
 70
     0
102
RTVSPost2010Prop55
280
     0
102
RTVSPost2010PropOp55
 70
     1
102
RTVSPost2010Prop56
140
1.0
102
RTVSPost2010PropOp56
 70
     0
102
RTVSPost2010Prop57
140
1.0
102
RTVSPost2010PropOp57
 70
     0
102
RTVSPropertyOp0
 70
     0
102
RTVSPropertyOp1
 70
     0
102
RTVSPropertyOp2
 70
     0
102
RTVSPropertyOp3
 70
     0
102
RTVSPropertyOp4
 70
     0
102
RTVSPropertyOp5
 70
     0
102
RTVSPropertyOp6
 70
     0
102
RTVSPropertyOp7
 70
     0
102
RTVSPropertyOp8
 70
     0
102
RTVSPropertyOp9
 70
     0
102
RTVSPropertyOp10
 70
     0
102
RTVSPropertyOp11
 70
     0
102
RTVSPropertyOp12
 70
     0
102
RTVSPropertyOp13
 70
     0
102
RTVSPropertyOp14
 70
     2
102
RTVSPropertyOp15
 70
     0
102
RTVSPropertyOp16
 70
     0
102
RTVSPropertyOp17
 70
     0
102
RTVSPropertyOp18
 70
     0
102
RTVSPropertyOp19
 70
     0
102
RTVSPropertyOp20
 70
     0
102
RTVSPropertyOp21
 70
     0
102
RTVSPropertyOp22
 70
     0
102
RTVSPropertyOp23
 70
     0
102
RTVSPropertyOp24
 70
     0
102
RTVSPropertyOp25
 70
     0
102
RTVSPropertyOp26
 70
     0
102
RTVSPropertyOp27
 70
     0
102
RTVSPropertyOp28
 70
     1
102
RTVSPropertyOp29
 70
     1
102
RTVSPropertyOp30
 70
     1
102
RTVSPropertyOp31
 70
     1
102
RTVSPropertyOp32
 70
     1
102
RTVSPropertyOp33
 70
     1
102
RTVSPropertyOp34
 70
     1
102
RTVSPropertyOp35
 70
     1
102
RTVSPropertyOp36
 70
     1
102
RTVSPropertyOp37
 70
     0
102
RTVSPropertyOp38
 70
     0
102
RTVSPropertyOp39
 70
     0
102
RTVSPropertyOp40
 70
     0
102
RTVSPropertyOp41
 70
     0
102
RTVSPropertyOp42
 70
     0
102
RTVSPropertyOp43
 70
     0
102
RTVSPropertyOp44
 70
     0
102
RTVSPropertyOp45
 70
     1
102
RTVSPropertyOp46
 70
     0
102
RTVSPropertyOp47
 70
     0
102
RTVSPropertyOp48
 70
     0
102
RTVSPropertyOp49
 70
     1
102
RTVSPropertyOp50
 70
     0
102
RTVSPropertyOp51
 70
     0
102
RTVSPropertyOp52
 70
     0
102
RTVSPropertyOp53
 70
     0
102
RTVSPropertyOp54
 70
     0
102
RTVSPropertyOp55
 70
     1
102
RTVSPropertyOp56
 70
     0
102
RTVSPropertyOp57
 70
     0
102
RTVSPropertyOp58
 70
     0
102
RTVSPropertyOp59
 70
     0
102
RTVSPropertyOp60
 70
     0
102
RTVSPropertyOp61
 70
     0
102
RTVSPropertyOp62
 70
     0
  0
XRECORD
  5
C408
102
{ACAD_REACTORS
330
C407
102
}
330
C407
100
AcDbXrecord
280
     1
102
RTVSPost2010Prop28
280
     0
102
RTVSPost2010PropOp28
 70
     1
102
RTVSPost2010Prop29
280
     1
102
RTVSPost2010PropOp29
 70
     1
102
RTVSPost2010Prop30
280
     1
102
RTVSPost2010PropOp30
 70
     1
102
RTVSPost2010Prop31
280
     0
102
RTVSPost2010PropOp31
 70
     1
102
RTVSPost2010Prop32
280
     0
102
RTVSPost2010PropOp32
 70
     1
102
RTVSPost2010Prop33
280
     0
102
RTVSPost2010PropOp33
 70
     1
102
RTVSPost2010Prop34
280
     0
102
RTVSPost2010PropOp34
 70
     1
102
RTVSPost2010Prop35
280
     0
102
RTVSPost2010PropOp35
 70
     1
102
RTVSPost2010Prop36
280
     0
102
RTVSPost2010PropOp36
 70
     1
102
RTVSPost2010Prop37
 90
       50
102
RTVSPost2010PropOp37
 70
     1
102
RTVSPost2010Prop38
140
0.0
102
RTVSPost2010PropOp38
 70
     1
102
RTVSPost2010Prop39
140
1.0
102
RTVSPost2010PropOp39
 70
     1
102
RTVSPost2010Prop40
 90
        0
102
RTVSPost2010PropOp40
 70
     1
102
RTVSPost2010Prop41ColorIndex
 90
       18
102
RTVSPost2010Prop41ColorRGB
 90
        0
102
RTVSPost2010PropOp41
 70
     1
102
RTVSPost2010Prop42
 90
       50
102
RTVSPost2010PropOp42
 70
     1
102
RTVSPost2010Prop43
 90
        3
102
RTVSPost2010PropOp43
 70
     1
102
RTVSPost2010Prop44ColorIndex
 90
        5
102
RTVSPost2010Prop44ColorRGB
 90
      255
102
RTVSPost2010PropOp44
 70
     1
102
RTVSPost2010Prop45
280
     0
102
RTVSPost2010PropOp45
 70
     1
102
RTVSPost2010Prop46
 90
       50
102
RTVSPost2010PropOp46
 70
     1
102
RTVSPost2010Prop47
 90
       50
102
RTVSPost2010PropOp47
 70
     1
102
RTVSPost2010Prop48
 90
       50
102
RTVSPost2010PropOp48
 70
     1
102
RTVSPost2010Prop49
280
     0
102
RTVSPost2010PropOp49
 70
     1
102
RTVSPost2010Prop50
 90
       50
102
RTVSPost2010PropOp50
 70
     1
102
RTVSPost2010Prop51ColorIndex
 90
      256
102
RTVSPost2010Prop51ColorRGB
 90
-16777216
102
RTVSPost2010PropOp51
 70
     0
102
RTVSPost2010Prop52
140
1.0
102
RTVSPost2010PropOp52
 70
     0
102
RTVSPost2010Prop53
 90
        2
102
RTVSPost2010PropOp53
 70
     1
102
RTVSPost2010Prop54
  1
strokes_ogs.tif
102
RTVSPost2010PropOp54
 70
     1
102
RTVSPost2010Prop55
280
     0
102
RTVSPost2010PropOp55
 70
     1
102
RTVSPost2010Prop56
140
1.0
102
RTVSPost2010PropOp56
 70
     1
102
RTVSPost2010Prop57
140
1.0
102
RTVSPost2010PropOp57
 70
     1
102
RTVSPropertyOp0
 70
     1
102
RTVSPropertyOp1
 70
     1
102
RTVSPropertyOp2
 70
     1
102
RTVSPropertyOp3
 70
     1
102
RTVSPropertyOp4
 70
     1
102
RTVSPropertyOp5
 70
     1
102
RTVSPropertyOp6
 70
     1
102
RTVSPropertyOp7
 70
     1
102
RTVSPropertyOp8
 70
     1
102
RTVSPropertyOp9
 70
     1
102
RTVSPropertyOp10
 70
     1
102
RTVSPropertyOp11
 70
     1
102
RTVSPropertyOp12
 70
     1
102
RTVSPropertyOp13
 70
     1
102
RTVSPropertyOp14
 70
     1
102
RTVSPropertyOp15
 70
     1
102
RTVSPropertyOp16
 70
     1
102
RTVSPropertyOp17
 70
     1
102
RTVSPropertyOp18
 70
     1
102
RTVSPropertyOp19
 70
     1
102
RTVSPropertyOp20
 70
     1
102
RTVSPropertyOp21
 70
     1
102
RTVSPropertyOp22
 70
     1
102
RTVSPropertyOp23
 70
     1
102
RTVSPropertyOp24
 70
     1
102
RTVSPropertyOp25
 70
     1
102
RTVSPropertyOp26
 70
     1
102
RTVSPropertyOp27
 70
     1
102
RTVSPropertyOp28
 70
     1
102
RTVSPropertyOp29
 70
     1
102
RTVSPropertyOp30
 70
     1
102
RTVSPropertyOp31
 70
     1
102
RTVSPropertyOp32
 70
     1
102
RTVSPropertyOp33
 70
     1
102
RTVSPropertyOp34
 70
     1
102
RTVSPropertyOp35
 70
     1
102
RTVSPropertyOp36
 70
     1
102
RTVSPropertyOp37
 70
     1
102
RTVSPropertyOp38
 70
     1
102
RTVSPropertyOp39
 70
     1
102
RTVSPropertyOp40
 70
     1
102
RTVSPropertyOp41
 70
     1
102
RTVSPropertyOp42
 70
     1
102
RTVSPropertyOp43
 70
     1
102
RTVSPropertyOp44
 70
     1
102
RTVSPropertyOp45
 70
     1
102
RTVSPropertyOp46
 70
     1
102
RTVSPropertyOp47
 70
     1
102
RTVSPropertyOp48
 70
     1
102
RTVSPropertyOp49
 70
     1
102
RTVSPropertyOp50
 70
     1
102
RTVSPropertyOp51
 70
     0
102
RTVSPropertyOp52
 70
     0
102
RTVSPropertyOp53
 70
     1
102
RTVSPropertyOp54
 70
     1
102
RTVSPropertyOp55
 70
     1
102
RTVSPropertyOp56
 70
     1
102
RTVSPropertyOp57
 70
     1
102
RTVSPropertyOp58
 70
     1
102
RTVSPropertyOp59
 70
     1
102
RTVSPropertyOp60
 70
     1
102
RTVSPropertyOp61
 70
     1
102
RTVSPropertyOp62
 70
     1
  0
XRECORD
  5
C3EC
102
{ACAD_REACTORS
330
C3EB
102
}
330
C3EB
100
AcDbXrecord
280
     1
102
RTVSPost2010Prop28
280
     0
102
RTVSPost2010PropOp28
 70
     1
102
RTVSPost2010Prop29
280
     1
102
RTVSPost2010PropOp29
 70
     1
102
RTVSPost2010Prop30
280
     1
102
RTVSPost2010PropOp30
 70
     1
102
RTVSPost2010Prop31
280
     0
102
RTVSPost2010PropOp31
 70
     1
102
RTVSPost2010Prop32
280
     0
102
RTVSPost2010PropOp32
 70
     1
102
RTVSPost2010Prop33
280
     0
102
RTVSPost2010PropOp33
 70
     1
102
RTVSPost2010Prop34
280
     0
102
RTVSPost2010PropOp34
 70
     1
102
RTVSPost2010Prop35
280
     0
102
RTVSPost2010PropOp35
 70
     1
102
RTVSPost2010Prop36
280
     0
102
RTVSPost2010PropOp36
 70
     1
102
RTVSPost2010Prop37
 90
       50
102
RTVSPost2010PropOp37
 70
     1
102
RTVSPost2010Prop38
140
0.0
102
RTVSPost2010PropOp38
 70
     1
102
RTVSPost2010Prop39
140
1.0
102
RTVSPost2010PropOp39
 70
     1
102
RTVSPost2010Prop40
 90
        0
102
RTVSPost2010PropOp40
 70
     1
102
RTVSPost2010Prop41ColorIndex
 90
       18
102
RTVSPost2010Prop41ColorRGB
 90
        0
102
RTVSPost2010PropOp41
 70
     1
102
RTVSPost2010Prop42
 90
       50
102
RTVSPost2010PropOp42
 70
     1
102
RTVSPost2010Prop43
 90
        3
102
RTVSPost2010PropOp43
 70
     1
102
RTVSPost2010Prop44ColorIndex
 90
        5
102
RTVSPost2010Prop44ColorRGB
 90
      255
102
RTVSPost2010PropOp44
 70
     1
102
RTVSPost2010Prop45
280
     0
102
RTVSPost2010PropOp45
 70
     1
102
RTVSPost2010Prop46
 90
       50
102
RTVSPost2010PropOp46
 70
     1
102
RTVSPost2010Prop47
 90
       50
102
RTVSPost2010PropOp47
 70
     1
102
RTVSPost2010Prop48
 90
       50
102
RTVSPost2010PropOp48
 70
     1
102
RTVSPost2010Prop49
280
     0
102
RTVSPost2010PropOp49
 70
     1
102
RTVSPost2010Prop50
 90
       50
102
RTVSPost2010PropOp50
 70
     1
102
RTVSPost2010Prop51ColorIndex
 90
      256
102
RTVSPost2010Prop51ColorRGB
 90
-16777216
102
RTVSPost2010PropOp51
 70
     0
102
RTVSPost2010Prop52
140
1.0
102
RTVSPost2010PropOp52
 70
     0
102
RTVSPost2010Prop53
 90
        2
102
RTVSPost2010PropOp53
 70
     1
102
RTVSPost2010Prop54
  1
strokes_ogs.tif
102
RTVSPost2010PropOp54
 70
     1
102
RTVSPost2010Prop55
280
     0
102
RTVSPost2010PropOp55
 70
     1
102
RTVSPost2010Prop56
140
1.0
102
RTVSPost2010PropOp56
 70
     1
102
RTVSPost2010Prop57
140
1.0
102
RTVSPost2010PropOp57
 70
     1
102
RTVSPropertyOp0
 70
     1
102
RTVSPropertyOp1
 70
     1
102
RTVSPropertyOp2
 70
     1
102
RTVSPropertyOp3
 70
     1
102
RTVSPropertyOp4
 70
     1
102
RTVSPropertyOp5
 70
     1
102
RTVSPropertyOp6
 70
     1
102
RTVSPropertyOp7
 70
     1
102
RTVSPropertyOp8
 70
     1
102
RTVSPropertyOp9
 70
     1
102
RTVSPropertyOp10
 70
     1
102
RTVSPropertyOp11
 70
     1
102
RTVSPropertyOp12
 70
     1
102
RTVSPropertyOp13
 70
     1
102
RTVSPropertyOp14
 70
     1
102
RTVSPropertyOp15
 70
     1
102
RTVSPropertyOp16
 70
     1
102
RTVSPropertyOp17
 70
     1
102
RTVSPropertyOp18
 70
     1
102
RTVSPropertyOp19
 70
     1
102
RTVSPropertyOp20
 70
     1
102
RTVSPropertyOp21
 70
     1
102
RTVSPropertyOp22
 70
     1
102
RTVSPropertyOp23
 70
     1
102
RTVSPropertyOp24
 70
     1
102
RTVSPropertyOp25
 70
     1
102
RTVSPropertyOp26
 70
     1
102
RTVSPropertyOp27
 70
     1
102
RTVSPropertyOp28
 70
     1
102
RTVSPropertyOp29
 70
     1
102
RTVSPropertyOp30
 70
     1
102
RTVSPropertyOp31
 70
     1
102
RTVSPropertyOp32
 70
     1
102
RTVSPropertyOp33
 70
     1
102
RTVSPropertyOp34
 70
     1
102
RTVSPropertyOp35
 70
     1
102
RTVSPropertyOp36
 70
     1
102
RTVSPropertyOp37
 70
     1
102
RTVSPropertyOp38
 70
     1
102
RTVSPropertyOp39
 70
     1
102
RTVSPropertyOp40
 70
     1
102
RTVSPropertyOp41
 70
     1
102
RTVSPropertyOp42
 70
     1
102
RTVSPropertyOp43
 70
     1
102
RTVSPropertyOp44
 70
     1
102
RTVSPropertyOp45
 70
     1
102
RTVSPropertyOp46
 70
     1
102
RTVSPropertyOp47
 70
     1
102
RTVSPropertyOp48
 70
     1
102
RTVSPropertyOp49
 70
     1
102
RTVSPropertyOp50
 70
     1
102
RTVSPropertyOp51
 70
     0
102
RTVSPropertyOp52
 70
     0
102
RTVSPropertyOp53
 70
     1
102
RTVSPropertyOp54
 70
     1
102
RTVSPropertyOp55
 70
     1
102
RTVSPropertyOp56
 70
     1
102
RTVSPropertyOp57
 70
     1
102
RTVSPropertyOp58
 70
     1
102
RTVSPropertyOp59
 70
     1
102
RTVSPropertyOp60
 70
     1
102
RTVSPropertyOp61
 70
     1
102
RTVSPropertyOp62
 70
     1
  0
XRECORD
  5
C3EE
102
{ACAD_REACTORS
330
C3ED
102
}
330
C3ED
100
AcDbXrecord
280
     1
102
RTVSPost2010Prop28
280
     0
102
RTVSPost2010PropOp28
 70
     1
102
RTVSPost2010Prop29
280
     1
102
RTVSPost2010PropOp29
 70
     1
102
RTVSPost2010Prop30
280
     1
102
RTVSPost2010PropOp30
 70
     1
102
RTVSPost2010Prop31
280
     0
102
RTVSPost2010PropOp31
 70
     1
102
RTVSPost2010Prop32
280
     0
102
RTVSPost2010PropOp32
 70
     1
102
RTVSPost2010Prop33
280
     0
102
RTVSPost2010PropOp33
 70
     1
102
RTVSPost2010Prop34
280
     0
102
RTVSPost2010PropOp34
 70
     1
102
RTVSPost2010Prop35
280
     0
102
RTVSPost2010PropOp35
 70
     1
102
RTVSPost2010Prop36
280
     0
102
RTVSPost2010PropOp36
 70
     1
102
RTVSPost2010Prop37
 90
       50
102
RTVSPost2010PropOp37
 70
     1
102
RTVSPost2010Prop38
140
0.0
102
RTVSPost2010PropOp38
 70
     1
102
RTVSPost2010Prop39
140
1.0
102
RTVSPost2010PropOp39
 70
     1
102
RTVSPost2010Prop40
 90
        0
102
RTVSPost2010PropOp40
 70
     1
102
RTVSPost2010Prop41ColorIndex
 90
       18
102
RTVSPost2010Prop41ColorRGB
 90
        0
102
RTVSPost2010PropOp41
 70
     1
102
RTVSPost2010Prop42
 90
       50
102
RTVSPost2010PropOp42
 70
     1
102
RTVSPost2010Prop43
 90
        3
102
RTVSPost2010PropOp43
 70
     1
102
RTVSPost2010Prop44ColorIndex
 90
        5
102
RTVSPost2010Prop44ColorRGB
 90
      255
102
RTVSPost2010PropOp44
 70
     1
102
RTVSPost2010Prop45
280
     0
102
RTVSPost2010PropOp45
 70
     1
102
RTVSPost2010Prop46
 90
       50
102
RTVSPost2010PropOp46
 70
     1
102
RTVSPost2010Prop47
 90
       50
102
RTVSPost2010PropOp47
 70
     1
102
RTVSPost2010Prop48
 90
       50
102
RTVSPost2010PropOp48
 70
     1
102
RTVSPost2010Prop49
280
     0
102
RTVSPost2010PropOp49
 70
     1
102
RTVSPost2010Prop50
 90
       50
102
RTVSPost2010PropOp50
 70
     1
102
RTVSPost2010Prop51ColorIndex
 90
      256
102
RTVSPost2010Prop51ColorRGB
 90
-16777216
102
RTVSPost2010PropOp51
 70
     0
102
RTVSPost2010Prop52
140
1.0
102
RTVSPost2010PropOp52
 70
     0
102
RTVSPost2010Prop53
 90
        2
102
RTVSPost2010PropOp53
 70
     1
102
RTVSPost2010Prop54
  1
strokes_ogs.tif
102
RTVSPost2010PropOp54
 70
     1
102
RTVSPost2010Prop55
280
     0
102
RTVSPost2010PropOp55
 70
     1
102
RTVSPost2010Prop56
140
1.0
102
RTVSPost2010PropOp56
 70
     1
102
RTVSPost2010Prop57
140
1.0
102
RTVSPost2010PropOp57
 70
     1
102
RTVSPropertyOp0
 70
     1
102
RTVSPropertyOp1
 70
     1
102
RTVSPropertyOp2
 70
     1
102
RTVSPropertyOp3
 70
     1
102
RTVSPropertyOp4
 70
     1
102
RTVSPropertyOp5
 70
     1
102
RTVSPropertyOp6
 70
     1
102
RTVSPropertyOp7
 70
     1
102
RTVSPropertyOp8
 70
     1
102
RTVSPropertyOp9
 70
     1
102
RTVSPropertyOp10
 70
     1
102
RTVSPropertyOp11
 70
     1
102
RTVSPropertyOp12
 70
     1
102
RTVSPropertyOp13
 70
     1
102
RTVSPropertyOp14
 70
     1
102
RTVSPropertyOp15
 70
     1
102
RTVSPropertyOp16
 70
     1
102
RTVSPropertyOp17
 70
     1
102
RTVSPropertyOp18
 70
     1
102
RTVSPropertyOp19
 70
     1
102
RTVSPropertyOp20
 70
     1
102
RTVSPropertyOp21
 70
     1
102
RTVSPropertyOp22
 70
     1
102
RTVSPropertyOp23
 70
     1
102
RTVSPropertyOp24
 70
     1
102
RTVSPropertyOp25
 70
     1
102
RTVSPropertyOp26
 70
     1
102
RTVSPropertyOp27
 70
     1
102
RTVSPropertyOp28
 70
     1
102
RTVSPropertyOp29
 70
     1
102
RTVSPropertyOp30
 70
     1
102
RTVSPropertyOp31
 70
     1
102
RTVSPropertyOp32
 70
     1
102
RTVSPropertyOp33
 70
     1
102
RTVSPropertyOp34
 70
     1
102
RTVSPropertyOp35
 70
     1
102
RTVSPropertyOp36
 70
     1
102
RTVSPropertyOp37
 70
     1
102
RTVSPropertyOp38
 70
     1
102
RTVSPropertyOp39
 70
     1
102
RTVSPropertyOp40
 70
     1
102
RTVSPropertyOp41
 70
     1
102
RTVSPropertyOp42
 70
     1
102
RTVSPropertyOp43
 70
     1
102
RTVSPropertyOp44
 70
     1
102
RTVSPropertyOp45
 70
     1
102
RTVSPropertyOp46
 70
     1
102
RTVSPropertyOp47
 70
     1
102
RTVSPropertyOp48
 70
     1
102
RTVSPropertyOp49
 70
     1
102
RTVSPropertyOp50
 70
     1
102
RTVSPropertyOp51
 70
     0
102
RTVSPropertyOp52
 70
     0
102
RTVSPropertyOp53
 70
     1
102
RTVSPropertyOp54
 70
     1
102
RTVSPropertyOp55
 70
     1
102
RTVSPropertyOp56
 70
     1
102
RTVSPropertyOp57
 70
     1
102
RTVSPropertyOp58
 70
     1
102
RTVSPropertyOp59
 70
     1
102
RTVSPropertyOp60
 70
     1
102
RTVSPropertyOp61
 70
     1
102
RTVSPropertyOp62
 70
     1
  0
XRECORD
  5
C3F0
102
{ACAD_REACTORS
330
C3EF
102
}
330
C3EF
100
AcDbXrecord
280
     1
102
RTVSPost2010Prop28
280
     0
102
RTVSPost2010PropOp28
 70
     1
102
RTVSPost2010Prop29
280
     1
102
RTVSPost2010PropOp29
 70
     1
102
RTVSPost2010Prop30
280
     1
102
RTVSPost2010PropOp30
 70
     1
102
RTVSPost2010Prop31
280
     0
102
RTVSPost2010PropOp31
 70
     1
102
RTVSPost2010Prop32
280
     0
102
RTVSPost2010PropOp32
 70
     1
102
RTVSPost2010Prop33
280
     0
102
RTVSPost2010PropOp33
 70
     1
102
RTVSPost2010Prop34
280
     0
102
RTVSPost2010PropOp34
 70
     1
102
RTVSPost2010Prop35
280
     0
102
RTVSPost2010PropOp35
 70
     1
102
RTVSPost2010Prop36
280
     0
102
RTVSPost2010PropOp36
 70
     1
102
RTVSPost2010Prop37
 90
       50
102
RTVSPost2010PropOp37
 70
     1
102
RTVSPost2010Prop38
140
0.0
102
RTVSPost2010PropOp38
 70
     1
102
RTVSPost2010Prop39
140
1.0
102
RTVSPost2010PropOp39
 70
     1
102
RTVSPost2010Prop40
 90
        0
102
RTVSPost2010PropOp40
 70
     1
102
RTVSPost2010Prop41ColorIndex
 90
       18
102
RTVSPost2010Prop41ColorRGB
 90
        0
102
RTVSPost2010PropOp41
 70
     1
102
RTVSPost2010Prop42
 90
       50
102
RTVSPost2010PropOp42
 70
     1
102
RTVSPost2010Prop43
 90
        3
102
RTVSPost2010PropOp43
 70
     1
102
RTVSPost2010Prop44ColorIndex
 90
        5
102
RTVSPost2010Prop44ColorRGB
 90
      255
102
RTVSPost2010PropOp44
 70
     1
102
RTVSPost2010Prop45
280
     0
102
RTVSPost2010PropOp45
 70
     1
102
RTVSPost2010Prop46
 90
       50
102
RTVSPost2010PropOp46
 70
     1
102
RTVSPost2010Prop47
 90
       50
102
RTVSPost2010PropOp47
 70
     1
102
RTVSPost2010Prop48
 90
       50
102
RTVSPost2010PropOp48
 70
     1
102
RTVSPost2010Prop49
280
     0
102
RTVSPost2010PropOp49
 70
     1
102
RTVSPost2010Prop50
 90
       50
102
RTVSPost2010PropOp50
 70
     1
102
RTVSPost2010Prop51ColorIndex
 90
      256
102
RTVSPost2010Prop51ColorRGB
 90
-16777216
102
RTVSPost2010PropOp51
 70
     0
102
RTVSPost2010Prop52
140
1.0
102
RTVSPost2010PropOp52
 70
     0
102
RTVSPost2010Prop53
 90
        2
102
RTVSPost2010PropOp53
 70
     1
102
RTVSPost2010Prop54
  1
strokes_ogs.tif
102
RTVSPost2010PropOp54
 70
     1
102
RTVSPost2010Prop55
280
     0
102
RTVSPost2010PropOp55
 70
     1
102
RTVSPost2010Prop56
140
1.0
102
RTVSPost2010PropOp56
 70
     1
102
RTVSPost2010Prop57
140
1.0
102
RTVSPost2010PropOp57
 70
     1
102
RTVSPropertyOp0
 70
     1
102
RTVSPropertyOp1
 70
     1
102
RTVSPropertyOp2
 70
     1
102
RTVSPropertyOp3
 70
     1
102
RTVSPropertyOp4
 70
     1
102
RTVSPropertyOp5
 70
     1
102
RTVSPropertyOp6
 70
     1
102
RTVSPropertyOp7
 70
     1
102
RTVSPropertyOp8
 70
     1
102
RTVSPropertyOp9
 70
     1
102
RTVSPropertyOp10
 70
     1
102
RTVSPropertyOp11
 70
     1
102
RTVSPropertyOp12
 70
     1
102
RTVSPropertyOp13
 70
     1
102
RTVSPropertyOp14
 70
     1
102
RTVSPropertyOp15
 70
     1
102
RTVSPropertyOp16
 70
     1
102
RTVSPropertyOp17
 70
     1
102
RTVSPropertyOp18
 70
     1
102
RTVSPropertyOp19
 70
     1
102
RTVSPropertyOp20
 70
     1
102
RTVSPropertyOp21
 70
     1
102
RTVSPropertyOp22
 70
     1
102
RTVSPropertyOp23
 70
     1
102
RTVSPropertyOp24
 70
     1
102
RTVSPropertyOp25
 70
     1
102
RTVSPropertyOp26
 70
     1
102
RTVSPropertyOp27
 70
     1
102
RTVSPropertyOp28
 70
     1
102
RTVSPropertyOp29
 70
     1
102
RTVSPropertyOp30
 70
     1
102
RTVSPropertyOp31
 70
     1
102
RTVSPropertyOp32
 70
     1
102
RTVSPropertyOp33
 70
     1
102
RTVSPropertyOp34
 70
     1
102
RTVSPropertyOp35
 70
     1
102
RTVSPropertyOp36
 70
     1
102
RTVSPropertyOp37
 70
     1
102
RTVSPropertyOp38
 70
     1
102
RTVSPropertyOp39
 70
     1
102
RTVSPropertyOp40
 70
     1
102
RTVSPropertyOp41
 70
     1
102
RTVSPropertyOp42
 70
     1
102
RTVSPropertyOp43
 70
     1
102
RTVSPropertyOp44
 70
     1
102
RTVSPropertyOp45
 70
     1
102
RTVSPropertyOp46
 70
     1
102
RTVSPropertyOp47
 70
     1
102
RTVSPropertyOp48
 70
     1
102
RTVSPropertyOp49
 70
     1
102
RTVSPropertyOp50
 70
     1
102
RTVSPropertyOp51
 70
     0
102
RTVSPropertyOp52
 70
     0
102
RTVSPropertyOp53
 70
     1
102
RTVSPropertyOp54
 70
     1
102
RTVSPropertyOp55
 70
     1
102
RTVSPropertyOp56
 70
     1
102
RTVSPropertyOp57
 70
     1
102
RTVSPropertyOp58
 70
     1
102
RTVSPropertyOp59
 70
     1
102
RTVSPropertyOp60
 70
     1
102
RTVSPropertyOp61
 70
     1
102
RTVSPropertyOp62
 70
     1
  0
XRECORD
  5
C3F2
102
{ACAD_REACTORS
330
C3F1
102
}
330
C3F1
100
AcDbXrecord
280
     1
102
RTVSPost2010Prop28
280
     0
102
RTVSPost2010PropOp28
 70
     1
102
RTVSPost2010Prop29
280
     1
102
RTVSPost2010PropOp29
 70
     1
102
RTVSPost2010Prop30
280
     1
102
RTVSPost2010PropOp30
 70
     1
102
RTVSPost2010Prop31
280
     0
102
RTVSPost2010PropOp31
 70
     1
102
RTVSPost2010Prop32
280
     0
102
RTVSPost2010PropOp32
 70
     1
102
RTVSPost2010Prop33
280
     0
102
RTVSPost2010PropOp33
 70
     1
102
RTVSPost2010Prop34
280
     0
102
RTVSPost2010PropOp34
 70
     1
102
RTVSPost2010Prop35
280
     0
102
RTVSPost2010PropOp35
 70
     1
102
RTVSPost2010Prop36
280
     0
102
RTVSPost2010PropOp36
 70
     1
102
RTVSPost2010Prop37
 90
       50
102
RTVSPost2010PropOp37
 70
     1
102
RTVSPost2010Prop38
140
0.0
102
RTVSPost2010PropOp38
 70
     1
102
RTVSPost2010Prop39
140
1.0
102
RTVSPost2010PropOp39
 70
     1
102
RTVSPost2010Prop40
 90
        0
102
RTVSPost2010PropOp40
 70
     1
102
RTVSPost2010Prop41ColorIndex
 90
       18
102
RTVSPost2010Prop41ColorRGB
 90
        0
102
RTVSPost2010PropOp41
 70
     1
102
RTVSPost2010Prop42
 90
       50
102
RTVSPost2010PropOp42
 70
     1
102
RTVSPost2010Prop43
 90
        3
102
RTVSPost2010PropOp43
 70
     1
102
RTVSPost2010Prop44ColorIndex
 90
        5
102
RTVSPost2010Prop44ColorRGB
 90
      255
102
RTVSPost2010PropOp44
 70
     1
102
RTVSPost2010Prop45
280
     0
102
RTVSPost2010PropOp45
 70
     1
102
RTVSPost2010Prop46
 90
       50
102
RTVSPost2010PropOp46
 70
     1
102
RTVSPost2010Prop47
 90
       50
102
RTVSPost2010PropOp47
 70
     1
102
RTVSPost2010Prop48
 90
       50
102
RTVSPost2010PropOp48
 70
     1
102
RTVSPost2010Prop49
280
     0
102
RTVSPost2010PropOp49
 70
     1
102
RTVSPost2010Prop50
 90
       50
102
RTVSPost2010PropOp50
 70
     1
102
RTVSPost2010Prop51ColorIndex
 90
      256
102
RTVSPost2010Prop51ColorRGB
 90
-16777216
102
RTVSPost2010PropOp51
 70
     0
102
RTVSPost2010Prop52
140
1.0
102
RTVSPost2010PropOp52
 70
     0
102
RTVSPost2010Prop53
 90
        2
102
RTVSPost2010PropOp53
 70
     1
102
RTVSPost2010Prop54
  1
strokes_ogs.tif
102
RTVSPost2010PropOp54
 70
     1
102
RTVSPost2010Prop55
280
     0
102
RTVSPost2010PropOp55
 70
     1
102
RTVSPost2010Prop56
140
1.0
102
RTVSPost2010PropOp56
 70
     1
102
RTVSPost2010Prop57
140
1.0
102
RTVSPost2010PropOp57
 70
     1
102
RTVSPropertyOp0
 70
     1
102
RTVSPropertyOp1
 70
     1
102
RTVSPropertyOp2
 70
     1
102
RTVSPropertyOp3
 70
     1
102
RTVSPropertyOp4
 70
     1
102
RTVSPropertyOp5
 70
     1
102
RTVSPropertyOp6
 70
     1
102
RTVSPropertyOp7
 70
     1
102
RTVSPropertyOp8
 70
     1
102
RTVSPropertyOp9
 70
     1
102
RTVSPropertyOp10
 70
     1
102
RTVSPropertyOp11
 70
     1
102
RTVSPropertyOp12
 70
     1
102
RTVSPropertyOp13
 70
     1
102
RTVSPropertyOp14
 70
     1
102
RTVSPropertyOp15
 70
     1
102
RTVSPropertyOp16
 70
     1
102
RTVSPropertyOp17
 70
     1
102
RTVSPropertyOp18
 70
     1
102
RTVSPropertyOp19
 70
     1
102
RTVSPropertyOp20
 70
     1
102
RTVSPropertyOp21
 70
     1
102
RTVSPropertyOp22
 70
     1
102
RTVSPropertyOp23
 70
     1
102
RTVSPropertyOp24
 70
     1
102
RTVSPropertyOp25
 70
     1
102
RTVSPropertyOp26
 70
     1
102
RTVSPropertyOp27
 70
     1
102
RTVSPropertyOp28
 70
     1
102
RTVSPropertyOp29
 70
     1
102
RTVSPropertyOp30
 70
     1
102
RTVSPropertyOp31
 70
     1
102
RTVSPropertyOp32
 70
     1
102
RTVSPropertyOp33
 70
     1
102
RTVSPropertyOp34
 70
     1
102
RTVSPropertyOp35
 70
     1
102
RTVSPropertyOp36
 70
     1
102
RTVSPropertyOp37
 70
     1
102
RTVSPropertyOp38
 70
     1
102
RTVSPropertyOp39
 70
     1
102
RTVSPropertyOp40
 70
     1
102
RTVSPropertyOp41
 70
     1
102
RTVSPropertyOp42
 70
     1
102
RTVSPropertyOp43
 70
     1
102
RTVSPropertyOp44
 70
     1
102
RTVSPropertyOp45
 70
     1
102
RTVSPropertyOp46
 70
     1
102
RTVSPropertyOp47
 70
     1
102
RTVSPropertyOp48
 70
     1
102
RTVSPropertyOp49
 70
     1
102
RTVSPropertyOp50
 70
     1
102
RTVSPropertyOp51
 70
     0
102
RTVSPropertyOp52
 70
     0
102
RTVSPropertyOp53
 70
     1
102
RTVSPropertyOp54
 70
     1
102
RTVSPropertyOp55
 70
     1
102
RTVSPropertyOp56
 70
     1
102
RTVSPropertyOp57
 70
     1
102
RTVSPropertyOp58
 70
     1
102
RTVSPropertyOp59
 70
     1
102
RTVSPropertyOp60
 70
     1
102
RTVSPropertyOp61
 70
     1
102
RTVSPropertyOp62
 70
     1
  0
XRECORD
  5
C3FA
102
{ACAD_REACTORS
330
C3F9
102
}
330
C3F9
100
AcDbXrecord
280
     1
102
RTVSPost2010Prop28
280
     0
102
RTVSPost2010PropOp28
 70
     1
102
RTVSPost2010Prop29
280
     1
102
RTVSPost2010PropOp29
 70
     1
102
RTVSPost2010Prop30
280
     1
102
RTVSPost2010PropOp30
 70
     1
102
RTVSPost2010Prop31
280
     0
102
RTVSPost2010PropOp31
 70
     1
102
RTVSPost2010Prop32
280
     0
102
RTVSPost2010PropOp32
 70
     1
102
RTVSPost2010Prop33
280
     0
102
RTVSPost2010PropOp33
 70
     1
102
RTVSPost2010Prop34
280
     0
102
RTVSPost2010PropOp34
 70
     1
102
RTVSPost2010Prop35
280
     0
102
RTVSPost2010PropOp35
 70
     1
102
RTVSPost2010Prop36
280
     0
102
RTVSPost2010PropOp36
 70
     1
102
RTVSPost2010Prop37
 90
       50
102
RTVSPost2010PropOp37
 70
     1
102
RTVSPost2010Prop38
140
0.0
102
RTVSPost2010PropOp38
 70
     1
102
RTVSPost2010Prop39
140
1.0
102
RTVSPost2010PropOp39
 70
     1
102
RTVSPost2010Prop40
 90
        0
102
RTVSPost2010PropOp40
 70
     1
102
RTVSPost2010Prop41ColorIndex
 90
       18
102
RTVSPost2010Prop41ColorRGB
 90
        0
102
RTVSPost2010PropOp41
 70
     1
102
RTVSPost2010Prop42
 90
       50
102
RTVSPost2010PropOp42
 70
     1
102
RTVSPost2010Prop43
 90
        3
102
RTVSPost2010PropOp43
 70
     1
102
RTVSPost2010Prop44ColorIndex
 90
        5
102
RTVSPost2010Prop44ColorRGB
 90
      255
102
RTVSPost2010PropOp44
 70
     1
102
RTVSPost2010Prop45
280
     0
102
RTVSPost2010PropOp45
 70
     1
102
RTVSPost2010Prop46
 90
       50
102
RTVSPost2010PropOp46
 70
     1
102
RTVSPost2010Prop47
 90
       50
102
RTVSPost2010PropOp47
 70
     1
102
RTVSPost2010Prop48
 90
       50
102
RTVSPost2010PropOp48
 70
     1
102
RTVSPost2010Prop49
280
     0
102
RTVSPost2010PropOp49
 70
     1
102
RTVSPost2010Prop50
 90
       50
102
RTVSPost2010PropOp50
 70
     1
102
RTVSPost2010Prop51ColorIndex
 90
      256
102
RTVSPost2010Prop51ColorRGB
 90
-16777216
102
RTVSPost2010PropOp51
 70
     0
102
RTVSPost2010Prop52
140
1.0
102
RTVSPost2010PropOp52
 70
     0
102
RTVSPost2010Prop53
 90
        2
102
RTVSPost2010PropOp53
 70
     1
102
RTVSPost2010Prop54
  1
strokes_ogs.tif
102
RTVSPost2010PropOp54
 70
     1
102
RTVSPost2010Prop55
280
     0
102
RTVSPost2010PropOp55
 70
     1
102
RTVSPost2010Prop56
140
1.0
102
RTVSPost2010PropOp56
 70
     1
102
RTVSPost2010Prop57
140
1.0
102
RTVSPost2010PropOp57
 70
     1
102
RTVSPropertyOp0
 70
     1
102
RTVSPropertyOp1
 70
     1
102
RTVSPropertyOp2
 70
     1
102
RTVSPropertyOp3
 70
     1
102
RTVSPropertyOp4
 70
     1
102
RTVSPropertyOp5
 70
     1
102
RTVSPropertyOp6
 70
     1
102
RTVSPropertyOp7
 70
     1
102
RTVSPropertyOp8
 70
     1
102
RTVSPropertyOp9
 70
     1
102
RTVSPropertyOp10
 70
     1
102
RTVSPropertyOp11
 70
     1
102
RTVSPropertyOp12
 70
     1
102
RTVSPropertyOp13
 70
     1
102
RTVSPropertyOp14
 70
     1
102
RTVSPropertyOp15
 70
     1
102
RTVSPropertyOp16
 70
     1
102
RTVSPropertyOp17
 70
     1
102
RTVSPropertyOp18
 70
     1
102
RTVSPropertyOp19
 70
     1
102
RTVSPropertyOp20
 70
     1
102
RTVSPropertyOp21
 70
     1
102
RTVSPropertyOp22
 70
     1
102
RTVSPropertyOp23
 70
     1
102
RTVSPropertyOp24
 70
     1
102
RTVSPropertyOp25
 70
     1
102
RTVSPropertyOp26
 70
     1
102
RTVSPropertyOp27
 70
     1
102
RTVSPropertyOp28
 70
     1
102
RTVSPropertyOp29
 70
     1
102
RTVSPropertyOp30
 70
     1
102
RTVSPropertyOp31
 70
     1
102
RTVSPropertyOp32
 70
     1
102
RTVSPropertyOp33
 70
     1
102
RTVSPropertyOp34
 70
     1
102
RTVSPropertyOp35
 70
     1
102
RTVSPropertyOp36
 70
     1
102
RTVSPropertyOp37
 70
     1
102
RTVSPropertyOp38
 70
     1
102
RTVSPropertyOp39
 70
     1
102
RTVSPropertyOp40
 70
     1
102
RTVSPropertyOp41
 70
     1
102
RTVSPropertyOp42
 70
     1
102
RTVSPropertyOp43
 70
     1
102
RTVSPropertyOp44
 70
     1
102
RTVSPropertyOp45
 70
     1
102
RTVSPropertyOp46
 70
     1
102
RTVSPropertyOp47
 70
     1
102
RTVSPropertyOp48
 70
     1
102
RTVSPropertyOp49
 70
     1
102
RTVSPropertyOp50
 70
     1
102
RTVSPropertyOp51
 70
     0
102
RTVSPropertyOp52
 70
     0
102
RTVSPropertyOp53
 70
     1
102
RTVSPropertyOp54
 70
     1
102
RTVSPropertyOp55
 70
     1
102
RTVSPropertyOp56
 70
     1
102
RTVSPropertyOp57
 70
     1
102
RTVSPropertyOp58
 70
     1
102
RTVSPropertyOp59
 70
     1
102
RTVSPropertyOp60
 70
     1
102
RTVSPropertyOp61
 70
     1
102
RTVSPropertyOp62
 70
     1
  0
XRECORD
  5
C416
102
{ACAD_REACTORS
330
C415
102
}
330
C415
100
AcDbXrecord
280
     1
102
RTVSPost2010Prop28
280
     0
102
RTVSPost2010PropOp28
 70
     1
102
RTVSPost2010Prop29
280
     1
102
RTVSPost2010PropOp29
 70
     1
102
RTVSPost2010Prop30
280
     1
102
RTVSPost2010PropOp30
 70
     1
102
RTVSPost2010Prop31
280
     0
102
RTVSPost2010PropOp31
 70
     1
102
RTVSPost2010Prop32
280
     0
102
RTVSPost2010PropOp32
 70
     1
102
RTVSPost2010Prop33
280
     0
102
RTVSPost2010PropOp33
 70
     1
102
RTVSPost2010Prop34
280
     0
102
RTVSPost2010PropOp34
 70
     1
102
RTVSPost2010Prop35
280
     0
102
RTVSPost2010PropOp35
 70
     1
102
RTVSPost2010Prop36
280
     0
102
RTVSPost2010PropOp36
 70
     1
102
RTVSPost2010Prop37
 90
       50
102
RTVSPost2010PropOp37
 70
     0
102
RTVSPost2010Prop38
140
0.0
102
RTVSPost2010PropOp38
 70
     0
102
RTVSPost2010Prop39
140
1.0
102
RTVSPost2010PropOp39
 70
     0
102
RTVSPost2010Prop40
 90
        0
102
RTVSPost2010PropOp40
 70
     0
102
RTVSPost2010Prop41ColorIndex
 90
       18
102
RTVSPost2010Prop41ColorRGB
 90
        0
102
RTVSPost2010PropOp41
 70
     0
102
RTVSPost2010Prop42
 90
       50
102
RTVSPost2010PropOp42
 70
     0
102
RTVSPost2010Prop43
 90
        3
102
RTVSPost2010PropOp43
 70
     0
102
RTVSPost2010Prop44ColorIndex
 90
        5
102
RTVSPost2010Prop44ColorRGB
 90
      255
102
RTVSPost2010PropOp44
 70
     0
102
RTVSPost2010Prop45
280
     0
102
RTVSPost2010PropOp45
 70
     1
102
RTVSPost2010Prop46
 90
       50
102
RTVSPost2010PropOp46
 70
     0
102
RTVSPost2010Prop47
 90
       50
102
RTVSPost2010PropOp47
 70
     0
102
RTVSPost2010Prop48
 90
       50
102
RTVSPost2010PropOp48
 70
     0
102
RTVSPost2010Prop49
280
     0
102
RTVSPost2010PropOp49
 70
     1
102
RTVSPost2010Prop50
 90
       50
102
RTVSPost2010PropOp50
 70
     0
102
RTVSPost2010Prop51ColorIndex
 90
      256
102
RTVSPost2010Prop51ColorRGB
 90
-16777216
102
RTVSPost2010PropOp51
 70
     0
102
RTVSPost2010Prop52
140
1.0
102
RTVSPost2010PropOp52
 70
     0
102
RTVSPost2010Prop53
 90
        2
102
RTVSPost2010PropOp53
 70
     0
102
RTVSPost2010Prop54
  1
strokes_ogs.tif
102
RTVSPost2010PropOp54
 70
     0
102
RTVSPost2010Prop55
280
     0
102
RTVSPost2010PropOp55
 70
     1
102
RTVSPost2010Prop56
140
1.0
102
RTVSPost2010PropOp56
 70
     0
102
RTVSPost2010Prop57
140
1.0
102
RTVSPost2010PropOp57
 70
     0
102
RTVSPropertyOp0
 70
     0
102
RTVSPropertyOp1
 70
     0
102
RTVSPropertyOp2
 70
     0
102
RTVSPropertyOp3
 70
     0
102
RTVSPropertyOp4
 70
     0
102
RTVSPropertyOp5
 70
     0
102
RTVSPropertyOp6
 70
     0
102
RTVSPropertyOp7
 70
     0
102
RTVSPropertyOp8
 70
     0
102
RTVSPropertyOp9
 70
     0
102
RTVSPropertyOp10
 70
     0
102
RTVSPropertyOp11
 70
     0
102
RTVSPropertyOp12
 70
     0
102
RTVSPropertyOp13
 70
     0
102
RTVSPropertyOp14
 70
     2
102
RTVSPropertyOp15
 70
     0
102
RTVSPropertyOp16
 70
     0
102
RTVSPropertyOp17
 70
     0
102
RTVSPropertyOp18
 70
     0
102
RTVSPropertyOp19
 70
     0
102
RTVSPropertyOp20
 70
     0
102
RTVSPropertyOp21
 70
     0
102
RTVSPropertyOp22
 70
     0
102
RTVSPropertyOp23
 70
     0
102
RTVSPropertyOp24
 70
     0
102
RTVSPropertyOp25
 70
     0
102
RTVSPropertyOp26
 70
     0
102
RTVSPropertyOp27
 70
     0
102
RTVSPropertyOp28
 70
     1
102
RTVSPropertyOp29
 70
     1
102
RTVSPropertyOp30
 70
     1
102
RTVSPropertyOp31
 70
     1
102
RTVSPropertyOp32
 70
     1
102
RTVSPropertyOp33
 70
     1
102
RTVSPropertyOp34
 70
     1
102
RTVSPropertyOp35
 70
     1
102
RTVSPropertyOp36
 70
     1
102
RTVSPropertyOp37
 70
     0
102
RTVSPropertyOp38
 70
     0
102
RTVSPropertyOp39
 70
     0
102
RTVSPropertyOp40
 70
     0
102
RTVSPropertyOp41
 70
     0
102
RTVSPropertyOp42
 70
     0
102
RTVSPropertyOp43
 70
     0
102
RTVSPropertyOp44
 70
     0
102
RTVSPropertyOp45
 70
     1
102
RTVSPropertyOp46
 70
     0
102
RTVSPropertyOp47
 70
     0
102
RTVSPropertyOp48
 70
     0
102
RTVSPropertyOp49
 70
     1
102
RTVSPropertyOp50
 70
     0
102
RTVSPropertyOp51
 70
     0
102
RTVSPropertyOp52
 70
     0
102
RTVSPropertyOp53
 70
     0
102
RTVSPropertyOp54
 70
     0
102
RTVSPropertyOp55
 70
     1
102
RTVSPropertyOp56
 70
     0
102
RTVSPropertyOp57
 70
     0
102
RTVSPropertyOp58
 70
     0
102
RTVSPropertyOp59
 70
     0
102
RTVSPropertyOp60
 70
     0
102
RTVSPropertyOp61
 70
     0
102
RTVSPropertyOp62
 70
     0
  0
XRECORD
  5
C406
102
{ACAD_REACTORS
330
C405
102
}
330
C405
100
AcDbXrecord
280
     1
102
RTVSPost2010Prop28
280
     0
102
RTVSPost2010PropOp28
 70
     1
102
RTVSPost2010Prop29
280
     1
102
RTVSPost2010PropOp29
 70
     1
102
RTVSPost2010Prop30
280
     1
102
RTVSPost2010PropOp30
 70
     1
102
RTVSPost2010Prop31
280
     0
102
RTVSPost2010PropOp31
 70
     1
102
RTVSPost2010Prop32
280
     0
102
RTVSPost2010PropOp32
 70
     1
102
RTVSPost2010Prop33
280
     0
102
RTVSPost2010PropOp33
 70
     1
102
RTVSPost2010Prop34
280
     0
102
RTVSPost2010PropOp34
 70
     1
102
RTVSPost2010Prop35
280
     0
102
RTVSPost2010PropOp35
 70
     1
102
RTVSPost2010Prop36
280
     0
102
RTVSPost2010PropOp36
 70
     1
102
RTVSPost2010Prop37
 90
       50
102
RTVSPost2010PropOp37
 70
     1
102
RTVSPost2010Prop38
140
0.0
102
RTVSPost2010PropOp38
 70
     1
102
RTVSPost2010Prop39
140
1.0
102
RTVSPost2010PropOp39
 70
     1
102
RTVSPost2010Prop40
 90
        0
102
RTVSPost2010PropOp40
 70
     1
102
RTVSPost2010Prop41ColorIndex
 90
       18
102
RTVSPost2010Prop41ColorRGB
 90
        0
102
RTVSPost2010PropOp41
 70
     1
102
RTVSPost2010Prop42
 90
       50
102
RTVSPost2010PropOp42
 70
     1
102
RTVSPost2010Prop43
 90
        3
102
RTVSPost2010PropOp43
 70
     1
102
RTVSPost2010Prop44ColorIndex
 90
        5
102
RTVSPost2010Prop44ColorRGB
 90
      255
102
RTVSPost2010PropOp44
 70
     1
102
RTVSPost2010Prop45
280
     0
102
RTVSPost2010PropOp45
 70
     1
102
RTVSPost2010Prop46
 90
       50
102
RTVSPost2010PropOp46
 70
     1
102
RTVSPost2010Prop47
 90
       50
102
RTVSPost2010PropOp47
 70
     1
102
RTVSPost2010Prop48
 90
       50
102
RTVSPost2010PropOp48
 70
     1
102
RTVSPost2010Prop49
280
     0
102
RTVSPost2010PropOp49
 70
     1
102
RTVSPost2010Prop50
 90
       50
102
RTVSPost2010PropOp50
 70
     1
102
RTVSPost2010Prop51ColorIndex
 90
      256
102
RTVSPost2010Prop51ColorRGB
 90
-16777216
102
RTVSPost2010PropOp51
 70
     0
102
RTVSPost2010Prop52
140
1.0
102
RTVSPost2010PropOp52
 70
     0
102
RTVSPost2010Prop53
 90
        2
102
RTVSPost2010PropOp53
 70
     1
102
RTVSPost2010Prop54
  1
strokes_ogs.tif
102
RTVSPost2010PropOp54
 70
     1
102
RTVSPost2010Prop55
280
     0
102
RTVSPost2010PropOp55
 70
     1
102
RTVSPost2010Prop56
140
1.0
102
RTVSPost2010PropOp56
 70
     1
102
RTVSPost2010Prop57
140
1.0
102
RTVSPost2010PropOp57
 70
     1
102
RTVSPropertyOp0
 70
     1
102
RTVSPropertyOp1
 70
     1
102
RTVSPropertyOp2
 70
     1
102
RTVSPropertyOp3
 70
     1
102
RTVSPropertyOp4
 70
     1
102
RTVSPropertyOp5
 70
     1
102
RTVSPropertyOp6
 70
     1
102
RTVSPropertyOp7
 70
     1
102
RTVSPropertyOp8
 70
     1
102
RTVSPropertyOp9
 70
     1
102
RTVSPropertyOp10
 70
     1
102
RTVSPropertyOp11
 70
     1
102
RTVSPropertyOp12
 70
     1
102
RTVSPropertyOp13
 70
     1
102
RTVSPropertyOp14
 70
     1
102
RTVSPropertyOp15
 70
     1
102
RTVSPropertyOp16
 70
     1
102
RTVSPropertyOp17
 70
     1
102
RTVSPropertyOp18
 70
     1
102
RTVSPropertyOp19
 70
     1
102
RTVSPropertyOp20
 70
     1
102
RTVSPropertyOp21
 70
     1
102
RTVSPropertyOp22
 70
     1
102
RTVSPropertyOp23
 70
     1
102
RTVSPropertyOp24
 70
     1
102
RTVSPropertyOp25
 70
     1
102
RTVSPropertyOp26
 70
     1
102
RTVSPropertyOp27
 70
     1
102
RTVSPropertyOp28
 70
     1
102
RTVSPropertyOp29
 70
     1
102
RTVSPropertyOp30
 70
     1
102
RTVSPropertyOp31
 70
     1
102
RTVSPropertyOp32
 70
     1
102
RTVSPropertyOp33
 70
     1
102
RTVSPropertyOp34
 70
     1
102
RTVSPropertyOp35
 70
     1
102
RTVSPropertyOp36
 70
     1
102
RTVSPropertyOp37
 70
     1
102
RTVSPropertyOp38
 70
     1
102
RTVSPropertyOp39
 70
     1
102
RTVSPropertyOp40
 70
     1
102
RTVSPropertyOp41
 70
     1
102
RTVSPropertyOp42
 70
     1
102
RTVSPropertyOp43
 70
     1
102
RTVSPropertyOp44
 70
     1
102
RTVSPropertyOp45
 70
     1
102
RTVSPropertyOp46
 70
     1
102
RTVSPropertyOp47
 70
     1
102
RTVSPropertyOp48
 70
     1
102
RTVSPropertyOp49
 70
     1
102
RTVSPropertyOp50
 70
     1
102
RTVSPropertyOp51
 70
     0
102
RTVSPropertyOp52
 70
     0
102
RTVSPropertyOp53
 70
     1
102
RTVSPropertyOp54
 70
     1
102
RTVSPropertyOp55
 70
     1
102
RTVSPropertyOp56
 70
     1
102
RTVSPropertyOp57
 70
     1
102
RTVSPropertyOp58
 70
     1
102
RTVSPropertyOp59
 70
     1
102
RTVSPropertyOp60
 70
     1
102
RTVSPropertyOp61
 70
     1
102
RTVSPropertyOp62
 70
     1
  0
XRECORD
  5
C418
102
{ACAD_REACTORS
330
C417
102
}
330
C417
100
AcDbXrecord
280
     1
102
RTVSPost2010Prop28
280
     0
102
RTVSPost2010PropOp28
 70
     1
102
RTVSPost2010Prop29
280
     1
102
RTVSPost2010PropOp29
 70
     1
102
RTVSPost2010Prop30
280
     1
102
RTVSPost2010PropOp30
 70
     1
102
RTVSPost2010Prop31
280
     0
102
RTVSPost2010PropOp31
 70
     1
102
RTVSPost2010Prop32
280
     0
102
RTVSPost2010PropOp32
 70
     1
102
RTVSPost2010Prop33
280
     0
102
RTVSPost2010PropOp33
 70
     1
102
RTVSPost2010Prop34
280
     0
102
RTVSPost2010PropOp34
 70
     1
102
RTVSPost2010Prop35
280
     0
102
RTVSPost2010PropOp35
 70
     1
102
RTVSPost2010Prop36
280
     0
102
RTVSPost2010PropOp36
 70
     1
102
RTVSPost2010Prop37
 90
       50
102
RTVSPost2010PropOp37
 70
     0
102
RTVSPost2010Prop38
140
0.0
102
RTVSPost2010PropOp38
 70
     0
102
RTVSPost2010Prop39
140
1.0
102
RTVSPost2010PropOp39
 70
     0
102
RTVSPost2010Prop40
 90
        0
102
RTVSPost2010PropOp40
 70
     0
102
RTVSPost2010Prop41ColorIndex
 90
       18
102
RTVSPost2010Prop41ColorRGB
 90
        0
102
RTVSPost2010PropOp41
 70
     0
102
RTVSPost2010Prop42
 90
       50
102
RTVSPost2010PropOp42
 70
     0
102
RTVSPost2010Prop43
 90
        3
102
RTVSPost2010PropOp43
 70
     0
102
RTVSPost2010Prop44ColorIndex
 90
        5
102
RTVSPost2010Prop44ColorRGB
 90
      255
102
RTVSPost2010PropOp44
 70
     0
102
RTVSPost2010Prop45
280
     0
102
RTVSPost2010PropOp45
 70
     1
102
RTVSPost2010Prop46
 90
       50
102
RTVSPost2010PropOp46
 70
     0
102
RTVSPost2010Prop47
 90
       50
102
RTVSPost2010PropOp47
 70
     0
102
RTVSPost2010Prop48
 90
       50
102
RTVSPost2010PropOp48
 70
     0
102
RTVSPost2010Prop49
280
     0
102
RTVSPost2010PropOp49
 70
     1
102
RTVSPost2010Prop50
 90
       50
102
RTVSPost2010PropOp50
 70
     0
102
RTVSPost2010Prop51ColorIndex
 90
      256
102
RTVSPost2010Prop51ColorRGB
 90
-16777216
102
RTVSPost2010PropOp51
 70
     0
102
RTVSPost2010Prop52
140
1.0
102
RTVSPost2010PropOp52
 70
     0
102
RTVSPost2010Prop53
 90
        2
102
RTVSPost2010PropOp53
 70
     0
102
RTVSPost2010Prop54
  1
strokes_ogs.tif
102
RTVSPost2010PropOp54
 70
     0
102
RTVSPost2010Prop55
280
     0
102
RTVSPost2010PropOp55
 70
     1
102
RTVSPost2010Prop56
140
1.0
102
RTVSPost2010PropOp56
 70
     0
102
RTVSPost2010Prop57
140
1.0
102
RTVSPost2010PropOp57
 70
     0
102
RTVSPropertyOp0
 70
     0
102
RTVSPropertyOp1
 70
     0
102
RTVSPropertyOp2
 70
     0
102
RTVSPropertyOp3
 70
     0
102
RTVSPropertyOp4
 70
     0
102
RTVSPropertyOp5
 70
     0
102
RTVSPropertyOp6
 70
     0
102
RTVSPropertyOp7
 70
     0
102
RTVSPropertyOp8
 70
     0
102
RTVSPropertyOp9
 70
     0
102
RTVSPropertyOp10
 70
     0
102
RTVSPropertyOp11
 70
     0
102
RTVSPropertyOp12
 70
     0
102
RTVSPropertyOp13
 70
     0
102
RTVSPropertyOp14
 70
     2
102
RTVSPropertyOp15
 70
     0
102
RTVSPropertyOp16
 70
     0
102
RTVSPropertyOp17
 70
     0
102
RTVSPropertyOp18
 70
     0
102
RTVSPropertyOp19
 70
     0
102
RTVSPropertyOp20
 70
     0
102
RTVSPropertyOp21
 70
     0
102
RTVSPropertyOp22
 70
     0
102
RTVSPropertyOp23
 70
     0
102
RTVSPropertyOp24
 70
     0
102
RTVSPropertyOp25
 70
     0
102
RTVSPropertyOp26
 70
     0
102
RTVSPropertyOp27
 70
     0
102
RTVSPropertyOp28
 70
     1
102
RTVSPropertyOp29
 70
     1
102
RTVSPropertyOp30
 70
     1
102
RTVSPropertyOp31
 70
     1
102
RTVSPropertyOp32
 70
     1
102
RTVSPropertyOp33
 70
     1
102
RTVSPropertyOp34
 70
     1
102
RTVSPropertyOp35
 70
     1
102
RTVSPropertyOp36
 70
     1
102
RTVSPropertyOp37
 70
     0
102
RTVSPropertyOp38
 70
     0
102
RTVSPropertyOp39
 70
     0
102
RTVSPropertyOp40
 70
     0
102
RTVSPropertyOp41
 70
     0
102
RTVSPropertyOp42
 70
     0
102
RTVSPropertyOp43
 70
     0
102
RTVSPropertyOp44
 70
     0
102
RTVSPropertyOp45
 70
     1
102
RTVSPropertyOp46
 70
     0
102
RTVSPropertyOp47
 70
     0
102
RTVSPropertyOp48
 70
     0
102
RTVSPropertyOp49
 70
     1
102
RTVSPropertyOp50
 70
     0
102
RTVSPropertyOp51
 70
     0
102
RTVSPropertyOp52
 70
     0
102
RTVSPropertyOp53
 70
     0
102
RTVSPropertyOp54
 70
     0
102
RTVSPropertyOp55
 70
     1
102
RTVSPropertyOp56
 70
     0
102
RTVSPropertyOp57
 70
     0
102
RTVSPropertyOp58
 70
     0
102
RTVSPropertyOp59
 70
     0
102
RTVSPropertyOp60
 70
     0
102
RTVSPropertyOp61
 70
     0
102
RTVSPropertyOp62
 70
     0
  0
XRECORD
  5
C3FE
102
{ACAD_REACTORS
330
C3FD
102
}
330
C3FD
100
AcDbXrecord
280
     1
102
RTVSPost2010Prop28
280
     0
102
RTVSPost2010PropOp28
 70
     1
102
RTVSPost2010Prop29
280
     1
102
RTVSPost2010PropOp29
 70
     1
102
RTVSPost2010Prop30
280
     1
102
RTVSPost2010PropOp30
 70
     1
102
RTVSPost2010Prop31
280
     0
102
RTVSPost2010PropOp31
 70
     1
102
RTVSPost2010Prop32
280
     0
102
RTVSPost2010PropOp32
 70
     1
102
RTVSPost2010Prop33
280
     0
102
RTVSPost2010PropOp33
 70
     1
102
RTVSPost2010Prop34
280
     0
102
RTVSPost2010PropOp34
 70
     1
102
RTVSPost2010Prop35
280
     0
102
RTVSPost2010PropOp35
 70
     1
102
RTVSPost2010Prop36
280
     0
102
RTVSPost2010PropOp36
 70
     1
102
RTVSPost2010Prop37
 90
       50
102
RTVSPost2010PropOp37
 70
     1
102
RTVSPost2010Prop38
140
0.0
102
RTVSPost2010PropOp38
 70
     1
102
RTVSPost2010Prop39
140
1.0
102
RTVSPost2010PropOp39
 70
     1
102
RTVSPost2010Prop40
 90
        0
102
RTVSPost2010PropOp40
 70
     1
102
RTVSPost2010Prop41ColorIndex
 90
       18
102
RTVSPost2010Prop41ColorRGB
 90
        0
102
RTVSPost2010PropOp41
 70
     1
102
RTVSPost2010Prop42
 90
       50
102
RTVSPost2010PropOp42
 70
     1
102
RTVSPost2010Prop43
 90
        3
102
RTVSPost2010PropOp43
 70
     1
102
RTVSPost2010Prop44ColorIndex
 90
        5
102
RTVSPost2010Prop44ColorRGB
 90
      255
102
RTVSPost2010PropOp44
 70
     1
102
RTVSPost2010Prop45
280
     0
102
RTVSPost2010PropOp45
 70
     1
102
RTVSPost2010Prop46
 90
       50
102
RTVSPost2010PropOp46
 70
     1
102
RTVSPost2010Prop47
 90
       50
102
RTVSPost2010PropOp47
 70
     1
102
RTVSPost2010Prop48
 90
       50
102
RTVSPost2010PropOp48
 70
     1
102
RTVSPost2010Prop49
280
     0
102
RTVSPost2010PropOp49
 70
     1
102
RTVSPost2010Prop50
 90
       50
102
RTVSPost2010PropOp50
 70
     1
102
RTVSPost2010Prop51ColorIndex
 90
      256
102
RTVSPost2010Prop51ColorRGB
 90
-16777216
102
RTVSPost2010PropOp51
 70
     0
102
RTVSPost2010Prop52
140
1.0
102
RTVSPost2010PropOp52
 70
     0
102
RTVSPost2010Prop53
 90
        2
102
RTVSPost2010PropOp53
 70
     1
102
RTVSPost2010Prop54
  1
strokes_ogs.tif
102
RTVSPost2010PropOp54
 70
     1
102
RTVSPost2010Prop55
280
     0
102
RTVSPost2010PropOp55
 70
     1
102
RTVSPost2010Prop56
140
1.0
102
RTVSPost2010PropOp56
 70
     1
102
RTVSPost2010Prop57
140
1.0
102
RTVSPost2010PropOp57
 70
     1
102
RTVSPropertyOp0
 70
     1
102
RTVSPropertyOp1
 70
     1
102
RTVSPropertyOp2
 70
     1
102
RTVSPropertyOp3
 70
     1
102
RTVSPropertyOp4
 70
     1
102
RTVSPropertyOp5
 70
     1
102
RTVSPropertyOp6
 70
     1
102
RTVSPropertyOp7
 70
     1
102
RTVSPropertyOp8
 70
     1
102
RTVSPropertyOp9
 70
     1
102
RTVSPropertyOp10
 70
     1
102
RTVSPropertyOp11
 70
     1
102
RTVSPropertyOp12
 70
     1
102
RTVSPropertyOp13
 70
     1
102
RTVSPropertyOp14
 70
     1
102
RTVSPropertyOp15
 70
     1
102
RTVSPropertyOp16
 70
     1
102
RTVSPropertyOp17
 70
     1
102
RTVSPropertyOp18
 70
     1
102
RTVSPropertyOp19
 70
     1
102
RTVSPropertyOp20
 70
     1
102
RTVSPropertyOp21
 70
     1
102
RTVSPropertyOp22
 70
     1
102
RTVSPropertyOp23
 70
     1
102
RTVSPropertyOp24
 70
     1
102
RTVSPropertyOp25
 70
     1
102
RTVSPropertyOp26
 70
     1
102
RTVSPropertyOp27
 70
     1
102
RTVSPropertyOp28
 70
     1
102
RTVSPropertyOp29
 70
     1
102
RTVSPropertyOp30
 70
     1
102
RTVSPropertyOp31
 70
     1
102
RTVSPropertyOp32
 70
     1
102
RTVSPropertyOp33
 70
     1
102
RTVSPropertyOp34
 70
     1
102
RTVSPropertyOp35
 70
     1
102
RTVSPropertyOp36
 70
     1
102
RTVSPropertyOp37
 70
     1
102
RTVSPropertyOp38
 70
     1
102
RTVSPropertyOp39
 70
     1
102
RTVSPropertyOp40
 70
     1
102
RTVSPropertyOp41
 70
     1
102
RTVSPropertyOp42
 70
     1
102
RTVSPropertyOp43
 70
     1
102
RTVSPropertyOp44
 70
     1
102
RTVSPropertyOp45
 70
     1
102
RTVSPropertyOp46
 70
     1
102
RTVSPropertyOp47
 70
     1
102
RTVSPropertyOp48
 70
     1
102
RTVSPropertyOp49
 70
     1
102
RTVSPropertyOp50
 70
     1
102
RTVSPropertyOp51
 70
     0
102
RTVSPropertyOp52
 70
     0
102
RTVSPropertyOp53
 70
     1
102
RTVSPropertyOp54
 70
     1
102
RTVSPropertyOp55
 70
     1
102
RTVSPropertyOp56
 70
     1
102
RTVSPropertyOp57
 70
     1
102
RTVSPropertyOp58
 70
     1
102
RTVSPropertyOp59
 70
     1
102
RTVSPropertyOp60
 70
     1
102
RTVSPropertyOp61
 70
     1
102
RTVSPropertyOp62
 70
     1
  0
XRECORD
  5
C414
102
{ACAD_REACTORS
330
C413
102
}
330
C413
100
AcDbXrecord
280
     1
102
RTVSPost2010Prop28
280
     0
102
RTVSPost2010PropOp28
 70
     1
102
RTVSPost2010Prop29
280
     1
102
RTVSPost2010PropOp29
 70
     1
102
RTVSPost2010Prop30
280
     1
102
RTVSPost2010PropOp30
 70
     1
102
RTVSPost2010Prop31
280
     0
102
RTVSPost2010PropOp31
 70
     1
102
RTVSPost2010Prop32
280
     0
102
RTVSPost2010PropOp32
 70
     1
102
RTVSPost2010Prop33
280
     0
102
RTVSPost2010PropOp33
 70
     1
102
RTVSPost2010Prop34
280
     0
102
RTVSPost2010PropOp34
 70
     1
102
RTVSPost2010Prop35
280
     0
102
RTVSPost2010PropOp35
 70
     1
102
RTVSPost2010Prop36
280
     0
102
RTVSPost2010PropOp36
 70
     1
102
RTVSPost2010Prop37
 90
       50
102
RTVSPost2010PropOp37
 70
     1
102
RTVSPost2010Prop38
140
0.0
102
RTVSPost2010PropOp38
 70
     1
102
RTVSPost2010Prop39
140
1.0
102
RTVSPost2010PropOp39
 70
     1
102
RTVSPost2010Prop40
 90
        0
102
RTVSPost2010PropOp40
 70
     1
102
RTVSPost2010Prop41ColorIndex
 90
       18
102
RTVSPost2010Prop41ColorRGB
 90
        0
102
RTVSPost2010PropOp41
 70
     1
102
RTVSPost2010Prop42
 90
       50
102
RTVSPost2010PropOp42
 70
     1
102
RTVSPost2010Prop43
 90
        3
102
RTVSPost2010PropOp43
 70
     1
102
RTVSPost2010Prop44ColorIndex
 90
        5
102
RTVSPost2010Prop44ColorRGB
 90
      255
102
RTVSPost2010PropOp44
 70
     1
102
RTVSPost2010Prop45
280
     0
102
RTVSPost2010PropOp45
 70
     1
102
RTVSPost2010Prop46
 90
       50
102
RTVSPost2010PropOp46
 70
     1
102
RTVSPost2010Prop47
 90
       50
102
RTVSPost2010PropOp47
 70
     1
102
RTVSPost2010Prop48
 90
       50
102
RTVSPost2010PropOp48
 70
     1
102
RTVSPost2010Prop49
280
     0
102
RTVSPost2010PropOp49
 70
     1
102
RTVSPost2010Prop50
 90
       50
102
RTVSPost2010PropOp50
 70
     1
102
RTVSPost2010Prop51ColorIndex
 90
      256
102
RTVSPost2010Prop51ColorRGB
 90
-16777216
102
RTVSPost2010PropOp51
 70
     0
102
RTVSPost2010Prop52
140
1.0
102
RTVSPost2010PropOp52
 70
     0
102
RTVSPost2010Prop53
 90
        2
102
RTVSPost2010PropOp53
 70
     1
102
RTVSPost2010Prop54
  1
strokes_ogs.tif
102
RTVSPost2010PropOp54
 70
     1
102
RTVSPost2010Prop55
280
     0
102
RTVSPost2010PropOp55
 70
     1
102
RTVSPost2010Prop56
140
1.0
102
RTVSPost2010PropOp56
 70
     1
102
RTVSPost2010Prop57
140
1.0
102
RTVSPost2010PropOp57
 70
     1
102
RTVSPropertyOp0
 70
     1
102
RTVSPropertyOp1
 70
     1
102
RTVSPropertyOp2
 70
     1
102
RTVSPropertyOp3
 70
     1
102
RTVSPropertyOp4
 70
     1
102
RTVSPropertyOp5
 70
     1
102
RTVSPropertyOp6
 70
     1
102
RTVSPropertyOp7
 70
     1
102
RTVSPropertyOp8
 70
     1
102
RTVSPropertyOp9
 70
     1
102
RTVSPropertyOp10
 70
     1
102
RTVSPropertyOp11
 70
     1
102
RTVSPropertyOp12
 70
     1
102
RTVSPropertyOp13
 70
     1
102
RTVSPropertyOp14
 70
     1
102
RTVSPropertyOp15
 70
     1
102
RTVSPropertyOp16
 70
     1
102
RTVSPropertyOp17
 70
     1
102
RTVSPropertyOp18
 70
     1
102
RTVSPropertyOp19
 70
     1
102
RTVSPropertyOp20
 70
     1
102
RTVSPropertyOp21
 70
     1
102
RTVSPropertyOp22
 70
     1
102
RTVSPropertyOp23
 70
     1
102
RTVSPropertyOp24
 70
     1
102
RTVSPropertyOp25
 70
     1
102
RTVSPropertyOp26
 70
     1
102
RTVSPropertyOp27
 70
     1
102
RTVSPropertyOp28
 70
     1
102
RTVSPropertyOp29
 70
     1
102
RTVSPropertyOp30
 70
     1
102
RTVSPropertyOp31
 70
     1
102
RTVSPropertyOp32
 70
     1
102
RTVSPropertyOp33
 70
     1
102
RTVSPropertyOp34
 70
     1
102
RTVSPropertyOp35
 70
     1
102
RTVSPropertyOp36
 70
     1
102
RTVSPropertyOp37
 70
     1
102
RTVSPropertyOp38
 70
     1
102
RTVSPropertyOp39
 70
     1
102
RTVSPropertyOp40
 70
     1
102
RTVSPropertyOp41
 70
     1
102
RTVSPropertyOp42
 70
     1
102
RTVSPropertyOp43
 70
     1
102
RTVSPropertyOp44
 70
     1
102
RTVSPropertyOp45
 70
     1
102
RTVSPropertyOp46
 70
     1
102
RTVSPropertyOp47
 70
     1
102
RTVSPropertyOp48
 70
     1
102
RTVSPropertyOp49
 70
     1
102
RTVSPropertyOp50
 70
     1
102
RTVSPropertyOp51
 70
     0
102
RTVSPropertyOp52
 70
     0
102
RTVSPropertyOp53
 70
     1
102
RTVSPropertyOp54
 70
     1
102
RTVSPropertyOp55
 70
     1
102
RTVSPropertyOp56
 70
     1
102
RTVSPropertyOp57
 70
     1
102
RTVSPropertyOp58
 70
     1
102
RTVSPropertyOp59
 70
     1
102
RTVSPropertyOp60
 70
     1
102
RTVSPropertyOp61
 70
     1
102
RTVSPropertyOp62
 70
     1
  0
XRECORD
  5
C412
102
{ACAD_REACTORS
330
C411
102
}
330
C411
100
AcDbXrecord
280
     1
102
RTVSPost2010Prop28
280
     0
102
RTVSPost2010PropOp28
 70
     1
102
RTVSPost2010Prop29
280
     1
102
RTVSPost2010PropOp29
 70
     1
102
RTVSPost2010Prop30
280
     1
102
RTVSPost2010PropOp30
 70
     1
102
RTVSPost2010Prop31
280
     0
102
RTVSPost2010PropOp31
 70
     1
102
RTVSPost2010Prop32
280
     0
102
RTVSPost2010PropOp32
 70
     1
102
RTVSPost2010Prop33
280
     0
102
RTVSPost2010PropOp33
 70
     1
102
RTVSPost2010Prop34
280
     0
102
RTVSPost2010PropOp34
 70
     1
102
RTVSPost2010Prop35
280
     0
102
RTVSPost2010PropOp35
 70
     1
102
RTVSPost2010Prop36
280
     0
102
RTVSPost2010PropOp36
 70
     1
102
RTVSPost2010Prop37
 90
       50
102
RTVSPost2010PropOp37
 70
     1
102
RTVSPost2010Prop38
140
0.0
102
RTVSPost2010PropOp38
 70
     1
102
RTVSPost2010Prop39
140
1.0
102
RTVSPost2010PropOp39
 70
     1
102
RTVSPost2010Prop40
 90
        0
102
RTVSPost2010PropOp40
 70
     1
102
RTVSPost2010Prop41ColorIndex
 90
       18
102
RTVSPost2010Prop41ColorRGB
 90
        0
102
RTVSPost2010PropOp41
 70
     1
102
RTVSPost2010Prop42
 90
       50
102
RTVSPost2010PropOp42
 70
     1
102
RTVSPost2010Prop43
 90
        3
102
RTVSPost2010PropOp43
 70
     1
102
RTVSPost2010Prop44ColorIndex
 90
        5
102
RTVSPost2010Prop44ColorRGB
 90
      255
102
RTVSPost2010PropOp44
 70
     1
102
RTVSPost2010Prop45
280
     0
102
RTVSPost2010PropOp45
 70
     1
102
RTVSPost2010Prop46
 90
       50
102
RTVSPost2010PropOp46
 70
     1
102
RTVSPost2010Prop47
 90
       50
102
RTVSPost2010PropOp47
 70
     1
102
RTVSPost2010Prop48
 90
       50
102
RTVSPost2010PropOp48
 70
     1
102
RTVSPost2010Prop49
280
     0
102
RTVSPost2010PropOp49
 70
     1
102
RTVSPost2010Prop50
 90
       50
102
RTVSPost2010PropOp50
 70
     1
102
RTVSPost2010Prop51ColorIndex
 90
      256
102
RTVSPost2010Prop51ColorRGB
 90
-16777216
102
RTVSPost2010PropOp51
 70
     0
102
RTVSPost2010Prop52
140
1.0
102
RTVSPost2010PropOp52
 70
     0
102
RTVSPost2010Prop53
 90
        2
102
RTVSPost2010PropOp53
 70
     1
102
RTVSPost2010Prop54
  1
strokes_ogs.tif
102
RTVSPost2010PropOp54
 70
     1
102
RTVSPost2010Prop55
280
     0
102
RTVSPost2010PropOp55
 70
     1
102
RTVSPost2010Prop56
140
1.0
102
RTVSPost2010PropOp56
 70
     1
102
RTVSPost2010Prop57
140
1.0
102
RTVSPost2010PropOp57
 70
     1
102
RTVSPropertyOp0
 70
     1
102
RTVSPropertyOp1
 70
     1
102
RTVSPropertyOp2
 70
     1
102
RTVSPropertyOp3
 70
     1
102
RTVSPropertyOp4
 70
     1
102
RTVSPropertyOp5
 70
     1
102
RTVSPropertyOp6
 70
     1
102
RTVSPropertyOp7
 70
     1
102
RTVSPropertyOp8
 70
     1
102
RTVSPropertyOp9
 70
     1
102
RTVSPropertyOp10
 70
     1
102
RTVSPropertyOp11
 70
     1
102
RTVSPropertyOp12
 70
     1
102
RTVSPropertyOp13
 70
     1
102
RTVSPropertyOp14
 70
     1
102
RTVSPropertyOp15
 70
     1
102
RTVSPropertyOp16
 70
     1
102
RTVSPropertyOp17
 70
     1
102
RTVSPropertyOp18
 70
     1
102
RTVSPropertyOp19
 70
     1
102
RTVSPropertyOp20
 70
     1
102
RTVSPropertyOp21
 70
     1
102
RTVSPropertyOp22
 70
     1
102
RTVSPropertyOp23
 70
     1
102
RTVSPropertyOp24
 70
     1
102
RTVSPropertyOp25
 70
     1
102
RTVSPropertyOp26
 70
     1
102
RTVSPropertyOp27
 70
     1
102
RTVSPropertyOp28
 70
     1
102
RTVSPropertyOp29
 70
     1
102
RTVSPropertyOp30
 70
     1
102
RTVSPropertyOp31
 70
     1
102
RTVSPropertyOp32
 70
     1
102
RTVSPropertyOp33
 70
     1
102
RTVSPropertyOp34
 70
     1
102
RTVSPropertyOp35
 70
     1
102
RTVSPropertyOp36
 70
     1
102
RTVSPropertyOp37
 70
     1
102
RTVSPropertyOp38
 70
     1
102
RTVSPropertyOp39
 70
     1
102
RTVSPropertyOp40
 70
     1
102
RTVSPropertyOp41
 70
     1
102
RTVSPropertyOp42
 70
     1
102
RTVSPropertyOp43
 70
     1
102
RTVSPropertyOp44
 70
     1
102
RTVSPropertyOp45
 70
     1
102
RTVSPropertyOp46
 70
     1
102
RTVSPropertyOp47
 70
     1
102
RTVSPropertyOp48
 70
     1
102
RTVSPropertyOp49
 70
     1
102
RTVSPropertyOp50
 70
     1
102
RTVSPropertyOp51
 70
     0
102
RTVSPropertyOp52
 70
     0
102
RTVSPropertyOp53
 70
     1
102
RTVSPropertyOp54
 70
     1
102
RTVSPropertyOp55
 70
     1
102
RTVSPropertyOp56
 70
     1
102
RTVSPropertyOp57
 70
     1
102
RTVSPropertyOp58
 70
     1
102
RTVSPropertyOp59
 70
     1
102
RTVSPropertyOp60
 70
     1
102
RTVSPropertyOp61
 70
     1
102
RTVSPropertyOp62
 70
     1
  0
XRECORD
  5
C40C
102
{ACAD_REACTORS
330
C40B
102
}
330
C40B
100
AcDbXrecord
280
     1
102
RTVSPost2010Prop28
280
     0
102
RTVSPost2010PropOp28
 70
     1
102
RTVSPost2010Prop29
280
     1
102
RTVSPost2010PropOp29
 70
     1
102
RTVSPost2010Prop30
280
     1
102
RTVSPost2010PropOp30
 70
     1
102
RTVSPost2010Prop31
280
     0
102
RTVSPost2010PropOp31
 70
     1
102
RTVSPost2010Prop32
280
     0
102
RTVSPost2010PropOp32
 70
     1
102
RTVSPost2010Prop33
280
     0
102
RTVSPost2010PropOp33
 70
     1
102
RTVSPost2010Prop34
280
     0
102
RTVSPost2010PropOp34
 70
     1
102
RTVSPost2010Prop35
280
     0
102
RTVSPost2010PropOp35
 70
     1
102
RTVSPost2010Prop36
280
     0
102
RTVSPost2010PropOp36
 70
     1
102
RTVSPost2010Prop37
 90
       50
102
RTVSPost2010PropOp37
 70
     1
102
RTVSPost2010Prop38
140
0.0
102
RTVSPost2010PropOp38
 70
     1
102
RTVSPost2010Prop39
140
1.0
102
RTVSPost2010PropOp39
 70
     1
102
RTVSPost2010Prop40
 90
        0
102
RTVSPost2010PropOp40
 70
     1
102
RTVSPost2010Prop41ColorIndex
 90
       18
102
RTVSPost2010Prop41ColorRGB
 90
        0
102
RTVSPost2010PropOp41
 70
     1
102
RTVSPost2010Prop42
 90
       50
102
RTVSPost2010PropOp42
 70
     1
102
RTVSPost2010Prop43
 90
        3
102
RTVSPost2010PropOp43
 70
     1
102
RTVSPost2010Prop44ColorIndex
 90
        5
102
RTVSPost2010Prop44ColorRGB
 90
      255
102
RTVSPost2010PropOp44
 70
     1
102
RTVSPost2010Prop45
280
     0
102
RTVSPost2010PropOp45
 70
     1
102
RTVSPost2010Prop46
 90
       50
102
RTVSPost2010PropOp46
 70
     1
102
RTVSPost2010Prop47
 90
       50
102
RTVSPost2010PropOp47
 70
     1
102
RTVSPost2010Prop48
 90
       50
102
RTVSPost2010PropOp48
 70
     1
102
RTVSPost2010Prop49
280
     0
102
RTVSPost2010PropOp49
 70
     1
102
RTVSPost2010Prop50
 90
       50
102
RTVSPost2010PropOp50
 70
     1
102
RTVSPost2010Prop51ColorIndex
 90
      256
102
RTVSPost2010Prop51ColorRGB
 90
-16777216
102
RTVSPost2010PropOp51
 70
     0
102
RTVSPost2010Prop52
140
1.0
102
RTVSPost2010PropOp52
 70
     0
102
RTVSPost2010Prop53
 90
        2
102
RTVSPost2010PropOp53
 70
     1
102
RTVSPost2010Prop54
  1
strokes_ogs.tif
102
RTVSPost2010PropOp54
 70
     1
102
RTVSPost2010Prop55
280
     0
102
RTVSPost2010PropOp55
 70
     1
102
RTVSPost2010Prop56
140
1.0
102
RTVSPost2010PropOp56
 70
     1
102
RTVSPost2010Prop57
140
1.0
102
RTVSPost2010PropOp57
 70
     1
102
RTVSPropertyOp0
 70
     1
102
RTVSPropertyOp1
 70
     1
102
RTVSPropertyOp2
 70
     1
102
RTVSPropertyOp3
 70
     1
102
RTVSPropertyOp4
 70
     1
102
RTVSPropertyOp5
 70
     1
102
RTVSPropertyOp6
 70
     1
102
RTVSPropertyOp7
 70
     1
102
RTVSPropertyOp8
 70
     1
102
RTVSPropertyOp9
 70
     1
102
RTVSPropertyOp10
 70
     1
102
RTVSPropertyOp11
 70
     1
102
RTVSPropertyOp12
 70
     1
102
RTVSPropertyOp13
 70
     1
102
RTVSPropertyOp14
 70
     1
102
RTVSPropertyOp15
 70
     1
102
RTVSPropertyOp16
 70
     1
102
RTVSPropertyOp17
 70
     1
102
RTVSPropertyOp18
 70
     1
102
RTVSPropertyOp19
 70
     1
102
RTVSPropertyOp20
 70
     1
102
RTVSPropertyOp21
 70
     1
102
RTVSPropertyOp22
 70
     1
102
RTVSPropertyOp23
 70
     1
102
RTVSPropertyOp24
 70
     1
102
RTVSPropertyOp25
 70
     1
102
RTVSPropertyOp26
 70
     1
102
RTVSPropertyOp27
 70
     1
102
RTVSPropertyOp28
 70
     1
102
RTVSPropertyOp29
 70
     1
102
RTVSPropertyOp30
 70
     1
102
RTVSPropertyOp31
 70
     1
102
RTVSPropertyOp32
 70
     1
102
RTVSPropertyOp33
 70
     1
102
RTVSPropertyOp34
 70
     1
102
RTVSPropertyOp35
 70
     1
102
RTVSPropertyOp36
 70
     1
102
RTVSPropertyOp37
 70
     1
102
RTVSPropertyOp38
 70
     1
102
RTVSPropertyOp39
 70
     1
102
RTVSPropertyOp40
 70
     1
102
RTVSPropertyOp41
 70
     1
102
RTVSPropertyOp42
 70
     1
102
RTVSPropertyOp43
 70
     1
102
RTVSPropertyOp44
 70
     1
102
RTVSPropertyOp45
 70
     1
102
RTVSPropertyOp46
 70
     1
102
RTVSPropertyOp47
 70
     1
102
RTVSPropertyOp48
 70
     1
102
RTVSPropertyOp49
 70
     1
102
RTVSPropertyOp50
 70
     1
102
RTVSPropertyOp51
 70
     0
102
RTVSPropertyOp52
 70
     0
102
RTVSPropertyOp53
 70
     1
102
RTVSPropertyOp54
 70
     1
102
RTVSPropertyOp55
 70
     1
102
RTVSPropertyOp56
 70
     1
102
RTVSPropertyOp57
 70
     1
102
RTVSPropertyOp58
 70
     1
102
RTVSPropertyOp59
 70
     1
102
RTVSPropertyOp60
 70
     1
102
RTVSPropertyOp61
 70
     1
102
RTVSPropertyOp62
 70
     1
  0
XRECORD
  5
C40E
102
{ACAD_REACTORS
330
C40D
102
}
330
C40D
100
AcDbXrecord
280
     1
102
RTVSPost2010Prop28
280
     0
102
RTVSPost2010PropOp28
 70
     1
102
RTVSPost2010Prop29
280
     1
102
RTVSPost2010PropOp29
 70
     1
102
RTVSPost2010Prop30
280
     1
102
RTVSPost2010PropOp30
 70
     1
102
RTVSPost2010Prop31
280
     0
102
RTVSPost2010PropOp31
 70
     1
102
RTVSPost2010Prop32
280
     0
102
RTVSPost2010PropOp32
 70
     1
102
RTVSPost2010Prop33
280
     0
102
RTVSPost2010PropOp33
 70
     1
102
RTVSPost2010Prop34
280
     0
102
RTVSPost2010PropOp34
 70
     1
102
RTVSPost2010Prop35
280
     0
102
RTVSPost2010PropOp35
 70
     1
102
RTVSPost2010Prop36
280
     0
102
RTVSPost2010PropOp36
 70
     1
102
RTVSPost2010Prop37
 90
       50
102
RTVSPost2010PropOp37
 70
     1
102
RTVSPost2010Prop38
140
0.0
102
RTVSPost2010PropOp38
 70
     1
102
RTVSPost2010Prop39
140
1.0
102
RTVSPost2010PropOp39
 70
     1
102
RTVSPost2010Prop40
 90
        0
102
RTVSPost2010PropOp40
 70
     1
102
RTVSPost2010Prop41ColorIndex
 90
       18
102
RTVSPost2010Prop41ColorRGB
 90
        0
102
RTVSPost2010PropOp41
 70
     1
102
RTVSPost2010Prop42
 90
       50
102
RTVSPost2010PropOp42
 70
     1
102
RTVSPost2010Prop43
 90
        3
102
RTVSPost2010PropOp43
 70
     1
102
RTVSPost2010Prop44ColorIndex
 90
        5
102
RTVSPost2010Prop44ColorRGB
 90
      255
102
RTVSPost2010PropOp44
 70
     1
102
RTVSPost2010Prop45
280
     0
102
RTVSPost2010PropOp45
 70
     1
102
RTVSPost2010Prop46
 90
       50
102
RTVSPost2010PropOp46
 70
     1
102
RTVSPost2010Prop47
 90
       50
102
RTVSPost2010PropOp47
 70
     1
102
RTVSPost2010Prop48
 90
       50
102
RTVSPost2010PropOp48
 70
     1
102
RTVSPost2010Prop49
280
     0
102
RTVSPost2010PropOp49
 70
     1
102
RTVSPost2010Prop50
 90
       50
102
RTVSPost2010PropOp50
 70
     1
102
RTVSPost2010Prop51ColorIndex
 90
      256
102
RTVSPost2010Prop51ColorRGB
 90
-16777216
102
RTVSPost2010PropOp51
 70
     0
102
RTVSPost2010Prop52
140
1.0
102
RTVSPost2010PropOp52
 70
     0
102
RTVSPost2010Prop53
 90
        2
102
RTVSPost2010PropOp53
 70
     1
102
RTVSPost2010Prop54
  1
strokes_ogs.tif
102
RTVSPost2010PropOp54
 70
     1
102
RTVSPost2010Prop55
280
     0
102
RTVSPost2010PropOp55
 70
     1
102
RTVSPost2010Prop56
140
1.0
102
RTVSPost2010PropOp56
 70
     1
102
RTVSPost2010Prop57
140
1.0
102
RTVSPost2010PropOp57
 70
     1
102
RTVSPropertyOp0
 70
     1
102
RTVSPropertyOp1
 70
     1
102
RTVSPropertyOp2
 70
     1
102
RTVSPropertyOp3
 70
     1
102
RTVSPropertyOp4
 70
     1
102
RTVSPropertyOp5
 70
     1
102
RTVSPropertyOp6
 70
     1
102
RTVSPropertyOp7
 70
     1
102
RTVSPropertyOp8
 70
     1
102
RTVSPropertyOp9
 70
     1
102
RTVSPropertyOp10
 70
     1
102
RTVSPropertyOp11
 70
     1
102
RTVSPropertyOp12
 70
     1
102
RTVSPropertyOp13
 70
     1
102
RTVSPropertyOp14
 70
     1
102
RTVSPropertyOp15
 70
     1
102
RTVSPropertyOp16
 70
     1
102
RTVSPropertyOp17
 70
     1
102
RTVSPropertyOp18
 70
     1
102
RTVSPropertyOp19
 70
     1
102
RTVSPropertyOp20
 70
     1
102
RTVSPropertyOp21
 70
     1
102
RTVSPropertyOp22
 70
     1
102
RTVSPropertyOp23
 70
     1
102
RTVSPropertyOp24
 70
     1
102
RTVSPropertyOp25
 70
     1
102
RTVSPropertyOp26
 70
     1
102
RTVSPropertyOp27
 70
     1
102
RTVSPropertyOp28
 70
     1
102
RTVSPropertyOp29
 70
     1
102
RTVSPropertyOp30
 70
     1
102
RTVSPropertyOp31
 70
     1
102
RTVSPropertyOp32
 70
     1
102
RTVSPropertyOp33
 70
     1
102
RTVSPropertyOp34
 70
     1
102
RTVSPropertyOp35
 70
     1
102
RTVSPropertyOp36
 70
     1
102
RTVSPropertyOp37
 70
     1
102
RTVSPropertyOp38
 70
     1
102
RTVSPropertyOp39
 70
     1
102
RTVSPropertyOp40
 70
     1
102
RTVSPropertyOp41
 70
     1
102
RTVSPropertyOp42
 70
     1
102
RTVSPropertyOp43
 70
     1
102
RTVSPropertyOp44
 70
     1
102
RTVSPropertyOp45
 70
     1
102
RTVSPropertyOp46
 70
     1
102
RTVSPropertyOp47
 70
     1
102
RTVSPropertyOp48
 70
     1
102
RTVSPropertyOp49
 70
     1
102
RTVSPropertyOp50
 70
     1
102
RTVSPropertyOp51
 70
     0
102
RTVSPropertyOp52
 70
     0
102
RTVSPropertyOp53
 70
     1
102
RTVSPropertyOp54
 70
     1
102
RTVSPropertyOp55
 70
     1
102
RTVSPropertyOp56
 70
     1
102
RTVSPropertyOp57
 70
     1
102
RTVSPropertyOp58
 70
     1
102
RTVSPropertyOp59
 70
     1
102
RTVSPropertyOp60
 70
     1
102
RTVSPropertyOp61
 70
     1
102
RTVSPropertyOp62
 70
     1
  0
XRECORD
  5
C404
102
{ACAD_REACTORS
330
C403
102
}
330
C403
100
AcDbXrecord
280
     1
102
RTVSPost2010Prop28
280
     0
102
RTVSPost2010PropOp28
 70
     1
102
RTVSPost2010Prop29
280
     1
102
RTVSPost2010PropOp29
 70
     1
102
RTVSPost2010Prop30
280
     1
102
RTVSPost2010PropOp30
 70
     1
102
RTVSPost2010Prop31
280
     0
102
RTVSPost2010PropOp31
 70
     1
102
RTVSPost2010Prop32
280
     0
102
RTVSPost2010PropOp32
 70
     1
102
RTVSPost2010Prop33
280
     0
102
RTVSPost2010PropOp33
 70
     1
102
RTVSPost2010Prop34
280
     0
102
RTVSPost2010PropOp34
 70
     1
102
RTVSPost2010Prop35
280
     0
102
RTVSPost2010PropOp35
 70
     1
102
RTVSPost2010Prop36
280
     0
102
RTVSPost2010PropOp36
 70
     1
102
RTVSPost2010Prop37
 90
       50
102
RTVSPost2010PropOp37
 70
     1
102
RTVSPost2010Prop38
140
0.0
102
RTVSPost2010PropOp38
 70
     1
102
RTVSPost2010Prop39
140
1.0
102
RTVSPost2010PropOp39
 70
     1
102
RTVSPost2010Prop40
 90
        0
102
RTVSPost2010PropOp40
 70
     1
102
RTVSPost2010Prop41ColorIndex
 90
       18
102
RTVSPost2010Prop41ColorRGB
 90
        0
102
RTVSPost2010PropOp41
 70
     1
102
RTVSPost2010Prop42
 90
       50
102
RTVSPost2010PropOp42
 70
     1
102
RTVSPost2010Prop43
 90
        3
102
RTVSPost2010PropOp43
 70
     1
102
RTVSPost2010Prop44ColorIndex
 90
        5
102
RTVSPost2010Prop44ColorRGB
 90
      255
102
RTVSPost2010PropOp44
 70
     1
102
RTVSPost2010Prop45
280
     0
102
RTVSPost2010PropOp45
 70
     1
102
RTVSPost2010Prop46
 90
       50
102
RTVSPost2010PropOp46
 70
     1
102
RTVSPost2010Prop47
 90
       50
102
RTVSPost2010PropOp47
 70
     1
102
RTVSPost2010Prop48
 90
       50
102
RTVSPost2010PropOp48
 70
     1
102
RTVSPost2010Prop49
280
     0
102
RTVSPost2010PropOp49
 70
     1
102
RTVSPost2010Prop50
 90
       50
102
RTVSPost2010PropOp50
 70
     1
102
RTVSPost2010Prop51ColorIndex
 90
      256
102
RTVSPost2010Prop51ColorRGB
 90
-16777216
102
RTVSPost2010PropOp51
 70
     0
102
RTVSPost2010Prop52
140
1.0
102
RTVSPost2010PropOp52
 70
     0
102
RTVSPost2010Prop53
 90
        2
102
RTVSPost2010PropOp53
 70
     1
102
RTVSPost2010Prop54
  1
strokes_ogs.tif
102
RTVSPost2010PropOp54
 70
     1
102
RTVSPost2010Prop55
280
     0
102
RTVSPost2010PropOp55
 70
     1
102
RTVSPost2010Prop56
140
1.0
102
RTVSPost2010PropOp56
 70
     1
102
RTVSPost2010Prop57
140
1.0
102
RTVSPost2010PropOp57
 70
     1
102
RTVSPropertyOp0
 70
     1
102
RTVSPropertyOp1
 70
     1
102
RTVSPropertyOp2
 70
     1
102
RTVSPropertyOp3
 70
     1
102
RTVSPropertyOp4
 70
     1
102
RTVSPropertyOp5
 70
     1
102
RTVSPropertyOp6
 70
     1
102
RTVSPropertyOp7
 70
     1
102
RTVSPropertyOp8
 70
     1
102
RTVSPropertyOp9
 70
     1
102
RTVSPropertyOp10
 70
     1
102
RTVSPropertyOp11
 70
     1
102
RTVSPropertyOp12
 70
     1
102
RTVSPropertyOp13
 70
     1
102
RTVSPropertyOp14
 70
     1
102
RTVSPropertyOp15
 70
     1
102
RTVSPropertyOp16
 70
     1
102
RTVSPropertyOp17
 70
     1
102
RTVSPropertyOp18
 70
     1
102
RTVSPropertyOp19
 70
     1
102
RTVSPropertyOp20
 70
     1
102
RTVSPropertyOp21
 70
     1
102
RTVSPropertyOp22
 70
     1
102
RTVSPropertyOp23
 70
     1
102
RTVSPropertyOp24
 70
     1
102
RTVSPropertyOp25
 70
     1
102
RTVSPropertyOp26
 70
     1
102
RTVSPropertyOp27
 70
     1
102
RTVSPropertyOp28
 70
     1
102
RTVSPropertyOp29
 70
     1
102
RTVSPropertyOp30
 70
     1
102
RTVSPropertyOp31
 70
     1
102
RTVSPropertyOp32
 70
     1
102
RTVSPropertyOp33
 70
     1
102
RTVSPropertyOp34
 70
     1
102
RTVSPropertyOp35
 70
     1
102
RTVSPropertyOp36
 70
     1
102
RTVSPropertyOp37
 70
     1
102
RTVSPropertyOp38
 70
     1
102
RTVSPropertyOp39
 70
     1
102
RTVSPropertyOp40
 70
     1
102
RTVSPropertyOp41
 70
     1
102
RTVSPropertyOp42
 70
     1
102
RTVSPropertyOp43
 70
     1
102
RTVSPropertyOp44
 70
     1
102
RTVSPropertyOp45
 70
     1
102
RTVSPropertyOp46
 70
     1
102
RTVSPropertyOp47
 70
     1
102
RTVSPropertyOp48
 70
     1
102
RTVSPropertyOp49
 70
     1
102
RTVSPropertyOp50
 70
     1
102
RTVSPropertyOp51
 70
     0
102
RTVSPropertyOp52
 70
     0
102
RTVSPropertyOp53
 70
     1
102
RTVSPropertyOp54
 70
     1
102
RTVSPropertyOp55
 70
     1
102
RTVSPropertyOp56
 70
     1
102
RTVSPropertyOp57
 70
     1
102
RTVSPropertyOp58
 70
     1
102
RTVSPropertyOp59
 70
     1
102
RTVSPropertyOp60
 70
     1
102
RTVSPropertyOp61
 70
     1
102
RTVSPropertyOp62
 70
     1
  0
XRECORD
  5
C3F8
102
{ACAD_REACTORS
330
C3F7
102
}
330
C3F7
100
AcDbXrecord
280
     1
102
RTVSPost2010Prop28
280
     0
102
RTVSPost2010PropOp28
 70
     1
102
RTVSPost2010Prop29
280
     1
102
RTVSPost2010PropOp29
 70
     1
102
RTVSPost2010Prop30
280
     1
102
RTVSPost2010PropOp30
 70
     1
102
RTVSPost2010Prop31
280
     0
102
RTVSPost2010PropOp31
 70
     1
102
RTVSPost2010Prop32
280
     0
102
RTVSPost2010PropOp32
 70
     1
102
RTVSPost2010Prop33
280
     0
102
RTVSPost2010PropOp33
 70
     1
102
RTVSPost2010Prop34
280
     0
102
RTVSPost2010PropOp34
 70
     1
102
RTVSPost2010Prop35
280
     0
102
RTVSPost2010PropOp35
 70
     1
102
RTVSPost2010Prop36
280
     0
102
RTVSPost2010PropOp36
 70
     1
102
RTVSPost2010Prop37
 90
       50
102
RTVSPost2010PropOp37
 70
     1
102
RTVSPost2010Prop38
140
0.0
102
RTVSPost2010PropOp38
 70
     1
102
RTVSPost2010Prop39
140
1.0
102
RTVSPost2010PropOp39
 70
     1
102
RTVSPost2010Prop40
 90
        0
102
RTVSPost2010PropOp40
 70
     1
102
RTVSPost2010Prop41ColorIndex
 90
       18
102
RTVSPost2010Prop41ColorRGB
 90
        0
102
RTVSPost2010PropOp41
 70
     1
102
RTVSPost2010Prop42
 90
       50
102
RTVSPost2010PropOp42
 70
     1
102
RTVSPost2010Prop43
 90
        3
102
RTVSPost2010PropOp43
 70
     1
102
RTVSPost2010Prop44ColorIndex
 90
        5
102
RTVSPost2010Prop44ColorRGB
 90
      255
102
RTVSPost2010PropOp44
 70
     1
102
RTVSPost2010Prop45
280
     0
102
RTVSPost2010PropOp45
 70
     1
102
RTVSPost2010Prop46
 90
       50
102
RTVSPost2010PropOp46
 70
     1
102
RTVSPost2010Prop47
 90
       50
102
RTVSPost2010PropOp47
 70
     1
102
RTVSPost2010Prop48
 90
       50
102
RTVSPost2010PropOp48
 70
     1
102
RTVSPost2010Prop49
280
     0
102
RTVSPost2010PropOp49
 70
     1
102
RTVSPost2010Prop50
 90
       50
102
RTVSPost2010PropOp50
 70
     1
102
RTVSPost2010Prop51ColorIndex
 90
      256
102
RTVSPost2010Prop51ColorRGB
 90
-16777216
102
RTVSPost2010PropOp51
 70
     0
102
RTVSPost2010Prop52
140
1.0
102
RTVSPost2010PropOp52
 70
     0
102
RTVSPost2010Prop53
 90
        2
102
RTVSPost2010PropOp53
 70
     1
102
RTVSPost2010Prop54
  1
strokes_ogs.tif
102
RTVSPost2010PropOp54
 70
     1
102
RTVSPost2010Prop55
280
     0
102
RTVSPost2010PropOp55
 70
     1
102
RTVSPost2010Prop56
140
1.0
102
RTVSPost2010PropOp56
 70
     1
102
RTVSPost2010Prop57
140
1.0
102
RTVSPost2010PropOp57
 70
     1
102
RTVSPropertyOp0
 70
     1
102
RTVSPropertyOp1
 70
     1
102
RTVSPropertyOp2
 70
     1
102
RTVSPropertyOp3
 70
     1
102
RTVSPropertyOp4
 70
     1
102
RTVSPropertyOp5
 70
     1
102
RTVSPropertyOp6
 70
     1
102
RTVSPropertyOp7
 70
     1
102
RTVSPropertyOp8
 70
     1
102
RTVSPropertyOp9
 70
     1
102
RTVSPropertyOp10
 70
     1
102
RTVSPropertyOp11
 70
     1
102
RTVSPropertyOp12
 70
     1
102
RTVSPropertyOp13
 70
     1
102
RTVSPropertyOp14
 70
     1
102
RTVSPropertyOp15
 70
     1
102
RTVSPropertyOp16
 70
     1
102
RTVSPropertyOp17
 70
     1
102
RTVSPropertyOp18
 70
     1
102
RTVSPropertyOp19
 70
     1
102
RTVSPropertyOp20
 70
     1
102
RTVSPropertyOp21
 70
     1
102
RTVSPropertyOp22
 70
     1
102
RTVSPropertyOp23
 70
     1
102
RTVSPropertyOp24
 70
     1
102
RTVSPropertyOp25
 70
     1
102
RTVSPropertyOp26
 70
     1
102
RTVSPropertyOp27
 70
     1
102
RTVSPropertyOp28
 70
     1
102
RTVSPropertyOp29
 70
     1
102
RTVSPropertyOp30
 70
     1
102
RTVSPropertyOp31
 70
     1
102
RTVSPropertyOp32
 70
     1
102
RTVSPropertyOp33
 70
     1
102
RTVSPropertyOp34
 70
     1
102
RTVSPropertyOp35
 70
     1
102
RTVSPropertyOp36
 70
     1
102
RTVSPropertyOp37
 70
     1
102
RTVSPropertyOp38
 70
     1
102
RTVSPropertyOp39
 70
     1
102
RTVSPropertyOp40
 70
     1
102
RTVSPropertyOp41
 70
     1
102
RTVSPropertyOp42
 70
     1
102
RTVSPropertyOp43
 70
     1
102
RTVSPropertyOp44
 70
     1
102
RTVSPropertyOp45
 70
     1
102
RTVSPropertyOp46
 70
     1
102
RTVSPropertyOp47
 70
     1
102
RTVSPropertyOp48
 70
     1
102
RTVSPropertyOp49
 70
     1
102
RTVSPropertyOp50
 70
     1
102
RTVSPropertyOp51
 70
     0
102
RTVSPropertyOp52
 70
     0
102
RTVSPropertyOp53
 70
     1
102
RTVSPropertyOp54
 70
     1
102
RTVSPropertyOp55
 70
     1
102
RTVSPropertyOp56
 70
     1
102
RTVSPropertyOp57
 70
     1
102
RTVSPropertyOp58
 70
     1
102
RTVSPropertyOp59
 70
     1
102
RTVSPropertyOp60
 70
     1
102
RTVSPropertyOp61
 70
     1
102
RTVSPropertyOp62
 70
     1
  0
XRECORD
  5
C410
102
{ACAD_REACTORS
330
C40F
102
}
330
C40F
100
AcDbXrecord
280
     1
102
RTVSPost2010Prop28
280
     0
102
RTVSPost2010PropOp28
 70
     1
102
RTVSPost2010Prop29
280
     1
102
RTVSPost2010PropOp29
 70
     1
102
RTVSPost2010Prop30
280
     1
102
RTVSPost2010PropOp30
 70
     1
102
RTVSPost2010Prop31
280
     0
102
RTVSPost2010PropOp31
 70
     1
102
RTVSPost2010Prop32
280
     0
102
RTVSPost2010PropOp32
 70
     1
102
RTVSPost2010Prop33
280
     0
102
RTVSPost2010PropOp33
 70
     1
102
RTVSPost2010Prop34
280
     0
102
RTVSPost2010PropOp34
 70
     1
102
RTVSPost2010Prop35
280
     0
102
RTVSPost2010PropOp35
 70
     1
102
RTVSPost2010Prop36
280
     0
102
RTVSPost2010PropOp36
 70
     1
102
RTVSPost2010Prop37
 90
       50
102
RTVSPost2010PropOp37
 70
     1
102
RTVSPost2010Prop38
140
0.0
102
RTVSPost2010PropOp38
 70
     1
102
RTVSPost2010Prop39
140
1.0
102
RTVSPost2010PropOp39
 70
     1
102
RTVSPost2010Prop40
 90
        0
102
RTVSPost2010PropOp40
 70
     1
102
RTVSPost2010Prop41ColorIndex
 90
       18
102
RTVSPost2010Prop41ColorRGB
 90
        0
102
RTVSPost2010PropOp41
 70
     1
102
RTVSPost2010Prop42
 90
       50
102
RTVSPost2010PropOp42
 70
     1
102
RTVSPost2010Prop43
 90
        3
102
RTVSPost2010PropOp43
 70
     1
102
RTVSPost2010Prop44ColorIndex
 90
        5
102
RTVSPost2010Prop44ColorRGB
 90
      255
102
RTVSPost2010PropOp44
 70
     1
102
RTVSPost2010Prop45
280
     0
102
RTVSPost2010PropOp45
 70
     1
102
RTVSPost2010Prop46
 90
       50
102
RTVSPost2010PropOp46
 70
     1
102
RTVSPost2010Prop47
 90
       50
102
RTVSPost2010PropOp47
 70
     1
102
RTVSPost2010Prop48
 90
       50
102
RTVSPost2010PropOp48
 70
     1
102
RTVSPost2010Prop49
280
     0
102
RTVSPost2010PropOp49
 70
     1
102
RTVSPost2010Prop50
 90
       50
102
RTVSPost2010PropOp50
 70
     1
102
RTVSPost2010Prop51ColorIndex
 90
      256
102
RTVSPost2010Prop51ColorRGB
 90
-16777216
102
RTVSPost2010PropOp51
 70
     0
102
RTVSPost2010Prop52
140
1.0
102
RTVSPost2010PropOp52
 70
     0
102
RTVSPost2010Prop53
 90
        2
102
RTVSPost2010PropOp53
 70
     1
102
RTVSPost2010Prop54
  1
strokes_ogs.tif
102
RTVSPost2010PropOp54
 70
     1
102
RTVSPost2010Prop55
280
     0
102
RTVSPost2010PropOp55
 70
     1
102
RTVSPost2010Prop56
140
1.0
102
RTVSPost2010PropOp56
 70
     1
102
RTVSPost2010Prop57
140
1.0
102
RTVSPost2010PropOp57
 70
     1
102
RTVSPropertyOp0
 70
     1
102
RTVSPropertyOp1
 70
     1
102
RTVSPropertyOp2
 70
     1
102
RTVSPropertyOp3
 70
     1
102
RTVSPropertyOp4
 70
     1
102
RTVSPropertyOp5
 70
     1
102
RTVSPropertyOp6
 70
     1
102
RTVSPropertyOp7
 70
     1
102
RTVSPropertyOp8
 70
     1
102
RTVSPropertyOp9
 70
     1
102
RTVSPropertyOp10
 70
     1
102
RTVSPropertyOp11
 70
     1
102
RTVSPropertyOp12
 70
     1
102
RTVSPropertyOp13
 70
     1
102
RTVSPropertyOp14
 70
     1
102
RTVSPropertyOp15
 70
     1
102
RTVSPropertyOp16
 70
     1
102
RTVSPropertyOp17
 70
     1
102
RTVSPropertyOp18
 70
     1
102
RTVSPropertyOp19
 70
     1
102
RTVSPropertyOp20
 70
     1
102
RTVSPropertyOp21
 70
     1
102
RTVSPropertyOp22
 70
     1
102
RTVSPropertyOp23
 70
     1
102
RTVSPropertyOp24
 70
     1
102
RTVSPropertyOp25
 70
     1
102
RTVSPropertyOp26
 70
     1
102
RTVSPropertyOp27
 70
     1
102
RTVSPropertyOp28
 70
     1
102
RTVSPropertyOp29
 70
     1
102
RTVSPropertyOp30
 70
     1
102
RTVSPropertyOp31
 70
     1
102
RTVSPropertyOp32
 70
     1
102
RTVSPropertyOp33
 70
     1
102
RTVSPropertyOp34
 70
     1
102
RTVSPropertyOp35
 70
     1
102
RTVSPropertyOp36
 70
     1
102
RTVSPropertyOp37
 70
     1
102
RTVSPropertyOp38
 70
     1
102
RTVSPropertyOp39
 70
     1
102
RTVSPropertyOp40
 70
     1
102
RTVSPropertyOp41
 70
     1
102
RTVSPropertyOp42
 70
     1
102
RTVSPropertyOp43
 70
     1
102
RTVSPropertyOp44
 70
     1
102
RTVSPropertyOp45
 70
     1
102
RTVSPropertyOp46
 70
     1
102
RTVSPropertyOp47
 70
     1
102
RTVSPropertyOp48
 70
     1
102
RTVSPropertyOp49
 70
     1
102
RTVSPropertyOp50
 70
     1
102
RTVSPropertyOp51
 70
     0
102
RTVSPropertyOp52
 70
     0
102
RTVSPropertyOp53
 70
     1
102
RTVSPropertyOp54
 70
     1
102
RTVSPropertyOp55
 70
     1
102
RTVSPropertyOp56
 70
     1
102
RTVSPropertyOp57
 70
     1
102
RTVSPropertyOp58
 70
     1
102
RTVSPropertyOp59
 70
     1
102
RTVSPropertyOp60
 70
     1
102
RTVSPropertyOp61
 70
     1
102
RTVSPropertyOp62
 70
     1
  0
ENDSEC
  0
EOF
