  0
SECTION
  2
HEADER
  9
$ACADVER
  1
AC1015
  9
$ACADMAINTVER
 70
    20
  9
$DWGCODEPAGE
  3
ANSI_932
  9
$INSBASE
 10
0.0
 20
0.0
 30
0.0
  9
$EXTMIN
 10
10.0
 20
9.999999999999998
 30
0.0
  9
$EXTMAX
 10
597.5100509999997
 20
443.181879
 30
0.0
  9
$LIMMIN
 10
0.0
 20
0.0
  9
$LIMMAX
 10
792.0
 20
546.0
  9
$ORTHOMODE
 70
     0
  9
$REGENMODE
 70
     1
  9
$FILLMODE
 70
     1
  9
$QTEXTMODE
 70
     0
  9
$MIRRTEXT
 70
     1
  9
$LTSCALE
 40
20.0
  9
$ATTMODE
 70
     1
  9
$TEXTSIZE
 40
5.0
  9
$TRACEWID
 40
1.0
  9
$TEXTSTYLE
  7
STANDARD
  9
$CLAYER
  8
0
  9
$CELTYPE
  6
BYLAYER
  9
$CECOLOR
 62
   256
  9
$CELTSCALE
 40
1.0
  9
$DISPSILH
 70
     0
  9
$DIMSCALE
 40
1.0
  9
$DIMASZ
 40
3.0
  9
$DIMEXO
 40
1.0
  9
$DIMDLI
 40
10.0
  9
$DIMRND
 40
0.0
  9
$DIMDLE
 40
0.0
  9
$DIMEXE
 40
1.0
  9
$DIMTP
 40
0.0
  9
$DIMTM
 40
0.0
  9
$DIMTXT
 40
3.2
  9
$DIMCEN
 40
0.0
  9
$DIMTSZ
 40
0.0
  9
$DIMTOL
 70
     0
  9
$DIMLIM
 70
     0
  9
$DIMTIH
 70
     0
  9
$DIMTOH
 70
     0
  9
$DIMSE1
 70
     0
  9
$DIMSE2
 70
     0
  9
$DIMTAD
 70
     3
  9
$DIMZIN
 70
     8
  9
$DIMBLK
  1

  9
$DIMASO
 70
     1
  9
$DIMSHO
 70
     1
  9
$DIMPOST
  1

  9
$DIMAPOST
  1

  9
$DIMALT
 70
     0
  9
$DIMALTD
 70
     2
  9
$DIMALTF
 40
25.4
  9
$DIMLFAC
 40
1.0
  9
$DIMTOFL
 70
     1
  9
$DIMTVP
 40
0.0
  9
$DIMTIX
 70
     0
  9
$DIMSOXD
 70
     0
  9
$DIMSAH
 70
     1
  9
$DIMBLK1
  1
OPEN
  9
$DIMBLK2
  1
OPEN
  9
$DIMSTYLE
  2
STANDARD
  9
$DIMCLRD
 70
     0
  9
$DIMCLRE
 70
     0
  9
$DIMCLRT
 70
     0
  9
$DIMTFAC
 40
1.0
  9
$DIMGAP
 40
1.0
  9
$DIMJUST
 70
     0
  9
$DIMSD1
 70
     0
  9
$DIMSD2
 70
     0
  9
$DIMTOLJ
 70
     1
  9
$DIMTZIN
 70
     0
  9
$DIMALTZ
 70
     0
  9
$DIMALTTZ
 70
     0
  9
$DIMUPT
 70
     0
  9
$DIMDEC
 70
     4
  9
$DIMTDEC
 70
     4
  9
$DIMALTU
 70
     2
  9
$DIMALTTD
 70
     2
  9
$DIMTXSTY
  7
STANDARD
  9
$DIMAUNIT
 70
     0
  9
$DIMADEC
 70
     0
  9
$DIMALTRND
 40
0.0
  9
$DIMAZIN
 70
     0
  9
$DIMDSEP
 70
    46
  9
$DIMATFIT
 70
     3
  9
$DIMFRAC
 70
     0
  9
$DIMLDRBLK
  1
OPEN
  9
$DIMLUNIT
 70
     2
  9
$DIMLWD
 70
    -2
  9
$DIMLWE
 70
    -2
  9
$DIMTMOVE
 70
     0
  9
$LUNITS
 70
     2
  9
$LUPREC
 70
     4
  9
$SKETCHINC
 40
1.0
  9
$FILLETRAD
 40
16.89999999999999
  9
$AUNITS
 70
     0
  9
$AUPREC
 70
     2
  9
$MENU
  1
.
  9
$ELEVATION
 40
0.0
  9
$PELEVATION
 40
0.0
  9
$THICKNESS
 40
0.0
  9
$LIMCHECK
 70
     0
  9
$CHAMFERA
 40
10.0
  9
$CHAMFERB
 40
10.0
  9
$CHAMFERC
 40
0.0
  9
$CHAMFERD
 40
0.0
  9
$SKPOLY
 70
     0
  9
$TDCREATE
 40
2451301.420015972
  9
$TDUCREATE
 40
2451301.045015972
  9
$TDUPDATE
 40
2457192.686850058
  9
$TDUUPDATE
 40
2457192.311850058
  9
$TDINDWG
 40
0.0000096875
  9
$TDUSRTIMER
 40
0.0000093866
  9
$USRTIMER
 70
     1
  9
$ANGBASE
 50
0.0
  9
$ANGDIR
 70
     0
  9
$PDMODE
 70
     0
  9
$PDSIZE
 40
0.0
  9
$PLINEWID
 40
0.0
  9
$SPLFRAME
 70
     0
  9
$SPLINETYPE
 70
     6
  9
$SPLINESEGS
 70
     8
  9
$HANDSEED
  5
AD6C
  9
$SURFTAB1
 70
     6
  9
$SURFTAB2
 70
     6
  9
$SURFTYPE
 70
     6
  9
$SURFU
 70
     6
  9
$SURFV
 70
     6
  9
$UCSBASE
  2

  9
$UCSNAME
  2

  9
$UCSORG
 10
0.0
 20
0.0
 30
0.0
  9
$UCSXDIR
 10
1.0
 20
0.0
 30
0.0
  9
$UCSYDIR
 10
0.0
 20
1.0
 30
0.0
  9
$UCSORTHOREF
  2

  9
$UCSORTHOVIEW
 70
     0
  9
$UCSORGTOP
 10
0.0
 20
0.0
 30
0.0
  9
$UCSORGBOTTOM
 10
0.0
 20
0.0
 30
0.0
  9
$UCSORGLEFT
 10
0.0
 20
0.0
 30
0.0
  9
$UCSORGRIGHT
 10
0.0
 20
0.0
 30
0.0
  9
$UCSORGFRONT
 10
0.0
 20
0.0
 30
0.0
  9
$UCSORGBACK
 10
0.0
 20
0.0
 30
0.0
  9
$PUCSBASE
  2

  9
$PUCSNAME
  2

  9
$PUCSORG
 10
0.0
 20
0.0
 30
0.0
  9
$PUCSXDIR
 10
1.0
 20
0.0
 30
0.0
  9
$PUCSYDIR
 10
0.0
 20
1.0
 30
0.0
  9
$PUCSORTHOREF
  2

  9
$PUCSORTHOVIEW
 70
     0
  9
$PUCSORGTOP
 10
0.0
 20
0.0
 30
0.0
  9
$PUCSORGBOTTOM
 10
0.0
 20
0.0
 30
0.0
  9
$PUCSORGLEFT
 10
0.0
 20
0.0
 30
0.0
  9
$PUCSORGRIGHT
 10
0.0
 20
0.0
 30
0.0
  9
$PUCSORGFRONT
 10
0.0
 20
0.0
 30
0.0
  9
$PUCSORGBACK
 10
0.0
 20
0.0
 30
0.0
  9
$USERI1
 70
     0
  9
$USERI2
 70
     0
  9
$USERI3
 70
     0
  9
$USERI4
 70
     0
  9
$USERI5
 70
     0
  9
$USERR1
 40
0.0
  9
$USERR2
 40
0.0
  9
$USERR3
 40
0.0
  9
$USERR4
 40
0.0
  9
$USERR5
 40
0.0
  9
$WORLDVIEW
 70
     1
  9
$SHADEDGE
 70
     3
  9
$SHADEDIF
 70
    70
  9
$TILEMODE
 70
     1
  9
$MAXACTVP
 70
    16
  9
$PINSBASE
 10
0.0
 20
0.0
 30
0.0
  9
$PLIMCHECK
 70
     0
  9
$PEXTMIN
 10
1.000000000000000E+20
 20
1.000000000000000E+20
 30
1.000000000000000E+20
  9
$PEXTMAX
 10
-1.000000000000000E+20
 20
-1.000000000000000E+20
 30
-1.000000000000000E+20
  9
$PLIMMIN
 10
0.0
 20
0.0
  9
$PLIMMAX
 10
420.0
 20
297.0
  9
$UNITMODE
 70
     0
  9
$VISRETAIN
 70
     0
  9
$PLINEGEN
 70
     0
  9
$PSLTSCALE
 70
     0
  9
$TREEDEPTH
 70
  3020
  9
$CMLSTYLE
  2
STANDARD
  9
$CMLJUST
 70
     0
  9
$CMLSCALE
 40
1.0
  9
$PROXYGRAPHICS
 70
     1
  9
$MEASUREMENT
 70
     0
  9
$CELWEIGHT
370
    -1
  9
$ENDCAPS
280
     0
  9
$JOINSTYLE
280
     0
  9
$LWDISPLAY
290
     0
  9
$INSUNITS
 70
     0
  9
$HYPERLINKBASE
  1

  9
$STYLESHEET
  1

  9
$XEDIT
290
     1
  9
$CEPSNTYPE
380
     0
  9
$PSTYLEMODE
290
     1
  9
$FINGERPRINTGUID
  2
{87D309BC-735F-4FC2-8897-8D4CEAA88140}
  9
$VERSIONGUID
  2
{54C5C227-0DF1-4FAE-A389-1007B66DAA7C}
  9
$EXTNAMES
290
     1
  9
$PSVPSCALE
 40
0.0
  9
$OLESTARTUP
290
     0
  0
ENDSEC
  0
SECTION
  2
CLASSES
  0
CLASS
  1
ACDBDICTIONARYWDFLT
  2
AcDbDictionaryWithDefault
  3
ObjectDBX Classes
 90
        0
280
     0
281
     0
  0
CLASS
  1
ACDBPLACEHOLDER
  2
AcDbPlaceHolder
  3
ObjectDBX Classes
 90
        0
280
     0
281
     0
  0
CLASS
  1
LAYOUT
  2
AcDbLayout
  3
ObjectDBX Classes
 90
        0
280
     0
281
     0
  0
CLASS
  1
DICTIONARYVAR
  2
AcDbDictionaryVar
  3
ObjectDBX Classes
 90
        0
280
     0
281
     0
  0
CLASS
  1
MATERIAL
  2
AcDbMaterial
  3
ObjectDBX Classes
 90
     1153
280
     0
281
     0
  0
CLASS
  1
VISUALSTYLE
  2
AcDbVisualStyle
  3
ObjectDBX Classes
 90
     4095
280
     0
281
     0
  0
CLASS
  1
TABLESTYLE
  2
AcDbTableStyle
  3
ObjectDBX Classes
 90
     4095
280
     0
281
     0
  0
CLASS
  1
SCALE
  2
AcDbScale
  3
ObjectDBX Classes
 90
     1153
280
     0
281
     0
  0
CLASS
  1
MLEADERSTYLE
  2
AcDbMLeaderStyle
  3
ACDB_MLEADERSTYLE_CLASS
 90
     4095
280
     0
281
     0
  0
CLASS
  1
ACDBSECTIONVIEWSTYLE
  2
AcDbSectionViewStyle
  3
ObjectDBX Classes
 90
     1025
280
     0
281
     0
  0
CLASS
  1
ACDBDETAILVIEWSTYLE
  2
AcDbDetailViewStyle
  3
ObjectDBX Classes
 90
     1025
280
     0
281
     0
  0
CLASS
  1
CELLSTYLEMAP
  2
AcDbCellStyleMap
  3
ObjectDBX Classes
 90
     1152
280
     0
281
     0
  0
ENDSEC
  0
SECTION
  2
TABLES
  0
TABLE
  2
VPORT
  5
AAE1
330
0
100
AcDbSymbolTable
 70
     1
  0
VPORT
  5
ACB5
330
AAE1
100
AcDbSymbolTableRecord
100
AcDbViewportTableRecord
  2
*ACTIVE
 70
     0
 10
0.0
 20
0.0
 11
1.0
 21
1.0
 12
434.9481292748672
 22
226.594666744576
 13
0.0
 23
0.0
 14
10.0
 24
10.0
 15
10.0
 25
10.0
 16
0.0
 26
0.0
 36
1.0
 17
0.0
 27
0.0
 37
0.0
 40
438.0145835602896
 41
2.35006605019815
 42
50.0
 43
0.0
 44
0.0
 50
0.0
 51
0.0
 71
     0
 72
   100
 73
     1
 74
     0
 75
     0
 76
     0
 77
     0
 78
     0
281
     0
 65
     1
110
0.0
120
0.0
130
0.0
111
1.0
121
0.0
131
0.0
112
0.0
122
1.0
132
0.0
 79
     0
146
0.0
1001
ACAD_NAV_VCDISPLAY
1070
     3
  0
ENDTAB
  0
TABLE
  2
LTYPE
  5
AADE
330
0
100
AcDbSymbolTable
 70
     4
  0
LTYPE
  5
AAEC
330
AADE
100
AcDbSymbolTableRecord
100
AcDbLinetypeTableRecord
  2
BYBLOCK
 70
     0
  3

 72
    65
 73
     0
 40
0.0
  0
LTYPE
  5
AAED
330
AADE
100
AcDbSymbolTableRecord
100
AcDbLinetypeTableRecord
  2
BYLAYER
 70
     0
  3

 72
    65
 73
     0
 40
0.0
  0
LTYPE
  5
AAEE
330
AADE
100
AcDbSymbolTableRecord
100
AcDbLinetypeTableRecord
  2
CONTINUOUS
 70
     0
  3
Solid line
 72
    65
 73
     0
 40
0.0
  0
LTYPE
  5
AAFC
330
AADE
100
AcDbSymbolTableRecord
100
AcDbLinetypeTableRecord
  2
DASHED
 70
     0
  3
__ __ __ __ __ __ __ __ __ __ __ __ __ __ __ __
 72
    65
 73
     2
 40
0.75
 49
0.5
 74
     0
 49
-0.25
 74
     0
  0
LTYPE
  5
AAFD
330
AADE
100
AcDbSymbolTableRecord
100
AcDbLinetypeTableRecord
  2
CENTER
 70
     0
  3
____ _ ____ _ ____ _ ____ _ ____ _ ____ _ ____ 
 72
    65
 73
     4
 40
2.0
 49
1.25
 74
     0
 49
-0.25
 74
     0
 49
0.25
 74
     0
 49
-0.25
 74
     0
  0
LTYPE
  5
AAFE
330
AADE
100
AcDbSymbolTableRecord
100
AcDbLinetypeTableRecord
  2
PHANTOM
 70
     0
  3
______  __  __  ______  __  __  ______  __  __ 
 72
    65
 73
     6
 40
2.5
 49
1.25
 74
     0
 49
-0.25
 74
     0
 49
0.25
 74
     0
 49
-0.25
 74
     0
 49
0.25
 74
     0
 49
-0.25
 74
     0
  0
ENDTAB
  0
TABLE
  2
LAYER
  5
AADB
330
0
100
AcDbSymbolTable
 70
     8
  0
LAYER
  5
AAE9
102
{ACAD_XDICTIONARY
360
AD10
102
}
330
AADB
100
AcDbSymbolTableRecord
100
AcDbLayerTableRecord
  2
0
 70
     0
 62
     7
  6
CONTINUOUS
370
    -3
390
ACBE
  0
LAYER
  5
AAFF
102
{ACAD_XDICTIONARY
360
AD12
102
}
330
AADB
100
AcDbSymbolTableRecord
100
AcDbLayerTableRecord
  2
4
 70
     0
 62
     1
  6
CENTER
370
    -3
390
ACBE
  0
LAYER
  5
AB00
102
{ACAD_XDICTIONARY
360
AD14
102
}
330
AADB
100
AcDbSymbolTableRecord
100
AcDbLayerTableRecord
  2
5
 70
     0
 62
     6
  6
PHANTOM
370
    -3
390
ACBE
  0
LAYER
  5
AB01
102
{ACAD_XDICTIONARY
360
AD16
102
}
330
AADB
100
AcDbSymbolTableRecord
100
AcDbLayerTableRecord
  2
1
 70
     0
 62
     7
  6
CONTINUOUS
370
    -3
390
ACBE
  0
LAYER
  5
AB02
102
{ACAD_XDICTIONARY
360
AD18
102
}
330
AADB
100
AcDbSymbolTableRecord
100
AcDbLayerTableRecord
  2
2
 70
     0
 62
     4
  6
CONTINUOUS
370
    -3
390
ACBE
  0
LAYER
  5
AB03
102
{ACAD_XDICTIONARY
360
AD1A
102
}
330
AADB
100
AcDbSymbolTableRecord
100
AcDbLayerTableRecord
  2
3
 70
     0
 62
     2
  6
DASHED
370
    -3
390
ACBE
  0
LAYER
  5
AB04
102
{ACAD_XDICTIONARY
360
AD1C
102
}
330
AADB
100
AcDbSymbolTableRecord
100
AcDbLayerTableRecord
  2
6
 70
     0
 62
     5
  6
CONTINUOUS
370
    -3
390
ACBE
  0
LAYER
  5
AB05
102
{ACAD_XDICTIONARY
360
AD1E
102
}
330
AADB
100
AcDbSymbolTableRecord
100
AcDbLayerTableRecord
  2
7
 70
     0
 62
     3
  6
CONTINUOUS
370
    -3
390
ACBE
  0
ENDTAB
  0
TABLE
  2
STYLE
  5
AADC
330
0
100
AcDbSymbolTable
 70
     1
  0
STYLE
  5
AAEA
330
AADC
100
AcDbSymbolTableRecord
100
AcDbTextStyleTableRecord
  2
STANDARD
 70
     0
 40
0.0
 41
1.0
 50
0.0
 71
     0
 42
5.0
  3
txt
  4

  0
ENDTAB
  0
TABLE
  2
VIEW
  5
AADF
330
0
100
AcDbSymbolTable
 70
     0
  0
ENDTAB
  0
TABLE
  2
UCS
  5
AAE0
330
0
100
AcDbSymbolTable
 70
     0
  0
ENDTAB
  0
TABLE
  2
APPID
  5
AAE2
330
0
100
AcDbSymbolTable
 70
     3
  0
APPID
  5
AAEB
330
AAE2
100
AcDbSymbolTableRecord
100
AcDbRegAppTableRecord
  2
ACAD
 70
     0
  0
APPID
  5
AD2A
330
AAE2
100
AcDbSymbolTableRecord
100
AcDbRegAppTableRecord
  2
ACAD_NAV_VCDISPLAY
 70
     0
  0
APPID
  5
AD63
330
AAE2
100
AcDbSymbolTableRecord
100
AcDbRegAppTableRecord
  2
ACAD_MLEADERVER
 70
     0
  0
ENDTAB
  0
TABLE
  2
DIMSTYLE
  5
AAE3
330
0
100
AcDbSymbolTable
 70
     1
100
AcDbDimStyleTable
 71
     0
  0
DIMSTYLE
105
AB07
330
AAE3
100
AcDbSymbolTableRecord
100
AcDbDimStyleTableRecord
  2
STANDARD
 70
     0
 41
3.0
 42
1.0
 43
10.0
 44
1.0
 73
     0
 74
     0
 77
     3
 78
     8
140
3.2
141
0.0
147
1.0
172
     1
173
     1
284
     8
285
     8
286
     8
340
AAEA
  0
ENDTAB
  0
TABLE
  2
BLOCK_RECORD
  5
AADA
330
0
100
AcDbSymbolTable
 70
     1
  0
BLOCK_RECORD
  5
AAF7
102
{ACAD_XDICTIONARY
360
ACB8
102
}
330
AADA
100
AcDbSymbolTableRecord
100
AcDbBlockTableRecord
  2
*MODEL_SPACE
340
AD0C
  0
BLOCK_RECORD
  5
AAF3
102
{ACAD_XDICTIONARY
360
ACB6
102
}
330
AADA
100
AcDbSymbolTableRecord
100
AcDbBlockTableRecord
  2
*PAPER_SPACE
340
AD0D
  0
BLOCK_RECORD
  5
AB0F
330
AADA
100
AcDbSymbolTableRecord
100
AcDbBlockTableRecord
  2
_OPEN
340
0
  0
ENDTAB
  0
ENDSEC
  0
SECTION
  2
BLOCKS
  0
BLOCK
  5
AAF8
330
AAF7
100
AcDbEntity
  8
0
100
AcDbBlockBegin
  2
*MODEL_SPACE
 70
     0
 10
0.0
 20
0.0
 30
0.0
  3
*MODEL_SPACE
  1

  0
ENDBLK
  5
AAF9
330
AAF7
100
AcDbEntity
  8
0
100
AcDbBlockEnd
  0
BLOCK
  5
AAF4
330
AAF3
100
AcDbEntity
 67
     1
  8
0
100
AcDbBlockBegin
  2
*PAPER_SPACE
 70
     0
 10
0.0
 20
0.0
 30
0.0
  3
*PAPER_SPACE
  1

  0
ENDBLK
  5
AAF5
330
AAF3
100
AcDbEntity
 67
     1
  8
0
100
AcDbBlockEnd
  0
BLOCK
  5
AB10
330
AB0F
100
AcDbEntity
  8
0
100
AcDbBlockBegin
  2
_OPEN
 70
     0
 10
0.0
 20
0.0
 30
0.0
  3
_OPEN
  1

  0
LINE
  5
AB11
330
AB0F
100
AcDbEntity
  8
0
  6
ByBlock
 62
     0
100
AcDbLine
 10
-1.0
 20
0.166667
 30
0.0
 11
0.0
 21
0.0
 31
0.0
  0
LINE
  5
AB12
330
AB0F
100
AcDbEntity
  8
0
  6
ByBlock
 62
     0
100
AcDbLine
 10
0.0
 20
0.0
 30
0.0
 11
-1.0
 21
-0.166667
 31
0.0
  0
LINE
  5
AB13
330
AB0F
100
AcDbEntity
  8
0
  6
ByBlock
 62
     0
100
AcDbLine
 10
0.0
 20
0.0
 30
0.0
 11
-1.0
 21
0.0
 31
0.0
  0
ENDBLK
  5
AB14
330
AB0F
100
AcDbEntity
  8
0
100
AcDbBlockEnd
  0
ENDSEC
  0
SECTION
  2
ENTITIES
  0
TEXT
  5
AB15
330
AAF7
100
AcDbEntity
  8
7
  6
Continuous
100
AcDbText
 10
10.0
 20
18.0
 30
0.0
 40
3.0
  1
TYPE No.105HB2-EP
100
AcDbText
  0
TEXT
  5
AB16
330
AAF7
100
AcDbEntity
  8
7
  6
Continuous
100
AcDbText
 10
10.0
 20
26.0
 30
0.0
 40
3.0
  1
CODE No.19082
100
AcDbText
  0
TEXT
  5
AB17
330
AAF7
100
AcDbEntity
  8
1
  6
Continuous
100
AcDbText
 10
10.0
 20
10.0
 30
0.0
 40
1.399999999999999
  1
LAYER
100
AcDbText
  0
TEXT
  5
AB18
330
AAF7
100
AcDbEntity
  8
1
  6
Continuous
100
AcDbText
 10
17.97951099999998
 20
10.04873699999998
 30
0.0
 40
1.399999999999999
  1
1
100
AcDbText
  0
TEXT
  5
AB19
330
AAF7
100
AcDbEntity
  8
7
  6
Continuous
100
AcDbText
 10
29.97951099999999
 20
10.04873699999998
 30
0.0
 40
1.399999999999999
  1
7
100
AcDbText
  0
TEXT
  5
AB1A
330
AAF7
100
AcDbEntity
  8
4
  6
CENTER
100
AcDbText
 10
23.97951099999999
 20
10.04873699999998
 30
0.0
 40
1.399999999999999
  1
4
100
AcDbText
  0
TEXT
  5
AB1B
330
AAF7
100
AcDbEntity
  8
3
  6
DASHED
100
AcDbText
 10
21.979511
 20
10.04873699999998
 30
0.0
 40
1.399999999999999
  1
3
100
AcDbText
  0
TEXT
  5
AB1C
330
AAF7
100
AcDbEntity
  8
2
  6
Continuous
100
AcDbText
 10
19.97951099999999
 20
10.04873699999998
 30
0.0
 40
1.399999999999999
  1
2
100
AcDbText
  0
TEXT
  5
AB1D
330
AAF7
100
AcDbEntity
  8
6
  6
Continuous
100
AcDbText
 10
27.979511
 20
10.04873699999998
 30
0.0
 40
1.399999999999999
  1
6
100
AcDbText
  0
TEXT
  5
AB1E
330
AAF7
100
AcDbEntity
  8
5
  6
PHANTOM
100
AcDbText
 10
25.97951099999999
 20
10.04873699999998
 30
0.0
 40
1.399999999999999
  1
5
100
AcDbText
  0
LINE
  5
AB1F
330
AAF7
100
AcDbEntity
  8
4
  6
CENTER
100
AcDbLine
 10
232.5100509999999
 20
443.181879
 30
0.0
 11
232.5100509999999
 21
337.1818789999999
 31
0.0
  0
LINE
  5
AB20
330
AAF7
100
AcDbEntity
  8
4
  6
CENTER
100
AcDbLine
 10
210.5100509999998
 20
261.4594069999998
 30
0.0
 11
210.5100509999998
 21
184.0763889999998
 31
0.0
  0
LINE
  5
AB21
330
AAF7
100
AcDbEntity
  8
4
  6
CENTER
100
AcDbLine
 10
170.010051
 20
224.576389
 30
0.0
 11
251.010051
 21
224.576389
 31
0.0
  0
LINE
  5
AB22
330
AAF7
100
AcDbEntity
  8
4
  6
CENTER
100
AcDbLine
 10
197.010051
 20
417.431879
 30
0.0
 11
197.010051
 21
433.931879
 31
0.0
  0
LINE
  5
AB23
330
AAF7
100
AcDbEntity
  8
4
  6
CENTER
100
AcDbLine
 10
268.0100509999999
 20
417.431879
 30
0.0
 11
268.0100509999999
 21
433.931879
 31
0.0
  0
ARC
  5
AB24
330
AAF7
100
AcDbEntity
  8
1
  6
Continuous
100
AcDbCircle
 10
197.510051
 20
425.1818789999998
 30
0.0
 40
10.0
100
AcDbArc
 50
90.0
 51
180.0
  0
ARC
  5
AB25
330
AAF7
100
AcDbEntity
  8
1
  6
Continuous
100
AcDbCircle
 10
267.5100509999999
 20
425.1818789999998
 30
0.0
 40
10.0
100
AcDbArc
 50
0.0
 51
90.0
  0
LINE
  5
AB26
330
AAF7
100
AcDbEntity
  8
4
  6
CENTER
100
AcDbLine
 10
285.5100509999999
 20
390.181879
 30
0.0
 11
170.010538
 21
390.181879
 31
0.0
  0
CIRCLE
  5
AB27
330
AAF7
100
AcDbEntity
  8
1
  6
Continuous
100
AcDbCircle
 10
232.5100509999999
 20
390.181879
 30
0.0
 40
15.75
  0
CIRCLE
  5
AB28
330
AAF7
100
AcDbEntity
  8
1
  6
Continuous
100
AcDbCircle
 10
232.5100509999999
 20
390.181879
 30
0.0
 40
31.0
  0
CIRCLE
  5
AB29
330
AAF7
100
AcDbEntity
  8
1
  6
Continuous
100
AcDbCircle
 10
232.5100509999999
 20
390.181879
 30
0.0
 40
33.5
  0
LINE
  5
AB2A
330
AAF7
100
AcDbEntity
  8
1
  6
Continuous
100
AcDbLine
 10
267.5100509999999
 20
345.1818789999999
 30
0.0
 11
197.510051
 21
345.1818789999999
 31
0.0
  0
LINE
  5
AB2B
330
AAF7
100
AcDbEntity
  8
1
  6
Continuous
100
AcDbLine
 10
187.510051
 20
355.181879
 30
0.0
 11
187.510051
 21
425.1818789999998
 31
0.0
  0
LINE
  5
AB2C
330
AAF7
100
AcDbEntity
  8
4
  6
CENTER
100
AcDbLine
 10
205.2600509999999
 20
354.6818789999999
 30
0.0
 11
188.760051
 21
354.6818789999999
 31
0.0
  0
CIRCLE
  5
AB2D
330
AAF7
100
AcDbEntity
  8
1
  6
Continuous
100
AcDbCircle
 10
197.010051
 20
354.6818789999999
 30
0.0
 40
5.25
  0
LINE
  5
AB2E
330
AAF7
100
AcDbEntity
  8
4
  6
CENTER
100
AcDbLine
 10
197.010051
 20
346.431879
 30
0.0
 11
197.010051
 21
362.9318789999999
 31
0.0
  0
ARC
  5
AB2F
330
AAF7
100
AcDbEntity
  8
1
  6
Continuous
100
AcDbCircle
 10
197.510051
 20
355.181879
 30
0.0
 40
10.0
100
AcDbArc
 50
180.0
 51
270.0
  0
LINE
  5
AB30
330
AAF7
100
AcDbEntity
  8
4
  6
CENTER
100
AcDbLine
 10
205.2600509999999
 20
425.6818789999998
 30
0.0
 11
188.760051
 21
425.6818789999998
 31
0.0
  0
CIRCLE
  5
AB31
330
AAF7
100
AcDbEntity
  8
1
  6
Continuous
100
AcDbCircle
 10
197.010051
 20
425.6818789999998
 30
0.0
 40
5.25
  0
LINE
  5
AB32
330
AAF7
100
AcDbEntity
  8
1
  6
Continuous
100
AcDbLine
 10
277.5100509999999
 20
355.181879
 30
0.0
 11
277.5100509999999
 21
425.1818789999998
 31
0.0
  0
LINE
  5
AB33
330
AAF7
100
AcDbEntity
  8
4
  6
CENTER
100
AcDbLine
 10
276.2600509999999
 20
354.6818789999999
 30
0.0
 11
259.7600509999999
 21
354.6818789999999
 31
0.0
  0
CIRCLE
  5
AB34
330
AAF7
100
AcDbEntity
  8
1
  6
Continuous
100
AcDbCircle
 10
268.0100509999999
 20
354.6818789999999
 30
0.0
 40
5.25
  0
LINE
  5
AB35
330
AAF7
100
AcDbEntity
  8
4
  6
CENTER
100
AcDbLine
 10
268.0100509999999
 20
346.431879
 30
0.0
 11
268.0100509999999
 21
362.9318789999999
 31
0.0
  0
ARC
  5
AB36
330
AAF7
100
AcDbEntity
  8
1
  6
Continuous
100
AcDbCircle
 10
267.5100509999999
 20
355.181879
 30
0.0
 40
10.0
100
AcDbArc
 50
270.0
 51
0.0
  0
LINE
  5
AB37
330
AAF7
100
AcDbEntity
  8
4
  6
CENTER
100
AcDbLine
 10
276.2600509999999
 20
425.6818789999998
 30
0.0
 11
259.7600509999999
 21
425.6818789999998
 31
0.0
  0
CIRCLE
  5
AB38
330
AAF7
100
AcDbEntity
  8
1
  6
Continuous
100
AcDbCircle
 10
268.0100509999999
 20
425.6818789999998
 30
0.0
 40
5.25
  0
LINE
  5
AB39
330
AAF7
100
AcDbEntity
  8
1
  6
Continuous
100
AcDbLine
 10
267.5100509999999
 20
435.181879
 30
0.0
 11
197.510051
 21
435.181879
 31
0.0
  0
LINE
  5
AB3A
330
AAF7
100
AcDbEntity
  8
4
  6
CENTER
100
AcDbLine
 10
383.7600509999999
 20
184.0763889999998
 30
0.0
 11
383.7600509999999
 21
292.0763889999999
 31
0.0
  0
LINE
  5
AB3B
330
AAF7
100
AcDbEntity
  8
4
  6
CENTER
100
AcDbLine
 10
343.2580509999999
 20
224.576389
 30
0.0
 11
420.1100509999998
 21
224.576389
 31
0.0
  0
ARC
  5
AB3C
330
AAF7
100
AcDbEntity
  8
1
  6
Continuous
100
AcDbCircle
 10
383.7600509999999
 20
243.176389
 30
0.0
 40
16.0
100
AcDbArc
 50
37.85275399999999
 51
142.1472459999999
  0
ARC
  5
AB3D
330
AAF7
100
AcDbEntity
  8
1
  6
Continuous
100
AcDbCircle
 10
383.7600509999999
 20
240.187433
 30
0.0
 40
18.98895599999999
100
AcDbArc
 50
45.07517599999999
 51
134.924824
  0
LINE
  5
AB3E
330
AAF7
100
AcDbEntity
  8
1
  6
Continuous
100
AcDbLine
 10
350.732187
 20
275.876389
 30
0.0
 11
416.787915
 21
275.876389
 31
0.0
  0
LINE
  5
AB3F
330
AAF7
100
AcDbEntity
  8
1
  6
Continuous
100
AcDbLine
 10
353.7600509999998
 20
269.876389
 30
0.0
 11
413.7600509999998
 21
269.876389
 31
0.0
  0
LINE
  5
AB40
330
AAF7
100
AcDbEntity
  8
1
  6
Continuous
100
AcDbLine
 10
428.7600509999998
 20
280.876389
 30
0.0
 11
338.7600509999999
 21
280.876389
 31
0.0
  0
LINE
  5
AB41
330
AAF7
100
AcDbEntity
  8
1
  6
Continuous
100
AcDbLine
 10
428.7600509999998
 20
284.076389
 30
0.0
 11
338.7600509999999
 21
284.076389
 31
0.0
  0
LINE
  5
AB42
330
AAF7
100
AcDbEntity
  8
1
  6
Continuous
100
AcDbLine
 10
352.4100509999998
 20
266.876389
 30
0.0
 11
352.4100509999998
 21
225.564873
 31
0.0
  0
ARC
  5
AB43
330
AAF7
100
AcDbEntity
  8
1
  6
Continuous
100
AcDbCircle
 10
439.703404
 20
183.32863
 30
0.0
 40
98.75439700000001
100
AcDbArc
 50
134.6099759999999
 51
149.7053239999999
  0
ARC
  5
AB44
330
AAF7
100
AcDbEntity
  8
1
  6
Continuous
100
AcDbCircle
 10
367.612392
 20
225.564873
 30
0.0
 40
15.202341
100
AcDbArc
 50
150.0914129999999
 51
156.3575699999999
  0
ARC
  5
AB45
330
AAF7
100
AcDbEntity
  8
1
  6
Continuous
100
AcDbCircle
 10
497.933566
 20
153.193911
 30
0.0
 40
161.36967
100
AcDbArc
 50
141.7962649999998
 51
150.9882619999999
  0
LINE
  5
AB46
330
AAF7
100
AcDbEntity
  8
4
  6
CENTER
100
AcDbLine
 10
348.2600509999999
 20
292.0763889999999
 30
0.0
 11
348.2600509999999
 21
272.876389
 31
0.0
  0
LINE
  5
AB47
330
AAF7
100
AcDbEntity
  8
1
  6
Continuous
100
AcDbLine
 10
338.7600509999999
 20
284.076389
 30
0.0
 11
338.7600509999999
 21
280.876389
 31
0.0
  0
ARC
  5
AB48
330
AAF7
100
AcDbEntity
  8
1
  6
Continuous
100
AcDbCircle
 10
350.732187
 20
279.876389
 30
0.0
 40
4.0
100
AcDbArc
 50
206.565051
 51
270.0
  0
LINE
  5
AB49
330
AAF7
100
AcDbEntity
  8
1
  6
Continuous
100
AcDbLine
 10
345.7600509999999
 20
280.876389
 30
0.0
 11
347.1544779999998
 21
278.087535
 31
0.0
  0
LINE
  5
AB4A
330
AAF7
100
AcDbEntity
  8
1
  6
Continuous
100
AcDbLine
 10
353.7600509999998
 20
272.876389
 30
0.0
 11
353.7600509999998
 21
269.876389
 31
0.0
  0
ARC
  5
AB4B
330
AAF7
100
AcDbEntity
  8
1
  6
Continuous
100
AcDbCircle
 10
355.610051
 20
266.876389
 30
0.0
 40
3.0
100
AcDbArc
 50
90.0
 51
180.0
  0
ARC
  5
AB4C
330
AAF7
100
AcDbEntity
  8
1
  6
Continuous
100
AcDbCircle
 10
356.7600509999999
 20
272.876389
 30
0.0
 40
3.0
100
AcDbArc
 50
90.0
 51
180.0
  0
LINE
  5
AB4D
330
AAF7
100
AcDbEntity
  8
1
  6
Continuous
100
AcDbLine
 10
415.110051
 20
266.876389
 30
0.0
 11
415.110051
 21
225.564873
 31
0.0
  0
ARC
  5
AB4E
330
AAF7
100
AcDbEntity
  8
1
  6
Continuous
100
AcDbCircle
 10
416.787915
 20
279.876389
 30
0.0
 40
4.0
100
AcDbArc
 50
270.0
 51
333.434949
  0
LINE
  5
AB4F
330
AAF7
100
AcDbEntity
  8
1
  6
Continuous
100
AcDbLine
 10
413.7600509999998
 20
272.876389
 30
0.0
 11
413.7600509999998
 21
269.876389
 31
0.0
  0
ARC
  5
AB50
330
AAF7
100
AcDbEntity
  8
1
  6
Continuous
100
AcDbCircle
 10
411.938545
 20
266.7001159999999
 30
0.0
 40
3.176400999999998
100
AcDbArc
 50
3.181242999999998
 51
90.513978
  0
ARC
  5
AB51
330
AAF7
100
AcDbEntity
  8
1
  6
Continuous
100
AcDbCircle
 10
410.760051
 20
272.876389
 30
0.0
 40
3.0
100
AcDbArc
 50
0.0
 51
90.0
  0
LINE
  5
AB52
330
AAF7
100
AcDbEntity
  8
4
  6
CENTER
100
AcDbLine
 10
419.260051
 20
292.0763889999999
 30
0.0
 11
419.260051
 21
272.876389
 31
0.0
  0
LINE
  5
AB53
330
AAF7
100
AcDbEntity
  8
1
  6
Continuous
100
AcDbLine
 10
428.7600509999998
 20
284.076389
 30
0.0
 11
428.7600509999998
 21
280.876389
 31
0.0
  0
LINE
  5
AB54
330
AAF7
100
AcDbEntity
  8
1
  6
Continuous
100
AcDbLine
 10
421.7600509999998
 20
280.876389
 30
0.0
 11
420.3656239999999
 21
278.087535
 31
0.0
  0
LINE
  5
AB55
330
AAF7
100
AcDbEntity
  8
4
  6
CENTER
100
AcDbLine
 10
36.064933
 20
224.576359
 30
0.0
 11
111.766933
 21
224.576359
 31
0.0
  0
LINE
  5
AB56
330
AAF7
100
AcDbEntity
  8
1
  6
Continuous
100
AcDbLine
 10
404.5600509999998
 20
209.0763589999999
 30
0.0
 11
407.4600509999998
 21
209.0763589999999
 31
0.0
  0
LINE
  5
AB57
330
AAF7
100
AcDbEntity
  8
1
  6
Continuous
100
AcDbLine
 10
53.564933
 20
259.8763589999999
 30
0.0
 11
88.96493300000001
 21
259.8763589999999
 31
0.0
  0
LINE
  5
AB58
330
AAF7
100
AcDbEntity
  8
1
  6
Continuous
100
AcDbLine
 10
38.23706899999999
 20
275.876359
 30
0.0
 11
104.292797
 21
275.876359
 31
0.0
  0
LINE
  5
AB59
330
AAF7
100
AcDbEntity
  8
1
  6
Continuous
100
AcDbLine
 10
41.26493299999999
 20
269.8763589999999
 30
0.0
 11
101.2649329999999
 21
269.8763589999999
 31
0.0
  0
LINE
  5
AB5A
330
AAF7
100
AcDbEntity
  8
1
  6
Continuous
100
AcDbLine
 10
116.264933
 20
280.8763589999999
 30
0.0
 11
26.26493299999999
 21
280.8763589999999
 31
0.0
  0
LINE
  5
AB5B
330
AAF7
100
AcDbEntity
  8
1
  6
Continuous
100
AcDbLine
 10
116.264933
 20
284.0763589999999
 30
0.0
 11
26.26493299999999
 21
284.0763589999999
 31
0.0
  0
LINE
  5
AB5C
330
AAF7
100
AcDbEntity
  8
1
  6
Continuous
100
AcDbLine
 10
265.5379149999999
 20
275.876389
 30
0.0
 11
199.482187
 21
275.876389
 31
0.0
  0
LINE
  5
AB5D
330
AAF7
100
AcDbEntity
  8
1
  6
Continuous
100
AcDbLine
 10
262.5100509999999
 20
269.876389
 30
0.0
 11
202.510051
 21
269.876389
 31
0.0
  0
LINE
  5
AB5E
330
AAF7
100
AcDbEntity
  8
1
  6
Continuous
100
AcDbLine
 10
187.510051
 20
280.876389
 30
0.0
 11
277.5100509999999
 21
280.876389
 31
0.0
  0
LINE
  5
AB5F
330
AAF7
100
AcDbEntity
  8
1
  6
Continuous
100
AcDbLine
 10
187.510051
 20
284.076389
 30
0.0
 11
277.5100509999999
 21
284.076389
 31
0.0
  0
ARC
  5
AB60
330
AAF7
100
AcDbEntity
  8
1
  6
Continuous
100
AcDbCircle
 10
200.1315759999999
 20
271.913143
 30
0.0
 40
63.95998999999999
100
AcDbArc
 50
282.172998
 51
345.1169299999999
  0
LINE
  5
AB61
330
AAF7
100
AcDbEntity
  8
1
  6
Continuous
100
AcDbLine
 10
263.8598859999999
 20
267.5529439999999
 30
0.0
 11
263.655163
 21
259.1763889999999
 31
0.0
  0
LINE
  5
AB62
330
AAF7
100
AcDbEntity
  8
4
  6
CENTER
100
AcDbLine
 10
268.0100509999999
 20
292.0763889999999
 30
0.0
 11
268.0100509999999
 21
272.876389
 31
0.0
  0
LINE
  5
AB63
330
AAF7
100
AcDbEntity
  8
1
  6
Continuous
100
AcDbLine
 10
277.5100509999999
 20
284.076389
 30
0.0
 11
277.5100509999999
 21
280.876389
 31
0.0
  0
ARC
  5
AB64
330
AAF7
100
AcDbEntity
  8
1
  6
Continuous
100
AcDbCircle
 10
265.5379149999999
 20
279.876389
 30
0.0
 40
4.0
100
AcDbArc
 50
270.0
 51
333.434949
  0
LINE
  5
AB65
330
AAF7
100
AcDbEntity
  8
1
  6
Continuous
100
AcDbLine
 10
270.5100509999999
 20
280.876389
 30
0.0
 11
269.115624
 21
278.087535
 31
0.0
  0
LINE
  5
AB66
330
AAF7
100
AcDbEntity
  8
1
  6
Continuous
100
AcDbLine
 10
262.5100509999999
 20
272.876389
 30
0.0
 11
262.5100509999999
 21
269.876389
 31
0.0
  0
ARC
  5
AB67
330
AAF7
100
AcDbEntity
  8
1
  6
Continuous
100
AcDbCircle
 10
261.1041169999999
 20
267.080494
 30
0.0
 40
2.795974
100
AcDbArc
 50
9.728229999999999
 51
89.56858699999996
  0
ARC
  5
AB68
330
AAF7
100
AcDbEntity
  8
1
  6
Continuous
100
AcDbCircle
 10
259.5100509999999
 20
272.876389
 30
0.0
 40
3.0
100
AcDbArc
 50
0.0
 51
90.0
  0
LINE
  5
AB69
330
AAF7
100
AcDbEntity
  8
1
  6
Continuous
100
AcDbLine
 10
47.564933
 20
253.8763589999998
 30
0.0
 11
47.564933
 21
209.0763589999999
 31
0.0
  0
LINE
  5
AB6A
330
AAF7
100
AcDbEntity
  8
1
  6
Continuous
100
AcDbLine
 10
50.464933
 20
254.8763589999999
 30
0.0
 11
50.464933
 21
209.0763589999999
 31
0.0
  0
ARC
  5
AB6B
330
AAF7
100
AcDbEntity
  8
1
  6
Continuous
100
AcDbCircle
 10
210.5100509999998
 20
224.576389
 30
0.0
 40
15.5
100
AcDbArc
 50
123.978398
 51
281.568626
  0
LINE
  5
AB6C
330
AAF7
100
AcDbEntity
  8
4
  6
CENTER
100
AcDbLine
 10
232.5100509999999
 20
292.0763889999999
 30
0.0
 11
232.5100509999999
 21
253.321312
 31
0.0
  0
LINE
  5
AB6D
330
AAF7
100
AcDbEntity
  8
1
  6
Continuous
100
AcDbLine
 10
201.77738
 20
266.2545979999998
 30
0.0
 11
203.5100509999999
 21
259.876389
 31
0.0
  0
LINE
  5
AB6E
330
AAF7
100
AcDbEntity
  8
1
  6
Continuous
100
AcDbLine
 10
214.8413999999999
 20
254.395094
 30
0.0
 11
224.9974589999999
 21
216.7006439999999
 31
0.0
  0
LINE
  5
AB6F
330
AAF7
100
AcDbEntity
  8
1
  6
Continuous
100
AcDbLine
 10
201.8474059999999
 20
237.4297379999999
 30
0.0
 11
209.962345
 21
242.898883
 31
0.0
  0
LINE
  5
AB70
330
AAF7
100
AcDbEntity
  8
1
  6
Continuous
100
AcDbLine
 10
203.5100509999999
 20
259.876389
 30
0.0
 11
209.386945
 21
259.876389
 31
0.0
  0
ARC
  5
AB71
330
AAF7
100
AcDbEntity
  8
1
  6
Continuous
100
AcDbCircle
 10
204.3735419999999
 20
251.1913669999999
 30
0.0
 40
10.0
100
AcDbArc
 50
303.9783979999999
 51
14.03624299999999
  0
ARC
  5
AB72
330
AAF7
100
AcDbEntity
  8
1
  6
Continuous
100
AcDbCircle
 10
209.386945
 20
255.8763889999999
 30
0.0
 40
4.0
100
AcDbArc
 50
14.03624299999999
 51
90.0
  0
LINE
  5
AB73
330
AAF7
100
AcDbEntity
  8
1
  6
Continuous
100
AcDbLine
 10
213.2675149999998
 20
256.846531
 30
0.0
 11
214.0749669999999
 21
253.616723
 31
0.0
  0
LINE
  5
AB74
330
AAF7
100
AcDbEntity
  8
4
  6
CENTER
100
AcDbLine
 10
197.010051
 20
292.0763889999999
 30
0.0
 11
197.010051
 21
272.876389
 31
0.0
  0
LINE
  5
AB75
330
AAF7
100
AcDbEntity
  8
1
  6
Continuous
100
AcDbLine
 10
187.510051
 20
284.076389
 30
0.0
 11
187.510051
 21
280.876389
 31
0.0
  0
ARC
  5
AB76
330
AAF7
100
AcDbEntity
  8
1
  6
Continuous
100
AcDbCircle
 10
205.5100509999999
 20
272.876389
 30
0.0
 40
3.0
100
AcDbArc
 50
90.0
 51
180.0
  0
ARC
  5
AB77
330
AAF7
100
AcDbEntity
  8
1
  6
Continuous
100
AcDbCircle
 10
204.7122349999999
 20
266.876389
 30
0.0
 40
3.0
100
AcDbArc
 50
90.0
 51
191.962051
  0
LINE
  5
AB78
330
AAF7
100
AcDbEntity
  8
1
  6
Continuous
100
AcDbLine
 10
202.510051
 20
272.876389
 30
0.0
 11
202.510051
 21
269.876389
 31
0.0
  0
LINE
  5
AB79
330
AAF7
100
AcDbEntity
  8
1
  6
Continuous
100
AcDbLine
 10
194.5100509999998
 20
280.876389
 30
0.0
 11
195.904478
 21
278.087535
 31
0.0
  0
ARC
  5
AB7A
330
AAF7
100
AcDbEntity
  8
1
  6
Continuous
100
AcDbCircle
 10
199.482187
 20
279.876389
 30
0.0
 40
4.0
100
AcDbArc
 50
206.565051
 51
270.0
  0
ARC
  5
AB7B
330
AAF7
100
AcDbEntity
  8
1
  6
Continuous
100
AcDbCircle
 10
53.564933
 20
253.8763589999998
 30
0.0
 40
6.0
100
AcDbArc
 50
90.0
 51
180.0
  0
ARC
  5
AB7C
330
AAF7
100
AcDbEntity
  8
1
  6
Continuous
100
AcDbCircle
 10
55.46493299999998
 20
254.8763589999999
 30
0.0
 40
5.0
100
AcDbArc
 50
90.0
 51
180.0
  0
ARC
  5
AB7D
330
AAF7
100
AcDbEntity
  8
1
  6
Continuous
100
AcDbCircle
 10
54.369292
 20
226.0739979999999
 30
0.0
 40
14.554359
100
AcDbArc
 50
186.720322
 51
203.919633
  0
LINE
  5
AB7E
330
AAF7
100
AcDbEntity
  8
4
  6
CENTER
100
AcDbLine
 10
35.764933
 20
292.0763889999999
 30
0.0
 11
35.764933
 21
272.876389
 31
0.0
  0
LINE
  5
AB7F
330
AAF7
100
AcDbEntity
  8
1
  6
Continuous
100
AcDbLine
 10
26.26493299999999
 20
284.0763589999999
 30
0.0
 11
26.26493299999999
 21
280.8763589999999
 31
0.0
  0
ARC
  5
AB80
330
AAF7
100
AcDbEntity
  8
1
  6
Continuous
100
AcDbCircle
 10
38.23706899999999
 20
279.8763589999999
 30
0.0
 40
4.0
100
AcDbArc
 50
206.565051
 51
270.0
  0
LINE
  5
AB81
330
AAF7
100
AcDbEntity
  8
1
  6
Continuous
100
AcDbLine
 10
33.264933
 20
280.8763589999999
 30
0.0
 11
34.65936
 21
278.0875049999999
 31
0.0
  0
LINE
  5
AB82
330
AAF7
100
AcDbEntity
  8
1
  6
Continuous
100
AcDbLine
 10
41.26493299999999
 20
272.8763589999999
 30
0.0
 11
41.26493299999999
 21
269.8763589999999
 31
0.0
  0
ARC
  5
AB83
330
AAF7
100
AcDbEntity
  8
1
  6
Continuous
100
AcDbCircle
 10
44.26493299999999
 20
272.8763589999999
 30
0.0
 40
3.0
100
AcDbArc
 50
90.0
 51
180.0
  0
LINE
  5
AB84
330
AAF7
100
AcDbEntity
  8
4
  6
CENTER
100
AcDbLine
 10
71.26493299999999
 20
184.0763589999999
 30
0.0
 11
71.26493299999999
 21
292.0763889999999
 31
0.0
  0
LINE
  5
AB85
330
AAF7
100
AcDbEntity
  8
1
  6
Continuous
100
AcDbLine
 10
97.96493300000001
 20
214.076359
 30
0.0
 11
97.96493300000001
 21
235.076359
 31
0.0
  0
LINE
  5
AB86
330
AAF7
100
AcDbEntity
  8
1
  6
Continuous
100
AcDbLine
 10
94.964933
 20
253.8763589999998
 30
0.0
 11
94.964933
 21
209.0763589999999
 31
0.0
  0
LINE
  5
AB87
330
AAF7
100
AcDbEntity
  8
1
  6
Continuous
100
AcDbLine
 10
92.06493299999999
 20
254.8763589999999
 30
0.0
 11
92.06493299999999
 21
209.0763589999999
 31
0.0
  0
LINE
  5
AB88
330
AAF7
100
AcDbEntity
  8
1
  6
Continuous
100
AcDbLine
 10
94.964933
 20
214.076359
 30
0.0
 11
97.96493300000001
 21
214.076359
 31
0.0
  0
ARC
  5
AB89
330
AAF7
100
AcDbEntity
  8
1
  6
Continuous
100
AcDbCircle
 10
88.16057399999998
 20
226.0739979999999
 30
0.0
 40
14.554359
100
AcDbArc
 50
297.873012
 51
304.479071
  0
ARC
  5
AB8A
330
AAF7
100
AcDbEntity
  8
1
  6
Continuous
100
AcDbCircle
 10
88.96493300000001
 20
253.8763589999998
 30
0.0
 40
6.0
100
AcDbArc
 50
0.0
 51
90.0
  0
ARC
  5
AB8B
330
AAF7
100
AcDbEntity
  8
1
  6
Continuous
100
AcDbCircle
 10
87.06493299999998
 20
254.8763589999999
 30
0.0
 40
5.0
100
AcDbArc
 50
0.0
 51
90.0
  0
LINE
  5
AB8C
330
AAF7
100
AcDbEntity
  8
1
  6
Continuous
100
AcDbLine
 10
105.966933
 20
218.576359
 30
0.0
 11
106.7669329999999
 21
219.3763589999999
 31
0.0
  0
LINE
  5
AB8D
330
AAF7
100
AcDbEntity
  8
1
  6
Continuous
100
AcDbLine
 10
105.966933
 20
230.576359
 30
0.0
 11
106.7669329999999
 21
229.7763589999999
 31
0.0
  0
LINE
  5
AB8E
330
AAF7
100
AcDbEntity
  8
1
  6
Continuous
100
AcDbLine
 10
105.966933
 20
218.576359
 30
0.0
 11
105.966933
 21
230.576359
 31
0.0
  0
LINE
  5
AB8F
330
AAF7
100
AcDbEntity
  8
1
  6
Continuous
100
AcDbLine
 10
104.964933
 20
218.576359
 30
0.0
 11
105.966933
 21
218.576359
 31
0.0
  0
LINE
  5
AB90
330
AAF7
100
AcDbEntity
  8
1
  6
Continuous
100
AcDbLine
 10
94.964933
 20
235.076359
 30
0.0
 11
97.96493300000001
 21
235.076359
 31
0.0
  0
LINE
  5
AB91
330
AAF7
100
AcDbEntity
  8
1
  6
Continuous
100
AcDbLine
 10
104.964933
 20
230.576359
 30
0.0
 11
105.966933
 21
230.576359
 31
0.0
  0
LINE
  5
AB92
330
AAF7
100
AcDbEntity
  8
1
  6
Continuous
100
AcDbLine
 10
106.7669329999999
 20
219.3763589999999
 30
0.0
 11
106.7669329999999
 21
229.7763589999999
 31
0.0
  0
LINE
  5
AB93
330
AAF7
100
AcDbEntity
  8
4
  6
CENTER
100
AcDbLine
 10
106.764933
 20
292.0763889999999
 30
0.0
 11
106.764933
 21
272.876389
 31
0.0
  0
LINE
  5
AB94
330
AAF7
100
AcDbEntity
  8
1
  6
Continuous
100
AcDbLine
 10
116.264933
 20
284.0763589999999
 30
0.0
 11
116.264933
 21
280.8763589999999
 31
0.0
  0
ARC
  5
AB95
330
AAF7
100
AcDbEntity
  8
1
  6
Continuous
100
AcDbCircle
 10
104.292797
 20
279.8763589999999
 30
0.0
 40
4.0
100
AcDbArc
 50
270.0
 51
333.434949
  0
LINE
  5
AB96
330
AAF7
100
AcDbEntity
  8
1
  6
Continuous
100
AcDbLine
 10
101.2649329999999
 20
272.8763589999999
 30
0.0
 11
101.2649329999999
 21
269.8763589999999
 31
0.0
  0
ARC
  5
AB97
330
AAF7
100
AcDbEntity
  8
1
  6
Continuous
100
AcDbCircle
 10
98.26493300000002
 20
272.8763589999999
 30
0.0
 40
3.0
100
AcDbArc
 50
0.0
 51
90.0
  0
LINE
  5
AB98
330
AAF7
100
AcDbEntity
  8
1
  6
Continuous
100
AcDbLine
 10
109.264933
 20
280.8763589999999
 30
0.0
 11
107.870506
 21
278.0875049999999
 31
0.0
  0
ARC
  5
AB99
330
AAF7
100
AcDbEntity
  8
1
  6
Continuous
100
AcDbCircle
 10
367.612392
 20
225.564873
 30
0.0
 40
12.302341
100
AcDbArc
 50
151.377835
 51
239.567286
  0
ARC
  5
AB9A
330
AAF7
100
AcDbEntity
  8
1
  6
Continuous
100
AcDbCircle
 10
367.612392
 20
225.564873
 30
0.0
 40
15.202341
100
AcDbArc
 50
150.0914129999999
 51
236.269096
  0
LINE
  5
AB9B
330
AAF7
100
AcDbEntity
  8
1
  6
Continuous
100
AcDbLine
 10
362.9600509999999
 20
209.0763589999999
 30
0.0
 11
360.060051
 21
209.0763589999999
 31
0.0
  0
LINE
  5
AB9C
330
AAF7
100
AcDbEntity
  8
1
  6
Continuous
100
AcDbLine
 10
102.6149329999998
 20
266.8763589999999
 30
0.0
 11
102.6149329999998
 21
234.396014
 31
0.0
  0
ARC
  5
AB9D
330
AAF7
100
AcDbEntity
  8
1
  6
Continuous
100
AcDbCircle
 10
99.614933
 20
266.8763589999999
 30
0.0
 40
3.0
100
AcDbArc
 50
0.0
 51
90.0
  0
LINE
  5
AB9E
330
AAF7
100
AcDbEntity
  8
1
  6
Continuous
100
AcDbLine
 10
39.91493300000001
 20
266.8763589999999
 30
0.0
 11
39.91493300000001
 21
224.3708029999999
 31
0.0
  0
ARC
  5
AB9F
330
AAF7
100
AcDbEntity
  8
1
  6
Continuous
100
AcDbCircle
 10
42.91493299999999
 20
266.8763589999999
 30
0.0
 40
3.0
100
AcDbArc
 50
90.0
 51
180.0
  0
LINE
  5
ABA0
330
AAF7
100
AcDbEntity
  8
1
  6
Continuous
100
AcDbLine
 10
47.564933
 20
209.0763589999999
 30
0.0
 11
50.464933
 21
209.0763589999999
 31
0.0
  0
LINE
  5
ABA1
330
AAF7
100
AcDbEntity
  8
1
  6
Continuous
100
AcDbLine
 10
92.06493299999999
 20
209.0763589999999
 30
0.0
 11
94.964933
 21
209.0763589999999
 31
0.0
  0
LINE
  5
ABA2
330
AAF7
100
AcDbEntity
  8
4
  6
CENTER
100
AcDbLine
 10
232.5100509999999
 20
32.97089899999999
 30
0.0
 11
232.5100509999999
 21
138.970899
 31
0.0
  0
LINE
  5
ABA3
330
AAF7
100
AcDbEntity
  8
4
  6
CENTER
100
AcDbLine
 10
268.0100509999999
 20
129.720899
 30
0.0
 11
268.0100509999999
 21
113.220899
 31
0.0
  0
CIRCLE
  5
ABA4
330
AAF7
100
AcDbEntity
  8
1
  6
Continuous
100
AcDbCircle
 10
268.0100509999999
 20
121.470899
 30
0.0
 40
5.25
  0
LINE
  5
ABA5
330
AAF7
100
AcDbEntity
  8
1
  6
Continuous
100
AcDbLine
 10
277.5100509999999
 20
120.9708989999999
 30
0.0
 11
277.5100509999999
 21
50.970899
 31
0.0
  0
LINE
  5
ABA6
330
AAF7
100
AcDbEntity
  8
4
  6
CENTER
100
AcDbLine
 10
197.010051
 20
129.720899
 30
0.0
 11
197.010051
 21
113.220899
 31
0.0
  0
CIRCLE
  5
ABA7
330
AAF7
100
AcDbEntity
  8
1
  6
Continuous
100
AcDbCircle
 10
197.010051
 20
121.470899
 30
0.0
 40
5.25
  0
LINE
  5
ABA8
330
AAF7
100
AcDbEntity
  8
1
  6
Continuous
100
AcDbLine
 10
187.510051
 20
120.9708989999999
 30
0.0
 11
187.510051
 21
104.970899
 31
0.0
  0
ARC
  5
ABA9
330
AAF7
100
AcDbEntity
  8
1
  6
Continuous
100
AcDbCircle
 10
197.510051
 20
120.9708989999999
 30
0.0
 40
10.0
100
AcDbArc
 50
90.0
 51
180.0
  0
LINE
  5
ABAA
330
AAF7
100
AcDbEntity
  8
4
  6
CENTER
100
AcDbLine
 10
205.2600509999999
 20
121.470899
 30
0.0
 11
188.760051
 21
121.470899
 31
0.0
  0
LINE
  5
ABAB
330
AAF7
100
AcDbEntity
  8
1
  6
Continuous
100
AcDbLine
 10
267.5100509999999
 20
130.970899
 30
0.0
 11
197.510051
 21
130.970899
 31
0.0
  0
LINE
  5
ABAC
330
AAF7
100
AcDbEntity
  8
4
  6
CENTER
100
AcDbLine
 10
276.2600509999999
 20
121.470899
 30
0.0
 11
259.7600509999999
 21
121.470899
 31
0.0
  0
ARC
  5
ABAD
330
AAF7
100
AcDbEntity
  8
1
  6
Continuous
100
AcDbCircle
 10
267.5100509999999
 20
120.9708989999999
 30
0.0
 40
10.0
100
AcDbArc
 50
0.0
 51
90.0
  0
LINE
  5
ABAE
330
AAF7
100
AcDbEntity
  8
4
  6
CENTER
100
AcDbLine
 10
285.5100509999999
 20
85.970899
 30
0.0
 11
170.010538
 21
85.970899
 31
0.0
  0
CIRCLE
  5
ABAF
330
AAF7
100
AcDbEntity
  8
1
  6
Continuous
100
AcDbCircle
 10
197.010051
 20
50.47089899999999
 30
0.0
 40
5.25
  0
LINE
  5
ABB0
330
AAF7
100
AcDbEntity
  8
4
  6
CENTER
100
AcDbLine
 10
205.2600509999999
 20
50.47089899999999
 30
0.0
 11
188.760051
 21
50.47089899999999
 31
0.0
  0
ARC
  5
ABB1
330
AAF7
100
AcDbEntity
  8
1
  6
Continuous
100
AcDbCircle
 10
197.510051
 20
50.970899
 30
0.0
 40
10.0
100
AcDbArc
 50
180.0
 51
270.0
  0
LINE
  5
ABB2
330
AAF7
100
AcDbEntity
  8
1
  6
Continuous
100
AcDbLine
 10
267.5100509999999
 20
40.97089899999999
 30
0.0
 11
197.510051
 21
40.97089899999999
 31
0.0
  0
LINE
  5
ABB3
330
AAF7
100
AcDbEntity
  8
4
  6
CENTER
100
AcDbLine
 10
197.010051
 20
58.72089899999998
 30
0.0
 11
197.010051
 21
42.22089899999999
 31
0.0
  0
CIRCLE
  5
ABB4
330
AAF7
100
AcDbEntity
  8
1
  6
Continuous
100
AcDbCircle
 10
268.0100509999999
 20
50.47089899999999
 30
0.0
 40
5.25
  0
LINE
  5
ABB5
330
AAF7
100
AcDbEntity
  8
4
  6
CENTER
100
AcDbLine
 10
276.2600509999999
 20
50.47089899999999
 30
0.0
 11
259.7600509999999
 21
50.47089899999999
 31
0.0
  0
ARC
  5
ABB6
330
AAF7
100
AcDbEntity
  8
1
  6
Continuous
100
AcDbCircle
 10
267.5100509999999
 20
50.970899
 30
0.0
 40
10.0
100
AcDbArc
 50
270.0
 51
0.0
  0
LINE
  5
ABB7
330
AAF7
100
AcDbEntity
  8
4
  6
CENTER
100
AcDbLine
 10
268.0100509999999
 20
58.72089899999998
 30
0.0
 11
268.0100509999999
 21
42.22089899999999
 31
0.0
  0
LINE
  5
ABB8
330
AAF7
100
AcDbEntity
  8
4
  6
CENTER
100
AcDbLine
 10
597.5100509999997
 20
224.576389
 30
0.0
 11
516.510051
 21
224.576389
 31
0.0
  0
ARC
  5
ABB9
330
AAF7
100
AcDbEntity
  8
1
  6
Continuous
100
AcDbCircle
 10
562.8078669999998
 20
266.876389
 30
0.0
 40
3.0
100
AcDbArc
 50
348.037949
 51
90.0
  0
ARC
  5
ABBA
330
AAF7
100
AcDbEntity
  8
1
  6
Continuous
100
AcDbCircle
 10
562.0100509999998
 20
272.876389
 30
0.0
 40
3.0
100
AcDbArc
 50
0.0
 51
90.0
  0
LINE
  5
ABBB
330
AAF7
100
AcDbEntity
  8
1
  6
Continuous
100
AcDbLine
 10
565.7427219999997
 20
266.2545979999998
 30
0.0
 11
564.0100509999999
 21
259.876389
 31
0.0
  0
LINE
  5
ABBC
330
AAF7
100
AcDbEntity
  8
1
  6
Continuous
100
AcDbLine
 10
501.982187
 20
275.876389
 30
0.0
 11
568.037915
 21
275.876389
 31
0.0
  0
LINE
  5
ABBD
330
AAF7
100
AcDbEntity
  8
1
  6
Continuous
100
AcDbLine
 10
565.6726959999997
 20
237.4297379999999
 30
0.0
 11
557.557757
 21
242.898883
 31
0.0
  0
ARC
  5
ABBE
330
AAF7
100
AcDbEntity
  8
1
  6
Continuous
100
AcDbCircle
 10
557.0100509999998
 20
224.576389
 30
0.0
 40
15.5
100
AcDbArc
 50
258.431374
 51
56.021602
  0
LINE
  5
ABBF
330
AAF7
100
AcDbEntity
  8
1
  6
Continuous
100
AcDbLine
 10
580.010051
 20
284.076389
 30
0.0
 11
490.0100509999998
 21
284.076389
 31
0.0
  0
LINE
  5
ABC0
330
AAF7
100
AcDbEntity
  8
1
  6
Continuous
100
AcDbLine
 10
580.010051
 20
280.876389
 30
0.0
 11
490.0100509999998
 21
280.876389
 31
0.0
  0
LINE
  5
ABC1
330
AAF7
100
AcDbEntity
  8
4
  6
CENTER
100
AcDbLine
 10
570.510051
 20
292.0763889999999
 30
0.0
 11
570.510051
 21
272.876389
 31
0.0
  0
ARC
  5
ABC2
330
AAF7
100
AcDbEntity
  8
1
  6
Continuous
100
AcDbCircle
 10
568.037915
 20
279.876389
 30
0.0
 40
4.0
100
AcDbArc
 50
270.0
 51
333.434949
  0
LINE
  5
ABC3
330
AAF7
100
AcDbEntity
  8
1
  6
Continuous
100
AcDbLine
 10
573.0100509999997
 20
280.876389
 30
0.0
 11
571.615624
 21
278.087535
 31
0.0
  0
LINE
  5
ABC4
330
AAF7
100
AcDbEntity
  8
1
  6
Continuous
100
AcDbLine
 10
580.010051
 20
284.076389
 30
0.0
 11
580.010051
 21
280.876389
 31
0.0
  0
ARC
  5
ABC5
330
AAF7
100
AcDbEntity
  8
1
  6
Continuous
100
AcDbCircle
 10
567.3885269999998
 20
271.913143
 30
0.0
 40
63.95998999999999
100
AcDbArc
 50
194.88307
 51
257.827002
  0
LINE
  5
ABC6
330
AAF7
100
AcDbEntity
  8
4
  6
CENTER
100
AcDbLine
 10
557.0100509999998
 20
261.4594069999998
 30
0.0
 11
557.0100509999998
 21
184.0763889999998
 31
0.0
  0
ARC
  5
ABC7
330
AAF7
100
AcDbEntity
  8
1
  6
Continuous
100
AcDbCircle
 10
563.1465599999997
 20
251.1913669999999
 30
0.0
 40
10.0
100
AcDbArc
 50
165.9637569999999
 51
236.021602
  0
LINE
  5
ABC8
330
AAF7
100
AcDbEntity
  8
1
  6
Continuous
100
AcDbLine
 10
552.6787019999998
 20
254.395094
 30
0.0
 11
542.522643
 21
216.7006439999999
 31
0.0
  0
LINE
  5
ABC9
330
AAF7
100
AcDbEntity
  8
1
  6
Continuous
100
AcDbLine
 10
505.010051
 20
269.876389
 30
0.0
 11
565.0100509999997
 21
269.876389
 31
0.0
  0
LINE
  5
ABCA
330
AAF7
100
AcDbEntity
  8
4
  6
CENTER
100
AcDbLine
 10
535.0100509999998
 20
292.0763889999999
 30
0.0
 11
535.0100509999998
 21
253.321312
 31
0.0
  0
LINE
  5
ABCB
330
AAF7
100
AcDbEntity
  8
1
  6
Continuous
100
AcDbLine
 10
564.0100509999999
 20
259.876389
 30
0.0
 11
558.1331569999998
 21
259.876389
 31
0.0
  0
LINE
  5
ABCC
330
AAF7
100
AcDbEntity
  8
1
  6
Continuous
100
AcDbLine
 10
565.0100509999997
 20
272.876389
 30
0.0
 11
565.0100509999997
 21
269.876389
 31
0.0
  0
LINE
  5
ABCD
330
AAF7
100
AcDbEntity
  8
1
  6
Continuous
100
AcDbLine
 10
554.2525869999998
 20
256.846531
 30
0.0
 11
553.4451349999999
 21
253.616723
 31
0.0
  0
ARC
  5
ABCE
330
AAF7
100
AcDbEntity
  8
1
  6
Continuous
100
AcDbCircle
 10
558.1331569999998
 20
255.8763889999999
 30
0.0
 40
4.0
100
AcDbArc
 50
90.0
 51
165.9637569999999
  0
LINE
  5
ABCF
330
AAF7
100
AcDbEntity
  8
4
  6
CENTER
100
AcDbLine
 10
499.5100509999998
 20
292.0763889999999
 30
0.0
 11
499.5100509999998
 21
272.876389
 31
0.0
  0
ARC
  5
ABD0
330
AAF7
100
AcDbEntity
  8
1
  6
Continuous
100
AcDbCircle
 10
501.982187
 20
279.876389
 30
0.0
 40
4.0
100
AcDbArc
 50
206.565051
 51
270.0
  0
ARC
  5
ABD1
330
AAF7
100
AcDbEntity
  8
1
  6
Continuous
100
AcDbCircle
 10
508.010051
 20
272.876389
 30
0.0
 40
3.0
100
AcDbArc
 50
90.0
 51
180.0
  0
LINE
  5
ABD2
330
AAF7
100
AcDbEntity
  8
1
  6
Continuous
100
AcDbLine
 10
505.010051
 20
272.876389
 30
0.0
 11
505.010051
 21
269.876389
 31
0.0
  0
LINE
  5
ABD3
330
AAF7
100
AcDbEntity
  8
1
  6
Continuous
100
AcDbLine
 10
497.0100509999999
 20
280.876389
 30
0.0
 11
498.4044779999998
 21
278.087535
 31
0.0
  0
LINE
  5
ABD4
330
AAF7
100
AcDbEntity
  8
1
  6
Continuous
100
AcDbLine
 10
490.0100509999998
 20
284.076389
 30
0.0
 11
490.0100509999998
 21
280.876389
 31
0.0
  0
LINE
  5
ABD5
330
AAF7
100
AcDbEntity
  8
2
  6
Continuous
100
AcDbLine
 10
104.964933
 20
229.6293589999999
 30
0.0
 11
106.7669329999999
 21
229.6293589999999
 31
0.0
  0
LINE
  5
ABD6
330
AAF7
100
AcDbEntity
  8
2
  6
Continuous
100
AcDbLine
 10
104.964933
 20
219.5233589999999
 30
0.0
 11
106.7669329999999
 21
219.5233589999999
 31
0.0
  0
LINE
  5
ABD7
330
AAF7
100
AcDbEntity
  8
1
  6
Continuous
100
AcDbLine
 10
97.96493300000001
 20
233.076359
 30
0.0
 11
97.96493300000001
 21
216.076359
 31
0.0
  0
ARC
  5
ABD8
330
AAF7
100
AcDbEntity
  8
1
  6
Continuous
100
AcDbCircle
 10
45.409832
 20
231.937575
 30
0.0
 40
4.344898999999998
100
AcDbArc
 50
154.3842469999999
 51
214.384247
  0
LINE
  5
ABD9
330
AAF7
100
AcDbEntity
  8
1
  6
Continuous
100
AcDbLine
 10
41.064933
 20
233.076359
 30
0.0
 11
41.064933
 21
216.076359
 31
0.0
  0
ARC
  5
ABDA
330
AAF7
100
AcDbEntity
  8
1
  6
Continuous
100
AcDbCircle
 10
45.409832
 20
217.2151429999999
 30
0.0
 40
4.344898999999998
100
AcDbArc
 50
145.615753
 51
205.615753
  0
LINE
  5
ABDB
330
AAF7
100
AcDbEntity
  8
1
  6
Continuous
100
AcDbLine
 10
41.824123
 20
214.761404
 30
0.0
 11
47.564933
 21
214.761404
 31
0.0
  0
LINE
  5
ABDC
330
AAF7
100
AcDbEntity
  8
1
  6
Continuous
100
AcDbLine
 10
41.824123
 20
214.761404
 30
0.0
 11
41.064933
 21
216.076359
 31
0.0
  0
LINE
  5
ABDD
330
AAF7
100
AcDbEntity
  8
1
  6
Continuous
100
AcDbLine
 10
41.824123
 20
229.4838359999999
 30
0.0
 11
47.564933
 21
229.4838359999999
 31
0.0
  0
LINE
  5
ABDE
330
AAF7
100
AcDbEntity
  8
1
  6
Continuous
100
AcDbLine
 10
41.824123
 20
219.6688809999999
 30
0.0
 11
47.564933
 21
219.6688809999999
 31
0.0
  0
ARC
  5
ABDF
330
AAF7
100
AcDbEntity
  8
1
  6
Continuous
100
AcDbCircle
 10
57.305744
 20
224.576359
 30
0.0
 40
16.24081099999999
100
AcDbArc
 50
162.412046
 51
197.5879539999999
  0
LINE
  5
ABE0
330
AAF7
100
AcDbEntity
  8
1
  6
Continuous
100
AcDbLine
 10
41.824123
 20
234.391313
 30
0.0
 11
47.564933
 21
234.391313
 31
0.0
  0
LINE
  5
ABE1
330
AAF7
100
AcDbEntity
  8
1
  6
Continuous
100
AcDbLine
 10
41.824123
 20
234.391313
 30
0.0
 11
41.064933
 21
233.076359
 31
0.0
  0
LINE
  5
ABE2
330
AAF7
100
AcDbEntity
  8
1
  6
Continuous
100
AcDbLine
 10
195.010051
 20
65.17089900000001
 30
0.0
 11
220.340712
 21
65.17089900000001
 31
0.0
  0
LINE
  5
ABE3
330
AAF7
100
AcDbEntity
  8
1
  6
Continuous
100
AcDbLine
 10
195.010051
 20
62.270899
 30
0.0
 11
220.97656
 21
62.270899
 31
0.0
  0
LINE
  5
ABE4
330
AAF7
100
AcDbEntity
  8
1
  6
Continuous
100
AcDbLine
 10
200.010051
 20
112.670899
 30
0.0
 11
221.0100509999998
 21
112.670899
 31
0.0
  0
LINE
  5
ABE5
330
AAF7
100
AcDbEntity
  8
1
  6
Continuous
100
AcDbLine
 10
215.7100509999999
 20
121.472899
 30
0.0
 11
205.3100509999999
 21
121.472899
 31
0.0
  0
LINE
  5
ABE6
330
AAF7
100
AcDbEntity
  8
1
  6
Continuous
100
AcDbLine
 10
216.5100509999998
 20
120.672899
 30
0.0
 11
204.510051
 21
120.672899
 31
0.0
  0
LINE
  5
ABE7
330
AAF7
100
AcDbEntity
  8
1
  6
Continuous
100
AcDbLine
 10
195.010051
 20
106.770899
 30
0.0
 11
220.340712
 21
106.770899
 31
0.0
  0
LINE
  5
ABE8
330
AAF7
100
AcDbEntity
  8
1
  6
Continuous
100
AcDbLine
 10
195.010051
 20
109.6708989999999
 30
0.0
 11
220.97656
 21
109.6708989999999
 31
0.0
  0
LINE
  5
ABE9
330
AAF7
100
AcDbEntity
  8
1
  6
Continuous
100
AcDbLine
 10
221.0100509999998
 20
109.6708989999999
 30
0.0
 11
221.0100509999998
 21
112.670899
 31
0.0
  0
LINE
  5
ABEA
330
AAF7
100
AcDbEntity
  8
1
  6
Continuous
100
AcDbLine
 10
216.5100509999998
 20
119.670899
 30
0.0
 11
216.5100509999998
 21
120.672899
 31
0.0
  0
LINE
  5
ABEB
330
AAF7
100
AcDbEntity
  8
2
  6
Continuous
100
AcDbLine
 10
215.5630509999999
 20
119.670899
 30
0.0
 11
215.5630509999999
 21
121.472899
 31
0.0
  0
LINE
  5
ABEC
330
AAF7
100
AcDbEntity
  8
1
  6
Continuous
100
AcDbLine
 10
216.5100509999998
 20
120.672899
 30
0.0
 11
215.7100509999999
 21
121.472899
 31
0.0
  0
LINE
  5
ABED
330
AAF7
100
AcDbEntity
  8
1
  6
Continuous
100
AcDbLine
 10
200.010051
 20
109.6708989999999
 30
0.0
 11
200.010051
 21
112.670899
 31
0.0
  0
LINE
  5
ABEE
330
AAF7
100
AcDbEntity
  8
1
  6
Continuous
100
AcDbLine
 10
204.510051
 20
119.670899
 30
0.0
 11
204.510051
 21
120.672899
 31
0.0
  0
LINE
  5
ABEF
330
AAF7
100
AcDbEntity
  8
2
  6
Continuous
100
AcDbLine
 10
205.457051
 20
119.670899
 30
0.0
 11
205.457051
 21
121.472899
 31
0.0
  0
LINE
  5
ABF0
330
AAF7
100
AcDbEntity
  8
1
  6
Continuous
100
AcDbLine
 10
204.510051
 20
120.672899
 30
0.0
 11
205.3100509999999
 21
121.472899
 31
0.0
  0
LINE
  5
ABF1
330
AAF7
100
AcDbEntity
  8
4
  6
CENTER
100
AcDbLine
 10
210.5100509999998
 20
138.970899
 30
0.0
 11
210.5100509999998
 21
32.97089899999999
 31
0.0
  0
LINE
  5
ABF2
330
AAF7
100
AcDbEntity
  8
1
  6
Continuous
100
AcDbLine
 10
187.510051
 20
66.970899
 30
0.0
 11
187.510051
 21
50.970899
 31
0.0
  0
ARC
  5
ABF3
330
AAF7
100
AcDbEntity
  8
1
  6
Continuous
100
AcDbCircle
 10
206.260051
 20
68.046406
 30
0.0
 40
12.275507
100
AcDbArc
 50
249.7438419999999
 51
290.256158
  0
LINE
  5
ABF4
330
AAF7
100
AcDbEntity
  8
1
  6
Continuous
100
AcDbLine
 10
202.010051
 20
55.770899
 30
0.0
 11
219.0100509999998
 21
55.770899
 31
0.0
  0
ARC
  5
ABF5
330
AAF7
100
AcDbEntity
  8
1
  6
Continuous
100
AcDbCircle
 10
214.7600509999998
 20
68.046406
 30
0.0
 40
12.275507
100
AcDbArc
 50
249.7438419999999
 51
290.256158
  0
LINE
  5
ABF6
330
AAF7
100
AcDbEntity
  8
1
  6
Continuous
100
AcDbLine
 10
219.0100509999998
 20
55.770899
 30
0.0
 11
219.0100509999998
 21
62.270899
 31
0.0
  0
LINE
  5
ABF7
330
AAF7
100
AcDbEntity
  8
1
  6
Continuous
100
AcDbLine
 10
210.5100509999998
 20
62.270899
 30
0.0
 11
210.5100509999998
 21
56.530088
 31
0.0
  0
LINE
  5
ABF8
330
AAF7
100
AcDbEntity
  8
1
  6
Continuous
100
AcDbLine
 10
202.010051
 20
55.770899
 30
0.0
 11
202.010051
 21
62.270899
 31
0.0
  0
ARC
  5
ABF9
330
AAF7
100
AcDbEntity
  8
1
  6
Continuous
100
AcDbCircle
 10
214.7600509999998
 20
124.946406
 30
0.0
 40
12.275507
100
AcDbArc
 50
249.7438419999999
 51
290.256158
  0
ARC
  5
ABFA
330
AAF7
100
AcDbEntity
  8
1
  6
Continuous
100
AcDbCircle
 10
214.7600509999998
 20
107.3953919999999
 30
0.0
 40
12.275507
100
AcDbArc
 50
69.743842
 51
110.256158
  0
LINE
  5
ABFB
330
AAF7
100
AcDbEntity
  8
1
  6
Continuous
100
AcDbLine
 10
219.0100509999998
 20
119.670899
 30
0.0
 11
202.010051
 21
119.670899
 31
0.0
  0
ARC
  5
ABFC
330
AAF7
100
AcDbEntity
  8
1
  6
Continuous
100
AcDbCircle
 10
206.260051
 20
124.946406
 30
0.0
 40
12.275507
100
AcDbArc
 50
249.7438419999999
 51
290.256158
  0
ARC
  5
ABFD
330
AAF7
100
AcDbEntity
  8
1
  6
Continuous
100
AcDbCircle
 10
206.260051
 20
107.3953919999999
 30
0.0
 40
12.275507
100
AcDbArc
 50
69.743842
 51
110.256158
  0
LINE
  5
ABFE
330
AAF7
100
AcDbEntity
  8
1
  6
Continuous
100
AcDbLine
 10
202.010051
 20
119.670899
 30
0.0
 11
202.010051
 21
112.670899
 31
0.0
  0
LINE
  5
ABFF
330
AAF7
100
AcDbEntity
  8
1
  6
Continuous
100
AcDbLine
 10
210.5100509999998
 20
113.4300879999998
 30
0.0
 11
210.5100509999998
 21
118.91171
 31
0.0
  0
LINE
  5
AC00
330
AAF7
100
AcDbEntity
  8
1
  6
Continuous
100
AcDbLine
 10
219.0100509999998
 20
119.670899
 30
0.0
 11
219.0100509999998
 21
112.670899
 31
0.0
  0
ARC
  5
AC01
330
AAF7
100
AcDbEntity
  8
1
  6
Continuous
100
AcDbCircle
 10
232.5100509999999
 20
85.970899
 30
0.0
 40
22.65
100
AcDbArc
 50
246.0334079999999
 51
113.9665919999999
  0
ARC
  5
AC02
330
AAF7
100
AcDbEntity
  8
1
  6
Continuous
100
AcDbCircle
 10
232.5100509999999
 20
85.970899
 30
0.0
 40
14.65
100
AcDbArc
 50
314.260815
 51
45.739185
  0
ARC
  5
AC03
330
AAF7
100
AcDbEntity
  8
1
  6
Continuous
100
AcDbCircle
 10
232.5100509999999
 20
85.970899
 30
0.0
 40
26.25
100
AcDbArc
 50
274.8105849999999
 51
85.18941499999998
  0
LINE
  5
AC04
330
AAF7
100
AcDbEntity
  8
1
  6
Continuous
100
AcDbLine
 10
195.010051
 20
109.6708989999999
 30
0.0
 11
195.010051
 21
106.770899
 31
0.0
  0
LINE
  5
AC05
330
AAF7
100
AcDbEntity
  8
1
  6
Continuous
100
AcDbLine
 10
195.010051
 20
65.17089900000001
 30
0.0
 11
195.010051
 21
62.270899
 31
0.0
  0
ARC
  5
AC06
330
AAF7
100
AcDbEntity
  8
1
  6
Continuous
100
AcDbCircle
 10
232.5100509999999
 20
85.970899
 30
0.0
 40
38.0
100
AcDbArc
 50
232.6304069999999
 51
114.901062
  0
ARC
  5
AC07
330
AAF7
100
AcDbEntity
  8
1
  6
Continuous
100
AcDbCircle
 10
240.2563769999999
 20
94.95670799999999
 30
0.0
 40
20.94479199999998
100
AcDbArc
 50
92.85013799999999
 51
125.8182429999999
  0
LINE
  5
AC08
330
AAF7
100
AcDbEntity
  8
1
  6
Continuous
100
AcDbLine
 10
362.9600509999999
 20
209.0763589999999
 30
0.0
 11
362.9600509999999
 21
241.637795
 31
0.0
  0
LINE
  5
AC09
330
AAF7
100
AcDbEntity
  8
1
  6
Continuous
100
AcDbLine
 10
404.5600509999998
 20
209.0763589999999
 30
0.0
 11
404.5600509999998
 21
241.637795
 31
0.0
  0
LINE
  5
AC0A
330
AAF7
100
AcDbEntity
  8
1
  6
Continuous
100
AcDbLine
 10
407.4600509999998
 20
209.0763589999999
 30
0.0
 11
407.4600509999998
 21
211.258465
 31
0.0
  0
ARC
  5
AC0B
330
AAF7
100
AcDbEntity
  8
1
  6
Continuous
100
AcDbCircle
 10
409.4600509999998
 20
211.258465
 30
0.0
 40
2.0
100
AcDbArc
 50
123.7309039999999
 51
180.0
  0
ARC
  5
AC0C
330
AAF7
100
AcDbEntity
  8
1
  6
Continuous
100
AcDbCircle
 10
407.7600509999999
 20
212.198373
 30
0.0
 40
3.2
100
AcDbArc
 50
120.4327139999999
 51
180.0
  0
LINE
  5
AC0D
330
AAF7
100
AcDbEntity
  8
1
  6
Continuous
100
AcDbLine
 10
360.060051
 20
209.0763589999999
 30
0.0
 11
360.060051
 21
211.258465
 31
0.0
  0
ARC
  5
AC0E
330
AAF7
100
AcDbEntity
  8
1
  6
Continuous
100
AcDbCircle
 10
358.060051
 20
211.258465
 30
0.0
 40
2.0
100
AcDbArc
 50
0.0
 51
56.26909600000001
  0
ARC
  5
AC0F
330
AAF7
100
AcDbEntity
  8
1
  6
Continuous
100
AcDbCircle
 10
359.7600509999999
 20
212.198373
 30
0.0
 40
3.2
100
AcDbArc
 50
0.0
 51
59.56728599999999
  0
ARC
  5
AC10
330
AAF7
100
AcDbEntity
  8
1
  6
Continuous
100
AcDbCircle
 10
399.90771
 20
225.564873
 30
0.0
 40
12.302341
100
AcDbArc
 50
300.432714
 51
28.622165
  0
ARC
  5
AC11
330
AAF7
100
AcDbEntity
  8
1
  6
Continuous
100
AcDbCircle
 10
399.90771
 20
225.564873
 30
0.0
 40
15.202341
100
AcDbArc
 50
303.730904
 51
29.908587
  0
ARC
  5
AC12
330
AAF7
100
AcDbEntity
  8
1
  6
Continuous
100
AcDbCircle
 10
327.8166979999999
 20
183.32863
 30
0.0
 40
98.75439700000001
100
AcDbArc
 50
30.294676
 51
45.390024
  0
ARC
  5
AC13
330
AAF7
100
AcDbEntity
  8
1
  6
Continuous
100
AcDbCircle
 10
269.5865359999999
 20
153.193911
 30
0.0
 40
161.36967
100
AcDbArc
 50
29.011738
 51
38.20373499999997
  0
ARC
  5
AC14
330
AAF7
100
AcDbEntity
  8
1
  6
Continuous
100
AcDbCircle
 10
54.369292
 20
226.0739979999999
 30
0.0
 40
14.554359
100
AcDbArc
 50
231.010837
 51
242.126988
  0
ARC
  5
AC15
330
AAF7
100
AcDbEntity
  8
1
  6
Continuous
100
AcDbCircle
 10
506.443051
 20
267.093389
 30
0.0
 40
2.782999999999998
100
AcDbArc
 50
90.0
 51
180.0
  0
LINE
  5
AC16
330
AAF7
100
AcDbEntity
  8
1
  6
Continuous
100
AcDbLine
 10
504.0704179999998
 20
259.1763889999999
 30
0.0
 11
503.6600509999998
 21
267.093389
 31
0.0
  0
ARC
  5
AC17
330
AAF7
100
AcDbEntity
  8
1
  6
Continuous
100
AcDbCircle
 10
232.5100509999999
 20
85.970899
 30
0.0
 40
31.35
100
AcDbArc
 50
244.492959
 51
115.5070409999998
  0
ARC
  5
AC18
330
AAF7
100
AcDbEntity
  8
1
  6
Continuous
100
AcDbCircle
 10
232.5100509999999
 20
85.970899
 30
0.0
 40
28.45
100
AcDbArc
 50
292.1691009999999
 51
67.83089900000002
  0
ARC
  5
AC19
330
AAF7
100
AcDbEntity
  8
1
  6
Continuous
100
AcDbCircle
 10
220.97656
 20
121.670899
 30
0.0
 40
12.0
100
AcDbArc
 50
270.0
 51
305.818243
  0
ARC
  5
AC1A
330
AAF7
100
AcDbEntity
  8
1
  6
Continuous
100
AcDbCircle
 10
239.811608
 20
103.8904349999999
 30
0.0
 40
12.0
100
AcDbArc
 50
67.83089900000002
 51
92.85013799999999
  0
ARC
  5
AC1B
330
AAF7
100
AcDbEntity
  8
1
  6
Continuous
100
AcDbCircle
 10
240.2563769999999
 20
94.95670799999999
 30
0.0
 40
18.044792
100
AcDbArc
 50
92.85013799999999
 51
124.7445059999999
  0
ARC
  5
AC1C
330
AAF7
100
AcDbEntity
  8
1
  6
Continuous
100
AcDbCircle
 10
220.340712
 20
123.670899
 30
0.0
 40
16.89999999999999
100
AcDbArc
 50
270.0
 51
304.744506
  0
ARC
  5
AC1D
330
AAF7
100
AcDbEntity
  8
1
  6
Continuous
100
AcDbCircle
 10
239.811608
 20
103.8904349999999
 30
0.0
 40
9.099999999999999
100
AcDbArc
 50
67.83089900000002
 51
92.85013799999999
  0
ARC
  5
AC1E
330
AAF7
100
AcDbEntity
  8
1
  6
Continuous
100
AcDbCircle
 10
220.97656
 20
50.270899
 30
0.0
 40
12.0
100
AcDbArc
 50
54.18175699999999
 51
90.0
  0
ARC
  5
AC1F
330
AAF7
100
AcDbEntity
  8
1
  6
Continuous
100
AcDbCircle
 10
240.2563769999999
 20
76.98509099999998
 30
0.0
 40
20.94479199999998
100
AcDbArc
 50
234.1817569999999
 51
267.1498619999999
  0
ARC
  5
AC20
330
AAF7
100
AcDbEntity
  8
1
  6
Continuous
100
AcDbCircle
 10
239.811608
 20
68.051363
 30
0.0
 40
12.0
100
AcDbArc
 50
267.1498619999999
 51
292.1691009999999
  0
ARC
  5
AC21
330
AAF7
100
AcDbEntity
  8
1
  6
Continuous
100
AcDbCircle
 10
239.811608
 20
68.051363
 30
0.0
 40
9.099999999999999
100
AcDbArc
 50
267.1498619999999
 51
292.1691009999999
  0
ARC
  5
AC22
330
AAF7
100
AcDbEntity
  8
1
  6
Continuous
100
AcDbCircle
 10
240.2563769999999
 20
76.98509099999998
 30
0.0
 40
18.044792
100
AcDbArc
 50
235.255494
 51
267.1498619999999
  0
ARC
  5
AC23
330
AAF7
100
AcDbEntity
  8
1
  6
Continuous
100
AcDbCircle
 10
220.340712
 20
48.270899
 30
0.0
 40
16.89999999999999
100
AcDbArc
 50
55.25549399999999
 51
90.0
  0
ARC
  5
AC24
330
AAF7
100
AcDbEntity
  8
1
  6
Continuous
100
AcDbCircle
 10
114.205744
 20
224.576359
 30
0.0
 40
16.24081099999999
100
AcDbArc
 50
162.412046
 51
197.5879539999999
  0
ARC
  5
AC25
330
AAF7
100
AcDbEntity
  8
1
  6
Continuous
100
AcDbCircle
 10
88.72412299999997
 20
224.576359
 30
0.0
 40
16.24081099999999
100
AcDbArc
 50
342.4120459999999
 51
17.587954
  0
LINE
  5
AC26
330
AAF7
100
AcDbEntity
  8
1
  6
Continuous
100
AcDbLine
 10
104.964933
 20
216.076359
 30
0.0
 11
104.964933
 21
233.076359
 31
0.0
  0
LINE
  5
AC27
330
AAF7
100
AcDbEntity
  8
1
  6
Continuous
100
AcDbLine
 10
98.724123
 20
219.6688809999999
 30
0.0
 11
104.205744
 21
219.6688809999999
 31
0.0
  0
LINE
  5
AC28
330
AAF7
100
AcDbEntity
  8
1
  6
Continuous
100
AcDbLine
 10
104.205744
 20
214.761404
 30
0.0
 11
104.964933
 21
216.076359
 31
0.0
  0
LINE
  5
AC29
330
AAF7
100
AcDbEntity
  8
1
  6
Continuous
100
AcDbLine
 10
98.724123
 20
214.761404
 30
0.0
 11
97.96493300000001
 21
216.076359
 31
0.0
  0
LINE
  5
AC2A
330
AAF7
100
AcDbEntity
  8
1
  6
Continuous
100
AcDbLine
 10
98.724123
 20
214.761404
 30
0.0
 11
104.205744
 21
214.761404
 31
0.0
  0
ARC
  5
AC2B
330
AAF7
100
AcDbEntity
  8
1
  6
Continuous
100
AcDbCircle
 10
102.309832
 20
217.2151429999999
 30
0.0
 40
4.344898999999998
100
AcDbArc
 50
145.615753
 51
205.615753
  0
ARC
  5
AC2C
330
AAF7
100
AcDbEntity
  8
1
  6
Continuous
100
AcDbCircle
 10
100.620035
 20
217.2151429999999
 30
0.0
 40
4.344898999999998
100
AcDbArc
 50
334.384247
 51
34.38424699999998
  0
LINE
  5
AC2D
330
AAF7
100
AcDbEntity
  8
1
  6
Continuous
100
AcDbLine
 10
104.205744
 20
234.391313
 30
0.0
 11
104.964933
 21
233.076359
 31
0.0
  0
LINE
  5
AC2E
330
AAF7
100
AcDbEntity
  8
1
  6
Continuous
100
AcDbLine
 10
98.724123
 20
234.391313
 30
0.0
 11
97.96493300000001
 21
233.076359
 31
0.0
  0
LINE
  5
AC2F
330
AAF7
100
AcDbEntity
  8
1
  6
Continuous
100
AcDbLine
 10
98.724123
 20
234.391313
 30
0.0
 11
104.205744
 21
234.391313
 31
0.0
  0
LINE
  5
AC30
330
AAF7
100
AcDbEntity
  8
1
  6
Continuous
100
AcDbLine
 10
98.724123
 20
229.4838359999999
 30
0.0
 11
104.205744
 21
229.4838359999999
 31
0.0
  0
ARC
  5
AC31
330
AAF7
100
AcDbEntity
  8
1
  6
Continuous
100
AcDbCircle
 10
102.309832
 20
231.937575
 30
0.0
 40
4.344898999999998
100
AcDbArc
 50
154.3842469999999
 51
214.384247
  0
ARC
  5
AC32
330
AAF7
100
AcDbEntity
  8
1
  6
Continuous
100
AcDbCircle
 10
100.620035
 20
231.937575
 30
0.0
 40
4.344898999999998
100
AcDbArc
 50
325.6157529999999
 51
25.615753
  0
LINE
  5
AC33
330
AAF7
100
AcDbEntity
  8
1
  6
Continuous
100
AcDbLine
 10
350.0600509999999
 20
216.076389
 30
0.0
 11
350.0600509999999
 21
233.076389
 31
0.0
  0
ARC
  5
AC34
330
AAF7
100
AcDbEntity
  8
1
  6
Continuous
100
AcDbCircle
 10
366.3008619999998
 20
224.576389
 30
0.0
 40
16.24081099999999
100
AcDbArc
 50
162.412046
 51
197.5879539999999
  0
LINE
  5
AC35
330
AAF7
100
AcDbEntity
  8
1
  6
Continuous
100
AcDbLine
 10
348.2580509999999
 20
219.376389
 30
0.0
 11
348.2580509999999
 21
229.776389
 31
0.0
  0
LINE
  5
AC36
330
AAF7
100
AcDbEntity
  8
1
  6
Continuous
100
AcDbLine
 10
349.058051
 20
218.576389
 30
0.0
 11
349.058051
 21
230.576389
 31
0.0
  0
LINE
  5
AC37
330
AAF7
100
AcDbEntity
  8
1
  6
Continuous
100
AcDbLine
 10
357.0600509999999
 20
214.076389
 30
0.0
 11
357.0600509999999
 21
214.621415
 31
0.0
  0
LINE
  5
AC38
330
AAF7
100
AcDbEntity
  8
1
  6
Continuous
100
AcDbLine
 10
357.656193
 20
214.076389
 30
0.0
 11
357.0600509999999
 21
214.076389
 31
0.0
  0
LINE
  5
AC39
330
AAF7
100
AcDbEntity
  8
1
  6
Continuous
100
AcDbLine
 10
350.0600509999999
 20
218.576389
 30
0.0
 11
349.058051
 21
218.576389
 31
0.0
  0
LINE
  5
AC3A
330
AAF7
100
AcDbEntity
  8
2
  6
Continuous
100
AcDbLine
 10
350.0600509999999
 20
219.523389
 30
0.0
 11
348.2580509999999
 21
219.523389
 31
0.0
  0
ARC
  5
AC3B
330
AAF7
100
AcDbEntity
  8
1
  6
Continuous
100
AcDbCircle
 10
354.4049499999999
 20
217.2151729999999
 30
0.0
 40
4.344898999999998
100
AcDbArc
 50
145.615753
 51
205.615753
  0
LINE
  5
AC3C
330
AAF7
100
AcDbEntity
  8
1
  6
Continuous
100
AcDbLine
 10
356.300862
 20
214.761435
 30
0.0
 11
350.8192409999999
 21
214.761435
 31
0.0
  0
LINE
  5
AC3D
330
AAF7
100
AcDbEntity
  8
1
  6
Continuous
100
AcDbLine
 10
356.300862
 20
214.761435
 30
0.0
 11
356.530081
 21
215.1584539999999
 31
0.0
  0
LINE
  5
AC3E
330
AAF7
100
AcDbEntity
  8
1
  6
Continuous
100
AcDbLine
 10
350.8192409999999
 20
214.761435
 30
0.0
 11
350.0600509999999
 21
216.076389
 31
0.0
  0
LINE
  5
AC3F
330
AAF7
100
AcDbEntity
  8
1
  6
Continuous
100
AcDbLine
 10
353.59994
 20
219.668912
 30
0.0
 11
350.8192409999999
 21
219.668912
 31
0.0
  0
LINE
  5
AC40
330
AAF7
100
AcDbEntity
  8
1
  6
Continuous
100
AcDbLine
 10
349.058051
 20
218.576389
 30
0.0
 11
348.2580509999999
 21
219.376389
 31
0.0
  0
LINE
  5
AC41
330
AAF7
100
AcDbEntity
  8
2
  6
Continuous
100
AcDbLine
 10
350.0600509999999
 20
229.629389
 30
0.0
 11
348.2580509999999
 21
229.629389
 31
0.0
  0
LINE
  5
AC42
330
AAF7
100
AcDbEntity
  8
1
  6
Continuous
100
AcDbLine
 10
350.0600509999999
 20
230.576389
 30
0.0
 11
349.058051
 21
230.576389
 31
0.0
  0
ARC
  5
AC43
330
AAF7
100
AcDbEntity
  8
1
  6
Continuous
100
AcDbCircle
 10
354.4049499999999
 20
231.9376049999999
 30
0.0
 40
4.344898999999998
100
AcDbArc
 50
154.3842469999999
 51
214.384247
  0
LINE
  5
AC44
330
AAF7
100
AcDbEntity
  8
1
  6
Continuous
100
AcDbLine
 10
352.4100509999998
 20
229.4838659999999
 30
0.0
 11
350.8192409999999
 21
229.4838659999999
 31
0.0
  0
LINE
  5
AC45
330
AAF7
100
AcDbEntity
  8
1
  6
Continuous
100
AcDbLine
 10
352.4100509999998
 20
234.391344
 30
0.0
 11
350.8192409999999
 21
234.391344
 31
0.0
  0
LINE
  5
AC46
330
AAF7
100
AcDbEntity
  8
1
  6
Continuous
100
AcDbLine
 10
350.8192409999999
 20
234.391344
 30
0.0
 11
350.0600509999999
 21
233.076389
 31
0.0
  0
LINE
  5
AC47
330
AAF7
100
AcDbEntity
  8
1
  6
Continuous
100
AcDbLine
 10
349.058051
 20
230.576389
 30
0.0
 11
348.2580509999999
 21
229.776389
 31
0.0
  0
LINE
  5
AC48
330
AAF7
100
AcDbEntity
  8
1
  6
Continuous
100
AcDbLine
 10
210.5100509999998
 20
234.391344
 30
0.0
 11
219.0100509999998
 21
229.4838659999999
 31
0.0
  0
CIRCLE
  5
AC49
330
AAF7
100
AcDbEntity
  8
1
  6
Continuous
100
AcDbCircle
 10
210.5100509999998
 20
224.576389
 30
0.0
 40
8.5
  0
LINE
  5
AC4A
330
AAF7
100
AcDbEntity
  8
1
  6
Continuous
100
AcDbLine
 10
210.5100509999998
 20
234.391344
 30
0.0
 11
202.010051
 21
229.4838659999999
 31
0.0
  0
LINE
  5
AC4B
330
AAF7
100
AcDbEntity
  8
1
  6
Continuous
100
AcDbLine
 10
219.0100509999998
 20
219.668912
 30
0.0
 11
210.5100509999998
 21
214.761435
 31
0.0
  0
LINE
  5
AC4C
330
AAF7
100
AcDbEntity
  8
1
  6
Continuous
100
AcDbLine
 10
202.010051
 20
219.668912
 30
0.0
 11
202.010051
 21
229.4838659999999
 31
0.0
  0
LINE
  5
AC4D
330
AAF7
100
AcDbEntity
  8
1
  6
Continuous
100
AcDbLine
 10
202.010051
 20
219.668912
 30
0.0
 11
210.5100509999998
 21
214.761435
 31
0.0
  0
LINE
  5
AC4E
330
AAF7
100
AcDbEntity
  8
1
  6
Continuous
100
AcDbLine
 10
219.0100509999998
 20
219.668912
 30
0.0
 11
219.0100509999998
 21
229.4838659999999
 31
0.0
  0
CIRCLE
  5
AC4F
330
AAF7
100
AcDbEntity
  8
1
  6
Continuous
100
AcDbCircle
 10
210.5100509999998
 20
224.576389
 30
0.0
 40
6.0
  0
CIRCLE
  5
AC50
330
AAF7
100
AcDbEntity
  8
2
  6
Continuous
100
AcDbCircle
 10
210.5100509999998
 20
224.576389
 30
0.0
 40
5.052999999999999
  0
LINE
  5
AC51
330
AAF7
100
AcDbEntity
  8
1
  6
Continuous
100
AcDbLine
 10
557.0100509999998
 20
234.391344
 30
0.0
 11
565.5100509999997
 21
229.4838659999999
 31
0.0
  0
CIRCLE
  5
AC52
330
AAF7
100
AcDbEntity
  8
1
  6
Continuous
100
AcDbCircle
 10
557.0100509999998
 20
224.576389
 30
0.0
 40
8.5
  0
LINE
  5
AC53
330
AAF7
100
AcDbEntity
  8
1
  6
Continuous
100
AcDbLine
 10
557.0100509999998
 20
234.391344
 30
0.0
 11
548.5100509999998
 21
229.4838659999999
 31
0.0
  0
LINE
  5
AC54
330
AAF7
100
AcDbEntity
  8
1
  6
Continuous
100
AcDbLine
 10
565.5100509999997
 20
219.668912
 30
0.0
 11
557.0100509999998
 21
214.761435
 31
0.0
  0
LINE
  5
AC55
330
AAF7
100
AcDbEntity
  8
1
  6
Continuous
100
AcDbLine
 10
548.5100509999998
 20
219.668912
 30
0.0
 11
557.0100509999998
 21
214.761435
 31
0.0
  0
LINE
  5
AC56
330
AAF7
100
AcDbEntity
  8
1
  6
Continuous
100
AcDbLine
 10
548.5100509999998
 20
219.668912
 30
0.0
 11
548.5100509999998
 21
229.4838659999999
 31
0.0
  0
LINE
  5
AC57
330
AAF7
100
AcDbEntity
  8
1
  6
Continuous
100
AcDbLine
 10
565.5100509999997
 20
219.668912
 30
0.0
 11
565.5100509999997
 21
229.4838659999999
 31
0.0
  0
LINE
  5
AC58
330
AAF7
100
AcDbEntity
  8
1
  6
Continuous
100
AcDbLine
 10
263.655163
 20
259.1763889999999
 30
0.0
 11
261.9458379999999
 21
255.485196
 31
0.0
  0
LINE
  5
AC59
330
AAF7
100
AcDbEntity
  8
1
  6
Continuous
100
AcDbLine
 10
505.574265
 20
255.485196
 30
0.0
 11
504.0704179999998
 21
259.1763889999999
 31
0.0
  0
CIRCLE
  5
AC5A
330
AAF7
100
AcDbEntity
  8
1
  6
Continuous
100
AcDbCircle
 10
210.5100509999998
 20
224.576389
 30
0.0
 40
10.5
  0
LINE
  5
AC5B
330
AAF7
100
AcDbEntity
  8
1
  6
Continuous
100
AcDbLine
 10
413.2008619999998
 20
214.761404
 30
0.0
 11
410.603328
 21
214.761404
 31
0.0
  0
ARC
  5
AC5C
330
AAF7
100
AcDbEntity
  8
1
  6
Continuous
100
AcDbCircle
 10
409.6151529999998
 20
217.2151429999999
 30
0.0
 40
4.344898999999998
100
AcDbArc
 50
334.384247
 51
23.58372399999999
  0
LINE
  5
AC5D
330
AAF7
100
AcDbEntity
  8
1
  6
Continuous
100
AcDbLine
 10
413.2008619999998
 20
214.761404
 30
0.0
 11
413.9600509999998
 21
216.076359
 31
0.0
  0
LINE
  5
AC5E
330
AAF7
100
AcDbEntity
  8
1
  6
Continuous
100
AcDbLine
 10
413.9600509999998
 20
219.764624
 30
0.0
 11
413.9600509999998
 21
216.076359
 31
0.0
  0
LINE
  5
AC5F
330
AAF7
100
AcDbEntity
  8
1
  6
Continuous
100
AcDbLine
 10
210.5100509999998
 20
112.670899
 30
0.0
 11
213.510051
 21
109.6708989999999
 31
0.0
  0
LINE
  5
AC60
330
AAF7
100
AcDbEntity
  8
1
  6
Continuous
100
AcDbLine
 10
207.5100509999999
 20
112.670899
 30
0.0
 11
210.5100509999998
 21
109.6708989999999
 31
0.0
  0
LINE
  5
AC61
330
AAF7
100
AcDbEntity
  8
1
  6
Continuous
100
AcDbLine
 10
97.96493300000001
 20
224.576359
 30
0.0
 11
94.964933
 21
221.5763589999999
 31
0.0
  0
LINE
  5
AC62
330
AAF7
100
AcDbEntity
  8
1
  6
Continuous
100
AcDbLine
 10
97.96493300000001
 20
227.5763589999999
 30
0.0
 11
94.964933
 21
224.576359
 31
0.0
  0
ARC
  5
AC63
330
AAF7
100
AcDbEntity
  8
1
  6
Continuous
100
AcDbCircle
 10
328.010051
 20
390.181879
 30
0.0
 40
150.0
100
AcDbArc
 50
174.10306
 51
185.89694
  0
LINE
  5
AC64
330
AAF7
100
AcDbEntity
  8
1
  6
Continuous
100
AcDbLine
 10
187.510051
 20
371.181924
 30
0.0
 11
182.782639
 21
371.181924
 31
0.0
  0
ARC
  5
AC65
330
AAF7
100
AcDbEntity
  8
1
  6
Continuous
100
AcDbCircle
 10
182.782639
 20
375.1819239999999
 30
0.0
 40
4.0
100
AcDbArc
 50
185.89694
 51
270.0
  0
LINE
  5
AC66
330
AAF7
100
AcDbEntity
  8
1
  6
Continuous
100
AcDbLine
 10
187.510051
 20
409.1818339999998
 30
0.0
 11
182.782639
 21
409.1818339999998
 31
0.0
  0
ARC
  5
AC67
330
AAF7
100
AcDbEntity
  8
1
  6
Continuous
100
AcDbCircle
 10
182.782639
 20
405.1818339999998
 30
0.0
 40
4.0
100
AcDbArc
 50
90.0
 51
174.10306
  0
LINE
  5
AC68
330
AAF7
100
AcDbEntity
  8
1
  6
Continuous
100
AcDbLine
 10
91.25717899999999
 20
211.077488
 30
0.0
 11
91.25717899999999
 21
238.0752319999998
 31
0.0
  0
LINE
  5
AC69
330
AAF7
100
AcDbEntity
  8
1
  6
Continuous
100
AcDbLine
 10
51.272687
 20
211.077488
 30
0.0
 11
51.272687
 21
238.0752319999998
 31
0.0
  0
LINE
  5
AC6A
330
AAF7
100
AcDbEntity
  8
1
  6
Continuous
100
AcDbLine
 10
52.264978
 20
196.848947
 30
0.0
 11
52.264978
 21
252.303771
 31
0.0
  0
LINE
  5
AC6B
330
AAF7
100
AcDbEntity
  8
1
  6
Continuous
100
AcDbLine
 10
90.264888
 20
196.848947
 30
0.0
 11
90.264888
 21
252.303771
 31
0.0
  0
ARC
  5
AC6C
330
AAF7
100
AcDbEntity
  8
1
  6
Continuous
100
AcDbCircle
 10
71.26493299999999
 20
342.0763589999999
 30
0.0
 40
150.0
100
AcDbArc
 50
264.10306
 51
275.8969399999999
  0
ARC
  5
AC6D
330
AAF7
100
AcDbEntity
  8
1
  6
Continuous
100
AcDbCircle
 10
56.264978
 20
196.848947
 30
0.0
 40
4.0
100
AcDbArc
 50
180.0
 51
264.10306
  0
ARC
  5
AC6E
330
AAF7
100
AcDbEntity
  8
1
  6
Continuous
100
AcDbCircle
 10
121.264878
 20
212.1230469999999
 30
0.0
 40
70.0
100
AcDbArc
 50
180.8558329999999
 51
187.5891669999998
  0
ARC
  5
AC6F
330
AAF7
100
AcDbEntity
  8
1
  6
Continuous
100
AcDbCircle
 10
53.364978
 20
203.076347
 30
0.0
 40
1.5
100
AcDbArc
 50
187.5891669999998
 51
222.8334279999999
  0
LINE
  5
AC70
330
AAF7
100
AcDbEntity
  8
1
  6
Continuous
100
AcDbLine
 10
50.464933
 20
211.8789049999998
 30
0.0
 11
51.272728
 21
211.0773889999999
 31
0.0
  0
ARC
  5
AC71
330
AAF7
100
AcDbEntity
  8
1
  6
Continuous
100
AcDbCircle
 10
86.264888
 20
196.848947
 30
0.0
 40
4.0
100
AcDbArc
 50
275.8969399999999
 51
0.0
  0
ARC
  5
AC72
330
AAF7
100
AcDbEntity
  8
1
  6
Continuous
100
AcDbCircle
 10
21.26498799999998
 20
212.1230469999999
 30
0.0
 40
70.0
100
AcDbArc
 50
352.410833
 51
359.144167
  0
ARC
  5
AC73
330
AAF7
100
AcDbEntity
  8
1
  6
Continuous
100
AcDbCircle
 10
89.16488800000001
 20
203.076347
 30
0.0
 40
1.5
100
AcDbArc
 50
317.166572
 51
352.410833
  0
LINE
  5
AC74
330
AAF7
100
AcDbEntity
  8
1
  6
Continuous
100
AcDbLine
 10
92.26393299999999
 20
212.076359
 30
0.0
 11
91.25713799999996
 21
211.0773889999999
 31
0.0
  0
ARC
  5
AC75
330
AAF7
100
AcDbEntity
  8
1
  6
Continuous
100
AcDbCircle
 10
71.26493299999999
 20
107.076359
 30
0.0
 40
150.0
100
AcDbArc
 50
84.10306
 51
95.89693999999999
  0
ARC
  5
AC76
330
AAF7
100
AcDbEntity
  8
1
  6
Continuous
100
AcDbCircle
 10
56.264978
 20
252.303771
 30
0.0
 40
4.0
100
AcDbArc
 50
95.89693999999999
 51
180.0
  0
ARC
  5
AC77
330
AAF7
100
AcDbEntity
  8
1
  6
Continuous
100
AcDbCircle
 10
53.364978
 20
246.076371
 30
0.0
 40
1.5
100
AcDbArc
 50
137.1665719999998
 51
172.4108329999999
  0
LINE
  5
AC78
330
AAF7
100
AcDbEntity
  8
1
  6
Continuous
100
AcDbLine
 10
50.464933
 20
237.273812
 30
0.0
 11
51.272728
 21
238.075329
 31
0.0
  0
ARC
  5
AC79
330
AAF7
100
AcDbEntity
  8
1
  6
Continuous
100
AcDbCircle
 10
121.264878
 20
237.029671
 30
0.0
 40
70.0
100
AcDbArc
 50
172.4108329999999
 51
179.1441669999999
  0
ARC
  5
AC7A
330
AAF7
100
AcDbEntity
  8
1
  6
Continuous
100
AcDbCircle
 10
89.16488800000001
 20
246.076371
 30
0.0
 40
1.5
100
AcDbArc
 50
7.589166999999997
 51
42.83342799999998
  0
ARC
  5
AC7B
330
AAF7
100
AcDbEntity
  8
1
  6
Continuous
100
AcDbCircle
 10
86.264888
 20
252.303771
 30
0.0
 40
4.0
100
AcDbArc
 50
0.0
 51
84.10306
  0
LINE
  5
AC7C
330
AAF7
100
AcDbEntity
  8
1
  6
Continuous
100
AcDbLine
 10
92.26393299999999
 20
237.076359
 30
0.0
 11
91.25713799999996
 21
238.075329
 31
0.0
  0
ARC
  5
AC7D
330
AAF7
100
AcDbEntity
  8
1
  6
Continuous
100
AcDbCircle
 10
21.26498799999998
 20
237.029671
 30
0.0
 40
70.0
100
AcDbArc
 50
0.8558330000000001
 51
7.589166999999997
  0
ARC
  5
AC7E
330
AAF7
100
AcDbEntity
  8
1
  6
Continuous
100
AcDbCircle
 10
398.7600059999999
 20
196.8489769999999
 30
0.0
 40
4.0
100
AcDbArc
 50
275.8969399999999
 51
0.0
  0
LINE
  5
AC7F
330
AAF7
100
AcDbEntity
  8
1
  6
Continuous
100
AcDbLine
 10
364.7600959999999
 20
196.8489769999999
 30
0.0
 11
364.7600959999999
 21
244.325668
 31
0.0
  0
LINE
  5
AC80
330
AAF7
100
AcDbEntity
  8
1
  6
Continuous
100
AcDbLine
 10
363.7678049999998
 20
211.077518
 30
0.0
 11
363.7678049999998
 21
238.0752629999999
 31
0.0
  0
ARC
  5
AC81
330
AAF7
100
AcDbEntity
  8
1
  6
Continuous
100
AcDbCircle
 10
368.7600959999999
 20
196.8489769999999
 30
0.0
 40
4.0
100
AcDbArc
 50
180.0
 51
264.10306
  0
LINE
  5
AC82
330
AAF7
100
AcDbEntity
  8
1
  6
Continuous
100
AcDbLine
 10
362.9600509999999
 20
211.878936
 30
0.0
 11
363.767846
 21
211.0774189999999
 31
0.0
  0
ARC
  5
AC83
330
AAF7
100
AcDbEntity
  8
1
  6
Continuous
100
AcDbCircle
 10
365.860096
 20
203.076377
 30
0.0
 40
1.5
100
AcDbArc
 50
187.5891669999998
 51
222.8334279999999
  0
ARC
  5
AC84
330
AAF7
100
AcDbEntity
  8
1
  6
Continuous
100
AcDbCircle
 10
433.759996
 20
212.1230769999999
 30
0.0
 40
70.0
100
AcDbArc
 50
180.8558329999999
 51
187.5891669999998
  0
ARC
  5
AC85
330
AAF7
100
AcDbEntity
  8
1
  6
Continuous
100
AcDbCircle
 10
383.7600509999999
 20
342.0763889999999
 30
0.0
 40
150.0
100
AcDbArc
 50
264.10306
 51
275.8969399999999
  0
ARC
  5
AC86
330
AAF7
100
AcDbEntity
  8
1
  6
Continuous
100
AcDbCircle
 10
433.759996
 20
237.0297009999999
 30
0.0
 40
70.0
100
AcDbArc
 50
174.892642
 51
179.1441669999999
  0
LINE
  5
AC87
330
AAF7
100
AcDbEntity
  8
1
  6
Continuous
100
AcDbLine
 10
362.9600509999999
 20
237.273842
 30
0.0
 11
363.767846
 21
238.0753589999999
 31
0.0
  0
LINE
  5
AC88
330
AAF7
100
AcDbEntity
  8
1
  6
Continuous
100
AcDbLine
 10
402.760006
 20
196.8489769999999
 30
0.0
 11
402.760006
 21
244.325668
 31
0.0
  0
LINE
  5
AC89
330
AAF7
100
AcDbEntity
  8
1
  6
Continuous
100
AcDbLine
 10
403.752297
 20
211.077518
 30
0.0
 11
403.752297
 21
238.0752629999999
 31
0.0
  0
LINE
  5
AC8A
330
AAF7
100
AcDbEntity
  8
1
  6
Continuous
100
AcDbLine
 10
404.5600509999998
 20
211.878936
 30
0.0
 11
403.752256
 21
211.0774189999999
 31
0.0
  0
ARC
  5
AC8B
330
AAF7
100
AcDbEntity
  8
1
  6
Continuous
100
AcDbCircle
 10
401.660006
 20
203.076377
 30
0.0
 40
1.5
100
AcDbArc
 50
317.166572
 51
352.410833
  0
ARC
  5
AC8C
330
AAF7
100
AcDbEntity
  8
1
  6
Continuous
100
AcDbCircle
 10
333.760106
 20
212.1230769999999
 30
0.0
 40
70.0
100
AcDbArc
 50
352.410833
 51
359.144167
  0
ARC
  5
AC8D
330
AAF7
100
AcDbEntity
  8
1
  6
Continuous
100
AcDbCircle
 10
333.760106
 20
237.0297009999999
 30
0.0
 40
70.0
100
AcDbArc
 50
0.8558330000000001
 51
5.107357999999998
  0
LINE
  5
AC8E
330
AAF7
100
AcDbEntity
  8
1
  6
Continuous
100
AcDbLine
 10
404.5600509999998
 20
237.273842
 30
0.0
 11
403.752256
 21
238.0753589999999
 31
0.0
  0
ARC
  5
AC8F
330
AAF7
100
AcDbEntity
  8
1
  6
Continuous
100
AcDbCircle
 10
383.7600509999999
 20
107.076389
 30
0.0
 40
150.0
100
AcDbArc
 50
86.82203699999998
 51
93.17796300000003
  0
LINE
  5
AC90
330
AAF7
100
AcDbEntity
  8
1
  6
Continuous
100
AcDbLine
 10
238.237463
 20
66.97094399999999
 30
0.0
 11
182.782639
 21
66.97094399999999
 31
0.0
  0
LINE
  5
AC91
330
AAF7
100
AcDbEntity
  8
1
  6
Continuous
100
AcDbLine
 10
238.237463
 20
104.970854
 30
0.0
 11
182.782639
 21
104.970854
 31
0.0
  0
ARC
  5
AC92
330
AAF7
100
AcDbEntity
  8
1
  6
Continuous
100
AcDbCircle
 10
328.010051
 20
85.970899
 30
0.0
 40
150.0
100
AcDbArc
 50
174.10306
 51
185.89694
  0
LINE
  5
AC93
330
AAF7
100
AcDbEntity
  8
1
  6
Continuous
100
AcDbLine
 10
224.008922
 20
65.97865300000001
 30
0.0
 11
197.011178
 21
65.97865300000001
 31
0.0
  0
ARC
  5
AC94
330
AAF7
100
AcDbEntity
  8
1
  6
Continuous
100
AcDbCircle
 10
182.782639
 20
70.97094399999997
 30
0.0
 40
4.0
100
AcDbArc
 50
185.89694
 51
270.0
  0
ARC
  5
AC95
330
AAF7
100
AcDbEntity
  8
1
  6
Continuous
100
AcDbCircle
 10
198.056739
 20
135.970844
 30
0.0
 40
70.0
100
AcDbArc
 50
262.410833
 51
269.1441669999999
  0
ARC
  5
AC96
330
AAF7
100
AcDbEntity
  8
1
  6
Continuous
100
AcDbCircle
 10
189.0100389999998
 20
68.070944
 30
0.0
 40
1.5
100
AcDbArc
 50
227.166572
 51
262.410833
  0
LINE
  5
AC97
330
AAF7
100
AcDbEntity
  8
1
  6
Continuous
100
AcDbLine
 10
197.812598
 20
65.17089900000001
 30
0.0
 11
197.0110809999999
 21
65.97869399999999
 31
0.0
  0
LINE
  5
AC98
330
AAF7
100
AcDbEntity
  8
1
  6
Continuous
100
AcDbLine
 10
223.0100509999998
 20
64.97189899999999
 30
0.0
 11
224.0090209999999
 21
65.97869399999999
 31
0.0
  0
ARC
  5
AC99
330
AAF7
100
AcDbEntity
  8
1
  6
Continuous
100
AcDbCircle
 10
232.010063
 20
68.070944
 30
0.0
 40
1.5
100
AcDbArc
 50
277.5891669999999
 51
312.833428
  0
ARC
  5
AC9A
330
AAF7
100
AcDbEntity
  8
1
  6
Continuous
100
AcDbCircle
 10
222.9633629999999
 20
135.970844
 30
0.0
 40
70.0
100
AcDbArc
 50
270.855833
 51
277.5891669999999
  0
LINE
  5
AC9B
330
AAF7
100
AcDbEntity
  8
1
  6
Continuous
100
AcDbLine
 10
224.008922
 20
105.9631449999999
 30
0.0
 11
197.011178
 21
105.9631449999999
 31
0.0
  0
ARC
  5
AC9C
330
AAF7
100
AcDbEntity
  8
1
  6
Continuous
100
AcDbCircle
 10
182.782639
 20
100.970854
 30
0.0
 40
4.0
100
AcDbArc
 50
90.0
 51
174.10306
  0
ARC
  5
AC9D
330
AAF7
100
AcDbEntity
  8
1
  6
Continuous
100
AcDbCircle
 10
198.056739
 20
35.970954
 30
0.0
 40
70.0
100
AcDbArc
 50
90.85583300000001
 51
97.589167
  0
ARC
  5
AC9E
330
AAF7
100
AcDbEntity
  8
1
  6
Continuous
100
AcDbCircle
 10
189.0100389999998
 20
103.870854
 30
0.0
 40
1.5
100
AcDbArc
 50
97.589167
 51
132.8334279999999
  0
LINE
  5
AC9F
330
AAF7
100
AcDbEntity
  8
1
  6
Continuous
100
AcDbLine
 10
197.812598
 20
106.770899
 30
0.0
 11
197.0110809999999
 21
105.9631039999999
 31
0.0
  0
LINE
  5
ACA0
330
AAF7
100
AcDbEntity
  8
1
  6
Continuous
100
AcDbLine
 10
223.0100509999998
 20
106.969899
 30
0.0
 11
224.0090209999999
 21
105.9631039999999
 31
0.0
  0
ARC
  5
ACA1
330
AAF7
100
AcDbEntity
  8
1
  6
Continuous
100
AcDbCircle
 10
232.010063
 20
103.870854
 30
0.0
 40
1.5
100
AcDbArc
 50
47.16657199999999
 51
82.41083299999997
  0
ARC
  5
ACA2
330
AAF7
100
AcDbEntity
  8
1
  6
Continuous
100
AcDbCircle
 10
222.9633629999999
 20
35.970954
 30
0.0
 40
70.0
100
AcDbArc
 50
82.41083299999997
 51
89.14416700000002
  0
ARC
  5
ACA3
330
AAF7
100
AcDbEntity
  8
1
  6
Continuous
100
AcDbCircle
 10
93.01005100000001
 20
85.970899
 30
0.0
 40
150.0
100
AcDbArc
 50
354.10306
 51
5.896939999999997
  0
ARC
  5
ACA4
330
AAF7
100
AcDbEntity
  8
1
  6
Continuous
100
AcDbCircle
 10
238.237463
 20
70.97094399999997
 30
0.0
 40
4.0
100
AcDbArc
 50
270.0
 51
354.10306
  0
ARC
  5
ACA5
330
AAF7
100
AcDbEntity
  8
1
  6
Continuous
100
AcDbCircle
 10
238.237463
 20
100.970854
 30
0.0
 40
4.0
100
AcDbArc
 50
5.896939999999997
 51
90.0
  0
CIRCLE
  5
ACA6
330
AAF7
100
AcDbEntity
  8
1
  6
Continuous
100
AcDbCircle
 10
557.0100509999998
 20
224.576389
 30
0.0
 40
3.5
  0
ARC
  5
ACA7
330
AAF7
100
AcDbEntity
  8
1
  6
Continuous
100
AcDbCircle
 10
210.5100509999998
 20
224.576389
 30
0.0
 40
32.5
100
AcDbArc
 50
85.187111
 51
359.7848619999999
  0
ARC
  5
ACA8
330
AAF7
100
AcDbEntity
  8
1
  6
Continuous
100
AcDbCircle
 10
210.5100509999998
 20
224.576389
 30
0.0
 40
23.5
100
AcDbArc
 50
81.95931600000001
 51
340.8642779999999
  0
ARC
  5
ACA9
330
AAF7
100
AcDbEntity
  8
1
  6
Continuous
100
AcDbCircle
 10
210.5100509999998
 20
224.576389
 30
0.0
 40
23.0
100
AcDbArc
 50
82.24655200000002
 51
339.388252
  0
ARC
  5
ACAA
330
AAF7
100
AcDbEntity
  8
1
  6
Continuous
100
AcDbCircle
 10
557.0100509999998
 20
224.576389
 30
0.0
 40
32.5
100
AcDbArc
 50
180.2151379999999
 51
94.812889
  0
ARC
  5
ACAB
330
AAF7
100
AcDbEntity
  8
1
  6
Continuous
100
AcDbCircle
 10
557.0100509999998
 20
224.576389
 30
0.0
 40
23.5
100
AcDbArc
 50
199.135722
 51
98.04068400000002
  0
ARC
  5
ACAC
330
AAF7
100
AcDbEntity
  8
1
  6
Continuous
100
AcDbCircle
 10
557.0100509999998
 20
224.576389
 30
0.0
 40
23.0
100
AcDbArc
 50
200.6117479999999
 51
97.75344799999999
  0
LINE
  5
ACAD
330
AAF7
100
AcDbEntity
  8
4
  6
CENTER
100
AcDbLine
 10
210.5100509999998
 20
443.181879
 30
0.0
 11
210.5100509999998
 21
337.1818789999999
 31
0.0
  0
ENDSEC
  0
SECTION
  2
OBJECTS
  0
DICTIONARY
  5
AAE5
330
0
100
AcDbDictionary
281
     1
  3
ACAD_CIP_PREVIOUS_PRODUCT_INFO
350
AD0F
  3
ACAD_COLOR
350
ACF1
  3
ACAD_DETAILVIEWSTYLE
350
AD0A
  3
ACAD_GROUP
350
AAE6
  3
ACAD_LAYOUT
350
AAF2
  3
ACAD_MATERIAL
350
ACBF
  3
ACAD_MLEADERSTYLE
350
AD06
  3
ACAD_MLINESTYLE
350
AAEF
  3
ACAD_PLOTSETTINGS
350
AAF1
  3
ACAD_PLOTSTYLENAME
350
ACBD
  3
ACAD_SCALELIST
350
ACF4
  3
ACAD_SECTIONVIEWSTYLE
350
AD08
  3
ACAD_TABLESTYLE
350
ACF2
  3
ACAD_VISUALSTYLE
350
ACD8
  3
ACDB_RECOMPOSE_DATA
350
AD2D
  3
AcDbVariableDictionary
350
AD20
  3
DWGPROPS
350
AD2E
  0
DICTIONARY
  5
AD10
330
AAE9
100
AcDbDictionary
280
     1
281
     1
  3
ADSK_XREC_LAYER_RECONCILED
360
AD11
  0
DICTIONARY
  5
AD12
330
AAFF
100
AcDbDictionary
280
     1
281
     1
  3
ADSK_XREC_LAYER_RECONCILED
360
AD13
  0
DICTIONARY
  5
AD14
330
AB00
100
AcDbDictionary
280
     1
281
     1
  3
ADSK_XREC_LAYER_RECONCILED
360
AD15
  0
DICTIONARY
  5
AD16
330
AB01
100
AcDbDictionary
280
     1
281
     1
  3
ADSK_XREC_LAYER_RECONCILED
360
AD17
  0
DICTIONARY
  5
AD18
330
AB02
100
AcDbDictionary
280
     1
281
     1
  3
ADSK_XREC_LAYER_RECONCILED
360
AD19
  0
DICTIONARY
  5
AD1A
330
AB03
100
AcDbDictionary
280
     1
281
     1
  3
ADSK_XREC_LAYER_RECONCILED
360
AD1B
  0
DICTIONARY
  5
AD1C
330
AB04
100
AcDbDictionary
280
     1
281
     1
  3
ADSK_XREC_LAYER_RECONCILED
360
AD1D
  0
DICTIONARY
  5
AD1E
330
AB05
100
AcDbDictionary
280
     1
281
     1
  3
ADSK_XREC_LAYER_RECONCILED
360
AD1F
  0
DICTIONARY
  5
ACB8
330
AAF7
100
AcDbDictionary
281
     1
  3
ACAD_LAYOUTSELFREF
350
ACB9
  0
DICTIONARY
  5
ACB6
330
AAF3
100
AcDbDictionary
281
     1
  3
ACAD_LAYOUTSELFREF
350
ACB7
  0
XRECORD
  5
AD0F
102
{ACAD_REACTORS
330
AAE5
102
}
330
AAE5
100
AcDbXrecord
280
     1
300
ACDLT
300
2014
300
ACDLT_F_S
  0
DICTIONARY
  5
ACF1
102
{ACAD_REACTORS
330
AAE5
102
}
330
AAE5
100
AcDbDictionary
281
     1
  0
DICTIONARY
  5
AD0A
102
{ACAD_REACTORS
330
AAE5
102
}
330
AAE5
100
AcDbDictionary
281
     1
  3
Imperial24
350
AD0B
  0
DICTIONARY
  5
AAE6
102
{ACAD_REACTORS
330
AAE5
102
}
330
AAE5
100
AcDbDictionary
281
     1
  0
DICTIONARY
  5
AAF2
102
{ACAD_REACTORS
330
AAE5
102
}
330
AAE5
100
AcDbDictionary
281
     1
  3
Model
350
AD0C
  3
レイアウト1
350
AD0D
  0
DICTIONARY
  5
ACBF
102
{ACAD_REACTORS
330
AAE5
102
}
330
AAE5
100
AcDbDictionary
281
     1
  3
ByBlock
350
ACC8
  3
ByLayer
350
ACC0
  3
Global
350
ACD0
  0
DICTIONARY
  5
AD06
102
{ACAD_REACTORS
330
AAE5
102
}
330
AAE5
100
AcDbDictionary
281
     1
  3
Standard
350
AD07
  0
DICTIONARY
  5
AAEF
102
{ACAD_REACTORS
330
AAE5
102
}
330
AAE5
100
AcDbDictionary
281
     1
  3
STANDARD
350
AAF0
  0
DICTIONARY
  5
AAF1
102
{ACAD_REACTORS
330
AAE5
102
}
330
AAE5
100
AcDbDictionary
281
     1
  0
ACDBDICTIONARYWDFLT
  5
ACBD
102
{ACAD_REACTORS
330
AAE5
102
}
330
AAE5
100
AcDbDictionary
281
     1
  3
Normal
350
ACBE
100
AcDbDictionaryWithDefault
340
ACBE
  0
DICTIONARY
  5
ACF4
102
{ACAD_REACTORS
330
AAE5
102
}
330
AAE5
100
AcDbDictionary
281
     1
  3
A0
350
ACF5
  3
A1
350
ACF6
  3
A2
350
ACF7
  3
A3
350
ACF8
  3
A4
350
ACF9
  3
A5
350
ACFA
  3
A6
350
ACFB
  3
A7
350
ACFC
  3
A8
350
ACFD
  3
A9
350
ACFE
  3
B0
350
ACFF
  3
B1
350
AD00
  3
B2
350
AD01
  3
B3
350
AD02
  3
B4
350
AD03
  3
B5
350
AD04
  3
B6
350
AD05
  0
DICTIONARY
  5
AD08
102
{ACAD_REACTORS
330
AAE5
102
}
330
AAE5
100
AcDbDictionary
281
     1
  3
Imperial24
350
AD09
  0
DICTIONARY
  5
ACF2
102
{ACAD_REACTORS
330
AAE5
102
}
330
AAE5
100
AcDbDictionary
281
     1
  3
Standard
350
ACF3
  0
DICTIONARY
  5
ACD8
102
{ACAD_REACTORS
330
AAE5
102
}
330
AAE5
100
AcDbDictionary
281
     1
  3
2dWireframe
350
ACDE
  3
Basic
350
ACDD
  3
Brighten
350
ACE4
  3
ColorChange
350
ACE8
  3
Conceptual
350
ACE1
  3
Dim
350
ACE3
  3
EdgeColorOff
350
ACF0
  3
Facepattern
350
ACE7
  3
Flat
350
ACD9
  3
FlatWithEdges
350
ACDA
  3
Gouraud
350
ACDB
  3
GouraudWithEdges
350
ACDC
  3
Hidden
350
ACE0
  3
JitterOff
350
ACEE
  3
Linepattern
350
ACE6
  3
OverhangOff
350
ACEF
  3
Realistic
350
ACE2
  3
Shaded
350
ACED
  3
Shaded with edges
350
ACEC
  3
Shades of Gray
350
ACE9
  3
Sketchy
350
ACEA
  3
Thicken
350
ACE5
  3
Wireframe
350
ACDF
  3
X-Ray
350
ACEB
  0
XRECORD
  5
AD2D
102
{ACAD_REACTORS
330
AAE5
102
}
330
AAE5
100
AcDbXrecord
280
     1
 90
        1
330
ACF3
  0
DICTIONARY
  5
AD20
102
{ACAD_REACTORS
330
AAE5
102
}
330
AAE5
100
AcDbDictionary
281
     1
  3
CANNOSCALE
350
AD25
  3
CMLEADERSTYLE
350
AD22
  3
CTABLESTYLE
350
AD21
  3
CVIEWDETAILSTYLE
350
AD23
  3
CVIEWSECTIONSTYLE
350
AD24
  3
DIMASSOC
350
AD28
  3
INDEXCTL
350
AD27
  3
SORTENTS
350
AD26
  3
XCLIPFRAME
350
AD29
  0
XRECORD
  5
AD2E
102
{ACAD_REACTORS
330
AAE5
102
}
330
AAE5
100
AcDbXrecord
280
     1
  1
DWGPROPS COOKIE
  2

  3

  4

  6

  7

  8
Yoshitsune
  9

300
=
301
=
302
=
303
=
304
=
305
=
306
=
307
=
308
=
309
=
 40
0.0000090277777778
 41
2451301.420015972
 42
2457192.686850058
  1

 90
        0
  0
XRECORD
  5
AD11
102
{ACAD_REACTORS
330
AD10
102
}
330
AD10
100
AcDbXrecord
280
     1
290
     1
  0
XRECORD
  5
AD13
102
{ACAD_REACTORS
330
AD12
102
}
330
AD12
100
AcDbXrecord
280
     1
290
     1
  0
XRECORD
  5
AD15
102
{ACAD_REACTORS
330
AD14
102
}
330
AD14
100
AcDbXrecord
280
     1
290
     1
  0
XRECORD
  5
AD17
102
{ACAD_REACTORS
330
AD16
102
}
330
AD16
100
AcDbXrecord
280
     1
290
     1
  0
XRECORD
  5
AD19
102
{ACAD_REACTORS
330
AD18
102
}
330
AD18
100
AcDbXrecord
280
     1
290
     1
  0
XRECORD
  5
AD1B
102
{ACAD_REACTORS
330
AD1A
102
}
330
AD1A
100
AcDbXrecord
280
     1
290
     1
  0
XRECORD
  5
AD1D
102
{ACAD_REACTORS
330
AD1C
102
}
330
AD1C
100
AcDbXrecord
280
     1
290
     1
  0
XRECORD
  5
AD1F
102
{ACAD_REACTORS
330
AD1E
102
}
330
AD1E
100
AcDbXrecord
280
     1
290
     1
  0
XRECORD
  5
ACB9
102
{ACAD_REACTORS
330
ACB8
102
}
330
ACB8
100
AcDbXrecord
280
     1
340
AAF7
  0
XRECORD
  5
ACB7
102
{ACAD_REACTORS
330
ACB6
102
}
330
ACB6
100
AcDbXrecord
280
     1
340
AAF3
  0
ACDBDETAILVIEWSTYLE
  5
AD0B
102
{ACAD_XDICTIONARY
360
AD66
102
}
102
{ACAD_REACTORS
330
AD0A
102
}
330
AD0A
100
AcDbModelDocViewStyle
 70
     0
  3
Imperial24
290
     0
100
AcDbDetailViewStyle
 70
     0
 71
     0
 90
        3
 71
     1
340
AAEA
 40
0.24
340
0
 40
0.24
300

 40
0.36
280
     3
 71
     2
340
AAEE
 90
       25
 71
     3
340
AAEA
 40
0.24
 90
        1
 40
0.75
 90
        1
300
%<\AcVar ViewType \f "%tc1">% %<\AcVar ViewDetailId>%\PSCALE %<\AcVar ViewScale \f "%sn">%
 71
     4
340
AAEE
 90
       25
340
AAEE
 90
       25
280
     0
  0
LAYOUT
  5
AD0C
102
{ACAD_XDICTIONARY
360
AD68
102
}
102
{ACAD_REACTORS
330
AAF2
102
}
330
AAF2
100
AcDbPlotSettings
  1

  2
Canon LBP9100C
  4

  6

 40
0.0
 41
0.0
 42
0.0
 43
0.0
 44
0.0
 45
0.0
 46
0.0
 47
0.0
 48
0.0
 49
0.0
140
0.0
141
0.0
142
1.0
143
1.0
 70
  1712
 72
     0
 73
     0
 74
     0
  7

 75
     0
147
1.0
148
0.0
149
0.0
100
AcDbLayout
  1
Model
 70
     1
 71
     0
 10
0.0
 20
0.0
 11
12.0
 21
9.0
 12
0.0
 22
0.0
 32
0.0
 14
0.0
 24
0.0
 34
0.0
 15
0.0
 25
0.0
 35
0.0
146
0.0
 13
0.0
 23
0.0
 33
0.0
 16
1.0
 26
0.0
 36
0.0
 17
0.0
 27
1.0
 37
0.0
 76
     0
330
AAF7
331
ACB5
  0
LAYOUT
  5
AD0D
102
{ACAD_XDICTIONARY
360
AD6A
102
}
102
{ACAD_REACTORS
330
AAF2
102
}
330
AAF2
100
AcDbPlotSettings
  1

  2
Canon LBP9100C
  4

  6

 40
0.0
 41
0.0
 42
0.0
 43
0.0
 44
0.0
 45
0.0
 46
0.0
 47
0.0
 48
0.0
 49
0.0
140
0.0
141
0.0
142
1.0
143
1.0
 70
   688
 72
     0
 73
     0
 74
     5
  7

 75
    16
147
1.0
148
0.0
149
0.0
100
AcDbLayout
  1
レイアウト1
 70
     0
 71
     1
 10
0.0
 20
0.0
 11
420.0
 21
297.0
 12
0.0
 22
0.0
 32
0.0
 14
1.000000000000000E+20
 24
1.000000000000000E+20
 34
1.000000000000000E+20
 15
-1.000000000000000E+20
 25
-1.000000000000000E+20
 35
-1.000000000000000E+20
146
0.0
 13
0.0
 23
0.0
 33
0.0
 16
1.0
 26
0.0
 36
0.0
 17
0.0
 27
1.0
 37
0.0
 76
     0
330
AAF3
  0
MATERIAL
  5
ACC8
102
{ACAD_XDICTIONARY
360
ACC9
102
}
102
{ACAD_REACTORS
330
ACBF
102
}
330
ACBF
100
AcDbMaterial
  1
ByBlock
 72
     0
 43
0.0208333333333333
 43
0.0
 43
0.0
 43
0.0
 43
0.0
 43
0.0208333333333333
 43
0.0
 43
0.0
 43
0.0
 43
0.0
 43
1.0
 43
0.0
 43
0.0
 43
0.0
 43
0.0
 43
1.0
 77
     0
 47
0.0208333333333333
 47
0.0
 47
0.0
 47
0.0
 47
0.0
 47
0.0208333333333333
 47
0.0
 47
0.0
 47
0.0
 47
0.0
 47
1.0
 47
0.0
 47
0.0
 47
0.0
 47
0.0
 47
1.0
171
     0
 49
0.0208333333333333
 49
0.0
 49
0.0
 49
0.0
 49
0.0
 49
0.0208333333333333
 49
0.0
 49
0.0
 49
0.0
 49
0.0
 49
1.0
 49
0.0
 49
0.0
 49
0.0
 49
0.0
 49
1.0
175
     0
142
0.0208333333333333
142
0.0
142
0.0
142
0.0
142
0.0
142
0.0208333333333333
142
0.0
142
0.0
142
0.0
142
0.0
142
1.0
142
0.0
142
0.0
142
0.0
142
0.0
142
1.0
179
     0
144
0.0208333333333333
144
0.0
144
0.0
144
0.0
144
0.0
144
0.0208333333333333
144
0.0
144
0.0
144
0.0
144
0.0
144
1.0
144
0.0
144
0.0
144
0.0
144
0.0
144
1.0
147
0.0208333333333333
147
0.0
147
0.0
147
0.0
147
0.0
147
0.0208333333333333
147
0.0
147
0.0
147
0.0
147
0.0
147
1.0
147
0.0
147
0.0
147
0.0
147
0.0
147
1.0
  0
MATERIAL
  5
ACC0
102
{ACAD_XDICTIONARY
360
ACC1
102
}
102
{ACAD_REACTORS
330
ACBF
102
}
330
ACBF
100
AcDbMaterial
  1
ByLayer
 72
     0
 43
0.0208333333333333
 43
0.0
 43
0.0
 43
0.0
 43
0.0
 43
0.0208333333333333
 43
0.0
 43
0.0
 43
0.0
 43
0.0
 43
1.0
 43
0.0
 43
0.0
 43
0.0
 43
0.0
 43
1.0
 77
     0
 47
0.0208333333333333
 47
0.0
 47
0.0
 47
0.0
 47
0.0
 47
0.0208333333333333
 47
0.0
 47
0.0
 47
0.0
 47
0.0
 47
1.0
 47
0.0
 47
0.0
 47
0.0
 47
0.0
 47
1.0
171
     0
 49
0.0208333333333333
 49
0.0
 49
0.0
 49
0.0
 49
0.0
 49
0.0208333333333333
 49
0.0
 49
0.0
 49
0.0
 49
0.0
 49
1.0
 49
0.0
 49
0.0
 49
0.0
 49
0.0
 49
1.0
175
     0
142
0.0208333333333333
142
0.0
142
0.0
142
0.0
142
0.0
142
0.0208333333333333
142
0.0
142
0.0
142
0.0
142
0.0
142
1.0
142
0.0
142
0.0
142
0.0
142
0.0
142
1.0
179
     0
144
0.0208333333333333
144
0.0
144
0.0
144
0.0
144
0.0
144
0.0208333333333333
144
0.0
144
0.0
144
0.0
144
0.0
144
1.0
144
0.0
144
0.0
144
0.0
144
0.0
144
1.0
147
0.0208333333333333
147
0.0
147
0.0
147
0.0
147
0.0
147
0.0208333333333333
147
0.0
147
0.0
147
0.0
147
0.0
147
1.0
147
0.0
147
0.0
147
0.0
147
0.0
147
1.0
  0
MATERIAL
  5
ACD0
102
{ACAD_XDICTIONARY
360
ACD1
102
}
102
{ACAD_REACTORS
330
ACBF
102
}
330
ACBF
100
AcDbMaterial
  1
Global
 72
     0
 43
0.0208333333333333
 43
0.0
 43
0.0
 43
0.0
 43
0.0
 43
0.0208333333333333
 43
0.0
 43
0.0
 43
0.0
 43
0.0
 43
1.0
 43
0.0
 43
0.0
 43
0.0
 43
0.0
 43
1.0
 77
     0
 47
0.0208333333333333
 47
0.0
 47
0.0
 47
0.0
 47
0.0
 47
0.0208333333333333
 47
0.0
 47
0.0
 47
0.0
 47
0.0
 47
1.0
 47
0.0
 47
0.0
 47
0.0
 47
0.0
 47
1.0
171
     0
 49
0.0208333333333333
 49
0.0
 49
0.0
 49
0.0
 49
0.0
 49
0.0208333333333333
 49
0.0
 49
0.0
 49
0.0
 49
0.0
 49
1.0
 49
0.0
 49
0.0
 49
0.0
 49
0.0
 49
1.0
175
     0
142
0.0208333333333333
142
0.0
142
0.0
142
0.0
142
0.0
142
0.0208333333333333
142
0.0
142
0.0
142
0.0
142
0.0
142
1.0
142
0.0
142
0.0
142
0.0
142
0.0
142
1.0
179
     0
144
0.0208333333333333
144
0.0
144
0.0
144
0.0
144
0.0
144
0.0208333333333333
144
0.0
144
0.0
144
0.0
144
0.0
144
1.0
144
0.0
144
0.0
144
0.0
144
0.0
144
1.0
147
0.0208333333333333
147
0.0
147
0.0
147
0.0
147
0.0
147
0.0208333333333333
147
0.0
147
0.0
147
0.0
147
0.0
147
1.0
147
0.0
147
0.0
147
0.0
147
0.0
147
1.0
  0
MLEADERSTYLE
  5
AD07
102
{ACAD_REACTORS
330
AD06
102
}
330
AD06
100
AcDbMLeaderStyle
170
     2
171
     1
172
     0
 90
        2
 40
0.0
 41
0.0
173
     1
 91
-1056964608
340
AAEC
 92
       -2
290
     1
 42
0.09
291
     1
 43
0.36
  3
Standard
 44
0.18
300

342
AAEA
174
     1
178
     6
175
     1
176
     0
 93
-1056964608
 45
0.18
292
     0
297
     0
 46
0.18
 94
-1056964608
 47
1.0
 49
1.0
140
1.0
293
     1
141
0.0
294
     1
177
     0
142
1.0
295
     0
296
     0
143
0.125
1001
ACAD_MLEADERVER
1070
     2
  0
MLINESTYLE
  5
AAF0
102
{ACAD_REACTORS
330
AAEF
102
}
330
AAEF
100
AcDbMlineStyle
  2
STANDARD
 70
     0
  3

 62
   256
 51
90.0
 52
90.0
 71
     2
 49
0.5
 62
   256
  6
BYLAYER
 49
-0.5
 62
   256
  6
BYLAYER
  0
ACDBPLACEHOLDER
  5
ACBE
102
{ACAD_REACTORS
330
ACBD
102
}
330
ACBD
  0
SCALE
  5
ACF5
102
{ACAD_REACTORS
330
ACF4
102
}
330
ACF4
100
AcDbScale
 70
     0
300
1:1
140
1.0
141
1.0
290
     1
  0
SCALE
  5
ACF6
102
{ACAD_REACTORS
330
ACF4
102
}
330
ACF4
100
AcDbScale
 70
     0
300
1/128" = 1'-0"
140
0.0078125
141
12.0
290
     0
  0
SCALE
  5
ACF7
102
{ACAD_REACTORS
330
ACF4
102
}
330
ACF4
100
AcDbScale
 70
     0
300
1/64" = 1'-0"
140
0.015625
141
12.0
290
     0
  0
SCALE
  5
ACF8
102
{ACAD_REACTORS
330
ACF4
102
}
330
ACF4
100
AcDbScale
 70
     0
300
1/32" = 1'-0"
140
0.03125
141
12.0
290
     0
  0
SCALE
  5
ACF9
102
{ACAD_REACTORS
330
ACF4
102
}
330
ACF4
100
AcDbScale
 70
     0
300
1/16" = 1'-0"
140
0.0625
141
12.0
290
     0
  0
SCALE
  5
ACFA
102
{ACAD_REACTORS
330
ACF4
102
}
330
ACF4
100
AcDbScale
 70
     0
300
3/32" = 1'-0"
140
0.09375
141
12.0
290
     0
  0
SCALE
  5
ACFB
102
{ACAD_REACTORS
330
ACF4
102
}
330
ACF4
100
AcDbScale
 70
     0
300
1/8" = 1'-0"
140
0.125
141
12.0
290
     0
  0
SCALE
  5
ACFC
102
{ACAD_REACTORS
330
ACF4
102
}
330
ACF4
100
AcDbScale
 70
     0
300
3/16" = 1'-0"
140
0.1875
141
12.0
290
     0
  0
SCALE
  5
ACFD
102
{ACAD_REACTORS
330
ACF4
102
}
330
ACF4
100
AcDbScale
 70
     0
300
1/4" = 1'-0"
140
0.25
141
12.0
290
     0
  0
SCALE
  5
ACFE
102
{ACAD_REACTORS
330
ACF4
102
}
330
ACF4
100
AcDbScale
 70
     0
300
3/8" = 1'-0"
140
0.375
141
12.0
290
     0
  0
SCALE
  5
ACFF
102
{ACAD_REACTORS
330
ACF4
102
}
330
ACF4
100
AcDbScale
 70
     0
300
1/2" = 1'-0"
140
0.5
141
12.0
290
     0
  0
SCALE
  5
AD00
102
{ACAD_REACTORS
330
ACF4
102
}
330
ACF4
100
AcDbScale
 70
     0
300
3/4" = 1'-0"
140
0.75
141
12.0
290
     0
  0
SCALE
  5
AD01
102
{ACAD_REACTORS
330
ACF4
102
}
330
ACF4
100
AcDbScale
 70
     0
300
1" = 1'-0"
140
1.0
141
12.0
290
     0
  0
SCALE
  5
AD02
102
{ACAD_REACTORS
330
ACF4
102
}
330
ACF4
100
AcDbScale
 70
     0
300
1-1/2" = 1'-0"
140
1.5
141
12.0
290
     0
  0
SCALE
  5
AD03
102
{ACAD_REACTORS
330
ACF4
102
}
330
ACF4
100
AcDbScale
 70
     0
300
3" = 1'-0"
140
3.0
141
12.0
290
     0
  0
SCALE
  5
AD04
102
{ACAD_REACTORS
330
ACF4
102
}
330
ACF4
100
AcDbScale
 70
     0
300
6" = 1'-0"
140
6.0
141
12.0
290
     0
  0
SCALE
  5
AD05
102
{ACAD_REACTORS
330
ACF4
102
}
330
ACF4
100
AcDbScale
 70
     0
300
1'-0" = 1'-0"
140
12.0
141
12.0
290
     0
  0
ACDBSECTIONVIEWSTYLE
  5
AD09
102
{ACAD_XDICTIONARY
360
AD64
102
}
102
{ACAD_REACTORS
330
AD08
102
}
330
AD08
100
AcDbModelDocViewStyle
 70
     0
  3
Imperial24
290
     0
100
AcDbSectionViewStyle
 70
     0
 71
     0
 90
       78
 71
     1
340
AAEA
 40
0.24
340
0
340
0
 40
0.24
300
I, O, Q, S, X, Z
 40
0.48
 90
        3
 40
0.18
 90
        1
 71
     2
340
AAEE
 90
       25
340
AAEE
 90
       50
 40
0.24
 40
0.0
 40
0.24
 71
     3
340
AAEA
 40
0.24
 90
        1
 40
0.75
 90
        1
300
%<\AcVar ViewType \f "%tc1">% %<\AcVar ViewSectionStartId>%-%<\AcVar ViewSectionEndId>%\PSCALE %<\AcVar ViewScale \f "%sn">%
 71
     4
300
ANSI31
 40
1.0
 90
        0
290
     0
290
     0
 90
        6
 40
0.0
 40
1.570796326794896
 40
0.2617993877991494
 40
1.308996938995747
 40
-0.2617993877991494
 40
1.832595714594046
  0
TABLESTYLE
  5
ACF3
102
{ACAD_XDICTIONARY
360
AD2B
102
}
102
{ACAD_REACTORS
330
ACF2
102
}
330
ACF2
100
AcDbTableStyle
  3
Standard
 70
     0
 71
     0
 40
0.06
 41
0.06
280
     0
281
     0
  7
STANDARD
140
0.18
170
     2
 62
     0
 63
     7
283
     0
274
    -2
284
     1
 64
     0
275
    -2
285
     1
 65
     0
276
    -2
286
     1
 66
     0
277
    -2
287
     1
 67
     0
278
    -2
288
     1
 68
     0
279
    -2
289
     1
 69
     0
  7
STANDARD
140
0.25
170
     5
 62
     0
 63
     7
283
     0
274
    -2
284
     1
 64
     0
275
    -2
285
     1
 65
     0
276
    -2
286
     1
 66
     0
277
    -2
287
     1
 67
     0
278
    -2
288
     1
 68
     0
279
    -2
289
     1
 69
     0
  7
STANDARD
140
0.18
170
     5
 62
     0
 63
     7
283
     0
274
    -2
284
     1
 64
     0
275
    -2
285
     1
 65
     0
276
    -2
286
     1
 66
     0
277
    -2
287
     1
 67
     0
278
    -2
288
     1
 68
     0
279
    -2
289
     1
 69
     0
  0
VISUALSTYLE
  5
ACDE
102
{ACAD_XDICTIONARY
360
AD3C
102
}
102
{ACAD_REACTORS
330
ACD8
102
}
330
ACD8
100
AcDbVisualStyle
  2
2dWireframe
 70
     4
 71
     0
 72
     2
 73
     0
 90
        0
 40
-0.6
 41
-30.0
 62
     5
 63
     7
 74
     1
 91
        4
 64
     7
 65
   257
 75
     1
175
     1
 42
1.0
 92
        0
 66
   257
 43
1.0
 76
     1
 77
     6
 78
     2
 67
     7
 79
     5
170
     0
171
     0
290
     0
174
     0
 93
        1
 44
0.0
173
     0
291
     0
 45
0.0
1001
ACAD
1000
AcDbSavedByObjectVersion
1070
     0
  0
VISUALSTYLE
  5
ACDD
102
{ACAD_XDICTIONARY
360
AD3A
102
}
102
{ACAD_REACTORS
330
ACD8
102
}
330
ACD8
100
AcDbVisualStyle
  2
Basic
 70
     7
 71
     1
 72
     0
 73
     1
 90
        0
 40
-0.6
 41
-30.0
 62
     5
 63
     7
 74
     0
 91
        4
 64
     7
 65
   257
 75
     1
175
     1
 42
1.0
 92
        8
 66
     7
 43
1.0
 76
     1
 77
     6
 78
     2
 67
     7
 79
     5
170
     0
171
     0
290
     0
174
     0
 93
        1
 44
0.0
173
     0
291
     1
 45
0.0
1001
ACAD
1000
AcDbSavedByObjectVersion
1070
     0
  0
VISUALSTYLE
  5
ACE4
102
{ACAD_XDICTIONARY
360
AD48
102
}
102
{ACAD_REACTORS
330
ACD8
102
}
330
ACD8
100
AcDbVisualStyle
  2
Brighten
 70
    12
 71
     2
 72
     2
 73
     0
 90
        0
 40
-0.6
 41
-30.0
 62
     5
 63
     7
 74
     1
 91
        4
 64
     7
 65
   257
 75
     1
175
     1
 42
1.0
 92
        8
 66
     7
 43
1.0
 76
     1
 77
     6
 78
     2
 67
     7
 79
     5
170
     0
171
     0
290
     0
174
     0
 93
        1
 44
50.0
173
     0
291
     1
 45
0.0
1001
ACAD
1000
AcDbSavedByObjectVersion
1070
     0
  0
VISUALSTYLE
  5
ACE8
102
{ACAD_XDICTIONARY
360
AD50
102
}
102
{ACAD_REACTORS
330
ACD8
102
}
330
ACD8
100
AcDbVisualStyle
  2
ColorChange
 70
    16
 71
     2
 72
     2
 73
     3
 90
        0
 40
-0.6
 41
-30.0
 62
     5
 63
     8
 74
     1
 91
        4
 64
     7
 65
   257
 75
     1
175
     1
 42
1.0
 92
        8
 66
     8
 43
1.0
 76
     1
 77
     6
 78
     2
 67
     7
 79
     5
170
     0
171
     0
290
     0
174
     0
 93
        1
 44
0.0
173
     0
291
     1
 45
0.0
1001
ACAD
1000
AcDbSavedByObjectVersion
1070
     0
  0
VISUALSTYLE
  5
ACE1
102
{ACAD_XDICTIONARY
360
AD42
102
}
102
{ACAD_REACTORS
330
ACD8
102
}
330
ACD8
100
AcDbVisualStyle
  2
Conceptual
 70
     9
 71
     3
 72
     2
 73
     0
 90
        0
 40
-0.6
 41
-30.0
 62
     5
 63
     7
 74
     2
 91
        2
 64
     7
 65
   257
 75
     1
175
     1
 42
179.0
 92
        8
 66
     7
 43
1.0
 76
     1
 77
     6
 78
     2
 67
     7
 79
     3
170
     0
171
     0
290
     0
174
     0
 93
        1
 44
0.0
173
     0
291
     0
 45
0.0
1001
ACAD
1000
AcDbSavedByObjectVersion
1070
     0
  0
VISUALSTYLE
  5
ACE3
102
{ACAD_XDICTIONARY
360
AD46
102
}
102
{ACAD_REACTORS
330
ACD8
102
}
330
ACD8
100
AcDbVisualStyle
  2
Dim
 70
    11
 71
     2
 72
     2
 73
     0
 90
        0
 40
-0.6
 41
-30.0
 62
     5
 63
     7
 74
     1
 91
        4
 64
     7
 65
   257
 75
     1
175
     1
 42
1.0
 92
        8
 66
     7
 43
1.0
 76
     1
 77
     6
 78
     2
 67
     7
 79
     5
170
     0
171
     0
290
     0
174
     0
 93
        1
 44
-50.0
173
     0
291
     1
 45
0.0
1001
ACAD
1000
AcDbSavedByObjectVersion
1070
     0
  0
VISUALSTYLE
  5
ACF0
102
{ACAD_XDICTIONARY
360
AD60
102
}
102
{ACAD_REACTORS
330
ACD8
102
}
330
ACD8
100
AcDbVisualStyle
  2
EdgeColorOff
 70
    22
 71
     2
 72
     2
 73
     0
 90
        0
 40
-0.6
 41
-30.0
 62
     5
 63
     7
 74
     1
 91
        4
 64
     7
 65
   257
 75
     1
175
     1
 42
1.0
 92
        8
 66
     7
 43
1.0
 76
     1
 77
     6
 78
     2
 67
     7
 79
     5
170
     0
171
     0
290
     0
174
     0
 93
        1
 44
0.0
173
     0
291
     1
 45
0.0
1001
ACAD
1000
AcDbSavedByObjectVersion
1070
     0
  0
VISUALSTYLE
  5
ACE7
102
{ACAD_XDICTIONARY
360
AD4E
102
}
102
{ACAD_REACTORS
330
ACD8
102
}
330
ACD8
100
AcDbVisualStyle
  2
Facepattern
 70
    15
 71
     2
 72
     2
 73
     0
 90
        0
 40
-0.6
 41
-30.0
 62
     5
 63
     7
 74
     1
 91
        4
 64
     7
 65
   257
 75
     1
175
     1
 42
1.0
 92
        8
 66
     7
 43
1.0
 76
     1
 77
     6
 78
     2
 67
     7
 79
     5
170
     0
171
     0
290
     0
174
     0
 93
        1
 44
0.0
173
     0
291
     1
 45
0.0
1001
ACAD
1000
AcDbSavedByObjectVersion
1070
     0
  0
VISUALSTYLE
  5
ACD9
102
{ACAD_XDICTIONARY
360
AD32
102
}
102
{ACAD_REACTORS
330
ACD8
102
}
330
ACD8
100
AcDbVisualStyle
  2
Flat
 70
     0
 71
     2
 72
     1
 73
     1
 90
        2
 40
-0.6
 41
30.0
 62
     5
 63
     7
 74
     0
 91
        0
 64
     7
 65
   257
 75
     1
175
     1
 42
1.0
 92
        8
 66
     7
 43
1.0
 76
     1
 77
     6
 78
     2
 67
     7
 79
     5
170
     0
171
     0
290
     0
174
     0
 93
       13
 44
0.0
173
     0
291
     1
 45
0.0
1001
ACAD
1000
AcDbSavedByObjectVersion
1070
     0
  0
VISUALSTYLE
  5
ACDA
102
{ACAD_XDICTIONARY
360
AD34
102
}
102
{ACAD_REACTORS
330
ACD8
102
}
330
ACD8
100
AcDbVisualStyle
  2
FlatWithEdges
 70
     1
 71
     2
 72
     1
 73
     1
 90
        2
 40
-0.6
 41
30.0
 62
     5
 63
     7
 74
     1
 91
        0
 64
     7
 65
   257
 75
     1
175
     1
 42
1.0
 92
        0
 66
   257
 43
1.0
 76
     1
 77
     6
 78
     2
 67
     7
 79
     5
170
     0
171
     0
290
     0
174
     0
 93
       13
 44
0.0
173
     0
291
     1
 45
0.0
1001
ACAD
1000
AcDbSavedByObjectVersion
1070
     0
  0
VISUALSTYLE
  5
ACDB
102
{ACAD_XDICTIONARY
360
AD36
102
}
102
{ACAD_REACTORS
330
ACD8
102
}
330
ACD8
100
AcDbVisualStyle
  2
Gouraud
 70
     2
 71
     2
 72
     2
 73
     1
 90
        2
 40
-0.6
 41
30.0
 62
     5
 63
     7
 74
     0
 91
        0
 64
     7
 65
   257
 75
     1
175
     1
 42
1.0
 92
        0
 66
     7
 43
1.0
 76
     1
 77
     6
 78
     2
 67
     7
 79
     5
170
     0
171
     0
290
     0
174
     0
 93
       13
 44
0.0
173
     0
291
     1
 45
0.0
1001
ACAD
1000
AcDbSavedByObjectVersion
1070
     0
  0
VISUALSTYLE
  5
ACDC
102
{ACAD_XDICTIONARY
360
AD38
102
}
102
{ACAD_REACTORS
330
ACD8
102
}
330
ACD8
100
AcDbVisualStyle
  2
GouraudWithEdges
 70
     3
 71
     2
 72
     2
 73
     1
 90
        2
 40
-0.6
 41
30.0
 62
     5
 63
     7
 74
     1
 91
        0
 64
     7
 65
   257
 75
     1
175
     1
 42
1.0
 92
        0
 66
   257
 43
1.0
 76
     1
 77
     6
 78
     2
 67
     7
 79
     5
170
     0
171
     0
290
     0
174
     0
 93
       13
 44
0.0
173
     0
291
     1
 45
0.0
1001
ACAD
1000
AcDbSavedByObjectVersion
1070
     0
  0
VISUALSTYLE
  5
ACE0
102
{ACAD_XDICTIONARY
360
AD40
102
}
102
{ACAD_REACTORS
330
ACD8
102
}
330
ACD8
100
AcDbVisualStyle
  2
Hidden
 70
     6
 71
     1
 72
     2
 73
     2
 90
        0
 40
-0.6
 41
-30.0
 62
     5
 63
     7
 74
     2
 91
        2
 64
     7
 65
   257
 75
     2
175
     1
 42
40.0
 92
        0
 66
   257
 43
1.0
 76
     1
 77
     6
 78
     2
 67
     7
 79
     3
170
     0
171
     0
290
     0
174
     0
 93
        1
 44
0.0
173
     0
291
     0
 45
0.0
1001
ACAD
1000
AcDbSavedByObjectVersion
1070
     0
  0
VISUALSTYLE
  5
ACEE
102
{ACAD_XDICTIONARY
360
AD5C
102
}
102
{ACAD_REACTORS
330
ACD8
102
}
330
ACD8
100
AcDbVisualStyle
  2
JitterOff
 70
    20
 71
     2
 72
     2
 73
     0
 90
        0
 40
-0.6
 41
-30.0
 62
     5
 63
     7
 74
     1
 91
        4
 64
     7
 65
   257
 75
     1
175
     1
 42
1.0
 92
       10
 66
     7
 43
1.0
 76
     1
 77
     6
 78
     2
 67
     7
 79
     5
170
     0
171
     0
290
     0
174
     0
 93
        1
 44
0.0
173
     0
291
     1
 45
0.0
1001
ACAD
1000
AcDbSavedByObjectVersion
1070
     0
  0
VISUALSTYLE
  5
ACE6
102
{ACAD_XDICTIONARY
360
AD4C
102
}
102
{ACAD_REACTORS
330
ACD8
102
}
330
ACD8
100
AcDbVisualStyle
  2
Linepattern
 70
    14
 71
     2
 72
     2
 73
     0
 90
        0
 40
-0.6
 41
-30.0
 62
     5
 63
     7
 74
     1
 91
        4
 64
     7
 65
   257
 75
     7
175
     7
 42
1.0
 92
        8
 66
     7
 43
1.0
 76
     1
 77
     6
 78
     2
 67
     7
 79
     5
170
     0
171
     0
290
     0
174
     0
 93
        1
 44
0.0
173
     0
291
     1
 45
0.0
1001
ACAD
1000
AcDbSavedByObjectVersion
1070
     0
  0
VISUALSTYLE
  5
ACEF
102
{ACAD_XDICTIONARY
360
AD5E
102
}
102
{ACAD_REACTORS
330
ACD8
102
}
330
ACD8
100
AcDbVisualStyle
  2
OverhangOff
 70
    21
 71
     2
 72
     2
 73
     0
 90
        0
 40
-0.6
 41
-30.0
 62
     5
 63
     7
 74
     1
 91
        4
 64
     7
 65
   257
 75
     1
175
     1
 42
1.0
 92
        9
 66
     7
 43
1.0
 76
     1
 77
     6
 78
     2
 67
     7
 79
     5
170
     0
171
     0
290
     0
174
     0
 93
        1
 44
0.0
173
     0
291
     1
 45
0.0
1001
ACAD
1000
AcDbSavedByObjectVersion
1070
     0
  0
VISUALSTYLE
  5
ACE2
102
{ACAD_XDICTIONARY
360
AD44
102
}
102
{ACAD_REACTORS
330
ACD8
102
}
330
ACD8
100
AcDbVisualStyle
  2
Realistic
 70
     8
 71
     2
 72
     3
 73
     0
 90
        2
 40
-0.6
 41
30.0
 62
     5
 63
     7
 74
     0
 91
        0
 64
     7
 65
   257
 75
     1
175
     1
 42
1.0
 92
        8
 66
   257
 43
1.0
 76
     1
 77
     6
 78
     2
 67
     7
 79
     3
170
     0
171
     0
290
     0
174
     0
 93
       13
 44
0.0
173
     0
291
     0
 45
0.0
1001
ACAD
1000
AcDbSavedByObjectVersion
1070
     0
  0
VISUALSTYLE
  5
ACED
102
{ACAD_XDICTIONARY
360
AD5A
102
}
102
{ACAD_REACTORS
330
ACD8
102
}
330
ACD8
100
AcDbVisualStyle
  2
Shaded
 70
    27
 71
     2
 72
     2
 73
     1
 90
        2
 40
-0.6
 41
30.0
 62
     5
 63
     7
 74
     0
 91
        4
 64
     7
 65
   257
 75
     1
175
     1
 42
1.0
 92
        8
 66
   257
 43
1.0
 76
     1
 77
     6
 78
     2
 67
     8
 79
     3
170
     0
171
     0
290
     0
174
     0
 93
        5
 44
0.0
173
     0
291
     0
 45
0.0
1001
ACAD
1000
AcDbSavedByObjectVersion
1070
     0
  0
VISUALSTYLE
  5
ACEC
102
{ACAD_XDICTIONARY
360
AD58
102
}
102
{ACAD_REACTORS
330
ACD8
102
}
330
ACD8
100
AcDbVisualStyle
  2
Shaded with edges
 70
    26
 71
     2
 72
     2
 73
     1
 90
        2
 40
-0.6
 41
30.0
 62
     5
 63
     7
 74
     1
 91
       10
 64
     7
 65
   257
 75
     2
175
     1
 42
1.0
 92
        8
 66
   257
 43
1.0
 76
     1
 77
     6
 78
     2
 67
     7
 79
     3
170
     0
171
     0
290
     0
174
     0
 93
        5
 44
0.0
173
     0
291
     0
 45
0.0
1001
ACAD
1000
AcDbSavedByObjectVersion
1070
     0
  0
VISUALSTYLE
  5
ACE9
102
{ACAD_XDICTIONARY
360
AD52
102
}
102
{ACAD_REACTORS
330
ACD8
102
}
330
ACD8
100
AcDbVisualStyle
  2
Shades of Gray
 70
    23
 71
     2
 72
     2
 73
     3
 90
        0
 40
-0.6
 41
-30.0
 62
     5
 63
     7
 74
     2
 91
        2
 64
     7
 65
     7
 75
     1
175
     1
 42
40.0
 92
        8
 66
     7
 43
1.0
 76
     1
 77
     6
 78
     2
 67
     7
 79
     3
170
     0
171
     0
290
     0
174
     0
 93
        1
 44
0.0
173
     0
291
     0
 45
0.0
1001
ACAD
1000
AcDbSavedByObjectVersion
1070
     0
  0
VISUALSTYLE
  5
ACEA
102
{ACAD_XDICTIONARY
360
AD54
102
}
102
{ACAD_REACTORS
330
ACD8
102
}
330
ACD8
100
AcDbVisualStyle
  2
Sketchy
 70
    24
 71
     1
 72
     2
 73
     2
 90
        0
 40
-0.6
 41
-30.0
 62
     5
 63
     7
 74
     2
 91
        2
 64
     7
 65
     7
 75
     1
175
     1
 42
40.0
 92
       11
 66
     7
 43
1.0
 76
     1
 77
     6
 78
     2
 67
     7
 79
     6
170
     0
171
     0
290
     0
174
     0
 93
        1
 44
0.0
173
     0
291
     0
 45
0.0
1001
ACAD
1000
AcDbSavedByObjectVersion
1070
     0
  0
VISUALSTYLE
  5
ACE5
102
{ACAD_XDICTIONARY
360
AD4A
102
}
102
{ACAD_REACTORS
330
ACD8
102
}
330
ACD8
100
AcDbVisualStyle
  2
Thicken
 70
    13
 71
     2
 72
     2
 73
     0
 90
        0
 40
-0.6
 41
-30.0
 62
     5
 63
     7
 74
     1
 91
        4
 64
     7
 65
   257
 75
     1
175
     1
 42
1.0
 92
       12
 66
     7
 43
1.0
 76
     1
 77
     6
 78
     2
 67
     7
 79
     5
170
     0
171
     0
290
     0
174
     0
 93
        1
 44
0.0
173
     0
291
     1
 45
0.0
1001
ACAD
1000
AcDbSavedByObjectVersion
1070
     0
  0
VISUALSTYLE
  5
ACDF
102
{ACAD_XDICTIONARY
360
AD3E
102
}
102
{ACAD_REACTORS
330
ACD8
102
}
330
ACD8
100
AcDbVisualStyle
  2
Wireframe
 70
     5
 71
     0
 72
     2
 73
     0
 90
        0
 40
-0.6
 41
-30.0
 62
     5
 63
     7
 74
     1
 91
        4
 64
     7
 65
   257
 75
     1
175
     1
 42
1.0
 92
        0
 66
   257
 43
1.0
 76
     1
 77
     6
 78
     2
 67
     7
 79
     3
170
     0
171
     0
290
     0
174
     0
 93
        1
 44
0.0
173
     0
291
     0
 45
0.0
1001
ACAD
1000
AcDbSavedByObjectVersion
1070
     0
  0
VISUALSTYLE
  5
ACEB
102
{ACAD_XDICTIONARY
360
AD56
102
}
102
{ACAD_REACTORS
330
ACD8
102
}
330
ACD8
100
AcDbVisualStyle
  2
X-Ray
 70
    25
 71
     2
 72
     2
 73
     1
 90
        1
 40
0.5
 41
-30.0
 62
     5
 63
     7
 74
     1
 91
        0
 64
     7
 65
   257
 75
     1
175
     1
 42
1.0
 92
        8
 66
     7
 43
1.0
 76
     1
 77
     6
 78
     2
 67
     7
 79
     3
170
     0
171
     0
290
     0
174
     0
 93
       13
 44
0.0
173
     0
291
     0
 45
0.0
1001
ACAD
1000
AcDbSavedByObjectVersion
1070
     0
  0
DICTIONARYVAR
  5
AD25
102
{ACAD_REACTORS
330
AD20
102
}
330
AD20
100
DictionaryVariables
280
     0
  1
1:1
  0
DICTIONARYVAR
  5
AD22
102
{ACAD_REACTORS
330
AD20
102
}
330
AD20
100
DictionaryVariables
280
     0
  1
STANDARD
  0
DICTIONARYVAR
  5
AD21
102
{ACAD_REACTORS
330
AD20
102
}
330
AD20
100
DictionaryVariables
280
     0
  1
STANDARD
  0
DICTIONARYVAR
  5
AD23
102
{ACAD_REACTORS
330
AD20
102
}
330
AD20
100
DictionaryVariables
280
     0
  1
Imperial24
  0
DICTIONARYVAR
  5
AD24
102
{ACAD_REACTORS
330
AD20
102
}
330
AD20
100
DictionaryVariables
280
     0
  1
Imperial24
  0
DICTIONARYVAR
  5
AD28
102
{ACAD_REACTORS
330
AD20
102
}
330
AD20
100
DictionaryVariables
280
     0
  1
1
  0
DICTIONARYVAR
  5
AD27
102
{ACAD_REACTORS
330
AD20
102
}
330
AD20
100
DictionaryVariables
280
     0
  1
0
  0
DICTIONARYVAR
  5
AD26
102
{ACAD_REACTORS
330
AD20
102
}
330
AD20
100
DictionaryVariables
280
     0
  1
127
  0
DICTIONARYVAR
  5
AD29
102
{ACAD_REACTORS
330
AD20
102
}
330
AD20
100
DictionaryVariables
280
     0
  1
2
  0
DICTIONARY
  5
AD66
330
AD0B
100
AcDbDictionary
280
     1
281
     1
  3
ACAD_XREC_ROUNDTRIP
360
AD67
  0
DICTIONARY
  5
AD68
330
AD0C
100
AcDbDictionary
280
     1
281
     1
  3
ACAD_XREC_ROUNDTRIP
360
AD69
  0
DICTIONARY
  5
AD6A
330
AD0D
100
AcDbDictionary
280
     1
281
     1
  3
ACAD_XREC_ROUNDTRIP
360
AD6B
  0
DICTIONARY
  5
ACC9
330
ACC8
100
AcDbDictionary
280
     1
281
     1
  3
ACAD_XREC_ROUNDTRIP
360
AD30
  3
BUMPTILE
360
ACCB
  3
DIFFUSETILE
360
ACCA
  3
OPACITYTILE
360
ACCE
  3
REFLECTIONTILE
360
ACCD
  3
REFRACTIONTILE
360
ACCF
  3
SPECULARTILE
360
ACCC
  0
DICTIONARY
  5
ACC1
330
ACC0
100
AcDbDictionary
280
     1
281
     1
  3
ACAD_XREC_ROUNDTRIP
360
AD2F
  3
BUMPTILE
360
ACC3
  3
DIFFUSETILE
360
ACC2
  3
OPACITYTILE
360
ACC6
  3
REFLECTIONTILE
360
ACC5
  3
REFRACTIONTILE
360
ACC7
  3
SPECULARTILE
360
ACC4
  0
DICTIONARY
  5
ACD1
330
ACD0
100
AcDbDictionary
280
     1
281
     1
  3
ACAD_XREC_ROUNDTRIP
360
AD31
  3
BUMPTILE
360
ACD3
  3
DIFFUSETILE
360
ACD2
  3
OPACITYTILE
360
ACD6
  3
REFLECTIONTILE
360
ACD5
  3
REFRACTIONTILE
360
ACD7
  3
SPECULARTILE
360
ACD4
  0
DICTIONARY
  5
AD64
330
AD09
100
AcDbDictionary
280
     1
281
     1
  3
ACAD_XREC_ROUNDTRIP
360
AD65
  0
DICTIONARY
  5
AD2B
330
ACF3
100
AcDbDictionary
280
     1
281
     1
  3
ACAD_ROUNDTRIP_2008_TABLESTYLE_CELLSTYLEMAP
360
AD2C
  3
ACAD_XREC_ROUNDTRIP
360
AD62
  0
DICTIONARY
  5
AD3C
330
ACDE
100
AcDbDictionary
280
     1
281
     1
  3
ACAD_XREC_ROUNDTRIP
360
AD3D
  0
DICTIONARY
  5
AD3A
330
ACDD
100
AcDbDictionary
280
     1
281
     1
  3
ACAD_XREC_ROUNDTRIP
360
AD3B
  0
DICTIONARY
  5
AD48
330
ACE4
100
AcDbDictionary
280
     1
281
     1
  3
ACAD_XREC_ROUNDTRIP
360
AD49
  0
DICTIONARY
  5
AD50
330
ACE8
100
AcDbDictionary
280
     1
281
     1
  3
ACAD_XREC_ROUNDTRIP
360
AD51
  0
DICTIONARY
  5
AD42
330
ACE1
100
AcDbDictionary
280
     1
281
     1
  3
ACAD_XREC_ROUNDTRIP
360
AD43
  0
DICTIONARY
  5
AD46
330
ACE3
100
AcDbDictionary
280
     1
281
     1
  3
ACAD_XREC_ROUNDTRIP
360
AD47
  0
DICTIONARY
  5
AD60
330
ACF0
100
AcDbDictionary
280
     1
281
     1
  3
ACAD_XREC_ROUNDTRIP
360
AD61
  0
DICTIONARY
  5
AD4E
330
ACE7
100
AcDbDictionary
280
     1
281
     1
  3
ACAD_XREC_ROUNDTRIP
360
AD4F
  0
DICTIONARY
  5
AD32
330
ACD9
100
AcDbDictionary
280
     1
281
     1
  3
ACAD_XREC_ROUNDTRIP
360
AD33
  0
DICTIONARY
  5
AD34
330
ACDA
100
AcDbDictionary
280
     1
281
     1
  3
ACAD_XREC_ROUNDTRIP
360
AD35
  0
DICTIONARY
  5
AD36
330
ACDB
100
AcDbDictionary
280
     1
281
     1
  3
ACAD_XREC_ROUNDTRIP
360
AD37
  0
DICTIONARY
  5
AD38
330
ACDC
100
AcDbDictionary
280
     1
281
     1
  3
ACAD_XREC_ROUNDTRIP
360
AD39
  0
DICTIONARY
  5
AD40
330
ACE0
100
AcDbDictionary
280
     1
281
     1
  3
ACAD_XREC_ROUNDTRIP
360
AD41
  0
DICTIONARY
  5
AD5C
330
ACEE
100
AcDbDictionary
280
     1
281
     1
  3
ACAD_XREC_ROUNDTRIP
360
AD5D
  0
DICTIONARY
  5
AD4C
330
ACE6
100
AcDbDictionary
280
     1
281
     1
  3
ACAD_XREC_ROUNDTRIP
360
AD4D
  0
DICTIONARY
  5
AD5E
330
ACEF
100
AcDbDictionary
280
     1
281
     1
  3
ACAD_XREC_ROUNDTRIP
360
AD5F
  0
DICTIONARY
  5
AD44
330
ACE2
100
AcDbDictionary
280
     1
281
     1
  3
ACAD_XREC_ROUNDTRIP
360
AD45
  0
DICTIONARY
  5
AD5A
330
ACED
100
AcDbDictionary
280
     1
281
     1
  3
ACAD_XREC_ROUNDTRIP
360
AD5B
  0
DICTIONARY
  5
AD58
330
ACEC
100
AcDbDictionary
280
     1
281
     1
  3
ACAD_XREC_ROUNDTRIP
360
AD59
  0
DICTIONARY
  5
AD52
330
ACE9
100
AcDbDictionary
280
     1
281
     1
  3
ACAD_XREC_ROUNDTRIP
360
AD53
  0
DICTIONARY
  5
AD54
330
ACEA
100
AcDbDictionary
280
     1
281
     1
  3
ACAD_XREC_ROUNDTRIP
360
AD55
  0
DICTIONARY
  5
AD4A
330
ACE5
100
AcDbDictionary
280
     1
281
     1
  3
ACAD_XREC_ROUNDTRIP
360
AD4B
  0
DICTIONARY
  5
AD3E
330
ACDF
100
AcDbDictionary
280
     1
281
     1
  3
ACAD_XREC_ROUNDTRIP
360
AD3F
  0
DICTIONARY
  5
AD56
330
ACEB
100
AcDbDictionary
280
     1
281
     1
  3
ACAD_XREC_ROUNDTRIP
360
AD57
  0
XRECORD
  5
AD67
102
{ACAD_REACTORS
330
AD66
102
}
330
AD66
100
AcDbXrecord
280
     1
102
DISPLAYNAME
  1
Imperial24
102
FLAGS
 90
        0
  0
XRECORD
  5
AD69
102
{ACAD_REACTORS
330
AD68
102
}
330
AD68
100
AcDbXrecord
280
     1
102
SHADEPLOT
 70
     0
102
SHADEPLOTRESLEVEL
 70
     2
102
SHADEPLOTCUSTOMDPI
 70
   300
  0
XRECORD
  5
AD6B
102
{ACAD_REACTORS
330
AD6A
102
}
330
AD6A
100
AcDbXrecord
280
     1
102
SHADEPLOT
 70
     0
102
SHADEPLOTRESLEVEL
 70
     2
102
SHADEPLOTCUSTOMDPI
 70
   300
  0
XRECORD
  5
AD30
102
{ACAD_REACTORS
330
ACC9
102
}
330
ACC9
100
AcDbXrecord
280
     1
102
MATERIAL
148
0.0
149
0.0
149
0.0
 93
        0
 94
      127
282
     0
 72
     0
 77
     0
171
     0
175
     0
179
     0
273
     0
  0
XRECORD
  5
ACCB
102
{ACAD_REACTORS
330
ACC9
102
}
330
ACC9
100
AcDbXrecord
280
     1
270
     1
271
     1
  0
XRECORD
  5
ACCA
102
{ACAD_REACTORS
330
ACC9
102
}
330
ACC9
100
AcDbXrecord
280
     1
270
     1
271
     1
  0
XRECORD
  5
ACCE
102
{ACAD_REACTORS
330
ACC9
102
}
330
ACC9
100
AcDbXrecord
280
     1
270
     1
271
     1
  0
XRECORD
  5
ACCD
102
{ACAD_REACTORS
330
ACC9
102
}
330
ACC9
100
AcDbXrecord
280
     1
270
     1
271
     1
  0
XRECORD
  5
ACCF
102
{ACAD_REACTORS
330
ACC9
102
}
330
ACC9
100
AcDbXrecord
280
     1
270
     1
271
     1
  0
XRECORD
  5
ACCC
102
{ACAD_REACTORS
330
ACC9
102
}
330
ACC9
100
AcDbXrecord
280
     1
270
     1
271
     1
  0
XRECORD
  5
AD2F
102
{ACAD_REACTORS
330
ACC1
102
}
330
ACC1
100
AcDbXrecord
280
     1
102
MATERIAL
148
0.0
149
0.0
149
0.0
 93
        0
 94
      127
282
     0
 72
     0
 77
     0
171
     0
175
     0
179
     0
273
     0
  0
XRECORD
  5
ACC3
102
{ACAD_REACTORS
330
ACC1
102
}
330
ACC1
100
AcDbXrecord
280
     1
270
     1
271
     1
  0
XRECORD
  5
ACC2
102
{ACAD_REACTORS
330
ACC1
102
}
330
ACC1
100
AcDbXrecord
280
     1
270
     1
271
     1
  0
XRECORD
  5
ACC6
102
{ACAD_REACTORS
330
ACC1
102
}
330
ACC1
100
AcDbXrecord
280
     1
270
     1
271
     1
  0
XRECORD
  5
ACC5
102
{ACAD_REACTORS
330
ACC1
102
}
330
ACC1
100
AcDbXrecord
280
     1
270
     1
271
     1
  0
XRECORD
  5
ACC7
102
{ACAD_REACTORS
330
ACC1
102
}
330
ACC1
100
AcDbXrecord
280
     1
270
     1
271
     1
  0
XRECORD
  5
ACC4
102
{ACAD_REACTORS
330
ACC1
102
}
330
ACC1
100
AcDbXrecord
280
     1
270
     1
271
     1
  0
XRECORD
  5
AD31
102
{ACAD_REACTORS
330
ACD1
102
}
330
ACD1
100
AcDbXrecord
280
     1
102
MATERIAL
148
0.0
149
0.0
149
0.0
 93
        0
 94
      127
282
     0
 72
     0
 77
     0
171
     0
175
     0
179
     0
273
     0
  0
XRECORD
  5
ACD3
102
{ACAD_REACTORS
330
ACD1
102
}
330
ACD1
100
AcDbXrecord
280
     1
270
     1
271
     1
  0
XRECORD
  5
ACD2
102
{ACAD_REACTORS
330
ACD1
102
}
330
ACD1
100
AcDbXrecord
280
     1
270
     1
271
     1
  0
XRECORD
  5
ACD6
102
{ACAD_REACTORS
330
ACD1
102
}
330
ACD1
100
AcDbXrecord
280
     1
270
     1
271
     1
  0
XRECORD
  5
ACD5
102
{ACAD_REACTORS
330
ACD1
102
}
330
ACD1
100
AcDbXrecord
280
     1
270
     1
271
     1
  0
XRECORD
  5
ACD7
102
{ACAD_REACTORS
330
ACD1
102
}
330
ACD1
100
AcDbXrecord
280
     1
270
     1
271
     1
  0
XRECORD
  5
ACD4
102
{ACAD_REACTORS
330
ACD1
102
}
330
ACD1
100
AcDbXrecord
280
     1
270
     1
271
     1
  0
XRECORD
  5
AD65
102
{ACAD_REACTORS
330
AD64
102
}
330
AD64
100
AcDbXrecord
280
     1
102
DISPLAYNAME
  1
Imperial24
102
FLAGS
 90
        0
  0
CELLSTYLEMAP
  5
AD2C
102
{ACAD_REACTORS
330
AD2B
102
}
330
AD2B
100
AcDbCellStyleMap
 90
        3
300
CELLSTYLE
  1
TABLEFORMAT_BEGIN
 90
        5
170
     1
 91
        0
 92
    32768
 62
   257
 93
        1
300
CONTENTFORMAT
  1
CONTENTFORMAT_BEGIN
 90
        0
 91
        0
 92
      512
 93
        0
300

 40
0.0
140
1.0
 94
        5
 62
     0
340
AAEA
144
0.25
309
CONTENTFORMAT_END
171
     0
 94
        0
309
TABLEFORMAT_END
  1
CELLSTYLE_BEGIN
 90
        1
 91
        1
300
_TITLE
309
CELLSTYLE_END
300
CELLSTYLE
  1
TABLEFORMAT_BEGIN
 90
        5
170
     1
 91
        0
 92
        0
 62
   257
 93
        1
300
CONTENTFORMAT
  1
CONTENTFORMAT_BEGIN
 90
        0
 91
        0
 92
      512
 93
        0
300

 40
0.0
140
1.0
 94
        5
 62
     0
340
AAEA
144
0.18
309
CONTENTFORMAT_END
171
     0
 94
        0
309
TABLEFORMAT_END
  1
CELLSTYLE_BEGIN
 90
        2
 91
        1
300
_HEADER
309
CELLSTYLE_END
300
CELLSTYLE
  1
TABLEFORMAT_BEGIN
 90
        5
170
     1
 91
        0
 92
        0
 62
   257
 93
        1
300
CONTENTFORMAT
  1
CONTENTFORMAT_BEGIN
 90
        0
 91
        0
 92
      512
 93
        0
300

 40
0.0
140
1.0
 94
        2
 62
     0
340
AAEA
144
0.18
309
CONTENTFORMAT_END
171
     0
 94
        0
309
TABLEFORMAT_END
  1
CELLSTYLE_BEGIN
 90
        3
 91
        2
300
_DATA
309
CELLSTYLE_END
  0
XRECORD
  5
AD62
102
{ACAD_REACTORS
330
AD2B
102
}
330
AD2B
100
AcDbXrecord
280
     1
102
ACAD_ROUNDTRIP_PRE2007_TABLESTYLE
 90
      512
 91
        0
  1

 92
      512
 93
        0
  2

 94
      512
 95
        0
  3

  0
XRECORD
  5
AD3D
102
{ACAD_REACTORS
330
AD3C
102
}
330
AD3C
100
AcDbXrecord
280
     1
102
RTVSPost2010Prop28
280
     1
102
RTVSPost2010PropOp28
 70
     1
102
RTVSPost2010Prop29
280
     1
102
RTVSPost2010PropOp29
 70
     1
102
RTVSPost2010Prop30
280
     0
102
RTVSPost2010PropOp30
 70
     1
102
RTVSPost2010Prop31
280
     0
102
RTVSPost2010PropOp31
 70
     1
102
RTVSPost2010Prop32
280
     0
102
RTVSPost2010PropOp32
 70
     1
102
RTVSPost2010Prop33
280
     0
102
RTVSPost2010PropOp33
 70
     1
102
RTVSPost2010Prop34
280
     0
102
RTVSPost2010PropOp34
 70
     1
102
RTVSPost2010Prop35
280
     0
102
RTVSPost2010PropOp35
 70
     1
102
RTVSPost2010Prop36
280
     0
102
RTVSPost2010PropOp36
 70
     1
102
RTVSPost2010Prop37
 90
       50
102
RTVSPost2010PropOp37
 70
     1
102
RTVSPost2010Prop38
140
0.0
102
RTVSPost2010PropOp38
 70
     1
102
RTVSPost2010Prop39
140
1.0
102
RTVSPost2010PropOp39
 70
     1
102
RTVSPost2010Prop40
 90
        0
102
RTVSPost2010PropOp40
 70
     1
102
RTVSPost2010Prop41ColorIndex
 90
       18
102
RTVSPost2010Prop41ColorRGB
 90
        0
102
RTVSPost2010PropOp41
 70
     1
102
RTVSPost2010Prop42
 90
       50
102
RTVSPost2010PropOp42
 70
     1
102
RTVSPost2010Prop43
 90
        3
102
RTVSPost2010PropOp43
 70
     1
102
RTVSPost2010Prop44ColorIndex
 90
        5
102
RTVSPost2010Prop44ColorRGB
 90
      255
102
RTVSPost2010PropOp44
 70
     1
102
RTVSPost2010Prop45
280
     0
102
RTVSPost2010PropOp45
 70
     1
102
RTVSPost2010Prop46
 90
       50
102
RTVSPost2010PropOp46
 70
     1
102
RTVSPost2010Prop47
 90
       50
102
RTVSPost2010PropOp47
 70
     1
102
RTVSPost2010Prop48
 90
       50
102
RTVSPost2010PropOp48
 70
     1
102
RTVSPost2010Prop49
280
     0
102
RTVSPost2010PropOp49
 70
     1
102
RTVSPost2010Prop50
 90
       50
102
RTVSPost2010PropOp50
 70
     1
102
RTVSPost2010Prop51ColorIndex
 90
      256
102
RTVSPost2010Prop51ColorRGB
 90
-16777216
102
RTVSPost2010PropOp51
 70
     0
102
RTVSPost2010Prop52
140
1.0
102
RTVSPost2010PropOp52
 70
     0
102
RTVSPost2010Prop53
 90
        2
102
RTVSPost2010PropOp53
 70
     1
102
RTVSPost2010Prop54
  1
strokes_ogs.tif
102
RTVSPost2010PropOp54
 70
     1
102
RTVSPost2010Prop55
280
     0
102
RTVSPost2010PropOp55
 70
     1
102
RTVSPost2010Prop56
140
1.0
102
RTVSPost2010PropOp56
 70
     1
102
RTVSPost2010Prop57
140
1.0
102
RTVSPost2010PropOp57
 70
     1
102
RTVSPropertyOp0
 70
     1
102
RTVSPropertyOp1
 70
     1
102
RTVSPropertyOp2
 70
     1
102
RTVSPropertyOp3
 70
     1
102
RTVSPropertyOp4
 70
     1
102
RTVSPropertyOp5
 70
     1
102
RTVSPropertyOp6
 70
     1
102
RTVSPropertyOp7
 70
     1
102
RTVSPropertyOp8
 70
     1
102
RTVSPropertyOp9
 70
     1
102
RTVSPropertyOp10
 70
     1
102
RTVSPropertyOp11
 70
     1
102
RTVSPropertyOp12
 70
     1
102
RTVSPropertyOp13
 70
     1
102
RTVSPropertyOp14
 70
     1
102
RTVSPropertyOp15
 70
     1
102
RTVSPropertyOp16
 70
     1
102
RTVSPropertyOp17
 70
     1
102
RTVSPropertyOp18
 70
     1
102
RTVSPropertyOp19
 70
     1
102
RTVSPropertyOp20
 70
     1
102
RTVSPropertyOp21
 70
     1
102
RTVSPropertyOp22
 70
     1
102
RTVSPropertyOp23
 70
     1
102
RTVSPropertyOp24
 70
     1
102
RTVSPropertyOp25
 70
     1
102
RTVSPropertyOp26
 70
     1
102
RTVSPropertyOp27
 70
     1
102
RTVSPropertyOp28
 70
     1
102
RTVSPropertyOp29
 70
     1
102
RTVSPropertyOp30
 70
     1
102
RTVSPropertyOp31
 70
     1
102
RTVSPropertyOp32
 70
     1
102
RTVSPropertyOp33
 70
     1
102
RTVSPropertyOp34
 70
     1
102
RTVSPropertyOp35
 70
     1
102
RTVSPropertyOp36
 70
     1
102
RTVSPropertyOp37
 70
     1
102
RTVSPropertyOp38
 70
     1
102
RTVSPropertyOp39
 70
     1
102
RTVSPropertyOp40
 70
     1
102
RTVSPropertyOp41
 70
     1
102
RTVSPropertyOp42
 70
     1
102
RTVSPropertyOp43
 70
     1
102
RTVSPropertyOp44
 70
     1
102
RTVSPropertyOp45
 70
     1
102
RTVSPropertyOp46
 70
     1
102
RTVSPropertyOp47
 70
     1
102
RTVSPropertyOp48
 70
     1
102
RTVSPropertyOp49
 70
     1
102
RTVSPropertyOp50
 70
     1
102
RTVSPropertyOp51
 70
     0
102
RTVSPropertyOp52
 70
     0
102
RTVSPropertyOp53
 70
     1
102
RTVSPropertyOp54
 70
     1
102
RTVSPropertyOp55
 70
     1
102
RTVSPropertyOp56
 70
     1
102
RTVSPropertyOp57
 70
     1
102
RTVSPropertyOp58
 70
     1
102
RTVSPropertyOp59
 70
     1
102
RTVSPropertyOp60
 70
     1
102
RTVSPropertyOp61
 70
     1
102
RTVSPropertyOp62
 70
     1
  0
XRECORD
  5
AD3B
102
{ACAD_REACTORS
330
AD3A
102
}
330
AD3A
100
AcDbXrecord
280
     1
102
RTVSPost2010Prop28
280
     0
102
RTVSPost2010PropOp28
 70
     1
102
RTVSPost2010Prop29
280
     1
102
RTVSPost2010PropOp29
 70
     1
102
RTVSPost2010Prop30
280
     1
102
RTVSPost2010PropOp30
 70
     1
102
RTVSPost2010Prop31
280
     0
102
RTVSPost2010PropOp31
 70
     1
102
RTVSPost2010Prop32
280
     0
102
RTVSPost2010PropOp32
 70
     1
102
RTVSPost2010Prop33
280
     0
102
RTVSPost2010PropOp33
 70
     1
102
RTVSPost2010Prop34
280
     0
102
RTVSPost2010PropOp34
 70
     1
102
RTVSPost2010Prop35
280
     0
102
RTVSPost2010PropOp35
 70
     1
102
RTVSPost2010Prop36
280
     0
102
RTVSPost2010PropOp36
 70
     1
102
RTVSPost2010Prop37
 90
       50
102
RTVSPost2010PropOp37
 70
     1
102
RTVSPost2010Prop38
140
0.0
102
RTVSPost2010PropOp38
 70
     1
102
RTVSPost2010Prop39
140
1.0
102
RTVSPost2010PropOp39
 70
     1
102
RTVSPost2010Prop40
 90
        0
102
RTVSPost2010PropOp40
 70
     1
102
RTVSPost2010Prop41ColorIndex
 90
       18
102
RTVSPost2010Prop41ColorRGB
 90
        0
102
RTVSPost2010PropOp41
 70
     1
102
RTVSPost2010Prop42
 90
       50
102
RTVSPost2010PropOp42
 70
     1
102
RTVSPost2010Prop43
 90
        3
102
RTVSPost2010PropOp43
 70
     1
102
RTVSPost2010Prop44ColorIndex
 90
        5
102
RTVSPost2010Prop44ColorRGB
 90
      255
102
RTVSPost2010PropOp44
 70
     1
102
RTVSPost2010Prop45
280
     0
102
RTVSPost2010PropOp45
 70
     1
102
RTVSPost2010Prop46
 90
       50
102
RTVSPost2010PropOp46
 70
     1
102
RTVSPost2010Prop47
 90
       50
102
RTVSPost2010PropOp47
 70
     1
102
RTVSPost2010Prop48
 90
       50
102
RTVSPost2010PropOp48
 70
     1
102
RTVSPost2010Prop49
280
     0
102
RTVSPost2010PropOp49
 70
     1
102
RTVSPost2010Prop50
 90
       50
102
RTVSPost2010PropOp50
 70
     1
102
RTVSPost2010Prop51ColorIndex
 90
      256
102
RTVSPost2010Prop51ColorRGB
 90
-16777216
102
RTVSPost2010PropOp51
 70
     0
102
RTVSPost2010Prop52
140
1.0
102
RTVSPost2010PropOp52
 70
     0
102
RTVSPost2010Prop53
 90
        2
102
RTVSPost2010PropOp53
 70
     1
102
RTVSPost2010Prop54
  1
strokes_ogs.tif
102
RTVSPost2010PropOp54
 70
     1
102
RTVSPost2010Prop55
280
     0
102
RTVSPost2010PropOp55
 70
     1
102
RTVSPost2010Prop56
140
1.0
102
RTVSPost2010PropOp56
 70
     1
102
RTVSPost2010Prop57
140
1.0
102
RTVSPost2010PropOp57
 70
     1
102
RTVSPropertyOp0
 70
     1
102
RTVSPropertyOp1
 70
     1
102
RTVSPropertyOp2
 70
     1
102
RTVSPropertyOp3
 70
     1
102
RTVSPropertyOp4
 70
     1
102
RTVSPropertyOp5
 70
     1
102
RTVSPropertyOp6
 70
     1
102
RTVSPropertyOp7
 70
     1
102
RTVSPropertyOp8
 70
     1
102
RTVSPropertyOp9
 70
     1
102
RTVSPropertyOp10
 70
     1
102
RTVSPropertyOp11
 70
     1
102
RTVSPropertyOp12
 70
     1
102
RTVSPropertyOp13
 70
     1
102
RTVSPropertyOp14
 70
     1
102
RTVSPropertyOp15
 70
     1
102
RTVSPropertyOp16
 70
     1
102
RTVSPropertyOp17
 70
     1
102
RTVSPropertyOp18
 70
     1
102
RTVSPropertyOp19
 70
     1
102
RTVSPropertyOp20
 70
     1
102
RTVSPropertyOp21
 70
     1
102
RTVSPropertyOp22
 70
     1
102
RTVSPropertyOp23
 70
     1
102
RTVSPropertyOp24
 70
     1
102
RTVSPropertyOp25
 70
     1
102
RTVSPropertyOp26
 70
     1
102
RTVSPropertyOp27
 70
     1
102
RTVSPropertyOp28
 70
     1
102
RTVSPropertyOp29
 70
     1
102
RTVSPropertyOp30
 70
     1
102
RTVSPropertyOp31
 70
     1
102
RTVSPropertyOp32
 70
     1
102
RTVSPropertyOp33
 70
     1
102
RTVSPropertyOp34
 70
     1
102
RTVSPropertyOp35
 70
     1
102
RTVSPropertyOp36
 70
     1
102
RTVSPropertyOp37
 70
     1
102
RTVSPropertyOp38
 70
     1
102
RTVSPropertyOp39
 70
     1
102
RTVSPropertyOp40
 70
     1
102
RTVSPropertyOp41
 70
     1
102
RTVSPropertyOp42
 70
     1
102
RTVSPropertyOp43
 70
     1
102
RTVSPropertyOp44
 70
     1
102
RTVSPropertyOp45
 70
     1
102
RTVSPropertyOp46
 70
     1
102
RTVSPropertyOp47
 70
     1
102
RTVSPropertyOp48
 70
     1
102
RTVSPropertyOp49
 70
     1
102
RTVSPropertyOp50
 70
     1
102
RTVSPropertyOp51
 70
     0
102
RTVSPropertyOp52
 70
     0
102
RTVSPropertyOp53
 70
     1
102
RTVSPropertyOp54
 70
     1
102
RTVSPropertyOp55
 70
     1
102
RTVSPropertyOp56
 70
     1
102
RTVSPropertyOp57
 70
     1
102
RTVSPropertyOp58
 70
     1
102
RTVSPropertyOp59
 70
     1
102
RTVSPropertyOp60
 70
     1
102
RTVSPropertyOp61
 70
     1
102
RTVSPropertyOp62
 70
     1
  0
XRECORD
  5
AD49
102
{ACAD_REACTORS
330
AD48
102
}
330
AD48
100
AcDbXrecord
280
     1
102
RTVSPost2010Prop28
280
     0
102
RTVSPost2010PropOp28
 70
     1
102
RTVSPost2010Prop29
280
     1
102
RTVSPost2010PropOp29
 70
     1
102
RTVSPost2010Prop30
280
     1
102
RTVSPost2010PropOp30
 70
     1
102
RTVSPost2010Prop31
280
     0
102
RTVSPost2010PropOp31
 70
     1
102
RTVSPost2010Prop32
280
     0
102
RTVSPost2010PropOp32
 70
     1
102
RTVSPost2010Prop33
280
     0
102
RTVSPost2010PropOp33
 70
     1
102
RTVSPost2010Prop34
280
     0
102
RTVSPost2010PropOp34
 70
     1
102
RTVSPost2010Prop35
280
     0
102
RTVSPost2010PropOp35
 70
     1
102
RTVSPost2010Prop36
280
     0
102
RTVSPost2010PropOp36
 70
     1
102
RTVSPost2010Prop37
 90
       50
102
RTVSPost2010PropOp37
 70
     1
102
RTVSPost2010Prop38
140
0.0
102
RTVSPost2010PropOp38
 70
     1
102
RTVSPost2010Prop39
140
1.0
102
RTVSPost2010PropOp39
 70
     1
102
RTVSPost2010Prop40
 90
        0
102
RTVSPost2010PropOp40
 70
     1
102
RTVSPost2010Prop41ColorIndex
 90
       18
102
RTVSPost2010Prop41ColorRGB
 90
        0
102
RTVSPost2010PropOp41
 70
     1
102
RTVSPost2010Prop42
 90
       50
102
RTVSPost2010PropOp42
 70
     1
102
RTVSPost2010Prop43
 90
        3
102
RTVSPost2010PropOp43
 70
     1
102
RTVSPost2010Prop44ColorIndex
 90
        5
102
RTVSPost2010Prop44ColorRGB
 90
      255
102
RTVSPost2010PropOp44
 70
     1
102
RTVSPost2010Prop45
280
     0
102
RTVSPost2010PropOp45
 70
     1
102
RTVSPost2010Prop46
 90
       50
102
RTVSPost2010PropOp46
 70
     1
102
RTVSPost2010Prop47
 90
       50
102
RTVSPost2010PropOp47
 70
     1
102
RTVSPost2010Prop48
 90
       50
102
RTVSPost2010PropOp48
 70
     1
102
RTVSPost2010Prop49
280
     0
102
RTVSPost2010PropOp49
 70
     1
102
RTVSPost2010Prop50
 90
       50
102
RTVSPost2010PropOp50
 70
     1
102
RTVSPost2010Prop51ColorIndex
 90
      256
102
RTVSPost2010Prop51ColorRGB
 90
-16777216
102
RTVSPost2010PropOp51
 70
     0
102
RTVSPost2010Prop52
140
1.0
102
RTVSPost2010PropOp52
 70
     0
102
RTVSPost2010Prop53
 90
        2
102
RTVSPost2010PropOp53
 70
     1
102
RTVSPost2010Prop54
  1
strokes_ogs.tif
102
RTVSPost2010PropOp54
 70
     1
102
RTVSPost2010Prop55
280
     0
102
RTVSPost2010PropOp55
 70
     1
102
RTVSPost2010Prop56
140
1.0
102
RTVSPost2010PropOp56
 70
     1
102
RTVSPost2010Prop57
140
1.0
102
RTVSPost2010PropOp57
 70
     1
102
RTVSPropertyOp0
 70
     1
102
RTVSPropertyOp1
 70
     1
102
RTVSPropertyOp2
 70
     1
102
RTVSPropertyOp3
 70
     1
102
RTVSPropertyOp4
 70
     1
102
RTVSPropertyOp5
 70
     1
102
RTVSPropertyOp6
 70
     1
102
RTVSPropertyOp7
 70
     1
102
RTVSPropertyOp8
 70
     1
102
RTVSPropertyOp9
 70
     1
102
RTVSPropertyOp10
 70
     1
102
RTVSPropertyOp11
 70
     1
102
RTVSPropertyOp12
 70
     1
102
RTVSPropertyOp13
 70
     1
102
RTVSPropertyOp14
 70
     1
102
RTVSPropertyOp15
 70
     1
102
RTVSPropertyOp16
 70
     1
102
RTVSPropertyOp17
 70
     1
102
RTVSPropertyOp18
 70
     1
102
RTVSPropertyOp19
 70
     1
102
RTVSPropertyOp20
 70
     1
102
RTVSPropertyOp21
 70
     1
102
RTVSPropertyOp22
 70
     1
102
RTVSPropertyOp23
 70
     1
102
RTVSPropertyOp24
 70
     1
102
RTVSPropertyOp25
 70
     1
102
RTVSPropertyOp26
 70
     1
102
RTVSPropertyOp27
 70
     1
102
RTVSPropertyOp28
 70
     1
102
RTVSPropertyOp29
 70
     1
102
RTVSPropertyOp30
 70
     1
102
RTVSPropertyOp31
 70
     1
102
RTVSPropertyOp32
 70
     1
102
RTVSPropertyOp33
 70
     1
102
RTVSPropertyOp34
 70
     1
102
RTVSPropertyOp35
 70
     1
102
RTVSPropertyOp36
 70
     1
102
RTVSPropertyOp37
 70
     1
102
RTVSPropertyOp38
 70
     1
102
RTVSPropertyOp39
 70
     1
102
RTVSPropertyOp40
 70
     1
102
RTVSPropertyOp41
 70
     1
102
RTVSPropertyOp42
 70
     1
102
RTVSPropertyOp43
 70
     1
102
RTVSPropertyOp44
 70
     1
102
RTVSPropertyOp45
 70
     1
102
RTVSPropertyOp46
 70
     1
102
RTVSPropertyOp47
 70
     1
102
RTVSPropertyOp48
 70
     1
102
RTVSPropertyOp49
 70
     1
102
RTVSPropertyOp50
 70
     1
102
RTVSPropertyOp51
 70
     0
102
RTVSPropertyOp52
 70
     0
102
RTVSPropertyOp53
 70
     1
102
RTVSPropertyOp54
 70
     1
102
RTVSPropertyOp55
 70
     1
102
RTVSPropertyOp56
 70
     1
102
RTVSPropertyOp57
 70
     1
102
RTVSPropertyOp58
 70
     1
102
RTVSPropertyOp59
 70
     1
102
RTVSPropertyOp60
 70
     1
102
RTVSPropertyOp61
 70
     1
102
RTVSPropertyOp62
 70
     1
  0
XRECORD
  5
AD51
102
{ACAD_REACTORS
330
AD50
102
}
330
AD50
100
AcDbXrecord
280
     1
102
RTVSPost2010Prop28
280
     0
102
RTVSPost2010PropOp28
 70
     1
102
RTVSPost2010Prop29
280
     1
102
RTVSPost2010PropOp29
 70
     1
102
RTVSPost2010Prop30
280
     1
102
RTVSPost2010PropOp30
 70
     1
102
RTVSPost2010Prop31
280
     0
102
RTVSPost2010PropOp31
 70
     1
102
RTVSPost2010Prop32
280
     0
102
RTVSPost2010PropOp32
 70
     1
102
RTVSPost2010Prop33
280
     0
102
RTVSPost2010PropOp33
 70
     1
102
RTVSPost2010Prop34
280
     0
102
RTVSPost2010PropOp34
 70
     1
102
RTVSPost2010Prop35
280
     0
102
RTVSPost2010PropOp35
 70
     1
102
RTVSPost2010Prop36
280
     0
102
RTVSPost2010PropOp36
 70
     1
102
RTVSPost2010Prop37
 90
       50
102
RTVSPost2010PropOp37
 70
     1
102
RTVSPost2010Prop38
140
0.0
102
RTVSPost2010PropOp38
 70
     1
102
RTVSPost2010Prop39
140
1.0
102
RTVSPost2010PropOp39
 70
     1
102
RTVSPost2010Prop40
 90
        0
102
RTVSPost2010PropOp40
 70
     1
102
RTVSPost2010Prop41ColorIndex
 90
       18
102
RTVSPost2010Prop41ColorRGB
 90
        0
102
RTVSPost2010PropOp41
 70
     1
102
RTVSPost2010Prop42
 90
       50
102
RTVSPost2010PropOp42
 70
     1
102
RTVSPost2010Prop43
 90
        3
102
RTVSPost2010PropOp43
 70
     1
102
RTVSPost2010Prop44ColorIndex
 90
        5
102
RTVSPost2010Prop44ColorRGB
 90
      255
102
RTVSPost2010PropOp44
 70
     1
102
RTVSPost2010Prop45
280
     0
102
RTVSPost2010PropOp45
 70
     1
102
RTVSPost2010Prop46
 90
       50
102
RTVSPost2010PropOp46
 70
     1
102
RTVSPost2010Prop47
 90
       50
102
RTVSPost2010PropOp47
 70
     1
102
RTVSPost2010Prop48
 90
       50
102
RTVSPost2010PropOp48
 70
     1
102
RTVSPost2010Prop49
280
     0
102
RTVSPost2010PropOp49
 70
     1
102
RTVSPost2010Prop50
 90
       50
102
RTVSPost2010PropOp50
 70
     1
102
RTVSPost2010Prop51ColorIndex
 90
      256
102
RTVSPost2010Prop51ColorRGB
 90
-16777216
102
RTVSPost2010PropOp51
 70
     0
102
RTVSPost2010Prop52
140
1.0
102
RTVSPost2010PropOp52
 70
     0
102
RTVSPost2010Prop53
 90
        2
102
RTVSPost2010PropOp53
 70
     1
102
RTVSPost2010Prop54
  1
strokes_ogs.tif
102
RTVSPost2010PropOp54
 70
     1
102
RTVSPost2010Prop55
280
     0
102
RTVSPost2010PropOp55
 70
     1
102
RTVSPost2010Prop56
140
1.0
102
RTVSPost2010PropOp56
 70
     1
102
RTVSPost2010Prop57
140
1.0
102
RTVSPost2010PropOp57
 70
     1
102
RTVSPropertyOp0
 70
     1
102
RTVSPropertyOp1
 70
     1
102
RTVSPropertyOp2
 70
     1
102
RTVSPropertyOp3
 70
     1
102
RTVSPropertyOp4
 70
     1
102
RTVSPropertyOp5
 70
     1
102
RTVSPropertyOp6
 70
     1
102
RTVSPropertyOp7
 70
     1
102
RTVSPropertyOp8
 70
     1
102
RTVSPropertyOp9
 70
     1
102
RTVSPropertyOp10
 70
     1
102
RTVSPropertyOp11
 70
     1
102
RTVSPropertyOp12
 70
     1
102
RTVSPropertyOp13
 70
     1
102
RTVSPropertyOp14
 70
     1
102
RTVSPropertyOp15
 70
     1
102
RTVSPropertyOp16
 70
     1
102
RTVSPropertyOp17
 70
     1
102
RTVSPropertyOp18
 70
     1
102
RTVSPropertyOp19
 70
     1
102
RTVSPropertyOp20
 70
     1
102
RTVSPropertyOp21
 70
     1
102
RTVSPropertyOp22
 70
     1
102
RTVSPropertyOp23
 70
     1
102
RTVSPropertyOp24
 70
     1
102
RTVSPropertyOp25
 70
     1
102
RTVSPropertyOp26
 70
     1
102
RTVSPropertyOp27
 70
     1
102
RTVSPropertyOp28
 70
     1
102
RTVSPropertyOp29
 70
     1
102
RTVSPropertyOp30
 70
     1
102
RTVSPropertyOp31
 70
     1
102
RTVSPropertyOp32
 70
     1
102
RTVSPropertyOp33
 70
     1
102
RTVSPropertyOp34
 70
     1
102
RTVSPropertyOp35
 70
     1
102
RTVSPropertyOp36
 70
     1
102
RTVSPropertyOp37
 70
     1
102
RTVSPropertyOp38
 70
     1
102
RTVSPropertyOp39
 70
     1
102
RTVSPropertyOp40
 70
     1
102
RTVSPropertyOp41
 70
     1
102
RTVSPropertyOp42
 70
     1
102
RTVSPropertyOp43
 70
     1
102
RTVSPropertyOp44
 70
     1
102
RTVSPropertyOp45
 70
     1
102
RTVSPropertyOp46
 70
     1
102
RTVSPropertyOp47
 70
     1
102
RTVSPropertyOp48
 70
     1
102
RTVSPropertyOp49
 70
     1
102
RTVSPropertyOp50
 70
     1
102
RTVSPropertyOp51
 70
     0
102
RTVSPropertyOp52
 70
     0
102
RTVSPropertyOp53
 70
     1
102
RTVSPropertyOp54
 70
     1
102
RTVSPropertyOp55
 70
     1
102
RTVSPropertyOp56
 70
     1
102
RTVSPropertyOp57
 70
     1
102
RTVSPropertyOp58
 70
     1
102
RTVSPropertyOp59
 70
     1
102
RTVSPropertyOp60
 70
     1
102
RTVSPropertyOp61
 70
     1
102
RTVSPropertyOp62
 70
     1
  0
XRECORD
  5
AD43
102
{ACAD_REACTORS
330
AD42
102
}
330
AD42
100
AcDbXrecord
280
     1
102
RTVSPost2010Prop28
280
     0
102
RTVSPost2010PropOp28
 70
     1
102
RTVSPost2010Prop29
280
     1
102
RTVSPost2010PropOp29
 70
     1
102
RTVSPost2010Prop30
280
     1
102
RTVSPost2010PropOp30
 70
     1
102
RTVSPost2010Prop31
280
     0
102
RTVSPost2010PropOp31
 70
     1
102
RTVSPost2010Prop32
280
     0
102
RTVSPost2010PropOp32
 70
     1
102
RTVSPost2010Prop33
280
     0
102
RTVSPost2010PropOp33
 70
     1
102
RTVSPost2010Prop34
280
     0
102
RTVSPost2010PropOp34
 70
     1
102
RTVSPost2010Prop35
280
     0
102
RTVSPost2010PropOp35
 70
     1
102
RTVSPost2010Prop36
280
     0
102
RTVSPost2010PropOp36
 70
     1
102
RTVSPost2010Prop37
 90
       50
102
RTVSPost2010PropOp37
 70
     1
102
RTVSPost2010Prop38
140
0.0
102
RTVSPost2010PropOp38
 70
     1
102
RTVSPost2010Prop39
140
1.0
102
RTVSPost2010PropOp39
 70
     1
102
RTVSPost2010Prop40
 90
        0
102
RTVSPost2010PropOp40
 70
     1
102
RTVSPost2010Prop41ColorIndex
 90
       18
102
RTVSPost2010Prop41ColorRGB
 90
        0
102
RTVSPost2010PropOp41
 70
     1
102
RTVSPost2010Prop42
 90
       50
102
RTVSPost2010PropOp42
 70
     1
102
RTVSPost2010Prop43
 90
        3
102
RTVSPost2010PropOp43
 70
     1
102
RTVSPost2010Prop44ColorIndex
 90
        5
102
RTVSPost2010Prop44ColorRGB
 90
      255
102
RTVSPost2010PropOp44
 70
     1
102
RTVSPost2010Prop45
280
     0
102
RTVSPost2010PropOp45
 70
     1
102
RTVSPost2010Prop46
 90
       50
102
RTVSPost2010PropOp46
 70
     1
102
RTVSPost2010Prop47
 90
       50
102
RTVSPost2010PropOp47
 70
     1
102
RTVSPost2010Prop48
 90
       50
102
RTVSPost2010PropOp48
 70
     1
102
RTVSPost2010Prop49
280
     0
102
RTVSPost2010PropOp49
 70
     1
102
RTVSPost2010Prop50
 90
       50
102
RTVSPost2010PropOp50
 70
     1
102
RTVSPost2010Prop51ColorIndex
 90
      256
102
RTVSPost2010Prop51ColorRGB
 90
-16777216
102
RTVSPost2010PropOp51
 70
     0
102
RTVSPost2010Prop52
140
1.0
102
RTVSPost2010PropOp52
 70
     0
102
RTVSPost2010Prop53
 90
        2
102
RTVSPost2010PropOp53
 70
     1
102
RTVSPost2010Prop54
  1
strokes_ogs.tif
102
RTVSPost2010PropOp54
 70
     1
102
RTVSPost2010Prop55
280
     0
102
RTVSPost2010PropOp55
 70
     1
102
RTVSPost2010Prop56
140
1.0
102
RTVSPost2010PropOp56
 70
     1
102
RTVSPost2010Prop57
140
1.0
102
RTVSPost2010PropOp57
 70
     1
102
RTVSPropertyOp0
 70
     1
102
RTVSPropertyOp1
 70
     1
102
RTVSPropertyOp2
 70
     1
102
RTVSPropertyOp3
 70
     1
102
RTVSPropertyOp4
 70
     1
102
RTVSPropertyOp5
 70
     1
102
RTVSPropertyOp6
 70
     1
102
RTVSPropertyOp7
 70
     1
102
RTVSPropertyOp8
 70
     1
102
RTVSPropertyOp9
 70
     1
102
RTVSPropertyOp10
 70
     1
102
RTVSPropertyOp11
 70
     1
102
RTVSPropertyOp12
 70
     1
102
RTVSPropertyOp13
 70
     1
102
RTVSPropertyOp14
 70
     1
102
RTVSPropertyOp15
 70
     1
102
RTVSPropertyOp16
 70
     1
102
RTVSPropertyOp17
 70
     1
102
RTVSPropertyOp18
 70
     1
102
RTVSPropertyOp19
 70
     1
102
RTVSPropertyOp20
 70
     1
102
RTVSPropertyOp21
 70
     1
102
RTVSPropertyOp22
 70
     1
102
RTVSPropertyOp23
 70
     1
102
RTVSPropertyOp24
 70
     1
102
RTVSPropertyOp25
 70
     1
102
RTVSPropertyOp26
 70
     1
102
RTVSPropertyOp27
 70
     1
102
RTVSPropertyOp28
 70
     1
102
RTVSPropertyOp29
 70
     1
102
RTVSPropertyOp30
 70
     1
102
RTVSPropertyOp31
 70
     1
102
RTVSPropertyOp32
 70
     1
102
RTVSPropertyOp33
 70
     1
102
RTVSPropertyOp34
 70
     1
102
RTVSPropertyOp35
 70
     1
102
RTVSPropertyOp36
 70
     1
102
RTVSPropertyOp37
 70
     1
102
RTVSPropertyOp38
 70
     1
102
RTVSPropertyOp39
 70
     1
102
RTVSPropertyOp40
 70
     1
102
RTVSPropertyOp41
 70
     1
102
RTVSPropertyOp42
 70
     1
102
RTVSPropertyOp43
 70
     1
102
RTVSPropertyOp44
 70
     1
102
RTVSPropertyOp45
 70
     1
102
RTVSPropertyOp46
 70
     1
102
RTVSPropertyOp47
 70
     1
102
RTVSPropertyOp48
 70
     1
102
RTVSPropertyOp49
 70
     1
102
RTVSPropertyOp50
 70
     1
102
RTVSPropertyOp51
 70
     0
102
RTVSPropertyOp52
 70
     0
102
RTVSPropertyOp53
 70
     1
102
RTVSPropertyOp54
 70
     1
102
RTVSPropertyOp55
 70
     1
102
RTVSPropertyOp56
 70
     1
102
RTVSPropertyOp57
 70
     1
102
RTVSPropertyOp58
 70
     1
102
RTVSPropertyOp59
 70
     1
102
RTVSPropertyOp60
 70
     1
102
RTVSPropertyOp61
 70
     1
102
RTVSPropertyOp62
 70
     1
  0
XRECORD
  5
AD47
102
{ACAD_REACTORS
330
AD46
102
}
330
AD46
100
AcDbXrecord
280
     1
102
RTVSPost2010Prop28
280
     0
102
RTVSPost2010PropOp28
 70
     1
102
RTVSPost2010Prop29
280
     1
102
RTVSPost2010PropOp29
 70
     1
102
RTVSPost2010Prop30
280
     1
102
RTVSPost2010PropOp30
 70
     1
102
RTVSPost2010Prop31
280
     0
102
RTVSPost2010PropOp31
 70
     1
102
RTVSPost2010Prop32
280
     0
102
RTVSPost2010PropOp32
 70
     1
102
RTVSPost2010Prop33
280
     0
102
RTVSPost2010PropOp33
 70
     1
102
RTVSPost2010Prop34
280
     0
102
RTVSPost2010PropOp34
 70
     1
102
RTVSPost2010Prop35
280
     0
102
RTVSPost2010PropOp35
 70
     1
102
RTVSPost2010Prop36
280
     0
102
RTVSPost2010PropOp36
 70
     1
102
RTVSPost2010Prop37
 90
       50
102
RTVSPost2010PropOp37
 70
     1
102
RTVSPost2010Prop38
140
0.0
102
RTVSPost2010PropOp38
 70
     1
102
RTVSPost2010Prop39
140
1.0
102
RTVSPost2010PropOp39
 70
     1
102
RTVSPost2010Prop40
 90
        0
102
RTVSPost2010PropOp40
 70
     1
102
RTVSPost2010Prop41ColorIndex
 90
       18
102
RTVSPost2010Prop41ColorRGB
 90
        0
102
RTVSPost2010PropOp41
 70
     1
102
RTVSPost2010Prop42
 90
       50
102
RTVSPost2010PropOp42
 70
     1
102
RTVSPost2010Prop43
 90
        3
102
RTVSPost2010PropOp43
 70
     1
102
RTVSPost2010Prop44ColorIndex
 90
        5
102
RTVSPost2010Prop44ColorRGB
 90
      255
102
RTVSPost2010PropOp44
 70
     1
102
RTVSPost2010Prop45
280
     0
102
RTVSPost2010PropOp45
 70
     1
102
RTVSPost2010Prop46
 90
       50
102
RTVSPost2010PropOp46
 70
     1
102
RTVSPost2010Prop47
 90
       50
102
RTVSPost2010PropOp47
 70
     1
102
RTVSPost2010Prop48
 90
       50
102
RTVSPost2010PropOp48
 70
     1
102
RTVSPost2010Prop49
280
     0
102
RTVSPost2010PropOp49
 70
     1
102
RTVSPost2010Prop50
 90
       50
102
RTVSPost2010PropOp50
 70
     1
102
RTVSPost2010Prop51ColorIndex
 90
      256
102
RTVSPost2010Prop51ColorRGB
 90
-16777216
102
RTVSPost2010PropOp51
 70
     0
102
RTVSPost2010Prop52
140
1.0
102
RTVSPost2010PropOp52
 70
     0
102
RTVSPost2010Prop53
 90
        2
102
RTVSPost2010PropOp53
 70
     1
102
RTVSPost2010Prop54
  1
strokes_ogs.tif
102
RTVSPost2010PropOp54
 70
     1
102
RTVSPost2010Prop55
280
     0
102
RTVSPost2010PropOp55
 70
     1
102
RTVSPost2010Prop56
140
1.0
102
RTVSPost2010PropOp56
 70
     1
102
RTVSPost2010Prop57
140
1.0
102
RTVSPost2010PropOp57
 70
     1
102
RTVSPropertyOp0
 70
     1
102
RTVSPropertyOp1
 70
     1
102
RTVSPropertyOp2
 70
     1
102
RTVSPropertyOp3
 70
     1
102
RTVSPropertyOp4
 70
     1
102
RTVSPropertyOp5
 70
     1
102
RTVSPropertyOp6
 70
     1
102
RTVSPropertyOp7
 70
     1
102
RTVSPropertyOp8
 70
     1
102
RTVSPropertyOp9
 70
     1
102
RTVSPropertyOp10
 70
     1
102
RTVSPropertyOp11
 70
     1
102
RTVSPropertyOp12
 70
     1
102
RTVSPropertyOp13
 70
     1
102
RTVSPropertyOp14
 70
     1
102
RTVSPropertyOp15
 70
     1
102
RTVSPropertyOp16
 70
     1
102
RTVSPropertyOp17
 70
     1
102
RTVSPropertyOp18
 70
     1
102
RTVSPropertyOp19
 70
     1
102
RTVSPropertyOp20
 70
     1
102
RTVSPropertyOp21
 70
     1
102
RTVSPropertyOp22
 70
     1
102
RTVSPropertyOp23
 70
     1
102
RTVSPropertyOp24
 70
     1
102
RTVSPropertyOp25
 70
     1
102
RTVSPropertyOp26
 70
     1
102
RTVSPropertyOp27
 70
     1
102
RTVSPropertyOp28
 70
     1
102
RTVSPropertyOp29
 70
     1
102
RTVSPropertyOp30
 70
     1
102
RTVSPropertyOp31
 70
     1
102
RTVSPropertyOp32
 70
     1
102
RTVSPropertyOp33
 70
     1
102
RTVSPropertyOp34
 70
     1
102
RTVSPropertyOp35
 70
     1
102
RTVSPropertyOp36
 70
     1
102
RTVSPropertyOp37
 70
     1
102
RTVSPropertyOp38
 70
     1
102
RTVSPropertyOp39
 70
     1
102
RTVSPropertyOp40
 70
     1
102
RTVSPropertyOp41
 70
     1
102
RTVSPropertyOp42
 70
     1
102
RTVSPropertyOp43
 70
     1
102
RTVSPropertyOp44
 70
     1
102
RTVSPropertyOp45
 70
     1
102
RTVSPropertyOp46
 70
     1
102
RTVSPropertyOp47
 70
     1
102
RTVSPropertyOp48
 70
     1
102
RTVSPropertyOp49
 70
     1
102
RTVSPropertyOp50
 70
     1
102
RTVSPropertyOp51
 70
     0
102
RTVSPropertyOp52
 70
     0
102
RTVSPropertyOp53
 70
     1
102
RTVSPropertyOp54
 70
     1
102
RTVSPropertyOp55
 70
     1
102
RTVSPropertyOp56
 70
     1
102
RTVSPropertyOp57
 70
     1
102
RTVSPropertyOp58
 70
     1
102
RTVSPropertyOp59
 70
     1
102
RTVSPropertyOp60
 70
     1
102
RTVSPropertyOp61
 70
     1
102
RTVSPropertyOp62
 70
     1
  0
XRECORD
  5
AD61
102
{ACAD_REACTORS
330
AD60
102
}
330
AD60
100
AcDbXrecord
280
     1
102
RTVSPost2010Prop28
280
     0
102
RTVSPost2010PropOp28
 70
     1
102
RTVSPost2010Prop29
280
     1
102
RTVSPost2010PropOp29
 70
     1
102
RTVSPost2010Prop30
280
     1
102
RTVSPost2010PropOp30
 70
     1
102
RTVSPost2010Prop31
280
     0
102
RTVSPost2010PropOp31
 70
     1
102
RTVSPost2010Prop32
280
     0
102
RTVSPost2010PropOp32
 70
     1
102
RTVSPost2010Prop33
280
     0
102
RTVSPost2010PropOp33
 70
     1
102
RTVSPost2010Prop34
280
     0
102
RTVSPost2010PropOp34
 70
     1
102
RTVSPost2010Prop35
280
     0
102
RTVSPost2010PropOp35
 70
     1
102
RTVSPost2010Prop36
280
     0
102
RTVSPost2010PropOp36
 70
     1
102
RTVSPost2010Prop37
 90
       50
102
RTVSPost2010PropOp37
 70
     0
102
RTVSPost2010Prop38
140
0.0
102
RTVSPost2010PropOp38
 70
     0
102
RTVSPost2010Prop39
140
1.0
102
RTVSPost2010PropOp39
 70
     0
102
RTVSPost2010Prop40
 90
        0
102
RTVSPost2010PropOp40
 70
     0
102
RTVSPost2010Prop41ColorIndex
 90
       18
102
RTVSPost2010Prop41ColorRGB
 90
        0
102
RTVSPost2010PropOp41
 70
     0
102
RTVSPost2010Prop42
 90
       50
102
RTVSPost2010PropOp42
 70
     0
102
RTVSPost2010Prop43
 90
        3
102
RTVSPost2010PropOp43
 70
     0
102
RTVSPost2010Prop44ColorIndex
 90
        5
102
RTVSPost2010Prop44ColorRGB
 90
      255
102
RTVSPost2010PropOp44
 70
     0
102
RTVSPost2010Prop45
280
     0
102
RTVSPost2010PropOp45
 70
     1
102
RTVSPost2010Prop46
 90
       50
102
RTVSPost2010PropOp46
 70
     0
102
RTVSPost2010Prop47
 90
       50
102
RTVSPost2010PropOp47
 70
     0
102
RTVSPost2010Prop48
 90
       50
102
RTVSPost2010PropOp48
 70
     0
102
RTVSPost2010Prop49
280
     0
102
RTVSPost2010PropOp49
 70
     1
102
RTVSPost2010Prop50
 90
       50
102
RTVSPost2010PropOp50
 70
     0
102
RTVSPost2010Prop51ColorIndex
 90
      256
102
RTVSPost2010Prop51ColorRGB
 90
-16777216
102
RTVSPost2010PropOp51
 70
     0
102
RTVSPost2010Prop52
140
1.0
102
RTVSPost2010PropOp52
 70
     0
102
RTVSPost2010Prop53
 90
        2
102
RTVSPost2010PropOp53
 70
     0
102
RTVSPost2010Prop54
  1
strokes_ogs.tif
102
RTVSPost2010PropOp54
 70
     0
102
RTVSPost2010Prop55
280
     0
102
RTVSPost2010PropOp55
 70
     1
102
RTVSPost2010Prop56
140
1.0
102
RTVSPost2010PropOp56
 70
     0
102
RTVSPost2010Prop57
140
1.0
102
RTVSPost2010PropOp57
 70
     0
102
RTVSPropertyOp0
 70
     0
102
RTVSPropertyOp1
 70
     0
102
RTVSPropertyOp2
 70
     0
102
RTVSPropertyOp3
 70
     0
102
RTVSPropertyOp4
 70
     0
102
RTVSPropertyOp5
 70
     0
102
RTVSPropertyOp6
 70
     0
102
RTVSPropertyOp7
 70
     0
102
RTVSPropertyOp8
 70
     0
102
RTVSPropertyOp9
 70
     0
102
RTVSPropertyOp10
 70
     0
102
RTVSPropertyOp11
 70
     0
102
RTVSPropertyOp12
 70
     0
102
RTVSPropertyOp13
 70
     0
102
RTVSPropertyOp14
 70
     2
102
RTVSPropertyOp15
 70
     0
102
RTVSPropertyOp16
 70
     0
102
RTVSPropertyOp17
 70
     0
102
RTVSPropertyOp18
 70
     0
102
RTVSPropertyOp19
 70
     0
102
RTVSPropertyOp20
 70
     0
102
RTVSPropertyOp21
 70
     0
102
RTVSPropertyOp22
 70
     0
102
RTVSPropertyOp23
 70
     0
102
RTVSPropertyOp24
 70
     0
102
RTVSPropertyOp25
 70
     0
102
RTVSPropertyOp26
 70
     0
102
RTVSPropertyOp27
 70
     0
102
RTVSPropertyOp28
 70
     1
102
RTVSPropertyOp29
 70
     1
102
RTVSPropertyOp30
 70
     1
102
RTVSPropertyOp31
 70
     1
102
RTVSPropertyOp32
 70
     1
102
RTVSPropertyOp33
 70
     1
102
RTVSPropertyOp34
 70
     1
102
RTVSPropertyOp35
 70
     1
102
RTVSPropertyOp36
 70
     1
102
RTVSPropertyOp37
 70
     0
102
RTVSPropertyOp38
 70
     0
102
RTVSPropertyOp39
 70
     0
102
RTVSPropertyOp40
 70
     0
102
RTVSPropertyOp41
 70
     0
102
RTVSPropertyOp42
 70
     0
102
RTVSPropertyOp43
 70
     0
102
RTVSPropertyOp44
 70
     0
102
RTVSPropertyOp45
 70
     1
102
RTVSPropertyOp46
 70
     0
102
RTVSPropertyOp47
 70
     0
102
RTVSPropertyOp48
 70
     0
102
RTVSPropertyOp49
 70
     1
102
RTVSPropertyOp50
 70
     0
102
RTVSPropertyOp51
 70
     0
102
RTVSPropertyOp52
 70
     0
102
RTVSPropertyOp53
 70
     0
102
RTVSPropertyOp54
 70
     0
102
RTVSPropertyOp55
 70
     1
102
RTVSPropertyOp56
 70
     0
102
RTVSPropertyOp57
 70
     0
102
RTVSPropertyOp58
 70
     0
102
RTVSPropertyOp59
 70
     0
102
RTVSPropertyOp60
 70
     0
102
RTVSPropertyOp61
 70
     0
102
RTVSPropertyOp62
 70
     0
  0
XRECORD
  5
AD4F
102
{ACAD_REACTORS
330
AD4E
102
}
330
AD4E
100
AcDbXrecord
280
     1
102
RTVSPost2010Prop28
280
     0
102
RTVSPost2010PropOp28
 70
     1
102
RTVSPost2010Prop29
280
     1
102
RTVSPost2010PropOp29
 70
     1
102
RTVSPost2010Prop30
280
     1
102
RTVSPost2010PropOp30
 70
     1
102
RTVSPost2010Prop31
280
     0
102
RTVSPost2010PropOp31
 70
     1
102
RTVSPost2010Prop32
280
     0
102
RTVSPost2010PropOp32
 70
     1
102
RTVSPost2010Prop33
280
     0
102
RTVSPost2010PropOp33
 70
     1
102
RTVSPost2010Prop34
280
     0
102
RTVSPost2010PropOp34
 70
     1
102
RTVSPost2010Prop35
280
     0
102
RTVSPost2010PropOp35
 70
     1
102
RTVSPost2010Prop36
280
     0
102
RTVSPost2010PropOp36
 70
     1
102
RTVSPost2010Prop37
 90
       50
102
RTVSPost2010PropOp37
 70
     1
102
RTVSPost2010Prop38
140
0.0
102
RTVSPost2010PropOp38
 70
     1
102
RTVSPost2010Prop39
140
1.0
102
RTVSPost2010PropOp39
 70
     1
102
RTVSPost2010Prop40
 90
        0
102
RTVSPost2010PropOp40
 70
     1
102
RTVSPost2010Prop41ColorIndex
 90
       18
102
RTVSPost2010Prop41ColorRGB
 90
        0
102
RTVSPost2010PropOp41
 70
     1
102
RTVSPost2010Prop42
 90
       50
102
RTVSPost2010PropOp42
 70
     1
102
RTVSPost2010Prop43
 90
        3
102
RTVSPost2010PropOp43
 70
     1
102
RTVSPost2010Prop44ColorIndex
 90
        5
102
RTVSPost2010Prop44ColorRGB
 90
      255
102
RTVSPost2010PropOp44
 70
     1
102
RTVSPost2010Prop45
280
     0
102
RTVSPost2010PropOp45
 70
     1
102
RTVSPost2010Prop46
 90
       50
102
RTVSPost2010PropOp46
 70
     1
102
RTVSPost2010Prop47
 90
       50
102
RTVSPost2010PropOp47
 70
     1
102
RTVSPost2010Prop48
 90
       50
102
RTVSPost2010PropOp48
 70
     1
102
RTVSPost2010Prop49
280
     0
102
RTVSPost2010PropOp49
 70
     1
102
RTVSPost2010Prop50
 90
       50
102
RTVSPost2010PropOp50
 70
     1
102
RTVSPost2010Prop51ColorIndex
 90
      256
102
RTVSPost2010Prop51ColorRGB
 90
-16777216
102
RTVSPost2010PropOp51
 70
     0
102
RTVSPost2010Prop52
140
1.0
102
RTVSPost2010PropOp52
 70
     0
102
RTVSPost2010Prop53
 90
        2
102
RTVSPost2010PropOp53
 70
     1
102
RTVSPost2010Prop54
  1
strokes_ogs.tif
102
RTVSPost2010PropOp54
 70
     1
102
RTVSPost2010Prop55
280
     0
102
RTVSPost2010PropOp55
 70
     1
102
RTVSPost2010Prop56
140
1.0
102
RTVSPost2010PropOp56
 70
     1
102
RTVSPost2010Prop57
140
1.0
102
RTVSPost2010PropOp57
 70
     1
102
RTVSPropertyOp0
 70
     1
102
RTVSPropertyOp1
 70
     1
102
RTVSPropertyOp2
 70
     1
102
RTVSPropertyOp3
 70
     1
102
RTVSPropertyOp4
 70
     1
102
RTVSPropertyOp5
 70
     1
102
RTVSPropertyOp6
 70
     1
102
RTVSPropertyOp7
 70
     1
102
RTVSPropertyOp8
 70
     1
102
RTVSPropertyOp9
 70
     1
102
RTVSPropertyOp10
 70
     1
102
RTVSPropertyOp11
 70
     1
102
RTVSPropertyOp12
 70
     1
102
RTVSPropertyOp13
 70
     1
102
RTVSPropertyOp14
 70
     1
102
RTVSPropertyOp15
 70
     1
102
RTVSPropertyOp16
 70
     1
102
RTVSPropertyOp17
 70
     1
102
RTVSPropertyOp18
 70
     1
102
RTVSPropertyOp19
 70
     1
102
RTVSPropertyOp20
 70
     1
102
RTVSPropertyOp21
 70
     1
102
RTVSPropertyOp22
 70
     1
102
RTVSPropertyOp23
 70
     1
102
RTVSPropertyOp24
 70
     1
102
RTVSPropertyOp25
 70
     1
102
RTVSPropertyOp26
 70
     1
102
RTVSPropertyOp27
 70
     1
102
RTVSPropertyOp28
 70
     1
102
RTVSPropertyOp29
 70
     1
102
RTVSPropertyOp30
 70
     1
102
RTVSPropertyOp31
 70
     1
102
RTVSPropertyOp32
 70
     1
102
RTVSPropertyOp33
 70
     1
102
RTVSPropertyOp34
 70
     1
102
RTVSPropertyOp35
 70
     1
102
RTVSPropertyOp36
 70
     1
102
RTVSPropertyOp37
 70
     1
102
RTVSPropertyOp38
 70
     1
102
RTVSPropertyOp39
 70
     1
102
RTVSPropertyOp40
 70
     1
102
RTVSPropertyOp41
 70
     1
102
RTVSPropertyOp42
 70
     1
102
RTVSPropertyOp43
 70
     1
102
RTVSPropertyOp44
 70
     1
102
RTVSPropertyOp45
 70
     1
102
RTVSPropertyOp46
 70
     1
102
RTVSPropertyOp47
 70
     1
102
RTVSPropertyOp48
 70
     1
102
RTVSPropertyOp49
 70
     1
102
RTVSPropertyOp50
 70
     1
102
RTVSPropertyOp51
 70
     0
102
RTVSPropertyOp52
 70
     0
102
RTVSPropertyOp53
 70
     1
102
RTVSPropertyOp54
 70
     1
102
RTVSPropertyOp55
 70
     1
102
RTVSPropertyOp56
 70
     1
102
RTVSPropertyOp57
 70
     1
102
RTVSPropertyOp58
 70
     1
102
RTVSPropertyOp59
 70
     1
102
RTVSPropertyOp60
 70
     1
102
RTVSPropertyOp61
 70
     1
102
RTVSPropertyOp62
 70
     1
  0
XRECORD
  5
AD33
102
{ACAD_REACTORS
330
AD32
102
}
330
AD32
100
AcDbXrecord
280
     1
102
RTVSPost2010Prop28
280
     0
102
RTVSPost2010PropOp28
 70
     1
102
RTVSPost2010Prop29
280
     1
102
RTVSPost2010PropOp29
 70
     1
102
RTVSPost2010Prop30
280
     1
102
RTVSPost2010PropOp30
 70
     1
102
RTVSPost2010Prop31
280
     0
102
RTVSPost2010PropOp31
 70
     1
102
RTVSPost2010Prop32
280
     0
102
RTVSPost2010PropOp32
 70
     1
102
RTVSPost2010Prop33
280
     0
102
RTVSPost2010PropOp33
 70
     1
102
RTVSPost2010Prop34
280
     0
102
RTVSPost2010PropOp34
 70
     1
102
RTVSPost2010Prop35
280
     0
102
RTVSPost2010PropOp35
 70
     1
102
RTVSPost2010Prop36
280
     0
102
RTVSPost2010PropOp36
 70
     1
102
RTVSPost2010Prop37
 90
       50
102
RTVSPost2010PropOp37
 70
     1
102
RTVSPost2010Prop38
140
0.0
102
RTVSPost2010PropOp38
 70
     1
102
RTVSPost2010Prop39
140
1.0
102
RTVSPost2010PropOp39
 70
     1
102
RTVSPost2010Prop40
 90
        0
102
RTVSPost2010PropOp40
 70
     1
102
RTVSPost2010Prop41ColorIndex
 90
       18
102
RTVSPost2010Prop41ColorRGB
 90
        0
102
RTVSPost2010PropOp41
 70
     1
102
RTVSPost2010Prop42
 90
       50
102
RTVSPost2010PropOp42
 70
     1
102
RTVSPost2010Prop43
 90
        3
102
RTVSPost2010PropOp43
 70
     1
102
RTVSPost2010Prop44ColorIndex
 90
        5
102
RTVSPost2010Prop44ColorRGB
 90
      255
102
RTVSPost2010PropOp44
 70
     1
102
RTVSPost2010Prop45
280
     0
102
RTVSPost2010PropOp45
 70
     1
102
RTVSPost2010Prop46
 90
       50
102
RTVSPost2010PropOp46
 70
     1
102
RTVSPost2010Prop47
 90
       50
102
RTVSPost2010PropOp47
 70
     1
102
RTVSPost2010Prop48
 90
       50
102
RTVSPost2010PropOp48
 70
     1
102
RTVSPost2010Prop49
280
     0
102
RTVSPost2010PropOp49
 70
     1
102
RTVSPost2010Prop50
 90
       50
102
RTVSPost2010PropOp50
 70
     1
102
RTVSPost2010Prop51ColorIndex
 90
      256
102
RTVSPost2010Prop51ColorRGB
 90
-16777216
102
RTVSPost2010PropOp51
 70
     0
102
RTVSPost2010Prop52
140
1.0
102
RTVSPost2010PropOp52
 70
     0
102
RTVSPost2010Prop53
 90
        2
102
RTVSPost2010PropOp53
 70
     1
102
RTVSPost2010Prop54
  1
strokes_ogs.tif
102
RTVSPost2010PropOp54
 70
     1
102
RTVSPost2010Prop55
280
     0
102
RTVSPost2010PropOp55
 70
     1
102
RTVSPost2010Prop56
140
1.0
102
RTVSPost2010PropOp56
 70
     1
102
RTVSPost2010Prop57
140
1.0
102
RTVSPost2010PropOp57
 70
     1
102
RTVSPropertyOp0
 70
     1
102
RTVSPropertyOp1
 70
     1
102
RTVSPropertyOp2
 70
     1
102
RTVSPropertyOp3
 70
     1
102
RTVSPropertyOp4
 70
     1
102
RTVSPropertyOp5
 70
     1
102
RTVSPropertyOp6
 70
     1
102
RTVSPropertyOp7
 70
     1
102
RTVSPropertyOp8
 70
     1
102
RTVSPropertyOp9
 70
     1
102
RTVSPropertyOp10
 70
     1
102
RTVSPropertyOp11
 70
     1
102
RTVSPropertyOp12
 70
     1
102
RTVSPropertyOp13
 70
     1
102
RTVSPropertyOp14
 70
     1
102
RTVSPropertyOp15
 70
     1
102
RTVSPropertyOp16
 70
     1
102
RTVSPropertyOp17
 70
     1
102
RTVSPropertyOp18
 70
     1
102
RTVSPropertyOp19
 70
     1
102
RTVSPropertyOp20
 70
     1
102
RTVSPropertyOp21
 70
     1
102
RTVSPropertyOp22
 70
     1
102
RTVSPropertyOp23
 70
     1
102
RTVSPropertyOp24
 70
     1
102
RTVSPropertyOp25
 70
     1
102
RTVSPropertyOp26
 70
     1
102
RTVSPropertyOp27
 70
     1
102
RTVSPropertyOp28
 70
     1
102
RTVSPropertyOp29
 70
     1
102
RTVSPropertyOp30
 70
     1
102
RTVSPropertyOp31
 70
     1
102
RTVSPropertyOp32
 70
     1
102
RTVSPropertyOp33
 70
     1
102
RTVSPropertyOp34
 70
     1
102
RTVSPropertyOp35
 70
     1
102
RTVSPropertyOp36
 70
     1
102
RTVSPropertyOp37
 70
     1
102
RTVSPropertyOp38
 70
     1
102
RTVSPropertyOp39
 70
     1
102
RTVSPropertyOp40
 70
     1
102
RTVSPropertyOp41
 70
     1
102
RTVSPropertyOp42
 70
     1
102
RTVSPropertyOp43
 70
     1
102
RTVSPropertyOp44
 70
     1
102
RTVSPropertyOp45
 70
     1
102
RTVSPropertyOp46
 70
     1
102
RTVSPropertyOp47
 70
     1
102
RTVSPropertyOp48
 70
     1
102
RTVSPropertyOp49
 70
     1
102
RTVSPropertyOp50
 70
     1
102
RTVSPropertyOp51
 70
     0
102
RTVSPropertyOp52
 70
     0
102
RTVSPropertyOp53
 70
     1
102
RTVSPropertyOp54
 70
     1
102
RTVSPropertyOp55
 70
     1
102
RTVSPropertyOp56
 70
     1
102
RTVSPropertyOp57
 70
     1
102
RTVSPropertyOp58
 70
     1
102
RTVSPropertyOp59
 70
     1
102
RTVSPropertyOp60
 70
     1
102
RTVSPropertyOp61
 70
     1
102
RTVSPropertyOp62
 70
     1
  0
XRECORD
  5
AD35
102
{ACAD_REACTORS
330
AD34
102
}
330
AD34
100
AcDbXrecord
280
     1
102
RTVSPost2010Prop28
280
     0
102
RTVSPost2010PropOp28
 70
     1
102
RTVSPost2010Prop29
280
     1
102
RTVSPost2010PropOp29
 70
     1
102
RTVSPost2010Prop30
280
     1
102
RTVSPost2010PropOp30
 70
     1
102
RTVSPost2010Prop31
280
     0
102
RTVSPost2010PropOp31
 70
     1
102
RTVSPost2010Prop32
280
     0
102
RTVSPost2010PropOp32
 70
     1
102
RTVSPost2010Prop33
280
     0
102
RTVSPost2010PropOp33
 70
     1
102
RTVSPost2010Prop34
280
     0
102
RTVSPost2010PropOp34
 70
     1
102
RTVSPost2010Prop35
280
     0
102
RTVSPost2010PropOp35
 70
     1
102
RTVSPost2010Prop36
280
     0
102
RTVSPost2010PropOp36
 70
     1
102
RTVSPost2010Prop37
 90
       50
102
RTVSPost2010PropOp37
 70
     1
102
RTVSPost2010Prop38
140
0.0
102
RTVSPost2010PropOp38
 70
     1
102
RTVSPost2010Prop39
140
1.0
102
RTVSPost2010PropOp39
 70
     1
102
RTVSPost2010Prop40
 90
        0
102
RTVSPost2010PropOp40
 70
     1
102
RTVSPost2010Prop41ColorIndex
 90
       18
102
RTVSPost2010Prop41ColorRGB
 90
        0
102
RTVSPost2010PropOp41
 70
     1
102
RTVSPost2010Prop42
 90
       50
102
RTVSPost2010PropOp42
 70
     1
102
RTVSPost2010Prop43
 90
        3
102
RTVSPost2010PropOp43
 70
     1
102
RTVSPost2010Prop44ColorIndex
 90
        5
102
RTVSPost2010Prop44ColorRGB
 90
      255
102
RTVSPost2010PropOp44
 70
     1
102
RTVSPost2010Prop45
280
     0
102
RTVSPost2010PropOp45
 70
     1
102
RTVSPost2010Prop46
 90
       50
102
RTVSPost2010PropOp46
 70
     1
102
RTVSPost2010Prop47
 90
       50
102
RTVSPost2010PropOp47
 70
     1
102
RTVSPost2010Prop48
 90
       50
102
RTVSPost2010PropOp48
 70
     1
102
RTVSPost2010Prop49
280
     0
102
RTVSPost2010PropOp49
 70
     1
102
RTVSPost2010Prop50
 90
       50
102
RTVSPost2010PropOp50
 70
     1
102
RTVSPost2010Prop51ColorIndex
 90
      256
102
RTVSPost2010Prop51ColorRGB
 90
-16777216
102
RTVSPost2010PropOp51
 70
     0
102
RTVSPost2010Prop52
140
1.0
102
RTVSPost2010PropOp52
 70
     0
102
RTVSPost2010Prop53
 90
        2
102
RTVSPost2010PropOp53
 70
     1
102
RTVSPost2010Prop54
  1
strokes_ogs.tif
102
RTVSPost2010PropOp54
 70
     1
102
RTVSPost2010Prop55
280
     0
102
RTVSPost2010PropOp55
 70
     1
102
RTVSPost2010Prop56
140
1.0
102
RTVSPost2010PropOp56
 70
     1
102
RTVSPost2010Prop57
140
1.0
102
RTVSPost2010PropOp57
 70
     1
102
RTVSPropertyOp0
 70
     1
102
RTVSPropertyOp1
 70
     1
102
RTVSPropertyOp2
 70
     1
102
RTVSPropertyOp3
 70
     1
102
RTVSPropertyOp4
 70
     1
102
RTVSPropertyOp5
 70
     1
102
RTVSPropertyOp6
 70
     1
102
RTVSPropertyOp7
 70
     1
102
RTVSPropertyOp8
 70
     1
102
RTVSPropertyOp9
 70
     1
102
RTVSPropertyOp10
 70
     1
102
RTVSPropertyOp11
 70
     1
102
RTVSPropertyOp12
 70
     1
102
RTVSPropertyOp13
 70
     1
102
RTVSPropertyOp14
 70
     1
102
RTVSPropertyOp15
 70
     1
102
RTVSPropertyOp16
 70
     1
102
RTVSPropertyOp17
 70
     1
102
RTVSPropertyOp18
 70
     1
102
RTVSPropertyOp19
 70
     1
102
RTVSPropertyOp20
 70
     1
102
RTVSPropertyOp21
 70
     1
102
RTVSPropertyOp22
 70
     1
102
RTVSPropertyOp23
 70
     1
102
RTVSPropertyOp24
 70
     1
102
RTVSPropertyOp25
 70
     1
102
RTVSPropertyOp26
 70
     1
102
RTVSPropertyOp27
 70
     1
102
RTVSPropertyOp28
 70
     1
102
RTVSPropertyOp29
 70
     1
102
RTVSPropertyOp30
 70
     1
102
RTVSPropertyOp31
 70
     1
102
RTVSPropertyOp32
 70
     1
102
RTVSPropertyOp33
 70
     1
102
RTVSPropertyOp34
 70
     1
102
RTVSPropertyOp35
 70
     1
102
RTVSPropertyOp36
 70
     1
102
RTVSPropertyOp37
 70
     1
102
RTVSPropertyOp38
 70
     1
102
RTVSPropertyOp39
 70
     1
102
RTVSPropertyOp40
 70
     1
102
RTVSPropertyOp41
 70
     1
102
RTVSPropertyOp42
 70
     1
102
RTVSPropertyOp43
 70
     1
102
RTVSPropertyOp44
 70
     1
102
RTVSPropertyOp45
 70
     1
102
RTVSPropertyOp46
 70
     1
102
RTVSPropertyOp47
 70
     1
102
RTVSPropertyOp48
 70
     1
102
RTVSPropertyOp49
 70
     1
102
RTVSPropertyOp50
 70
     1
102
RTVSPropertyOp51
 70
     0
102
RTVSPropertyOp52
 70
     0
102
RTVSPropertyOp53
 70
     1
102
RTVSPropertyOp54
 70
     1
102
RTVSPropertyOp55
 70
     1
102
RTVSPropertyOp56
 70
     1
102
RTVSPropertyOp57
 70
     1
102
RTVSPropertyOp58
 70
     1
102
RTVSPropertyOp59
 70
     1
102
RTVSPropertyOp60
 70
     1
102
RTVSPropertyOp61
 70
     1
102
RTVSPropertyOp62
 70
     1
  0
XRECORD
  5
AD37
102
{ACAD_REACTORS
330
AD36
102
}
330
AD36
100
AcDbXrecord
280
     1
102
RTVSPost2010Prop28
280
     0
102
RTVSPost2010PropOp28
 70
     1
102
RTVSPost2010Prop29
280
     1
102
RTVSPost2010PropOp29
 70
     1
102
RTVSPost2010Prop30
280
     1
102
RTVSPost2010PropOp30
 70
     1
102
RTVSPost2010Prop31
280
     0
102
RTVSPost2010PropOp31
 70
     1
102
RTVSPost2010Prop32
280
     0
102
RTVSPost2010PropOp32
 70
     1
102
RTVSPost2010Prop33
280
     0
102
RTVSPost2010PropOp33
 70
     1
102
RTVSPost2010Prop34
280
     0
102
RTVSPost2010PropOp34
 70
     1
102
RTVSPost2010Prop35
280
     0
102
RTVSPost2010PropOp35
 70
     1
102
RTVSPost2010Prop36
280
     0
102
RTVSPost2010PropOp36
 70
     1
102
RTVSPost2010Prop37
 90
       50
102
RTVSPost2010PropOp37
 70
     1
102
RTVSPost2010Prop38
140
0.0
102
RTVSPost2010PropOp38
 70
     1
102
RTVSPost2010Prop39
140
1.0
102
RTVSPost2010PropOp39
 70
     1
102
RTVSPost2010Prop40
 90
        0
102
RTVSPost2010PropOp40
 70
     1
102
RTVSPost2010Prop41ColorIndex
 90
       18
102
RTVSPost2010Prop41ColorRGB
 90
        0
102
RTVSPost2010PropOp41
 70
     1
102
RTVSPost2010Prop42
 90
       50
102
RTVSPost2010PropOp42
 70
     1
102
RTVSPost2010Prop43
 90
        3
102
RTVSPost2010PropOp43
 70
     1
102
RTVSPost2010Prop44ColorIndex
 90
        5
102
RTVSPost2010Prop44ColorRGB
 90
      255
102
RTVSPost2010PropOp44
 70
     1
102
RTVSPost2010Prop45
280
     0
102
RTVSPost2010PropOp45
 70
     1
102
RTVSPost2010Prop46
 90
       50
102
RTVSPost2010PropOp46
 70
     1
102
RTVSPost2010Prop47
 90
       50
102
RTVSPost2010PropOp47
 70
     1
102
RTVSPost2010Prop48
 90
       50
102
RTVSPost2010PropOp48
 70
     1
102
RTVSPost2010Prop49
280
     0
102
RTVSPost2010PropOp49
 70
     1
102
RTVSPost2010Prop50
 90
       50
102
RTVSPost2010PropOp50
 70
     1
102
RTVSPost2010Prop51ColorIndex
 90
      256
102
RTVSPost2010Prop51ColorRGB
 90
-16777216
102
RTVSPost2010PropOp51
 70
     0
102
RTVSPost2010Prop52
140
1.0
102
RTVSPost2010PropOp52
 70
     0
102
RTVSPost2010Prop53
 90
        2
102
RTVSPost2010PropOp53
 70
     1
102
RTVSPost2010Prop54
  1
strokes_ogs.tif
102
RTVSPost2010PropOp54
 70
     1
102
RTVSPost2010Prop55
280
     0
102
RTVSPost2010PropOp55
 70
     1
102
RTVSPost2010Prop56
140
1.0
102
RTVSPost2010PropOp56
 70
     1
102
RTVSPost2010Prop57
140
1.0
102
RTVSPost2010PropOp57
 70
     1
102
RTVSPropertyOp0
 70
     1
102
RTVSPropertyOp1
 70
     1
102
RTVSPropertyOp2
 70
     1
102
RTVSPropertyOp3
 70
     1
102
RTVSPropertyOp4
 70
     1
102
RTVSPropertyOp5
 70
     1
102
RTVSPropertyOp6
 70
     1
102
RTVSPropertyOp7
 70
     1
102
RTVSPropertyOp8
 70
     1
102
RTVSPropertyOp9
 70
     1
102
RTVSPropertyOp10
 70
     1
102
RTVSPropertyOp11
 70
     1
102
RTVSPropertyOp12
 70
     1
102
RTVSPropertyOp13
 70
     1
102
RTVSPropertyOp14
 70
     1
102
RTVSPropertyOp15
 70
     1
102
RTVSPropertyOp16
 70
     1
102
RTVSPropertyOp17
 70
     1
102
RTVSPropertyOp18
 70
     1
102
RTVSPropertyOp19
 70
     1
102
RTVSPropertyOp20
 70
     1
102
RTVSPropertyOp21
 70
     1
102
RTVSPropertyOp22
 70
     1
102
RTVSPropertyOp23
 70
     1
102
RTVSPropertyOp24
 70
     1
102
RTVSPropertyOp25
 70
     1
102
RTVSPropertyOp26
 70
     1
102
RTVSPropertyOp27
 70
     1
102
RTVSPropertyOp28
 70
     1
102
RTVSPropertyOp29
 70
     1
102
RTVSPropertyOp30
 70
     1
102
RTVSPropertyOp31
 70
     1
102
RTVSPropertyOp32
 70
     1
102
RTVSPropertyOp33
 70
     1
102
RTVSPropertyOp34
 70
     1
102
RTVSPropertyOp35
 70
     1
102
RTVSPropertyOp36
 70
     1
102
RTVSPropertyOp37
 70
     1
102
RTVSPropertyOp38
 70
     1
102
RTVSPropertyOp39
 70
     1
102
RTVSPropertyOp40
 70
     1
102
RTVSPropertyOp41
 70
     1
102
RTVSPropertyOp42
 70
     1
102
RTVSPropertyOp43
 70
     1
102
RTVSPropertyOp44
 70
     1
102
RTVSPropertyOp45
 70
     1
102
RTVSPropertyOp46
 70
     1
102
RTVSPropertyOp47
 70
     1
102
RTVSPropertyOp48
 70
     1
102
RTVSPropertyOp49
 70
     1
102
RTVSPropertyOp50
 70
     1
102
RTVSPropertyOp51
 70
     0
102
RTVSPropertyOp52
 70
     0
102
RTVSPropertyOp53
 70
     1
102
RTVSPropertyOp54
 70
     1
102
RTVSPropertyOp55
 70
     1
102
RTVSPropertyOp56
 70
     1
102
RTVSPropertyOp57
 70
     1
102
RTVSPropertyOp58
 70
     1
102
RTVSPropertyOp59
 70
     1
102
RTVSPropertyOp60
 70
     1
102
RTVSPropertyOp61
 70
     1
102
RTVSPropertyOp62
 70
     1
  0
XRECORD
  5
AD39
102
{ACAD_REACTORS
330
AD38
102
}
330
AD38
100
AcDbXrecord
280
     1
102
RTVSPost2010Prop28
280
     0
102
RTVSPost2010PropOp28
 70
     1
102
RTVSPost2010Prop29
280
     1
102
RTVSPost2010PropOp29
 70
     1
102
RTVSPost2010Prop30
280
     1
102
RTVSPost2010PropOp30
 70
     1
102
RTVSPost2010Prop31
280
     0
102
RTVSPost2010PropOp31
 70
     1
102
RTVSPost2010Prop32
280
     0
102
RTVSPost2010PropOp32
 70
     1
102
RTVSPost2010Prop33
280
     0
102
RTVSPost2010PropOp33
 70
     1
102
RTVSPost2010Prop34
280
     0
102
RTVSPost2010PropOp34
 70
     1
102
RTVSPost2010Prop35
280
     0
102
RTVSPost2010PropOp35
 70
     1
102
RTVSPost2010Prop36
280
     0
102
RTVSPost2010PropOp36
 70
     1
102
RTVSPost2010Prop37
 90
       50
102
RTVSPost2010PropOp37
 70
     1
102
RTVSPost2010Prop38
140
0.0
102
RTVSPost2010PropOp38
 70
     1
102
RTVSPost2010Prop39
140
1.0
102
RTVSPost2010PropOp39
 70
     1
102
RTVSPost2010Prop40
 90
        0
102
RTVSPost2010PropOp40
 70
     1
102
RTVSPost2010Prop41ColorIndex
 90
       18
102
RTVSPost2010Prop41ColorRGB
 90
        0
102
RTVSPost2010PropOp41
 70
     1
102
RTVSPost2010Prop42
 90
       50
102
RTVSPost2010PropOp42
 70
     1
102
RTVSPost2010Prop43
 90
        3
102
RTVSPost2010PropOp43
 70
     1
102
RTVSPost2010Prop44ColorIndex
 90
        5
102
RTVSPost2010Prop44ColorRGB
 90
      255
102
RTVSPost2010PropOp44
 70
     1
102
RTVSPost2010Prop45
280
     0
102
RTVSPost2010PropOp45
 70
     1
102
RTVSPost2010Prop46
 90
       50
102
RTVSPost2010PropOp46
 70
     1
102
RTVSPost2010Prop47
 90
       50
102
RTVSPost2010PropOp47
 70
     1
102
RTVSPost2010Prop48
 90
       50
102
RTVSPost2010PropOp48
 70
     1
102
RTVSPost2010Prop49
280
     0
102
RTVSPost2010PropOp49
 70
     1
102
RTVSPost2010Prop50
 90
       50
102
RTVSPost2010PropOp50
 70
     1
102
RTVSPost2010Prop51ColorIndex
 90
      256
102
RTVSPost2010Prop51ColorRGB
 90
-16777216
102
RTVSPost2010PropOp51
 70
     0
102
RTVSPost2010Prop52
140
1.0
102
RTVSPost2010PropOp52
 70
     0
102
RTVSPost2010Prop53
 90
        2
102
RTVSPost2010PropOp53
 70
     1
102
RTVSPost2010Prop54
  1
strokes_ogs.tif
102
RTVSPost2010PropOp54
 70
     1
102
RTVSPost2010Prop55
280
     0
102
RTVSPost2010PropOp55
 70
     1
102
RTVSPost2010Prop56
140
1.0
102
RTVSPost2010PropOp56
 70
     1
102
RTVSPost2010Prop57
140
1.0
102
RTVSPost2010PropOp57
 70
     1
102
RTVSPropertyOp0
 70
     1
102
RTVSPropertyOp1
 70
     1
102
RTVSPropertyOp2
 70
     1
102
RTVSPropertyOp3
 70
     1
102
RTVSPropertyOp4
 70
     1
102
RTVSPropertyOp5
 70
     1
102
RTVSPropertyOp6
 70
     1
102
RTVSPropertyOp7
 70
     1
102
RTVSPropertyOp8
 70
     1
102
RTVSPropertyOp9
 70
     1
102
RTVSPropertyOp10
 70
     1
102
RTVSPropertyOp11
 70
     1
102
RTVSPropertyOp12
 70
     1
102
RTVSPropertyOp13
 70
     1
102
RTVSPropertyOp14
 70
     1
102
RTVSPropertyOp15
 70
     1
102
RTVSPropertyOp16
 70
     1
102
RTVSPropertyOp17
 70
     1
102
RTVSPropertyOp18
 70
     1
102
RTVSPropertyOp19
 70
     1
102
RTVSPropertyOp20
 70
     1
102
RTVSPropertyOp21
 70
     1
102
RTVSPropertyOp22
 70
     1
102
RTVSPropertyOp23
 70
     1
102
RTVSPropertyOp24
 70
     1
102
RTVSPropertyOp25
 70
     1
102
RTVSPropertyOp26
 70
     1
102
RTVSPropertyOp27
 70
     1
102
RTVSPropertyOp28
 70
     1
102
RTVSPropertyOp29
 70
     1
102
RTVSPropertyOp30
 70
     1
102
RTVSPropertyOp31
 70
     1
102
RTVSPropertyOp32
 70
     1
102
RTVSPropertyOp33
 70
     1
102
RTVSPropertyOp34
 70
     1
102
RTVSPropertyOp35
 70
     1
102
RTVSPropertyOp36
 70
     1
102
RTVSPropertyOp37
 70
     1
102
RTVSPropertyOp38
 70
     1
102
RTVSPropertyOp39
 70
     1
102
RTVSPropertyOp40
 70
     1
102
RTVSPropertyOp41
 70
     1
102
RTVSPropertyOp42
 70
     1
102
RTVSPropertyOp43
 70
     1
102
RTVSPropertyOp44
 70
     1
102
RTVSPropertyOp45
 70
     1
102
RTVSPropertyOp46
 70
     1
102
RTVSPropertyOp47
 70
     1
102
RTVSPropertyOp48
 70
     1
102
RTVSPropertyOp49
 70
     1
102
RTVSPropertyOp50
 70
     1
102
RTVSPropertyOp51
 70
     0
102
RTVSPropertyOp52
 70
     0
102
RTVSPropertyOp53
 70
     1
102
RTVSPropertyOp54
 70
     1
102
RTVSPropertyOp55
 70
     1
102
RTVSPropertyOp56
 70
     1
102
RTVSPropertyOp57
 70
     1
102
RTVSPropertyOp58
 70
     1
102
RTVSPropertyOp59
 70
     1
102
RTVSPropertyOp60
 70
     1
102
RTVSPropertyOp61
 70
     1
102
RTVSPropertyOp62
 70
     1
  0
XRECORD
  5
AD41
102
{ACAD_REACTORS
330
AD40
102
}
330
AD40
100
AcDbXrecord
280
     1
102
RTVSPost2010Prop28
280
     0
102
RTVSPost2010PropOp28
 70
     1
102
RTVSPost2010Prop29
280
     1
102
RTVSPost2010PropOp29
 70
     1
102
RTVSPost2010Prop30
280
     1
102
RTVSPost2010PropOp30
 70
     1
102
RTVSPost2010Prop31
280
     0
102
RTVSPost2010PropOp31
 70
     1
102
RTVSPost2010Prop32
280
     0
102
RTVSPost2010PropOp32
 70
     1
102
RTVSPost2010Prop33
280
     0
102
RTVSPost2010PropOp33
 70
     1
102
RTVSPost2010Prop34
280
     0
102
RTVSPost2010PropOp34
 70
     1
102
RTVSPost2010Prop35
280
     0
102
RTVSPost2010PropOp35
 70
     1
102
RTVSPost2010Prop36
280
     0
102
RTVSPost2010PropOp36
 70
     1
102
RTVSPost2010Prop37
 90
       50
102
RTVSPost2010PropOp37
 70
     1
102
RTVSPost2010Prop38
140
0.0
102
RTVSPost2010PropOp38
 70
     1
102
RTVSPost2010Prop39
140
1.0
102
RTVSPost2010PropOp39
 70
     1
102
RTVSPost2010Prop40
 90
        0
102
RTVSPost2010PropOp40
 70
     1
102
RTVSPost2010Prop41ColorIndex
 90
       18
102
RTVSPost2010Prop41ColorRGB
 90
        0
102
RTVSPost2010PropOp41
 70
     1
102
RTVSPost2010Prop42
 90
       50
102
RTVSPost2010PropOp42
 70
     1
102
RTVSPost2010Prop43
 90
        3
102
RTVSPost2010PropOp43
 70
     1
102
RTVSPost2010Prop44ColorIndex
 90
        5
102
RTVSPost2010Prop44ColorRGB
 90
      255
102
RTVSPost2010PropOp44
 70
     1
102
RTVSPost2010Prop45
280
     0
102
RTVSPost2010PropOp45
 70
     1
102
RTVSPost2010Prop46
 90
       50
102
RTVSPost2010PropOp46
 70
     1
102
RTVSPost2010Prop47
 90
       50
102
RTVSPost2010PropOp47
 70
     1
102
RTVSPost2010Prop48
 90
       50
102
RTVSPost2010PropOp48
 70
     1
102
RTVSPost2010Prop49
280
     0
102
RTVSPost2010PropOp49
 70
     1
102
RTVSPost2010Prop50
 90
       50
102
RTVSPost2010PropOp50
 70
     1
102
RTVSPost2010Prop51ColorIndex
 90
      256
102
RTVSPost2010Prop51ColorRGB
 90
-16777216
102
RTVSPost2010PropOp51
 70
     0
102
RTVSPost2010Prop52
140
1.0
102
RTVSPost2010PropOp52
 70
     0
102
RTVSPost2010Prop53
 90
        2
102
RTVSPost2010PropOp53
 70
     1
102
RTVSPost2010Prop54
  1
strokes_ogs.tif
102
RTVSPost2010PropOp54
 70
     1
102
RTVSPost2010Prop55
280
     0
102
RTVSPost2010PropOp55
 70
     1
102
RTVSPost2010Prop56
140
1.0
102
RTVSPost2010PropOp56
 70
     1
102
RTVSPost2010Prop57
140
1.0
102
RTVSPost2010PropOp57
 70
     1
102
RTVSPropertyOp0
 70
     1
102
RTVSPropertyOp1
 70
     1
102
RTVSPropertyOp2
 70
     1
102
RTVSPropertyOp3
 70
     1
102
RTVSPropertyOp4
 70
     1
102
RTVSPropertyOp5
 70
     1
102
RTVSPropertyOp6
 70
     1
102
RTVSPropertyOp7
 70
     1
102
RTVSPropertyOp8
 70
     1
102
RTVSPropertyOp9
 70
     1
102
RTVSPropertyOp10
 70
     1
102
RTVSPropertyOp11
 70
     1
102
RTVSPropertyOp12
 70
     1
102
RTVSPropertyOp13
 70
     1
102
RTVSPropertyOp14
 70
     1
102
RTVSPropertyOp15
 70
     1
102
RTVSPropertyOp16
 70
     1
102
RTVSPropertyOp17
 70
     1
102
RTVSPropertyOp18
 70
     1
102
RTVSPropertyOp19
 70
     1
102
RTVSPropertyOp20
 70
     1
102
RTVSPropertyOp21
 70
     1
102
RTVSPropertyOp22
 70
     1
102
RTVSPropertyOp23
 70
     1
102
RTVSPropertyOp24
 70
     1
102
RTVSPropertyOp25
 70
     1
102
RTVSPropertyOp26
 70
     1
102
RTVSPropertyOp27
 70
     1
102
RTVSPropertyOp28
 70
     1
102
RTVSPropertyOp29
 70
     1
102
RTVSPropertyOp30
 70
     1
102
RTVSPropertyOp31
 70
     1
102
RTVSPropertyOp32
 70
     1
102
RTVSPropertyOp33
 70
     1
102
RTVSPropertyOp34
 70
     1
102
RTVSPropertyOp35
 70
     1
102
RTVSPropertyOp36
 70
     1
102
RTVSPropertyOp37
 70
     1
102
RTVSPropertyOp38
 70
     1
102
RTVSPropertyOp39
 70
     1
102
RTVSPropertyOp40
 70
     1
102
RTVSPropertyOp41
 70
     1
102
RTVSPropertyOp42
 70
     1
102
RTVSPropertyOp43
 70
     1
102
RTVSPropertyOp44
 70
     1
102
RTVSPropertyOp45
 70
     1
102
RTVSPropertyOp46
 70
     1
102
RTVSPropertyOp47
 70
     1
102
RTVSPropertyOp48
 70
     1
102
RTVSPropertyOp49
 70
     1
102
RTVSPropertyOp50
 70
     1
102
RTVSPropertyOp51
 70
     0
102
RTVSPropertyOp52
 70
     0
102
RTVSPropertyOp53
 70
     1
102
RTVSPropertyOp54
 70
     1
102
RTVSPropertyOp55
 70
     1
102
RTVSPropertyOp56
 70
     1
102
RTVSPropertyOp57
 70
     1
102
RTVSPropertyOp58
 70
     1
102
RTVSPropertyOp59
 70
     1
102
RTVSPropertyOp60
 70
     1
102
RTVSPropertyOp61
 70
     1
102
RTVSPropertyOp62
 70
     1
  0
XRECORD
  5
AD5D
102
{ACAD_REACTORS
330
AD5C
102
}
330
AD5C
100
AcDbXrecord
280
     1
102
RTVSPost2010Prop28
280
     0
102
RTVSPost2010PropOp28
 70
     1
102
RTVSPost2010Prop29
280
     1
102
RTVSPost2010PropOp29
 70
     1
102
RTVSPost2010Prop30
280
     1
102
RTVSPost2010PropOp30
 70
     1
102
RTVSPost2010Prop31
280
     0
102
RTVSPost2010PropOp31
 70
     1
102
RTVSPost2010Prop32
280
     0
102
RTVSPost2010PropOp32
 70
     1
102
RTVSPost2010Prop33
280
     0
102
RTVSPost2010PropOp33
 70
     1
102
RTVSPost2010Prop34
280
     0
102
RTVSPost2010PropOp34
 70
     1
102
RTVSPost2010Prop35
280
     0
102
RTVSPost2010PropOp35
 70
     1
102
RTVSPost2010Prop36
280
     0
102
RTVSPost2010PropOp36
 70
     1
102
RTVSPost2010Prop37
 90
       50
102
RTVSPost2010PropOp37
 70
     0
102
RTVSPost2010Prop38
140
0.0
102
RTVSPost2010PropOp38
 70
     0
102
RTVSPost2010Prop39
140
1.0
102
RTVSPost2010PropOp39
 70
     0
102
RTVSPost2010Prop40
 90
        0
102
RTVSPost2010PropOp40
 70
     0
102
RTVSPost2010Prop41ColorIndex
 90
       18
102
RTVSPost2010Prop41ColorRGB
 90
        0
102
RTVSPost2010PropOp41
 70
     0
102
RTVSPost2010Prop42
 90
       50
102
RTVSPost2010PropOp42
 70
     0
102
RTVSPost2010Prop43
 90
        3
102
RTVSPost2010PropOp43
 70
     0
102
RTVSPost2010Prop44ColorIndex
 90
        5
102
RTVSPost2010Prop44ColorRGB
 90
      255
102
RTVSPost2010PropOp44
 70
     0
102
RTVSPost2010Prop45
280
     0
102
RTVSPost2010PropOp45
 70
     1
102
RTVSPost2010Prop46
 90
       50
102
RTVSPost2010PropOp46
 70
     0
102
RTVSPost2010Prop47
 90
       50
102
RTVSPost2010PropOp47
 70
     0
102
RTVSPost2010Prop48
 90
       50
102
RTVSPost2010PropOp48
 70
     0
102
RTVSPost2010Prop49
280
     0
102
RTVSPost2010PropOp49
 70
     1
102
RTVSPost2010Prop50
 90
       50
102
RTVSPost2010PropOp50
 70
     0
102
RTVSPost2010Prop51ColorIndex
 90
      256
102
RTVSPost2010Prop51ColorRGB
 90
-16777216
102
RTVSPost2010PropOp51
 70
     0
102
RTVSPost2010Prop52
140
1.0
102
RTVSPost2010PropOp52
 70
     0
102
RTVSPost2010Prop53
 90
        2
102
RTVSPost2010PropOp53
 70
     0
102
RTVSPost2010Prop54
  1
strokes_ogs.tif
102
RTVSPost2010PropOp54
 70
     0
102
RTVSPost2010Prop55
280
     0
102
RTVSPost2010PropOp55
 70
     1
102
RTVSPost2010Prop56
140
1.0
102
RTVSPost2010PropOp56
 70
     0
102
RTVSPost2010Prop57
140
1.0
102
RTVSPost2010PropOp57
 70
     0
102
RTVSPropertyOp0
 70
     0
102
RTVSPropertyOp1
 70
     0
102
RTVSPropertyOp2
 70
     0
102
RTVSPropertyOp3
 70
     0
102
RTVSPropertyOp4
 70
     0
102
RTVSPropertyOp5
 70
     0
102
RTVSPropertyOp6
 70
     0
102
RTVSPropertyOp7
 70
     0
102
RTVSPropertyOp8
 70
     0
102
RTVSPropertyOp9
 70
     0
102
RTVSPropertyOp10
 70
     0
102
RTVSPropertyOp11
 70
     0
102
RTVSPropertyOp12
 70
     0
102
RTVSPropertyOp13
 70
     0
102
RTVSPropertyOp14
 70
     2
102
RTVSPropertyOp15
 70
     0
102
RTVSPropertyOp16
 70
     0
102
RTVSPropertyOp17
 70
     0
102
RTVSPropertyOp18
 70
     0
102
RTVSPropertyOp19
 70
     0
102
RTVSPropertyOp20
 70
     0
102
RTVSPropertyOp21
 70
     0
102
RTVSPropertyOp22
 70
     0
102
RTVSPropertyOp23
 70
     0
102
RTVSPropertyOp24
 70
     0
102
RTVSPropertyOp25
 70
     0
102
RTVSPropertyOp26
 70
     0
102
RTVSPropertyOp27
 70
     0
102
RTVSPropertyOp28
 70
     1
102
RTVSPropertyOp29
 70
     1
102
RTVSPropertyOp30
 70
     1
102
RTVSPropertyOp31
 70
     1
102
RTVSPropertyOp32
 70
     1
102
RTVSPropertyOp33
 70
     1
102
RTVSPropertyOp34
 70
     1
102
RTVSPropertyOp35
 70
     1
102
RTVSPropertyOp36
 70
     1
102
RTVSPropertyOp37
 70
     0
102
RTVSPropertyOp38
 70
     0
102
RTVSPropertyOp39
 70
     0
102
RTVSPropertyOp40
 70
     0
102
RTVSPropertyOp41
 70
     0
102
RTVSPropertyOp42
 70
     0
102
RTVSPropertyOp43
 70
     0
102
RTVSPropertyOp44
 70
     0
102
RTVSPropertyOp45
 70
     1
102
RTVSPropertyOp46
 70
     0
102
RTVSPropertyOp47
 70
     0
102
RTVSPropertyOp48
 70
     0
102
RTVSPropertyOp49
 70
     1
102
RTVSPropertyOp50
 70
     0
102
RTVSPropertyOp51
 70
     0
102
RTVSPropertyOp52
 70
     0
102
RTVSPropertyOp53
 70
     0
102
RTVSPropertyOp54
 70
     0
102
RTVSPropertyOp55
 70
     1
102
RTVSPropertyOp56
 70
     0
102
RTVSPropertyOp57
 70
     0
102
RTVSPropertyOp58
 70
     0
102
RTVSPropertyOp59
 70
     0
102
RTVSPropertyOp60
 70
     0
102
RTVSPropertyOp61
 70
     0
102
RTVSPropertyOp62
 70
     0
  0
XRECORD
  5
AD4D
102
{ACAD_REACTORS
330
AD4C
102
}
330
AD4C
100
AcDbXrecord
280
     1
102
RTVSPost2010Prop28
280
     0
102
RTVSPost2010PropOp28
 70
     1
102
RTVSPost2010Prop29
280
     1
102
RTVSPost2010PropOp29
 70
     1
102
RTVSPost2010Prop30
280
     1
102
RTVSPost2010PropOp30
 70
     1
102
RTVSPost2010Prop31
280
     0
102
RTVSPost2010PropOp31
 70
     1
102
RTVSPost2010Prop32
280
     0
102
RTVSPost2010PropOp32
 70
     1
102
RTVSPost2010Prop33
280
     0
102
RTVSPost2010PropOp33
 70
     1
102
RTVSPost2010Prop34
280
     0
102
RTVSPost2010PropOp34
 70
     1
102
RTVSPost2010Prop35
280
     0
102
RTVSPost2010PropOp35
 70
     1
102
RTVSPost2010Prop36
280
     0
102
RTVSPost2010PropOp36
 70
     1
102
RTVSPost2010Prop37
 90
       50
102
RTVSPost2010PropOp37
 70
     1
102
RTVSPost2010Prop38
140
0.0
102
RTVSPost2010PropOp38
 70
     1
102
RTVSPost2010Prop39
140
1.0
102
RTVSPost2010PropOp39
 70
     1
102
RTVSPost2010Prop40
 90
        0
102
RTVSPost2010PropOp40
 70
     1
102
RTVSPost2010Prop41ColorIndex
 90
       18
102
RTVSPost2010Prop41ColorRGB
 90
        0
102
RTVSPost2010PropOp41
 70
     1
102
RTVSPost2010Prop42
 90
       50
102
RTVSPost2010PropOp42
 70
     1
102
RTVSPost2010Prop43
 90
        3
102
RTVSPost2010PropOp43
 70
     1
102
RTVSPost2010Prop44ColorIndex
 90
        5
102
RTVSPost2010Prop44ColorRGB
 90
      255
102
RTVSPost2010PropOp44
 70
     1
102
RTVSPost2010Prop45
280
     0
102
RTVSPost2010PropOp45
 70
     1
102
RTVSPost2010Prop46
 90
       50
102
RTVSPost2010PropOp46
 70
     1
102
RTVSPost2010Prop47
 90
       50
102
RTVSPost2010PropOp47
 70
     1
102
RTVSPost2010Prop48
 90
       50
102
RTVSPost2010PropOp48
 70
     1
102
RTVSPost2010Prop49
280
     0
102
RTVSPost2010PropOp49
 70
     1
102
RTVSPost2010Prop50
 90
       50
102
RTVSPost2010PropOp50
 70
     1
102
RTVSPost2010Prop51ColorIndex
 90
      256
102
RTVSPost2010Prop51ColorRGB
 90
-16777216
102
RTVSPost2010PropOp51
 70
     0
102
RTVSPost2010Prop52
140
1.0
102
RTVSPost2010PropOp52
 70
     0
102
RTVSPost2010Prop53
 90
        2
102
RTVSPost2010PropOp53
 70
     1
102
RTVSPost2010Prop54
  1
strokes_ogs.tif
102
RTVSPost2010PropOp54
 70
     1
102
RTVSPost2010Prop55
280
     0
102
RTVSPost2010PropOp55
 70
     1
102
RTVSPost2010Prop56
140
1.0
102
RTVSPost2010PropOp56
 70
     1
102
RTVSPost2010Prop57
140
1.0
102
RTVSPost2010PropOp57
 70
     1
102
RTVSPropertyOp0
 70
     1
102
RTVSPropertyOp1
 70
     1
102
RTVSPropertyOp2
 70
     1
102
RTVSPropertyOp3
 70
     1
102
RTVSPropertyOp4
 70
     1
102
RTVSPropertyOp5
 70
     1
102
RTVSPropertyOp6
 70
     1
102
RTVSPropertyOp7
 70
     1
102
RTVSPropertyOp8
 70
     1
102
RTVSPropertyOp9
 70
     1
102
RTVSPropertyOp10
 70
     1
102
RTVSPropertyOp11
 70
     1
102
RTVSPropertyOp12
 70
     1
102
RTVSPropertyOp13
 70
     1
102
RTVSPropertyOp14
 70
     1
102
RTVSPropertyOp15
 70
     1
102
RTVSPropertyOp16
 70
     1
102
RTVSPropertyOp17
 70
     1
102
RTVSPropertyOp18
 70
     1
102
RTVSPropertyOp19
 70
     1
102
RTVSPropertyOp20
 70
     1
102
RTVSPropertyOp21
 70
     1
102
RTVSPropertyOp22
 70
     1
102
RTVSPropertyOp23
 70
     1
102
RTVSPropertyOp24
 70
     1
102
RTVSPropertyOp25
 70
     1
102
RTVSPropertyOp26
 70
     1
102
RTVSPropertyOp27
 70
     1
102
RTVSPropertyOp28
 70
     1
102
RTVSPropertyOp29
 70
     1
102
RTVSPropertyOp30
 70
     1
102
RTVSPropertyOp31
 70
     1
102
RTVSPropertyOp32
 70
     1
102
RTVSPropertyOp33
 70
     1
102
RTVSPropertyOp34
 70
     1
102
RTVSPropertyOp35
 70
     1
102
RTVSPropertyOp36
 70
     1
102
RTVSPropertyOp37
 70
     1
102
RTVSPropertyOp38
 70
     1
102
RTVSPropertyOp39
 70
     1
102
RTVSPropertyOp40
 70
     1
102
RTVSPropertyOp41
 70
     1
102
RTVSPropertyOp42
 70
     1
102
RTVSPropertyOp43
 70
     1
102
RTVSPropertyOp44
 70
     1
102
RTVSPropertyOp45
 70
     1
102
RTVSPropertyOp46
 70
     1
102
RTVSPropertyOp47
 70
     1
102
RTVSPropertyOp48
 70
     1
102
RTVSPropertyOp49
 70
     1
102
RTVSPropertyOp50
 70
     1
102
RTVSPropertyOp51
 70
     0
102
RTVSPropertyOp52
 70
     0
102
RTVSPropertyOp53
 70
     1
102
RTVSPropertyOp54
 70
     1
102
RTVSPropertyOp55
 70
     1
102
RTVSPropertyOp56
 70
     1
102
RTVSPropertyOp57
 70
     1
102
RTVSPropertyOp58
 70
     1
102
RTVSPropertyOp59
 70
     1
102
RTVSPropertyOp60
 70
     1
102
RTVSPropertyOp61
 70
     1
102
RTVSPropertyOp62
 70
     1
  0
XRECORD
  5
AD5F
102
{ACAD_REACTORS
330
AD5E
102
}
330
AD5E
100
AcDbXrecord
280
     1
102
RTVSPost2010Prop28
280
     0
102
RTVSPost2010PropOp28
 70
     1
102
RTVSPost2010Prop29
280
     1
102
RTVSPost2010PropOp29
 70
     1
102
RTVSPost2010Prop30
280
     1
102
RTVSPost2010PropOp30
 70
     1
102
RTVSPost2010Prop31
280
     0
102
RTVSPost2010PropOp31
 70
     1
102
RTVSPost2010Prop32
280
     0
102
RTVSPost2010PropOp32
 70
     1
102
RTVSPost2010Prop33
280
     0
102
RTVSPost2010PropOp33
 70
     1
102
RTVSPost2010Prop34
280
     0
102
RTVSPost2010PropOp34
 70
     1
102
RTVSPost2010Prop35
280
     0
102
RTVSPost2010PropOp35
 70
     1
102
RTVSPost2010Prop36
280
     0
102
RTVSPost2010PropOp36
 70
     1
102
RTVSPost2010Prop37
 90
       50
102
RTVSPost2010PropOp37
 70
     0
102
RTVSPost2010Prop38
140
0.0
102
RTVSPost2010PropOp38
 70
     0
102
RTVSPost2010Prop39
140
1.0
102
RTVSPost2010PropOp39
 70
     0
102
RTVSPost2010Prop40
 90
        0
102
RTVSPost2010PropOp40
 70
     0
102
RTVSPost2010Prop41ColorIndex
 90
       18
102
RTVSPost2010Prop41ColorRGB
 90
        0
102
RTVSPost2010PropOp41
 70
     0
102
RTVSPost2010Prop42
 90
       50
102
RTVSPost2010PropOp42
 70
     0
102
RTVSPost2010Prop43
 90
        3
102
RTVSPost2010PropOp43
 70
     0
102
RTVSPost2010Prop44ColorIndex
 90
        5
102
RTVSPost2010Prop44ColorRGB
 90
      255
102
RTVSPost2010PropOp44
 70
     0
102
RTVSPost2010Prop45
280
     0
102
RTVSPost2010PropOp45
 70
     1
102
RTVSPost2010Prop46
 90
       50
102
RTVSPost2010PropOp46
 70
     0
102
RTVSPost2010Prop47
 90
       50
102
RTVSPost2010PropOp47
 70
     0
102
RTVSPost2010Prop48
 90
       50
102
RTVSPost2010PropOp48
 70
     0
102
RTVSPost2010Prop49
280
     0
102
RTVSPost2010PropOp49
 70
     1
102
RTVSPost2010Prop50
 90
       50
102
RTVSPost2010PropOp50
 70
     0
102
RTVSPost2010Prop51ColorIndex
 90
      256
102
RTVSPost2010Prop51ColorRGB
 90
-16777216
102
RTVSPost2010PropOp51
 70
     0
102
RTVSPost2010Prop52
140
1.0
102
RTVSPost2010PropOp52
 70
     0
102
RTVSPost2010Prop53
 90
        2
102
RTVSPost2010PropOp53
 70
     0
102
RTVSPost2010Prop54
  1
strokes_ogs.tif
102
RTVSPost2010PropOp54
 70
     0
102
RTVSPost2010Prop55
280
     0
102
RTVSPost2010PropOp55
 70
     1
102
RTVSPost2010Prop56
140
1.0
102
RTVSPost2010PropOp56
 70
     0
102
RTVSPost2010Prop57
140
1.0
102
RTVSPost2010PropOp57
 70
     0
102
RTVSPropertyOp0
 70
     0
102
RTVSPropertyOp1
 70
     0
102
RTVSPropertyOp2
 70
     0
102
RTVSPropertyOp3
 70
     0
102
RTVSPropertyOp4
 70
     0
102
RTVSPropertyOp5
 70
     0
102
RTVSPropertyOp6
 70
     0
102
RTVSPropertyOp7
 70
     0
102
RTVSPropertyOp8
 70
     0
102
RTVSPropertyOp9
 70
     0
102
RTVSPropertyOp10
 70
     0
102
RTVSPropertyOp11
 70
     0
102
RTVSPropertyOp12
 70
     0
102
RTVSPropertyOp13
 70
     0
102
RTVSPropertyOp14
 70
     2
102
RTVSPropertyOp15
 70
     0
102
RTVSPropertyOp16
 70
     0
102
RTVSPropertyOp17
 70
     0
102
RTVSPropertyOp18
 70
     0
102
RTVSPropertyOp19
 70
     0
102
RTVSPropertyOp20
 70
     0
102
RTVSPropertyOp21
 70
     0
102
RTVSPropertyOp22
 70
     0
102
RTVSPropertyOp23
 70
     0
102
RTVSPropertyOp24
 70
     0
102
RTVSPropertyOp25
 70
     0
102
RTVSPropertyOp26
 70
     0
102
RTVSPropertyOp27
 70
     0
102
RTVSPropertyOp28
 70
     1
102
RTVSPropertyOp29
 70
     1
102
RTVSPropertyOp30
 70
     1
102
RTVSPropertyOp31
 70
     1
102
RTVSPropertyOp32
 70
     1
102
RTVSPropertyOp33
 70
     1
102
RTVSPropertyOp34
 70
     1
102
RTVSPropertyOp35
 70
     1
102
RTVSPropertyOp36
 70
     1
102
RTVSPropertyOp37
 70
     0
102
RTVSPropertyOp38
 70
     0
102
RTVSPropertyOp39
 70
     0
102
RTVSPropertyOp40
 70
     0
102
RTVSPropertyOp41
 70
     0
102
RTVSPropertyOp42
 70
     0
102
RTVSPropertyOp43
 70
     0
102
RTVSPropertyOp44
 70
     0
102
RTVSPropertyOp45
 70
     1
102
RTVSPropertyOp46
 70
     0
102
RTVSPropertyOp47
 70
     0
102
RTVSPropertyOp48
 70
     0
102
RTVSPropertyOp49
 70
     1
102
RTVSPropertyOp50
 70
     0
102
RTVSPropertyOp51
 70
     0
102
RTVSPropertyOp52
 70
     0
102
RTVSPropertyOp53
 70
     0
102
RTVSPropertyOp54
 70
     0
102
RTVSPropertyOp55
 70
     1
102
RTVSPropertyOp56
 70
     0
102
RTVSPropertyOp57
 70
     0
102
RTVSPropertyOp58
 70
     0
102
RTVSPropertyOp59
 70
     0
102
RTVSPropertyOp60
 70
     0
102
RTVSPropertyOp61
 70
     0
102
RTVSPropertyOp62
 70
     0
  0
XRECORD
  5
AD45
102
{ACAD_REACTORS
330
AD44
102
}
330
AD44
100
AcDbXrecord
280
     1
102
RTVSPost2010Prop28
280
     0
102
RTVSPost2010PropOp28
 70
     1
102
RTVSPost2010Prop29
280
     1
102
RTVSPost2010PropOp29
 70
     1
102
RTVSPost2010Prop30
280
     1
102
RTVSPost2010PropOp30
 70
     1
102
RTVSPost2010Prop31
280
     0
102
RTVSPost2010PropOp31
 70
     1
102
RTVSPost2010Prop32
280
     0
102
RTVSPost2010PropOp32
 70
     1
102
RTVSPost2010Prop33
280
     0
102
RTVSPost2010PropOp33
 70
     1
102
RTVSPost2010Prop34
280
     0
102
RTVSPost2010PropOp34
 70
     1
102
RTVSPost2010Prop35
280
     0
102
RTVSPost2010PropOp35
 70
     1
102
RTVSPost2010Prop36
280
     0
102
RTVSPost2010PropOp36
 70
     1
102
RTVSPost2010Prop37
 90
       50
102
RTVSPost2010PropOp37
 70
     1
102
RTVSPost2010Prop38
140
0.0
102
RTVSPost2010PropOp38
 70
     1
102
RTVSPost2010Prop39
140
1.0
102
RTVSPost2010PropOp39
 70
     1
102
RTVSPost2010Prop40
 90
        0
102
RTVSPost2010PropOp40
 70
     1
102
RTVSPost2010Prop41ColorIndex
 90
       18
102
RTVSPost2010Prop41ColorRGB
 90
        0
102
RTVSPost2010PropOp41
 70
     1
102
RTVSPost2010Prop42
 90
       50
102
RTVSPost2010PropOp42
 70
     1
102
RTVSPost2010Prop43
 90
        3
102
RTVSPost2010PropOp43
 70
     1
102
RTVSPost2010Prop44ColorIndex
 90
        5
102
RTVSPost2010Prop44ColorRGB
 90
      255
102
RTVSPost2010PropOp44
 70
     1
102
RTVSPost2010Prop45
280
     0
102
RTVSPost2010PropOp45
 70
     1
102
RTVSPost2010Prop46
 90
       50
102
RTVSPost2010PropOp46
 70
     1
102
RTVSPost2010Prop47
 90
       50
102
RTVSPost2010PropOp47
 70
     1
102
RTVSPost2010Prop48
 90
       50
102
RTVSPost2010PropOp48
 70
     1
102
RTVSPost2010Prop49
280
     0
102
RTVSPost2010PropOp49
 70
     1
102
RTVSPost2010Prop50
 90
       50
102
RTVSPost2010PropOp50
 70
     1
102
RTVSPost2010Prop51ColorIndex
 90
      256
102
RTVSPost2010Prop51ColorRGB
 90
-16777216
102
RTVSPost2010PropOp51
 70
     0
102
RTVSPost2010Prop52
140
1.0
102
RTVSPost2010PropOp52
 70
     0
102
RTVSPost2010Prop53
 90
        2
102
RTVSPost2010PropOp53
 70
     1
102
RTVSPost2010Prop54
  1
strokes_ogs.tif
102
RTVSPost2010PropOp54
 70
     1
102
RTVSPost2010Prop55
280
     0
102
RTVSPost2010PropOp55
 70
     1
102
RTVSPost2010Prop56
140
1.0
102
RTVSPost2010PropOp56
 70
     1
102
RTVSPost2010Prop57
140
1.0
102
RTVSPost2010PropOp57
 70
     1
102
RTVSPropertyOp0
 70
     1
102
RTVSPropertyOp1
 70
     1
102
RTVSPropertyOp2
 70
     1
102
RTVSPropertyOp3
 70
     1
102
RTVSPropertyOp4
 70
     1
102
RTVSPropertyOp5
 70
     1
102
RTVSPropertyOp6
 70
     1
102
RTVSPropertyOp7
 70
     1
102
RTVSPropertyOp8
 70
     1
102
RTVSPropertyOp9
 70
     1
102
RTVSPropertyOp10
 70
     1
102
RTVSPropertyOp11
 70
     1
102
RTVSPropertyOp12
 70
     1
102
RTVSPropertyOp13
 70
     1
102
RTVSPropertyOp14
 70
     1
102
RTVSPropertyOp15
 70
     1
102
RTVSPropertyOp16
 70
     1
102
RTVSPropertyOp17
 70
     1
102
RTVSPropertyOp18
 70
     1
102
RTVSPropertyOp19
 70
     1
102
RTVSPropertyOp20
 70
     1
102
RTVSPropertyOp21
 70
     1
102
RTVSPropertyOp22
 70
     1
102
RTVSPropertyOp23
 70
     1
102
RTVSPropertyOp24
 70
     1
102
RTVSPropertyOp25
 70
     1
102
RTVSPropertyOp26
 70
     1
102
RTVSPropertyOp27
 70
     1
102
RTVSPropertyOp28
 70
     1
102
RTVSPropertyOp29
 70
     1
102
RTVSPropertyOp30
 70
     1
102
RTVSPropertyOp31
 70
     1
102
RTVSPropertyOp32
 70
     1
102
RTVSPropertyOp33
 70
     1
102
RTVSPropertyOp34
 70
     1
102
RTVSPropertyOp35
 70
     1
102
RTVSPropertyOp36
 70
     1
102
RTVSPropertyOp37
 70
     1
102
RTVSPropertyOp38
 70
     1
102
RTVSPropertyOp39
 70
     1
102
RTVSPropertyOp40
 70
     1
102
RTVSPropertyOp41
 70
     1
102
RTVSPropertyOp42
 70
     1
102
RTVSPropertyOp43
 70
     1
102
RTVSPropertyOp44
 70
     1
102
RTVSPropertyOp45
 70
     1
102
RTVSPropertyOp46
 70
     1
102
RTVSPropertyOp47
 70
     1
102
RTVSPropertyOp48
 70
     1
102
RTVSPropertyOp49
 70
     1
102
RTVSPropertyOp50
 70
     1
102
RTVSPropertyOp51
 70
     0
102
RTVSPropertyOp52
 70
     0
102
RTVSPropertyOp53
 70
     1
102
RTVSPropertyOp54
 70
     1
102
RTVSPropertyOp55
 70
     1
102
RTVSPropertyOp56
 70
     1
102
RTVSPropertyOp57
 70
     1
102
RTVSPropertyOp58
 70
     1
102
RTVSPropertyOp59
 70
     1
102
RTVSPropertyOp60
 70
     1
102
RTVSPropertyOp61
 70
     1
102
RTVSPropertyOp62
 70
     1
  0
XRECORD
  5
AD5B
102
{ACAD_REACTORS
330
AD5A
102
}
330
AD5A
100
AcDbXrecord
280
     1
102
RTVSPost2010Prop28
280
     0
102
RTVSPost2010PropOp28
 70
     1
102
RTVSPost2010Prop29
280
     1
102
RTVSPost2010PropOp29
 70
     1
102
RTVSPost2010Prop30
280
     1
102
RTVSPost2010PropOp30
 70
     1
102
RTVSPost2010Prop31
280
     0
102
RTVSPost2010PropOp31
 70
     1
102
RTVSPost2010Prop32
280
     0
102
RTVSPost2010PropOp32
 70
     1
102
RTVSPost2010Prop33
280
     0
102
RTVSPost2010PropOp33
 70
     1
102
RTVSPost2010Prop34
280
     0
102
RTVSPost2010PropOp34
 70
     1
102
RTVSPost2010Prop35
280
     0
102
RTVSPost2010PropOp35
 70
     1
102
RTVSPost2010Prop36
280
     0
102
RTVSPost2010PropOp36
 70
     1
102
RTVSPost2010Prop37
 90
       50
102
RTVSPost2010PropOp37
 70
     1
102
RTVSPost2010Prop38
140
0.0
102
RTVSPost2010PropOp38
 70
     1
102
RTVSPost2010Prop39
140
1.0
102
RTVSPost2010PropOp39
 70
     1
102
RTVSPost2010Prop40
 90
        0
102
RTVSPost2010PropOp40
 70
     1
102
RTVSPost2010Prop41ColorIndex
 90
       18
102
RTVSPost2010Prop41ColorRGB
 90
        0
102
RTVSPost2010PropOp41
 70
     1
102
RTVSPost2010Prop42
 90
       50
102
RTVSPost2010PropOp42
 70
     1
102
RTVSPost2010Prop43
 90
        3
102
RTVSPost2010PropOp43
 70
     1
102
RTVSPost2010Prop44ColorIndex
 90
        5
102
RTVSPost2010Prop44ColorRGB
 90
      255
102
RTVSPost2010PropOp44
 70
     1
102
RTVSPost2010Prop45
280
     0
102
RTVSPost2010PropOp45
 70
     1
102
RTVSPost2010Prop46
 90
       50
102
RTVSPost2010PropOp46
 70
     1
102
RTVSPost2010Prop47
 90
       50
102
RTVSPost2010PropOp47
 70
     1
102
RTVSPost2010Prop48
 90
       50
102
RTVSPost2010PropOp48
 70
     1
102
RTVSPost2010Prop49
280
     0
102
RTVSPost2010PropOp49
 70
     1
102
RTVSPost2010Prop50
 90
       50
102
RTVSPost2010PropOp50
 70
     1
102
RTVSPost2010Prop51ColorIndex
 90
      256
102
RTVSPost2010Prop51ColorRGB
 90
-16777216
102
RTVSPost2010PropOp51
 70
     0
102
RTVSPost2010Prop52
140
1.0
102
RTVSPost2010PropOp52
 70
     0
102
RTVSPost2010Prop53
 90
        2
102
RTVSPost2010PropOp53
 70
     1
102
RTVSPost2010Prop54
  1
strokes_ogs.tif
102
RTVSPost2010PropOp54
 70
     1
102
RTVSPost2010Prop55
280
     0
102
RTVSPost2010PropOp55
 70
     1
102
RTVSPost2010Prop56
140
1.0
102
RTVSPost2010PropOp56
 70
     1
102
RTVSPost2010Prop57
140
1.0
102
RTVSPost2010PropOp57
 70
     1
102
RTVSPropertyOp0
 70
     1
102
RTVSPropertyOp1
 70
     1
102
RTVSPropertyOp2
 70
     1
102
RTVSPropertyOp3
 70
     1
102
RTVSPropertyOp4
 70
     1
102
RTVSPropertyOp5
 70
     1
102
RTVSPropertyOp6
 70
     1
102
RTVSPropertyOp7
 70
     1
102
RTVSPropertyOp8
 70
     1
102
RTVSPropertyOp9
 70
     1
102
RTVSPropertyOp10
 70
     1
102
RTVSPropertyOp11
 70
     1
102
RTVSPropertyOp12
 70
     1
102
RTVSPropertyOp13
 70
     1
102
RTVSPropertyOp14
 70
     1
102
RTVSPropertyOp15
 70
     1
102
RTVSPropertyOp16
 70
     1
102
RTVSPropertyOp17
 70
     1
102
RTVSPropertyOp18
 70
     1
102
RTVSPropertyOp19
 70
     1
102
RTVSPropertyOp20
 70
     1
102
RTVSPropertyOp21
 70
     1
102
RTVSPropertyOp22
 70
     1
102
RTVSPropertyOp23
 70
     1
102
RTVSPropertyOp24
 70
     1
102
RTVSPropertyOp25
 70
     1
102
RTVSPropertyOp26
 70
     1
102
RTVSPropertyOp27
 70
     1
102
RTVSPropertyOp28
 70
     1
102
RTVSPropertyOp29
 70
     1
102
RTVSPropertyOp30
 70
     1
102
RTVSPropertyOp31
 70
     1
102
RTVSPropertyOp32
 70
     1
102
RTVSPropertyOp33
 70
     1
102
RTVSPropertyOp34
 70
     1
102
RTVSPropertyOp35
 70
     1
102
RTVSPropertyOp36
 70
     1
102
RTVSPropertyOp37
 70
     1
102
RTVSPropertyOp38
 70
     1
102
RTVSPropertyOp39
 70
     1
102
RTVSPropertyOp40
 70
     1
102
RTVSPropertyOp41
 70
     1
102
RTVSPropertyOp42
 70
     1
102
RTVSPropertyOp43
 70
     1
102
RTVSPropertyOp44
 70
     1
102
RTVSPropertyOp45
 70
     1
102
RTVSPropertyOp46
 70
     1
102
RTVSPropertyOp47
 70
     1
102
RTVSPropertyOp48
 70
     1
102
RTVSPropertyOp49
 70
     1
102
RTVSPropertyOp50
 70
     1
102
RTVSPropertyOp51
 70
     0
102
RTVSPropertyOp52
 70
     0
102
RTVSPropertyOp53
 70
     1
102
RTVSPropertyOp54
 70
     1
102
RTVSPropertyOp55
 70
     1
102
RTVSPropertyOp56
 70
     1
102
RTVSPropertyOp57
 70
     1
102
RTVSPropertyOp58
 70
     1
102
RTVSPropertyOp59
 70
     1
102
RTVSPropertyOp60
 70
     1
102
RTVSPropertyOp61
 70
     1
102
RTVSPropertyOp62
 70
     1
  0
XRECORD
  5
AD59
102
{ACAD_REACTORS
330
AD58
102
}
330
AD58
100
AcDbXrecord
280
     1
102
RTVSPost2010Prop28
280
     0
102
RTVSPost2010PropOp28
 70
     1
102
RTVSPost2010Prop29
280
     1
102
RTVSPost2010PropOp29
 70
     1
102
RTVSPost2010Prop30
280
     1
102
RTVSPost2010PropOp30
 70
     1
102
RTVSPost2010Prop31
280
     0
102
RTVSPost2010PropOp31
 70
     1
102
RTVSPost2010Prop32
280
     0
102
RTVSPost2010PropOp32
 70
     1
102
RTVSPost2010Prop33
280
     0
102
RTVSPost2010PropOp33
 70
     1
102
RTVSPost2010Prop34
280
     0
102
RTVSPost2010PropOp34
 70
     1
102
RTVSPost2010Prop35
280
     0
102
RTVSPost2010PropOp35
 70
     1
102
RTVSPost2010Prop36
280
     0
102
RTVSPost2010PropOp36
 70
     1
102
RTVSPost2010Prop37
 90
       50
102
RTVSPost2010PropOp37
 70
     1
102
RTVSPost2010Prop38
140
0.0
102
RTVSPost2010PropOp38
 70
     1
102
RTVSPost2010Prop39
140
1.0
102
RTVSPost2010PropOp39
 70
     1
102
RTVSPost2010Prop40
 90
        0
102
RTVSPost2010PropOp40
 70
     1
102
RTVSPost2010Prop41ColorIndex
 90
       18
102
RTVSPost2010Prop41ColorRGB
 90
        0
102
RTVSPost2010PropOp41
 70
     1
102
RTVSPost2010Prop42
 90
       50
102
RTVSPost2010PropOp42
 70
     1
102
RTVSPost2010Prop43
 90
        3
102
RTVSPost2010PropOp43
 70
     1
102
RTVSPost2010Prop44ColorIndex
 90
        5
102
RTVSPost2010Prop44ColorRGB
 90
      255
102
RTVSPost2010PropOp44
 70
     1
102
RTVSPost2010Prop45
280
     0
102
RTVSPost2010PropOp45
 70
     1
102
RTVSPost2010Prop46
 90
       50
102
RTVSPost2010PropOp46
 70
     1
102
RTVSPost2010Prop47
 90
       50
102
RTVSPost2010PropOp47
 70
     1
102
RTVSPost2010Prop48
 90
       50
102
RTVSPost2010PropOp48
 70
     1
102
RTVSPost2010Prop49
280
     0
102
RTVSPost2010PropOp49
 70
     1
102
RTVSPost2010Prop50
 90
       50
102
RTVSPost2010PropOp50
 70
     1
102
RTVSPost2010Prop51ColorIndex
 90
      256
102
RTVSPost2010Prop51ColorRGB
 90
-16777216
102
RTVSPost2010PropOp51
 70
     0
102
RTVSPost2010Prop52
140
1.0
102
RTVSPost2010PropOp52
 70
     0
102
RTVSPost2010Prop53
 90
        2
102
RTVSPost2010PropOp53
 70
     1
102
RTVSPost2010Prop54
  1
strokes_ogs.tif
102
RTVSPost2010PropOp54
 70
     1
102
RTVSPost2010Prop55
280
     0
102
RTVSPost2010PropOp55
 70
     1
102
RTVSPost2010Prop56
140
1.0
102
RTVSPost2010PropOp56
 70
     1
102
RTVSPost2010Prop57
140
1.0
102
RTVSPost2010PropOp57
 70
     1
102
RTVSPropertyOp0
 70
     1
102
RTVSPropertyOp1
 70
     1
102
RTVSPropertyOp2
 70
     1
102
RTVSPropertyOp3
 70
     1
102
RTVSPropertyOp4
 70
     1
102
RTVSPropertyOp5
 70
     1
102
RTVSPropertyOp6
 70
     1
102
RTVSPropertyOp7
 70
     1
102
RTVSPropertyOp8
 70
     1
102
RTVSPropertyOp9
 70
     1
102
RTVSPropertyOp10
 70
     1
102
RTVSPropertyOp11
 70
     1
102
RTVSPropertyOp12
 70
     1
102
RTVSPropertyOp13
 70
     1
102
RTVSPropertyOp14
 70
     1
102
RTVSPropertyOp15
 70
     1
102
RTVSPropertyOp16
 70
     1
102
RTVSPropertyOp17
 70
     1
102
RTVSPropertyOp18
 70
     1
102
RTVSPropertyOp19
 70
     1
102
RTVSPropertyOp20
 70
     1
102
RTVSPropertyOp21
 70
     1
102
RTVSPropertyOp22
 70
     1
102
RTVSPropertyOp23
 70
     1
102
RTVSPropertyOp24
 70
     1
102
RTVSPropertyOp25
 70
     1
102
RTVSPropertyOp26
 70
     1
102
RTVSPropertyOp27
 70
     1
102
RTVSPropertyOp28
 70
     1
102
RTVSPropertyOp29
 70
     1
102
RTVSPropertyOp30
 70
     1
102
RTVSPropertyOp31
 70
     1
102
RTVSPropertyOp32
 70
     1
102
RTVSPropertyOp33
 70
     1
102
RTVSPropertyOp34
 70
     1
102
RTVSPropertyOp35
 70
     1
102
RTVSPropertyOp36
 70
     1
102
RTVSPropertyOp37
 70
     1
102
RTVSPropertyOp38
 70
     1
102
RTVSPropertyOp39
 70
     1
102
RTVSPropertyOp40
 70
     1
102
RTVSPropertyOp41
 70
     1
102
RTVSPropertyOp42
 70
     1
102
RTVSPropertyOp43
 70
     1
102
RTVSPropertyOp44
 70
     1
102
RTVSPropertyOp45
 70
     1
102
RTVSPropertyOp46
 70
     1
102
RTVSPropertyOp47
 70
     1
102
RTVSPropertyOp48
 70
     1
102
RTVSPropertyOp49
 70
     1
102
RTVSPropertyOp50
 70
     1
102
RTVSPropertyOp51
 70
     0
102
RTVSPropertyOp52
 70
     0
102
RTVSPropertyOp53
 70
     1
102
RTVSPropertyOp54
 70
     1
102
RTVSPropertyOp55
 70
     1
102
RTVSPropertyOp56
 70
     1
102
RTVSPropertyOp57
 70
     1
102
RTVSPropertyOp58
 70
     1
102
RTVSPropertyOp59
 70
     1
102
RTVSPropertyOp60
 70
     1
102
RTVSPropertyOp61
 70
     1
102
RTVSPropertyOp62
 70
     1
  0
XRECORD
  5
AD53
102
{ACAD_REACTORS
330
AD52
102
}
330
AD52
100
AcDbXrecord
280
     1
102
RTVSPost2010Prop28
280
     0
102
RTVSPost2010PropOp28
 70
     1
102
RTVSPost2010Prop29
280
     1
102
RTVSPost2010PropOp29
 70
     1
102
RTVSPost2010Prop30
280
     1
102
RTVSPost2010PropOp30
 70
     1
102
RTVSPost2010Prop31
280
     0
102
RTVSPost2010PropOp31
 70
     1
102
RTVSPost2010Prop32
280
     0
102
RTVSPost2010PropOp32
 70
     1
102
RTVSPost2010Prop33
280
     0
102
RTVSPost2010PropOp33
 70
     1
102
RTVSPost2010Prop34
280
     0
102
RTVSPost2010PropOp34
 70
     1
102
RTVSPost2010Prop35
280
     0
102
RTVSPost2010PropOp35
 70
     1
102
RTVSPost2010Prop36
280
     0
102
RTVSPost2010PropOp36
 70
     1
102
RTVSPost2010Prop37
 90
       50
102
RTVSPost2010PropOp37
 70
     1
102
RTVSPost2010Prop38
140
0.0
102
RTVSPost2010PropOp38
 70
     1
102
RTVSPost2010Prop39
140
1.0
102
RTVSPost2010PropOp39
 70
     1
102
RTVSPost2010Prop40
 90
        0
102
RTVSPost2010PropOp40
 70
     1
102
RTVSPost2010Prop41ColorIndex
 90
       18
102
RTVSPost2010Prop41ColorRGB
 90
        0
102
RTVSPost2010PropOp41
 70
     1
102
RTVSPost2010Prop42
 90
       50
102
RTVSPost2010PropOp42
 70
     1
102
RTVSPost2010Prop43
 90
        3
102
RTVSPost2010PropOp43
 70
     1
102
RTVSPost2010Prop44ColorIndex
 90
        5
102
RTVSPost2010Prop44ColorRGB
 90
      255
102
RTVSPost2010PropOp44
 70
     1
102
RTVSPost2010Prop45
280
     0
102
RTVSPost2010PropOp45
 70
     1
102
RTVSPost2010Prop46
 90
       50
102
RTVSPost2010PropOp46
 70
     1
102
RTVSPost2010Prop47
 90
       50
102
RTVSPost2010PropOp47
 70
     1
102
RTVSPost2010Prop48
 90
       50
102
RTVSPost2010PropOp48
 70
     1
102
RTVSPost2010Prop49
280
     0
102
RTVSPost2010PropOp49
 70
     1
102
RTVSPost2010Prop50
 90
       50
102
RTVSPost2010PropOp50
 70
     1
102
RTVSPost2010Prop51ColorIndex
 90
      256
102
RTVSPost2010Prop51ColorRGB
 90
-16777216
102
RTVSPost2010PropOp51
 70
     0
102
RTVSPost2010Prop52
140
1.0
102
RTVSPost2010PropOp52
 70
     0
102
RTVSPost2010Prop53
 90
        2
102
RTVSPost2010PropOp53
 70
     1
102
RTVSPost2010Prop54
  1
strokes_ogs.tif
102
RTVSPost2010PropOp54
 70
     1
102
RTVSPost2010Prop55
280
     0
102
RTVSPost2010PropOp55
 70
     1
102
RTVSPost2010Prop56
140
1.0
102
RTVSPost2010PropOp56
 70
     1
102
RTVSPost2010Prop57
140
1.0
102
RTVSPost2010PropOp57
 70
     1
102
RTVSPropertyOp0
 70
     1
102
RTVSPropertyOp1
 70
     1
102
RTVSPropertyOp2
 70
     1
102
RTVSPropertyOp3
 70
     1
102
RTVSPropertyOp4
 70
     1
102
RTVSPropertyOp5
 70
     1
102
RTVSPropertyOp6
 70
     1
102
RTVSPropertyOp7
 70
     1
102
RTVSPropertyOp8
 70
     1
102
RTVSPropertyOp9
 70
     1
102
RTVSPropertyOp10
 70
     1
102
RTVSPropertyOp11
 70
     1
102
RTVSPropertyOp12
 70
     1
102
RTVSPropertyOp13
 70
     1
102
RTVSPropertyOp14
 70
     1
102
RTVSPropertyOp15
 70
     1
102
RTVSPropertyOp16
 70
     1
102
RTVSPropertyOp17
 70
     1
102
RTVSPropertyOp18
 70
     1
102
RTVSPropertyOp19
 70
     1
102
RTVSPropertyOp20
 70
     1
102
RTVSPropertyOp21
 70
     1
102
RTVSPropertyOp22
 70
     1
102
RTVSPropertyOp23
 70
     1
102
RTVSPropertyOp24
 70
     1
102
RTVSPropertyOp25
 70
     1
102
RTVSPropertyOp26
 70
     1
102
RTVSPropertyOp27
 70
     1
102
RTVSPropertyOp28
 70
     1
102
RTVSPropertyOp29
 70
     1
102
RTVSPropertyOp30
 70
     1
102
RTVSPropertyOp31
 70
     1
102
RTVSPropertyOp32
 70
     1
102
RTVSPropertyOp33
 70
     1
102
RTVSPropertyOp34
 70
     1
102
RTVSPropertyOp35
 70
     1
102
RTVSPropertyOp36
 70
     1
102
RTVSPropertyOp37
 70
     1
102
RTVSPropertyOp38
 70
     1
102
RTVSPropertyOp39
 70
     1
102
RTVSPropertyOp40
 70
     1
102
RTVSPropertyOp41
 70
     1
102
RTVSPropertyOp42
 70
     1
102
RTVSPropertyOp43
 70
     1
102
RTVSPropertyOp44
 70
     1
102
RTVSPropertyOp45
 70
     1
102
RTVSPropertyOp46
 70
     1
102
RTVSPropertyOp47
 70
     1
102
RTVSPropertyOp48
 70
     1
102
RTVSPropertyOp49
 70
     1
102
RTVSPropertyOp50
 70
     1
102
RTVSPropertyOp51
 70
     0
102
RTVSPropertyOp52
 70
     0
102
RTVSPropertyOp53
 70
     1
102
RTVSPropertyOp54
 70
     1
102
RTVSPropertyOp55
 70
     1
102
RTVSPropertyOp56
 70
     1
102
RTVSPropertyOp57
 70
     1
102
RTVSPropertyOp58
 70
     1
102
RTVSPropertyOp59
 70
     1
102
RTVSPropertyOp60
 70
     1
102
RTVSPropertyOp61
 70
     1
102
RTVSPropertyOp62
 70
     1
  0
XRECORD
  5
AD55
102
{ACAD_REACTORS
330
AD54
102
}
330
AD54
100
AcDbXrecord
280
     1
102
RTVSPost2010Prop28
280
     0
102
RTVSPost2010PropOp28
 70
     1
102
RTVSPost2010Prop29
280
     1
102
RTVSPost2010PropOp29
 70
     1
102
RTVSPost2010Prop30
280
     1
102
RTVSPost2010PropOp30
 70
     1
102
RTVSPost2010Prop31
280
     0
102
RTVSPost2010PropOp31
 70
     1
102
RTVSPost2010Prop32
280
     0
102
RTVSPost2010PropOp32
 70
     1
102
RTVSPost2010Prop33
280
     0
102
RTVSPost2010PropOp33
 70
     1
102
RTVSPost2010Prop34
280
     0
102
RTVSPost2010PropOp34
 70
     1
102
RTVSPost2010Prop35
280
     0
102
RTVSPost2010PropOp35
 70
     1
102
RTVSPost2010Prop36
280
     0
102
RTVSPost2010PropOp36
 70
     1
102
RTVSPost2010Prop37
 90
       50
102
RTVSPost2010PropOp37
 70
     1
102
RTVSPost2010Prop38
140
0.0
102
RTVSPost2010PropOp38
 70
     1
102
RTVSPost2010Prop39
140
1.0
102
RTVSPost2010PropOp39
 70
     1
102
RTVSPost2010Prop40
 90
        0
102
RTVSPost2010PropOp40
 70
     1
102
RTVSPost2010Prop41ColorIndex
 90
       18
102
RTVSPost2010Prop41ColorRGB
 90
        0
102
RTVSPost2010PropOp41
 70
     1
102
RTVSPost2010Prop42
 90
       50
102
RTVSPost2010PropOp42
 70
     1
102
RTVSPost2010Prop43
 90
        3
102
RTVSPost2010PropOp43
 70
     1
102
RTVSPost2010Prop44ColorIndex
 90
        5
102
RTVSPost2010Prop44ColorRGB
 90
      255
102
RTVSPost2010PropOp44
 70
     1
102
RTVSPost2010Prop45
280
     0
102
RTVSPost2010PropOp45
 70
     1
102
RTVSPost2010Prop46
 90
       50
102
RTVSPost2010PropOp46
 70
     1
102
RTVSPost2010Prop47
 90
       50
102
RTVSPost2010PropOp47
 70
     1
102
RTVSPost2010Prop48
 90
       50
102
RTVSPost2010PropOp48
 70
     1
102
RTVSPost2010Prop49
280
     0
102
RTVSPost2010PropOp49
 70
     1
102
RTVSPost2010Prop50
 90
       50
102
RTVSPost2010PropOp50
 70
     1
102
RTVSPost2010Prop51ColorIndex
 90
      256
102
RTVSPost2010Prop51ColorRGB
 90
-16777216
102
RTVSPost2010PropOp51
 70
     0
102
RTVSPost2010Prop52
140
1.0
102
RTVSPost2010PropOp52
 70
     0
102
RTVSPost2010Prop53
 90
        2
102
RTVSPost2010PropOp53
 70
     1
102
RTVSPost2010Prop54
  1
strokes_ogs.tif
102
RTVSPost2010PropOp54
 70
     1
102
RTVSPost2010Prop55
280
     0
102
RTVSPost2010PropOp55
 70
     1
102
RTVSPost2010Prop56
140
1.0
102
RTVSPost2010PropOp56
 70
     1
102
RTVSPost2010Prop57
140
1.0
102
RTVSPost2010PropOp57
 70
     1
102
RTVSPropertyOp0
 70
     1
102
RTVSPropertyOp1
 70
     1
102
RTVSPropertyOp2
 70
     1
102
RTVSPropertyOp3
 70
     1
102
RTVSPropertyOp4
 70
     1
102
RTVSPropertyOp5
 70
     1
102
RTVSPropertyOp6
 70
     1
102
RTVSPropertyOp7
 70
     1
102
RTVSPropertyOp8
 70
     1
102
RTVSPropertyOp9
 70
     1
102
RTVSPropertyOp10
 70
     1
102
RTVSPropertyOp11
 70
     1
102
RTVSPropertyOp12
 70
     1
102
RTVSPropertyOp13
 70
     1
102
RTVSPropertyOp14
 70
     1
102
RTVSPropertyOp15
 70
     1
102
RTVSPropertyOp16
 70
     1
102
RTVSPropertyOp17
 70
     1
102
RTVSPropertyOp18
 70
     1
102
RTVSPropertyOp19
 70
     1
102
RTVSPropertyOp20
 70
     1
102
RTVSPropertyOp21
 70
     1
102
RTVSPropertyOp22
 70
     1
102
RTVSPropertyOp23
 70
     1
102
RTVSPropertyOp24
 70
     1
102
RTVSPropertyOp25
 70
     1
102
RTVSPropertyOp26
 70
     1
102
RTVSPropertyOp27
 70
     1
102
RTVSPropertyOp28
 70
     1
102
RTVSPropertyOp29
 70
     1
102
RTVSPropertyOp30
 70
     1
102
RTVSPropertyOp31
 70
     1
102
RTVSPropertyOp32
 70
     1
102
RTVSPropertyOp33
 70
     1
102
RTVSPropertyOp34
 70
     1
102
RTVSPropertyOp35
 70
     1
102
RTVSPropertyOp36
 70
     1
102
RTVSPropertyOp37
 70
     1
102
RTVSPropertyOp38
 70
     1
102
RTVSPropertyOp39
 70
     1
102
RTVSPropertyOp40
 70
     1
102
RTVSPropertyOp41
 70
     1
102
RTVSPropertyOp42
 70
     1
102
RTVSPropertyOp43
 70
     1
102
RTVSPropertyOp44
 70
     1
102
RTVSPropertyOp45
 70
     1
102
RTVSPropertyOp46
 70
     1
102
RTVSPropertyOp47
 70
     1
102
RTVSPropertyOp48
 70
     1
102
RTVSPropertyOp49
 70
     1
102
RTVSPropertyOp50
 70
     1
102
RTVSPropertyOp51
 70
     0
102
RTVSPropertyOp52
 70
     0
102
RTVSPropertyOp53
 70
     1
102
RTVSPropertyOp54
 70
     1
102
RTVSPropertyOp55
 70
     1
102
RTVSPropertyOp56
 70
     1
102
RTVSPropertyOp57
 70
     1
102
RTVSPropertyOp58
 70
     1
102
RTVSPropertyOp59
 70
     1
102
RTVSPropertyOp60
 70
     1
102
RTVSPropertyOp61
 70
     1
102
RTVSPropertyOp62
 70
     1
  0
XRECORD
  5
AD4B
102
{ACAD_REACTORS
330
AD4A
102
}
330
AD4A
100
AcDbXrecord
280
     1
102
RTVSPost2010Prop28
280
     0
102
RTVSPost2010PropOp28
 70
     1
102
RTVSPost2010Prop29
280
     1
102
RTVSPost2010PropOp29
 70
     1
102
RTVSPost2010Prop30
280
     1
102
RTVSPost2010PropOp30
 70
     1
102
RTVSPost2010Prop31
280
     0
102
RTVSPost2010PropOp31
 70
     1
102
RTVSPost2010Prop32
280
     0
102
RTVSPost2010PropOp32
 70
     1
102
RTVSPost2010Prop33
280
     0
102
RTVSPost2010PropOp33
 70
     1
102
RTVSPost2010Prop34
280
     0
102
RTVSPost2010PropOp34
 70
     1
102
RTVSPost2010Prop35
280
     0
102
RTVSPost2010PropOp35
 70
     1
102
RTVSPost2010Prop36
280
     0
102
RTVSPost2010PropOp36
 70
     1
102
RTVSPost2010Prop37
 90
       50
102
RTVSPost2010PropOp37
 70
     1
102
RTVSPost2010Prop38
140
0.0
102
RTVSPost2010PropOp38
 70
     1
102
RTVSPost2010Prop39
140
1.0
102
RTVSPost2010PropOp39
 70
     1
102
RTVSPost2010Prop40
 90
        0
102
RTVSPost2010PropOp40
 70
     1
102
RTVSPost2010Prop41ColorIndex
 90
       18
102
RTVSPost2010Prop41ColorRGB
 90
        0
102
RTVSPost2010PropOp41
 70
     1
102
RTVSPost2010Prop42
 90
       50
102
RTVSPost2010PropOp42
 70
     1
102
RTVSPost2010Prop43
 90
        3
102
RTVSPost2010PropOp43
 70
     1
102
RTVSPost2010Prop44ColorIndex
 90
        5
102
RTVSPost2010Prop44ColorRGB
 90
      255
102
RTVSPost2010PropOp44
 70
     1
102
RTVSPost2010Prop45
280
     0
102
RTVSPost2010PropOp45
 70
     1
102
RTVSPost2010Prop46
 90
       50
102
RTVSPost2010PropOp46
 70
     1
102
RTVSPost2010Prop47
 90
       50
102
RTVSPost2010PropOp47
 70
     1
102
RTVSPost2010Prop48
 90
       50
102
RTVSPost2010PropOp48
 70
     1
102
RTVSPost2010Prop49
280
     0
102
RTVSPost2010PropOp49
 70
     1
102
RTVSPost2010Prop50
 90
       50
102
RTVSPost2010PropOp50
 70
     1
102
RTVSPost2010Prop51ColorIndex
 90
      256
102
RTVSPost2010Prop51ColorRGB
 90
-16777216
102
RTVSPost2010PropOp51
 70
     0
102
RTVSPost2010Prop52
140
1.0
102
RTVSPost2010PropOp52
 70
     0
102
RTVSPost2010Prop53
 90
        2
102
RTVSPost2010PropOp53
 70
     1
102
RTVSPost2010Prop54
  1
strokes_ogs.tif
102
RTVSPost2010PropOp54
 70
     1
102
RTVSPost2010Prop55
280
     0
102
RTVSPost2010PropOp55
 70
     1
102
RTVSPost2010Prop56
140
1.0
102
RTVSPost2010PropOp56
 70
     1
102
RTVSPost2010Prop57
140
1.0
102
RTVSPost2010PropOp57
 70
     1
102
RTVSPropertyOp0
 70
     1
102
RTVSPropertyOp1
 70
     1
102
RTVSPropertyOp2
 70
     1
102
RTVSPropertyOp3
 70
     1
102
RTVSPropertyOp4
 70
     1
102
RTVSPropertyOp5
 70
     1
102
RTVSPropertyOp6
 70
     1
102
RTVSPropertyOp7
 70
     1
102
RTVSPropertyOp8
 70
     1
102
RTVSPropertyOp9
 70
     1
102
RTVSPropertyOp10
 70
     1
102
RTVSPropertyOp11
 70
     1
102
RTVSPropertyOp12
 70
     1
102
RTVSPropertyOp13
 70
     1
102
RTVSPropertyOp14
 70
     1
102
RTVSPropertyOp15
 70
     1
102
RTVSPropertyOp16
 70
     1
102
RTVSPropertyOp17
 70
     1
102
RTVSPropertyOp18
 70
     1
102
RTVSPropertyOp19
 70
     1
102
RTVSPropertyOp20
 70
     1
102
RTVSPropertyOp21
 70
     1
102
RTVSPropertyOp22
 70
     1
102
RTVSPropertyOp23
 70
     1
102
RTVSPropertyOp24
 70
     1
102
RTVSPropertyOp25
 70
     1
102
RTVSPropertyOp26
 70
     1
102
RTVSPropertyOp27
 70
     1
102
RTVSPropertyOp28
 70
     1
102
RTVSPropertyOp29
 70
     1
102
RTVSPropertyOp30
 70
     1
102
RTVSPropertyOp31
 70
     1
102
RTVSPropertyOp32
 70
     1
102
RTVSPropertyOp33
 70
     1
102
RTVSPropertyOp34
 70
     1
102
RTVSPropertyOp35
 70
     1
102
RTVSPropertyOp36
 70
     1
102
RTVSPropertyOp37
 70
     1
102
RTVSPropertyOp38
 70
     1
102
RTVSPropertyOp39
 70
     1
102
RTVSPropertyOp40
 70
     1
102
RTVSPropertyOp41
 70
     1
102
RTVSPropertyOp42
 70
     1
102
RTVSPropertyOp43
 70
     1
102
RTVSPropertyOp44
 70
     1
102
RTVSPropertyOp45
 70
     1
102
RTVSPropertyOp46
 70
     1
102
RTVSPropertyOp47
 70
     1
102
RTVSPropertyOp48
 70
     1
102
RTVSPropertyOp49
 70
     1
102
RTVSPropertyOp50
 70
     1
102
RTVSPropertyOp51
 70
     0
102
RTVSPropertyOp52
 70
     0
102
RTVSPropertyOp53
 70
     1
102
RTVSPropertyOp54
 70
     1
102
RTVSPropertyOp55
 70
     1
102
RTVSPropertyOp56
 70
     1
102
RTVSPropertyOp57
 70
     1
102
RTVSPropertyOp58
 70
     1
102
RTVSPropertyOp59
 70
     1
102
RTVSPropertyOp60
 70
     1
102
RTVSPropertyOp61
 70
     1
102
RTVSPropertyOp62
 70
     1
  0
XRECORD
  5
AD3F
102
{ACAD_REACTORS
330
AD3E
102
}
330
AD3E
100
AcDbXrecord
280
     1
102
RTVSPost2010Prop28
280
     0
102
RTVSPost2010PropOp28
 70
     1
102
RTVSPost2010Prop29
280
     1
102
RTVSPost2010PropOp29
 70
     1
102
RTVSPost2010Prop30
280
     1
102
RTVSPost2010PropOp30
 70
     1
102
RTVSPost2010Prop31
280
     0
102
RTVSPost2010PropOp31
 70
     1
102
RTVSPost2010Prop32
280
     0
102
RTVSPost2010PropOp32
 70
     1
102
RTVSPost2010Prop33
280
     0
102
RTVSPost2010PropOp33
 70
     1
102
RTVSPost2010Prop34
280
     0
102
RTVSPost2010PropOp34
 70
     1
102
RTVSPost2010Prop35
280
     0
102
RTVSPost2010PropOp35
 70
     1
102
RTVSPost2010Prop36
280
     0
102
RTVSPost2010PropOp36
 70
     1
102
RTVSPost2010Prop37
 90
       50
102
RTVSPost2010PropOp37
 70
     1
102
RTVSPost2010Prop38
140
0.0
102
RTVSPost2010PropOp38
 70
     1
102
RTVSPost2010Prop39
140
1.0
102
RTVSPost2010PropOp39
 70
     1
102
RTVSPost2010Prop40
 90
        0
102
RTVSPost2010PropOp40
 70
     1
102
RTVSPost2010Prop41ColorIndex
 90
       18
102
RTVSPost2010Prop41ColorRGB
 90
        0
102
RTVSPost2010PropOp41
 70
     1
102
RTVSPost2010Prop42
 90
       50
102
RTVSPost2010PropOp42
 70
     1
102
RTVSPost2010Prop43
 90
        3
102
RTVSPost2010PropOp43
 70
     1
102
RTVSPost2010Prop44ColorIndex
 90
        5
102
RTVSPost2010Prop44ColorRGB
 90
      255
102
RTVSPost2010PropOp44
 70
     1
102
RTVSPost2010Prop45
280
     0
102
RTVSPost2010PropOp45
 70
     1
102
RTVSPost2010Prop46
 90
       50
102
RTVSPost2010PropOp46
 70
     1
102
RTVSPost2010Prop47
 90
       50
102
RTVSPost2010PropOp47
 70
     1
102
RTVSPost2010Prop48
 90
       50
102
RTVSPost2010PropOp48
 70
     1
102
RTVSPost2010Prop49
280
     0
102
RTVSPost2010PropOp49
 70
     1
102
RTVSPost2010Prop50
 90
       50
102
RTVSPost2010PropOp50
 70
     1
102
RTVSPost2010Prop51ColorIndex
 90
      256
102
RTVSPost2010Prop51ColorRGB
 90
-16777216
102
RTVSPost2010PropOp51
 70
     0
102
RTVSPost2010Prop52
140
1.0
102
RTVSPost2010PropOp52
 70
     0
102
RTVSPost2010Prop53
 90
        2
102
RTVSPost2010PropOp53
 70
     1
102
RTVSPost2010Prop54
  1
strokes_ogs.tif
102
RTVSPost2010PropOp54
 70
     1
102
RTVSPost2010Prop55
280
     0
102
RTVSPost2010PropOp55
 70
     1
102
RTVSPost2010Prop56
140
1.0
102
RTVSPost2010PropOp56
 70
     1
102
RTVSPost2010Prop57
140
1.0
102
RTVSPost2010PropOp57
 70
     1
102
RTVSPropertyOp0
 70
     1
102
RTVSPropertyOp1
 70
     1
102
RTVSPropertyOp2
 70
     1
102
RTVSPropertyOp3
 70
     1
102
RTVSPropertyOp4
 70
     1
102
RTVSPropertyOp5
 70
     1
102
RTVSPropertyOp6
 70
     1
102
RTVSPropertyOp7
 70
     1
102
RTVSPropertyOp8
 70
     1
102
RTVSPropertyOp9
 70
     1
102
RTVSPropertyOp10
 70
     1
102
RTVSPropertyOp11
 70
     1
102
RTVSPropertyOp12
 70
     1
102
RTVSPropertyOp13
 70
     1
102
RTVSPropertyOp14
 70
     1
102
RTVSPropertyOp15
 70
     1
102
RTVSPropertyOp16
 70
     1
102
RTVSPropertyOp17
 70
     1
102
RTVSPropertyOp18
 70
     1
102
RTVSPropertyOp19
 70
     1
102
RTVSPropertyOp20
 70
     1
102
RTVSPropertyOp21
 70
     1
102
RTVSPropertyOp22
 70
     1
102
RTVSPropertyOp23
 70
     1
102
RTVSPropertyOp24
 70
     1
102
RTVSPropertyOp25
 70
     1
102
RTVSPropertyOp26
 70
     1
102
RTVSPropertyOp27
 70
     1
102
RTVSPropertyOp28
 70
     1
102
RTVSPropertyOp29
 70
     1
102
RTVSPropertyOp30
 70
     1
102
RTVSPropertyOp31
 70
     1
102
RTVSPropertyOp32
 70
     1
102
RTVSPropertyOp33
 70
     1
102
RTVSPropertyOp34
 70
     1
102
RTVSPropertyOp35
 70
     1
102
RTVSPropertyOp36
 70
     1
102
RTVSPropertyOp37
 70
     1
102
RTVSPropertyOp38
 70
     1
102
RTVSPropertyOp39
 70
     1
102
RTVSPropertyOp40
 70
     1
102
RTVSPropertyOp41
 70
     1
102
RTVSPropertyOp42
 70
     1
102
RTVSPropertyOp43
 70
     1
102
RTVSPropertyOp44
 70
     1
102
RTVSPropertyOp45
 70
     1
102
RTVSPropertyOp46
 70
     1
102
RTVSPropertyOp47
 70
     1
102
RTVSPropertyOp48
 70
     1
102
RTVSPropertyOp49
 70
     1
102
RTVSPropertyOp50
 70
     1
102
RTVSPropertyOp51
 70
     0
102
RTVSPropertyOp52
 70
     0
102
RTVSPropertyOp53
 70
     1
102
RTVSPropertyOp54
 70
     1
102
RTVSPropertyOp55
 70
     1
102
RTVSPropertyOp56
 70
     1
102
RTVSPropertyOp57
 70
     1
102
RTVSPropertyOp58
 70
     1
102
RTVSPropertyOp59
 70
     1
102
RTVSPropertyOp60
 70
     1
102
RTVSPropertyOp61
 70
     1
102
RTVSPropertyOp62
 70
     1
  0
XRECORD
  5
AD57
102
{ACAD_REACTORS
330
AD56
102
}
330
AD56
100
AcDbXrecord
280
     1
102
RTVSPost2010Prop28
280
     0
102
RTVSPost2010PropOp28
 70
     1
102
RTVSPost2010Prop29
280
     1
102
RTVSPost2010PropOp29
 70
     1
102
RTVSPost2010Prop30
280
     1
102
RTVSPost2010PropOp30
 70
     1
102
RTVSPost2010Prop31
280
     0
102
RTVSPost2010PropOp31
 70
     1
102
RTVSPost2010Prop32
280
     0
102
RTVSPost2010PropOp32
 70
     1
102
RTVSPost2010Prop33
280
     0
102
RTVSPost2010PropOp33
 70
     1
102
RTVSPost2010Prop34
280
     0
102
RTVSPost2010PropOp34
 70
     1
102
RTVSPost2010Prop35
280
     0
102
RTVSPost2010PropOp35
 70
     1
102
RTVSPost2010Prop36
280
     0
102
RTVSPost2010PropOp36
 70
     1
102
RTVSPost2010Prop37
 90
       50
102
RTVSPost2010PropOp37
 70
     1
102
RTVSPost2010Prop38
140
0.0
102
RTVSPost2010PropOp38
 70
     1
102
RTVSPost2010Prop39
140
1.0
102
RTVSPost2010PropOp39
 70
     1
102
RTVSPost2010Prop40
 90
        0
102
RTVSPost2010PropOp40
 70
     1
102
RTVSPost2010Prop41ColorIndex
 90
       18
102
RTVSPost2010Prop41ColorRGB
 90
        0
102
RTVSPost2010PropOp41
 70
     1
102
RTVSPost2010Prop42
 90
       50
102
RTVSPost2010PropOp42
 70
     1
102
RTVSPost2010Prop43
 90
        3
102
RTVSPost2010PropOp43
 70
     1
102
RTVSPost2010Prop44ColorIndex
 90
        5
102
RTVSPost2010Prop44ColorRGB
 90
      255
102
RTVSPost2010PropOp44
 70
     1
102
RTVSPost2010Prop45
280
     0
102
RTVSPost2010PropOp45
 70
     1
102
RTVSPost2010Prop46
 90
       50
102
RTVSPost2010PropOp46
 70
     1
102
RTVSPost2010Prop47
 90
       50
102
RTVSPost2010PropOp47
 70
     1
102
RTVSPost2010Prop48
 90
       50
102
RTVSPost2010PropOp48
 70
     1
102
RTVSPost2010Prop49
280
     0
102
RTVSPost2010PropOp49
 70
     1
102
RTVSPost2010Prop50
 90
       50
102
RTVSPost2010PropOp50
 70
     1
102
RTVSPost2010Prop51ColorIndex
 90
      256
102
RTVSPost2010Prop51ColorRGB
 90
-16777216
102
RTVSPost2010PropOp51
 70
     0
102
RTVSPost2010Prop52
140
1.0
102
RTVSPost2010PropOp52
 70
     0
102
RTVSPost2010Prop53
 90
        2
102
RTVSPost2010PropOp53
 70
     1
102
RTVSPost2010Prop54
  1
strokes_ogs.tif
102
RTVSPost2010PropOp54
 70
     1
102
RTVSPost2010Prop55
280
     0
102
RTVSPost2010PropOp55
 70
     1
102
RTVSPost2010Prop56
140
1.0
102
RTVSPost2010PropOp56
 70
     1
102
RTVSPost2010Prop57
140
1.0
102
RTVSPost2010PropOp57
 70
     1
102
RTVSPropertyOp0
 70
     1
102
RTVSPropertyOp1
 70
     1
102
RTVSPropertyOp2
 70
     1
102
RTVSPropertyOp3
 70
     1
102
RTVSPropertyOp4
 70
     1
102
RTVSPropertyOp5
 70
     1
102
RTVSPropertyOp6
 70
     1
102
RTVSPropertyOp7
 70
     1
102
RTVSPropertyOp8
 70
     1
102
RTVSPropertyOp9
 70
     1
102
RTVSPropertyOp10
 70
     1
102
RTVSPropertyOp11
 70
     1
102
RTVSPropertyOp12
 70
     1
102
RTVSPropertyOp13
 70
     1
102
RTVSPropertyOp14
 70
     1
102
RTVSPropertyOp15
 70
     1
102
RTVSPropertyOp16
 70
     1
102
RTVSPropertyOp17
 70
     1
102
RTVSPropertyOp18
 70
     1
102
RTVSPropertyOp19
 70
     1
102
RTVSPropertyOp20
 70
     1
102
RTVSPropertyOp21
 70
     1
102
RTVSPropertyOp22
 70
     1
102
RTVSPropertyOp23
 70
     1
102
RTVSPropertyOp24
 70
     1
102
RTVSPropertyOp25
 70
     1
102
RTVSPropertyOp26
 70
     1
102
RTVSPropertyOp27
 70
     1
102
RTVSPropertyOp28
 70
     1
102
RTVSPropertyOp29
 70
     1
102
RTVSPropertyOp30
 70
     1
102
RTVSPropertyOp31
 70
     1
102
RTVSPropertyOp32
 70
     1
102
RTVSPropertyOp33
 70
     1
102
RTVSPropertyOp34
 70
     1
102
RTVSPropertyOp35
 70
     1
102
RTVSPropertyOp36
 70
     1
102
RTVSPropertyOp37
 70
     1
102
RTVSPropertyOp38
 70
     1
102
RTVSPropertyOp39
 70
     1
102
RTVSPropertyOp40
 70
     1
102
RTVSPropertyOp41
 70
     1
102
RTVSPropertyOp42
 70
     1
102
RTVSPropertyOp43
 70
     1
102
RTVSPropertyOp44
 70
     1
102
RTVSPropertyOp45
 70
     1
102
RTVSPropertyOp46
 70
     1
102
RTVSPropertyOp47
 70
     1
102
RTVSPropertyOp48
 70
     1
102
RTVSPropertyOp49
 70
     1
102
RTVSPropertyOp50
 70
     1
102
RTVSPropertyOp51
 70
     0
102
RTVSPropertyOp52
 70
     0
102
RTVSPropertyOp53
 70
     1
102
RTVSPropertyOp54
 70
     1
102
RTVSPropertyOp55
 70
     1
102
RTVSPropertyOp56
 70
     1
102
RTVSPropertyOp57
 70
     1
102
RTVSPropertyOp58
 70
     1
102
RTVSPropertyOp59
 70
     1
102
RTVSPropertyOp60
 70
     1
102
RTVSPropertyOp61
 70
     1
102
RTVSPropertyOp62
 70
     1
  0
ENDSEC
  0
EOF
