  0
SECTION
  2
HEADER
  9
$ACADVER
  1
AC1015
  9
$ACADMAINTVER
 70
    20
  9
$DWGCODEPAGE
  3
ANSI_932
  9
$INSBASE
 10
0.0
 20
0.0
 30
0.0
  9
$EXTMIN
 10
10.00000153760811
 20
9.999999806846602
 30
0.0
  9
$EXTMAX
 10
597.5100525376078
 20
443.1818788068464
 30
0.0
  9
$LIMMIN
 10
0.0000015376081137
 20
-0.0000001931532552
  9
$LIMMAX
 10
645.0000015376081
 20
444.6590907159373
  9
$ORTHOMODE
 70
     1
  9
$REGENMODE
 70
     1
  9
$FILLMODE
 70
     1
  9
$QTEXTMODE
 70
     0
  9
$MIRRTEXT
 70
     1
  9
$LTSCALE
 40
1.0
  9
$ATTMODE
 70
     1
  9
$TEXTSIZE
 40
2.5
  9
$TRACEWID
 40
1.0
  9
$TEXTSTYLE
  7
STANDARD
  9
$CLAYER
  8
0
  9
$CELTYPE
  6
BYLAYER
  9
$CECOLOR
 62
   256
  9
$CELTSCALE
 40
1.0
  9
$DISPSILH
 70
     0
  9
$DIMSCALE
 40
1.0
  9
$DIMASZ
 40
3.0
  9
$DIMEXO
 40
1.0
  9
$DIMDLI
 40
10.0
  9
$DIMRND
 40
0.0
  9
$DIMDLE
 40
0.0
  9
$DIMEXE
 40
1.0
  9
$DIMTP
 40
0.0
  9
$DIMTM
 40
0.0
  9
$DIMTXT
 40
3.2
  9
$DIMCEN
 40
0.0
  9
$DIMTSZ
 40
0.0
  9
$DIMTOL
 70
     0
  9
$DIMLIM
 70
     0
  9
$DIMTIH
 70
     0
  9
$DIMTOH
 70
     0
  9
$DIMSE1
 70
     0
  9
$DIMSE2
 70
     0
  9
$DIMTAD
 70
     3
  9
$DIMZIN
 70
     8
  9
$DIMBLK
  1

  9
$DIMASO
 70
     1
  9
$DIMSHO
 70
     1
  9
$DIMPOST
  1

  9
$DIMAPOST
  1

  9
$DIMALT
 70
     0
  9
$DIMALTD
 70
     2
  9
$DIMALTF
 40
25.4
  9
$DIMLFAC
 40
1.0
  9
$DIMTOFL
 70
     1
  9
$DIMTVP
 40
0.0
  9
$DIMTIX
 70
     0
  9
$DIMSOXD
 70
     0
  9
$DIMSAH
 70
     1
  9
$DIMBLK1
  1
OPEN
  9
$DIMBLK2
  1
OPEN
  9
$DIMSTYLE
  2
STANDARD
  9
$DIMCLRD
 70
     0
  9
$DIMCLRE
 70
     0
  9
$DIMCLRT
 70
     0
  9
$DIMTFAC
 40
1.0
  9
$DIMGAP
 40
1.0
  9
$DIMJUST
 70
     0
  9
$DIMSD1
 70
     0
  9
$DIMSD2
 70
     0
  9
$DIMTOLJ
 70
     1
  9
$DIMTZIN
 70
     0
  9
$DIMALTZ
 70
     0
  9
$DIMALTTZ
 70
     0
  9
$DIMUPT
 70
     0
  9
$DIMDEC
 70
     4
  9
$DIMTDEC
 70
     4
  9
$DIMALTU
 70
     2
  9
$DIMALTTD
 70
     2
  9
$DIMTXSTY
  7
STANDARD
  9
$DIMAUNIT
 70
     0
  9
$DIMADEC
 70
     0
  9
$DIMALTRND
 40
0.0
  9
$DIMAZIN
 70
     0
  9
$DIMDSEP
 70
    46
  9
$DIMATFIT
 70
     3
  9
$DIMFRAC
 70
     0
  9
$DIMLDRBLK
  1
OPEN
  9
$DIMLUNIT
 70
     2
  9
$DIMLWD
 70
    -2
  9
$DIMLWE
 70
    -2
  9
$DIMTMOVE
 70
     0
  9
$LUNITS
 70
     2
  9
$LUPREC
 70
     4
  9
$SKETCHINC
 40
1.0
  9
$FILLETRAD
 40
0.0
  9
$AUNITS
 70
     0
  9
$AUPREC
 70
     0
  9
$MENU
  1
.
  9
$ELEVATION
 40
0.0
  9
$PELEVATION
 40
0.0
  9
$THICKNESS
 40
0.0
  9
$LIMCHECK
 70
     0
  9
$CHAMFERA
 40
10.0
  9
$CHAMFERB
 40
10.0
  9
$CHAMFERC
 40
20.0
  9
$CHAMFERD
 40
0.0
  9
$SKPOLY
 70
     0
  9
$TDCREATE
 40
2454875.556019803
  9
$TDUCREATE
 40
2454875.181019803
  9
$TDUPDATE
 40
2457192.686880463
  9
$TDUUPDATE
 40
2457192.311880463
  9
$TDINDWG
 40
0.0053679051
  9
$TDUSRTIMER
 40
0.0053678935
  9
$USRTIMER
 70
     1
  9
$ANGBASE
 50
0.0
  9
$ANGDIR
 70
     0
  9
$PDMODE
 70
     0
  9
$PDSIZE
 40
0.0
  9
$PLINEWID
 40
0.0
  9
$SPLFRAME
 70
     0
  9
$SPLINETYPE
 70
     6
  9
$SPLINESEGS
 70
     8
  9
$HANDSEED
  5
6E0
  9
$SURFTAB1
 70
     6
  9
$SURFTAB2
 70
     6
  9
$SURFTYPE
 70
     6
  9
$SURFU
 70
     6
  9
$SURFV
 70
     6
  9
$UCSBASE
  2

  9
$UCSNAME
  2

  9
$UCSORG
 10
0.0
 20
0.0
 30
0.0
  9
$UCSXDIR
 10
1.0
 20
0.0
 30
0.0
  9
$UCSYDIR
 10
0.0
 20
1.0
 30
0.0
  9
$UCSORTHOREF
  2

  9
$UCSORTHOVIEW
 70
     0
  9
$UCSORGTOP
 10
0.0
 20
0.0
 30
0.0
  9
$UCSORGBOTTOM
 10
0.0
 20
0.0
 30
0.0
  9
$UCSORGLEFT
 10
0.0
 20
0.0
 30
0.0
  9
$UCSORGRIGHT
 10
0.0
 20
0.0
 30
0.0
  9
$UCSORGFRONT
 10
0.0
 20
0.0
 30
0.0
  9
$UCSORGBACK
 10
0.0
 20
0.0
 30
0.0
  9
$PUCSBASE
  2

  9
$PUCSNAME
  2

  9
$PUCSORG
 10
0.0
 20
0.0
 30
0.0
  9
$PUCSXDIR
 10
1.0
 20
0.0
 30
0.0
  9
$PUCSYDIR
 10
0.0
 20
1.0
 30
0.0
  9
$PUCSORTHOREF
  2

  9
$PUCSORTHOVIEW
 70
     0
  9
$PUCSORGTOP
 10
0.0
 20
0.0
 30
0.0
  9
$PUCSORGBOTTOM
 10
0.0
 20
0.0
 30
0.0
  9
$PUCSORGLEFT
 10
0.0
 20
0.0
 30
0.0
  9
$PUCSORGRIGHT
 10
0.0
 20
0.0
 30
0.0
  9
$PUCSORGFRONT
 10
0.0
 20
0.0
 30
0.0
  9
$PUCSORGBACK
 10
0.0
 20
0.0
 30
0.0
  9
$USERI1
 70
     0
  9
$USERI2
 70
     0
  9
$USERI3
 70
     0
  9
$USERI4
 70
     0
  9
$USERI5
 70
     0
  9
$USERR1
 40
0.0
  9
$USERR2
 40
0.0
  9
$USERR3
 40
0.0
  9
$USERR4
 40
0.0
  9
$USERR5
 40
0.0
  9
$WORLDVIEW
 70
     1
  9
$SHADEDGE
 70
     3
  9
$SHADEDIF
 70
    70
  9
$TILEMODE
 70
     1
  9
$MAXACTVP
 70
    48
  9
$PINSBASE
 10
0.0
 20
0.0
 30
0.0
  9
$PLIMCHECK
 70
     0
  9
$PEXTMIN
 10
1.000000000000000E+20
 20
1.000000000000000E+20
 30
1.000000000000000E+20
  9
$PEXTMAX
 10
-1.000000000000000E+20
 20
-1.000000000000000E+20
 30
-1.000000000000000E+20
  9
$PLIMMIN
 10
0.0
 20
0.0
  9
$PLIMMAX
 10
420.0
 20
297.0
  9
$UNITMODE
 70
     0
  9
$VISRETAIN
 70
     1
  9
$PLINEGEN
 70
     0
  9
$PSLTSCALE
 70
     1
  9
$TREEDEPTH
 70
  3020
  9
$CMLSTYLE
  2
STANDARD
  9
$CMLJUST
 70
     0
  9
$CMLSCALE
 40
20.0
  9
$PROXYGRAPHICS
 70
     1
  9
$MEASUREMENT
 70
     0
  9
$CELWEIGHT
370
    -1
  9
$ENDCAPS
280
     0
  9
$JOINSTYLE
280
     0
  9
$LWDISPLAY
290
     0
  9
$INSUNITS
 70
     0
  9
$HYPERLINKBASE
  1

  9
$STYLESHEET
  1

  9
$XEDIT
290
     1
  9
$CEPSNTYPE
380
     0
  9
$PSTYLEMODE
290
     1
  9
$FINGERPRINTGUID
  2
{3DE08457-BDD4-4C15-ACF5-6B775706F7C1}
  9
$VERSIONGUID
  2
{0A8B86F0-3A2C-4ED9-9BC4-070D0E8E2497}
  9
$EXTNAMES
290
     1
  9
$PSVPSCALE
 40
0.0
  9
$OLESTARTUP
290
     0
  0
ENDSEC
  0
SECTION
  2
CLASSES
  0
CLASS
  1
ACDBDICTIONARYWDFLT
  2
AcDbDictionaryWithDefault
  3
ObjectDBX Classes
 90
        0
280
     0
281
     0
  0
CLASS
  1
ACDBPLACEHOLDER
  2
AcDbPlaceHolder
  3
ObjectDBX Classes
 90
        0
280
     0
281
     0
  0
CLASS
  1
LAYOUT
  2
AcDbLayout
  3
ObjectDBX Classes
 90
        0
280
     0
281
     0
  0
CLASS
  1
MATERIAL
  2
AcDbMaterial
  3
ObjectDBX Classes
 90
     1153
280
     0
281
     0
  0
CLASS
  1
VISUALSTYLE
  2
AcDbVisualStyle
  3
ObjectDBX Classes
 90
     4095
280
     0
281
     0
  0
CLASS
  1
TABLESTYLE
  2
AcDbTableStyle
  3
ObjectDBX Classes
 90
     4095
280
     0
281
     0
  0
CLASS
  1
SCALE
  2
AcDbScale
  3
ObjectDBX Classes
 90
     1153
280
     0
281
     0
  0
CLASS
  1
MLEADERSTYLE
  2
AcDbMLeaderStyle
  3
ACDB_MLEADERSTYLE_CLASS
 90
     4095
280
     0
281
     0
  0
CLASS
  1
ACDBSECTIONVIEWSTYLE
  2
AcDbSectionViewStyle
  3
ObjectDBX Classes
 90
     1025
280
     0
281
     0
  0
CLASS
  1
ACDBDETAILVIEWSTYLE
  2
AcDbDetailViewStyle
  3
ObjectDBX Classes
 90
     1025
280
     0
281
     0
  0
CLASS
  1
DICTIONARYVAR
  2
AcDbDictionaryVar
  3
ObjectDBX Classes
 90
        0
280
     0
281
     0
  0
CLASS
  1
CELLSTYLEMAP
  2
AcDbCellStyleMap
  3
ObjectDBX Classes
 90
     1152
280
     0
281
     0
  0
ENDSEC
  0
SECTION
  2
TABLES
  0
TABLE
  2
VPORT
  5
8
330
0
100
AcDbSymbolTable
 70
     1
  0
VPORT
  5
62A
330
8
100
AcDbSymbolTableRecord
100
AcDbViewportTableRecord
  2
*ACTIVE
 70
     0
 10
0.0
 20
0.0
 11
1.0
 21
1.0
 12
483.1905830863022
 22
226.6040706436011
 13
0.0
 23
0.0
 14
10.0
 24
10.0
 15
10.0
 25
10.0
 16
0.0
 26
0.0
 36
1.0
 17
0.0
 27
0.0
 37
0.0
 40
436.5140955659271
 41
2.35006605019815
 42
50.0
 43
0.0
 44
0.0
 50
0.0
 51
0.0
 71
     0
 72
   100
 73
     1
 74
     0
 75
     0
 76
     0
 77
     0
 78
     0
281
     0
 65
     1
110
0.0
120
0.0
130
0.0
111
1.0
121
0.0
131
0.0
112
0.0
122
1.0
132
0.0
 79
     0
146
0.0
1001
ACAD_NAV_VCDISPLAY
1070
     3
  0
ENDTAB
  0
TABLE
  2
LTYPE
  5
5
330
0
100
AcDbSymbolTable
 70
     4
  0
LTYPE
  5
12
330
5
100
AcDbSymbolTableRecord
100
AcDbLinetypeTableRecord
  2
BYBLOCK
 70
     0
  3

 72
    65
 73
     0
 40
0.0
  0
LTYPE
  5
13
330
5
100
AcDbSymbolTableRecord
100
AcDbLinetypeTableRecord
  2
BYLAYER
 70
     0
  3

 72
    65
 73
     0
 40
0.0
  0
LTYPE
  5
14
330
5
100
AcDbSymbolTableRecord
100
AcDbLinetypeTableRecord
  2
CONTINUOUS
 70
     0
  3
Solid line
 72
    65
 73
     0
 40
0.0
  0
LTYPE
  5
4B
330
5
100
AcDbSymbolTableRecord
100
AcDbLinetypeTableRecord
  2
DASHED
 70
     0
  3
Dashed __ __ __ __ __ __ __ __ __ __ __ __ __ _
 72
    65
 73
     2
 40
19.04999999999999
 49
12.7
 74
     0
 49
-6.349999999999998
 74
     0
  0
LTYPE
  5
4C
330
5
100
AcDbSymbolTableRecord
100
AcDbLinetypeTableRecord
  2
CENTER
 70
     0
  3
Center ____ _ ____ _ ____ _ ____ _ ____ _ ____
 72
    65
 73
     4
 40
50.8
 49
31.75
 74
     0
 49
-6.349999999999998
 74
     0
 49
6.349999999999998
 74
     0
 49
-6.349999999999998
 74
     0
  0
LTYPE
  5
4D
330
5
100
AcDbSymbolTableRecord
100
AcDbLinetypeTableRecord
  2
PHANTOM
 70
     0
  3
Phantom ______  __  __  ______  __  __  ______
 72
    65
 73
     6
 40
63.5
 49
31.75
 74
     0
 49
-6.349999999999998
 74
     0
 49
6.349999999999998
 74
     0
 49
-6.349999999999998
 74
     0
 49
6.349999999999998
 74
     0
 49
-6.349999999999998
 74
     0
  0
ENDTAB
  0
TABLE
  2
LAYER
  5
2
330
0
100
AcDbSymbolTable
 70
     8
  0
LAYER
  5
E
102
{ACAD_XDICTIONARY
360
684
102
}
330
2
100
AcDbSymbolTableRecord
100
AcDbLayerTableRecord
  2
0
 70
     0
 62
     7
  6
CONTINUOUS
370
    -3
390
633
  0
LAYER
  5
4E
102
{ACAD_XDICTIONARY
360
686
102
}
330
2
100
AcDbSymbolTableRecord
100
AcDbLayerTableRecord
  2
4
 70
     0
 62
     1
  6
CENTER
370
    -3
390
633
  0
LAYER
  5
4F
102
{ACAD_XDICTIONARY
360
688
102
}
330
2
100
AcDbSymbolTableRecord
100
AcDbLayerTableRecord
  2
5
 70
     0
 62
     6
  6
PHANTOM
370
    -3
390
633
  0
LAYER
  5
50
102
{ACAD_XDICTIONARY
360
68A
102
}
330
2
100
AcDbSymbolTableRecord
100
AcDbLayerTableRecord
  2
1
 70
     0
 62
     7
  6
CONTINUOUS
370
    -3
390
633
  0
LAYER
  5
51
102
{ACAD_XDICTIONARY
360
68C
102
}
330
2
100
AcDbSymbolTableRecord
100
AcDbLayerTableRecord
  2
2
 70
     0
 62
     4
  6
CONTINUOUS
370
    -3
390
633
  0
LAYER
  5
52
102
{ACAD_XDICTIONARY
360
68E
102
}
330
2
100
AcDbSymbolTableRecord
100
AcDbLayerTableRecord
  2
3
 70
     0
 62
     2
  6
DASHED
370
    -3
390
633
  0
LAYER
  5
53
102
{ACAD_XDICTIONARY
360
690
102
}
330
2
100
AcDbSymbolTableRecord
100
AcDbLayerTableRecord
  2
6
 70
     0
 62
     5
  6
CONTINUOUS
370
    -3
390
633
  0
LAYER
  5
54
102
{ACAD_XDICTIONARY
360
692
102
}
330
2
100
AcDbSymbolTableRecord
100
AcDbLayerTableRecord
  2
7
 70
     0
 62
     3
  6
CONTINUOUS
370
    -3
390
633
  0
ENDTAB
  0
TABLE
  2
STYLE
  5
3
330
0
100
AcDbSymbolTable
 70
     1
  0
STYLE
  5
F
330
3
100
AcDbSymbolTableRecord
100
AcDbTextStyleTableRecord
  2
STANDARD
 70
     0
 40
0.0
 41
1.0
 50
0.0
 71
     0
 42
2.5
  3
simplex.shx
  4

  0
ENDTAB
  0
TABLE
  2
VIEW
  5
6
330
0
100
AcDbSymbolTable
 70
     0
  0
ENDTAB
  0
TABLE
  2
UCS
  5
7
330
0
100
AcDbSymbolTable
 70
     0
  0
ENDTAB
  0
TABLE
  2
APPID
  5
9
330
0
100
AcDbSymbolTable
 70
     5
  0
APPID
  5
10
330
9
100
AcDbSymbolTableRecord
100
AcDbRegAppTableRecord
  2
ACAD
 70
     0
  0
APPID
  5
3E
330
9
100
AcDbSymbolTableRecord
100
AcDbRegAppTableRecord
  2
CONTENTTABDATA
 70
     0
  0
APPID
  5
3F
330
9
100
AcDbSymbolTableRecord
100
AcDbRegAppTableRecord
  2
CONTENTCURRENTTAB
 70
     0
  0
APPID
  5
69E
330
9
100
AcDbSymbolTableRecord
100
AcDbRegAppTableRecord
  2
ACAD_NAV_VCDISPLAY
 70
     0
  0
APPID
  5
6D7
330
9
100
AcDbSymbolTableRecord
100
AcDbRegAppTableRecord
  2
ACAD_MLEADERVER
 70
     0
  0
ENDTAB
  0
TABLE
  2
DIMSTYLE
  5
A
330
0
100
AcDbSymbolTable
 70
     1
100
AcDbDimStyleTable
 71
     0
  0
DIMSTYLE
105
1D
330
A
100
AcDbSymbolTableRecord
100
AcDbDimStyleTableRecord
  2
STANDARD
 70
     0
 41
3.0
 42
1.0
 43
10.0
 44
1.0
 73
     0
 74
     0
 77
     3
 78
     8
140
3.2
141
0.0
147
1.0
172
     1
173
     1
340
F
341
2E
343
2E
344
2E
  0
ENDTAB
  0
TABLE
  2
BLOCK_RECORD
  5
1
330
0
100
AcDbSymbolTable
 70
     1
  0
BLOCK_RECORD
  5
18
102
{ACAD_XDICTIONARY
360
62D
102
}
330
1
100
AcDbSymbolTableRecord
100
AcDbBlockTableRecord
  2
*MODEL_SPACE
340
681
  0
BLOCK_RECORD
  5
15
102
{ACAD_XDICTIONARY
360
62B
102
}
330
1
100
AcDbSymbolTableRecord
100
AcDbBlockTableRecord
  2
*PAPER_SPACE
340
682
  0
BLOCK_RECORD
  5
2E
330
1
100
AcDbSymbolTableRecord
100
AcDbBlockTableRecord
  2
_OPEN
340
0
  0
ENDTAB
  0
ENDSEC
  0
SECTION
  2
BLOCKS
  0
BLOCK
  5
19
330
18
100
AcDbEntity
  8
0
100
AcDbBlockBegin
  2
*MODEL_SPACE
 70
     0
 10
0.0
 20
0.0
 30
0.0
  3
*MODEL_SPACE
  1

  0
ENDBLK
  5
1A
330
18
100
AcDbEntity
  8
0
100
AcDbBlockEnd
  0
BLOCK
  5
16
330
15
100
AcDbEntity
 67
     1
  8
0
100
AcDbBlockBegin
  2
*PAPER_SPACE
 70
     0
 10
0.0
 20
0.0
 30
0.0
  3
*PAPER_SPACE
  1

  0
ENDBLK
  5
17
330
15
100
AcDbEntity
 67
     1
  8
0
100
AcDbBlockEnd
  0
BLOCK
  5
2F
330
2E
100
AcDbEntity
  8
0
100
AcDbBlockBegin
  2
_OPEN
 70
     0
 10
0.0
 20
0.0
 30
0.0
  3
_OPEN
  1

  0
LINE
  5
30
330
2E
100
AcDbEntity
  8
0
  6
ByBlock
 62
     0
100
AcDbLine
 10
-1.0
 20
0.1666666666666666
 30
0.0
 11
0.0
 21
0.0
 31
0.0
  0
LINE
  5
31
330
2E
100
AcDbEntity
  8
0
  6
ByBlock
 62
     0
100
AcDbLine
 10
0.0
 20
0.0
 30
0.0
 11
-1.0
 21
-0.1666666666666666
 31
0.0
  0
LINE
  5
32
330
2E
100
AcDbEntity
  8
0
  6
ByBlock
 62
     0
100
AcDbLine
 10
0.0
 20
0.0
 30
0.0
 11
-1.0
 21
0.0
 31
0.0
  0
ENDBLK
  5
33
330
2E
100
AcDbEntity
  8
0
100
AcDbBlockEnd
  0
ENDSEC
  0
SECTION
  2
ENTITIES
  0
ARC
  5
35D
330
18
100
AcDbEntity
  8
1
  6
Continuous
100
AcDbCircle
 10
383.7600525376079
 20
392.0763888068464
 30
0.0
 40
200.0
100
AcDbArc
 50
264.9421679999999
 51
275.0581299999999
  0
LINE
  5
35E
330
18
100
AcDbEntity
  8
1
  6
Continuous
100
AcDbLine
 10
428.7600525376078
 20
284.0763888068465
 30
0.0
 11
338.7600525376079
 21
284.0763888068465
 31
0.0
  0
LINE
  5
35F
330
18
100
AcDbEntity
  8
1
  6
Continuous
100
AcDbLine
 10
428.7600525376078
 20
280.8763888068465
 30
0.0
 11
338.7600525376079
 21
280.8763888068465
 31
0.0
  0
LINE
  5
360
330
18
100
AcDbEntity
  8
1
  6
Continuous
100
AcDbLine
 10
353.7600525376078
 20
269.8763888068465
 30
0.0
 11
413.7600525376078
 21
269.8763888068465
 31
0.0
  0
LINE
  5
361
330
18
100
AcDbEntity
  8
1
  6
Continuous
100
AcDbLine
 10
350.7321885376081
 20
275.8763888068465
 30
0.0
 11
416.787916537608
 21
275.8763888068465
 31
0.0
  0
ARC
  5
362
330
18
100
AcDbEntity
  8
1
  6
Continuous
100
AcDbCircle
 10
383.7600525376079
 20
240.1874328068466
 30
0.0
 40
18.98895599999998
100
AcDbArc
 50
45.07517599999999
 51
134.924824
  0
ARC
  5
363
330
18
100
AcDbEntity
  8
1
  6
Continuous
100
AcDbCircle
 10
383.7600525376079
 20
243.1763888068465
 30
0.0
 40
16.0
100
AcDbArc
 50
37.85275399999999
 51
142.1472459999999
  0
LINE
  5
364
330
18
100
AcDbEntity
  8
4
  6
CENTER
100
AcDbLine
 10
338.4859685376081
 20
224.5763888068466
 30
0.0
 11
427.1600525376078
 21
224.5763888068466
 31
0.0
  0
ARC
  5
365
330
18
100
AcDbEntity
  8
1
  6
Continuous
100
AcDbCircle
 10
98.26493453760813
 20
272.8763588068464
 30
0.0
 40
3.0
100
AcDbArc
 50
0.0
 51
90.0
  0
LINE
  5
366
330
18
100
AcDbEntity
  8
4
  6
CENTER
100
AcDbLine
 10
106.7649345376081
 20
292.0763888068464
 30
0.0
 11
106.7649345376081
 21
272.8763888068466
 31
0.0
  0
LINE
  5
367
330
18
100
AcDbEntity
  8
4
  6
CENTER
100
AcDbLine
 10
71.26493453760808
 20
184.0763588068465
 30
0.0
 11
71.26493453760808
 21
292.0763888068464
 31
0.0
  0
ARC
  5
368
330
18
100
AcDbEntity
  8
1
  6
Continuous
100
AcDbCircle
 10
44.2649345376081
 20
272.8763588068464
 30
0.0
 40
3.0
100
AcDbArc
 50
90.0
 51
180.0
  0
LINE
  5
369
330
18
100
AcDbEntity
  8
4
  6
CENTER
100
AcDbLine
 10
35.76493453760811
 20
292.0763888068464
 30
0.0
 11
35.76493453760811
 21
272.8763888068466
 31
0.0
  0
ARC
  5
36A
330
18
100
AcDbEntity
  8
1
  6
Continuous
100
AcDbCircle
 10
205.510052537608
 20
272.8763888068466
 30
0.0
 40
3.0
100
AcDbArc
 50
90.0
 51
180.0
  0
LINE
  5
36B
330
18
100
AcDbEntity
  8
4
  6
CENTER
100
AcDbLine
 10
197.0100525376081
 20
292.0763888068464
 30
0.0
 11
197.0100525376081
 21
272.8763888068466
 31
0.0
  0
LINE
  5
36C
330
18
100
AcDbEntity
  8
4
  6
CENTER
100
AcDbLine
 10
232.510052537608
 20
292.0763888068464
 30
0.0
 11
232.510052537608
 21
253.3213118068466
 31
0.0
  0
ARC
  5
36D
330
18
100
AcDbEntity
  8
1
  6
Continuous
100
AcDbCircle
 10
259.510052537608
 20
272.8763888068466
 30
0.0
 40
3.0
100
AcDbArc
 50
0.0
 51
90.0
  0
LINE
  5
36E
330
18
100
AcDbEntity
  8
4
  6
CENTER
100
AcDbLine
 10
268.010052537608
 20
292.0763888068464
 30
0.0
 11
268.010052537608
 21
272.8763888068466
 31
0.0
  0
ARC
  5
36F
330
18
100
AcDbEntity
  8
1
  6
Continuous
100
AcDbCircle
 10
356.7600525376079
 20
272.8763888068466
 30
0.0
 40
3.0
100
AcDbArc
 50
90.0
 51
180.0
  0
LINE
  5
370
330
18
100
AcDbEntity
  8
4
  6
CENTER
100
AcDbLine
 10
348.2600525376079
 20
292.0763888068464
 30
0.0
 11
348.2600525376079
 21
272.8763888068466
 31
0.0
  0
LINE
  5
371
330
18
100
AcDbEntity
  8
4
  6
CENTER
100
AcDbLine
 10
383.7600525376079
 20
184.0763888068464
 30
0.0
 11
383.7600525376079
 21
292.0763888068464
 31
0.0
  0
TEXT
  5
372
330
18
100
AcDbEntity
  8
4
  6
CENTER
100
AcDbText
 10
23.9795125376081
 20
10.04873680684658
 30
0.0
 40
1.399999999999999
  1
4
100
AcDbText
  0
TEXT
  5
373
330
18
100
AcDbEntity
  8
7
  6
Continuous
100
AcDbText
 10
10.00000153760811
 20
25.9999998068466
 30
0.0
 40
3.0
  1
CODE No.9670
100
AcDbText
  0
TEXT
  5
374
330
18
100
AcDbEntity
  8
7
  6
Continuous
100
AcDbText
 10
10.00000153760811
 20
17.9999998068466
 30
0.0
 40
3.0
  1
TYPE No.105HB-PAS-B
100
AcDbText
  0
TEXT
  5
375
330
18
100
AcDbEntity
  8
1
  6
Continuous
100
AcDbText
 10
10.00000153760811
 20
9.999999806846602
 30
0.0
 40
1.399999999999999
  1
LAYER
100
AcDbText
  0
TEXT
  5
376
330
18
100
AcDbEntity
  8
2
  6
Continuous
100
AcDbText
 10
19.9795125376081
 20
10.04873680684658
 30
0.0
 40
1.399999999999999
  1
2
100
AcDbText
  0
TEXT
  5
377
330
18
100
AcDbEntity
  8
3
  6
DASHED
100
AcDbText
 10
21.97951253760811
 20
10.04873680684658
 30
0.0
 40
1.399999999999999
  1
3
100
AcDbText
  0
TEXT
  5
378
330
18
100
AcDbEntity
  8
1
  6
Continuous
100
AcDbText
 10
17.9795125376081
 20
10.04873680684658
 30
0.0
 40
1.399999999999999
  1
1
100
AcDbText
  0
TEXT
  5
379
330
18
100
AcDbEntity
  8
5
  6
PHANTOM
100
AcDbText
 10
25.97951253760811
 20
10.04873680684658
 30
0.0
 40
1.399999999999999
  1
5
100
AcDbText
  0
TEXT
  5
37A
330
18
100
AcDbEntity
  8
6
  6
Continuous
100
AcDbText
 10
27.97951253760811
 20
10.04873680684658
 30
0.0
 40
1.399999999999999
  1
6
100
AcDbText
  0
TEXT
  5
37B
330
18
100
AcDbEntity
  8
7
  6
Continuous
100
AcDbText
 10
29.97951253760811
 20
10.04873680684658
 30
0.0
 40
1.399999999999999
  1
7
100
AcDbText
  0
ARC
  5
37C
330
18
100
AcDbEntity
  8
1
  6
Continuous
100
AcDbCircle
 10
71.26493453760808
 20
57.07635880684659
 30
0.0
 40
200.0
100
AcDbArc
 50
84.94186999999998
 51
95.05783200000001
  0
ARC
  5
37D
330
18
100
AcDbEntity
  8
1
  6
Continuous
100
AcDbCircle
 10
71.26493453760808
 20
392.0763588068464
 30
0.0
 40
200.0
100
AcDbArc
 50
264.9421679999999
 51
275.0581299999999
  0
LINE
  5
37E
330
18
100
AcDbEntity
  8
1
  6
Continuous
100
AcDbLine
 10
41.26493453760811
 20
269.8763588068465
 30
0.0
 11
101.264934537608
 21
269.8763588068465
 31
0.0
  0
LINE
  5
37F
330
18
100
AcDbEntity
  8
1
  6
Continuous
100
AcDbLine
 10
53.56493453760811
 20
259.8763588068464
 30
0.0
 11
88.96493453760813
 21
259.8763588068464
 31
0.0
  0
LINE
  5
380
330
18
100
AcDbEntity
  8
4
  6
CENTER
100
AcDbLine
 10
28.0649345376081
 20
224.5763588068466
 30
0.0
 11
112.6649445376081
 21
224.5763588068466
 31
0.0
  0
LINE
  5
381
330
18
100
AcDbEntity
  8
1
  6
Continuous
100
AcDbLine
 10
50.86493453760811
 20
209.5763588068465
 30
0.0
 11
50.86493453760811
 21
239.5763588068466
 31
0.0
  0
LINE
  5
382
330
18
100
AcDbEntity
  8
1
  6
Continuous
100
AcDbLine
 10
51.3649345376081
 20
206.0763588068466
 30
0.0
 11
51.3649345376081
 21
243.0763588068466
 31
0.0
  0
LINE
  5
383
330
18
100
AcDbEntity
  8
1
  6
Continuous
100
AcDbLine
 10
52.2649345376081
 20
254.8034438068465
 30
0.0
 11
52.2649345376081
 21
194.3492738068466
 31
0.0
  0
LINE
  5
384
330
18
100
AcDbEntity
  8
1
  6
Continuous
100
AcDbLine
 10
41.06493453760811
 20
233.0763588068466
 30
0.0
 11
41.06493453760811
 21
216.0763588068466
 31
0.0
  0
ARC
  5
385
330
18
100
AcDbEntity
  8
1
  6
Continuous
100
AcDbCircle
 10
45.4098335376081
 20
231.9375748068466
 30
0.0
 40
4.344898999999998
100
AcDbArc
 50
154.3842469999999
 51
214.384247
  0
LINE
  5
386
330
18
100
AcDbEntity
  8
1
  6
Continuous
100
AcDbLine
 10
39.91493453760812
 20
266.8763588068464
 30
0.0
 11
39.91493453760823
 21
225.5648428068465
 31
0.0
  0
LINE
  5
387
330
18
100
AcDbEntity
  8
1
  6
Continuous
100
AcDbLine
 10
50.46493453760811
 20
254.8763588068465
 30
0.0
 11
50.46493453760811
 21
209.0763588068464
 31
0.0
  0
LINE
  5
388
330
18
100
AcDbEntity
  8
1
  6
Continuous
100
AcDbLine
 10
47.56493453760811
 20
253.8763588068464
 30
0.0
 11
47.56493453760811
 21
209.0763588068464
 31
0.0
  0
ARC
  5
389
330
18
100
AcDbEntity
  8
1
  6
Continuous
100
AcDbCircle
 10
53.76493453760811
 20
194.3492738068466
 30
0.0
 40
1.5
100
AcDbArc
 50
180.0
 51
264.9421679999999
  0
LINE
  5
38A
330
18
100
AcDbEntity
  8
1
  6
Continuous
100
AcDbLine
 10
51.3649345376081
 20
206.0763588068466
 30
0.0
 11
52.2649345376081
 21
206.0763588068466
 31
0.0
  0
ARC
  5
392
330
18
100
AcDbEntity
  8
1
  6
Continuous
100
AcDbCircle
 10
57.30574553760811
 20
224.5763588068466
 30
0.0
 40
16.24081099999999
100
AcDbArc
 50
162.412046
 51
197.5879539999999
  0
ARC
  5
393
330
18
100
AcDbEntity
  8
1
  6
Continuous
100
AcDbCircle
 10
45.4098335376081
 20
217.2151428068465
 30
0.0
 40
4.344898999999998
100
AcDbArc
 50
145.615753
 51
205.615753
  0
LINE
  5
394
330
18
100
AcDbEntity
  8
1
  6
Continuous
100
AcDbLine
 10
47.56493453760811
 20
209.0763588068464
 30
0.0
 11
50.46493453760811
 21
209.0763588068464
 31
0.0
  0
ARC
  5
395
330
18
100
AcDbEntity
  8
1
  6
Continuous
100
AcDbCircle
 10
54.3692935376081
 20
226.0739978068465
 30
0.0
 40
14.554359
100
AcDbArc
 50
231.010837
 51
242.126988
  0
LINE
  5
396
330
18
100
AcDbEntity
  8
1
  6
Continuous
100
AcDbLine
 10
41.8241245376081
 20
219.6688808068465
 30
0.0
 11
47.56493453760811
 21
219.6688808068465
 31
0.0
  0
LINE
  5
397
330
18
100
AcDbEntity
  8
1
  6
Continuous
100
AcDbLine
 10
41.8241245376081
 20
214.7614038068466
 30
0.0
 11
41.06493453760811
 21
216.0763588068466
 31
0.0
  0
LINE
  5
398
330
18
100
AcDbEntity
  8
1
  6
Continuous
100
AcDbLine
 10
41.8241245376081
 20
214.7614038068466
 30
0.0
 11
47.56493453760811
 21
214.7614038068466
 31
0.0
  0
LINE
  5
399
330
18
100
AcDbEntity
  8
1
  6
Continuous
100
AcDbLine
 10
50.86493453760811
 20
216.5763588068466
 30
0.0
 11
50.46493453760811
 21
216.5763588068466
 31
0.0
  0
LINE
  5
39A
330
18
100
AcDbEntity
  8
1
  6
Continuous
100
AcDbLine
 10
50.86493453760811
 20
209.5763588068465
 30
0.0
 11
51.3649345376081
 21
209.5763588068465
 31
0.0
  0
LINE
  5
39B
330
18
100
AcDbEntity
  8
1
  6
Continuous
100
AcDbLine
 10
41.8241245376081
 20
229.4838358068465
 30
0.0
 11
47.56493453760811
 21
229.4838358068465
 31
0.0
  0
LINE
  5
39D
330
18
100
AcDbEntity
  8
1
  6
Continuous
100
AcDbLine
 10
41.8241245376081
 20
234.3913128068466
 30
0.0
 11
41.06493453760811
 21
233.0763588068466
 31
0.0
  0
LINE
  5
39E
330
18
100
AcDbEntity
  8
1
  6
Continuous
100
AcDbLine
 10
41.8241245376081
 20
234.3913128068466
 30
0.0
 11
47.56493453760811
 21
234.3913128068466
 31
0.0
  0
LINE
  5
39F
330
18
100
AcDbEntity
  8
1
  6
Continuous
100
AcDbLine
 10
50.86493453760811
 20
239.5763588068466
 30
0.0
 11
51.3649345376081
 21
239.5763588068466
 31
0.0
  0
LINE
  5
3A0
330
18
100
AcDbEntity
  8
1
  6
Continuous
100
AcDbLine
 10
50.86493453760811
 20
232.5763588068466
 30
0.0
 11
50.46493453760811
 21
232.5763588068466
 31
0.0
  0
LINE
  5
3A1
330
18
100
AcDbEntity
  8
1
  6
Continuous
100
AcDbLine
 10
51.3649345376081
 20
243.0763588068466
 30
0.0
 11
52.2649345376081
 21
243.0763588068466
 31
0.0
  0
ARC
  5
3A2
330
18
100
AcDbEntity
  8
1
  6
Continuous
100
AcDbCircle
 10
42.9149345376081
 20
266.8763588068464
 30
0.0
 40
3.0
100
AcDbArc
 50
90.0
 51
180.0
  0
ARC
  5
3A3
330
18
100
AcDbEntity
  8
1
  6
Continuous
100
AcDbCircle
 10
53.56493453760811
 20
253.8763588068464
 30
0.0
 40
6.0
100
AcDbArc
 50
90.0
 51
180.0
  0
ARC
  5
3A4
330
18
100
AcDbEntity
  8
1
  6
Continuous
100
AcDbCircle
 10
53.76493453760811
 20
254.8034438068465
 30
0.0
 40
1.5
100
AcDbArc
 50
95.05783200000001
 51
180.0
  0
ARC
  5
3A5
330
18
100
AcDbEntity
  8
1
  6
Continuous
100
AcDbCircle
 10
55.4649345376081
 20
254.8763588068465
 30
0.0
 40
5.0
100
AcDbArc
 50
90.0
 51
180.0
  0
LINE
  5
3A6
330
18
100
AcDbEntity
  8
1
  6
Continuous
100
AcDbLine
 10
41.26493453760811
 20
272.8763588068464
 30
0.0
 11
41.26493453760811
 21
269.8763588068465
 31
0.0
  0
LINE
  5
3A7
330
18
100
AcDbEntity
  8
1
  6
Continuous
100
AcDbLine
 10
94.96493453760812
 20
242.9717868068466
 30
0.0
 11
94.96493453760812
 21
206.3549128068465
 31
0.0
  0
LINE
  5
3A8
330
18
100
AcDbEntity
  8
1
  6
Continuous
100
AcDbLine
 10
92.06493453760812
 20
243.8684878068465
 30
0.0
 11
92.06493453760812
 21
209.0763588068464
 31
0.0
  0
LINE
  5
3A9
330
18
100
AcDbEntity
  8
1
  6
Continuous
100
AcDbLine
 10
105.8649445376081
 20
231.5763588068465
 30
0.0
 11
105.8649445376081
 21
217.5763588068464
 31
0.0
  0
LINE
  5
3AA
330
18
100
AcDbEntity
  8
1
  6
Continuous
100
AcDbLine
 10
99.86494453760817
 20
233.5763588068465
 30
0.0
 11
99.86494453760817
 21
215.5763588068464
 31
0.0
  0
ARC
  5
3AB
330
18
100
AcDbEntity
  8
1
  6
Continuous
100
AcDbCircle
 10
103.443095537608
 20
230.6385368068466
 30
0.0
 40
3.578151999999998
100
AcDbArc
 50
154.3842469999999
 51
214.384247
  0
ARC
  5
3AC
330
18
100
AcDbEntity
  8
1
  6
Continuous
100
AcDbCircle
 10
102.2867925376079
 20
230.6385368068466
 30
0.0
 40
3.578151999999998
100
AcDbArc
 50
325.6157529999998
 51
25.615753
  0
ARC
  5
3AD
330
18
100
AcDbEntity
  8
1
  6
Continuous
100
AcDbCircle
 10
75.76493753760809
 20
226.1172518068466
 30
0.0
 40
22.9
100
AcDbArc
 50
344.810714
 51
15.189285
  0
LINE
  5
3AE
330
18
100
AcDbEntity
  8
1
  6
Continuous
100
AcDbLine
 10
97.86494453760813
 20
217.5980798068466
 30
0.0
 11
97.86494453760813
 21
233.4391358068466
 31
0.0
  0
LINE
  5
3AF
330
18
100
AcDbEntity
  8
1
  6
Continuous
100
AcDbLine
 10
95.56494153760812
 20
247.1645848068465
 30
0.0
 11
95.56494153760812
 21
206.3549158068465
 31
0.0
  0
LINE
  5
3B0
330
18
100
AcDbEntity
  8
1
  6
Continuous
100
AcDbLine
 10
91.66493453760812
 20
209.5763588068465
 30
0.0
 11
91.66493453760812
 21
239.5763588068466
 31
0.0
  0
LINE
  5
3B1
330
18
100
AcDbEntity
  8
1
  6
Continuous
100
AcDbLine
 10
91.16493453760808
 20
206.0763588068466
 30
0.0
 11
91.16493453760808
 21
243.0763588068466
 31
0.0
  0
LINE
  5
3B2
330
18
100
AcDbEntity
  8
1
  6
Continuous
100
AcDbLine
 10
90.26493453760812
 20
254.8034438068465
 30
0.0
 11
90.26493453760812
 21
194.3492738068466
 31
0.0
  0
LINE
  5
3B3
330
18
100
AcDbEntity
  8
1
  6
Continuous
100
AcDbLine
 10
107.8149415376081
 20
226.1795838068465
 30
0.0
 11
123.364942537608
 21
226.1795838068465
 31
0.0
  0
LINE
  5
3B4
330
18
100
AcDbEntity
  8
1
  6
Continuous
100
AcDbLine
 10
107.5149385376081
 20
228.4788928068466
 30
0.0
 11
123.364942537608
 21
228.4788928068466
 31
0.0
  0
LINE
  5
3B5
330
18
100
AcDbEntity
  8
1
  6
Continuous
100
AcDbLine
 10
106.8149405376081
 20
205.7437018068466
 30
0.0
 11
106.8149405376081
 21
220.2263548068466
 31
0.0
  0
LINE
  5
3B6
330
18
100
AcDbEntity
  8
1
  6
Continuous
100
AcDbLine
 10
97.66490153760813
 20
205.7437018068466
 30
0.0
 11
97.66490153760813
 21
209.5339618068464
 31
0.0
  0
LINE
  5
3B7
330
18
100
AcDbEntity
  8
1
  6
Continuous
100
AcDbLine
 10
104.514937537608
 20
205.7437018068466
 30
0.0
 11
104.514937537608
 21
209.5339618068464
 31
0.0
  0
LINE
  5
3B8
330
18
100
AcDbEntity
  8
1
  6
Continuous
100
AcDbLine
 10
98.36489853760813
 20
205.0437048068465
 30
0.0
 11
103.8149405376081
 21
205.0437048068465
 31
0.0
  0
LINE
  5
3B9
330
18
100
AcDbEntity
  8
1
  6
Continuous
100
AcDbLine
 10
98.36489853760813
 20
202.7437018068466
 30
0.0
 11
103.8149405376081
 21
202.7437018068466
 31
0.0
  0
ARC
  5
3BA
330
18
100
AcDbEntity
  8
1
  6
Continuous
100
AcDbCircle
 10
88.76493453760808
 20
194.3492738068466
 30
0.0
 40
1.5
100
AcDbArc
 50
275.0578319999998
 51
0.0
  0
ARC
  5
3BB
330
18
100
AcDbEntity
  8
1
  6
Continuous
100
AcDbCircle
 10
100.406247537608
 20
191.7512628068466
 30
0.0
 40
14.96111299999999
100
AcDbArc
 50
113.801101
 51
119.771733
  0
ARC
  5
3BC
330
18
100
AcDbEntity
  8
1
  6
Continuous
100
AcDbCircle
 10
100.406247537608
 20
191.7512628068466
 30
0.0
 40
14.361113
100
AcDbArc
 50
113.8010769999999
 51
119.771733
  0
LINE
  5
3BD
330
18
100
AcDbEntity
  8
1
  6
Continuous
100
AcDbLine
 10
91.76493453760812
 20
199.5763888068465
 30
0.0
 11
91.16493453760808
 21
199.5763888068465
 31
0.0
  0
LINE
  5
3BE
330
18
100
AcDbEntity
  8
1
  6
Continuous
100
AcDbLine
 10
91.76493453760812
 20
201.6128278068466
 30
0.0
 11
91.76493453760812
 21
199.5763888068465
 31
0.0
  0
ARC
  5
3BF
330
18
100
AcDbEntity
  8
1
  6
Continuous
100
AcDbCircle
 10
94.76493453760813
 20
201.6128278068466
 30
0.0
 40
3.0
100
AcDbArc
 50
119.771733
 51
180.0
  0
LINE
  5
3C0
330
18
100
AcDbEntity
  8
1
  6
Continuous
100
AcDbLine
 10
91.16493453760808
 20
201.6128278068466
 30
0.0
 11
91.16493453760808
 21
199.5763588068465
 31
0.0
  0
ARC
  5
3C1
330
18
100
AcDbEntity
  8
1
  6
Continuous
100
AcDbCircle
 10
94.76493453760813
 20
201.6128278068466
 30
0.0
 40
3.6
100
AcDbArc
 50
119.771733
 51
180.0
  0
LINE
  5
3C2
330
18
100
AcDbEntity
  8
1
  6
Continuous
100
AcDbLine
 10
91.16493453760808
 20
206.0763588068466
 30
0.0
 11
90.26493453760812
 21
206.0763588068466
 31
0.0
  0
ARC
  5
3C3
330
18
100
AcDbEntity
  8
1
  6
Continuous
100
AcDbCircle
 10
93.96493453760813
 20
206.3549128068465
 30
0.0
 40
1.0
100
AcDbArc
 50
293.8011009999998
 51
0.0
  0
ARC
  5
3C4
330
18
100
AcDbEntity
  8
1
  6
Continuous
100
AcDbCircle
 10
98.36489853760813
 20
205.7437018068466
 30
0.0
 40
0.7
100
AcDbArc
 50
179.831145
 51
269.9999969999999
  0
ARC
  5
3C5
330
18
100
AcDbEntity
  8
1
  6
Continuous
100
AcDbCircle
 10
93.96494153760812
 20
206.3549158068465
 30
0.0
 40
1.6
100
AcDbArc
 50
293.801077
 51
0.0
  0
ARC
  5
3C6
330
18
100
AcDbEntity
  8
1
  6
Continuous
100
AcDbCircle
 10
98.36489853760813
 20
205.7437018068466
 30
0.0
 40
3.0
100
AcDbArc
 50
182.982111
 51
269.9999969999999
  0
ARC
  5
3C7
330
18
100
AcDbEntity
  8
1
  6
Continuous
100
AcDbCircle
 10
103.8149405376081
 20
205.7437018068466
 30
0.0
 40
3.0
100
AcDbArc
 50
269.9999969999999
 51
0.000003
  0
ARC
  5
3C8
330
18
100
AcDbEntity
  8
1
  6
Continuous
100
AcDbCircle
 10
103.8149405376081
 20
205.7437018068466
 30
0.0
 40
0.7
100
AcDbArc
 50
269.9999969999999
 51
0.000003
  0
LINE
  5
3C9
330
18
100
AcDbEntity
  8
1
  6
Continuous
100
AcDbLine
 10
100.490158537608
 20
216.4934548068465
 30
0.0
 11
105.2397295376081
 21
216.4934548068465
 31
0.0
  0
LINE
  5
3CA
330
18
100
AcDbEntity
  8
1
  6
Continuous
100
AcDbLine
 10
100.490158537608
 20
220.5349068068465
 30
0.0
 11
105.2397295376081
 21
220.5349068068465
 31
0.0
  0
LINE
  5
3CB
330
18
100
AcDbEntity
  8
1
  6
Continuous
100
AcDbLine
 10
100.490158537608
 20
228.6178108068465
 30
0.0
 11
105.2397295376081
 21
228.6178108068465
 31
0.0
  0
LINE
  5
3CC
330
18
100
AcDbEntity
  8
1
  6
Continuous
100
AcDbLine
 10
96.56494153760815
 20
209.5339618068464
 30
0.0
 11
106.8149405376081
 21
209.5339618068464
 31
0.0
  0
ARC
  5
3CD
330
18
100
AcDbEntity
  8
1
  6
Continuous
100
AcDbCircle
 10
103.443095537608
 20
218.5141808068466
 30
0.0
 40
3.578151999999998
100
AcDbArc
 50
145.615753
 51
205.615753
  0
LINE
  5
3CE
330
18
100
AcDbEntity
  8
1
  6
Continuous
100
AcDbLine
 10
92.06493453760812
 20
209.0763588068464
 30
0.0
 11
94.96493453760812
 21
209.0763588068464
 31
0.0
  0
LINE
  5
3CF
330
18
100
AcDbEntity
  8
1
  6
Continuous
100
AcDbLine
 10
91.66493453760812
 20
216.5763588068466
 30
0.0
 11
92.06493453760812
 21
216.5763588068466
 31
0.0
  0
LINE
  5
3D0
330
18
100
AcDbEntity
  8
1
  6
Continuous
100
AcDbLine
 10
91.66493453760812
 20
209.5763588068465
 30
0.0
 11
91.16493453760808
 21
209.5763588068465
 31
0.0
  0
LINE
  5
3D1
330
18
100
AcDbEntity
  8
1
  6
Continuous
100
AcDbLine
 10
100.490158537608
 20
216.4934548068465
 30
0.0
 11
99.86494453760817
 21
217.5763588068464
 31
0.0
  0
LINE
  5
3D2
330
18
100
AcDbEntity
  8
1
  6
Continuous
100
AcDbLine
 10
99.71410753760814
 20
215.5763588068464
 30
0.0
 11
99.86494453760817
 21
215.5763588068464
 31
0.0
  0
ARC
  5
3D3
330
18
100
AcDbEntity
  8
1
  6
Continuous
100
AcDbCircle
 10
96.61433353760813
 20
214.5976828068465
 30
0.0
 40
3.250600999999998
100
AcDbArc
 50
292.6269259999999
 51
67.37307699999999
  0
LINE
  5
3D4
330
18
100
AcDbEntity
  8
1
  6
Continuous
100
AcDbLine
 10
97.86494453760813
 20
210.5339618068466
 30
0.0
 11
97.86494453760813
 21
211.5972788068465
 31
0.0
  0
ARC
  5
3D5
330
18
100
AcDbEntity
  8
1
  6
Continuous
100
AcDbCircle
 10
95.35737553760808
 20
214.5976828068465
 30
0.0
 40
3.007572
100
AcDbArc
 50
273.9574979999998
 51
86.04249799999998
  0
ARC
  5
3D6
330
18
100
AcDbEntity
  8
1
  6
Continuous
100
AcDbCircle
 10
98.86494453760816
 20
210.5339618068466
 30
0.0
 40
1.0
100
AcDbArc
 50
179.999997
 51
269.9999969999999
  0
ARC
  5
3D7
330
18
100
AcDbEntity
  8
1
  6
Continuous
100
AcDbCircle
 10
96.56494153760815
 20
210.5339618068466
 30
0.0
 40
1.0
100
AcDbArc
 50
179.999997
 51
269.9999969999999
  0
ARC
  5
3D8
330
18
100
AcDbEntity
  8
1
  6
Continuous
100
AcDbCircle
 10
113.239729537608
 20
224.5763588068466
 30
0.0
 40
13.374785
100
AcDbArc
 50
162.412046
 51
197.5879539999999
  0
LINE
  5
3D9
330
18
100
AcDbEntity
  8
1
  6
Continuous
100
AcDbLine
 10
106.1649445376079
 20
229.5763588068465
 30
0.0
 11
106.1649445376079
 21
219.5763588068464
 31
0.0
  0
ARC
  5
3DA
330
18
100
AcDbEntity
  8
1
  6
Continuous
100
AcDbCircle
 10
102.2867925376079
 20
218.5141808068466
 30
0.0
 40
3.578151999999998
100
AcDbArc
 50
334.384247
 51
34.38424699999997
  0
LINE
  5
3DB
330
18
100
AcDbEntity
  8
1
  6
Continuous
100
AcDbLine
 10
107.6649445376081
 20
221.0763588068465
 30
0.0
 11
106.1649445376079
 21
219.5763588068464
 31
0.0
  0
LINE
  5
3DC
330
18
100
AcDbEntity
  8
1
  6
Continuous
100
AcDbLine
 10
105.2397295376081
 20
216.4934548068465
 30
0.0
 11
105.8649445376081
 21
217.5763588068464
 31
0.0
  0
LINE
  5
3DD
330
18
100
AcDbEntity
  8
1
  6
Continuous
100
AcDbLine
 10
105.8649445376081
 20
219.5763588068464
 30
0.0
 11
106.1649445376079
 21
219.5763588068464
 31
0.0
  0
ARC
  5
3DE
330
18
100
AcDbEntity
  8
1
  6
Continuous
100
AcDbCircle
 10
92.49015853760813
 20
224.5763588068466
 30
0.0
 40
13.374785
100
AcDbArc
 50
342.4120459999998
 51
17.587954
  0
LINE
  5
3DF
330
18
100
AcDbEntity
  8
1
  6
Continuous
100
AcDbLine
 10
107.6649445376081
 20
228.0763588068464
 30
0.0
 11
107.6649445376081
 21
221.0763588068465
 31
0.0
  0
LINE
  5
3E0
330
18
100
AcDbEntity
  8
2
  6
Continuous
100
AcDbLine
 10
105.8649445376081
 20
220.2528588068465
 30
0.0
 11
106.8414445376081
 21
220.2528588068465
 31
0.0
  0
LINE
  5
3E1
330
18
100
AcDbEntity
  8
1
  6
Continuous
100
AcDbLine
 10
105.8649445376081
 20
229.5763588068465
 30
0.0
 11
106.1649445376079
 21
229.5763588068465
 31
0.0
  0
LINE
  5
3E2
330
18
100
AcDbEntity
  8
2
  6
Continuous
100
AcDbLine
 10
105.8649445376081
 20
228.8998588068465
 30
0.0
 11
106.8414445376081
 21
228.8998588068465
 31
0.0
  0
LINE
  5
3E3
330
18
100
AcDbEntity
  8
1
  6
Continuous
100
AcDbLine
 10
107.6649445376081
 20
228.0763588068464
 30
0.0
 11
106.1649445376079
 21
229.5763588068465
 31
0.0
  0
ARC
  5
3E4
330
18
100
AcDbEntity
  8
1
  6
Continuous
100
AcDbCircle
 10
107.8149415376081
 20
225.1795838068463
 30
0.0
 40
1.0
100
AcDbArc
 50
90.00000500000002
 51
98.626777
  0
ARC
  5
3E5
330
18
100
AcDbEntity
  8
1
  6
Continuous
100
AcDbCircle
 10
107.5149385376081
 20
225.4788928068466
 30
0.0
 40
3.0
100
AcDbArc
 50
90.00000500000002
 51
94.64021999999998
  0
LINE
  5
3E6
330
18
100
AcDbEntity
  8
1
  6
Continuous
100
AcDbLine
 10
123.364942537608
 20
226.1795838068465
 30
0.0
 11
123.364942537608
 21
228.4788928068466
 31
0.0
  0
ARC
  5
3E7
330
18
100
AcDbEntity
  8
1
  6
Continuous
100
AcDbCircle
 10
94.86494353760813
 20
250.1756628068465
 30
0.0
 40
3.0
100
AcDbArc
 50
0.000003
 51
90.00000500000002
  0
LINE
  5
3E8
330
18
100
AcDbEntity
  8
1
  6
Continuous
100
AcDbLine
 10
91.86494353760812
 20
249.8645968068466
 30
0.0
 11
91.86494353760812
 21
253.1756628068465
 31
0.0
  0
ARC
  5
3E9
330
18
100
AcDbEntity
  8
1
  6
Continuous
100
AcDbCircle
 10
92.86494453760813
 20
247.1645848068465
 30
0.0
 40
5.0
100
AcDbArc
 50
0.000003
 51
90.00000500000002
  0
LINE
  5
3EA
330
18
100
AcDbEntity
  8
1
  6
Continuous
100
AcDbLine
 10
102.6149345376079
 20
266.8763588068464
 30
0.0
 11
102.6149345376079
 21
236.7384378068466
 31
0.0
  0
LINE
  5
3EB
330
18
100
AcDbEntity
  8
1
  6
Continuous
100
AcDbLine
 10
100.490158537608
 20
232.6592618068466
 30
0.0
 11
105.2397295376081
 21
232.6592618068466
 31
0.0
  0
LINE
  5
3EC
330
18
100
AcDbEntity
  8
1
  6
Continuous
100
AcDbLine
 10
98.86494453760816
 20
234.4391358068465
 30
0.0
 11
112.5649415376079
 21
234.4391358068465
 31
0.0
  0
LINE
  5
3ED
330
18
100
AcDbEntity
  8
1
  6
Continuous
100
AcDbLine
 10
98.56494153760813
 20
236.7384378068466
 30
0.0
 11
112.5649415376079
 21
236.7384378068466
 31
0.0
  0
LINE
  5
3EE
330
18
100
AcDbEntity
  8
1
  6
Continuous
100
AcDbLine
 10
97.86494453760813
 20
236.6556428068466
 30
0.0
 11
97.86494453760813
 21
250.1756628068465
 31
0.0
  0
ARC
  5
3EF
330
18
100
AcDbEntity
  8
1
  6
Continuous
100
AcDbCircle
 10
102.8649435376081
 20
242.7644078068464
 30
0.0
 40
5.0
100
AcDbArc
 50
180.0250229999999
 51
230.460298
  0
LINE
  5
3F0
330
18
100
AcDbEntity
  8
1
  6
Continuous
100
AcDbLine
 10
91.66493453760812
 20
239.5763588068466
 30
0.0
 11
91.16493453760808
 21
239.5763588068466
 31
0.0
  0
LINE
  5
3F1
330
18
100
AcDbEntity
  8
1
  6
Continuous
100
AcDbLine
 10
91.66493453760812
 20
232.5763588068466
 30
0.0
 11
92.06493453760812
 21
232.5763588068466
 31
0.0
  0
LINE
  5
3F2
330
18
100
AcDbEntity
  8
1
  6
Continuous
100
AcDbLine
 10
97.86494453760813
 20
233.5763588068465
 30
0.0
 11
99.86494453760817
 21
233.5763588068465
 31
0.0
  0
LINE
  5
3F3
330
18
100
AcDbEntity
  8
1
  6
Continuous
100
AcDbLine
 10
100.490158537608
 20
232.6592618068466
 30
0.0
 11
99.86494453760817
 21
231.5763588068465
 31
0.0
  0
ARC
  5
3F4
330
18
100
AcDbEntity
  8
1
  6
Continuous
100
AcDbCircle
 10
86.94963053760814
 20
223.4848208068465
 30
0.0
 40
20.0
100
AcDbArc
 50
41.50469199999998
 51
50.460299
  0
ARC
  5
3F5
330
18
100
AcDbEntity
  8
1
  6
Continuous
100
AcDbCircle
 10
98.86494453760816
 20
233.4391358068466
 30
0.0
 40
1.0
100
AcDbArc
 50
90.00000500000002
 51
180.0000009999999
  0
ARC
  5
3F6
330
18
100
AcDbEntity
  8
1
  6
Continuous
100
AcDbCircle
 10
98.56494153760813
 20
233.7384378068465
 30
0.0
 40
3.0
100
AcDbArc
 50
90.00000500000002
 51
180.0000009999999
  0
ARC
  5
3F7
330
18
100
AcDbEntity
  8
1
  6
Continuous
100
AcDbCircle
 10
94.06494053760813
 20
242.9684788068465
 30
0.0
 40
0.9
100
AcDbArc
 50
0.000003
 51
90.00000500000002
  0
ARC
  5
3F8
330
18
100
AcDbEntity
  8
1
  6
Continuous
100
AcDbCircle
 10
94.06494053760813
 20
242.9684788068465
 30
0.0
 40
1.5
100
AcDbArc
 50
0.000003
 51
90.00000500000002
  0
ARC
  5
3F9
330
18
100
AcDbEntity
  8
1
  6
Continuous
100
AcDbCircle
 10
92.86494453760813
 20
247.1645848068465
 30
0.0
 40
2.7
100
AcDbArc
 50
0.000003
 51
90.00000500000002
  0
LINE
  5
3FA
330
18
100
AcDbEntity
  8
1
  6
Continuous
100
AcDbLine
 10
92.06493453760812
 20
249.8645968068466
 30
0.0
 11
92.06493453760812
 21
244.4684788068466
 31
0.0
  0
LINE
  5
3FB
330
18
100
AcDbEntity
  8
1
  6
Continuous
100
AcDbLine
 10
91.86494353760812
 20
249.8645968068466
 30
0.0
 11
92.86494453760813
 21
249.8645968068466
 31
0.0
  0
LINE
  5
3FC
330
18
100
AcDbEntity
  8
1
  6
Continuous
100
AcDbLine
 10
94.06494053760813
 20
243.8684878068465
 30
0.0
 11
91.86494353760812
 21
243.8684878068465
 31
0.0
  0
LINE
  5
3FD
330
18
100
AcDbEntity
  8
1
  6
Continuous
100
AcDbLine
 10
91.86494353760812
 20
244.4684788068466
 30
0.0
 11
91.86494353760812
 21
243.8684878068465
 31
0.0
  0
LINE
  5
3FE
330
18
100
AcDbEntity
  8
1
  6
Continuous
100
AcDbLine
 10
94.06494053760813
 20
244.4684788068466
 30
0.0
 11
91.86494353760812
 21
244.4684788068466
 31
0.0
  0
LINE
  5
3FF
330
18
100
AcDbEntity
  8
1
  6
Continuous
100
AcDbLine
 10
91.16493453760808
 20
243.0763588068466
 30
0.0
 11
90.26493453760812
 21
243.0763588068466
 31
0.0
  0
LINE
  5
400
330
18
100
AcDbEntity
  8
1
  6
Continuous
100
AcDbLine
 10
94.96493453760812
 20
248.8616528068465
 30
0.0
 11
94.96493453760812
 21
244.1684838068464
 31
0.0
  0
LINE
  5
401
330
18
100
AcDbEntity
  8
1
  6
Continuous
100
AcDbLine
 10
105.2397295376081
 20
232.6592618068466
 30
0.0
 11
105.8649445376081
 21
231.5763588068465
 31
0.0
  0
ARC
  5
402
330
18
100
AcDbEntity
  8
1
  6
Continuous
100
AcDbCircle
 10
86.94963053760814
 20
223.4848208068465
 30
0.0
 40
20.0
100
AcDbArc
 50
27.304675
 51
33.21045199999999
  0
LINE
  5
403
330
18
100
AcDbEntity
  8
1
  6
Continuous
100
AcDbLine
 10
112.5649415376079
 20
234.4391358068465
 30
0.0
 11
112.5649415376079
 21
236.7384378068466
 31
0.0
  0
ARC
  5
404
330
18
100
AcDbEntity
  8
1
  6
Continuous
100
AcDbCircle
 10
99.61493453760812
 20
266.8763588068464
 30
0.0
 40
3.0
100
AcDbArc
 50
0.0
 51
90.0
  0
LINE
  5
405
330
18
100
AcDbEntity
  8
1
  6
Continuous
100
AcDbLine
 10
91.86494353760812
 20
253.1756628068465
 30
0.0
 11
94.86494353760813
 21
253.1756628068465
 31
0.0
  0
ARC
  5
406
330
18
100
AcDbEntity
  8
1
  6
Continuous
100
AcDbCircle
 10
88.96493453760813
 20
253.8763588068464
 30
0.0
 40
6.0
100
AcDbArc
 50
0.0
 51
90.0
  0
LINE
  5
407
330
18
100
AcDbEntity
  8
1
  6
Continuous
100
AcDbLine
 10
91.86494353760812
 20
252.1645848068466
 30
0.0
 11
92.86494453760813
 21
252.1645848068466
 31
0.0
  0
ARC
  5
408
330
18
100
AcDbEntity
  8
1
  6
Continuous
100
AcDbCircle
 10
88.76493453760808
 20
254.8034438068465
 30
0.0
 40
1.5
100
AcDbArc
 50
0.0
 51
84.94216800000002
  0
ARC
  5
409
330
18
100
AcDbEntity
  8
1
  6
Continuous
100
AcDbCircle
 10
87.0649345376081
 20
254.8763588068465
 30
0.0
 40
5.0
100
AcDbArc
 50
0.0
 51
90.0
  0
LINE
  5
40A
330
18
100
AcDbEntity
  8
1
  6
Continuous
100
AcDbLine
 10
92.06493453760812
 20
254.8763588068465
 30
0.0
 11
92.06493453760812
 21
253.1756628068465
 31
0.0
  0
LINE
  5
40B
330
18
100
AcDbEntity
  8
1
  6
Continuous
100
AcDbLine
 10
94.96493453760812
 20
253.8763588068464
 30
0.0
 11
94.96493453760812
 21
253.1739958068465
 31
0.0
  0
LINE
  5
40C
330
18
100
AcDbEntity
  8
1
  6
Continuous
100
AcDbLine
 10
101.264934537608
 20
272.8763588068464
 30
0.0
 11
101.264934537608
 21
269.8763588068465
 31
0.0
  0
ARC
  5
40D
330
18
100
AcDbEntity
  8
1
  6
Continuous
100
AcDbCircle
 10
43.01005253760812
 20
85.97089880684661
 30
0.0
 40
200.0
100
AcDbArc
 50
354.942168
 51
5.05813
  0
ARC
  5
40E
330
18
100
AcDbEntity
  8
1
  6
Continuous
100
AcDbCircle
 10
378.010052537608
 20
85.97089880684661
 30
0.0
 40
200.0
100
AcDbArc
 50
174.9418699999999
 51
185.057832
  0
ARC
  5
40F
330
18
100
AcDbEntity
  8
1
  6
Continuous
100
AcDbCircle
 10
232.510052537608
 20
85.97089880684661
 30
0.0
 40
28.45
100
AcDbArc
 50
292.1691009999999
 51
53.18786400000001
  0
ARC
  5
410
330
18
100
AcDbEntity
  8
1
  6
Continuous
100
AcDbCircle
 10
232.510052537608
 20
85.97089880684661
 30
0.0
 40
31.35
100
AcDbArc
 50
244.492959
 51
49.95584700000001
  0
ARC
  5
411
330
18
100
AcDbEntity
  8
1
  6
Continuous
100
AcDbCircle
 10
232.510052537608
 20
85.97089880684661
 30
0.0
 40
38.0
100
AcDbArc
 50
232.6304067849726
 51
57.70255699999999
  0
ARC
  5
412
330
18
100
AcDbEntity
  8
1
  6
Continuous
100
AcDbCircle
 10
232.510052537608
 20
85.97089880684661
 30
0.0
 40
26.25
100
AcDbArc
 50
274.8105849999999
 51
56.69877699999999
  0
ARC
  5
413
330
18
100
AcDbEntity
  8
1
  6
Continuous
100
AcDbCircle
 10
232.510052537608
 20
85.97089880684661
 30
0.0
 40
22.65
100
AcDbArc
 50
244.2452540000001
 51
66.14094300000001
  0
LINE
  5
414
330
18
100
AcDbEntity
  8
4
  6
CENTER
100
AcDbLine
 10
210.5100525376079
 20
138.9708988068466
 30
0.0
 11
210.5100525376079
 21
32.97089880684659
 31
0.0
  0
LINE
  5
415
330
18
100
AcDbEntity
  8
1
  6
Continuous
100
AcDbLine
 10
277.510052537608
 20
120.9708988068465
 30
0.0
 11
277.510052537608
 21
50.97089880684659
 31
0.0
  0
LINE
  5
416
330
18
100
AcDbEntity
  8
4
  6
CENTER
100
AcDbLine
 10
232.510052537608
 20
32.97089880684659
 30
0.0
 11
232.510052537608
 21
138.9708988068466
 31
0.0
  0
ARC
  5
417
330
18
100
AcDbEntity
  8
1
  6
Continuous
100
AcDbCircle
 10
267.510052537608
 20
50.97089880684659
 30
0.0
 40
10.0
100
AcDbArc
 50
270.0
 51
0.0
  0
LINE
  5
418
330
18
100
AcDbEntity
  8
4
  6
CENTER
100
AcDbLine
 10
276.260052537608
 20
50.47089880684659
 30
0.0
 11
259.760052537608
 21
50.47089880684659
 31
0.0
  0
CIRCLE
  5
419
330
18
100
AcDbEntity
  8
1
  6
Continuous
100
AcDbCircle
 10
268.010052537608
 20
50.47089880684659
 30
0.0
 40
5.25
  0
LINE
  5
41A
330
18
100
AcDbEntity
  8
4
  6
CENTER
100
AcDbLine
 10
285.5100525376079
 20
85.97089880684661
 30
0.0
 11
170.0105395376081
 21
85.97089880684661
 31
0.0
  0
LINE
  5
41B
330
18
100
AcDbEntity
  8
1
  6
Continuous
100
AcDbLine
 10
229.0100525376079
 20
66.0708988068466
 30
0.0
 11
192.0100525376081
 21
66.0708988068466
 31
0.0
  0
LINE
  5
41C
330
18
100
AcDbEntity
  8
1
  6
Continuous
100
AcDbLine
 10
225.5100525376079
 20
65.5708988068466
 30
0.0
 11
195.5100525376081
 21
65.5708988068466
 31
0.0
  0
LINE
  5
41D
330
18
100
AcDbEntity
  8
1
  6
Continuous
100
AcDbLine
 10
180.2829675376081
 20
66.97089880684661
 30
0.0
 11
240.737137537608
 21
66.97089880684661
 31
0.0
  0
LINE
  5
41E
330
18
100
AcDbEntity
  8
1
  6
Continuous
100
AcDbLine
 10
202.0100525376081
 20
55.7708988068466
 30
0.0
 11
219.0100525376079
 21
55.7708988068466
 31
0.0
  0
ARC
  5
41F
330
18
100
AcDbEntity
  8
1
  6
Continuous
100
AcDbCircle
 10
206.2600525376081
 20
68.04640580684661
 30
0.0
 40
12.275507
100
AcDbArc
 50
249.7438419999999
 51
290.256158
  0
LINE
  5
421
330
18
100
AcDbEntity
  8
1
  6
Continuous
100
AcDbLine
 10
195.0100525376081
 20
62.2708988068466
 30
0.0
 11
220.9765615376081
 21
62.2708988068466
 31
0.0
  0
LINE
  5
422
330
18
100
AcDbEntity
  8
1
  6
Continuous
100
AcDbLine
 10
195.0100525376081
 20
65.17089880684661
 30
0.0
 11
220.3407135376081
 21
65.17089880684661
 31
0.0
  0
LINE
  5
423
330
18
100
AcDbEntity
  8
1
  6
Continuous
100
AcDbLine
 10
267.510052537608
 20
40.97089880684658
 30
0.0
 11
197.5100525376081
 21
40.97089880684658
 31
0.0
  0
LINE
  5
424
330
18
100
AcDbEntity
  8
1
  6
Continuous
100
AcDbLine
 10
202.0100525376081
 20
55.7708988068466
 30
0.0
 11
202.0100525376081
 21
62.2708988068466
 31
0.0
  0
LINE
  5
425
330
18
100
AcDbEntity
  8
1
  6
Continuous
100
AcDbLine
 10
187.5100525376081
 20
66.97089880684661
 30
0.0
 11
187.5100525376081
 21
50.97089880684659
 31
0.0
  0
ARC
  5
426
330
18
100
AcDbEntity
  8
1
  6
Continuous
100
AcDbCircle
 10
197.5100525376081
 20
50.97089880684659
 30
0.0
 40
10.0
100
AcDbArc
 50
180.0
 51
270.0
  0
LINE
  5
427
330
18
100
AcDbEntity
  8
4
  6
CENTER
100
AcDbLine
 10
205.260052537608
 20
50.47089880684659
 30
0.0
 11
188.7600525376081
 21
50.47089880684659
 31
0.0
  0
CIRCLE
  5
428
330
18
100
AcDbEntity
  8
1
  6
Continuous
100
AcDbCircle
 10
197.0100525376081
 20
50.47089880684659
 30
0.0
 40
5.25
  0
LINE
  5
429
330
18
100
AcDbEntity
  8
4
  6
CENTER
100
AcDbLine
 10
197.0100525376081
 20
58.72089880684658
 30
0.0
 11
197.0100525376081
 21
42.22089880684658
 31
0.0
  0
ARC
  5
42D
330
18
100
AcDbEntity
  8
1
  6
Continuous
100
AcDbCircle
 10
180.2829675376081
 20
68.4708988068466
 30
0.0
 40
1.5
100
AcDbArc
 50
185.057832
 51
270.0
  0
LINE
  5
42E
330
18
100
AcDbEntity
  8
1
  6
Continuous
100
AcDbLine
 10
192.0100525376081
 20
66.0708988068466
 30
0.0
 11
192.0100525376081
 21
66.97089880684661
 31
0.0
  0
LINE
  5
42F
330
18
100
AcDbEntity
  8
1
  6
Continuous
100
AcDbLine
 10
202.5100525376081
 20
65.5708988068466
 30
0.0
 11
202.5100525376081
 21
65.17089880684661
 31
0.0
  0
LINE
  5
430
330
18
100
AcDbEntity
  8
1
  6
Continuous
100
AcDbLine
 10
195.5100525376081
 20
65.5708988068466
 30
0.0
 11
195.5100525376081
 21
66.0708988068466
 31
0.0
  0
LINE
  5
431
330
18
100
AcDbEntity
  8
1
  6
Continuous
100
AcDbLine
 10
195.0100525376081
 20
65.17089880684661
 30
0.0
 11
195.0100525376081
 21
62.2708988068466
 31
0.0
  0
ARC
  5
432
330
18
100
AcDbEntity
  8
1
  6
Continuous
100
AcDbCircle
 10
232.510052537608
 20
85.97089880684661
 30
0.0
 40
38.0
100
AcDbArc
 50
212.379612
 51
213.186662
  0
ARC
  5
433
330
18
100
AcDbEntity
  8
1
  6
Continuous
100
AcDbCircle
 10
240.256378537608
 20
76.98509080684658
 30
0.0
 40
18.044792
100
AcDbArc
 50
235.255494
 51
267.1498619999999
  0
ARC
  5
434
330
18
100
AcDbEntity
  8
1
  6
Continuous
100
AcDbCircle
 10
240.256378537608
 20
76.98509080684658
 30
0.0
 40
20.94479199999998
100
AcDbArc
 50
234.1817569999999
 51
267.1498619999999
  0
LINE
  5
435
330
18
100
AcDbEntity
  8
1
  6
Continuous
100
AcDbLine
 10
210.5100525376079
 20
62.2708988068466
 30
0.0
 11
210.5100525376079
 21
56.5300878068466
 31
0.0
  0
LINE
  5
436
330
18
100
AcDbEntity
  8
1
  6
Continuous
100
AcDbLine
 10
219.0100525376079
 20
55.7708988068466
 30
0.0
 11
219.0100525376079
 21
62.2708988068466
 31
0.0
  0
ARC
  5
437
330
18
100
AcDbEntity
  8
1
  6
Continuous
100
AcDbCircle
 10
239.8116095376081
 20
68.0513628068466
 30
0.0
 40
9.099999999999999
100
AcDbArc
 50
267.1498619999999
 51
292.1691009999999
  0
ARC
  5
438
330
18
100
AcDbEntity
  8
1
  6
Continuous
100
AcDbCircle
 10
239.8116095376081
 20
68.0513628068466
 30
0.0
 40
12.0
100
AcDbArc
 50
267.1498619999999
 51
292.1691009999999
  0
ARC
  5
439
330
18
100
AcDbEntity
  8
1
  6
Continuous
100
AcDbCircle
 10
214.7600525376079
 20
68.04640580684661
 30
0.0
 40
12.275507
100
AcDbArc
 50
249.7438419999999
 51
290.256158
  0
LINE
  5
43D
330
18
100
AcDbEntity
  8
4
  6
CENTER
100
AcDbLine
 10
268.010052537608
 20
58.72089880684658
 30
0.0
 11
268.010052537608
 21
42.22089880684658
 31
0.0
  0
ARC
  5
43E
330
18
100
AcDbEntity
  8
1
  6
Continuous
100
AcDbCircle
 10
240.737137537608
 20
68.4708988068466
 30
0.0
 40
1.5
100
AcDbArc
 50
270.0
 51
354.942168
  0
ARC
  5
43F
330
18
100
AcDbEntity
  8
1
  6
Continuous
100
AcDbCircle
 10
220.3407135376081
 20
48.2708988068466
 30
0.0
 40
16.89999999999999
100
AcDbArc
 50
55.25549399999999
 51
90.0
  0
ARC
  5
440
330
18
100
AcDbEntity
  8
1
  6
Continuous
100
AcDbCircle
 10
220.9765615376081
 20
50.2708988068466
 30
0.0
 40
12.0
100
AcDbArc
 50
54.18175699999999
 51
90.0
  0
LINE
  5
441
330
18
100
AcDbEntity
  8
1
  6
Continuous
100
AcDbLine
 10
225.5100525376079
 20
65.5708988068466
 30
0.0
 11
225.5100525376079
 21
66.0708988068466
 31
0.0
  0
LINE
  5
442
330
18
100
AcDbEntity
  8
1
  6
Continuous
100
AcDbLine
 10
218.5100525376079
 20
65.5708988068466
 30
0.0
 11
218.5100525376079
 21
65.17089880684661
 31
0.0
  0
LINE
  5
443
330
18
100
AcDbEntity
  8
1
  6
Continuous
100
AcDbLine
 10
229.0100525376079
 20
66.0708988068466
 30
0.0
 11
229.0100525376079
 21
66.97089880684661
 31
0.0
  0
ARC
  5
444
330
18
100
AcDbEntity
  8
1
  6
Continuous
100
AcDbCircle
 10
232.510052537608
 20
85.97089880684661
 30
0.0
 40
14.65
100
AcDbArc
 50
314.260815
 51
45.739185
  0
ARC
  5
445
330
18
100
AcDbEntity
  8
1
  6
Continuous
100
AcDbCircle
 10
267.510052537608
 20
120.9708988068465
 30
0.0
 40
10.0
100
AcDbArc
 50
0.0
 51
90.0
  0
LINE
  5
446
330
18
100
AcDbEntity
  8
4
  6
CENTER
100
AcDbLine
 10
276.260052537608
 20
121.4708988068466
 30
0.0
 11
259.760052537608
 21
121.4708988068466
 31
0.0
  0
CIRCLE
  5
447
330
18
100
AcDbEntity
  8
1
  6
Continuous
100
AcDbCircle
 10
268.010052537608
 20
121.4708988068466
 30
0.0
 40
5.25
  0
ARC
  5
448
330
18
100
AcDbEntity
  8
1
  6
Continuous
100
AcDbCircle
 10
210.5100525376079
 20
224.5763888068466
 30
0.0
 40
32.5
100
AcDbArc
 50
169.244233
 51
309.72672
  0
LINE
  5
449
330
18
100
AcDbEntity
  8
4
  6
CENTER
100
AcDbLine
 10
210.5100525376079
 20
261.4594068068464
 30
0.0
 11
210.5100525376079
 21
184.0763888068464
 31
0.0
  0
LINE
  5
44A
330
18
100
AcDbEntity
  8
1
  6
Continuous
100
AcDbLine
 10
235.226657537608
 20
130.9708988068466
 30
0.0
 11
197.5100525376081
 21
130.9708988068466
 31
0.0
  0
ARC
  5
44B
330
18
100
AcDbEntity
  8
1
  6
Continuous
100
AcDbCircle
 10
207.0100525376081
 20
110.3616608068466
 30
0.0
 40
10.109241
100
AcDbArc
 50
69.743842
 51
110.2561579999999
  0
ARC
  5
44C
330
18
100
AcDbEntity
  8
1
  6
Continuous
100
AcDbCircle
 10
207.0100525376081
 20
124.5801428068463
 30
0.0
 40
10.109241
100
AcDbArc
 50
249.7438419999999
 51
290.256158
  0
LINE
  5
44D
330
18
100
AcDbEntity
  8
1
  6
Continuous
100
AcDbLine
 10
217.2760955376079
 20
114.4709018068466
 30
0.0
 11
201.510052537608
 21
114.4709018068466
 31
0.0
  0
LINE
  5
44E
330
18
100
AcDbEntity
  8
1
  6
Continuous
100
AcDbLine
 10
217.510052537608
 20
120.4709018068465
 30
0.0
 11
203.510052537608
 21
120.4709018068465
 31
0.0
  0
LINE
  5
44F
330
18
100
AcDbEntity
  8
1
  6
Continuous
100
AcDbLine
 10
215.510052537608
 20
120.7709018068466
 30
0.0
 11
205.510052537608
 21
120.7709018068466
 31
0.0
  0
LINE
  5
450
330
18
100
AcDbEntity
  8
1
  6
Continuous
100
AcDbLine
 10
214.010052537608
 20
122.2709018068466
 30
0.0
 11
207.0100525376081
 21
122.2709018068466
 31
0.0
  0
ARC
  5
451
330
18
100
AcDbEntity
  8
1
  6
Continuous
100
AcDbCircle
 10
208.9070255376081
 20
106.6708988068466
 30
0.0
 40
3.0
100
AcDbArc
 50
15.577392
 51
90.00000300000001
  0
ARC
  5
452
330
18
100
AcDbEntity
  8
1
  6
Continuous
100
AcDbCircle
 10
208.9070255376081
 20
106.6708988068466
 30
0.0
 40
3.5
100
AcDbArc
 50
24.543481
 51
90.00000300000001
  0
LINE
  5
453
330
18
100
AcDbEntity
  8
1
  6
Continuous
100
AcDbLine
 10
193.3166795376081
 20
112.4709018068466
 30
0.0
 11
212.2554595376081
 21
112.4709018068466
 31
0.0
  0
LINE
  5
454
330
18
100
AcDbEntity
  8
1
  6
Continuous
100
AcDbLine
 10
178.3211785376081
 20
110.1708988068466
 30
0.0
 11
220.976560537608
 21
110.1708988068466
 31
0.0
  0
LINE
  5
455
330
18
100
AcDbEntity
  8
1
  6
Continuous
100
AcDbLine
 10
214.1293885376081
 20
105.8708988068463
 30
0.0
 11
192.0100525376081
 21
105.8708988068463
 31
0.0
  0
LINE
  5
456
330
18
100
AcDbEntity
  8
1
  6
Continuous
100
AcDbLine
 10
212.8892985376081
 20
106.3708988068464
 30
0.0
 11
195.5100525376081
 21
106.3708988068464
 31
0.0
  0
LINE
  5
457
330
18
100
AcDbEntity
  8
1
  6
Continuous
100
AcDbLine
 10
180.2829675376081
 20
104.9708988068466
 30
0.0
 11
240.737137537608
 21
104.9708988068466
 31
0.0
  0
LINE
  5
458
330
18
100
AcDbEntity
  8
1
  6
Continuous
100
AcDbLine
 10
195.0100525376081
 20
106.7708988068466
 30
0.0
 11
212.377074537608
 21
106.7708988068466
 31
0.0
  0
LINE
  5
459
330
18
100
AcDbEntity
  8
1
  6
Continuous
100
AcDbLine
 10
178.3211785376081
 20
112.4709018068466
 30
0.0
 11
181.3166775376081
 21
112.4709018068466
 31
0.0
  0
ARC
  5
45A
330
18
100
AcDbEntity
  8
1
  6
Continuous
100
AcDbCircle
 10
185.8189275376079
 20
119.6731568068466
 30
0.0
 40
7.497746
100
AcDbArc
 50
0.0
 51
180.000005
  0
ARC
  5
45B
330
18
100
AcDbEntity
  8
1
  6
Continuous
100
AcDbCircle
 10
180.2829675376081
 20
103.4708988068465
 30
0.0
 40
1.5
100
AcDbArc
 50
90.0
 51
174.9421679999999
  0
LINE
  5
45C
330
18
100
AcDbEntity
  8
1
  6
Continuous
100
AcDbLine
 10
178.3211785376081
 20
110.1708988068466
 30
0.0
 11
178.3211785376081
 21
119.6731568068466
 31
0.0
  0
ARC
  5
45D
330
18
100
AcDbEntity
  8
1
  6
Continuous
100
AcDbCircle
 10
197.0100525376081
 20
121.4708988068466
 30
0.0
 40
5.25
100
AcDbArc
 50
225.291532
 51
156.131783
  0
LINE
  5
45E
330
18
100
AcDbEntity
  8
4
  6
CENTER
100
AcDbLine
 10
197.0100525376081
 20
129.7208988068466
 30
0.0
 11
197.0100525376081
 21
113.2208988068466
 31
0.0
  0
LINE
  5
45F
330
18
100
AcDbEntity
  8
1
  6
Continuous
100
AcDbLine
 10
180.2436795376079
 20
109.6708988068465
 30
0.0
 11
208.9070255376081
 21
109.6708988068465
 31
0.0
  0
LINE
  5
460
330
18
100
AcDbEntity
  8
4
  6
CENTER
100
AcDbLine
 10
205.260052537608
 20
121.4708988068466
 30
0.0
 11
188.7600525376081
 21
121.4708988068466
 31
0.0
  0
ARC
  5
461
330
18
100
AcDbEntity
  8
1
  6
Continuous
100
AcDbCircle
 10
187.3166775376081
 20
104.4709018068465
 30
0.0
 40
10.0
100
AcDbArc
 50
53.130102
 51
126.869903
  0
LINE
  5
462
330
18
100
AcDbEntity
  8
1
  6
Continuous
100
AcDbLine
 10
193.3166795376081
 20
112.4709018068466
 30
0.0
 11
193.3166795376081
 21
119.6731568068466
 31
0.0
  0
ARC
  5
463
330
18
100
AcDbEntity
  8
1
  6
Continuous
100
AcDbCircle
 10
187.3166775376081
 20
104.4709018068465
 30
0.0
 40
8.0
100
AcDbArc
 50
45.438656
 51
134.5613379999997
  0
LINE
  5
464
330
18
100
AcDbEntity
  8
1
  6
Continuous
100
AcDbLine
 10
180.2436795376079
 20
110.1708988068466
 30
0.0
 11
180.2436795376079
 21
109.6708988068465
 31
0.0
  0
LINE
  5
465
330
18
100
AcDbEntity
  8
1
  6
Continuous
100
AcDbLine
 10
192.0100525376081
 20
105.8708988068463
 30
0.0
 11
192.0100525376081
 21
104.9708988068466
 31
0.0
  0
LINE
  5
466
330
18
100
AcDbEntity
  8
1
  6
Continuous
100
AcDbLine
 10
187.5100525376081
 20
109.6708988068465
 30
0.0
 11
187.5100525376081
 21
104.9708988068466
 31
0.0
  0
LINE
  5
467
330
18
100
AcDbEntity
  8
1
  6
Continuous
100
AcDbLine
 10
201.510052537608
 20
114.4709018068466
 30
0.0
 11
201.510052537608
 21
112.4709018068466
 31
0.0
  0
LINE
  5
468
330
18
100
AcDbEntity
  8
1
  6
Continuous
100
AcDbLine
 10
202.5100525376081
 20
106.3708988068464
 30
0.0
 11
202.5100525376081
 21
106.7708988068466
 31
0.0
  0
LINE
  5
469
330
18
100
AcDbEntity
  8
1
  6
Continuous
100
AcDbLine
 10
195.5100525376081
 20
106.3708988068464
 30
0.0
 11
195.5100525376081
 21
105.8708988068463
 31
0.0
  0
ARC
  5
46A
330
18
100
AcDbEntity
  8
1
  6
Continuous
100
AcDbCircle
 10
232.510052537608
 20
85.97089880684661
 30
0.0
 40
38.0
100
AcDbArc
 50
146.8133379999999
 51
147.531075
  0
LINE
  5
46B
330
18
100
AcDbEntity
  8
1
  6
Continuous
100
AcDbLine
 10
195.0100525376081
 20
109.6708988068465
 30
0.0
 11
195.0100525376081
 21
106.7708988068466
 31
0.0
  0
LINE
  5
46C
330
18
100
AcDbEntity
  8
1
  6
Continuous
100
AcDbLine
 10
203.510052537608
 20
120.4709018068465
 30
0.0
 11
203.510052537608
 21
114.4709018068466
 31
0.0
  0
LINE
  5
46D
330
18
100
AcDbEntity
  8
1
  6
Continuous
100
AcDbLine
 10
207.0100525376081
 20
122.2709018068466
 30
0.0
 11
205.510052537608
 21
120.7709018068466
 31
0.0
  0
LINE
  5
46E
330
18
100
AcDbEntity
  8
1
  6
Continuous
100
AcDbLine
 10
205.510052537608
 20
120.4709018068465
 30
0.0
 11
205.510052537608
 21
120.7709018068466
 31
0.0
  0
LINE
  5
46F
330
18
100
AcDbEntity
  8
2
  6
Continuous
100
AcDbLine
 10
206.1865525376081
 20
120.4709018068465
 30
0.0
 11
206.1865525376081
 21
121.4474018068465
 31
0.0
  0
ARC
  5
470
330
18
100
AcDbEntity
  8
1
  6
Continuous
100
AcDbCircle
 10
197.5100525376081
 20
120.9708988068465
 30
0.0
 40
10.0
100
AcDbArc
 50
90.0
 51
147.0716439999999
  0
ARC
  5
471
330
18
100
AcDbEntity
  8
1
  6
Continuous
100
AcDbCircle
 10
242.892660537608
 20
130.2732208068466
 30
0.0
 40
7.697684999999999
100
AcDbArc
 50
0.0
 51
180.000005
  0
LINE
  5
472
330
18
100
AcDbEntity
  8
1
  6
Continuous
100
AcDbLine
 10
232.8916595376081
 20
121.4208988068466
 30
0.0
 11
252.8140085376079
 21
121.4208988068466
 31
0.0
  0
ARC
  5
473
330
18
100
AcDbEntity
  8
1
  6
Continuous
100
AcDbCircle
 10
232.510052537608
 20
157.8103928068466
 30
0.0
 40
51.939491
100
AcDbArc
 50
269.9999969999999
 51
291.4574529999999
  0
ARC
  5
474
330
18
100
AcDbEntity
  8
1
  6
Continuous
100
AcDbCircle
 10
232.510052537608
 20
157.8103928068466
 30
0.0
 40
51.439491
100
AcDbArc
 50
269.9999969999999
 51
291.4574529999999
  0
LINE
  5
475
330
18
100
AcDbEntity
  8
1
  6
Continuous
100
AcDbLine
 10
235.1949745376081
 20
109.9708558068466
 30
0.0
 11
252.8140085376079
 21
109.9708558068466
 31
0.0
  0
ARC
  5
476
330
18
100
AcDbEntity
  8
1
  6
Continuous
100
AcDbCircle
 10
240.737137537608
 20
103.4708988068465
 30
0.0
 40
1.5
100
AcDbArc
 50
5.057832
 51
90.0
  0
ARC
  5
477
330
18
100
AcDbEntity
  8
1
  6
Continuous
100
AcDbCircle
 10
232.510052537608
 20
85.97089880684661
 30
0.0
 40
38.0
100
AcDbArc
 50
85.94834399999998
 51
114.901062
  0
LINE
  5
478
330
18
100
AcDbEntity
  8
1
  6
Continuous
100
AcDbLine
 10
235.1949745376081
 20
109.9708558068466
 30
0.0
 11
235.1949745376081
 21
130.2732208068466
 31
0.0
  0
ARC
  5
479
330
18
100
AcDbEntity
  8
1
  6
Continuous
100
AcDbCircle
 10
220.976560537608
 20
121.6708948068466
 30
0.0
 40
11.5
100
AcDbArc
 50
269.9999969999999
 51
305.8182439999999
  0
LINE
  5
47A
330
18
100
AcDbEntity
  8
1
  6
Continuous
100
AcDbLine
 10
228.2141255376081
 20
120.2594918068465
 30
0.0
 11
214.594229537608
 21
113.0516128068465
 31
0.0
  0
LINE
  5
47B
330
18
100
AcDbEntity
  8
1
  6
Continuous
100
AcDbLine
 10
215.6700635376081
 20
111.0187308068466
 30
0.0
 11
229.2899595376081
 21
118.2266088068466
 31
0.0
  0
LINE
  5
47C
330
18
100
AcDbEntity
  8
1
  6
Continuous
100
AcDbLine
 10
229.4902545376078
 20
117.9918218068465
 30
0.0
 11
221.2289325376081
 21
111.2883078068465
 31
0.0
  0
LINE
  5
47D
330
18
100
AcDbEntity
  8
1
  6
Continuous
100
AcDbLine
 10
215.510053537608
 20
105.8708958068466
 30
0.0
 11
232.510052537608
 21
105.8708958068466
 31
0.0
  0
LINE
  5
47E
330
18
100
AcDbEntity
  8
1
  6
Continuous
100
AcDbLine
 10
214.8197305376081
 20
106.3708958068465
 30
0.0
 11
232.510052537608
 21
106.3708958068465
 31
0.0
  0
ARC
  5
47F
330
18
100
AcDbEntity
  8
1
  6
Continuous
100
AcDbCircle
 10
212.2554595376081
 20
117.4709018068465
 30
0.0
 40
5.0
100
AcDbArc
 50
269.9999969999999
 51
300.1837709999998
  0
ARC
  5
480
330
18
100
AcDbEntity
  8
1
  6
Continuous
100
AcDbCircle
 10
218.078466537608
 20
115.1708988068466
 30
0.0
 40
5.0
100
AcDbArc
 50
269.9999969999999
 51
311.9305189999999
  0
ARC
  5
481
330
18
100
AcDbEntity
  8
1
  6
Continuous
100
AcDbCircle
 10
214.8197305376081
 20
109.3708958068466
 30
0.0
 40
3.0
100
AcDbArc
 50
204.543487
 51
269.9999969999999
  0
ARC
  5
482
330
18
100
AcDbEntity
  8
1
  6
Continuous
100
AcDbCircle
 10
214.8197305376081
 20
109.3708958068466
 30
0.0
 40
3.567429
100
AcDbArc
 50
212.074372
 51
281.1575829999998
  0
ARC
  5
483
330
18
100
AcDbEntity
  8
1
  6
Continuous
100
AcDbCircle
 10
212.2554595376081
 20
117.4709018068465
 30
0.0
 40
7.299999999999998
100
AcDbArc
 50
269.9999969999999
 51
300.1837709999998
  0
LINE
  5
484
330
18
100
AcDbEntity
  8
1
  6
Continuous
100
AcDbLine
 10
217.510052537608
 20
120.4709018068465
 30
0.0
 11
217.510052537608
 21
114.4709018068466
 31
0.0
  0
LINE
  5
485
330
18
100
AcDbEntity
  8
1
  6
Continuous
100
AcDbLine
 10
214.010052537608
 20
122.2709018068466
 30
0.0
 11
215.510052537608
 21
120.7709018068466
 31
0.0
  0
LINE
  5
486
330
18
100
AcDbEntity
  8
2
  6
Continuous
100
AcDbLine
 10
214.833552537608
 20
120.4709018068465
 30
0.0
 11
214.833552537608
 21
121.4474018068465
 31
0.0
  0
LINE
  5
487
330
18
100
AcDbEntity
  8
1
  6
Continuous
100
AcDbLine
 10
215.510052537608
 20
120.4709018068465
 30
0.0
 11
215.510052537608
 21
120.7709018068466
 31
0.0
  0
LINE
  5
488
330
18
100
AcDbEntity
  8
1
  6
Continuous
100
AcDbLine
 10
210.5100525376079
 20
119.8456868068466
 30
0.0
 11
210.5100525376079
 21
115.0961168068463
 31
0.0
  0
ARC
  5
489
330
18
100
AcDbEntity
  8
1
  6
Continuous
100
AcDbCircle
 10
214.010052537608
 20
110.3616608068466
 30
0.0
 40
10.109241
100
AcDbArc
 50
69.743842
 51
110.2561579999999
  0
ARC
  5
48A
330
18
100
AcDbEntity
  8
1
  6
Continuous
100
AcDbCircle
 10
214.010052537608
 20
124.5801428068463
 30
0.0
 40
10.109241
100
AcDbArc
 50
249.7438419999999
 51
290.256158
  0
LINE
  5
48B
330
18
100
AcDbEntity
  8
1
  6
Continuous
100
AcDbLine
 10
230.510052537608
 20
114.0587548068466
 30
0.0
 11
234.4146215376081
 21
106.4061728068465
 31
0.0
  0
ARC
  5
48C
330
18
100
AcDbEntity
  8
1
  6
Continuous
100
AcDbCircle
 10
240.256376537608
 20
94.9567108068466
 30
0.0
 40
21.444792
100
AcDbArc
 50
117.0317669999999
 51
125.8182449999999
  0
ARC
  5
48D
330
18
100
AcDbEntity
  8
1
  6
Continuous
100
AcDbCircle
 10
232.510052537608
 20
85.97089880684661
 30
0.0
 40
22.65
100
AcDbArc
 50
68.501402
 51
88.02288799999997
  0
ARC
  5
48E
330
18
100
AcDbEntity
  8
1
  6
Continuous
100
AcDbCircle
 10
240.256378537608
 20
94.9567078068466
 30
0.0
 40
18.044792
100
AcDbArc
 50
106.289519
 51
117.03173
  0
LINE
  5
48F
330
18
100
AcDbEntity
  8
1
  6
Continuous
100
AcDbLine
 10
229.0100525376079
 20
105.8708988068463
 30
0.0
 11
229.0100525376079
 21
104.9708988068466
 31
0.0
  0
ARC
  5
490
330
18
100
AcDbEntity
  8
1
  6
Continuous
100
AcDbCircle
 10
232.510052537608
 20
85.97089880684661
 30
0.0
 40
26.25
100
AcDbArc
 50
84.129365
 51
85.18941499999998
  0
ARC
  5
491
330
18
100
AcDbEntity
  8
1
  6
Continuous
100
AcDbCircle
 10
232.510052537608
 20
85.97089880684661
 30
0.0
 40
31.35
100
AcDbArc
 50
85.08697499999998
 51
97.687909
  0
LINE
  5
492
330
18
100
AcDbEntity
  8
1
  6
Continuous
100
AcDbLine
 10
232.8916595376081
 20
119.1208958068465
 30
0.0
 11
235.1949745376081
 21
119.1208958068465
 31
0.0
  0
ARC
  5
493
330
18
100
AcDbEntity
  8
1
  6
Continuous
100
AcDbCircle
 10
240.256378537608
 20
94.9567078068466
 30
0.0
 40
20.94479199999998
100
AcDbArc
 50
103.9842129999999
 51
117.0317659999999
  0
ARC
  5
494
330
18
100
AcDbEntity
  8
1
  6
Continuous
100
AcDbCircle
 10
232.8916595376081
 20
111.4208988068466
 30
0.0
 40
7.7
100
AcDbArc
 50
90.00000300000001
 51
95.33267999999997
  0
ARC
  5
495
330
18
100
AcDbEntity
  8
1
  6
Continuous
100
AcDbCircle
 10
232.8916595376081
 20
111.4208988068466
 30
0.0
 40
7.7
100
AcDbArc
 50
90.00000300000001
 51
120.1837759999999
  0
ARC
  5
496
330
18
100
AcDbEntity
  8
1
  6
Continuous
100
AcDbCircle
 10
232.640721537608
 20
114.1092228068464
 30
0.0
 40
5.0
100
AcDbArc
 50
95.33267999999997
 51
131.930513
  0
ARC
  5
497
330
18
100
AcDbEntity
  8
1
  6
Continuous
100
AcDbCircle
 10
232.8916595376081
 20
111.4208988068466
 30
0.0
 40
10.0
100
AcDbArc
 50
90.00000300000001
 51
120.1837759999999
  0
LINE
  5
498
330
18
100
AcDbEntity
  8
1
  6
Continuous
100
AcDbLine
 10
250.5903415376081
 20
121.4208988068466
 30
0.0
 11
250.5903415376081
 21
130.2732208068466
 31
0.0
  0
LINE
  5
499
330
18
100
AcDbEntity
  8
4
  6
CENTER
100
AcDbLine
 10
268.010052537608
 20
129.7208988068466
 30
0.0
 11
268.010052537608
 21
113.2208988068466
 31
0.0
  0
LINE
  5
49A
330
18
100
AcDbEntity
  8
1
  6
Continuous
100
AcDbLine
 10
252.8140085376079
 20
109.9708558068466
 30
0.0
 11
252.8140085376079
 21
121.4208988068466
 31
0.0
  0
ARC
  5
49B
330
18
100
AcDbEntity
  8
1
  6
Continuous
100
AcDbCircle
 10
232.510052537608
 20
85.97089880684661
 30
0.0
 40
28.45
100
AcDbArc
 50
54.414662
 51
57.52051099999999
  0
ARC
  5
49C
330
18
100
AcDbEntity
  8
1
  6
Continuous
100
AcDbCircle
 10
232.510052537608
 20
85.97089880684661
 30
0.0
 40
26.25
100
AcDbArc
 50
58.15740000000001
 51
66.104262
  0
LINE
  5
49D
330
18
100
AcDbEntity
  8
1
  6
Continuous
100
AcDbLine
 10
267.510052537608
 20
130.9708988068466
 30
0.0
 11
250.558662537608
 21
130.9708988068466
 31
0.0
  0
ARC
  5
49E
330
18
100
AcDbEntity
  8
1
  6
Continuous
100
AcDbCircle
 10
210.5100525376079
 20
224.5763888068466
 30
0.0
 40
26.5
100
AcDbArc
 50
225.95027
 51
295.7443089999998
  0
CIRCLE
  5
49F
330
18
100
AcDbEntity
  8
2
  6
Continuous
100
AcDbCircle
 10
210.5100525376079
 20
224.5763888068466
 30
0.0
 40
4.3235
  0
CIRCLE
  5
4A0
330
18
100
AcDbEntity
  8
1
  6
Continuous
100
AcDbCircle
 10
210.5100525376079
 20
224.5763888068466
 30
0.0
 40
5.0
  0
LINE
  5
4A1
330
18
100
AcDbEntity
  8
1
  6
Continuous
100
AcDbLine
 10
210.5100525376079
 20
232.6592928068465
 30
0.0
 11
203.510052537608
 21
228.6178408068466
 31
0.0
  0
CIRCLE
  5
4A2
330
18
100
AcDbEntity
  8
1
  6
Continuous
100
AcDbCircle
 10
210.5100525376079
 20
224.5763888068466
 30
0.0
 40
9.0
  0
CIRCLE
  5
4A3
330
18
100
AcDbEntity
  8
1
  6
Continuous
100
AcDbCircle
 10
210.5100525376079
 20
224.5763888068466
 30
0.0
 40
7.0
  0
LINE
  5
4A4
330
18
100
AcDbEntity
  8
1
  6
Continuous
100
AcDbLine
 10
203.510052537608
 20
220.5349368068465
 30
0.0
 11
210.5100525376079
 21
216.4934848068465
 31
0.0
  0
ARC
  5
4A5
330
18
100
AcDbEntity
  8
5
  6
PHANTOM
100
AcDbCircle
 10
208.542938537608
 20
246.7847428068465
 30
0.0
 40
6.786914999999997
100
AcDbArc
 50
253.280935
 51
289.7181499999998
  0
LINE
  5
4A6
330
18
100
AcDbEntity
  8
1
  6
Continuous
100
AcDbLine
 10
208.221603537608
 20
253.1756878068465
 30
0.0
 11
212.286131537608
 21
252.6937998068466
 31
0.0
  0
ARC
  5
4A7
330
18
100
AcDbEntity
  8
5
  6
PHANTOM
100
AcDbCircle
 10
194.507518537608
 20
217.1772618068465
 30
0.0
 40
26.07591199999999
100
AcDbArc
 50
350.7501379999998
 51
62.39479600000001
  0
ARC
  5
4A8
330
18
100
AcDbEntity
  8
1
  6
Continuous
100
AcDbCircle
 10
205.007307537608
 20
190.7201888068463
 30
0.0
 40
15.957194
100
AcDbArc
 50
59.15228599999998
 51
95.38578399999998
  0
ARC
  5
4A9
330
18
100
AcDbEntity
  8
1
  6
Continuous
100
AcDbCircle
 10
229.230870537608
 20
576.5842218068463
 30
0.0
 40
367.050232
100
AcDbArc
 50
264.8093819999999
 51
267.559912
  0
ARC
  5
4AA
330
18
100
AcDbEntity
  8
5
  6
PHANTOM
100
AcDbCircle
 10
58.3878265376081
 20
542.5682308068465
 30
0.0
 40
367.050232
100
AcDbArc
 50
293.4193819999998
 51
296.169912
  0
ARC
  5
4AB
330
18
100
AcDbEntity
  8
1
  6
Continuous
100
AcDbCircle
 10
210.5100525376079
 20
224.5763888068466
 30
0.0
 40
32.5
100
AcDbArc
 50
85.187111
 51
158.63226
  0
ARC
  5
4AC
330
18
100
AcDbEntity
  8
1
  6
Continuous
100
AcDbCircle
 10
209.386946537608
 20
255.8763888068465
 30
0.0
 40
4.0
100
AcDbArc
 50
14.03624299999999
 51
90.0
  0
LINE
  5
4AD
330
18
100
AcDbEntity
  8
1
  6
Continuous
100
AcDbLine
 10
262.510052537608
 20
269.8763888068465
 30
0.0
 11
202.5100525376081
 21
269.8763888068465
 31
0.0
  0
LINE
  5
4AE
330
18
100
AcDbEntity
  8
4
  6
CENTER
100
AcDbLine
 10
170.0100525376081
 20
224.5763888068466
 30
0.0
 11
251.010052537608
 21
224.5763888068466
 31
0.0
  0
ARC
  5
4AF
330
18
100
AcDbEntity
  8
1
  6
Continuous
100
AcDbCircle
 10
118.1923375376081
 20
226.2788498068466
 30
0.0
 40
60.546078
100
AcDbArc
 50
359.60274
 51
4.252298999999998
  0
CIRCLE
  5
4B0
330
18
100
AcDbEntity
  8
1
  6
Continuous
100
AcDbCircle
 10
186.4650385376081
 20
226.1172828068466
 30
0.0
 40
6.0
  0
LINE
  5
4B1
330
18
100
AcDbEntity
  8
5
  6
PHANTOM
100
AcDbLine
 10
193.475873537608
 20
247.6384428068466
 30
0.0
 11
193.2897525376081
 21
226.7512858068466
 31
0.0
  0
ARC
  5
4B2
330
18
100
AcDbEntity
  8
5
  6
PHANTOM
100
AcDbCircle
 10
269.161841537608
 20
272.6357178068465
 30
0.0
 40
106.7354659999999
100
AcDbArc
 50
211.086048
 51
212.862293
  0
LINE
  5
4B3
330
18
100
AcDbEntity
  8
5
  6
PHANTOM
100
AcDbLine
 10
177.754348537608
 20
217.5255558068466
 30
0.0
 11
190.742764537608
 21
225.0289558068466
 31
0.0
  0
LINE
  5
4B4
330
18
100
AcDbEntity
  8
5
  6
PHANTOM
100
AcDbLine
 10
176.6038295376081
 20
219.5171138068465
 30
0.0
 11
189.592243537608
 21
227.0205128068465
 31
0.0
  0
ARC
  5
4B5
330
18
100
AcDbEntity
  8
1
  6
Continuous
100
AcDbCircle
 10
192.9395045376081
 20
225.7605858068465
 30
0.0
 40
14.20288
100
AcDbArc
 50
179.602734
 51
220.510895
  0
ARC
  5
4B6
330
18
100
AcDbEntity
  8
1
  6
Continuous
100
AcDbCircle
 10
188.6434285376081
 20
212.7386498068466
 30
0.0
 40
7.5
100
AcDbArc
 50
149.703622
 51
275.3857959999999
  0
LINE
  5
4B7
330
18
100
AcDbEntity
  8
5
  6
PHANTOM
100
AcDbLine
 10
176.603821537608
 20
219.5171118068464
 30
0.0
 11
177.7543465376081
 21
217.5255518068464
 31
0.0
  0
ARC
  5
4B8
330
18
100
AcDbEntity
  8
5
  6
PHANTOM
100
AcDbCircle
 10
194.5178325376081
 20
217.2024238068466
 30
0.0
 40
14.20288
100
AcDbArc
 50
208.2127339999999
 51
249.1208949999999
  0
CIRCLE
  5
4B9
330
18
100
AcDbEntity
  8
5
  6
PHANTOM
100
AcDbCircle
 10
188.663099537608
 20
214.4153018068466
 30
0.0
 40
6.0
  0
ARC
  5
4BA
330
18
100
AcDbEntity
  8
1
  6
Continuous
100
AcDbCircle
 10
188.6434285376081
 20
212.7386498068466
 30
0.0
 40
6.5
100
AcDbArc
 50
149.703622
 51
346.15967
  0
ARC
  5
4BB
330
18
100
AcDbEntity
  8
5
  6
PHANTOM
100
AcDbCircle
 10
195.188789537608
 20
197.2966218068465
 30
0.0
 40
10.0
100
AcDbArc
 50
54.83070999999998
 51
134.157139
  0
LINE
  5
4BC
330
18
100
AcDbEntity
  8
1
  6
Continuous
100
AcDbLine
 10
189.347389537608
 20
205.2717668068465
 30
0.0
 11
203.509548537608
 21
206.6069418068466
 31
0.0
  0
LINE
  5
4BD
330
18
100
AcDbEntity
  8
5
  6
PHANTOM
100
AcDbLine
 10
189.4850435376081
 20
203.9340388068465
 30
0.0
 11
200.3570455376079
 21
204.6281318068465
 31
0.0
  0
ARC
  5
4BE
330
18
100
AcDbEntity
  8
5
  6
PHANTOM
100
AcDbCircle
 10
193.7510975376081
 20
215.7128988068465
 30
0.0
 40
12.52760499999999
100
AcDbArc
 50
242.762771
 51
246.0871609999999
  0
ARC
  5
4BF
330
18
100
AcDbEntity
  8
5
  6
PHANTOM
100
AcDbCircle
 10
199.3743245376079
 20
217.0698138068466
 30
0.0
 40
12.330029
100
AcDbArc
 50
285.303341
 51
293.4193819999998
  0
ARC
  5
4C0
330
18
100
AcDbEntity
  8
5
  6
PHANTOM
100
AcDbCircle
 10
210.100465537608
 20
167.6648278068466
 30
0.0
 40
38.225906
100
AcDbArc
 50
102.2491859999998
 51
104.767094
  0
ARC
  5
4C1
330
18
100
AcDbEntity
  8
5
  6
PHANTOM
100
AcDbCircle
 10
202.1007205376081
 20
207.1060668068466
 30
0.0
 40
2.0
100
AcDbArc
 50
234.830709
 51
285.303341
  0
ARC
  5
4C2
330
18
100
AcDbEntity
  8
1
  6
Continuous
100
AcDbCircle
 10
197.1395165376081
 20
223.3186598068465
 30
0.0
 40
12.330029
100
AcDbArc
 50
256.6933409999999
 51
264.8093819999999
  0
ARC
  5
4C3
330
18
100
AcDbEntity
  8
1
  6
Continuous
100
AcDbCircle
 10
183.996742537608
 20
207.9640088068466
 30
0.0
 40
10.0
100
AcDbArc
 50
26.22071
 51
105.5471389999999
  0
LINE
  5
4C4
330
18
100
AcDbEntity
  8
1
  6
Continuous
100
AcDbLine
 10
182.1677205376081
 20
216.5222038068465
 30
0.0
 11
192.044609537608
 21
211.9255438068464
 31
0.0
  0
ARC
  5
4C5
330
18
100
AcDbEntity
  8
1
  6
Continuous
100
AcDbCircle
 10
191.5531365376081
 20
224.8200798068465
 30
0.0
 40
12.52760499999999
100
AcDbArc
 50
214.152771
 51
217.477161
  0
ARC
  5
4C6
330
18
100
AcDbEntity
  8
5
  6
PHANTOM
100
AcDbCircle
 10
128.6491695376081
 20
181.8650938068465
 30
0.0
 40
60.546078
100
AcDbArc
 50
28.21274000000001
 51
32.862299
  0
ARC
  5
4C7
330
18
100
AcDbEntity
  8
1
  6
Continuous
100
AcDbCircle
 10
182.8986555376081
 20
174.8098918068465
 30
0.0
 40
38.225906
100
AcDbArc
 50
73.63918599999998
 51
76.157094
  0
ARC
  5
4C8
330
18
100
AcDbEntity
  8
1
  6
Continuous
100
AcDbCircle
 10
194.761926537608
 20
213.2659708068465
 30
0.0
 40
2.0
100
AcDbArc
 50
206.220709
 51
256.6933409999999
  0
ARC
  5
4C9
330
18
100
AcDbEntity
  8
5
  6
PHANTOM
100
AcDbCircle
 10
191.9148085376081
 20
226.7635358068465
 30
0.0
 40
1.375
100
AcDbArc
 50
277.518264
 51
359.4894679999999
  0
LINE
  5
4CA
330
18
100
AcDbEntity
  8
5
  6
PHANTOM
100
AcDbLine
 10
189.5922465376081
 20
227.0205118068466
 30
0.0
 11
190.742767537608
 21
225.0289558068466
 31
0.0
  0
LINE
  5
4CB
330
18
100
AcDbEntity
  8
5
  6
PHANTOM
100
AcDbLine
 10
191.175716537608
 20
225.2790728068466
 30
0.0
 11
190.1675075376081
 21
226.0247388068465
 31
0.0
  0
LINE
  5
4CC
330
18
100
AcDbEntity
  8
5
  6
PHANTOM
100
AcDbLine
 10
192.094713537608
 20
225.4003558068466
 30
0.0
 11
191.1757105376081
 21
225.2790678068466
 31
0.0
  0
LINE
  5
4CD
330
18
100
AcDbEntity
  8
1
  6
Continuous
100
AcDbLine
 10
203.510052537608
 20
220.5349368068465
 30
0.0
 11
203.510052537608
 21
228.6178408068466
 31
0.0
  0
LINE
  5
4CE
330
18
100
AcDbEntity
  8
1
  6
Continuous
100
AcDbLine
 10
178.3211895376079
 20
236.3706828068466
 30
0.0
 11
193.3166775376079
 21
236.7384738068466
 31
0.0
  0
LINE
  5
4CF
330
18
100
AcDbEntity
  8
1
  6
Continuous
100
AcDbLine
 10
178.377582537608
 20
234.0713748068465
 30
0.0
 11
193.373071537608
 21
234.4391658068466
 31
0.0
  0
ARC
  5
4D0
330
18
100
AcDbEntity
  8
1
  6
Continuous
100
AcDbCircle
 10
285.0133975376079
 20
238.6825248068466
 30
0.0
 40
106.7354659999999
100
AcDbArc
 50
182.4760479999999
 51
184.2522929999999
  0
LINE
  5
4D1
330
18
100
AcDbEntity
  8
1
  6
Continuous
100
AcDbLine
 10
178.3211825376081
 20
236.3706838068465
 30
0.0
 11
178.3775785376081
 21
234.0713728068466
 31
0.0
  0
ARC
  5
4D2
330
18
100
AcDbEntity
  8
1
  6
Continuous
100
AcDbCircle
 10
210.5100525376079
 20
224.5763888068466
 30
0.0
 40
26.5
100
AcDbArc
 50
101.4608979999998
 51
153.064075
  0
LINE
  5
4D3
330
18
100
AcDbEntity
  8
1
  6
Continuous
100
AcDbLine
 10
206.5989075376081
 20
252.9792858068464
 30
0.0
 11
196.433799537608
 21
234.7315858068466
 31
0.0
  0
ARC
  5
4D4
330
18
100
AcDbEntity
  8
1
  6
Continuous
100
AcDbCircle
 10
210.5100525376079
 20
224.5763888068466
 30
0.0
 40
18.5
100
AcDbArc
 50
129.6025669999999
 51
148.864561
  0
ARC
  5
4D5
330
18
100
AcDbEntity
  8
1
  6
Continuous
100
AcDbCircle
 10
195.2326035376081
 20
235.4007258068465
 30
0.0
 40
1.375
100
AcDbArc
 50
248.9082639999999
 51
330.8794679999998
  0
LINE
  5
4D6
330
18
100
AcDbEntity
  8
5
  6
PHANTOM
100
AcDbLine
 10
194.8063905376081
 20
248.5878838068463
 30
0.0
 11
198.6053875376081
 21
250.1111138068465
 31
0.0
  0
LINE
  5
4D7
330
18
100
AcDbEntity
  8
1
  6
Continuous
100
AcDbLine
 10
194.737789537608
 20
234.1178438068465
 30
0.0
 11
193.872919537608
 21
234.4514258068465
 31
0.0
  0
LINE
  5
4D8
330
18
100
AcDbEntity
  8
1
  6
Continuous
100
AcDbLine
 10
193.8729265376081
 20
234.4514268068464
 30
0.0
 11
193.344879537608
 21
235.5888218068466
 31
0.0
  0
LINE
  5
4D9
330
18
100
AcDbEntity
  8
1
  6
Continuous
100
AcDbLine
 10
193.3166795376081
 20
236.7384718068466
 30
0.0
 11
193.3730735376079
 21
234.4391648068465
 31
0.0
  0
LINE
  5
4DA
330
18
100
AcDbEntity
  8
5
  6
PHANTOM
100
AcDbLine
 10
193.475873537608
 20
247.6384458068465
 30
0.0
 11
194.8063905376081
 21
248.5878838068463
 31
0.0
  0
ARC
  5
4DB
330
18
100
AcDbEntity
  8
5
  6
PHANTOM
100
AcDbCircle
 10
208.1217315376081
 20
245.3824958068465
 30
0.0
 40
5.322773999999999
100
AcDbArc
 50
232.172672
 51
253.280935
  0
LINE
  5
4DC
330
18
100
AcDbEntity
  8
5
  6
PHANTOM
100
AcDbLine
 10
200.0775045376081
 20
250.3112978068465
 30
0.0
 11
203.0752055376081
 21
243.4665338068465
 31
0.0
  0
LINE
  5
4DD
330
18
100
AcDbEntity
  8
5
  6
PHANTOM
100
AcDbLine
 10
198.6053875376081
 20
250.1111158068466
 30
0.0
 11
200.0775035376081
 21
250.3112968068466
 31
0.0
  0
ARC
  5
4DE
330
18
100
AcDbEntity
  8
5
  6
PHANTOM
100
AcDbCircle
 10
208.467853537608
 20
245.8282728068466
 30
0.0
 40
5.887144
100
AcDbArc
 50
203.65126
 51
232.1726819999999
  0
LINE
  5
4DF
330
18
100
AcDbEntity
  8
1
  6
Continuous
100
AcDbLine
 10
201.777381537608
 20
266.2545978068464
 30
0.0
 11
203.510052537608
 21
259.8763888068465
 31
0.0
  0
LINE
  5
4E0
330
18
100
AcDbEntity
  8
1
  6
Continuous
100
AcDbLine
 10
206.5989095376081
 20
252.9792878068465
 30
0.0
 11
208.221603537608
 21
253.1756878068465
 31
0.0
  0
LINE
  5
4E1
330
18
100
AcDbEntity
  8
1
  6
Continuous
100
AcDbLine
 10
203.510052537608
 20
259.8763888068465
 30
0.0
 11
209.386946537608
 21
259.8763888068465
 31
0.0
  0
ARC
  5
4E2
330
18
100
AcDbEntity
  8
1
  6
Continuous
100
AcDbCircle
 10
204.712236537608
 20
266.8763888068466
 30
0.0
 40
3.0
100
AcDbArc
 50
90.0
 51
191.962051
  0
LINE
  5
4E3
330
18
100
AcDbEntity
  8
1
  6
Continuous
100
AcDbLine
 10
202.5100525376081
 20
272.8763888068466
 30
0.0
 11
202.5100525376081
 21
269.8763888068465
 31
0.0
  0
ARC
  5
4E4
330
18
100
AcDbEntity
  8
1
  6
Continuous
100
AcDbCircle
 10
192.9184015376081
 20
225.7434348068465
 30
0.0
 40
26.07591199999999
100
AcDbArc
 50
4.522369
 51
33.784796
  0
LINE
  5
4E5
330
18
100
AcDbEntity
  8
1
  6
Continuous
100
AcDbLine
 10
210.5100525376079
 20
232.6592928068465
 30
0.0
 11
217.510052537608
 21
228.6178408068466
 31
0.0
  0
ARC
  5
4E6
330
18
100
AcDbEntity
  8
5
  6
PHANTOM
100
AcDbCircle
 10
194.507518537608
 20
217.1772618068465
 30
0.0
 40
40.60288599999998
100
AcDbArc
 50
7.466955999999997
 51
25.614584
  0
LINE
  5
4E7
330
18
100
AcDbEntity
  8
5
  6
PHANTOM
100
AcDbLine
 10
255.840692537608
 20
229.8144368068466
 30
0.0
 11
246.6001685376081
 21
242.0247878068466
 31
0.0
  0
ARC
  5
4E8
330
18
100
AcDbEntity
  8
1
  6
Continuous
100
AcDbCircle
 10
215.1276755376081
 20
221.0179088068465
 30
0.0
 40
17.682344
100
AcDbArc
 50
15.73694399999999
 51
60.230999
  0
ARC
  5
4E9
330
18
100
AcDbEntity
  8
1
  6
Continuous
100
AcDbCircle
 10
200.131577537608
 20
271.9131428068465
 30
0.0
 40
63.95998999999999
100
AcDbArc
 50
317.122067
 51
345.1169299999999
  0
LINE
  5
4EA
330
18
100
AcDbEntity
  8
5
  6
PHANTOM
100
AcDbLine
 10
242.9448965376081
 20
217.3985798068466
 30
0.0
 11
238.1443005376081
 21
221.9176568068466
 31
0.0
  0
LINE
  5
4EB
330
18
100
AcDbEntity
  8
1
  6
Continuous
100
AcDbLine
 10
235.538452537608
 20
228.1111318068465
 30
0.0
 11
250.533947537608
 21
228.4789238068466
 31
0.0
  0
LINE
  5
4EC
330
18
100
AcDbEntity
  8
1
  6
Continuous
100
AcDbLine
 10
235.5948545376079
 20
225.8118218068466
 30
0.0
 11
250.5903415376081
 21
226.1796118068466
 31
0.0
  0
ARC
  5
4ED
330
18
100
AcDbEntity
  8
1
  6
Continuous
100
AcDbCircle
 10
234.552960537608
 20
216.9581478068466
 30
0.0
 40
16.95709
100
AcDbArc
 50
282.728226
 51
319.8150699999998
  0
LINE
  5
4EE
330
18
100
AcDbEntity
  8
1
  6
Continuous
100
AcDbLine
 10
252.814006537608
 20
207.4685138068466
 30
0.0
 11
235.547520537608
 21
202.7437288068465
 31
0.0
  0
ARC
  5
4EF
330
18
100
AcDbEntity
  8
1
  6
Continuous
100
AcDbCircle
 10
230.7454505376081
 20
233.8146888068465
 30
0.0
 40
34.23830000000001
100
AcDbArc
 50
239.152288
 51
282.728226
  0
LINE
  5
4F0
330
18
100
AcDbEntity
  8
1
  6
Continuous
100
AcDbLine
 10
235.547524537608
 20
202.7437288068465
 30
0.0
 11
233.497021537608
 21
209.0097658068466
 31
0.0
  0
ARC
  5
4F1
330
18
100
AcDbEntity
  8
1
  6
Continuous
100
AcDbCircle
 10
217.8323265376081
 20
-244.5372991931534
 30
0.0
 40
454.297729
100
AcDbArc
 50
88.972127
 51
90.00105399999998
  0
ARC
  5
4F2
330
18
100
AcDbEntity
  8
5
  6
PHANTOM
100
AcDbCircle
 10
441.5710575376079
 20
-183.7520091931533
 30
0.0
 40
454.297729
100
AcDbArc
 50
117.5821269999999
 51
118.611054
  0
LINE
  5
4F3
330
18
100
AcDbEntity
  8
1
  6
Continuous
100
AcDbLine
 10
217.510052537608
 20
220.5349368068465
 30
0.0
 11
210.5100525376079
 21
216.4934848068465
 31
0.0
  0
ARC
  5
4F4
330
18
100
AcDbEntity
  8
1
  6
Continuous
100
AcDbCircle
 10
192.9184015376081
 20
225.7434348068465
 30
0.0
 40
26.07591199999999
100
AcDbArc
 50
322.1401379999998
 51
347.8866489999999
  0
ARC
  5
4F5
330
18
100
AcDbEntity
  8
1
  6
Continuous
100
AcDbCircle
 10
213.997403537608
 20
219.1032668068465
 30
0.0
 40
9.244835999999999
100
AcDbArc
 50
267.559912
 51
282.274783
  0
ARC
  5
4F6
330
18
100
AcDbEntity
  8
1
  6
Continuous
100
AcDbCircle
 10
217.823880537608
 20
215.5127128068465
 30
0.0
 40
5.752303999999997
100
AcDbArc
 50
251.123677
 51
270.001049
  0
ARC
  5
4F7
330
18
100
AcDbEntity
  8
5
  6
PHANTOM
100
AcDbCircle
 10
221.270954537608
 20
220.1215838068465
 30
0.0
 40
5.752303999999997
100
AcDbArc
 50
279.733677
 51
298.6110489999998
  0
ARC
  5
4F8
330
18
100
AcDbEntity
  8
5
  6
PHANTOM
100
AcDbCircle
 10
216.1923735376081
 20
221.4414388068465
 30
0.0
 40
9.244835999999999
100
AcDbArc
 50
296.169912
 51
310.8847830000001
  0
LINE
  5
4F9
330
18
100
AcDbEntity
  8
1
  6
Continuous
100
AcDbLine
 10
217.510052537608
 20
220.5349368068465
 30
0.0
 11
217.510052537608
 21
228.6178408068466
 31
0.0
  0
ARC
  5
4FA
330
18
100
AcDbEntity
  8
5
  6
PHANTOM
100
AcDbCircle
 10
-354.0620264623918
 20
1339.310649806846
 30
0.0
 40
1264.059569999999
100
AcDbArc
 50
297.582129
 51
297.888286
  0
ARC
  5
4FB
330
18
100
AcDbEntity
  8
1
  6
Continuous
100
AcDbCircle
 10
192.9184015376081
 20
225.7434348068465
 30
0.0
 40
40.60288599999998
100
AcDbArc
 50
338.856956
 51
357.0045839999999
  0
ARC
  5
4FC
330
18
100
AcDbEntity
  8
1
  6
Continuous
100
AcDbCircle
 10
232.725384537608
 20
208.7801998068465
 30
0.0
 40
0.8040510000000001
100
AcDbArc
 50
21.87155999999999
 51
89.278284
  0
ARC
  5
4FD
330
18
100
AcDbEntity
  8
1
  6
Continuous
100
AcDbCircle
 10
248.657579537608
 20
1473.543510806844
 30
0.0
 40
1264.059569999999
100
AcDbArc
 50
268.972129
 51
269.2782859999999
  0
ARC
  5
4FE
330
18
100
AcDbEntity
  8
1
  6
Continuous
100
AcDbCircle
 10
233.678196537608
 20
226.2451358068465
 30
0.0
 40
1.590579999999999
100
AcDbArc
 50
195.736942
 51
276.505671
  0
ARC
  5
4FF
330
18
100
AcDbEntity
  8
5
  6
PHANTOM
100
AcDbCircle
 10
237.576807537608
 20
221.3466258068466
 30
0.0
 40
0.8040510000000001
100
AcDbArc
 50
50.48155999999999
 51
117.8882839999999
  0
LINE
  5
500
330
18
100
AcDbEntity
  8
1
  6
Continuous
100
AcDbLine
 10
234.419627537608
 20
225.0474418068465
 30
0.0
 11
235.194972537608
 21
225.8020168068465
 31
0.0
  0
LINE
  5
501
330
18
100
AcDbEntity
  8
1
  6
Continuous
100
AcDbLine
 10
235.5626255376081
 20
227.1257168068465
 30
0.0
 11
235.194972537608
 21
225.8020158068466
 31
0.0
  0
ARC
  5
502
330
18
100
AcDbEntity
  8
1
  6
Continuous
100
AcDbCircle
 10
233.0467735376081
 20
226.4580798068466
 30
0.0
 40
1.968402999999996
100
AcDbArc
 50
294.351405
 51
314.222197
  0
LINE
  5
503
330
18
100
AcDbEntity
  8
1
  6
Continuous
100
AcDbLine
 10
235.5384555376081
 20
228.1111318068465
 30
0.0
 11
235.594849537608
 21
225.8118248068464
 31
0.0
  0
LINE
  5
504
330
18
100
AcDbEntity
  8
1
  6
Continuous
100
AcDbLine
 10
252.8140085376079
 20
207.4685138068466
 30
0.0
 11
250.548624537608
 21
222.6127538068465
 31
0.0
  0
LINE
  5
505
330
18
100
AcDbEntity
  8
5
  6
PHANTOM
100
AcDbLine
 10
255.8406915376081
 20
229.8144358068466
 30
0.0
 11
242.944893537608
 21
217.3985778068465
 31
0.0
  0
LINE
  5
506
330
18
100
AcDbEntity
  8
1
  6
Continuous
100
AcDbLine
 10
250.548622537608
 20
222.6127518068465
 30
0.0
 11
250.590379537608
 21
226.1796148068465
 31
0.0
  0
LINE
  5
507
330
18
100
AcDbEntity
  8
1
  6
Continuous
100
AcDbLine
 10
250.533945537608
 20
228.4789258068463
 30
0.0
 11
250.590339537608
 21
226.1796178068466
 31
0.0
  0
LINE
  5
508
330
18
100
AcDbEntity
  8
5
  6
PHANTOM
100
AcDbLine
 10
230.7898755376081
 20
239.6642638068466
 30
0.0
 11
243.7782965376081
 21
247.1676668068465
 31
0.0
  0
LINE
  5
509
330
18
100
AcDbEntity
  8
5
  6
PHANTOM
100
AcDbLine
 10
231.9404045376079
 20
237.6727088068466
 30
0.0
 11
244.928819537608
 21
245.1761068068464
 31
0.0
  0
LINE
  5
50A
330
18
100
AcDbEntity
  8
1
  6
Continuous
100
AcDbLine
 10
213.6743595376081
 20
252.1646248068464
 30
0.0
 11
213.0284575376081
 21
244.7201758068465
 31
0.0
  0
ARC
  5
50B
330
18
100
AcDbEntity
  8
1
  6
Continuous
100
AcDbCircle
 10
204.373543537608
 20
251.1913668068465
 30
0.0
 40
10.0
100
AcDbArc
 50
331.7038469999999
 51
14.03624299999999
  0
LINE
  5
50C
330
18
100
AcDbEntity
  8
1
  6
Continuous
100
AcDbLine
 10
214.841401537608
 20
254.3950938068466
 30
0.0
 11
219.217369537608
 21
238.1535878068465
 31
0.0
  0
ARC
  5
50D
330
18
100
AcDbEntity
  8
5
  6
PHANTOM
100
AcDbCircle
 10
216.2678215376081
 20
223.6635268068465
 30
0.0
 40
17.682344
100
AcDbArc
 50
44.346944
 51
88.84099899999998
  0
ARC
  5
50E
330
18
100
AcDbEntity
  8
1
  6
Continuous
100
AcDbCircle
 10
218.3762485376081
 20
243.9856938068464
 30
0.0
 40
5.322773999999999
100
AcDbArc
 50
203.5626719999999
 51
224.670935
  0
ARC
  5
50F
330
18
100
AcDbEntity
  8
5
  6
PHANTOM
100
AcDbCircle
 10
216.2978525376079
 20
225.1476998068465
 30
0.0
 40
16.19786799999999
100
AcDbArc
 50
88.84099899999998
 51
109.7181479999999
  0
ARC
  5
510
330
18
100
AcDbEntity
  8
1
  6
Continuous
100
AcDbCircle
 10
219.4174855376079
 20
245.0150328068466
 30
0.0
 40
6.786914999999997
100
AcDbArc
 50
224.670935
 51
261.10815
  0
ARC
  5
511
330
18
100
AcDbEntity
  8
1
  6
Continuous
100
AcDbCircle
 10
215.864728537608
 20
222.3064828068465
 30
0.0
 40
16.19786799999999
100
AcDbArc
 50
60.230999
 51
81.10814799999998
  0
ARC
  5
512
330
18
100
AcDbEntity
  8
1
  6
Continuous
100
AcDbCircle
 10
218.893567537608
 20
244.2113028068465
 30
0.0
 40
5.887144
100
AcDbArc
 50
175.0412599999999
 51
203.562682
  0
ARC
  5
513
330
18
100
AcDbEntity
  8
1
  6
Continuous
100
AcDbCircle
 10
210.5100525376079
 20
224.5763888068466
 30
0.0
 40
26.5
100
AcDbArc
 50
81.634074
 51
83.38100199999997
  0
LINE
  5
514
330
18
100
AcDbEntity
  8
5
  6
PHANTOM
100
AcDbLine
 10
230.789878537608
 20
239.6642658068466
 30
0.0
 11
231.940399537608
 21
237.6727088068466
 31
0.0
  0
ARC
  5
515
330
18
100
AcDbEntity
  8
5
  6
PHANTOM
100
AcDbCircle
 10
229.393987537608
 20
237.0199218068465
 30
0.0
 40
1.968402999999996
100
AcDbArc
 50
322.9614049999999
 51
342.832197
  0
LINE
  5
516
330
18
100
AcDbEntity
  8
5
  6
PHANTOM
100
AcDbLine
 10
231.282958537608
 20
238.8107438068466
 30
0.0
 11
231.594043537608
 21
237.4726188068466
 31
0.0
  0
LINE
  5
517
330
18
100
AcDbEntity
  8
5
  6
PHANTOM
100
AcDbLine
 10
231.274692537608
 20
236.4389088068465
 30
0.0
 11
231.594043537608
 21
237.4726198068465
 31
0.0
  0
ARC
  5
518
330
18
100
AcDbEntity
  8
5
  6
PHANTOM
100
AcDbCircle
 10
230.050281537608
 20
237.1353328068466
 30
0.0
 40
1.590579999999999
100
AcDbArc
 50
224.3469419999998
 51
305.115671
  0
LINE
  5
519
330
18
100
AcDbEntity
  8
1
  6
Continuous
100
AcDbLine
 10
212.2861325376081
 20
252.6938018068466
 30
0.0
 11
213.674358537608
 21
252.1646248068464
 31
0.0
  0
LINE
  5
51A
330
18
100
AcDbEntity
  8
1
  6
Continuous
100
AcDbLine
 10
213.2675165376079
 20
256.8465308068466
 30
0.0
 11
214.074968537608
 21
253.6167228068466
 31
0.0
  0
LINE
  5
51B
330
18
100
AcDbEntity
  8
5
  6
PHANTOM
100
AcDbLine
 10
243.7782945376081
 20
247.1676678068465
 30
0.0
 11
244.928815537608
 21
245.1761108068466
 31
0.0
  0
LINE
  5
51C
330
18
100
AcDbEntity
  8
5
  6
PHANTOM
100
AcDbLine
 10
246.6001675376079
 20
242.0247848068465
 30
0.0
 11
244.9288515376081
 21
245.1761278068465
 31
0.0
  0
LINE
  5
51D
330
18
100
AcDbEntity
  8
1
  6
Continuous
100
AcDbLine
 10
263.859887537608
 20
267.5529438068465
 30
0.0
 11
263.6551645376081
 21
259.1763888068464
 31
0.0
  0
LINE
  5
51E
330
18
100
AcDbEntity
  8
1
  6
Continuous
100
AcDbLine
 10
263.6551645376081
 20
259.1763888068464
 30
0.0
 11
261.945839537608
 21
255.4851958068466
 31
0.0
  0
ARC
  5
51F
330
18
100
AcDbEntity
  8
1
  6
Continuous
100
AcDbCircle
 10
261.104118537608
 20
267.0804938068465
 30
0.0
 40
2.795974
100
AcDbArc
 50
9.728229999999999
 51
89.56858699999996
  0
LINE
  5
520
330
18
100
AcDbEntity
  8
1
  6
Continuous
100
AcDbLine
 10
262.510052537608
 20
272.8763888068466
 30
0.0
 11
262.510052537608
 21
269.8763888068465
 31
0.0
  0
LINE
  5
521
330
18
100
AcDbEntity
  8
1
  6
Continuous
100
AcDbLine
 10
347.3100575376079
 20
226.1796148068465
 30
0.0
 11
331.7600425376081
 21
226.1796148068465
 31
0.0
  0
LINE
  5
522
330
18
100
AcDbEntity
  8
1
  6
Continuous
100
AcDbLine
 10
347.6100565376079
 20
228.4789238068466
 30
0.0
 11
331.7600425376081
 21
228.4789238068466
 31
0.0
  0
LINE
  5
523
330
18
100
AcDbEntity
  8
1
  6
Continuous
100
AcDbLine
 10
331.7600425376081
 20
226.1796148068465
 30
0.0
 11
331.7600425376081
 21
228.4789238068466
 31
0.0
  0
LINE
  5
524
330
18
100
AcDbEntity
  8
1
  6
Continuous
100
AcDbLine
 10
349.1600435376079
 20
231.5763888068465
 30
0.0
 11
349.1600435376079
 21
229.6830148068465
 31
0.0
  0
ARC
  5
525
330
18
100
AcDbEntity
  8
1
  6
Continuous
100
AcDbCircle
 10
352.7381955376081
 20
230.6385668068466
 30
0.0
 40
3.578151999999998
100
AcDbArc
 50
154.3842469999999
 51
191.764387
  0
ARC
  5
526
330
18
100
AcDbEntity
  8
1
  6
Continuous
100
AcDbCircle
 10
368.175373537608
 20
223.4848518068465
 30
0.0
 40
17.700001
100
AcDbArc
 50
152.9608419999999
 51
173.0312419999999
  0
LINE
  5
527
330
18
100
AcDbEntity
  8
1
  6
Continuous
100
AcDbLine
 10
356.7600995376078
 20
231.3592938068465
 30
0.0
 11
356.7600995376078
 21
227.8685188068465
 31
0.0
  0
LINE
  5
528
330
18
100
AcDbEntity
  8
1
  6
Continuous
100
AcDbLine
 10
361.7600995376079
 20
239.7788798068465
 30
0.0
 11
361.7600995376079
 21
228.4685168068465
 31
0.0
  0
LINE
  5
529
330
18
100
AcDbEntity
  8
1
  6
Continuous
100
AcDbLine
 10
359.7600995376079
 20
236.5501528068465
 30
0.0
 11
359.7600995376079
 21
228.4685168068465
 31
0.0
  0
ARC
  5
52A
330
18
100
AcDbEntity
  8
1
  6
Continuous
100
AcDbCircle
 10
368.175373537608
 20
223.4848518068465
 30
0.0
 40
20.0
100
AcDbArc
 50
142.023763
 51
166.207269
  0
LINE
  5
52B
330
18
100
AcDbEntity
  8
1
  6
Continuous
100
AcDbLine
 10
364.7600525376079
 20
244.3256028068464
 30
0.0
 11
364.7600525376079
 21
194.3493038068465
 31
0.0
  0
LINE
  5
52C
330
18
100
AcDbEntity
  8
1
  6
Continuous
100
AcDbLine
 10
363.8600525376079
 20
206.0763888068465
 30
0.0
 11
363.8600525376079
 21
242.9962658068466
 31
0.0
  0
LINE
  5
52D
330
18
100
AcDbEntity
  8
1
  6
Continuous
100
AcDbLine
 10
363.3600525376079
 20
209.5763888068463
 30
0.0
 11
363.3600525376079
 21
239.5763888068465
 31
0.0
  0
LINE
  5
52E
330
18
100
AcDbEntity
  8
1
  6
Continuous
100
AcDbLine
 10
362.9600525376079
 20
209.0763588068464
 30
0.0
 11
362.9600525376079
 21
241.6377948068466
 31
0.0
  0
ARC
  5
52F
330
18
100
AcDbEntity
  8
1
  6
Continuous
100
AcDbCircle
 10
367.6123935376081
 20
225.5648728068466
 30
0.0
 40
15.202341
100
AcDbArc
 50
150.0914129999999
 51
228.1016359999999
  0
ARC
  5
530
330
18
100
AcDbEntity
  8
1
  6
Continuous
100
AcDbCircle
 10
367.6123935376081
 20
225.5648728068466
 30
0.0
 40
12.302341
100
AcDbArc
 50
151.377835
 51
214.3879
  0
LINE
  5
531
330
18
100
AcDbEntity
  8
1
  6
Continuous
100
AcDbLine
 10
352.4100525376079
 20
266.8763888068466
 30
0.0
 11
352.4100525376079
 21
225.5648728068466
 31
0.0
  0
ARC
  5
532
330
18
100
AcDbEntity
  8
1
  6
Continuous
100
AcDbCircle
 10
366.2600525376078
 20
194.3493038068465
 30
0.0
 40
1.5
100
AcDbArc
 50
180.0
 51
264.9421679999999
  0
ARC
  5
533
330
18
100
AcDbEntity
  8
1
  6
Continuous
100
AcDbCircle
 10
356.760097537608
 20
210.4685168068465
 30
0.0
 40
3.0
100
AcDbArc
 50
269.999991
 51
0.000001
  0
ARC
  5
534
330
18
100
AcDbEntity
  8
1
  6
Continuous
100
AcDbCircle
 10
351.3100575376079
 20
210.4685168068465
 30
0.0
 40
3.0
100
AcDbArc
 50
180.0000029999999
 51
269.999991
  0
LINE
  5
535
330
18
100
AcDbEntity
  8
1
  6
Continuous
100
AcDbLine
 10
359.7600975376078
 20
199.5763888068465
 30
0.0
 11
359.7600975376078
 21
227.4050098068466
 31
0.0
  0
ARC
  5
536
330
18
100
AcDbEntity
  8
1
  6
Continuous
100
AcDbCircle
 10
183.8650975376081
 20
168.7354558068465
 30
0.0
 40
182.018036
100
AcDbArc
 50
9.722832999999996
 51
14.561579
  0
ARC
  5
537
330
18
100
AcDbEntity
  8
1
  6
Continuous
100
AcDbCircle
 10
183.8650975376081
 20
168.7354558068465
 30
0.0
 40
182.618036
100
AcDbArc
 50
9.722832999999996
 51
14.561579
  0
LINE
  5
538
330
18
100
AcDbEntity
  8
1
  6
Continuous
100
AcDbLine
 10
348.3100575376081
 20
205.7437318068465
 30
0.0
 11
348.3100575376081
 21
225.1796148068466
 31
0.0
  0
ARC
  5
539
330
18
100
AcDbEntity
  8
1
  6
Continuous
100
AcDbCircle
 10
351.3100575376079
 20
205.7437318068465
 30
0.0
 40
3.0
100
AcDbArc
 50
180.0000029999999
 51
269.999991
  0
ARC
  5
53A
330
18
100
AcDbEntity
  8
1
  6
Continuous
100
AcDbCircle
 10
356.760097537608
 20
205.7437318068465
 30
0.0
 40
3.0
100
AcDbArc
 50
269.999991
 51
0.000001
  0
LINE
  5
53B
330
18
100
AcDbEntity
  8
1
  6
Continuous
100
AcDbLine
 10
356.760097537608
 20
202.7437318068465
 30
0.0
 11
351.3100575376079
 21
202.7437318068465
 31
0.0
  0
LINE
  5
53C
330
18
100
AcDbEntity
  8
1
  6
Continuous
100
AcDbLine
 10
356.760097537608
 20
207.4685168068465
 30
0.0
 11
351.3100575376079
 21
207.4685168068465
 31
0.0
  0
LINE
  5
53D
330
18
100
AcDbEntity
  8
1
  6
Continuous
100
AcDbLine
 10
363.8600525376079
 20
199.5763888068465
 30
0.0
 11
359.7600975376078
 21
199.5763888068465
 31
0.0
  0
LINE
  5
53E
330
18
100
AcDbEntity
  8
1
  6
Continuous
100
AcDbLine
 10
363.8600525376079
 20
206.0763888068465
 30
0.0
 11
364.7600525376079
 21
206.0763888068465
 31
0.0
  0
ARC
  5
53F
330
18
100
AcDbEntity
  8
1
  6
Continuous
100
AcDbCircle
 10
347.6100565376079
 20
225.4789238068466
 30
0.0
 40
3.0
100
AcDbArc
 50
359.999997
 51
90.00000300000001
  0
LINE
  5
540
330
18
100
AcDbEntity
  8
1
  6
Continuous
100
AcDbLine
 10
347.3600435376079
 20
226.1783648068465
 30
0.0
 11
347.3600435376079
 21
221.0763888068465
 31
0.0
  0
ARC
  5
541
330
18
100
AcDbEntity
  8
1
  6
Continuous
100
AcDbCircle
 10
347.2100455376079
 20
225.1796148068466
 30
0.0
 40
1.0
100
AcDbArc
 50
81.37322299999999
 51
89.99999499999999
  0
ARC
  5
542
330
18
100
AcDbEntity
  8
1
  6
Continuous
100
AcDbCircle
 10
347.510049537608
 20
225.4789238068466
 30
0.0
 40
3.0
100
AcDbArc
 50
85.35978
 51
89.99999499999999
  0
LINE
  5
543
330
18
100
AcDbEntity
  8
1
  6
Continuous
100
AcDbLine
 10
348.8600435376079
 20
229.5763888068465
 30
0.0
 11
348.8600435376079
 21
228.6731098068466
 31
0.0
  0
LINE
  5
544
330
18
100
AcDbEntity
  8
1
  6
Continuous
100
AcDbLine
 10
349.1600435376079
 20
229.5763888068465
 30
0.0
 11
348.8600435376079
 21
229.5763888068465
 31
0.0
  0
LINE
  5
545
330
18
100
AcDbEntity
  8
1
  6
Continuous
100
AcDbLine
 10
347.3600435376079
 20
221.0763888068465
 30
0.0
 11
348.3100575376081
 21
220.1263758068465
 31
0.0
  0
LINE
  5
546
330
18
100
AcDbEntity
  8
1
  6
Continuous
100
AcDbLine
 10
347.7588835376078
 20
228.4752298068466
 30
0.0
 11
348.8600435376079
 21
229.5763888068465
 31
0.0
  0
LINE
  5
547
330
18
100
AcDbEntity
  8
2
  6
Continuous
100
AcDbLine
 10
348.3100575376081
 20
220.2528888068465
 30
0.0
 11
348.1835435376079
 21
220.2528888068465
 31
0.0
  0
LINE
  5
548
330
18
100
AcDbEntity
  8
2
  6
Continuous
100
AcDbLine
 10
348.9223905376081
 20
228.8998888068466
 30
0.0
 11
348.1835435376079
 21
228.8998888068466
 31
0.0
  0
ARC
  5
549
330
18
100
AcDbEntity
  8
1
  6
Continuous
100
AcDbCircle
 10
347.3100575376079
 20
225.1796148068466
 30
0.0
 40
1.0
100
AcDbArc
 50
359.999997
 51
90.00000300000001
  0
LINE
  5
54A
330
18
100
AcDbEntity
  8
1
  6
Continuous
100
AcDbLine
 10
360.3600985376081
 20
216.6607138068465
 30
0.0
 11
360.3600985376081
 21
227.4050098068466
 31
0.0
  0
LINE
  5
54B
330
18
100
AcDbEntity
  8
1
  6
Continuous
100
AcDbLine
 10
359.7600975376078
 20
216.6607158068466
 30
0.0
 11
359.7600975376078
 21
222.3840668068465
 31
0.0
  0
LINE
  5
54C
330
18
100
AcDbEntity
  8
1
  6
Continuous
100
AcDbLine
 10
350.6100565376081
 20
210.7685198068466
 30
0.0
 11
350.6100565376081
 21
225.4789238068466
 31
0.0
  0
LINE
  5
54D
330
18
100
AcDbEntity
  8
1
  6
Continuous
100
AcDbLine
 10
357.4600985376081
 20
210.7685198068466
 30
0.0
 11
357.4600985376081
 21
222.9752918068466
 31
0.0
  0
ARC
  5
54E
330
18
100
AcDbEntity
  8
1
  6
Continuous
100
AcDbCircle
 10
356.4600985376082
 20
210.7685198068466
 30
0.0
 40
1.0
100
AcDbArc
 50
269.999991
 51
0.000001
  0
LINE
  5
54F
330
18
100
AcDbEntity
  8
1
  6
Continuous
100
AcDbLine
 10
356.4600985376082
 20
209.7685198068466
 30
0.0
 11
351.6100565376079
 21
209.7685198068466
 31
0.0
  0
ARC
  5
550
330
18
100
AcDbEntity
  8
1
  6
Continuous
100
AcDbCircle
 10
351.6100565376079
 20
210.7685198068466
 30
0.0
 40
1.0
100
AcDbArc
 50
180.0000029999999
 51
269.999991
  0
ARC
  5
551
330
18
100
AcDbEntity
  8
1
  6
Continuous
100
AcDbCircle
 10
367.6123935376081
 20
225.5648728068466
 30
0.0
 40
12.302341
100
AcDbArc
 50
234.3046629999999
 51
238.7061469999999
  0
ARC
  5
552
330
18
100
AcDbEntity
  8
1
  6
Continuous
100
AcDbCircle
 10
368.360097537608
 20
216.6607158068466
 30
0.0
 40
8.599999999999997
100
AcDbArc
 50
180.0
 51
194.5615789999999
  0
ARC
  5
553
330
18
100
AcDbEntity
  8
1
  6
Continuous
100
AcDbCircle
 10
368.3600985376081
 20
216.6607138068465
 30
0.0
 40
8.0
100
AcDbArc
 50
180.0
 51
194.5615789999999
  0
LINE
  5
554
330
18
100
AcDbEntity
  8
1
  6
Continuous
100
AcDbLine
 10
363.3600525376079
 20
209.5763888068463
 30
0.0
 11
363.8600525376079
 21
209.5763888068463
 31
0.0
  0
LINE
  5
555
330
18
100
AcDbEntity
  8
1
  6
Continuous
100
AcDbLine
 10
363.3600525376079
 20
216.5763888068465
 30
0.0
 11
362.9600525376079
 21
216.5763888068465
 31
0.0
  0
ARC
  5
556
330
18
100
AcDbEntity
  8
1
  6
Continuous
100
AcDbCircle
 10
359.7600525376078
 20
212.1983728068466
 30
0.0
 40
3.2
100
AcDbArc
 50
0.0
 51
59.56728599999999
  0
LINE
  5
557
330
18
100
AcDbEntity
  8
1
  6
Continuous
100
AcDbLine
 10
362.9600525376079
 20
209.0763588068464
 30
0.0
 11
361.9716915376078
 21
209.0763588068464
 31
0.0
  0
LINE
  5
558
330
18
100
AcDbEntity
  8
1
  6
Continuous
100
AcDbLine
 10
355.7884755376079
 20
226.6092488068466
 30
0.0
 11
357.4600985376081
 21
222.9752838068465
 31
0.0
  0
LINE
  5
559
330
18
100
AcDbEntity
  8
1
  6
Continuous
100
AcDbLine
 10
357.878002537608
 20
227.5704308068466
 30
0.0
 11
355.7884755376079
 21
226.6092488068466
 31
0.0
  0
LINE
  5
55A
330
18
100
AcDbEntity
  8
1
  6
Continuous
100
AcDbLine
 10
356.7600995376078
 20
227.8685188068465
 30
0.0
 11
359.5242655376081
 21
227.8685188068465
 31
0.0
  0
LINE
  5
55B
330
18
100
AcDbEntity
  8
1
  6
Continuous
100
AcDbLine
 10
356.7600995376078
 20
228.4685168068465
 30
0.0
 11
361.7600995376079
 21
228.4685168068465
 31
0.0
  0
LINE
  5
55C
330
18
100
AcDbEntity
  8
1
  6
Continuous
100
AcDbLine
 10
359.5600555376079
 20
223.9137988068466
 30
0.0
 11
359.5600555376079
 21
227.8685188068465
 31
0.0
  0
LINE
  5
55D
330
18
100
AcDbEntity
  8
1
  6
Continuous
100
AcDbLine
 10
357.878002537608
 20
227.5704308068466
 30
0.0
 11
359.3025495376081
 21
224.4735908068466
 31
0.0
  0
ARC
  5
55E
330
18
100
AcDbEntity
  8
1
  6
Continuous
100
AcDbCircle
 10
354.760097537608
 20
222.3840668068465
 30
0.0
 40
5.0
100
AcDbArc
 50
359.999997
 51
24.702428
  0
ARC
  5
55F
330
18
100
AcDbEntity
  8
1
  6
Continuous
100
AcDbCircle
 10
359.2965915376079
 20
227.4050098068466
 30
0.0
 40
0.463507
100
AcDbArc
 50
356.325643
 51
90.00000300000001
  0
ARC
  5
560
330
18
100
AcDbEntity
  8
1
  6
Continuous
100
AcDbCircle
 10
359.2965915376079
 20
227.4050098068466
 30
0.0
 40
1.063506999999997
100
AcDbArc
 50
356.325643
 51
90.00000300000001
  0
ARC
  5
561
330
18
100
AcDbEntity
  8
1
  6
Continuous
100
AcDbCircle
 10
497.9335675376082
 20
153.1939108068466
 30
0.0
 40
161.36967
100
AcDbArc
 50
141.7962649999997
 51
150.9882619999999
  0
ARC
  5
562
330
18
100
AcDbEntity
  8
1
  6
Continuous
100
AcDbCircle
 10
439.7034055376081
 20
183.3286298068466
 30
0.0
 40
98.75439700000001
100
AcDbArc
 50
134.6099759999999
 51
149.7053239999999
  0
LINE
  5
563
330
18
100
AcDbEntity
  8
1
  6
Continuous
100
AcDbLine
 10
349.7852585376081
 20
232.6592928068465
 30
0.0
 11
349.1600435376079
 21
231.5763888068465
 31
0.0
  0
LINE
  5
564
330
18
100
AcDbEntity
  8
1
  6
Continuous
100
AcDbLine
 10
351.4420835376079
 20
234.4391668068465
 30
0.0
 11
342.5600495376079
 21
234.4391668068465
 31
0.0
  0
LINE
  5
565
330
18
100
AcDbEntity
  8
1
  6
Continuous
100
AcDbLine
 10
352.4100525376079
 20
236.7384758068465
 30
0.0
 11
342.5600495376079
 21
236.7384758068465
 31
0.0
  0
LINE
  5
566
330
18
100
AcDbEntity
  8
1
  6
Continuous
100
AcDbLine
 10
342.5600495376079
 20
234.4391668068465
 30
0.0
 11
342.5600495376079
 21
236.7384758068465
 31
0.0
  0
LINE
  5
567
330
18
100
AcDbEntity
  8
1
  6
Continuous
100
AcDbLine
 10
350.403777537608
 20
232.6592928068465
 30
0.0
 11
349.7852585376081
 21
232.6592928068465
 31
0.0
  0
LINE
  5
569
330
18
100
AcDbEntity
  8
1
  6
Continuous
100
AcDbLine
 10
363.3600525376079
 20
232.5763888068466
 30
0.0
 11
362.9600525376079
 21
232.5763888068466
 31
0.0
  0
LINE
  5
56A
330
18
100
AcDbEntity
  8
1
  6
Continuous
100
AcDbLine
 10
363.3600525376079
 20
239.5763888068465
 30
0.0
 11
363.8600525376079
 21
239.5763888068465
 31
0.0
  0
LINE
  5
56B
330
18
100
AcDbEntity
  8
1
  6
Continuous
100
AcDbLine
 10
363.9137545376081
 20
243.0763888068466
 30
0.0
 11
364.7600525376079
 21
243.0763888068466
 31
0.0
  0
ARC
  5
56C
330
18
100
AcDbEntity
  8
1
  6
Continuous
100
AcDbCircle
 10
355.6100525376081
 20
266.8763888068466
 30
0.0
 40
3.0
100
AcDbArc
 50
90.0
 51
180.0
  0
LINE
  5
56D
330
18
100
AcDbEntity
  8
1
  6
Continuous
100
AcDbLine
 10
353.7600525376078
 20
272.8763888068466
 30
0.0
 11
353.7600525376078
 21
269.8763888068465
 31
0.0
  0
ARC
  5
56E
330
18
100
AcDbEntity
  8
1
  6
Continuous
100
AcDbCircle
 10
383.7600525376079
 20
57.0763888068466
 30
0.0
 40
200.0
100
AcDbArc
 50
87.64652199999996
 51
92.35347799999999
  0
ARC
  5
56F
330
18
100
AcDbEntity
  8
1
  6
Continuous
100
AcDbCircle
 10
383.7600525376079
 20
57.0763888068466
 30
0.0
 40
200.0
100
AcDbArc
 50
87.64652199999996
 51
92.35347799999999
  0
LINE
  5
570
330
18
100
AcDbEntity
  8
1
  6
Continuous
100
AcDbLine
 10
116.2649345376081
 20
284.0763588068464
 30
0.0
 11
26.2649345376081
 21
284.0763588068464
 31
0.0
  0
LINE
  5
571
330
18
100
AcDbEntity
  8
1
  6
Continuous
100
AcDbLine
 10
116.2649345376081
 20
280.8763588068464
 30
0.0
 11
26.2649345376081
 21
280.8763588068464
 31
0.0
  0
LINE
  5
572
330
18
100
AcDbEntity
  8
1
  6
Continuous
100
AcDbLine
 10
38.23707053760811
 20
275.8763588068465
 30
0.0
 11
104.2927985376081
 21
275.8763588068465
 31
0.0
  0
LINE
  5
573
330
18
100
AcDbEntity
  8
1
  6
Continuous
100
AcDbLine
 10
26.2649345376081
 20
284.0763588068464
 30
0.0
 11
26.2649345376081
 21
280.8763588068464
 31
0.0
  0
LINE
  5
574
330
18
100
AcDbEntity
  8
1
  6
Continuous
100
AcDbLine
 10
33.26493453760811
 20
280.8763588068464
 30
0.0
 11
34.65936153760811
 21
278.0875048068464
 31
0.0
  0
ARC
  5
575
330
18
100
AcDbEntity
  8
1
  6
Continuous
100
AcDbCircle
 10
38.23707053760811
 20
279.8763588068465
 30
0.0
 40
4.0
100
AcDbArc
 50
206.565051
 51
270.0
  0
LINE
  5
576
330
18
100
AcDbEntity
  8
1
  6
Continuous
100
AcDbLine
 10
116.2649345376081
 20
284.0763588068464
 30
0.0
 11
116.2649345376081
 21
280.8763588068464
 31
0.0
  0
LINE
  5
577
330
18
100
AcDbEntity
  8
1
  6
Continuous
100
AcDbLine
 10
109.2649345376081
 20
280.8763588068464
 30
0.0
 11
107.8705075376081
 21
278.0875048068464
 31
0.0
  0
ARC
  5
578
330
18
100
AcDbEntity
  8
1
  6
Continuous
100
AcDbCircle
 10
104.2927985376081
 20
279.8763588068465
 30
0.0
 40
4.0
100
AcDbArc
 50
270.0
 51
333.434949
  0
LINE
  5
579
330
18
100
AcDbEntity
  8
1
  6
Continuous
100
AcDbLine
 10
187.5100525376081
 20
284.0763888068465
 30
0.0
 11
277.510052537608
 21
284.0763888068465
 31
0.0
  0
LINE
  5
57A
330
18
100
AcDbEntity
  8
1
  6
Continuous
100
AcDbLine
 10
187.5100525376081
 20
280.8763888068465
 30
0.0
 11
277.510052537608
 21
280.8763888068465
 31
0.0
  0
CIRCLE
  5
57B
330
18
100
AcDbEntity
  8
1
  6
Continuous
100
AcDbCircle
 10
268.010052537608
 20
425.6818788068463
 30
0.0
 40
5.25
  0
LINE
  5
57C
330
18
100
AcDbEntity
  8
4
  6
CENTER
100
AcDbLine
 10
276.260052537608
 20
425.6818788068463
 30
0.0
 11
259.760052537608
 21
425.6818788068463
 31
0.0
  0
ARC
  5
57D
330
18
100
AcDbEntity
  8
1
  6
Continuous
100
AcDbCircle
 10
267.510052537608
 20
355.1818788068465
 30
0.0
 40
10.0
100
AcDbArc
 50
270.0
 51
0.0
  0
CIRCLE
  5
57E
330
18
100
AcDbEntity
  8
1
  6
Continuous
100
AcDbCircle
 10
268.010052537608
 20
354.6818788068464
 30
0.0
 40
5.25
  0
LINE
  5
57F
330
18
100
AcDbEntity
  8
4
  6
CENTER
100
AcDbLine
 10
276.260052537608
 20
354.6818788068464
 30
0.0
 11
259.760052537608
 21
354.6818788068464
 31
0.0
  0
LINE
  5
580
330
18
100
AcDbEntity
  8
4
  6
CENTER
100
AcDbLine
 10
285.5100525376079
 20
390.1818788068465
 30
0.0
 11
170.0105395376081
 21
390.1818788068465
 31
0.0
  0
ARC
  5
581
330
18
100
AcDbEntity
  8
1
  6
Continuous
100
AcDbCircle
 10
267.510052537608
 20
425.1818788068463
 30
0.0
 40
10.0
100
AcDbArc
 50
0.0
 51
90.0
  0
LINE
  5
583
330
18
100
AcDbEntity
  8
1
  6
Continuous
100
AcDbLine
 10
178.3211785376081
 20
365.9818858068464
 30
0.0
 11
178.3211785376081
 21
356.4796278068464
 31
0.0
  0
LINE
  5
584
330
18
100
AcDbEntity
  8
4
  6
CENTER
100
AcDbLine
 10
210.5100525376079
 20
443.1818788068464
 30
0.0
 11
210.5100525376079
 21
337.1818788068464
 31
0.0
  0
LINE
  5
585
330
18
100
AcDbEntity
  8
4
  6
CENTER
100
AcDbLine
 10
268.010052537608
 20
346.4318788068464
 30
0.0
 11
268.010052537608
 21
362.9318788068464
 31
0.0
  0
LINE
  5
586
330
18
100
AcDbEntity
  8
4
  6
CENTER
100
AcDbLine
 10
197.0100525376081
 20
346.4318788068464
 30
0.0
 11
197.0100525376081
 21
362.9318788068464
 31
0.0
  0
CIRCLE
  5
587
330
18
100
AcDbEntity
  8
1
  6
Continuous
100
AcDbCircle
 10
197.0100525376081
 20
354.6818788068464
 30
0.0
 40
5.25
  0
LINE
  5
588
330
18
100
AcDbEntity
  8
1
  6
Continuous
100
AcDbLine
 10
187.5100525376081
 20
355.1818788068465
 30
0.0
 11
187.5100525376081
 21
425.1818788068463
 31
0.0
  0
CIRCLE
  5
589
330
18
100
AcDbEntity
  8
1
  6
Continuous
100
AcDbCircle
 10
232.510052537608
 20
390.1818788068465
 30
0.0
 40
33.5
  0
LINE
  5
58A
330
18
100
AcDbEntity
  8
4
  6
CENTER
100
AcDbLine
 10
232.510052537608
 20
443.1818788068464
 30
0.0
 11
232.510052537608
 21
337.1818788068464
 31
0.0
  0
LINE
  5
58B
330
18
100
AcDbEntity
  8
1
  6
Continuous
100
AcDbLine
 10
265.537916537608
 20
275.8763888068465
 30
0.0
 11
199.4821885376081
 21
275.8763888068465
 31
0.0
  0
LINE
  5
58C
330
18
100
AcDbEntity
  8
1
  6
Continuous
100
AcDbLine
 10
267.510052537608
 20
345.1818788068464
 30
0.0
 11
197.5100525376081
 21
345.1818788068464
 31
0.0
  0
LINE
  5
58D
330
18
100
AcDbEntity
  8
1
  6
Continuous
100
AcDbLine
 10
194.5100525376079
 20
280.8763888068465
 30
0.0
 11
195.9044795376081
 21
278.0875348068466
 31
0.0
  0
LINE
  5
58E
330
18
100
AcDbEntity
  8
1
  6
Continuous
100
AcDbLine
 10
187.5100525376081
 20
284.0763888068465
 30
0.0
 11
187.5100525376081
 21
280.8763888068465
 31
0.0
  0
ARC
  5
58F
330
18
100
AcDbEntity
  8
1
  6
Continuous
100
AcDbCircle
 10
199.4821885376081
 20
279.8763888068465
 30
0.0
 40
4.0
100
AcDbArc
 50
206.565051
 51
270.0
  0
ARC
  5
590
330
18
100
AcDbEntity
  8
1
  6
Continuous
100
AcDbCircle
 10
185.8189275376079
 20
356.4796278068464
 30
0.0
 40
7.497746
100
AcDbArc
 50
179.9999909999999
 51
296.092003
  0
ARC
  5
591
330
18
100
AcDbEntity
  8
1
  6
Continuous
100
AcDbCircle
 10
197.5100525376081
 20
355.1818788068465
 30
0.0
 40
10.0
100
AcDbArc
 50
180.0
 51
270.0
  0
LINE
  5
592
330
18
100
AcDbEntity
  8
4
  6
CENTER
100
AcDbLine
 10
205.260052537608
 20
354.6818788068464
 30
0.0
 11
188.7600525376081
 21
354.6818788068464
 31
0.0
  0
LINE
  5
594
330
18
100
AcDbEntity
  8
1
  6
Continuous
100
AcDbLine
 10
270.510052537608
 20
280.8763888068465
 30
0.0
 11
269.1156255376081
 21
278.0875348068466
 31
0.0
  0
ARC
  5
595
330
18
100
AcDbEntity
  8
1
  6
Continuous
100
AcDbCircle
 10
265.537916537608
 20
279.8763888068465
 30
0.0
 40
4.0
100
AcDbArc
 50
270.0
 51
333.434949
  0
ARC
  5
596
330
18
100
AcDbEntity
  8
1
  6
Continuous
100
AcDbCircle
 10
242.892660537608
 20
345.8795608068464
 30
0.0
 40
7.697684999999999
100
AcDbArc
 50
185.2001519999998
 51
354.799848
  0
LINE
  5
597
330
18
100
AcDbEntity
  8
1
  6
Continuous
100
AcDbLine
 10
267.510052537608
 20
435.1818788068464
 30
0.0
 11
197.5100525376081
 21
435.1818788068464
 31
0.0
  0
CIRCLE
  5
598
330
18
100
AcDbEntity
  8
1
  6
Continuous
100
AcDbCircle
 10
232.510052537608
 20
390.1818788068465
 30
0.0
 40
31.0
  0
ARC
  5
599
330
18
100
AcDbEntity
  8
1
  6
Continuous
100
AcDbCircle
 10
378.010052537608
 20
390.1818788068465
 30
0.0
 40
200.0
100
AcDbArc
 50
174.9418699999999
 51
185.057832
  0
LINE
  5
59A
330
18
100
AcDbEntity
  8
1
  6
Continuous
100
AcDbLine
 10
178.3211785376081
 20
365.9818858068464
 30
0.0
 11
187.5100525376081
 21
365.9818858068464
 31
0.0
  0
ARC
  5
59B
330
18
100
AcDbEntity
  8
1
  6
Continuous
100
AcDbCircle
 10
180.2829675376081
 20
372.6818788068464
 30
0.0
 40
1.5
100
AcDbArc
 50
185.057832
 51
270.0
  0
LINE
  5
59C
330
18
100
AcDbEntity
  8
1
  6
Continuous
100
AcDbLine
 10
180.2436795376079
 20
366.4818858068465
 30
0.0
 11
187.5100525376081
 21
366.4818858068465
 31
0.0
  0
LINE
  5
59D
330
18
100
AcDbEntity
  8
1
  6
Continuous
100
AcDbLine
 10
180.2436795376079
 20
365.9818858068464
 30
0.0
 11
180.2436795376079
 21
366.4818858068465
 31
0.0
  0
LINE
  5
59E
330
18
100
AcDbEntity
  8
1
  6
Continuous
100
AcDbLine
 10
180.2829675376081
 20
371.1818788068464
 30
0.0
 11
187.5100525376081
 21
371.1818788068464
 31
0.0
  0
ARC
  5
59F
330
18
100
AcDbEntity
  8
1
  6
Continuous
100
AcDbCircle
 10
180.2829675376081
 20
407.6818788068464
 30
0.0
 40
1.5
100
AcDbArc
 50
90.0
 51
174.9421679999999
  0
CIRCLE
  5
5A0
330
18
100
AcDbEntity
  8
1
  6
Continuous
100
AcDbCircle
 10
197.0100525376081
 20
425.6818788068463
 30
0.0
 40
5.25
  0
LINE
  5
5A1
330
18
100
AcDbEntity
  8
4
  6
CENTER
100
AcDbLine
 10
197.0100525376081
 20
417.4318788068466
 30
0.0
 11
197.0100525376081
 21
433.9318788068466
 31
0.0
  0
LINE
  5
5A2
330
18
100
AcDbEntity
  8
1
  6
Continuous
100
AcDbLine
 10
180.2829675376081
 20
409.1818788068463
 30
0.0
 11
187.5100525376081
 21
409.1818788068463
 31
0.0
  0
LINE
  5
5A3
330
18
100
AcDbEntity
  8
4
  6
CENTER
100
AcDbLine
 10
205.260052537608
 20
425.6818788068463
 30
0.0
 11
188.7600525376081
 21
425.6818788068463
 31
0.0
  0
ARC
  5
5A4
330
18
100
AcDbEntity
  8
1
  6
Continuous
100
AcDbCircle
 10
197.5100525376081
 20
425.1818788068463
 30
0.0
 40
10.0
100
AcDbArc
 50
90.0
 51
180.0
  0
CIRCLE
  5
5A5
330
18
100
AcDbEntity
  8
1
  6
Continuous
100
AcDbCircle
 10
232.510052537608
 20
390.1818788068465
 30
0.0
 40
15.75
  0
LINE
  5
5A6
330
18
100
AcDbEntity
  8
4
  6
CENTER
100
AcDbLine
 10
268.010052537608
 20
417.4318788068466
 30
0.0
 11
268.010052537608
 21
433.9318788068466
 31
0.0
  0
LINE
  5
5A7
330
18
100
AcDbEntity
  8
1
  6
Continuous
100
AcDbLine
 10
277.510052537608
 20
355.1818788068465
 30
0.0
 11
277.510052537608
 21
425.1818788068463
 31
0.0
  0
LINE
  5
5A8
330
18
100
AcDbEntity
  8
1
  6
Continuous
100
AcDbLine
 10
277.510052537608
 20
284.0763888068465
 30
0.0
 11
277.510052537608
 21
280.8763888068465
 31
0.0
  0
ARC
  5
5A9
330
18
100
AcDbEntity
  8
1
  6
Continuous
100
AcDbCircle
 10
350.7321885376081
 20
279.8763888068465
 30
0.0
 40
4.0
100
AcDbArc
 50
206.565051
 51
270.0
  0
LINE
  5
5AA
330
18
100
AcDbEntity
  8
1
  6
Continuous
100
AcDbLine
 10
338.7600525376079
 20
284.0763888068465
 30
0.0
 11
338.7600525376079
 21
280.8763888068465
 31
0.0
  0
LINE
  5
5AB
330
18
100
AcDbEntity
  8
1
  6
Continuous
100
AcDbLine
 10
345.7600525376079
 20
280.8763888068465
 30
0.0
 11
347.1544795376079
 21
278.0875348068466
 31
0.0
  0
ARC
  5
5AC
330
18
100
AcDbEntity
  8
1
  6
Continuous
100
AcDbCircle
 10
508.0100525376081
 20
272.8763888068466
 30
0.0
 40
3.0
100
AcDbArc
 50
90.0
 51
180.0
  0
LINE
  5
5AD
330
18
100
AcDbEntity
  8
4
  6
CENTER
100
AcDbLine
 10
499.510052537608
 20
292.0763888068464
 30
0.0
 11
499.510052537608
 21
272.8763888068466
 31
0.0
  0
LINE
  5
5AE
330
18
100
AcDbEntity
  8
4
  6
CENTER
100
AcDbLine
 10
535.0100525376078
 20
292.0763888068464
 30
0.0
 11
535.0100525376078
 21
253.3213118068466
 31
0.0
  0
ARC
  5
5AF
330
18
100
AcDbEntity
  8
1
  6
Continuous
100
AcDbCircle
 10
562.010052537608
 20
272.8763888068466
 30
0.0
 40
3.0
100
AcDbArc
 50
0.0
 51
90.0
  0
LINE
  5
5B0
330
18
100
AcDbEntity
  8
4
  6
CENTER
100
AcDbLine
 10
570.5100525376081
 20
292.0763888068464
 30
0.0
 11
570.5100525376081
 21
272.8763888068466
 31
0.0
  0
LINE
  5
5B1
330
18
100
AcDbEntity
  8
4
  6
CENTER
100
AcDbLine
 10
419.260052537608
 20
292.0763888068464
 30
0.0
 11
419.260052537608
 21
272.8763888068466
 31
0.0
  0
ARC
  5
5B2
330
18
100
AcDbEntity
  8
1
  6
Continuous
100
AcDbCircle
 10
410.7600525376081
 20
272.8763888068466
 30
0.0
 40
3.0
100
AcDbArc
 50
0.0
 51
90.0
  0
LINE
  5
5B3
330
18
100
AcDbEntity
  8
5
  6
PHANTOM
100
AcDbLine
 10
511.6794145376081
 20
229.8144358068466
 30
0.0
 11
524.5752125376078
 21
217.3985778068465
 31
0.0
  0
LINE
  5
5B4
330
18
100
AcDbEntity
  8
1
  6
Continuous
100
AcDbLine
 10
520.5183255376081
 20
228.3922908068466
 30
0.0
 11
516.9861585376081
 21
228.4789238068466
 31
0.0
  0
ARC
  5
5B5
330
18
100
AcDbEntity
  8
1
  6
Continuous
100
AcDbCircle
 10
567.3885285376078
 20
271.9131428068465
 30
0.0
 40
63.95998999999999
100
AcDbArc
 50
194.88307
 51
257.827002
  0
LINE
  5
5B6
330
18
100
AcDbEntity
  8
1
  6
Continuous
100
AcDbLine
 10
514.706098537608
 20
207.4685138068466
 30
0.0
 11
531.9725845376081
 21
202.7437288068465
 31
0.0
  0
ARC
  5
5B7
330
18
100
AcDbEntity
  8
1
  6
Continuous
100
AcDbCircle
 10
532.9671455376082
 20
216.9581478068466
 30
0.0
 40
16.95709
100
AcDbArc
 50
220.18493
 51
257.2717739999999
  0
LINE
  5
5B8
330
18
100
AcDbEntity
  8
1
  6
Continuous
100
AcDbLine
 10
505.010052537608
 20
269.8763888068465
 30
0.0
 11
565.0100525376077
 21
269.8763888068465
 31
0.0
  0
LINE
  5
5B9
330
18
100
AcDbEntity
  8
4
  6
CENTER
100
AcDbLine
 10
597.5100525376078
 20
224.5763888068466
 30
0.0
 11
516.5100525376081
 21
224.5763888068466
 31
0.0
  0
LINE
  5
5BA
330
18
100
AcDbEntity
  8
1
  6
Continuous
100
AcDbLine
 10
402.760052537608
 20
244.3256028068464
 30
0.0
 11
402.760052537608
 21
194.3493038068465
 31
0.0
  0
LINE
  5
5BB
330
18
100
AcDbEntity
  8
1
  6
Continuous
100
AcDbLine
 10
403.6600525376078
 20
206.0763888068465
 30
0.0
 11
403.6600525376078
 21
242.9962658068466
 31
0.0
  0
LINE
  5
5BC
330
18
100
AcDbEntity
  8
1
  6
Continuous
100
AcDbLine
 10
404.1600525376079
 20
209.5763888068463
 30
0.0
 11
404.1600525376079
 21
239.5763888068465
 31
0.0
  0
ARC
  5
5BD
330
18
100
AcDbEntity
  8
1
  6
Continuous
100
AcDbCircle
 10
399.9077115376081
 20
225.5648728068466
 30
0.0
 40
15.202341
100
AcDbArc
 50
303.730904
 51
29.908587
  0
ARC
  5
5BE
330
18
100
AcDbEntity
  8
1
  6
Continuous
100
AcDbCircle
 10
399.9077115376081
 20
225.5648728068466
 30
0.0
 40
12.302341
100
AcDbArc
 50
300.432714
 51
28.622165
  0
LINE
  5
5BF
330
18
100
AcDbEntity
  8
1
  6
Continuous
100
AcDbLine
 10
404.5600525376078
 20
209.0763588068464
 30
0.0
 11
404.5600525376078
 21
241.6377948068466
 31
0.0
  0
LINE
  5
5C0
330
18
100
AcDbEntity
  8
1
  6
Continuous
100
AcDbLine
 10
415.110052537608
 20
266.8763888068466
 30
0.0
 11
415.110052537608
 21
225.5648728068466
 31
0.0
  0
ARC
  5
5C1
330
18
100
AcDbEntity
  8
1
  6
Continuous
100
AcDbCircle
 10
401.2600525376078
 20
194.3493038068465
 30
0.0
 40
1.5
100
AcDbArc
 50
275.0578319999998
 51
0.0
  0
LINE
  5
5C2
330
18
100
AcDbEntity
  8
1
  6
Continuous
100
AcDbLine
 10
403.6600525376078
 20
206.0763888068465
 30
0.0
 11
402.760052537608
 21
206.0763888068465
 31
0.0
  0
LINE
  5
5C3
330
18
100
AcDbEntity
  8
1
  6
Continuous
100
AcDbLine
 10
413.2008635376078
 20
214.7614038068466
 30
0.0
 11
410.603329537608
 21
214.7614038068466
 31
0.0
  0
LINE
  5
5C4
330
18
100
AcDbEntity
  8
1
  6
Continuous
100
AcDbLine
 10
404.1600525376079
 20
209.5763888068463
 30
0.0
 11
403.6600525376078
 21
209.5763888068463
 31
0.0
  0
LINE
  5
5C5
330
18
100
AcDbEntity
  8
1
  6
Continuous
100
AcDbLine
 10
404.1600525376079
 20
216.5763888068465
 30
0.0
 11
404.5600525376078
 21
216.5763888068465
 31
0.0
  0
ARC
  5
5C6
330
18
100
AcDbEntity
  8
1
  6
Continuous
100
AcDbCircle
 10
407.7600525376078
 20
212.1983728068466
 30
0.0
 40
3.2
100
AcDbArc
 50
120.4327139999999
 51
180.0
  0
ARC
  5
5C7
330
18
100
AcDbEntity
  8
1
  6
Continuous
100
AcDbCircle
 10
409.4600525376079
 20
211.2584648068466
 30
0.0
 40
2.0
100
AcDbArc
 50
123.7309039999999
 51
180.0
  0
LINE
  5
5C8
330
18
100
AcDbEntity
  8
1
  6
Continuous
100
AcDbLine
 10
407.4600525376078
 20
209.0763588068464
 30
0.0
 11
407.4600525376078
 21
211.2584648068466
 31
0.0
  0
LINE
  5
5C9
330
18
100
AcDbEntity
  8
1
  6
Continuous
100
AcDbLine
 10
404.5600525376078
 20
209.0763588068464
 30
0.0
 11
407.4600525376078
 21
209.0763588068464
 31
0.0
  0
LINE
  5
5CA
330
18
100
AcDbEntity
  8
1
  6
Continuous
100
AcDbLine
 10
413.960052537608
 20
219.7646238068466
 30
0.0
 11
413.960052537608
 21
216.0763588068466
 31
0.0
  0
LINE
  5
5CB
330
18
100
AcDbEntity
  8
1
  6
Continuous
100
AcDbLine
 10
413.2008635376078
 20
214.7614038068466
 30
0.0
 11
413.960052537608
 21
216.0763588068466
 31
0.0
  0
ARC
  5
5CC
330
18
100
AcDbEntity
  8
1
  6
Continuous
100
AcDbCircle
 10
409.6151545376079
 20
217.2151428068465
 30
0.0
 40
4.344898999999998
100
AcDbArc
 50
334.384247
 51
23.58372399999999
  0
ARC
  5
5D4
330
18
100
AcDbEntity
  8
1
  6
Continuous
100
AcDbCircle
 10
269.5865375376079
 20
153.1939108068466
 30
0.0
 40
161.36967
100
AcDbArc
 50
29.011738
 51
38.20373499999997
  0
ARC
  5
5D5
330
18
100
AcDbEntity
  8
1
  6
Continuous
100
AcDbCircle
 10
327.8166995376079
 20
183.3286298068466
 30
0.0
 40
98.75439700000001
100
AcDbArc
 50
30.294676
 51
45.390024
  0
LINE
  5
5D6
330
18
100
AcDbEntity
  8
1
  6
Continuous
100
AcDbLine
 10
404.1600525376079
 20
239.5763888068465
 30
0.0
 11
403.6600525376078
 21
239.5763888068465
 31
0.0
  0
LINE
  5
5D7
330
18
100
AcDbEntity
  8
1
  6
Continuous
100
AcDbLine
 10
404.1600525376079
 20
232.5763888068466
 30
0.0
 11
404.5600525376078
 21
232.5763888068466
 31
0.0
  0
LINE
  5
5D8
330
18
100
AcDbEntity
  8
1
  6
Continuous
100
AcDbLine
 10
403.6063515376081
 20
243.0763888068466
 30
0.0
 11
402.760052537608
 21
243.0763888068466
 31
0.0
  0
ARC
  5
5D9
330
18
100
AcDbEntity
  8
1
  6
Continuous
100
AcDbCircle
 10
411.9385465376081
 20
266.7001158068464
 30
0.0
 40
3.176400999999998
100
AcDbArc
 50
3.181242999999998
 51
90.51397799999998
  0
LINE
  5
5DA
330
18
100
AcDbEntity
  8
1
  6
Continuous
100
AcDbLine
 10
413.7600525376078
 20
272.8763888068466
 30
0.0
 11
413.7600525376078
 21
269.8763888068465
 31
0.0
  0
LINE
  5
5DB
330
18
100
AcDbEntity
  8
5
  6
PHANTOM
100
AcDbLine
 10
511.6794125376078
 20
229.8144368068466
 30
0.0
 11
515.3725875376078
 21
234.6945668068466
 31
0.0
  0
LINE
  5
5DC
330
18
100
AcDbEntity
  8
1
  6
Continuous
100
AcDbLine
 10
514.7060965376081
 20
207.4685138068466
 30
0.0
 11
516.9714815376079
 21
222.6127538068465
 31
0.0
  0
LINE
  5
5DD
330
18
100
AcDbEntity
  8
1
  6
Continuous
100
AcDbLine
 10
516.9714835376082
 20
222.6127518068465
 30
0.0
 11
516.9297255376078
 21
226.1796148068465
 31
0.0
  0
LINE
  5
5DE
330
18
100
AcDbEntity
  8
1
  6
Continuous
100
AcDbLine
 10
516.9861605376079
 20
228.4789258068463
 30
0.0
 11
516.9297655376078
 21
226.1796178068466
 31
0.0
  0
ARC
  5
5DF
330
18
100
AcDbEntity
  8
1
  6
Continuous
100
AcDbCircle
 10
506.4159875376081
 20
267.0804938068465
 30
0.0
 40
2.795974
100
AcDbArc
 50
90.431413
 51
170.27177
  0
LINE
  5
5E0
330
18
100
AcDbEntity
  8
1
  6
Continuous
100
AcDbLine
 10
503.8649405376078
 20
259.1763888068464
 30
0.0
 11
505.574266537608
 21
255.4851958068466
 31
0.0
  0
LINE
  5
5E1
330
18
100
AcDbEntity
  8
1
  6
Continuous
100
AcDbLine
 10
503.6602175376081
 20
267.5529438068465
 30
0.0
 11
503.8649405376078
 21
259.1763888068464
 31
0.0
  0
LINE
  5
5E2
330
18
100
AcDbEntity
  8
1
  6
Continuous
100
AcDbLine
 10
505.010052537608
 20
272.8763888068466
 30
0.0
 11
505.010052537608
 21
269.8763888068465
 31
0.0
  0
LINE
  5
5E3
330
18
100
AcDbEntity
  8
4
  6
CENTER
100
AcDbLine
 10
557.0100525376078
 20
261.4594068068464
 30
0.0
 11
557.0100525376078
 21
184.0763888068464
 31
0.0
  0
ARC
  5
5E4
330
18
100
AcDbEntity
  8
1
  6
Continuous
100
AcDbCircle
 10
557.0100525376078
 20
224.5763888068466
 30
0.0
 40
32.5
100
AcDbArc
 50
180.2151379999999
 51
94.812889
  0
ARC
  5
5E5
330
18
100
AcDbEntity
  8
1
  6
Continuous
100
AcDbCircle
 10
557.0100525376078
 20
224.5763888068466
 30
0.0
 40
26.5
100
AcDbArc
 50
191.523151
 51
98.36592600000001
  0
LINE
  5
5E6
330
18
100
AcDbEntity
  8
1
  6
Continuous
100
AcDbLine
 10
552.6787035376079
 20
254.3950938068466
 30
0.0
 11
542.5226445376081
 21
216.7006438068465
 31
0.0
  0
ARC
  5
5E7
330
18
100
AcDbEntity
  8
1
  6
Continuous
100
AcDbCircle
 10
557.0100525376078
 20
224.5763888068466
 30
0.0
 40
15.5
100
AcDbArc
 50
258.431374
 51
56.021602
  0
ARC
  5
5E8
330
18
100
AcDbEntity
  8
1
  6
Continuous
100
AcDbCircle
 10
557.0100525376078
 20
224.5763888068466
 30
0.0
 40
18.5
100
AcDbArc
 50
218.9740669999999
 51
89.082454
  0
LINE
  5
5E9
330
18
100
AcDbEntity
  8
1
  6
Continuous
100
AcDbLine
 10
557.0100525376078
 20
234.3913438068466
 30
0.0
 11
548.5100525376078
 21
229.4838658068465
 31
0.0
  0
CIRCLE
  5
5EA
330
18
100
AcDbEntity
  8
1
  6
Continuous
100
AcDbCircle
 10
557.0100525376078
 20
224.5763888068466
 30
0.0
 40
8.5
  0
LINE
  5
5EB
330
18
100
AcDbEntity
  8
1
  6
Continuous
100
AcDbLine
 10
557.0100525376078
 20
234.3913438068466
 30
0.0
 11
565.5100525376077
 21
229.4838658068465
 31
0.0
  0
LINE
  5
5EC
330
18
100
AcDbEntity
  8
1
  6
Continuous
100
AcDbLine
 10
548.5100525376078
 20
219.6689118068466
 30
0.0
 11
557.0100525376078
 21
214.7614348068465
 31
0.0
  0
ARC
  5
5ED
330
18
100
AcDbEntity
  8
1
  6
Continuous
100
AcDbCircle
 10
536.774655537608
 20
233.8146888068465
 30
0.0
 40
34.23830000000001
100
AcDbArc
 50
257.2717739999999
 51
269.1026379999999
  0
LINE
  5
5EE
330
18
100
AcDbEntity
  8
1
  6
Continuous
100
AcDbLine
 10
531.9725805376078
 20
202.7437288068465
 30
0.0
 11
532.2341325376079
 21
203.5429928068464
 31
0.0
  0
LINE
  5
5EF
330
18
100
AcDbEntity
  8
5
  6
PHANTOM
100
AcDbLine
 10
524.5752095376079
 20
217.3985798068466
 30
0.0
 11
525.1875485376078
 21
217.9750098068466
 31
0.0
  0
LINE
  5
5F0
330
18
100
AcDbEntity
  8
1
  6
Continuous
100
AcDbLine
 10
548.5100525376078
 20
219.6689118068466
 30
0.0
 11
548.5100525376078
 21
229.4838658068465
 31
0.0
  0
LINE
  5
5F1
330
18
100
AcDbEntity
  8
1
  6
Continuous
100
AcDbLine
 10
565.5100525376077
 20
219.6689118068466
 30
0.0
 11
565.5100525376077
 21
229.4838658068465
 31
0.0
  0
LINE
  5
5F2
330
18
100
AcDbEntity
  8
1
  6
Continuous
100
AcDbLine
 10
565.5100525376077
 20
219.6689118068466
 30
0.0
 11
557.0100525376078
 21
214.7614348068465
 31
0.0
  0
ARC
  5
5F6
330
18
100
AcDbEntity
  8
1
  6
Continuous
100
AcDbCircle
 10
563.1465615376079
 20
251.1913668068465
 30
0.0
 40
10.0
100
AcDbArc
 50
165.9637569999999
 51
236.021602
  0
LINE
  5
5F7
330
18
100
AcDbEntity
  8
1
  6
Continuous
100
AcDbLine
 10
565.6726975376077
 20
237.4297378068465
 30
0.0
 11
557.5577585376081
 21
242.8988828068466
 31
0.0
  0
ARC
  5
5F8
330
18
100
AcDbEntity
  8
1
  6
Continuous
100
AcDbCircle
 10
562.8078685376078
 20
266.8763888068466
 30
0.0
 40
3.0
100
AcDbArc
 50
348.037949
 51
90.0
  0
LINE
  5
5F9
330
18
100
AcDbEntity
  8
1
  6
Continuous
100
AcDbLine
 10
565.7427235376077
 20
266.2545978068464
 30
0.0
 11
564.0100525376078
 21
259.8763888068465
 31
0.0
  0
LINE
  5
5FA
330
18
100
AcDbEntity
  8
1
  6
Continuous
100
AcDbLine
 10
564.0100525376078
 20
259.8763888068465
 30
0.0
 11
558.1331585376078
 21
259.8763888068465
 31
0.0
  0
ARC
  5
5FB
330
18
100
AcDbEntity
  8
1
  6
Continuous
100
AcDbCircle
 10
558.1331585376078
 20
255.8763888068465
 30
0.0
 40
4.0
100
AcDbArc
 50
90.0
 51
165.9637569999999
  0
LINE
  5
5FC
330
18
100
AcDbEntity
  8
1
  6
Continuous
100
AcDbLine
 10
554.2525885376078
 20
256.8465308068466
 30
0.0
 11
553.445136537608
 21
253.6167228068466
 31
0.0
  0
LINE
  5
5FD
330
18
100
AcDbEntity
  8
1
  6
Continuous
100
AcDbLine
 10
565.0100525376077
 20
272.8763888068466
 30
0.0
 11
565.0100525376077
 21
269.8763888068465
 31
0.0
  0
LINE
  5
5FE
330
18
100
AcDbEntity
  8
5
  6
PHANTOM
100
AcDbLine
 10
590.9162765376081
 20
219.5171138068465
 30
0.0
 11
589.2507675376077
 21
220.4792778068465
 31
0.0
  0
ARC
  5
5FF
330
18
100
AcDbEntity
  8
5
  6
PHANTOM
100
AcDbCircle
 10
498.3582645376078
 20
272.6357178068465
 30
0.0
 40
106.7354659999999
100
AcDbArc
 50
327.1377069999998
 51
328.9139519999999
  0
ARC
  5
600
330
18
100
AcDbEntity
  8
5
  6
PHANTOM
100
AcDbCircle
 10
638.8709365376079
 20
181.8650938068465
 30
0.0
 40
60.546078
100
AcDbArc
 50
147.1377009999999
 51
147.2578429999998
  0
LINE
  5
601
330
18
100
AcDbEntity
  8
5
  6
PHANTOM
100
AcDbLine
 10
590.9162835376081
 20
219.5171118068464
 30
0.0
 11
589.7657595376077
 21
217.5255518068464
 31
0.0
  0
LINE
  5
602
330
18
100
AcDbEntity
  8
1
  6
Continuous
100
AcDbLine
 10
589.1989235376079
 20
236.3706838068465
 30
0.0
 11
589.1425265376081
 21
234.0713728068466
 31
0.0
  0
ARC
  5
603
330
18
100
AcDbEntity
  8
1
  6
Continuous
100
AcDbCircle
 10
482.5067085376081
 20
238.6825248068466
 30
0.0
 40
106.7354659999999
100
AcDbArc
 50
355.747707
 51
357.523952
  0
LINE
  5
604
330
18
100
AcDbEntity
  8
1
  6
Continuous
100
AcDbLine
 10
589.1989155376078
 20
236.3706828068466
 30
0.0
 11
587.2760385376079
 21
236.4178448068466
 31
0.0
  0
ARC
  5
605
330
18
100
AcDbEntity
  8
1
  6
Continuous
100
AcDbCircle
 10
649.3277685376081
 20
226.2788498068466
 30
0.0
 40
60.546078
100
AcDbArc
 50
175.747701
 51
175.8678429999999
  0
LINE
  5
606
330
18
100
AcDbEntity
  8
1
  6
Continuous
100
AcDbLine
 10
501.9821885376081
 20
275.8763888068465
 30
0.0
 11
568.0379165376081
 21
275.8763888068465
 31
0.0
  0
LINE
  5
607
330
18
100
AcDbEntity
  8
1
  6
Continuous
100
AcDbLine
 10
580.010052537608
 20
280.8763888068465
 30
0.0
 11
490.0100525376078
 21
280.8763888068465
 31
0.0
  0
LINE
  5
608
330
18
100
AcDbEntity
  8
1
  6
Continuous
100
AcDbLine
 10
580.010052537608
 20
284.0763888068465
 30
0.0
 11
490.0100525376078
 21
284.0763888068465
 31
0.0
  0
ARC
  5
609
330
18
100
AcDbEntity
  8
1
  6
Continuous
100
AcDbCircle
 10
416.787916537608
 20
279.8763888068465
 30
0.0
 40
4.0
100
AcDbArc
 50
270.0
 51
333.434949
  0
LINE
  5
60A
330
18
100
AcDbEntity
  8
1
  6
Continuous
100
AcDbLine
 10
421.7600525376078
 20
280.8763888068465
 30
0.0
 11
420.3656255376079
 21
278.0875348068466
 31
0.0
  0
LINE
  5
60B
330
18
100
AcDbEntity
  8
1
  6
Continuous
100
AcDbLine
 10
428.7600525376078
 20
284.0763888068465
 30
0.0
 11
428.7600525376078
 21
280.8763888068465
 31
0.0
  0
LINE
  5
60C
330
18
100
AcDbEntity
  8
1
  6
Continuous
100
AcDbLine
 10
490.0100525376078
 20
284.0763888068465
 30
0.0
 11
490.0100525376078
 21
280.8763888068465
 31
0.0
  0
LINE
  5
60D
330
18
100
AcDbEntity
  8
1
  6
Continuous
100
AcDbLine
 10
497.0100525376079
 20
280.8763888068465
 30
0.0
 11
498.4044795376078
 21
278.0875348068466
 31
0.0
  0
ARC
  5
60E
330
18
100
AcDbEntity
  8
1
  6
Continuous
100
AcDbCircle
 10
501.9821885376081
 20
279.8763888068465
 30
0.0
 40
4.0
100
AcDbArc
 50
206.565051
 51
270.0
  0
LINE
  5
60F
330
18
100
AcDbEntity
  8
1
  6
Continuous
100
AcDbLine
 10
580.010052537608
 20
284.0763888068465
 30
0.0
 11
580.010052537608
 21
280.8763888068465
 31
0.0
  0
LINE
  5
610
330
18
100
AcDbEntity
  8
1
  6
Continuous
100
AcDbLine
 10
573.0100525376077
 20
280.8763888068465
 30
0.0
 11
571.6156255376081
 21
278.0875348068466
 31
0.0
  0
ARC
  5
611
330
18
100
AcDbEntity
  8
1
  6
Continuous
100
AcDbCircle
 10
568.0379165376081
 20
279.8763888068465
 30
0.0
 40
4.0
100
AcDbArc
 50
270.0
 51
333.434949
  0
ARC
  5
616
330
18
100
AcDbEntity
  8
1
  6
Continuous
100
AcDbCircle
 10
55.11727553760824
 20
225.5648428068465
 30
0.0
 40
15.202341
100
AcDbArc
 50
180.0000000000001
 51
202.4288922320411
  0
ENDSEC
  0
SECTION
  2
OBJECTS
  0
DICTIONARY
  5
C
330
0
100
AcDbDictionary
281
     1
  3
ACAD_CIP_PREVIOUS_PRODUCT_INFO
350
683
  3
ACAD_COLOR
350
666
  3
ACAD_DETAILVIEWSTYLE
350
67F
  3
ACAD_GROUP
350
D
  3
ACAD_LAYOUT
350
94
  3
ACAD_MATERIAL
350
634
  3
ACAD_MLEADERSTYLE
350
67B
  3
ACAD_MLINESTYLE
350
1B
  3
ACAD_PLOTSETTINGS
350
95
  3
ACAD_PLOTSTYLENAME
350
632
  3
ACAD_SCALELIST
350
669
  3
ACAD_SECTIONVIEWSTYLE
350
67D
  3
ACAD_TABLESTYLE
350
667
  3
ACAD_VISUALSTYLE
350
64D
  3
ACDB_RECOMPOSE_DATA
350
6A1
  3
AcDbVariableDictionary
350
694
  3
CONTENTDICTIONARY
350
3D
  3
DWGPROPS
350
6A2
  0
DICTIONARY
  5
684
330
E
100
AcDbDictionary
280
     1
281
     1
  3
ADSK_XREC_LAYER_RECONCILED
360
685
  0
DICTIONARY
  5
686
330
4E
100
AcDbDictionary
280
     1
281
     1
  3
ADSK_XREC_LAYER_RECONCILED
360
687
  0
DICTIONARY
  5
688
330
4F
100
AcDbDictionary
280
     1
281
     1
  3
ADSK_XREC_LAYER_RECONCILED
360
689
  0
DICTIONARY
  5
68A
330
50
100
AcDbDictionary
280
     1
281
     1
  3
ADSK_XREC_LAYER_RECONCILED
360
68B
  0
DICTIONARY
  5
68C
330
51
100
AcDbDictionary
280
     1
281
     1
  3
ADSK_XREC_LAYER_RECONCILED
360
68D
  0
DICTIONARY
  5
68E
330
52
100
AcDbDictionary
280
     1
281
     1
  3
ADSK_XREC_LAYER_RECONCILED
360
68F
  0
DICTIONARY
  5
690
330
53
100
AcDbDictionary
280
     1
281
     1
  3
ADSK_XREC_LAYER_RECONCILED
360
691
  0
DICTIONARY
  5
692
330
54
100
AcDbDictionary
280
     1
281
     1
  3
ADSK_XREC_LAYER_RECONCILED
360
693
  0
DICTIONARY
  5
62D
330
18
100
AcDbDictionary
281
     1
  3
ACAD_LAYOUTSELFREF
350
62E
  0
DICTIONARY
  5
62B
330
15
100
AcDbDictionary
281
     1
  3
ACAD_LAYOUTSELFREF
350
62C
  0
XRECORD
  5
683
102
{ACAD_REACTORS
330
C
102
}
330
C
100
AcDbXrecord
280
     1
300
ACDLT
300
2014
300
ACDLT_F_S
  0
DICTIONARY
  5
666
102
{ACAD_REACTORS
330
C
102
}
330
C
100
AcDbDictionary
281
     1
  0
DICTIONARY
  5
67F
102
{ACAD_REACTORS
330
C
102
}
330
C
100
AcDbDictionary
281
     1
  3
Imperial24
350
680
  0
DICTIONARY
  5
D
102
{ACAD_REACTORS
330
C
102
}
330
C
100
AcDbDictionary
281
     1
  0
DICTIONARY
  5
94
102
{ACAD_REACTORS
330
C
102
}
330
C
100
AcDbDictionary
281
     1
  3
Model
350
681
  3
レイアウト1
350
682
  0
DICTIONARY
  5
634
102
{ACAD_REACTORS
330
C
102
}
330
C
100
AcDbDictionary
281
     1
  3
ByBlock
350
63D
  3
ByLayer
350
635
  3
Global
350
645
  0
DICTIONARY
  5
67B
102
{ACAD_REACTORS
330
C
102
}
330
C
100
AcDbDictionary
281
     1
  3
Standard
350
67C
  0
DICTIONARY
  5
1B
102
{ACAD_REACTORS
330
C
102
}
330
C
100
AcDbDictionary
281
     1
  3
STANDARD
350
1C
  0
DICTIONARY
  5
95
102
{ACAD_REACTORS
330
C
102
}
330
C
100
AcDbDictionary
281
     1
  0
ACDBDICTIONARYWDFLT
  5
632
102
{ACAD_REACTORS
330
C
102
}
330
C
100
AcDbDictionary
281
     1
  3
Normal
350
633
100
AcDbDictionaryWithDefault
340
633
  0
DICTIONARY
  5
669
102
{ACAD_REACTORS
330
C
102
}
330
C
100
AcDbDictionary
281
     1
  3
A0
350
66A
  3
A1
350
66B
  3
A2
350
66C
  3
A3
350
66D
  3
A4
350
66E
  3
A5
350
66F
  3
A6
350
670
  3
A7
350
671
  3
A8
350
672
  3
A9
350
673
  3
B0
350
674
  3
B1
350
675
  3
B2
350
676
  3
B3
350
677
  3
B4
350
678
  3
B5
350
679
  3
B6
350
67A
  0
DICTIONARY
  5
67D
102
{ACAD_REACTORS
330
C
102
}
330
C
100
AcDbDictionary
281
     1
  3
Imperial24
350
67E
  0
DICTIONARY
  5
667
102
{ACAD_REACTORS
330
C
102
}
330
C
100
AcDbDictionary
281
     1
  3
Standard
350
668
  0
DICTIONARY
  5
64D
102
{ACAD_REACTORS
330
C
102
}
330
C
100
AcDbDictionary
281
     1
  3
2dWireframe
350
653
  3
Basic
350
652
  3
Brighten
350
659
  3
ColorChange
350
65D
  3
Conceptual
350
656
  3
Dim
350
658
  3
EdgeColorOff
350
665
  3
Facepattern
350
65C
  3
Flat
350
64E
  3
FlatWithEdges
350
64F
  3
Gouraud
350
650
  3
GouraudWithEdges
350
651
  3
Hidden
350
655
  3
JitterOff
350
663
  3
Linepattern
350
65B
  3
OverhangOff
350
664
  3
Realistic
350
657
  3
Shaded
350
662
  3
Shaded with edges
350
661
  3
Shades of Gray
350
65E
  3
Sketchy
350
65F
  3
Thicken
350
65A
  3
Wireframe
350
654
  3
X-Ray
350
660
  0
XRECORD
  5
6A1
102
{ACAD_REACTORS
330
C
102
}
330
C
100
AcDbXrecord
280
     1
 90
        1
330
668
  0
DICTIONARY
  5
694
102
{ACAD_REACTORS
330
C
102
}
330
C
100
AcDbDictionary
281
     1
  3
CANNOSCALE
350
699
  3
CMLEADERSTYLE
350
696
  3
CTABLESTYLE
350
695
  3
CVIEWDETAILSTYLE
350
697
  3
CVIEWSECTIONSTYLE
350
698
  3
DIMASSOC
350
69C
  3
INDEXCTL
350
69B
  3
SORTENTS
350
69A
  3
XCLIPFRAME
350
69D
  0
DICTIONARY
  5
3D
102
{ACAD_REACTORS
330
C
102
}
330
C
100
AcDbDictionary
281
     1
  0
XRECORD
  5
6A2
102
{ACAD_REACTORS
330
C
102
}
330
C
100
AcDbXrecord
280
     1
  1
DWGPROPS COOKIE
  2

  3

  4

  6

  7

  8
Yoshitsune
  9

300
=
301
=
302
=
303
=
304
=
305
=
306
=
307
=
308
=
309
=
 40
0.0053672337962963
 41
2454875.556019803
 42
2457192.686880463
  1

 90
        0
  0
XRECORD
  5
685
102
{ACAD_REACTORS
330
684
102
}
330
684
100
AcDbXrecord
280
     1
290
     1
  0
XRECORD
  5
687
102
{ACAD_REACTORS
330
686
102
}
330
686
100
AcDbXrecord
280
     1
290
     1
  0
XRECORD
  5
689
102
{ACAD_REACTORS
330
688
102
}
330
688
100
AcDbXrecord
280
     1
290
     1
  0
XRECORD
  5
68B
102
{ACAD_REACTORS
330
68A
102
}
330
68A
100
AcDbXrecord
280
     1
290
     1
  0
XRECORD
  5
68D
102
{ACAD_REACTORS
330
68C
102
}
330
68C
100
AcDbXrecord
280
     1
290
     1
  0
XRECORD
  5
68F
102
{ACAD_REACTORS
330
68E
102
}
330
68E
100
AcDbXrecord
280
     1
290
     1
  0
XRECORD
  5
691
102
{ACAD_REACTORS
330
690
102
}
330
690
100
AcDbXrecord
280
     1
290
     1
  0
XRECORD
  5
693
102
{ACAD_REACTORS
330
692
102
}
330
692
100
AcDbXrecord
280
     1
290
     1
  0
XRECORD
  5
62E
102
{ACAD_REACTORS
330
62D
102
}
330
62D
100
AcDbXrecord
280
     1
340
18
  0
XRECORD
  5
62C
102
{ACAD_REACTORS
330
62B
102
}
330
62B
100
AcDbXrecord
280
     1
340
15
  0
ACDBDETAILVIEWSTYLE
  5
680
102
{ACAD_XDICTIONARY
360
6DA
102
}
102
{ACAD_REACTORS
330
67F
102
}
330
67F
100
AcDbModelDocViewStyle
 70
     0
  3
Imperial24
290
     0
100
AcDbDetailViewStyle
 70
     0
 71
     0
 90
        3
 71
     1
340
F
 40
0.24
340
0
 40
0.24
300

 40
0.36
280
     3
 71
     2
340
14
 90
       25
 71
     3
340
F
 40
0.24
 90
        1
 40
0.75
 90
        1
300
%<\AcVar ViewType \f "%tc1">% %<\AcVar ViewDetailId>%\PSCALE %<\AcVar ViewScale \f "%sn">%
 71
     4
340
14
 90
       25
340
14
 90
       25
280
     0
  0
LAYOUT
  5
681
102
{ACAD_XDICTIONARY
360
6DC
102
}
102
{ACAD_REACTORS
330
94
102
}
330
94
100
AcDbPlotSettings
  1

  2
Canon LBP9100C
  4

  6

 40
0.0
 41
0.0
 42
0.0
 43
0.0
 44
0.0
 45
0.0
 46
0.0
 47
0.0
 48
0.0
 49
0.0
140
0.0
141
0.0
142
1.0
143
1.0
 70
  1712
 72
     0
 73
     0
 74
     0
  7

 75
     0
147
1.0
148
0.0
149
0.0
100
AcDbLayout
  1
Model
 70
     1
 71
     0
 10
0.0
 20
0.0
 11
12.0
 21
9.0
 12
0.0
 22
0.0
 32
0.0
 14
0.0
 24
0.0
 34
0.0
 15
0.0
 25
0.0
 35
0.0
146
0.0
 13
0.0
 23
0.0
 33
0.0
 16
1.0
 26
0.0
 36
0.0
 17
0.0
 27
1.0
 37
0.0
 76
     0
330
18
331
62A
  0
LAYOUT
  5
682
102
{ACAD_XDICTIONARY
360
6DE
102
}
102
{ACAD_REACTORS
330
94
102
}
330
94
100
AcDbPlotSettings
  1

  2
Canon LBP9100C
  4

  6

 40
0.0
 41
0.0
 42
0.0
 43
0.0
 44
0.0
 45
0.0
 46
0.0
 47
0.0
 48
0.0
 49
0.0
140
0.0
141
0.0
142
1.0
143
1.0
 70
   688
 72
     0
 73
     0
 74
     5
  7

 75
    16
147
1.0
148
0.0
149
0.0
100
AcDbLayout
  1
レイアウト1
 70
     1
 71
     1
 10
0.0
 20
0.0
 11
420.0
 21
297.0
 12
0.0
 22
0.0
 32
0.0
 14
1.000000000000000E+20
 24
1.000000000000000E+20
 34
1.000000000000000E+20
 15
-1.000000000000000E+20
 25
-1.000000000000000E+20
 35
-1.000000000000000E+20
146
0.0
 13
0.0
 23
0.0
 33
0.0
 16
1.0
 26
0.0
 36
0.0
 17
0.0
 27
1.0
 37
0.0
 76
     0
330
15
  0
MATERIAL
  5
63D
102
{ACAD_XDICTIONARY
360
63E
102
}
102
{ACAD_REACTORS
330
634
102
}
330
634
100
AcDbMaterial
  1
ByBlock
 72
     0
 43
0.0208333333333333
 43
0.0
 43
0.0
 43
0.0
 43
0.0
 43
0.0208333333333333
 43
0.0
 43
0.0
 43
0.0
 43
0.0
 43
1.0
 43
0.0
 43
0.0
 43
0.0
 43
0.0
 43
1.0
 77
     0
 47
0.0208333333333333
 47
0.0
 47
0.0
 47
0.0
 47
0.0
 47
0.0208333333333333
 47
0.0
 47
0.0
 47
0.0
 47
0.0
 47
1.0
 47
0.0
 47
0.0
 47
0.0
 47
0.0
 47
1.0
171
     0
 49
0.0208333333333333
 49
0.0
 49
0.0
 49
0.0
 49
0.0
 49
0.0208333333333333
 49
0.0
 49
0.0
 49
0.0
 49
0.0
 49
1.0
 49
0.0
 49
0.0
 49
0.0
 49
0.0
 49
1.0
175
     0
142
0.0208333333333333
142
0.0
142
0.0
142
0.0
142
0.0
142
0.0208333333333333
142
0.0
142
0.0
142
0.0
142
0.0
142
1.0
142
0.0
142
0.0
142
0.0
142
0.0
142
1.0
179
     0
144
0.0208333333333333
144
0.0
144
0.0
144
0.0
144
0.0
144
0.0208333333333333
144
0.0
144
0.0
144
0.0
144
0.0
144
1.0
144
0.0
144
0.0
144
0.0
144
0.0
144
1.0
147
0.0208333333333333
147
0.0
147
0.0
147
0.0
147
0.0
147
0.0208333333333333
147
0.0
147
0.0
147
0.0
147
0.0
147
1.0
147
0.0
147
0.0
147
0.0
147
0.0
147
1.0
  0
MATERIAL
  5
635
102
{ACAD_XDICTIONARY
360
636
102
}
102
{ACAD_REACTORS
330
634
102
}
330
634
100
AcDbMaterial
  1
ByLayer
 72
     0
 43
0.0208333333333333
 43
0.0
 43
0.0
 43
0.0
 43
0.0
 43
0.0208333333333333
 43
0.0
 43
0.0
 43
0.0
 43
0.0
 43
1.0
 43
0.0
 43
0.0
 43
0.0
 43
0.0
 43
1.0
 77
     0
 47
0.0208333333333333
 47
0.0
 47
0.0
 47
0.0
 47
0.0
 47
0.0208333333333333
 47
0.0
 47
0.0
 47
0.0
 47
0.0
 47
1.0
 47
0.0
 47
0.0
 47
0.0
 47
0.0
 47
1.0
171
     0
 49
0.0208333333333333
 49
0.0
 49
0.0
 49
0.0
 49
0.0
 49
0.0208333333333333
 49
0.0
 49
0.0
 49
0.0
 49
0.0
 49
1.0
 49
0.0
 49
0.0
 49
0.0
 49
0.0
 49
1.0
175
     0
142
0.0208333333333333
142
0.0
142
0.0
142
0.0
142
0.0
142
0.0208333333333333
142
0.0
142
0.0
142
0.0
142
0.0
142
1.0
142
0.0
142
0.0
142
0.0
142
0.0
142
1.0
179
     0
144
0.0208333333333333
144
0.0
144
0.0
144
0.0
144
0.0
144
0.0208333333333333
144
0.0
144
0.0
144
0.0
144
0.0
144
1.0
144
0.0
144
0.0
144
0.0
144
0.0
144
1.0
147
0.0208333333333333
147
0.0
147
0.0
147
0.0
147
0.0
147
0.0208333333333333
147
0.0
147
0.0
147
0.0
147
0.0
147
1.0
147
0.0
147
0.0
147
0.0
147
0.0
147
1.0
  0
MATERIAL
  5
645
102
{ACAD_XDICTIONARY
360
646
102
}
102
{ACAD_REACTORS
330
634
102
}
330
634
100
AcDbMaterial
  1
Global
 72
     0
 43
0.0208333333333333
 43
0.0
 43
0.0
 43
0.0
 43
0.0
 43
0.0208333333333333
 43
0.0
 43
0.0
 43
0.0
 43
0.0
 43
1.0
 43
0.0
 43
0.0
 43
0.0
 43
0.0
 43
1.0
 77
     0
 47
0.0208333333333333
 47
0.0
 47
0.0
 47
0.0
 47
0.0
 47
0.0208333333333333
 47
0.0
 47
0.0
 47
0.0
 47
0.0
 47
1.0
 47
0.0
 47
0.0
 47
0.0
 47
0.0
 47
1.0
171
     0
 49
0.0208333333333333
 49
0.0
 49
0.0
 49
0.0
 49
0.0
 49
0.0208333333333333
 49
0.0
 49
0.0
 49
0.0
 49
0.0
 49
1.0
 49
0.0
 49
0.0
 49
0.0
 49
0.0
 49
1.0
175
     0
142
0.0208333333333333
142
0.0
142
0.0
142
0.0
142
0.0
142
0.0208333333333333
142
0.0
142
0.0
142
0.0
142
0.0
142
1.0
142
0.0
142
0.0
142
0.0
142
0.0
142
1.0
179
     0
144
0.0208333333333333
144
0.0
144
0.0
144
0.0
144
0.0
144
0.0208333333333333
144
0.0
144
0.0
144
0.0
144
0.0
144
1.0
144
0.0
144
0.0
144
0.0
144
0.0
144
1.0
147
0.0208333333333333
147
0.0
147
0.0
147
0.0
147
0.0
147
0.0208333333333333
147
0.0
147
0.0
147
0.0
147
0.0
147
1.0
147
0.0
147
0.0
147
0.0
147
0.0
147
1.0
  0
MLEADERSTYLE
  5
67C
102
{ACAD_REACTORS
330
67B
102
}
330
67B
100
AcDbMLeaderStyle
170
     2
171
     1
172
     0
 90
        2
 40
0.0
 41
0.0
173
     1
 91
-1056964608
340
12
 92
       -2
290
     1
 42
0.09
291
     1
 43
0.36
  3
Standard
 44
0.18
300

342
F
174
     1
178
     6
175
     1
176
     0
 93
-1056964608
 45
0.18
292
     0
297
     0
 46
0.18
 94
-1056964608
 47
1.0
 49
1.0
140
1.0
293
     1
141
0.0
294
     1
177
     0
142
1.0
295
     0
296
     0
143
0.125
1001
ACAD_MLEADERVER
1070
     2
  0
MLINESTYLE
  5
1C
102
{ACAD_REACTORS
330
1B
102
}
330
1B
100
AcDbMlineStyle
  2
STANDARD
 70
     0
  3

 62
   256
 51
90.0
 52
90.0
 71
     2
 49
0.5
 62
   256
  6
BYLAYER
 49
-0.5
 62
   256
  6
BYLAYER
  0
ACDBPLACEHOLDER
  5
633
102
{ACAD_REACTORS
330
632
102
}
330
632
  0
SCALE
  5
66A
102
{ACAD_REACTORS
330
669
102
}
330
669
100
AcDbScale
 70
     0
300
1:1
140
1.0
141
1.0
290
     1
  0
SCALE
  5
66B
102
{ACAD_REACTORS
330
669
102
}
330
669
100
AcDbScale
 70
     0
300
1/128" = 1'-0"
140
0.0078125
141
12.0
290
     0
  0
SCALE
  5
66C
102
{ACAD_REACTORS
330
669
102
}
330
669
100
AcDbScale
 70
     0
300
1/64" = 1'-0"
140
0.015625
141
12.0
290
     0
  0
SCALE
  5
66D
102
{ACAD_REACTORS
330
669
102
}
330
669
100
AcDbScale
 70
     0
300
1/32" = 1'-0"
140
0.03125
141
12.0
290
     0
  0
SCALE
  5
66E
102
{ACAD_REACTORS
330
669
102
}
330
669
100
AcDbScale
 70
     0
300
1/16" = 1'-0"
140
0.0625
141
12.0
290
     0
  0
SCALE
  5
66F
102
{ACAD_REACTORS
330
669
102
}
330
669
100
AcDbScale
 70
     0
300
3/32" = 1'-0"
140
0.09375
141
12.0
290
     0
  0
SCALE
  5
670
102
{ACAD_REACTORS
330
669
102
}
330
669
100
AcDbScale
 70
     0
300
1/8" = 1'-0"
140
0.125
141
12.0
290
     0
  0
SCALE
  5
671
102
{ACAD_REACTORS
330
669
102
}
330
669
100
AcDbScale
 70
     0
300
3/16" = 1'-0"
140
0.1875
141
12.0
290
     0
  0
SCALE
  5
672
102
{ACAD_REACTORS
330
669
102
}
330
669
100
AcDbScale
 70
     0
300
1/4" = 1'-0"
140
0.25
141
12.0
290
     0
  0
SCALE
  5
673
102
{ACAD_REACTORS
330
669
102
}
330
669
100
AcDbScale
 70
     0
300
3/8" = 1'-0"
140
0.375
141
12.0
290
     0
  0
SCALE
  5
674
102
{ACAD_REACTORS
330
669
102
}
330
669
100
AcDbScale
 70
     0
300
1/2" = 1'-0"
140
0.5
141
12.0
290
     0
  0
SCALE
  5
675
102
{ACAD_REACTORS
330
669
102
}
330
669
100
AcDbScale
 70
     0
300
3/4" = 1'-0"
140
0.75
141
12.0
290
     0
  0
SCALE
  5
676
102
{ACAD_REACTORS
330
669
102
}
330
669
100
AcDbScale
 70
     0
300
1" = 1'-0"
140
1.0
141
12.0
290
     0
  0
SCALE
  5
677
102
{ACAD_REACTORS
330
669
102
}
330
669
100
AcDbScale
 70
     0
300
1-1/2" = 1'-0"
140
1.5
141
12.0
290
     0
  0
SCALE
  5
678
102
{ACAD_REACTORS
330
669
102
}
330
669
100
AcDbScale
 70
     0
300
3" = 1'-0"
140
3.0
141
12.0
290
     0
  0
SCALE
  5
679
102
{ACAD_REACTORS
330
669
102
}
330
669
100
AcDbScale
 70
     0
300
6" = 1'-0"
140
6.0
141
12.0
290
     0
  0
SCALE
  5
67A
102
{ACAD_REACTORS
330
669
102
}
330
669
100
AcDbScale
 70
     0
300
1'-0" = 1'-0"
140
12.0
141
12.0
290
     0
  0
ACDBSECTIONVIEWSTYLE
  5
67E
102
{ACAD_XDICTIONARY
360
6D8
102
}
102
{ACAD_REACTORS
330
67D
102
}
330
67D
100
AcDbModelDocViewStyle
 70
     0
  3
Imperial24
290
     0
100
AcDbSectionViewStyle
 70
     0
 71
     0
 90
       78
 71
     1
340
F
 40
0.24
340
0
340
0
 40
0.24
300
I, O, Q, S, X, Z
 40
0.48
 90
        3
 40
0.18
 90
        1
 71
     2
340
14
 90
       25
340
14
 90
       50
 40
0.24
 40
0.0
 40
0.24
 71
     3
340
F
 40
0.24
 90
        1
 40
0.75
 90
        1
300
%<\AcVar ViewType \f "%tc1">% %<\AcVar ViewSectionStartId>%-%<\AcVar ViewSectionEndId>%\PSCALE %<\AcVar ViewScale \f "%sn">%
 71
     4
300
ANSI31
 40
1.0
 90
        0
290
     0
290
     0
 90
        6
 40
0.0
 40
1.570796326794896
 40
0.2617993877991494
 40
1.308996938995747
 40
-0.2617993877991494
 40
1.832595714594046
  0
TABLESTYLE
  5
668
102
{ACAD_XDICTIONARY
360
69F
102
}
102
{ACAD_REACTORS
330
667
102
}
330
667
100
AcDbTableStyle
  3
Standard
 70
     0
 71
     0
 40
0.06
 41
0.06
280
     0
281
     0
  7
STANDARD
140
0.18
170
     2
 62
     0
 63
     7
283
     0
274
    -2
284
     1
 64
     0
275
    -2
285
     1
 65
     0
276
    -2
286
     1
 66
     0
277
    -2
287
     1
 67
     0
278
    -2
288
     1
 68
     0
279
    -2
289
     1
 69
     0
  7
STANDARD
140
0.25
170
     5
 62
     0
 63
     7
283
     0
274
    -2
284
     1
 64
     0
275
    -2
285
     1
 65
     0
276
    -2
286
     1
 66
     0
277
    -2
287
     1
 67
     0
278
    -2
288
     1
 68
     0
279
    -2
289
     1
 69
     0
  7
STANDARD
140
0.18
170
     5
 62
     0
 63
     7
283
     0
274
    -2
284
     1
 64
     0
275
    -2
285
     1
 65
     0
276
    -2
286
     1
 66
     0
277
    -2
287
     1
 67
     0
278
    -2
288
     1
 68
     0
279
    -2
289
     1
 69
     0
  0
VISUALSTYLE
  5
653
102
{ACAD_XDICTIONARY
360
6B0
102
}
102
{ACAD_REACTORS
330
64D
102
}
330
64D
100
AcDbVisualStyle
  2
2dWireframe
 70
     4
 71
     0
 72
     2
 73
     0
 90
        0
 40
-0.6
 41
-30.0
 62
     5
 63
     7
 74
     1
 91
        4
 64
     7
 65
   257
 75
     1
175
     1
 42
1.0
 92
        0
 66
   257
 43
1.0
 76
     1
 77
     6
 78
     2
 67
     7
 79
     5
170
     0
171
     0
290
     0
174
     0
 93
        1
 44
0.0
173
     0
291
     0
 45
0.0
1001
ACAD
1000
AcDbSavedByObjectVersion
1070
     0
  0
VISUALSTYLE
  5
652
102
{ACAD_XDICTIONARY
360
6AE
102
}
102
{ACAD_REACTORS
330
64D
102
}
330
64D
100
AcDbVisualStyle
  2
Basic
 70
     7
 71
     1
 72
     0
 73
     1
 90
        0
 40
-0.6
 41
-30.0
 62
     5
 63
     7
 74
     0
 91
        4
 64
     7
 65
   257
 75
     1
175
     1
 42
1.0
 92
        8
 66
     7
 43
1.0
 76
     1
 77
     6
 78
     2
 67
     7
 79
     5
170
     0
171
     0
290
     0
174
     0
 93
        1
 44
0.0
173
     0
291
     1
 45
0.0
1001
ACAD
1000
AcDbSavedByObjectVersion
1070
     0
  0
VISUALSTYLE
  5
659
102
{ACAD_XDICTIONARY
360
6BC
102
}
102
{ACAD_REACTORS
330
64D
102
}
330
64D
100
AcDbVisualStyle
  2
Brighten
 70
    12
 71
     2
 72
     2
 73
     0
 90
        0
 40
-0.6
 41
-30.0
 62
     5
 63
     7
 74
     1
 91
        4
 64
     7
 65
   257
 75
     1
175
     1
 42
1.0
 92
        8
 66
     7
 43
1.0
 76
     1
 77
     6
 78
     2
 67
     7
 79
     5
170
     0
171
     0
290
     0
174
     0
 93
        1
 44
50.0
173
     0
291
     1
 45
0.0
1001
ACAD
1000
AcDbSavedByObjectVersion
1070
     0
  0
VISUALSTYLE
  5
65D
102
{ACAD_XDICTIONARY
360
6C4
102
}
102
{ACAD_REACTORS
330
64D
102
}
330
64D
100
AcDbVisualStyle
  2
ColorChange
 70
    16
 71
     2
 72
     2
 73
     3
 90
        0
 40
-0.6
 41
-30.0
 62
     5
 63
     8
 74
     1
 91
        4
 64
     7
 65
   257
 75
     1
175
     1
 42
1.0
 92
        8
 66
     8
 43
1.0
 76
     1
 77
     6
 78
     2
 67
     7
 79
     5
170
     0
171
     0
290
     0
174
     0
 93
        1
 44
0.0
173
     0
291
     1
 45
0.0
1001
ACAD
1000
AcDbSavedByObjectVersion
1070
     0
  0
VISUALSTYLE
  5
656
102
{ACAD_XDICTIONARY
360
6B6
102
}
102
{ACAD_REACTORS
330
64D
102
}
330
64D
100
AcDbVisualStyle
  2
Conceptual
 70
     9
 71
     3
 72
     2
 73
     0
 90
        0
 40
-0.6
 41
-30.0
 62
     5
 63
     7
 74
     2
 91
        2
 64
     7
 65
   257
 75
     1
175
     1
 42
179.0
 92
        8
 66
     7
 43
1.0
 76
     1
 77
     6
 78
     2
 67
     7
 79
     3
170
     0
171
     0
290
     0
174
     0
 93
        1
 44
0.0
173
     0
291
     0
 45
0.0
1001
ACAD
1000
AcDbSavedByObjectVersion
1070
     0
  0
VISUALSTYLE
  5
658
102
{ACAD_XDICTIONARY
360
6BA
102
}
102
{ACAD_REACTORS
330
64D
102
}
330
64D
100
AcDbVisualStyle
  2
Dim
 70
    11
 71
     2
 72
     2
 73
     0
 90
        0
 40
-0.6
 41
-30.0
 62
     5
 63
     7
 74
     1
 91
        4
 64
     7
 65
   257
 75
     1
175
     1
 42
1.0
 92
        8
 66
     7
 43
1.0
 76
     1
 77
     6
 78
     2
 67
     7
 79
     5
170
     0
171
     0
290
     0
174
     0
 93
        1
 44
-50.0
173
     0
291
     1
 45
0.0
1001
ACAD
1000
AcDbSavedByObjectVersion
1070
     0
  0
VISUALSTYLE
  5
665
102
{ACAD_XDICTIONARY
360
6D4
102
}
102
{ACAD_REACTORS
330
64D
102
}
330
64D
100
AcDbVisualStyle
  2
EdgeColorOff
 70
    22
 71
     2
 72
     2
 73
     0
 90
        0
 40
-0.6
 41
-30.0
 62
     5
 63
     7
 74
     1
 91
        4
 64
     7
 65
   257
 75
     1
175
     1
 42
1.0
 92
        8
 66
     7
 43
1.0
 76
     1
 77
     6
 78
     2
 67
     7
 79
     5
170
     0
171
     0
290
     0
174
     0
 93
        1
 44
0.0
173
     0
291
     1
 45
0.0
1001
ACAD
1000
AcDbSavedByObjectVersion
1070
     0
  0
VISUALSTYLE
  5
65C
102
{ACAD_XDICTIONARY
360
6C2
102
}
102
{ACAD_REACTORS
330
64D
102
}
330
64D
100
AcDbVisualStyle
  2
Facepattern
 70
    15
 71
     2
 72
     2
 73
     0
 90
        0
 40
-0.6
 41
-30.0
 62
     5
 63
     7
 74
     1
 91
        4
 64
     7
 65
   257
 75
     1
175
     1
 42
1.0
 92
        8
 66
     7
 43
1.0
 76
     1
 77
     6
 78
     2
 67
     7
 79
     5
170
     0
171
     0
290
     0
174
     0
 93
        1
 44
0.0
173
     0
291
     1
 45
0.0
1001
ACAD
1000
AcDbSavedByObjectVersion
1070
     0
  0
VISUALSTYLE
  5
64E
102
{ACAD_XDICTIONARY
360
6A6
102
}
102
{ACAD_REACTORS
330
64D
102
}
330
64D
100
AcDbVisualStyle
  2
Flat
 70
     0
 71
     2
 72
     1
 73
     1
 90
        2
 40
-0.6
 41
30.0
 62
     5
 63
     7
 74
     0
 91
        0
 64
     7
 65
   257
 75
     1
175
     1
 42
1.0
 92
        8
 66
     7
 43
1.0
 76
     1
 77
     6
 78
     2
 67
     7
 79
     5
170
     0
171
     0
290
     0
174
     0
 93
       13
 44
0.0
173
     0
291
     1
 45
0.0
1001
ACAD
1000
AcDbSavedByObjectVersion
1070
     0
  0
VISUALSTYLE
  5
64F
102
{ACAD_XDICTIONARY
360
6A8
102
}
102
{ACAD_REACTORS
330
64D
102
}
330
64D
100
AcDbVisualStyle
  2
FlatWithEdges
 70
     1
 71
     2
 72
     1
 73
     1
 90
        2
 40
-0.6
 41
30.0
 62
     5
 63
     7
 74
     1
 91
        0
 64
     7
 65
   257
 75
     1
175
     1
 42
1.0
 92
        0
 66
   257
 43
1.0
 76
     1
 77
     6
 78
     2
 67
     7
 79
     5
170
     0
171
     0
290
     0
174
     0
 93
       13
 44
0.0
173
     0
291
     1
 45
0.0
1001
ACAD
1000
AcDbSavedByObjectVersion
1070
     0
  0
VISUALSTYLE
  5
650
102
{ACAD_XDICTIONARY
360
6AA
102
}
102
{ACAD_REACTORS
330
64D
102
}
330
64D
100
AcDbVisualStyle
  2
Gouraud
 70
     2
 71
     2
 72
     2
 73
     1
 90
        2
 40
-0.6
 41
30.0
 62
     5
 63
     7
 74
     0
 91
        0
 64
     7
 65
   257
 75
     1
175
     1
 42
1.0
 92
        0
 66
     7
 43
1.0
 76
     1
 77
     6
 78
     2
 67
     7
 79
     5
170
     0
171
     0
290
     0
174
     0
 93
       13
 44
0.0
173
     0
291
     1
 45
0.0
1001
ACAD
1000
AcDbSavedByObjectVersion
1070
     0
  0
VISUALSTYLE
  5
651
102
{ACAD_XDICTIONARY
360
6AC
102
}
102
{ACAD_REACTORS
330
64D
102
}
330
64D
100
AcDbVisualStyle
  2
GouraudWithEdges
 70
     3
 71
     2
 72
     2
 73
     1
 90
        2
 40
-0.6
 41
30.0
 62
     5
 63
     7
 74
     1
 91
        0
 64
     7
 65
   257
 75
     1
175
     1
 42
1.0
 92
        0
 66
   257
 43
1.0
 76
     1
 77
     6
 78
     2
 67
     7
 79
     5
170
     0
171
     0
290
     0
174
     0
 93
       13
 44
0.0
173
     0
291
     1
 45
0.0
1001
ACAD
1000
AcDbSavedByObjectVersion
1070
     0
  0
VISUALSTYLE
  5
655
102
{ACAD_XDICTIONARY
360
6B4
102
}
102
{ACAD_REACTORS
330
64D
102
}
330
64D
100
AcDbVisualStyle
  2
Hidden
 70
     6
 71
     1
 72
     2
 73
     2
 90
        0
 40
-0.6
 41
-30.0
 62
     5
 63
     7
 74
     2
 91
        2
 64
     7
 65
   257
 75
     2
175
     1
 42
40.0
 92
        0
 66
   257
 43
1.0
 76
     1
 77
     6
 78
     2
 67
     7
 79
     3
170
     0
171
     0
290
     0
174
     0
 93
        1
 44
0.0
173
     0
291
     0
 45
0.0
1001
ACAD
1000
AcDbSavedByObjectVersion
1070
     0
  0
VISUALSTYLE
  5
663
102
{ACAD_XDICTIONARY
360
6D0
102
}
102
{ACAD_REACTORS
330
64D
102
}
330
64D
100
AcDbVisualStyle
  2
JitterOff
 70
    20
 71
     2
 72
     2
 73
     0
 90
        0
 40
-0.6
 41
-30.0
 62
     5
 63
     7
 74
     1
 91
        4
 64
     7
 65
   257
 75
     1
175
     1
 42
1.0
 92
       10
 66
     7
 43
1.0
 76
     1
 77
     6
 78
     2
 67
     7
 79
     5
170
     0
171
     0
290
     0
174
     0
 93
        1
 44
0.0
173
     0
291
     1
 45
0.0
1001
ACAD
1000
AcDbSavedByObjectVersion
1070
     0
  0
VISUALSTYLE
  5
65B
102
{ACAD_XDICTIONARY
360
6C0
102
}
102
{ACAD_REACTORS
330
64D
102
}
330
64D
100
AcDbVisualStyle
  2
Linepattern
 70
    14
 71
     2
 72
     2
 73
     0
 90
        0
 40
-0.6
 41
-30.0
 62
     5
 63
     7
 74
     1
 91
        4
 64
     7
 65
   257
 75
     7
175
     7
 42
1.0
 92
        8
 66
     7
 43
1.0
 76
     1
 77
     6
 78
     2
 67
     7
 79
     5
170
     0
171
     0
290
     0
174
     0
 93
        1
 44
0.0
173
     0
291
     1
 45
0.0
1001
ACAD
1000
AcDbSavedByObjectVersion
1070
     0
  0
VISUALSTYLE
  5
664
102
{ACAD_XDICTIONARY
360
6D2
102
}
102
{ACAD_REACTORS
330
64D
102
}
330
64D
100
AcDbVisualStyle
  2
OverhangOff
 70
    21
 71
     2
 72
     2
 73
     0
 90
        0
 40
-0.6
 41
-30.0
 62
     5
 63
     7
 74
     1
 91
        4
 64
     7
 65
   257
 75
     1
175
     1
 42
1.0
 92
        9
 66
     7
 43
1.0
 76
     1
 77
     6
 78
     2
 67
     7
 79
     5
170
     0
171
     0
290
     0
174
     0
 93
        1
 44
0.0
173
     0
291
     1
 45
0.0
1001
ACAD
1000
AcDbSavedByObjectVersion
1070
     0
  0
VISUALSTYLE
  5
657
102
{ACAD_XDICTIONARY
360
6B8
102
}
102
{ACAD_REACTORS
330
64D
102
}
330
64D
100
AcDbVisualStyle
  2
Realistic
 70
     8
 71
     2
 72
     3
 73
     0
 90
        2
 40
-0.6
 41
30.0
 62
     5
 63
     7
 74
     0
 91
        0
 64
     7
 65
   257
 75
     1
175
     1
 42
1.0
 92
        8
 66
   257
 43
1.0
 76
     1
 77
     6
 78
     2
 67
     7
 79
     3
170
     0
171
     0
290
     0
174
     0
 93
       13
 44
0.0
173
     0
291
     0
 45
0.0
1001
ACAD
1000
AcDbSavedByObjectVersion
1070
     0
  0
VISUALSTYLE
  5
662
102
{ACAD_XDICTIONARY
360
6CE
102
}
102
{ACAD_REACTORS
330
64D
102
}
330
64D
100
AcDbVisualStyle
  2
Shaded
 70
    27
 71
     2
 72
     2
 73
     1
 90
        2
 40
-0.6
 41
30.0
 62
     5
 63
     7
 74
     0
 91
        4
 64
     7
 65
   257
 75
     1
175
     1
 42
1.0
 92
        8
 66
   257
 43
1.0
 76
     1
 77
     6
 78
     2
 67
     8
 79
     3
170
     0
171
     0
290
     0
174
     0
 93
        5
 44
0.0
173
     0
291
     0
 45
0.0
1001
ACAD
1000
AcDbSavedByObjectVersion
1070
     0
  0
VISUALSTYLE
  5
661
102
{ACAD_XDICTIONARY
360
6CC
102
}
102
{ACAD_REACTORS
330
64D
102
}
330
64D
100
AcDbVisualStyle
  2
Shaded with edges
 70
    26
 71
     2
 72
     2
 73
     1
 90
        2
 40
-0.6
 41
30.0
 62
     5
 63
     7
 74
     1
 91
       10
 64
     7
 65
   257
 75
     2
175
     1
 42
1.0
 92
        8
 66
   257
 43
1.0
 76
     1
 77
     6
 78
     2
 67
     7
 79
     3
170
     0
171
     0
290
     0
174
     0
 93
        5
 44
0.0
173
     0
291
     0
 45
0.0
1001
ACAD
1000
AcDbSavedByObjectVersion
1070
     0
  0
VISUALSTYLE
  5
65E
102
{ACAD_XDICTIONARY
360
6C6
102
}
102
{ACAD_REACTORS
330
64D
102
}
330
64D
100
AcDbVisualStyle
  2
Shades of Gray
 70
    23
 71
     2
 72
     2
 73
     3
 90
        0
 40
-0.6
 41
-30.0
 62
     5
 63
     7
 74
     2
 91
        2
 64
     7
 65
     7
 75
     1
175
     1
 42
40.0
 92
        8
 66
     7
 43
1.0
 76
     1
 77
     6
 78
     2
 67
     7
 79
     3
170
     0
171
     0
290
     0
174
     0
 93
        1
 44
0.0
173
     0
291
     0
 45
0.0
1001
ACAD
1000
AcDbSavedByObjectVersion
1070
     0
  0
VISUALSTYLE
  5
65F
102
{ACAD_XDICTIONARY
360
6C8
102
}
102
{ACAD_REACTORS
330
64D
102
}
330
64D
100
AcDbVisualStyle
  2
Sketchy
 70
    24
 71
     1
 72
     2
 73
     2
 90
        0
 40
-0.6
 41
-30.0
 62
     5
 63
     7
 74
     2
 91
        2
 64
     7
 65
     7
 75
     1
175
     1
 42
40.0
 92
       11
 66
     7
 43
1.0
 76
     1
 77
     6
 78
     2
 67
     7
 79
     6
170
     0
171
     0
290
     0
174
     0
 93
        1
 44
0.0
173
     0
291
     0
 45
0.0
1001
ACAD
1000
AcDbSavedByObjectVersion
1070
     0
  0
VISUALSTYLE
  5
65A
102
{ACAD_XDICTIONARY
360
6BE
102
}
102
{ACAD_REACTORS
330
64D
102
}
330
64D
100
AcDbVisualStyle
  2
Thicken
 70
    13
 71
     2
 72
     2
 73
     0
 90
        0
 40
-0.6
 41
-30.0
 62
     5
 63
     7
 74
     1
 91
        4
 64
     7
 65
   257
 75
     1
175
     1
 42
1.0
 92
       12
 66
     7
 43
1.0
 76
     1
 77
     6
 78
     2
 67
     7
 79
     5
170
     0
171
     0
290
     0
174
     0
 93
        1
 44
0.0
173
     0
291
     1
 45
0.0
1001
ACAD
1000
AcDbSavedByObjectVersion
1070
     0
  0
VISUALSTYLE
  5
654
102
{ACAD_XDICTIONARY
360
6B2
102
}
102
{ACAD_REACTORS
330
64D
102
}
330
64D
100
AcDbVisualStyle
  2
Wireframe
 70
     5
 71
     0
 72
     2
 73
     0
 90
        0
 40
-0.6
 41
-30.0
 62
     5
 63
     7
 74
     1
 91
        4
 64
     7
 65
   257
 75
     1
175
     1
 42
1.0
 92
        0
 66
   257
 43
1.0
 76
     1
 77
     6
 78
     2
 67
     7
 79
     3
170
     0
171
     0
290
     0
174
     0
 93
        1
 44
0.0
173
     0
291
     0
 45
0.0
1001
ACAD
1000
AcDbSavedByObjectVersion
1070
     0
  0
VISUALSTYLE
  5
660
102
{ACAD_XDICTIONARY
360
6CA
102
}
102
{ACAD_REACTORS
330
64D
102
}
330
64D
100
AcDbVisualStyle
  2
X-Ray
 70
    25
 71
     2
 72
     2
 73
     1
 90
        1
 40
0.5
 41
-30.0
 62
     5
 63
     7
 74
     1
 91
        0
 64
     7
 65
   257
 75
     1
175
     1
 42
1.0
 92
        8
 66
     7
 43
1.0
 76
     1
 77
     6
 78
     2
 67
     7
 79
     3
170
     0
171
     0
290
     0
174
     0
 93
       13
 44
0.0
173
     0
291
     0
 45
0.0
1001
ACAD
1000
AcDbSavedByObjectVersion
1070
     0
  0
DICTIONARYVAR
  5
699
102
{ACAD_REACTORS
330
694
102
}
330
694
100
DictionaryVariables
280
     0
  1
1:1
  0
DICTIONARYVAR
  5
696
102
{ACAD_REACTORS
330
694
102
}
330
694
100
DictionaryVariables
280
     0
  1
STANDARD
  0
DICTIONARYVAR
  5
695
102
{ACAD_REACTORS
330
694
102
}
330
694
100
DictionaryVariables
280
     0
  1
STANDARD
  0
DICTIONARYVAR
  5
697
102
{ACAD_REACTORS
330
694
102
}
330
694
100
DictionaryVariables
280
     0
  1
Imperial24
  0
DICTIONARYVAR
  5
698
102
{ACAD_REACTORS
330
694
102
}
330
694
100
DictionaryVariables
280
     0
  1
Imperial24
  0
DICTIONARYVAR
  5
69C
102
{ACAD_REACTORS
330
694
102
}
330
694
100
DictionaryVariables
280
     0
  1
1
  0
DICTIONARYVAR
  5
69B
102
{ACAD_REACTORS
330
694
102
}
330
694
100
DictionaryVariables
280
     0
  1
0
  0
DICTIONARYVAR
  5
69A
102
{ACAD_REACTORS
330
694
102
}
330
694
100
DictionaryVariables
280
     0
  1
127
  0
DICTIONARYVAR
  5
69D
102
{ACAD_REACTORS
330
694
102
}
330
694
100
DictionaryVariables
280
     0
  1
2
  0
DICTIONARY
  5
6DA
330
680
100
AcDbDictionary
280
     1
281
     1
  3
ACAD_XREC_ROUNDTRIP
360
6DB
  0
DICTIONARY
  5
6DC
330
681
100
AcDbDictionary
280
     1
281
     1
  3
ACAD_XREC_ROUNDTRIP
360
6DD
  0
DICTIONARY
  5
6DE
330
682
100
AcDbDictionary
280
     1
281
     1
  3
ACAD_XREC_ROUNDTRIP
360
6DF
  0
DICTIONARY
  5
63E
330
63D
100
AcDbDictionary
280
     1
281
     1
  3
ACAD_XREC_ROUNDTRIP
360
6A4
  3
BUMPTILE
360
640
  3
DIFFUSETILE
360
63F
  3
OPACITYTILE
360
643
  3
REFLECTIONTILE
360
642
  3
REFRACTIONTILE
360
644
  3
SPECULARTILE
360
641
  0
DICTIONARY
  5
636
330
635
100
AcDbDictionary
280
     1
281
     1
  3
ACAD_XREC_ROUNDTRIP
360
6A3
  3
BUMPTILE
360
638
  3
DIFFUSETILE
360
637
  3
OPACITYTILE
360
63B
  3
REFLECTIONTILE
360
63A
  3
REFRACTIONTILE
360
63C
  3
SPECULARTILE
360
639
  0
DICTIONARY
  5
646
330
645
100
AcDbDictionary
280
     1
281
     1
  3
ACAD_XREC_ROUNDTRIP
360
6A5
  3
BUMPTILE
360
648
  3
DIFFUSETILE
360
647
  3
OPACITYTILE
360
64B
  3
REFLECTIONTILE
360
64A
  3
REFRACTIONTILE
360
64C
  3
SPECULARTILE
360
649
  0
DICTIONARY
  5
6D8
330
67E
100
AcDbDictionary
280
     1
281
     1
  3
ACAD_XREC_ROUNDTRIP
360
6D9
  0
DICTIONARY
  5
69F
330
668
100
AcDbDictionary
280
     1
281
     1
  3
ACAD_ROUNDTRIP_2008_TABLESTYLE_CELLSTYLEMAP
360
6A0
  3
ACAD_XREC_ROUNDTRIP
360
6D6
  0
DICTIONARY
  5
6B0
330
653
100
AcDbDictionary
280
     1
281
     1
  3
ACAD_XREC_ROUNDTRIP
360
6B1
  0
DICTIONARY
  5
6AE
330
652
100
AcDbDictionary
280
     1
281
     1
  3
ACAD_XREC_ROUNDTRIP
360
6AF
  0
DICTIONARY
  5
6BC
330
659
100
AcDbDictionary
280
     1
281
     1
  3
ACAD_XREC_ROUNDTRIP
360
6BD
  0
DICTIONARY
  5
6C4
330
65D
100
AcDbDictionary
280
     1
281
     1
  3
ACAD_XREC_ROUNDTRIP
360
6C5
  0
DICTIONARY
  5
6B6
330
656
100
AcDbDictionary
280
     1
281
     1
  3
ACAD_XREC_ROUNDTRIP
360
6B7
  0
DICTIONARY
  5
6BA
330
658
100
AcDbDictionary
280
     1
281
     1
  3
ACAD_XREC_ROUNDTRIP
360
6BB
  0
DICTIONARY
  5
6D4
330
665
100
AcDbDictionary
280
     1
281
     1
  3
ACAD_XREC_ROUNDTRIP
360
6D5
  0
DICTIONARY
  5
6C2
330
65C
100
AcDbDictionary
280
     1
281
     1
  3
ACAD_XREC_ROUNDTRIP
360
6C3
  0
DICTIONARY
  5
6A6
330
64E
100
AcDbDictionary
280
     1
281
     1
  3
ACAD_XREC_ROUNDTRIP
360
6A7
  0
DICTIONARY
  5
6A8
330
64F
100
AcDbDictionary
280
     1
281
     1
  3
ACAD_XREC_ROUNDTRIP
360
6A9
  0
DICTIONARY
  5
6AA
330
650
100
AcDbDictionary
280
     1
281
     1
  3
ACAD_XREC_ROUNDTRIP
360
6AB
  0
DICTIONARY
  5
6AC
330
651
100
AcDbDictionary
280
     1
281
     1
  3
ACAD_XREC_ROUNDTRIP
360
6AD
  0
DICTIONARY
  5
6B4
330
655
100
AcDbDictionary
280
     1
281
     1
  3
ACAD_XREC_ROUNDTRIP
360
6B5
  0
DICTIONARY
  5
6D0
330
663
100
AcDbDictionary
280
     1
281
     1
  3
ACAD_XREC_ROUNDTRIP
360
6D1
  0
DICTIONARY
  5
6C0
330
65B
100
AcDbDictionary
280
     1
281
     1
  3
ACAD_XREC_ROUNDTRIP
360
6C1
  0
DICTIONARY
  5
6D2
330
664
100
AcDbDictionary
280
     1
281
     1
  3
ACAD_XREC_ROUNDTRIP
360
6D3
  0
DICTIONARY
  5
6B8
330
657
100
AcDbDictionary
280
     1
281
     1
  3
ACAD_XREC_ROUNDTRIP
360
6B9
  0
DICTIONARY
  5
6CE
330
662
100
AcDbDictionary
280
     1
281
     1
  3
ACAD_XREC_ROUNDTRIP
360
6CF
  0
DICTIONARY
  5
6CC
330
661
100
AcDbDictionary
280
     1
281
     1
  3
ACAD_XREC_ROUNDTRIP
360
6CD
  0
DICTIONARY
  5
6C6
330
65E
100
AcDbDictionary
280
     1
281
     1
  3
ACAD_XREC_ROUNDTRIP
360
6C7
  0
DICTIONARY
  5
6C8
330
65F
100
AcDbDictionary
280
     1
281
     1
  3
ACAD_XREC_ROUNDTRIP
360
6C9
  0
DICTIONARY
  5
6BE
330
65A
100
AcDbDictionary
280
     1
281
     1
  3
ACAD_XREC_ROUNDTRIP
360
6BF
  0
DICTIONARY
  5
6B2
330
654
100
AcDbDictionary
280
     1
281
     1
  3
ACAD_XREC_ROUNDTRIP
360
6B3
  0
DICTIONARY
  5
6CA
330
660
100
AcDbDictionary
280
     1
281
     1
  3
ACAD_XREC_ROUNDTRIP
360
6CB
  0
XRECORD
  5
6DB
102
{ACAD_REACTORS
330
6DA
102
}
330
6DA
100
AcDbXrecord
280
     1
102
DISPLAYNAME
  1
Imperial24
102
FLAGS
 90
        0
  0
XRECORD
  5
6DD
102
{ACAD_REACTORS
330
6DC
102
}
330
6DC
100
AcDbXrecord
280
     1
102
SHADEPLOT
 70
     0
102
SHADEPLOTRESLEVEL
 70
     2
102
SHADEPLOTCUSTOMDPI
 70
   300
  0
XRECORD
  5
6DF
102
{ACAD_REACTORS
330
6DE
102
}
330
6DE
100
AcDbXrecord
280
     1
102
SHADEPLOT
 70
     0
102
SHADEPLOTRESLEVEL
 70
     2
102
SHADEPLOTCUSTOMDPI
 70
   300
  0
XRECORD
  5
6A4
102
{ACAD_REACTORS
330
63E
102
}
330
63E
100
AcDbXrecord
280
     1
102
MATERIAL
148
0.0
149
0.0
149
0.0
 93
        0
 94
      127
282
     0
 72
     0
 77
     0
171
     0
175
     0
179
     0
273
     0
  0
XRECORD
  5
640
102
{ACAD_REACTORS
330
63E
102
}
330
63E
100
AcDbXrecord
280
     1
270
     1
271
     1
  0
XRECORD
  5
63F
102
{ACAD_REACTORS
330
63E
102
}
330
63E
100
AcDbXrecord
280
     1
270
     1
271
     1
  0
XRECORD
  5
643
102
{ACAD_REACTORS
330
63E
102
}
330
63E
100
AcDbXrecord
280
     1
270
     1
271
     1
  0
XRECORD
  5
642
102
{ACAD_REACTORS
330
63E
102
}
330
63E
100
AcDbXrecord
280
     1
270
     1
271
     1
  0
XRECORD
  5
644
102
{ACAD_REACTORS
330
63E
102
}
330
63E
100
AcDbXrecord
280
     1
270
     1
271
     1
  0
XRECORD
  5
641
102
{ACAD_REACTORS
330
63E
102
}
330
63E
100
AcDbXrecord
280
     1
270
     1
271
     1
  0
XRECORD
  5
6A3
102
{ACAD_REACTORS
330
636
102
}
330
636
100
AcDbXrecord
280
     1
102
MATERIAL
148
0.0
149
0.0
149
0.0
 93
        0
 94
      127
282
     0
 72
     0
 77
     0
171
     0
175
     0
179
     0
273
     0
  0
XRECORD
  5
638
102
{ACAD_REACTORS
330
636
102
}
330
636
100
AcDbXrecord
280
     1
270
     1
271
     1
  0
XRECORD
  5
637
102
{ACAD_REACTORS
330
636
102
}
330
636
100
AcDbXrecord
280
     1
270
     1
271
     1
  0
XRECORD
  5
63B
102
{ACAD_REACTORS
330
636
102
}
330
636
100
AcDbXrecord
280
     1
270
     1
271
     1
  0
XRECORD
  5
63A
102
{ACAD_REACTORS
330
636
102
}
330
636
100
AcDbXrecord
280
     1
270
     1
271
     1
  0
XRECORD
  5
63C
102
{ACAD_REACTORS
330
636
102
}
330
636
100
AcDbXrecord
280
     1
270
     1
271
     1
  0
XRECORD
  5
639
102
{ACAD_REACTORS
330
636
102
}
330
636
100
AcDbXrecord
280
     1
270
     1
271
     1
  0
XRECORD
  5
6A5
102
{ACAD_REACTORS
330
646
102
}
330
646
100
AcDbXrecord
280
     1
102
MATERIAL
148
0.0
149
0.0
149
0.0
 93
        0
 94
      127
282
     0
 72
     0
 77
     0
171
     0
175
     0
179
     0
273
     0
  0
XRECORD
  5
648
102
{ACAD_REACTORS
330
646
102
}
330
646
100
AcDbXrecord
280
     1
270
     1
271
     1
  0
XRECORD
  5
647
102
{ACAD_REACTORS
330
646
102
}
330
646
100
AcDbXrecord
280
     1
270
     1
271
     1
  0
XRECORD
  5
64B
102
{ACAD_REACTORS
330
646
102
}
330
646
100
AcDbXrecord
280
     1
270
     1
271
     1
  0
XRECORD
  5
64A
102
{ACAD_REACTORS
330
646
102
}
330
646
100
AcDbXrecord
280
     1
270
     1
271
     1
  0
XRECORD
  5
64C
102
{ACAD_REACTORS
330
646
102
}
330
646
100
AcDbXrecord
280
     1
270
     1
271
     1
  0
XRECORD
  5
649
102
{ACAD_REACTORS
330
646
102
}
330
646
100
AcDbXrecord
280
     1
270
     1
271
     1
  0
XRECORD
  5
6D9
102
{ACAD_REACTORS
330
6D8
102
}
330
6D8
100
AcDbXrecord
280
     1
102
DISPLAYNAME
  1
Imperial24
102
FLAGS
 90
        0
  0
CELLSTYLEMAP
  5
6A0
102
{ACAD_REACTORS
330
69F
102
}
330
69F
100
AcDbCellStyleMap
 90
        3
300
CELLSTYLE
  1
TABLEFORMAT_BEGIN
 90
        5
170
     1
 91
        0
 92
    32768
 62
   257
 93
        1
300
CONTENTFORMAT
  1
CONTENTFORMAT_BEGIN
 90
        0
 91
        0
 92
      512
 93
        0
300

 40
0.0
140
1.0
 94
        5
 62
     0
340
F
144
0.25
309
CONTENTFORMAT_END
171
     0
 94
        0
309
TABLEFORMAT_END
  1
CELLSTYLE_BEGIN
 90
        1
 91
        1
300
_TITLE
309
CELLSTYLE_END
300
CELLSTYLE
  1
TABLEFORMAT_BEGIN
 90
        5
170
     1
 91
        0
 92
        0
 62
   257
 93
        1
300
CONTENTFORMAT
  1
CONTENTFORMAT_BEGIN
 90
        0
 91
        0
 92
      512
 93
        0
300

 40
0.0
140
1.0
 94
        5
 62
     0
340
F
144
0.18
309
CONTENTFORMAT_END
171
     0
 94
        0
309
TABLEFORMAT_END
  1
CELLSTYLE_BEGIN
 90
        2
 91
        1
300
_HEADER
309
CELLSTYLE_END
300
CELLSTYLE
  1
TABLEFORMAT_BEGIN
 90
        5
170
     1
 91
        0
 92
        0
 62
   257
 93
        1
300
CONTENTFORMAT
  1
CONTENTFORMAT_BEGIN
 90
        0
 91
        0
 92
      512
 93
        0
300

 40
0.0
140
1.0
 94
        2
 62
     0
340
F
144
0.18
309
CONTENTFORMAT_END
171
     0
 94
        0
309
TABLEFORMAT_END
  1
CELLSTYLE_BEGIN
 90
        3
 91
        2
300
_DATA
309
CELLSTYLE_END
  0
XRECORD
  5
6D6
102
{ACAD_REACTORS
330
69F
102
}
330
69F
100
AcDbXrecord
280
     1
102
ACAD_ROUNDTRIP_PRE2007_TABLESTYLE
 90
      512
 91
        0
  1

 92
      512
 93
        0
  2

 94
      512
 95
        0
  3

  0
XRECORD
  5
6B1
102
{ACAD_REACTORS
330
6B0
102
}
330
6B0
100
AcDbXrecord
280
     1
102
RTVSPost2010Prop28
280
     1
102
RTVSPost2010PropOp28
 70
     1
102
RTVSPost2010Prop29
280
     1
102
RTVSPost2010PropOp29
 70
     1
102
RTVSPost2010Prop30
280
     0
102
RTVSPost2010PropOp30
 70
     1
102
RTVSPost2010Prop31
280
     0
102
RTVSPost2010PropOp31
 70
     1
102
RTVSPost2010Prop32
280
     0
102
RTVSPost2010PropOp32
 70
     1
102
RTVSPost2010Prop33
280
     0
102
RTVSPost2010PropOp33
 70
     1
102
RTVSPost2010Prop34
280
     0
102
RTVSPost2010PropOp34
 70
     1
102
RTVSPost2010Prop35
280
     0
102
RTVSPost2010PropOp35
 70
     1
102
RTVSPost2010Prop36
280
     0
102
RTVSPost2010PropOp36
 70
     1
102
RTVSPost2010Prop37
 90
       50
102
RTVSPost2010PropOp37
 70
     1
102
RTVSPost2010Prop38
140
0.0
102
RTVSPost2010PropOp38
 70
     1
102
RTVSPost2010Prop39
140
1.0
102
RTVSPost2010PropOp39
 70
     1
102
RTVSPost2010Prop40
 90
        0
102
RTVSPost2010PropOp40
 70
     1
102
RTVSPost2010Prop41ColorIndex
 90
       18
102
RTVSPost2010Prop41ColorRGB
 90
        0
102
RTVSPost2010PropOp41
 70
     1
102
RTVSPost2010Prop42
 90
       50
102
RTVSPost2010PropOp42
 70
     1
102
RTVSPost2010Prop43
 90
        3
102
RTVSPost2010PropOp43
 70
     1
102
RTVSPost2010Prop44ColorIndex
 90
        5
102
RTVSPost2010Prop44ColorRGB
 90
      255
102
RTVSPost2010PropOp44
 70
     1
102
RTVSPost2010Prop45
280
     0
102
RTVSPost2010PropOp45
 70
     1
102
RTVSPost2010Prop46
 90
       50
102
RTVSPost2010PropOp46
 70
     1
102
RTVSPost2010Prop47
 90
       50
102
RTVSPost2010PropOp47
 70
     1
102
RTVSPost2010Prop48
 90
       50
102
RTVSPost2010PropOp48
 70
     1
102
RTVSPost2010Prop49
280
     0
102
RTVSPost2010PropOp49
 70
     1
102
RTVSPost2010Prop50
 90
       50
102
RTVSPost2010PropOp50
 70
     1
102
RTVSPost2010Prop51ColorIndex
 90
      256
102
RTVSPost2010Prop51ColorRGB
 90
-16777216
102
RTVSPost2010PropOp51
 70
     0
102
RTVSPost2010Prop52
140
1.0
102
RTVSPost2010PropOp52
 70
     0
102
RTVSPost2010Prop53
 90
        2
102
RTVSPost2010PropOp53
 70
     1
102
RTVSPost2010Prop54
  1
strokes_ogs.tif
102
RTVSPost2010PropOp54
 70
     1
102
RTVSPost2010Prop55
280
     0
102
RTVSPost2010PropOp55
 70
     1
102
RTVSPost2010Prop56
140
1.0
102
RTVSPost2010PropOp56
 70
     1
102
RTVSPost2010Prop57
140
1.0
102
RTVSPost2010PropOp57
 70
     1
102
RTVSPropertyOp0
 70
     1
102
RTVSPropertyOp1
 70
     1
102
RTVSPropertyOp2
 70
     1
102
RTVSPropertyOp3
 70
     1
102
RTVSPropertyOp4
 70
     1
102
RTVSPropertyOp5
 70
     1
102
RTVSPropertyOp6
 70
     1
102
RTVSPropertyOp7
 70
     1
102
RTVSPropertyOp8
 70
     1
102
RTVSPropertyOp9
 70
     1
102
RTVSPropertyOp10
 70
     1
102
RTVSPropertyOp11
 70
     1
102
RTVSPropertyOp12
 70
     1
102
RTVSPropertyOp13
 70
     1
102
RTVSPropertyOp14
 70
     1
102
RTVSPropertyOp15
 70
     1
102
RTVSPropertyOp16
 70
     1
102
RTVSPropertyOp17
 70
     1
102
RTVSPropertyOp18
 70
     1
102
RTVSPropertyOp19
 70
     1
102
RTVSPropertyOp20
 70
     1
102
RTVSPropertyOp21
 70
     1
102
RTVSPropertyOp22
 70
     1
102
RTVSPropertyOp23
 70
     1
102
RTVSPropertyOp24
 70
     1
102
RTVSPropertyOp25
 70
     1
102
RTVSPropertyOp26
 70
     1
102
RTVSPropertyOp27
 70
     1
102
RTVSPropertyOp28
 70
     1
102
RTVSPropertyOp29
 70
     1
102
RTVSPropertyOp30
 70
     1
102
RTVSPropertyOp31
 70
     1
102
RTVSPropertyOp32
 70
     1
102
RTVSPropertyOp33
 70
     1
102
RTVSPropertyOp34
 70
     1
102
RTVSPropertyOp35
 70
     1
102
RTVSPropertyOp36
 70
     1
102
RTVSPropertyOp37
 70
     1
102
RTVSPropertyOp38
 70
     1
102
RTVSPropertyOp39
 70
     1
102
RTVSPropertyOp40
 70
     1
102
RTVSPropertyOp41
 70
     1
102
RTVSPropertyOp42
 70
     1
102
RTVSPropertyOp43
 70
     1
102
RTVSPropertyOp44
 70
     1
102
RTVSPropertyOp45
 70
     1
102
RTVSPropertyOp46
 70
     1
102
RTVSPropertyOp47
 70
     1
102
RTVSPropertyOp48
 70
     1
102
RTVSPropertyOp49
 70
     1
102
RTVSPropertyOp50
 70
     1
102
RTVSPropertyOp51
 70
     0
102
RTVSPropertyOp52
 70
     0
102
RTVSPropertyOp53
 70
     1
102
RTVSPropertyOp54
 70
     1
102
RTVSPropertyOp55
 70
     1
102
RTVSPropertyOp56
 70
     1
102
RTVSPropertyOp57
 70
     1
102
RTVSPropertyOp58
 70
     1
102
RTVSPropertyOp59
 70
     1
102
RTVSPropertyOp60
 70
     1
102
RTVSPropertyOp61
 70
     1
102
RTVSPropertyOp62
 70
     1
  0
XRECORD
  5
6AF
102
{ACAD_REACTORS
330
6AE
102
}
330
6AE
100
AcDbXrecord
280
     1
102
RTVSPost2010Prop28
280
     0
102
RTVSPost2010PropOp28
 70
     1
102
RTVSPost2010Prop29
280
     1
102
RTVSPost2010PropOp29
 70
     1
102
RTVSPost2010Prop30
280
     1
102
RTVSPost2010PropOp30
 70
     1
102
RTVSPost2010Prop31
280
     0
102
RTVSPost2010PropOp31
 70
     1
102
RTVSPost2010Prop32
280
     0
102
RTVSPost2010PropOp32
 70
     1
102
RTVSPost2010Prop33
280
     0
102
RTVSPost2010PropOp33
 70
     1
102
RTVSPost2010Prop34
280
     0
102
RTVSPost2010PropOp34
 70
     1
102
RTVSPost2010Prop35
280
     0
102
RTVSPost2010PropOp35
 70
     1
102
RTVSPost2010Prop36
280
     0
102
RTVSPost2010PropOp36
 70
     1
102
RTVSPost2010Prop37
 90
       50
102
RTVSPost2010PropOp37
 70
     1
102
RTVSPost2010Prop38
140
0.0
102
RTVSPost2010PropOp38
 70
     1
102
RTVSPost2010Prop39
140
1.0
102
RTVSPost2010PropOp39
 70
     1
102
RTVSPost2010Prop40
 90
        0
102
RTVSPost2010PropOp40
 70
     1
102
RTVSPost2010Prop41ColorIndex
 90
       18
102
RTVSPost2010Prop41ColorRGB
 90
        0
102
RTVSPost2010PropOp41
 70
     1
102
RTVSPost2010Prop42
 90
       50
102
RTVSPost2010PropOp42
 70
     1
102
RTVSPost2010Prop43
 90
        3
102
RTVSPost2010PropOp43
 70
     1
102
RTVSPost2010Prop44ColorIndex
 90
        5
102
RTVSPost2010Prop44ColorRGB
 90
      255
102
RTVSPost2010PropOp44
 70
     1
102
RTVSPost2010Prop45
280
     0
102
RTVSPost2010PropOp45
 70
     1
102
RTVSPost2010Prop46
 90
       50
102
RTVSPost2010PropOp46
 70
     1
102
RTVSPost2010Prop47
 90
       50
102
RTVSPost2010PropOp47
 70
     1
102
RTVSPost2010Prop48
 90
       50
102
RTVSPost2010PropOp48
 70
     1
102
RTVSPost2010Prop49
280
     0
102
RTVSPost2010PropOp49
 70
     1
102
RTVSPost2010Prop50
 90
       50
102
RTVSPost2010PropOp50
 70
     1
102
RTVSPost2010Prop51ColorIndex
 90
      256
102
RTVSPost2010Prop51ColorRGB
 90
-16777216
102
RTVSPost2010PropOp51
 70
     0
102
RTVSPost2010Prop52
140
1.0
102
RTVSPost2010PropOp52
 70
     0
102
RTVSPost2010Prop53
 90
        2
102
RTVSPost2010PropOp53
 70
     1
102
RTVSPost2010Prop54
  1
strokes_ogs.tif
102
RTVSPost2010PropOp54
 70
     1
102
RTVSPost2010Prop55
280
     0
102
RTVSPost2010PropOp55
 70
     1
102
RTVSPost2010Prop56
140
1.0
102
RTVSPost2010PropOp56
 70
     1
102
RTVSPost2010Prop57
140
1.0
102
RTVSPost2010PropOp57
 70
     1
102
RTVSPropertyOp0
 70
     1
102
RTVSPropertyOp1
 70
     1
102
RTVSPropertyOp2
 70
     1
102
RTVSPropertyOp3
 70
     1
102
RTVSPropertyOp4
 70
     1
102
RTVSPropertyOp5
 70
     1
102
RTVSPropertyOp6
 70
     1
102
RTVSPropertyOp7
 70
     1
102
RTVSPropertyOp8
 70
     1
102
RTVSPropertyOp9
 70
     1
102
RTVSPropertyOp10
 70
     1
102
RTVSPropertyOp11
 70
     1
102
RTVSPropertyOp12
 70
     1
102
RTVSPropertyOp13
 70
     1
102
RTVSPropertyOp14
 70
     1
102
RTVSPropertyOp15
 70
     1
102
RTVSPropertyOp16
 70
     1
102
RTVSPropertyOp17
 70
     1
102
RTVSPropertyOp18
 70
     1
102
RTVSPropertyOp19
 70
     1
102
RTVSPropertyOp20
 70
     1
102
RTVSPropertyOp21
 70
     1
102
RTVSPropertyOp22
 70
     1
102
RTVSPropertyOp23
 70
     1
102
RTVSPropertyOp24
 70
     1
102
RTVSPropertyOp25
 70
     1
102
RTVSPropertyOp26
 70
     1
102
RTVSPropertyOp27
 70
     1
102
RTVSPropertyOp28
 70
     1
102
RTVSPropertyOp29
 70
     1
102
RTVSPropertyOp30
 70
     1
102
RTVSPropertyOp31
 70
     1
102
RTVSPropertyOp32
 70
     1
102
RTVSPropertyOp33
 70
     1
102
RTVSPropertyOp34
 70
     1
102
RTVSPropertyOp35
 70
     1
102
RTVSPropertyOp36
 70
     1
102
RTVSPropertyOp37
 70
     1
102
RTVSPropertyOp38
 70
     1
102
RTVSPropertyOp39
 70
     1
102
RTVSPropertyOp40
 70
     1
102
RTVSPropertyOp41
 70
     1
102
RTVSPropertyOp42
 70
     1
102
RTVSPropertyOp43
 70
     1
102
RTVSPropertyOp44
 70
     1
102
RTVSPropertyOp45
 70
     1
102
RTVSPropertyOp46
 70
     1
102
RTVSPropertyOp47
 70
     1
102
RTVSPropertyOp48
 70
     1
102
RTVSPropertyOp49
 70
     1
102
RTVSPropertyOp50
 70
     1
102
RTVSPropertyOp51
 70
     0
102
RTVSPropertyOp52
 70
     0
102
RTVSPropertyOp53
 70
     1
102
RTVSPropertyOp54
 70
     1
102
RTVSPropertyOp55
 70
     1
102
RTVSPropertyOp56
 70
     1
102
RTVSPropertyOp57
 70
     1
102
RTVSPropertyOp58
 70
     1
102
RTVSPropertyOp59
 70
     1
102
RTVSPropertyOp60
 70
     1
102
RTVSPropertyOp61
 70
     1
102
RTVSPropertyOp62
 70
     1
  0
XRECORD
  5
6BD
102
{ACAD_REACTORS
330
6BC
102
}
330
6BC
100
AcDbXrecord
280
     1
102
RTVSPost2010Prop28
280
     0
102
RTVSPost2010PropOp28
 70
     1
102
RTVSPost2010Prop29
280
     1
102
RTVSPost2010PropOp29
 70
     1
102
RTVSPost2010Prop30
280
     1
102
RTVSPost2010PropOp30
 70
     1
102
RTVSPost2010Prop31
280
     0
102
RTVSPost2010PropOp31
 70
     1
102
RTVSPost2010Prop32
280
     0
102
RTVSPost2010PropOp32
 70
     1
102
RTVSPost2010Prop33
280
     0
102
RTVSPost2010PropOp33
 70
     1
102
RTVSPost2010Prop34
280
     0
102
RTVSPost2010PropOp34
 70
     1
102
RTVSPost2010Prop35
280
     0
102
RTVSPost2010PropOp35
 70
     1
102
RTVSPost2010Prop36
280
     0
102
RTVSPost2010PropOp36
 70
     1
102
RTVSPost2010Prop37
 90
       50
102
RTVSPost2010PropOp37
 70
     1
102
RTVSPost2010Prop38
140
0.0
102
RTVSPost2010PropOp38
 70
     1
102
RTVSPost2010Prop39
140
1.0
102
RTVSPost2010PropOp39
 70
     1
102
RTVSPost2010Prop40
 90
        0
102
RTVSPost2010PropOp40
 70
     1
102
RTVSPost2010Prop41ColorIndex
 90
       18
102
RTVSPost2010Prop41ColorRGB
 90
        0
102
RTVSPost2010PropOp41
 70
     1
102
RTVSPost2010Prop42
 90
       50
102
RTVSPost2010PropOp42
 70
     1
102
RTVSPost2010Prop43
 90
        3
102
RTVSPost2010PropOp43
 70
     1
102
RTVSPost2010Prop44ColorIndex
 90
        5
102
RTVSPost2010Prop44ColorRGB
 90
      255
102
RTVSPost2010PropOp44
 70
     1
102
RTVSPost2010Prop45
280
     0
102
RTVSPost2010PropOp45
 70
     1
102
RTVSPost2010Prop46
 90
       50
102
RTVSPost2010PropOp46
 70
     1
102
RTVSPost2010Prop47
 90
       50
102
RTVSPost2010PropOp47
 70
     1
102
RTVSPost2010Prop48
 90
       50
102
RTVSPost2010PropOp48
 70
     1
102
RTVSPost2010Prop49
280
     0
102
RTVSPost2010PropOp49
 70
     1
102
RTVSPost2010Prop50
 90
       50
102
RTVSPost2010PropOp50
 70
     1
102
RTVSPost2010Prop51ColorIndex
 90
      256
102
RTVSPost2010Prop51ColorRGB
 90
-16777216
102
RTVSPost2010PropOp51
 70
     0
102
RTVSPost2010Prop52
140
1.0
102
RTVSPost2010PropOp52
 70
     0
102
RTVSPost2010Prop53
 90
        2
102
RTVSPost2010PropOp53
 70
     1
102
RTVSPost2010Prop54
  1
strokes_ogs.tif
102
RTVSPost2010PropOp54
 70
     1
102
RTVSPost2010Prop55
280
     0
102
RTVSPost2010PropOp55
 70
     1
102
RTVSPost2010Prop56
140
1.0
102
RTVSPost2010PropOp56
 70
     1
102
RTVSPost2010Prop57
140
1.0
102
RTVSPost2010PropOp57
 70
     1
102
RTVSPropertyOp0
 70
     1
102
RTVSPropertyOp1
 70
     1
102
RTVSPropertyOp2
 70
     1
102
RTVSPropertyOp3
 70
     1
102
RTVSPropertyOp4
 70
     1
102
RTVSPropertyOp5
 70
     1
102
RTVSPropertyOp6
 70
     1
102
RTVSPropertyOp7
 70
     1
102
RTVSPropertyOp8
 70
     1
102
RTVSPropertyOp9
 70
     1
102
RTVSPropertyOp10
 70
     1
102
RTVSPropertyOp11
 70
     1
102
RTVSPropertyOp12
 70
     1
102
RTVSPropertyOp13
 70
     1
102
RTVSPropertyOp14
 70
     1
102
RTVSPropertyOp15
 70
     1
102
RTVSPropertyOp16
 70
     1
102
RTVSPropertyOp17
 70
     1
102
RTVSPropertyOp18
 70
     1
102
RTVSPropertyOp19
 70
     1
102
RTVSPropertyOp20
 70
     1
102
RTVSPropertyOp21
 70
     1
102
RTVSPropertyOp22
 70
     1
102
RTVSPropertyOp23
 70
     1
102
RTVSPropertyOp24
 70
     1
102
RTVSPropertyOp25
 70
     1
102
RTVSPropertyOp26
 70
     1
102
RTVSPropertyOp27
 70
     1
102
RTVSPropertyOp28
 70
     1
102
RTVSPropertyOp29
 70
     1
102
RTVSPropertyOp30
 70
     1
102
RTVSPropertyOp31
 70
     1
102
RTVSPropertyOp32
 70
     1
102
RTVSPropertyOp33
 70
     1
102
RTVSPropertyOp34
 70
     1
102
RTVSPropertyOp35
 70
     1
102
RTVSPropertyOp36
 70
     1
102
RTVSPropertyOp37
 70
     1
102
RTVSPropertyOp38
 70
     1
102
RTVSPropertyOp39
 70
     1
102
RTVSPropertyOp40
 70
     1
102
RTVSPropertyOp41
 70
     1
102
RTVSPropertyOp42
 70
     1
102
RTVSPropertyOp43
 70
     1
102
RTVSPropertyOp44
 70
     1
102
RTVSPropertyOp45
 70
     1
102
RTVSPropertyOp46
 70
     1
102
RTVSPropertyOp47
 70
     1
102
RTVSPropertyOp48
 70
     1
102
RTVSPropertyOp49
 70
     1
102
RTVSPropertyOp50
 70
     1
102
RTVSPropertyOp51
 70
     0
102
RTVSPropertyOp52
 70
     0
102
RTVSPropertyOp53
 70
     1
102
RTVSPropertyOp54
 70
     1
102
RTVSPropertyOp55
 70
     1
102
RTVSPropertyOp56
 70
     1
102
RTVSPropertyOp57
 70
     1
102
RTVSPropertyOp58
 70
     1
102
RTVSPropertyOp59
 70
     1
102
RTVSPropertyOp60
 70
     1
102
RTVSPropertyOp61
 70
     1
102
RTVSPropertyOp62
 70
     1
  0
XRECORD
  5
6C5
102
{ACAD_REACTORS
330
6C4
102
}
330
6C4
100
AcDbXrecord
280
     1
102
RTVSPost2010Prop28
280
     0
102
RTVSPost2010PropOp28
 70
     1
102
RTVSPost2010Prop29
280
     1
102
RTVSPost2010PropOp29
 70
     1
102
RTVSPost2010Prop30
280
     1
102
RTVSPost2010PropOp30
 70
     1
102
RTVSPost2010Prop31
280
     0
102
RTVSPost2010PropOp31
 70
     1
102
RTVSPost2010Prop32
280
     0
102
RTVSPost2010PropOp32
 70
     1
102
RTVSPost2010Prop33
280
     0
102
RTVSPost2010PropOp33
 70
     1
102
RTVSPost2010Prop34
280
     0
102
RTVSPost2010PropOp34
 70
     1
102
RTVSPost2010Prop35
280
     0
102
RTVSPost2010PropOp35
 70
     1
102
RTVSPost2010Prop36
280
     0
102
RTVSPost2010PropOp36
 70
     1
102
RTVSPost2010Prop37
 90
       50
102
RTVSPost2010PropOp37
 70
     1
102
RTVSPost2010Prop38
140
0.0
102
RTVSPost2010PropOp38
 70
     1
102
RTVSPost2010Prop39
140
1.0
102
RTVSPost2010PropOp39
 70
     1
102
RTVSPost2010Prop40
 90
        0
102
RTVSPost2010PropOp40
 70
     1
102
RTVSPost2010Prop41ColorIndex
 90
       18
102
RTVSPost2010Prop41ColorRGB
 90
        0
102
RTVSPost2010PropOp41
 70
     1
102
RTVSPost2010Prop42
 90
       50
102
RTVSPost2010PropOp42
 70
     1
102
RTVSPost2010Prop43
 90
        3
102
RTVSPost2010PropOp43
 70
     1
102
RTVSPost2010Prop44ColorIndex
 90
        5
102
RTVSPost2010Prop44ColorRGB
 90
      255
102
RTVSPost2010PropOp44
 70
     1
102
RTVSPost2010Prop45
280
     0
102
RTVSPost2010PropOp45
 70
     1
102
RTVSPost2010Prop46
 90
       50
102
RTVSPost2010PropOp46
 70
     1
102
RTVSPost2010Prop47
 90
       50
102
RTVSPost2010PropOp47
 70
     1
102
RTVSPost2010Prop48
 90
       50
102
RTVSPost2010PropOp48
 70
     1
102
RTVSPost2010Prop49
280
     0
102
RTVSPost2010PropOp49
 70
     1
102
RTVSPost2010Prop50
 90
       50
102
RTVSPost2010PropOp50
 70
     1
102
RTVSPost2010Prop51ColorIndex
 90
      256
102
RTVSPost2010Prop51ColorRGB
 90
-16777216
102
RTVSPost2010PropOp51
 70
     0
102
RTVSPost2010Prop52
140
1.0
102
RTVSPost2010PropOp52
 70
     0
102
RTVSPost2010Prop53
 90
        2
102
RTVSPost2010PropOp53
 70
     1
102
RTVSPost2010Prop54
  1
strokes_ogs.tif
102
RTVSPost2010PropOp54
 70
     1
102
RTVSPost2010Prop55
280
     0
102
RTVSPost2010PropOp55
 70
     1
102
RTVSPost2010Prop56
140
1.0
102
RTVSPost2010PropOp56
 70
     1
102
RTVSPost2010Prop57
140
1.0
102
RTVSPost2010PropOp57
 70
     1
102
RTVSPropertyOp0
 70
     1
102
RTVSPropertyOp1
 70
     1
102
RTVSPropertyOp2
 70
     1
102
RTVSPropertyOp3
 70
     1
102
RTVSPropertyOp4
 70
     1
102
RTVSPropertyOp5
 70
     1
102
RTVSPropertyOp6
 70
     1
102
RTVSPropertyOp7
 70
     1
102
RTVSPropertyOp8
 70
     1
102
RTVSPropertyOp9
 70
     1
102
RTVSPropertyOp10
 70
     1
102
RTVSPropertyOp11
 70
     1
102
RTVSPropertyOp12
 70
     1
102
RTVSPropertyOp13
 70
     1
102
RTVSPropertyOp14
 70
     1
102
RTVSPropertyOp15
 70
     1
102
RTVSPropertyOp16
 70
     1
102
RTVSPropertyOp17
 70
     1
102
RTVSPropertyOp18
 70
     1
102
RTVSPropertyOp19
 70
     1
102
RTVSPropertyOp20
 70
     1
102
RTVSPropertyOp21
 70
     1
102
RTVSPropertyOp22
 70
     1
102
RTVSPropertyOp23
 70
     1
102
RTVSPropertyOp24
 70
     1
102
RTVSPropertyOp25
 70
     1
102
RTVSPropertyOp26
 70
     1
102
RTVSPropertyOp27
 70
     1
102
RTVSPropertyOp28
 70
     1
102
RTVSPropertyOp29
 70
     1
102
RTVSPropertyOp30
 70
     1
102
RTVSPropertyOp31
 70
     1
102
RTVSPropertyOp32
 70
     1
102
RTVSPropertyOp33
 70
     1
102
RTVSPropertyOp34
 70
     1
102
RTVSPropertyOp35
 70
     1
102
RTVSPropertyOp36
 70
     1
102
RTVSPropertyOp37
 70
     1
102
RTVSPropertyOp38
 70
     1
102
RTVSPropertyOp39
 70
     1
102
RTVSPropertyOp40
 70
     1
102
RTVSPropertyOp41
 70
     1
102
RTVSPropertyOp42
 70
     1
102
RTVSPropertyOp43
 70
     1
102
RTVSPropertyOp44
 70
     1
102
RTVSPropertyOp45
 70
     1
102
RTVSPropertyOp46
 70
     1
102
RTVSPropertyOp47
 70
     1
102
RTVSPropertyOp48
 70
     1
102
RTVSPropertyOp49
 70
     1
102
RTVSPropertyOp50
 70
     1
102
RTVSPropertyOp51
 70
     0
102
RTVSPropertyOp52
 70
     0
102
RTVSPropertyOp53
 70
     1
102
RTVSPropertyOp54
 70
     1
102
RTVSPropertyOp55
 70
     1
102
RTVSPropertyOp56
 70
     1
102
RTVSPropertyOp57
 70
     1
102
RTVSPropertyOp58
 70
     1
102
RTVSPropertyOp59
 70
     1
102
RTVSPropertyOp60
 70
     1
102
RTVSPropertyOp61
 70
     1
102
RTVSPropertyOp62
 70
     1
  0
XRECORD
  5
6B7
102
{ACAD_REACTORS
330
6B6
102
}
330
6B6
100
AcDbXrecord
280
     1
102
RTVSPost2010Prop28
280
     0
102
RTVSPost2010PropOp28
 70
     1
102
RTVSPost2010Prop29
280
     1
102
RTVSPost2010PropOp29
 70
     1
102
RTVSPost2010Prop30
280
     1
102
RTVSPost2010PropOp30
 70
     1
102
RTVSPost2010Prop31
280
     0
102
RTVSPost2010PropOp31
 70
     1
102
RTVSPost2010Prop32
280
     0
102
RTVSPost2010PropOp32
 70
     1
102
RTVSPost2010Prop33
280
     0
102
RTVSPost2010PropOp33
 70
     1
102
RTVSPost2010Prop34
280
     0
102
RTVSPost2010PropOp34
 70
     1
102
RTVSPost2010Prop35
280
     0
102
RTVSPost2010PropOp35
 70
     1
102
RTVSPost2010Prop36
280
     0
102
RTVSPost2010PropOp36
 70
     1
102
RTVSPost2010Prop37
 90
       50
102
RTVSPost2010PropOp37
 70
     1
102
RTVSPost2010Prop38
140
0.0
102
RTVSPost2010PropOp38
 70
     1
102
RTVSPost2010Prop39
140
1.0
102
RTVSPost2010PropOp39
 70
     1
102
RTVSPost2010Prop40
 90
        0
102
RTVSPost2010PropOp40
 70
     1
102
RTVSPost2010Prop41ColorIndex
 90
       18
102
RTVSPost2010Prop41ColorRGB
 90
        0
102
RTVSPost2010PropOp41
 70
     1
102
RTVSPost2010Prop42
 90
       50
102
RTVSPost2010PropOp42
 70
     1
102
RTVSPost2010Prop43
 90
        3
102
RTVSPost2010PropOp43
 70
     1
102
RTVSPost2010Prop44ColorIndex
 90
        5
102
RTVSPost2010Prop44ColorRGB
 90
      255
102
RTVSPost2010PropOp44
 70
     1
102
RTVSPost2010Prop45
280
     0
102
RTVSPost2010PropOp45
 70
     1
102
RTVSPost2010Prop46
 90
       50
102
RTVSPost2010PropOp46
 70
     1
102
RTVSPost2010Prop47
 90
       50
102
RTVSPost2010PropOp47
 70
     1
102
RTVSPost2010Prop48
 90
       50
102
RTVSPost2010PropOp48
 70
     1
102
RTVSPost2010Prop49
280
     0
102
RTVSPost2010PropOp49
 70
     1
102
RTVSPost2010Prop50
 90
       50
102
RTVSPost2010PropOp50
 70
     1
102
RTVSPost2010Prop51ColorIndex
 90
      256
102
RTVSPost2010Prop51ColorRGB
 90
-16777216
102
RTVSPost2010PropOp51
 70
     0
102
RTVSPost2010Prop52
140
1.0
102
RTVSPost2010PropOp52
 70
     0
102
RTVSPost2010Prop53
 90
        2
102
RTVSPost2010PropOp53
 70
     1
102
RTVSPost2010Prop54
  1
strokes_ogs.tif
102
RTVSPost2010PropOp54
 70
     1
102
RTVSPost2010Prop55
280
     0
102
RTVSPost2010PropOp55
 70
     1
102
RTVSPost2010Prop56
140
1.0
102
RTVSPost2010PropOp56
 70
     1
102
RTVSPost2010Prop57
140
1.0
102
RTVSPost2010PropOp57
 70
     1
102
RTVSPropertyOp0
 70
     1
102
RTVSPropertyOp1
 70
     1
102
RTVSPropertyOp2
 70
     1
102
RTVSPropertyOp3
 70
     1
102
RTVSPropertyOp4
 70
     1
102
RTVSPropertyOp5
 70
     1
102
RTVSPropertyOp6
 70
     1
102
RTVSPropertyOp7
 70
     1
102
RTVSPropertyOp8
 70
     1
102
RTVSPropertyOp9
 70
     1
102
RTVSPropertyOp10
 70
     1
102
RTVSPropertyOp11
 70
     1
102
RTVSPropertyOp12
 70
     1
102
RTVSPropertyOp13
 70
     1
102
RTVSPropertyOp14
 70
     1
102
RTVSPropertyOp15
 70
     1
102
RTVSPropertyOp16
 70
     1
102
RTVSPropertyOp17
 70
     1
102
RTVSPropertyOp18
 70
     1
102
RTVSPropertyOp19
 70
     1
102
RTVSPropertyOp20
 70
     1
102
RTVSPropertyOp21
 70
     1
102
RTVSPropertyOp22
 70
     1
102
RTVSPropertyOp23
 70
     1
102
RTVSPropertyOp24
 70
     1
102
RTVSPropertyOp25
 70
     1
102
RTVSPropertyOp26
 70
     1
102
RTVSPropertyOp27
 70
     1
102
RTVSPropertyOp28
 70
     1
102
RTVSPropertyOp29
 70
     1
102
RTVSPropertyOp30
 70
     1
102
RTVSPropertyOp31
 70
     1
102
RTVSPropertyOp32
 70
     1
102
RTVSPropertyOp33
 70
     1
102
RTVSPropertyOp34
 70
     1
102
RTVSPropertyOp35
 70
     1
102
RTVSPropertyOp36
 70
     1
102
RTVSPropertyOp37
 70
     1
102
RTVSPropertyOp38
 70
     1
102
RTVSPropertyOp39
 70
     1
102
RTVSPropertyOp40
 70
     1
102
RTVSPropertyOp41
 70
     1
102
RTVSPropertyOp42
 70
     1
102
RTVSPropertyOp43
 70
     1
102
RTVSPropertyOp44
 70
     1
102
RTVSPropertyOp45
 70
     1
102
RTVSPropertyOp46
 70
     1
102
RTVSPropertyOp47
 70
     1
102
RTVSPropertyOp48
 70
     1
102
RTVSPropertyOp49
 70
     1
102
RTVSPropertyOp50
 70
     1
102
RTVSPropertyOp51
 70
     0
102
RTVSPropertyOp52
 70
     0
102
RTVSPropertyOp53
 70
     1
102
RTVSPropertyOp54
 70
     1
102
RTVSPropertyOp55
 70
     1
102
RTVSPropertyOp56
 70
     1
102
RTVSPropertyOp57
 70
     1
102
RTVSPropertyOp58
 70
     1
102
RTVSPropertyOp59
 70
     1
102
RTVSPropertyOp60
 70
     1
102
RTVSPropertyOp61
 70
     1
102
RTVSPropertyOp62
 70
     1
  0
XRECORD
  5
6BB
102
{ACAD_REACTORS
330
6BA
102
}
330
6BA
100
AcDbXrecord
280
     1
102
RTVSPost2010Prop28
280
     0
102
RTVSPost2010PropOp28
 70
     1
102
RTVSPost2010Prop29
280
     1
102
RTVSPost2010PropOp29
 70
     1
102
RTVSPost2010Prop30
280
     1
102
RTVSPost2010PropOp30
 70
     1
102
RTVSPost2010Prop31
280
     0
102
RTVSPost2010PropOp31
 70
     1
102
RTVSPost2010Prop32
280
     0
102
RTVSPost2010PropOp32
 70
     1
102
RTVSPost2010Prop33
280
     0
102
RTVSPost2010PropOp33
 70
     1
102
RTVSPost2010Prop34
280
     0
102
RTVSPost2010PropOp34
 70
     1
102
RTVSPost2010Prop35
280
     0
102
RTVSPost2010PropOp35
 70
     1
102
RTVSPost2010Prop36
280
     0
102
RTVSPost2010PropOp36
 70
     1
102
RTVSPost2010Prop37
 90
       50
102
RTVSPost2010PropOp37
 70
     1
102
RTVSPost2010Prop38
140
0.0
102
RTVSPost2010PropOp38
 70
     1
102
RTVSPost2010Prop39
140
1.0
102
RTVSPost2010PropOp39
 70
     1
102
RTVSPost2010Prop40
 90
        0
102
RTVSPost2010PropOp40
 70
     1
102
RTVSPost2010Prop41ColorIndex
 90
       18
102
RTVSPost2010Prop41ColorRGB
 90
        0
102
RTVSPost2010PropOp41
 70
     1
102
RTVSPost2010Prop42
 90
       50
102
RTVSPost2010PropOp42
 70
     1
102
RTVSPost2010Prop43
 90
        3
102
RTVSPost2010PropOp43
 70
     1
102
RTVSPost2010Prop44ColorIndex
 90
        5
102
RTVSPost2010Prop44ColorRGB
 90
      255
102
RTVSPost2010PropOp44
 70
     1
102
RTVSPost2010Prop45
280
     0
102
RTVSPost2010PropOp45
 70
     1
102
RTVSPost2010Prop46
 90
       50
102
RTVSPost2010PropOp46
 70
     1
102
RTVSPost2010Prop47
 90
       50
102
RTVSPost2010PropOp47
 70
     1
102
RTVSPost2010Prop48
 90
       50
102
RTVSPost2010PropOp48
 70
     1
102
RTVSPost2010Prop49
280
     0
102
RTVSPost2010PropOp49
 70
     1
102
RTVSPost2010Prop50
 90
       50
102
RTVSPost2010PropOp50
 70
     1
102
RTVSPost2010Prop51ColorIndex
 90
      256
102
RTVSPost2010Prop51ColorRGB
 90
-16777216
102
RTVSPost2010PropOp51
 70
     0
102
RTVSPost2010Prop52
140
1.0
102
RTVSPost2010PropOp52
 70
     0
102
RTVSPost2010Prop53
 90
        2
102
RTVSPost2010PropOp53
 70
     1
102
RTVSPost2010Prop54
  1
strokes_ogs.tif
102
RTVSPost2010PropOp54
 70
     1
102
RTVSPost2010Prop55
280
     0
102
RTVSPost2010PropOp55
 70
     1
102
RTVSPost2010Prop56
140
1.0
102
RTVSPost2010PropOp56
 70
     1
102
RTVSPost2010Prop57
140
1.0
102
RTVSPost2010PropOp57
 70
     1
102
RTVSPropertyOp0
 70
     1
102
RTVSPropertyOp1
 70
     1
102
RTVSPropertyOp2
 70
     1
102
RTVSPropertyOp3
 70
     1
102
RTVSPropertyOp4
 70
     1
102
RTVSPropertyOp5
 70
     1
102
RTVSPropertyOp6
 70
     1
102
RTVSPropertyOp7
 70
     1
102
RTVSPropertyOp8
 70
     1
102
RTVSPropertyOp9
 70
     1
102
RTVSPropertyOp10
 70
     1
102
RTVSPropertyOp11
 70
     1
102
RTVSPropertyOp12
 70
     1
102
RTVSPropertyOp13
 70
     1
102
RTVSPropertyOp14
 70
     1
102
RTVSPropertyOp15
 70
     1
102
RTVSPropertyOp16
 70
     1
102
RTVSPropertyOp17
 70
     1
102
RTVSPropertyOp18
 70
     1
102
RTVSPropertyOp19
 70
     1
102
RTVSPropertyOp20
 70
     1
102
RTVSPropertyOp21
 70
     1
102
RTVSPropertyOp22
 70
     1
102
RTVSPropertyOp23
 70
     1
102
RTVSPropertyOp24
 70
     1
102
RTVSPropertyOp25
 70
     1
102
RTVSPropertyOp26
 70
     1
102
RTVSPropertyOp27
 70
     1
102
RTVSPropertyOp28
 70
     1
102
RTVSPropertyOp29
 70
     1
102
RTVSPropertyOp30
 70
     1
102
RTVSPropertyOp31
 70
     1
102
RTVSPropertyOp32
 70
     1
102
RTVSPropertyOp33
 70
     1
102
RTVSPropertyOp34
 70
     1
102
RTVSPropertyOp35
 70
     1
102
RTVSPropertyOp36
 70
     1
102
RTVSPropertyOp37
 70
     1
102
RTVSPropertyOp38
 70
     1
102
RTVSPropertyOp39
 70
     1
102
RTVSPropertyOp40
 70
     1
102
RTVSPropertyOp41
 70
     1
102
RTVSPropertyOp42
 70
     1
102
RTVSPropertyOp43
 70
     1
102
RTVSPropertyOp44
 70
     1
102
RTVSPropertyOp45
 70
     1
102
RTVSPropertyOp46
 70
     1
102
RTVSPropertyOp47
 70
     1
102
RTVSPropertyOp48
 70
     1
102
RTVSPropertyOp49
 70
     1
102
RTVSPropertyOp50
 70
     1
102
RTVSPropertyOp51
 70
     0
102
RTVSPropertyOp52
 70
     0
102
RTVSPropertyOp53
 70
     1
102
RTVSPropertyOp54
 70
     1
102
RTVSPropertyOp55
 70
     1
102
RTVSPropertyOp56
 70
     1
102
RTVSPropertyOp57
 70
     1
102
RTVSPropertyOp58
 70
     1
102
RTVSPropertyOp59
 70
     1
102
RTVSPropertyOp60
 70
     1
102
RTVSPropertyOp61
 70
     1
102
RTVSPropertyOp62
 70
     1
  0
XRECORD
  5
6D5
102
{ACAD_REACTORS
330
6D4
102
}
330
6D4
100
AcDbXrecord
280
     1
102
RTVSPost2010Prop28
280
     0
102
RTVSPost2010PropOp28
 70
     1
102
RTVSPost2010Prop29
280
     1
102
RTVSPost2010PropOp29
 70
     1
102
RTVSPost2010Prop30
280
     1
102
RTVSPost2010PropOp30
 70
     1
102
RTVSPost2010Prop31
280
     0
102
RTVSPost2010PropOp31
 70
     1
102
RTVSPost2010Prop32
280
     0
102
RTVSPost2010PropOp32
 70
     1
102
RTVSPost2010Prop33
280
     0
102
RTVSPost2010PropOp33
 70
     1
102
RTVSPost2010Prop34
280
     0
102
RTVSPost2010PropOp34
 70
     1
102
RTVSPost2010Prop35
280
     0
102
RTVSPost2010PropOp35
 70
     1
102
RTVSPost2010Prop36
280
     0
102
RTVSPost2010PropOp36
 70
     1
102
RTVSPost2010Prop37
 90
       50
102
RTVSPost2010PropOp37
 70
     0
102
RTVSPost2010Prop38
140
0.0
102
RTVSPost2010PropOp38
 70
     0
102
RTVSPost2010Prop39
140
1.0
102
RTVSPost2010PropOp39
 70
     0
102
RTVSPost2010Prop40
 90
        0
102
RTVSPost2010PropOp40
 70
     0
102
RTVSPost2010Prop41ColorIndex
 90
       18
102
RTVSPost2010Prop41ColorRGB
 90
        0
102
RTVSPost2010PropOp41
 70
     0
102
RTVSPost2010Prop42
 90
       50
102
RTVSPost2010PropOp42
 70
     0
102
RTVSPost2010Prop43
 90
        3
102
RTVSPost2010PropOp43
 70
     0
102
RTVSPost2010Prop44ColorIndex
 90
        5
102
RTVSPost2010Prop44ColorRGB
 90
      255
102
RTVSPost2010PropOp44
 70
     0
102
RTVSPost2010Prop45
280
     0
102
RTVSPost2010PropOp45
 70
     1
102
RTVSPost2010Prop46
 90
       50
102
RTVSPost2010PropOp46
 70
     0
102
RTVSPost2010Prop47
 90
       50
102
RTVSPost2010PropOp47
 70
     0
102
RTVSPost2010Prop48
 90
       50
102
RTVSPost2010PropOp48
 70
     0
102
RTVSPost2010Prop49
280
     0
102
RTVSPost2010PropOp49
 70
     1
102
RTVSPost2010Prop50
 90
       50
102
RTVSPost2010PropOp50
 70
     0
102
RTVSPost2010Prop51ColorIndex
 90
      256
102
RTVSPost2010Prop51ColorRGB
 90
-16777216
102
RTVSPost2010PropOp51
 70
     0
102
RTVSPost2010Prop52
140
1.0
102
RTVSPost2010PropOp52
 70
     0
102
RTVSPost2010Prop53
 90
        2
102
RTVSPost2010PropOp53
 70
     0
102
RTVSPost2010Prop54
  1
strokes_ogs.tif
102
RTVSPost2010PropOp54
 70
     0
102
RTVSPost2010Prop55
280
     0
102
RTVSPost2010PropOp55
 70
     1
102
RTVSPost2010Prop56
140
1.0
102
RTVSPost2010PropOp56
 70
     0
102
RTVSPost2010Prop57
140
1.0
102
RTVSPost2010PropOp57
 70
     0
102
RTVSPropertyOp0
 70
     0
102
RTVSPropertyOp1
 70
     0
102
RTVSPropertyOp2
 70
     0
102
RTVSPropertyOp3
 70
     0
102
RTVSPropertyOp4
 70
     0
102
RTVSPropertyOp5
 70
     0
102
RTVSPropertyOp6
 70
     0
102
RTVSPropertyOp7
 70
     0
102
RTVSPropertyOp8
 70
     0
102
RTVSPropertyOp9
 70
     0
102
RTVSPropertyOp10
 70
     0
102
RTVSPropertyOp11
 70
     0
102
RTVSPropertyOp12
 70
     0
102
RTVSPropertyOp13
 70
     0
102
RTVSPropertyOp14
 70
     2
102
RTVSPropertyOp15
 70
     0
102
RTVSPropertyOp16
 70
     0
102
RTVSPropertyOp17
 70
     0
102
RTVSPropertyOp18
 70
     0
102
RTVSPropertyOp19
 70
     0
102
RTVSPropertyOp20
 70
     0
102
RTVSPropertyOp21
 70
     0
102
RTVSPropertyOp22
 70
     0
102
RTVSPropertyOp23
 70
     0
102
RTVSPropertyOp24
 70
     0
102
RTVSPropertyOp25
 70
     0
102
RTVSPropertyOp26
 70
     0
102
RTVSPropertyOp27
 70
     0
102
RTVSPropertyOp28
 70
     1
102
RTVSPropertyOp29
 70
     1
102
RTVSPropertyOp30
 70
     1
102
RTVSPropertyOp31
 70
     1
102
RTVSPropertyOp32
 70
     1
102
RTVSPropertyOp33
 70
     1
102
RTVSPropertyOp34
 70
     1
102
RTVSPropertyOp35
 70
     1
102
RTVSPropertyOp36
 70
     1
102
RTVSPropertyOp37
 70
     0
102
RTVSPropertyOp38
 70
     0
102
RTVSPropertyOp39
 70
     0
102
RTVSPropertyOp40
 70
     0
102
RTVSPropertyOp41
 70
     0
102
RTVSPropertyOp42
 70
     0
102
RTVSPropertyOp43
 70
     0
102
RTVSPropertyOp44
 70
     0
102
RTVSPropertyOp45
 70
     1
102
RTVSPropertyOp46
 70
     0
102
RTVSPropertyOp47
 70
     0
102
RTVSPropertyOp48
 70
     0
102
RTVSPropertyOp49
 70
     1
102
RTVSPropertyOp50
 70
     0
102
RTVSPropertyOp51
 70
     0
102
RTVSPropertyOp52
 70
     0
102
RTVSPropertyOp53
 70
     0
102
RTVSPropertyOp54
 70
     0
102
RTVSPropertyOp55
 70
     1
102
RTVSPropertyOp56
 70
     0
102
RTVSPropertyOp57
 70
     0
102
RTVSPropertyOp58
 70
     0
102
RTVSPropertyOp59
 70
     0
102
RTVSPropertyOp60
 70
     0
102
RTVSPropertyOp61
 70
     0
102
RTVSPropertyOp62
 70
     0
  0
XRECORD
  5
6C3
102
{ACAD_REACTORS
330
6C2
102
}
330
6C2
100
AcDbXrecord
280
     1
102
RTVSPost2010Prop28
280
     0
102
RTVSPost2010PropOp28
 70
     1
102
RTVSPost2010Prop29
280
     1
102
RTVSPost2010PropOp29
 70
     1
102
RTVSPost2010Prop30
280
     1
102
RTVSPost2010PropOp30
 70
     1
102
RTVSPost2010Prop31
280
     0
102
RTVSPost2010PropOp31
 70
     1
102
RTVSPost2010Prop32
280
     0
102
RTVSPost2010PropOp32
 70
     1
102
RTVSPost2010Prop33
280
     0
102
RTVSPost2010PropOp33
 70
     1
102
RTVSPost2010Prop34
280
     0
102
RTVSPost2010PropOp34
 70
     1
102
RTVSPost2010Prop35
280
     0
102
RTVSPost2010PropOp35
 70
     1
102
RTVSPost2010Prop36
280
     0
102
RTVSPost2010PropOp36
 70
     1
102
RTVSPost2010Prop37
 90
       50
102
RTVSPost2010PropOp37
 70
     1
102
RTVSPost2010Prop38
140
0.0
102
RTVSPost2010PropOp38
 70
     1
102
RTVSPost2010Prop39
140
1.0
102
RTVSPost2010PropOp39
 70
     1
102
RTVSPost2010Prop40
 90
        0
102
RTVSPost2010PropOp40
 70
     1
102
RTVSPost2010Prop41ColorIndex
 90
       18
102
RTVSPost2010Prop41ColorRGB
 90
        0
102
RTVSPost2010PropOp41
 70
     1
102
RTVSPost2010Prop42
 90
       50
102
RTVSPost2010PropOp42
 70
     1
102
RTVSPost2010Prop43
 90
        3
102
RTVSPost2010PropOp43
 70
     1
102
RTVSPost2010Prop44ColorIndex
 90
        5
102
RTVSPost2010Prop44ColorRGB
 90
      255
102
RTVSPost2010PropOp44
 70
     1
102
RTVSPost2010Prop45
280
     0
102
RTVSPost2010PropOp45
 70
     1
102
RTVSPost2010Prop46
 90
       50
102
RTVSPost2010PropOp46
 70
     1
102
RTVSPost2010Prop47
 90
       50
102
RTVSPost2010PropOp47
 70
     1
102
RTVSPost2010Prop48
 90
       50
102
RTVSPost2010PropOp48
 70
     1
102
RTVSPost2010Prop49
280
     0
102
RTVSPost2010PropOp49
 70
     1
102
RTVSPost2010Prop50
 90
       50
102
RTVSPost2010PropOp50
 70
     1
102
RTVSPost2010Prop51ColorIndex
 90
      256
102
RTVSPost2010Prop51ColorRGB
 90
-16777216
102
RTVSPost2010PropOp51
 70
     0
102
RTVSPost2010Prop52
140
1.0
102
RTVSPost2010PropOp52
 70
     0
102
RTVSPost2010Prop53
 90
        2
102
RTVSPost2010PropOp53
 70
     1
102
RTVSPost2010Prop54
  1
strokes_ogs.tif
102
RTVSPost2010PropOp54
 70
     1
102
RTVSPost2010Prop55
280
     0
102
RTVSPost2010PropOp55
 70
     1
102
RTVSPost2010Prop56
140
1.0
102
RTVSPost2010PropOp56
 70
     1
102
RTVSPost2010Prop57
140
1.0
102
RTVSPost2010PropOp57
 70
     1
102
RTVSPropertyOp0
 70
     1
102
RTVSPropertyOp1
 70
     1
102
RTVSPropertyOp2
 70
     1
102
RTVSPropertyOp3
 70
     1
102
RTVSPropertyOp4
 70
     1
102
RTVSPropertyOp5
 70
     1
102
RTVSPropertyOp6
 70
     1
102
RTVSPropertyOp7
 70
     1
102
RTVSPropertyOp8
 70
     1
102
RTVSPropertyOp9
 70
     1
102
RTVSPropertyOp10
 70
     1
102
RTVSPropertyOp11
 70
     1
102
RTVSPropertyOp12
 70
     1
102
RTVSPropertyOp13
 70
     1
102
RTVSPropertyOp14
 70
     1
102
RTVSPropertyOp15
 70
     1
102
RTVSPropertyOp16
 70
     1
102
RTVSPropertyOp17
 70
     1
102
RTVSPropertyOp18
 70
     1
102
RTVSPropertyOp19
 70
     1
102
RTVSPropertyOp20
 70
     1
102
RTVSPropertyOp21
 70
     1
102
RTVSPropertyOp22
 70
     1
102
RTVSPropertyOp23
 70
     1
102
RTVSPropertyOp24
 70
     1
102
RTVSPropertyOp25
 70
     1
102
RTVSPropertyOp26
 70
     1
102
RTVSPropertyOp27
 70
     1
102
RTVSPropertyOp28
 70
     1
102
RTVSPropertyOp29
 70
     1
102
RTVSPropertyOp30
 70
     1
102
RTVSPropertyOp31
 70
     1
102
RTVSPropertyOp32
 70
     1
102
RTVSPropertyOp33
 70
     1
102
RTVSPropertyOp34
 70
     1
102
RTVSPropertyOp35
 70
     1
102
RTVSPropertyOp36
 70
     1
102
RTVSPropertyOp37
 70
     1
102
RTVSPropertyOp38
 70
     1
102
RTVSPropertyOp39
 70
     1
102
RTVSPropertyOp40
 70
     1
102
RTVSPropertyOp41
 70
     1
102
RTVSPropertyOp42
 70
     1
102
RTVSPropertyOp43
 70
     1
102
RTVSPropertyOp44
 70
     1
102
RTVSPropertyOp45
 70
     1
102
RTVSPropertyOp46
 70
     1
102
RTVSPropertyOp47
 70
     1
102
RTVSPropertyOp48
 70
     1
102
RTVSPropertyOp49
 70
     1
102
RTVSPropertyOp50
 70
     1
102
RTVSPropertyOp51
 70
     0
102
RTVSPropertyOp52
 70
     0
102
RTVSPropertyOp53
 70
     1
102
RTVSPropertyOp54
 70
     1
102
RTVSPropertyOp55
 70
     1
102
RTVSPropertyOp56
 70
     1
102
RTVSPropertyOp57
 70
     1
102
RTVSPropertyOp58
 70
     1
102
RTVSPropertyOp59
 70
     1
102
RTVSPropertyOp60
 70
     1
102
RTVSPropertyOp61
 70
     1
102
RTVSPropertyOp62
 70
     1
  0
XRECORD
  5
6A7
102
{ACAD_REACTORS
330
6A6
102
}
330
6A6
100
AcDbXrecord
280
     1
102
RTVSPost2010Prop28
280
     0
102
RTVSPost2010PropOp28
 70
     1
102
RTVSPost2010Prop29
280
     1
102
RTVSPost2010PropOp29
 70
     1
102
RTVSPost2010Prop30
280
     1
102
RTVSPost2010PropOp30
 70
     1
102
RTVSPost2010Prop31
280
     0
102
RTVSPost2010PropOp31
 70
     1
102
RTVSPost2010Prop32
280
     0
102
RTVSPost2010PropOp32
 70
     1
102
RTVSPost2010Prop33
280
     0
102
RTVSPost2010PropOp33
 70
     1
102
RTVSPost2010Prop34
280
     0
102
RTVSPost2010PropOp34
 70
     1
102
RTVSPost2010Prop35
280
     0
102
RTVSPost2010PropOp35
 70
     1
102
RTVSPost2010Prop36
280
     0
102
RTVSPost2010PropOp36
 70
     1
102
RTVSPost2010Prop37
 90
       50
102
RTVSPost2010PropOp37
 70
     1
102
RTVSPost2010Prop38
140
0.0
102
RTVSPost2010PropOp38
 70
     1
102
RTVSPost2010Prop39
140
1.0
102
RTVSPost2010PropOp39
 70
     1
102
RTVSPost2010Prop40
 90
        0
102
RTVSPost2010PropOp40
 70
     1
102
RTVSPost2010Prop41ColorIndex
 90
       18
102
RTVSPost2010Prop41ColorRGB
 90
        0
102
RTVSPost2010PropOp41
 70
     1
102
RTVSPost2010Prop42
 90
       50
102
RTVSPost2010PropOp42
 70
     1
102
RTVSPost2010Prop43
 90
        3
102
RTVSPost2010PropOp43
 70
     1
102
RTVSPost2010Prop44ColorIndex
 90
        5
102
RTVSPost2010Prop44ColorRGB
 90
      255
102
RTVSPost2010PropOp44
 70
     1
102
RTVSPost2010Prop45
280
     0
102
RTVSPost2010PropOp45
 70
     1
102
RTVSPost2010Prop46
 90
       50
102
RTVSPost2010PropOp46
 70
     1
102
RTVSPost2010Prop47
 90
       50
102
RTVSPost2010PropOp47
 70
     1
102
RTVSPost2010Prop48
 90
       50
102
RTVSPost2010PropOp48
 70
     1
102
RTVSPost2010Prop49
280
     0
102
RTVSPost2010PropOp49
 70
     1
102
RTVSPost2010Prop50
 90
       50
102
RTVSPost2010PropOp50
 70
     1
102
RTVSPost2010Prop51ColorIndex
 90
      256
102
RTVSPost2010Prop51ColorRGB
 90
-16777216
102
RTVSPost2010PropOp51
 70
     0
102
RTVSPost2010Prop52
140
1.0
102
RTVSPost2010PropOp52
 70
     0
102
RTVSPost2010Prop53
 90
        2
102
RTVSPost2010PropOp53
 70
     1
102
RTVSPost2010Prop54
  1
strokes_ogs.tif
102
RTVSPost2010PropOp54
 70
     1
102
RTVSPost2010Prop55
280
     0
102
RTVSPost2010PropOp55
 70
     1
102
RTVSPost2010Prop56
140
1.0
102
RTVSPost2010PropOp56
 70
     1
102
RTVSPost2010Prop57
140
1.0
102
RTVSPost2010PropOp57
 70
     1
102
RTVSPropertyOp0
 70
     1
102
RTVSPropertyOp1
 70
     1
102
RTVSPropertyOp2
 70
     1
102
RTVSPropertyOp3
 70
     1
102
RTVSPropertyOp4
 70
     1
102
RTVSPropertyOp5
 70
     1
102
RTVSPropertyOp6
 70
     1
102
RTVSPropertyOp7
 70
     1
102
RTVSPropertyOp8
 70
     1
102
RTVSPropertyOp9
 70
     1
102
RTVSPropertyOp10
 70
     1
102
RTVSPropertyOp11
 70
     1
102
RTVSPropertyOp12
 70
     1
102
RTVSPropertyOp13
 70
     1
102
RTVSPropertyOp14
 70
     1
102
RTVSPropertyOp15
 70
     1
102
RTVSPropertyOp16
 70
     1
102
RTVSPropertyOp17
 70
     1
102
RTVSPropertyOp18
 70
     1
102
RTVSPropertyOp19
 70
     1
102
RTVSPropertyOp20
 70
     1
102
RTVSPropertyOp21
 70
     1
102
RTVSPropertyOp22
 70
     1
102
RTVSPropertyOp23
 70
     1
102
RTVSPropertyOp24
 70
     1
102
RTVSPropertyOp25
 70
     1
102
RTVSPropertyOp26
 70
     1
102
RTVSPropertyOp27
 70
     1
102
RTVSPropertyOp28
 70
     1
102
RTVSPropertyOp29
 70
     1
102
RTVSPropertyOp30
 70
     1
102
RTVSPropertyOp31
 70
     1
102
RTVSPropertyOp32
 70
     1
102
RTVSPropertyOp33
 70
     1
102
RTVSPropertyOp34
 70
     1
102
RTVSPropertyOp35
 70
     1
102
RTVSPropertyOp36
 70
     1
102
RTVSPropertyOp37
 70
     1
102
RTVSPropertyOp38
 70
     1
102
RTVSPropertyOp39
 70
     1
102
RTVSPropertyOp40
 70
     1
102
RTVSPropertyOp41
 70
     1
102
RTVSPropertyOp42
 70
     1
102
RTVSPropertyOp43
 70
     1
102
RTVSPropertyOp44
 70
     1
102
RTVSPropertyOp45
 70
     1
102
RTVSPropertyOp46
 70
     1
102
RTVSPropertyOp47
 70
     1
102
RTVSPropertyOp48
 70
     1
102
RTVSPropertyOp49
 70
     1
102
RTVSPropertyOp50
 70
     1
102
RTVSPropertyOp51
 70
     0
102
RTVSPropertyOp52
 70
     0
102
RTVSPropertyOp53
 70
     1
102
RTVSPropertyOp54
 70
     1
102
RTVSPropertyOp55
 70
     1
102
RTVSPropertyOp56
 70
     1
102
RTVSPropertyOp57
 70
     1
102
RTVSPropertyOp58
 70
     1
102
RTVSPropertyOp59
 70
     1
102
RTVSPropertyOp60
 70
     1
102
RTVSPropertyOp61
 70
     1
102
RTVSPropertyOp62
 70
     1
  0
XRECORD
  5
6A9
102
{ACAD_REACTORS
330
6A8
102
}
330
6A8
100
AcDbXrecord
280
     1
102
RTVSPost2010Prop28
280
     0
102
RTVSPost2010PropOp28
 70
     1
102
RTVSPost2010Prop29
280
     1
102
RTVSPost2010PropOp29
 70
     1
102
RTVSPost2010Prop30
280
     1
102
RTVSPost2010PropOp30
 70
     1
102
RTVSPost2010Prop31
280
     0
102
RTVSPost2010PropOp31
 70
     1
102
RTVSPost2010Prop32
280
     0
102
RTVSPost2010PropOp32
 70
     1
102
RTVSPost2010Prop33
280
     0
102
RTVSPost2010PropOp33
 70
     1
102
RTVSPost2010Prop34
280
     0
102
RTVSPost2010PropOp34
 70
     1
102
RTVSPost2010Prop35
280
     0
102
RTVSPost2010PropOp35
 70
     1
102
RTVSPost2010Prop36
280
     0
102
RTVSPost2010PropOp36
 70
     1
102
RTVSPost2010Prop37
 90
       50
102
RTVSPost2010PropOp37
 70
     1
102
RTVSPost2010Prop38
140
0.0
102
RTVSPost2010PropOp38
 70
     1
102
RTVSPost2010Prop39
140
1.0
102
RTVSPost2010PropOp39
 70
     1
102
RTVSPost2010Prop40
 90
        0
102
RTVSPost2010PropOp40
 70
     1
102
RTVSPost2010Prop41ColorIndex
 90
       18
102
RTVSPost2010Prop41ColorRGB
 90
        0
102
RTVSPost2010PropOp41
 70
     1
102
RTVSPost2010Prop42
 90
       50
102
RTVSPost2010PropOp42
 70
     1
102
RTVSPost2010Prop43
 90
        3
102
RTVSPost2010PropOp43
 70
     1
102
RTVSPost2010Prop44ColorIndex
 90
        5
102
RTVSPost2010Prop44ColorRGB
 90
      255
102
RTVSPost2010PropOp44
 70
     1
102
RTVSPost2010Prop45
280
     0
102
RTVSPost2010PropOp45
 70
     1
102
RTVSPost2010Prop46
 90
       50
102
RTVSPost2010PropOp46
 70
     1
102
RTVSPost2010Prop47
 90
       50
102
RTVSPost2010PropOp47
 70
     1
102
RTVSPost2010Prop48
 90
       50
102
RTVSPost2010PropOp48
 70
     1
102
RTVSPost2010Prop49
280
     0
102
RTVSPost2010PropOp49
 70
     1
102
RTVSPost2010Prop50
 90
       50
102
RTVSPost2010PropOp50
 70
     1
102
RTVSPost2010Prop51ColorIndex
 90
      256
102
RTVSPost2010Prop51ColorRGB
 90
-16777216
102
RTVSPost2010PropOp51
 70
     0
102
RTVSPost2010Prop52
140
1.0
102
RTVSPost2010PropOp52
 70
     0
102
RTVSPost2010Prop53
 90
        2
102
RTVSPost2010PropOp53
 70
     1
102
RTVSPost2010Prop54
  1
strokes_ogs.tif
102
RTVSPost2010PropOp54
 70
     1
102
RTVSPost2010Prop55
280
     0
102
RTVSPost2010PropOp55
 70
     1
102
RTVSPost2010Prop56
140
1.0
102
RTVSPost2010PropOp56
 70
     1
102
RTVSPost2010Prop57
140
1.0
102
RTVSPost2010PropOp57
 70
     1
102
RTVSPropertyOp0
 70
     1
102
RTVSPropertyOp1
 70
     1
102
RTVSPropertyOp2
 70
     1
102
RTVSPropertyOp3
 70
     1
102
RTVSPropertyOp4
 70
     1
102
RTVSPropertyOp5
 70
     1
102
RTVSPropertyOp6
 70
     1
102
RTVSPropertyOp7
 70
     1
102
RTVSPropertyOp8
 70
     1
102
RTVSPropertyOp9
 70
     1
102
RTVSPropertyOp10
 70
     1
102
RTVSPropertyOp11
 70
     1
102
RTVSPropertyOp12
 70
     1
102
RTVSPropertyOp13
 70
     1
102
RTVSPropertyOp14
 70
     1
102
RTVSPropertyOp15
 70
     1
102
RTVSPropertyOp16
 70
     1
102
RTVSPropertyOp17
 70
     1
102
RTVSPropertyOp18
 70
     1
102
RTVSPropertyOp19
 70
     1
102
RTVSPropertyOp20
 70
     1
102
RTVSPropertyOp21
 70
     1
102
RTVSPropertyOp22
 70
     1
102
RTVSPropertyOp23
 70
     1
102
RTVSPropertyOp24
 70
     1
102
RTVSPropertyOp25
 70
     1
102
RTVSPropertyOp26
 70
     1
102
RTVSPropertyOp27
 70
     1
102
RTVSPropertyOp28
 70
     1
102
RTVSPropertyOp29
 70
     1
102
RTVSPropertyOp30
 70
     1
102
RTVSPropertyOp31
 70
     1
102
RTVSPropertyOp32
 70
     1
102
RTVSPropertyOp33
 70
     1
102
RTVSPropertyOp34
 70
     1
102
RTVSPropertyOp35
 70
     1
102
RTVSPropertyOp36
 70
     1
102
RTVSPropertyOp37
 70
     1
102
RTVSPropertyOp38
 70
     1
102
RTVSPropertyOp39
 70
     1
102
RTVSPropertyOp40
 70
     1
102
RTVSPropertyOp41
 70
     1
102
RTVSPropertyOp42
 70
     1
102
RTVSPropertyOp43
 70
     1
102
RTVSPropertyOp44
 70
     1
102
RTVSPropertyOp45
 70
     1
102
RTVSPropertyOp46
 70
     1
102
RTVSPropertyOp47
 70
     1
102
RTVSPropertyOp48
 70
     1
102
RTVSPropertyOp49
 70
     1
102
RTVSPropertyOp50
 70
     1
102
RTVSPropertyOp51
 70
     0
102
RTVSPropertyOp52
 70
     0
102
RTVSPropertyOp53
 70
     1
102
RTVSPropertyOp54
 70
     1
102
RTVSPropertyOp55
 70
     1
102
RTVSPropertyOp56
 70
     1
102
RTVSPropertyOp57
 70
     1
102
RTVSPropertyOp58
 70
     1
102
RTVSPropertyOp59
 70
     1
102
RTVSPropertyOp60
 70
     1
102
RTVSPropertyOp61
 70
     1
102
RTVSPropertyOp62
 70
     1
  0
XRECORD
  5
6AB
102
{ACAD_REACTORS
330
6AA
102
}
330
6AA
100
AcDbXrecord
280
     1
102
RTVSPost2010Prop28
280
     0
102
RTVSPost2010PropOp28
 70
     1
102
RTVSPost2010Prop29
280
     1
102
RTVSPost2010PropOp29
 70
     1
102
RTVSPost2010Prop30
280
     1
102
RTVSPost2010PropOp30
 70
     1
102
RTVSPost2010Prop31
280
     0
102
RTVSPost2010PropOp31
 70
     1
102
RTVSPost2010Prop32
280
     0
102
RTVSPost2010PropOp32
 70
     1
102
RTVSPost2010Prop33
280
     0
102
RTVSPost2010PropOp33
 70
     1
102
RTVSPost2010Prop34
280
     0
102
RTVSPost2010PropOp34
 70
     1
102
RTVSPost2010Prop35
280
     0
102
RTVSPost2010PropOp35
 70
     1
102
RTVSPost2010Prop36
280
     0
102
RTVSPost2010PropOp36
 70
     1
102
RTVSPost2010Prop37
 90
       50
102
RTVSPost2010PropOp37
 70
     1
102
RTVSPost2010Prop38
140
0.0
102
RTVSPost2010PropOp38
 70
     1
102
RTVSPost2010Prop39
140
1.0
102
RTVSPost2010PropOp39
 70
     1
102
RTVSPost2010Prop40
 90
        0
102
RTVSPost2010PropOp40
 70
     1
102
RTVSPost2010Prop41ColorIndex
 90
       18
102
RTVSPost2010Prop41ColorRGB
 90
        0
102
RTVSPost2010PropOp41
 70
     1
102
RTVSPost2010Prop42
 90
       50
102
RTVSPost2010PropOp42
 70
     1
102
RTVSPost2010Prop43
 90
        3
102
RTVSPost2010PropOp43
 70
     1
102
RTVSPost2010Prop44ColorIndex
 90
        5
102
RTVSPost2010Prop44ColorRGB
 90
      255
102
RTVSPost2010PropOp44
 70
     1
102
RTVSPost2010Prop45
280
     0
102
RTVSPost2010PropOp45
 70
     1
102
RTVSPost2010Prop46
 90
       50
102
RTVSPost2010PropOp46
 70
     1
102
RTVSPost2010Prop47
 90
       50
102
RTVSPost2010PropOp47
 70
     1
102
RTVSPost2010Prop48
 90
       50
102
RTVSPost2010PropOp48
 70
     1
102
RTVSPost2010Prop49
280
     0
102
RTVSPost2010PropOp49
 70
     1
102
RTVSPost2010Prop50
 90
       50
102
RTVSPost2010PropOp50
 70
     1
102
RTVSPost2010Prop51ColorIndex
 90
      256
102
RTVSPost2010Prop51ColorRGB
 90
-16777216
102
RTVSPost2010PropOp51
 70
     0
102
RTVSPost2010Prop52
140
1.0
102
RTVSPost2010PropOp52
 70
     0
102
RTVSPost2010Prop53
 90
        2
102
RTVSPost2010PropOp53
 70
     1
102
RTVSPost2010Prop54
  1
strokes_ogs.tif
102
RTVSPost2010PropOp54
 70
     1
102
RTVSPost2010Prop55
280
     0
102
RTVSPost2010PropOp55
 70
     1
102
RTVSPost2010Prop56
140
1.0
102
RTVSPost2010PropOp56
 70
     1
102
RTVSPost2010Prop57
140
1.0
102
RTVSPost2010PropOp57
 70
     1
102
RTVSPropertyOp0
 70
     1
102
RTVSPropertyOp1
 70
     1
102
RTVSPropertyOp2
 70
     1
102
RTVSPropertyOp3
 70
     1
102
RTVSPropertyOp4
 70
     1
102
RTVSPropertyOp5
 70
     1
102
RTVSPropertyOp6
 70
     1
102
RTVSPropertyOp7
 70
     1
102
RTVSPropertyOp8
 70
     1
102
RTVSPropertyOp9
 70
     1
102
RTVSPropertyOp10
 70
     1
102
RTVSPropertyOp11
 70
     1
102
RTVSPropertyOp12
 70
     1
102
RTVSPropertyOp13
 70
     1
102
RTVSPropertyOp14
 70
     1
102
RTVSPropertyOp15
 70
     1
102
RTVSPropertyOp16
 70
     1
102
RTVSPropertyOp17
 70
     1
102
RTVSPropertyOp18
 70
     1
102
RTVSPropertyOp19
 70
     1
102
RTVSPropertyOp20
 70
     1
102
RTVSPropertyOp21
 70
     1
102
RTVSPropertyOp22
 70
     1
102
RTVSPropertyOp23
 70
     1
102
RTVSPropertyOp24
 70
     1
102
RTVSPropertyOp25
 70
     1
102
RTVSPropertyOp26
 70
     1
102
RTVSPropertyOp27
 70
     1
102
RTVSPropertyOp28
 70
     1
102
RTVSPropertyOp29
 70
     1
102
RTVSPropertyOp30
 70
     1
102
RTVSPropertyOp31
 70
     1
102
RTVSPropertyOp32
 70
     1
102
RTVSPropertyOp33
 70
     1
102
RTVSPropertyOp34
 70
     1
102
RTVSPropertyOp35
 70
     1
102
RTVSPropertyOp36
 70
     1
102
RTVSPropertyOp37
 70
     1
102
RTVSPropertyOp38
 70
     1
102
RTVSPropertyOp39
 70
     1
102
RTVSPropertyOp40
 70
     1
102
RTVSPropertyOp41
 70
     1
102
RTVSPropertyOp42
 70
     1
102
RTVSPropertyOp43
 70
     1
102
RTVSPropertyOp44
 70
     1
102
RTVSPropertyOp45
 70
     1
102
RTVSPropertyOp46
 70
     1
102
RTVSPropertyOp47
 70
     1
102
RTVSPropertyOp48
 70
     1
102
RTVSPropertyOp49
 70
     1
102
RTVSPropertyOp50
 70
     1
102
RTVSPropertyOp51
 70
     0
102
RTVSPropertyOp52
 70
     0
102
RTVSPropertyOp53
 70
     1
102
RTVSPropertyOp54
 70
     1
102
RTVSPropertyOp55
 70
     1
102
RTVSPropertyOp56
 70
     1
102
RTVSPropertyOp57
 70
     1
102
RTVSPropertyOp58
 70
     1
102
RTVSPropertyOp59
 70
     1
102
RTVSPropertyOp60
 70
     1
102
RTVSPropertyOp61
 70
     1
102
RTVSPropertyOp62
 70
     1
  0
XRECORD
  5
6AD
102
{ACAD_REACTORS
330
6AC
102
}
330
6AC
100
AcDbXrecord
280
     1
102
RTVSPost2010Prop28
280
     0
102
RTVSPost2010PropOp28
 70
     1
102
RTVSPost2010Prop29
280
     1
102
RTVSPost2010PropOp29
 70
     1
102
RTVSPost2010Prop30
280
     1
102
RTVSPost2010PropOp30
 70
     1
102
RTVSPost2010Prop31
280
     0
102
RTVSPost2010PropOp31
 70
     1
102
RTVSPost2010Prop32
280
     0
102
RTVSPost2010PropOp32
 70
     1
102
RTVSPost2010Prop33
280
     0
102
RTVSPost2010PropOp33
 70
     1
102
RTVSPost2010Prop34
280
     0
102
RTVSPost2010PropOp34
 70
     1
102
RTVSPost2010Prop35
280
     0
102
RTVSPost2010PropOp35
 70
     1
102
RTVSPost2010Prop36
280
     0
102
RTVSPost2010PropOp36
 70
     1
102
RTVSPost2010Prop37
 90
       50
102
RTVSPost2010PropOp37
 70
     1
102
RTVSPost2010Prop38
140
0.0
102
RTVSPost2010PropOp38
 70
     1
102
RTVSPost2010Prop39
140
1.0
102
RTVSPost2010PropOp39
 70
     1
102
RTVSPost2010Prop40
 90
        0
102
RTVSPost2010PropOp40
 70
     1
102
RTVSPost2010Prop41ColorIndex
 90
       18
102
RTVSPost2010Prop41ColorRGB
 90
        0
102
RTVSPost2010PropOp41
 70
     1
102
RTVSPost2010Prop42
 90
       50
102
RTVSPost2010PropOp42
 70
     1
102
RTVSPost2010Prop43
 90
        3
102
RTVSPost2010PropOp43
 70
     1
102
RTVSPost2010Prop44ColorIndex
 90
        5
102
RTVSPost2010Prop44ColorRGB
 90
      255
102
RTVSPost2010PropOp44
 70
     1
102
RTVSPost2010Prop45
280
     0
102
RTVSPost2010PropOp45
 70
     1
102
RTVSPost2010Prop46
 90
       50
102
RTVSPost2010PropOp46
 70
     1
102
RTVSPost2010Prop47
 90
       50
102
RTVSPost2010PropOp47
 70
     1
102
RTVSPost2010Prop48
 90
       50
102
RTVSPost2010PropOp48
 70
     1
102
RTVSPost2010Prop49
280
     0
102
RTVSPost2010PropOp49
 70
     1
102
RTVSPost2010Prop50
 90
       50
102
RTVSPost2010PropOp50
 70
     1
102
RTVSPost2010Prop51ColorIndex
 90
      256
102
RTVSPost2010Prop51ColorRGB
 90
-16777216
102
RTVSPost2010PropOp51
 70
     0
102
RTVSPost2010Prop52
140
1.0
102
RTVSPost2010PropOp52
 70
     0
102
RTVSPost2010Prop53
 90
        2
102
RTVSPost2010PropOp53
 70
     1
102
RTVSPost2010Prop54
  1
strokes_ogs.tif
102
RTVSPost2010PropOp54
 70
     1
102
RTVSPost2010Prop55
280
     0
102
RTVSPost2010PropOp55
 70
     1
102
RTVSPost2010Prop56
140
1.0
102
RTVSPost2010PropOp56
 70
     1
102
RTVSPost2010Prop57
140
1.0
102
RTVSPost2010PropOp57
 70
     1
102
RTVSPropertyOp0
 70
     1
102
RTVSPropertyOp1
 70
     1
102
RTVSPropertyOp2
 70
     1
102
RTVSPropertyOp3
 70
     1
102
RTVSPropertyOp4
 70
     1
102
RTVSPropertyOp5
 70
     1
102
RTVSPropertyOp6
 70
     1
102
RTVSPropertyOp7
 70
     1
102
RTVSPropertyOp8
 70
     1
102
RTVSPropertyOp9
 70
     1
102
RTVSPropertyOp10
 70
     1
102
RTVSPropertyOp11
 70
     1
102
RTVSPropertyOp12
 70
     1
102
RTVSPropertyOp13
 70
     1
102
RTVSPropertyOp14
 70
     1
102
RTVSPropertyOp15
 70
     1
102
RTVSPropertyOp16
 70
     1
102
RTVSPropertyOp17
 70
     1
102
RTVSPropertyOp18
 70
     1
102
RTVSPropertyOp19
 70
     1
102
RTVSPropertyOp20
 70
     1
102
RTVSPropertyOp21
 70
     1
102
RTVSPropertyOp22
 70
     1
102
RTVSPropertyOp23
 70
     1
102
RTVSPropertyOp24
 70
     1
102
RTVSPropertyOp25
 70
     1
102
RTVSPropertyOp26
 70
     1
102
RTVSPropertyOp27
 70
     1
102
RTVSPropertyOp28
 70
     1
102
RTVSPropertyOp29
 70
     1
102
RTVSPropertyOp30
 70
     1
102
RTVSPropertyOp31
 70
     1
102
RTVSPropertyOp32
 70
     1
102
RTVSPropertyOp33
 70
     1
102
RTVSPropertyOp34
 70
     1
102
RTVSPropertyOp35
 70
     1
102
RTVSPropertyOp36
 70
     1
102
RTVSPropertyOp37
 70
     1
102
RTVSPropertyOp38
 70
     1
102
RTVSPropertyOp39
 70
     1
102
RTVSPropertyOp40
 70
     1
102
RTVSPropertyOp41
 70
     1
102
RTVSPropertyOp42
 70
     1
102
RTVSPropertyOp43
 70
     1
102
RTVSPropertyOp44
 70
     1
102
RTVSPropertyOp45
 70
     1
102
RTVSPropertyOp46
 70
     1
102
RTVSPropertyOp47
 70
     1
102
RTVSPropertyOp48
 70
     1
102
RTVSPropertyOp49
 70
     1
102
RTVSPropertyOp50
 70
     1
102
RTVSPropertyOp51
 70
     0
102
RTVSPropertyOp52
 70
     0
102
RTVSPropertyOp53
 70
     1
102
RTVSPropertyOp54
 70
     1
102
RTVSPropertyOp55
 70
     1
102
RTVSPropertyOp56
 70
     1
102
RTVSPropertyOp57
 70
     1
102
RTVSPropertyOp58
 70
     1
102
RTVSPropertyOp59
 70
     1
102
RTVSPropertyOp60
 70
     1
102
RTVSPropertyOp61
 70
     1
102
RTVSPropertyOp62
 70
     1
  0
XRECORD
  5
6B5
102
{ACAD_REACTORS
330
6B4
102
}
330
6B4
100
AcDbXrecord
280
     1
102
RTVSPost2010Prop28
280
     0
102
RTVSPost2010PropOp28
 70
     1
102
RTVSPost2010Prop29
280
     1
102
RTVSPost2010PropOp29
 70
     1
102
RTVSPost2010Prop30
280
     1
102
RTVSPost2010PropOp30
 70
     1
102
RTVSPost2010Prop31
280
     0
102
RTVSPost2010PropOp31
 70
     1
102
RTVSPost2010Prop32
280
     0
102
RTVSPost2010PropOp32
 70
     1
102
RTVSPost2010Prop33
280
     0
102
RTVSPost2010PropOp33
 70
     1
102
RTVSPost2010Prop34
280
     0
102
RTVSPost2010PropOp34
 70
     1
102
RTVSPost2010Prop35
280
     0
102
RTVSPost2010PropOp35
 70
     1
102
RTVSPost2010Prop36
280
     0
102
RTVSPost2010PropOp36
 70
     1
102
RTVSPost2010Prop37
 90
       50
102
RTVSPost2010PropOp37
 70
     1
102
RTVSPost2010Prop38
140
0.0
102
RTVSPost2010PropOp38
 70
     1
102
RTVSPost2010Prop39
140
1.0
102
RTVSPost2010PropOp39
 70
     1
102
RTVSPost2010Prop40
 90
        0
102
RTVSPost2010PropOp40
 70
     1
102
RTVSPost2010Prop41ColorIndex
 90
       18
102
RTVSPost2010Prop41ColorRGB
 90
        0
102
RTVSPost2010PropOp41
 70
     1
102
RTVSPost2010Prop42
 90
       50
102
RTVSPost2010PropOp42
 70
     1
102
RTVSPost2010Prop43
 90
        3
102
RTVSPost2010PropOp43
 70
     1
102
RTVSPost2010Prop44ColorIndex
 90
        5
102
RTVSPost2010Prop44ColorRGB
 90
      255
102
RTVSPost2010PropOp44
 70
     1
102
RTVSPost2010Prop45
280
     0
102
RTVSPost2010PropOp45
 70
     1
102
RTVSPost2010Prop46
 90
       50
102
RTVSPost2010PropOp46
 70
     1
102
RTVSPost2010Prop47
 90
       50
102
RTVSPost2010PropOp47
 70
     1
102
RTVSPost2010Prop48
 90
       50
102
RTVSPost2010PropOp48
 70
     1
102
RTVSPost2010Prop49
280
     0
102
RTVSPost2010PropOp49
 70
     1
102
RTVSPost2010Prop50
 90
       50
102
RTVSPost2010PropOp50
 70
     1
102
RTVSPost2010Prop51ColorIndex
 90
      256
102
RTVSPost2010Prop51ColorRGB
 90
-16777216
102
RTVSPost2010PropOp51
 70
     0
102
RTVSPost2010Prop52
140
1.0
102
RTVSPost2010PropOp52
 70
     0
102
RTVSPost2010Prop53
 90
        2
102
RTVSPost2010PropOp53
 70
     1
102
RTVSPost2010Prop54
  1
strokes_ogs.tif
102
RTVSPost2010PropOp54
 70
     1
102
RTVSPost2010Prop55
280
     0
102
RTVSPost2010PropOp55
 70
     1
102
RTVSPost2010Prop56
140
1.0
102
RTVSPost2010PropOp56
 70
     1
102
RTVSPost2010Prop57
140
1.0
102
RTVSPost2010PropOp57
 70
     1
102
RTVSPropertyOp0
 70
     1
102
RTVSPropertyOp1
 70
     1
102
RTVSPropertyOp2
 70
     1
102
RTVSPropertyOp3
 70
     1
102
RTVSPropertyOp4
 70
     1
102
RTVSPropertyOp5
 70
     1
102
RTVSPropertyOp6
 70
     1
102
RTVSPropertyOp7
 70
     1
102
RTVSPropertyOp8
 70
     1
102
RTVSPropertyOp9
 70
     1
102
RTVSPropertyOp10
 70
     1
102
RTVSPropertyOp11
 70
     1
102
RTVSPropertyOp12
 70
     1
102
RTVSPropertyOp13
 70
     1
102
RTVSPropertyOp14
 70
     1
102
RTVSPropertyOp15
 70
     1
102
RTVSPropertyOp16
 70
     1
102
RTVSPropertyOp17
 70
     1
102
RTVSPropertyOp18
 70
     1
102
RTVSPropertyOp19
 70
     1
102
RTVSPropertyOp20
 70
     1
102
RTVSPropertyOp21
 70
     1
102
RTVSPropertyOp22
 70
     1
102
RTVSPropertyOp23
 70
     1
102
RTVSPropertyOp24
 70
     1
102
RTVSPropertyOp25
 70
     1
102
RTVSPropertyOp26
 70
     1
102
RTVSPropertyOp27
 70
     1
102
RTVSPropertyOp28
 70
     1
102
RTVSPropertyOp29
 70
     1
102
RTVSPropertyOp30
 70
     1
102
RTVSPropertyOp31
 70
     1
102
RTVSPropertyOp32
 70
     1
102
RTVSPropertyOp33
 70
     1
102
RTVSPropertyOp34
 70
     1
102
RTVSPropertyOp35
 70
     1
102
RTVSPropertyOp36
 70
     1
102
RTVSPropertyOp37
 70
     1
102
RTVSPropertyOp38
 70
     1
102
RTVSPropertyOp39
 70
     1
102
RTVSPropertyOp40
 70
     1
102
RTVSPropertyOp41
 70
     1
102
RTVSPropertyOp42
 70
     1
102
RTVSPropertyOp43
 70
     1
102
RTVSPropertyOp44
 70
     1
102
RTVSPropertyOp45
 70
     1
102
RTVSPropertyOp46
 70
     1
102
RTVSPropertyOp47
 70
     1
102
RTVSPropertyOp48
 70
     1
102
RTVSPropertyOp49
 70
     1
102
RTVSPropertyOp50
 70
     1
102
RTVSPropertyOp51
 70
     0
102
RTVSPropertyOp52
 70
     0
102
RTVSPropertyOp53
 70
     1
102
RTVSPropertyOp54
 70
     1
102
RTVSPropertyOp55
 70
     1
102
RTVSPropertyOp56
 70
     1
102
RTVSPropertyOp57
 70
     1
102
RTVSPropertyOp58
 70
     1
102
RTVSPropertyOp59
 70
     1
102
RTVSPropertyOp60
 70
     1
102
RTVSPropertyOp61
 70
     1
102
RTVSPropertyOp62
 70
     1
  0
XRECORD
  5
6D1
102
{ACAD_REACTORS
330
6D0
102
}
330
6D0
100
AcDbXrecord
280
     1
102
RTVSPost2010Prop28
280
     0
102
RTVSPost2010PropOp28
 70
     1
102
RTVSPost2010Prop29
280
     1
102
RTVSPost2010PropOp29
 70
     1
102
RTVSPost2010Prop30
280
     1
102
RTVSPost2010PropOp30
 70
     1
102
RTVSPost2010Prop31
280
     0
102
RTVSPost2010PropOp31
 70
     1
102
RTVSPost2010Prop32
280
     0
102
RTVSPost2010PropOp32
 70
     1
102
RTVSPost2010Prop33
280
     0
102
RTVSPost2010PropOp33
 70
     1
102
RTVSPost2010Prop34
280
     0
102
RTVSPost2010PropOp34
 70
     1
102
RTVSPost2010Prop35
280
     0
102
RTVSPost2010PropOp35
 70
     1
102
RTVSPost2010Prop36
280
     0
102
RTVSPost2010PropOp36
 70
     1
102
RTVSPost2010Prop37
 90
       50
102
RTVSPost2010PropOp37
 70
     0
102
RTVSPost2010Prop38
140
0.0
102
RTVSPost2010PropOp38
 70
     0
102
RTVSPost2010Prop39
140
1.0
102
RTVSPost2010PropOp39
 70
     0
102
RTVSPost2010Prop40
 90
        0
102
RTVSPost2010PropOp40
 70
     0
102
RTVSPost2010Prop41ColorIndex
 90
       18
102
RTVSPost2010Prop41ColorRGB
 90
        0
102
RTVSPost2010PropOp41
 70
     0
102
RTVSPost2010Prop42
 90
       50
102
RTVSPost2010PropOp42
 70
     0
102
RTVSPost2010Prop43
 90
        3
102
RTVSPost2010PropOp43
 70
     0
102
RTVSPost2010Prop44ColorIndex
 90
        5
102
RTVSPost2010Prop44ColorRGB
 90
      255
102
RTVSPost2010PropOp44
 70
     0
102
RTVSPost2010Prop45
280
     0
102
RTVSPost2010PropOp45
 70
     1
102
RTVSPost2010Prop46
 90
       50
102
RTVSPost2010PropOp46
 70
     0
102
RTVSPost2010Prop47
 90
       50
102
RTVSPost2010PropOp47
 70
     0
102
RTVSPost2010Prop48
 90
       50
102
RTVSPost2010PropOp48
 70
     0
102
RTVSPost2010Prop49
280
     0
102
RTVSPost2010PropOp49
 70
     1
102
RTVSPost2010Prop50
 90
       50
102
RTVSPost2010PropOp50
 70
     0
102
RTVSPost2010Prop51ColorIndex
 90
      256
102
RTVSPost2010Prop51ColorRGB
 90
-16777216
102
RTVSPost2010PropOp51
 70
     0
102
RTVSPost2010Prop52
140
1.0
102
RTVSPost2010PropOp52
 70
     0
102
RTVSPost2010Prop53
 90
        2
102
RTVSPost2010PropOp53
 70
     0
102
RTVSPost2010Prop54
  1
strokes_ogs.tif
102
RTVSPost2010PropOp54
 70
     0
102
RTVSPost2010Prop55
280
     0
102
RTVSPost2010PropOp55
 70
     1
102
RTVSPost2010Prop56
140
1.0
102
RTVSPost2010PropOp56
 70
     0
102
RTVSPost2010Prop57
140
1.0
102
RTVSPost2010PropOp57
 70
     0
102
RTVSPropertyOp0
 70
     0
102
RTVSPropertyOp1
 70
     0
102
RTVSPropertyOp2
 70
     0
102
RTVSPropertyOp3
 70
     0
102
RTVSPropertyOp4
 70
     0
102
RTVSPropertyOp5
 70
     0
102
RTVSPropertyOp6
 70
     0
102
RTVSPropertyOp7
 70
     0
102
RTVSPropertyOp8
 70
     0
102
RTVSPropertyOp9
 70
     0
102
RTVSPropertyOp10
 70
     0
102
RTVSPropertyOp11
 70
     0
102
RTVSPropertyOp12
 70
     0
102
RTVSPropertyOp13
 70
     0
102
RTVSPropertyOp14
 70
     2
102
RTVSPropertyOp15
 70
     0
102
RTVSPropertyOp16
 70
     0
102
RTVSPropertyOp17
 70
     0
102
RTVSPropertyOp18
 70
     0
102
RTVSPropertyOp19
 70
     0
102
RTVSPropertyOp20
 70
     0
102
RTVSPropertyOp21
 70
     0
102
RTVSPropertyOp22
 70
     0
102
RTVSPropertyOp23
 70
     0
102
RTVSPropertyOp24
 70
     0
102
RTVSPropertyOp25
 70
     0
102
RTVSPropertyOp26
 70
     0
102
RTVSPropertyOp27
 70
     0
102
RTVSPropertyOp28
 70
     1
102
RTVSPropertyOp29
 70
     1
102
RTVSPropertyOp30
 70
     1
102
RTVSPropertyOp31
 70
     1
102
RTVSPropertyOp32
 70
     1
102
RTVSPropertyOp33
 70
     1
102
RTVSPropertyOp34
 70
     1
102
RTVSPropertyOp35
 70
     1
102
RTVSPropertyOp36
 70
     1
102
RTVSPropertyOp37
 70
     0
102
RTVSPropertyOp38
 70
     0
102
RTVSPropertyOp39
 70
     0
102
RTVSPropertyOp40
 70
     0
102
RTVSPropertyOp41
 70
     0
102
RTVSPropertyOp42
 70
     0
102
RTVSPropertyOp43
 70
     0
102
RTVSPropertyOp44
 70
     0
102
RTVSPropertyOp45
 70
     1
102
RTVSPropertyOp46
 70
     0
102
RTVSPropertyOp47
 70
     0
102
RTVSPropertyOp48
 70
     0
102
RTVSPropertyOp49
 70
     1
102
RTVSPropertyOp50
 70
     0
102
RTVSPropertyOp51
 70
     0
102
RTVSPropertyOp52
 70
     0
102
RTVSPropertyOp53
 70
     0
102
RTVSPropertyOp54
 70
     0
102
RTVSPropertyOp55
 70
     1
102
RTVSPropertyOp56
 70
     0
102
RTVSPropertyOp57
 70
     0
102
RTVSPropertyOp58
 70
     0
102
RTVSPropertyOp59
 70
     0
102
RTVSPropertyOp60
 70
     0
102
RTVSPropertyOp61
 70
     0
102
RTVSPropertyOp62
 70
     0
  0
XRECORD
  5
6C1
102
{ACAD_REACTORS
330
6C0
102
}
330
6C0
100
AcDbXrecord
280
     1
102
RTVSPost2010Prop28
280
     0
102
RTVSPost2010PropOp28
 70
     1
102
RTVSPost2010Prop29
280
     1
102
RTVSPost2010PropOp29
 70
     1
102
RTVSPost2010Prop30
280
     1
102
RTVSPost2010PropOp30
 70
     1
102
RTVSPost2010Prop31
280
     0
102
RTVSPost2010PropOp31
 70
     1
102
RTVSPost2010Prop32
280
     0
102
RTVSPost2010PropOp32
 70
     1
102
RTVSPost2010Prop33
280
     0
102
RTVSPost2010PropOp33
 70
     1
102
RTVSPost2010Prop34
280
     0
102
RTVSPost2010PropOp34
 70
     1
102
RTVSPost2010Prop35
280
     0
102
RTVSPost2010PropOp35
 70
     1
102
RTVSPost2010Prop36
280
     0
102
RTVSPost2010PropOp36
 70
     1
102
RTVSPost2010Prop37
 90
       50
102
RTVSPost2010PropOp37
 70
     1
102
RTVSPost2010Prop38
140
0.0
102
RTVSPost2010PropOp38
 70
     1
102
RTVSPost2010Prop39
140
1.0
102
RTVSPost2010PropOp39
 70
     1
102
RTVSPost2010Prop40
 90
        0
102
RTVSPost2010PropOp40
 70
     1
102
RTVSPost2010Prop41ColorIndex
 90
       18
102
RTVSPost2010Prop41ColorRGB
 90
        0
102
RTVSPost2010PropOp41
 70
     1
102
RTVSPost2010Prop42
 90
       50
102
RTVSPost2010PropOp42
 70
     1
102
RTVSPost2010Prop43
 90
        3
102
RTVSPost2010PropOp43
 70
     1
102
RTVSPost2010Prop44ColorIndex
 90
        5
102
RTVSPost2010Prop44ColorRGB
 90
      255
102
RTVSPost2010PropOp44
 70
     1
102
RTVSPost2010Prop45
280
     0
102
RTVSPost2010PropOp45
 70
     1
102
RTVSPost2010Prop46
 90
       50
102
RTVSPost2010PropOp46
 70
     1
102
RTVSPost2010Prop47
 90
       50
102
RTVSPost2010PropOp47
 70
     1
102
RTVSPost2010Prop48
 90
       50
102
RTVSPost2010PropOp48
 70
     1
102
RTVSPost2010Prop49
280
     0
102
RTVSPost2010PropOp49
 70
     1
102
RTVSPost2010Prop50
 90
       50
102
RTVSPost2010PropOp50
 70
     1
102
RTVSPost2010Prop51ColorIndex
 90
      256
102
RTVSPost2010Prop51ColorRGB
 90
-16777216
102
RTVSPost2010PropOp51
 70
     0
102
RTVSPost2010Prop52
140
1.0
102
RTVSPost2010PropOp52
 70
     0
102
RTVSPost2010Prop53
 90
        2
102
RTVSPost2010PropOp53
 70
     1
102
RTVSPost2010Prop54
  1
strokes_ogs.tif
102
RTVSPost2010PropOp54
 70
     1
102
RTVSPost2010Prop55
280
     0
102
RTVSPost2010PropOp55
 70
     1
102
RTVSPost2010Prop56
140
1.0
102
RTVSPost2010PropOp56
 70
     1
102
RTVSPost2010Prop57
140
1.0
102
RTVSPost2010PropOp57
 70
     1
102
RTVSPropertyOp0
 70
     1
102
RTVSPropertyOp1
 70
     1
102
RTVSPropertyOp2
 70
     1
102
RTVSPropertyOp3
 70
     1
102
RTVSPropertyOp4
 70
     1
102
RTVSPropertyOp5
 70
     1
102
RTVSPropertyOp6
 70
     1
102
RTVSPropertyOp7
 70
     1
102
RTVSPropertyOp8
 70
     1
102
RTVSPropertyOp9
 70
     1
102
RTVSPropertyOp10
 70
     1
102
RTVSPropertyOp11
 70
     1
102
RTVSPropertyOp12
 70
     1
102
RTVSPropertyOp13
 70
     1
102
RTVSPropertyOp14
 70
     1
102
RTVSPropertyOp15
 70
     1
102
RTVSPropertyOp16
 70
     1
102
RTVSPropertyOp17
 70
     1
102
RTVSPropertyOp18
 70
     1
102
RTVSPropertyOp19
 70
     1
102
RTVSPropertyOp20
 70
     1
102
RTVSPropertyOp21
 70
     1
102
RTVSPropertyOp22
 70
     1
102
RTVSPropertyOp23
 70
     1
102
RTVSPropertyOp24
 70
     1
102
RTVSPropertyOp25
 70
     1
102
RTVSPropertyOp26
 70
     1
102
RTVSPropertyOp27
 70
     1
102
RTVSPropertyOp28
 70
     1
102
RTVSPropertyOp29
 70
     1
102
RTVSPropertyOp30
 70
     1
102
RTVSPropertyOp31
 70
     1
102
RTVSPropertyOp32
 70
     1
102
RTVSPropertyOp33
 70
     1
102
RTVSPropertyOp34
 70
     1
102
RTVSPropertyOp35
 70
     1
102
RTVSPropertyOp36
 70
     1
102
RTVSPropertyOp37
 70
     1
102
RTVSPropertyOp38
 70
     1
102
RTVSPropertyOp39
 70
     1
102
RTVSPropertyOp40
 70
     1
102
RTVSPropertyOp41
 70
     1
102
RTVSPropertyOp42
 70
     1
102
RTVSPropertyOp43
 70
     1
102
RTVSPropertyOp44
 70
     1
102
RTVSPropertyOp45
 70
     1
102
RTVSPropertyOp46
 70
     1
102
RTVSPropertyOp47
 70
     1
102
RTVSPropertyOp48
 70
     1
102
RTVSPropertyOp49
 70
     1
102
RTVSPropertyOp50
 70
     1
102
RTVSPropertyOp51
 70
     0
102
RTVSPropertyOp52
 70
     0
102
RTVSPropertyOp53
 70
     1
102
RTVSPropertyOp54
 70
     1
102
RTVSPropertyOp55
 70
     1
102
RTVSPropertyOp56
 70
     1
102
RTVSPropertyOp57
 70
     1
102
RTVSPropertyOp58
 70
     1
102
RTVSPropertyOp59
 70
     1
102
RTVSPropertyOp60
 70
     1
102
RTVSPropertyOp61
 70
     1
102
RTVSPropertyOp62
 70
     1
  0
XRECORD
  5
6D3
102
{ACAD_REACTORS
330
6D2
102
}
330
6D2
100
AcDbXrecord
280
     1
102
RTVSPost2010Prop28
280
     0
102
RTVSPost2010PropOp28
 70
     1
102
RTVSPost2010Prop29
280
     1
102
RTVSPost2010PropOp29
 70
     1
102
RTVSPost2010Prop30
280
     1
102
RTVSPost2010PropOp30
 70
     1
102
RTVSPost2010Prop31
280
     0
102
RTVSPost2010PropOp31
 70
     1
102
RTVSPost2010Prop32
280
     0
102
RTVSPost2010PropOp32
 70
     1
102
RTVSPost2010Prop33
280
     0
102
RTVSPost2010PropOp33
 70
     1
102
RTVSPost2010Prop34
280
     0
102
RTVSPost2010PropOp34
 70
     1
102
RTVSPost2010Prop35
280
     0
102
RTVSPost2010PropOp35
 70
     1
102
RTVSPost2010Prop36
280
     0
102
RTVSPost2010PropOp36
 70
     1
102
RTVSPost2010Prop37
 90
       50
102
RTVSPost2010PropOp37
 70
     0
102
RTVSPost2010Prop38
140
0.0
102
RTVSPost2010PropOp38
 70
     0
102
RTVSPost2010Prop39
140
1.0
102
RTVSPost2010PropOp39
 70
     0
102
RTVSPost2010Prop40
 90
        0
102
RTVSPost2010PropOp40
 70
     0
102
RTVSPost2010Prop41ColorIndex
 90
       18
102
RTVSPost2010Prop41ColorRGB
 90
        0
102
RTVSPost2010PropOp41
 70
     0
102
RTVSPost2010Prop42
 90
       50
102
RTVSPost2010PropOp42
 70
     0
102
RTVSPost2010Prop43
 90
        3
102
RTVSPost2010PropOp43
 70
     0
102
RTVSPost2010Prop44ColorIndex
 90
        5
102
RTVSPost2010Prop44ColorRGB
 90
      255
102
RTVSPost2010PropOp44
 70
     0
102
RTVSPost2010Prop45
280
     0
102
RTVSPost2010PropOp45
 70
     1
102
RTVSPost2010Prop46
 90
       50
102
RTVSPost2010PropOp46
 70
     0
102
RTVSPost2010Prop47
 90
       50
102
RTVSPost2010PropOp47
 70
     0
102
RTVSPost2010Prop48
 90
       50
102
RTVSPost2010PropOp48
 70
     0
102
RTVSPost2010Prop49
280
     0
102
RTVSPost2010PropOp49
 70
     1
102
RTVSPost2010Prop50
 90
       50
102
RTVSPost2010PropOp50
 70
     0
102
RTVSPost2010Prop51ColorIndex
 90
      256
102
RTVSPost2010Prop51ColorRGB
 90
-16777216
102
RTVSPost2010PropOp51
 70
     0
102
RTVSPost2010Prop52
140
1.0
102
RTVSPost2010PropOp52
 70
     0
102
RTVSPost2010Prop53
 90
        2
102
RTVSPost2010PropOp53
 70
     0
102
RTVSPost2010Prop54
  1
strokes_ogs.tif
102
RTVSPost2010PropOp54
 70
     0
102
RTVSPost2010Prop55
280
     0
102
RTVSPost2010PropOp55
 70
     1
102
RTVSPost2010Prop56
140
1.0
102
RTVSPost2010PropOp56
 70
     0
102
RTVSPost2010Prop57
140
1.0
102
RTVSPost2010PropOp57
 70
     0
102
RTVSPropertyOp0
 70
     0
102
RTVSPropertyOp1
 70
     0
102
RTVSPropertyOp2
 70
     0
102
RTVSPropertyOp3
 70
     0
102
RTVSPropertyOp4
 70
     0
102
RTVSPropertyOp5
 70
     0
102
RTVSPropertyOp6
 70
     0
102
RTVSPropertyOp7
 70
     0
102
RTVSPropertyOp8
 70
     0
102
RTVSPropertyOp9
 70
     0
102
RTVSPropertyOp10
 70
     0
102
RTVSPropertyOp11
 70
     0
102
RTVSPropertyOp12
 70
     0
102
RTVSPropertyOp13
 70
     0
102
RTVSPropertyOp14
 70
     2
102
RTVSPropertyOp15
 70
     0
102
RTVSPropertyOp16
 70
     0
102
RTVSPropertyOp17
 70
     0
102
RTVSPropertyOp18
 70
     0
102
RTVSPropertyOp19
 70
     0
102
RTVSPropertyOp20
 70
     0
102
RTVSPropertyOp21
 70
     0
102
RTVSPropertyOp22
 70
     0
102
RTVSPropertyOp23
 70
     0
102
RTVSPropertyOp24
 70
     0
102
RTVSPropertyOp25
 70
     0
102
RTVSPropertyOp26
 70
     0
102
RTVSPropertyOp27
 70
     0
102
RTVSPropertyOp28
 70
     1
102
RTVSPropertyOp29
 70
     1
102
RTVSPropertyOp30
 70
     1
102
RTVSPropertyOp31
 70
     1
102
RTVSPropertyOp32
 70
     1
102
RTVSPropertyOp33
 70
     1
102
RTVSPropertyOp34
 70
     1
102
RTVSPropertyOp35
 70
     1
102
RTVSPropertyOp36
 70
     1
102
RTVSPropertyOp37
 70
     0
102
RTVSPropertyOp38
 70
     0
102
RTVSPropertyOp39
 70
     0
102
RTVSPropertyOp40
 70
     0
102
RTVSPropertyOp41
 70
     0
102
RTVSPropertyOp42
 70
     0
102
RTVSPropertyOp43
 70
     0
102
RTVSPropertyOp44
 70
     0
102
RTVSPropertyOp45
 70
     1
102
RTVSPropertyOp46
 70
     0
102
RTVSPropertyOp47
 70
     0
102
RTVSPropertyOp48
 70
     0
102
RTVSPropertyOp49
 70
     1
102
RTVSPropertyOp50
 70
     0
102
RTVSPropertyOp51
 70
     0
102
RTVSPropertyOp52
 70
     0
102
RTVSPropertyOp53
 70
     0
102
RTVSPropertyOp54
 70
     0
102
RTVSPropertyOp55
 70
     1
102
RTVSPropertyOp56
 70
     0
102
RTVSPropertyOp57
 70
     0
102
RTVSPropertyOp58
 70
     0
102
RTVSPropertyOp59
 70
     0
102
RTVSPropertyOp60
 70
     0
102
RTVSPropertyOp61
 70
     0
102
RTVSPropertyOp62
 70
     0
  0
XRECORD
  5
6B9
102
{ACAD_REACTORS
330
6B8
102
}
330
6B8
100
AcDbXrecord
280
     1
102
RTVSPost2010Prop28
280
     0
102
RTVSPost2010PropOp28
 70
     1
102
RTVSPost2010Prop29
280
     1
102
RTVSPost2010PropOp29
 70
     1
102
RTVSPost2010Prop30
280
     1
102
RTVSPost2010PropOp30
 70
     1
102
RTVSPost2010Prop31
280
     0
102
RTVSPost2010PropOp31
 70
     1
102
RTVSPost2010Prop32
280
     0
102
RTVSPost2010PropOp32
 70
     1
102
RTVSPost2010Prop33
280
     0
102
RTVSPost2010PropOp33
 70
     1
102
RTVSPost2010Prop34
280
     0
102
RTVSPost2010PropOp34
 70
     1
102
RTVSPost2010Prop35
280
     0
102
RTVSPost2010PropOp35
 70
     1
102
RTVSPost2010Prop36
280
     0
102
RTVSPost2010PropOp36
 70
     1
102
RTVSPost2010Prop37
 90
       50
102
RTVSPost2010PropOp37
 70
     1
102
RTVSPost2010Prop38
140
0.0
102
RTVSPost2010PropOp38
 70
     1
102
RTVSPost2010Prop39
140
1.0
102
RTVSPost2010PropOp39
 70
     1
102
RTVSPost2010Prop40
 90
        0
102
RTVSPost2010PropOp40
 70
     1
102
RTVSPost2010Prop41ColorIndex
 90
       18
102
RTVSPost2010Prop41ColorRGB
 90
        0
102
RTVSPost2010PropOp41
 70
     1
102
RTVSPost2010Prop42
 90
       50
102
RTVSPost2010PropOp42
 70
     1
102
RTVSPost2010Prop43
 90
        3
102
RTVSPost2010PropOp43
 70
     1
102
RTVSPost2010Prop44ColorIndex
 90
        5
102
RTVSPost2010Prop44ColorRGB
 90
      255
102
RTVSPost2010PropOp44
 70
     1
102
RTVSPost2010Prop45
280
     0
102
RTVSPost2010PropOp45
 70
     1
102
RTVSPost2010Prop46
 90
       50
102
RTVSPost2010PropOp46
 70
     1
102
RTVSPost2010Prop47
 90
       50
102
RTVSPost2010PropOp47
 70
     1
102
RTVSPost2010Prop48
 90
       50
102
RTVSPost2010PropOp48
 70
     1
102
RTVSPost2010Prop49
280
     0
102
RTVSPost2010PropOp49
 70
     1
102
RTVSPost2010Prop50
 90
       50
102
RTVSPost2010PropOp50
 70
     1
102
RTVSPost2010Prop51ColorIndex
 90
      256
102
RTVSPost2010Prop51ColorRGB
 90
-16777216
102
RTVSPost2010PropOp51
 70
     0
102
RTVSPost2010Prop52
140
1.0
102
RTVSPost2010PropOp52
 70
     0
102
RTVSPost2010Prop53
 90
        2
102
RTVSPost2010PropOp53
 70
     1
102
RTVSPost2010Prop54
  1
strokes_ogs.tif
102
RTVSPost2010PropOp54
 70
     1
102
RTVSPost2010Prop55
280
     0
102
RTVSPost2010PropOp55
 70
     1
102
RTVSPost2010Prop56
140
1.0
102
RTVSPost2010PropOp56
 70
     1
102
RTVSPost2010Prop57
140
1.0
102
RTVSPost2010PropOp57
 70
     1
102
RTVSPropertyOp0
 70
     1
102
RTVSPropertyOp1
 70
     1
102
RTVSPropertyOp2
 70
     1
102
RTVSPropertyOp3
 70
     1
102
RTVSPropertyOp4
 70
     1
102
RTVSPropertyOp5
 70
     1
102
RTVSPropertyOp6
 70
     1
102
RTVSPropertyOp7
 70
     1
102
RTVSPropertyOp8
 70
     1
102
RTVSPropertyOp9
 70
     1
102
RTVSPropertyOp10
 70
     1
102
RTVSPropertyOp11
 70
     1
102
RTVSPropertyOp12
 70
     1
102
RTVSPropertyOp13
 70
     1
102
RTVSPropertyOp14
 70
     1
102
RTVSPropertyOp15
 70
     1
102
RTVSPropertyOp16
 70
     1
102
RTVSPropertyOp17
 70
     1
102
RTVSPropertyOp18
 70
     1
102
RTVSPropertyOp19
 70
     1
102
RTVSPropertyOp20
 70
     1
102
RTVSPropertyOp21
 70
     1
102
RTVSPropertyOp22
 70
     1
102
RTVSPropertyOp23
 70
     1
102
RTVSPropertyOp24
 70
     1
102
RTVSPropertyOp25
 70
     1
102
RTVSPropertyOp26
 70
     1
102
RTVSPropertyOp27
 70
     1
102
RTVSPropertyOp28
 70
     1
102
RTVSPropertyOp29
 70
     1
102
RTVSPropertyOp30
 70
     1
102
RTVSPropertyOp31
 70
     1
102
RTVSPropertyOp32
 70
     1
102
RTVSPropertyOp33
 70
     1
102
RTVSPropertyOp34
 70
     1
102
RTVSPropertyOp35
 70
     1
102
RTVSPropertyOp36
 70
     1
102
RTVSPropertyOp37
 70
     1
102
RTVSPropertyOp38
 70
     1
102
RTVSPropertyOp39
 70
     1
102
RTVSPropertyOp40
 70
     1
102
RTVSPropertyOp41
 70
     1
102
RTVSPropertyOp42
 70
     1
102
RTVSPropertyOp43
 70
     1
102
RTVSPropertyOp44
 70
     1
102
RTVSPropertyOp45
 70
     1
102
RTVSPropertyOp46
 70
     1
102
RTVSPropertyOp47
 70
     1
102
RTVSPropertyOp48
 70
     1
102
RTVSPropertyOp49
 70
     1
102
RTVSPropertyOp50
 70
     1
102
RTVSPropertyOp51
 70
     0
102
RTVSPropertyOp52
 70
     0
102
RTVSPropertyOp53
 70
     1
102
RTVSPropertyOp54
 70
     1
102
RTVSPropertyOp55
 70
     1
102
RTVSPropertyOp56
 70
     1
102
RTVSPropertyOp57
 70
     1
102
RTVSPropertyOp58
 70
     1
102
RTVSPropertyOp59
 70
     1
102
RTVSPropertyOp60
 70
     1
102
RTVSPropertyOp61
 70
     1
102
RTVSPropertyOp62
 70
     1
  0
XRECORD
  5
6CF
102
{ACAD_REACTORS
330
6CE
102
}
330
6CE
100
AcDbXrecord
280
     1
102
RTVSPost2010Prop28
280
     0
102
RTVSPost2010PropOp28
 70
     1
102
RTVSPost2010Prop29
280
     1
102
RTVSPost2010PropOp29
 70
     1
102
RTVSPost2010Prop30
280
     1
102
RTVSPost2010PropOp30
 70
     1
102
RTVSPost2010Prop31
280
     0
102
RTVSPost2010PropOp31
 70
     1
102
RTVSPost2010Prop32
280
     0
102
RTVSPost2010PropOp32
 70
     1
102
RTVSPost2010Prop33
280
     0
102
RTVSPost2010PropOp33
 70
     1
102
RTVSPost2010Prop34
280
     0
102
RTVSPost2010PropOp34
 70
     1
102
RTVSPost2010Prop35
280
     0
102
RTVSPost2010PropOp35
 70
     1
102
RTVSPost2010Prop36
280
     0
102
RTVSPost2010PropOp36
 70
     1
102
RTVSPost2010Prop37
 90
       50
102
RTVSPost2010PropOp37
 70
     1
102
RTVSPost2010Prop38
140
0.0
102
RTVSPost2010PropOp38
 70
     1
102
RTVSPost2010Prop39
140
1.0
102
RTVSPost2010PropOp39
 70
     1
102
RTVSPost2010Prop40
 90
        0
102
RTVSPost2010PropOp40
 70
     1
102
RTVSPost2010Prop41ColorIndex
 90
       18
102
RTVSPost2010Prop41ColorRGB
 90
        0
102
RTVSPost2010PropOp41
 70
     1
102
RTVSPost2010Prop42
 90
       50
102
RTVSPost2010PropOp42
 70
     1
102
RTVSPost2010Prop43
 90
        3
102
RTVSPost2010PropOp43
 70
     1
102
RTVSPost2010Prop44ColorIndex
 90
        5
102
RTVSPost2010Prop44ColorRGB
 90
      255
102
RTVSPost2010PropOp44
 70
     1
102
RTVSPost2010Prop45
280
     0
102
RTVSPost2010PropOp45
 70
     1
102
RTVSPost2010Prop46
 90
       50
102
RTVSPost2010PropOp46
 70
     1
102
RTVSPost2010Prop47
 90
       50
102
RTVSPost2010PropOp47
 70
     1
102
RTVSPost2010Prop48
 90
       50
102
RTVSPost2010PropOp48
 70
     1
102
RTVSPost2010Prop49
280
     0
102
RTVSPost2010PropOp49
 70
     1
102
RTVSPost2010Prop50
 90
       50
102
RTVSPost2010PropOp50
 70
     1
102
RTVSPost2010Prop51ColorIndex
 90
      256
102
RTVSPost2010Prop51ColorRGB
 90
-16777216
102
RTVSPost2010PropOp51
 70
     0
102
RTVSPost2010Prop52
140
1.0
102
RTVSPost2010PropOp52
 70
     0
102
RTVSPost2010Prop53
 90
        2
102
RTVSPost2010PropOp53
 70
     1
102
RTVSPost2010Prop54
  1
strokes_ogs.tif
102
RTVSPost2010PropOp54
 70
     1
102
RTVSPost2010Prop55
280
     0
102
RTVSPost2010PropOp55
 70
     1
102
RTVSPost2010Prop56
140
1.0
102
RTVSPost2010PropOp56
 70
     1
102
RTVSPost2010Prop57
140
1.0
102
RTVSPost2010PropOp57
 70
     1
102
RTVSPropertyOp0
 70
     1
102
RTVSPropertyOp1
 70
     1
102
RTVSPropertyOp2
 70
     1
102
RTVSPropertyOp3
 70
     1
102
RTVSPropertyOp4
 70
     1
102
RTVSPropertyOp5
 70
     1
102
RTVSPropertyOp6
 70
     1
102
RTVSPropertyOp7
 70
     1
102
RTVSPropertyOp8
 70
     1
102
RTVSPropertyOp9
 70
     1
102
RTVSPropertyOp10
 70
     1
102
RTVSPropertyOp11
 70
     1
102
RTVSPropertyOp12
 70
     1
102
RTVSPropertyOp13
 70
     1
102
RTVSPropertyOp14
 70
     1
102
RTVSPropertyOp15
 70
     1
102
RTVSPropertyOp16
 70
     1
102
RTVSPropertyOp17
 70
     1
102
RTVSPropertyOp18
 70
     1
102
RTVSPropertyOp19
 70
     1
102
RTVSPropertyOp20
 70
     1
102
RTVSPropertyOp21
 70
     1
102
RTVSPropertyOp22
 70
     1
102
RTVSPropertyOp23
 70
     1
102
RTVSPropertyOp24
 70
     1
102
RTVSPropertyOp25
 70
     1
102
RTVSPropertyOp26
 70
     1
102
RTVSPropertyOp27
 70
     1
102
RTVSPropertyOp28
 70
     1
102
RTVSPropertyOp29
 70
     1
102
RTVSPropertyOp30
 70
     1
102
RTVSPropertyOp31
 70
     1
102
RTVSPropertyOp32
 70
     1
102
RTVSPropertyOp33
 70
     1
102
RTVSPropertyOp34
 70
     1
102
RTVSPropertyOp35
 70
     1
102
RTVSPropertyOp36
 70
     1
102
RTVSPropertyOp37
 70
     1
102
RTVSPropertyOp38
 70
     1
102
RTVSPropertyOp39
 70
     1
102
RTVSPropertyOp40
 70
     1
102
RTVSPropertyOp41
 70
     1
102
RTVSPropertyOp42
 70
     1
102
RTVSPropertyOp43
 70
     1
102
RTVSPropertyOp44
 70
     1
102
RTVSPropertyOp45
 70
     1
102
RTVSPropertyOp46
 70
     1
102
RTVSPropertyOp47
 70
     1
102
RTVSPropertyOp48
 70
     1
102
RTVSPropertyOp49
 70
     1
102
RTVSPropertyOp50
 70
     1
102
RTVSPropertyOp51
 70
     0
102
RTVSPropertyOp52
 70
     0
102
RTVSPropertyOp53
 70
     1
102
RTVSPropertyOp54
 70
     1
102
RTVSPropertyOp55
 70
     1
102
RTVSPropertyOp56
 70
     1
102
RTVSPropertyOp57
 70
     1
102
RTVSPropertyOp58
 70
     1
102
RTVSPropertyOp59
 70
     1
102
RTVSPropertyOp60
 70
     1
102
RTVSPropertyOp61
 70
     1
102
RTVSPropertyOp62
 70
     1
  0
XRECORD
  5
6CD
102
{ACAD_REACTORS
330
6CC
102
}
330
6CC
100
AcDbXrecord
280
     1
102
RTVSPost2010Prop28
280
     0
102
RTVSPost2010PropOp28
 70
     1
102
RTVSPost2010Prop29
280
     1
102
RTVSPost2010PropOp29
 70
     1
102
RTVSPost2010Prop30
280
     1
102
RTVSPost2010PropOp30
 70
     1
102
RTVSPost2010Prop31
280
     0
102
RTVSPost2010PropOp31
 70
     1
102
RTVSPost2010Prop32
280
     0
102
RTVSPost2010PropOp32
 70
     1
102
RTVSPost2010Prop33
280
     0
102
RTVSPost2010PropOp33
 70
     1
102
RTVSPost2010Prop34
280
     0
102
RTVSPost2010PropOp34
 70
     1
102
RTVSPost2010Prop35
280
     0
102
RTVSPost2010PropOp35
 70
     1
102
RTVSPost2010Prop36
280
     0
102
RTVSPost2010PropOp36
 70
     1
102
RTVSPost2010Prop37
 90
       50
102
RTVSPost2010PropOp37
 70
     1
102
RTVSPost2010Prop38
140
0.0
102
RTVSPost2010PropOp38
 70
     1
102
RTVSPost2010Prop39
140
1.0
102
RTVSPost2010PropOp39
 70
     1
102
RTVSPost2010Prop40
 90
        0
102
RTVSPost2010PropOp40
 70
     1
102
RTVSPost2010Prop41ColorIndex
 90
       18
102
RTVSPost2010Prop41ColorRGB
 90
        0
102
RTVSPost2010PropOp41
 70
     1
102
RTVSPost2010Prop42
 90
       50
102
RTVSPost2010PropOp42
 70
     1
102
RTVSPost2010Prop43
 90
        3
102
RTVSPost2010PropOp43
 70
     1
102
RTVSPost2010Prop44ColorIndex
 90
        5
102
RTVSPost2010Prop44ColorRGB
 90
      255
102
RTVSPost2010PropOp44
 70
     1
102
RTVSPost2010Prop45
280
     0
102
RTVSPost2010PropOp45
 70
     1
102
RTVSPost2010Prop46
 90
       50
102
RTVSPost2010PropOp46
 70
     1
102
RTVSPost2010Prop47
 90
       50
102
RTVSPost2010PropOp47
 70
     1
102
RTVSPost2010Prop48
 90
       50
102
RTVSPost2010PropOp48
 70
     1
102
RTVSPost2010Prop49
280
     0
102
RTVSPost2010PropOp49
 70
     1
102
RTVSPost2010Prop50
 90
       50
102
RTVSPost2010PropOp50
 70
     1
102
RTVSPost2010Prop51ColorIndex
 90
      256
102
RTVSPost2010Prop51ColorRGB
 90
-16777216
102
RTVSPost2010PropOp51
 70
     0
102
RTVSPost2010Prop52
140
1.0
102
RTVSPost2010PropOp52
 70
     0
102
RTVSPost2010Prop53
 90
        2
102
RTVSPost2010PropOp53
 70
     1
102
RTVSPost2010Prop54
  1
strokes_ogs.tif
102
RTVSPost2010PropOp54
 70
     1
102
RTVSPost2010Prop55
280
     0
102
RTVSPost2010PropOp55
 70
     1
102
RTVSPost2010Prop56
140
1.0
102
RTVSPost2010PropOp56
 70
     1
102
RTVSPost2010Prop57
140
1.0
102
RTVSPost2010PropOp57
 70
     1
102
RTVSPropertyOp0
 70
     1
102
RTVSPropertyOp1
 70
     1
102
RTVSPropertyOp2
 70
     1
102
RTVSPropertyOp3
 70
     1
102
RTVSPropertyOp4
 70
     1
102
RTVSPropertyOp5
 70
     1
102
RTVSPropertyOp6
 70
     1
102
RTVSPropertyOp7
 70
     1
102
RTVSPropertyOp8
 70
     1
102
RTVSPropertyOp9
 70
     1
102
RTVSPropertyOp10
 70
     1
102
RTVSPropertyOp11
 70
     1
102
RTVSPropertyOp12
 70
     1
102
RTVSPropertyOp13
 70
     1
102
RTVSPropertyOp14
 70
     1
102
RTVSPropertyOp15
 70
     1
102
RTVSPropertyOp16
 70
     1
102
RTVSPropertyOp17
 70
     1
102
RTVSPropertyOp18
 70
     1
102
RTVSPropertyOp19
 70
     1
102
RTVSPropertyOp20
 70
     1
102
RTVSPropertyOp21
 70
     1
102
RTVSPropertyOp22
 70
     1
102
RTVSPropertyOp23
 70
     1
102
RTVSPropertyOp24
 70
     1
102
RTVSPropertyOp25
 70
     1
102
RTVSPropertyOp26
 70
     1
102
RTVSPropertyOp27
 70
     1
102
RTVSPropertyOp28
 70
     1
102
RTVSPropertyOp29
 70
     1
102
RTVSPropertyOp30
 70
     1
102
RTVSPropertyOp31
 70
     1
102
RTVSPropertyOp32
 70
     1
102
RTVSPropertyOp33
 70
     1
102
RTVSPropertyOp34
 70
     1
102
RTVSPropertyOp35
 70
     1
102
RTVSPropertyOp36
 70
     1
102
RTVSPropertyOp37
 70
     1
102
RTVSPropertyOp38
 70
     1
102
RTVSPropertyOp39
 70
     1
102
RTVSPropertyOp40
 70
     1
102
RTVSPropertyOp41
 70
     1
102
RTVSPropertyOp42
 70
     1
102
RTVSPropertyOp43
 70
     1
102
RTVSPropertyOp44
 70
     1
102
RTVSPropertyOp45
 70
     1
102
RTVSPropertyOp46
 70
     1
102
RTVSPropertyOp47
 70
     1
102
RTVSPropertyOp48
 70
     1
102
RTVSPropertyOp49
 70
     1
102
RTVSPropertyOp50
 70
     1
102
RTVSPropertyOp51
 70
     0
102
RTVSPropertyOp52
 70
     0
102
RTVSPropertyOp53
 70
     1
102
RTVSPropertyOp54
 70
     1
102
RTVSPropertyOp55
 70
     1
102
RTVSPropertyOp56
 70
     1
102
RTVSPropertyOp57
 70
     1
102
RTVSPropertyOp58
 70
     1
102
RTVSPropertyOp59
 70
     1
102
RTVSPropertyOp60
 70
     1
102
RTVSPropertyOp61
 70
     1
102
RTVSPropertyOp62
 70
     1
  0
XRECORD
  5
6C7
102
{ACAD_REACTORS
330
6C6
102
}
330
6C6
100
AcDbXrecord
280
     1
102
RTVSPost2010Prop28
280
     0
102
RTVSPost2010PropOp28
 70
     1
102
RTVSPost2010Prop29
280
     1
102
RTVSPost2010PropOp29
 70
     1
102
RTVSPost2010Prop30
280
     1
102
RTVSPost2010PropOp30
 70
     1
102
RTVSPost2010Prop31
280
     0
102
RTVSPost2010PropOp31
 70
     1
102
RTVSPost2010Prop32
280
     0
102
RTVSPost2010PropOp32
 70
     1
102
RTVSPost2010Prop33
280
     0
102
RTVSPost2010PropOp33
 70
     1
102
RTVSPost2010Prop34
280
     0
102
RTVSPost2010PropOp34
 70
     1
102
RTVSPost2010Prop35
280
     0
102
RTVSPost2010PropOp35
 70
     1
102
RTVSPost2010Prop36
280
     0
102
RTVSPost2010PropOp36
 70
     1
102
RTVSPost2010Prop37
 90
       50
102
RTVSPost2010PropOp37
 70
     1
102
RTVSPost2010Prop38
140
0.0
102
RTVSPost2010PropOp38
 70
     1
102
RTVSPost2010Prop39
140
1.0
102
RTVSPost2010PropOp39
 70
     1
102
RTVSPost2010Prop40
 90
        0
102
RTVSPost2010PropOp40
 70
     1
102
RTVSPost2010Prop41ColorIndex
 90
       18
102
RTVSPost2010Prop41ColorRGB
 90
        0
102
RTVSPost2010PropOp41
 70
     1
102
RTVSPost2010Prop42
 90
       50
102
RTVSPost2010PropOp42
 70
     1
102
RTVSPost2010Prop43
 90
        3
102
RTVSPost2010PropOp43
 70
     1
102
RTVSPost2010Prop44ColorIndex
 90
        5
102
RTVSPost2010Prop44ColorRGB
 90
      255
102
RTVSPost2010PropOp44
 70
     1
102
RTVSPost2010Prop45
280
     0
102
RTVSPost2010PropOp45
 70
     1
102
RTVSPost2010Prop46
 90
       50
102
RTVSPost2010PropOp46
 70
     1
102
RTVSPost2010Prop47
 90
       50
102
RTVSPost2010PropOp47
 70
     1
102
RTVSPost2010Prop48
 90
       50
102
RTVSPost2010PropOp48
 70
     1
102
RTVSPost2010Prop49
280
     0
102
RTVSPost2010PropOp49
 70
     1
102
RTVSPost2010Prop50
 90
       50
102
RTVSPost2010PropOp50
 70
     1
102
RTVSPost2010Prop51ColorIndex
 90
      256
102
RTVSPost2010Prop51ColorRGB
 90
-16777216
102
RTVSPost2010PropOp51
 70
     0
102
RTVSPost2010Prop52
140
1.0
102
RTVSPost2010PropOp52
 70
     0
102
RTVSPost2010Prop53
 90
        2
102
RTVSPost2010PropOp53
 70
     1
102
RTVSPost2010Prop54
  1
strokes_ogs.tif
102
RTVSPost2010PropOp54
 70
     1
102
RTVSPost2010Prop55
280
     0
102
RTVSPost2010PropOp55
 70
     1
102
RTVSPost2010Prop56
140
1.0
102
RTVSPost2010PropOp56
 70
     1
102
RTVSPost2010Prop57
140
1.0
102
RTVSPost2010PropOp57
 70
     1
102
RTVSPropertyOp0
 70
     1
102
RTVSPropertyOp1
 70
     1
102
RTVSPropertyOp2
 70
     1
102
RTVSPropertyOp3
 70
     1
102
RTVSPropertyOp4
 70
     1
102
RTVSPropertyOp5
 70
     1
102
RTVSPropertyOp6
 70
     1
102
RTVSPropertyOp7
 70
     1
102
RTVSPropertyOp8
 70
     1
102
RTVSPropertyOp9
 70
     1
102
RTVSPropertyOp10
 70
     1
102
RTVSPropertyOp11
 70
     1
102
RTVSPropertyOp12
 70
     1
102
RTVSPropertyOp13
 70
     1
102
RTVSPropertyOp14
 70
     1
102
RTVSPropertyOp15
 70
     1
102
RTVSPropertyOp16
 70
     1
102
RTVSPropertyOp17
 70
     1
102
RTVSPropertyOp18
 70
     1
102
RTVSPropertyOp19
 70
     1
102
RTVSPropertyOp20
 70
     1
102
RTVSPropertyOp21
 70
     1
102
RTVSPropertyOp22
 70
     1
102
RTVSPropertyOp23
 70
     1
102
RTVSPropertyOp24
 70
     1
102
RTVSPropertyOp25
 70
     1
102
RTVSPropertyOp26
 70
     1
102
RTVSPropertyOp27
 70
     1
102
RTVSPropertyOp28
 70
     1
102
RTVSPropertyOp29
 70
     1
102
RTVSPropertyOp30
 70
     1
102
RTVSPropertyOp31
 70
     1
102
RTVSPropertyOp32
 70
     1
102
RTVSPropertyOp33
 70
     1
102
RTVSPropertyOp34
 70
     1
102
RTVSPropertyOp35
 70
     1
102
RTVSPropertyOp36
 70
     1
102
RTVSPropertyOp37
 70
     1
102
RTVSPropertyOp38
 70
     1
102
RTVSPropertyOp39
 70
     1
102
RTVSPropertyOp40
 70
     1
102
RTVSPropertyOp41
 70
     1
102
RTVSPropertyOp42
 70
     1
102
RTVSPropertyOp43
 70
     1
102
RTVSPropertyOp44
 70
     1
102
RTVSPropertyOp45
 70
     1
102
RTVSPropertyOp46
 70
     1
102
RTVSPropertyOp47
 70
     1
102
RTVSPropertyOp48
 70
     1
102
RTVSPropertyOp49
 70
     1
102
RTVSPropertyOp50
 70
     1
102
RTVSPropertyOp51
 70
     0
102
RTVSPropertyOp52
 70
     0
102
RTVSPropertyOp53
 70
     1
102
RTVSPropertyOp54
 70
     1
102
RTVSPropertyOp55
 70
     1
102
RTVSPropertyOp56
 70
     1
102
RTVSPropertyOp57
 70
     1
102
RTVSPropertyOp58
 70
     1
102
RTVSPropertyOp59
 70
     1
102
RTVSPropertyOp60
 70
     1
102
RTVSPropertyOp61
 70
     1
102
RTVSPropertyOp62
 70
     1
  0
XRECORD
  5
6C9
102
{ACAD_REACTORS
330
6C8
102
}
330
6C8
100
AcDbXrecord
280
     1
102
RTVSPost2010Prop28
280
     0
102
RTVSPost2010PropOp28
 70
     1
102
RTVSPost2010Prop29
280
     1
102
RTVSPost2010PropOp29
 70
     1
102
RTVSPost2010Prop30
280
     1
102
RTVSPost2010PropOp30
 70
     1
102
RTVSPost2010Prop31
280
     0
102
RTVSPost2010PropOp31
 70
     1
102
RTVSPost2010Prop32
280
     0
102
RTVSPost2010PropOp32
 70
     1
102
RTVSPost2010Prop33
280
     0
102
RTVSPost2010PropOp33
 70
     1
102
RTVSPost2010Prop34
280
     0
102
RTVSPost2010PropOp34
 70
     1
102
RTVSPost2010Prop35
280
     0
102
RTVSPost2010PropOp35
 70
     1
102
RTVSPost2010Prop36
280
     0
102
RTVSPost2010PropOp36
 70
     1
102
RTVSPost2010Prop37
 90
       50
102
RTVSPost2010PropOp37
 70
     1
102
RTVSPost2010Prop38
140
0.0
102
RTVSPost2010PropOp38
 70
     1
102
RTVSPost2010Prop39
140
1.0
102
RTVSPost2010PropOp39
 70
     1
102
RTVSPost2010Prop40
 90
        0
102
RTVSPost2010PropOp40
 70
     1
102
RTVSPost2010Prop41ColorIndex
 90
       18
102
RTVSPost2010Prop41ColorRGB
 90
        0
102
RTVSPost2010PropOp41
 70
     1
102
RTVSPost2010Prop42
 90
       50
102
RTVSPost2010PropOp42
 70
     1
102
RTVSPost2010Prop43
 90
        3
102
RTVSPost2010PropOp43
 70
     1
102
RTVSPost2010Prop44ColorIndex
 90
        5
102
RTVSPost2010Prop44ColorRGB
 90
      255
102
RTVSPost2010PropOp44
 70
     1
102
RTVSPost2010Prop45
280
     0
102
RTVSPost2010PropOp45
 70
     1
102
RTVSPost2010Prop46
 90
       50
102
RTVSPost2010PropOp46
 70
     1
102
RTVSPost2010Prop47
 90
       50
102
RTVSPost2010PropOp47
 70
     1
102
RTVSPost2010Prop48
 90
       50
102
RTVSPost2010PropOp48
 70
     1
102
RTVSPost2010Prop49
280
     0
102
RTVSPost2010PropOp49
 70
     1
102
RTVSPost2010Prop50
 90
       50
102
RTVSPost2010PropOp50
 70
     1
102
RTVSPost2010Prop51ColorIndex
 90
      256
102
RTVSPost2010Prop51ColorRGB
 90
-16777216
102
RTVSPost2010PropOp51
 70
     0
102
RTVSPost2010Prop52
140
1.0
102
RTVSPost2010PropOp52
 70
     0
102
RTVSPost2010Prop53
 90
        2
102
RTVSPost2010PropOp53
 70
     1
102
RTVSPost2010Prop54
  1
strokes_ogs.tif
102
RTVSPost2010PropOp54
 70
     1
102
RTVSPost2010Prop55
280
     0
102
RTVSPost2010PropOp55
 70
     1
102
RTVSPost2010Prop56
140
1.0
102
RTVSPost2010PropOp56
 70
     1
102
RTVSPost2010Prop57
140
1.0
102
RTVSPost2010PropOp57
 70
     1
102
RTVSPropertyOp0
 70
     1
102
RTVSPropertyOp1
 70
     1
102
RTVSPropertyOp2
 70
     1
102
RTVSPropertyOp3
 70
     1
102
RTVSPropertyOp4
 70
     1
102
RTVSPropertyOp5
 70
     1
102
RTVSPropertyOp6
 70
     1
102
RTVSPropertyOp7
 70
     1
102
RTVSPropertyOp8
 70
     1
102
RTVSPropertyOp9
 70
     1
102
RTVSPropertyOp10
 70
     1
102
RTVSPropertyOp11
 70
     1
102
RTVSPropertyOp12
 70
     1
102
RTVSPropertyOp13
 70
     1
102
RTVSPropertyOp14
 70
     1
102
RTVSPropertyOp15
 70
     1
102
RTVSPropertyOp16
 70
     1
102
RTVSPropertyOp17
 70
     1
102
RTVSPropertyOp18
 70
     1
102
RTVSPropertyOp19
 70
     1
102
RTVSPropertyOp20
 70
     1
102
RTVSPropertyOp21
 70
     1
102
RTVSPropertyOp22
 70
     1
102
RTVSPropertyOp23
 70
     1
102
RTVSPropertyOp24
 70
     1
102
RTVSPropertyOp25
 70
     1
102
RTVSPropertyOp26
 70
     1
102
RTVSPropertyOp27
 70
     1
102
RTVSPropertyOp28
 70
     1
102
RTVSPropertyOp29
 70
     1
102
RTVSPropertyOp30
 70
     1
102
RTVSPropertyOp31
 70
     1
102
RTVSPropertyOp32
 70
     1
102
RTVSPropertyOp33
 70
     1
102
RTVSPropertyOp34
 70
     1
102
RTVSPropertyOp35
 70
     1
102
RTVSPropertyOp36
 70
     1
102
RTVSPropertyOp37
 70
     1
102
RTVSPropertyOp38
 70
     1
102
RTVSPropertyOp39
 70
     1
102
RTVSPropertyOp40
 70
     1
102
RTVSPropertyOp41
 70
     1
102
RTVSPropertyOp42
 70
     1
102
RTVSPropertyOp43
 70
     1
102
RTVSPropertyOp44
 70
     1
102
RTVSPropertyOp45
 70
     1
102
RTVSPropertyOp46
 70
     1
102
RTVSPropertyOp47
 70
     1
102
RTVSPropertyOp48
 70
     1
102
RTVSPropertyOp49
 70
     1
102
RTVSPropertyOp50
 70
     1
102
RTVSPropertyOp51
 70
     0
102
RTVSPropertyOp52
 70
     0
102
RTVSPropertyOp53
 70
     1
102
RTVSPropertyOp54
 70
     1
102
RTVSPropertyOp55
 70
     1
102
RTVSPropertyOp56
 70
     1
102
RTVSPropertyOp57
 70
     1
102
RTVSPropertyOp58
 70
     1
102
RTVSPropertyOp59
 70
     1
102
RTVSPropertyOp60
 70
     1
102
RTVSPropertyOp61
 70
     1
102
RTVSPropertyOp62
 70
     1
  0
XRECORD
  5
6BF
102
{ACAD_REACTORS
330
6BE
102
}
330
6BE
100
AcDbXrecord
280
     1
102
RTVSPost2010Prop28
280
     0
102
RTVSPost2010PropOp28
 70
     1
102
RTVSPost2010Prop29
280
     1
102
RTVSPost2010PropOp29
 70
     1
102
RTVSPost2010Prop30
280
     1
102
RTVSPost2010PropOp30
 70
     1
102
RTVSPost2010Prop31
280
     0
102
RTVSPost2010PropOp31
 70
     1
102
RTVSPost2010Prop32
280
     0
102
RTVSPost2010PropOp32
 70
     1
102
RTVSPost2010Prop33
280
     0
102
RTVSPost2010PropOp33
 70
     1
102
RTVSPost2010Prop34
280
     0
102
RTVSPost2010PropOp34
 70
     1
102
RTVSPost2010Prop35
280
     0
102
RTVSPost2010PropOp35
 70
     1
102
RTVSPost2010Prop36
280
     0
102
RTVSPost2010PropOp36
 70
     1
102
RTVSPost2010Prop37
 90
       50
102
RTVSPost2010PropOp37
 70
     1
102
RTVSPost2010Prop38
140
0.0
102
RTVSPost2010PropOp38
 70
     1
102
RTVSPost2010Prop39
140
1.0
102
RTVSPost2010PropOp39
 70
     1
102
RTVSPost2010Prop40
 90
        0
102
RTVSPost2010PropOp40
 70
     1
102
RTVSPost2010Prop41ColorIndex
 90
       18
102
RTVSPost2010Prop41ColorRGB
 90
        0
102
RTVSPost2010PropOp41
 70
     1
102
RTVSPost2010Prop42
 90
       50
102
RTVSPost2010PropOp42
 70
     1
102
RTVSPost2010Prop43
 90
        3
102
RTVSPost2010PropOp43
 70
     1
102
RTVSPost2010Prop44ColorIndex
 90
        5
102
RTVSPost2010Prop44ColorRGB
 90
      255
102
RTVSPost2010PropOp44
 70
     1
102
RTVSPost2010Prop45
280
     0
102
RTVSPost2010PropOp45
 70
     1
102
RTVSPost2010Prop46
 90
       50
102
RTVSPost2010PropOp46
 70
     1
102
RTVSPost2010Prop47
 90
       50
102
RTVSPost2010PropOp47
 70
     1
102
RTVSPost2010Prop48
 90
       50
102
RTVSPost2010PropOp48
 70
     1
102
RTVSPost2010Prop49
280
     0
102
RTVSPost2010PropOp49
 70
     1
102
RTVSPost2010Prop50
 90
       50
102
RTVSPost2010PropOp50
 70
     1
102
RTVSPost2010Prop51ColorIndex
 90
      256
102
RTVSPost2010Prop51ColorRGB
 90
-16777216
102
RTVSPost2010PropOp51
 70
     0
102
RTVSPost2010Prop52
140
1.0
102
RTVSPost2010PropOp52
 70
     0
102
RTVSPost2010Prop53
 90
        2
102
RTVSPost2010PropOp53
 70
     1
102
RTVSPost2010Prop54
  1
strokes_ogs.tif
102
RTVSPost2010PropOp54
 70
     1
102
RTVSPost2010Prop55
280
     0
102
RTVSPost2010PropOp55
 70
     1
102
RTVSPost2010Prop56
140
1.0
102
RTVSPost2010PropOp56
 70
     1
102
RTVSPost2010Prop57
140
1.0
102
RTVSPost2010PropOp57
 70
     1
102
RTVSPropertyOp0
 70
     1
102
RTVSPropertyOp1
 70
     1
102
RTVSPropertyOp2
 70
     1
102
RTVSPropertyOp3
 70
     1
102
RTVSPropertyOp4
 70
     1
102
RTVSPropertyOp5
 70
     1
102
RTVSPropertyOp6
 70
     1
102
RTVSPropertyOp7
 70
     1
102
RTVSPropertyOp8
 70
     1
102
RTVSPropertyOp9
 70
     1
102
RTVSPropertyOp10
 70
     1
102
RTVSPropertyOp11
 70
     1
102
RTVSPropertyOp12
 70
     1
102
RTVSPropertyOp13
 70
     1
102
RTVSPropertyOp14
 70
     1
102
RTVSPropertyOp15
 70
     1
102
RTVSPropertyOp16
 70
     1
102
RTVSPropertyOp17
 70
     1
102
RTVSPropertyOp18
 70
     1
102
RTVSPropertyOp19
 70
     1
102
RTVSPropertyOp20
 70
     1
102
RTVSPropertyOp21
 70
     1
102
RTVSPropertyOp22
 70
     1
102
RTVSPropertyOp23
 70
     1
102
RTVSPropertyOp24
 70
     1
102
RTVSPropertyOp25
 70
     1
102
RTVSPropertyOp26
 70
     1
102
RTVSPropertyOp27
 70
     1
102
RTVSPropertyOp28
 70
     1
102
RTVSPropertyOp29
 70
     1
102
RTVSPropertyOp30
 70
     1
102
RTVSPropertyOp31
 70
     1
102
RTVSPropertyOp32
 70
     1
102
RTVSPropertyOp33
 70
     1
102
RTVSPropertyOp34
 70
     1
102
RTVSPropertyOp35
 70
     1
102
RTVSPropertyOp36
 70
     1
102
RTVSPropertyOp37
 70
     1
102
RTVSPropertyOp38
 70
     1
102
RTVSPropertyOp39
 70
     1
102
RTVSPropertyOp40
 70
     1
102
RTVSPropertyOp41
 70
     1
102
RTVSPropertyOp42
 70
     1
102
RTVSPropertyOp43
 70
     1
102
RTVSPropertyOp44
 70
     1
102
RTVSPropertyOp45
 70
     1
102
RTVSPropertyOp46
 70
     1
102
RTVSPropertyOp47
 70
     1
102
RTVSPropertyOp48
 70
     1
102
RTVSPropertyOp49
 70
     1
102
RTVSPropertyOp50
 70
     1
102
RTVSPropertyOp51
 70
     0
102
RTVSPropertyOp52
 70
     0
102
RTVSPropertyOp53
 70
     1
102
RTVSPropertyOp54
 70
     1
102
RTVSPropertyOp55
 70
     1
102
RTVSPropertyOp56
 70
     1
102
RTVSPropertyOp57
 70
     1
102
RTVSPropertyOp58
 70
     1
102
RTVSPropertyOp59
 70
     1
102
RTVSPropertyOp60
 70
     1
102
RTVSPropertyOp61
 70
     1
102
RTVSPropertyOp62
 70
     1
  0
XRECORD
  5
6B3
102
{ACAD_REACTORS
330
6B2
102
}
330
6B2
100
AcDbXrecord
280
     1
102
RTVSPost2010Prop28
280
     0
102
RTVSPost2010PropOp28
 70
     1
102
RTVSPost2010Prop29
280
     1
102
RTVSPost2010PropOp29
 70
     1
102
RTVSPost2010Prop30
280
     1
102
RTVSPost2010PropOp30
 70
     1
102
RTVSPost2010Prop31
280
     0
102
RTVSPost2010PropOp31
 70
     1
102
RTVSPost2010Prop32
280
     0
102
RTVSPost2010PropOp32
 70
     1
102
RTVSPost2010Prop33
280
     0
102
RTVSPost2010PropOp33
 70
     1
102
RTVSPost2010Prop34
280
     0
102
RTVSPost2010PropOp34
 70
     1
102
RTVSPost2010Prop35
280
     0
102
RTVSPost2010PropOp35
 70
     1
102
RTVSPost2010Prop36
280
     0
102
RTVSPost2010PropOp36
 70
     1
102
RTVSPost2010Prop37
 90
       50
102
RTVSPost2010PropOp37
 70
     1
102
RTVSPost2010Prop38
140
0.0
102
RTVSPost2010PropOp38
 70
     1
102
RTVSPost2010Prop39
140
1.0
102
RTVSPost2010PropOp39
 70
     1
102
RTVSPost2010Prop40
 90
        0
102
RTVSPost2010PropOp40
 70
     1
102
RTVSPost2010Prop41ColorIndex
 90
       18
102
RTVSPost2010Prop41ColorRGB
 90
        0
102
RTVSPost2010PropOp41
 70
     1
102
RTVSPost2010Prop42
 90
       50
102
RTVSPost2010PropOp42
 70
     1
102
RTVSPost2010Prop43
 90
        3
102
RTVSPost2010PropOp43
 70
     1
102
RTVSPost2010Prop44ColorIndex
 90
        5
102
RTVSPost2010Prop44ColorRGB
 90
      255
102
RTVSPost2010PropOp44
 70
     1
102
RTVSPost2010Prop45
280
     0
102
RTVSPost2010PropOp45
 70
     1
102
RTVSPost2010Prop46
 90
       50
102
RTVSPost2010PropOp46
 70
     1
102
RTVSPost2010Prop47
 90
       50
102
RTVSPost2010PropOp47
 70
     1
102
RTVSPost2010Prop48
 90
       50
102
RTVSPost2010PropOp48
 70
     1
102
RTVSPost2010Prop49
280
     0
102
RTVSPost2010PropOp49
 70
     1
102
RTVSPost2010Prop50
 90
       50
102
RTVSPost2010PropOp50
 70
     1
102
RTVSPost2010Prop51ColorIndex
 90
      256
102
RTVSPost2010Prop51ColorRGB
 90
-16777216
102
RTVSPost2010PropOp51
 70
     0
102
RTVSPost2010Prop52
140
1.0
102
RTVSPost2010PropOp52
 70
     0
102
RTVSPost2010Prop53
 90
        2
102
RTVSPost2010PropOp53
 70
     1
102
RTVSPost2010Prop54
  1
strokes_ogs.tif
102
RTVSPost2010PropOp54
 70
     1
102
RTVSPost2010Prop55
280
     0
102
RTVSPost2010PropOp55
 70
     1
102
RTVSPost2010Prop56
140
1.0
102
RTVSPost2010PropOp56
 70
     1
102
RTVSPost2010Prop57
140
1.0
102
RTVSPost2010PropOp57
 70
     1
102
RTVSPropertyOp0
 70
     1
102
RTVSPropertyOp1
 70
     1
102
RTVSPropertyOp2
 70
     1
102
RTVSPropertyOp3
 70
     1
102
RTVSPropertyOp4
 70
     1
102
RTVSPropertyOp5
 70
     1
102
RTVSPropertyOp6
 70
     1
102
RTVSPropertyOp7
 70
     1
102
RTVSPropertyOp8
 70
     1
102
RTVSPropertyOp9
 70
     1
102
RTVSPropertyOp10
 70
     1
102
RTVSPropertyOp11
 70
     1
102
RTVSPropertyOp12
 70
     1
102
RTVSPropertyOp13
 70
     1
102
RTVSPropertyOp14
 70
     1
102
RTVSPropertyOp15
 70
     1
102
RTVSPropertyOp16
 70
     1
102
RTVSPropertyOp17
 70
     1
102
RTVSPropertyOp18
 70
     1
102
RTVSPropertyOp19
 70
     1
102
RTVSPropertyOp20
 70
     1
102
RTVSPropertyOp21
 70
     1
102
RTVSPropertyOp22
 70
     1
102
RTVSPropertyOp23
 70
     1
102
RTVSPropertyOp24
 70
     1
102
RTVSPropertyOp25
 70
     1
102
RTVSPropertyOp26
 70
     1
102
RTVSPropertyOp27
 70
     1
102
RTVSPropertyOp28
 70
     1
102
RTVSPropertyOp29
 70
     1
102
RTVSPropertyOp30
 70
     1
102
RTVSPropertyOp31
 70
     1
102
RTVSPropertyOp32
 70
     1
102
RTVSPropertyOp33
 70
     1
102
RTVSPropertyOp34
 70
     1
102
RTVSPropertyOp35
 70
     1
102
RTVSPropertyOp36
 70
     1
102
RTVSPropertyOp37
 70
     1
102
RTVSPropertyOp38
 70
     1
102
RTVSPropertyOp39
 70
     1
102
RTVSPropertyOp40
 70
     1
102
RTVSPropertyOp41
 70
     1
102
RTVSPropertyOp42
 70
     1
102
RTVSPropertyOp43
 70
     1
102
RTVSPropertyOp44
 70
     1
102
RTVSPropertyOp45
 70
     1
102
RTVSPropertyOp46
 70
     1
102
RTVSPropertyOp47
 70
     1
102
RTVSPropertyOp48
 70
     1
102
RTVSPropertyOp49
 70
     1
102
RTVSPropertyOp50
 70
     1
102
RTVSPropertyOp51
 70
     0
102
RTVSPropertyOp52
 70
     0
102
RTVSPropertyOp53
 70
     1
102
RTVSPropertyOp54
 70
     1
102
RTVSPropertyOp55
 70
     1
102
RTVSPropertyOp56
 70
     1
102
RTVSPropertyOp57
 70
     1
102
RTVSPropertyOp58
 70
     1
102
RTVSPropertyOp59
 70
     1
102
RTVSPropertyOp60
 70
     1
102
RTVSPropertyOp61
 70
     1
102
RTVSPropertyOp62
 70
     1
  0
XRECORD
  5
6CB
102
{ACAD_REACTORS
330
6CA
102
}
330
6CA
100
AcDbXrecord
280
     1
102
RTVSPost2010Prop28
280
     0
102
RTVSPost2010PropOp28
 70
     1
102
RTVSPost2010Prop29
280
     1
102
RTVSPost2010PropOp29
 70
     1
102
RTVSPost2010Prop30
280
     1
102
RTVSPost2010PropOp30
 70
     1
102
RTVSPost2010Prop31
280
     0
102
RTVSPost2010PropOp31
 70
     1
102
RTVSPost2010Prop32
280
     0
102
RTVSPost2010PropOp32
 70
     1
102
RTVSPost2010Prop33
280
     0
102
RTVSPost2010PropOp33
 70
     1
102
RTVSPost2010Prop34
280
     0
102
RTVSPost2010PropOp34
 70
     1
102
RTVSPost2010Prop35
280
     0
102
RTVSPost2010PropOp35
 70
     1
102
RTVSPost2010Prop36
280
     0
102
RTVSPost2010PropOp36
 70
     1
102
RTVSPost2010Prop37
 90
       50
102
RTVSPost2010PropOp37
 70
     1
102
RTVSPost2010Prop38
140
0.0
102
RTVSPost2010PropOp38
 70
     1
102
RTVSPost2010Prop39
140
1.0
102
RTVSPost2010PropOp39
 70
     1
102
RTVSPost2010Prop40
 90
        0
102
RTVSPost2010PropOp40
 70
     1
102
RTVSPost2010Prop41ColorIndex
 90
       18
102
RTVSPost2010Prop41ColorRGB
 90
        0
102
RTVSPost2010PropOp41
 70
     1
102
RTVSPost2010Prop42
 90
       50
102
RTVSPost2010PropOp42
 70
     1
102
RTVSPost2010Prop43
 90
        3
102
RTVSPost2010PropOp43
 70
     1
102
RTVSPost2010Prop44ColorIndex
 90
        5
102
RTVSPost2010Prop44ColorRGB
 90
      255
102
RTVSPost2010PropOp44
 70
     1
102
RTVSPost2010Prop45
280
     0
102
RTVSPost2010PropOp45
 70
     1
102
RTVSPost2010Prop46
 90
       50
102
RTVSPost2010PropOp46
 70
     1
102
RTVSPost2010Prop47
 90
       50
102
RTVSPost2010PropOp47
 70
     1
102
RTVSPost2010Prop48
 90
       50
102
RTVSPost2010PropOp48
 70
     1
102
RTVSPost2010Prop49
280
     0
102
RTVSPost2010PropOp49
 70
     1
102
RTVSPost2010Prop50
 90
       50
102
RTVSPost2010PropOp50
 70
     1
102
RTVSPost2010Prop51ColorIndex
 90
      256
102
RTVSPost2010Prop51ColorRGB
 90
-16777216
102
RTVSPost2010PropOp51
 70
     0
102
RTVSPost2010Prop52
140
1.0
102
RTVSPost2010PropOp52
 70
     0
102
RTVSPost2010Prop53
 90
        2
102
RTVSPost2010PropOp53
 70
     1
102
RTVSPost2010Prop54
  1
strokes_ogs.tif
102
RTVSPost2010PropOp54
 70
     1
102
RTVSPost2010Prop55
280
     0
102
RTVSPost2010PropOp55
 70
     1
102
RTVSPost2010Prop56
140
1.0
102
RTVSPost2010PropOp56
 70
     1
102
RTVSPost2010Prop57
140
1.0
102
RTVSPost2010PropOp57
 70
     1
102
RTVSPropertyOp0
 70
     1
102
RTVSPropertyOp1
 70
     1
102
RTVSPropertyOp2
 70
     1
102
RTVSPropertyOp3
 70
     1
102
RTVSPropertyOp4
 70
     1
102
RTVSPropertyOp5
 70
     1
102
RTVSPropertyOp6
 70
     1
102
RTVSPropertyOp7
 70
     1
102
RTVSPropertyOp8
 70
     1
102
RTVSPropertyOp9
 70
     1
102
RTVSPropertyOp10
 70
     1
102
RTVSPropertyOp11
 70
     1
102
RTVSPropertyOp12
 70
     1
102
RTVSPropertyOp13
 70
     1
102
RTVSPropertyOp14
 70
     1
102
RTVSPropertyOp15
 70
     1
102
RTVSPropertyOp16
 70
     1
102
RTVSPropertyOp17
 70
     1
102
RTVSPropertyOp18
 70
     1
102
RTVSPropertyOp19
 70
     1
102
RTVSPropertyOp20
 70
     1
102
RTVSPropertyOp21
 70
     1
102
RTVSPropertyOp22
 70
     1
102
RTVSPropertyOp23
 70
     1
102
RTVSPropertyOp24
 70
     1
102
RTVSPropertyOp25
 70
     1
102
RTVSPropertyOp26
 70
     1
102
RTVSPropertyOp27
 70
     1
102
RTVSPropertyOp28
 70
     1
102
RTVSPropertyOp29
 70
     1
102
RTVSPropertyOp30
 70
     1
102
RTVSPropertyOp31
 70
     1
102
RTVSPropertyOp32
 70
     1
102
RTVSPropertyOp33
 70
     1
102
RTVSPropertyOp34
 70
     1
102
RTVSPropertyOp35
 70
     1
102
RTVSPropertyOp36
 70
     1
102
RTVSPropertyOp37
 70
     1
102
RTVSPropertyOp38
 70
     1
102
RTVSPropertyOp39
 70
     1
102
RTVSPropertyOp40
 70
     1
102
RTVSPropertyOp41
 70
     1
102
RTVSPropertyOp42
 70
     1
102
RTVSPropertyOp43
 70
     1
102
RTVSPropertyOp44
 70
     1
102
RTVSPropertyOp45
 70
     1
102
RTVSPropertyOp46
 70
     1
102
RTVSPropertyOp47
 70
     1
102
RTVSPropertyOp48
 70
     1
102
RTVSPropertyOp49
 70
     1
102
RTVSPropertyOp50
 70
     1
102
RTVSPropertyOp51
 70
     0
102
RTVSPropertyOp52
 70
     0
102
RTVSPropertyOp53
 70
     1
102
RTVSPropertyOp54
 70
     1
102
RTVSPropertyOp55
 70
     1
102
RTVSPropertyOp56
 70
     1
102
RTVSPropertyOp57
 70
     1
102
RTVSPropertyOp58
 70
     1
102
RTVSPropertyOp59
 70
     1
102
RTVSPropertyOp60
 70
     1
102
RTVSPropertyOp61
 70
     1
102
RTVSPropertyOp62
 70
     1
  0
ENDSEC
  0
EOF
