  0
SECTION
  2
HEADER
  9
$ACADVER
  1
AC1015
  9
$ACADMAINTVER
 70
    20
  9
$DWGCODEPAGE
  3
ANSI_932
  9
$INSBASE
 10
0.0
 20
0.0
 30
0.0
  9
$EXTMIN
 10
9.99995
 20
9.999999999999998
 30
0.0
  9
$EXTMAX
 10
563.000312
 20
368.9358829999998
 30
0.0
  9
$LIMMIN
 10
0.0
 20
0.0
  9
$LIMMAX
 10
594.963305
 20
410.21935
  9
$ORTHOMODE
 70
     1
  9
$REGENMODE
 70
     1
  9
$FILLMODE
 70
     1
  9
$QTEXTMODE
 70
     0
  9
$MIRRTEXT
 70
     1
  9
$LTSCALE
 40
20.0
  9
$ATTMODE
 70
     1
  9
$TEXTSIZE
 40
5.0
  9
$TRACEWID
 40
1.0
  9
$TEXTSTYLE
  7
STANDARD
  9
$CLAYER
  8
0
  9
$CELTYPE
  6
BYLAYER
  9
$CECOLOR
 62
   256
  9
$CELTSCALE
 40
1.0
  9
$DISPSILH
 70
     0
  9
$DIMSCALE
 40
1.0
  9
$DIMASZ
 40
3.0
  9
$DIMEXO
 40
1.0
  9
$DIMDLI
 40
10.0
  9
$DIMRND
 40
0.0
  9
$DIMDLE
 40
0.0
  9
$DIMEXE
 40
1.0
  9
$DIMTP
 40
0.0
  9
$DIMTM
 40
0.0
  9
$DIMTXT
 40
3.2
  9
$DIMCEN
 40
0.0
  9
$DIMTSZ
 40
0.0
  9
$DIMTOL
 70
     0
  9
$DIMLIM
 70
     0
  9
$DIMTIH
 70
     0
  9
$DIMTOH
 70
     0
  9
$DIMSE1
 70
     0
  9
$DIMSE2
 70
     0
  9
$DIMTAD
 70
     3
  9
$DIMZIN
 70
     8
  9
$DIMBLK
  1

  9
$DIMASO
 70
     1
  9
$DIMSHO
 70
     1
  9
$DIMPOST
  1

  9
$DIMAPOST
  1

  9
$DIMALT
 70
     0
  9
$DIMALTD
 70
     2
  9
$DIMALTF
 40
25.4
  9
$DIMLFAC
 40
1.0
  9
$DIMTOFL
 70
     1
  9
$DIMTVP
 40
0.0
  9
$DIMTIX
 70
     0
  9
$DIMSOXD
 70
     0
  9
$DIMSAH
 70
     1
  9
$DIMBLK1
  1
OPEN
  9
$DIMBLK2
  1
OPEN
  9
$DIMSTYLE
  2
STANDARD
  9
$DIMCLRD
 70
     0
  9
$DIMCLRE
 70
     0
  9
$DIMCLRT
 70
     0
  9
$DIMTFAC
 40
1.0
  9
$DIMGAP
 40
1.0
  9
$DIMJUST
 70
     0
  9
$DIMSD1
 70
     0
  9
$DIMSD2
 70
     0
  9
$DIMTOLJ
 70
     1
  9
$DIMTZIN
 70
     0
  9
$DIMALTZ
 70
     0
  9
$DIMALTTZ
 70
     0
  9
$DIMUPT
 70
     0
  9
$DIMDEC
 70
     4
  9
$DIMTDEC
 70
     4
  9
$DIMALTU
 70
     2
  9
$DIMALTTD
 70
     2
  9
$DIMTXSTY
  7
STANDARD
  9
$DIMAUNIT
 70
     0
  9
$DIMADEC
 70
     0
  9
$DIMALTRND
 40
0.0
  9
$DIMAZIN
 70
     0
  9
$DIMDSEP
 70
    46
  9
$DIMATFIT
 70
     3
  9
$DIMFRAC
 70
     0
  9
$DIMLDRBLK
  1
OPEN
  9
$DIMLUNIT
 70
     2
  9
$DIMLWD
 70
    -2
  9
$DIMLWE
 70
    -2
  9
$DIMTMOVE
 70
     0
  9
$LUNITS
 70
     2
  9
$LUPREC
 70
     4
  9
$SKETCHINC
 40
1.0
  9
$FILLETRAD
 40
5.0
  9
$AUNITS
 70
     0
  9
$AUPREC
 70
     2
  9
$MENU
  1
.
  9
$ELEVATION
 40
0.0
  9
$PELEVATION
 40
0.0
  9
$THICKNESS
 40
0.0
  9
$LIMCHECK
 70
     0
  9
$CHAMFERA
 40
10.0
  9
$CHAMFERB
 40
10.0
  9
$CHAMFERC
 40
0.0
  9
$CHAMFERD
 40
0.0
  9
$SKPOLY
 70
     0
  9
$TDCREATE
 40
2451303.375654745
  9
$TDUCREATE
 40
2451303.000654746
  9
$TDUPDATE
 40
2457192.686942696
  9
$TDUUPDATE
 40
2457192.311942697
  9
$TDINDWG
 40
0.0003720602
  9
$TDUSRTIMER
 40
0.0003715625
  9
$USRTIMER
 70
     1
  9
$ANGBASE
 50
0.0
  9
$ANGDIR
 70
     0
  9
$PDMODE
 70
    35
  9
$PDSIZE
 40
0.0
  9
$PLINEWID
 40
0.0
  9
$SPLFRAME
 70
     0
  9
$SPLINETYPE
 70
     6
  9
$SPLINESEGS
 70
     8
  9
$HANDSEED
  5
1A331
  9
$SURFTAB1
 70
     6
  9
$SURFTAB2
 70
     6
  9
$SURFTYPE
 70
     6
  9
$SURFU
 70
     6
  9
$SURFV
 70
     6
  9
$UCSBASE
  2

  9
$UCSNAME
  2

  9
$UCSORG
 10
0.0
 20
0.0
 30
0.0
  9
$UCSXDIR
 10
1.0
 20
0.0
 30
0.0
  9
$UCSYDIR
 10
0.0
 20
1.0
 30
0.0
  9
$UCSORTHOREF
  2

  9
$UCSORTHOVIEW
 70
     0
  9
$UCSORGTOP
 10
0.0
 20
0.0
 30
0.0
  9
$UCSORGBOTTOM
 10
0.0
 20
0.0
 30
0.0
  9
$UCSORGLEFT
 10
0.0
 20
0.0
 30
0.0
  9
$UCSORGRIGHT
 10
0.0
 20
0.0
 30
0.0
  9
$UCSORGFRONT
 10
0.0
 20
0.0
 30
0.0
  9
$UCSORGBACK
 10
0.0
 20
0.0
 30
0.0
  9
$PUCSBASE
  2

  9
$PUCSNAME
  2

  9
$PUCSORG
 10
0.0
 20
0.0
 30
0.0
  9
$PUCSXDIR
 10
1.0
 20
0.0
 30
0.0
  9
$PUCSYDIR
 10
0.0
 20
1.0
 30
0.0
  9
$PUCSORTHOREF
  2

  9
$PUCSORTHOVIEW
 70
     0
  9
$PUCSORGTOP
 10
0.0
 20
0.0
 30
0.0
  9
$PUCSORGBOTTOM
 10
0.0
 20
0.0
 30
0.0
  9
$PUCSORGLEFT
 10
0.0
 20
0.0
 30
0.0
  9
$PUCSORGRIGHT
 10
0.0
 20
0.0
 30
0.0
  9
$PUCSORGFRONT
 10
0.0
 20
0.0
 30
0.0
  9
$PUCSORGBACK
 10
0.0
 20
0.0
 30
0.0
  9
$USERI1
 70
     0
  9
$USERI2
 70
     0
  9
$USERI3
 70
     0
  9
$USERI4
 70
     0
  9
$USERI5
 70
     0
  9
$USERR1
 40
0.0
  9
$USERR2
 40
0.0
  9
$USERR3
 40
0.0
  9
$USERR4
 40
0.0
  9
$USERR5
 40
0.0
  9
$WORLDVIEW
 70
     1
  9
$SHADEDGE
 70
     3
  9
$SHADEDIF
 70
    70
  9
$TILEMODE
 70
     1
  9
$MAXACTVP
 70
    16
  9
$PINSBASE
 10
0.0
 20
0.0
 30
0.0
  9
$PLIMCHECK
 70
     0
  9
$PEXTMIN
 10
1.000000000000000E+20
 20
1.000000000000000E+20
 30
1.000000000000000E+20
  9
$PEXTMAX
 10
-1.000000000000000E+20
 20
-1.000000000000000E+20
 30
-1.000000000000000E+20
  9
$PLIMMIN
 10
0.0
 20
0.0
  9
$PLIMMAX
 10
420.0
 20
297.0
  9
$UNITMODE
 70
     0
  9
$VISRETAIN
 70
     0
  9
$PLINEGEN
 70
     0
  9
$PSLTSCALE
 70
     0
  9
$TREEDEPTH
 70
  3020
  9
$CMLSTYLE
  2
STANDARD
  9
$CMLJUST
 70
     0
  9
$CMLSCALE
 40
1.0
  9
$PROXYGRAPHICS
 70
     1
  9
$MEASUREMENT
 70
     0
  9
$CELWEIGHT
370
    -1
  9
$ENDCAPS
280
     0
  9
$JOINSTYLE
280
     0
  9
$LWDISPLAY
290
     0
  9
$INSUNITS
 70
     0
  9
$HYPERLINKBASE
  1

  9
$STYLESHEET
  1

  9
$XEDIT
290
     1
  9
$CEPSNTYPE
380
     0
  9
$PSTYLEMODE
290
     1
  9
$FINGERPRINTGUID
  2
{F078A96D-050D-45F3-8BAA-1FFB445F4C43}
  9
$VERSIONGUID
  2
{4D6F57F8-33C6-4302-8E8D-47FEC74E23D8}
  9
$EXTNAMES
290
     1
  9
$PSVPSCALE
 40
0.0
  9
$OLESTARTUP
290
     0
  0
ENDSEC
  0
SECTION
  2
CLASSES
  0
CLASS
  1
ACDBDICTIONARYWDFLT
  2
AcDbDictionaryWithDefault
  3
ObjectDBX Classes
 90
        0
280
     0
281
     0
  0
CLASS
  1
ACDBPLACEHOLDER
  2
AcDbPlaceHolder
  3
ObjectDBX Classes
 90
        0
280
     0
281
     0
  0
CLASS
  1
LAYOUT
  2
AcDbLayout
  3
ObjectDBX Classes
 90
        0
280
     0
281
     0
  0
CLASS
  1
DICTIONARYVAR
  2
AcDbDictionaryVar
  3
ObjectDBX Classes
 90
        0
280
     0
281
     0
  0
CLASS
  1
MATERIAL
  2
AcDbMaterial
  3
ObjectDBX Classes
 90
     1153
280
     0
281
     0
  0
CLASS
  1
VISUALSTYLE
  2
AcDbVisualStyle
  3
ObjectDBX Classes
 90
     4095
280
     0
281
     0
  0
CLASS
  1
TABLESTYLE
  2
AcDbTableStyle
  3
ObjectDBX Classes
 90
     4095
280
     0
281
     0
  0
CLASS
  1
SCALE
  2
AcDbScale
  3
ObjectDBX Classes
 90
     1153
280
     0
281
     0
  0
CLASS
  1
MLEADERSTYLE
  2
AcDbMLeaderStyle
  3
ACDB_MLEADERSTYLE_CLASS
 90
     4095
280
     0
281
     0
  0
CLASS
  1
ACDBSECTIONVIEWSTYLE
  2
AcDbSectionViewStyle
  3
ObjectDBX Classes
 90
     1025
280
     0
281
     0
  0
CLASS
  1
ACDBDETAILVIEWSTYLE
  2
AcDbDetailViewStyle
  3
ObjectDBX Classes
 90
     1025
280
     0
281
     0
  0
CLASS
  1
CELLSTYLEMAP
  2
AcDbCellStyleMap
  3
ObjectDBX Classes
 90
     1152
280
     0
281
     0
  0
ENDSEC
  0
SECTION
  2
TABLES
  0
TABLE
  2
VPORT
  5
19FAC
330
0
100
AcDbSymbolTable
 70
     1
  0
VPORT
  5
1A27A
330
19FAC
100
AcDbSymbolTableRecord
100
AcDbViewportTableRecord
  2
*ACTIVE
 70
     0
 10
0.0
 20
0.0
 11
1.0
 21
1.0
 12
395.225175575411
 22
189.4610496093842
 13
0.0
 23
0.0
 14
10.0
 24
10.0
 15
10.0
 25
10.0
 16
0.0
 26
0.0
 36
1.0
 17
0.0
 27
0.0
 37
0.0
 40
362.946112069154
 41
2.35006605019815
 42
50.0
 43
0.0
 44
0.0
 50
0.0
 51
0.0
 71
     0
 72
   100
 73
     1
 74
     0
 75
     0
 76
     0
 77
     0
 78
     0
281
     0
 65
     1
110
0.0
120
0.0
130
0.0
111
1.0
121
0.0
131
0.0
112
0.0
122
1.0
132
0.0
 79
     0
146
0.0
1001
ACAD_NAV_VCDISPLAY
1070
     3
  0
ENDTAB
  0
TABLE
  2
LTYPE
  5
19FA9
330
0
100
AcDbSymbolTable
 70
     4
  0
LTYPE
  5
19FB7
330
19FA9
100
AcDbSymbolTableRecord
100
AcDbLinetypeTableRecord
  2
BYBLOCK
 70
     0
  3

 72
    65
 73
     0
 40
0.0
  0
LTYPE
  5
19FB8
330
19FA9
100
AcDbSymbolTableRecord
100
AcDbLinetypeTableRecord
  2
BYLAYER
 70
     0
  3

 72
    65
 73
     0
 40
0.0
  0
LTYPE
  5
19FB9
330
19FA9
100
AcDbSymbolTableRecord
100
AcDbLinetypeTableRecord
  2
CONTINUOUS
 70
     0
  3
Solid line
 72
    65
 73
     0
 40
0.0
  0
LTYPE
  5
19FC7
330
19FA9
100
AcDbSymbolTableRecord
100
AcDbLinetypeTableRecord
  2
DASHED
 70
     0
  3
__ __ __ __ __ __ __ __ __ __ __ __ __ __ __ __
 72
    65
 73
     2
 40
0.75
 49
0.5
 74
     0
 49
-0.25
 74
     0
  0
LTYPE
  5
19FC8
330
19FA9
100
AcDbSymbolTableRecord
100
AcDbLinetypeTableRecord
  2
CENTER
 70
     0
  3
____ _ ____ _ ____ _ ____ _ ____ _ ____ _ ____ 
 72
    65
 73
     4
 40
2.0
 49
1.25
 74
     0
 49
-0.25
 74
     0
 49
0.25
 74
     0
 49
-0.25
 74
     0
  0
LTYPE
  5
19FC9
330
19FA9
100
AcDbSymbolTableRecord
100
AcDbLinetypeTableRecord
  2
PHANTOM
 70
     0
  3
______  __  __  ______  __  __  ______  __  __ 
 72
    65
 73
     6
 40
2.5
 49
1.25
 74
     0
 49
-0.25
 74
     0
 49
0.25
 74
     0
 49
-0.25
 74
     0
 49
0.25
 74
     0
 49
-0.25
 74
     0
  0
ENDTAB
  0
TABLE
  2
LAYER
  5
19FA6
330
0
100
AcDbSymbolTable
 70
     8
  0
LAYER
  5
19FB4
102
{ACAD_XDICTIONARY
360
1A2D5
102
}
330
19FA6
100
AcDbSymbolTableRecord
100
AcDbLayerTableRecord
  2
0
 70
     0
 62
     7
  6
CONTINUOUS
370
    -3
390
1A283
  0
LAYER
  5
19FCA
102
{ACAD_XDICTIONARY
360
1A2D7
102
}
330
19FA6
100
AcDbSymbolTableRecord
100
AcDbLayerTableRecord
  2
4
 70
     0
 62
     1
  6
CENTER
370
    -3
390
1A283
  0
LAYER
  5
19FCB
102
{ACAD_XDICTIONARY
360
1A2D9
102
}
330
19FA6
100
AcDbSymbolTableRecord
100
AcDbLayerTableRecord
  2
5
 70
     0
 62
     6
  6
PHANTOM
370
    -3
390
1A283
  0
LAYER
  5
19FCC
102
{ACAD_XDICTIONARY
360
1A2DB
102
}
330
19FA6
100
AcDbSymbolTableRecord
100
AcDbLayerTableRecord
  2
1
 70
     0
 62
     7
  6
CONTINUOUS
370
    -3
390
1A283
  0
LAYER
  5
19FCD
102
{ACAD_XDICTIONARY
360
1A2DD
102
}
330
19FA6
100
AcDbSymbolTableRecord
100
AcDbLayerTableRecord
  2
2
 70
     0
 62
     4
  6
CONTINUOUS
370
    -3
390
1A283
  0
LAYER
  5
19FCE
102
{ACAD_XDICTIONARY
360
1A2DF
102
}
330
19FA6
100
AcDbSymbolTableRecord
100
AcDbLayerTableRecord
  2
3
 70
     0
 62
     2
  6
DASHED
370
    -3
390
1A283
  0
LAYER
  5
19FCF
102
{ACAD_XDICTIONARY
360
1A2E1
102
}
330
19FA6
100
AcDbSymbolTableRecord
100
AcDbLayerTableRecord
  2
6
 70
     0
 62
     5
  6
CONTINUOUS
370
    -3
390
1A283
  0
LAYER
  5
19FD0
102
{ACAD_XDICTIONARY
360
1A2E3
102
}
330
19FA6
100
AcDbSymbolTableRecord
100
AcDbLayerTableRecord
  2
7
 70
     0
 62
     3
  6
CONTINUOUS
370
    -3
390
1A283
  0
ENDTAB
  0
TABLE
  2
STYLE
  5
19FA7
330
0
100
AcDbSymbolTable
 70
     1
  0
STYLE
  5
19FB5
330
19FA7
100
AcDbSymbolTableRecord
100
AcDbTextStyleTableRecord
  2
STANDARD
 70
     0
 40
0.0
 41
1.0
 50
0.0
 71
     0
 42
5.0
  3
txt
  4

  0
ENDTAB
  0
TABLE
  2
VIEW
  5
19FAA
330
0
100
AcDbSymbolTable
 70
     1
  0
VIEW
  5
19FD1
330
19FAA
100
AcDbSymbolTableRecord
100
AcDbViewTableRecord
  2
7
 70
     0
 40
391.400229
 10
377.0267739999999
 20
195.7001139999999
 41
754.0535479999999
 11
0.0
 21
0.0
 31
1.0
 12
0.0
 22
0.0
 32
0.0
 42
50.0
 43
0.0
 44
0.0
 50
0.0
 71
     0
281
     0
 72
     0
  0
ENDTAB
  0
TABLE
  2
UCS
  5
19FAB
330
0
100
AcDbSymbolTable
 70
     0
  0
ENDTAB
  0
TABLE
  2
APPID
  5
19FAD
330
0
100
AcDbSymbolTable
 70
     3
  0
APPID
  5
19FB6
330
19FAD
100
AcDbSymbolTableRecord
100
AcDbRegAppTableRecord
  2
ACAD
 70
     0
  0
APPID
  5
1A2EF
330
19FAD
100
AcDbSymbolTableRecord
100
AcDbRegAppTableRecord
  2
ACAD_NAV_VCDISPLAY
 70
     0
  0
APPID
  5
1A328
330
19FAD
100
AcDbSymbolTableRecord
100
AcDbRegAppTableRecord
  2
ACAD_MLEADERVER
 70
     0
  0
ENDTAB
  0
TABLE
  2
DIMSTYLE
  5
19FAE
330
0
100
AcDbSymbolTable
 70
     1
100
AcDbDimStyleTable
 71
     0
  0
DIMSTYLE
105
19FD3
330
19FAE
100
AcDbSymbolTableRecord
100
AcDbDimStyleTableRecord
  2
STANDARD
 70
     0
 41
3.0
 42
1.0
 43
10.0
 44
1.0
 73
     0
 74
     0
 77
     3
 78
     8
140
3.2
141
0.0
147
1.0
172
     1
173
     1
284
     8
285
     8
286
     8
340
19FB5
  0
ENDTAB
  0
TABLE
  2
BLOCK_RECORD
  5
19FA5
330
0
100
AcDbSymbolTable
 70
     1
  0
BLOCK_RECORD
  5
19FC2
102
{ACAD_XDICTIONARY
360
1A27D
102
}
330
19FA5
100
AcDbSymbolTableRecord
100
AcDbBlockTableRecord
  2
*MODEL_SPACE
340
1A2D1
  0
BLOCK_RECORD
  5
19FBE
102
{ACAD_XDICTIONARY
360
1A27B
102
}
330
19FA5
100
AcDbSymbolTableRecord
100
AcDbBlockTableRecord
  2
*PAPER_SPACE
340
1A2D2
  0
BLOCK_RECORD
  5
19FDB
330
19FA5
100
AcDbSymbolTableRecord
100
AcDbBlockTableRecord
  2
_OPEN
340
0
  0
ENDTAB
  0
ENDSEC
  0
SECTION
  2
BLOCKS
  0
BLOCK
  5
19FC3
330
19FC2
100
AcDbEntity
  8
0
100
AcDbBlockBegin
  2
*MODEL_SPACE
 70
     0
 10
0.0
 20
0.0
 30
0.0
  3
*MODEL_SPACE
  1

  0
ENDBLK
  5
19FC4
330
19FC2
100
AcDbEntity
  8
0
100
AcDbBlockEnd
  0
BLOCK
  5
19FBF
330
19FBE
100
AcDbEntity
 67
     1
  8
0
100
AcDbBlockBegin
  2
*PAPER_SPACE
 70
     0
 10
0.0
 20
0.0
 30
0.0
  3
*PAPER_SPACE
  1

  0
ENDBLK
  5
19FC0
330
19FBE
100
AcDbEntity
 67
     1
  8
0
100
AcDbBlockEnd
  0
BLOCK
  5
19FDC
330
19FDB
100
AcDbEntity
  8
0
100
AcDbBlockBegin
  2
_OPEN
 70
     0
 10
0.0
 20
0.0
 30
0.0
  3
_OPEN
  1

  0
LINE
  5
19FDD
330
19FDB
100
AcDbEntity
  8
0
  6
ByBlock
 62
     0
100
AcDbLine
 10
-1.0
 20
0.166667
 30
0.0
 11
0.0
 21
0.0
 31
0.0
  0
LINE
  5
19FDE
330
19FDB
100
AcDbEntity
  8
0
  6
ByBlock
 62
     0
100
AcDbLine
 10
0.0
 20
0.0
 30
0.0
 11
-1.0
 21
-0.166667
 31
0.0
  0
LINE
  5
19FDF
330
19FDB
100
AcDbEntity
  8
0
  6
ByBlock
 62
     0
100
AcDbLine
 10
0.0
 20
0.0
 30
0.0
 11
-1.0
 21
0.0
 31
0.0
  0
ENDBLK
  5
19FE0
330
19FDB
100
AcDbEntity
  8
0
100
AcDbBlockEnd
  0
ENDSEC
  0
SECTION
  2
ENTITIES
  0
TEXT
  5
19FEB
330
19FC2
100
AcDbEntity
  8
6
  6
Continuous
100
AcDbText
 10
27.97945
 20
10.0487
 30
0.0
 40
1.399999999999999
  1
6
 41
1.069393
100
AcDbText
  0
TEXT
  5
19FEC
330
19FC2
100
AcDbEntity
  8
1
  6
Continuous
100
AcDbText
 10
17.97945
 20
10.0487
 30
0.0
 40
1.399999999999999
  1
1
 41
1.069393
100
AcDbText
  0
TEXT
  5
19FED
330
19FC2
100
AcDbEntity
  8
1
  6
Continuous
100
AcDbText
 10
9.99995
 20
10.0
 30
0.0
 40
1.399999999999999
  1
LAYER
 41
1.009912999999997
100
AcDbText
  0
TEXT
  5
19FEE
330
19FC2
100
AcDbEntity
  8
2
  6
Continuous
100
AcDbText
 10
19.97944999999998
 20
10.0487
 30
0.0
 40
1.399999999999999
  1
2
 41
1.069393
100
AcDbText
  0
TEXT
  5
19FEF
330
19FC2
100
AcDbEntity
  8
3
  6
DASHED
100
AcDbText
 10
21.97945
 20
10.0487
 30
0.0
 40
1.399999999999999
  1
3
 41
1.069393
100
AcDbText
  0
TEXT
  5
19FF0
330
19FC2
100
AcDbEntity
  8
4
  6
CENTER
100
AcDbText
 10
23.97944999999999
 20
10.0487
 30
0.0
 40
1.399999999999999
  1
4
 41
1.069393
100
AcDbText
  0
TEXT
  5
19FF1
330
19FC2
100
AcDbEntity
  8
5
  6
PHANTOM
100
AcDbText
 10
25.97945
 20
10.0487
 30
0.0
 40
1.399999999999999
  1
5
 41
1.069393
100
AcDbText
  0
TEXT
  5
19FF2
330
19FC2
100
AcDbEntity
  8
7
  6
Continuous
100
AcDbText
 10
10.00005
 20
26.0
 30
0.0
 40
3.0
  1
CODE No.9104
 41
1.003962999999999
100
AcDbText
  0
TEXT
  5
19FF3
330
19FC2
100
AcDbEntity
  8
7
  6
Continuous
100
AcDbText
 10
10.00005
 20
18.0
 30
0.0
 40
3.0
  1
TYPE No.105JH-P
 41
1.002350999999998
100
AcDbText
  0
TEXT
  5
19FF4
330
19FC2
100
AcDbEntity
  8
7
  6
Continuous
100
AcDbText
 10
29.97944999999999
 20
10.0487
 30
0.0
 40
1.399999999999999
  1
7
 41
1.069393
100
AcDbText
  0
LINE
  5
19FF5
330
19FC2
100
AcDbEntity
  8
1
  6
Continuous
100
AcDbLine
 10
249.3883209999999
 20
235.3992199999999
 30
0.0
 11
195.612321
 21
235.3992199999999
 31
0.0
  0
LINE
  5
19FF6
330
19FC2
100
AcDbEntity
  8
4
  6
CENTER
100
AcDbLine
 10
233.000153
 20
191.4985019999998
 30
0.0
 11
158.000153
 21
191.4985019999998
 31
0.0
  0
LINE
  5
19FF7
330
19FC2
100
AcDbEntity
  8
1
  6
Continuous
100
AcDbLine
 10
219.4433339999999
 20
235.3992199999999
 30
0.0
 11
221.784243
 21
237.7401279999999
 31
0.0
  0
LINE
  5
19FF8
330
19FC2
100
AcDbEntity
  8
1
  6
Continuous
100
AcDbLine
 10
222.003831
 20
235.3992199999999
 30
0.0
 11
219.662923
 21
237.7401279999999
 31
0.0
  0
ARC
  5
19FF9
330
19FC2
100
AcDbEntity
  8
1
  6
Continuous
100
AcDbCircle
 10
195.500153
 20
191.4985019999998
 30
0.0
 40
32.5
100
AcDbArc
 50
91.52650900000002
 51
358.863853
  0
LINE
  5
19FFA
330
19FC2
100
AcDbEntity
  8
1
  6
Continuous
100
AcDbLine
 10
250.97877
 20
239.7215
 30
0.0
 11
194.021397
 21
239.7215
 31
0.0
  0
LINE
  5
19FFB
330
19FC2
100
AcDbEntity
  8
1
  6
Continuous
100
AcDbLine
 10
261.500156
 20
245.9985019999999
 30
0.0
 11
183.5000029999999
 21
245.9985019999999
 31
0.0
  0
LINE
  5
19FFC
330
19FC2
100
AcDbEntity
  8
1
  6
Continuous
100
AcDbLine
 10
249.3883209999999
 20
237.7401279999999
 30
0.0
 11
195.612321
 21
237.7401279999999
 31
0.0
  0
ARC
  5
19FFD
330
19FC2
100
AcDbEntity
  8
1
  6
Continuous
100
AcDbCircle
 10
186.568778
 20
264.346724
 30
0.0
 40
84.38345299999998
100
AcDbArc
 50
276.851849
 51
298.966399
  0
LINE
  5
19FFE
330
19FC2
100
AcDbEntity
  8
4
  6
CENTER
100
AcDbLine
 10
222.500321
 20
251.0785019999999
 30
0.0
 11
222.500321
 21
182.4980329999999
 31
0.0
  0
ARC
  5
19FFF
330
19FC2
100
AcDbEntity
  8
1
  6
Continuous
100
AcDbCircle
 10
174.8564869999999
 20
241.6742249999999
 30
0.0
 40
74.974334
100
AcDbArc
 50
324.938137
 51
343.64029
  0
ARC
  5
1A000
330
19FC2
100
AcDbEntity
  8
1
  6
Continuous
100
AcDbCircle
 10
213.33614
 20
214.668516
 30
0.0
 40
27.963781
100
AcDbArc
 50
300.278072
 51
324.9381389999999
  0
LINE
  5
1A001
330
19FC2
100
AcDbEntity
  8
4
  6
CENTER
100
AcDbLine
 10
253.5003609999999
 20
248.898502
 30
0.0
 11
253.5003609999999
 21
240.198502
 31
0.0
  0
ARC
  5
1A002
330
19FC2
100
AcDbEntity
  8
1
  6
Continuous
100
AcDbCircle
 10
245.0003209999999
 20
230.39922
 30
0.0
 40
5.0
100
AcDbArc
 50
0.0
 51
90.0
  0
ARC
  5
1A003
330
19FC2
100
AcDbEntity
  8
1
  6
Continuous
100
AcDbCircle
 10
256.7531149999999
 20
217.633301
 30
0.0
 40
10.37801699999998
100
AcDbArc
 50
130.5930789999999
 51
163.64029
  0
LINE
  5
1A004
330
19FC2
100
AcDbEntity
  8
1
  6
Continuous
100
AcDbLine
 10
250.000321
 20
230.39922
 30
0.0
 11
250.000321
 21
224.415755
 31
0.0
  0
LINE
  5
1A005
330
19FC2
100
AcDbEntity
  8
1
  6
Continuous
100
AcDbLine
 10
234.2925769999999
 20
235.3992199999999
 30
0.0
 11
236.633485
 21
237.7401279999999
 31
0.0
  0
LINE
  5
1A006
330
19FC2
100
AcDbEntity
  8
1
  6
Continuous
100
AcDbLine
 10
236.853074
 20
235.3992199999999
 30
0.0
 11
234.5121649999999
 21
237.7401279999999
 31
0.0
  0
LINE
  5
1A007
330
19FC2
100
AcDbEntity
  8
1
  6
Continuous
100
AcDbLine
 10
247.020499
 20
235.3992199999999
 30
0.0
 11
249.361407
 21
237.7401279999999
 31
0.0
  0
LINE
  5
1A008
330
19FC2
100
AcDbEntity
  8
1
  6
Continuous
100
AcDbLine
 10
244.8991779999999
 20
235.3992199999999
 30
0.0
 11
247.2400869999999
 21
237.7401279999999
 31
0.0
  0
LINE
  5
1A009
330
19FC2
100
AcDbEntity
  8
1
  6
Continuous
100
AcDbLine
 10
242.777858
 20
235.3992199999999
 30
0.0
 11
245.1187669999999
 21
237.7401279999999
 31
0.0
  0
LINE
  5
1A00A
330
19FC2
100
AcDbEntity
  8
1
  6
Continuous
100
AcDbLine
 10
240.6565379999999
 20
235.3992199999999
 30
0.0
 11
242.9974459999999
 21
237.7401279999999
 31
0.0
  0
LINE
  5
1A00B
330
19FC2
100
AcDbEntity
  8
1
  6
Continuous
100
AcDbLine
 10
238.5352169999999
 20
235.3992199999999
 30
0.0
 11
240.8761259999999
 21
237.7401279999999
 31
0.0
  0
LINE
  5
1A00C
330
19FC2
100
AcDbEntity
  8
1
  6
Continuous
100
AcDbLine
 10
236.4138969999999
 20
235.3992199999999
 30
0.0
 11
238.7548059999998
 21
237.7401279999999
 31
0.0
  0
LINE
  5
1A00D
330
19FC2
100
AcDbEntity
  8
1
  6
Continuous
100
AcDbLine
 10
249.3883209999999
 20
235.5918949999999
 30
0.0
 11
247.2400869999999
 21
237.7401279999999
 31
0.0
  0
LINE
  5
1A00E
330
19FC2
100
AcDbEntity
  8
1
  6
Continuous
100
AcDbLine
 10
247.4596749999999
 20
235.3992199999999
 30
0.0
 11
245.1187669999999
 21
237.7401279999999
 31
0.0
  0
LINE
  5
1A00F
330
19FC2
100
AcDbEntity
  8
1
  6
Continuous
100
AcDbLine
 10
245.3383549999998
 20
235.3992199999999
 30
0.0
 11
242.9974459999999
 21
237.7401279999999
 31
0.0
  0
LINE
  5
1A010
330
19FC2
100
AcDbEntity
  8
1
  6
Continuous
100
AcDbLine
 10
243.217035
 20
235.3992199999999
 30
0.0
 11
240.8761259999999
 21
237.7401279999999
 31
0.0
  0
LINE
  5
1A011
330
19FC2
100
AcDbEntity
  8
1
  6
Continuous
100
AcDbLine
 10
241.0957139999999
 20
235.3992199999999
 30
0.0
 11
238.7548059999998
 21
237.7401279999999
 31
0.0
  0
LINE
  5
1A012
330
19FC2
100
AcDbEntity
  8
1
  6
Continuous
100
AcDbLine
 10
238.9743939999999
 20
235.3992199999999
 30
0.0
 11
236.633485
 21
237.7401279999999
 31
0.0
  0
LINE
  5
1A013
330
19FC2
100
AcDbEntity
  8
1
  6
Continuous
100
AcDbLine
 10
249.3883209999999
 20
237.7401279999999
 30
0.0
 11
249.3883209999999
 21
235.3992199999999
 31
0.0
  0
LINE
  5
1A014
330
19FC2
100
AcDbEntity
  8
1
  6
Continuous
100
AcDbLine
 10
248.3267199999999
 20
239.7215
 30
0.0
 11
247.4783579999999
 21
237.7401279999999
 31
0.0
  0
LINE
  5
1A015
330
19FC2
100
AcDbEntity
  8
1
  6
Continuous
100
AcDbLine
 10
249.3883209999999
 20
237.7132149999999
 30
0.0
 11
249.361407
 21
237.7401279999999
 31
0.0
  0
LINE
  5
1A016
330
19FC2
100
AcDbEntity
  8
1
  6
Continuous
100
AcDbLine
 10
232.1712559999999
 20
235.3992199999999
 30
0.0
 11
234.5121649999999
 21
237.7401279999999
 31
0.0
  0
LINE
  5
1A017
330
19FC2
100
AcDbEntity
  8
1
  6
Continuous
100
AcDbLine
 10
230.0499359999998
 20
235.3992199999999
 30
0.0
 11
232.390845
 21
237.7401279999999
 31
0.0
  0
LINE
  5
1A018
330
19FC2
100
AcDbEntity
  8
1
  6
Continuous
100
AcDbLine
 10
227.928616
 20
235.3992199999999
 30
0.0
 11
230.2695239999999
 21
237.7401279999999
 31
0.0
  0
LINE
  5
1A019
330
19FC2
100
AcDbEntity
  8
1
  6
Continuous
100
AcDbLine
 10
225.807295
 20
235.3992199999999
 30
0.0
 11
228.1482039999999
 21
237.7401279999999
 31
0.0
  0
LINE
  5
1A01A
330
19FC2
100
AcDbEntity
  8
1
  6
Continuous
100
AcDbLine
 10
223.685975
 20
235.3992199999999
 30
0.0
 11
226.026884
 21
237.7401279999999
 31
0.0
  0
LINE
  5
1A01B
330
19FC2
100
AcDbEntity
  8
1
  6
Continuous
100
AcDbLine
 10
221.5646549999999
 20
235.3992199999999
 30
0.0
 11
223.905563
 21
237.7401279999999
 31
0.0
  0
LINE
  5
1A01C
330
19FC2
100
AcDbEntity
  8
1
  6
Continuous
100
AcDbLine
 10
234.7317529999999
 20
235.3992199999999
 30
0.0
 11
232.390845
 21
237.7401279999999
 31
0.0
  0
LINE
  5
1A01D
330
19FC2
100
AcDbEntity
  8
1
  6
Continuous
100
AcDbLine
 10
232.610433
 20
235.3992199999999
 30
0.0
 11
230.2695239999999
 21
237.7401279999999
 31
0.0
  0
LINE
  5
1A01E
330
19FC2
100
AcDbEntity
  8
1
  6
Continuous
100
AcDbLine
 10
230.4891129999998
 20
235.3992199999999
 30
0.0
 11
228.1482039999999
 21
237.7401279999999
 31
0.0
  0
LINE
  5
1A01F
330
19FC2
100
AcDbEntity
  8
1
  6
Continuous
100
AcDbLine
 10
228.3677919999998
 20
235.3992199999999
 30
0.0
 11
226.026884
 21
237.7401279999999
 31
0.0
  0
LINE
  5
1A020
330
19FC2
100
AcDbEntity
  8
1
  6
Continuous
100
AcDbLine
 10
226.246472
 20
235.3992199999999
 30
0.0
 11
223.905563
 21
237.7401279999999
 31
0.0
  0
LINE
  5
1A021
330
19FC2
100
AcDbEntity
  8
1
  6
Continuous
100
AcDbLine
 10
224.125152
 20
235.3992199999999
 30
0.0
 11
221.784243
 21
237.7401279999999
 31
0.0
  0
LINE
  5
1A022
330
19FC2
100
AcDbEntity
  8
1
  6
Continuous
100
AcDbLine
 10
261.500156
 20
243.098502
 30
0.0
 11
261.500156
 21
245.9985019999999
 31
0.0
  0
LINE
  5
1A023
330
19FC2
100
AcDbEntity
  8
4
  6
CENTER
100
AcDbLine
 10
195.500153
 20
154.3297369999999
 30
0.0
 11
195.500153
 21
229.3297369999999
 31
0.0
  0
LINE
  5
1A024
330
19FC2
100
AcDbEntity
  8
4
  6
CENTER
100
AcDbLine
 10
64.00015
 20
251.0785019999999
 30
0.0
 11
64.00015
 21
154.3297369999999
 31
0.0
  0
LINE
  5
1A025
330
19FC2
100
AcDbEntity
  8
1
  6
Continuous
100
AcDbLine
 10
50.50015
 20
220.718481
 30
0.0
 11
50.50015
 21
162.278523
 31
0.0
  0
LINE
  5
1A026
330
19FC2
100
AcDbEntity
  8
1
  6
Continuous
100
AcDbLine
 10
77.50015000000002
 20
220.718481
 30
0.0
 11
77.50015000000002
 21
162.278523
 31
0.0
  0
ARC
  5
1A027
330
19FC2
100
AcDbEntity
  8
1
  6
Continuous
100
AcDbCircle
 10
64.00015
 20
358.9985019999998
 30
0.0
 40
200.0
100
AcDbArc
 50
266.944716
 51
273.0552839999999
  0
ARC
  5
1A028
330
19FC2
100
AcDbEntity
  8
1
  6
Continuous
100
AcDbCircle
 10
74.50015
 20
162.278523
 30
0.0
 40
3.0
100
AcDbArc
 50
273.0552839999999
 51
0.0
  0
ARC
  5
1A029
330
19FC2
100
AcDbEntity
  8
1
  6
Continuous
100
AcDbCircle
 10
53.50014999999999
 20
162.278523
 30
0.0
 40
3.0
100
AcDbArc
 50
180.0
 51
266.944716
  0
LINE
  5
1A02A
330
19FC2
100
AcDbEntity
  8
1
  6
Continuous
100
AcDbLine
 10
35.521386
 20
239.7215
 30
0.0
 11
92.478767
 21
239.7215
 31
0.0
  0
LINE
  5
1A02B
330
19FC2
100
AcDbEntity
  8
4
  6
CENTER
100
AcDbLine
 10
96.20015
 20
191.4985019999998
 30
0.0
 11
36.20015
 21
191.4985019999998
 31
0.0
  0
LINE
  5
1A02C
330
19FC2
100
AcDbEntity
  8
1
  6
Continuous
100
AcDbLine
 10
67.891025
 20
230.173958
 30
0.0
 11
66.886926
 21
229.1698589999998
 31
0.0
  0
ARC
  5
1A02D
330
19FC2
100
AcDbEntity
  8
1
  6
Continuous
100
AcDbCircle
 10
64.00015
 20
23.99850199999999
 30
0.0
 40
200.0
100
AcDbArc
 50
86.94471599999998
 51
93.055284
  0
LINE
  5
1A02E
330
19FC2
100
AcDbEntity
  8
1
  6
Continuous
100
AcDbLine
 10
79.70014999999998
 20
228.2108589999999
 30
0.0
 11
48.30015
 21
228.2108589999999
 31
0.0
  0
LINE
  5
1A02F
330
19FC2
100
AcDbEntity
  8
1
  6
Continuous
100
AcDbLine
 10
78.04987
 20
224.415755
 30
0.0
 11
49.95076599999999
 21
224.415755
 31
0.0
  0
LINE
  5
1A030
330
19FC2
100
AcDbEntity
  8
1
  6
Continuous
100
AcDbLine
 10
79.45366700000002
 20
229.1698589999998
 30
0.0
 11
48.546656
 21
229.1698589999998
 31
0.0
  0
LINE
  5
1A031
330
19FC2
100
AcDbEntity
  8
1
  6
Continuous
100
AcDbLine
 10
49.735271
 20
232.7739579999999
 30
0.0
 11
78.26505
 21
232.7739579999999
 31
0.0
  0
LINE
  5
1A032
330
19FC2
100
AcDbEntity
  8
1
  6
Continuous
100
AcDbLine
 10
91.50015000000001
 20
230.39922
 30
0.0
 11
91.50015000000001
 21
193.795695
 31
0.0
  0
ARC
  5
1A033
330
19FC2
100
AcDbEntity
  8
1
  6
Continuous
100
AcDbCircle
 10
176.011179
 20
218.856556
 30
0.0
 40
19.31694599999999
100
AcDbArc
 50
344.9237769999998
 51
16.451283
  0
LINE
  5
1A034
330
19FC2
100
AcDbEntity
  8
1
  6
Continuous
100
AcDbLine
 10
82.30014999999999
 20
228.7739579999999
 30
0.0
 11
82.30014999999999
 21
180.498502
 31
0.0
  0
ARC
  5
1A035
330
19FC2
100
AcDbEntity
  8
1
  6
Continuous
100
AcDbCircle
 10
195.200153
 20
192.479737
 30
0.0
 40
12.0
100
AcDbArc
 50
127.9195489999999
 51
278.6415529999998
  0
ARC
  5
1A036
330
19FC2
100
AcDbEntity
  8
1
  6
Continuous
100
AcDbCircle
 10
177.4118819999999
 20
215.3137
 30
0.0
 40
16.94499
100
AcDbArc
 50
307.919549
 51
341.252717
  0
ARC
  5
1A037
330
19FC2
100
AcDbEntity
  8
1
  6
Continuous
100
AcDbCircle
 10
132.206553
 20
230.6564509999998
 30
0.0
 40
64.683044
100
AcDbArc
 50
341.252717
 51
344.9237769999998
  0
LINE
  5
1A038
330
19FC2
100
AcDbEntity
  8
1
  6
Continuous
100
AcDbLine
 10
79.50015
 20
196.998502
 30
0.0
 11
79.50015
 21
185.998502
 31
0.0
  0
LINE
  5
1A039
330
19FC2
100
AcDbEntity
  8
1
  6
Continuous
100
AcDbLine
 10
79.25015000000001
 20
199.998502
 30
0.0
 11
79.25015000000001
 21
182.998502
 31
0.0
  0
ARC
  5
1A03A
330
19FC2
100
AcDbEntity
  8
1
  6
Continuous
100
AcDbCircle
 10
87.30000399999999
 20
179.4445399999999
 30
0.0
 40
5.109733999999998
100
AcDbArc
 50
117.8561159999997
 51
168.0964109999999
  0
ARC
  5
1A03B
330
19FC2
100
AcDbEntity
  8
1
  6
Continuous
100
AcDbCircle
 10
76.71254300000002
 20
183.0108199999999
 30
0.0
 40
2.537636999999997
100
AcDbArc
 50
288.08155
 51
359.721882
  0
LINE
  5
1A03C
330
19FC2
100
AcDbEntity
  8
1
  6
Continuous
100
AcDbLine
 10
79.70014999999998
 20
187.498502
 30
0.0
 11
79.50015
 21
187.498502
 31
0.0
  0
LINE
  5
1A03D
330
19FC2
100
AcDbEntity
  8
1
  6
Continuous
100
AcDbLine
 10
79.50015
 20
185.998502
 30
0.0
 11
79.25015000000001
 21
185.998502
 31
0.0
  0
LINE
  5
1A03E
330
19FC2
100
AcDbEntity
  8
1
  6
Continuous
100
AcDbLine
 10
79.70014999999998
 20
195.498502
 30
0.0
 11
79.50015
 21
195.498502
 31
0.0
  0
ARC
  5
1A03F
330
19FC2
100
AcDbEntity
  8
1
  6
Continuous
100
AcDbCircle
 10
76.71254300000002
 20
199.986184
 30
0.0
 40
2.537636999999997
100
AcDbArc
 50
0.278118
 51
71.91845000000002
  0
LINE
  5
1A040
330
19FC2
100
AcDbEntity
  8
1
  6
Continuous
100
AcDbLine
 10
79.50015
 20
196.998502
 30
0.0
 11
79.25015000000001
 21
196.998502
 31
0.0
  0
LINE
  5
1A041
330
19FC2
100
AcDbEntity
  8
4
  6
CENTER
100
AcDbLine
 10
191.500361
 20
248.898502
 30
0.0
 11
191.500361
 21
240.198502
 31
0.0
  0
LINE
  5
1A042
330
19FC2
100
AcDbEntity
  8
1
  6
Continuous
100
AcDbLine
 10
186.4301539999999
 20
232.7739579999999
 30
0.0
 11
197.5003209999999
 21
232.7739579999999
 31
0.0
  0
ARC
  5
1A043
330
19FC2
100
AcDbEntity
  8
1
  6
Continuous
100
AcDbCircle
 10
182.7371039999999
 20
221.1154399999998
 30
0.0
 40
12.22945799999999
100
AcDbArc
 50
15.225267
 51
72.423445
  0
LINE
  5
1A044
330
19FC2
100
AcDbEntity
  8
1
  6
Continuous
100
AcDbLine
 10
207.1545889999999
 20
235.3992199999999
 30
0.0
 11
204.8136799999999
 21
237.7401279999999
 31
0.0
  0
LINE
  5
1A045
330
19FC2
100
AcDbEntity
  8
1
  6
Continuous
100
AcDbLine
 10
204.594092
 20
235.3992199999999
 30
0.0
 11
206.9350009999999
 21
237.7401279999999
 31
0.0
  0
LINE
  5
1A046
330
19FC2
100
AcDbEntity
  8
1
  6
Continuous
100
AcDbLine
 10
217.322014
 20
235.3992199999999
 30
0.0
 11
219.662923
 21
237.7401279999999
 31
0.0
  0
LINE
  5
1A047
330
19FC2
100
AcDbEntity
  8
1
  6
Continuous
100
AcDbLine
 10
215.200694
 20
235.3992199999999
 30
0.0
 11
217.541602
 21
237.7401279999999
 31
0.0
  0
LINE
  5
1A048
330
19FC2
100
AcDbEntity
  8
1
  6
Continuous
100
AcDbLine
 10
213.079373
 20
235.3992199999999
 30
0.0
 11
215.420282
 21
237.7401279999999
 31
0.0
  0
LINE
  5
1A049
330
19FC2
100
AcDbEntity
  8
1
  6
Continuous
100
AcDbLine
 10
210.9580529999998
 20
235.3992199999999
 30
0.0
 11
213.298962
 21
237.7401279999999
 31
0.0
  0
LINE
  5
1A04A
330
19FC2
100
AcDbEntity
  8
1
  6
Continuous
100
AcDbLine
 10
208.836733
 20
235.3992199999999
 30
0.0
 11
211.177641
 21
237.7401279999999
 31
0.0
  0
LINE
  5
1A04B
330
19FC2
100
AcDbEntity
  8
1
  6
Continuous
100
AcDbLine
 10
206.715412
 20
235.3992199999999
 30
0.0
 11
209.056321
 21
237.7401279999999
 31
0.0
  0
LINE
  5
1A04C
330
19FC2
100
AcDbEntity
  8
1
  6
Continuous
100
AcDbLine
 10
219.882511
 20
235.3992199999999
 30
0.0
 11
217.541602
 21
237.7401279999999
 31
0.0
  0
LINE
  5
1A04D
330
19FC2
100
AcDbEntity
  8
1
  6
Continuous
100
AcDbLine
 10
217.761191
 20
235.3992199999999
 30
0.0
 11
215.420282
 21
237.7401279999999
 31
0.0
  0
LINE
  5
1A04E
330
19FC2
100
AcDbEntity
  8
1
  6
Continuous
100
AcDbLine
 10
215.63987
 20
235.3992199999999
 30
0.0
 11
213.298962
 21
237.7401279999999
 31
0.0
  0
LINE
  5
1A04F
330
19FC2
100
AcDbEntity
  8
1
  6
Continuous
100
AcDbLine
 10
213.5185499999999
 20
235.3992199999999
 30
0.0
 11
211.177641
 21
237.7401279999999
 31
0.0
  0
LINE
  5
1A050
330
19FC2
100
AcDbEntity
  8
1
  6
Continuous
100
AcDbLine
 10
209.275909
 20
235.3992199999999
 30
0.0
 11
206.9350009999999
 21
237.7401279999999
 31
0.0
  0
LINE
  5
1A051
330
19FC2
100
AcDbEntity
  8
1
  6
Continuous
100
AcDbLine
 10
211.3972299999999
 20
235.3992199999999
 30
0.0
 11
209.056321
 21
237.7401279999999
 31
0.0
  0
LINE
  5
1A052
330
19FC2
100
AcDbEntity
  8
1
  6
Continuous
100
AcDbLine
 10
195.612321
 20
237.0240509999999
 30
0.0
 11
196.3283989999999
 21
237.7401279999999
 31
0.0
  0
LINE
  5
1A053
330
19FC2
100
AcDbEntity
  8
1
  6
Continuous
100
AcDbLine
 10
196.108811
 20
235.3992199999999
 30
0.0
 11
198.4497189999999
 21
237.7401279999999
 31
0.0
  0
LINE
  5
1A054
330
19FC2
100
AcDbEntity
  8
1
  6
Continuous
100
AcDbLine
 10
198.230131
 20
235.3992199999999
 30
0.0
 11
200.5710399999999
 21
237.7401279999999
 31
0.0
  0
LINE
  5
1A055
330
19FC2
100
AcDbEntity
  8
1
  6
Continuous
100
AcDbLine
 10
200.351451
 20
235.3992199999999
 30
0.0
 11
202.6923599999999
 21
237.7401279999999
 31
0.0
  0
LINE
  5
1A056
330
19FC2
100
AcDbEntity
  8
1
  6
Continuous
100
AcDbLine
 10
202.472772
 20
235.3992199999999
 30
0.0
 11
204.8136799999999
 21
237.7401279999999
 31
0.0
  0
LINE
  5
1A057
330
19FC2
100
AcDbEntity
  8
1
  6
Continuous
100
AcDbLine
 10
198.669308
 20
235.3992199999999
 30
0.0
 11
196.3283989999999
 21
237.7401279999999
 31
0.0
  0
LINE
  5
1A058
330
19FC2
100
AcDbEntity
  8
1
  6
Continuous
100
AcDbLine
 10
200.7906279999999
 20
235.3992199999999
 30
0.0
 11
198.4497189999999
 21
237.7401279999999
 31
0.0
  0
LINE
  5
1A059
330
19FC2
100
AcDbEntity
  8
1
  6
Continuous
100
AcDbLine
 10
202.9119479999998
 20
235.3992199999999
 30
0.0
 11
200.5710399999999
 21
237.7401279999999
 31
0.0
  0
LINE
  5
1A05A
330
19FC2
100
AcDbEntity
  8
1
  6
Continuous
100
AcDbLine
 10
205.0332689999999
 20
235.3992199999999
 30
0.0
 11
202.6923599999999
 21
237.7401279999999
 31
0.0
  0
LINE
  5
1A05B
330
19FC2
100
AcDbEntity
  8
1
  6
Continuous
100
AcDbLine
 10
195.612321
 20
237.7401279999999
 30
0.0
 11
195.612321
 21
235.3992199999999
 31
0.0
  0
ARC
  5
1A05C
330
19FC2
100
AcDbEntity
  8
1
  6
Continuous
100
AcDbCircle
 10
200.000321
 20
230.39922
 30
0.0
 40
5.0
100
AcDbArc
 50
90.0
 51
151.644062
  0
ARC
  5
1A05D
330
19FC2
100
AcDbEntity
  8
1
  6
Continuous
100
AcDbCircle
 10
197.5003209999999
 20
235.273958
 30
0.0
 40
2.5
100
AcDbArc
 50
270.0
 51
0.0
  0
LINE
  5
1A05E
330
19FC2
100
AcDbEntity
  8
1
  6
Continuous
100
AcDbLine
 10
196.674068
 20
239.7215
 30
0.0
 11
197.52243
 21
237.7401279999999
 31
0.0
  0
LINE
  5
1A05F
330
19FC2
100
AcDbEntity
  8
1
  6
Continuous
100
AcDbLine
 10
186.4301539999999
 20
232.7739579999999
 30
0.0
 11
186.4301539999999
 21
230.173958
 31
0.0
  0
LINE
  5
1A060
330
19FC2
100
AcDbEntity
  8
1
  6
Continuous
100
AcDbLine
 10
183.5000029999999
 20
243.098502
 30
0.0
 11
183.5000029999999
 21
245.9985019999999
 31
0.0
  0
LINE
  5
1A061
330
19FC2
100
AcDbEntity
  8
4
  6
CENTER
100
AcDbLine
 10
95.00035799999999
 20
248.998502
 30
0.0
 11
95.00035799999999
 21
239.9985019999999
 31
0.0
  0
ARC
  5
1A062
330
19FC2
100
AcDbEntity
  8
1
  6
Continuous
100
AcDbCircle
 10
86.50015000000001
 20
230.39922
 30
0.0
 40
5.0
100
AcDbArc
 50
0.0
 51
90.0
  0
ARC
  5
1A063
330
19FC2
100
AcDbEntity
  8
1
  6
Continuous
100
AcDbCircle
 10
78.23996599999998
 20
228.7134
 30
0.0
 40
4.060635999999997
100
AcDbArc
 50
0.8545099999999996
 51
89.64606100000002
  0
ARC
  5
1A064
330
19FC2
100
AcDbEntity
  8
1
  6
Continuous
100
AcDbCircle
 10
74.50015
 20
220.718481
 30
0.0
 40
3.0
100
AcDbArc
 50
0.0
 51
86.94471599999998
  0
ARC
  5
1A065
330
19FC2
100
AcDbEntity
  8
1
  6
Continuous
100
AcDbCircle
 10
78.04987
 20
230.4677519999999
 30
0.0
 40
6.051997
100
AcDbArc
 50
270.0
 51
285.8240159999999
  0
LINE
  5
1A066
330
19FC2
100
AcDbEntity
  8
1
  6
Continuous
100
AcDbLine
 10
73.75007700000002
 20
224.415755
 30
0.0
 11
73.75007700000002
 21
223.760708
 31
0.0
  0
LINE
  5
1A067
330
19FC2
100
AcDbEntity
  8
1
  6
Continuous
100
AcDbLine
 10
74.36810899999997
 20
230.173958
 30
0.0
 11
75.372208
 21
229.1698589999998
 31
0.0
  0
LINE
  5
1A068
330
19FC2
100
AcDbEntity
  8
1
  6
Continuous
100
AcDbLine
 10
78.41665999999998
 20
230.0929899999999
 30
0.0
 11
77.493528
 21
229.1698589999998
 31
0.0
  0
LINE
  5
1A069
330
19FC2
100
AcDbEntity
  8
1
  6
Continuous
100
AcDbLine
 10
76.376306
 20
230.173958
 30
0.0
 11
75.372208
 21
229.1698589999998
 31
0.0
  0
LINE
  5
1A06A
330
19FC2
100
AcDbEntity
  8
1
  6
Continuous
100
AcDbLine
 10
76.489429
 20
230.173958
 30
0.0
 11
77.493528
 21
229.1698589999998
 31
0.0
  0
ARC
  5
1A06B
330
19FC2
100
AcDbEntity
  8
1
  6
Continuous
100
AcDbCircle
 10
77.64422299999998
 20
228.1704609999999
 30
0.0
 40
2.067095
100
AcDbArc
 50
5.958555999999997
 51
75.750507
  0
LINE
  5
1A06C
330
19FC2
100
AcDbEntity
  8
1
  6
Continuous
100
AcDbLine
 10
74.254986
 20
230.173958
 30
0.0
 11
73.25088700000002
 21
229.1698589999998
 31
0.0
  0
LINE
  5
1A06D
330
19FC2
100
AcDbEntity
  8
1
  6
Continuous
100
AcDbLine
 10
72.133666
 20
230.173958
 30
0.0
 11
71.12956700000002
 21
229.1698589999998
 31
0.0
  0
LINE
  5
1A06E
330
19FC2
100
AcDbEntity
  8
1
  6
Continuous
100
AcDbLine
 10
70.01234499999999
 20
230.173958
 30
0.0
 11
69.00824599999999
 21
229.1698589999998
 31
0.0
  0
LINE
  5
1A06F
330
19FC2
100
AcDbEntity
  8
1
  6
Continuous
100
AcDbLine
 10
72.24678799999998
 20
230.173958
 30
0.0
 11
73.25088700000002
 21
229.1698589999998
 31
0.0
  0
LINE
  5
1A070
330
19FC2
100
AcDbEntity
  8
1
  6
Continuous
100
AcDbLine
 10
70.12546800000001
 20
230.173958
 30
0.0
 11
71.12956700000002
 21
229.1698589999998
 31
0.0
  0
LINE
  5
1A071
330
19FC2
100
AcDbEntity
  8
1
  6
Continuous
100
AcDbLine
 10
68.004148
 20
230.173958
 30
0.0
 11
69.00824599999999
 21
229.1698589999998
 31
0.0
  0
LINE
  5
1A072
330
19FC2
100
AcDbEntity
  8
1
  6
Continuous
100
AcDbLine
 10
89.82647599999998
 20
239.7215
 30
0.0
 11
88.978114
 21
237.7401279999999
 31
0.0
  0
LINE
  5
1A073
330
19FC2
100
AcDbEntity
  8
1
  6
Continuous
100
AcDbLine
 10
103.000153
 20
243.098502
 30
0.0
 11
103.000153
 21
245.9985019999999
 31
0.0
  0
LINE
  5
1A074
330
19FC2
100
AcDbEntity
  8
1
  6
Continuous
100
AcDbLine
 10
36.50014999999999
 20
230.39922
 30
0.0
 11
36.50014999999999
 21
193.7962639999998
 31
0.0
  0
LINE
  5
1A075
330
19FC2
100
AcDbEntity
  8
1
  6
Continuous
100
AcDbLine
 10
45.70015
 20
228.7739579999999
 30
0.0
 11
45.70015
 21
180.498502
 31
0.0
  0
LINE
  5
1A076
330
19FC2
100
AcDbEntity
  8
1
  6
Continuous
100
AcDbLine
 10
48.50014999999999
 20
196.998502
 30
0.0
 11
48.50014999999999
 21
185.998502
 31
0.0
  0
LINE
  5
1A077
330
19FC2
100
AcDbEntity
  8
1
  6
Continuous
100
AcDbLine
 10
48.75015
 20
199.998502
 30
0.0
 11
48.75015
 21
182.998502
 31
0.0
  0
LINE
  5
1A078
330
19FC2
100
AcDbEntity
  8
1
  6
Continuous
100
AcDbLine
 10
84.30015
 20
198.9985019999998
 30
0.0
 11
84.30015
 21
183.998502
 31
0.0
  0
ARC
  5
1A079
330
19FC2
100
AcDbEntity
  8
1
  6
Continuous
100
AcDbCircle
 10
48.120119
 20
194.45686
 30
0.0
 40
11.63873099999998
100
AcDbArc
 50
183.2537669999999
 51
244.3958499999999
  0
ARC
  5
1A07A
330
19FC2
100
AcDbEntity
  8
1
  6
Continuous
100
AcDbCircle
 10
40.70329899999999
 20
179.4471079999999
 30
0.0
 40
5.106265999999998
100
AcDbArc
 50
11.882349
 51
62.128486
  0
ARC
  5
1A07B
330
19FC2
100
AcDbEntity
  8
1
  6
Continuous
100
AcDbCircle
 10
51.287757
 20
183.0108199999999
 30
0.0
 40
2.537636999999997
100
AcDbArc
 50
180.278118
 51
251.91845
  0
LINE
  5
1A07C
330
19FC2
100
AcDbEntity
  8
1
  6
Continuous
100
AcDbLine
 10
48.50014999999999
 20
187.498502
 30
0.0
 11
48.30015
 21
187.498502
 31
0.0
  0
LINE
  5
1A07D
330
19FC2
100
AcDbEntity
  8
1
  6
Continuous
100
AcDbLine
 10
48.75015
 20
185.998502
 30
0.0
 11
48.50014999999999
 21
185.998502
 31
0.0
  0
LINE
  5
1A07E
330
19FC2
100
AcDbEntity
  8
1
  6
Continuous
100
AcDbLine
 10
48.50014999999999
 20
195.498502
 30
0.0
 11
48.30015
 21
195.498502
 31
0.0
  0
ARC
  5
1A07F
330
19FC2
100
AcDbEntity
  8
1
  6
Continuous
100
AcDbCircle
 10
51.287757
 20
199.986184
 30
0.0
 40
2.537636999999997
100
AcDbArc
 50
108.0815499999998
 51
179.7218819999999
  0
LINE
  5
1A080
330
19FC2
100
AcDbEntity
  8
1
  6
Continuous
100
AcDbLine
 10
48.75015
 20
196.998502
 30
0.0
 11
48.50014999999999
 21
196.998502
 31
0.0
  0
LINE
  5
1A081
330
19FC2
100
AcDbEntity
  8
4
  6
CENTER
100
AcDbLine
 10
33.00035799999999
 20
248.998502
 30
0.0
 11
33.00035799999999
 21
239.9985019999999
 31
0.0
  0
ARC
  5
1A082
330
19FC2
100
AcDbEntity
  8
1
  6
Continuous
100
AcDbCircle
 10
41.50014999999998
 20
230.39922
 30
0.0
 40
5.0
100
AcDbArc
 50
90.0
 51
180.0
  0
ARC
  5
1A083
330
19FC2
100
AcDbEntity
  8
1
  6
Continuous
100
AcDbCircle
 10
49.735271
 20
228.7739579999999
 30
0.0
 40
4.0
100
AcDbArc
 50
90.0
 51
180.0
  0
LINE
  5
1A084
330
19FC2
100
AcDbEntity
  8
1
  6
Continuous
100
AcDbLine
 10
51.03358499999998
 20
230.173958
 30
0.0
 11
52.03768400000001
 21
229.1698589999998
 31
0.0
  0
ARC
  5
1A085
330
19FC2
100
AcDbEntity
  8
1
  6
Continuous
100
AcDbCircle
 10
53.50014999999999
 20
220.718481
 30
0.0
 40
3.0
100
AcDbArc
 50
93.055284
 51
180.0
  0
LINE
  5
1A086
330
19FC2
100
AcDbEntity
  8
1
  6
Continuous
100
AcDbLine
 10
54.250077
 20
224.415755
 30
0.0
 11
54.250077
 21
223.760701
 31
0.0
  0
LINE
  5
1A087
330
19FC2
100
AcDbEntity
  8
1
  6
Continuous
100
AcDbLine
 10
59.40574399999999
 20
230.173958
 30
0.0
 11
58.401645
 21
229.1698589999998
 31
0.0
  0
LINE
  5
1A088
330
19FC2
100
AcDbEntity
  8
1
  6
Continuous
100
AcDbLine
 10
65.769705
 20
230.173958
 30
0.0
 11
64.765606
 21
229.1698589999998
 31
0.0
  0
LINE
  5
1A089
330
19FC2
100
AcDbEntity
  8
1
  6
Continuous
100
AcDbLine
 10
63.648384
 20
230.173958
 30
0.0
 11
62.64428500000001
 21
229.1698589999998
 31
0.0
  0
LINE
  5
1A08A
330
19FC2
100
AcDbEntity
  8
1
  6
Continuous
100
AcDbLine
 10
61.527064
 20
230.173958
 30
0.0
 11
60.522965
 21
229.1698589999998
 31
0.0
  0
LINE
  5
1A08B
330
19FC2
100
AcDbEntity
  8
1
  6
Continuous
100
AcDbLine
 10
65.882827
 20
230.173958
 30
0.0
 11
66.886926
 21
229.1698589999998
 31
0.0
  0
LINE
  5
1A08C
330
19FC2
100
AcDbEntity
  8
1
  6
Continuous
100
AcDbLine
 10
63.761507
 20
230.173958
 30
0.0
 11
64.765606
 21
229.1698589999998
 31
0.0
  0
LINE
  5
1A08D
330
19FC2
100
AcDbEntity
  8
1
  6
Continuous
100
AcDbLine
 10
61.64018699999999
 20
230.173958
 30
0.0
 11
62.64428500000001
 21
229.1698589999998
 31
0.0
  0
LINE
  5
1A08E
330
19FC2
100
AcDbEntity
  8
1
  6
Continuous
100
AcDbLine
 10
59.518866
 20
230.173958
 30
0.0
 11
60.522965
 21
229.1698589999998
 31
0.0
  0
LINE
  5
1A08F
330
19FC2
100
AcDbEntity
  8
1
  6
Continuous
100
AcDbLine
 10
53.041783
 20
230.173958
 30
0.0
 11
52.03768400000001
 21
229.1698589999998
 31
0.0
  0
LINE
  5
1A090
330
19FC2
100
AcDbEntity
  8
1
  6
Continuous
100
AcDbLine
 10
55.163103
 20
230.173958
 30
0.0
 11
54.159004
 21
229.1698589999998
 31
0.0
  0
LINE
  5
1A091
330
19FC2
100
AcDbEntity
  8
1
  6
Continuous
100
AcDbLine
 10
57.284423
 20
230.173958
 30
0.0
 11
56.280324
 21
229.1698589999998
 31
0.0
  0
LINE
  5
1A092
330
19FC2
100
AcDbEntity
  8
1
  6
Continuous
100
AcDbLine
 10
57.397546
 20
230.173958
 30
0.0
 11
58.401645
 21
229.1698589999998
 31
0.0
  0
LINE
  5
1A093
330
19FC2
100
AcDbEntity
  8
1
  6
Continuous
100
AcDbLine
 10
53.15490500000001
 20
230.173958
 30
0.0
 11
54.159004
 21
229.1698589999998
 31
0.0
  0
LINE
  5
1A094
330
19FC2
100
AcDbEntity
  8
1
  6
Continuous
100
AcDbLine
 10
55.276226
 20
230.173958
 30
0.0
 11
56.280324
 21
229.1698589999998
 31
0.0
  0
ARC
  5
1A095
330
19FC2
100
AcDbEntity
  8
1
  6
Continuous
100
AcDbCircle
 10
49.95076599999999
 20
230.4677519999999
 30
0.0
 40
6.051997
100
AcDbArc
 50
254.1726779999998
 51
270.0
  0
LINE
  5
1A096
330
19FC2
100
AcDbEntity
  8
1
  6
Continuous
100
AcDbLine
 10
50.920462
 20
230.173958
 30
0.0
 11
49.91636299999999
 21
229.1698589999998
 31
0.0
  0
LINE
  5
1A097
330
19FC2
100
AcDbEntity
  8
1
  6
Continuous
100
AcDbLine
 10
49.19912700000001
 20
229.8870949999999
 30
0.0
 11
49.91636299999999
 21
229.1698589999998
 31
0.0
  0
ARC
  5
1A098
330
19FC2
100
AcDbEntity
  8
1
  6
Continuous
100
AcDbCircle
 10
50.356121
 20
228.170425
 30
0.0
 40
2.067130999999998
100
AcDbArc
 50
104.2493879999999
 51
174.0435449999999
  0
LINE
  5
1A099
330
19FC2
100
AcDbEntity
  8
1
  6
Continuous
100
AcDbLine
 10
38.17382399999999
 20
239.7215
 30
0.0
 11
39.02218599999999
 21
237.7401279999999
 31
0.0
  0
LINE
  5
1A09A
330
19FC2
100
AcDbEntity
  8
1
  6
Continuous
100
AcDbLine
 10
25.0
 20
243.098502
 30
0.0
 11
25.0
 21
245.9985019999999
 31
0.0
  0
LINE
  5
1A09B
330
19FC2
100
AcDbEntity
  8
4
  6
CENTER
100
AcDbLine
 10
266.2003609999998
 20
324.997003
 30
0.0
 11
157.999779
 21
324.997003
 31
0.0
  0
CIRCLE
  5
1A09C
330
19FC2
100
AcDbEntity
  8
1
  6
Continuous
100
AcDbCircle
 10
222.5003609999999
 20
324.997003
 30
0.0
 40
13.34999999999999
  0
ARC
  5
1A09D
330
19FC2
100
AcDbEntity
  8
1
  6
Continuous
100
AcDbCircle
 10
222.5003609999999
 20
-1307.519663999999
 30
0.0
 40
1593.816667
100
AcDbArc
 50
88.89108399999996
 51
91.10891600000002
  0
ARC
  5
1A09E
330
19FC2
100
AcDbEntity
  8
1
  6
Continuous
100
AcDbCircle
 10
222.5003609999999
 20
1957.513669999998
 30
0.0
 40
1593.816667
100
AcDbArc
 50
268.8910839999999
 51
271.108916
  0
LINE
  5
1A09F
330
19FC2
100
AcDbEntity
  8
4
  6
CENTER
100
AcDbLine
 10
222.5003609999999
 20
281.2970029999998
 30
0.0
 11
222.5003609999999
 21
368.6970029999998
 31
0.0
  0
ARC
  5
1A0A0
330
19FC2
100
AcDbEntity
  8
1
  6
Continuous
100
AcDbCircle
 10
1855.017028
 20
324.997003
 30
0.0
 40
1593.816667
100
AcDbArc
 50
178.8910839999998
 51
181.1089159999999
  0
LINE
  5
1A0A1
330
19FC2
100
AcDbEntity
  8
4
  6
CENTER
100
AcDbLine
 10
253.5003609999999
 20
285.497003
 30
0.0
 11
253.5003609999999
 21
302.4970029999999
 31
0.0
  0
LINE
  5
1A0A2
330
19FC2
100
AcDbEntity
  8
4
  6
CENTER
100
AcDbLine
 10
262.0003609999999
 20
293.9970029999999
 30
0.0
 11
245.0003609999999
 21
293.9970029999999
 31
0.0
  0
CIRCLE
  5
1A0A3
330
19FC2
100
AcDbEntity
  8
1
  6
Continuous
100
AcDbCircle
 10
253.5003609999999
 20
293.9970029999999
 30
0.0
 40
4.25
  0
ARC
  5
1A0A4
330
19FC2
100
AcDbEntity
  8
1
  6
Continuous
100
AcDbCircle
 10
253.5003609999999
 20
293.9970029999999
 30
0.0
 40
8.0
100
AcDbArc
 50
268.8910839999999
 51
1.108916
  0
LINE
  5
1A0A5
330
19FC2
100
AcDbEntity
  8
4
  6
CENTER
100
AcDbLine
 10
262.0003609999999
 20
355.997003
 30
0.0
 11
245.0003609999999
 21
355.997003
 31
0.0
  0
CIRCLE
  5
1A0A6
330
19FC2
100
AcDbEntity
  8
1
  6
Continuous
100
AcDbCircle
 10
253.5003609999999
 20
355.997003
 30
0.0
 40
4.25
  0
LINE
  5
1A0A7
330
19FC2
100
AcDbEntity
  8
4
  6
CENTER
100
AcDbLine
 10
253.5003609999999
 20
347.497003
 30
0.0
 11
253.5003609999999
 21
364.497003
 31
0.0
  0
ARC
  5
1A0A8
330
19FC2
100
AcDbEntity
  8
1
  6
Continuous
100
AcDbCircle
 10
253.5003609999999
 20
355.997003
 30
0.0
 40
8.0
100
AcDbArc
 50
358.891084
 51
91.10891600000002
  0
ARC
  5
1A0A9
330
19FC2
100
AcDbEntity
  8
1
  6
Continuous
100
AcDbCircle
 10
362.999779
 20
324.997106
 30
0.0
 40
200.0
100
AcDbArc
 50
176.944716
 51
183.055284
  0
ARC
  5
1A0AA
330
19FC2
100
AcDbEntity
  8
1
  6
Continuous
100
AcDbCircle
 10
-1410.016305
 20
324.997003
 30
0.0
 40
1593.816667
100
AcDbArc
 50
358.891084
 51
1.108916
  0
LINE
  5
1A0AB
330
19FC2
100
AcDbEntity
  8
4
  6
CENTER
100
AcDbLine
 10
191.500361
 20
285.497003
 30
0.0
 11
191.500361
 21
302.4970029999999
 31
0.0
  0
LINE
  5
1A0AC
330
19FC2
100
AcDbEntity
  8
4
  6
CENTER
100
AcDbLine
 10
200.0003609999999
 20
293.9970029999999
 30
0.0
 11
183.000361
 21
293.9970029999999
 31
0.0
  0
CIRCLE
  5
1A0AD
330
19FC2
100
AcDbEntity
  8
1
  6
Continuous
100
AcDbCircle
 10
191.500361
 20
293.9970029999999
 30
0.0
 40
4.25
  0
ARC
  5
1A0AE
330
19FC2
100
AcDbEntity
  8
1
  6
Continuous
100
AcDbCircle
 10
191.500361
 20
293.9970029999999
 30
0.0
 40
8.0
100
AcDbArc
 50
178.8910839999998
 51
271.108916
  0
ARC
  5
1A0AF
330
19FC2
100
AcDbEntity
  8
1
  6
Continuous
100
AcDbCircle
 10
166.2798009999999
 20
314.4971059999999
 30
0.0
 40
3.0
100
AcDbArc
 50
183.055284
 51
270.0
  0
LINE
  5
1A0B0
330
19FC2
100
AcDbEntity
  8
1
  6
Continuous
100
AcDbLine
 10
183.7431879999998
 20
311.4971059999998
 30
0.0
 11
166.2798009999999
 21
311.4971059999998
 31
0.0
  0
ARC
  5
1A0B1
330
19FC2
100
AcDbEntity
  8
1
  6
Continuous
100
AcDbCircle
 10
166.2798009999999
 20
335.497106
 30
0.0
 40
3.0
100
AcDbArc
 50
90.0
 51
176.944716
  0
LINE
  5
1A0B2
330
19FC2
100
AcDbEntity
  8
1
  6
Continuous
100
AcDbLine
 10
183.743186
 20
338.4971059999998
 30
0.0
 11
166.2798009999999
 21
338.4971059999998
 31
0.0
  0
LINE
  5
1A0B3
330
19FC2
100
AcDbEntity
  8
4
  6
CENTER
100
AcDbLine
 10
200.0003609999999
 20
355.997003
 30
0.0
 11
183.000361
 21
355.997003
 31
0.0
  0
CIRCLE
  5
1A0B4
330
19FC2
100
AcDbEntity
  8
1
  6
Continuous
100
AcDbCircle
 10
191.500361
 20
355.997003
 30
0.0
 40
4.25
  0
ARC
  5
1A0B5
330
19FC2
100
AcDbEntity
  8
1
  6
Continuous
100
AcDbCircle
 10
191.500361
 20
355.997003
 30
0.0
 40
8.0
100
AcDbArc
 50
88.89108399999996
 51
181.1089159999999
  0
LINE
  5
1A0B6
330
19FC2
100
AcDbEntity
  8
4
  6
CENTER
100
AcDbLine
 10
191.500361
 20
347.497003
 30
0.0
 11
191.500361
 21
364.497003
 31
0.0
  0
LINE
  5
1A0B7
330
19FC2
100
AcDbEntity
  8
4
  6
CENTER
100
AcDbLine
 10
360.500159
 20
250.998502
 30
0.0
 11
360.500159
 21
153.998502
 31
0.0
  0
LINE
  5
1A0B8
330
19FC2
100
AcDbEntity
  8
1
  6
Continuous
100
AcDbLine
 10
347.0001589999998
 20
162.278523
 30
0.0
 11
347.0001589999998
 21
215.1162849999999
 31
0.0
  0
LINE
  5
1A0B9
330
19FC2
100
AcDbEntity
  8
1
  6
Continuous
100
AcDbLine
 10
374.0001589999998
 20
215.1162849999999
 30
0.0
 11
374.0001589999998
 21
162.278523
 31
0.0
  0
ARC
  5
1A0BA
330
19FC2
100
AcDbEntity
  8
1
  6
Continuous
100
AcDbCircle
 10
360.500159
 20
358.9985019999998
 30
0.0
 40
200.0
100
AcDbArc
 50
266.944716
 51
273.0552839999999
  0
ARC
  5
1A0BB
330
19FC2
100
AcDbEntity
  8
1
  6
Continuous
100
AcDbCircle
 10
350.000159
 20
162.278523
 30
0.0
 40
3.0
100
AcDbArc
 50
180.0
 51
266.944716
  0
ARC
  5
1A0BC
330
19FC2
100
AcDbEntity
  8
1
  6
Continuous
100
AcDbCircle
 10
371.000159
 20
162.278523
 30
0.0
 40
3.0
100
AcDbArc
 50
273.0552839999999
 51
0.0
  0
LINE
  5
1A0BD
330
19FC2
100
AcDbEntity
  8
4
  6
CENTER
100
AcDbLine
 10
328.190048
 20
191.4985019999998
 30
0.0
 11
392.81027
 21
191.4985019999998
 31
0.0
  0
LINE
  5
1A0BE
330
19FC2
100
AcDbEntity
  8
1
  6
Continuous
100
AcDbLine
 10
332.021542
 20
239.7215
 30
0.0
 11
388.978923
 21
239.7215
 31
0.0
  0
LINE
  5
1A0BF
330
19FC2
100
AcDbEntity
  8
1
  6
Continuous
100
AcDbLine
 10
321.500156
 20
245.9985019999999
 30
0.0
 11
399.5003089999999
 21
245.9985019999999
 31
0.0
  0
LINE
  5
1A0C0
330
19FC2
100
AcDbEntity
  8
4
  6
CENTER
100
AcDbLine
 10
329.500159
 20
248.898502
 30
0.0
 11
329.500159
 21
240.198502
 31
0.0
  0
LINE
  5
1A0C1
330
19FC2
100
AcDbEntity
  8
1
  6
Continuous
100
AcDbLine
 10
321.500156
 20
243.098502
 30
0.0
 11
321.500156
 21
245.9985019999999
 31
0.0
  0
ARC
  5
1A0C2
330
19FC2
100
AcDbEntity
  8
1
  6
Continuous
100
AcDbCircle
 10
416.5122939999998
 20
240.551189
 30
0.0
 40
50.0
100
AcDbArc
 50
199.6636979999999
 51
204.53831
  0
LINE
  5
1A0C3
330
19FC2
100
AcDbEntity
  8
1
  6
Continuous
100
AcDbLine
 10
352.328052
 20
224.415755
 30
0.0
 11
368.6721959999999
 21
224.415755
 31
0.0
  0
ARC
  5
1A0C4
330
19FC2
100
AcDbEntity
  8
1
  6
Continuous
100
AcDbCircle
 10
360.500159
 20
196.0214999999998
 30
0.0
 40
30.0
100
AcDbArc
 50
77.16041199999998
 51
102.839588
  0
ARC
  5
1A0C5
330
19FC2
100
AcDbEntity
  8
1
  6
Continuous
100
AcDbCircle
 10
354.500159
 20
222.346394
 30
0.0
 40
3.0
100
AcDbArc
 50
102.839588
 51
136.726634
  0
ARC
  5
1A0C6
330
19FC2
100
AcDbEntity
  8
1
  6
Continuous
100
AcDbCircle
 10
366.500159
 20
222.346394
 30
0.0
 40
3.0
100
AcDbArc
 50
43.27336599999997
 51
77.16041199999998
  0
LINE
  5
1A0C7
330
19FC2
100
AcDbEntity
  8
4
  6
CENTER
100
AcDbLine
 10
391.500159
 20
248.898502
 30
0.0
 11
391.500159
 21
240.198502
 31
0.0
  0
LINE
  5
1A0C8
330
19FC2
100
AcDbEntity
  8
1
  6
Continuous
100
AcDbLine
 10
399.5003089999999
 20
243.098502
 30
0.0
 11
399.5003089999999
 21
245.9985019999999
 31
0.0
  0
LINE
  5
1A0C9
330
19FC2
100
AcDbEntity
  8
1
  6
Continuous
100
AcDbLine
 10
250.000321
 20
224.415755
 30
0.0
 11
248.898081
 21
224.415755
 31
0.0
  0
LINE
  5
1A0CA
330
19FC2
100
AcDbEntity
  8
1
  6
Continuous
100
AcDbLine
 10
334.6738329999999
 20
239.7215
 30
0.0
 11
335.522195
 21
237.7401279999999
 31
0.0
  0
LINE
  5
1A0CB
330
19FC2
100
AcDbEntity
  8
1
  6
Continuous
100
AcDbLine
 10
386.326485
 20
239.7215
 30
0.0
 11
385.478123
 21
237.7401279999999
 31
0.0
  0
LINE
  5
1A0CC
330
19FC2
100
AcDbEntity
  8
1
  6
Continuous
100
AcDbLine
 10
48.30015
 20
228.384936
 30
0.0
 11
48.30015
 21
180.498502
 31
0.0
  0
LINE
  5
1A0CD
330
19FC2
100
AcDbEntity
  8
1
  6
Continuous
100
AcDbLine
 10
79.70014999999998
 20
228.385044
 30
0.0
 11
79.70014999999998
 21
180.498502
 31
0.0
  0
ARC
  5
1A0CE
330
19FC2
100
AcDbEntity
  8
1
  6
Continuous
100
AcDbCircle
 10
338.000159
 20
230.39922
 30
0.0
 40
5.0
100
AcDbArc
 50
90.0
 51
180.0
  0
LINE
  5
1A0CF
330
19FC2
100
AcDbEntity
  8
1
  6
Continuous
100
AcDbLine
 10
333.000159
 20
230.39922
 30
0.0
 11
333.000159
 21
195.117456
 31
0.0
  0
ARC
  5
1A0D0
330
19FC2
100
AcDbEntity
  8
1
  6
Continuous
100
AcDbCircle
 10
383.000159
 20
230.39922
 30
0.0
 40
5.0
100
AcDbArc
 50
0.0
 51
90.0
  0
LINE
  5
1A0D1
330
19FC2
100
AcDbEntity
  8
1
  6
Continuous
100
AcDbLine
 10
388.000159
 20
230.39922
 30
0.0
 11
388.000159
 21
195.117456
 31
0.0
  0
LINE
  5
1A0D2
330
19FC2
100
AcDbEntity
  8
1
  6
Continuous
100
AcDbLine
 10
344.800159
 20
212.3112089999999
 30
0.0
 11
344.800159
 21
180.498502
 31
0.0
  0
LINE
  5
1A0D3
330
19FC2
100
AcDbEntity
  8
1
  6
Continuous
100
AcDbLine
 10
376.200159
 20
212.3112089999999
 30
0.0
 11
376.200159
 21
180.498502
 31
0.0
  0
ARC
  5
1A0D4
330
19FC2
100
AcDbEntity
  8
1
  6
Continuous
100
AcDbCircle
 10
383.7801789999998
 20
179.46553
 30
0.0
 40
5.081914
100
AcDbArc
 50
117.7689839999999
 51
168.272091
  0
ARC
  5
1A0D5
330
19FC2
100
AcDbEntity
  8
1
  6
Continuous
100
AcDbCircle
 10
376.3805039999998
 20
194.456576
 30
0.0
 40
11.63843399999999
100
AcDbArc
 50
295.6173089999999
 51
9.113491999999999
  0
ARC
  5
1A0D6
330
19FC2
100
AcDbEntity
  8
1
  6
Continuous
100
AcDbCircle
 10
383.7801789999998
 20
179.46553
 30
0.0
 40
7.681913999999999
100
AcDbArc
 50
115.197734
 51
170.657601
  0
ARC
  5
1A0D7
330
19FC2
100
AcDbEntity
  8
1
  6
Continuous
100
AcDbCircle
 10
320.669832
 20
171.018517
 30
0.0
 40
71.80032900000002
100
AcDbArc
 50
20.61630999999999
 51
48.03134299999999
  0
ARC
  5
1A0D8
330
19FC2
100
AcDbEntity
  8
1
  6
Continuous
100
AcDbCircle
 10
320.6471839999999
 20
171.0066919999999
 30
0.0
 40
69.225691
100
AcDbArc
 50
20.847443
 51
39.77594899999999
  0
ARC
  5
1A0D9
330
19FC2
100
AcDbEntity
  8
1
  6
Continuous
100
AcDbCircle
 10
376.3805039999998
 20
194.456576
 30
0.0
 40
9.038434
100
AcDbArc
 50
295.6173089999999
 51
7.541341999999998
  0
ARC
  5
1A0DA
330
19FC2
100
AcDbEntity
  8
1
  6
Continuous
100
AcDbCircle
 10
389.2217799999999
 20
228.092141
 30
0.0
 40
20.0
100
AcDbArc
 50
204.53831
 51
219.775949
  0
ARC
  5
1A0DB
330
19FC2
100
AcDbEntity
  8
1
  6
Continuous
100
AcDbCircle
 10
304.4880239999999
 20
240.551189
 30
0.0
 40
50.0
100
AcDbArc
 50
335.4616899999999
 51
340.336302
  0
ARC
  5
1A0DC
330
19FC2
100
AcDbEntity
  8
1
  6
Continuous
100
AcDbCircle
 10
400.330486
 20
171.018517
 30
0.0
 40
71.80032900000002
100
AcDbArc
 50
131.968657
 51
159.38369
  0
ARC
  5
1A0DD
330
19FC2
100
AcDbEntity
  8
1
  6
Continuous
100
AcDbCircle
 10
331.7785379999999
 20
228.092141
 30
0.0
 40
20.0
100
AcDbArc
 50
320.2240509999999
 51
335.4616899999999
  0
ARC
  5
1A0DE
330
19FC2
100
AcDbEntity
  8
1
  6
Continuous
100
AcDbCircle
 10
400.353134
 20
171.0066919999999
 30
0.0
 40
69.225691
100
AcDbArc
 50
140.224051
 51
159.1525569999998
  0
ARC
  5
1A0DF
330
19FC2
100
AcDbEntity
  8
1
  6
Continuous
100
AcDbCircle
 10
344.619814
 20
194.456576
 30
0.0
 40
9.038434
100
AcDbArc
 50
172.458658
 51
244.3826909999999
  0
ARC
  5
1A0E0
330
19FC2
100
AcDbEntity
  8
1
  6
Continuous
100
AcDbCircle
 10
337.220139
 20
179.46553
 30
0.0
 40
7.681913999999999
100
AcDbArc
 50
9.342399
 51
64.802266
  0
ARC
  5
1A0E1
330
19FC2
100
AcDbEntity
  8
1
  6
Continuous
100
AcDbCircle
 10
337.220139
 20
179.46553
 30
0.0
 40
5.081914
100
AcDbArc
 50
11.727909
 51
62.23101599999999
  0
ARC
  5
1A0E2
330
19FC2
100
AcDbEntity
  8
1
  6
Continuous
100
AcDbCircle
 10
344.619814
 20
194.456576
 30
0.0
 40
11.63843399999999
100
AcDbArc
 50
170.8865079999999
 51
244.3826909999999
  0
LINE
  5
1A0E3
330
19FC2
100
AcDbEntity
  8
1
  6
Continuous
100
AcDbLine
 10
345.250159
 20
199.998502
 30
0.0
 11
345.250159
 21
182.998502
 31
0.0
  0
ARC
  5
1A0E4
330
19FC2
100
AcDbEntity
  8
1
  6
Continuous
100
AcDbCircle
 10
347.7877659999998
 20
199.986184
 30
0.0
 40
2.537636999999997
100
AcDbArc
 50
108.0815499999998
 51
179.7218819999999
  0
ARC
  5
1A0E5
330
19FC2
100
AcDbEntity
  8
1
  6
Continuous
100
AcDbCircle
 10
347.7877659999998
 20
183.0108199999999
 30
0.0
 40
2.537636999999997
100
AcDbArc
 50
180.278118
 51
251.91845
  0
ARC
  5
1A0E6
330
19FC2
100
AcDbEntity
  8
1
  6
Continuous
100
AcDbCircle
 10
373.212552
 20
183.0108199999999
 30
0.0
 40
2.537636999999997
100
AcDbArc
 50
288.08155
 51
359.721882
  0
LINE
  5
1A0E7
330
19FC2
100
AcDbEntity
  8
1
  6
Continuous
100
AcDbLine
 10
375.7501589999998
 20
199.998502
 30
0.0
 11
375.7501589999998
 21
182.998502
 31
0.0
  0
ARC
  5
1A0E8
330
19FC2
100
AcDbEntity
  8
1
  6
Continuous
100
AcDbCircle
 10
373.212552
 20
199.986184
 30
0.0
 40
2.537636999999997
100
AcDbArc
 50
0.278118
 51
71.91845000000002
  0
LINE
  5
1A0E9
330
19FC2
100
AcDbEntity
  8
1
  6
Continuous
100
AcDbLine
 10
376.0001589999998
 20
196.998502
 30
0.0
 11
375.7501589999998
 21
196.998502
 31
0.0
  0
LINE
  5
1A0EA
330
19FC2
100
AcDbEntity
  8
1
  6
Continuous
100
AcDbLine
 10
376.200159
 20
195.498502
 30
0.0
 11
376.0001589999998
 21
195.498502
 31
0.0
  0
LINE
  5
1A0EB
330
19FC2
100
AcDbEntity
  8
1
  6
Continuous
100
AcDbLine
 10
376.0001589999998
 20
185.998502
 30
0.0
 11
375.7501589999998
 21
185.998502
 31
0.0
  0
LINE
  5
1A0EC
330
19FC2
100
AcDbEntity
  8
1
  6
Continuous
100
AcDbLine
 10
376.200159
 20
187.498502
 30
0.0
 11
376.0001589999998
 21
187.498502
 31
0.0
  0
LINE
  5
1A0ED
330
19FC2
100
AcDbEntity
  8
1
  6
Continuous
100
AcDbLine
 10
376.0001589999998
 20
196.998502
 30
0.0
 11
376.0001589999998
 21
185.998502
 31
0.0
  0
LINE
  5
1A0EE
330
19FC2
100
AcDbEntity
  8
1
  6
Continuous
100
AcDbLine
 10
345.250159
 20
196.998502
 30
0.0
 11
345.0001589999998
 21
196.998502
 31
0.0
  0
LINE
  5
1A0EF
330
19FC2
100
AcDbEntity
  8
1
  6
Continuous
100
AcDbLine
 10
345.0001589999998
 20
195.498502
 30
0.0
 11
344.800159
 21
195.498502
 31
0.0
  0
LINE
  5
1A0F0
330
19FC2
100
AcDbEntity
  8
1
  6
Continuous
100
AcDbLine
 10
345.250159
 20
185.998502
 30
0.0
 11
345.0001589999998
 21
185.998502
 31
0.0
  0
LINE
  5
1A0F1
330
19FC2
100
AcDbEntity
  8
1
  6
Continuous
100
AcDbLine
 10
345.0001589999998
 20
187.498502
 30
0.0
 11
344.800159
 21
187.498502
 31
0.0
  0
LINE
  5
1A0F2
330
19FC2
100
AcDbEntity
  8
1
  6
Continuous
100
AcDbLine
 10
345.0001589999998
 20
196.998502
 30
0.0
 11
345.0001589999998
 21
185.998502
 31
0.0
  0
LINE
  5
1A0F4
330
19FC2
100
AcDbEntity
  8
1
  6
Continuous
100
AcDbLine
 10
82.30014999999999
 20
198.9985019999998
 30
0.0
 11
84.30015
 21
198.9985019999998
 31
0.0
  0
LINE
  5
1A0F5
330
19FC2
100
AcDbEntity
  8
1
  6
Continuous
100
AcDbLine
 10
82.30014999999999
 20
183.998502
 30
0.0
 11
84.30015
 21
183.998502
 31
0.0
  0
LINE
  5
1A0F6
330
19FC2
100
AcDbEntity
  8
1
  6
Continuous
100
AcDbLine
 10
89.30015
 20
197.498502
 30
0.0
 11
89.30015
 21
185.4985019999998
 31
0.0
  0
ARC
  5
1A0F7
330
19FC2
100
AcDbEntity
  8
1
  6
Continuous
100
AcDbCircle
 10
77.836048
 20
191.4985019999998
 30
0.0
 40
11.464102
100
AcDbArc
 50
342.4120459999999
 51
17.587954
  0
ARC
  5
1A0F8
330
19FC2
100
AcDbEntity
  8
1
  6
Continuous
100
AcDbCircle
 10
95.764252
 20
191.4985019999998
 30
0.0
 40
11.464102
100
AcDbArc
 50
162.412046
 51
197.5879539999999
  0
LINE
  5
1A0F9
330
19FC2
100
AcDbEntity
  8
1
  6
Continuous
100
AcDbLine
 10
88.76425199999998
 20
184.570298
 30
0.0
 11
89.30015
 21
185.4985019999998
 31
0.0
  0
LINE
  5
1A0FA
330
19FC2
100
AcDbEntity
  8
1
  6
Continuous
100
AcDbLine
 10
84.836048
 20
184.570298
 30
0.0
 11
84.30015
 21
185.4985019999998
 31
0.0
  0
LINE
  5
1A0FB
330
19FC2
100
AcDbEntity
  8
1
  6
Continuous
100
AcDbLine
 10
88.76425199999998
 20
184.570298
 30
0.0
 11
84.836048
 21
184.570298
 31
0.0
  0
LINE
  5
1A0FC
330
19FC2
100
AcDbEntity
  8
1
  6
Continuous
100
AcDbLine
 10
88.76425199999998
 20
188.0344
 30
0.0
 11
84.836048
 21
188.0344
 31
0.0
  0
ARC
  5
1A0FD
330
19FC2
100
AcDbEntity
  8
1
  6
Continuous
100
AcDbCircle
 10
86.233163
 20
186.3023489999999
 30
0.0
 40
3.066986999999998
100
AcDbArc
 50
334.384247
 51
34.38424699999998
  0
ARC
  5
1A0FE
330
19FC2
100
AcDbEntity
  8
1
  6
Continuous
100
AcDbCircle
 10
87.36713700000001
 20
186.3023489999999
 30
0.0
 40
3.066986999999998
100
AcDbArc
 50
145.615753
 51
205.615753
  0
ARC
  5
1A0FF
330
19FC2
100
AcDbEntity
  8
1
  6
Continuous
100
AcDbCircle
 10
86.233163
 20
196.694654
 30
0.0
 40
3.066986999999998
100
AcDbArc
 50
325.6157529999999
 51
25.615753
  0
ARC
  5
1A100
330
19FC2
100
AcDbEntity
  8
1
  6
Continuous
100
AcDbCircle
 10
87.36713700000001
 20
196.694654
 30
0.0
 40
3.066986999999998
100
AcDbArc
 50
154.3842469999999
 51
214.384247
  0
LINE
  5
1A101
330
19FC2
100
AcDbEntity
  8
1
  6
Continuous
100
AcDbLine
 10
88.76425199999998
 20
194.962603
 30
0.0
 11
84.836048
 21
194.962603
 31
0.0
  0
LINE
  5
1A102
330
19FC2
100
AcDbEntity
  8
1
  6
Continuous
100
AcDbLine
 10
88.76425199999998
 20
198.4267049999999
 30
0.0
 11
84.836048
 21
198.4267049999999
 31
0.0
  0
LINE
  5
1A103
330
19FC2
100
AcDbEntity
  8
1
  6
Continuous
100
AcDbLine
 10
88.76425199999998
 20
198.4267049999999
 30
0.0
 11
89.30015
 21
197.498502
 31
0.0
  0
LINE
  5
1A104
330
19FC2
100
AcDbEntity
  8
1
  6
Continuous
100
AcDbLine
 10
84.836048
 20
198.4267049999999
 30
0.0
 11
84.30015
 21
197.498502
 31
0.0
  0
LINE
  5
1A105
330
19FC2
100
AcDbEntity
  8
1
  6
Continuous
100
AcDbLine
 10
84.30015
 20
191.4985019999998
 30
0.0
 11
82.30014999999999
 21
189.498502
 31
0.0
  0
LINE
  5
1A106
330
19FC2
100
AcDbEntity
  8
1
  6
Continuous
100
AcDbLine
 10
84.30015
 20
193.498502
 30
0.0
 11
82.30014999999999
 21
191.4985019999998
 31
0.0
  0
ARC
  5
1A107
330
19FC2
100
AcDbEntity
  8
1
  6
Continuous
100
AcDbCircle
 10
52.20015
 20
191.4985019999998
 30
0.0
 40
11.40175399999999
100
AcDbArc
 50
142.1250159999999
 51
164.744881
  0
LINE
  5
1A108
330
19FC2
100
AcDbEntity
  8
1
  6
Continuous
100
AcDbLine
 10
43.20015
 20
184.498502
 30
0.0
 11
43.20015
 21
198.498502
 31
0.0
  0
LINE
  5
1A109
330
19FC2
100
AcDbEntity
  8
1
  6
Continuous
100
AcDbLine
 10
41.20015
 20
188.498502
 30
0.0
 11
41.20015
 21
194.498502
 31
0.0
  0
ARC
  5
1A10A
330
19FC2
100
AcDbEntity
  8
1
  6
Continuous
100
AcDbCircle
 10
52.20015
 20
191.4985019999998
 30
0.0
 40
11.40175399999999
100
AcDbArc
 50
195.255119
 51
217.874984
  0
LINE
  5
1A10B
330
19FC2
100
AcDbEntity
  8
1
  6
Continuous
100
AcDbLine
 10
43.20015
 20
184.498502
 30
0.0
 11
45.70015
 21
184.498502
 31
0.0
  0
LINE
  5
1A10C
330
19FC2
100
AcDbEntity
  8
1
  6
Continuous
100
AcDbLine
 10
43.20015
 20
198.498502
 30
0.0
 11
45.70015
 21
198.498502
 31
0.0
  0
LINE
  5
1A10D
330
19FC2
100
AcDbEntity
  8
1
  6
Continuous
100
AcDbLine
 10
90.00015000000002
 20
195.498502
 30
0.0
 11
90.00015000000002
 21
187.498502
 31
0.0
  0
LINE
  5
1A10E
330
19FC2
100
AcDbEntity
  8
1
  6
Continuous
100
AcDbLine
 10
91.20015
 20
188.698502
 30
0.0
 11
90.00015000000002
 21
187.498502
 31
0.0
  0
LINE
  5
1A10F
330
19FC2
100
AcDbEntity
  8
1
  6
Continuous
100
AcDbLine
 10
89.30015
 20
187.498502
 30
0.0
 11
90.00015000000002
 21
187.498502
 31
0.0
  0
LINE
  5
1A110
330
19FC2
100
AcDbEntity
  8
1
  6
Continuous
100
AcDbLine
 10
91.20015
 20
194.298502
 30
0.0
 11
91.20015
 21
188.698502
 31
0.0
  0
LINE
  5
1A111
330
19FC2
100
AcDbEntity
  8
1
  6
Continuous
100
AcDbLine
 10
89.30015
 20
195.498502
 30
0.0
 11
90.00015000000002
 21
195.498502
 31
0.0
  0
LINE
  5
1A112
330
19FC2
100
AcDbEntity
  8
2
  6
Continuous
100
AcDbLine
 10
90.67664999999999
 20
194.8220019999999
 30
0.0
 11
89.30015
 21
194.8220019999999
 31
0.0
  0
LINE
  5
1A113
330
19FC2
100
AcDbEntity
  8
2
  6
Continuous
100
AcDbLine
 10
90.67664999999999
 20
188.175002
 30
0.0
 11
89.30015
 21
188.175002
 31
0.0
  0
LINE
  5
1A114
330
19FC2
100
AcDbEntity
  8
1
  6
Continuous
100
AcDbLine
 10
91.20015
 20
194.298502
 30
0.0
 11
90.00015000000002
 21
195.498502
 31
0.0
  0
ARC
  5
1A115
330
19FC2
100
AcDbEntity
  8
1
  6
Continuous
100
AcDbCircle
 10
79.88049499999998
 20
194.456576
 30
0.0
 40
11.63843399999999
100
AcDbArc
 50
295.6173089999999
 51
301.8480129999999
  0
ARC
  5
1A116
330
19FC2
100
AcDbEntity
  8
1
  6
Continuous
100
AcDbCircle
 10
338.2671459999999
 20
186.3023489999999
 30
0.0
 40
3.066986999999998
100
AcDbArc
 50
164.2625289999998
 51
205.615753
  0
LINE
  5
1A117
330
19FC2
100
AcDbEntity
  8
1
  6
Continuous
100
AcDbLine
 10
335.2001589999999
 20
187.2898999999999
 30
0.0
 11
335.2001589999999
 21
185.4985019999998
 31
0.0
  0
LINE
  5
1A118
330
19FC2
100
AcDbEntity
  8
1
  6
Continuous
100
AcDbLine
 10
335.7360569999999
 20
184.570298
 30
0.0
 11
337.9749429999999
 21
184.570298
 31
0.0
  0
LINE
  5
1A119
330
19FC2
100
AcDbEntity
  8
1
  6
Continuous
100
AcDbLine
 10
335.7360569999999
 20
184.570298
 30
0.0
 11
335.2001589999999
 21
185.4985019999998
 31
0.0
  0
LINE
  5
1A11A
330
19FC2
100
AcDbEntity
  8
1
  6
Continuous
100
AcDbLine
 10
335.0522569999998
 20
187.498502
 30
0.0
 11
334.5001589999998
 21
187.498502
 31
0.0
  0
LINE
  5
1A11B
330
19FC2
100
AcDbEntity
  8
1
  6
Continuous
100
AcDbLine
 10
333.300159
 20
188.698502
 30
0.0
 11
334.5001589999998
 21
187.498502
 31
0.0
  0
LINE
  5
1A11C
330
19FC2
100
AcDbEntity
  8
2
  6
Continuous
100
AcDbLine
 10
333.8236589999999
 20
188.175002
 30
0.0
 11
334.6174839999998
 21
188.175002
 31
0.0
  0
LINE
  5
1A11D
330
19FC2
100
AcDbEntity
  8
1
  6
Continuous
100
AcDbLine
 10
333.300159
 20
191.420058
 30
0.0
 11
333.300159
 21
188.698502
 31
0.0
  0
LINE
  5
1A11E
330
19FC2
100
AcDbEntity
  8
1
  6
Continuous
100
AcDbLine
 10
334.5001589999998
 20
188.376799
 30
0.0
 11
334.5001589999998
 21
187.498502
 31
0.0
  0
CIRCLE
  5
1A11F
330
19FC2
100
AcDbEntity
  8
1
  6
Continuous
100
AcDbCircle
 10
195.500153
 20
191.4985019999998
 30
0.0
 40
2.799999999999998
  0
CIRCLE
  5
1A120
330
19FC2
100
AcDbEntity
  8
1
  6
Continuous
100
AcDbCircle
 10
195.500153
 20
191.4985019999998
 30
0.0
 40
4.0
  0
CIRCLE
  5
1A121
330
19FC2
100
AcDbEntity
  8
2
  6
Continuous
100
AcDbCircle
 10
195.500153
 20
191.4985019999998
 30
0.0
 40
3.3235
  0
CIRCLE
  5
1A122
330
19FC2
100
AcDbEntity
  8
1
  6
Continuous
100
AcDbCircle
 10
195.500153
 20
191.4985019999998
 30
0.0
 40
7.5
  0
ARC
  5
1A123
330
19FC2
100
AcDbEntity
  8
1
  6
Continuous
100
AcDbCircle
 10
-1410.016305
 20
79.998502
 30
0.0
 40
1593.816667
100
AcDbArc
 50
358.891084
 51
359.342123
  0
ARC
  5
1A124
330
19FC2
100
AcDbEntity
  8
1
  6
Continuous
100
AcDbCircle
 10
362.999779
 20
79.99839899999997
 30
0.0
 40
200.0
100
AcDbArc
 50
176.944716
 51
183.055284
  0
ARC
  5
1A125
330
19FC2
100
AcDbEntity
  8
1
  6
Continuous
100
AcDbCircle
 10
1855.017028
 20
79.998502
 30
0.0
 40
1593.816667
100
AcDbArc
 50
178.8910839999998
 51
181.1089159999999
  0
LINE
  5
1A126
330
19FC2
100
AcDbEntity
  8
4
  6
CENTER
100
AcDbLine
 10
222.5003609999999
 20
123.698502
 30
0.0
 11
222.5003609999999
 21
36.29850199999999
 31
0.0
  0
LINE
  5
1A127
330
19FC2
100
AcDbEntity
  8
1
  6
Continuous
100
AcDbLine
 10
224.7205049999998
 20
93.49839899999999
 30
0.0
 11
166.2798009999999
 21
93.49839899999999
 31
0.0
  0
LINE
  5
1A128
330
19FC2
100
AcDbEntity
  8
4
  6
CENTER
100
AcDbLine
 10
266.2003609999998
 20
79.998502
 30
0.0
 11
157.449779
 21
79.998502
 31
0.0
  0
ARC
  5
1A129
330
19FC2
100
AcDbEntity
  8
1
  6
Continuous
100
AcDbCircle
 10
166.2798009999999
 20
90.498399
 30
0.0
 40
3.0
100
AcDbArc
 50
90.0
 51
176.944716
  0
CIRCLE
  5
1A12A
330
19FC2
100
AcDbEntity
  8
1
  6
Continuous
100
AcDbCircle
 10
253.5003609999999
 20
110.998502
 30
0.0
 40
4.25
  0
LINE
  5
1A12B
330
19FC2
100
AcDbEntity
  8
4
  6
CENTER
100
AcDbLine
 10
262.0003609999999
 20
110.998502
 30
0.0
 11
245.0003609999999
 21
110.998502
 31
0.0
  0
ARC
  5
1A12C
330
19FC2
100
AcDbEntity
  8
1
  6
Continuous
100
AcDbCircle
 10
222.5003609999999
 20
1712.515169
 30
0.0
 40
1593.816667
100
AcDbArc
 50
268.8910839999999
 51
271.108916
  0
ARC
  5
1A12D
330
19FC2
100
AcDbEntity
  8
1
  6
Continuous
100
AcDbCircle
 10
191.500361
 20
110.998502
 30
0.0
 40
8.0
100
AcDbArc
 50
88.89108399999996
 51
181.1089159999999
  0
ARC
  5
1A12E
330
19FC2
100
AcDbEntity
  8
1
  6
Continuous
100
AcDbCircle
 10
191.500361
 20
110.998502
 30
0.0
 40
4.25
100
AcDbArc
 50
298.0795909999999
 51
280.436259
  0
LINE
  5
1A12F
330
19FC2
100
AcDbEntity
  8
4
  6
CENTER
100
AcDbLine
 10
200.0003609999999
 20
110.998502
 30
0.0
 11
183.000361
 21
110.998502
 31
0.0
  0
LINE
  5
1A130
330
19FC2
100
AcDbEntity
  8
4
  6
CENTER
100
AcDbLine
 10
191.500361
 20
119.498502
 30
0.0
 11
191.500361
 21
102.498502
 31
0.0
  0
ARC
  5
1A131
330
19FC2
100
AcDbEntity
  8
1
  6
Continuous
100
AcDbCircle
 10
253.5003609999999
 20
110.998502
 30
0.0
 40
8.0
100
AcDbArc
 50
358.891084
 51
91.10891600000002
  0
LINE
  5
1A132
330
19FC2
100
AcDbEntity
  8
4
  6
CENTER
100
AcDbLine
 10
253.5003609999999
 20
119.498502
 30
0.0
 11
253.5003609999999
 21
102.498502
 31
0.0
  0
LINE
  5
1A133
330
19FC2
100
AcDbEntity
  8
1
  6
Continuous
100
AcDbLine
 10
224.7205049999998
 20
66.49839899999999
 30
0.0
 11
166.2798009999999
 21
66.49839899999999
 31
0.0
  0
ARC
  5
1A134
330
19FC2
100
AcDbEntity
  8
1
  6
Continuous
100
AcDbCircle
 10
166.2798009999999
 20
69.49839899999999
 30
0.0
 40
3.0
100
AcDbArc
 50
183.055284
 51
270.0
  0
CIRCLE
  5
1A135
330
19FC2
100
AcDbEntity
  8
1
  6
Continuous
100
AcDbCircle
 10
253.5003609999999
 20
48.998502
 30
0.0
 40
4.25
  0
LINE
  5
1A136
330
19FC2
100
AcDbEntity
  8
4
  6
CENTER
100
AcDbLine
 10
262.0003609999999
 20
48.998502
 30
0.0
 11
245.0003609999999
 21
48.998502
 31
0.0
  0
ARC
  5
1A137
330
19FC2
100
AcDbEntity
  8
1
  6
Continuous
100
AcDbCircle
 10
222.5003609999999
 20
-1552.518165
 30
0.0
 40
1593.816667
100
AcDbArc
 50
88.89108399999996
 51
91.10891600000002
  0
LINE
  5
1A138
330
19FC2
100
AcDbEntity
  8
4
  6
CENTER
100
AcDbLine
 10
191.500361
 20
57.498502
 30
0.0
 11
191.500361
 21
40.498502
 31
0.0
  0
ARC
  5
1A139
330
19FC2
100
AcDbEntity
  8
1
  6
Continuous
100
AcDbCircle
 10
191.500361
 20
48.998502
 30
0.0
 40
8.0
100
AcDbArc
 50
178.8910839999998
 51
271.108916
  0
CIRCLE
  5
1A13A
330
19FC2
100
AcDbEntity
  8
1
  6
Continuous
100
AcDbCircle
 10
191.500361
 20
48.998502
 30
0.0
 40
4.25
  0
LINE
  5
1A13B
330
19FC2
100
AcDbEntity
  8
4
  6
CENTER
100
AcDbLine
 10
200.0003609999999
 20
48.998502
 30
0.0
 11
183.000361
 21
48.998502
 31
0.0
  0
LINE
  5
1A13C
330
19FC2
100
AcDbEntity
  8
4
  6
CENTER
100
AcDbLine
 10
253.5003609999999
 20
57.498502
 30
0.0
 11
253.5003609999999
 21
40.498502
 31
0.0
  0
ARC
  5
1A13D
330
19FC2
100
AcDbEntity
  8
1
  6
Continuous
100
AcDbCircle
 10
253.5003609999999
 20
48.998502
 30
0.0
 40
8.0
100
AcDbArc
 50
268.8910839999999
 51
1.108916
  0
LINE
  5
1A13E
330
19FC2
100
AcDbEntity
  8
4
  6
CENTER
100
AcDbLine
 10
195.500153
 20
52.24875
 30
0.0
 11
195.500153
 21
112.24875
 31
0.0
  0
ARC
  5
1A13F
330
19FC2
100
AcDbEntity
  8
1
  6
Continuous
100
AcDbCircle
 10
28.000527
 20
79.99839899999997
 30
0.0
 40
200.0
100
AcDbArc
 50
356.9447160000001
 51
3.055283999999999
  0
ARC
  5
1A140
330
19FC2
100
AcDbEntity
  8
1
  6
Continuous
100
AcDbCircle
 10
224.7205049999998
 20
90.498399
 30
0.0
 40
3.0
100
AcDbArc
 50
3.055283999999999
 51
90.0
  0
ARC
  5
1A141
330
19FC2
100
AcDbEntity
  8
1
  6
Continuous
100
AcDbCircle
 10
224.7205049999998
 20
69.49839899999999
 30
0.0
 40
3.0
100
AcDbArc
 50
270.0
 51
356.9447160000001
  0
ARC
  5
1A142
330
19FC2
100
AcDbEntity
  8
1
  6
Continuous
100
AcDbCircle
 10
-1410.016305
 20
79.998502
 30
0.0
 40
1593.816667
100
AcDbArc
 50
0.485311
 51
0.564405
  0
ARC
  5
1A143
330
19FC2
100
AcDbEntity
  8
1
  6
Continuous
100
AcDbCircle
 10
222.5003609999999
 20
79.998502
 30
0.0
 40
34.618797
100
AcDbArc
 50
221.193321
 51
131.6351589999999
  0
ARC
  5
1A144
330
19FC2
100
AcDbEntity
  8
1
  6
Continuous
100
AcDbCircle
 10
222.478875
 20
80.02576500000001
 30
0.0
 40
24.92145999999999
100
AcDbArc
 50
256.5446
 51
103.362734
  0
LINE
  5
1A145
330
19FC2
100
AcDbEntity
  8
1
  6
Continuous
100
AcDbLine
 10
183.21777
 20
61.69850199999999
 30
0.0
 11
183.21777
 21
64.298502
 31
0.0
  0
LINE
  5
1A146
330
19FC2
100
AcDbEntity
  8
1
  6
Continuous
100
AcDbLine
 10
183.21777
 20
95.69850200000001
 30
0.0
 11
183.21777
 21
98.29850200000002
 31
0.0
  0
LINE
  5
1A147
330
19FC2
100
AcDbEntity
  8
1
  6
Continuous
100
AcDbLine
 10
201.8856979999999
 20
98.29850200000002
 30
0.0
 11
183.21777
 21
98.29850200000002
 31
0.0
  0
LINE
  5
1A148
330
19FC2
100
AcDbEntity
  8
1
  6
Continuous
100
AcDbLine
 10
201.8856979999999
 20
95.69850200000001
 30
0.0
 11
183.21777
 21
95.69850200000001
 31
0.0
  0
LINE
  5
1A149
330
19FC2
100
AcDbEntity
  8
1
  6
Continuous
100
AcDbLine
 10
201.8856979999999
 20
64.298502
 30
0.0
 11
183.21777
 21
64.298502
 31
0.0
  0
LINE
  5
1A14A
330
19FC2
100
AcDbEntity
  8
1
  6
Continuous
100
AcDbLine
 10
201.8856979999999
 20
61.69850199999999
 30
0.0
 11
183.21777
 21
61.69850199999999
 31
0.0
  0
LINE
  5
1A14B
330
19FC2
100
AcDbEntity
  8
1
  6
Continuous
100
AcDbLine
 10
202.5001529999999
 20
59.19850199999999
 30
0.0
 11
188.500153
 21
59.19850199999999
 31
0.0
  0
ARC
  5
1A14C
330
19FC2
100
AcDbEntity
  8
1
  6
Continuous
100
AcDbCircle
 10
195.500153
 20
68.19850200000001
 30
0.0
 40
11.40175399999999
100
AcDbArc
 50
285.2551189999999
 51
307.8749839999999
  0
LINE
  5
1A14D
330
19FC2
100
AcDbEntity
  8
1
  6
Continuous
100
AcDbLine
 10
187.000153
 20
64.74839899999999
 30
0.0
 11
204.000153
 21
64.74839899999999
 31
0.0
  0
LINE
  5
1A14E
330
19FC2
100
AcDbEntity
  8
1
  6
Continuous
100
AcDbLine
 10
202.5001529999999
 20
59.19850199999999
 30
0.0
 11
202.5001529999999
 21
61.610355
 31
0.0
  0
ARC
  5
1A14F
330
19FC2
100
AcDbEntity
  8
1
  6
Continuous
100
AcDbCircle
 10
195.500153
 20
68.19850200000001
 30
0.0
 40
11.40175399999999
100
AcDbArc
 50
232.1250159999999
 51
254.744881
  0
LINE
  5
1A150
330
19FC2
100
AcDbEntity
  8
1
  6
Continuous
100
AcDbLine
 10
198.500153
 20
57.19850199999999
 30
0.0
 11
192.500153
 21
57.19850199999999
 31
0.0
  0
LINE
  5
1A151
330
19FC2
100
AcDbEntity
  8
1
  6
Continuous
100
AcDbLine
 10
188.500153
 20
59.19850199999999
 30
0.0
 11
188.500153
 21
61.69850199999999
 31
0.0
  0
LINE
  5
1A152
330
19FC2
100
AcDbEntity
  8
1
  6
Continuous
100
AcDbLine
 10
190.000153
 20
64.74839899999999
 30
0.0
 11
190.000153
 21
64.49839899999999
 31
0.0
  0
ARC
  5
1A153
330
19FC2
100
AcDbEntity
  8
1
  6
Continuous
100
AcDbCircle
 10
187.0124709999998
 20
67.286006
 30
0.0
 40
2.537636999999997
100
AcDbArc
 50
198.08155
 51
269.7218819999998
  0
LINE
  5
1A154
330
19FC2
100
AcDbEntity
  8
1
  6
Continuous
100
AcDbLine
 10
191.5001529999999
 20
64.49839899999999
 30
0.0
 11
191.5001529999999
 21
64.29839900000001
 31
0.0
  0
LINE
  5
1A155
330
19FC2
100
AcDbEntity
  8
1
  6
Continuous
100
AcDbLine
 10
201.000153
 20
64.74839899999999
 30
0.0
 11
201.000153
 21
64.49839899999999
 31
0.0
  0
LINE
  5
1A156
330
19FC2
100
AcDbEntity
  8
1
  6
Continuous
100
AcDbLine
 10
199.500153
 20
64.49839899999999
 30
0.0
 11
199.500153
 21
64.29839900000001
 31
0.0
  0
LINE
  5
1A157
330
19FC2
100
AcDbEntity
  8
1
  6
Continuous
100
AcDbLine
 10
190.000153
 20
64.49839899999999
 30
0.0
 11
201.000153
 21
64.49839899999999
 31
0.0
  0
ARC
  5
1A158
330
19FC2
100
AcDbEntity
  8
1
  6
Continuous
100
AcDbCircle
 10
203.9878349999999
 20
67.286006
 30
0.0
 40
2.537636999999997
100
AcDbArc
 50
270.278118
 51
341.91845
  0
LINE
  5
1A159
330
19FC2
100
AcDbEntity
  8
1
  6
Continuous
100
AcDbLine
 10
188.000153
 20
100.2987499999999
 30
0.0
 11
203.000153
 21
100.2987499999999
 31
0.0
  0
LINE
  5
1A15A
330
19FC2
100
AcDbEntity
  8
1
  6
Continuous
100
AcDbLine
 10
187.000153
 20
95.24839900000001
 30
0.0
 11
204.000153
 21
95.24839900000001
 31
0.0
  0
ARC
  5
1A15B
330
19FC2
100
AcDbEntity
  8
1
  6
Continuous
100
AcDbCircle
 10
203.9878349999999
 20
92.71079099999999
 30
0.0
 40
2.537636999999997
100
AcDbArc
 50
18.08155
 51
89.72188199999996
  0
LINE
  5
1A15C
330
19FC2
100
AcDbEntity
  8
1
  6
Continuous
100
AcDbLine
 10
203.000153
 20
98.424285
 30
0.0
 11
203.000153
 21
100.2987499999999
 31
0.0
  0
LINE
  5
1A15D
330
19FC2
100
AcDbEntity
  8
1
  6
Continuous
100
AcDbLine
 10
190.000153
 20
95.498399
 30
0.0
 11
190.000153
 21
95.24839900000001
 31
0.0
  0
ARC
  5
1A15E
330
19FC2
100
AcDbEntity
  8
1
  6
Continuous
100
AcDbCircle
 10
187.0124709999998
 20
92.71079099999999
 30
0.0
 40
2.537636999999997
100
AcDbArc
 50
90.278118
 51
161.91845
  0
LINE
  5
1A15F
330
19FC2
100
AcDbEntity
  8
1
  6
Continuous
100
AcDbLine
 10
191.5001529999999
 20
95.69839899999999
 30
0.0
 11
191.5001529999999
 21
95.498399
 31
0.0
  0
LINE
  5
1A160
330
19FC2
100
AcDbEntity
  8
1
  6
Continuous
100
AcDbLine
 10
201.000153
 20
95.498399
 30
0.0
 11
201.000153
 21
95.24839900000001
 31
0.0
  0
LINE
  5
1A161
330
19FC2
100
AcDbEntity
  8
1
  6
Continuous
100
AcDbLine
 10
199.500153
 20
95.69839899999999
 30
0.0
 11
199.500153
 21
95.498399
 31
0.0
  0
LINE
  5
1A162
330
19FC2
100
AcDbEntity
  8
1
  6
Continuous
100
AcDbLine
 10
190.000153
 20
95.498399
 30
0.0
 11
201.000153
 21
95.498399
 31
0.0
  0
LINE
  5
1A163
330
19FC2
100
AcDbEntity
  8
1
  6
Continuous
100
AcDbLine
 10
195.500153
 20
100.2987499999999
 30
0.0
 11
197.500153
 21
98.29875000000001
 31
0.0
  0
LINE
  5
1A164
330
19FC2
100
AcDbEntity
  8
1
  6
Continuous
100
AcDbLine
 10
193.500153
 20
100.2987499999999
 30
0.0
 11
195.500153
 21
98.29875000000001
 31
0.0
  0
LINE
  5
1A165
330
19FC2
100
AcDbEntity
  8
1
  6
Continuous
100
AcDbLine
 10
199.500153
 20
105.2987499999999
 30
0.0
 11
199.500153
 21
105.99875
 31
0.0
  0
LINE
  5
1A166
330
19FC2
100
AcDbEntity
  8
1
  6
Continuous
100
AcDbLine
 10
198.3001529999999
 20
107.19875
 30
0.0
 11
199.500153
 21
105.99875
 31
0.0
  0
LINE
  5
1A167
330
19FC2
100
AcDbEntity
  8
2
  6
Continuous
100
AcDbLine
 10
198.823653
 20
106.6752499999999
 30
0.0
 11
198.823653
 21
105.2987499999999
 31
0.0
  0
LINE
  5
1A168
330
19FC2
100
AcDbEntity
  8
1
  6
Continuous
100
AcDbLine
 10
192.700153
 20
107.19875
 30
0.0
 11
198.3001529999999
 21
107.19875
 31
0.0
  0
LINE
  5
1A169
330
19FC2
100
AcDbEntity
  8
1
  6
Continuous
100
AcDbLine
 10
192.700153
 20
107.19875
 30
0.0
 11
191.5001529999999
 21
105.99875
 31
0.0
  0
LINE
  5
1A16A
330
19FC2
100
AcDbEntity
  8
1
  6
Continuous
100
AcDbLine
 10
191.5001529999999
 20
105.99875
 30
0.0
 11
199.500153
 21
105.99875
 31
0.0
  0
LINE
  5
1A16B
330
19FC2
100
AcDbEntity
  8
2
  6
Continuous
100
AcDbLine
 10
192.176653
 20
106.6752499999999
 30
0.0
 11
192.176653
 21
105.2987499999999
 31
0.0
  0
LINE
  5
1A16C
330
19FC2
100
AcDbEntity
  8
1
  6
Continuous
100
AcDbLine
 10
191.5001529999999
 20
105.2987499999999
 30
0.0
 11
191.5001529999999
 21
105.99875
 31
0.0
  0
LINE
  5
1A16D
330
19FC2
100
AcDbEntity
  8
1
  6
Continuous
100
AcDbLine
 10
188.000153
 20
98.29875000000001
 30
0.0
 11
188.000153
 21
100.2987499999999
 31
0.0
  0
LINE
  5
1A16E
330
19FC2
100
AcDbEntity
  8
1
  6
Continuous
100
AcDbLine
 10
189.500153
 20
105.3487499999999
 30
0.0
 11
201.500153
 21
105.3487499999999
 31
0.0
  0
ARC
  5
1A16F
330
19FC2
100
AcDbEntity
  8
1
  6
Continuous
100
AcDbCircle
 10
198.500153
 20
96.683686
 30
0.0
 40
8.665063999999999
100
AcDbArc
 50
69.743842
 51
110.256158
  0
ARC
  5
1A170
330
19FC2
100
AcDbEntity
  8
1
  6
Continuous
100
AcDbCircle
 10
198.500153
 20
109.0138129999999
 30
0.0
 40
8.665063999999999
100
AcDbArc
 50
249.7438419999999
 51
290.256158
  0
LINE
  5
1A171
330
19FC2
100
AcDbEntity
  8
1
  6
Continuous
100
AcDbLine
 10
201.500153
 20
105.3487499999999
 30
0.0
 11
201.500153
 21
100.2987499999999
 31
0.0
  0
ARC
  5
1A172
330
19FC2
100
AcDbEntity
  8
1
  6
Continuous
100
AcDbCircle
 10
192.500153
 20
96.633686
 30
0.0
 40
8.665063999999999
100
AcDbArc
 50
69.743842
 51
110.256158
  0
ARC
  5
1A173
330
19FC2
100
AcDbEntity
  8
1
  6
Continuous
100
AcDbCircle
 10
192.500153
 20
108.9638129999999
 30
0.0
 40
8.665063999999999
100
AcDbArc
 50
249.7438419999999
 51
290.256158
  0
LINE
  5
1A174
330
19FC2
100
AcDbEntity
  8
1
  6
Continuous
100
AcDbLine
 10
195.500153
 20
100.8346479999999
 30
0.0
 11
195.500153
 21
104.762851
 31
0.0
  0
LINE
  5
1A175
330
19FC2
100
AcDbEntity
  8
1
  6
Continuous
100
AcDbLine
 10
189.500153
 20
105.2987499999999
 30
0.0
 11
189.500153
 21
100.2987499999999
 31
0.0
  0
LINE
  5
1A176
330
19FC2
100
AcDbEntity
  8
1
  6
Continuous
100
AcDbLine
 10
198.292105
 20
230.7739579999999
 30
0.0
 11
203.981886
 21
183.708994
 31
0.0
  0
ARC
  5
1A177
330
19FC2
100
AcDbEntity
  8
1
  6
Continuous
100
AcDbCircle
 10
222.5003609999999
 20
79.998502
 30
0.0
 40
27.49995999999999
100
AcDbArc
 50
223.3410389999999
 51
135.161696
  0
ARC
  5
1A178
330
19FC2
100
AcDbEntity
  8
1
  6
Continuous
100
AcDbCircle
 10
201.8856979999999
 20
103.2985019999999
 30
0.0
 40
5.0
100
AcDbArc
 50
270.0
 51
304.367158
  0
ARC
  5
1A179
330
19FC2
100
AcDbEntity
  8
1
  6
Continuous
100
AcDbCircle
 10
201.8856979999999
 20
103.2985019999999
 30
0.0
 40
7.599999999999998
100
AcDbArc
 50
270.0
 51
304.367158
  0
ARC
  5
1A17A
330
19FC2
100
AcDbEntity
  8
1
  6
Continuous
100
AcDbCircle
 10
201.8856979999999
 20
56.69850199999999
 30
0.0
 40
7.599999999999998
100
AcDbArc
 50
55.632842
 51
90.0
  0
ARC
  5
1A17B
330
19FC2
100
AcDbEntity
  8
1
  6
Continuous
100
AcDbCircle
 10
201.8856979999999
 20
56.69850199999999
 30
0.0
 40
5.0
100
AcDbArc
 50
55.632842
 51
90.0
  0
ARC
  5
1A17C
330
19FC2
100
AcDbEntity
  8
1
  6
Continuous
100
AcDbCircle
 10
-1410.016305
 20
79.998502
 30
0.0
 40
1593.816667
100
AcDbArc
 50
359.4355949999999
 51
359.514682
  0
ARC
  5
1A17D
330
19FC2
100
AcDbEntity
  8
1
  6
Continuous
100
AcDbCircle
 10
-1410.016305
 20
79.998502
 30
0.0
 40
1593.816667
100
AcDbArc
 50
0.6578770000000001
 51
1.108916
  0
LINE
  5
1A17E
330
19FC2
100
AcDbEntity
  8
1
  6
Continuous
100
AcDbLine
 10
183.21777
 20
340.697003
 30
0.0
 11
183.21777
 21
343.2970029999999
 31
0.0
  0
LINE
  5
1A17F
330
19FC2
100
AcDbEntity
  8
1
  6
Continuous
100
AcDbLine
 10
183.695299
 20
343.2970029999999
 30
0.0
 11
183.21777
 21
343.2970029999999
 31
0.0
  0
LINE
  5
1A180
330
19FC2
100
AcDbEntity
  8
1
  6
Continuous
100
AcDbLine
 10
183.7230329999999
 20
340.697003
 30
0.0
 11
183.21777
 21
340.697003
 31
0.0
  0
LINE
  5
1A181
330
19FC2
100
AcDbEntity
  8
1
  6
Continuous
100
AcDbLine
 10
183.21777
 20
306.697003
 30
0.0
 11
183.21777
 21
309.2970029999999
 31
0.0
  0
LINE
  5
1A182
330
19FC2
100
AcDbEntity
  8
1
  6
Continuous
100
AcDbLine
 10
183.695299
 20
306.697003
 30
0.0
 11
183.21777
 21
306.697003
 31
0.0
  0
LINE
  5
1A183
330
19FC2
100
AcDbEntity
  8
1
  6
Continuous
100
AcDbLine
 10
183.7230329999999
 20
309.2970029999999
 30
0.0
 11
183.21777
 21
309.2970029999999
 31
0.0
  0
LINE
  5
1A184
330
19FC2
100
AcDbEntity
  8
1
  6
Continuous
100
AcDbLine
 10
387.3881589999998
 20
235.3992199999999
 30
0.0
 11
333.6121589999998
 21
235.3992199999999
 31
0.0
  0
LINE
  5
1A185
330
19FC2
100
AcDbEntity
  8
1
  6
Continuous
100
AcDbLine
 10
349.3970679999998
 20
235.3992199999999
 30
0.0
 11
347.0561589999999
 21
237.7401279999999
 31
0.0
  0
LINE
  5
1A186
330
19FC2
100
AcDbEntity
  8
1
  6
Continuous
100
AcDbLine
 10
346.836571
 20
235.3992199999999
 30
0.0
 11
349.177479
 21
237.7401279999999
 31
0.0
  0
LINE
  5
1A187
330
19FC2
100
AcDbEntity
  8
1
  6
Continuous
100
AcDbLine
 10
387.3881589999998
 20
237.7401279999999
 30
0.0
 11
333.6121589999998
 21
237.7401279999999
 31
0.0
  0
LINE
  5
1A188
330
19FC2
100
AcDbEntity
  8
1
  6
Continuous
100
AcDbLine
 10
347.275747
 20
235.3992199999999
 30
0.0
 11
344.934839
 21
237.7401279999999
 31
0.0
  0
LINE
  5
1A189
330
19FC2
100
AcDbEntity
  8
1
  6
Continuous
100
AcDbLine
 10
344.71525
 20
235.3992199999999
 30
0.0
 11
347.0561589999999
 21
237.7401279999999
 31
0.0
  0
LINE
  5
1A18A
330
19FC2
100
AcDbEntity
  8
1
  6
Continuous
100
AcDbLine
 10
345.1544269999998
 20
235.3992199999999
 30
0.0
 11
342.8135179999999
 21
237.7401279999999
 31
0.0
  0
LINE
  5
1A18B
330
19FC2
100
AcDbEntity
  8
1
  6
Continuous
100
AcDbLine
 10
342.59393
 20
235.3992199999999
 30
0.0
 11
344.934839
 21
237.7401279999999
 31
0.0
  0
LINE
  5
1A18C
330
19FC2
100
AcDbEntity
  8
1
  6
Continuous
100
AcDbLine
 10
343.0331069999998
 20
235.3992199999999
 30
0.0
 11
340.692198
 21
237.7401279999999
 31
0.0
  0
LINE
  5
1A18D
330
19FC2
100
AcDbEntity
  8
1
  6
Continuous
100
AcDbLine
 10
340.4726099999999
 20
235.3992199999999
 30
0.0
 11
342.8135179999999
 21
237.7401279999999
 31
0.0
  0
LINE
  5
1A18E
330
19FC2
100
AcDbEntity
  8
1
  6
Continuous
100
AcDbLine
 10
340.911786
 20
235.3992199999999
 30
0.0
 11
338.5708779999998
 21
237.7401279999999
 31
0.0
  0
LINE
  5
1A18F
330
19FC2
100
AcDbEntity
  8
1
  6
Continuous
100
AcDbLine
 10
338.3512889999999
 20
235.3992199999999
 30
0.0
 11
340.692198
 21
237.7401279999999
 31
0.0
  0
LINE
  5
1A190
330
19FC2
100
AcDbEntity
  8
1
  6
Continuous
100
AcDbLine
 10
338.7904659999999
 20
235.3992199999999
 30
0.0
 11
336.4495569999998
 21
237.7401279999999
 31
0.0
  0
LINE
  5
1A191
330
19FC2
100
AcDbEntity
  8
1
  6
Continuous
100
AcDbLine
 10
336.2299689999999
 20
235.3992199999999
 30
0.0
 11
338.5708779999998
 21
237.7401279999999
 31
0.0
  0
LINE
  5
1A192
330
19FC2
100
AcDbEntity
  8
1
  6
Continuous
100
AcDbLine
 10
336.669146
 20
235.3992199999999
 30
0.0
 11
334.328237
 21
237.7401279999999
 31
0.0
  0
LINE
  5
1A193
330
19FC2
100
AcDbEntity
  8
1
  6
Continuous
100
AcDbLine
 10
334.108649
 20
235.3992199999999
 30
0.0
 11
336.4495569999998
 21
237.7401279999999
 31
0.0
  0
LINE
  5
1A194
330
19FC2
100
AcDbEntity
  8
1
  6
Continuous
100
AcDbLine
 10
333.6121589999998
 20
237.7401279999999
 30
0.0
 11
333.6121589999998
 21
235.3992199999999
 31
0.0
  0
LINE
  5
1A195
330
19FC2
100
AcDbEntity
  8
1
  6
Continuous
100
AcDbLine
 10
333.6121589999998
 20
237.0240509999999
 30
0.0
 11
334.328237
 21
237.7401279999999
 31
0.0
  0
LINE
  5
1A196
330
19FC2
100
AcDbEntity
  8
1
  6
Continuous
100
AcDbLine
 10
368.488951
 20
235.3992199999999
 30
0.0
 11
366.1480419999999
 21
237.7401279999999
 31
0.0
  0
LINE
  5
1A197
330
19FC2
100
AcDbEntity
  8
1
  6
Continuous
100
AcDbLine
 10
365.9284539999999
 20
235.3992199999999
 30
0.0
 11
368.269362
 21
237.7401279999999
 31
0.0
  0
LINE
  5
1A198
330
19FC2
100
AcDbEntity
  8
1
  6
Continuous
100
AcDbLine
 10
366.3676299999999
 20
235.3992199999999
 30
0.0
 11
364.026722
 21
237.7401279999999
 31
0.0
  0
LINE
  5
1A199
330
19FC2
100
AcDbEntity
  8
1
  6
Continuous
100
AcDbLine
 10
363.807133
 20
235.3992199999999
 30
0.0
 11
366.1480419999999
 21
237.7401279999999
 31
0.0
  0
LINE
  5
1A19A
330
19FC2
100
AcDbEntity
  8
1
  6
Continuous
100
AcDbLine
 10
364.24631
 20
235.3992199999999
 30
0.0
 11
361.9054009999999
 21
237.7401279999999
 31
0.0
  0
LINE
  5
1A19B
330
19FC2
100
AcDbEntity
  8
1
  6
Continuous
100
AcDbLine
 10
361.685813
 20
235.3992199999999
 30
0.0
 11
364.026722
 21
237.7401279999999
 31
0.0
  0
LINE
  5
1A19C
330
19FC2
100
AcDbEntity
  8
1
  6
Continuous
100
AcDbLine
 10
362.1249899999999
 20
235.3992199999999
 30
0.0
 11
359.784081
 21
237.7401279999999
 31
0.0
  0
LINE
  5
1A19D
330
19FC2
100
AcDbEntity
  8
1
  6
Continuous
100
AcDbLine
 10
359.5644930000001
 20
235.3992199999999
 30
0.0
 11
361.9054009999999
 21
237.7401279999999
 31
0.0
  0
LINE
  5
1A19E
330
19FC2
100
AcDbEntity
  8
1
  6
Continuous
100
AcDbLine
 10
360.003669
 20
235.3992199999999
 30
0.0
 11
357.662761
 21
237.7401279999999
 31
0.0
  0
LINE
  5
1A19F
330
19FC2
100
AcDbEntity
  8
1
  6
Continuous
100
AcDbLine
 10
357.443172
 20
235.3992199999999
 30
0.0
 11
359.784081
 21
237.7401279999999
 31
0.0
  0
LINE
  5
1A1A0
330
19FC2
100
AcDbEntity
  8
1
  6
Continuous
100
AcDbLine
 10
357.8823489999999
 20
235.3992199999999
 30
0.0
 11
355.5414399999999
 21
237.7401279999999
 31
0.0
  0
LINE
  5
1A1A1
330
19FC2
100
AcDbEntity
  8
1
  6
Continuous
100
AcDbLine
 10
355.3218519999999
 20
235.3992199999999
 30
0.0
 11
357.662761
 21
237.7401279999999
 31
0.0
  0
LINE
  5
1A1A2
330
19FC2
100
AcDbEntity
  8
1
  6
Continuous
100
AcDbLine
 10
355.7610289999999
 20
235.3992199999999
 30
0.0
 11
353.42012
 21
237.7401279999999
 31
0.0
  0
LINE
  5
1A1A3
330
19FC2
100
AcDbEntity
  8
1
  6
Continuous
100
AcDbLine
 10
353.200532
 20
235.3992199999999
 30
0.0
 11
355.5414399999999
 21
237.7401279999999
 31
0.0
  0
LINE
  5
1A1A4
330
19FC2
100
AcDbEntity
  8
1
  6
Continuous
100
AcDbLine
 10
353.6397079999999
 20
235.3992199999999
 30
0.0
 11
351.2988
 21
237.7401279999999
 31
0.0
  0
LINE
  5
1A1A5
330
19FC2
100
AcDbEntity
  8
1
  6
Continuous
100
AcDbLine
 10
351.079211
 20
235.3992199999999
 30
0.0
 11
353.42012
 21
237.7401279999999
 31
0.0
  0
LINE
  5
1A1A6
330
19FC2
100
AcDbEntity
  8
1
  6
Continuous
100
AcDbLine
 10
351.518388
 20
235.3992199999999
 30
0.0
 11
349.177479
 21
237.7401279999999
 31
0.0
  0
LINE
  5
1A1A7
330
19FC2
100
AcDbEntity
  8
1
  6
Continuous
100
AcDbLine
 10
348.957891
 20
235.3992199999999
 30
0.0
 11
351.2988
 21
237.7401279999999
 31
0.0
  0
LINE
  5
1A1A8
330
19FC2
100
AcDbEntity
  8
1
  6
Continuous
100
AcDbLine
 10
387.3881589999998
 20
235.5918949999999
 30
0.0
 11
385.239925
 21
237.7401279999999
 31
0.0
  0
LINE
  5
1A1A9
330
19FC2
100
AcDbEntity
  8
1
  6
Continuous
100
AcDbLine
 10
385.020337
 20
235.3992199999999
 30
0.0
 11
387.3612449999998
 21
237.7401279999999
 31
0.0
  0
LINE
  5
1A1AA
330
19FC2
100
AcDbEntity
  8
1
  6
Continuous
100
AcDbLine
 10
385.459513
 20
235.3992199999999
 30
0.0
 11
383.1186049999999
 21
237.7401279999999
 31
0.0
  0
LINE
  5
1A1AB
330
19FC2
100
AcDbEntity
  8
1
  6
Continuous
100
AcDbLine
 10
383.3381929999998
 20
235.3992199999999
 30
0.0
 11
380.997284
 21
237.7401279999999
 31
0.0
  0
LINE
  5
1A1AC
330
19FC2
100
AcDbEntity
  8
1
  6
Continuous
100
AcDbLine
 10
382.899016
 20
235.3992199999999
 30
0.0
 11
385.239925
 21
237.7401279999999
 31
0.0
  0
LINE
  5
1A1AD
330
19FC2
100
AcDbEntity
  8
1
  6
Continuous
100
AcDbLine
 10
387.3881589999998
 20
237.7401279999999
 30
0.0
 11
387.3881589999998
 21
235.3992199999999
 31
0.0
  0
LINE
  5
1A1AE
330
19FC2
100
AcDbEntity
  8
1
  6
Continuous
100
AcDbLine
 10
380.7776959999998
 20
235.3992199999999
 30
0.0
 11
383.1186049999999
 21
237.7401279999999
 31
0.0
  0
LINE
  5
1A1AF
330
19FC2
100
AcDbEntity
  8
1
  6
Continuous
100
AcDbLine
 10
381.216873
 20
235.3992199999999
 30
0.0
 11
378.875964
 21
237.7401279999999
 31
0.0
  0
LINE
  5
1A1B0
330
19FC2
100
AcDbEntity
  8
1
  6
Continuous
100
AcDbLine
 10
378.6563759999999
 20
235.3992199999999
 30
0.0
 11
380.997284
 21
237.7401279999999
 31
0.0
  0
LINE
  5
1A1B1
330
19FC2
100
AcDbEntity
  8
1
  6
Continuous
100
AcDbLine
 10
379.095552
 20
235.3992199999999
 30
0.0
 11
376.7546439999999
 21
237.7401279999999
 31
0.0
  0
LINE
  5
1A1B2
330
19FC2
100
AcDbEntity
  8
1
  6
Continuous
100
AcDbLine
 10
376.5350549999998
 20
235.3992199999999
 30
0.0
 11
378.875964
 21
237.7401279999999
 31
0.0
  0
LINE
  5
1A1B3
330
19FC2
100
AcDbEntity
  8
1
  6
Continuous
100
AcDbLine
 10
376.9742319999999
 20
235.3992199999999
 30
0.0
 11
374.633323
 21
237.7401279999999
 31
0.0
  0
LINE
  5
1A1B4
330
19FC2
100
AcDbEntity
  8
1
  6
Continuous
100
AcDbLine
 10
374.4137349999999
 20
235.3992199999999
 30
0.0
 11
376.7546439999999
 21
237.7401279999999
 31
0.0
  0
LINE
  5
1A1B5
330
19FC2
100
AcDbEntity
  8
1
  6
Continuous
100
AcDbLine
 10
374.852912
 20
235.3992199999999
 30
0.0
 11
372.5120029999998
 21
237.7401279999999
 31
0.0
  0
LINE
  5
1A1B6
330
19FC2
100
AcDbEntity
  8
1
  6
Continuous
100
AcDbLine
 10
372.292415
 20
235.3992199999999
 30
0.0
 11
374.633323
 21
237.7401279999999
 31
0.0
  0
LINE
  5
1A1B7
330
19FC2
100
AcDbEntity
  8
1
  6
Continuous
100
AcDbLine
 10
372.7315909999999
 20
235.3992199999999
 30
0.0
 11
370.390683
 21
237.7401279999999
 31
0.0
  0
LINE
  5
1A1B8
330
19FC2
100
AcDbEntity
  8
1
  6
Continuous
100
AcDbLine
 10
370.1710939999999
 20
235.3992199999999
 30
0.0
 11
372.5120029999998
 21
237.7401279999999
 31
0.0
  0
LINE
  5
1A1B9
330
19FC2
100
AcDbEntity
  8
1
  6
Continuous
100
AcDbLine
 10
370.610271
 20
235.3992199999999
 30
0.0
 11
368.269362
 21
237.7401279999999
 31
0.0
  0
LINE
  5
1A1BA
330
19FC2
100
AcDbEntity
  8
1
  6
Continuous
100
AcDbLine
 10
368.049774
 20
235.3992199999999
 30
0.0
 11
370.390683
 21
237.7401279999999
 31
0.0
  0
LINE
  5
1A1BB
330
19FC2
100
AcDbEntity
  8
1
  6
Continuous
100
AcDbLine
 10
387.3881589999998
 20
237.7132149999999
 30
0.0
 11
387.3612449999998
 21
237.7401279999999
 31
0.0
  0
LINE
  5
1A1BC
330
19FC2
100
AcDbEntity
  8
1
  6
Continuous
100
AcDbLine
 10
90.88815
 20
235.3992199999999
 30
0.0
 11
37.11215
 21
235.3992199999999
 31
0.0
  0
LINE
  5
1A1BD
330
19FC2
100
AcDbEntity
  8
1
  6
Continuous
100
AcDbLine
 10
52.897059
 20
235.3992199999999
 30
0.0
 11
50.55615
 21
237.7401279999999
 31
0.0
  0
LINE
  5
1A1BE
330
19FC2
100
AcDbEntity
  8
1
  6
Continuous
100
AcDbLine
 10
50.336562
 20
235.3992199999999
 30
0.0
 11
52.67746999999999
 21
237.7401279999999
 31
0.0
  0
LINE
  5
1A1BF
330
19FC2
100
AcDbEntity
  8
1
  6
Continuous
100
AcDbLine
 10
90.88815
 20
237.7401279999999
 30
0.0
 11
37.11215
 21
237.7401279999999
 31
0.0
  0
LINE
  5
1A1C0
330
19FC2
100
AcDbEntity
  8
1
  6
Continuous
100
AcDbLine
 10
50.77573799999999
 20
235.3992199999999
 30
0.0
 11
48.43482999999999
 21
237.7401279999999
 31
0.0
  0
LINE
  5
1A1C1
330
19FC2
100
AcDbEntity
  8
1
  6
Continuous
100
AcDbLine
 10
48.215241
 20
235.3992199999999
 30
0.0
 11
50.55615
 21
237.7401279999999
 31
0.0
  0
LINE
  5
1A1C2
330
19FC2
100
AcDbEntity
  8
1
  6
Continuous
100
AcDbLine
 10
48.654418
 20
235.3992199999999
 30
0.0
 11
46.313509
 21
237.7401279999999
 31
0.0
  0
LINE
  5
1A1C3
330
19FC2
100
AcDbEntity
  8
1
  6
Continuous
100
AcDbLine
 10
46.09392099999999
 20
235.3992199999999
 30
0.0
 11
48.43482999999999
 21
237.7401279999999
 31
0.0
  0
LINE
  5
1A1C4
330
19FC2
100
AcDbEntity
  8
1
  6
Continuous
100
AcDbLine
 10
46.53309799999997
 20
235.3992199999999
 30
0.0
 11
44.19218899999999
 21
237.7401279999999
 31
0.0
  0
LINE
  5
1A1C5
330
19FC2
100
AcDbEntity
  8
1
  6
Continuous
100
AcDbLine
 10
43.97260099999999
 20
235.3992199999999
 30
0.0
 11
46.313509
 21
237.7401279999999
 31
0.0
  0
LINE
  5
1A1C6
330
19FC2
100
AcDbEntity
  8
1
  6
Continuous
100
AcDbLine
 10
44.41177699999999
 20
235.3992199999999
 30
0.0
 11
42.070869
 21
237.7401279999999
 31
0.0
  0
LINE
  5
1A1C7
330
19FC2
100
AcDbEntity
  8
1
  6
Continuous
100
AcDbLine
 10
41.85127999999997
 20
235.3992199999999
 30
0.0
 11
44.19218899999999
 21
237.7401279999999
 31
0.0
  0
LINE
  5
1A1C8
330
19FC2
100
AcDbEntity
  8
1
  6
Continuous
100
AcDbLine
 10
42.290457
 20
235.3992199999999
 30
0.0
 11
39.949548
 21
237.7401279999999
 31
0.0
  0
LINE
  5
1A1C9
330
19FC2
100
AcDbEntity
  8
1
  6
Continuous
100
AcDbLine
 10
39.72996
 20
235.3992199999999
 30
0.0
 11
42.070869
 21
237.7401279999999
 31
0.0
  0
LINE
  5
1A1CA
330
19FC2
100
AcDbEntity
  8
1
  6
Continuous
100
AcDbLine
 10
40.16913699999999
 20
235.3992199999999
 30
0.0
 11
37.828228
 21
237.7401279999999
 31
0.0
  0
LINE
  5
1A1CB
330
19FC2
100
AcDbEntity
  8
1
  6
Continuous
100
AcDbLine
 10
37.60864
 20
235.3992199999999
 30
0.0
 11
39.949548
 21
237.7401279999999
 31
0.0
  0
LINE
  5
1A1CC
330
19FC2
100
AcDbEntity
  8
1
  6
Continuous
100
AcDbLine
 10
37.11215
 20
237.7401279999999
 30
0.0
 11
37.11215
 21
235.3992199999999
 31
0.0
  0
LINE
  5
1A1CD
330
19FC2
100
AcDbEntity
  8
1
  6
Continuous
100
AcDbLine
 10
37.11215
 20
237.0240509999999
 30
0.0
 11
37.828228
 21
237.7401279999999
 31
0.0
  0
LINE
  5
1A1CE
330
19FC2
100
AcDbEntity
  8
1
  6
Continuous
100
AcDbLine
 10
71.98894200000002
 20
235.3992199999999
 30
0.0
 11
69.64803299999998
 21
237.7401279999999
 31
0.0
  0
LINE
  5
1A1CF
330
19FC2
100
AcDbEntity
  8
1
  6
Continuous
100
AcDbLine
 10
69.42844499999999
 20
235.3992199999999
 30
0.0
 11
71.76935300000002
 21
237.7401279999999
 31
0.0
  0
LINE
  5
1A1D0
330
19FC2
100
AcDbEntity
  8
1
  6
Continuous
100
AcDbLine
 10
69.86762099999999
 20
235.3992199999999
 30
0.0
 11
67.526713
 21
237.7401279999999
 31
0.0
  0
LINE
  5
1A1D1
330
19FC2
100
AcDbEntity
  8
1
  6
Continuous
100
AcDbLine
 10
67.307124
 20
235.3992199999999
 30
0.0
 11
69.64803299999998
 21
237.7401279999999
 31
0.0
  0
LINE
  5
1A1D2
330
19FC2
100
AcDbEntity
  8
1
  6
Continuous
100
AcDbLine
 10
67.746301
 20
235.3992199999999
 30
0.0
 11
65.40539200000001
 21
237.7401279999999
 31
0.0
  0
LINE
  5
1A1D3
330
19FC2
100
AcDbEntity
  8
1
  6
Continuous
100
AcDbLine
 10
65.18580400000001
 20
235.3992199999999
 30
0.0
 11
67.526713
 21
237.7401279999999
 31
0.0
  0
LINE
  5
1A1D4
330
19FC2
100
AcDbEntity
  8
1
  6
Continuous
100
AcDbLine
 10
65.624981
 20
235.3992199999999
 30
0.0
 11
63.284072
 21
237.7401279999999
 31
0.0
  0
LINE
  5
1A1D5
330
19FC2
100
AcDbEntity
  8
1
  6
Continuous
100
AcDbLine
 10
63.064484
 20
235.3992199999999
 30
0.0
 11
65.40539200000001
 21
237.7401279999999
 31
0.0
  0
LINE
  5
1A1D6
330
19FC2
100
AcDbEntity
  8
1
  6
Continuous
100
AcDbLine
 10
63.50366000000001
 20
235.3992199999999
 30
0.0
 11
61.162752
 21
237.7401279999999
 31
0.0
  0
LINE
  5
1A1D7
330
19FC2
100
AcDbEntity
  8
1
  6
Continuous
100
AcDbLine
 10
60.943163
 20
235.3992199999999
 30
0.0
 11
63.284072
 21
237.7401279999999
 31
0.0
  0
LINE
  5
1A1D8
330
19FC2
100
AcDbEntity
  8
1
  6
Continuous
100
AcDbLine
 10
61.38234
 20
235.3992199999999
 30
0.0
 11
59.041431
 21
237.7401279999999
 31
0.0
  0
LINE
  5
1A1D9
330
19FC2
100
AcDbEntity
  8
1
  6
Continuous
100
AcDbLine
 10
58.82184300000001
 20
235.3992199999999
 30
0.0
 11
61.162752
 21
237.7401279999999
 31
0.0
  0
LINE
  5
1A1DA
330
19FC2
100
AcDbEntity
  8
1
  6
Continuous
100
AcDbLine
 10
59.26102
 20
235.3992199999999
 30
0.0
 11
56.920111
 21
237.7401279999999
 31
0.0
  0
LINE
  5
1A1DB
330
19FC2
100
AcDbEntity
  8
1
  6
Continuous
100
AcDbLine
 10
56.700523
 20
235.3992199999999
 30
0.0
 11
59.041431
 21
237.7401279999999
 31
0.0
  0
LINE
  5
1A1DC
330
19FC2
100
AcDbEntity
  8
1
  6
Continuous
100
AcDbLine
 10
57.139699
 20
235.3992199999999
 30
0.0
 11
54.798791
 21
237.7401279999999
 31
0.0
  0
LINE
  5
1A1DD
330
19FC2
100
AcDbEntity
  8
1
  6
Continuous
100
AcDbLine
 10
54.579202
 20
235.3992199999999
 30
0.0
 11
56.920111
 21
237.7401279999999
 31
0.0
  0
LINE
  5
1A1DE
330
19FC2
100
AcDbEntity
  8
1
  6
Continuous
100
AcDbLine
 10
55.018379
 20
235.3992199999999
 30
0.0
 11
52.67746999999999
 21
237.7401279999999
 31
0.0
  0
LINE
  5
1A1DF
330
19FC2
100
AcDbEntity
  8
1
  6
Continuous
100
AcDbLine
 10
52.45788199999999
 20
235.3992199999999
 30
0.0
 11
54.798791
 21
237.7401279999999
 31
0.0
  0
LINE
  5
1A1E0
330
19FC2
100
AcDbEntity
  8
1
  6
Continuous
100
AcDbLine
 10
90.88815
 20
235.5918949999999
 30
0.0
 11
88.73991600000001
 21
237.7401279999999
 31
0.0
  0
LINE
  5
1A1E1
330
19FC2
100
AcDbEntity
  8
1
  6
Continuous
100
AcDbLine
 10
88.52032800000001
 20
235.3992199999999
 30
0.0
 11
90.861236
 21
237.7401279999999
 31
0.0
  0
LINE
  5
1A1E2
330
19FC2
100
AcDbEntity
  8
1
  6
Continuous
100
AcDbLine
 10
88.95950400000002
 20
235.3992199999999
 30
0.0
 11
86.61859599999997
 21
237.7401279999999
 31
0.0
  0
LINE
  5
1A1E3
330
19FC2
100
AcDbEntity
  8
1
  6
Continuous
100
AcDbLine
 10
86.83818399999998
 20
235.3992199999999
 30
0.0
 11
84.49727499999999
 21
237.7401279999999
 31
0.0
  0
LINE
  5
1A1E4
330
19FC2
100
AcDbEntity
  8
1
  6
Continuous
100
AcDbLine
 10
86.39900699999998
 20
235.3992199999999
 30
0.0
 11
88.73991600000001
 21
237.7401279999999
 31
0.0
  0
LINE
  5
1A1E5
330
19FC2
100
AcDbEntity
  8
1
  6
Continuous
100
AcDbLine
 10
90.88815
 20
237.7401279999999
 30
0.0
 11
90.88815
 21
235.3992199999999
 31
0.0
  0
LINE
  5
1A1E6
330
19FC2
100
AcDbEntity
  8
1
  6
Continuous
100
AcDbLine
 10
84.27768699999999
 20
235.3992199999999
 30
0.0
 11
86.61859599999997
 21
237.7401279999999
 31
0.0
  0
LINE
  5
1A1E7
330
19FC2
100
AcDbEntity
  8
1
  6
Continuous
100
AcDbLine
 10
84.71686400000001
 20
235.3992199999999
 30
0.0
 11
82.37595500000002
 21
237.7401279999999
 31
0.0
  0
LINE
  5
1A1E8
330
19FC2
100
AcDbEntity
  8
1
  6
Continuous
100
AcDbLine
 10
82.15636700000002
 20
235.3992199999999
 30
0.0
 11
84.49727499999999
 21
237.7401279999999
 31
0.0
  0
LINE
  5
1A1E9
330
19FC2
100
AcDbEntity
  8
1
  6
Continuous
100
AcDbLine
 10
82.59554300000003
 20
235.3992199999999
 30
0.0
 11
80.25463499999998
 21
237.7401279999999
 31
0.0
  0
LINE
  5
1A1EA
330
19FC2
100
AcDbEntity
  8
1
  6
Continuous
100
AcDbLine
 10
80.03504599999997
 20
235.3992199999999
 30
0.0
 11
82.37595500000002
 21
237.7401279999999
 31
0.0
  0
LINE
  5
1A1EB
330
19FC2
100
AcDbEntity
  8
1
  6
Continuous
100
AcDbLine
 10
80.47422299999999
 20
235.3992199999999
 30
0.0
 11
78.133314
 21
237.7401279999999
 31
0.0
  0
LINE
  5
1A1EC
330
19FC2
100
AcDbEntity
  8
1
  6
Continuous
100
AcDbLine
 10
77.91372599999998
 20
235.3992199999999
 30
0.0
 11
80.25463499999998
 21
237.7401279999999
 31
0.0
  0
LINE
  5
1A1ED
330
19FC2
100
AcDbEntity
  8
1
  6
Continuous
100
AcDbLine
 10
78.352903
 20
235.3992199999999
 30
0.0
 11
76.011994
 21
237.7401279999999
 31
0.0
  0
LINE
  5
1A1EE
330
19FC2
100
AcDbEntity
  8
1
  6
Continuous
100
AcDbLine
 10
75.792406
 20
235.3992199999999
 30
0.0
 11
78.133314
 21
237.7401279999999
 31
0.0
  0
LINE
  5
1A1EF
330
19FC2
100
AcDbEntity
  8
1
  6
Continuous
100
AcDbLine
 10
76.23158199999997
 20
235.3992199999999
 30
0.0
 11
73.890674
 21
237.7401279999999
 31
0.0
  0
LINE
  5
1A1F0
330
19FC2
100
AcDbEntity
  8
1
  6
Continuous
100
AcDbLine
 10
73.67108499999997
 20
235.3992199999999
 30
0.0
 11
76.011994
 21
237.7401279999999
 31
0.0
  0
LINE
  5
1A1F1
330
19FC2
100
AcDbEntity
  8
1
  6
Continuous
100
AcDbLine
 10
74.11026200000002
 20
235.3992199999999
 30
0.0
 11
71.76935300000002
 21
237.7401279999999
 31
0.0
  0
LINE
  5
1A1F2
330
19FC2
100
AcDbEntity
  8
1
  6
Continuous
100
AcDbLine
 10
71.549765
 20
235.3992199999999
 30
0.0
 11
73.890674
 21
237.7401279999999
 31
0.0
  0
LINE
  5
1A1F3
330
19FC2
100
AcDbEntity
  8
1
  6
Continuous
100
AcDbLine
 10
90.88815
 20
237.7132149999999
 30
0.0
 11
90.861236
 21
237.7401279999999
 31
0.0
  0
ARC
  5
1A1F4
330
19FC2
100
AcDbEntity
  8
1
  6
Continuous
100
AcDbCircle
 10
525.500312
 20
191.4985019999998
 30
0.0
 40
32.5
100
AcDbArc
 50
181.136148
 51
88.47349099999998
  0
LINE
  5
1A1F5
330
19FC2
100
AcDbEntity
  8
4
  6
CENTER
100
AcDbLine
 10
488.000312
 20
191.4985019999998
 30
0.0
 11
563.000312
 21
191.4985019999998
 31
0.0
  0
LINE
  5
1A1F6
330
19FC2
100
AcDbEntity
  8
1
  6
Continuous
100
AcDbLine
 10
523.2583599999998
 20
230.7739579999999
 30
0.0
 11
517.568579
 21
183.708994
 31
0.0
  0
LINE
  5
1A1F7
330
19FC2
100
AcDbEntity
  8
1
  6
Continuous
100
AcDbLine
 10
534.5703109999998
 20
232.7739579999999
 30
0.0
 11
534.5703109999998
 21
230.173958
 31
0.0
  0
ARC
  5
1A1F8
330
19FC2
100
AcDbEntity
  8
1
  6
Continuous
100
AcDbCircle
 10
538.263361
 20
221.1154399999998
 30
0.0
 40
12.22945799999999
100
AcDbArc
 50
107.576555
 51
164.774733
  0
LINE
  5
1A1F9
330
19FC2
100
AcDbEntity
  8
1
  6
Continuous
100
AcDbLine
 10
471.000144
 20
230.39922
 30
0.0
 11
471.000144
 21
224.415755
 31
0.0
  0
LINE
  5
1A1FA
330
19FC2
100
AcDbEntity
  8
4
  6
CENTER
100
AcDbLine
 10
498.5001439999998
 20
250.998502
 30
0.0
 11
498.5001439999998
 21
182.4980329999999
 31
0.0
  0
LINE
  5
1A1FB
330
19FC2
100
AcDbEntity
  8
1
  6
Continuous
100
AcDbLine
 10
471.000144
 20
224.415755
 30
0.0
 11
472.1023839999999
 21
224.415755
 31
0.0
  0
ARC
  5
1A1FC
330
19FC2
100
AcDbEntity
  8
1
  6
Continuous
100
AcDbCircle
 10
464.24735
 20
217.633301
 30
0.0
 40
10.37801699999998
100
AcDbArc
 50
16.35971
 51
49.40692099999999
  0
ARC
  5
1A1FD
330
19FC2
100
AcDbEntity
  8
1
  6
Continuous
100
AcDbCircle
 10
525.8003119999998
 20
192.479737
 30
0.0
 40
12.0
100
AcDbArc
 50
261.358447
 51
52.080451
  0
LINE
  5
1A1FE
330
19FC2
100
AcDbEntity
  8
4
  6
CENTER
100
AcDbLine
 10
525.500312
 20
154.3297369999999
 30
0.0
 11
525.500312
 21
229.3297369999999
 31
0.0
  0
ARC
  5
1A1FF
330
19FC2
100
AcDbEntity
  8
1
  6
Continuous
100
AcDbCircle
 10
534.4316899999999
 20
264.346735
 30
0.0
 40
84.383464
100
AcDbArc
 50
241.0336029999999
 51
263.14815
  0
ARC
  5
1A200
330
19FC2
100
AcDbEntity
  8
1
  6
Continuous
100
AcDbCircle
 10
543.588583
 20
215.3137
 30
0.0
 40
16.94499
100
AcDbArc
 50
198.747283
 51
232.0804509999999
  0
ARC
  5
1A201
330
19FC2
100
AcDbEntity
  8
1
  6
Continuous
100
AcDbCircle
 10
546.83722
 20
218.578091
 30
0.0
 40
21.16964
100
AcDbArc
 50
164.2423319999998
 51
204.2964609999999
  0
ARC
  5
1A202
330
19FC2
100
AcDbEntity
  8
1
  6
Continuous
100
AcDbCircle
 10
546.1439779999998
 20
241.6742249999999
 30
0.0
 40
74.974334
100
AcDbArc
 50
196.35971
 51
215.0618629999999
  0
ARC
  5
1A203
330
19FC2
100
AcDbEntity
  8
1
  6
Continuous
100
AcDbCircle
 10
507.664332
 20
214.668522
 30
0.0
 40
27.96378999999999
100
AcDbArc
 50
215.0618629999999
 51
239.750289
  0
ARC
  5
1A204
330
19FC2
100
AcDbEntity
  8
1
  6
Continuous
100
AcDbCircle
 10
476.0001439999999
 20
230.39922
 30
0.0
 40
5.0
100
AcDbArc
 50
90.0
 51
180.0
  0
LINE
  5
1A205
330
19FC2
100
AcDbEntity
  8
1
  6
Continuous
100
AcDbLine
 10
459.5003089999998
 20
245.9985019999999
 30
0.0
 11
537.5004619999998
 21
245.9985019999999
 31
0.0
  0
LINE
  5
1A206
330
19FC2
100
AcDbEntity
  8
1
  6
Continuous
100
AcDbLine
 10
470.021695
 20
239.7215
 30
0.0
 11
526.9790679999998
 21
239.7215
 31
0.0
  0
LINE
  5
1A207
330
19FC2
100
AcDbEntity
  8
1
  6
Continuous
100
AcDbLine
 10
471.6121440000001
 20
235.3992199999999
 30
0.0
 11
525.3881439999998
 21
235.3992199999999
 31
0.0
  0
LINE
  5
1A208
330
19FC2
100
AcDbEntity
  8
1
  6
Continuous
100
AcDbLine
 10
471.6121440000001
 20
237.7401279999999
 30
0.0
 11
525.3881439999998
 21
237.7401279999999
 31
0.0
  0
LINE
  5
1A209
330
19FC2
100
AcDbEntity
  8
1
  6
Continuous
100
AcDbLine
 10
509.6032349999998
 20
235.3992199999999
 30
0.0
 11
511.9441440000001
 21
237.7401279999999
 31
0.0
  0
LINE
  5
1A20A
330
19FC2
100
AcDbEntity
  8
1
  6
Continuous
100
AcDbLine
 10
512.1637319999998
 20
235.3992199999999
 30
0.0
 11
509.822824
 21
237.7401279999999
 31
0.0
  0
LINE
  5
1A20B
330
19FC2
100
AcDbEntity
  8
1
  6
Continuous
100
AcDbLine
 10
534.5703109999998
 20
232.7739579999999
 30
0.0
 11
523.5001440000002
 21
232.7739579999999
 31
0.0
  0
LINE
  5
1A20C
330
19FC2
100
AcDbEntity
  8
1
  6
Continuous
100
AcDbLine
 10
537.5004619999998
 20
243.098502
 30
0.0
 11
537.5004619999998
 21
245.9985019999999
 31
0.0
  0
LINE
  5
1A20D
330
19FC2
100
AcDbEntity
  8
1
  6
Continuous
100
AcDbLine
 10
511.7245559999998
 20
235.3992199999999
 30
0.0
 11
514.065464
 21
237.7401279999999
 31
0.0
  0
LINE
  5
1A20E
330
19FC2
100
AcDbEntity
  8
1
  6
Continuous
100
AcDbLine
 10
514.2850529999998
 20
235.3992199999999
 30
0.0
 11
511.9441440000001
 21
237.7401279999999
 31
0.0
  0
LINE
  5
1A20F
330
19FC2
100
AcDbEntity
  8
1
  6
Continuous
100
AcDbLine
 10
513.8458759999998
 20
235.3992199999999
 30
0.0
 11
516.186785
 21
237.7401279999999
 31
0.0
  0
LINE
  5
1A210
330
19FC2
100
AcDbEntity
  8
1
  6
Continuous
100
AcDbLine
 10
516.406373
 20
235.3992199999999
 30
0.0
 11
514.065464
 21
237.7401279999999
 31
0.0
  0
LINE
  5
1A211
330
19FC2
100
AcDbEntity
  8
1
  6
Continuous
100
AcDbLine
 10
515.9671959999998
 20
235.3992199999999
 30
0.0
 11
518.3081049999998
 21
237.7401279999999
 31
0.0
  0
LINE
  5
1A212
330
19FC2
100
AcDbEntity
  8
1
  6
Continuous
100
AcDbLine
 10
518.5276929999998
 20
235.3992199999999
 30
0.0
 11
516.186785
 21
237.7401279999999
 31
0.0
  0
LINE
  5
1A213
330
19FC2
100
AcDbEntity
  8
1
  6
Continuous
100
AcDbLine
 10
518.088517
 20
235.3992199999999
 30
0.0
 11
520.429425
 21
237.7401279999999
 31
0.0
  0
LINE
  5
1A214
330
19FC2
100
AcDbEntity
  8
1
  6
Continuous
100
AcDbLine
 10
520.6490139999998
 20
235.3992199999999
 30
0.0
 11
518.3081049999998
 21
237.7401279999999
 31
0.0
  0
LINE
  5
1A215
330
19FC2
100
AcDbEntity
  8
1
  6
Continuous
100
AcDbLine
 10
520.2098369999998
 20
235.3992199999999
 30
0.0
 11
522.550746
 21
237.7401279999999
 31
0.0
  0
LINE
  5
1A216
330
19FC2
100
AcDbEntity
  8
1
  6
Continuous
100
AcDbLine
 10
522.7703339999997
 20
235.3992199999999
 30
0.0
 11
520.429425
 21
237.7401279999999
 31
0.0
  0
LINE
  5
1A217
330
19FC2
100
AcDbEntity
  8
1
  6
Continuous
100
AcDbLine
 10
522.3311569999999
 20
235.3992199999999
 30
0.0
 11
524.672066
 21
237.7401279999999
 31
0.0
  0
LINE
  5
1A218
330
19FC2
100
AcDbEntity
  8
1
  6
Continuous
100
AcDbLine
 10
524.891654
 20
235.3992199999999
 30
0.0
 11
522.550746
 21
237.7401279999999
 31
0.0
  0
LINE
  5
1A219
330
19FC2
100
AcDbEntity
  8
1
  6
Continuous
100
AcDbLine
 10
525.3881439999998
 20
237.7401279999999
 30
0.0
 11
525.3881439999998
 21
235.3992199999999
 31
0.0
  0
LINE
  5
1A21A
330
19FC2
100
AcDbEntity
  8
1
  6
Continuous
100
AcDbLine
 10
524.3263969999998
 20
239.7215
 30
0.0
 11
523.478035
 21
237.7401279999999
 31
0.0
  0
ARC
  5
1A21B
330
19FC2
100
AcDbEntity
  8
1
  6
Continuous
100
AcDbCircle
 10
523.5001440000002
 20
235.273958
 30
0.0
 40
2.5
100
AcDbArc
 50
180.0
 51
270.0
  0
ARC
  5
1A21C
330
19FC2
100
AcDbEntity
  8
1
  6
Continuous
100
AcDbCircle
 10
521.000144
 20
230.39922
 30
0.0
 40
5.0
100
AcDbArc
 50
28.355938
 51
90.0
  0
LINE
  5
1A21D
330
19FC2
100
AcDbEntity
  8
1
  6
Continuous
100
AcDbLine
 10
525.3881439999998
 20
237.0240509999999
 30
0.0
 11
524.672066
 21
237.7401279999999
 31
0.0
  0
LINE
  5
1A21E
330
19FC2
100
AcDbEntity
  8
4
  6
CENTER
100
AcDbLine
 10
529.5001039999998
 20
248.898502
 30
0.0
 11
529.5001039999998
 21
240.198502
 31
0.0
  0
LINE
  5
1A21F
330
19FC2
100
AcDbEntity
  8
1
  6
Continuous
100
AcDbLine
 10
490.5113519999998
 20
235.3992199999999
 30
0.0
 11
492.852261
 21
237.7401279999999
 31
0.0
  0
LINE
  5
1A220
330
19FC2
100
AcDbEntity
  8
1
  6
Continuous
100
AcDbLine
 10
493.071849
 20
235.3992199999999
 30
0.0
 11
490.7309409999998
 21
237.7401279999999
 31
0.0
  0
LINE
  5
1A221
330
19FC2
100
AcDbEntity
  8
1
  6
Continuous
100
AcDbLine
 10
492.632673
 20
235.3992199999999
 30
0.0
 11
494.9735809999999
 21
237.7401279999999
 31
0.0
  0
LINE
  5
1A222
330
19FC2
100
AcDbEntity
  8
1
  6
Continuous
100
AcDbLine
 10
495.19317
 20
235.3992199999999
 30
0.0
 11
492.852261
 21
237.7401279999999
 31
0.0
  0
LINE
  5
1A223
330
19FC2
100
AcDbEntity
  8
1
  6
Continuous
100
AcDbLine
 10
494.7539929999998
 20
235.3992199999999
 30
0.0
 11
497.0949019999998
 21
237.7401279999999
 31
0.0
  0
LINE
  5
1A224
330
19FC2
100
AcDbEntity
  8
1
  6
Continuous
100
AcDbLine
 10
497.31449
 20
235.3992199999999
 30
0.0
 11
494.9735809999999
 21
237.7401279999999
 31
0.0
  0
LINE
  5
1A225
330
19FC2
100
AcDbEntity
  8
1
  6
Continuous
100
AcDbLine
 10
496.875313
 20
235.3992199999999
 30
0.0
 11
499.2162219999998
 21
237.7401279999999
 31
0.0
  0
LINE
  5
1A226
330
19FC2
100
AcDbEntity
  8
1
  6
Continuous
100
AcDbLine
 10
499.4358099999998
 20
235.3992199999999
 30
0.0
 11
497.0949019999998
 21
237.7401279999999
 31
0.0
  0
LINE
  5
1A227
330
19FC2
100
AcDbEntity
  8
1
  6
Continuous
100
AcDbLine
 10
498.9966339999998
 20
235.3992199999999
 30
0.0
 11
501.337542
 21
237.7401279999999
 31
0.0
  0
LINE
  5
1A228
330
19FC2
100
AcDbEntity
  8
1
  6
Continuous
100
AcDbLine
 10
501.5571309999998
 20
235.3992199999999
 30
0.0
 11
499.2162219999998
 21
237.7401279999999
 31
0.0
  0
LINE
  5
1A229
330
19FC2
100
AcDbEntity
  8
1
  6
Continuous
100
AcDbLine
 10
501.1179539999998
 20
235.3992199999999
 30
0.0
 11
503.458863
 21
237.7401279999999
 31
0.0
  0
LINE
  5
1A22A
330
19FC2
100
AcDbEntity
  8
1
  6
Continuous
100
AcDbLine
 10
503.678451
 20
235.3992199999999
 30
0.0
 11
501.337542
 21
237.7401279999999
 31
0.0
  0
LINE
  5
1A22B
330
19FC2
100
AcDbEntity
  8
1
  6
Continuous
100
AcDbLine
 10
503.239274
 20
235.3992199999999
 30
0.0
 11
505.580183
 21
237.7401279999999
 31
0.0
  0
LINE
  5
1A22C
330
19FC2
100
AcDbEntity
  8
1
  6
Continuous
100
AcDbLine
 10
505.799771
 20
235.3992199999999
 30
0.0
 11
503.458863
 21
237.7401279999999
 31
0.0
  0
LINE
  5
1A22D
330
19FC2
100
AcDbEntity
  8
1
  6
Continuous
100
AcDbLine
 10
505.3605949999998
 20
235.3992199999999
 30
0.0
 11
507.701503
 21
237.7401279999999
 31
0.0
  0
LINE
  5
1A22E
330
19FC2
100
AcDbEntity
  8
1
  6
Continuous
100
AcDbLine
 10
507.921092
 20
235.3992199999999
 30
0.0
 11
505.580183
 21
237.7401279999999
 31
0.0
  0
LINE
  5
1A22F
330
19FC2
100
AcDbEntity
  8
1
  6
Continuous
100
AcDbLine
 10
507.481915
 20
235.3992199999999
 30
0.0
 11
509.822824
 21
237.7401279999999
 31
0.0
  0
LINE
  5
1A230
330
19FC2
100
AcDbEntity
  8
1
  6
Continuous
100
AcDbLine
 10
510.042412
 20
235.3992199999999
 30
0.0
 11
507.701503
 21
237.7401279999999
 31
0.0
  0
LINE
  5
1A231
330
19FC2
100
AcDbEntity
  8
1
  6
Continuous
100
AcDbLine
 10
471.6121440000001
 20
235.5918949999999
 30
0.0
 11
473.7603779999998
 21
237.7401279999999
 31
0.0
  0
LINE
  5
1A232
330
19FC2
100
AcDbEntity
  8
1
  6
Continuous
100
AcDbLine
 10
473.979966
 20
235.3992199999999
 30
0.0
 11
471.6390579999998
 21
237.7401279999999
 31
0.0
  0
LINE
  5
1A233
330
19FC2
100
AcDbEntity
  8
1
  6
Continuous
100
AcDbLine
 10
473.54079
 20
235.3992199999999
 30
0.0
 11
475.8816979999998
 21
237.7401279999999
 31
0.0
  0
LINE
  5
1A234
330
19FC2
100
AcDbEntity
  8
1
  6
Continuous
100
AcDbLine
 10
475.66211
 20
235.3992199999999
 30
0.0
 11
478.0030189999997
 21
237.7401279999999
 31
0.0
  0
LINE
  5
1A235
330
19FC2
100
AcDbEntity
  8
1
  6
Continuous
100
AcDbLine
 10
476.101287
 20
235.3992199999999
 30
0.0
 11
473.7603779999998
 21
237.7401279999999
 31
0.0
  0
LINE
  5
1A236
330
19FC2
100
AcDbEntity
  8
1
  6
Continuous
100
AcDbLine
 10
471.6121440000001
 20
237.7401279999999
 30
0.0
 11
471.6121440000001
 21
235.3992199999999
 31
0.0
  0
LINE
  5
1A237
330
19FC2
100
AcDbEntity
  8
1
  6
Continuous
100
AcDbLine
 10
478.222607
 20
235.3992199999999
 30
0.0
 11
475.8816979999998
 21
237.7401279999999
 31
0.0
  0
LINE
  5
1A238
330
19FC2
100
AcDbEntity
  8
1
  6
Continuous
100
AcDbLine
 10
477.7834299999998
 20
235.3992199999999
 30
0.0
 11
480.1243389999998
 21
237.7401279999999
 31
0.0
  0
LINE
  5
1A239
330
19FC2
100
AcDbEntity
  8
1
  6
Continuous
100
AcDbLine
 10
480.3439269999998
 20
235.3992199999999
 30
0.0
 11
478.0030189999997
 21
237.7401279999999
 31
0.0
  0
LINE
  5
1A23A
330
19FC2
100
AcDbEntity
  8
1
  6
Continuous
100
AcDbLine
 10
479.904751
 20
235.3992199999999
 30
0.0
 11
482.2456589999998
 21
237.7401279999999
 31
0.0
  0
LINE
  5
1A23B
330
19FC2
100
AcDbEntity
  8
1
  6
Continuous
100
AcDbLine
 10
482.465248
 20
235.3992199999999
 30
0.0
 11
480.1243389999998
 21
237.7401279999999
 31
0.0
  0
LINE
  5
1A23C
330
19FC2
100
AcDbEntity
  8
1
  6
Continuous
100
AcDbLine
 10
482.026071
 20
235.3992199999999
 30
0.0
 11
484.3669799999998
 21
237.7401279999999
 31
0.0
  0
LINE
  5
1A23D
330
19FC2
100
AcDbEntity
  8
1
  6
Continuous
100
AcDbLine
 10
484.5865679999998
 20
235.3992199999999
 30
0.0
 11
482.2456589999998
 21
237.7401279999999
 31
0.0
  0
LINE
  5
1A23E
330
19FC2
100
AcDbEntity
  8
1
  6
Continuous
100
AcDbLine
 10
484.147391
 20
235.3992199999999
 30
0.0
 11
486.4882999999998
 21
237.7401279999999
 31
0.0
  0
LINE
  5
1A23F
330
19FC2
100
AcDbEntity
  8
1
  6
Continuous
100
AcDbLine
 10
486.707888
 20
235.3992199999999
 30
0.0
 11
484.3669799999998
 21
237.7401279999999
 31
0.0
  0
LINE
  5
1A240
330
19FC2
100
AcDbEntity
  8
1
  6
Continuous
100
AcDbLine
 10
486.268712
 20
235.3992199999999
 30
0.0
 11
488.6096199999998
 21
237.7401279999999
 31
0.0
  0
LINE
  5
1A241
330
19FC2
100
AcDbEntity
  8
1
  6
Continuous
100
AcDbLine
 10
488.829209
 20
235.3992199999999
 30
0.0
 11
486.4882999999998
 21
237.7401279999999
 31
0.0
  0
LINE
  5
1A242
330
19FC2
100
AcDbEntity
  8
1
  6
Continuous
100
AcDbLine
 10
488.390032
 20
235.3992199999999
 30
0.0
 11
490.7309409999998
 21
237.7401279999999
 31
0.0
  0
LINE
  5
1A243
330
19FC2
100
AcDbEntity
  8
1
  6
Continuous
100
AcDbLine
 10
490.950529
 20
235.3992199999999
 30
0.0
 11
488.6096199999998
 21
237.7401279999999
 31
0.0
  0
LINE
  5
1A244
330
19FC2
100
AcDbEntity
  8
1
  6
Continuous
100
AcDbLine
 10
472.6737449999998
 20
239.7215
 30
0.0
 11
473.522107
 21
237.7401279999999
 31
0.0
  0
LINE
  5
1A245
330
19FC2
100
AcDbEntity
  8
1
  6
Continuous
100
AcDbLine
 10
471.6121440000001
 20
237.7132149999999
 30
0.0
 11
471.6390579999998
 21
237.7401279999999
 31
0.0
  0
LINE
  5
1A246
330
19FC2
100
AcDbEntity
  8
1
  6
Continuous
100
AcDbLine
 10
459.5003089999998
 20
243.098502
 30
0.0
 11
459.5003089999998
 21
245.9985019999999
 31
0.0
  0
LINE
  5
1A247
330
19FC2
100
AcDbEntity
  8
4
  6
CENTER
100
AcDbLine
 10
467.500104
 20
248.898502
 30
0.0
 11
467.500104
 21
240.198502
 31
0.0
  0
CIRCLE
  5
1A248
330
19FC2
100
AcDbEntity
  8
1
  6
Continuous
100
AcDbCircle
 10
526.050312
 20
191.4985019999998
 30
0.0
 40
7.0
  0
LINE
  5
1A249
330
19FC2
100
AcDbEntity
  8
1
  6
Continuous
100
AcDbLine
 10
103.000153
 20
245.9985019999999
 30
0.0
 11
25.0
 21
245.9985019999999
 31
0.0
  0
LINE
  5
1A24A
330
19FC2
100
AcDbEntity
  8
1
  6
Continuous
100
AcDbLine
 10
103.000153
 20
243.098502
 30
0.0
 11
25.0
 21
243.098502
 31
0.0
  0
ARC
  5
1A24B
330
19FC2
100
AcDbEntity
  8
1
  6
Continuous
100
AcDbCircle
 10
35.700795
 20
246.9431279999998
 30
0.0
 40
7.223855999999997
100
AcDbArc
 50
212.1550619999999
 51
268.5768749999999
  0
ARC
  5
1A24C
330
19FC2
100
AcDbEntity
  8
1
  6
Continuous
100
AcDbCircle
 10
92.29950499999999
 20
246.9431279999998
 30
0.0
 40
7.223855999999997
100
AcDbArc
 50
271.423125
 51
327.844938
  0
LINE
  5
1A24D
330
19FC2
100
AcDbEntity
  8
1
  6
Continuous
100
AcDbLine
 10
261.500156
 20
243.098502
 30
0.0
 11
183.5000029999999
 21
243.098502
 31
0.0
  0
ARC
  5
1A24E
330
19FC2
100
AcDbEntity
  8
1
  6
Continuous
100
AcDbCircle
 10
194.200966
 20
246.9431279999998
 30
0.0
 40
7.223855999999997
100
AcDbArc
 50
212.1550619999999
 51
268.5768749999999
  0
ARC
  5
1A24F
330
19FC2
100
AcDbEntity
  8
1
  6
Continuous
100
AcDbCircle
 10
250.7996759999998
 20
246.9431279999998
 30
0.0
 40
7.223855999999997
100
AcDbArc
 50
271.423125
 51
327.844938
  0
ARC
  5
1A250
330
19FC2
100
AcDbEntity
  8
1
  6
Continuous
100
AcDbCircle
 10
332.200804
 20
246.9431279999998
 30
0.0
 40
7.223855999999997
100
AcDbArc
 50
212.1550619999999
 51
268.5768749999999
  0
ARC
  5
1A251
330
19FC2
100
AcDbEntity
  8
1
  6
Continuous
100
AcDbCircle
 10
388.799514
 20
246.9431279999998
 30
0.0
 40
7.223855999999997
100
AcDbArc
 50
271.423125
 51
327.844938
  0
ARC
  5
1A252
330
19FC2
100
AcDbEntity
  8
1
  6
Continuous
100
AcDbCircle
 10
470.2007889999999
 20
246.9431279999998
 30
0.0
 40
7.223855999999997
100
AcDbArc
 50
212.1550619999999
 51
268.5768749999999
  0
ARC
  5
1A253
330
19FC2
100
AcDbEntity
  8
1
  6
Continuous
100
AcDbCircle
 10
526.799499
 20
246.9431279999998
 30
0.0
 40
7.223855999999997
100
AcDbArc
 50
271.423125
 51
327.844938
  0
LINE
  5
1A254
330
19FC2
100
AcDbEntity
  8
1
  6
Continuous
100
AcDbLine
 10
459.5003089999998
 20
243.098502
 30
0.0
 11
537.5004619999998
 21
243.098502
 31
0.0
  0
LINE
  5
1A255
330
19FC2
100
AcDbEntity
  8
1
  6
Continuous
100
AcDbLine
 10
321.500156
 20
243.098502
 30
0.0
 11
399.5003089999999
 21
243.098502
 31
0.0
  0
ARC
  5
1A256
330
19FC2
100
AcDbEntity
  8
1
  6
Continuous
100
AcDbCircle
 10
79.88049499999998
 20
194.456576
 30
0.0
 40
11.63843399999999
100
AcDbArc
 50
346.5590029999999
 51
356.744749
  0
LINE
  5
1A257
330
19FC2
100
AcDbEntity
  8
4
  6
CENTER
100
AcDbLine
 10
195.500153
 20
368.9358829999998
 30
0.0
 11
195.500153
 21
281.058124
 31
0.0
  0
ARC
  5
1A258
330
19FC2
100
AcDbEntity
  8
1
  6
Continuous
100
AcDbCircle
 10
195.500153
 20
191.4985019999998
 30
0.0
 40
21.49999999999999
100
AcDbArc
 50
92.86623599999998
 51
343.22694
  0
ARC
  5
1A259
330
19FC2
100
AcDbEntity
  8
1
  6
Continuous
100
AcDbCircle
 10
525.500312
 20
191.4985019999998
 30
0.0
 40
21.49999999999999
100
AcDbArc
 50
196.7730599999999
 51
87.54432199999998
  0
CIRCLE
  5
1A25A
330
19FC2
100
AcDbEntity
  8
1
  6
Continuous
100
AcDbCircle
 10
222.5003609999999
 20
324.997003
 30
0.0
 40
28.35
  0
LINE
  5
1A25B
330
19FC2
100
AcDbEntity
  8
1
  6
Continuous
100
AcDbLine
 10
186.4301539999999
 20
230.173958
 30
0.0
 11
190.9531189999999
 21
230.173958
 31
0.0
  0
LINE
  5
1A25C
330
19FC2
100
AcDbEntity
  8
1
  6
Continuous
100
AcDbLine
 10
49.847311
 20
230.173958
 30
0.0
 11
78.15302800000002
 21
230.173958
 31
0.0
  0
LINE
  5
1A25D
330
19FC2
100
AcDbEntity
  8
1
  6
Continuous
100
AcDbLine
 10
82.30014999999999
 20
180.498502
 30
0.0
 11
79.70014999999998
 21
180.498502
 31
0.0
  0
LINE
  5
1A25E
330
19FC2
100
AcDbEntity
  8
1
  6
Continuous
100
AcDbLine
 10
48.30015
 20
180.498502
 30
0.0
 11
45.70015
 21
180.498502
 31
0.0
  0
LINE
  5
1A25F
330
19FC2
100
AcDbEntity
  8
1
  6
Continuous
100
AcDbLine
 10
378.8043549999999
 20
180.498502
 30
0.0
 11
376.200159
 21
180.498502
 31
0.0
  0
LINE
  5
1A260
330
19FC2
100
AcDbEntity
  8
1
  6
Continuous
100
AcDbLine
 10
344.800159
 20
180.498502
 30
0.0
 11
342.1959629999999
 21
180.498502
 31
0.0
  0
LINE
  5
1A261
330
19FC2
100
AcDbEntity
  8
1
  6
Continuous
100
AcDbLine
 10
534.5703109999998
 20
230.173958
 30
0.0
 11
530.0473459999998
 21
230.173958
 31
0.0
  0
ARC
  5
1A262
330
19FC2
100
AcDbEntity
  8
1
  6
Continuous
100
AcDbCircle
 10
234.209604
 20
67.71695099999999
 30
0.0
 40
43.12437599999999
100
AcDbArc
 50
115.569355
 51
133.164961
  0
ARC
  5
1A263
330
19FC2
100
AcDbEntity
  8
1
  6
Continuous
100
AcDbCircle
 10
234.8608989999999
 20
66.58743100000001
 30
0.0
 40
41.82449499999999
100
AcDbArc
 50
115.706352
 51
133.301958
  0
ARC
  5
1A264
330
19FC2
100
AcDbEntity
  8
1
  6
Continuous
100
AcDbCircle
 10
233.8044459999999
 20
92.100439
 30
0.0
 40
40.147421
100
AcDbArc
 50
226.513902
 51
244.751782
  0
ARC
  5
1A265
330
19FC2
100
AcDbEntity
  8
1
  6
Continuous
100
AcDbCircle
 10
234.209604
 20
92.280052
 30
0.0
 40
43.12437599999999
100
AcDbArc
 50
226.835039
 51
244.430645
  0
ARC
  5
1A266
330
19FC2
100
AcDbEntity
  8
1
  6
Continuous
100
AcDbCircle
 10
24.147175
 20
171.0066919999999
 30
0.0
 40
69.225691
100
AcDbArc
 50
36.63138699999999
 51
39.58225499999999
  0
ARC
  5
1A267
330
19FC2
100
AcDbEntity
  8
1
  6
Continuous
100
AcDbCircle
 10
103.853125
 20
171.0066919999999
 30
0.0
 40
69.225691
100
AcDbArc
 50
140.4177449999999
 51
143.3686129999999
  0
CIRCLE
  5
1A26D
330
19FC2
100
AcDbEntity
  8
1
  6
Continuous
100
AcDbCircle
 10
195.5001529999999
 20
191.4985019999999
 30
0.0
 40
6.0
  0
LINE
  5
1A26E
330
19FC2
100
AcDbEntity
  8
1
  6
Continuous
100
AcDbLine
 10
201.5001529999999
 20
194.962604
 30
0.0
 11
201.5001529999999
 21
188.0344
 31
0.0
  0
LINE
  5
1A26F
330
19FC2
100
AcDbEntity
  8
1
  6
Continuous
100
AcDbLine
 10
189.5001529999999
 20
194.962604
 30
0.0
 11
189.5001529999999
 21
188.0344
 31
0.0
  0
LINE
  5
1A270
330
19FC2
100
AcDbEntity
  8
1
  6
Continuous
100
AcDbLine
 10
195.5001529999999
 20
184.570299
 30
0.0
 11
201.5001529999999
 21
188.0344
 31
0.0
  0
LINE
  5
1A271
330
19FC2
100
AcDbEntity
  8
1
  6
Continuous
100
AcDbLine
 10
195.5001529999999
 20
184.570299
 30
0.0
 11
189.5001529999999
 21
188.0344
 31
0.0
  0
LINE
  5
1A272
330
19FC2
100
AcDbEntity
  8
1
  6
Continuous
100
AcDbLine
 10
201.5001529999999
 20
194.962604
 30
0.0
 11
195.5001529999999
 21
198.4267049999999
 31
0.0
  0
LINE
  5
1A273
330
19FC2
100
AcDbEntity
  8
1
  6
Continuous
100
AcDbLine
 10
189.5001529999999
 20
194.962604
 30
0.0
 11
195.5001529999999
 21
198.4267049999999
 31
0.0
  0
ENDSEC
  0
SECTION
  2
OBJECTS
  0
DICTIONARY
  5
19FB0
330
0
100
AcDbDictionary
281
     1
  3
ACAD_CIP_PREVIOUS_PRODUCT_INFO
350
1A2D4
  3
ACAD_COLOR
350
1A2B6
  3
ACAD_DETAILVIEWSTYLE
350
1A2CF
  3
ACAD_GROUP
350
19FB1
  3
ACAD_LAYOUT
350
19FBD
  3
ACAD_MATERIAL
350
1A284
  3
ACAD_MLEADERSTYLE
350
1A2CB
  3
ACAD_MLINESTYLE
350
19FBA
  3
ACAD_PLOTSETTINGS
350
19FBC
  3
ACAD_PLOTSTYLENAME
350
1A282
  3
ACAD_SCALELIST
350
1A2B9
  3
ACAD_SECTIONVIEWSTYLE
350
1A2CD
  3
ACAD_TABLESTYLE
350
1A2B7
  3
ACAD_VISUALSTYLE
350
1A29D
  3
ACDB_RECOMPOSE_DATA
350
1A2F2
  3
AcDbVariableDictionary
350
1A2E5
  3
DWGPROPS
350
1A2F3
  0
DICTIONARY
  5
1A2D5
330
19FB4
100
AcDbDictionary
280
     1
281
     1
  3
ADSK_XREC_LAYER_RECONCILED
360
1A2D6
  0
DICTIONARY
  5
1A2D7
330
19FCA
100
AcDbDictionary
280
     1
281
     1
  3
ADSK_XREC_LAYER_RECONCILED
360
1A2D8
  0
DICTIONARY
  5
1A2D9
330
19FCB
100
AcDbDictionary
280
     1
281
     1
  3
ADSK_XREC_LAYER_RECONCILED
360
1A2DA
  0
DICTIONARY
  5
1A2DB
330
19FCC
100
AcDbDictionary
280
     1
281
     1
  3
ADSK_XREC_LAYER_RECONCILED
360
1A2DC
  0
DICTIONARY
  5
1A2DD
330
19FCD
100
AcDbDictionary
280
     1
281
     1
  3
ADSK_XREC_LAYER_RECONCILED
360
1A2DE
  0
DICTIONARY
  5
1A2DF
330
19FCE
100
AcDbDictionary
280
     1
281
     1
  3
ADSK_XREC_LAYER_RECONCILED
360
1A2E0
  0
DICTIONARY
  5
1A2E1
330
19FCF
100
AcDbDictionary
280
     1
281
     1
  3
ADSK_XREC_LAYER_RECONCILED
360
1A2E2
  0
DICTIONARY
  5
1A2E3
330
19FD0
100
AcDbDictionary
280
     1
281
     1
  3
ADSK_XREC_LAYER_RECONCILED
360
1A2E4
  0
DICTIONARY
  5
1A27D
330
19FC2
100
AcDbDictionary
281
     1
  3
ACAD_LAYOUTSELFREF
350
1A27E
  0
DICTIONARY
  5
1A27B
330
19FBE
100
AcDbDictionary
281
     1
  3
ACAD_LAYOUTSELFREF
350
1A27C
  0
XRECORD
  5
1A2D4
102
{ACAD_REACTORS
330
19FB0
102
}
330
19FB0
100
AcDbXrecord
280
     1
300
ACDLT
300
2014
300
ACDLT_F_S
  0
DICTIONARY
  5
1A2B6
102
{ACAD_REACTORS
330
19FB0
102
}
330
19FB0
100
AcDbDictionary
281
     1
  0
DICTIONARY
  5
1A2CF
102
{ACAD_REACTORS
330
19FB0
102
}
330
19FB0
100
AcDbDictionary
281
     1
  3
Imperial24
350
1A2D0
  0
DICTIONARY
  5
19FB1
102
{ACAD_REACTORS
330
19FB0
102
}
330
19FB0
100
AcDbDictionary
281
     1
  0
DICTIONARY
  5
19FBD
102
{ACAD_REACTORS
330
19FB0
102
}
330
19FB0
100
AcDbDictionary
281
     1
  3
Model
350
1A2D1
  3
レイアウト1
350
1A2D2
  0
DICTIONARY
  5
1A284
102
{ACAD_REACTORS
330
19FB0
102
}
330
19FB0
100
AcDbDictionary
281
     1
  3
ByBlock
350
1A28D
  3
ByLayer
350
1A285
  3
Global
350
1A295
  0
DICTIONARY
  5
1A2CB
102
{ACAD_REACTORS
330
19FB0
102
}
330
19FB0
100
AcDbDictionary
281
     1
  3
Standard
350
1A2CC
  0
DICTIONARY
  5
19FBA
102
{ACAD_REACTORS
330
19FB0
102
}
330
19FB0
100
AcDbDictionary
281
     1
  3
STANDARD
350
19FBB
  0
DICTIONARY
  5
19FBC
102
{ACAD_REACTORS
330
19FB0
102
}
330
19FB0
100
AcDbDictionary
281
     1
  0
ACDBDICTIONARYWDFLT
  5
1A282
102
{ACAD_REACTORS
330
19FB0
102
}
330
19FB0
100
AcDbDictionary
281
     1
  3
Normal
350
1A283
100
AcDbDictionaryWithDefault
340
1A283
  0
DICTIONARY
  5
1A2B9
102
{ACAD_REACTORS
330
19FB0
102
}
330
19FB0
100
AcDbDictionary
281
     1
  3
A0
350
1A2BA
  3
A1
350
1A2BB
  3
A2
350
1A2BC
  3
A3
350
1A2BD
  3
A4
350
1A2BE
  3
A5
350
1A2BF
  3
A6
350
1A2C0
  3
A7
350
1A2C1
  3
A8
350
1A2C2
  3
A9
350
1A2C3
  3
B0
350
1A2C4
  3
B1
350
1A2C5
  3
B2
350
1A2C6
  3
B3
350
1A2C7
  3
B4
350
1A2C8
  3
B5
350
1A2C9
  3
B6
350
1A2CA
  0
DICTIONARY
  5
1A2CD
102
{ACAD_REACTORS
330
19FB0
102
}
330
19FB0
100
AcDbDictionary
281
     1
  3
Imperial24
350
1A2CE
  0
DICTIONARY
  5
1A2B7
102
{ACAD_REACTORS
330
19FB0
102
}
330
19FB0
100
AcDbDictionary
281
     1
  3
Standard
350
1A2B8
  0
DICTIONARY
  5
1A29D
102
{ACAD_REACTORS
330
19FB0
102
}
330
19FB0
100
AcDbDictionary
281
     1
  3
2dWireframe
350
1A2A3
  3
Basic
350
1A2A2
  3
Brighten
350
1A2A9
  3
ColorChange
350
1A2AD
  3
Conceptual
350
1A2A6
  3
Dim
350
1A2A8
  3
EdgeColorOff
350
1A2B5
  3
Facepattern
350
1A2AC
  3
Flat
350
1A29E
  3
FlatWithEdges
350
1A29F
  3
Gouraud
350
1A2A0
  3
GouraudWithEdges
350
1A2A1
  3
Hidden
350
1A2A5
  3
JitterOff
350
1A2B3
  3
Linepattern
350
1A2AB
  3
OverhangOff
350
1A2B4
  3
Realistic
350
1A2A7
  3
Shaded
350
1A2B2
  3
Shaded with edges
350
1A2B1
  3
Shades of Gray
350
1A2AE
  3
Sketchy
350
1A2AF
  3
Thicken
350
1A2AA
  3
Wireframe
350
1A2A4
  3
X-Ray
350
1A2B0
  0
XRECORD
  5
1A2F2
102
{ACAD_REACTORS
330
19FB0
102
}
330
19FB0
100
AcDbXrecord
280
     1
 90
        1
330
1A2B8
  0
DICTIONARY
  5
1A2E5
102
{ACAD_REACTORS
330
19FB0
102
}
330
19FB0
100
AcDbDictionary
281
     1
  3
CANNOSCALE
350
1A2EA
  3
CMLEADERSTYLE
350
1A2E7
  3
CTABLESTYLE
350
1A2E6
  3
CVIEWDETAILSTYLE
350
1A2E8
  3
CVIEWSECTIONSTYLE
350
1A2E9
  3
DIMASSOC
350
1A2ED
  3
INDEXCTL
350
1A2EC
  3
SORTENTS
350
1A2EB
  3
XCLIPFRAME
350
1A2EE
  0
XRECORD
  5
1A2F3
102
{ACAD_REACTORS
330
19FB0
102
}
330
19FB0
100
AcDbXrecord
280
     1
  1
DWGPROPS COOKIE
  2

  3

  4

  6

  7

  8
Yoshitsune
  9

300
=
301
=
302
=
303
=
304
=
305
=
306
=
307
=
308
=
309
=
 40
0.0003713888888889
 41
2451303.375654745
 42
2457192.686942696
  1

 90
        0
  0
XRECORD
  5
1A2D6
102
{ACAD_REACTORS
330
1A2D5
102
}
330
1A2D5
100
AcDbXrecord
280
     1
290
     1
  0
XRECORD
  5
1A2D8
102
{ACAD_REACTORS
330
1A2D7
102
}
330
1A2D7
100
AcDbXrecord
280
     1
290
     1
  0
XRECORD
  5
1A2DA
102
{ACAD_REACTORS
330
1A2D9
102
}
330
1A2D9
100
AcDbXrecord
280
     1
290
     1
  0
XRECORD
  5
1A2DC
102
{ACAD_REACTORS
330
1A2DB
102
}
330
1A2DB
100
AcDbXrecord
280
     1
290
     1
  0
XRECORD
  5
1A2DE
102
{ACAD_REACTORS
330
1A2DD
102
}
330
1A2DD
100
AcDbXrecord
280
     1
290
     1
  0
XRECORD
  5
1A2E0
102
{ACAD_REACTORS
330
1A2DF
102
}
330
1A2DF
100
AcDbXrecord
280
     1
290
     1
  0
XRECORD
  5
1A2E2
102
{ACAD_REACTORS
330
1A2E1
102
}
330
1A2E1
100
AcDbXrecord
280
     1
290
     1
  0
XRECORD
  5
1A2E4
102
{ACAD_REACTORS
330
1A2E3
102
}
330
1A2E3
100
AcDbXrecord
280
     1
290
     1
  0
XRECORD
  5
1A27E
102
{ACAD_REACTORS
330
1A27D
102
}
330
1A27D
100
AcDbXrecord
280
     1
340
19FC2
  0
XRECORD
  5
1A27C
102
{ACAD_REACTORS
330
1A27B
102
}
330
1A27B
100
AcDbXrecord
280
     1
340
19FBE
  0
ACDBDETAILVIEWSTYLE
  5
1A2D0
102
{ACAD_XDICTIONARY
360
1A32B
102
}
102
{ACAD_REACTORS
330
1A2CF
102
}
330
1A2CF
100
AcDbModelDocViewStyle
 70
     0
  3
Imperial24
290
     0
100
AcDbDetailViewStyle
 70
     0
 71
     0
 90
        3
 71
     1
340
19FB5
 40
0.24
340
0
 40
0.24
300

 40
0.36
280
     3
 71
     2
340
19FB9
 90
       25
 71
     3
340
19FB5
 40
0.24
 90
        1
 40
0.75
 90
        1
300
%<\AcVar ViewType \f "%tc1">% %<\AcVar ViewDetailId>%\PSCALE %<\AcVar ViewScale \f "%sn">%
 71
     4
340
19FB9
 90
       25
340
19FB9
 90
       25
280
     0
  0
LAYOUT
  5
1A2D1
102
{ACAD_XDICTIONARY
360
1A32D
102
}
102
{ACAD_REACTORS
330
19FBD
102
}
330
19FBD
100
AcDbPlotSettings
  1

  2
Canon LBP9100C
  4

  6

 40
0.0
 41
0.0
 42
0.0
 43
0.0
 44
0.0
 45
0.0
 46
0.0
 47
0.0
 48
0.0
 49
0.0
140
0.0
141
0.0
142
1.0
143
1.0
 70
  1712
 72
     0
 73
     0
 74
     0
  7

 75
     0
147
1.0
148
0.0
149
0.0
100
AcDbLayout
  1
Model
 70
     1
 71
     0
 10
0.0
 20
0.0
 11
12.0
 21
9.0
 12
0.0
 22
0.0
 32
0.0
 14
0.0
 24
0.0
 34
0.0
 15
0.0
 25
0.0
 35
0.0
146
0.0
 13
0.0
 23
0.0
 33
0.0
 16
1.0
 26
0.0
 36
0.0
 17
0.0
 27
1.0
 37
0.0
 76
     0
330
19FC2
331
1A27A
  0
LAYOUT
  5
1A2D2
102
{ACAD_XDICTIONARY
360
1A32F
102
}
102
{ACAD_REACTORS
330
19FBD
102
}
330
19FBD
100
AcDbPlotSettings
  1

  2
Canon LBP9100C
  4

  6

 40
0.0
 41
0.0
 42
0.0
 43
0.0
 44
0.0
 45
0.0
 46
0.0
 47
0.0
 48
0.0
 49
0.0
140
0.0
141
0.0
142
1.0
143
1.0
 70
   688
 72
     0
 73
     0
 74
     5
  7

 75
    16
147
1.0
148
0.0
149
0.0
100
AcDbLayout
  1
レイアウト1
 70
     0
 71
     1
 10
0.0
 20
0.0
 11
420.0
 21
297.0
 12
0.0
 22
0.0
 32
0.0
 14
1.000000000000000E+20
 24
1.000000000000000E+20
 34
1.000000000000000E+20
 15
-1.000000000000000E+20
 25
-1.000000000000000E+20
 35
-1.000000000000000E+20
146
0.0
 13
0.0
 23
0.0
 33
0.0
 16
1.0
 26
0.0
 36
0.0
 17
0.0
 27
1.0
 37
0.0
 76
     0
330
19FBE
  0
MATERIAL
  5
1A28D
102
{ACAD_XDICTIONARY
360
1A28E
102
}
102
{ACAD_REACTORS
330
1A284
102
}
330
1A284
100
AcDbMaterial
  1
ByBlock
 72
     0
 43
0.0208333333333333
 43
0.0
 43
0.0
 43
0.0
 43
0.0
 43
0.0208333333333333
 43
0.0
 43
0.0
 43
0.0
 43
0.0
 43
1.0
 43
0.0
 43
0.0
 43
0.0
 43
0.0
 43
1.0
 77
     0
 47
0.0208333333333333
 47
0.0
 47
0.0
 47
0.0
 47
0.0
 47
0.0208333333333333
 47
0.0
 47
0.0
 47
0.0
 47
0.0
 47
1.0
 47
0.0
 47
0.0
 47
0.0
 47
0.0
 47
1.0
171
     0
 49
0.0208333333333333
 49
0.0
 49
0.0
 49
0.0
 49
0.0
 49
0.0208333333333333
 49
0.0
 49
0.0
 49
0.0
 49
0.0
 49
1.0
 49
0.0
 49
0.0
 49
0.0
 49
0.0
 49
1.0
175
     0
142
0.0208333333333333
142
0.0
142
0.0
142
0.0
142
0.0
142
0.0208333333333333
142
0.0
142
0.0
142
0.0
142
0.0
142
1.0
142
0.0
142
0.0
142
0.0
142
0.0
142
1.0
179
     0
144
0.0208333333333333
144
0.0
144
0.0
144
0.0
144
0.0
144
0.0208333333333333
144
0.0
144
0.0
144
0.0
144
0.0
144
1.0
144
0.0
144
0.0
144
0.0
144
0.0
144
1.0
147
0.0208333333333333
147
0.0
147
0.0
147
0.0
147
0.0
147
0.0208333333333333
147
0.0
147
0.0
147
0.0
147
0.0
147
1.0
147
0.0
147
0.0
147
0.0
147
0.0
147
1.0
  0
MATERIAL
  5
1A285
102
{ACAD_XDICTIONARY
360
1A286
102
}
102
{ACAD_REACTORS
330
1A284
102
}
330
1A284
100
AcDbMaterial
  1
ByLayer
 72
     0
 43
0.0208333333333333
 43
0.0
 43
0.0
 43
0.0
 43
0.0
 43
0.0208333333333333
 43
0.0
 43
0.0
 43
0.0
 43
0.0
 43
1.0
 43
0.0
 43
0.0
 43
0.0
 43
0.0
 43
1.0
 77
     0
 47
0.0208333333333333
 47
0.0
 47
0.0
 47
0.0
 47
0.0
 47
0.0208333333333333
 47
0.0
 47
0.0
 47
0.0
 47
0.0
 47
1.0
 47
0.0
 47
0.0
 47
0.0
 47
0.0
 47
1.0
171
     0
 49
0.0208333333333333
 49
0.0
 49
0.0
 49
0.0
 49
0.0
 49
0.0208333333333333
 49
0.0
 49
0.0
 49
0.0
 49
0.0
 49
1.0
 49
0.0
 49
0.0
 49
0.0
 49
0.0
 49
1.0
175
     0
142
0.0208333333333333
142
0.0
142
0.0
142
0.0
142
0.0
142
0.0208333333333333
142
0.0
142
0.0
142
0.0
142
0.0
142
1.0
142
0.0
142
0.0
142
0.0
142
0.0
142
1.0
179
     0
144
0.0208333333333333
144
0.0
144
0.0
144
0.0
144
0.0
144
0.0208333333333333
144
0.0
144
0.0
144
0.0
144
0.0
144
1.0
144
0.0
144
0.0
144
0.0
144
0.0
144
1.0
147
0.0208333333333333
147
0.0
147
0.0
147
0.0
147
0.0
147
0.0208333333333333
147
0.0
147
0.0
147
0.0
147
0.0
147
1.0
147
0.0
147
0.0
147
0.0
147
0.0
147
1.0
  0
MATERIAL
  5
1A295
102
{ACAD_XDICTIONARY
360
1A296
102
}
102
{ACAD_REACTORS
330
1A284
102
}
330
1A284
100
AcDbMaterial
  1
Global
 72
     0
 43
0.0208333333333333
 43
0.0
 43
0.0
 43
0.0
 43
0.0
 43
0.0208333333333333
 43
0.0
 43
0.0
 43
0.0
 43
0.0
 43
1.0
 43
0.0
 43
0.0
 43
0.0
 43
0.0
 43
1.0
 77
     0
 47
0.0208333333333333
 47
0.0
 47
0.0
 47
0.0
 47
0.0
 47
0.0208333333333333
 47
0.0
 47
0.0
 47
0.0
 47
0.0
 47
1.0
 47
0.0
 47
0.0
 47
0.0
 47
0.0
 47
1.0
171
     0
 49
0.0208333333333333
 49
0.0
 49
0.0
 49
0.0
 49
0.0
 49
0.0208333333333333
 49
0.0
 49
0.0
 49
0.0
 49
0.0
 49
1.0
 49
0.0
 49
0.0
 49
0.0
 49
0.0
 49
1.0
175
     0
142
0.0208333333333333
142
0.0
142
0.0
142
0.0
142
0.0
142
0.0208333333333333
142
0.0
142
0.0
142
0.0
142
0.0
142
1.0
142
0.0
142
0.0
142
0.0
142
0.0
142
1.0
179
     0
144
0.0208333333333333
144
0.0
144
0.0
144
0.0
144
0.0
144
0.0208333333333333
144
0.0
144
0.0
144
0.0
144
0.0
144
1.0
144
0.0
144
0.0
144
0.0
144
0.0
144
1.0
147
0.0208333333333333
147
0.0
147
0.0
147
0.0
147
0.0
147
0.0208333333333333
147
0.0
147
0.0
147
0.0
147
0.0
147
1.0
147
0.0
147
0.0
147
0.0
147
0.0
147
1.0
  0
MLEADERSTYLE
  5
1A2CC
102
{ACAD_REACTORS
330
1A2CB
102
}
330
1A2CB
100
AcDbMLeaderStyle
170
     2
171
     1
172
     0
 90
        2
 40
0.0
 41
0.0
173
     1
 91
-1056964608
340
19FB7
 92
       -2
290
     1
 42
0.09
291
     1
 43
0.36
  3
Standard
 44
0.18
300

342
19FB5
174
     1
178
     6
175
     1
176
     0
 93
-1056964608
 45
0.18
292
     0
297
     0
 46
0.18
 94
-1056964608
 47
1.0
 49
1.0
140
1.0
293
     1
141
0.0
294
     1
177
     0
142
1.0
295
     0
296
     0
143
0.125
1001
ACAD_MLEADERVER
1070
     2
  0
MLINESTYLE
  5
19FBB
102
{ACAD_REACTORS
330
19FBA
102
}
330
19FBA
100
AcDbMlineStyle
  2
STANDARD
 70
     0
  3

 62
   256
 51
90.0
 52
90.0
 71
     2
 49
0.5
 62
   256
  6
BYLAYER
 49
-0.5
 62
   256
  6
BYLAYER
  0
ACDBPLACEHOLDER
  5
1A283
102
{ACAD_REACTORS
330
1A282
102
}
330
1A282
  0
SCALE
  5
1A2BA
102
{ACAD_REACTORS
330
1A2B9
102
}
330
1A2B9
100
AcDbScale
 70
     0
300
1:1
140
1.0
141
1.0
290
     1
  0
SCALE
  5
1A2BB
102
{ACAD_REACTORS
330
1A2B9
102
}
330
1A2B9
100
AcDbScale
 70
     0
300
1/128" = 1'-0"
140
0.0078125
141
12.0
290
     0
  0
SCALE
  5
1A2BC
102
{ACAD_REACTORS
330
1A2B9
102
}
330
1A2B9
100
AcDbScale
 70
     0
300
1/64" = 1'-0"
140
0.015625
141
12.0
290
     0
  0
SCALE
  5
1A2BD
102
{ACAD_REACTORS
330
1A2B9
102
}
330
1A2B9
100
AcDbScale
 70
     0
300
1/32" = 1'-0"
140
0.03125
141
12.0
290
     0
  0
SCALE
  5
1A2BE
102
{ACAD_REACTORS
330
1A2B9
102
}
330
1A2B9
100
AcDbScale
 70
     0
300
1/16" = 1'-0"
140
0.0625
141
12.0
290
     0
  0
SCALE
  5
1A2BF
102
{ACAD_REACTORS
330
1A2B9
102
}
330
1A2B9
100
AcDbScale
 70
     0
300
3/32" = 1'-0"
140
0.09375
141
12.0
290
     0
  0
SCALE
  5
1A2C0
102
{ACAD_REACTORS
330
1A2B9
102
}
330
1A2B9
100
AcDbScale
 70
     0
300
1/8" = 1'-0"
140
0.125
141
12.0
290
     0
  0
SCALE
  5
1A2C1
102
{ACAD_REACTORS
330
1A2B9
102
}
330
1A2B9
100
AcDbScale
 70
     0
300
3/16" = 1'-0"
140
0.1875
141
12.0
290
     0
  0
SCALE
  5
1A2C2
102
{ACAD_REACTORS
330
1A2B9
102
}
330
1A2B9
100
AcDbScale
 70
     0
300
1/4" = 1'-0"
140
0.25
141
12.0
290
     0
  0
SCALE
  5
1A2C3
102
{ACAD_REACTORS
330
1A2B9
102
}
330
1A2B9
100
AcDbScale
 70
     0
300
3/8" = 1'-0"
140
0.375
141
12.0
290
     0
  0
SCALE
  5
1A2C4
102
{ACAD_REACTORS
330
1A2B9
102
}
330
1A2B9
100
AcDbScale
 70
     0
300
1/2" = 1'-0"
140
0.5
141
12.0
290
     0
  0
SCALE
  5
1A2C5
102
{ACAD_REACTORS
330
1A2B9
102
}
330
1A2B9
100
AcDbScale
 70
     0
300
3/4" = 1'-0"
140
0.75
141
12.0
290
     0
  0
SCALE
  5
1A2C6
102
{ACAD_REACTORS
330
1A2B9
102
}
330
1A2B9
100
AcDbScale
 70
     0
300
1" = 1'-0"
140
1.0
141
12.0
290
     0
  0
SCALE
  5
1A2C7
102
{ACAD_REACTORS
330
1A2B9
102
}
330
1A2B9
100
AcDbScale
 70
     0
300
1-1/2" = 1'-0"
140
1.5
141
12.0
290
     0
  0
SCALE
  5
1A2C8
102
{ACAD_REACTORS
330
1A2B9
102
}
330
1A2B9
100
AcDbScale
 70
     0
300
3" = 1'-0"
140
3.0
141
12.0
290
     0
  0
SCALE
  5
1A2C9
102
{ACAD_REACTORS
330
1A2B9
102
}
330
1A2B9
100
AcDbScale
 70
     0
300
6" = 1'-0"
140
6.0
141
12.0
290
     0
  0
SCALE
  5
1A2CA
102
{ACAD_REACTORS
330
1A2B9
102
}
330
1A2B9
100
AcDbScale
 70
     0
300
1'-0" = 1'-0"
140
12.0
141
12.0
290
     0
  0
ACDBSECTIONVIEWSTYLE
  5
1A2CE
102
{ACAD_XDICTIONARY
360
1A329
102
}
102
{ACAD_REACTORS
330
1A2CD
102
}
330
1A2CD
100
AcDbModelDocViewStyle
 70
     0
  3
Imperial24
290
     0
100
AcDbSectionViewStyle
 70
     0
 71
     0
 90
       78
 71
     1
340
19FB5
 40
0.24
340
0
340
0
 40
0.24
300
I, O, Q, S, X, Z
 40
0.48
 90
        3
 40
0.18
 90
        1
 71
     2
340
19FB9
 90
       25
340
19FB9
 90
       50
 40
0.24
 40
0.0
 40
0.24
 71
     3
340
19FB5
 40
0.24
 90
        1
 40
0.75
 90
        1
300
%<\AcVar ViewType \f "%tc1">% %<\AcVar ViewSectionStartId>%-%<\AcVar ViewSectionEndId>%\PSCALE %<\AcVar ViewScale \f "%sn">%
 71
     4
300
ANSI31
 40
1.0
 90
        0
290
     0
290
     0
 90
        6
 40
0.0
 40
1.570796326794896
 40
0.2617993877991494
 40
1.308996938995747
 40
-0.2617993877991494
 40
1.832595714594046
  0
TABLESTYLE
  5
1A2B8
102
{ACAD_XDICTIONARY
360
1A2F0
102
}
102
{ACAD_REACTORS
330
1A2B7
102
}
330
1A2B7
100
AcDbTableStyle
  3
Standard
 70
     0
 71
     0
 40
0.06
 41
0.06
280
     0
281
     0
  7
STANDARD
140
0.18
170
     2
 62
     0
 63
     7
283
     0
274
    -2
284
     1
 64
     0
275
    -2
285
     1
 65
     0
276
    -2
286
     1
 66
     0
277
    -2
287
     1
 67
     0
278
    -2
288
     1
 68
     0
279
    -2
289
     1
 69
     0
  7
STANDARD
140
0.25
170
     5
 62
     0
 63
     7
283
     0
274
    -2
284
     1
 64
     0
275
    -2
285
     1
 65
     0
276
    -2
286
     1
 66
     0
277
    -2
287
     1
 67
     0
278
    -2
288
     1
 68
     0
279
    -2
289
     1
 69
     0
  7
STANDARD
140
0.18
170
     5
 62
     0
 63
     7
283
     0
274
    -2
284
     1
 64
     0
275
    -2
285
     1
 65
     0
276
    -2
286
     1
 66
     0
277
    -2
287
     1
 67
     0
278
    -2
288
     1
 68
     0
279
    -2
289
     1
 69
     0
  0
VISUALSTYLE
  5
1A2A3
102
{ACAD_XDICTIONARY
360
1A301
102
}
102
{ACAD_REACTORS
330
1A29D
102
}
330
1A29D
100
AcDbVisualStyle
  2
2dWireframe
 70
     4
 71
     0
 72
     2
 73
     0
 90
        0
 40
-0.6
 41
-30.0
 62
     5
 63
     7
 74
     1
 91
        4
 64
     7
 65
   257
 75
     1
175
     1
 42
1.0
 92
        0
 66
   257
 43
1.0
 76
     1
 77
     6
 78
     2
 67
     7
 79
     5
170
     0
171
     0
290
     0
174
     0
 93
        1
 44
0.0
173
     0
291
     0
 45
0.0
1001
ACAD
1000
AcDbSavedByObjectVersion
1070
     0
  0
VISUALSTYLE
  5
1A2A2
102
{ACAD_XDICTIONARY
360
1A2FF
102
}
102
{ACAD_REACTORS
330
1A29D
102
}
330
1A29D
100
AcDbVisualStyle
  2
Basic
 70
     7
 71
     1
 72
     0
 73
     1
 90
        0
 40
-0.6
 41
-30.0
 62
     5
 63
     7
 74
     0
 91
        4
 64
     7
 65
   257
 75
     1
175
     1
 42
1.0
 92
        8
 66
     7
 43
1.0
 76
     1
 77
     6
 78
     2
 67
     7
 79
     5
170
     0
171
     0
290
     0
174
     0
 93
        1
 44
0.0
173
     0
291
     1
 45
0.0
1001
ACAD
1000
AcDbSavedByObjectVersion
1070
     0
  0
VISUALSTYLE
  5
1A2A9
102
{ACAD_XDICTIONARY
360
1A30D
102
}
102
{ACAD_REACTORS
330
1A29D
102
}
330
1A29D
100
AcDbVisualStyle
  2
Brighten
 70
    12
 71
     2
 72
     2
 73
     0
 90
        0
 40
-0.6
 41
-30.0
 62
     5
 63
     7
 74
     1
 91
        4
 64
     7
 65
   257
 75
     1
175
     1
 42
1.0
 92
        8
 66
     7
 43
1.0
 76
     1
 77
     6
 78
     2
 67
     7
 79
     5
170
     0
171
     0
290
     0
174
     0
 93
        1
 44
50.0
173
     0
291
     1
 45
0.0
1001
ACAD
1000
AcDbSavedByObjectVersion
1070
     0
  0
VISUALSTYLE
  5
1A2AD
102
{ACAD_XDICTIONARY
360
1A315
102
}
102
{ACAD_REACTORS
330
1A29D
102
}
330
1A29D
100
AcDbVisualStyle
  2
ColorChange
 70
    16
 71
     2
 72
     2
 73
     3
 90
        0
 40
-0.6
 41
-30.0
 62
     5
 63
     8
 74
     1
 91
        4
 64
     7
 65
   257
 75
     1
175
     1
 42
1.0
 92
        8
 66
     8
 43
1.0
 76
     1
 77
     6
 78
     2
 67
     7
 79
     5
170
     0
171
     0
290
     0
174
     0
 93
        1
 44
0.0
173
     0
291
     1
 45
0.0
1001
ACAD
1000
AcDbSavedByObjectVersion
1070
     0
  0
VISUALSTYLE
  5
1A2A6
102
{ACAD_XDICTIONARY
360
1A307
102
}
102
{ACAD_REACTORS
330
1A29D
102
}
330
1A29D
100
AcDbVisualStyle
  2
Conceptual
 70
     9
 71
     3
 72
     2
 73
     0
 90
        0
 40
-0.6
 41
-30.0
 62
     5
 63
     7
 74
     2
 91
        2
 64
     7
 65
   257
 75
     1
175
     1
 42
179.0
 92
        8
 66
     7
 43
1.0
 76
     1
 77
     6
 78
     2
 67
     7
 79
     3
170
     0
171
     0
290
     0
174
     0
 93
        1
 44
0.0
173
     0
291
     0
 45
0.0
1001
ACAD
1000
AcDbSavedByObjectVersion
1070
     0
  0
VISUALSTYLE
  5
1A2A8
102
{ACAD_XDICTIONARY
360
1A30B
102
}
102
{ACAD_REACTORS
330
1A29D
102
}
330
1A29D
100
AcDbVisualStyle
  2
Dim
 70
    11
 71
     2
 72
     2
 73
     0
 90
        0
 40
-0.6
 41
-30.0
 62
     5
 63
     7
 74
     1
 91
        4
 64
     7
 65
   257
 75
     1
175
     1
 42
1.0
 92
        8
 66
     7
 43
1.0
 76
     1
 77
     6
 78
     2
 67
     7
 79
     5
170
     0
171
     0
290
     0
174
     0
 93
        1
 44
-50.0
173
     0
291
     1
 45
0.0
1001
ACAD
1000
AcDbSavedByObjectVersion
1070
     0
  0
VISUALSTYLE
  5
1A2B5
102
{ACAD_XDICTIONARY
360
1A325
102
}
102
{ACAD_REACTORS
330
1A29D
102
}
330
1A29D
100
AcDbVisualStyle
  2
EdgeColorOff
 70
    22
 71
     2
 72
     2
 73
     0
 90
        0
 40
-0.6
 41
-30.0
 62
     5
 63
     7
 74
     1
 91
        4
 64
     7
 65
   257
 75
     1
175
     1
 42
1.0
 92
        8
 66
     7
 43
1.0
 76
     1
 77
     6
 78
     2
 67
     7
 79
     5
170
     0
171
     0
290
     0
174
     0
 93
        1
 44
0.0
173
     0
291
     1
 45
0.0
1001
ACAD
1000
AcDbSavedByObjectVersion
1070
     0
  0
VISUALSTYLE
  5
1A2AC
102
{ACAD_XDICTIONARY
360
1A313
102
}
102
{ACAD_REACTORS
330
1A29D
102
}
330
1A29D
100
AcDbVisualStyle
  2
Facepattern
 70
    15
 71
     2
 72
     2
 73
     0
 90
        0
 40
-0.6
 41
-30.0
 62
     5
 63
     7
 74
     1
 91
        4
 64
     7
 65
   257
 75
     1
175
     1
 42
1.0
 92
        8
 66
     7
 43
1.0
 76
     1
 77
     6
 78
     2
 67
     7
 79
     5
170
     0
171
     0
290
     0
174
     0
 93
        1
 44
0.0
173
     0
291
     1
 45
0.0
1001
ACAD
1000
AcDbSavedByObjectVersion
1070
     0
  0
VISUALSTYLE
  5
1A29E
102
{ACAD_XDICTIONARY
360
1A2F7
102
}
102
{ACAD_REACTORS
330
1A29D
102
}
330
1A29D
100
AcDbVisualStyle
  2
Flat
 70
     0
 71
     2
 72
     1
 73
     1
 90
        2
 40
-0.6
 41
30.0
 62
     5
 63
     7
 74
     0
 91
        0
 64
     7
 65
   257
 75
     1
175
     1
 42
1.0
 92
        8
 66
     7
 43
1.0
 76
     1
 77
     6
 78
     2
 67
     7
 79
     5
170
     0
171
     0
290
     0
174
     0
 93
       13
 44
0.0
173
     0
291
     1
 45
0.0
1001
ACAD
1000
AcDbSavedByObjectVersion
1070
     0
  0
VISUALSTYLE
  5
1A29F
102
{ACAD_XDICTIONARY
360
1A2F9
102
}
102
{ACAD_REACTORS
330
1A29D
102
}
330
1A29D
100
AcDbVisualStyle
  2
FlatWithEdges
 70
     1
 71
     2
 72
     1
 73
     1
 90
        2
 40
-0.6
 41
30.0
 62
     5
 63
     7
 74
     1
 91
        0
 64
     7
 65
   257
 75
     1
175
     1
 42
1.0
 92
        0
 66
   257
 43
1.0
 76
     1
 77
     6
 78
     2
 67
     7
 79
     5
170
     0
171
     0
290
     0
174
     0
 93
       13
 44
0.0
173
     0
291
     1
 45
0.0
1001
ACAD
1000
AcDbSavedByObjectVersion
1070
     0
  0
VISUALSTYLE
  5
1A2A0
102
{ACAD_XDICTIONARY
360
1A2FB
102
}
102
{ACAD_REACTORS
330
1A29D
102
}
330
1A29D
100
AcDbVisualStyle
  2
Gouraud
 70
     2
 71
     2
 72
     2
 73
     1
 90
        2
 40
-0.6
 41
30.0
 62
     5
 63
     7
 74
     0
 91
        0
 64
     7
 65
   257
 75
     1
175
     1
 42
1.0
 92
        0
 66
     7
 43
1.0
 76
     1
 77
     6
 78
     2
 67
     7
 79
     5
170
     0
171
     0
290
     0
174
     0
 93
       13
 44
0.0
173
     0
291
     1
 45
0.0
1001
ACAD
1000
AcDbSavedByObjectVersion
1070
     0
  0
VISUALSTYLE
  5
1A2A1
102
{ACAD_XDICTIONARY
360
1A2FD
102
}
102
{ACAD_REACTORS
330
1A29D
102
}
330
1A29D
100
AcDbVisualStyle
  2
GouraudWithEdges
 70
     3
 71
     2
 72
     2
 73
     1
 90
        2
 40
-0.6
 41
30.0
 62
     5
 63
     7
 74
     1
 91
        0
 64
     7
 65
   257
 75
     1
175
     1
 42
1.0
 92
        0
 66
   257
 43
1.0
 76
     1
 77
     6
 78
     2
 67
     7
 79
     5
170
     0
171
     0
290
     0
174
     0
 93
       13
 44
0.0
173
     0
291
     1
 45
0.0
1001
ACAD
1000
AcDbSavedByObjectVersion
1070
     0
  0
VISUALSTYLE
  5
1A2A5
102
{ACAD_XDICTIONARY
360
1A305
102
}
102
{ACAD_REACTORS
330
1A29D
102
}
330
1A29D
100
AcDbVisualStyle
  2
Hidden
 70
     6
 71
     1
 72
     2
 73
     2
 90
        0
 40
-0.6
 41
-30.0
 62
     5
 63
     7
 74
     2
 91
        2
 64
     7
 65
   257
 75
     2
175
     1
 42
40.0
 92
        0
 66
   257
 43
1.0
 76
     1
 77
     6
 78
     2
 67
     7
 79
     3
170
     0
171
     0
290
     0
174
     0
 93
        1
 44
0.0
173
     0
291
     0
 45
0.0
1001
ACAD
1000
AcDbSavedByObjectVersion
1070
     0
  0
VISUALSTYLE
  5
1A2B3
102
{ACAD_XDICTIONARY
360
1A321
102
}
102
{ACAD_REACTORS
330
1A29D
102
}
330
1A29D
100
AcDbVisualStyle
  2
JitterOff
 70
    20
 71
     2
 72
     2
 73
     0
 90
        0
 40
-0.6
 41
-30.0
 62
     5
 63
     7
 74
     1
 91
        4
 64
     7
 65
   257
 75
     1
175
     1
 42
1.0
 92
       10
 66
     7
 43
1.0
 76
     1
 77
     6
 78
     2
 67
     7
 79
     5
170
     0
171
     0
290
     0
174
     0
 93
        1
 44
0.0
173
     0
291
     1
 45
0.0
1001
ACAD
1000
AcDbSavedByObjectVersion
1070
     0
  0
VISUALSTYLE
  5
1A2AB
102
{ACAD_XDICTIONARY
360
1A311
102
}
102
{ACAD_REACTORS
330
1A29D
102
}
330
1A29D
100
AcDbVisualStyle
  2
Linepattern
 70
    14
 71
     2
 72
     2
 73
     0
 90
        0
 40
-0.6
 41
-30.0
 62
     5
 63
     7
 74
     1
 91
        4
 64
     7
 65
   257
 75
     7
175
     7
 42
1.0
 92
        8
 66
     7
 43
1.0
 76
     1
 77
     6
 78
     2
 67
     7
 79
     5
170
     0
171
     0
290
     0
174
     0
 93
        1
 44
0.0
173
     0
291
     1
 45
0.0
1001
ACAD
1000
AcDbSavedByObjectVersion
1070
     0
  0
VISUALSTYLE
  5
1A2B4
102
{ACAD_XDICTIONARY
360
1A323
102
}
102
{ACAD_REACTORS
330
1A29D
102
}
330
1A29D
100
AcDbVisualStyle
  2
OverhangOff
 70
    21
 71
     2
 72
     2
 73
     0
 90
        0
 40
-0.6
 41
-30.0
 62
     5
 63
     7
 74
     1
 91
        4
 64
     7
 65
   257
 75
     1
175
     1
 42
1.0
 92
        9
 66
     7
 43
1.0
 76
     1
 77
     6
 78
     2
 67
     7
 79
     5
170
     0
171
     0
290
     0
174
     0
 93
        1
 44
0.0
173
     0
291
     1
 45
0.0
1001
ACAD
1000
AcDbSavedByObjectVersion
1070
     0
  0
VISUALSTYLE
  5
1A2A7
102
{ACAD_XDICTIONARY
360
1A309
102
}
102
{ACAD_REACTORS
330
1A29D
102
}
330
1A29D
100
AcDbVisualStyle
  2
Realistic
 70
     8
 71
     2
 72
     3
 73
     0
 90
        2
 40
-0.6
 41
30.0
 62
     5
 63
     7
 74
     0
 91
        0
 64
     7
 65
   257
 75
     1
175
     1
 42
1.0
 92
        8
 66
   257
 43
1.0
 76
     1
 77
     6
 78
     2
 67
     7
 79
     3
170
     0
171
     0
290
     0
174
     0
 93
       13
 44
0.0
173
     0
291
     0
 45
0.0
1001
ACAD
1000
AcDbSavedByObjectVersion
1070
     0
  0
VISUALSTYLE
  5
1A2B2
102
{ACAD_XDICTIONARY
360
1A31F
102
}
102
{ACAD_REACTORS
330
1A29D
102
}
330
1A29D
100
AcDbVisualStyle
  2
Shaded
 70
    27
 71
     2
 72
     2
 73
     1
 90
        2
 40
-0.6
 41
30.0
 62
     5
 63
     7
 74
     0
 91
        4
 64
     7
 65
   257
 75
     1
175
     1
 42
1.0
 92
        8
 66
   257
 43
1.0
 76
     1
 77
     6
 78
     2
 67
     8
 79
     3
170
     0
171
     0
290
     0
174
     0
 93
        5
 44
0.0
173
     0
291
     0
 45
0.0
1001
ACAD
1000
AcDbSavedByObjectVersion
1070
     0
  0
VISUALSTYLE
  5
1A2B1
102
{ACAD_XDICTIONARY
360
1A31D
102
}
102
{ACAD_REACTORS
330
1A29D
102
}
330
1A29D
100
AcDbVisualStyle
  2
Shaded with edges
 70
    26
 71
     2
 72
     2
 73
     1
 90
        2
 40
-0.6
 41
30.0
 62
     5
 63
     7
 74
     1
 91
       10
 64
     7
 65
   257
 75
     2
175
     1
 42
1.0
 92
        8
 66
   257
 43
1.0
 76
     1
 77
     6
 78
     2
 67
     7
 79
     3
170
     0
171
     0
290
     0
174
     0
 93
        5
 44
0.0
173
     0
291
     0
 45
0.0
1001
ACAD
1000
AcDbSavedByObjectVersion
1070
     0
  0
VISUALSTYLE
  5
1A2AE
102
{ACAD_XDICTIONARY
360
1A317
102
}
102
{ACAD_REACTORS
330
1A29D
102
}
330
1A29D
100
AcDbVisualStyle
  2
Shades of Gray
 70
    23
 71
     2
 72
     2
 73
     3
 90
        0
 40
-0.6
 41
-30.0
 62
     5
 63
     7
 74
     2
 91
        2
 64
     7
 65
     7
 75
     1
175
     1
 42
40.0
 92
        8
 66
     7
 43
1.0
 76
     1
 77
     6
 78
     2
 67
     7
 79
     3
170
     0
171
     0
290
     0
174
     0
 93
        1
 44
0.0
173
     0
291
     0
 45
0.0
1001
ACAD
1000
AcDbSavedByObjectVersion
1070
     0
  0
VISUALSTYLE
  5
1A2AF
102
{ACAD_XDICTIONARY
360
1A319
102
}
102
{ACAD_REACTORS
330
1A29D
102
}
330
1A29D
100
AcDbVisualStyle
  2
Sketchy
 70
    24
 71
     1
 72
     2
 73
     2
 90
        0
 40
-0.6
 41
-30.0
 62
     5
 63
     7
 74
     2
 91
        2
 64
     7
 65
     7
 75
     1
175
     1
 42
40.0
 92
       11
 66
     7
 43
1.0
 76
     1
 77
     6
 78
     2
 67
     7
 79
     6
170
     0
171
     0
290
     0
174
     0
 93
        1
 44
0.0
173
     0
291
     0
 45
0.0
1001
ACAD
1000
AcDbSavedByObjectVersion
1070
     0
  0
VISUALSTYLE
  5
1A2AA
102
{ACAD_XDICTIONARY
360
1A30F
102
}
102
{ACAD_REACTORS
330
1A29D
102
}
330
1A29D
100
AcDbVisualStyle
  2
Thicken
 70
    13
 71
     2
 72
     2
 73
     0
 90
        0
 40
-0.6
 41
-30.0
 62
     5
 63
     7
 74
     1
 91
        4
 64
     7
 65
   257
 75
     1
175
     1
 42
1.0
 92
       12
 66
     7
 43
1.0
 76
     1
 77
     6
 78
     2
 67
     7
 79
     5
170
     0
171
     0
290
     0
174
     0
 93
        1
 44
0.0
173
     0
291
     1
 45
0.0
1001
ACAD
1000
AcDbSavedByObjectVersion
1070
     0
  0
VISUALSTYLE
  5
1A2A4
102
{ACAD_XDICTIONARY
360
1A303
102
}
102
{ACAD_REACTORS
330
1A29D
102
}
330
1A29D
100
AcDbVisualStyle
  2
Wireframe
 70
     5
 71
     0
 72
     2
 73
     0
 90
        0
 40
-0.6
 41
-30.0
 62
     5
 63
     7
 74
     1
 91
        4
 64
     7
 65
   257
 75
     1
175
     1
 42
1.0
 92
        0
 66
   257
 43
1.0
 76
     1
 77
     6
 78
     2
 67
     7
 79
     3
170
     0
171
     0
290
     0
174
     0
 93
        1
 44
0.0
173
     0
291
     0
 45
0.0
1001
ACAD
1000
AcDbSavedByObjectVersion
1070
     0
  0
VISUALSTYLE
  5
1A2B0
102
{ACAD_XDICTIONARY
360
1A31B
102
}
102
{ACAD_REACTORS
330
1A29D
102
}
330
1A29D
100
AcDbVisualStyle
  2
X-Ray
 70
    25
 71
     2
 72
     2
 73
     1
 90
        1
 40
0.5
 41
-30.0
 62
     5
 63
     7
 74
     1
 91
        0
 64
     7
 65
   257
 75
     1
175
     1
 42
1.0
 92
        8
 66
     7
 43
1.0
 76
     1
 77
     6
 78
     2
 67
     7
 79
     3
170
     0
171
     0
290
     0
174
     0
 93
       13
 44
0.0
173
     0
291
     0
 45
0.0
1001
ACAD
1000
AcDbSavedByObjectVersion
1070
     0
  0
DICTIONARYVAR
  5
1A2EA
102
{ACAD_REACTORS
330
1A2E5
102
}
330
1A2E5
100
DictionaryVariables
280
     0
  1
1:1
  0
DICTIONARYVAR
  5
1A2E7
102
{ACAD_REACTORS
330
1A2E5
102
}
330
1A2E5
100
DictionaryVariables
280
     0
  1
STANDARD
  0
DICTIONARYVAR
  5
1A2E6
102
{ACAD_REACTORS
330
1A2E5
102
}
330
1A2E5
100
DictionaryVariables
280
     0
  1
STANDARD
  0
DICTIONARYVAR
  5
1A2E8
102
{ACAD_REACTORS
330
1A2E5
102
}
330
1A2E5
100
DictionaryVariables
280
     0
  1
Imperial24
  0
DICTIONARYVAR
  5
1A2E9
102
{ACAD_REACTORS
330
1A2E5
102
}
330
1A2E5
100
DictionaryVariables
280
     0
  1
Imperial24
  0
DICTIONARYVAR
  5
1A2ED
102
{ACAD_REACTORS
330
1A2E5
102
}
330
1A2E5
100
DictionaryVariables
280
     0
  1
1
  0
DICTIONARYVAR
  5
1A2EC
102
{ACAD_REACTORS
330
1A2E5
102
}
330
1A2E5
100
DictionaryVariables
280
     0
  1
0
  0
DICTIONARYVAR
  5
1A2EB
102
{ACAD_REACTORS
330
1A2E5
102
}
330
1A2E5
100
DictionaryVariables
280
     0
  1
127
  0
DICTIONARYVAR
  5
1A2EE
102
{ACAD_REACTORS
330
1A2E5
102
}
330
1A2E5
100
DictionaryVariables
280
     0
  1
2
  0
DICTIONARY
  5
1A32B
330
1A2D0
100
AcDbDictionary
280
     1
281
     1
  3
ACAD_XREC_ROUNDTRIP
360
1A32C
  0
DICTIONARY
  5
1A32D
330
1A2D1
100
AcDbDictionary
280
     1
281
     1
  3
ACAD_XREC_ROUNDTRIP
360
1A32E
  0
DICTIONARY
  5
1A32F
330
1A2D2
100
AcDbDictionary
280
     1
281
     1
  3
ACAD_XREC_ROUNDTRIP
360
1A330
  0
DICTIONARY
  5
1A28E
330
1A28D
100
AcDbDictionary
280
     1
281
     1
  3
ACAD_XREC_ROUNDTRIP
360
1A2F5
  3
BUMPTILE
360
1A290
  3
DIFFUSETILE
360
1A28F
  3
OPACITYTILE
360
1A293
  3
REFLECTIONTILE
360
1A292
  3
REFRACTIONTILE
360
1A294
  3
SPECULARTILE
360
1A291
  0
DICTIONARY
  5
1A286
330
1A285
100
AcDbDictionary
280
     1
281
     1
  3
ACAD_XREC_ROUNDTRIP
360
1A2F4
  3
BUMPTILE
360
1A288
  3
DIFFUSETILE
360
1A287
  3
OPACITYTILE
360
1A28B
  3
REFLECTIONTILE
360
1A28A
  3
REFRACTIONTILE
360
1A28C
  3
SPECULARTILE
360
1A289
  0
DICTIONARY
  5
1A296
330
1A295
100
AcDbDictionary
280
     1
281
     1
  3
ACAD_XREC_ROUNDTRIP
360
1A2F6
  3
BUMPTILE
360
1A298
  3
DIFFUSETILE
360
1A297
  3
OPACITYTILE
360
1A29B
  3
REFLECTIONTILE
360
1A29A
  3
REFRACTIONTILE
360
1A29C
  3
SPECULARTILE
360
1A299
  0
DICTIONARY
  5
1A329
330
1A2CE
100
AcDbDictionary
280
     1
281
     1
  3
ACAD_XREC_ROUNDTRIP
360
1A32A
  0
DICTIONARY
  5
1A2F0
330
1A2B8
100
AcDbDictionary
280
     1
281
     1
  3
ACAD_ROUNDTRIP_2008_TABLESTYLE_CELLSTYLEMAP
360
1A2F1
  3
ACAD_XREC_ROUNDTRIP
360
1A327
  0
DICTIONARY
  5
1A301
330
1A2A3
100
AcDbDictionary
280
     1
281
     1
  3
ACAD_XREC_ROUNDTRIP
360
1A302
  0
DICTIONARY
  5
1A2FF
330
1A2A2
100
AcDbDictionary
280
     1
281
     1
  3
ACAD_XREC_ROUNDTRIP
360
1A300
  0
DICTIONARY
  5
1A30D
330
1A2A9
100
AcDbDictionary
280
     1
281
     1
  3
ACAD_XREC_ROUNDTRIP
360
1A30E
  0
DICTIONARY
  5
1A315
330
1A2AD
100
AcDbDictionary
280
     1
281
     1
  3
ACAD_XREC_ROUNDTRIP
360
1A316
  0
DICTIONARY
  5
1A307
330
1A2A6
100
AcDbDictionary
280
     1
281
     1
  3
ACAD_XREC_ROUNDTRIP
360
1A308
  0
DICTIONARY
  5
1A30B
330
1A2A8
100
AcDbDictionary
280
     1
281
     1
  3
ACAD_XREC_ROUNDTRIP
360
1A30C
  0
DICTIONARY
  5
1A325
330
1A2B5
100
AcDbDictionary
280
     1
281
     1
  3
ACAD_XREC_ROUNDTRIP
360
1A326
  0
DICTIONARY
  5
1A313
330
1A2AC
100
AcDbDictionary
280
     1
281
     1
  3
ACAD_XREC_ROUNDTRIP
360
1A314
  0
DICTIONARY
  5
1A2F7
330
1A29E
100
AcDbDictionary
280
     1
281
     1
  3
ACAD_XREC_ROUNDTRIP
360
1A2F8
  0
DICTIONARY
  5
1A2F9
330
1A29F
100
AcDbDictionary
280
     1
281
     1
  3
ACAD_XREC_ROUNDTRIP
360
1A2FA
  0
DICTIONARY
  5
1A2FB
330
1A2A0
100
AcDbDictionary
280
     1
281
     1
  3
ACAD_XREC_ROUNDTRIP
360
1A2FC
  0
DICTIONARY
  5
1A2FD
330
1A2A1
100
AcDbDictionary
280
     1
281
     1
  3
ACAD_XREC_ROUNDTRIP
360
1A2FE
  0
DICTIONARY
  5
1A305
330
1A2A5
100
AcDbDictionary
280
     1
281
     1
  3
ACAD_XREC_ROUNDTRIP
360
1A306
  0
DICTIONARY
  5
1A321
330
1A2B3
100
AcDbDictionary
280
     1
281
     1
  3
ACAD_XREC_ROUNDTRIP
360
1A322
  0
DICTIONARY
  5
1A311
330
1A2AB
100
AcDbDictionary
280
     1
281
     1
  3
ACAD_XREC_ROUNDTRIP
360
1A312
  0
DICTIONARY
  5
1A323
330
1A2B4
100
AcDbDictionary
280
     1
281
     1
  3
ACAD_XREC_ROUNDTRIP
360
1A324
  0
DICTIONARY
  5
1A309
330
1A2A7
100
AcDbDictionary
280
     1
281
     1
  3
ACAD_XREC_ROUNDTRIP
360
1A30A
  0
DICTIONARY
  5
1A31F
330
1A2B2
100
AcDbDictionary
280
     1
281
     1
  3
ACAD_XREC_ROUNDTRIP
360
1A320
  0
DICTIONARY
  5
1A31D
330
1A2B1
100
AcDbDictionary
280
     1
281
     1
  3
ACAD_XREC_ROUNDTRIP
360
1A31E
  0
DICTIONARY
  5
1A317
330
1A2AE
100
AcDbDictionary
280
     1
281
     1
  3
ACAD_XREC_ROUNDTRIP
360
1A318
  0
DICTIONARY
  5
1A319
330
1A2AF
100
AcDbDictionary
280
     1
281
     1
  3
ACAD_XREC_ROUNDTRIP
360
1A31A
  0
DICTIONARY
  5
1A30F
330
1A2AA
100
AcDbDictionary
280
     1
281
     1
  3
ACAD_XREC_ROUNDTRIP
360
1A310
  0
DICTIONARY
  5
1A303
330
1A2A4
100
AcDbDictionary
280
     1
281
     1
  3
ACAD_XREC_ROUNDTRIP
360
1A304
  0
DICTIONARY
  5
1A31B
330
1A2B0
100
AcDbDictionary
280
     1
281
     1
  3
ACAD_XREC_ROUNDTRIP
360
1A31C
  0
XRECORD
  5
1A32C
102
{ACAD_REACTORS
330
1A32B
102
}
330
1A32B
100
AcDbXrecord
280
     1
102
DISPLAYNAME
  1
Imperial24
102
FLAGS
 90
        0
  0
XRECORD
  5
1A32E
102
{ACAD_REACTORS
330
1A32D
102
}
330
1A32D
100
AcDbXrecord
280
     1
102
SHADEPLOT
 70
     0
102
SHADEPLOTRESLEVEL
 70
     2
102
SHADEPLOTCUSTOMDPI
 70
   300
  0
XRECORD
  5
1A330
102
{ACAD_REACTORS
330
1A32F
102
}
330
1A32F
100
AcDbXrecord
280
     1
102
SHADEPLOT
 70
     0
102
SHADEPLOTRESLEVEL
 70
     2
102
SHADEPLOTCUSTOMDPI
 70
   300
  0
XRECORD
  5
1A2F5
102
{ACAD_REACTORS
330
1A28E
102
}
330
1A28E
100
AcDbXrecord
280
     1
102
MATERIAL
148
0.0
149
0.0
149
0.0
 93
        0
 94
      127
282
     0
 72
     0
 77
     0
171
     0
175
     0
179
     0
273
     0
  0
XRECORD
  5
1A290
102
{ACAD_REACTORS
330
1A28E
102
}
330
1A28E
100
AcDbXrecord
280
     1
270
     1
271
     1
  0
XRECORD
  5
1A28F
102
{ACAD_REACTORS
330
1A28E
102
}
330
1A28E
100
AcDbXrecord
280
     1
270
     1
271
     1
  0
XRECORD
  5
1A293
102
{ACAD_REACTORS
330
1A28E
102
}
330
1A28E
100
AcDbXrecord
280
     1
270
     1
271
     1
  0
XRECORD
  5
1A292
102
{ACAD_REACTORS
330
1A28E
102
}
330
1A28E
100
AcDbXrecord
280
     1
270
     1
271
     1
  0
XRECORD
  5
1A294
102
{ACAD_REACTORS
330
1A28E
102
}
330
1A28E
100
AcDbXrecord
280
     1
270
     1
271
     1
  0
XRECORD
  5
1A291
102
{ACAD_REACTORS
330
1A28E
102
}
330
1A28E
100
AcDbXrecord
280
     1
270
     1
271
     1
  0
XRECORD
  5
1A2F4
102
{ACAD_REACTORS
330
1A286
102
}
330
1A286
100
AcDbXrecord
280
     1
102
MATERIAL
148
0.0
149
0.0
149
0.0
 93
        0
 94
      127
282
     0
 72
     0
 77
     0
171
     0
175
     0
179
     0
273
     0
  0
XRECORD
  5
1A288
102
{ACAD_REACTORS
330
1A286
102
}
330
1A286
100
AcDbXrecord
280
     1
270
     1
271
     1
  0
XRECORD
  5
1A287
102
{ACAD_REACTORS
330
1A286
102
}
330
1A286
100
AcDbXrecord
280
     1
270
     1
271
     1
  0
XRECORD
  5
1A28B
102
{ACAD_REACTORS
330
1A286
102
}
330
1A286
100
AcDbXrecord
280
     1
270
     1
271
     1
  0
XRECORD
  5
1A28A
102
{ACAD_REACTORS
330
1A286
102
}
330
1A286
100
AcDbXrecord
280
     1
270
     1
271
     1
  0
XRECORD
  5
1A28C
102
{ACAD_REACTORS
330
1A286
102
}
330
1A286
100
AcDbXrecord
280
     1
270
     1
271
     1
  0
XRECORD
  5
1A289
102
{ACAD_REACTORS
330
1A286
102
}
330
1A286
100
AcDbXrecord
280
     1
270
     1
271
     1
  0
XRECORD
  5
1A2F6
102
{ACAD_REACTORS
330
1A296
102
}
330
1A296
100
AcDbXrecord
280
     1
102
MATERIAL
148
0.0
149
0.0
149
0.0
 93
        0
 94
      127
282
     0
 72
     0
 77
     0
171
     0
175
     0
179
     0
273
     0
  0
XRECORD
  5
1A298
102
{ACAD_REACTORS
330
1A296
102
}
330
1A296
100
AcDbXrecord
280
     1
270
     1
271
     1
  0
XRECORD
  5
1A297
102
{ACAD_REACTORS
330
1A296
102
}
330
1A296
100
AcDbXrecord
280
     1
270
     1
271
     1
  0
XRECORD
  5
1A29B
102
{ACAD_REACTORS
330
1A296
102
}
330
1A296
100
AcDbXrecord
280
     1
270
     1
271
     1
  0
XRECORD
  5
1A29A
102
{ACAD_REACTORS
330
1A296
102
}
330
1A296
100
AcDbXrecord
280
     1
270
     1
271
     1
  0
XRECORD
  5
1A29C
102
{ACAD_REACTORS
330
1A296
102
}
330
1A296
100
AcDbXrecord
280
     1
270
     1
271
     1
  0
XRECORD
  5
1A299
102
{ACAD_REACTORS
330
1A296
102
}
330
1A296
100
AcDbXrecord
280
     1
270
     1
271
     1
  0
XRECORD
  5
1A32A
102
{ACAD_REACTORS
330
1A329
102
}
330
1A329
100
AcDbXrecord
280
     1
102
DISPLAYNAME
  1
Imperial24
102
FLAGS
 90
        0
  0
CELLSTYLEMAP
  5
1A2F1
102
{ACAD_REACTORS
330
1A2F0
102
}
330
1A2F0
100
AcDbCellStyleMap
 90
        3
300
CELLSTYLE
  1
TABLEFORMAT_BEGIN
 90
        5
170
     1
 91
        0
 92
    32768
 62
   257
 93
        1
300
CONTENTFORMAT
  1
CONTENTFORMAT_BEGIN
 90
        0
 91
        0
 92
      512
 93
        0
300

 40
0.0
140
1.0
 94
        5
 62
     0
340
19FB5
144
0.25
309
CONTENTFORMAT_END
171
     0
 94
        0
309
TABLEFORMAT_END
  1
CELLSTYLE_BEGIN
 90
        1
 91
        1
300
_TITLE
309
CELLSTYLE_END
300
CELLSTYLE
  1
TABLEFORMAT_BEGIN
 90
        5
170
     1
 91
        0
 92
        0
 62
   257
 93
        1
300
CONTENTFORMAT
  1
CONTENTFORMAT_BEGIN
 90
        0
 91
        0
 92
      512
 93
        0
300

 40
0.0
140
1.0
 94
        5
 62
     0
340
19FB5
144
0.18
309
CONTENTFORMAT_END
171
     0
 94
        0
309
TABLEFORMAT_END
  1
CELLSTYLE_BEGIN
 90
        2
 91
        1
300
_HEADER
309
CELLSTYLE_END
300
CELLSTYLE
  1
TABLEFORMAT_BEGIN
 90
        5
170
     1
 91
        0
 92
        0
 62
   257
 93
        1
300
CONTENTFORMAT
  1
CONTENTFORMAT_BEGIN
 90
        0
 91
        0
 92
      512
 93
        0
300

 40
0.0
140
1.0
 94
        2
 62
     0
340
19FB5
144
0.18
309
CONTENTFORMAT_END
171
     0
 94
        0
309
TABLEFORMAT_END
  1
CELLSTYLE_BEGIN
 90
        3
 91
        2
300
_DATA
309
CELLSTYLE_END
  0
XRECORD
  5
1A327
102
{ACAD_REACTORS
330
1A2F0
102
}
330
1A2F0
100
AcDbXrecord
280
     1
102
ACAD_ROUNDTRIP_PRE2007_TABLESTYLE
 90
      512
 91
        0
  1

 92
      512
 93
        0
  2

 94
      512
 95
        0
  3

  0
XRECORD
  5
1A302
102
{ACAD_REACTORS
330
1A301
102
}
330
1A301
100
AcDbXrecord
280
     1
102
RTVSPost2010Prop28
280
     1
102
RTVSPost2010PropOp28
 70
     1
102
RTVSPost2010Prop29
280
     1
102
RTVSPost2010PropOp29
 70
     1
102
RTVSPost2010Prop30
280
     0
102
RTVSPost2010PropOp30
 70
     1
102
RTVSPost2010Prop31
280
     0
102
RTVSPost2010PropOp31
 70
     1
102
RTVSPost2010Prop32
280
     0
102
RTVSPost2010PropOp32
 70
     1
102
RTVSPost2010Prop33
280
     0
102
RTVSPost2010PropOp33
 70
     1
102
RTVSPost2010Prop34
280
     0
102
RTVSPost2010PropOp34
 70
     1
102
RTVSPost2010Prop35
280
     0
102
RTVSPost2010PropOp35
 70
     1
102
RTVSPost2010Prop36
280
     0
102
RTVSPost2010PropOp36
 70
     1
102
RTVSPost2010Prop37
 90
       50
102
RTVSPost2010PropOp37
 70
     1
102
RTVSPost2010Prop38
140
0.0
102
RTVSPost2010PropOp38
 70
     1
102
RTVSPost2010Prop39
140
1.0
102
RTVSPost2010PropOp39
 70
     1
102
RTVSPost2010Prop40
 90
        0
102
RTVSPost2010PropOp40
 70
     1
102
RTVSPost2010Prop41ColorIndex
 90
       18
102
RTVSPost2010Prop41ColorRGB
 90
        0
102
RTVSPost2010PropOp41
 70
     1
102
RTVSPost2010Prop42
 90
       50
102
RTVSPost2010PropOp42
 70
     1
102
RTVSPost2010Prop43
 90
        3
102
RTVSPost2010PropOp43
 70
     1
102
RTVSPost2010Prop44ColorIndex
 90
        5
102
RTVSPost2010Prop44ColorRGB
 90
      255
102
RTVSPost2010PropOp44
 70
     1
102
RTVSPost2010Prop45
280
     0
102
RTVSPost2010PropOp45
 70
     1
102
RTVSPost2010Prop46
 90
       50
102
RTVSPost2010PropOp46
 70
     1
102
RTVSPost2010Prop47
 90
       50
102
RTVSPost2010PropOp47
 70
     1
102
RTVSPost2010Prop48
 90
       50
102
RTVSPost2010PropOp48
 70
     1
102
RTVSPost2010Prop49
280
     0
102
RTVSPost2010PropOp49
 70
     1
102
RTVSPost2010Prop50
 90
       50
102
RTVSPost2010PropOp50
 70
     1
102
RTVSPost2010Prop51ColorIndex
 90
      256
102
RTVSPost2010Prop51ColorRGB
 90
-16777216
102
RTVSPost2010PropOp51
 70
     0
102
RTVSPost2010Prop52
140
1.0
102
RTVSPost2010PropOp52
 70
     0
102
RTVSPost2010Prop53
 90
        2
102
RTVSPost2010PropOp53
 70
     1
102
RTVSPost2010Prop54
  1
strokes_ogs.tif
102
RTVSPost2010PropOp54
 70
     1
102
RTVSPost2010Prop55
280
     0
102
RTVSPost2010PropOp55
 70
     1
102
RTVSPost2010Prop56
140
1.0
102
RTVSPost2010PropOp56
 70
     1
102
RTVSPost2010Prop57
140
1.0
102
RTVSPost2010PropOp57
 70
     1
102
RTVSPropertyOp0
 70
     1
102
RTVSPropertyOp1
 70
     1
102
RTVSPropertyOp2
 70
     1
102
RTVSPropertyOp3
 70
     1
102
RTVSPropertyOp4
 70
     1
102
RTVSPropertyOp5
 70
     1
102
RTVSPropertyOp6
 70
     1
102
RTVSPropertyOp7
 70
     1
102
RTVSPropertyOp8
 70
     1
102
RTVSPropertyOp9
 70
     1
102
RTVSPropertyOp10
 70
     1
102
RTVSPropertyOp11
 70
     1
102
RTVSPropertyOp12
 70
     1
102
RTVSPropertyOp13
 70
     1
102
RTVSPropertyOp14
 70
     1
102
RTVSPropertyOp15
 70
     1
102
RTVSPropertyOp16
 70
     1
102
RTVSPropertyOp17
 70
     1
102
RTVSPropertyOp18
 70
     1
102
RTVSPropertyOp19
 70
     1
102
RTVSPropertyOp20
 70
     1
102
RTVSPropertyOp21
 70
     1
102
RTVSPropertyOp22
 70
     1
102
RTVSPropertyOp23
 70
     1
102
RTVSPropertyOp24
 70
     1
102
RTVSPropertyOp25
 70
     1
102
RTVSPropertyOp26
 70
     1
102
RTVSPropertyOp27
 70
     1
102
RTVSPropertyOp28
 70
     1
102
RTVSPropertyOp29
 70
     1
102
RTVSPropertyOp30
 70
     1
102
RTVSPropertyOp31
 70
     1
102
RTVSPropertyOp32
 70
     1
102
RTVSPropertyOp33
 70
     1
102
RTVSPropertyOp34
 70
     1
102
RTVSPropertyOp35
 70
     1
102
RTVSPropertyOp36
 70
     1
102
RTVSPropertyOp37
 70
     1
102
RTVSPropertyOp38
 70
     1
102
RTVSPropertyOp39
 70
     1
102
RTVSPropertyOp40
 70
     1
102
RTVSPropertyOp41
 70
     1
102
RTVSPropertyOp42
 70
     1
102
RTVSPropertyOp43
 70
     1
102
RTVSPropertyOp44
 70
     1
102
RTVSPropertyOp45
 70
     1
102
RTVSPropertyOp46
 70
     1
102
RTVSPropertyOp47
 70
     1
102
RTVSPropertyOp48
 70
     1
102
RTVSPropertyOp49
 70
     1
102
RTVSPropertyOp50
 70
     1
102
RTVSPropertyOp51
 70
     0
102
RTVSPropertyOp52
 70
     0
102
RTVSPropertyOp53
 70
     1
102
RTVSPropertyOp54
 70
     1
102
RTVSPropertyOp55
 70
     1
102
RTVSPropertyOp56
 70
     1
102
RTVSPropertyOp57
 70
     1
102
RTVSPropertyOp58
 70
     1
102
RTVSPropertyOp59
 70
     1
102
RTVSPropertyOp60
 70
     1
102
RTVSPropertyOp61
 70
     1
102
RTVSPropertyOp62
 70
     1
  0
XRECORD
  5
1A300
102
{ACAD_REACTORS
330
1A2FF
102
}
330
1A2FF
100
AcDbXrecord
280
     1
102
RTVSPost2010Prop28
280
     0
102
RTVSPost2010PropOp28
 70
     1
102
RTVSPost2010Prop29
280
     1
102
RTVSPost2010PropOp29
 70
     1
102
RTVSPost2010Prop30
280
     1
102
RTVSPost2010PropOp30
 70
     1
102
RTVSPost2010Prop31
280
     0
102
RTVSPost2010PropOp31
 70
     1
102
RTVSPost2010Prop32
280
     0
102
RTVSPost2010PropOp32
 70
     1
102
RTVSPost2010Prop33
280
     0
102
RTVSPost2010PropOp33
 70
     1
102
RTVSPost2010Prop34
280
     0
102
RTVSPost2010PropOp34
 70
     1
102
RTVSPost2010Prop35
280
     0
102
RTVSPost2010PropOp35
 70
     1
102
RTVSPost2010Prop36
280
     0
102
RTVSPost2010PropOp36
 70
     1
102
RTVSPost2010Prop37
 90
       50
102
RTVSPost2010PropOp37
 70
     1
102
RTVSPost2010Prop38
140
0.0
102
RTVSPost2010PropOp38
 70
     1
102
RTVSPost2010Prop39
140
1.0
102
RTVSPost2010PropOp39
 70
     1
102
RTVSPost2010Prop40
 90
        0
102
RTVSPost2010PropOp40
 70
     1
102
RTVSPost2010Prop41ColorIndex
 90
       18
102
RTVSPost2010Prop41ColorRGB
 90
        0
102
RTVSPost2010PropOp41
 70
     1
102
RTVSPost2010Prop42
 90
       50
102
RTVSPost2010PropOp42
 70
     1
102
RTVSPost2010Prop43
 90
        3
102
RTVSPost2010PropOp43
 70
     1
102
RTVSPost2010Prop44ColorIndex
 90
        5
102
RTVSPost2010Prop44ColorRGB
 90
      255
102
RTVSPost2010PropOp44
 70
     1
102
RTVSPost2010Prop45
280
     0
102
RTVSPost2010PropOp45
 70
     1
102
RTVSPost2010Prop46
 90
       50
102
RTVSPost2010PropOp46
 70
     1
102
RTVSPost2010Prop47
 90
       50
102
RTVSPost2010PropOp47
 70
     1
102
RTVSPost2010Prop48
 90
       50
102
RTVSPost2010PropOp48
 70
     1
102
RTVSPost2010Prop49
280
     0
102
RTVSPost2010PropOp49
 70
     1
102
RTVSPost2010Prop50
 90
       50
102
RTVSPost2010PropOp50
 70
     1
102
RTVSPost2010Prop51ColorIndex
 90
      256
102
RTVSPost2010Prop51ColorRGB
 90
-16777216
102
RTVSPost2010PropOp51
 70
     0
102
RTVSPost2010Prop52
140
1.0
102
RTVSPost2010PropOp52
 70
     0
102
RTVSPost2010Prop53
 90
        2
102
RTVSPost2010PropOp53
 70
     1
102
RTVSPost2010Prop54
  1
strokes_ogs.tif
102
RTVSPost2010PropOp54
 70
     1
102
RTVSPost2010Prop55
280
     0
102
RTVSPost2010PropOp55
 70
     1
102
RTVSPost2010Prop56
140
1.0
102
RTVSPost2010PropOp56
 70
     1
102
RTVSPost2010Prop57
140
1.0
102
RTVSPost2010PropOp57
 70
     1
102
RTVSPropertyOp0
 70
     1
102
RTVSPropertyOp1
 70
     1
102
RTVSPropertyOp2
 70
     1
102
RTVSPropertyOp3
 70
     1
102
RTVSPropertyOp4
 70
     1
102
RTVSPropertyOp5
 70
     1
102
RTVSPropertyOp6
 70
     1
102
RTVSPropertyOp7
 70
     1
102
RTVSPropertyOp8
 70
     1
102
RTVSPropertyOp9
 70
     1
102
RTVSPropertyOp10
 70
     1
102
RTVSPropertyOp11
 70
     1
102
RTVSPropertyOp12
 70
     1
102
RTVSPropertyOp13
 70
     1
102
RTVSPropertyOp14
 70
     1
102
RTVSPropertyOp15
 70
     1
102
RTVSPropertyOp16
 70
     1
102
RTVSPropertyOp17
 70
     1
102
RTVSPropertyOp18
 70
     1
102
RTVSPropertyOp19
 70
     1
102
RTVSPropertyOp20
 70
     1
102
RTVSPropertyOp21
 70
     1
102
RTVSPropertyOp22
 70
     1
102
RTVSPropertyOp23
 70
     1
102
RTVSPropertyOp24
 70
     1
102
RTVSPropertyOp25
 70
     1
102
RTVSPropertyOp26
 70
     1
102
RTVSPropertyOp27
 70
     1
102
RTVSPropertyOp28
 70
     1
102
RTVSPropertyOp29
 70
     1
102
RTVSPropertyOp30
 70
     1
102
RTVSPropertyOp31
 70
     1
102
RTVSPropertyOp32
 70
     1
102
RTVSPropertyOp33
 70
     1
102
RTVSPropertyOp34
 70
     1
102
RTVSPropertyOp35
 70
     1
102
RTVSPropertyOp36
 70
     1
102
RTVSPropertyOp37
 70
     1
102
RTVSPropertyOp38
 70
     1
102
RTVSPropertyOp39
 70
     1
102
RTVSPropertyOp40
 70
     1
102
RTVSPropertyOp41
 70
     1
102
RTVSPropertyOp42
 70
     1
102
RTVSPropertyOp43
 70
     1
102
RTVSPropertyOp44
 70
     1
102
RTVSPropertyOp45
 70
     1
102
RTVSPropertyOp46
 70
     1
102
RTVSPropertyOp47
 70
     1
102
RTVSPropertyOp48
 70
     1
102
RTVSPropertyOp49
 70
     1
102
RTVSPropertyOp50
 70
     1
102
RTVSPropertyOp51
 70
     0
102
RTVSPropertyOp52
 70
     0
102
RTVSPropertyOp53
 70
     1
102
RTVSPropertyOp54
 70
     1
102
RTVSPropertyOp55
 70
     1
102
RTVSPropertyOp56
 70
     1
102
RTVSPropertyOp57
 70
     1
102
RTVSPropertyOp58
 70
     1
102
RTVSPropertyOp59
 70
     1
102
RTVSPropertyOp60
 70
     1
102
RTVSPropertyOp61
 70
     1
102
RTVSPropertyOp62
 70
     1
  0
XRECORD
  5
1A30E
102
{ACAD_REACTORS
330
1A30D
102
}
330
1A30D
100
AcDbXrecord
280
     1
102
RTVSPost2010Prop28
280
     0
102
RTVSPost2010PropOp28
 70
     1
102
RTVSPost2010Prop29
280
     1
102
RTVSPost2010PropOp29
 70
     1
102
RTVSPost2010Prop30
280
     1
102
RTVSPost2010PropOp30
 70
     1
102
RTVSPost2010Prop31
280
     0
102
RTVSPost2010PropOp31
 70
     1
102
RTVSPost2010Prop32
280
     0
102
RTVSPost2010PropOp32
 70
     1
102
RTVSPost2010Prop33
280
     0
102
RTVSPost2010PropOp33
 70
     1
102
RTVSPost2010Prop34
280
     0
102
RTVSPost2010PropOp34
 70
     1
102
RTVSPost2010Prop35
280
     0
102
RTVSPost2010PropOp35
 70
     1
102
RTVSPost2010Prop36
280
     0
102
RTVSPost2010PropOp36
 70
     1
102
RTVSPost2010Prop37
 90
       50
102
RTVSPost2010PropOp37
 70
     1
102
RTVSPost2010Prop38
140
0.0
102
RTVSPost2010PropOp38
 70
     1
102
RTVSPost2010Prop39
140
1.0
102
RTVSPost2010PropOp39
 70
     1
102
RTVSPost2010Prop40
 90
        0
102
RTVSPost2010PropOp40
 70
     1
102
RTVSPost2010Prop41ColorIndex
 90
       18
102
RTVSPost2010Prop41ColorRGB
 90
        0
102
RTVSPost2010PropOp41
 70
     1
102
RTVSPost2010Prop42
 90
       50
102
RTVSPost2010PropOp42
 70
     1
102
RTVSPost2010Prop43
 90
        3
102
RTVSPost2010PropOp43
 70
     1
102
RTVSPost2010Prop44ColorIndex
 90
        5
102
RTVSPost2010Prop44ColorRGB
 90
      255
102
RTVSPost2010PropOp44
 70
     1
102
RTVSPost2010Prop45
280
     0
102
RTVSPost2010PropOp45
 70
     1
102
RTVSPost2010Prop46
 90
       50
102
RTVSPost2010PropOp46
 70
     1
102
RTVSPost2010Prop47
 90
       50
102
RTVSPost2010PropOp47
 70
     1
102
RTVSPost2010Prop48
 90
       50
102
RTVSPost2010PropOp48
 70
     1
102
RTVSPost2010Prop49
280
     0
102
RTVSPost2010PropOp49
 70
     1
102
RTVSPost2010Prop50
 90
       50
102
RTVSPost2010PropOp50
 70
     1
102
RTVSPost2010Prop51ColorIndex
 90
      256
102
RTVSPost2010Prop51ColorRGB
 90
-16777216
102
RTVSPost2010PropOp51
 70
     0
102
RTVSPost2010Prop52
140
1.0
102
RTVSPost2010PropOp52
 70
     0
102
RTVSPost2010Prop53
 90
        2
102
RTVSPost2010PropOp53
 70
     1
102
RTVSPost2010Prop54
  1
strokes_ogs.tif
102
RTVSPost2010PropOp54
 70
     1
102
RTVSPost2010Prop55
280
     0
102
RTVSPost2010PropOp55
 70
     1
102
RTVSPost2010Prop56
140
1.0
102
RTVSPost2010PropOp56
 70
     1
102
RTVSPost2010Prop57
140
1.0
102
RTVSPost2010PropOp57
 70
     1
102
RTVSPropertyOp0
 70
     1
102
RTVSPropertyOp1
 70
     1
102
RTVSPropertyOp2
 70
     1
102
RTVSPropertyOp3
 70
     1
102
RTVSPropertyOp4
 70
     1
102
RTVSPropertyOp5
 70
     1
102
RTVSPropertyOp6
 70
     1
102
RTVSPropertyOp7
 70
     1
102
RTVSPropertyOp8
 70
     1
102
RTVSPropertyOp9
 70
     1
102
RTVSPropertyOp10
 70
     1
102
RTVSPropertyOp11
 70
     1
102
RTVSPropertyOp12
 70
     1
102
RTVSPropertyOp13
 70
     1
102
RTVSPropertyOp14
 70
     1
102
RTVSPropertyOp15
 70
     1
102
RTVSPropertyOp16
 70
     1
102
RTVSPropertyOp17
 70
     1
102
RTVSPropertyOp18
 70
     1
102
RTVSPropertyOp19
 70
     1
102
RTVSPropertyOp20
 70
     1
102
RTVSPropertyOp21
 70
     1
102
RTVSPropertyOp22
 70
     1
102
RTVSPropertyOp23
 70
     1
102
RTVSPropertyOp24
 70
     1
102
RTVSPropertyOp25
 70
     1
102
RTVSPropertyOp26
 70
     1
102
RTVSPropertyOp27
 70
     1
102
RTVSPropertyOp28
 70
     1
102
RTVSPropertyOp29
 70
     1
102
RTVSPropertyOp30
 70
     1
102
RTVSPropertyOp31
 70
     1
102
RTVSPropertyOp32
 70
     1
102
RTVSPropertyOp33
 70
     1
102
RTVSPropertyOp34
 70
     1
102
RTVSPropertyOp35
 70
     1
102
RTVSPropertyOp36
 70
     1
102
RTVSPropertyOp37
 70
     1
102
RTVSPropertyOp38
 70
     1
102
RTVSPropertyOp39
 70
     1
102
RTVSPropertyOp40
 70
     1
102
RTVSPropertyOp41
 70
     1
102
RTVSPropertyOp42
 70
     1
102
RTVSPropertyOp43
 70
     1
102
RTVSPropertyOp44
 70
     1
102
RTVSPropertyOp45
 70
     1
102
RTVSPropertyOp46
 70
     1
102
RTVSPropertyOp47
 70
     1
102
RTVSPropertyOp48
 70
     1
102
RTVSPropertyOp49
 70
     1
102
RTVSPropertyOp50
 70
     1
102
RTVSPropertyOp51
 70
     0
102
RTVSPropertyOp52
 70
     0
102
RTVSPropertyOp53
 70
     1
102
RTVSPropertyOp54
 70
     1
102
RTVSPropertyOp55
 70
     1
102
RTVSPropertyOp56
 70
     1
102
RTVSPropertyOp57
 70
     1
102
RTVSPropertyOp58
 70
     1
102
RTVSPropertyOp59
 70
     1
102
RTVSPropertyOp60
 70
     1
102
RTVSPropertyOp61
 70
     1
102
RTVSPropertyOp62
 70
     1
  0
XRECORD
  5
1A316
102
{ACAD_REACTORS
330
1A315
102
}
330
1A315
100
AcDbXrecord
280
     1
102
RTVSPost2010Prop28
280
     0
102
RTVSPost2010PropOp28
 70
     1
102
RTVSPost2010Prop29
280
     1
102
RTVSPost2010PropOp29
 70
     1
102
RTVSPost2010Prop30
280
     1
102
RTVSPost2010PropOp30
 70
     1
102
RTVSPost2010Prop31
280
     0
102
RTVSPost2010PropOp31
 70
     1
102
RTVSPost2010Prop32
280
     0
102
RTVSPost2010PropOp32
 70
     1
102
RTVSPost2010Prop33
280
     0
102
RTVSPost2010PropOp33
 70
     1
102
RTVSPost2010Prop34
280
     0
102
RTVSPost2010PropOp34
 70
     1
102
RTVSPost2010Prop35
280
     0
102
RTVSPost2010PropOp35
 70
     1
102
RTVSPost2010Prop36
280
     0
102
RTVSPost2010PropOp36
 70
     1
102
RTVSPost2010Prop37
 90
       50
102
RTVSPost2010PropOp37
 70
     1
102
RTVSPost2010Prop38
140
0.0
102
RTVSPost2010PropOp38
 70
     1
102
RTVSPost2010Prop39
140
1.0
102
RTVSPost2010PropOp39
 70
     1
102
RTVSPost2010Prop40
 90
        0
102
RTVSPost2010PropOp40
 70
     1
102
RTVSPost2010Prop41ColorIndex
 90
       18
102
RTVSPost2010Prop41ColorRGB
 90
        0
102
RTVSPost2010PropOp41
 70
     1
102
RTVSPost2010Prop42
 90
       50
102
RTVSPost2010PropOp42
 70
     1
102
RTVSPost2010Prop43
 90
        3
102
RTVSPost2010PropOp43
 70
     1
102
RTVSPost2010Prop44ColorIndex
 90
        5
102
RTVSPost2010Prop44ColorRGB
 90
      255
102
RTVSPost2010PropOp44
 70
     1
102
RTVSPost2010Prop45
280
     0
102
RTVSPost2010PropOp45
 70
     1
102
RTVSPost2010Prop46
 90
       50
102
RTVSPost2010PropOp46
 70
     1
102
RTVSPost2010Prop47
 90
       50
102
RTVSPost2010PropOp47
 70
     1
102
RTVSPost2010Prop48
 90
       50
102
RTVSPost2010PropOp48
 70
     1
102
RTVSPost2010Prop49
280
     0
102
RTVSPost2010PropOp49
 70
     1
102
RTVSPost2010Prop50
 90
       50
102
RTVSPost2010PropOp50
 70
     1
102
RTVSPost2010Prop51ColorIndex
 90
      256
102
RTVSPost2010Prop51ColorRGB
 90
-16777216
102
RTVSPost2010PropOp51
 70
     0
102
RTVSPost2010Prop52
140
1.0
102
RTVSPost2010PropOp52
 70
     0
102
RTVSPost2010Prop53
 90
        2
102
RTVSPost2010PropOp53
 70
     1
102
RTVSPost2010Prop54
  1
strokes_ogs.tif
102
RTVSPost2010PropOp54
 70
     1
102
RTVSPost2010Prop55
280
     0
102
RTVSPost2010PropOp55
 70
     1
102
RTVSPost2010Prop56
140
1.0
102
RTVSPost2010PropOp56
 70
     1
102
RTVSPost2010Prop57
140
1.0
102
RTVSPost2010PropOp57
 70
     1
102
RTVSPropertyOp0
 70
     1
102
RTVSPropertyOp1
 70
     1
102
RTVSPropertyOp2
 70
     1
102
RTVSPropertyOp3
 70
     1
102
RTVSPropertyOp4
 70
     1
102
RTVSPropertyOp5
 70
     1
102
RTVSPropertyOp6
 70
     1
102
RTVSPropertyOp7
 70
     1
102
RTVSPropertyOp8
 70
     1
102
RTVSPropertyOp9
 70
     1
102
RTVSPropertyOp10
 70
     1
102
RTVSPropertyOp11
 70
     1
102
RTVSPropertyOp12
 70
     1
102
RTVSPropertyOp13
 70
     1
102
RTVSPropertyOp14
 70
     1
102
RTVSPropertyOp15
 70
     1
102
RTVSPropertyOp16
 70
     1
102
RTVSPropertyOp17
 70
     1
102
RTVSPropertyOp18
 70
     1
102
RTVSPropertyOp19
 70
     1
102
RTVSPropertyOp20
 70
     1
102
RTVSPropertyOp21
 70
     1
102
RTVSPropertyOp22
 70
     1
102
RTVSPropertyOp23
 70
     1
102
RTVSPropertyOp24
 70
     1
102
RTVSPropertyOp25
 70
     1
102
RTVSPropertyOp26
 70
     1
102
RTVSPropertyOp27
 70
     1
102
RTVSPropertyOp28
 70
     1
102
RTVSPropertyOp29
 70
     1
102
RTVSPropertyOp30
 70
     1
102
RTVSPropertyOp31
 70
     1
102
RTVSPropertyOp32
 70
     1
102
RTVSPropertyOp33
 70
     1
102
RTVSPropertyOp34
 70
     1
102
RTVSPropertyOp35
 70
     1
102
RTVSPropertyOp36
 70
     1
102
RTVSPropertyOp37
 70
     1
102
RTVSPropertyOp38
 70
     1
102
RTVSPropertyOp39
 70
     1
102
RTVSPropertyOp40
 70
     1
102
RTVSPropertyOp41
 70
     1
102
RTVSPropertyOp42
 70
     1
102
RTVSPropertyOp43
 70
     1
102
RTVSPropertyOp44
 70
     1
102
RTVSPropertyOp45
 70
     1
102
RTVSPropertyOp46
 70
     1
102
RTVSPropertyOp47
 70
     1
102
RTVSPropertyOp48
 70
     1
102
RTVSPropertyOp49
 70
     1
102
RTVSPropertyOp50
 70
     1
102
RTVSPropertyOp51
 70
     0
102
RTVSPropertyOp52
 70
     0
102
RTVSPropertyOp53
 70
     1
102
RTVSPropertyOp54
 70
     1
102
RTVSPropertyOp55
 70
     1
102
RTVSPropertyOp56
 70
     1
102
RTVSPropertyOp57
 70
     1
102
RTVSPropertyOp58
 70
     1
102
RTVSPropertyOp59
 70
     1
102
RTVSPropertyOp60
 70
     1
102
RTVSPropertyOp61
 70
     1
102
RTVSPropertyOp62
 70
     1
  0
XRECORD
  5
1A308
102
{ACAD_REACTORS
330
1A307
102
}
330
1A307
100
AcDbXrecord
280
     1
102
RTVSPost2010Prop28
280
     0
102
RTVSPost2010PropOp28
 70
     1
102
RTVSPost2010Prop29
280
     1
102
RTVSPost2010PropOp29
 70
     1
102
RTVSPost2010Prop30
280
     1
102
RTVSPost2010PropOp30
 70
     1
102
RTVSPost2010Prop31
280
     0
102
RTVSPost2010PropOp31
 70
     1
102
RTVSPost2010Prop32
280
     0
102
RTVSPost2010PropOp32
 70
     1
102
RTVSPost2010Prop33
280
     0
102
RTVSPost2010PropOp33
 70
     1
102
RTVSPost2010Prop34
280
     0
102
RTVSPost2010PropOp34
 70
     1
102
RTVSPost2010Prop35
280
     0
102
RTVSPost2010PropOp35
 70
     1
102
RTVSPost2010Prop36
280
     0
102
RTVSPost2010PropOp36
 70
     1
102
RTVSPost2010Prop37
 90
       50
102
RTVSPost2010PropOp37
 70
     1
102
RTVSPost2010Prop38
140
0.0
102
RTVSPost2010PropOp38
 70
     1
102
RTVSPost2010Prop39
140
1.0
102
RTVSPost2010PropOp39
 70
     1
102
RTVSPost2010Prop40
 90
        0
102
RTVSPost2010PropOp40
 70
     1
102
RTVSPost2010Prop41ColorIndex
 90
       18
102
RTVSPost2010Prop41ColorRGB
 90
        0
102
RTVSPost2010PropOp41
 70
     1
102
RTVSPost2010Prop42
 90
       50
102
RTVSPost2010PropOp42
 70
     1
102
RTVSPost2010Prop43
 90
        3
102
RTVSPost2010PropOp43
 70
     1
102
RTVSPost2010Prop44ColorIndex
 90
        5
102
RTVSPost2010Prop44ColorRGB
 90
      255
102
RTVSPost2010PropOp44
 70
     1
102
RTVSPost2010Prop45
280
     0
102
RTVSPost2010PropOp45
 70
     1
102
RTVSPost2010Prop46
 90
       50
102
RTVSPost2010PropOp46
 70
     1
102
RTVSPost2010Prop47
 90
       50
102
RTVSPost2010PropOp47
 70
     1
102
RTVSPost2010Prop48
 90
       50
102
RTVSPost2010PropOp48
 70
     1
102
RTVSPost2010Prop49
280
     0
102
RTVSPost2010PropOp49
 70
     1
102
RTVSPost2010Prop50
 90
       50
102
RTVSPost2010PropOp50
 70
     1
102
RTVSPost2010Prop51ColorIndex
 90
      256
102
RTVSPost2010Prop51ColorRGB
 90
-16777216
102
RTVSPost2010PropOp51
 70
     0
102
RTVSPost2010Prop52
140
1.0
102
RTVSPost2010PropOp52
 70
     0
102
RTVSPost2010Prop53
 90
        2
102
RTVSPost2010PropOp53
 70
     1
102
RTVSPost2010Prop54
  1
strokes_ogs.tif
102
RTVSPost2010PropOp54
 70
     1
102
RTVSPost2010Prop55
280
     0
102
RTVSPost2010PropOp55
 70
     1
102
RTVSPost2010Prop56
140
1.0
102
RTVSPost2010PropOp56
 70
     1
102
RTVSPost2010Prop57
140
1.0
102
RTVSPost2010PropOp57
 70
     1
102
RTVSPropertyOp0
 70
     1
102
RTVSPropertyOp1
 70
     1
102
RTVSPropertyOp2
 70
     1
102
RTVSPropertyOp3
 70
     1
102
RTVSPropertyOp4
 70
     1
102
RTVSPropertyOp5
 70
     1
102
RTVSPropertyOp6
 70
     1
102
RTVSPropertyOp7
 70
     1
102
RTVSPropertyOp8
 70
     1
102
RTVSPropertyOp9
 70
     1
102
RTVSPropertyOp10
 70
     1
102
RTVSPropertyOp11
 70
     1
102
RTVSPropertyOp12
 70
     1
102
RTVSPropertyOp13
 70
     1
102
RTVSPropertyOp14
 70
     1
102
RTVSPropertyOp15
 70
     1
102
RTVSPropertyOp16
 70
     1
102
RTVSPropertyOp17
 70
     1
102
RTVSPropertyOp18
 70
     1
102
RTVSPropertyOp19
 70
     1
102
RTVSPropertyOp20
 70
     1
102
RTVSPropertyOp21
 70
     1
102
RTVSPropertyOp22
 70
     1
102
RTVSPropertyOp23
 70
     1
102
RTVSPropertyOp24
 70
     1
102
RTVSPropertyOp25
 70
     1
102
RTVSPropertyOp26
 70
     1
102
RTVSPropertyOp27
 70
     1
102
RTVSPropertyOp28
 70
     1
102
RTVSPropertyOp29
 70
     1
102
RTVSPropertyOp30
 70
     1
102
RTVSPropertyOp31
 70
     1
102
RTVSPropertyOp32
 70
     1
102
RTVSPropertyOp33
 70
     1
102
RTVSPropertyOp34
 70
     1
102
RTVSPropertyOp35
 70
     1
102
RTVSPropertyOp36
 70
     1
102
RTVSPropertyOp37
 70
     1
102
RTVSPropertyOp38
 70
     1
102
RTVSPropertyOp39
 70
     1
102
RTVSPropertyOp40
 70
     1
102
RTVSPropertyOp41
 70
     1
102
RTVSPropertyOp42
 70
     1
102
RTVSPropertyOp43
 70
     1
102
RTVSPropertyOp44
 70
     1
102
RTVSPropertyOp45
 70
     1
102
RTVSPropertyOp46
 70
     1
102
RTVSPropertyOp47
 70
     1
102
RTVSPropertyOp48
 70
     1
102
RTVSPropertyOp49
 70
     1
102
RTVSPropertyOp50
 70
     1
102
RTVSPropertyOp51
 70
     0
102
RTVSPropertyOp52
 70
     0
102
RTVSPropertyOp53
 70
     1
102
RTVSPropertyOp54
 70
     1
102
RTVSPropertyOp55
 70
     1
102
RTVSPropertyOp56
 70
     1
102
RTVSPropertyOp57
 70
     1
102
RTVSPropertyOp58
 70
     1
102
RTVSPropertyOp59
 70
     1
102
RTVSPropertyOp60
 70
     1
102
RTVSPropertyOp61
 70
     1
102
RTVSPropertyOp62
 70
     1
  0
XRECORD
  5
1A30C
102
{ACAD_REACTORS
330
1A30B
102
}
330
1A30B
100
AcDbXrecord
280
     1
102
RTVSPost2010Prop28
280
     0
102
RTVSPost2010PropOp28
 70
     1
102
RTVSPost2010Prop29
280
     1
102
RTVSPost2010PropOp29
 70
     1
102
RTVSPost2010Prop30
280
     1
102
RTVSPost2010PropOp30
 70
     1
102
RTVSPost2010Prop31
280
     0
102
RTVSPost2010PropOp31
 70
     1
102
RTVSPost2010Prop32
280
     0
102
RTVSPost2010PropOp32
 70
     1
102
RTVSPost2010Prop33
280
     0
102
RTVSPost2010PropOp33
 70
     1
102
RTVSPost2010Prop34
280
     0
102
RTVSPost2010PropOp34
 70
     1
102
RTVSPost2010Prop35
280
     0
102
RTVSPost2010PropOp35
 70
     1
102
RTVSPost2010Prop36
280
     0
102
RTVSPost2010PropOp36
 70
     1
102
RTVSPost2010Prop37
 90
       50
102
RTVSPost2010PropOp37
 70
     1
102
RTVSPost2010Prop38
140
0.0
102
RTVSPost2010PropOp38
 70
     1
102
RTVSPost2010Prop39
140
1.0
102
RTVSPost2010PropOp39
 70
     1
102
RTVSPost2010Prop40
 90
        0
102
RTVSPost2010PropOp40
 70
     1
102
RTVSPost2010Prop41ColorIndex
 90
       18
102
RTVSPost2010Prop41ColorRGB
 90
        0
102
RTVSPost2010PropOp41
 70
     1
102
RTVSPost2010Prop42
 90
       50
102
RTVSPost2010PropOp42
 70
     1
102
RTVSPost2010Prop43
 90
        3
102
RTVSPost2010PropOp43
 70
     1
102
RTVSPost2010Prop44ColorIndex
 90
        5
102
RTVSPost2010Prop44ColorRGB
 90
      255
102
RTVSPost2010PropOp44
 70
     1
102
RTVSPost2010Prop45
280
     0
102
RTVSPost2010PropOp45
 70
     1
102
RTVSPost2010Prop46
 90
       50
102
RTVSPost2010PropOp46
 70
     1
102
RTVSPost2010Prop47
 90
       50
102
RTVSPost2010PropOp47
 70
     1
102
RTVSPost2010Prop48
 90
       50
102
RTVSPost2010PropOp48
 70
     1
102
RTVSPost2010Prop49
280
     0
102
RTVSPost2010PropOp49
 70
     1
102
RTVSPost2010Prop50
 90
       50
102
RTVSPost2010PropOp50
 70
     1
102
RTVSPost2010Prop51ColorIndex
 90
      256
102
RTVSPost2010Prop51ColorRGB
 90
-16777216
102
RTVSPost2010PropOp51
 70
     0
102
RTVSPost2010Prop52
140
1.0
102
RTVSPost2010PropOp52
 70
     0
102
RTVSPost2010Prop53
 90
        2
102
RTVSPost2010PropOp53
 70
     1
102
RTVSPost2010Prop54
  1
strokes_ogs.tif
102
RTVSPost2010PropOp54
 70
     1
102
RTVSPost2010Prop55
280
     0
102
RTVSPost2010PropOp55
 70
     1
102
RTVSPost2010Prop56
140
1.0
102
RTVSPost2010PropOp56
 70
     1
102
RTVSPost2010Prop57
140
1.0
102
RTVSPost2010PropOp57
 70
     1
102
RTVSPropertyOp0
 70
     1
102
RTVSPropertyOp1
 70
     1
102
RTVSPropertyOp2
 70
     1
102
RTVSPropertyOp3
 70
     1
102
RTVSPropertyOp4
 70
     1
102
RTVSPropertyOp5
 70
     1
102
RTVSPropertyOp6
 70
     1
102
RTVSPropertyOp7
 70
     1
102
RTVSPropertyOp8
 70
     1
102
RTVSPropertyOp9
 70
     1
102
RTVSPropertyOp10
 70
     1
102
RTVSPropertyOp11
 70
     1
102
RTVSPropertyOp12
 70
     1
102
RTVSPropertyOp13
 70
     1
102
RTVSPropertyOp14
 70
     1
102
RTVSPropertyOp15
 70
     1
102
RTVSPropertyOp16
 70
     1
102
RTVSPropertyOp17
 70
     1
102
RTVSPropertyOp18
 70
     1
102
RTVSPropertyOp19
 70
     1
102
RTVSPropertyOp20
 70
     1
102
RTVSPropertyOp21
 70
     1
102
RTVSPropertyOp22
 70
     1
102
RTVSPropertyOp23
 70
     1
102
RTVSPropertyOp24
 70
     1
102
RTVSPropertyOp25
 70
     1
102
RTVSPropertyOp26
 70
     1
102
RTVSPropertyOp27
 70
     1
102
RTVSPropertyOp28
 70
     1
102
RTVSPropertyOp29
 70
     1
102
RTVSPropertyOp30
 70
     1
102
RTVSPropertyOp31
 70
     1
102
RTVSPropertyOp32
 70
     1
102
RTVSPropertyOp33
 70
     1
102
RTVSPropertyOp34
 70
     1
102
RTVSPropertyOp35
 70
     1
102
RTVSPropertyOp36
 70
     1
102
RTVSPropertyOp37
 70
     1
102
RTVSPropertyOp38
 70
     1
102
RTVSPropertyOp39
 70
     1
102
RTVSPropertyOp40
 70
     1
102
RTVSPropertyOp41
 70
     1
102
RTVSPropertyOp42
 70
     1
102
RTVSPropertyOp43
 70
     1
102
RTVSPropertyOp44
 70
     1
102
RTVSPropertyOp45
 70
     1
102
RTVSPropertyOp46
 70
     1
102
RTVSPropertyOp47
 70
     1
102
RTVSPropertyOp48
 70
     1
102
RTVSPropertyOp49
 70
     1
102
RTVSPropertyOp50
 70
     1
102
RTVSPropertyOp51
 70
     0
102
RTVSPropertyOp52
 70
     0
102
RTVSPropertyOp53
 70
     1
102
RTVSPropertyOp54
 70
     1
102
RTVSPropertyOp55
 70
     1
102
RTVSPropertyOp56
 70
     1
102
RTVSPropertyOp57
 70
     1
102
RTVSPropertyOp58
 70
     1
102
RTVSPropertyOp59
 70
     1
102
RTVSPropertyOp60
 70
     1
102
RTVSPropertyOp61
 70
     1
102
RTVSPropertyOp62
 70
     1
  0
XRECORD
  5
1A326
102
{ACAD_REACTORS
330
1A325
102
}
330
1A325
100
AcDbXrecord
280
     1
102
RTVSPost2010Prop28
280
     0
102
RTVSPost2010PropOp28
 70
     1
102
RTVSPost2010Prop29
280
     1
102
RTVSPost2010PropOp29
 70
     1
102
RTVSPost2010Prop30
280
     1
102
RTVSPost2010PropOp30
 70
     1
102
RTVSPost2010Prop31
280
     0
102
RTVSPost2010PropOp31
 70
     1
102
RTVSPost2010Prop32
280
     0
102
RTVSPost2010PropOp32
 70
     1
102
RTVSPost2010Prop33
280
     0
102
RTVSPost2010PropOp33
 70
     1
102
RTVSPost2010Prop34
280
     0
102
RTVSPost2010PropOp34
 70
     1
102
RTVSPost2010Prop35
280
     0
102
RTVSPost2010PropOp35
 70
     1
102
RTVSPost2010Prop36
280
     0
102
RTVSPost2010PropOp36
 70
     1
102
RTVSPost2010Prop37
 90
       50
102
RTVSPost2010PropOp37
 70
     0
102
RTVSPost2010Prop38
140
0.0
102
RTVSPost2010PropOp38
 70
     0
102
RTVSPost2010Prop39
140
1.0
102
RTVSPost2010PropOp39
 70
     0
102
RTVSPost2010Prop40
 90
        0
102
RTVSPost2010PropOp40
 70
     0
102
RTVSPost2010Prop41ColorIndex
 90
       18
102
RTVSPost2010Prop41ColorRGB
 90
        0
102
RTVSPost2010PropOp41
 70
     0
102
RTVSPost2010Prop42
 90
       50
102
RTVSPost2010PropOp42
 70
     0
102
RTVSPost2010Prop43
 90
        3
102
RTVSPost2010PropOp43
 70
     0
102
RTVSPost2010Prop44ColorIndex
 90
        5
102
RTVSPost2010Prop44ColorRGB
 90
      255
102
RTVSPost2010PropOp44
 70
     0
102
RTVSPost2010Prop45
280
     0
102
RTVSPost2010PropOp45
 70
     1
102
RTVSPost2010Prop46
 90
       50
102
RTVSPost2010PropOp46
 70
     0
102
RTVSPost2010Prop47
 90
       50
102
RTVSPost2010PropOp47
 70
     0
102
RTVSPost2010Prop48
 90
       50
102
RTVSPost2010PropOp48
 70
     0
102
RTVSPost2010Prop49
280
     0
102
RTVSPost2010PropOp49
 70
     1
102
RTVSPost2010Prop50
 90
       50
102
RTVSPost2010PropOp50
 70
     0
102
RTVSPost2010Prop51ColorIndex
 90
      256
102
RTVSPost2010Prop51ColorRGB
 90
-16777216
102
RTVSPost2010PropOp51
 70
     0
102
RTVSPost2010Prop52
140
1.0
102
RTVSPost2010PropOp52
 70
     0
102
RTVSPost2010Prop53
 90
        2
102
RTVSPost2010PropOp53
 70
     0
102
RTVSPost2010Prop54
  1
strokes_ogs.tif
102
RTVSPost2010PropOp54
 70
     0
102
RTVSPost2010Prop55
280
     0
102
RTVSPost2010PropOp55
 70
     1
102
RTVSPost2010Prop56
140
1.0
102
RTVSPost2010PropOp56
 70
     0
102
RTVSPost2010Prop57
140
1.0
102
RTVSPost2010PropOp57
 70
     0
102
RTVSPropertyOp0
 70
     0
102
RTVSPropertyOp1
 70
     0
102
RTVSPropertyOp2
 70
     0
102
RTVSPropertyOp3
 70
     0
102
RTVSPropertyOp4
 70
     0
102
RTVSPropertyOp5
 70
     0
102
RTVSPropertyOp6
 70
     0
102
RTVSPropertyOp7
 70
     0
102
RTVSPropertyOp8
 70
     0
102
RTVSPropertyOp9
 70
     0
102
RTVSPropertyOp10
 70
     0
102
RTVSPropertyOp11
 70
     0
102
RTVSPropertyOp12
 70
     0
102
RTVSPropertyOp13
 70
     0
102
RTVSPropertyOp14
 70
     2
102
RTVSPropertyOp15
 70
     0
102
RTVSPropertyOp16
 70
     0
102
RTVSPropertyOp17
 70
     0
102
RTVSPropertyOp18
 70
     0
102
RTVSPropertyOp19
 70
     0
102
RTVSPropertyOp20
 70
     0
102
RTVSPropertyOp21
 70
     0
102
RTVSPropertyOp22
 70
     0
102
RTVSPropertyOp23
 70
     0
102
RTVSPropertyOp24
 70
     0
102
RTVSPropertyOp25
 70
     0
102
RTVSPropertyOp26
 70
     0
102
RTVSPropertyOp27
 70
     0
102
RTVSPropertyOp28
 70
     1
102
RTVSPropertyOp29
 70
     1
102
RTVSPropertyOp30
 70
     1
102
RTVSPropertyOp31
 70
     1
102
RTVSPropertyOp32
 70
     1
102
RTVSPropertyOp33
 70
     1
102
RTVSPropertyOp34
 70
     1
102
RTVSPropertyOp35
 70
     1
102
RTVSPropertyOp36
 70
     1
102
RTVSPropertyOp37
 70
     0
102
RTVSPropertyOp38
 70
     0
102
RTVSPropertyOp39
 70
     0
102
RTVSPropertyOp40
 70
     0
102
RTVSPropertyOp41
 70
     0
102
RTVSPropertyOp42
 70
     0
102
RTVSPropertyOp43
 70
     0
102
RTVSPropertyOp44
 70
     0
102
RTVSPropertyOp45
 70
     1
102
RTVSPropertyOp46
 70
     0
102
RTVSPropertyOp47
 70
     0
102
RTVSPropertyOp48
 70
     0
102
RTVSPropertyOp49
 70
     1
102
RTVSPropertyOp50
 70
     0
102
RTVSPropertyOp51
 70
     0
102
RTVSPropertyOp52
 70
     0
102
RTVSPropertyOp53
 70
     0
102
RTVSPropertyOp54
 70
     0
102
RTVSPropertyOp55
 70
     1
102
RTVSPropertyOp56
 70
     0
102
RTVSPropertyOp57
 70
     0
102
RTVSPropertyOp58
 70
     0
102
RTVSPropertyOp59
 70
     0
102
RTVSPropertyOp60
 70
     0
102
RTVSPropertyOp61
 70
     0
102
RTVSPropertyOp62
 70
     0
  0
XRECORD
  5
1A314
102
{ACAD_REACTORS
330
1A313
102
}
330
1A313
100
AcDbXrecord
280
     1
102
RTVSPost2010Prop28
280
     0
102
RTVSPost2010PropOp28
 70
     1
102
RTVSPost2010Prop29
280
     1
102
RTVSPost2010PropOp29
 70
     1
102
RTVSPost2010Prop30
280
     1
102
RTVSPost2010PropOp30
 70
     1
102
RTVSPost2010Prop31
280
     0
102
RTVSPost2010PropOp31
 70
     1
102
RTVSPost2010Prop32
280
     0
102
RTVSPost2010PropOp32
 70
     1
102
RTVSPost2010Prop33
280
     0
102
RTVSPost2010PropOp33
 70
     1
102
RTVSPost2010Prop34
280
     0
102
RTVSPost2010PropOp34
 70
     1
102
RTVSPost2010Prop35
280
     0
102
RTVSPost2010PropOp35
 70
     1
102
RTVSPost2010Prop36
280
     0
102
RTVSPost2010PropOp36
 70
     1
102
RTVSPost2010Prop37
 90
       50
102
RTVSPost2010PropOp37
 70
     1
102
RTVSPost2010Prop38
140
0.0
102
RTVSPost2010PropOp38
 70
     1
102
RTVSPost2010Prop39
140
1.0
102
RTVSPost2010PropOp39
 70
     1
102
RTVSPost2010Prop40
 90
        0
102
RTVSPost2010PropOp40
 70
     1
102
RTVSPost2010Prop41ColorIndex
 90
       18
102
RTVSPost2010Prop41ColorRGB
 90
        0
102
RTVSPost2010PropOp41
 70
     1
102
RTVSPost2010Prop42
 90
       50
102
RTVSPost2010PropOp42
 70
     1
102
RTVSPost2010Prop43
 90
        3
102
RTVSPost2010PropOp43
 70
     1
102
RTVSPost2010Prop44ColorIndex
 90
        5
102
RTVSPost2010Prop44ColorRGB
 90
      255
102
RTVSPost2010PropOp44
 70
     1
102
RTVSPost2010Prop45
280
     0
102
RTVSPost2010PropOp45
 70
     1
102
RTVSPost2010Prop46
 90
       50
102
RTVSPost2010PropOp46
 70
     1
102
RTVSPost2010Prop47
 90
       50
102
RTVSPost2010PropOp47
 70
     1
102
RTVSPost2010Prop48
 90
       50
102
RTVSPost2010PropOp48
 70
     1
102
RTVSPost2010Prop49
280
     0
102
RTVSPost2010PropOp49
 70
     1
102
RTVSPost2010Prop50
 90
       50
102
RTVSPost2010PropOp50
 70
     1
102
RTVSPost2010Prop51ColorIndex
 90
      256
102
RTVSPost2010Prop51ColorRGB
 90
-16777216
102
RTVSPost2010PropOp51
 70
     0
102
RTVSPost2010Prop52
140
1.0
102
RTVSPost2010PropOp52
 70
     0
102
RTVSPost2010Prop53
 90
        2
102
RTVSPost2010PropOp53
 70
     1
102
RTVSPost2010Prop54
  1
strokes_ogs.tif
102
RTVSPost2010PropOp54
 70
     1
102
RTVSPost2010Prop55
280
     0
102
RTVSPost2010PropOp55
 70
     1
102
RTVSPost2010Prop56
140
1.0
102
RTVSPost2010PropOp56
 70
     1
102
RTVSPost2010Prop57
140
1.0
102
RTVSPost2010PropOp57
 70
     1
102
RTVSPropertyOp0
 70
     1
102
RTVSPropertyOp1
 70
     1
102
RTVSPropertyOp2
 70
     1
102
RTVSPropertyOp3
 70
     1
102
RTVSPropertyOp4
 70
     1
102
RTVSPropertyOp5
 70
     1
102
RTVSPropertyOp6
 70
     1
102
RTVSPropertyOp7
 70
     1
102
RTVSPropertyOp8
 70
     1
102
RTVSPropertyOp9
 70
     1
102
RTVSPropertyOp10
 70
     1
102
RTVSPropertyOp11
 70
     1
102
RTVSPropertyOp12
 70
     1
102
RTVSPropertyOp13
 70
     1
102
RTVSPropertyOp14
 70
     1
102
RTVSPropertyOp15
 70
     1
102
RTVSPropertyOp16
 70
     1
102
RTVSPropertyOp17
 70
     1
102
RTVSPropertyOp18
 70
     1
102
RTVSPropertyOp19
 70
     1
102
RTVSPropertyOp20
 70
     1
102
RTVSPropertyOp21
 70
     1
102
RTVSPropertyOp22
 70
     1
102
RTVSPropertyOp23
 70
     1
102
RTVSPropertyOp24
 70
     1
102
RTVSPropertyOp25
 70
     1
102
RTVSPropertyOp26
 70
     1
102
RTVSPropertyOp27
 70
     1
102
RTVSPropertyOp28
 70
     1
102
RTVSPropertyOp29
 70
     1
102
RTVSPropertyOp30
 70
     1
102
RTVSPropertyOp31
 70
     1
102
RTVSPropertyOp32
 70
     1
102
RTVSPropertyOp33
 70
     1
102
RTVSPropertyOp34
 70
     1
102
RTVSPropertyOp35
 70
     1
102
RTVSPropertyOp36
 70
     1
102
RTVSPropertyOp37
 70
     1
102
RTVSPropertyOp38
 70
     1
102
RTVSPropertyOp39
 70
     1
102
RTVSPropertyOp40
 70
     1
102
RTVSPropertyOp41
 70
     1
102
RTVSPropertyOp42
 70
     1
102
RTVSPropertyOp43
 70
     1
102
RTVSPropertyOp44
 70
     1
102
RTVSPropertyOp45
 70
     1
102
RTVSPropertyOp46
 70
     1
102
RTVSPropertyOp47
 70
     1
102
RTVSPropertyOp48
 70
     1
102
RTVSPropertyOp49
 70
     1
102
RTVSPropertyOp50
 70
     1
102
RTVSPropertyOp51
 70
     0
102
RTVSPropertyOp52
 70
     0
102
RTVSPropertyOp53
 70
     1
102
RTVSPropertyOp54
 70
     1
102
RTVSPropertyOp55
 70
     1
102
RTVSPropertyOp56
 70
     1
102
RTVSPropertyOp57
 70
     1
102
RTVSPropertyOp58
 70
     1
102
RTVSPropertyOp59
 70
     1
102
RTVSPropertyOp60
 70
     1
102
RTVSPropertyOp61
 70
     1
102
RTVSPropertyOp62
 70
     1
  0
XRECORD
  5
1A2F8
102
{ACAD_REACTORS
330
1A2F7
102
}
330
1A2F7
100
AcDbXrecord
280
     1
102
RTVSPost2010Prop28
280
     0
102
RTVSPost2010PropOp28
 70
     1
102
RTVSPost2010Prop29
280
     1
102
RTVSPost2010PropOp29
 70
     1
102
RTVSPost2010Prop30
280
     1
102
RTVSPost2010PropOp30
 70
     1
102
RTVSPost2010Prop31
280
     0
102
RTVSPost2010PropOp31
 70
     1
102
RTVSPost2010Prop32
280
     0
102
RTVSPost2010PropOp32
 70
     1
102
RTVSPost2010Prop33
280
     0
102
RTVSPost2010PropOp33
 70
     1
102
RTVSPost2010Prop34
280
     0
102
RTVSPost2010PropOp34
 70
     1
102
RTVSPost2010Prop35
280
     0
102
RTVSPost2010PropOp35
 70
     1
102
RTVSPost2010Prop36
280
     0
102
RTVSPost2010PropOp36
 70
     1
102
RTVSPost2010Prop37
 90
       50
102
RTVSPost2010PropOp37
 70
     1
102
RTVSPost2010Prop38
140
0.0
102
RTVSPost2010PropOp38
 70
     1
102
RTVSPost2010Prop39
140
1.0
102
RTVSPost2010PropOp39
 70
     1
102
RTVSPost2010Prop40
 90
        0
102
RTVSPost2010PropOp40
 70
     1
102
RTVSPost2010Prop41ColorIndex
 90
       18
102
RTVSPost2010Prop41ColorRGB
 90
        0
102
RTVSPost2010PropOp41
 70
     1
102
RTVSPost2010Prop42
 90
       50
102
RTVSPost2010PropOp42
 70
     1
102
RTVSPost2010Prop43
 90
        3
102
RTVSPost2010PropOp43
 70
     1
102
RTVSPost2010Prop44ColorIndex
 90
        5
102
RTVSPost2010Prop44ColorRGB
 90
      255
102
RTVSPost2010PropOp44
 70
     1
102
RTVSPost2010Prop45
280
     0
102
RTVSPost2010PropOp45
 70
     1
102
RTVSPost2010Prop46
 90
       50
102
RTVSPost2010PropOp46
 70
     1
102
RTVSPost2010Prop47
 90
       50
102
RTVSPost2010PropOp47
 70
     1
102
RTVSPost2010Prop48
 90
       50
102
RTVSPost2010PropOp48
 70
     1
102
RTVSPost2010Prop49
280
     0
102
RTVSPost2010PropOp49
 70
     1
102
RTVSPost2010Prop50
 90
       50
102
RTVSPost2010PropOp50
 70
     1
102
RTVSPost2010Prop51ColorIndex
 90
      256
102
RTVSPost2010Prop51ColorRGB
 90
-16777216
102
RTVSPost2010PropOp51
 70
     0
102
RTVSPost2010Prop52
140
1.0
102
RTVSPost2010PropOp52
 70
     0
102
RTVSPost2010Prop53
 90
        2
102
RTVSPost2010PropOp53
 70
     1
102
RTVSPost2010Prop54
  1
strokes_ogs.tif
102
RTVSPost2010PropOp54
 70
     1
102
RTVSPost2010Prop55
280
     0
102
RTVSPost2010PropOp55
 70
     1
102
RTVSPost2010Prop56
140
1.0
102
RTVSPost2010PropOp56
 70
     1
102
RTVSPost2010Prop57
140
1.0
102
RTVSPost2010PropOp57
 70
     1
102
RTVSPropertyOp0
 70
     1
102
RTVSPropertyOp1
 70
     1
102
RTVSPropertyOp2
 70
     1
102
RTVSPropertyOp3
 70
     1
102
RTVSPropertyOp4
 70
     1
102
RTVSPropertyOp5
 70
     1
102
RTVSPropertyOp6
 70
     1
102
RTVSPropertyOp7
 70
     1
102
RTVSPropertyOp8
 70
     1
102
RTVSPropertyOp9
 70
     1
102
RTVSPropertyOp10
 70
     1
102
RTVSPropertyOp11
 70
     1
102
RTVSPropertyOp12
 70
     1
102
RTVSPropertyOp13
 70
     1
102
RTVSPropertyOp14
 70
     1
102
RTVSPropertyOp15
 70
     1
102
RTVSPropertyOp16
 70
     1
102
RTVSPropertyOp17
 70
     1
102
RTVSPropertyOp18
 70
     1
102
RTVSPropertyOp19
 70
     1
102
RTVSPropertyOp20
 70
     1
102
RTVSPropertyOp21
 70
     1
102
RTVSPropertyOp22
 70
     1
102
RTVSPropertyOp23
 70
     1
102
RTVSPropertyOp24
 70
     1
102
RTVSPropertyOp25
 70
     1
102
RTVSPropertyOp26
 70
     1
102
RTVSPropertyOp27
 70
     1
102
RTVSPropertyOp28
 70
     1
102
RTVSPropertyOp29
 70
     1
102
RTVSPropertyOp30
 70
     1
102
RTVSPropertyOp31
 70
     1
102
RTVSPropertyOp32
 70
     1
102
RTVSPropertyOp33
 70
     1
102
RTVSPropertyOp34
 70
     1
102
RTVSPropertyOp35
 70
     1
102
RTVSPropertyOp36
 70
     1
102
RTVSPropertyOp37
 70
     1
102
RTVSPropertyOp38
 70
     1
102
RTVSPropertyOp39
 70
     1
102
RTVSPropertyOp40
 70
     1
102
RTVSPropertyOp41
 70
     1
102
RTVSPropertyOp42
 70
     1
102
RTVSPropertyOp43
 70
     1
102
RTVSPropertyOp44
 70
     1
102
RTVSPropertyOp45
 70
     1
102
RTVSPropertyOp46
 70
     1
102
RTVSPropertyOp47
 70
     1
102
RTVSPropertyOp48
 70
     1
102
RTVSPropertyOp49
 70
     1
102
RTVSPropertyOp50
 70
     1
102
RTVSPropertyOp51
 70
     0
102
RTVSPropertyOp52
 70
     0
102
RTVSPropertyOp53
 70
     1
102
RTVSPropertyOp54
 70
     1
102
RTVSPropertyOp55
 70
     1
102
RTVSPropertyOp56
 70
     1
102
RTVSPropertyOp57
 70
     1
102
RTVSPropertyOp58
 70
     1
102
RTVSPropertyOp59
 70
     1
102
RTVSPropertyOp60
 70
     1
102
RTVSPropertyOp61
 70
     1
102
RTVSPropertyOp62
 70
     1
  0
XRECORD
  5
1A2FA
102
{ACAD_REACTORS
330
1A2F9
102
}
330
1A2F9
100
AcDbXrecord
280
     1
102
RTVSPost2010Prop28
280
     0
102
RTVSPost2010PropOp28
 70
     1
102
RTVSPost2010Prop29
280
     1
102
RTVSPost2010PropOp29
 70
     1
102
RTVSPost2010Prop30
280
     1
102
RTVSPost2010PropOp30
 70
     1
102
RTVSPost2010Prop31
280
     0
102
RTVSPost2010PropOp31
 70
     1
102
RTVSPost2010Prop32
280
     0
102
RTVSPost2010PropOp32
 70
     1
102
RTVSPost2010Prop33
280
     0
102
RTVSPost2010PropOp33
 70
     1
102
RTVSPost2010Prop34
280
     0
102
RTVSPost2010PropOp34
 70
     1
102
RTVSPost2010Prop35
280
     0
102
RTVSPost2010PropOp35
 70
     1
102
RTVSPost2010Prop36
280
     0
102
RTVSPost2010PropOp36
 70
     1
102
RTVSPost2010Prop37
 90
       50
102
RTVSPost2010PropOp37
 70
     1
102
RTVSPost2010Prop38
140
0.0
102
RTVSPost2010PropOp38
 70
     1
102
RTVSPost2010Prop39
140
1.0
102
RTVSPost2010PropOp39
 70
     1
102
RTVSPost2010Prop40
 90
        0
102
RTVSPost2010PropOp40
 70
     1
102
RTVSPost2010Prop41ColorIndex
 90
       18
102
RTVSPost2010Prop41ColorRGB
 90
        0
102
RTVSPost2010PropOp41
 70
     1
102
RTVSPost2010Prop42
 90
       50
102
RTVSPost2010PropOp42
 70
     1
102
RTVSPost2010Prop43
 90
        3
102
RTVSPost2010PropOp43
 70
     1
102
RTVSPost2010Prop44ColorIndex
 90
        5
102
RTVSPost2010Prop44ColorRGB
 90
      255
102
RTVSPost2010PropOp44
 70
     1
102
RTVSPost2010Prop45
280
     0
102
RTVSPost2010PropOp45
 70
     1
102
RTVSPost2010Prop46
 90
       50
102
RTVSPost2010PropOp46
 70
     1
102
RTVSPost2010Prop47
 90
       50
102
RTVSPost2010PropOp47
 70
     1
102
RTVSPost2010Prop48
 90
       50
102
RTVSPost2010PropOp48
 70
     1
102
RTVSPost2010Prop49
280
     0
102
RTVSPost2010PropOp49
 70
     1
102
RTVSPost2010Prop50
 90
       50
102
RTVSPost2010PropOp50
 70
     1
102
RTVSPost2010Prop51ColorIndex
 90
      256
102
RTVSPost2010Prop51ColorRGB
 90
-16777216
102
RTVSPost2010PropOp51
 70
     0
102
RTVSPost2010Prop52
140
1.0
102
RTVSPost2010PropOp52
 70
     0
102
RTVSPost2010Prop53
 90
        2
102
RTVSPost2010PropOp53
 70
     1
102
RTVSPost2010Prop54
  1
strokes_ogs.tif
102
RTVSPost2010PropOp54
 70
     1
102
RTVSPost2010Prop55
280
     0
102
RTVSPost2010PropOp55
 70
     1
102
RTVSPost2010Prop56
140
1.0
102
RTVSPost2010PropOp56
 70
     1
102
RTVSPost2010Prop57
140
1.0
102
RTVSPost2010PropOp57
 70
     1
102
RTVSPropertyOp0
 70
     1
102
RTVSPropertyOp1
 70
     1
102
RTVSPropertyOp2
 70
     1
102
RTVSPropertyOp3
 70
     1
102
RTVSPropertyOp4
 70
     1
102
RTVSPropertyOp5
 70
     1
102
RTVSPropertyOp6
 70
     1
102
RTVSPropertyOp7
 70
     1
102
RTVSPropertyOp8
 70
     1
102
RTVSPropertyOp9
 70
     1
102
RTVSPropertyOp10
 70
     1
102
RTVSPropertyOp11
 70
     1
102
RTVSPropertyOp12
 70
     1
102
RTVSPropertyOp13
 70
     1
102
RTVSPropertyOp14
 70
     1
102
RTVSPropertyOp15
 70
     1
102
RTVSPropertyOp16
 70
     1
102
RTVSPropertyOp17
 70
     1
102
RTVSPropertyOp18
 70
     1
102
RTVSPropertyOp19
 70
     1
102
RTVSPropertyOp20
 70
     1
102
RTVSPropertyOp21
 70
     1
102
RTVSPropertyOp22
 70
     1
102
RTVSPropertyOp23
 70
     1
102
RTVSPropertyOp24
 70
     1
102
RTVSPropertyOp25
 70
     1
102
RTVSPropertyOp26
 70
     1
102
RTVSPropertyOp27
 70
     1
102
RTVSPropertyOp28
 70
     1
102
RTVSPropertyOp29
 70
     1
102
RTVSPropertyOp30
 70
     1
102
RTVSPropertyOp31
 70
     1
102
RTVSPropertyOp32
 70
     1
102
RTVSPropertyOp33
 70
     1
102
RTVSPropertyOp34
 70
     1
102
RTVSPropertyOp35
 70
     1
102
RTVSPropertyOp36
 70
     1
102
RTVSPropertyOp37
 70
     1
102
RTVSPropertyOp38
 70
     1
102
RTVSPropertyOp39
 70
     1
102
RTVSPropertyOp40
 70
     1
102
RTVSPropertyOp41
 70
     1
102
RTVSPropertyOp42
 70
     1
102
RTVSPropertyOp43
 70
     1
102
RTVSPropertyOp44
 70
     1
102
RTVSPropertyOp45
 70
     1
102
RTVSPropertyOp46
 70
     1
102
RTVSPropertyOp47
 70
     1
102
RTVSPropertyOp48
 70
     1
102
RTVSPropertyOp49
 70
     1
102
RTVSPropertyOp50
 70
     1
102
RTVSPropertyOp51
 70
     0
102
RTVSPropertyOp52
 70
     0
102
RTVSPropertyOp53
 70
     1
102
RTVSPropertyOp54
 70
     1
102
RTVSPropertyOp55
 70
     1
102
RTVSPropertyOp56
 70
     1
102
RTVSPropertyOp57
 70
     1
102
RTVSPropertyOp58
 70
     1
102
RTVSPropertyOp59
 70
     1
102
RTVSPropertyOp60
 70
     1
102
RTVSPropertyOp61
 70
     1
102
RTVSPropertyOp62
 70
     1
  0
XRECORD
  5
1A2FC
102
{ACAD_REACTORS
330
1A2FB
102
}
330
1A2FB
100
AcDbXrecord
280
     1
102
RTVSPost2010Prop28
280
     0
102
RTVSPost2010PropOp28
 70
     1
102
RTVSPost2010Prop29
280
     1
102
RTVSPost2010PropOp29
 70
     1
102
RTVSPost2010Prop30
280
     1
102
RTVSPost2010PropOp30
 70
     1
102
RTVSPost2010Prop31
280
     0
102
RTVSPost2010PropOp31
 70
     1
102
RTVSPost2010Prop32
280
     0
102
RTVSPost2010PropOp32
 70
     1
102
RTVSPost2010Prop33
280
     0
102
RTVSPost2010PropOp33
 70
     1
102
RTVSPost2010Prop34
280
     0
102
RTVSPost2010PropOp34
 70
     1
102
RTVSPost2010Prop35
280
     0
102
RTVSPost2010PropOp35
 70
     1
102
RTVSPost2010Prop36
280
     0
102
RTVSPost2010PropOp36
 70
     1
102
RTVSPost2010Prop37
 90
       50
102
RTVSPost2010PropOp37
 70
     1
102
RTVSPost2010Prop38
140
0.0
102
RTVSPost2010PropOp38
 70
     1
102
RTVSPost2010Prop39
140
1.0
102
RTVSPost2010PropOp39
 70
     1
102
RTVSPost2010Prop40
 90
        0
102
RTVSPost2010PropOp40
 70
     1
102
RTVSPost2010Prop41ColorIndex
 90
       18
102
RTVSPost2010Prop41ColorRGB
 90
        0
102
RTVSPost2010PropOp41
 70
     1
102
RTVSPost2010Prop42
 90
       50
102
RTVSPost2010PropOp42
 70
     1
102
RTVSPost2010Prop43
 90
        3
102
RTVSPost2010PropOp43
 70
     1
102
RTVSPost2010Prop44ColorIndex
 90
        5
102
RTVSPost2010Prop44ColorRGB
 90
      255
102
RTVSPost2010PropOp44
 70
     1
102
RTVSPost2010Prop45
280
     0
102
RTVSPost2010PropOp45
 70
     1
102
RTVSPost2010Prop46
 90
       50
102
RTVSPost2010PropOp46
 70
     1
102
RTVSPost2010Prop47
 90
       50
102
RTVSPost2010PropOp47
 70
     1
102
RTVSPost2010Prop48
 90
       50
102
RTVSPost2010PropOp48
 70
     1
102
RTVSPost2010Prop49
280
     0
102
RTVSPost2010PropOp49
 70
     1
102
RTVSPost2010Prop50
 90
       50
102
RTVSPost2010PropOp50
 70
     1
102
RTVSPost2010Prop51ColorIndex
 90
      256
102
RTVSPost2010Prop51ColorRGB
 90
-16777216
102
RTVSPost2010PropOp51
 70
     0
102
RTVSPost2010Prop52
140
1.0
102
RTVSPost2010PropOp52
 70
     0
102
RTVSPost2010Prop53
 90
        2
102
RTVSPost2010PropOp53
 70
     1
102
RTVSPost2010Prop54
  1
strokes_ogs.tif
102
RTVSPost2010PropOp54
 70
     1
102
RTVSPost2010Prop55
280
     0
102
RTVSPost2010PropOp55
 70
     1
102
RTVSPost2010Prop56
140
1.0
102
RTVSPost2010PropOp56
 70
     1
102
RTVSPost2010Prop57
140
1.0
102
RTVSPost2010PropOp57
 70
     1
102
RTVSPropertyOp0
 70
     1
102
RTVSPropertyOp1
 70
     1
102
RTVSPropertyOp2
 70
     1
102
RTVSPropertyOp3
 70
     1
102
RTVSPropertyOp4
 70
     1
102
RTVSPropertyOp5
 70
     1
102
RTVSPropertyOp6
 70
     1
102
RTVSPropertyOp7
 70
     1
102
RTVSPropertyOp8
 70
     1
102
RTVSPropertyOp9
 70
     1
102
RTVSPropertyOp10
 70
     1
102
RTVSPropertyOp11
 70
     1
102
RTVSPropertyOp12
 70
     1
102
RTVSPropertyOp13
 70
     1
102
RTVSPropertyOp14
 70
     1
102
RTVSPropertyOp15
 70
     1
102
RTVSPropertyOp16
 70
     1
102
RTVSPropertyOp17
 70
     1
102
RTVSPropertyOp18
 70
     1
102
RTVSPropertyOp19
 70
     1
102
RTVSPropertyOp20
 70
     1
102
RTVSPropertyOp21
 70
     1
102
RTVSPropertyOp22
 70
     1
102
RTVSPropertyOp23
 70
     1
102
RTVSPropertyOp24
 70
     1
102
RTVSPropertyOp25
 70
     1
102
RTVSPropertyOp26
 70
     1
102
RTVSPropertyOp27
 70
     1
102
RTVSPropertyOp28
 70
     1
102
RTVSPropertyOp29
 70
     1
102
RTVSPropertyOp30
 70
     1
102
RTVSPropertyOp31
 70
     1
102
RTVSPropertyOp32
 70
     1
102
RTVSPropertyOp33
 70
     1
102
RTVSPropertyOp34
 70
     1
102
RTVSPropertyOp35
 70
     1
102
RTVSPropertyOp36
 70
     1
102
RTVSPropertyOp37
 70
     1
102
RTVSPropertyOp38
 70
     1
102
RTVSPropertyOp39
 70
     1
102
RTVSPropertyOp40
 70
     1
102
RTVSPropertyOp41
 70
     1
102
RTVSPropertyOp42
 70
     1
102
RTVSPropertyOp43
 70
     1
102
RTVSPropertyOp44
 70
     1
102
RTVSPropertyOp45
 70
     1
102
RTVSPropertyOp46
 70
     1
102
RTVSPropertyOp47
 70
     1
102
RTVSPropertyOp48
 70
     1
102
RTVSPropertyOp49
 70
     1
102
RTVSPropertyOp50
 70
     1
102
RTVSPropertyOp51
 70
     0
102
RTVSPropertyOp52
 70
     0
102
RTVSPropertyOp53
 70
     1
102
RTVSPropertyOp54
 70
     1
102
RTVSPropertyOp55
 70
     1
102
RTVSPropertyOp56
 70
     1
102
RTVSPropertyOp57
 70
     1
102
RTVSPropertyOp58
 70
     1
102
RTVSPropertyOp59
 70
     1
102
RTVSPropertyOp60
 70
     1
102
RTVSPropertyOp61
 70
     1
102
RTVSPropertyOp62
 70
     1
  0
XRECORD
  5
1A2FE
102
{ACAD_REACTORS
330
1A2FD
102
}
330
1A2FD
100
AcDbXrecord
280
     1
102
RTVSPost2010Prop28
280
     0
102
RTVSPost2010PropOp28
 70
     1
102
RTVSPost2010Prop29
280
     1
102
RTVSPost2010PropOp29
 70
     1
102
RTVSPost2010Prop30
280
     1
102
RTVSPost2010PropOp30
 70
     1
102
RTVSPost2010Prop31
280
     0
102
RTVSPost2010PropOp31
 70
     1
102
RTVSPost2010Prop32
280
     0
102
RTVSPost2010PropOp32
 70
     1
102
RTVSPost2010Prop33
280
     0
102
RTVSPost2010PropOp33
 70
     1
102
RTVSPost2010Prop34
280
     0
102
RTVSPost2010PropOp34
 70
     1
102
RTVSPost2010Prop35
280
     0
102
RTVSPost2010PropOp35
 70
     1
102
RTVSPost2010Prop36
280
     0
102
RTVSPost2010PropOp36
 70
     1
102
RTVSPost2010Prop37
 90
       50
102
RTVSPost2010PropOp37
 70
     1
102
RTVSPost2010Prop38
140
0.0
102
RTVSPost2010PropOp38
 70
     1
102
RTVSPost2010Prop39
140
1.0
102
RTVSPost2010PropOp39
 70
     1
102
RTVSPost2010Prop40
 90
        0
102
RTVSPost2010PropOp40
 70
     1
102
RTVSPost2010Prop41ColorIndex
 90
       18
102
RTVSPost2010Prop41ColorRGB
 90
        0
102
RTVSPost2010PropOp41
 70
     1
102
RTVSPost2010Prop42
 90
       50
102
RTVSPost2010PropOp42
 70
     1
102
RTVSPost2010Prop43
 90
        3
102
RTVSPost2010PropOp43
 70
     1
102
RTVSPost2010Prop44ColorIndex
 90
        5
102
RTVSPost2010Prop44ColorRGB
 90
      255
102
RTVSPost2010PropOp44
 70
     1
102
RTVSPost2010Prop45
280
     0
102
RTVSPost2010PropOp45
 70
     1
102
RTVSPost2010Prop46
 90
       50
102
RTVSPost2010PropOp46
 70
     1
102
RTVSPost2010Prop47
 90
       50
102
RTVSPost2010PropOp47
 70
     1
102
RTVSPost2010Prop48
 90
       50
102
RTVSPost2010PropOp48
 70
     1
102
RTVSPost2010Prop49
280
     0
102
RTVSPost2010PropOp49
 70
     1
102
RTVSPost2010Prop50
 90
       50
102
RTVSPost2010PropOp50
 70
     1
102
RTVSPost2010Prop51ColorIndex
 90
      256
102
RTVSPost2010Prop51ColorRGB
 90
-16777216
102
RTVSPost2010PropOp51
 70
     0
102
RTVSPost2010Prop52
140
1.0
102
RTVSPost2010PropOp52
 70
     0
102
RTVSPost2010Prop53
 90
        2
102
RTVSPost2010PropOp53
 70
     1
102
RTVSPost2010Prop54
  1
strokes_ogs.tif
102
RTVSPost2010PropOp54
 70
     1
102
RTVSPost2010Prop55
280
     0
102
RTVSPost2010PropOp55
 70
     1
102
RTVSPost2010Prop56
140
1.0
102
RTVSPost2010PropOp56
 70
     1
102
RTVSPost2010Prop57
140
1.0
102
RTVSPost2010PropOp57
 70
     1
102
RTVSPropertyOp0
 70
     1
102
RTVSPropertyOp1
 70
     1
102
RTVSPropertyOp2
 70
     1
102
RTVSPropertyOp3
 70
     1
102
RTVSPropertyOp4
 70
     1
102
RTVSPropertyOp5
 70
     1
102
RTVSPropertyOp6
 70
     1
102
RTVSPropertyOp7
 70
     1
102
RTVSPropertyOp8
 70
     1
102
RTVSPropertyOp9
 70
     1
102
RTVSPropertyOp10
 70
     1
102
RTVSPropertyOp11
 70
     1
102
RTVSPropertyOp12
 70
     1
102
RTVSPropertyOp13
 70
     1
102
RTVSPropertyOp14
 70
     1
102
RTVSPropertyOp15
 70
     1
102
RTVSPropertyOp16
 70
     1
102
RTVSPropertyOp17
 70
     1
102
RTVSPropertyOp18
 70
     1
102
RTVSPropertyOp19
 70
     1
102
RTVSPropertyOp20
 70
     1
102
RTVSPropertyOp21
 70
     1
102
RTVSPropertyOp22
 70
     1
102
RTVSPropertyOp23
 70
     1
102
RTVSPropertyOp24
 70
     1
102
RTVSPropertyOp25
 70
     1
102
RTVSPropertyOp26
 70
     1
102
RTVSPropertyOp27
 70
     1
102
RTVSPropertyOp28
 70
     1
102
RTVSPropertyOp29
 70
     1
102
RTVSPropertyOp30
 70
     1
102
RTVSPropertyOp31
 70
     1
102
RTVSPropertyOp32
 70
     1
102
RTVSPropertyOp33
 70
     1
102
RTVSPropertyOp34
 70
     1
102
RTVSPropertyOp35
 70
     1
102
RTVSPropertyOp36
 70
     1
102
RTVSPropertyOp37
 70
     1
102
RTVSPropertyOp38
 70
     1
102
RTVSPropertyOp39
 70
     1
102
RTVSPropertyOp40
 70
     1
102
RTVSPropertyOp41
 70
     1
102
RTVSPropertyOp42
 70
     1
102
RTVSPropertyOp43
 70
     1
102
RTVSPropertyOp44
 70
     1
102
RTVSPropertyOp45
 70
     1
102
RTVSPropertyOp46
 70
     1
102
RTVSPropertyOp47
 70
     1
102
RTVSPropertyOp48
 70
     1
102
RTVSPropertyOp49
 70
     1
102
RTVSPropertyOp50
 70
     1
102
RTVSPropertyOp51
 70
     0
102
RTVSPropertyOp52
 70
     0
102
RTVSPropertyOp53
 70
     1
102
RTVSPropertyOp54
 70
     1
102
RTVSPropertyOp55
 70
     1
102
RTVSPropertyOp56
 70
     1
102
RTVSPropertyOp57
 70
     1
102
RTVSPropertyOp58
 70
     1
102
RTVSPropertyOp59
 70
     1
102
RTVSPropertyOp60
 70
     1
102
RTVSPropertyOp61
 70
     1
102
RTVSPropertyOp62
 70
     1
  0
XRECORD
  5
1A306
102
{ACAD_REACTORS
330
1A305
102
}
330
1A305
100
AcDbXrecord
280
     1
102
RTVSPost2010Prop28
280
     0
102
RTVSPost2010PropOp28
 70
     1
102
RTVSPost2010Prop29
280
     1
102
RTVSPost2010PropOp29
 70
     1
102
RTVSPost2010Prop30
280
     1
102
RTVSPost2010PropOp30
 70
     1
102
RTVSPost2010Prop31
280
     0
102
RTVSPost2010PropOp31
 70
     1
102
RTVSPost2010Prop32
280
     0
102
RTVSPost2010PropOp32
 70
     1
102
RTVSPost2010Prop33
280
     0
102
RTVSPost2010PropOp33
 70
     1
102
RTVSPost2010Prop34
280
     0
102
RTVSPost2010PropOp34
 70
     1
102
RTVSPost2010Prop35
280
     0
102
RTVSPost2010PropOp35
 70
     1
102
RTVSPost2010Prop36
280
     0
102
RTVSPost2010PropOp36
 70
     1
102
RTVSPost2010Prop37
 90
       50
102
RTVSPost2010PropOp37
 70
     1
102
RTVSPost2010Prop38
140
0.0
102
RTVSPost2010PropOp38
 70
     1
102
RTVSPost2010Prop39
140
1.0
102
RTVSPost2010PropOp39
 70
     1
102
RTVSPost2010Prop40
 90
        0
102
RTVSPost2010PropOp40
 70
     1
102
RTVSPost2010Prop41ColorIndex
 90
       18
102
RTVSPost2010Prop41ColorRGB
 90
        0
102
RTVSPost2010PropOp41
 70
     1
102
RTVSPost2010Prop42
 90
       50
102
RTVSPost2010PropOp42
 70
     1
102
RTVSPost2010Prop43
 90
        3
102
RTVSPost2010PropOp43
 70
     1
102
RTVSPost2010Prop44ColorIndex
 90
        5
102
RTVSPost2010Prop44ColorRGB
 90
      255
102
RTVSPost2010PropOp44
 70
     1
102
RTVSPost2010Prop45
280
     0
102
RTVSPost2010PropOp45
 70
     1
102
RTVSPost2010Prop46
 90
       50
102
RTVSPost2010PropOp46
 70
     1
102
RTVSPost2010Prop47
 90
       50
102
RTVSPost2010PropOp47
 70
     1
102
RTVSPost2010Prop48
 90
       50
102
RTVSPost2010PropOp48
 70
     1
102
RTVSPost2010Prop49
280
     0
102
RTVSPost2010PropOp49
 70
     1
102
RTVSPost2010Prop50
 90
       50
102
RTVSPost2010PropOp50
 70
     1
102
RTVSPost2010Prop51ColorIndex
 90
      256
102
RTVSPost2010Prop51ColorRGB
 90
-16777216
102
RTVSPost2010PropOp51
 70
     0
102
RTVSPost2010Prop52
140
1.0
102
RTVSPost2010PropOp52
 70
     0
102
RTVSPost2010Prop53
 90
        2
102
RTVSPost2010PropOp53
 70
     1
102
RTVSPost2010Prop54
  1
strokes_ogs.tif
102
RTVSPost2010PropOp54
 70
     1
102
RTVSPost2010Prop55
280
     0
102
RTVSPost2010PropOp55
 70
     1
102
RTVSPost2010Prop56
140
1.0
102
RTVSPost2010PropOp56
 70
     1
102
RTVSPost2010Prop57
140
1.0
102
RTVSPost2010PropOp57
 70
     1
102
RTVSPropertyOp0
 70
     1
102
RTVSPropertyOp1
 70
     1
102
RTVSPropertyOp2
 70
     1
102
RTVSPropertyOp3
 70
     1
102
RTVSPropertyOp4
 70
     1
102
RTVSPropertyOp5
 70
     1
102
RTVSPropertyOp6
 70
     1
102
RTVSPropertyOp7
 70
     1
102
RTVSPropertyOp8
 70
     1
102
RTVSPropertyOp9
 70
     1
102
RTVSPropertyOp10
 70
     1
102
RTVSPropertyOp11
 70
     1
102
RTVSPropertyOp12
 70
     1
102
RTVSPropertyOp13
 70
     1
102
RTVSPropertyOp14
 70
     1
102
RTVSPropertyOp15
 70
     1
102
RTVSPropertyOp16
 70
     1
102
RTVSPropertyOp17
 70
     1
102
RTVSPropertyOp18
 70
     1
102
RTVSPropertyOp19
 70
     1
102
RTVSPropertyOp20
 70
     1
102
RTVSPropertyOp21
 70
     1
102
RTVSPropertyOp22
 70
     1
102
RTVSPropertyOp23
 70
     1
102
RTVSPropertyOp24
 70
     1
102
RTVSPropertyOp25
 70
     1
102
RTVSPropertyOp26
 70
     1
102
RTVSPropertyOp27
 70
     1
102
RTVSPropertyOp28
 70
     1
102
RTVSPropertyOp29
 70
     1
102
RTVSPropertyOp30
 70
     1
102
RTVSPropertyOp31
 70
     1
102
RTVSPropertyOp32
 70
     1
102
RTVSPropertyOp33
 70
     1
102
RTVSPropertyOp34
 70
     1
102
RTVSPropertyOp35
 70
     1
102
RTVSPropertyOp36
 70
     1
102
RTVSPropertyOp37
 70
     1
102
RTVSPropertyOp38
 70
     1
102
RTVSPropertyOp39
 70
     1
102
RTVSPropertyOp40
 70
     1
102
RTVSPropertyOp41
 70
     1
102
RTVSPropertyOp42
 70
     1
102
RTVSPropertyOp43
 70
     1
102
RTVSPropertyOp44
 70
     1
102
RTVSPropertyOp45
 70
     1
102
RTVSPropertyOp46
 70
     1
102
RTVSPropertyOp47
 70
     1
102
RTVSPropertyOp48
 70
     1
102
RTVSPropertyOp49
 70
     1
102
RTVSPropertyOp50
 70
     1
102
RTVSPropertyOp51
 70
     0
102
RTVSPropertyOp52
 70
     0
102
RTVSPropertyOp53
 70
     1
102
RTVSPropertyOp54
 70
     1
102
RTVSPropertyOp55
 70
     1
102
RTVSPropertyOp56
 70
     1
102
RTVSPropertyOp57
 70
     1
102
RTVSPropertyOp58
 70
     1
102
RTVSPropertyOp59
 70
     1
102
RTVSPropertyOp60
 70
     1
102
RTVSPropertyOp61
 70
     1
102
RTVSPropertyOp62
 70
     1
  0
XRECORD
  5
1A322
102
{ACAD_REACTORS
330
1A321
102
}
330
1A321
100
AcDbXrecord
280
     1
102
RTVSPost2010Prop28
280
     0
102
RTVSPost2010PropOp28
 70
     1
102
RTVSPost2010Prop29
280
     1
102
RTVSPost2010PropOp29
 70
     1
102
RTVSPost2010Prop30
280
     1
102
RTVSPost2010PropOp30
 70
     1
102
RTVSPost2010Prop31
280
     0
102
RTVSPost2010PropOp31
 70
     1
102
RTVSPost2010Prop32
280
     0
102
RTVSPost2010PropOp32
 70
     1
102
RTVSPost2010Prop33
280
     0
102
RTVSPost2010PropOp33
 70
     1
102
RTVSPost2010Prop34
280
     0
102
RTVSPost2010PropOp34
 70
     1
102
RTVSPost2010Prop35
280
     0
102
RTVSPost2010PropOp35
 70
     1
102
RTVSPost2010Prop36
280
     0
102
RTVSPost2010PropOp36
 70
     1
102
RTVSPost2010Prop37
 90
       50
102
RTVSPost2010PropOp37
 70
     0
102
RTVSPost2010Prop38
140
0.0
102
RTVSPost2010PropOp38
 70
     0
102
RTVSPost2010Prop39
140
1.0
102
RTVSPost2010PropOp39
 70
     0
102
RTVSPost2010Prop40
 90
        0
102
RTVSPost2010PropOp40
 70
     0
102
RTVSPost2010Prop41ColorIndex
 90
       18
102
RTVSPost2010Prop41ColorRGB
 90
        0
102
RTVSPost2010PropOp41
 70
     0
102
RTVSPost2010Prop42
 90
       50
102
RTVSPost2010PropOp42
 70
     0
102
RTVSPost2010Prop43
 90
        3
102
RTVSPost2010PropOp43
 70
     0
102
RTVSPost2010Prop44ColorIndex
 90
        5
102
RTVSPost2010Prop44ColorRGB
 90
      255
102
RTVSPost2010PropOp44
 70
     0
102
RTVSPost2010Prop45
280
     0
102
RTVSPost2010PropOp45
 70
     1
102
RTVSPost2010Prop46
 90
       50
102
RTVSPost2010PropOp46
 70
     0
102
RTVSPost2010Prop47
 90
       50
102
RTVSPost2010PropOp47
 70
     0
102
RTVSPost2010Prop48
 90
       50
102
RTVSPost2010PropOp48
 70
     0
102
RTVSPost2010Prop49
280
     0
102
RTVSPost2010PropOp49
 70
     1
102
RTVSPost2010Prop50
 90
       50
102
RTVSPost2010PropOp50
 70
     0
102
RTVSPost2010Prop51ColorIndex
 90
      256
102
RTVSPost2010Prop51ColorRGB
 90
-16777216
102
RTVSPost2010PropOp51
 70
     0
102
RTVSPost2010Prop52
140
1.0
102
RTVSPost2010PropOp52
 70
     0
102
RTVSPost2010Prop53
 90
        2
102
RTVSPost2010PropOp53
 70
     0
102
RTVSPost2010Prop54
  1
strokes_ogs.tif
102
RTVSPost2010PropOp54
 70
     0
102
RTVSPost2010Prop55
280
     0
102
RTVSPost2010PropOp55
 70
     1
102
RTVSPost2010Prop56
140
1.0
102
RTVSPost2010PropOp56
 70
     0
102
RTVSPost2010Prop57
140
1.0
102
RTVSPost2010PropOp57
 70
     0
102
RTVSPropertyOp0
 70
     0
102
RTVSPropertyOp1
 70
     0
102
RTVSPropertyOp2
 70
     0
102
RTVSPropertyOp3
 70
     0
102
RTVSPropertyOp4
 70
     0
102
RTVSPropertyOp5
 70
     0
102
RTVSPropertyOp6
 70
     0
102
RTVSPropertyOp7
 70
     0
102
RTVSPropertyOp8
 70
     0
102
RTVSPropertyOp9
 70
     0
102
RTVSPropertyOp10
 70
     0
102
RTVSPropertyOp11
 70
     0
102
RTVSPropertyOp12
 70
     0
102
RTVSPropertyOp13
 70
     0
102
RTVSPropertyOp14
 70
     2
102
RTVSPropertyOp15
 70
     0
102
RTVSPropertyOp16
 70
     0
102
RTVSPropertyOp17
 70
     0
102
RTVSPropertyOp18
 70
     0
102
RTVSPropertyOp19
 70
     0
102
RTVSPropertyOp20
 70
     0
102
RTVSPropertyOp21
 70
     0
102
RTVSPropertyOp22
 70
     0
102
RTVSPropertyOp23
 70
     0
102
RTVSPropertyOp24
 70
     0
102
RTVSPropertyOp25
 70
     0
102
RTVSPropertyOp26
 70
     0
102
RTVSPropertyOp27
 70
     0
102
RTVSPropertyOp28
 70
     1
102
RTVSPropertyOp29
 70
     1
102
RTVSPropertyOp30
 70
     1
102
RTVSPropertyOp31
 70
     1
102
RTVSPropertyOp32
 70
     1
102
RTVSPropertyOp33
 70
     1
102
RTVSPropertyOp34
 70
     1
102
RTVSPropertyOp35
 70
     1
102
RTVSPropertyOp36
 70
     1
102
RTVSPropertyOp37
 70
     0
102
RTVSPropertyOp38
 70
     0
102
RTVSPropertyOp39
 70
     0
102
RTVSPropertyOp40
 70
     0
102
RTVSPropertyOp41
 70
     0
102
RTVSPropertyOp42
 70
     0
102
RTVSPropertyOp43
 70
     0
102
RTVSPropertyOp44
 70
     0
102
RTVSPropertyOp45
 70
     1
102
RTVSPropertyOp46
 70
     0
102
RTVSPropertyOp47
 70
     0
102
RTVSPropertyOp48
 70
     0
102
RTVSPropertyOp49
 70
     1
102
RTVSPropertyOp50
 70
     0
102
RTVSPropertyOp51
 70
     0
102
RTVSPropertyOp52
 70
     0
102
RTVSPropertyOp53
 70
     0
102
RTVSPropertyOp54
 70
     0
102
RTVSPropertyOp55
 70
     1
102
RTVSPropertyOp56
 70
     0
102
RTVSPropertyOp57
 70
     0
102
RTVSPropertyOp58
 70
     0
102
RTVSPropertyOp59
 70
     0
102
RTVSPropertyOp60
 70
     0
102
RTVSPropertyOp61
 70
     0
102
RTVSPropertyOp62
 70
     0
  0
XRECORD
  5
1A312
102
{ACAD_REACTORS
330
1A311
102
}
330
1A311
100
AcDbXrecord
280
     1
102
RTVSPost2010Prop28
280
     0
102
RTVSPost2010PropOp28
 70
     1
102
RTVSPost2010Prop29
280
     1
102
RTVSPost2010PropOp29
 70
     1
102
RTVSPost2010Prop30
280
     1
102
RTVSPost2010PropOp30
 70
     1
102
RTVSPost2010Prop31
280
     0
102
RTVSPost2010PropOp31
 70
     1
102
RTVSPost2010Prop32
280
     0
102
RTVSPost2010PropOp32
 70
     1
102
RTVSPost2010Prop33
280
     0
102
RTVSPost2010PropOp33
 70
     1
102
RTVSPost2010Prop34
280
     0
102
RTVSPost2010PropOp34
 70
     1
102
RTVSPost2010Prop35
280
     0
102
RTVSPost2010PropOp35
 70
     1
102
RTVSPost2010Prop36
280
     0
102
RTVSPost2010PropOp36
 70
     1
102
RTVSPost2010Prop37
 90
       50
102
RTVSPost2010PropOp37
 70
     1
102
RTVSPost2010Prop38
140
0.0
102
RTVSPost2010PropOp38
 70
     1
102
RTVSPost2010Prop39
140
1.0
102
RTVSPost2010PropOp39
 70
     1
102
RTVSPost2010Prop40
 90
        0
102
RTVSPost2010PropOp40
 70
     1
102
RTVSPost2010Prop41ColorIndex
 90
       18
102
RTVSPost2010Prop41ColorRGB
 90
        0
102
RTVSPost2010PropOp41
 70
     1
102
RTVSPost2010Prop42
 90
       50
102
RTVSPost2010PropOp42
 70
     1
102
RTVSPost2010Prop43
 90
        3
102
RTVSPost2010PropOp43
 70
     1
102
RTVSPost2010Prop44ColorIndex
 90
        5
102
RTVSPost2010Prop44ColorRGB
 90
      255
102
RTVSPost2010PropOp44
 70
     1
102
RTVSPost2010Prop45
280
     0
102
RTVSPost2010PropOp45
 70
     1
102
RTVSPost2010Prop46
 90
       50
102
RTVSPost2010PropOp46
 70
     1
102
RTVSPost2010Prop47
 90
       50
102
RTVSPost2010PropOp47
 70
     1
102
RTVSPost2010Prop48
 90
       50
102
RTVSPost2010PropOp48
 70
     1
102
RTVSPost2010Prop49
280
     0
102
RTVSPost2010PropOp49
 70
     1
102
RTVSPost2010Prop50
 90
       50
102
RTVSPost2010PropOp50
 70
     1
102
RTVSPost2010Prop51ColorIndex
 90
      256
102
RTVSPost2010Prop51ColorRGB
 90
-16777216
102
RTVSPost2010PropOp51
 70
     0
102
RTVSPost2010Prop52
140
1.0
102
RTVSPost2010PropOp52
 70
     0
102
RTVSPost2010Prop53
 90
        2
102
RTVSPost2010PropOp53
 70
     1
102
RTVSPost2010Prop54
  1
strokes_ogs.tif
102
RTVSPost2010PropOp54
 70
     1
102
RTVSPost2010Prop55
280
     0
102
RTVSPost2010PropOp55
 70
     1
102
RTVSPost2010Prop56
140
1.0
102
RTVSPost2010PropOp56
 70
     1
102
RTVSPost2010Prop57
140
1.0
102
RTVSPost2010PropOp57
 70
     1
102
RTVSPropertyOp0
 70
     1
102
RTVSPropertyOp1
 70
     1
102
RTVSPropertyOp2
 70
     1
102
RTVSPropertyOp3
 70
     1
102
RTVSPropertyOp4
 70
     1
102
RTVSPropertyOp5
 70
     1
102
RTVSPropertyOp6
 70
     1
102
RTVSPropertyOp7
 70
     1
102
RTVSPropertyOp8
 70
     1
102
RTVSPropertyOp9
 70
     1
102
RTVSPropertyOp10
 70
     1
102
RTVSPropertyOp11
 70
     1
102
RTVSPropertyOp12
 70
     1
102
RTVSPropertyOp13
 70
     1
102
RTVSPropertyOp14
 70
     1
102
RTVSPropertyOp15
 70
     1
102
RTVSPropertyOp16
 70
     1
102
RTVSPropertyOp17
 70
     1
102
RTVSPropertyOp18
 70
     1
102
RTVSPropertyOp19
 70
     1
102
RTVSPropertyOp20
 70
     1
102
RTVSPropertyOp21
 70
     1
102
RTVSPropertyOp22
 70
     1
102
RTVSPropertyOp23
 70
     1
102
RTVSPropertyOp24
 70
     1
102
RTVSPropertyOp25
 70
     1
102
RTVSPropertyOp26
 70
     1
102
RTVSPropertyOp27
 70
     1
102
RTVSPropertyOp28
 70
     1
102
RTVSPropertyOp29
 70
     1
102
RTVSPropertyOp30
 70
     1
102
RTVSPropertyOp31
 70
     1
102
RTVSPropertyOp32
 70
     1
102
RTVSPropertyOp33
 70
     1
102
RTVSPropertyOp34
 70
     1
102
RTVSPropertyOp35
 70
     1
102
RTVSPropertyOp36
 70
     1
102
RTVSPropertyOp37
 70
     1
102
RTVSPropertyOp38
 70
     1
102
RTVSPropertyOp39
 70
     1
102
RTVSPropertyOp40
 70
     1
102
RTVSPropertyOp41
 70
     1
102
RTVSPropertyOp42
 70
     1
102
RTVSPropertyOp43
 70
     1
102
RTVSPropertyOp44
 70
     1
102
RTVSPropertyOp45
 70
     1
102
RTVSPropertyOp46
 70
     1
102
RTVSPropertyOp47
 70
     1
102
RTVSPropertyOp48
 70
     1
102
RTVSPropertyOp49
 70
     1
102
RTVSPropertyOp50
 70
     1
102
RTVSPropertyOp51
 70
     0
102
RTVSPropertyOp52
 70
     0
102
RTVSPropertyOp53
 70
     1
102
RTVSPropertyOp54
 70
     1
102
RTVSPropertyOp55
 70
     1
102
RTVSPropertyOp56
 70
     1
102
RTVSPropertyOp57
 70
     1
102
RTVSPropertyOp58
 70
     1
102
RTVSPropertyOp59
 70
     1
102
RTVSPropertyOp60
 70
     1
102
RTVSPropertyOp61
 70
     1
102
RTVSPropertyOp62
 70
     1
  0
XRECORD
  5
1A324
102
{ACAD_REACTORS
330
1A323
102
}
330
1A323
100
AcDbXrecord
280
     1
102
RTVSPost2010Prop28
280
     0
102
RTVSPost2010PropOp28
 70
     1
102
RTVSPost2010Prop29
280
     1
102
RTVSPost2010PropOp29
 70
     1
102
RTVSPost2010Prop30
280
     1
102
RTVSPost2010PropOp30
 70
     1
102
RTVSPost2010Prop31
280
     0
102
RTVSPost2010PropOp31
 70
     1
102
RTVSPost2010Prop32
280
     0
102
RTVSPost2010PropOp32
 70
     1
102
RTVSPost2010Prop33
280
     0
102
RTVSPost2010PropOp33
 70
     1
102
RTVSPost2010Prop34
280
     0
102
RTVSPost2010PropOp34
 70
     1
102
RTVSPost2010Prop35
280
     0
102
RTVSPost2010PropOp35
 70
     1
102
RTVSPost2010Prop36
280
     0
102
RTVSPost2010PropOp36
 70
     1
102
RTVSPost2010Prop37
 90
       50
102
RTVSPost2010PropOp37
 70
     0
102
RTVSPost2010Prop38
140
0.0
102
RTVSPost2010PropOp38
 70
     0
102
RTVSPost2010Prop39
140
1.0
102
RTVSPost2010PropOp39
 70
     0
102
RTVSPost2010Prop40
 90
        0
102
RTVSPost2010PropOp40
 70
     0
102
RTVSPost2010Prop41ColorIndex
 90
       18
102
RTVSPost2010Prop41ColorRGB
 90
        0
102
RTVSPost2010PropOp41
 70
     0
102
RTVSPost2010Prop42
 90
       50
102
RTVSPost2010PropOp42
 70
     0
102
RTVSPost2010Prop43
 90
        3
102
RTVSPost2010PropOp43
 70
     0
102
RTVSPost2010Prop44ColorIndex
 90
        5
102
RTVSPost2010Prop44ColorRGB
 90
      255
102
RTVSPost2010PropOp44
 70
     0
102
RTVSPost2010Prop45
280
     0
102
RTVSPost2010PropOp45
 70
     1
102
RTVSPost2010Prop46
 90
       50
102
RTVSPost2010PropOp46
 70
     0
102
RTVSPost2010Prop47
 90
       50
102
RTVSPost2010PropOp47
 70
     0
102
RTVSPost2010Prop48
 90
       50
102
RTVSPost2010PropOp48
 70
     0
102
RTVSPost2010Prop49
280
     0
102
RTVSPost2010PropOp49
 70
     1
102
RTVSPost2010Prop50
 90
       50
102
RTVSPost2010PropOp50
 70
     0
102
RTVSPost2010Prop51ColorIndex
 90
      256
102
RTVSPost2010Prop51ColorRGB
 90
-16777216
102
RTVSPost2010PropOp51
 70
     0
102
RTVSPost2010Prop52
140
1.0
102
RTVSPost2010PropOp52
 70
     0
102
RTVSPost2010Prop53
 90
        2
102
RTVSPost2010PropOp53
 70
     0
102
RTVSPost2010Prop54
  1
strokes_ogs.tif
102
RTVSPost2010PropOp54
 70
     0
102
RTVSPost2010Prop55
280
     0
102
RTVSPost2010PropOp55
 70
     1
102
RTVSPost2010Prop56
140
1.0
102
RTVSPost2010PropOp56
 70
     0
102
RTVSPost2010Prop57
140
1.0
102
RTVSPost2010PropOp57
 70
     0
102
RTVSPropertyOp0
 70
     0
102
RTVSPropertyOp1
 70
     0
102
RTVSPropertyOp2
 70
     0
102
RTVSPropertyOp3
 70
     0
102
RTVSPropertyOp4
 70
     0
102
RTVSPropertyOp5
 70
     0
102
RTVSPropertyOp6
 70
     0
102
RTVSPropertyOp7
 70
     0
102
RTVSPropertyOp8
 70
     0
102
RTVSPropertyOp9
 70
     0
102
RTVSPropertyOp10
 70
     0
102
RTVSPropertyOp11
 70
     0
102
RTVSPropertyOp12
 70
     0
102
RTVSPropertyOp13
 70
     0
102
RTVSPropertyOp14
 70
     2
102
RTVSPropertyOp15
 70
     0
102
RTVSPropertyOp16
 70
     0
102
RTVSPropertyOp17
 70
     0
102
RTVSPropertyOp18
 70
     0
102
RTVSPropertyOp19
 70
     0
102
RTVSPropertyOp20
 70
     0
102
RTVSPropertyOp21
 70
     0
102
RTVSPropertyOp22
 70
     0
102
RTVSPropertyOp23
 70
     0
102
RTVSPropertyOp24
 70
     0
102
RTVSPropertyOp25
 70
     0
102
RTVSPropertyOp26
 70
     0
102
RTVSPropertyOp27
 70
     0
102
RTVSPropertyOp28
 70
     1
102
RTVSPropertyOp29
 70
     1
102
RTVSPropertyOp30
 70
     1
102
RTVSPropertyOp31
 70
     1
102
RTVSPropertyOp32
 70
     1
102
RTVSPropertyOp33
 70
     1
102
RTVSPropertyOp34
 70
     1
102
RTVSPropertyOp35
 70
     1
102
RTVSPropertyOp36
 70
     1
102
RTVSPropertyOp37
 70
     0
102
RTVSPropertyOp38
 70
     0
102
RTVSPropertyOp39
 70
     0
102
RTVSPropertyOp40
 70
     0
102
RTVSPropertyOp41
 70
     0
102
RTVSPropertyOp42
 70
     0
102
RTVSPropertyOp43
 70
     0
102
RTVSPropertyOp44
 70
     0
102
RTVSPropertyOp45
 70
     1
102
RTVSPropertyOp46
 70
     0
102
RTVSPropertyOp47
 70
     0
102
RTVSPropertyOp48
 70
     0
102
RTVSPropertyOp49
 70
     1
102
RTVSPropertyOp50
 70
     0
102
RTVSPropertyOp51
 70
     0
102
RTVSPropertyOp52
 70
     0
102
RTVSPropertyOp53
 70
     0
102
RTVSPropertyOp54
 70
     0
102
RTVSPropertyOp55
 70
     1
102
RTVSPropertyOp56
 70
     0
102
RTVSPropertyOp57
 70
     0
102
RTVSPropertyOp58
 70
     0
102
RTVSPropertyOp59
 70
     0
102
RTVSPropertyOp60
 70
     0
102
RTVSPropertyOp61
 70
     0
102
RTVSPropertyOp62
 70
     0
  0
XRECORD
  5
1A30A
102
{ACAD_REACTORS
330
1A309
102
}
330
1A309
100
AcDbXrecord
280
     1
102
RTVSPost2010Prop28
280
     0
102
RTVSPost2010PropOp28
 70
     1
102
RTVSPost2010Prop29
280
     1
102
RTVSPost2010PropOp29
 70
     1
102
RTVSPost2010Prop30
280
     1
102
RTVSPost2010PropOp30
 70
     1
102
RTVSPost2010Prop31
280
     0
102
RTVSPost2010PropOp31
 70
     1
102
RTVSPost2010Prop32
280
     0
102
RTVSPost2010PropOp32
 70
     1
102
RTVSPost2010Prop33
280
     0
102
RTVSPost2010PropOp33
 70
     1
102
RTVSPost2010Prop34
280
     0
102
RTVSPost2010PropOp34
 70
     1
102
RTVSPost2010Prop35
280
     0
102
RTVSPost2010PropOp35
 70
     1
102
RTVSPost2010Prop36
280
     0
102
RTVSPost2010PropOp36
 70
     1
102
RTVSPost2010Prop37
 90
       50
102
RTVSPost2010PropOp37
 70
     1
102
RTVSPost2010Prop38
140
0.0
102
RTVSPost2010PropOp38
 70
     1
102
RTVSPost2010Prop39
140
1.0
102
RTVSPost2010PropOp39
 70
     1
102
RTVSPost2010Prop40
 90
        0
102
RTVSPost2010PropOp40
 70
     1
102
RTVSPost2010Prop41ColorIndex
 90
       18
102
RTVSPost2010Prop41ColorRGB
 90
        0
102
RTVSPost2010PropOp41
 70
     1
102
RTVSPost2010Prop42
 90
       50
102
RTVSPost2010PropOp42
 70
     1
102
RTVSPost2010Prop43
 90
        3
102
RTVSPost2010PropOp43
 70
     1
102
RTVSPost2010Prop44ColorIndex
 90
        5
102
RTVSPost2010Prop44ColorRGB
 90
      255
102
RTVSPost2010PropOp44
 70
     1
102
RTVSPost2010Prop45
280
     0
102
RTVSPost2010PropOp45
 70
     1
102
RTVSPost2010Prop46
 90
       50
102
RTVSPost2010PropOp46
 70
     1
102
RTVSPost2010Prop47
 90
       50
102
RTVSPost2010PropOp47
 70
     1
102
RTVSPost2010Prop48
 90
       50
102
RTVSPost2010PropOp48
 70
     1
102
RTVSPost2010Prop49
280
     0
102
RTVSPost2010PropOp49
 70
     1
102
RTVSPost2010Prop50
 90
       50
102
RTVSPost2010PropOp50
 70
     1
102
RTVSPost2010Prop51ColorIndex
 90
      256
102
RTVSPost2010Prop51ColorRGB
 90
-16777216
102
RTVSPost2010PropOp51
 70
     0
102
RTVSPost2010Prop52
140
1.0
102
RTVSPost2010PropOp52
 70
     0
102
RTVSPost2010Prop53
 90
        2
102
RTVSPost2010PropOp53
 70
     1
102
RTVSPost2010Prop54
  1
strokes_ogs.tif
102
RTVSPost2010PropOp54
 70
     1
102
RTVSPost2010Prop55
280
     0
102
RTVSPost2010PropOp55
 70
     1
102
RTVSPost2010Prop56
140
1.0
102
RTVSPost2010PropOp56
 70
     1
102
RTVSPost2010Prop57
140
1.0
102
RTVSPost2010PropOp57
 70
     1
102
RTVSPropertyOp0
 70
     1
102
RTVSPropertyOp1
 70
     1
102
RTVSPropertyOp2
 70
     1
102
RTVSPropertyOp3
 70
     1
102
RTVSPropertyOp4
 70
     1
102
RTVSPropertyOp5
 70
     1
102
RTVSPropertyOp6
 70
     1
102
RTVSPropertyOp7
 70
     1
102
RTVSPropertyOp8
 70
     1
102
RTVSPropertyOp9
 70
     1
102
RTVSPropertyOp10
 70
     1
102
RTVSPropertyOp11
 70
     1
102
RTVSPropertyOp12
 70
     1
102
RTVSPropertyOp13
 70
     1
102
RTVSPropertyOp14
 70
     1
102
RTVSPropertyOp15
 70
     1
102
RTVSPropertyOp16
 70
     1
102
RTVSPropertyOp17
 70
     1
102
RTVSPropertyOp18
 70
     1
102
RTVSPropertyOp19
 70
     1
102
RTVSPropertyOp20
 70
     1
102
RTVSPropertyOp21
 70
     1
102
RTVSPropertyOp22
 70
     1
102
RTVSPropertyOp23
 70
     1
102
RTVSPropertyOp24
 70
     1
102
RTVSPropertyOp25
 70
     1
102
RTVSPropertyOp26
 70
     1
102
RTVSPropertyOp27
 70
     1
102
RTVSPropertyOp28
 70
     1
102
RTVSPropertyOp29
 70
     1
102
RTVSPropertyOp30
 70
     1
102
RTVSPropertyOp31
 70
     1
102
RTVSPropertyOp32
 70
     1
102
RTVSPropertyOp33
 70
     1
102
RTVSPropertyOp34
 70
     1
102
RTVSPropertyOp35
 70
     1
102
RTVSPropertyOp36
 70
     1
102
RTVSPropertyOp37
 70
     1
102
RTVSPropertyOp38
 70
     1
102
RTVSPropertyOp39
 70
     1
102
RTVSPropertyOp40
 70
     1
102
RTVSPropertyOp41
 70
     1
102
RTVSPropertyOp42
 70
     1
102
RTVSPropertyOp43
 70
     1
102
RTVSPropertyOp44
 70
     1
102
RTVSPropertyOp45
 70
     1
102
RTVSPropertyOp46
 70
     1
102
RTVSPropertyOp47
 70
     1
102
RTVSPropertyOp48
 70
     1
102
RTVSPropertyOp49
 70
     1
102
RTVSPropertyOp50
 70
     1
102
RTVSPropertyOp51
 70
     0
102
RTVSPropertyOp52
 70
     0
102
RTVSPropertyOp53
 70
     1
102
RTVSPropertyOp54
 70
     1
102
RTVSPropertyOp55
 70
     1
102
RTVSPropertyOp56
 70
     1
102
RTVSPropertyOp57
 70
     1
102
RTVSPropertyOp58
 70
     1
102
RTVSPropertyOp59
 70
     1
102
RTVSPropertyOp60
 70
     1
102
RTVSPropertyOp61
 70
     1
102
RTVSPropertyOp62
 70
     1
  0
XRECORD
  5
1A320
102
{ACAD_REACTORS
330
1A31F
102
}
330
1A31F
100
AcDbXrecord
280
     1
102
RTVSPost2010Prop28
280
     0
102
RTVSPost2010PropOp28
 70
     1
102
RTVSPost2010Prop29
280
     1
102
RTVSPost2010PropOp29
 70
     1
102
RTVSPost2010Prop30
280
     1
102
RTVSPost2010PropOp30
 70
     1
102
RTVSPost2010Prop31
280
     0
102
RTVSPost2010PropOp31
 70
     1
102
RTVSPost2010Prop32
280
     0
102
RTVSPost2010PropOp32
 70
     1
102
RTVSPost2010Prop33
280
     0
102
RTVSPost2010PropOp33
 70
     1
102
RTVSPost2010Prop34
280
     0
102
RTVSPost2010PropOp34
 70
     1
102
RTVSPost2010Prop35
280
     0
102
RTVSPost2010PropOp35
 70
     1
102
RTVSPost2010Prop36
280
     0
102
RTVSPost2010PropOp36
 70
     1
102
RTVSPost2010Prop37
 90
       50
102
RTVSPost2010PropOp37
 70
     1
102
RTVSPost2010Prop38
140
0.0
102
RTVSPost2010PropOp38
 70
     1
102
RTVSPost2010Prop39
140
1.0
102
RTVSPost2010PropOp39
 70
     1
102
RTVSPost2010Prop40
 90
        0
102
RTVSPost2010PropOp40
 70
     1
102
RTVSPost2010Prop41ColorIndex
 90
       18
102
RTVSPost2010Prop41ColorRGB
 90
        0
102
RTVSPost2010PropOp41
 70
     1
102
RTVSPost2010Prop42
 90
       50
102
RTVSPost2010PropOp42
 70
     1
102
RTVSPost2010Prop43
 90
        3
102
RTVSPost2010PropOp43
 70
     1
102
RTVSPost2010Prop44ColorIndex
 90
        5
102
RTVSPost2010Prop44ColorRGB
 90
      255
102
RTVSPost2010PropOp44
 70
     1
102
RTVSPost2010Prop45
280
     0
102
RTVSPost2010PropOp45
 70
     1
102
RTVSPost2010Prop46
 90
       50
102
RTVSPost2010PropOp46
 70
     1
102
RTVSPost2010Prop47
 90
       50
102
RTVSPost2010PropOp47
 70
     1
102
RTVSPost2010Prop48
 90
       50
102
RTVSPost2010PropOp48
 70
     1
102
RTVSPost2010Prop49
280
     0
102
RTVSPost2010PropOp49
 70
     1
102
RTVSPost2010Prop50
 90
       50
102
RTVSPost2010PropOp50
 70
     1
102
RTVSPost2010Prop51ColorIndex
 90
      256
102
RTVSPost2010Prop51ColorRGB
 90
-16777216
102
RTVSPost2010PropOp51
 70
     0
102
RTVSPost2010Prop52
140
1.0
102
RTVSPost2010PropOp52
 70
     0
102
RTVSPost2010Prop53
 90
        2
102
RTVSPost2010PropOp53
 70
     1
102
RTVSPost2010Prop54
  1
strokes_ogs.tif
102
RTVSPost2010PropOp54
 70
     1
102
RTVSPost2010Prop55
280
     0
102
RTVSPost2010PropOp55
 70
     1
102
RTVSPost2010Prop56
140
1.0
102
RTVSPost2010PropOp56
 70
     1
102
RTVSPost2010Prop57
140
1.0
102
RTVSPost2010PropOp57
 70
     1
102
RTVSPropertyOp0
 70
     1
102
RTVSPropertyOp1
 70
     1
102
RTVSPropertyOp2
 70
     1
102
RTVSPropertyOp3
 70
     1
102
RTVSPropertyOp4
 70
     1
102
RTVSPropertyOp5
 70
     1
102
RTVSPropertyOp6
 70
     1
102
RTVSPropertyOp7
 70
     1
102
RTVSPropertyOp8
 70
     1
102
RTVSPropertyOp9
 70
     1
102
RTVSPropertyOp10
 70
     1
102
RTVSPropertyOp11
 70
     1
102
RTVSPropertyOp12
 70
     1
102
RTVSPropertyOp13
 70
     1
102
RTVSPropertyOp14
 70
     1
102
RTVSPropertyOp15
 70
     1
102
RTVSPropertyOp16
 70
     1
102
RTVSPropertyOp17
 70
     1
102
RTVSPropertyOp18
 70
     1
102
RTVSPropertyOp19
 70
     1
102
RTVSPropertyOp20
 70
     1
102
RTVSPropertyOp21
 70
     1
102
RTVSPropertyOp22
 70
     1
102
RTVSPropertyOp23
 70
     1
102
RTVSPropertyOp24
 70
     1
102
RTVSPropertyOp25
 70
     1
102
RTVSPropertyOp26
 70
     1
102
RTVSPropertyOp27
 70
     1
102
RTVSPropertyOp28
 70
     1
102
RTVSPropertyOp29
 70
     1
102
RTVSPropertyOp30
 70
     1
102
RTVSPropertyOp31
 70
     1
102
RTVSPropertyOp32
 70
     1
102
RTVSPropertyOp33
 70
     1
102
RTVSPropertyOp34
 70
     1
102
RTVSPropertyOp35
 70
     1
102
RTVSPropertyOp36
 70
     1
102
RTVSPropertyOp37
 70
     1
102
RTVSPropertyOp38
 70
     1
102
RTVSPropertyOp39
 70
     1
102
RTVSPropertyOp40
 70
     1
102
RTVSPropertyOp41
 70
     1
102
RTVSPropertyOp42
 70
     1
102
RTVSPropertyOp43
 70
     1
102
RTVSPropertyOp44
 70
     1
102
RTVSPropertyOp45
 70
     1
102
RTVSPropertyOp46
 70
     1
102
RTVSPropertyOp47
 70
     1
102
RTVSPropertyOp48
 70
     1
102
RTVSPropertyOp49
 70
     1
102
RTVSPropertyOp50
 70
     1
102
RTVSPropertyOp51
 70
     0
102
RTVSPropertyOp52
 70
     0
102
RTVSPropertyOp53
 70
     1
102
RTVSPropertyOp54
 70
     1
102
RTVSPropertyOp55
 70
     1
102
RTVSPropertyOp56
 70
     1
102
RTVSPropertyOp57
 70
     1
102
RTVSPropertyOp58
 70
     1
102
RTVSPropertyOp59
 70
     1
102
RTVSPropertyOp60
 70
     1
102
RTVSPropertyOp61
 70
     1
102
RTVSPropertyOp62
 70
     1
  0
XRECORD
  5
1A31E
102
{ACAD_REACTORS
330
1A31D
102
}
330
1A31D
100
AcDbXrecord
280
     1
102
RTVSPost2010Prop28
280
     0
102
RTVSPost2010PropOp28
 70
     1
102
RTVSPost2010Prop29
280
     1
102
RTVSPost2010PropOp29
 70
     1
102
RTVSPost2010Prop30
280
     1
102
RTVSPost2010PropOp30
 70
     1
102
RTVSPost2010Prop31
280
     0
102
RTVSPost2010PropOp31
 70
     1
102
RTVSPost2010Prop32
280
     0
102
RTVSPost2010PropOp32
 70
     1
102
RTVSPost2010Prop33
280
     0
102
RTVSPost2010PropOp33
 70
     1
102
RTVSPost2010Prop34
280
     0
102
RTVSPost2010PropOp34
 70
     1
102
RTVSPost2010Prop35
280
     0
102
RTVSPost2010PropOp35
 70
     1
102
RTVSPost2010Prop36
280
     0
102
RTVSPost2010PropOp36
 70
     1
102
RTVSPost2010Prop37
 90
       50
102
RTVSPost2010PropOp37
 70
     1
102
RTVSPost2010Prop38
140
0.0
102
RTVSPost2010PropOp38
 70
     1
102
RTVSPost2010Prop39
140
1.0
102
RTVSPost2010PropOp39
 70
     1
102
RTVSPost2010Prop40
 90
        0
102
RTVSPost2010PropOp40
 70
     1
102
RTVSPost2010Prop41ColorIndex
 90
       18
102
RTVSPost2010Prop41ColorRGB
 90
        0
102
RTVSPost2010PropOp41
 70
     1
102
RTVSPost2010Prop42
 90
       50
102
RTVSPost2010PropOp42
 70
     1
102
RTVSPost2010Prop43
 90
        3
102
RTVSPost2010PropOp43
 70
     1
102
RTVSPost2010Prop44ColorIndex
 90
        5
102
RTVSPost2010Prop44ColorRGB
 90
      255
102
RTVSPost2010PropOp44
 70
     1
102
RTVSPost2010Prop45
280
     0
102
RTVSPost2010PropOp45
 70
     1
102
RTVSPost2010Prop46
 90
       50
102
RTVSPost2010PropOp46
 70
     1
102
RTVSPost2010Prop47
 90
       50
102
RTVSPost2010PropOp47
 70
     1
102
RTVSPost2010Prop48
 90
       50
102
RTVSPost2010PropOp48
 70
     1
102
RTVSPost2010Prop49
280
     0
102
RTVSPost2010PropOp49
 70
     1
102
RTVSPost2010Prop50
 90
       50
102
RTVSPost2010PropOp50
 70
     1
102
RTVSPost2010Prop51ColorIndex
 90
      256
102
RTVSPost2010Prop51ColorRGB
 90
-16777216
102
RTVSPost2010PropOp51
 70
     0
102
RTVSPost2010Prop52
140
1.0
102
RTVSPost2010PropOp52
 70
     0
102
RTVSPost2010Prop53
 90
        2
102
RTVSPost2010PropOp53
 70
     1
102
RTVSPost2010Prop54
  1
strokes_ogs.tif
102
RTVSPost2010PropOp54
 70
     1
102
RTVSPost2010Prop55
280
     0
102
RTVSPost2010PropOp55
 70
     1
102
RTVSPost2010Prop56
140
1.0
102
RTVSPost2010PropOp56
 70
     1
102
RTVSPost2010Prop57
140
1.0
102
RTVSPost2010PropOp57
 70
     1
102
RTVSPropertyOp0
 70
     1
102
RTVSPropertyOp1
 70
     1
102
RTVSPropertyOp2
 70
     1
102
RTVSPropertyOp3
 70
     1
102
RTVSPropertyOp4
 70
     1
102
RTVSPropertyOp5
 70
     1
102
RTVSPropertyOp6
 70
     1
102
RTVSPropertyOp7
 70
     1
102
RTVSPropertyOp8
 70
     1
102
RTVSPropertyOp9
 70
     1
102
RTVSPropertyOp10
 70
     1
102
RTVSPropertyOp11
 70
     1
102
RTVSPropertyOp12
 70
     1
102
RTVSPropertyOp13
 70
     1
102
RTVSPropertyOp14
 70
     1
102
RTVSPropertyOp15
 70
     1
102
RTVSPropertyOp16
 70
     1
102
RTVSPropertyOp17
 70
     1
102
RTVSPropertyOp18
 70
     1
102
RTVSPropertyOp19
 70
     1
102
RTVSPropertyOp20
 70
     1
102
RTVSPropertyOp21
 70
     1
102
RTVSPropertyOp22
 70
     1
102
RTVSPropertyOp23
 70
     1
102
RTVSPropertyOp24
 70
     1
102
RTVSPropertyOp25
 70
     1
102
RTVSPropertyOp26
 70
     1
102
RTVSPropertyOp27
 70
     1
102
RTVSPropertyOp28
 70
     1
102
RTVSPropertyOp29
 70
     1
102
RTVSPropertyOp30
 70
     1
102
RTVSPropertyOp31
 70
     1
102
RTVSPropertyOp32
 70
     1
102
RTVSPropertyOp33
 70
     1
102
RTVSPropertyOp34
 70
     1
102
RTVSPropertyOp35
 70
     1
102
RTVSPropertyOp36
 70
     1
102
RTVSPropertyOp37
 70
     1
102
RTVSPropertyOp38
 70
     1
102
RTVSPropertyOp39
 70
     1
102
RTVSPropertyOp40
 70
     1
102
RTVSPropertyOp41
 70
     1
102
RTVSPropertyOp42
 70
     1
102
RTVSPropertyOp43
 70
     1
102
RTVSPropertyOp44
 70
     1
102
RTVSPropertyOp45
 70
     1
102
RTVSPropertyOp46
 70
     1
102
RTVSPropertyOp47
 70
     1
102
RTVSPropertyOp48
 70
     1
102
RTVSPropertyOp49
 70
     1
102
RTVSPropertyOp50
 70
     1
102
RTVSPropertyOp51
 70
     0
102
RTVSPropertyOp52
 70
     0
102
RTVSPropertyOp53
 70
     1
102
RTVSPropertyOp54
 70
     1
102
RTVSPropertyOp55
 70
     1
102
RTVSPropertyOp56
 70
     1
102
RTVSPropertyOp57
 70
     1
102
RTVSPropertyOp58
 70
     1
102
RTVSPropertyOp59
 70
     1
102
RTVSPropertyOp60
 70
     1
102
RTVSPropertyOp61
 70
     1
102
RTVSPropertyOp62
 70
     1
  0
XRECORD
  5
1A318
102
{ACAD_REACTORS
330
1A317
102
}
330
1A317
100
AcDbXrecord
280
     1
102
RTVSPost2010Prop28
280
     0
102
RTVSPost2010PropOp28
 70
     1
102
RTVSPost2010Prop29
280
     1
102
RTVSPost2010PropOp29
 70
     1
102
RTVSPost2010Prop30
280
     1
102
RTVSPost2010PropOp30
 70
     1
102
RTVSPost2010Prop31
280
     0
102
RTVSPost2010PropOp31
 70
     1
102
RTVSPost2010Prop32
280
     0
102
RTVSPost2010PropOp32
 70
     1
102
RTVSPost2010Prop33
280
     0
102
RTVSPost2010PropOp33
 70
     1
102
RTVSPost2010Prop34
280
     0
102
RTVSPost2010PropOp34
 70
     1
102
RTVSPost2010Prop35
280
     0
102
RTVSPost2010PropOp35
 70
     1
102
RTVSPost2010Prop36
280
     0
102
RTVSPost2010PropOp36
 70
     1
102
RTVSPost2010Prop37
 90
       50
102
RTVSPost2010PropOp37
 70
     1
102
RTVSPost2010Prop38
140
0.0
102
RTVSPost2010PropOp38
 70
     1
102
RTVSPost2010Prop39
140
1.0
102
RTVSPost2010PropOp39
 70
     1
102
RTVSPost2010Prop40
 90
        0
102
RTVSPost2010PropOp40
 70
     1
102
RTVSPost2010Prop41ColorIndex
 90
       18
102
RTVSPost2010Prop41ColorRGB
 90
        0
102
RTVSPost2010PropOp41
 70
     1
102
RTVSPost2010Prop42
 90
       50
102
RTVSPost2010PropOp42
 70
     1
102
RTVSPost2010Prop43
 90
        3
102
RTVSPost2010PropOp43
 70
     1
102
RTVSPost2010Prop44ColorIndex
 90
        5
102
RTVSPost2010Prop44ColorRGB
 90
      255
102
RTVSPost2010PropOp44
 70
     1
102
RTVSPost2010Prop45
280
     0
102
RTVSPost2010PropOp45
 70
     1
102
RTVSPost2010Prop46
 90
       50
102
RTVSPost2010PropOp46
 70
     1
102
RTVSPost2010Prop47
 90
       50
102
RTVSPost2010PropOp47
 70
     1
102
RTVSPost2010Prop48
 90
       50
102
RTVSPost2010PropOp48
 70
     1
102
RTVSPost2010Prop49
280
     0
102
RTVSPost2010PropOp49
 70
     1
102
RTVSPost2010Prop50
 90
       50
102
RTVSPost2010PropOp50
 70
     1
102
RTVSPost2010Prop51ColorIndex
 90
      256
102
RTVSPost2010Prop51ColorRGB
 90
-16777216
102
RTVSPost2010PropOp51
 70
     0
102
RTVSPost2010Prop52
140
1.0
102
RTVSPost2010PropOp52
 70
     0
102
RTVSPost2010Prop53
 90
        2
102
RTVSPost2010PropOp53
 70
     1
102
RTVSPost2010Prop54
  1
strokes_ogs.tif
102
RTVSPost2010PropOp54
 70
     1
102
RTVSPost2010Prop55
280
     0
102
RTVSPost2010PropOp55
 70
     1
102
RTVSPost2010Prop56
140
1.0
102
RTVSPost2010PropOp56
 70
     1
102
RTVSPost2010Prop57
140
1.0
102
RTVSPost2010PropOp57
 70
     1
102
RTVSPropertyOp0
 70
     1
102
RTVSPropertyOp1
 70
     1
102
RTVSPropertyOp2
 70
     1
102
RTVSPropertyOp3
 70
     1
102
RTVSPropertyOp4
 70
     1
102
RTVSPropertyOp5
 70
     1
102
RTVSPropertyOp6
 70
     1
102
RTVSPropertyOp7
 70
     1
102
RTVSPropertyOp8
 70
     1
102
RTVSPropertyOp9
 70
     1
102
RTVSPropertyOp10
 70
     1
102
RTVSPropertyOp11
 70
     1
102
RTVSPropertyOp12
 70
     1
102
RTVSPropertyOp13
 70
     1
102
RTVSPropertyOp14
 70
     1
102
RTVSPropertyOp15
 70
     1
102
RTVSPropertyOp16
 70
     1
102
RTVSPropertyOp17
 70
     1
102
RTVSPropertyOp18
 70
     1
102
RTVSPropertyOp19
 70
     1
102
RTVSPropertyOp20
 70
     1
102
RTVSPropertyOp21
 70
     1
102
RTVSPropertyOp22
 70
     1
102
RTVSPropertyOp23
 70
     1
102
RTVSPropertyOp24
 70
     1
102
RTVSPropertyOp25
 70
     1
102
RTVSPropertyOp26
 70
     1
102
RTVSPropertyOp27
 70
     1
102
RTVSPropertyOp28
 70
     1
102
RTVSPropertyOp29
 70
     1
102
RTVSPropertyOp30
 70
     1
102
RTVSPropertyOp31
 70
     1
102
RTVSPropertyOp32
 70
     1
102
RTVSPropertyOp33
 70
     1
102
RTVSPropertyOp34
 70
     1
102
RTVSPropertyOp35
 70
     1
102
RTVSPropertyOp36
 70
     1
102
RTVSPropertyOp37
 70
     1
102
RTVSPropertyOp38
 70
     1
102
RTVSPropertyOp39
 70
     1
102
RTVSPropertyOp40
 70
     1
102
RTVSPropertyOp41
 70
     1
102
RTVSPropertyOp42
 70
     1
102
RTVSPropertyOp43
 70
     1
102
RTVSPropertyOp44
 70
     1
102
RTVSPropertyOp45
 70
     1
102
RTVSPropertyOp46
 70
     1
102
RTVSPropertyOp47
 70
     1
102
RTVSPropertyOp48
 70
     1
102
RTVSPropertyOp49
 70
     1
102
RTVSPropertyOp50
 70
     1
102
RTVSPropertyOp51
 70
     0
102
RTVSPropertyOp52
 70
     0
102
RTVSPropertyOp53
 70
     1
102
RTVSPropertyOp54
 70
     1
102
RTVSPropertyOp55
 70
     1
102
RTVSPropertyOp56
 70
     1
102
RTVSPropertyOp57
 70
     1
102
RTVSPropertyOp58
 70
     1
102
RTVSPropertyOp59
 70
     1
102
RTVSPropertyOp60
 70
     1
102
RTVSPropertyOp61
 70
     1
102
RTVSPropertyOp62
 70
     1
  0
XRECORD
  5
1A31A
102
{ACAD_REACTORS
330
1A319
102
}
330
1A319
100
AcDbXrecord
280
     1
102
RTVSPost2010Prop28
280
     0
102
RTVSPost2010PropOp28
 70
     1
102
RTVSPost2010Prop29
280
     1
102
RTVSPost2010PropOp29
 70
     1
102
RTVSPost2010Prop30
280
     1
102
RTVSPost2010PropOp30
 70
     1
102
RTVSPost2010Prop31
280
     0
102
RTVSPost2010PropOp31
 70
     1
102
RTVSPost2010Prop32
280
     0
102
RTVSPost2010PropOp32
 70
     1
102
RTVSPost2010Prop33
280
     0
102
RTVSPost2010PropOp33
 70
     1
102
RTVSPost2010Prop34
280
     0
102
RTVSPost2010PropOp34
 70
     1
102
RTVSPost2010Prop35
280
     0
102
RTVSPost2010PropOp35
 70
     1
102
RTVSPost2010Prop36
280
     0
102
RTVSPost2010PropOp36
 70
     1
102
RTVSPost2010Prop37
 90
       50
102
RTVSPost2010PropOp37
 70
     1
102
RTVSPost2010Prop38
140
0.0
102
RTVSPost2010PropOp38
 70
     1
102
RTVSPost2010Prop39
140
1.0
102
RTVSPost2010PropOp39
 70
     1
102
RTVSPost2010Prop40
 90
        0
102
RTVSPost2010PropOp40
 70
     1
102
RTVSPost2010Prop41ColorIndex
 90
       18
102
RTVSPost2010Prop41ColorRGB
 90
        0
102
RTVSPost2010PropOp41
 70
     1
102
RTVSPost2010Prop42
 90
       50
102
RTVSPost2010PropOp42
 70
     1
102
RTVSPost2010Prop43
 90
        3
102
RTVSPost2010PropOp43
 70
     1
102
RTVSPost2010Prop44ColorIndex
 90
        5
102
RTVSPost2010Prop44ColorRGB
 90
      255
102
RTVSPost2010PropOp44
 70
     1
102
RTVSPost2010Prop45
280
     0
102
RTVSPost2010PropOp45
 70
     1
102
RTVSPost2010Prop46
 90
       50
102
RTVSPost2010PropOp46
 70
     1
102
RTVSPost2010Prop47
 90
       50
102
RTVSPost2010PropOp47
 70
     1
102
RTVSPost2010Prop48
 90
       50
102
RTVSPost2010PropOp48
 70
     1
102
RTVSPost2010Prop49
280
     0
102
RTVSPost2010PropOp49
 70
     1
102
RTVSPost2010Prop50
 90
       50
102
RTVSPost2010PropOp50
 70
     1
102
RTVSPost2010Prop51ColorIndex
 90
      256
102
RTVSPost2010Prop51ColorRGB
 90
-16777216
102
RTVSPost2010PropOp51
 70
     0
102
RTVSPost2010Prop52
140
1.0
102
RTVSPost2010PropOp52
 70
     0
102
RTVSPost2010Prop53
 90
        2
102
RTVSPost2010PropOp53
 70
     1
102
RTVSPost2010Prop54
  1
strokes_ogs.tif
102
RTVSPost2010PropOp54
 70
     1
102
RTVSPost2010Prop55
280
     0
102
RTVSPost2010PropOp55
 70
     1
102
RTVSPost2010Prop56
140
1.0
102
RTVSPost2010PropOp56
 70
     1
102
RTVSPost2010Prop57
140
1.0
102
RTVSPost2010PropOp57
 70
     1
102
RTVSPropertyOp0
 70
     1
102
RTVSPropertyOp1
 70
     1
102
RTVSPropertyOp2
 70
     1
102
RTVSPropertyOp3
 70
     1
102
RTVSPropertyOp4
 70
     1
102
RTVSPropertyOp5
 70
     1
102
RTVSPropertyOp6
 70
     1
102
RTVSPropertyOp7
 70
     1
102
RTVSPropertyOp8
 70
     1
102
RTVSPropertyOp9
 70
     1
102
RTVSPropertyOp10
 70
     1
102
RTVSPropertyOp11
 70
     1
102
RTVSPropertyOp12
 70
     1
102
RTVSPropertyOp13
 70
     1
102
RTVSPropertyOp14
 70
     1
102
RTVSPropertyOp15
 70
     1
102
RTVSPropertyOp16
 70
     1
102
RTVSPropertyOp17
 70
     1
102
RTVSPropertyOp18
 70
     1
102
RTVSPropertyOp19
 70
     1
102
RTVSPropertyOp20
 70
     1
102
RTVSPropertyOp21
 70
     1
102
RTVSPropertyOp22
 70
     1
102
RTVSPropertyOp23
 70
     1
102
RTVSPropertyOp24
 70
     1
102
RTVSPropertyOp25
 70
     1
102
RTVSPropertyOp26
 70
     1
102
RTVSPropertyOp27
 70
     1
102
RTVSPropertyOp28
 70
     1
102
RTVSPropertyOp29
 70
     1
102
RTVSPropertyOp30
 70
     1
102
RTVSPropertyOp31
 70
     1
102
RTVSPropertyOp32
 70
     1
102
RTVSPropertyOp33
 70
     1
102
RTVSPropertyOp34
 70
     1
102
RTVSPropertyOp35
 70
     1
102
RTVSPropertyOp36
 70
     1
102
RTVSPropertyOp37
 70
     1
102
RTVSPropertyOp38
 70
     1
102
RTVSPropertyOp39
 70
     1
102
RTVSPropertyOp40
 70
     1
102
RTVSPropertyOp41
 70
     1
102
RTVSPropertyOp42
 70
     1
102
RTVSPropertyOp43
 70
     1
102
RTVSPropertyOp44
 70
     1
102
RTVSPropertyOp45
 70
     1
102
RTVSPropertyOp46
 70
     1
102
RTVSPropertyOp47
 70
     1
102
RTVSPropertyOp48
 70
     1
102
RTVSPropertyOp49
 70
     1
102
RTVSPropertyOp50
 70
     1
102
RTVSPropertyOp51
 70
     0
102
RTVSPropertyOp52
 70
     0
102
RTVSPropertyOp53
 70
     1
102
RTVSPropertyOp54
 70
     1
102
RTVSPropertyOp55
 70
     1
102
RTVSPropertyOp56
 70
     1
102
RTVSPropertyOp57
 70
     1
102
RTVSPropertyOp58
 70
     1
102
RTVSPropertyOp59
 70
     1
102
RTVSPropertyOp60
 70
     1
102
RTVSPropertyOp61
 70
     1
102
RTVSPropertyOp62
 70
     1
  0
XRECORD
  5
1A310
102
{ACAD_REACTORS
330
1A30F
102
}
330
1A30F
100
AcDbXrecord
280
     1
102
RTVSPost2010Prop28
280
     0
102
RTVSPost2010PropOp28
 70
     1
102
RTVSPost2010Prop29
280
     1
102
RTVSPost2010PropOp29
 70
     1
102
RTVSPost2010Prop30
280
     1
102
RTVSPost2010PropOp30
 70
     1
102
RTVSPost2010Prop31
280
     0
102
RTVSPost2010PropOp31
 70
     1
102
RTVSPost2010Prop32
280
     0
102
RTVSPost2010PropOp32
 70
     1
102
RTVSPost2010Prop33
280
     0
102
RTVSPost2010PropOp33
 70
     1
102
RTVSPost2010Prop34
280
     0
102
RTVSPost2010PropOp34
 70
     1
102
RTVSPost2010Prop35
280
     0
102
RTVSPost2010PropOp35
 70
     1
102
RTVSPost2010Prop36
280
     0
102
RTVSPost2010PropOp36
 70
     1
102
RTVSPost2010Prop37
 90
       50
102
RTVSPost2010PropOp37
 70
     1
102
RTVSPost2010Prop38
140
0.0
102
RTVSPost2010PropOp38
 70
     1
102
RTVSPost2010Prop39
140
1.0
102
RTVSPost2010PropOp39
 70
     1
102
RTVSPost2010Prop40
 90
        0
102
RTVSPost2010PropOp40
 70
     1
102
RTVSPost2010Prop41ColorIndex
 90
       18
102
RTVSPost2010Prop41ColorRGB
 90
        0
102
RTVSPost2010PropOp41
 70
     1
102
RTVSPost2010Prop42
 90
       50
102
RTVSPost2010PropOp42
 70
     1
102
RTVSPost2010Prop43
 90
        3
102
RTVSPost2010PropOp43
 70
     1
102
RTVSPost2010Prop44ColorIndex
 90
        5
102
RTVSPost2010Prop44ColorRGB
 90
      255
102
RTVSPost2010PropOp44
 70
     1
102
RTVSPost2010Prop45
280
     0
102
RTVSPost2010PropOp45
 70
     1
102
RTVSPost2010Prop46
 90
       50
102
RTVSPost2010PropOp46
 70
     1
102
RTVSPost2010Prop47
 90
       50
102
RTVSPost2010PropOp47
 70
     1
102
RTVSPost2010Prop48
 90
       50
102
RTVSPost2010PropOp48
 70
     1
102
RTVSPost2010Prop49
280
     0
102
RTVSPost2010PropOp49
 70
     1
102
RTVSPost2010Prop50
 90
       50
102
RTVSPost2010PropOp50
 70
     1
102
RTVSPost2010Prop51ColorIndex
 90
      256
102
RTVSPost2010Prop51ColorRGB
 90
-16777216
102
RTVSPost2010PropOp51
 70
     0
102
RTVSPost2010Prop52
140
1.0
102
RTVSPost2010PropOp52
 70
     0
102
RTVSPost2010Prop53
 90
        2
102
RTVSPost2010PropOp53
 70
     1
102
RTVSPost2010Prop54
  1
strokes_ogs.tif
102
RTVSPost2010PropOp54
 70
     1
102
RTVSPost2010Prop55
280
     0
102
RTVSPost2010PropOp55
 70
     1
102
RTVSPost2010Prop56
140
1.0
102
RTVSPost2010PropOp56
 70
     1
102
RTVSPost2010Prop57
140
1.0
102
RTVSPost2010PropOp57
 70
     1
102
RTVSPropertyOp0
 70
     1
102
RTVSPropertyOp1
 70
     1
102
RTVSPropertyOp2
 70
     1
102
RTVSPropertyOp3
 70
     1
102
RTVSPropertyOp4
 70
     1
102
RTVSPropertyOp5
 70
     1
102
RTVSPropertyOp6
 70
     1
102
RTVSPropertyOp7
 70
     1
102
RTVSPropertyOp8
 70
     1
102
RTVSPropertyOp9
 70
     1
102
RTVSPropertyOp10
 70
     1
102
RTVSPropertyOp11
 70
     1
102
RTVSPropertyOp12
 70
     1
102
RTVSPropertyOp13
 70
     1
102
RTVSPropertyOp14
 70
     1
102
RTVSPropertyOp15
 70
     1
102
RTVSPropertyOp16
 70
     1
102
RTVSPropertyOp17
 70
     1
102
RTVSPropertyOp18
 70
     1
102
RTVSPropertyOp19
 70
     1
102
RTVSPropertyOp20
 70
     1
102
RTVSPropertyOp21
 70
     1
102
RTVSPropertyOp22
 70
     1
102
RTVSPropertyOp23
 70
     1
102
RTVSPropertyOp24
 70
     1
102
RTVSPropertyOp25
 70
     1
102
RTVSPropertyOp26
 70
     1
102
RTVSPropertyOp27
 70
     1
102
RTVSPropertyOp28
 70
     1
102
RTVSPropertyOp29
 70
     1
102
RTVSPropertyOp30
 70
     1
102
RTVSPropertyOp31
 70
     1
102
RTVSPropertyOp32
 70
     1
102
RTVSPropertyOp33
 70
     1
102
RTVSPropertyOp34
 70
     1
102
RTVSPropertyOp35
 70
     1
102
RTVSPropertyOp36
 70
     1
102
RTVSPropertyOp37
 70
     1
102
RTVSPropertyOp38
 70
     1
102
RTVSPropertyOp39
 70
     1
102
RTVSPropertyOp40
 70
     1
102
RTVSPropertyOp41
 70
     1
102
RTVSPropertyOp42
 70
     1
102
RTVSPropertyOp43
 70
     1
102
RTVSPropertyOp44
 70
     1
102
RTVSPropertyOp45
 70
     1
102
RTVSPropertyOp46
 70
     1
102
RTVSPropertyOp47
 70
     1
102
RTVSPropertyOp48
 70
     1
102
RTVSPropertyOp49
 70
     1
102
RTVSPropertyOp50
 70
     1
102
RTVSPropertyOp51
 70
     0
102
RTVSPropertyOp52
 70
     0
102
RTVSPropertyOp53
 70
     1
102
RTVSPropertyOp54
 70
     1
102
RTVSPropertyOp55
 70
     1
102
RTVSPropertyOp56
 70
     1
102
RTVSPropertyOp57
 70
     1
102
RTVSPropertyOp58
 70
     1
102
RTVSPropertyOp59
 70
     1
102
RTVSPropertyOp60
 70
     1
102
RTVSPropertyOp61
 70
     1
102
RTVSPropertyOp62
 70
     1
  0
XRECORD
  5
1A304
102
{ACAD_REACTORS
330
1A303
102
}
330
1A303
100
AcDbXrecord
280
     1
102
RTVSPost2010Prop28
280
     0
102
RTVSPost2010PropOp28
 70
     1
102
RTVSPost2010Prop29
280
     1
102
RTVSPost2010PropOp29
 70
     1
102
RTVSPost2010Prop30
280
     1
102
RTVSPost2010PropOp30
 70
     1
102
RTVSPost2010Prop31
280
     0
102
RTVSPost2010PropOp31
 70
     1
102
RTVSPost2010Prop32
280
     0
102
RTVSPost2010PropOp32
 70
     1
102
RTVSPost2010Prop33
280
     0
102
RTVSPost2010PropOp33
 70
     1
102
RTVSPost2010Prop34
280
     0
102
RTVSPost2010PropOp34
 70
     1
102
RTVSPost2010Prop35
280
     0
102
RTVSPost2010PropOp35
 70
     1
102
RTVSPost2010Prop36
280
     0
102
RTVSPost2010PropOp36
 70
     1
102
RTVSPost2010Prop37
 90
       50
102
RTVSPost2010PropOp37
 70
     1
102
RTVSPost2010Prop38
140
0.0
102
RTVSPost2010PropOp38
 70
     1
102
RTVSPost2010Prop39
140
1.0
102
RTVSPost2010PropOp39
 70
     1
102
RTVSPost2010Prop40
 90
        0
102
RTVSPost2010PropOp40
 70
     1
102
RTVSPost2010Prop41ColorIndex
 90
       18
102
RTVSPost2010Prop41ColorRGB
 90
        0
102
RTVSPost2010PropOp41
 70
     1
102
RTVSPost2010Prop42
 90
       50
102
RTVSPost2010PropOp42
 70
     1
102
RTVSPost2010Prop43
 90
        3
102
RTVSPost2010PropOp43
 70
     1
102
RTVSPost2010Prop44ColorIndex
 90
        5
102
RTVSPost2010Prop44ColorRGB
 90
      255
102
RTVSPost2010PropOp44
 70
     1
102
RTVSPost2010Prop45
280
     0
102
RTVSPost2010PropOp45
 70
     1
102
RTVSPost2010Prop46
 90
       50
102
RTVSPost2010PropOp46
 70
     1
102
RTVSPost2010Prop47
 90
       50
102
RTVSPost2010PropOp47
 70
     1
102
RTVSPost2010Prop48
 90
       50
102
RTVSPost2010PropOp48
 70
     1
102
RTVSPost2010Prop49
280
     0
102
RTVSPost2010PropOp49
 70
     1
102
RTVSPost2010Prop50
 90
       50
102
RTVSPost2010PropOp50
 70
     1
102
RTVSPost2010Prop51ColorIndex
 90
      256
102
RTVSPost2010Prop51ColorRGB
 90
-16777216
102
RTVSPost2010PropOp51
 70
     0
102
RTVSPost2010Prop52
140
1.0
102
RTVSPost2010PropOp52
 70
     0
102
RTVSPost2010Prop53
 90
        2
102
RTVSPost2010PropOp53
 70
     1
102
RTVSPost2010Prop54
  1
strokes_ogs.tif
102
RTVSPost2010PropOp54
 70
     1
102
RTVSPost2010Prop55
280
     0
102
RTVSPost2010PropOp55
 70
     1
102
RTVSPost2010Prop56
140
1.0
102
RTVSPost2010PropOp56
 70
     1
102
RTVSPost2010Prop57
140
1.0
102
RTVSPost2010PropOp57
 70
     1
102
RTVSPropertyOp0
 70
     1
102
RTVSPropertyOp1
 70
     1
102
RTVSPropertyOp2
 70
     1
102
RTVSPropertyOp3
 70
     1
102
RTVSPropertyOp4
 70
     1
102
RTVSPropertyOp5
 70
     1
102
RTVSPropertyOp6
 70
     1
102
RTVSPropertyOp7
 70
     1
102
RTVSPropertyOp8
 70
     1
102
RTVSPropertyOp9
 70
     1
102
RTVSPropertyOp10
 70
     1
102
RTVSPropertyOp11
 70
     1
102
RTVSPropertyOp12
 70
     1
102
RTVSPropertyOp13
 70
     1
102
RTVSPropertyOp14
 70
     1
102
RTVSPropertyOp15
 70
     1
102
RTVSPropertyOp16
 70
     1
102
RTVSPropertyOp17
 70
     1
102
RTVSPropertyOp18
 70
     1
102
RTVSPropertyOp19
 70
     1
102
RTVSPropertyOp20
 70
     1
102
RTVSPropertyOp21
 70
     1
102
RTVSPropertyOp22
 70
     1
102
RTVSPropertyOp23
 70
     1
102
RTVSPropertyOp24
 70
     1
102
RTVSPropertyOp25
 70
     1
102
RTVSPropertyOp26
 70
     1
102
RTVSPropertyOp27
 70
     1
102
RTVSPropertyOp28
 70
     1
102
RTVSPropertyOp29
 70
     1
102
RTVSPropertyOp30
 70
     1
102
RTVSPropertyOp31
 70
     1
102
RTVSPropertyOp32
 70
     1
102
RTVSPropertyOp33
 70
     1
102
RTVSPropertyOp34
 70
     1
102
RTVSPropertyOp35
 70
     1
102
RTVSPropertyOp36
 70
     1
102
RTVSPropertyOp37
 70
     1
102
RTVSPropertyOp38
 70
     1
102
RTVSPropertyOp39
 70
     1
102
RTVSPropertyOp40
 70
     1
102
RTVSPropertyOp41
 70
     1
102
RTVSPropertyOp42
 70
     1
102
RTVSPropertyOp43
 70
     1
102
RTVSPropertyOp44
 70
     1
102
RTVSPropertyOp45
 70
     1
102
RTVSPropertyOp46
 70
     1
102
RTVSPropertyOp47
 70
     1
102
RTVSPropertyOp48
 70
     1
102
RTVSPropertyOp49
 70
     1
102
RTVSPropertyOp50
 70
     1
102
RTVSPropertyOp51
 70
     0
102
RTVSPropertyOp52
 70
     0
102
RTVSPropertyOp53
 70
     1
102
RTVSPropertyOp54
 70
     1
102
RTVSPropertyOp55
 70
     1
102
RTVSPropertyOp56
 70
     1
102
RTVSPropertyOp57
 70
     1
102
RTVSPropertyOp58
 70
     1
102
RTVSPropertyOp59
 70
     1
102
RTVSPropertyOp60
 70
     1
102
RTVSPropertyOp61
 70
     1
102
RTVSPropertyOp62
 70
     1
  0
XRECORD
  5
1A31C
102
{ACAD_REACTORS
330
1A31B
102
}
330
1A31B
100
AcDbXrecord
280
     1
102
RTVSPost2010Prop28
280
     0
102
RTVSPost2010PropOp28
 70
     1
102
RTVSPost2010Prop29
280
     1
102
RTVSPost2010PropOp29
 70
     1
102
RTVSPost2010Prop30
280
     1
102
RTVSPost2010PropOp30
 70
     1
102
RTVSPost2010Prop31
280
     0
102
RTVSPost2010PropOp31
 70
     1
102
RTVSPost2010Prop32
280
     0
102
RTVSPost2010PropOp32
 70
     1
102
RTVSPost2010Prop33
280
     0
102
RTVSPost2010PropOp33
 70
     1
102
RTVSPost2010Prop34
280
     0
102
RTVSPost2010PropOp34
 70
     1
102
RTVSPost2010Prop35
280
     0
102
RTVSPost2010PropOp35
 70
     1
102
RTVSPost2010Prop36
280
     0
102
RTVSPost2010PropOp36
 70
     1
102
RTVSPost2010Prop37
 90
       50
102
RTVSPost2010PropOp37
 70
     1
102
RTVSPost2010Prop38
140
0.0
102
RTVSPost2010PropOp38
 70
     1
102
RTVSPost2010Prop39
140
1.0
102
RTVSPost2010PropOp39
 70
     1
102
RTVSPost2010Prop40
 90
        0
102
RTVSPost2010PropOp40
 70
     1
102
RTVSPost2010Prop41ColorIndex
 90
       18
102
RTVSPost2010Prop41ColorRGB
 90
        0
102
RTVSPost2010PropOp41
 70
     1
102
RTVSPost2010Prop42
 90
       50
102
RTVSPost2010PropOp42
 70
     1
102
RTVSPost2010Prop43
 90
        3
102
RTVSPost2010PropOp43
 70
     1
102
RTVSPost2010Prop44ColorIndex
 90
        5
102
RTVSPost2010Prop44ColorRGB
 90
      255
102
RTVSPost2010PropOp44
 70
     1
102
RTVSPost2010Prop45
280
     0
102
RTVSPost2010PropOp45
 70
     1
102
RTVSPost2010Prop46
 90
       50
102
RTVSPost2010PropOp46
 70
     1
102
RTVSPost2010Prop47
 90
       50
102
RTVSPost2010PropOp47
 70
     1
102
RTVSPost2010Prop48
 90
       50
102
RTVSPost2010PropOp48
 70
     1
102
RTVSPost2010Prop49
280
     0
102
RTVSPost2010PropOp49
 70
     1
102
RTVSPost2010Prop50
 90
       50
102
RTVSPost2010PropOp50
 70
     1
102
RTVSPost2010Prop51ColorIndex
 90
      256
102
RTVSPost2010Prop51ColorRGB
 90
-16777216
102
RTVSPost2010PropOp51
 70
     0
102
RTVSPost2010Prop52
140
1.0
102
RTVSPost2010PropOp52
 70
     0
102
RTVSPost2010Prop53
 90
        2
102
RTVSPost2010PropOp53
 70
     1
102
RTVSPost2010Prop54
  1
strokes_ogs.tif
102
RTVSPost2010PropOp54
 70
     1
102
RTVSPost2010Prop55
280
     0
102
RTVSPost2010PropOp55
 70
     1
102
RTVSPost2010Prop56
140
1.0
102
RTVSPost2010PropOp56
 70
     1
102
RTVSPost2010Prop57
140
1.0
102
RTVSPost2010PropOp57
 70
     1
102
RTVSPropertyOp0
 70
     1
102
RTVSPropertyOp1
 70
     1
102
RTVSPropertyOp2
 70
     1
102
RTVSPropertyOp3
 70
     1
102
RTVSPropertyOp4
 70
     1
102
RTVSPropertyOp5
 70
     1
102
RTVSPropertyOp6
 70
     1
102
RTVSPropertyOp7
 70
     1
102
RTVSPropertyOp8
 70
     1
102
RTVSPropertyOp9
 70
     1
102
RTVSPropertyOp10
 70
     1
102
RTVSPropertyOp11
 70
     1
102
RTVSPropertyOp12
 70
     1
102
RTVSPropertyOp13
 70
     1
102
RTVSPropertyOp14
 70
     1
102
RTVSPropertyOp15
 70
     1
102
RTVSPropertyOp16
 70
     1
102
RTVSPropertyOp17
 70
     1
102
RTVSPropertyOp18
 70
     1
102
RTVSPropertyOp19
 70
     1
102
RTVSPropertyOp20
 70
     1
102
RTVSPropertyOp21
 70
     1
102
RTVSPropertyOp22
 70
     1
102
RTVSPropertyOp23
 70
     1
102
RTVSPropertyOp24
 70
     1
102
RTVSPropertyOp25
 70
     1
102
RTVSPropertyOp26
 70
     1
102
RTVSPropertyOp27
 70
     1
102
RTVSPropertyOp28
 70
     1
102
RTVSPropertyOp29
 70
     1
102
RTVSPropertyOp30
 70
     1
102
RTVSPropertyOp31
 70
     1
102
RTVSPropertyOp32
 70
     1
102
RTVSPropertyOp33
 70
     1
102
RTVSPropertyOp34
 70
     1
102
RTVSPropertyOp35
 70
     1
102
RTVSPropertyOp36
 70
     1
102
RTVSPropertyOp37
 70
     1
102
RTVSPropertyOp38
 70
     1
102
RTVSPropertyOp39
 70
     1
102
RTVSPropertyOp40
 70
     1
102
RTVSPropertyOp41
 70
     1
102
RTVSPropertyOp42
 70
     1
102
RTVSPropertyOp43
 70
     1
102
RTVSPropertyOp44
 70
     1
102
RTVSPropertyOp45
 70
     1
102
RTVSPropertyOp46
 70
     1
102
RTVSPropertyOp47
 70
     1
102
RTVSPropertyOp48
 70
     1
102
RTVSPropertyOp49
 70
     1
102
RTVSPropertyOp50
 70
     1
102
RTVSPropertyOp51
 70
     0
102
RTVSPropertyOp52
 70
     0
102
RTVSPropertyOp53
 70
     1
102
RTVSPropertyOp54
 70
     1
102
RTVSPropertyOp55
 70
     1
102
RTVSPropertyOp56
 70
     1
102
RTVSPropertyOp57
 70
     1
102
RTVSPropertyOp58
 70
     1
102
RTVSPropertyOp59
 70
     1
102
RTVSPropertyOp60
 70
     1
102
RTVSPropertyOp61
 70
     1
102
RTVSPropertyOp62
 70
     1
  0
ENDSEC
  0
EOF
