  0
SECTION
  2
HEADER
  9
$ACADVER
  1
AC1015
  9
$ACADMAINTVER
 70
    20
  9
$DWGCODEPAGE
  3
ANSI_932
  9
$INSBASE
 10
0.0
 20
0.0
 30
0.0
  9
$EXTMIN
 10
9.99995
 20
9.999999999999998
 30
0.0
  9
$EXTMAX
 10
564.100312
 20
368.6031489999999
 30
0.0
  9
$LIMMIN
 10
0.0
 20
0.0
  9
$LIMMAX
 10
594.963305
 20
410.21935
  9
$ORTHOMODE
 70
     0
  9
$REGENMODE
 70
     1
  9
$FILLMODE
 70
     1
  9
$QTEXTMODE
 70
     0
  9
$MIRRTEXT
 70
     1
  9
$LTSCALE
 40
20.0
  9
$ATTMODE
 70
     1
  9
$TEXTSIZE
 40
5.0
  9
$TRACEWID
 40
1.0
  9
$TEXTSTYLE
  7
STANDARD
  9
$CLAYER
  8
0
  9
$CELTYPE
  6
BYLAYER
  9
$CECOLOR
 62
   256
  9
$CELTSCALE
 40
1.0
  9
$DISPSILH
 70
     0
  9
$DIMSCALE
 40
1.0
  9
$DIMASZ
 40
3.0
  9
$DIMEXO
 40
1.0
  9
$DIMDLI
 40
10.0
  9
$DIMRND
 40
0.0
  9
$DIMDLE
 40
0.0
  9
$DIMEXE
 40
1.0
  9
$DIMTP
 40
0.0
  9
$DIMTM
 40
0.0
  9
$DIMTXT
 40
3.2
  9
$DIMCEN
 40
0.0
  9
$DIMTSZ
 40
0.0
  9
$DIMTOL
 70
     0
  9
$DIMLIM
 70
     0
  9
$DIMTIH
 70
     0
  9
$DIMTOH
 70
     0
  9
$DIMSE1
 70
     0
  9
$DIMSE2
 70
     0
  9
$DIMTAD
 70
     3
  9
$DIMZIN
 70
     8
  9
$DIMBLK
  1

  9
$DIMASO
 70
     1
  9
$DIMSHO
 70
     1
  9
$DIMPOST
  1

  9
$DIMAPOST
  1

  9
$DIMALT
 70
     0
  9
$DIMALTD
 70
     2
  9
$DIMALTF
 40
25.4
  9
$DIMLFAC
 40
1.0
  9
$DIMTOFL
 70
     1
  9
$DIMTVP
 40
0.0
  9
$DIMTIX
 70
     0
  9
$DIMSOXD
 70
     0
  9
$DIMSAH
 70
     1
  9
$DIMBLK1
  1
OPEN
  9
$DIMBLK2
  1
OPEN
  9
$DIMSTYLE
  2
STANDARD
  9
$DIMCLRD
 70
     0
  9
$DIMCLRE
 70
     0
  9
$DIMCLRT
 70
     0
  9
$DIMTFAC
 40
1.0
  9
$DIMGAP
 40
1.0
  9
$DIMJUST
 70
     0
  9
$DIMSD1
 70
     0
  9
$DIMSD2
 70
     0
  9
$DIMTOLJ
 70
     1
  9
$DIMTZIN
 70
     0
  9
$DIMALTZ
 70
     0
  9
$DIMALTTZ
 70
     0
  9
$DIMUPT
 70
     0
  9
$DIMDEC
 70
     4
  9
$DIMTDEC
 70
     4
  9
$DIMALTU
 70
     2
  9
$DIMALTTD
 70
     2
  9
$DIMTXSTY
  7
STANDARD
  9
$DIMAUNIT
 70
     0
  9
$DIMADEC
 70
     0
  9
$DIMALTRND
 40
0.0
  9
$DIMAZIN
 70
     0
  9
$DIMDSEP
 70
    46
  9
$DIMATFIT
 70
     3
  9
$DIMFRAC
 70
     0
  9
$DIMLDRBLK
  1
OPEN
  9
$DIMLUNIT
 70
     2
  9
$DIMLWD
 70
    -2
  9
$DIMLWE
 70
    -2
  9
$DIMTMOVE
 70
     0
  9
$LUNITS
 70
     2
  9
$LUPREC
 70
     4
  9
$SKETCHINC
 40
1.0
  9
$FILLETRAD
 40
2.0
  9
$AUNITS
 70
     0
  9
$AUPREC
 70
     2
  9
$MENU
  1
.
  9
$ELEVATION
 40
0.0
  9
$PELEVATION
 40
0.0
  9
$THICKNESS
 40
0.0
  9
$LIMCHECK
 70
     0
  9
$CHAMFERA
 40
10.0
  9
$CHAMFERB
 40
10.0
  9
$CHAMFERC
 40
0.0
  9
$CHAMFERD
 40
0.0
  9
$SKPOLY
 70
     0
  9
$TDCREATE
 40
2451303.376081250
  9
$TDUCREATE
 40
2451303.001081250
  9
$TDUPDATE
 40
2457192.686950926
  9
$TDUUPDATE
 40
2457192.311950926
  9
$TDINDWG
 40
0.0002449769
  9
$TDUSRTIMER
 40
0.0002441204
  9
$USRTIMER
 70
     1
  9
$ANGBASE
 50
0.0
  9
$ANGDIR
 70
     0
  9
$PDMODE
 70
    35
  9
$PDSIZE
 40
0.0
  9
$PLINEWID
 40
0.0
  9
$SPLFRAME
 70
     0
  9
$SPLINETYPE
 70
     6
  9
$SPLINESEGS
 70
     8
  9
$HANDSEED
  5
1BBC9
  9
$SURFTAB1
 70
     6
  9
$SURFTAB2
 70
     6
  9
$SURFTYPE
 70
     6
  9
$SURFU
 70
     6
  9
$SURFV
 70
     6
  9
$UCSBASE
  2

  9
$UCSNAME
  2

  9
$UCSORG
 10
0.0
 20
0.0
 30
0.0
  9
$UCSXDIR
 10
1.0
 20
0.0
 30
0.0
  9
$UCSYDIR
 10
0.0
 20
1.0
 30
0.0
  9
$UCSORTHOREF
  2

  9
$UCSORTHOVIEW
 70
     0
  9
$UCSORGTOP
 10
0.0
 20
0.0
 30
0.0
  9
$UCSORGBOTTOM
 10
0.0
 20
0.0
 30
0.0
  9
$UCSORGLEFT
 10
0.0
 20
0.0
 30
0.0
  9
$UCSORGRIGHT
 10
0.0
 20
0.0
 30
0.0
  9
$UCSORGFRONT
 10
0.0
 20
0.0
 30
0.0
  9
$UCSORGBACK
 10
0.0
 20
0.0
 30
0.0
  9
$PUCSBASE
  2

  9
$PUCSNAME
  2

  9
$PUCSORG
 10
0.0
 20
0.0
 30
0.0
  9
$PUCSXDIR
 10
1.0
 20
0.0
 30
0.0
  9
$PUCSYDIR
 10
0.0
 20
1.0
 30
0.0
  9
$PUCSORTHOREF
  2

  9
$PUCSORTHOVIEW
 70
     0
  9
$PUCSORGTOP
 10
0.0
 20
0.0
 30
0.0
  9
$PUCSORGBOTTOM
 10
0.0
 20
0.0
 30
0.0
  9
$PUCSORGLEFT
 10
0.0
 20
0.0
 30
0.0
  9
$PUCSORGRIGHT
 10
0.0
 20
0.0
 30
0.0
  9
$PUCSORGFRONT
 10
0.0
 20
0.0
 30
0.0
  9
$PUCSORGBACK
 10
0.0
 20
0.0
 30
0.0
  9
$USERI1
 70
     0
  9
$USERI2
 70
     0
  9
$USERI3
 70
     0
  9
$USERI4
 70
     0
  9
$USERI5
 70
     0
  9
$USERR1
 40
0.0
  9
$USERR2
 40
0.0
  9
$USERR3
 40
0.0
  9
$USERR4
 40
0.0
  9
$USERR5
 40
0.0
  9
$WORLDVIEW
 70
     1
  9
$SHADEDGE
 70
     3
  9
$SHADEDIF
 70
    70
  9
$TILEMODE
 70
     1
  9
$MAXACTVP
 70
    16
  9
$PINSBASE
 10
0.0
 20
0.0
 30
0.0
  9
$PLIMCHECK
 70
     0
  9
$PEXTMIN
 10
1.000000000000000E+20
 20
1.000000000000000E+20
 30
1.000000000000000E+20
  9
$PEXTMAX
 10
-1.000000000000000E+20
 20
-1.000000000000000E+20
 30
-1.000000000000000E+20
  9
$PLIMMIN
 10
0.0
 20
0.0
  9
$PLIMMAX
 10
420.0
 20
297.0
  9
$UNITMODE
 70
     0
  9
$VISRETAIN
 70
     0
  9
$PLINEGEN
 70
     0
  9
$PSLTSCALE
 70
     0
  9
$TREEDEPTH
 70
  3020
  9
$CMLSTYLE
  2
STANDARD
  9
$CMLJUST
 70
     0
  9
$CMLSCALE
 40
1.0
  9
$PROXYGRAPHICS
 70
     1
  9
$MEASUREMENT
 70
     0
  9
$CELWEIGHT
370
    -1
  9
$ENDCAPS
280
     0
  9
$JOINSTYLE
280
     0
  9
$LWDISPLAY
290
     0
  9
$INSUNITS
 70
     0
  9
$HYPERLINKBASE
  1

  9
$STYLESHEET
  1

  9
$XEDIT
290
     1
  9
$CEPSNTYPE
380
     0
  9
$PSTYLEMODE
290
     1
  9
$FINGERPRINTGUID
  2
{C677D812-1E33-40AD-B500-8DC4D340C5C0}
  9
$VERSIONGUID
  2
{13E81594-3AF9-45FA-AFAE-0E7AEB063275}
  9
$EXTNAMES
290
     1
  9
$PSVPSCALE
 40
0.0
  9
$OLESTARTUP
290
     0
  0
ENDSEC
  0
SECTION
  2
CLASSES
  0
CLASS
  1
ACDBDICTIONARYWDFLT
  2
AcDbDictionaryWithDefault
  3
ObjectDBX Classes
 90
        0
280
     0
281
     0
  0
CLASS
  1
ACDBPLACEHOLDER
  2
AcDbPlaceHolder
  3
ObjectDBX Classes
 90
        0
280
     0
281
     0
  0
CLASS
  1
LAYOUT
  2
AcDbLayout
  3
ObjectDBX Classes
 90
        0
280
     0
281
     0
  0
CLASS
  1
DICTIONARYVAR
  2
AcDbDictionaryVar
  3
ObjectDBX Classes
 90
        0
280
     0
281
     0
  0
CLASS
  1
MATERIAL
  2
AcDbMaterial
  3
ObjectDBX Classes
 90
     1153
280
     0
281
     0
  0
CLASS
  1
VISUALSTYLE
  2
AcDbVisualStyle
  3
ObjectDBX Classes
 90
     4095
280
     0
281
     0
  0
CLASS
  1
TABLESTYLE
  2
AcDbTableStyle
  3
ObjectDBX Classes
 90
     4095
280
     0
281
     0
  0
CLASS
  1
SCALE
  2
AcDbScale
  3
ObjectDBX Classes
 90
     1153
280
     0
281
     0
  0
CLASS
  1
MLEADERSTYLE
  2
AcDbMLeaderStyle
  3
ACDB_MLEADERSTYLE_CLASS
 90
     4095
280
     0
281
     0
  0
CLASS
  1
ACDBSECTIONVIEWSTYLE
  2
AcDbSectionViewStyle
  3
ObjectDBX Classes
 90
     1025
280
     0
281
     0
  0
CLASS
  1
ACDBDETAILVIEWSTYLE
  2
AcDbDetailViewStyle
  3
ObjectDBX Classes
 90
     1025
280
     0
281
     0
  0
CLASS
  1
CELLSTYLEMAP
  2
AcDbCellStyleMap
  3
ObjectDBX Classes
 90
     1152
280
     0
281
     0
  0
ENDSEC
  0
SECTION
  2
TABLES
  0
TABLE
  2
VPORT
  5
1B711
330
0
100
AcDbSymbolTable
 70
     1
  0
VPORT
  5
1BB12
330
1B711
100
AcDbSymbolTableRecord
100
AcDbViewportTableRecord
  2
*ACTIVE
 70
     0
 10
0.0
 20
0.0
 11
1.0
 21
1.0
 12
395.665607646132
 22
189.2889147195812
 13
0.0
 23
0.0
 14
10.0
 24
10.0
 15
10.0
 25
10.0
 16
0.0
 26
0.0
 36
1.0
 17
0.0
 27
0.0
 37
0.0
 40
362.5980382035856
 41
2.35006605019815
 42
50.0
 43
0.0
 44
0.0
 50
0.0
 51
0.0
 71
     0
 72
   100
 73
     1
 74
     0
 75
     0
 76
     0
 77
     0
 78
     0
281
     0
 65
     1
110
0.0
120
0.0
130
0.0
111
1.0
121
0.0
131
0.0
112
0.0
122
1.0
132
0.0
 79
     0
146
0.0
1001
ACAD_NAV_VCDISPLAY
1070
     3
  0
ENDTAB
  0
TABLE
  2
LTYPE
  5
1B70E
330
0
100
AcDbSymbolTable
 70
     4
  0
LTYPE
  5
1B71C
330
1B70E
100
AcDbSymbolTableRecord
100
AcDbLinetypeTableRecord
  2
BYBLOCK
 70
     0
  3

 72
    65
 73
     0
 40
0.0
  0
LTYPE
  5
1B71D
330
1B70E
100
AcDbSymbolTableRecord
100
AcDbLinetypeTableRecord
  2
BYLAYER
 70
     0
  3

 72
    65
 73
     0
 40
0.0
  0
LTYPE
  5
1B71E
330
1B70E
100
AcDbSymbolTableRecord
100
AcDbLinetypeTableRecord
  2
CONTINUOUS
 70
     0
  3
Solid line
 72
    65
 73
     0
 40
0.0
  0
LTYPE
  5
1B72C
330
1B70E
100
AcDbSymbolTableRecord
100
AcDbLinetypeTableRecord
  2
DASHED
 70
     0
  3
__ __ __ __ __ __ __ __ __ __ __ __ __ __ __ __
 72
    65
 73
     2
 40
0.75
 49
0.5
 74
     0
 49
-0.25
 74
     0
  0
LTYPE
  5
1B72D
330
1B70E
100
AcDbSymbolTableRecord
100
AcDbLinetypeTableRecord
  2
CENTER
 70
     0
  3
____ _ ____ _ ____ _ ____ _ ____ _ ____ _ ____ 
 72
    65
 73
     4
 40
2.0
 49
1.25
 74
     0
 49
-0.25
 74
     0
 49
0.25
 74
     0
 49
-0.25
 74
     0
  0
LTYPE
  5
1B72E
330
1B70E
100
AcDbSymbolTableRecord
100
AcDbLinetypeTableRecord
  2
PHANTOM
 70
     0
  3
______  __  __  ______  __  __  ______  __  __ 
 72
    65
 73
     6
 40
2.5
 49
1.25
 74
     0
 49
-0.25
 74
     0
 49
0.25
 74
     0
 49
-0.25
 74
     0
 49
0.25
 74
     0
 49
-0.25
 74
     0
  0
ENDTAB
  0
TABLE
  2
LAYER
  5
1B70B
330
0
100
AcDbSymbolTable
 70
     8
  0
LAYER
  5
1B719
102
{ACAD_XDICTIONARY
360
1BB6D
102
}
330
1B70B
100
AcDbSymbolTableRecord
100
AcDbLayerTableRecord
  2
0
 70
     0
 62
     7
  6
CONTINUOUS
370
    -3
390
1BB1B
  0
LAYER
  5
1B72F
102
{ACAD_XDICTIONARY
360
1BB6F
102
}
330
1B70B
100
AcDbSymbolTableRecord
100
AcDbLayerTableRecord
  2
4
 70
     0
 62
     1
  6
CENTER
370
    -3
390
1BB1B
  0
LAYER
  5
1B730
102
{ACAD_XDICTIONARY
360
1BB71
102
}
330
1B70B
100
AcDbSymbolTableRecord
100
AcDbLayerTableRecord
  2
5
 70
     0
 62
     6
  6
PHANTOM
370
    -3
390
1BB1B
  0
LAYER
  5
1B731
102
{ACAD_XDICTIONARY
360
1BB73
102
}
330
1B70B
100
AcDbSymbolTableRecord
100
AcDbLayerTableRecord
  2
1
 70
     0
 62
     7
  6
CONTINUOUS
370
    -3
390
1BB1B
  0
LAYER
  5
1B732
102
{ACAD_XDICTIONARY
360
1BB75
102
}
330
1B70B
100
AcDbSymbolTableRecord
100
AcDbLayerTableRecord
  2
2
 70
     0
 62
     4
  6
CONTINUOUS
370
    -3
390
1BB1B
  0
LAYER
  5
1B733
102
{ACAD_XDICTIONARY
360
1BB77
102
}
330
1B70B
100
AcDbSymbolTableRecord
100
AcDbLayerTableRecord
  2
3
 70
     0
 62
     2
  6
DASHED
370
    -3
390
1BB1B
  0
LAYER
  5
1B734
102
{ACAD_XDICTIONARY
360
1BB79
102
}
330
1B70B
100
AcDbSymbolTableRecord
100
AcDbLayerTableRecord
  2
6
 70
     0
 62
     5
  6
CONTINUOUS
370
    -3
390
1BB1B
  0
LAYER
  5
1B735
102
{ACAD_XDICTIONARY
360
1BB7B
102
}
330
1B70B
100
AcDbSymbolTableRecord
100
AcDbLayerTableRecord
  2
7
 70
     0
 62
     3
  6
CONTINUOUS
370
    -3
390
1BB1B
  0
ENDTAB
  0
TABLE
  2
STYLE
  5
1B70C
330
0
100
AcDbSymbolTable
 70
     1
  0
STYLE
  5
1B71A
330
1B70C
100
AcDbSymbolTableRecord
100
AcDbTextStyleTableRecord
  2
STANDARD
 70
     0
 40
0.0
 41
1.0
 50
0.0
 71
     0
 42
5.0
  3
txt
  4

  0
ENDTAB
  0
TABLE
  2
VIEW
  5
1B70F
330
0
100
AcDbSymbolTable
 70
     1
  0
VIEW
  5
1B736
330
1B70F
100
AcDbSymbolTableRecord
100
AcDbViewTableRecord
  2
7
 70
     0
 40
385.039613
 10
370.89974
 20
192.5198059999999
 41
741.79948
 11
0.0
 21
0.0
 31
1.0
 12
0.0
 22
0.0
 32
0.0
 42
50.0
 43
0.0
 44
0.0
 50
0.0
 71
     0
281
     0
 72
     0
  0
ENDTAB
  0
TABLE
  2
UCS
  5
1B710
330
0
100
AcDbSymbolTable
 70
     0
  0
ENDTAB
  0
TABLE
  2
APPID
  5
1B712
330
0
100
AcDbSymbolTable
 70
     3
  0
APPID
  5
1B71B
330
1B712
100
AcDbSymbolTableRecord
100
AcDbRegAppTableRecord
  2
ACAD
 70
     0
  0
APPID
  5
1BB87
330
1B712
100
AcDbSymbolTableRecord
100
AcDbRegAppTableRecord
  2
ACAD_NAV_VCDISPLAY
 70
     0
  0
APPID
  5
1BBC0
330
1B712
100
AcDbSymbolTableRecord
100
AcDbRegAppTableRecord
  2
ACAD_MLEADERVER
 70
     0
  0
ENDTAB
  0
TABLE
  2
DIMSTYLE
  5
1B713
330
0
100
AcDbSymbolTable
 70
     1
100
AcDbDimStyleTable
 71
     0
  0
DIMSTYLE
105
1B738
330
1B713
100
AcDbSymbolTableRecord
100
AcDbDimStyleTableRecord
  2
STANDARD
 70
     0
 41
3.0
 42
1.0
 43
10.0
 44
1.0
 73
     0
 74
     0
 77
     3
 78
     8
140
3.2
141
0.0
147
1.0
172
     1
173
     1
284
     8
285
     8
286
     8
340
1B71A
  0
ENDTAB
  0
TABLE
  2
BLOCK_RECORD
  5
1B70A
330
0
100
AcDbSymbolTable
 70
     1
  0
BLOCK_RECORD
  5
1B727
102
{ACAD_XDICTIONARY
360
1BB15
102
}
330
1B70A
100
AcDbSymbolTableRecord
100
AcDbBlockTableRecord
  2
*MODEL_SPACE
340
1BB69
  0
BLOCK_RECORD
  5
1B723
102
{ACAD_XDICTIONARY
360
1BB13
102
}
330
1B70A
100
AcDbSymbolTableRecord
100
AcDbBlockTableRecord
  2
*PAPER_SPACE
340
1BB6A
  0
BLOCK_RECORD
  5
1B740
330
1B70A
100
AcDbSymbolTableRecord
100
AcDbBlockTableRecord
  2
_OPEN
340
0
  0
ENDTAB
  0
ENDSEC
  0
SECTION
  2
BLOCKS
  0
BLOCK
  5
1B728
330
1B727
100
AcDbEntity
  8
0
100
AcDbBlockBegin
  2
*MODEL_SPACE
 70
     0
 10
0.0
 20
0.0
 30
0.0
  3
*MODEL_SPACE
  1

  0
ENDBLK
  5
1B729
330
1B727
100
AcDbEntity
  8
0
100
AcDbBlockEnd
  0
BLOCK
  5
1B724
330
1B723
100
AcDbEntity
 67
     1
  8
0
100
AcDbBlockBegin
  2
*PAPER_SPACE
 70
     0
 10
0.0
 20
0.0
 30
0.0
  3
*PAPER_SPACE
  1

  0
ENDBLK
  5
1B725
330
1B723
100
AcDbEntity
 67
     1
  8
0
100
AcDbBlockEnd
  0
BLOCK
  5
1B741
330
1B740
100
AcDbEntity
  8
0
100
AcDbBlockBegin
  2
_OPEN
 70
     0
 10
0.0
 20
0.0
 30
0.0
  3
_OPEN
  1

  0
LINE
  5
1B742
330
1B740
100
AcDbEntity
  8
0
  6
ByBlock
 62
     0
100
AcDbLine
 10
-1.0
 20
0.166667
 30
0.0
 11
0.0
 21
0.0
 31
0.0
  0
LINE
  5
1B743
330
1B740
100
AcDbEntity
  8
0
  6
ByBlock
 62
     0
100
AcDbLine
 10
0.0
 20
0.0
 30
0.0
 11
-1.0
 21
-0.166667
 31
0.0
  0
LINE
  5
1B744
330
1B740
100
AcDbEntity
  8
0
  6
ByBlock
 62
     0
100
AcDbLine
 10
0.0
 20
0.0
 30
0.0
 11
-1.0
 21
0.0
 31
0.0
  0
ENDBLK
  5
1B745
330
1B740
100
AcDbEntity
  8
0
100
AcDbBlockEnd
  0
ENDSEC
  0
SECTION
  2
ENTITIES
  0
TEXT
  5
1B750
330
1B727
100
AcDbEntity
  8
6
  6
Continuous
100
AcDbText
 10
27.97945
 20
10.0487
 30
0.0
 40
1.399999999999999
  1
6
 41
1.069393
100
AcDbText
  0
TEXT
  5
1B751
330
1B727
100
AcDbEntity
  8
1
  6
Continuous
100
AcDbText
 10
17.97945
 20
10.0487
 30
0.0
 40
1.399999999999999
  1
1
 41
1.069393
100
AcDbText
  0
TEXT
  5
1B752
330
1B727
100
AcDbEntity
  8
1
  6
Continuous
100
AcDbText
 10
9.99995
 20
10.0
 30
0.0
 40
1.399999999999999
  1
LAYER
 41
1.009912999999997
100
AcDbText
  0
TEXT
  5
1B753
330
1B727
100
AcDbEntity
  8
2
  6
Continuous
100
AcDbText
 10
19.97944999999998
 20
10.0487
 30
0.0
 40
1.399999999999999
  1
2
 41
1.069393
100
AcDbText
  0
TEXT
  5
1B754
330
1B727
100
AcDbEntity
  8
3
  6
DASHED
100
AcDbText
 10
21.97945
 20
10.0487
 30
0.0
 40
1.399999999999999
  1
3
 41
1.069393
100
AcDbText
  0
TEXT
  5
1B755
330
1B727
100
AcDbEntity
  8
4
  6
CENTER
100
AcDbText
 10
23.97944999999999
 20
10.0487
 30
0.0
 40
1.399999999999999
  1
4
 41
1.069393
100
AcDbText
  0
TEXT
  5
1B756
330
1B727
100
AcDbEntity
  8
5
  6
PHANTOM
100
AcDbText
 10
25.97945
 20
10.0487
 30
0.0
 40
1.399999999999999
  1
5
 41
1.069393
100
AcDbText
  0
TEXT
  5
1B757
330
1B727
100
AcDbEntity
  8
7
  6
Continuous
100
AcDbText
 10
10.00005
 20
26.0
 30
0.0
 40
3.0
  1
CODE No.9108
 41
1.003962999999999
100
AcDbText
  0
TEXT
  5
1B758
330
1B727
100
AcDbEntity
  8
7
  6
Continuous
100
AcDbText
 10
10.00005
 20
18.0
 30
0.0
 40
3.0
  1
TYPE No.105JH-PS
 41
1.002350999999998
100
AcDbText
  0
TEXT
  5
1B759
330
1B727
100
AcDbEntity
  8
7
  6
Continuous
100
AcDbText
 10
29.97944999999999
 20
10.0487
 30
0.0
 40
1.399999999999999
  1
7
 41
1.069393
100
AcDbText
  0
LINE
  5
1B75A
330
1B727
100
AcDbEntity
  8
1
  6
Continuous
100
AcDbLine
 10
250.488321
 20
235.066486
 30
0.0
 11
196.712321
 21
235.066486
 31
0.0
  0
LINE
  5
1B75B
330
1B727
100
AcDbEntity
  8
4
  6
CENTER
100
AcDbLine
 10
238.5645069999999
 20
191.1657679999999
 30
0.0
 11
154.8514899999998
 21
191.1657679999999
 31
0.0
  0
LINE
  5
1B75C
330
1B727
100
AcDbEntity
  8
1
  6
Continuous
100
AcDbLine
 10
220.5433339999999
 20
235.066486
 30
0.0
 11
222.884243
 21
237.4073939999999
 31
0.0
  0
LINE
  5
1B75D
330
1B727
100
AcDbEntity
  8
1
  6
Continuous
100
AcDbLine
 10
223.103831
 20
235.066486
 30
0.0
 11
220.762923
 21
237.4073939999999
 31
0.0
  0
ARC
  5
1B75E
330
1B727
100
AcDbEntity
  8
1
  6
Continuous
100
AcDbCircle
 10
196.6001529999998
 20
191.1657679999999
 30
0.0
 40
32.5
100
AcDbArc
 50
91.52650900000002
 51
146.3717859999999
  0
LINE
  5
1B75F
330
1B727
100
AcDbEntity
  8
1
  6
Continuous
100
AcDbLine
 10
252.07877
 20
239.388766
 30
0.0
 11
195.1213969999998
 21
239.388766
 31
0.0
  0
LINE
  5
1B760
330
1B727
100
AcDbEntity
  8
1
  6
Continuous
100
AcDbLine
 10
262.600156
 20
245.665768
 30
0.0
 11
184.6000029999999
 21
245.665768
 31
0.0
  0
LINE
  5
1B761
330
1B727
100
AcDbEntity
  8
1
  6
Continuous
100
AcDbLine
 10
250.488321
 20
237.4073939999999
 30
0.0
 11
196.712321
 21
237.4073939999999
 31
0.0
  0
LINE
  5
1B762
330
1B727
100
AcDbEntity
  8
4
  6
CENTER
100
AcDbLine
 10
223.600321
 20
250.745768
 30
0.0
 11
223.600321
 21
182.1652999999998
 31
0.0
  0
ARC
  5
1B763
330
1B727
100
AcDbEntity
  8
1
  6
Continuous
100
AcDbCircle
 10
175.956487
 20
241.3414909999999
 30
0.0
 40
74.974334
100
AcDbArc
 50
324.938137
 51
343.64029
  0
ARC
  5
1B764
330
1B727
100
AcDbEntity
  8
1
  6
Continuous
100
AcDbCircle
 10
214.43614
 20
214.3357819999999
 30
0.0
 40
27.963781
100
AcDbArc
 50
314.0926959999998
 51
324.9381389999999
  0
LINE
  5
1B765
330
1B727
100
AcDbEntity
  8
4
  6
CENTER
100
AcDbLine
 10
254.600361
 20
248.565768
 30
0.0
 11
254.600361
 21
239.8657679999999
 31
0.0
  0
ARC
  5
1B766
330
1B727
100
AcDbEntity
  8
1
  6
Continuous
100
AcDbCircle
 10
246.100321
 20
230.0664859999999
 30
0.0
 40
5.0
100
AcDbArc
 50
0.0
 51
90.0
  0
ARC
  5
1B767
330
1B727
100
AcDbEntity
  8
1
  6
Continuous
100
AcDbCircle
 10
257.8531149999998
 20
217.300567
 30
0.0
 40
10.37801699999998
100
AcDbArc
 50
130.5930789999999
 51
163.64029
  0
LINE
  5
1B768
330
1B727
100
AcDbEntity
  8
1
  6
Continuous
100
AcDbLine
 10
251.100321
 20
230.0664859999999
 30
0.0
 11
251.100321
 21
224.0830209999999
 31
0.0
  0
LINE
  5
1B769
330
1B727
100
AcDbEntity
  8
1
  6
Continuous
100
AcDbLine
 10
235.392577
 20
235.066486
 30
0.0
 11
237.7334849999999
 21
237.4073939999999
 31
0.0
  0
LINE
  5
1B76A
330
1B727
100
AcDbEntity
  8
1
  6
Continuous
100
AcDbLine
 10
237.9530739999999
 20
235.066486
 30
0.0
 11
235.6121649999999
 21
237.4073939999999
 31
0.0
  0
LINE
  5
1B76B
330
1B727
100
AcDbEntity
  8
1
  6
Continuous
100
AcDbLine
 10
248.120499
 20
235.066486
 30
0.0
 11
250.4614069999998
 21
237.4073939999999
 31
0.0
  0
LINE
  5
1B76C
330
1B727
100
AcDbEntity
  8
1
  6
Continuous
100
AcDbLine
 10
245.9991779999998
 20
235.066486
 30
0.0
 11
248.340087
 21
237.4073939999999
 31
0.0
  0
LINE
  5
1B76D
330
1B727
100
AcDbEntity
  8
1
  6
Continuous
100
AcDbLine
 10
243.877858
 20
235.066486
 30
0.0
 11
246.218767
 21
237.4073939999999
 31
0.0
  0
LINE
  5
1B76E
330
1B727
100
AcDbEntity
  8
1
  6
Continuous
100
AcDbLine
 10
241.7565379999998
 20
235.066486
 30
0.0
 11
244.097446
 21
237.4073939999999
 31
0.0
  0
LINE
  5
1B76F
330
1B727
100
AcDbEntity
  8
1
  6
Continuous
100
AcDbLine
 10
239.6352169999999
 20
235.066486
 30
0.0
 11
241.976126
 21
237.4073939999999
 31
0.0
  0
LINE
  5
1B770
330
1B727
100
AcDbEntity
  8
1
  6
Continuous
100
AcDbLine
 10
237.513897
 20
235.066486
 30
0.0
 11
239.8548059999999
 21
237.4073939999999
 31
0.0
  0
LINE
  5
1B771
330
1B727
100
AcDbEntity
  8
1
  6
Continuous
100
AcDbLine
 10
250.488321
 20
235.259162
 30
0.0
 11
248.340087
 21
237.4073939999999
 31
0.0
  0
LINE
  5
1B772
330
1B727
100
AcDbEntity
  8
1
  6
Continuous
100
AcDbLine
 10
248.559675
 20
235.066486
 30
0.0
 11
246.218767
 21
237.4073939999999
 31
0.0
  0
LINE
  5
1B773
330
1B727
100
AcDbEntity
  8
1
  6
Continuous
100
AcDbLine
 10
246.4383549999999
 20
235.066486
 30
0.0
 11
244.097446
 21
237.4073939999999
 31
0.0
  0
LINE
  5
1B774
330
1B727
100
AcDbEntity
  8
1
  6
Continuous
100
AcDbLine
 10
244.3170349999999
 20
235.066486
 30
0.0
 11
241.976126
 21
237.4073939999999
 31
0.0
  0
LINE
  5
1B775
330
1B727
100
AcDbEntity
  8
1
  6
Continuous
100
AcDbLine
 10
242.1957139999999
 20
235.066486
 30
0.0
 11
239.8548059999999
 21
237.4073939999999
 31
0.0
  0
LINE
  5
1B776
330
1B727
100
AcDbEntity
  8
1
  6
Continuous
100
AcDbLine
 10
240.0743939999999
 20
235.066486
 30
0.0
 11
237.7334849999999
 21
237.4073939999999
 31
0.0
  0
LINE
  5
1B777
330
1B727
100
AcDbEntity
  8
1
  6
Continuous
100
AcDbLine
 10
250.488321
 20
237.4073939999999
 30
0.0
 11
250.488321
 21
235.066486
 31
0.0
  0
LINE
  5
1B778
330
1B727
100
AcDbEntity
  8
1
  6
Continuous
100
AcDbLine
 10
249.4267199999999
 20
239.388766
 30
0.0
 11
248.578358
 21
237.4073939999999
 31
0.0
  0
LINE
  5
1B779
330
1B727
100
AcDbEntity
  8
1
  6
Continuous
100
AcDbLine
 10
250.488321
 20
237.380481
 30
0.0
 11
250.4614069999998
 21
237.4073939999999
 31
0.0
  0
LINE
  5
1B77A
330
1B727
100
AcDbEntity
  8
1
  6
Continuous
100
AcDbLine
 10
233.271256
 20
235.066486
 30
0.0
 11
235.6121649999999
 21
237.4073939999999
 31
0.0
  0
LINE
  5
1B77B
330
1B727
100
AcDbEntity
  8
1
  6
Continuous
100
AcDbLine
 10
231.149936
 20
235.066486
 30
0.0
 11
233.4908449999999
 21
237.4073939999999
 31
0.0
  0
LINE
  5
1B77C
330
1B727
100
AcDbEntity
  8
1
  6
Continuous
100
AcDbLine
 10
229.028616
 20
235.066486
 30
0.0
 11
231.369524
 21
237.4073939999999
 31
0.0
  0
LINE
  5
1B77D
330
1B727
100
AcDbEntity
  8
1
  6
Continuous
100
AcDbLine
 10
226.9072949999999
 20
235.066486
 30
0.0
 11
229.2482039999999
 21
237.4073939999999
 31
0.0
  0
LINE
  5
1B77E
330
1B727
100
AcDbEntity
  8
1
  6
Continuous
100
AcDbLine
 10
224.7859749999999
 20
235.066486
 30
0.0
 11
227.1268839999999
 21
237.4073939999999
 31
0.0
  0
LINE
  5
1B77F
330
1B727
100
AcDbEntity
  8
1
  6
Continuous
100
AcDbLine
 10
222.6646549999999
 20
235.066486
 30
0.0
 11
225.0055629999998
 21
237.4073939999999
 31
0.0
  0
LINE
  5
1B780
330
1B727
100
AcDbEntity
  8
1
  6
Continuous
100
AcDbLine
 10
235.8317529999999
 20
235.066486
 30
0.0
 11
233.4908449999999
 21
237.4073939999999
 31
0.0
  0
LINE
  5
1B781
330
1B727
100
AcDbEntity
  8
1
  6
Continuous
100
AcDbLine
 10
233.7104329999998
 20
235.066486
 30
0.0
 11
231.369524
 21
237.4073939999999
 31
0.0
  0
LINE
  5
1B782
330
1B727
100
AcDbEntity
  8
1
  6
Continuous
100
AcDbLine
 10
231.589113
 20
235.066486
 30
0.0
 11
229.2482039999999
 21
237.4073939999999
 31
0.0
  0
LINE
  5
1B783
330
1B727
100
AcDbEntity
  8
1
  6
Continuous
100
AcDbLine
 10
229.467792
 20
235.066486
 30
0.0
 11
227.1268839999999
 21
237.4073939999999
 31
0.0
  0
LINE
  5
1B784
330
1B727
100
AcDbEntity
  8
1
  6
Continuous
100
AcDbLine
 10
227.346472
 20
235.066486
 30
0.0
 11
225.0055629999998
 21
237.4073939999999
 31
0.0
  0
LINE
  5
1B785
330
1B727
100
AcDbEntity
  8
1
  6
Continuous
100
AcDbLine
 10
225.225152
 20
235.066486
 30
0.0
 11
222.884243
 21
237.4073939999999
 31
0.0
  0
LINE
  5
1B786
330
1B727
100
AcDbEntity
  8
1
  6
Continuous
100
AcDbLine
 10
262.600156
 20
242.765768
 30
0.0
 11
262.600156
 21
245.665768
 31
0.0
  0
LINE
  5
1B787
330
1B727
100
AcDbEntity
  8
4
  6
CENTER
100
AcDbLine
 10
196.6001529999998
 20
153.997003
 30
0.0
 11
196.6001529999998
 21
228.9970029999998
 31
0.0
  0
LINE
  5
1B788
330
1B727
100
AcDbEntity
  8
4
  6
CENTER
100
AcDbLine
 10
64.00015
 20
250.745768
 30
0.0
 11
64.00015
 21
153.997003
 31
0.0
  0
LINE
  5
1B789
330
1B727
100
AcDbEntity
  8
1
  6
Continuous
100
AcDbLine
 10
50.50015
 20
220.3857469999999
 30
0.0
 11
50.50015
 21
161.9457889999999
 31
0.0
  0
LINE
  5
1B78A
330
1B727
100
AcDbEntity
  8
1
  6
Continuous
100
AcDbLine
 10
77.50015000000002
 20
220.3857469999999
 30
0.0
 11
77.50015000000002
 21
213.065512
 31
0.0
  0
ARC
  5
1B78B
330
1B727
100
AcDbEntity
  8
1
  6
Continuous
100
AcDbCircle
 10
64.00015
 20
358.665768
 30
0.0
 40
200.0
100
AcDbArc
 50
266.944716
 51
273.0552839999999
  0
ARC
  5
1B78C
330
1B727
100
AcDbEntity
  8
1
  6
Continuous
100
AcDbCircle
 10
74.50015
 20
161.9457889999999
 30
0.0
 40
3.0
100
AcDbArc
 50
273.0552839999999
 51
0.0
  0
ARC
  5
1B78D
330
1B727
100
AcDbEntity
  8
1
  6
Continuous
100
AcDbCircle
 10
53.50014999999999
 20
161.9457889999999
 30
0.0
 40
3.0
100
AcDbArc
 50
180.0
 51
266.944716
  0
LINE
  5
1B78E
330
1B727
100
AcDbEntity
  8
1
  6
Continuous
100
AcDbLine
 10
35.521386
 20
239.388766
 30
0.0
 11
92.478767
 21
239.388766
 31
0.0
  0
LINE
  5
1B78F
330
1B727
100
AcDbEntity
  8
4
  6
CENTER
100
AcDbLine
 10
101.627851
 20
191.1657679999999
 30
0.0
 11
31.74649699999999
 21
191.1657679999999
 31
0.0
  0
LINE
  5
1B790
330
1B727
100
AcDbEntity
  8
1
  6
Continuous
100
AcDbLine
 10
67.891025
 20
229.841224
 30
0.0
 11
66.886926
 21
228.8371249999999
 31
0.0
  0
ARC
  5
1B791
330
1B727
100
AcDbEntity
  8
1
  6
Continuous
100
AcDbCircle
 10
64.00015
 20
23.665768
 30
0.0
 40
200.0
100
AcDbArc
 50
86.94471599999998
 51
93.055284
  0
LINE
  5
1B792
330
1B727
100
AcDbEntity
  8
1
  6
Continuous
100
AcDbLine
 10
79.70014999999998
 20
227.878125
 30
0.0
 11
48.30015
 21
227.878125
 31
0.0
  0
LINE
  5
1B793
330
1B727
100
AcDbEntity
  8
1
  6
Continuous
100
AcDbLine
 10
78.04987
 20
224.0830209999999
 30
0.0
 11
49.95076599999999
 21
224.0830209999999
 31
0.0
  0
LINE
  5
1B794
330
1B727
100
AcDbEntity
  8
1
  6
Continuous
100
AcDbLine
 10
79.45366700000002
 20
228.8371249999999
 30
0.0
 11
48.546656
 21
228.8371249999999
 31
0.0
  0
LINE
  5
1B795
330
1B727
100
AcDbEntity
  8
1
  6
Continuous
100
AcDbLine
 10
49.735271
 20
232.441224
 30
0.0
 11
78.26505
 21
232.441224
 31
0.0
  0
LINE
  5
1B796
330
1B727
100
AcDbEntity
  8
1
  6
Continuous
100
AcDbLine
 10
91.50015000000001
 20
230.0664859999999
 30
0.0
 11
91.50015000000001
 21
204.7850469999999
 31
0.0
  0
ARC
  5
1B797
330
1B727
100
AcDbEntity
  8
1
  6
Continuous
100
AcDbCircle
 10
177.1111789999999
 20
218.523822
 30
0.0
 40
19.31694599999999
100
AcDbArc
 50
344.9237769999998
 51
16.451283
  0
LINE
  5
1B798
330
1B727
100
AcDbEntity
  8
1
  6
Continuous
100
AcDbLine
 10
82.30014999999999
 20
228.4412239999999
 30
0.0
 11
82.30014999999999
 21
209.01119
 31
0.0
  0
ARC
  5
1B799
330
1B727
100
AcDbEntity
  8
1
  6
Continuous
100
AcDbCircle
 10
178.511882
 20
214.980966
 30
0.0
 40
16.94499
100
AcDbArc
 50
339.1740009999999
 51
341.252717
  0
ARC
  5
1B79A
330
1B727
100
AcDbEntity
  8
1
  6
Continuous
100
AcDbCircle
 10
133.306553
 20
230.323717
 30
0.0
 40
64.683044
100
AcDbArc
 50
341.252717
 51
344.9237769999998
  0
LINE
  5
1B79B
330
1B727
100
AcDbEntity
  8
4
  6
CENTER
100
AcDbLine
 10
192.600361
 20
248.565768
 30
0.0
 11
192.600361
 21
239.8657679999999
 31
0.0
  0
LINE
  5
1B79C
330
1B727
100
AcDbEntity
  8
1
  6
Continuous
100
AcDbLine
 10
187.530154
 20
232.441224
 30
0.0
 11
198.6003209999998
 21
232.441224
 31
0.0
  0
ARC
  5
1B79D
330
1B727
100
AcDbEntity
  8
1
  6
Continuous
100
AcDbCircle
 10
183.837104
 20
220.782707
 30
0.0
 40
12.22945799999999
100
AcDbArc
 50
15.225267
 51
72.423445
  0
LINE
  5
1B79E
330
1B727
100
AcDbEntity
  8
1
  6
Continuous
100
AcDbLine
 10
208.254589
 20
235.066486
 30
0.0
 11
205.91368
 21
237.4073939999999
 31
0.0
  0
LINE
  5
1B79F
330
1B727
100
AcDbEntity
  8
1
  6
Continuous
100
AcDbLine
 10
205.6940919999999
 20
235.066486
 30
0.0
 11
208.035001
 21
237.4073939999999
 31
0.0
  0
LINE
  5
1B7A0
330
1B727
100
AcDbEntity
  8
1
  6
Continuous
100
AcDbLine
 10
218.4220139999999
 20
235.066486
 30
0.0
 11
220.762923
 21
237.4073939999999
 31
0.0
  0
LINE
  5
1B7A1
330
1B727
100
AcDbEntity
  8
1
  6
Continuous
100
AcDbLine
 10
216.3006939999999
 20
235.066486
 30
0.0
 11
218.641602
 21
237.4073939999999
 31
0.0
  0
LINE
  5
1B7A2
330
1B727
100
AcDbEntity
  8
1
  6
Continuous
100
AcDbLine
 10
214.1793729999999
 20
235.066486
 30
0.0
 11
216.5202819999999
 21
237.4073939999999
 31
0.0
  0
LINE
  5
1B7A3
330
1B727
100
AcDbEntity
  8
1
  6
Continuous
100
AcDbLine
 10
212.0580529999998
 20
235.066486
 30
0.0
 11
214.398962
 21
237.4073939999999
 31
0.0
  0
LINE
  5
1B7A4
330
1B727
100
AcDbEntity
  8
1
  6
Continuous
100
AcDbLine
 10
209.936733
 20
235.066486
 30
0.0
 11
212.2776409999999
 21
237.4073939999999
 31
0.0
  0
LINE
  5
1B7A5
330
1B727
100
AcDbEntity
  8
1
  6
Continuous
100
AcDbLine
 10
207.815412
 20
235.066486
 30
0.0
 11
210.156321
 21
237.4073939999999
 31
0.0
  0
LINE
  5
1B7A6
330
1B727
100
AcDbEntity
  8
1
  6
Continuous
100
AcDbLine
 10
220.982511
 20
235.066486
 30
0.0
 11
218.641602
 21
237.4073939999999
 31
0.0
  0
LINE
  5
1B7A7
330
1B727
100
AcDbEntity
  8
1
  6
Continuous
100
AcDbLine
 10
218.861191
 20
235.066486
 30
0.0
 11
216.5202819999999
 21
237.4073939999999
 31
0.0
  0
LINE
  5
1B7A8
330
1B727
100
AcDbEntity
  8
1
  6
Continuous
100
AcDbLine
 10
216.73987
 20
235.066486
 30
0.0
 11
214.398962
 21
237.4073939999999
 31
0.0
  0
LINE
  5
1B7A9
330
1B727
100
AcDbEntity
  8
1
  6
Continuous
100
AcDbLine
 10
214.61855
 20
235.066486
 30
0.0
 11
212.2776409999999
 21
237.4073939999999
 31
0.0
  0
LINE
  5
1B7AA
330
1B727
100
AcDbEntity
  8
1
  6
Continuous
100
AcDbLine
 10
210.3759089999999
 20
235.066486
 30
0.0
 11
208.035001
 21
237.4073939999999
 31
0.0
  0
LINE
  5
1B7AB
330
1B727
100
AcDbEntity
  8
1
  6
Continuous
100
AcDbLine
 10
212.4972299999998
 20
235.066486
 30
0.0
 11
210.156321
 21
237.4073939999999
 31
0.0
  0
LINE
  5
1B7AC
330
1B727
100
AcDbEntity
  8
1
  6
Continuous
100
AcDbLine
 10
196.712321
 20
236.691317
 30
0.0
 11
197.428399
 21
237.4073939999999
 31
0.0
  0
LINE
  5
1B7AD
330
1B727
100
AcDbEntity
  8
1
  6
Continuous
100
AcDbLine
 10
197.2088109999999
 20
235.066486
 30
0.0
 11
199.5497189999999
 21
237.4073939999999
 31
0.0
  0
LINE
  5
1B7AE
330
1B727
100
AcDbEntity
  8
1
  6
Continuous
100
AcDbLine
 10
199.3301309999999
 20
235.066486
 30
0.0
 11
201.67104
 21
237.4073939999999
 31
0.0
  0
LINE
  5
1B7AF
330
1B727
100
AcDbEntity
  8
1
  6
Continuous
100
AcDbLine
 10
201.451451
 20
235.066486
 30
0.0
 11
203.79236
 21
237.4073939999999
 31
0.0
  0
LINE
  5
1B7B0
330
1B727
100
AcDbEntity
  8
1
  6
Continuous
100
AcDbLine
 10
203.5727719999999
 20
235.066486
 30
0.0
 11
205.91368
 21
237.4073939999999
 31
0.0
  0
LINE
  5
1B7B1
330
1B727
100
AcDbEntity
  8
1
  6
Continuous
100
AcDbLine
 10
199.7693079999999
 20
235.066486
 30
0.0
 11
197.428399
 21
237.4073939999999
 31
0.0
  0
LINE
  5
1B7B2
330
1B727
100
AcDbEntity
  8
1
  6
Continuous
100
AcDbLine
 10
201.8906279999999
 20
235.066486
 30
0.0
 11
199.5497189999999
 21
237.4073939999999
 31
0.0
  0
LINE
  5
1B7B3
330
1B727
100
AcDbEntity
  8
1
  6
Continuous
100
AcDbLine
 10
204.0119479999999
 20
235.066486
 30
0.0
 11
201.67104
 21
237.4073939999999
 31
0.0
  0
LINE
  5
1B7B4
330
1B727
100
AcDbEntity
  8
1
  6
Continuous
100
AcDbLine
 10
206.1332689999999
 20
235.066486
 30
0.0
 11
203.79236
 21
237.4073939999999
 31
0.0
  0
LINE
  5
1B7B5
330
1B727
100
AcDbEntity
  8
1
  6
Continuous
100
AcDbLine
 10
196.712321
 20
237.4073939999999
 30
0.0
 11
196.712321
 21
235.066486
 31
0.0
  0
ARC
  5
1B7B6
330
1B727
100
AcDbEntity
  8
1
  6
Continuous
100
AcDbCircle
 10
201.100321
 20
230.0664859999999
 30
0.0
 40
5.0
100
AcDbArc
 50
90.0
 51
151.644062
  0
ARC
  5
1B7B7
330
1B727
100
AcDbEntity
  8
1
  6
Continuous
100
AcDbCircle
 10
198.6003209999998
 20
234.9412239999999
 30
0.0
 40
2.5
100
AcDbArc
 50
270.0
 51
0.0
  0
LINE
  5
1B7B8
330
1B727
100
AcDbEntity
  8
1
  6
Continuous
100
AcDbLine
 10
197.774068
 20
239.388766
 30
0.0
 11
198.62243
 21
237.4073939999999
 31
0.0
  0
LINE
  5
1B7B9
330
1B727
100
AcDbEntity
  8
1
  6
Continuous
100
AcDbLine
 10
187.530154
 20
232.441224
 30
0.0
 11
187.530154
 21
229.841224
 31
0.0
  0
LINE
  5
1B7BA
330
1B727
100
AcDbEntity
  8
1
  6
Continuous
100
AcDbLine
 10
184.6000029999999
 20
242.765768
 30
0.0
 11
184.6000029999999
 21
245.665768
 31
0.0
  0
LINE
  5
1B7BB
330
1B727
100
AcDbEntity
  8
4
  6
CENTER
100
AcDbLine
 10
95.00035799999999
 20
248.6657679999999
 30
0.0
 11
95.00035799999999
 21
239.665768
 31
0.0
  0
ARC
  5
1B7BC
330
1B727
100
AcDbEntity
  8
1
  6
Continuous
100
AcDbCircle
 10
86.50015000000001
 20
230.0664859999999
 30
0.0
 40
5.0
100
AcDbArc
 50
0.0
 51
90.0
  0
ARC
  5
1B7BD
330
1B727
100
AcDbEntity
  8
1
  6
Continuous
100
AcDbCircle
 10
78.23996599999998
 20
228.3806659999999
 30
0.0
 40
4.060635999999997
100
AcDbArc
 50
0.8545099999999996
 51
89.64606100000002
  0
ARC
  5
1B7BE
330
1B727
100
AcDbEntity
  8
1
  6
Continuous
100
AcDbCircle
 10
74.50015
 20
220.3857469999999
 30
0.0
 40
3.0
100
AcDbArc
 50
0.0
 51
86.94471599999998
  0
ARC
  5
1B7BF
330
1B727
100
AcDbEntity
  8
1
  6
Continuous
100
AcDbCircle
 10
78.04987
 20
230.135018
 30
0.0
 40
6.051997
100
AcDbArc
 50
270.0
 51
285.8240159999999
  0
LINE
  5
1B7C0
330
1B727
100
AcDbEntity
  8
1
  6
Continuous
100
AcDbLine
 10
73.75007700000002
 20
224.0830209999999
 30
0.0
 11
73.75007700000002
 21
223.427974
 31
0.0
  0
LINE
  5
1B7C1
330
1B727
100
AcDbEntity
  8
1
  6
Continuous
100
AcDbLine
 10
74.36810899999997
 20
229.841224
 30
0.0
 11
75.372208
 21
228.8371249999999
 31
0.0
  0
LINE
  5
1B7C2
330
1B727
100
AcDbEntity
  8
1
  6
Continuous
100
AcDbLine
 10
78.41665999999998
 20
229.760256
 30
0.0
 11
77.493528
 21
228.8371249999999
 31
0.0
  0
LINE
  5
1B7C3
330
1B727
100
AcDbEntity
  8
1
  6
Continuous
100
AcDbLine
 10
76.376306
 20
229.841224
 30
0.0
 11
75.372208
 21
228.8371249999999
 31
0.0
  0
LINE
  5
1B7C4
330
1B727
100
AcDbEntity
  8
1
  6
Continuous
100
AcDbLine
 10
76.489429
 20
229.841224
 30
0.0
 11
77.493528
 21
228.8371249999999
 31
0.0
  0
ARC
  5
1B7C5
330
1B727
100
AcDbEntity
  8
1
  6
Continuous
100
AcDbCircle
 10
77.64422299999998
 20
227.8377279999999
 30
0.0
 40
2.067095
100
AcDbArc
 50
5.958555999999997
 51
75.750507
  0
LINE
  5
1B7C6
330
1B727
100
AcDbEntity
  8
1
  6
Continuous
100
AcDbLine
 10
74.254986
 20
229.841224
 30
0.0
 11
73.25088700000002
 21
228.8371249999999
 31
0.0
  0
LINE
  5
1B7C7
330
1B727
100
AcDbEntity
  8
1
  6
Continuous
100
AcDbLine
 10
72.133666
 20
229.841224
 30
0.0
 11
71.12956700000002
 21
228.8371249999999
 31
0.0
  0
LINE
  5
1B7C8
330
1B727
100
AcDbEntity
  8
1
  6
Continuous
100
AcDbLine
 10
70.01234499999999
 20
229.841224
 30
0.0
 11
69.00824599999999
 21
228.8371249999999
 31
0.0
  0
LINE
  5
1B7C9
330
1B727
100
AcDbEntity
  8
1
  6
Continuous
100
AcDbLine
 10
72.24678799999998
 20
229.841224
 30
0.0
 11
73.25088700000002
 21
228.8371249999999
 31
0.0
  0
LINE
  5
1B7CA
330
1B727
100
AcDbEntity
  8
1
  6
Continuous
100
AcDbLine
 10
70.12546800000001
 20
229.841224
 30
0.0
 11
71.12956700000002
 21
228.8371249999999
 31
0.0
  0
LINE
  5
1B7CB
330
1B727
100
AcDbEntity
  8
1
  6
Continuous
100
AcDbLine
 10
68.004148
 20
229.841224
 30
0.0
 11
69.00824599999999
 21
228.8371249999999
 31
0.0
  0
LINE
  5
1B7CC
330
1B727
100
AcDbEntity
  8
1
  6
Continuous
100
AcDbLine
 10
89.82647599999998
 20
239.388766
 30
0.0
 11
88.978114
 21
237.4073939999999
 31
0.0
  0
LINE
  5
1B7CD
330
1B727
100
AcDbEntity
  8
1
  6
Continuous
100
AcDbLine
 10
103.000153
 20
242.765768
 30
0.0
 11
103.000153
 21
245.665768
 31
0.0
  0
LINE
  5
1B7CE
330
1B727
100
AcDbEntity
  8
1
  6
Continuous
100
AcDbLine
 10
36.50014999999999
 20
230.0664859999999
 30
0.0
 11
36.50014999999999
 21
193.46353
 31
0.0
  0
LINE
  5
1B7CF
330
1B727
100
AcDbEntity
  8
1
  6
Continuous
100
AcDbLine
 10
45.70015
 20
228.4412239999999
 30
0.0
 11
45.70015
 21
180.1657679999999
 31
0.0
  0
LINE
  5
1B7D0
330
1B727
100
AcDbEntity
  8
1
  6
Continuous
100
AcDbLine
 10
48.50014999999999
 20
196.6657679999999
 30
0.0
 11
48.50014999999999
 21
185.6657679999999
 31
0.0
  0
LINE
  5
1B7D1
330
1B727
100
AcDbEntity
  8
1
  6
Continuous
100
AcDbLine
 10
48.75015
 20
199.665768
 30
0.0
 11
48.75015
 21
182.6657679999999
 31
0.0
  0
LINE
  5
1B7D2
330
1B727
100
AcDbEntity
  8
1
  6
Continuous
100
AcDbLine
 10
86.88825699999998
 20
198.1657679999999
 30
0.0
 11
86.88825699999998
 21
184.1657679999999
 31
0.0
  0
ARC
  5
1B7D3
330
1B727
100
AcDbEntity
  8
1
  6
Continuous
100
AcDbCircle
 10
48.120119
 20
194.1241259999999
 30
0.0
 40
11.63873099999998
100
AcDbArc
 50
183.2537669999999
 51
244.3958499999999
  0
ARC
  5
1B7D4
330
1B727
100
AcDbEntity
  8
1
  6
Continuous
100
AcDbCircle
 10
40.70329899999999
 20
179.114374
 30
0.0
 40
5.106265999999998
100
AcDbArc
 50
11.882349
 51
62.128486
  0
ARC
  5
1B7D5
330
1B727
100
AcDbEntity
  8
1
  6
Continuous
100
AcDbCircle
 10
51.287757
 20
182.678086
 30
0.0
 40
2.537636999999997
100
AcDbArc
 50
180.278118
 51
251.91845
  0
LINE
  5
1B7D6
330
1B727
100
AcDbEntity
  8
1
  6
Continuous
100
AcDbLine
 10
48.50014999999999
 20
187.165768
 30
0.0
 11
48.30015
 21
187.165768
 31
0.0
  0
LINE
  5
1B7D7
330
1B727
100
AcDbEntity
  8
1
  6
Continuous
100
AcDbLine
 10
48.75015
 20
185.6657679999999
 30
0.0
 11
48.50014999999999
 21
185.6657679999999
 31
0.0
  0
LINE
  5
1B7D8
330
1B727
100
AcDbEntity
  8
1
  6
Continuous
100
AcDbLine
 10
48.50014999999999
 20
195.1657679999999
 30
0.0
 11
48.30015
 21
195.1657679999999
 31
0.0
  0
ARC
  5
1B7D9
330
1B727
100
AcDbEntity
  8
1
  6
Continuous
100
AcDbCircle
 10
51.287757
 20
199.653451
 30
0.0
 40
2.537636999999997
100
AcDbArc
 50
108.0815499999998
 51
179.7218819999999
  0
LINE
  5
1B7DA
330
1B727
100
AcDbEntity
  8
1
  6
Continuous
100
AcDbLine
 10
48.75015
 20
196.6657679999999
 30
0.0
 11
48.50014999999999
 21
196.6657679999999
 31
0.0
  0
LINE
  5
1B7DB
330
1B727
100
AcDbEntity
  8
4
  6
CENTER
100
AcDbLine
 10
33.00035799999999
 20
248.6657679999999
 30
0.0
 11
33.00035799999999
 21
239.665768
 31
0.0
  0
ARC
  5
1B7DC
330
1B727
100
AcDbEntity
  8
1
  6
Continuous
100
AcDbCircle
 10
41.50014999999998
 20
230.0664859999999
 30
0.0
 40
5.0
100
AcDbArc
 50
90.0
 51
180.0
  0
ARC
  5
1B7DD
330
1B727
100
AcDbEntity
  8
1
  6
Continuous
100
AcDbCircle
 10
49.735271
 20
228.4412239999999
 30
0.0
 40
4.0
100
AcDbArc
 50
90.0
 51
180.0
  0
LINE
  5
1B7DE
330
1B727
100
AcDbEntity
  8
1
  6
Continuous
100
AcDbLine
 10
51.03358499999998
 20
229.841224
 30
0.0
 11
52.03768400000001
 21
228.8371249999999
 31
0.0
  0
ARC
  5
1B7DF
330
1B727
100
AcDbEntity
  8
1
  6
Continuous
100
AcDbCircle
 10
53.50014999999999
 20
220.3857469999999
 30
0.0
 40
3.0
100
AcDbArc
 50
93.055284
 51
180.0
  0
LINE
  5
1B7E0
330
1B727
100
AcDbEntity
  8
1
  6
Continuous
100
AcDbLine
 10
54.250077
 20
224.0830209999999
 30
0.0
 11
54.250077
 21
223.4279669999998
 31
0.0
  0
LINE
  5
1B7E1
330
1B727
100
AcDbEntity
  8
1
  6
Continuous
100
AcDbLine
 10
59.40574399999999
 20
229.841224
 30
0.0
 11
58.401645
 21
228.8371249999999
 31
0.0
  0
LINE
  5
1B7E2
330
1B727
100
AcDbEntity
  8
1
  6
Continuous
100
AcDbLine
 10
65.769705
 20
229.841224
 30
0.0
 11
64.765606
 21
228.8371249999999
 31
0.0
  0
LINE
  5
1B7E3
330
1B727
100
AcDbEntity
  8
1
  6
Continuous
100
AcDbLine
 10
63.648384
 20
229.841224
 30
0.0
 11
62.64428500000001
 21
228.8371249999999
 31
0.0
  0
LINE
  5
1B7E4
330
1B727
100
AcDbEntity
  8
1
  6
Continuous
100
AcDbLine
 10
61.527064
 20
229.841224
 30
0.0
 11
60.522965
 21
228.8371249999999
 31
0.0
  0
LINE
  5
1B7E5
330
1B727
100
AcDbEntity
  8
1
  6
Continuous
100
AcDbLine
 10
65.882827
 20
229.841224
 30
0.0
 11
66.886926
 21
228.8371249999999
 31
0.0
  0
LINE
  5
1B7E6
330
1B727
100
AcDbEntity
  8
1
  6
Continuous
100
AcDbLine
 10
63.761507
 20
229.841224
 30
0.0
 11
64.765606
 21
228.8371249999999
 31
0.0
  0
LINE
  5
1B7E7
330
1B727
100
AcDbEntity
  8
1
  6
Continuous
100
AcDbLine
 10
61.64018699999999
 20
229.841224
 30
0.0
 11
62.64428500000001
 21
228.8371249999999
 31
0.0
  0
LINE
  5
1B7E8
330
1B727
100
AcDbEntity
  8
1
  6
Continuous
100
AcDbLine
 10
59.518866
 20
229.841224
 30
0.0
 11
60.522965
 21
228.8371249999999
 31
0.0
  0
LINE
  5
1B7E9
330
1B727
100
AcDbEntity
  8
1
  6
Continuous
100
AcDbLine
 10
53.041783
 20
229.841224
 30
0.0
 11
52.03768400000001
 21
228.8371249999999
 31
0.0
  0
LINE
  5
1B7EA
330
1B727
100
AcDbEntity
  8
1
  6
Continuous
100
AcDbLine
 10
55.163103
 20
229.841224
 30
0.0
 11
54.159004
 21
228.8371249999999
 31
0.0
  0
LINE
  5
1B7EB
330
1B727
100
AcDbEntity
  8
1
  6
Continuous
100
AcDbLine
 10
57.284423
 20
229.841224
 30
0.0
 11
56.280324
 21
228.8371249999999
 31
0.0
  0
LINE
  5
1B7EC
330
1B727
100
AcDbEntity
  8
1
  6
Continuous
100
AcDbLine
 10
57.397546
 20
229.841224
 30
0.0
 11
58.401645
 21
228.8371249999999
 31
0.0
  0
LINE
  5
1B7ED
330
1B727
100
AcDbEntity
  8
1
  6
Continuous
100
AcDbLine
 10
53.15490500000001
 20
229.841224
 30
0.0
 11
54.159004
 21
228.8371249999999
 31
0.0
  0
LINE
  5
1B7EE
330
1B727
100
AcDbEntity
  8
1
  6
Continuous
100
AcDbLine
 10
55.276226
 20
229.841224
 30
0.0
 11
56.280324
 21
228.8371249999999
 31
0.0
  0
ARC
  5
1B7EF
330
1B727
100
AcDbEntity
  8
1
  6
Continuous
100
AcDbCircle
 10
49.95076599999999
 20
230.135018
 30
0.0
 40
6.051997
100
AcDbArc
 50
254.1726779999998
 51
270.0
  0
LINE
  5
1B7F0
330
1B727
100
AcDbEntity
  8
1
  6
Continuous
100
AcDbLine
 10
50.920462
 20
229.841224
 30
0.0
 11
49.91636299999999
 21
228.8371249999999
 31
0.0
  0
LINE
  5
1B7F1
330
1B727
100
AcDbEntity
  8
1
  6
Continuous
100
AcDbLine
 10
49.19912700000001
 20
229.554361
 30
0.0
 11
49.91636299999999
 21
228.8371249999999
 31
0.0
  0
ARC
  5
1B7F2
330
1B727
100
AcDbEntity
  8
1
  6
Continuous
100
AcDbCircle
 10
50.356121
 20
227.8376909999999
 30
0.0
 40
2.067130999999998
100
AcDbArc
 50
104.2493879999999
 51
174.0435449999999
  0
LINE
  5
1B7F3
330
1B727
100
AcDbEntity
  8
1
  6
Continuous
100
AcDbLine
 10
38.17382399999999
 20
239.388766
 30
0.0
 11
39.02218599999999
 21
237.4073939999999
 31
0.0
  0
LINE
  5
1B7F4
330
1B727
100
AcDbEntity
  8
1
  6
Continuous
100
AcDbLine
 10
25.0
 20
242.765768
 30
0.0
 11
25.0
 21
245.665768
 31
0.0
  0
LINE
  5
1B7F5
330
1B727
100
AcDbEntity
  8
4
  6
CENTER
100
AcDbLine
 10
267.300361
 20
324.6642699999999
 30
0.0
 11
159.099779
 21
324.6642699999999
 31
0.0
  0
CIRCLE
  5
1B7F6
330
1B727
100
AcDbEntity
  8
1
  6
Continuous
100
AcDbCircle
 10
223.600361
 20
324.6642699999999
 30
0.0
 40
13.34999999999999
  0
ARC
  5
1B7F7
330
1B727
100
AcDbEntity
  8
1
  6
Continuous
100
AcDbCircle
 10
223.600361
 20
-1307.852397
 30
0.0
 40
1593.816667
100
AcDbArc
 50
88.89108399999996
 51
91.10891600000002
  0
ARC
  5
1B7F8
330
1B727
100
AcDbEntity
  8
1
  6
Continuous
100
AcDbCircle
 10
223.600361
 20
1957.180937
 30
0.0
 40
1593.816667
100
AcDbArc
 50
268.8910839999999
 51
271.108916
  0
LINE
  5
1B7F9
330
1B727
100
AcDbEntity
  8
4
  6
CENTER
100
AcDbLine
 10
223.600361
 20
280.9642699999999
 30
0.0
 11
223.600361
 21
368.36427
 31
0.0
  0
ARC
  5
1B7FA
330
1B727
100
AcDbEntity
  8
1
  6
Continuous
100
AcDbCircle
 10
1856.117027999999
 20
324.6642699999999
 30
0.0
 40
1593.816667
100
AcDbArc
 50
178.8910839999998
 51
181.1089159999999
  0
LINE
  5
1B7FB
330
1B727
100
AcDbEntity
  8
4
  6
CENTER
100
AcDbLine
 10
254.600361
 20
285.1642699999999
 30
0.0
 11
254.600361
 21
302.1642700000001
 31
0.0
  0
LINE
  5
1B7FC
330
1B727
100
AcDbEntity
  8
4
  6
CENTER
100
AcDbLine
 10
263.1003609999999
 20
293.6642699999999
 30
0.0
 11
246.100361
 21
293.6642699999999
 31
0.0
  0
CIRCLE
  5
1B7FD
330
1B727
100
AcDbEntity
  8
1
  6
Continuous
100
AcDbCircle
 10
254.600361
 20
293.6642699999999
 30
0.0
 40
4.25
  0
ARC
  5
1B7FE
330
1B727
100
AcDbEntity
  8
1
  6
Continuous
100
AcDbCircle
 10
254.600361
 20
293.6642699999999
 30
0.0
 40
8.0
100
AcDbArc
 50
268.8910839999999
 51
1.108916
  0
LINE
  5
1B7FF
330
1B727
100
AcDbEntity
  8
4
  6
CENTER
100
AcDbLine
 10
263.1003609999999
 20
355.6642699999999
 30
0.0
 11
246.100361
 21
355.6642699999999
 31
0.0
  0
CIRCLE
  5
1B800
330
1B727
100
AcDbEntity
  8
1
  6
Continuous
100
AcDbCircle
 10
254.600361
 20
355.6642699999999
 30
0.0
 40
4.25
  0
LINE
  5
1B801
330
1B727
100
AcDbEntity
  8
4
  6
CENTER
100
AcDbLine
 10
254.600361
 20
347.1642699999999
 30
0.0
 11
254.600361
 21
364.1642699999999
 31
0.0
  0
ARC
  5
1B802
330
1B727
100
AcDbEntity
  8
1
  6
Continuous
100
AcDbCircle
 10
254.600361
 20
355.6642699999999
 30
0.0
 40
8.0
100
AcDbArc
 50
358.891084
 51
91.10891600000002
  0
ARC
  5
1B803
330
1B727
100
AcDbEntity
  8
1
  6
Continuous
100
AcDbCircle
 10
364.099779
 20
324.664373
 30
0.0
 40
200.0
100
AcDbArc
 50
176.944716
 51
183.055284
  0
ARC
  5
1B804
330
1B727
100
AcDbEntity
  8
1
  6
Continuous
100
AcDbCircle
 10
-1408.916304999999
 20
324.6642699999999
 30
0.0
 40
1593.816667
100
AcDbArc
 50
358.891084
 51
1.108916
  0
LINE
  5
1B805
330
1B727
100
AcDbEntity
  8
4
  6
CENTER
100
AcDbLine
 10
192.600361
 20
285.1642699999999
 30
0.0
 11
192.600361
 21
302.1642700000001
 31
0.0
  0
LINE
  5
1B806
330
1B727
100
AcDbEntity
  8
4
  6
CENTER
100
AcDbLine
 10
201.1003609999999
 20
293.6642699999999
 30
0.0
 11
184.1003609999999
 21
293.6642699999999
 31
0.0
  0
CIRCLE
  5
1B807
330
1B727
100
AcDbEntity
  8
1
  6
Continuous
100
AcDbCircle
 10
192.600361
 20
293.6642699999999
 30
0.0
 40
4.25
  0
ARC
  5
1B808
330
1B727
100
AcDbEntity
  8
1
  6
Continuous
100
AcDbCircle
 10
192.600361
 20
293.6642699999999
 30
0.0
 40
8.0
100
AcDbArc
 50
178.8910839999998
 51
271.108916
  0
ARC
  5
1B809
330
1B727
100
AcDbEntity
  8
1
  6
Continuous
100
AcDbCircle
 10
167.3798009999999
 20
314.164373
 30
0.0
 40
3.0
100
AcDbArc
 50
183.055284
 51
270.0
  0
LINE
  5
1B80A
330
1B727
100
AcDbEntity
  8
1
  6
Continuous
100
AcDbLine
 10
184.8431879999999
 20
311.164373
 30
0.0
 11
167.3798009999999
 21
311.164373
 31
0.0
  0
ARC
  5
1B80B
330
1B727
100
AcDbEntity
  8
1
  6
Continuous
100
AcDbCircle
 10
167.3798009999999
 20
335.164373
 30
0.0
 40
3.0
100
AcDbArc
 50
90.0
 51
176.944716
  0
LINE
  5
1B80C
330
1B727
100
AcDbEntity
  8
1
  6
Continuous
100
AcDbLine
 10
184.8431859999998
 20
338.164373
 30
0.0
 11
167.3798009999999
 21
338.164373
 31
0.0
  0
LINE
  5
1B80D
330
1B727
100
AcDbEntity
  8
4
  6
CENTER
100
AcDbLine
 10
201.1003609999999
 20
355.6642699999999
 30
0.0
 11
184.1003609999999
 21
355.6642699999999
 31
0.0
  0
CIRCLE
  5
1B80E
330
1B727
100
AcDbEntity
  8
1
  6
Continuous
100
AcDbCircle
 10
192.600361
 20
355.6642699999999
 30
0.0
 40
4.25
  0
ARC
  5
1B80F
330
1B727
100
AcDbEntity
  8
1
  6
Continuous
100
AcDbCircle
 10
192.600361
 20
355.6642699999999
 30
0.0
 40
8.0
100
AcDbArc
 50
88.89108399999996
 51
181.1089159999999
  0
LINE
  5
1B810
330
1B727
100
AcDbEntity
  8
4
  6
CENTER
100
AcDbLine
 10
192.600361
 20
347.1642699999999
 30
0.0
 11
192.600361
 21
364.1642699999999
 31
0.0
  0
LINE
  5
1B811
330
1B727
100
AcDbEntity
  8
4
  6
CENTER
100
AcDbLine
 10
361.6001589999998
 20
250.6657679999999
 30
0.0
 11
361.6001589999998
 21
153.6657679999999
 31
0.0
  0
LINE
  5
1B812
330
1B727
100
AcDbEntity
  8
1
  6
Continuous
100
AcDbLine
 10
348.1001589999999
 20
161.9457889999999
 30
0.0
 11
348.1001589999999
 21
214.783552
 31
0.0
  0
LINE
  5
1B813
330
1B727
100
AcDbEntity
  8
1
  6
Continuous
100
AcDbLine
 10
375.1001589999999
 20
214.783552
 30
0.0
 11
375.1001589999999
 21
161.9457889999999
 31
0.0
  0
ARC
  5
1B814
330
1B727
100
AcDbEntity
  8
1
  6
Continuous
100
AcDbCircle
 10
361.6001589999998
 20
358.665768
 30
0.0
 40
200.0
100
AcDbArc
 50
266.944716
 51
273.0552839999999
  0
ARC
  5
1B815
330
1B727
100
AcDbEntity
  8
1
  6
Continuous
100
AcDbCircle
 10
351.1001589999998
 20
161.9457889999999
 30
0.0
 40
3.0
100
AcDbArc
 50
180.0
 51
266.944716
  0
ARC
  5
1B816
330
1B727
100
AcDbEntity
  8
1
  6
Continuous
100
AcDbCircle
 10
372.1001589999998
 20
161.9457889999999
 30
0.0
 40
3.0
100
AcDbArc
 50
273.0552839999999
 51
0.0
  0
LINE
  5
1B817
330
1B727
100
AcDbEntity
  8
4
  6
CENTER
100
AcDbLine
 10
323.9724629999999
 20
191.1657679999999
 30
0.0
 11
393.91027
 21
191.1657679999999
 31
0.0
  0
LINE
  5
1B818
330
1B727
100
AcDbEntity
  8
1
  6
Continuous
100
AcDbLine
 10
333.1215419999999
 20
239.388766
 30
0.0
 11
390.0789229999999
 21
239.388766
 31
0.0
  0
LINE
  5
1B819
330
1B727
100
AcDbEntity
  8
1
  6
Continuous
100
AcDbLine
 10
322.600156
 20
245.665768
 30
0.0
 11
400.600309
 21
245.665768
 31
0.0
  0
LINE
  5
1B81A
330
1B727
100
AcDbEntity
  8
4
  6
CENTER
100
AcDbLine
 10
330.6001589999999
 20
248.565768
 30
0.0
 11
330.6001589999999
 21
239.8657679999999
 31
0.0
  0
LINE
  5
1B81B
330
1B727
100
AcDbEntity
  8
1
  6
Continuous
100
AcDbLine
 10
322.600156
 20
242.765768
 30
0.0
 11
322.600156
 21
245.665768
 31
0.0
  0
ARC
  5
1B81C
330
1B727
100
AcDbEntity
  8
1
  6
Continuous
100
AcDbCircle
 10
417.6122939999998
 20
240.2184549999998
 30
0.0
 40
50.0
100
AcDbArc
 50
199.6636979999999
 51
204.53831
  0
LINE
  5
1B81D
330
1B727
100
AcDbEntity
  8
1
  6
Continuous
100
AcDbLine
 10
353.4280519999999
 20
224.0830209999999
 30
0.0
 11
369.7721959999999
 21
224.0830209999999
 31
0.0
  0
ARC
  5
1B81E
330
1B727
100
AcDbEntity
  8
1
  6
Continuous
100
AcDbCircle
 10
361.6001589999998
 20
195.6887659999999
 30
0.0
 40
30.0
100
AcDbArc
 50
77.16041199999998
 51
102.839588
  0
ARC
  5
1B81F
330
1B727
100
AcDbEntity
  8
1
  6
Continuous
100
AcDbCircle
 10
355.6001589999998
 20
222.01366
 30
0.0
 40
3.0
100
AcDbArc
 50
102.839588
 51
136.726634
  0
ARC
  5
1B820
330
1B727
100
AcDbEntity
  8
1
  6
Continuous
100
AcDbCircle
 10
367.6001589999998
 20
222.01366
 30
0.0
 40
3.0
100
AcDbArc
 50
43.27336599999997
 51
77.16041199999998
  0
LINE
  5
1B821
330
1B727
100
AcDbEntity
  8
4
  6
CENTER
100
AcDbLine
 10
392.6001589999998
 20
248.565768
 30
0.0
 11
392.6001589999998
 21
239.8657679999999
 31
0.0
  0
LINE
  5
1B822
330
1B727
100
AcDbEntity
  8
1
  6
Continuous
100
AcDbLine
 10
400.600309
 20
242.765768
 30
0.0
 11
400.600309
 21
245.665768
 31
0.0
  0
LINE
  5
1B823
330
1B727
100
AcDbEntity
  8
1
  6
Continuous
100
AcDbLine
 10
251.100321
 20
224.0830209999999
 30
0.0
 11
249.998081
 21
224.0830209999999
 31
0.0
  0
LINE
  5
1B824
330
1B727
100
AcDbEntity
  8
1
  6
Continuous
100
AcDbLine
 10
335.773833
 20
239.388766
 30
0.0
 11
336.6221949999999
 21
237.4073939999999
 31
0.0
  0
LINE
  5
1B825
330
1B727
100
AcDbEntity
  8
1
  6
Continuous
100
AcDbLine
 10
387.426485
 20
239.388766
 30
0.0
 11
386.5781229999998
 21
237.4073939999999
 31
0.0
  0
LINE
  5
1B826
330
1B727
100
AcDbEntity
  8
1
  6
Continuous
100
AcDbLine
 10
48.30015
 20
228.0522029999999
 30
0.0
 11
48.30015
 21
180.1657679999999
 31
0.0
  0
LINE
  5
1B827
330
1B727
100
AcDbEntity
  8
1
  6
Continuous
100
AcDbLine
 10
79.70014999999998
 20
228.0523109999998
 30
0.0
 11
79.70014999999998
 21
211.2606079999999
 31
0.0
  0
ARC
  5
1B828
330
1B727
100
AcDbEntity
  8
1
  6
Continuous
100
AcDbCircle
 10
339.1001589999999
 20
230.0664859999999
 30
0.0
 40
5.0
100
AcDbArc
 50
90.0
 51
180.0
  0
LINE
  5
1B829
330
1B727
100
AcDbEntity
  8
1
  6
Continuous
100
AcDbLine
 10
334.1001589999998
 20
230.0664859999999
 30
0.0
 11
334.1001589999998
 21
194.7847219999999
 31
0.0
  0
ARC
  5
1B82A
330
1B727
100
AcDbEntity
  8
1
  6
Continuous
100
AcDbCircle
 10
384.1001589999999
 20
230.0664859999999
 30
0.0
 40
5.0
100
AcDbArc
 50
0.0
 51
90.0
  0
LINE
  5
1B82B
330
1B727
100
AcDbEntity
  8
1
  6
Continuous
100
AcDbLine
 10
389.1001589999999
 20
230.0664859999999
 30
0.0
 11
389.1001589999999
 21
194.7847219999999
 31
0.0
  0
LINE
  5
1B82C
330
1B727
100
AcDbEntity
  8
1
  6
Continuous
100
AcDbLine
 10
345.9001589999999
 20
211.9784759999999
 30
0.0
 11
345.9001589999999
 21
180.1657679999999
 31
0.0
  0
LINE
  5
1B82D
330
1B727
100
AcDbEntity
  8
1
  6
Continuous
100
AcDbLine
 10
377.300159
 20
211.9784759999999
 30
0.0
 11
377.300159
 21
180.1657679999999
 31
0.0
  0
ARC
  5
1B82E
330
1B727
100
AcDbEntity
  8
1
  6
Continuous
100
AcDbCircle
 10
384.8801789999998
 20
179.132797
 30
0.0
 40
5.081914
100
AcDbArc
 50
117.7689839999999
 51
168.272091
  0
ARC
  5
1B82F
330
1B727
100
AcDbEntity
  8
1
  6
Continuous
100
AcDbCircle
 10
377.4805039999998
 20
194.1238419999999
 30
0.0
 40
11.63843399999999
100
AcDbArc
 50
295.6173089999999
 51
9.113491999999999
  0
ARC
  5
1B830
330
1B727
100
AcDbEntity
  8
1
  6
Continuous
100
AcDbCircle
 10
384.8801789999998
 20
179.132797
 30
0.0
 40
7.681913999999999
100
AcDbArc
 50
115.197734
 51
170.657601
  0
ARC
  5
1B831
330
1B727
100
AcDbEntity
  8
1
  6
Continuous
100
AcDbCircle
 10
321.769832
 20
170.6857829999999
 30
0.0
 40
71.80032900000002
100
AcDbArc
 50
20.61630999999999
 51
48.03134299999999
  0
ARC
  5
1B832
330
1B727
100
AcDbEntity
  8
1
  6
Continuous
100
AcDbCircle
 10
321.7471839999999
 20
170.6739579999999
 30
0.0
 40
69.225691
100
AcDbArc
 50
20.847443
 51
39.77594899999999
  0
ARC
  5
1B833
330
1B727
100
AcDbEntity
  8
1
  6
Continuous
100
AcDbCircle
 10
377.4805039999998
 20
194.1238419999999
 30
0.0
 40
9.038434
100
AcDbArc
 50
295.6173089999999
 51
7.541341999999998
  0
ARC
  5
1B834
330
1B727
100
AcDbEntity
  8
1
  6
Continuous
100
AcDbCircle
 10
390.32178
 20
227.759408
 30
0.0
 40
20.0
100
AcDbArc
 50
204.53831
 51
219.775949
  0
ARC
  5
1B835
330
1B727
100
AcDbEntity
  8
1
  6
Continuous
100
AcDbCircle
 10
305.588024
 20
240.2184549999998
 30
0.0
 40
50.0
100
AcDbArc
 50
335.4616899999999
 51
340.336302
  0
ARC
  5
1B836
330
1B727
100
AcDbEntity
  8
1
  6
Continuous
100
AcDbCircle
 10
401.430486
 20
170.6857829999999
 30
0.0
 40
71.80032900000002
100
AcDbArc
 50
131.968657
 51
159.38369
  0
ARC
  5
1B837
330
1B727
100
AcDbEntity
  8
1
  6
Continuous
100
AcDbCircle
 10
332.8785379999998
 20
227.759408
 30
0.0
 40
20.0
100
AcDbArc
 50
320.2240509999999
 51
335.4616899999999
  0
ARC
  5
1B838
330
1B727
100
AcDbEntity
  8
1
  6
Continuous
100
AcDbCircle
 10
401.4531339999998
 20
170.6739579999999
 30
0.0
 40
69.225691
100
AcDbArc
 50
140.224051
 51
146.516611
  0
ARC
  5
1B839
330
1B727
100
AcDbEntity
  8
1
  6
Continuous
100
AcDbCircle
 10
345.719814
 20
194.1238419999999
 30
0.0
 40
9.038434
100
AcDbArc
 50
172.458658
 51
239.793842
  0
ARC
  5
1B83A
330
1B727
100
AcDbEntity
  8
1
  6
Continuous
100
AcDbCircle
 10
338.3201389999999
 20
179.132797
 30
0.0
 40
7.681913999999999
100
AcDbArc
 50
9.342399
 51
42.62545399999999
  0
ARC
  5
1B83B
330
1B727
100
AcDbEntity
  8
1
  6
Continuous
100
AcDbCircle
 10
338.3201389999999
 20
179.132797
 30
0.0
 40
5.081914
100
AcDbArc
 50
55.85636899999999
 51
62.23101599999999
  0
ARC
  5
1B83C
330
1B727
100
AcDbEntity
  8
1
  6
Continuous
100
AcDbCircle
 10
345.719814
 20
194.1238419999999
 30
0.0
 40
11.63843399999999
100
AcDbArc
 50
170.8865079999999
 51
244.3826909999999
  0
LINE
  5
1B83D
330
1B727
100
AcDbEntity
  8
1
  6
Continuous
100
AcDbLine
 10
346.3501589999999
 20
199.665768
 30
0.0
 11
346.3501589999999
 21
182.6657679999999
 31
0.0
  0
ARC
  5
1B83E
330
1B727
100
AcDbEntity
  8
1
  6
Continuous
100
AcDbCircle
 10
348.8877659999998
 20
199.653451
 30
0.0
 40
2.537636999999997
100
AcDbArc
 50
108.0815499999998
 51
179.7218819999999
  0
ARC
  5
1B83F
330
1B727
100
AcDbEntity
  8
1
  6
Continuous
100
AcDbCircle
 10
348.8877659999998
 20
182.678086
 30
0.0
 40
2.537636999999997
100
AcDbArc
 50
180.278118
 51
251.91845
  0
ARC
  5
1B840
330
1B727
100
AcDbEntity
  8
1
  6
Continuous
100
AcDbCircle
 10
374.3125519999999
 20
182.678086
 30
0.0
 40
2.537636999999997
100
AcDbArc
 50
288.08155
 51
359.721882
  0
LINE
  5
1B841
330
1B727
100
AcDbEntity
  8
1
  6
Continuous
100
AcDbLine
 10
376.8501589999999
 20
199.665768
 30
0.0
 11
376.8501589999999
 21
182.6657679999999
 31
0.0
  0
ARC
  5
1B842
330
1B727
100
AcDbEntity
  8
1
  6
Continuous
100
AcDbCircle
 10
374.3125519999999
 20
199.653451
 30
0.0
 40
2.537636999999997
100
AcDbArc
 50
0.278118
 51
71.91845000000002
  0
LINE
  5
1B843
330
1B727
100
AcDbEntity
  8
1
  6
Continuous
100
AcDbLine
 10
377.1001589999999
 20
196.6657679999999
 30
0.0
 11
376.8501589999999
 21
196.6657679999999
 31
0.0
  0
LINE
  5
1B844
330
1B727
100
AcDbEntity
  8
1
  6
Continuous
100
AcDbLine
 10
377.300159
 20
195.1657679999999
 30
0.0
 11
377.1001589999999
 21
195.1657679999999
 31
0.0
  0
LINE
  5
1B845
330
1B727
100
AcDbEntity
  8
1
  6
Continuous
100
AcDbLine
 10
377.1001589999999
 20
185.6657679999999
 30
0.0
 11
376.8501589999999
 21
185.6657679999999
 31
0.0
  0
LINE
  5
1B846
330
1B727
100
AcDbEntity
  8
1
  6
Continuous
100
AcDbLine
 10
377.300159
 20
187.165768
 30
0.0
 11
377.1001589999999
 21
187.165768
 31
0.0
  0
LINE
  5
1B847
330
1B727
100
AcDbEntity
  8
1
  6
Continuous
100
AcDbLine
 10
377.1001589999999
 20
196.6657679999999
 30
0.0
 11
377.1001589999999
 21
185.6657679999999
 31
0.0
  0
LINE
  5
1B848
330
1B727
100
AcDbEntity
  8
1
  6
Continuous
100
AcDbLine
 10
346.3501589999999
 20
196.6657679999999
 30
0.0
 11
346.1001589999999
 21
196.6657679999999
 31
0.0
  0
LINE
  5
1B849
330
1B727
100
AcDbEntity
  8
1
  6
Continuous
100
AcDbLine
 10
346.1001589999999
 20
195.1657679999999
 30
0.0
 11
345.9001589999999
 21
195.1657679999999
 31
0.0
  0
LINE
  5
1B84A
330
1B727
100
AcDbEntity
  8
1
  6
Continuous
100
AcDbLine
 10
346.3501589999999
 20
185.6657679999999
 30
0.0
 11
346.1001589999999
 21
185.6657679999999
 31
0.0
  0
LINE
  5
1B84B
330
1B727
100
AcDbEntity
  8
1
  6
Continuous
100
AcDbLine
 10
346.1001589999999
 20
187.165768
 30
0.0
 11
345.9001589999999
 21
187.165768
 31
0.0
  0
LINE
  5
1B84C
330
1B727
100
AcDbEntity
  8
1
  6
Continuous
100
AcDbLine
 10
346.1001589999999
 20
196.6657679999999
 30
0.0
 11
346.1001589999999
 21
185.6657679999999
 31
0.0
  0
LINE
  5
1B84E
330
1B727
100
AcDbEntity
  8
1
  6
Continuous
100
AcDbLine
 10
85.38825699999998
 20
198.1657679999999
 30
0.0
 11
86.88825699999998
 21
198.1657679999999
 31
0.0
  0
LINE
  5
1B84F
330
1B727
100
AcDbEntity
  8
1
  6
Continuous
100
AcDbLine
 10
85.38825699999998
 20
184.1657679999999
 30
0.0
 11
86.88825699999998
 21
184.1657679999999
 31
0.0
  0
LINE
  5
1B850
330
1B727
100
AcDbEntity
  8
1
  6
Continuous
100
AcDbLine
 10
91.888257
 20
197.1657679999999
 30
0.0
 11
91.888257
 21
185.1657679999999
 31
0.0
  0
ARC
  5
1B851
330
1B727
100
AcDbEntity
  8
1
  6
Continuous
100
AcDbCircle
 10
80.42415600000003
 20
191.1657679999999
 30
0.0
 40
11.464102
100
AcDbArc
 50
342.4120459999999
 51
17.587954
  0
ARC
  5
1B852
330
1B727
100
AcDbEntity
  8
1
  6
Continuous
100
AcDbCircle
 10
98.352359
 20
191.1657679999999
 30
0.0
 40
11.464102
100
AcDbArc
 50
162.412046
 51
197.5879539999999
  0
LINE
  5
1B853
330
1B727
100
AcDbEntity
  8
1
  6
Continuous
100
AcDbLine
 10
91.35235900000001
 20
184.2375649999999
 30
0.0
 11
91.888257
 21
185.1657679999999
 31
0.0
  0
LINE
  5
1B854
330
1B727
100
AcDbEntity
  8
1
  6
Continuous
100
AcDbLine
 10
87.42415600000002
 20
184.2375649999999
 30
0.0
 11
86.88825699999998
 21
185.1657679999999
 31
0.0
  0
LINE
  5
1B855
330
1B727
100
AcDbEntity
  8
1
  6
Continuous
100
AcDbLine
 10
91.35235900000001
 20
184.2375649999999
 30
0.0
 11
87.42415600000002
 21
184.2375649999999
 31
0.0
  0
LINE
  5
1B856
330
1B727
100
AcDbEntity
  8
1
  6
Continuous
100
AcDbLine
 10
91.35235900000001
 20
187.7016669999999
 30
0.0
 11
87.42415600000002
 21
187.7016669999999
 31
0.0
  0
ARC
  5
1B857
330
1B727
100
AcDbEntity
  8
1
  6
Continuous
100
AcDbCircle
 10
88.82127
 20
185.969616
 30
0.0
 40
3.066986999999998
100
AcDbArc
 50
334.384247
 51
34.38424699999998
  0
ARC
  5
1B858
330
1B727
100
AcDbEntity
  8
1
  6
Continuous
100
AcDbCircle
 10
89.955245
 20
185.969616
 30
0.0
 40
3.066986999999998
100
AcDbArc
 50
145.615753
 51
205.615753
  0
ARC
  5
1B859
330
1B727
100
AcDbEntity
  8
1
  6
Continuous
100
AcDbCircle
 10
88.82127
 20
196.361921
 30
0.0
 40
3.066986999999998
100
AcDbArc
 50
325.6157529999999
 51
25.615753
  0
ARC
  5
1B85A
330
1B727
100
AcDbEntity
  8
1
  6
Continuous
100
AcDbCircle
 10
89.955245
 20
196.361921
 30
0.0
 40
3.066986999999998
100
AcDbArc
 50
154.3842469999999
 51
214.384247
  0
LINE
  5
1B85B
330
1B727
100
AcDbEntity
  8
1
  6
Continuous
100
AcDbLine
 10
91.35235900000001
 20
194.6298699999999
 30
0.0
 11
87.42415600000002
 21
194.6298699999999
 31
0.0
  0
LINE
  5
1B85C
330
1B727
100
AcDbEntity
  8
1
  6
Continuous
100
AcDbLine
 10
91.35235900000001
 20
198.093972
 30
0.0
 11
87.42415600000002
 21
198.093972
 31
0.0
  0
LINE
  5
1B85D
330
1B727
100
AcDbEntity
  8
1
  6
Continuous
100
AcDbLine
 10
91.35235900000001
 20
198.093972
 30
0.0
 11
91.888257
 21
197.1657679999999
 31
0.0
  0
LINE
  5
1B85E
330
1B727
100
AcDbEntity
  8
1
  6
Continuous
100
AcDbLine
 10
87.42415600000002
 20
198.093972
 30
0.0
 11
86.88825699999998
 21
197.1657679999999
 31
0.0
  0
ARC
  5
1B85F
330
1B727
100
AcDbEntity
  8
1
  6
Continuous
100
AcDbCircle
 10
52.20015
 20
191.1657679999999
 30
0.0
 40
11.40175399999999
100
AcDbArc
 50
142.1250159999999
 51
164.744881
  0
LINE
  5
1B860
330
1B727
100
AcDbEntity
  8
1
  6
Continuous
100
AcDbLine
 10
43.20015
 20
184.1657679999999
 30
0.0
 11
43.20015
 21
198.1657679999999
 31
0.0
  0
LINE
  5
1B861
330
1B727
100
AcDbEntity
  8
1
  6
Continuous
100
AcDbLine
 10
41.20015
 20
188.1657679999999
 30
0.0
 11
41.20015
 21
194.1657679999999
 31
0.0
  0
ARC
  5
1B862
330
1B727
100
AcDbEntity
  8
1
  6
Continuous
100
AcDbCircle
 10
52.20015
 20
191.1657679999999
 30
0.0
 40
11.40175399999999
100
AcDbArc
 50
195.255119
 51
217.874984
  0
LINE
  5
1B863
330
1B727
100
AcDbEntity
  8
1
  6
Continuous
100
AcDbLine
 10
43.20015
 20
184.1657679999999
 30
0.0
 11
45.70015
 21
184.1657679999999
 31
0.0
  0
LINE
  5
1B864
330
1B727
100
AcDbEntity
  8
1
  6
Continuous
100
AcDbLine
 10
43.20015
 20
198.1657679999999
 30
0.0
 11
45.70015
 21
198.1657679999999
 31
0.0
  0
LINE
  5
1B865
330
1B727
100
AcDbEntity
  8
1
  6
Continuous
100
AcDbLine
 10
93.08825699999998
 20
195.1657679999999
 30
0.0
 11
93.08825699999998
 21
187.165768
 31
0.0
  0
LINE
  5
1B866
330
1B727
100
AcDbEntity
  8
1
  6
Continuous
100
AcDbLine
 10
94.288257
 20
188.3657679999998
 30
0.0
 11
93.08825699999998
 21
187.165768
 31
0.0
  0
LINE
  5
1B867
330
1B727
100
AcDbEntity
  8
1
  6
Continuous
100
AcDbLine
 10
91.888257
 20
187.165768
 30
0.0
 11
93.08825699999998
 21
187.165768
 31
0.0
  0
LINE
  5
1B868
330
1B727
100
AcDbEntity
  8
1
  6
Continuous
100
AcDbLine
 10
94.288257
 20
193.965768
 30
0.0
 11
94.288257
 21
188.3657679999998
 31
0.0
  0
LINE
  5
1B869
330
1B727
100
AcDbEntity
  8
1
  6
Continuous
100
AcDbLine
 10
91.888257
 20
195.1657679999999
 30
0.0
 11
93.08825699999998
 21
195.1657679999999
 31
0.0
  0
LINE
  5
1B86A
330
1B727
100
AcDbEntity
  8
2
  6
Continuous
100
AcDbLine
 10
93.76475699999996
 20
194.4892679999999
 30
0.0
 11
91.888257
 21
194.4892679999999
 31
0.0
  0
LINE
  5
1B86B
330
1B727
100
AcDbEntity
  8
2
  6
Continuous
100
AcDbLine
 10
93.76475699999996
 20
187.8422679999999
 30
0.0
 11
91.888257
 21
187.8422679999999
 31
0.0
  0
LINE
  5
1B86C
330
1B727
100
AcDbEntity
  8
1
  6
Continuous
100
AcDbLine
 10
94.288257
 20
193.965768
 30
0.0
 11
93.08825699999998
 21
195.1657679999999
 31
0.0
  0
CIRCLE
  5
1B86D
330
1B727
100
AcDbEntity
  8
1
  6
Continuous
100
AcDbCircle
 10
196.6001529999998
 20
191.1657679999999
 30
0.0
 40
2.799999999999998
  0
CIRCLE
  5
1B86E
330
1B727
100
AcDbEntity
  8
1
  6
Continuous
100
AcDbCircle
 10
196.6001529999998
 20
191.1657679999999
 30
0.0
 40
4.0
  0
CIRCLE
  5
1B86F
330
1B727
100
AcDbEntity
  8
2
  6
Continuous
100
AcDbCircle
 10
196.6001529999998
 20
191.1657679999999
 30
0.0
 40
3.3235
  0
ARC
  5
1B870
330
1B727
100
AcDbEntity
  8
1
  6
Continuous
100
AcDbCircle
 10
-1408.916304999999
 20
79.998502
 30
0.0
 40
1593.816667
100
AcDbArc
 50
358.891084
 51
359.342123
  0
ARC
  5
1B871
330
1B727
100
AcDbEntity
  8
1
  6
Continuous
100
AcDbCircle
 10
364.099779
 20
79.99839899999997
 30
0.0
 40
200.0
100
AcDbArc
 50
176.944716
 51
183.055284
  0
ARC
  5
1B872
330
1B727
100
AcDbEntity
  8
1
  6
Continuous
100
AcDbCircle
 10
1856.117027999999
 20
79.998502
 30
0.0
 40
1593.816667
100
AcDbArc
 50
178.8910839999998
 51
181.1089159999999
  0
LINE
  5
1B873
330
1B727
100
AcDbEntity
  8
4
  6
CENTER
100
AcDbLine
 10
223.600361
 20
135.960045
 30
0.0
 11
223.600361
 21
36.29850199999999
 31
0.0
  0
LINE
  5
1B874
330
1B727
100
AcDbEntity
  8
1
  6
Continuous
100
AcDbLine
 10
225.8205049999999
 20
93.49839899999999
 30
0.0
 11
182.0933729999999
 21
93.49839899999999
 31
0.0
  0
LINE
  5
1B875
330
1B727
100
AcDbEntity
  8
4
  6
CENTER
100
AcDbLine
 10
267.300361
 20
79.998502
 30
0.0
 11
158.5497789999998
 21
79.998502
 31
0.0
  0
ARC
  5
1B876
330
1B727
100
AcDbEntity
  8
1
  6
Continuous
100
AcDbCircle
 10
167.3798009999999
 20
90.498399
 30
0.0
 40
3.0
100
AcDbArc
 50
90.0
 51
176.944716
  0
CIRCLE
  5
1B877
330
1B727
100
AcDbEntity
  8
1
  6
Continuous
100
AcDbCircle
 10
254.600361
 20
110.998502
 30
0.0
 40
4.25
  0
LINE
  5
1B878
330
1B727
100
AcDbEntity
  8
4
  6
CENTER
100
AcDbLine
 10
263.1003609999999
 20
110.998502
 30
0.0
 11
246.100361
 21
110.998502
 31
0.0
  0
ARC
  5
1B879
330
1B727
100
AcDbEntity
  8
1
  6
Continuous
100
AcDbCircle
 10
223.600361
 20
1712.515169
 30
0.0
 40
1593.816667
100
AcDbArc
 50
268.8910839999999
 51
269.7711339999999
  0
ARC
  5
1B87A
330
1B727
100
AcDbEntity
  8
1
  6
Continuous
100
AcDbCircle
 10
192.600361
 20
110.998502
 30
0.0
 40
8.0
100
AcDbArc
 50
88.89108399999996
 51
181.1089159999999
  0
ARC
  5
1B87B
330
1B727
100
AcDbEntity
  8
1
  6
Continuous
100
AcDbCircle
 10
192.600361
 20
110.998502
 30
0.0
 40
4.25
100
AcDbArc
 50
350.3572619999998
 51
241.924335
  0
LINE
  5
1B87C
330
1B727
100
AcDbEntity
  8
4
  6
CENTER
100
AcDbLine
 10
201.1003609999999
 20
110.998502
 30
0.0
 11
184.1003609999999
 21
110.998502
 31
0.0
  0
LINE
  5
1B87D
330
1B727
100
AcDbEntity
  8
4
  6
CENTER
100
AcDbLine
 10
192.600361
 20
119.498502
 30
0.0
 11
192.600361
 21
102.498502
 31
0.0
  0
ARC
  5
1B87E
330
1B727
100
AcDbEntity
  8
1
  6
Continuous
100
AcDbCircle
 10
254.600361
 20
110.998502
 30
0.0
 40
8.0
100
AcDbArc
 50
358.891084
 51
91.10891600000002
  0
LINE
  5
1B87F
330
1B727
100
AcDbEntity
  8
4
  6
CENTER
100
AcDbLine
 10
254.600361
 20
119.498502
 30
0.0
 11
254.600361
 21
102.498502
 31
0.0
  0
LINE
  5
1B880
330
1B727
100
AcDbEntity
  8
1
  6
Continuous
100
AcDbLine
 10
225.8205049999999
 20
66.49839899999999
 30
0.0
 11
167.3798009999999
 21
66.49839899999999
 31
0.0
  0
ARC
  5
1B881
330
1B727
100
AcDbEntity
  8
1
  6
Continuous
100
AcDbCircle
 10
167.3798009999999
 20
69.49839899999999
 30
0.0
 40
3.0
100
AcDbArc
 50
183.055284
 51
270.0
  0
CIRCLE
  5
1B882
330
1B727
100
AcDbEntity
  8
1
  6
Continuous
100
AcDbCircle
 10
254.600361
 20
48.998502
 30
0.0
 40
4.25
  0
LINE
  5
1B883
330
1B727
100
AcDbEntity
  8
4
  6
CENTER
100
AcDbLine
 10
263.1003609999999
 20
48.998502
 30
0.0
 11
246.100361
 21
48.998502
 31
0.0
  0
ARC
  5
1B884
330
1B727
100
AcDbEntity
  8
1
  6
Continuous
100
AcDbCircle
 10
223.600361
 20
-1552.518165
 30
0.0
 40
1593.816667
100
AcDbArc
 50
88.89108399999996
 51
91.10891600000002
  0
LINE
  5
1B885
330
1B727
100
AcDbEntity
  8
4
  6
CENTER
100
AcDbLine
 10
192.600361
 20
57.498502
 30
0.0
 11
192.600361
 21
40.498502
 31
0.0
  0
ARC
  5
1B886
330
1B727
100
AcDbEntity
  8
1
  6
Continuous
100
AcDbCircle
 10
192.600361
 20
48.998502
 30
0.0
 40
8.0
100
AcDbArc
 50
178.8910839999998
 51
271.108916
  0
CIRCLE
  5
1B887
330
1B727
100
AcDbEntity
  8
1
  6
Continuous
100
AcDbCircle
 10
192.600361
 20
48.998502
 30
0.0
 40
4.25
  0
LINE
  5
1B888
330
1B727
100
AcDbEntity
  8
4
  6
CENTER
100
AcDbLine
 10
201.1003609999999
 20
48.998502
 30
0.0
 11
184.1003609999999
 21
48.998502
 31
0.0
  0
LINE
  5
1B889
330
1B727
100
AcDbEntity
  8
4
  6
CENTER
100
AcDbLine
 10
254.600361
 20
57.498502
 30
0.0
 11
254.600361
 21
40.498502
 31
0.0
  0
ARC
  5
1B88A
330
1B727
100
AcDbEntity
  8
1
  6
Continuous
100
AcDbCircle
 10
254.600361
 20
48.998502
 30
0.0
 40
8.0
100
AcDbArc
 50
268.8910839999999
 51
1.108916
  0
LINE
  5
1B88B
330
1B727
100
AcDbEntity
  8
4
  6
CENTER
100
AcDbLine
 10
196.6001529999998
 20
52.24875
 30
0.0
 11
196.6001529999998
 21
115.286609
 31
0.0
  0
ARC
  5
1B88C
330
1B727
100
AcDbEntity
  8
1
  6
Continuous
100
AcDbCircle
 10
29.10052700000001
 20
79.99839899999997
 30
0.0
 40
200.0
100
AcDbArc
 50
356.9447160000001
 51
3.055283999999999
  0
ARC
  5
1B88D
330
1B727
100
AcDbEntity
  8
1
  6
Continuous
100
AcDbCircle
 10
225.8205049999999
 20
90.498399
 30
0.0
 40
3.0
100
AcDbArc
 50
3.055283999999999
 51
90.0
  0
ARC
  5
1B88E
330
1B727
100
AcDbEntity
  8
1
  6
Continuous
100
AcDbCircle
 10
225.8205049999999
 20
69.49839899999999
 30
0.0
 40
3.0
100
AcDbArc
 50
270.0
 51
356.9447160000001
  0
ARC
  5
1B88F
330
1B727
100
AcDbEntity
  8
1
  6
Continuous
100
AcDbCircle
 10
-1408.916304999999
 20
79.998502
 30
0.0
 40
1593.816667
100
AcDbArc
 50
0.485311
 51
0.4936250000000002
  0
ARC
  5
1B890
330
1B727
100
AcDbEntity
  8
1
  6
Continuous
100
AcDbCircle
 10
223.600361
 20
79.998502
 30
0.0
 40
34.618797
100
AcDbArc
 50
221.193321
 51
72.19523199999997
  0
ARC
  5
1B891
330
1B727
100
AcDbEntity
  8
1
  6
Continuous
100
AcDbCircle
 10
223.578875
 20
80.02576500000001
 30
0.0
 40
24.92145999999999
100
AcDbArc
 50
256.5446
 51
72.39532700000002
  0
LINE
  5
1B892
330
1B727
100
AcDbEntity
  8
1
  6
Continuous
100
AcDbLine
 10
184.31777
 20
61.69850199999999
 30
0.0
 11
184.31777
 21
64.298502
 31
0.0
  0
LINE
  5
1B893
330
1B727
100
AcDbEntity
  8
1
  6
Continuous
100
AcDbLine
 10
202.9856979999999
 20
64.298502
 30
0.0
 11
184.31777
 21
64.298502
 31
0.0
  0
LINE
  5
1B894
330
1B727
100
AcDbEntity
  8
1
  6
Continuous
100
AcDbLine
 10
202.9856979999999
 20
61.69850199999999
 30
0.0
 11
184.31777
 21
61.69850199999999
 31
0.0
  0
LINE
  5
1B895
330
1B727
100
AcDbEntity
  8
1
  6
Continuous
100
AcDbLine
 10
203.600153
 20
59.19850199999999
 30
0.0
 11
189.600153
 21
59.19850199999999
 31
0.0
  0
ARC
  5
1B896
330
1B727
100
AcDbEntity
  8
1
  6
Continuous
100
AcDbCircle
 10
196.6001529999998
 20
68.19850200000001
 30
0.0
 40
11.40175399999999
100
AcDbArc
 50
285.2551189999999
 51
307.8749839999999
  0
LINE
  5
1B897
330
1B727
100
AcDbEntity
  8
1
  6
Continuous
100
AcDbLine
 10
188.1001529999998
 20
64.74839899999999
 30
0.0
 11
205.100153
 21
64.74839899999999
 31
0.0
  0
LINE
  5
1B898
330
1B727
100
AcDbEntity
  8
1
  6
Continuous
100
AcDbLine
 10
203.600153
 20
59.19850199999999
 30
0.0
 11
203.600153
 21
61.610355
 31
0.0
  0
ARC
  5
1B899
330
1B727
100
AcDbEntity
  8
1
  6
Continuous
100
AcDbCircle
 10
196.6001529999998
 20
68.19850200000001
 30
0.0
 40
11.40175399999999
100
AcDbArc
 50
232.1250159999999
 51
254.744881
  0
LINE
  5
1B89A
330
1B727
100
AcDbEntity
  8
1
  6
Continuous
100
AcDbLine
 10
199.600153
 20
57.19850199999999
 30
0.0
 11
193.600153
 21
57.19850199999999
 31
0.0
  0
LINE
  5
1B89B
330
1B727
100
AcDbEntity
  8
1
  6
Continuous
100
AcDbLine
 10
189.600153
 20
59.19850199999999
 30
0.0
 11
189.600153
 21
61.69850199999999
 31
0.0
  0
LINE
  5
1B89C
330
1B727
100
AcDbEntity
  8
1
  6
Continuous
100
AcDbLine
 10
191.100153
 20
64.74839899999999
 30
0.0
 11
191.100153
 21
64.49839899999999
 31
0.0
  0
ARC
  5
1B89D
330
1B727
100
AcDbEntity
  8
1
  6
Continuous
100
AcDbCircle
 10
188.1124709999999
 20
67.286006
 30
0.0
 40
2.537636999999997
100
AcDbArc
 50
198.08155
 51
269.7218819999998
  0
LINE
  5
1B89E
330
1B727
100
AcDbEntity
  8
1
  6
Continuous
100
AcDbLine
 10
192.600153
 20
64.49839899999999
 30
0.0
 11
192.600153
 21
64.29839900000001
 31
0.0
  0
LINE
  5
1B89F
330
1B727
100
AcDbEntity
  8
1
  6
Continuous
100
AcDbLine
 10
202.1001529999999
 20
64.74839899999999
 30
0.0
 11
202.1001529999999
 21
64.49839899999999
 31
0.0
  0
LINE
  5
1B8A0
330
1B727
100
AcDbEntity
  8
1
  6
Continuous
100
AcDbLine
 10
200.600153
 20
64.49839899999999
 30
0.0
 11
200.600153
 21
64.29839900000001
 31
0.0
  0
LINE
  5
1B8A1
330
1B727
100
AcDbEntity
  8
1
  6
Continuous
100
AcDbLine
 10
191.100153
 20
64.49839899999999
 30
0.0
 11
202.1001529999999
 21
64.49839899999999
 31
0.0
  0
ARC
  5
1B8A2
330
1B727
100
AcDbEntity
  8
1
  6
Continuous
100
AcDbCircle
 10
205.087835
 20
67.286006
 30
0.0
 40
2.537636999999997
100
AcDbArc
 50
270.278118
 51
341.91845
  0
LINE
  5
1B8A3
330
1B727
100
AcDbEntity
  8
1
  6
Continuous
100
AcDbLine
 10
189.600153
 20
102.8866089999998
 30
0.0
 11
195.756078
 21
102.8866089999998
 31
0.0
  0
LINE
  5
1B8A4
330
1B727
100
AcDbEntity
  8
1
  6
Continuous
100
AcDbLine
 10
202.8858
 20
95.24839900000001
 30
0.0
 11
205.100153
 21
95.24839900000001
 31
0.0
  0
ARC
  5
1B8A5
330
1B727
100
AcDbEntity
  8
1
  6
Continuous
100
AcDbCircle
 10
205.087835
 20
92.71079099999999
 30
0.0
 40
2.537636999999997
100
AcDbArc
 50
18.08155
 51
89.72188199999996
  0
ARC
  5
1B8A6
330
1B727
100
AcDbEntity
  8
1
  6
Continuous
100
AcDbCircle
 10
188.1124709999999
 20
92.71079099999999
 30
0.0
 40
2.537636999999997
100
AcDbArc
 50
154.2664629999999
 51
161.91845
  0
LINE
  5
1B8A7
330
1B727
100
AcDbEntity
  8
1
  6
Continuous
100
AcDbLine
 10
200.600153
 20
107.8866089999998
 30
0.0
 11
200.600153
 21
109.086609
 31
0.0
  0
LINE
  5
1B8A8
330
1B727
100
AcDbEntity
  8
1
  6
Continuous
100
AcDbLine
 10
199.400153
 20
110.286609
 30
0.0
 11
200.600153
 21
109.086609
 31
0.0
  0
LINE
  5
1B8A9
330
1B727
100
AcDbEntity
  8
2
  6
Continuous
100
AcDbLine
 10
199.923653
 20
109.763109
 30
0.0
 11
199.923653
 21
107.8866089999998
 31
0.0
  0
LINE
  5
1B8AA
330
1B727
100
AcDbEntity
  8
1
  6
Continuous
100
AcDbLine
 10
193.800153
 20
110.286609
 30
0.0
 11
199.400153
 21
110.286609
 31
0.0
  0
LINE
  5
1B8AB
330
1B727
100
AcDbEntity
  8
1
  6
Continuous
100
AcDbLine
 10
193.800153
 20
110.286609
 30
0.0
 11
192.600153
 21
109.086609
 31
0.0
  0
LINE
  5
1B8AC
330
1B727
100
AcDbEntity
  8
1
  6
Continuous
100
AcDbLine
 10
192.600153
 20
109.086609
 30
0.0
 11
200.600153
 21
109.086609
 31
0.0
  0
LINE
  5
1B8AD
330
1B727
100
AcDbEntity
  8
2
  6
Continuous
100
AcDbLine
 10
193.276653
 20
109.763109
 30
0.0
 11
193.276653
 21
107.8866089999998
 31
0.0
  0
LINE
  5
1B8AE
330
1B727
100
AcDbEntity
  8
1
  6
Continuous
100
AcDbLine
 10
192.600153
 20
107.8866089999998
 30
0.0
 11
192.600153
 21
109.086609
 31
0.0
  0
LINE
  5
1B8AF
330
1B727
100
AcDbEntity
  8
1
  6
Continuous
100
AcDbLine
 10
190.600153
 20
107.8866089999998
 30
0.0
 11
202.600153
 21
107.8866089999998
 31
0.0
  0
ARC
  5
1B8B0
330
1B727
100
AcDbEntity
  8
1
  6
Continuous
100
AcDbCircle
 10
199.600153
 20
99.22154500000001
 30
0.0
 40
8.665063999999999
100
AcDbArc
 50
72.13805699999999
 51
110.256158
  0
LINE
  5
1B8B1
330
1B727
100
AcDbEntity
  8
1
  6
Continuous
100
AcDbLine
 10
202.600153
 20
107.8866089999998
 30
0.0
 11
202.600153
 21
107.711339
 31
0.0
  0
ARC
  5
1B8B2
330
1B727
100
AcDbEntity
  8
1
  6
Continuous
100
AcDbCircle
 10
193.600153
 20
99.22154500000001
 30
0.0
 40
8.665063999999999
100
AcDbArc
 50
69.743842
 51
110.256158
  0
ARC
  5
1B8B3
330
1B727
100
AcDbEntity
  8
1
  6
Continuous
100
AcDbCircle
 10
193.600153
 20
111.5516729999998
 30
0.0
 40
8.665063999999999
100
AcDbArc
 50
249.7438419999999
 51
289.4695459999999
  0
LINE
  5
1B8B4
330
1B727
100
AcDbEntity
  8
1
  6
Continuous
100
AcDbLine
 10
196.6001529999998
 20
103.461339
 30
0.0
 11
196.6001529999998
 21
107.3507109999999
 31
0.0
  0
LINE
  5
1B8B5
330
1B727
100
AcDbEntity
  8
1
  6
Continuous
100
AcDbLine
 10
190.600153
 20
107.8866089999998
 30
0.0
 11
190.600153
 21
102.8866089999998
 31
0.0
  0
LINE
  5
1B8B6
330
1B727
100
AcDbEntity
  8
1
  6
Continuous
100
AcDbLine
 10
199.3921049999999
 20
230.441224
 30
0.0
 11
202.7335219999999
 21
202.8015589999998
 31
0.0
  0
ARC
  5
1B8B7
330
1B727
100
AcDbEntity
  8
1
  6
Continuous
100
AcDbCircle
 10
223.600361
 20
79.998502
 30
0.0
 40
27.49995999999999
100
AcDbArc
 50
223.3410389999999
 51
74.13880999999998
  0
ARC
  5
1B8B8
330
1B727
100
AcDbEntity
  8
1
  6
Continuous
100
AcDbCircle
 10
202.9856979999999
 20
56.69850199999999
 30
0.0
 40
7.599999999999998
100
AcDbArc
 50
55.632842
 51
90.0
  0
ARC
  5
1B8B9
330
1B727
100
AcDbEntity
  8
1
  6
Continuous
100
AcDbCircle
 10
202.9856979999999
 20
56.69850199999999
 30
0.0
 40
5.0
100
AcDbArc
 50
55.632842
 51
90.0
  0
ARC
  5
1B8BA
330
1B727
100
AcDbEntity
  8
1
  6
Continuous
100
AcDbCircle
 10
-1408.916304999999
 20
79.998502
 30
0.0
 40
1593.816667
100
AcDbArc
 50
359.4355949999999
 51
359.514682
  0
ARC
  5
1B8BB
330
1B727
100
AcDbEntity
  8
1
  6
Continuous
100
AcDbCircle
 10
-1408.916304999999
 20
79.998502
 30
0.0
 40
1593.816667
100
AcDbArc
 50
0.7779310000000002
 51
1.108916
  0
LINE
  5
1B8BC
330
1B727
100
AcDbEntity
  8
1
  6
Continuous
100
AcDbLine
 10
184.31777
 20
340.3642699999999
 30
0.0
 11
184.31777
 21
342.96427
 31
0.0
  0
LINE
  5
1B8BD
330
1B727
100
AcDbEntity
  8
1
  6
Continuous
100
AcDbLine
 10
184.7952989999998
 20
342.96427
 30
0.0
 11
184.31777
 21
342.96427
 31
0.0
  0
LINE
  5
1B8BE
330
1B727
100
AcDbEntity
  8
1
  6
Continuous
100
AcDbLine
 10
184.8230329999999
 20
340.3642699999999
 30
0.0
 11
184.31777
 21
340.3642699999999
 31
0.0
  0
LINE
  5
1B8BF
330
1B727
100
AcDbEntity
  8
1
  6
Continuous
100
AcDbLine
 10
184.31777
 20
306.3642699999999
 30
0.0
 11
184.31777
 21
308.96427
 31
0.0
  0
LINE
  5
1B8C0
330
1B727
100
AcDbEntity
  8
1
  6
Continuous
100
AcDbLine
 10
184.518698
 20
306.3642699999999
 30
0.0
 11
184.31777
 21
306.3642699999999
 31
0.0
  0
LINE
  5
1B8C1
330
1B727
100
AcDbEntity
  8
1
  6
Continuous
100
AcDbLine
 10
184.8230329999999
 20
308.96427
 30
0.0
 11
184.31777
 21
308.96427
 31
0.0
  0
LINE
  5
1B8C2
330
1B727
100
AcDbEntity
  8
1
  6
Continuous
100
AcDbLine
 10
388.4881589999998
 20
235.066486
 30
0.0
 11
334.7121589999998
 21
235.066486
 31
0.0
  0
LINE
  5
1B8C3
330
1B727
100
AcDbEntity
  8
1
  6
Continuous
100
AcDbLine
 10
350.497068
 20
235.066486
 30
0.0
 11
348.156159
 21
237.4073939999999
 31
0.0
  0
LINE
  5
1B8C4
330
1B727
100
AcDbEntity
  8
1
  6
Continuous
100
AcDbLine
 10
347.936571
 20
235.066486
 30
0.0
 11
350.2774790000001
 21
237.4073939999999
 31
0.0
  0
LINE
  5
1B8C5
330
1B727
100
AcDbEntity
  8
1
  6
Continuous
100
AcDbLine
 10
388.4881589999998
 20
237.4073939999999
 30
0.0
 11
334.7121589999998
 21
237.4073939999999
 31
0.0
  0
LINE
  5
1B8C6
330
1B727
100
AcDbEntity
  8
1
  6
Continuous
100
AcDbLine
 10
348.375747
 20
235.066486
 30
0.0
 11
346.034839
 21
237.4073939999999
 31
0.0
  0
LINE
  5
1B8C7
330
1B727
100
AcDbEntity
  8
1
  6
Continuous
100
AcDbLine
 10
345.81525
 20
235.066486
 30
0.0
 11
348.156159
 21
237.4073939999999
 31
0.0
  0
LINE
  5
1B8C8
330
1B727
100
AcDbEntity
  8
1
  6
Continuous
100
AcDbLine
 10
346.254427
 20
235.066486
 30
0.0
 11
343.913518
 21
237.4073939999999
 31
0.0
  0
LINE
  5
1B8C9
330
1B727
100
AcDbEntity
  8
1
  6
Continuous
100
AcDbLine
 10
343.6939299999999
 20
235.066486
 30
0.0
 11
346.034839
 21
237.4073939999999
 31
0.0
  0
LINE
  5
1B8CA
330
1B727
100
AcDbEntity
  8
1
  6
Continuous
100
AcDbLine
 10
344.1331069999998
 20
235.066486
 30
0.0
 11
341.792198
 21
237.4073939999999
 31
0.0
  0
LINE
  5
1B8CB
330
1B727
100
AcDbEntity
  8
1
  6
Continuous
100
AcDbLine
 10
341.57261
 20
235.066486
 30
0.0
 11
343.913518
 21
237.4073939999999
 31
0.0
  0
LINE
  5
1B8CC
330
1B727
100
AcDbEntity
  8
1
  6
Continuous
100
AcDbLine
 10
342.0117859999999
 20
235.066486
 30
0.0
 11
339.6708779999999
 21
237.4073939999999
 31
0.0
  0
LINE
  5
1B8CD
330
1B727
100
AcDbEntity
  8
1
  6
Continuous
100
AcDbLine
 10
339.4512889999999
 20
235.066486
 30
0.0
 11
341.792198
 21
237.4073939999999
 31
0.0
  0
LINE
  5
1B8CE
330
1B727
100
AcDbEntity
  8
1
  6
Continuous
100
AcDbLine
 10
339.8904659999999
 20
235.066486
 30
0.0
 11
337.549557
 21
237.4073939999999
 31
0.0
  0
LINE
  5
1B8CF
330
1B727
100
AcDbEntity
  8
1
  6
Continuous
100
AcDbLine
 10
337.329969
 20
235.066486
 30
0.0
 11
339.6708779999999
 21
237.4073939999999
 31
0.0
  0
LINE
  5
1B8D0
330
1B727
100
AcDbEntity
  8
1
  6
Continuous
100
AcDbLine
 10
337.7691459999998
 20
235.066486
 30
0.0
 11
335.428237
 21
237.4073939999999
 31
0.0
  0
LINE
  5
1B8D1
330
1B727
100
AcDbEntity
  8
1
  6
Continuous
100
AcDbLine
 10
335.208649
 20
235.066486
 30
0.0
 11
337.549557
 21
237.4073939999999
 31
0.0
  0
LINE
  5
1B8D2
330
1B727
100
AcDbEntity
  8
1
  6
Continuous
100
AcDbLine
 10
334.7121589999998
 20
237.4073939999999
 30
0.0
 11
334.7121589999998
 21
235.066486
 31
0.0
  0
LINE
  5
1B8D3
330
1B727
100
AcDbEntity
  8
1
  6
Continuous
100
AcDbLine
 10
334.7121589999998
 20
236.691317
 30
0.0
 11
335.428237
 21
237.4073939999999
 31
0.0
  0
LINE
  5
1B8D4
330
1B727
100
AcDbEntity
  8
1
  6
Continuous
100
AcDbLine
 10
369.5889509999998
 20
235.066486
 30
0.0
 11
367.2480419999998
 21
237.4073939999999
 31
0.0
  0
LINE
  5
1B8D5
330
1B727
100
AcDbEntity
  8
1
  6
Continuous
100
AcDbLine
 10
367.028454
 20
235.066486
 30
0.0
 11
369.369362
 21
237.4073939999999
 31
0.0
  0
LINE
  5
1B8D6
330
1B727
100
AcDbEntity
  8
1
  6
Continuous
100
AcDbLine
 10
367.4676299999999
 20
235.066486
 30
0.0
 11
365.1267219999998
 21
237.4073939999999
 31
0.0
  0
LINE
  5
1B8D7
330
1B727
100
AcDbEntity
  8
1
  6
Continuous
100
AcDbLine
 10
364.9071329999999
 20
235.066486
 30
0.0
 11
367.2480419999998
 21
237.4073939999999
 31
0.0
  0
LINE
  5
1B8D8
330
1B727
100
AcDbEntity
  8
1
  6
Continuous
100
AcDbLine
 10
365.34631
 20
235.066486
 30
0.0
 11
363.0054009999998
 21
237.4073939999999
 31
0.0
  0
LINE
  5
1B8D9
330
1B727
100
AcDbEntity
  8
1
  6
Continuous
100
AcDbLine
 10
362.7858129999999
 20
235.066486
 30
0.0
 11
365.1267219999998
 21
237.4073939999999
 31
0.0
  0
LINE
  5
1B8DA
330
1B727
100
AcDbEntity
  8
1
  6
Continuous
100
AcDbLine
 10
363.22499
 20
235.066486
 30
0.0
 11
360.8840809999999
 21
237.4073939999999
 31
0.0
  0
LINE
  5
1B8DB
330
1B727
100
AcDbEntity
  8
1
  6
Continuous
100
AcDbLine
 10
360.6644929999998
 20
235.066486
 30
0.0
 11
363.0054009999998
 21
237.4073939999999
 31
0.0
  0
LINE
  5
1B8DC
330
1B727
100
AcDbEntity
  8
1
  6
Continuous
100
AcDbLine
 10
361.1036689999999
 20
235.066486
 30
0.0
 11
358.762761
 21
237.4073939999999
 31
0.0
  0
LINE
  5
1B8DD
330
1B727
100
AcDbEntity
  8
1
  6
Continuous
100
AcDbLine
 10
358.543172
 20
235.066486
 30
0.0
 11
360.8840809999999
 21
237.4073939999999
 31
0.0
  0
LINE
  5
1B8DE
330
1B727
100
AcDbEntity
  8
1
  6
Continuous
100
AcDbLine
 10
358.982349
 20
235.066486
 30
0.0
 11
356.6414399999999
 21
237.4073939999999
 31
0.0
  0
LINE
  5
1B8DF
330
1B727
100
AcDbEntity
  8
1
  6
Continuous
100
AcDbLine
 10
356.421852
 20
235.066486
 30
0.0
 11
358.762761
 21
237.4073939999999
 31
0.0
  0
LINE
  5
1B8E0
330
1B727
100
AcDbEntity
  8
1
  6
Continuous
100
AcDbLine
 10
356.8610289999999
 20
235.066486
 30
0.0
 11
354.52012
 21
237.4073939999999
 31
0.0
  0
LINE
  5
1B8E1
330
1B727
100
AcDbEntity
  8
1
  6
Continuous
100
AcDbLine
 10
354.3005319999999
 20
235.066486
 30
0.0
 11
356.6414399999999
 21
237.4073939999999
 31
0.0
  0
LINE
  5
1B8E2
330
1B727
100
AcDbEntity
  8
1
  6
Continuous
100
AcDbLine
 10
354.739708
 20
235.066486
 30
0.0
 11
352.3988
 21
237.4073939999999
 31
0.0
  0
LINE
  5
1B8E3
330
1B727
100
AcDbEntity
  8
1
  6
Continuous
100
AcDbLine
 10
352.179211
 20
235.066486
 30
0.0
 11
354.52012
 21
237.4073939999999
 31
0.0
  0
LINE
  5
1B8E4
330
1B727
100
AcDbEntity
  8
1
  6
Continuous
100
AcDbLine
 10
352.618388
 20
235.066486
 30
0.0
 11
350.2774790000001
 21
237.4073939999999
 31
0.0
  0
LINE
  5
1B8E5
330
1B727
100
AcDbEntity
  8
1
  6
Continuous
100
AcDbLine
 10
350.0578909999999
 20
235.066486
 30
0.0
 11
352.3988
 21
237.4073939999999
 31
0.0
  0
LINE
  5
1B8E6
330
1B727
100
AcDbEntity
  8
1
  6
Continuous
100
AcDbLine
 10
388.4881589999998
 20
235.259162
 30
0.0
 11
386.339925
 21
237.4073939999999
 31
0.0
  0
LINE
  5
1B8E7
330
1B727
100
AcDbEntity
  8
1
  6
Continuous
100
AcDbLine
 10
386.120337
 20
235.066486
 30
0.0
 11
388.461245
 21
237.4073939999999
 31
0.0
  0
LINE
  5
1B8E8
330
1B727
100
AcDbEntity
  8
1
  6
Continuous
100
AcDbLine
 10
386.5595129999999
 20
235.066486
 30
0.0
 11
384.2186049999999
 21
237.4073939999999
 31
0.0
  0
LINE
  5
1B8E9
330
1B727
100
AcDbEntity
  8
1
  6
Continuous
100
AcDbLine
 10
384.438193
 20
235.066486
 30
0.0
 11
382.0972839999998
 21
237.4073939999999
 31
0.0
  0
LINE
  5
1B8EA
330
1B727
100
AcDbEntity
  8
1
  6
Continuous
100
AcDbLine
 10
383.9990159999999
 20
235.066486
 30
0.0
 11
386.339925
 21
237.4073939999999
 31
0.0
  0
LINE
  5
1B8EB
330
1B727
100
AcDbEntity
  8
1
  6
Continuous
100
AcDbLine
 10
388.4881589999998
 20
237.4073939999999
 30
0.0
 11
388.4881589999998
 21
235.066486
 31
0.0
  0
LINE
  5
1B8EC
330
1B727
100
AcDbEntity
  8
1
  6
Continuous
100
AcDbLine
 10
381.877696
 20
235.066486
 30
0.0
 11
384.2186049999999
 21
237.4073939999999
 31
0.0
  0
LINE
  5
1B8ED
330
1B727
100
AcDbEntity
  8
1
  6
Continuous
100
AcDbLine
 10
382.3168729999999
 20
235.066486
 30
0.0
 11
379.9759639999999
 21
237.4073939999999
 31
0.0
  0
LINE
  5
1B8EE
330
1B727
100
AcDbEntity
  8
1
  6
Continuous
100
AcDbLine
 10
379.756376
 20
235.066486
 30
0.0
 11
382.0972839999998
 21
237.4073939999999
 31
0.0
  0
LINE
  5
1B8EF
330
1B727
100
AcDbEntity
  8
1
  6
Continuous
100
AcDbLine
 10
380.195552
 20
235.066486
 30
0.0
 11
377.8546439999999
 21
237.4073939999999
 31
0.0
  0
LINE
  5
1B8F0
330
1B727
100
AcDbEntity
  8
1
  6
Continuous
100
AcDbLine
 10
377.6350549999999
 20
235.066486
 30
0.0
 11
379.9759639999999
 21
237.4073939999999
 31
0.0
  0
LINE
  5
1B8F1
330
1B727
100
AcDbEntity
  8
1
  6
Continuous
100
AcDbLine
 10
378.0742319999998
 20
235.066486
 30
0.0
 11
375.7333229999999
 21
237.4073939999999
 31
0.0
  0
LINE
  5
1B8F2
330
1B727
100
AcDbEntity
  8
1
  6
Continuous
100
AcDbLine
 10
375.513735
 20
235.066486
 30
0.0
 11
377.8546439999999
 21
237.4073939999999
 31
0.0
  0
LINE
  5
1B8F3
330
1B727
100
AcDbEntity
  8
1
  6
Continuous
100
AcDbLine
 10
375.952912
 20
235.066486
 30
0.0
 11
373.6120029999999
 21
237.4073939999999
 31
0.0
  0
LINE
  5
1B8F4
330
1B727
100
AcDbEntity
  8
1
  6
Continuous
100
AcDbLine
 10
373.3924149999999
 20
235.066486
 30
0.0
 11
375.7333229999999
 21
237.4073939999999
 31
0.0
  0
LINE
  5
1B8F5
330
1B727
100
AcDbEntity
  8
1
  6
Continuous
100
AcDbLine
 10
373.831591
 20
235.066486
 30
0.0
 11
371.4906829999998
 21
237.4073939999999
 31
0.0
  0
LINE
  5
1B8F6
330
1B727
100
AcDbEntity
  8
1
  6
Continuous
100
AcDbLine
 10
371.271094
 20
235.066486
 30
0.0
 11
373.6120029999999
 21
237.4073939999999
 31
0.0
  0
LINE
  5
1B8F7
330
1B727
100
AcDbEntity
  8
1
  6
Continuous
100
AcDbLine
 10
371.7102709999999
 20
235.066486
 30
0.0
 11
369.369362
 21
237.4073939999999
 31
0.0
  0
LINE
  5
1B8F8
330
1B727
100
AcDbEntity
  8
1
  6
Continuous
100
AcDbLine
 10
369.1497739999999
 20
235.066486
 30
0.0
 11
371.4906829999998
 21
237.4073939999999
 31
0.0
  0
LINE
  5
1B8F9
330
1B727
100
AcDbEntity
  8
1
  6
Continuous
100
AcDbLine
 10
388.4881589999998
 20
237.380481
 30
0.0
 11
388.461245
 21
237.4073939999999
 31
0.0
  0
LINE
  5
1B8FA
330
1B727
100
AcDbEntity
  8
1
  6
Continuous
100
AcDbLine
 10
90.88815
 20
235.066486
 30
0.0
 11
37.11215
 21
235.066486
 31
0.0
  0
LINE
  5
1B8FB
330
1B727
100
AcDbEntity
  8
1
  6
Continuous
100
AcDbLine
 10
52.897059
 20
235.066486
 30
0.0
 11
50.55615
 21
237.4073939999999
 31
0.0
  0
LINE
  5
1B8FC
330
1B727
100
AcDbEntity
  8
1
  6
Continuous
100
AcDbLine
 10
50.336562
 20
235.066486
 30
0.0
 11
52.67746999999999
 21
237.4073939999999
 31
0.0
  0
LINE
  5
1B8FD
330
1B727
100
AcDbEntity
  8
1
  6
Continuous
100
AcDbLine
 10
90.88815
 20
237.4073939999999
 30
0.0
 11
37.11215
 21
237.4073939999999
 31
0.0
  0
LINE
  5
1B8FE
330
1B727
100
AcDbEntity
  8
1
  6
Continuous
100
AcDbLine
 10
50.77573799999999
 20
235.066486
 30
0.0
 11
48.43482999999999
 21
237.4073939999999
 31
0.0
  0
LINE
  5
1B8FF
330
1B727
100
AcDbEntity
  8
1
  6
Continuous
100
AcDbLine
 10
48.215241
 20
235.066486
 30
0.0
 11
50.55615
 21
237.4073939999999
 31
0.0
  0
LINE
  5
1B900
330
1B727
100
AcDbEntity
  8
1
  6
Continuous
100
AcDbLine
 10
48.654418
 20
235.066486
 30
0.0
 11
46.313509
 21
237.4073939999999
 31
0.0
  0
LINE
  5
1B901
330
1B727
100
AcDbEntity
  8
1
  6
Continuous
100
AcDbLine
 10
46.09392099999999
 20
235.066486
 30
0.0
 11
48.43482999999999
 21
237.4073939999999
 31
0.0
  0
LINE
  5
1B902
330
1B727
100
AcDbEntity
  8
1
  6
Continuous
100
AcDbLine
 10
46.53309799999997
 20
235.066486
 30
0.0
 11
44.19218899999999
 21
237.4073939999999
 31
0.0
  0
LINE
  5
1B903
330
1B727
100
AcDbEntity
  8
1
  6
Continuous
100
AcDbLine
 10
43.97260099999999
 20
235.066486
 30
0.0
 11
46.313509
 21
237.4073939999999
 31
0.0
  0
LINE
  5
1B904
330
1B727
100
AcDbEntity
  8
1
  6
Continuous
100
AcDbLine
 10
44.41177699999999
 20
235.066486
 30
0.0
 11
42.070869
 21
237.4073939999999
 31
0.0
  0
LINE
  5
1B905
330
1B727
100
AcDbEntity
  8
1
  6
Continuous
100
AcDbLine
 10
41.85127999999997
 20
235.066486
 30
0.0
 11
44.19218899999999
 21
237.4073939999999
 31
0.0
  0
LINE
  5
1B906
330
1B727
100
AcDbEntity
  8
1
  6
Continuous
100
AcDbLine
 10
42.290457
 20
235.066486
 30
0.0
 11
39.949548
 21
237.4073939999999
 31
0.0
  0
LINE
  5
1B907
330
1B727
100
AcDbEntity
  8
1
  6
Continuous
100
AcDbLine
 10
39.72996
 20
235.066486
 30
0.0
 11
42.070869
 21
237.4073939999999
 31
0.0
  0
LINE
  5
1B908
330
1B727
100
AcDbEntity
  8
1
  6
Continuous
100
AcDbLine
 10
40.16913699999999
 20
235.066486
 30
0.0
 11
37.828228
 21
237.4073939999999
 31
0.0
  0
LINE
  5
1B909
330
1B727
100
AcDbEntity
  8
1
  6
Continuous
100
AcDbLine
 10
37.60864
 20
235.066486
 30
0.0
 11
39.949548
 21
237.4073939999999
 31
0.0
  0
LINE
  5
1B90A
330
1B727
100
AcDbEntity
  8
1
  6
Continuous
100
AcDbLine
 10
37.11215
 20
237.4073939999999
 30
0.0
 11
37.11215
 21
235.066486
 31
0.0
  0
LINE
  5
1B90B
330
1B727
100
AcDbEntity
  8
1
  6
Continuous
100
AcDbLine
 10
37.11215
 20
236.691317
 30
0.0
 11
37.828228
 21
237.4073939999999
 31
0.0
  0
LINE
  5
1B90C
330
1B727
100
AcDbEntity
  8
1
  6
Continuous
100
AcDbLine
 10
71.98894200000002
 20
235.066486
 30
0.0
 11
69.64803299999998
 21
237.4073939999999
 31
0.0
  0
LINE
  5
1B90D
330
1B727
100
AcDbEntity
  8
1
  6
Continuous
100
AcDbLine
 10
69.42844499999999
 20
235.066486
 30
0.0
 11
71.76935300000002
 21
237.4073939999999
 31
0.0
  0
LINE
  5
1B90E
330
1B727
100
AcDbEntity
  8
1
  6
Continuous
100
AcDbLine
 10
69.86762099999999
 20
235.066486
 30
0.0
 11
67.526713
 21
237.4073939999999
 31
0.0
  0
LINE
  5
1B90F
330
1B727
100
AcDbEntity
  8
1
  6
Continuous
100
AcDbLine
 10
67.307124
 20
235.066486
 30
0.0
 11
69.64803299999998
 21
237.4073939999999
 31
0.0
  0
LINE
  5
1B910
330
1B727
100
AcDbEntity
  8
1
  6
Continuous
100
AcDbLine
 10
67.746301
 20
235.066486
 30
0.0
 11
65.40539200000001
 21
237.4073939999999
 31
0.0
  0
LINE
  5
1B911
330
1B727
100
AcDbEntity
  8
1
  6
Continuous
100
AcDbLine
 10
65.18580400000001
 20
235.066486
 30
0.0
 11
67.526713
 21
237.4073939999999
 31
0.0
  0
LINE
  5
1B912
330
1B727
100
AcDbEntity
  8
1
  6
Continuous
100
AcDbLine
 10
65.624981
 20
235.066486
 30
0.0
 11
63.284072
 21
237.4073939999999
 31
0.0
  0
LINE
  5
1B913
330
1B727
100
AcDbEntity
  8
1
  6
Continuous
100
AcDbLine
 10
63.064484
 20
235.066486
 30
0.0
 11
65.40539200000001
 21
237.4073939999999
 31
0.0
  0
LINE
  5
1B914
330
1B727
100
AcDbEntity
  8
1
  6
Continuous
100
AcDbLine
 10
63.50366000000001
 20
235.066486
 30
0.0
 11
61.162752
 21
237.4073939999999
 31
0.0
  0
LINE
  5
1B915
330
1B727
100
AcDbEntity
  8
1
  6
Continuous
100
AcDbLine
 10
60.943163
 20
235.066486
 30
0.0
 11
63.284072
 21
237.4073939999999
 31
0.0
  0
LINE
  5
1B916
330
1B727
100
AcDbEntity
  8
1
  6
Continuous
100
AcDbLine
 10
61.38234
 20
235.066486
 30
0.0
 11
59.041431
 21
237.4073939999999
 31
0.0
  0
LINE
  5
1B917
330
1B727
100
AcDbEntity
  8
1
  6
Continuous
100
AcDbLine
 10
58.82184300000001
 20
235.066486
 30
0.0
 11
61.162752
 21
237.4073939999999
 31
0.0
  0
LINE
  5
1B918
330
1B727
100
AcDbEntity
  8
1
  6
Continuous
100
AcDbLine
 10
59.26102
 20
235.066486
 30
0.0
 11
56.920111
 21
237.4073939999999
 31
0.0
  0
LINE
  5
1B919
330
1B727
100
AcDbEntity
  8
1
  6
Continuous
100
AcDbLine
 10
56.700523
 20
235.066486
 30
0.0
 11
59.041431
 21
237.4073939999999
 31
0.0
  0
LINE
  5
1B91A
330
1B727
100
AcDbEntity
  8
1
  6
Continuous
100
AcDbLine
 10
57.139699
 20
235.066486
 30
0.0
 11
54.798791
 21
237.4073939999999
 31
0.0
  0
LINE
  5
1B91B
330
1B727
100
AcDbEntity
  8
1
  6
Continuous
100
AcDbLine
 10
54.579202
 20
235.066486
 30
0.0
 11
56.920111
 21
237.4073939999999
 31
0.0
  0
LINE
  5
1B91C
330
1B727
100
AcDbEntity
  8
1
  6
Continuous
100
AcDbLine
 10
55.018379
 20
235.066486
 30
0.0
 11
52.67746999999999
 21
237.4073939999999
 31
0.0
  0
LINE
  5
1B91D
330
1B727
100
AcDbEntity
  8
1
  6
Continuous
100
AcDbLine
 10
52.45788199999999
 20
235.066486
 30
0.0
 11
54.798791
 21
237.4073939999999
 31
0.0
  0
LINE
  5
1B91E
330
1B727
100
AcDbEntity
  8
1
  6
Continuous
100
AcDbLine
 10
90.88815
 20
235.259162
 30
0.0
 11
88.73991600000001
 21
237.4073939999999
 31
0.0
  0
LINE
  5
1B91F
330
1B727
100
AcDbEntity
  8
1
  6
Continuous
100
AcDbLine
 10
88.52032800000001
 20
235.066486
 30
0.0
 11
90.861236
 21
237.4073939999999
 31
0.0
  0
LINE
  5
1B920
330
1B727
100
AcDbEntity
  8
1
  6
Continuous
100
AcDbLine
 10
88.95950400000002
 20
235.066486
 30
0.0
 11
86.61859599999997
 21
237.4073939999999
 31
0.0
  0
LINE
  5
1B921
330
1B727
100
AcDbEntity
  8
1
  6
Continuous
100
AcDbLine
 10
86.83818399999998
 20
235.066486
 30
0.0
 11
84.49727499999999
 21
237.4073939999999
 31
0.0
  0
LINE
  5
1B922
330
1B727
100
AcDbEntity
  8
1
  6
Continuous
100
AcDbLine
 10
86.39900699999998
 20
235.066486
 30
0.0
 11
88.73991600000001
 21
237.4073939999999
 31
0.0
  0
LINE
  5
1B923
330
1B727
100
AcDbEntity
  8
1
  6
Continuous
100
AcDbLine
 10
90.88815
 20
237.4073939999999
 30
0.0
 11
90.88815
 21
235.066486
 31
0.0
  0
LINE
  5
1B924
330
1B727
100
AcDbEntity
  8
1
  6
Continuous
100
AcDbLine
 10
84.27768699999999
 20
235.066486
 30
0.0
 11
86.61859599999997
 21
237.4073939999999
 31
0.0
  0
LINE
  5
1B925
330
1B727
100
AcDbEntity
  8
1
  6
Continuous
100
AcDbLine
 10
84.71686400000001
 20
235.066486
 30
0.0
 11
82.37595500000002
 21
237.4073939999999
 31
0.0
  0
LINE
  5
1B926
330
1B727
100
AcDbEntity
  8
1
  6
Continuous
100
AcDbLine
 10
82.15636700000002
 20
235.066486
 30
0.0
 11
84.49727499999999
 21
237.4073939999999
 31
0.0
  0
LINE
  5
1B927
330
1B727
100
AcDbEntity
  8
1
  6
Continuous
100
AcDbLine
 10
82.59554300000003
 20
235.066486
 30
0.0
 11
80.25463499999998
 21
237.4073939999999
 31
0.0
  0
LINE
  5
1B928
330
1B727
100
AcDbEntity
  8
1
  6
Continuous
100
AcDbLine
 10
80.03504599999997
 20
235.066486
 30
0.0
 11
82.37595500000002
 21
237.4073939999999
 31
0.0
  0
LINE
  5
1B929
330
1B727
100
AcDbEntity
  8
1
  6
Continuous
100
AcDbLine
 10
80.47422299999999
 20
235.066486
 30
0.0
 11
78.133314
 21
237.4073939999999
 31
0.0
  0
LINE
  5
1B92A
330
1B727
100
AcDbEntity
  8
1
  6
Continuous
100
AcDbLine
 10
77.91372599999998
 20
235.066486
 30
0.0
 11
80.25463499999998
 21
237.4073939999999
 31
0.0
  0
LINE
  5
1B92B
330
1B727
100
AcDbEntity
  8
1
  6
Continuous
100
AcDbLine
 10
78.352903
 20
235.066486
 30
0.0
 11
76.011994
 21
237.4073939999999
 31
0.0
  0
LINE
  5
1B92C
330
1B727
100
AcDbEntity
  8
1
  6
Continuous
100
AcDbLine
 10
75.792406
 20
235.066486
 30
0.0
 11
78.133314
 21
237.4073939999999
 31
0.0
  0
LINE
  5
1B92D
330
1B727
100
AcDbEntity
  8
1
  6
Continuous
100
AcDbLine
 10
76.23158199999997
 20
235.066486
 30
0.0
 11
73.890674
 21
237.4073939999999
 31
0.0
  0
LINE
  5
1B92E
330
1B727
100
AcDbEntity
  8
1
  6
Continuous
100
AcDbLine
 10
73.67108499999997
 20
235.066486
 30
0.0
 11
76.011994
 21
237.4073939999999
 31
0.0
  0
LINE
  5
1B92F
330
1B727
100
AcDbEntity
  8
1
  6
Continuous
100
AcDbLine
 10
74.11026200000002
 20
235.066486
 30
0.0
 11
71.76935300000002
 21
237.4073939999999
 31
0.0
  0
LINE
  5
1B930
330
1B727
100
AcDbEntity
  8
1
  6
Continuous
100
AcDbLine
 10
71.549765
 20
235.066486
 30
0.0
 11
73.890674
 21
237.4073939999999
 31
0.0
  0
LINE
  5
1B931
330
1B727
100
AcDbEntity
  8
1
  6
Continuous
100
AcDbLine
 10
90.88815
 20
237.380481
 30
0.0
 11
90.861236
 21
237.4073939999999
 31
0.0
  0
ARC
  5
1B932
330
1B727
100
AcDbEntity
  8
1
  6
Continuous
100
AcDbCircle
 10
526.600312
 20
191.1657679999999
 30
0.0
 40
32.5
100
AcDbArc
 50
181.136148
 51
88.47349099999998
  0
LINE
  5
1B933
330
1B727
100
AcDbEntity
  8
4
  6
CENTER
100
AcDbLine
 10
489.1003119999998
 20
191.1657679999999
 30
0.0
 11
564.100312
 21
191.1657679999999
 31
0.0
  0
LINE
  5
1B934
330
1B727
100
AcDbEntity
  8
1
  6
Continuous
100
AcDbLine
 10
524.35836
 20
230.441224
 30
0.0
 11
518.668579
 21
183.3762609999998
 31
0.0
  0
LINE
  5
1B935
330
1B727
100
AcDbEntity
  8
1
  6
Continuous
100
AcDbLine
 10
535.6703109999998
 20
232.441224
 30
0.0
 11
535.6703109999998
 21
229.841224
 31
0.0
  0
ARC
  5
1B936
330
1B727
100
AcDbEntity
  8
1
  6
Continuous
100
AcDbCircle
 10
539.3633610000001
 20
220.782707
 30
0.0
 40
12.22945799999999
100
AcDbArc
 50
107.576555
 51
164.774733
  0
LINE
  5
1B937
330
1B727
100
AcDbEntity
  8
1
  6
Continuous
100
AcDbLine
 10
472.1001440000001
 20
230.0664859999999
 30
0.0
 11
472.1001440000001
 21
224.0830209999999
 31
0.0
  0
LINE
  5
1B938
330
1B727
100
AcDbEntity
  8
4
  6
CENTER
100
AcDbLine
 10
499.600144
 20
250.6657679999999
 30
0.0
 11
499.600144
 21
182.1652999999998
 31
0.0
  0
LINE
  5
1B939
330
1B727
100
AcDbEntity
  8
1
  6
Continuous
100
AcDbLine
 10
472.1001440000001
 20
224.0830209999999
 30
0.0
 11
473.202384
 21
224.0830209999999
 31
0.0
  0
ARC
  5
1B93A
330
1B727
100
AcDbEntity
  8
1
  6
Continuous
100
AcDbCircle
 10
465.34735
 20
217.300567
 30
0.0
 40
10.37801699999998
100
AcDbArc
 50
16.35971
 51
49.40692099999999
  0
ARC
  5
1B93B
330
1B727
100
AcDbEntity
  8
1
  6
Continuous
100
AcDbCircle
 10
526.9003119999998
 20
192.147003
 30
0.0
 40
12.0
100
AcDbArc
 50
261.358447
 51
52.080451
  0
LINE
  5
1B93C
330
1B727
100
AcDbEntity
  8
4
  6
CENTER
100
AcDbLine
 10
526.600312
 20
153.997003
 30
0.0
 11
526.600312
 21
228.9970029999998
 31
0.0
  0
ARC
  5
1B93D
330
1B727
100
AcDbEntity
  8
1
  6
Continuous
100
AcDbCircle
 10
535.53169
 20
264.014002
 30
0.0
 40
84.383464
100
AcDbArc
 50
241.0336029999999
 51
263.14815
  0
ARC
  5
1B93E
330
1B727
100
AcDbEntity
  8
1
  6
Continuous
100
AcDbCircle
 10
544.688583
 20
214.980966
 30
0.0
 40
16.94499
100
AcDbArc
 50
198.747283
 51
232.0804509999999
  0
ARC
  5
1B93F
330
1B727
100
AcDbEntity
  8
1
  6
Continuous
100
AcDbCircle
 10
547.93722
 20
218.245358
 30
0.0
 40
21.16964
100
AcDbArc
 50
164.2423319999998
 51
204.2964609999999
  0
ARC
  5
1B940
330
1B727
100
AcDbEntity
  8
1
  6
Continuous
100
AcDbCircle
 10
547.243978
 20
241.3414909999999
 30
0.0
 40
74.974334
100
AcDbArc
 50
196.35971
 51
215.0618629999999
  0
ARC
  5
1B941
330
1B727
100
AcDbEntity
  8
1
  6
Continuous
100
AcDbCircle
 10
508.764332
 20
214.3357879999999
 30
0.0
 40
27.96378999999999
100
AcDbArc
 50
215.0618629999999
 51
239.750289
  0
ARC
  5
1B942
330
1B727
100
AcDbEntity
  8
1
  6
Continuous
100
AcDbCircle
 10
477.100144
 20
230.0664859999999
 30
0.0
 40
5.0
100
AcDbArc
 50
90.0
 51
180.0
  0
LINE
  5
1B943
330
1B727
100
AcDbEntity
  8
1
  6
Continuous
100
AcDbLine
 10
460.6003089999998
 20
245.665768
 30
0.0
 11
538.600462
 21
245.665768
 31
0.0
  0
LINE
  5
1B944
330
1B727
100
AcDbEntity
  8
1
  6
Continuous
100
AcDbLine
 10
471.1216949999998
 20
239.388766
 30
0.0
 11
528.0790679999999
 21
239.388766
 31
0.0
  0
LINE
  5
1B945
330
1B727
100
AcDbEntity
  8
1
  6
Continuous
100
AcDbLine
 10
472.712144
 20
235.066486
 30
0.0
 11
526.488144
 21
235.066486
 31
0.0
  0
LINE
  5
1B946
330
1B727
100
AcDbEntity
  8
1
  6
Continuous
100
AcDbLine
 10
472.712144
 20
237.4073939999999
 30
0.0
 11
526.488144
 21
237.4073939999999
 31
0.0
  0
LINE
  5
1B947
330
1B727
100
AcDbEntity
  8
1
  6
Continuous
100
AcDbLine
 10
510.7032349999998
 20
235.066486
 30
0.0
 11
513.0441440000002
 21
237.4073939999999
 31
0.0
  0
LINE
  5
1B948
330
1B727
100
AcDbEntity
  8
1
  6
Continuous
100
AcDbLine
 10
513.2637319999998
 20
235.066486
 30
0.0
 11
510.922824
 21
237.4073939999999
 31
0.0
  0
LINE
  5
1B949
330
1B727
100
AcDbEntity
  8
1
  6
Continuous
100
AcDbLine
 10
535.6703109999998
 20
232.441224
 30
0.0
 11
524.6001439999998
 21
232.441224
 31
0.0
  0
LINE
  5
1B94A
330
1B727
100
AcDbEntity
  8
1
  6
Continuous
100
AcDbLine
 10
538.600462
 20
242.765768
 30
0.0
 11
538.600462
 21
245.665768
 31
0.0
  0
LINE
  5
1B94B
330
1B727
100
AcDbEntity
  8
1
  6
Continuous
100
AcDbLine
 10
512.8245559999998
 20
235.066486
 30
0.0
 11
515.1654639999998
 21
237.4073939999999
 31
0.0
  0
LINE
  5
1B94C
330
1B727
100
AcDbEntity
  8
1
  6
Continuous
100
AcDbLine
 10
515.3850529999998
 20
235.066486
 30
0.0
 11
513.0441440000002
 21
237.4073939999999
 31
0.0
  0
LINE
  5
1B94D
330
1B727
100
AcDbEntity
  8
1
  6
Continuous
100
AcDbLine
 10
514.9458759999999
 20
235.066486
 30
0.0
 11
517.286785
 21
237.4073939999999
 31
0.0
  0
LINE
  5
1B94E
330
1B727
100
AcDbEntity
  8
1
  6
Continuous
100
AcDbLine
 10
517.506373
 20
235.066486
 30
0.0
 11
515.1654639999998
 21
237.4073939999999
 31
0.0
  0
LINE
  5
1B94F
330
1B727
100
AcDbEntity
  8
1
  6
Continuous
100
AcDbLine
 10
517.0671959999999
 20
235.066486
 30
0.0
 11
519.408105
 21
237.4073939999999
 31
0.0
  0
LINE
  5
1B950
330
1B727
100
AcDbEntity
  8
1
  6
Continuous
100
AcDbLine
 10
519.627693
 20
235.066486
 30
0.0
 11
517.286785
 21
237.4073939999999
 31
0.0
  0
LINE
  5
1B951
330
1B727
100
AcDbEntity
  8
1
  6
Continuous
100
AcDbLine
 10
519.188517
 20
235.066486
 30
0.0
 11
521.5294249999998
 21
237.4073939999999
 31
0.0
  0
LINE
  5
1B952
330
1B727
100
AcDbEntity
  8
1
  6
Continuous
100
AcDbLine
 10
521.7490139999998
 20
235.066486
 30
0.0
 11
519.408105
 21
237.4073939999999
 31
0.0
  0
LINE
  5
1B953
330
1B727
100
AcDbEntity
  8
1
  6
Continuous
100
AcDbLine
 10
521.3098369999999
 20
235.066486
 30
0.0
 11
523.650746
 21
237.4073939999999
 31
0.0
  0
LINE
  5
1B954
330
1B727
100
AcDbEntity
  8
1
  6
Continuous
100
AcDbLine
 10
523.8703339999998
 20
235.066486
 30
0.0
 11
521.5294249999998
 21
237.4073939999999
 31
0.0
  0
LINE
  5
1B955
330
1B727
100
AcDbEntity
  8
1
  6
Continuous
100
AcDbLine
 10
523.431157
 20
235.066486
 30
0.0
 11
525.772066
 21
237.4073939999999
 31
0.0
  0
LINE
  5
1B956
330
1B727
100
AcDbEntity
  8
1
  6
Continuous
100
AcDbLine
 10
525.991654
 20
235.066486
 30
0.0
 11
523.650746
 21
237.4073939999999
 31
0.0
  0
LINE
  5
1B957
330
1B727
100
AcDbEntity
  8
1
  6
Continuous
100
AcDbLine
 10
526.488144
 20
237.4073939999999
 30
0.0
 11
526.488144
 21
235.066486
 31
0.0
  0
LINE
  5
1B958
330
1B727
100
AcDbEntity
  8
1
  6
Continuous
100
AcDbLine
 10
525.4263969999998
 20
239.388766
 30
0.0
 11
524.578035
 21
237.4073939999999
 31
0.0
  0
ARC
  5
1B959
330
1B727
100
AcDbEntity
  8
1
  6
Continuous
100
AcDbCircle
 10
524.6001439999998
 20
234.9412239999999
 30
0.0
 40
2.5
100
AcDbArc
 50
180.0
 51
270.0
  0
ARC
  5
1B95A
330
1B727
100
AcDbEntity
  8
1
  6
Continuous
100
AcDbCircle
 10
522.100144
 20
230.0664859999999
 30
0.0
 40
5.0
100
AcDbArc
 50
28.355938
 51
90.0
  0
LINE
  5
1B95B
330
1B727
100
AcDbEntity
  8
1
  6
Continuous
100
AcDbLine
 10
526.488144
 20
236.691317
 30
0.0
 11
525.772066
 21
237.4073939999999
 31
0.0
  0
LINE
  5
1B95C
330
1B727
100
AcDbEntity
  8
4
  6
CENTER
100
AcDbLine
 10
530.6001039999999
 20
248.565768
 30
0.0
 11
530.6001039999999
 21
239.8657679999999
 31
0.0
  0
LINE
  5
1B95D
330
1B727
100
AcDbEntity
  8
1
  6
Continuous
100
AcDbLine
 10
491.6113519999998
 20
235.066486
 30
0.0
 11
493.952261
 21
237.4073939999999
 31
0.0
  0
LINE
  5
1B95E
330
1B727
100
AcDbEntity
  8
1
  6
Continuous
100
AcDbLine
 10
494.171849
 20
235.066486
 30
0.0
 11
491.8309409999998
 21
237.4073939999999
 31
0.0
  0
LINE
  5
1B95F
330
1B727
100
AcDbEntity
  8
1
  6
Continuous
100
AcDbLine
 10
493.7326729999998
 20
235.066486
 30
0.0
 11
496.0735809999998
 21
237.4073939999999
 31
0.0
  0
LINE
  5
1B960
330
1B727
100
AcDbEntity
  8
1
  6
Continuous
100
AcDbLine
 10
496.2931699999998
 20
235.066486
 30
0.0
 11
493.952261
 21
237.4073939999999
 31
0.0
  0
LINE
  5
1B961
330
1B727
100
AcDbEntity
  8
1
  6
Continuous
100
AcDbLine
 10
495.8539929999998
 20
235.066486
 30
0.0
 11
498.194902
 21
237.4073939999999
 31
0.0
  0
LINE
  5
1B962
330
1B727
100
AcDbEntity
  8
1
  6
Continuous
100
AcDbLine
 10
498.41449
 20
235.066486
 30
0.0
 11
496.0735809999998
 21
237.4073939999999
 31
0.0
  0
LINE
  5
1B963
330
1B727
100
AcDbEntity
  8
1
  6
Continuous
100
AcDbLine
 10
497.9753129999998
 20
235.066486
 30
0.0
 11
500.316222
 21
237.4073939999999
 31
0.0
  0
LINE
  5
1B964
330
1B727
100
AcDbEntity
  8
1
  6
Continuous
100
AcDbLine
 10
500.5358099999998
 20
235.066486
 30
0.0
 11
498.194902
 21
237.4073939999999
 31
0.0
  0
LINE
  5
1B965
330
1B727
100
AcDbEntity
  8
1
  6
Continuous
100
AcDbLine
 10
500.0966339999997
 20
235.066486
 30
0.0
 11
502.437542
 21
237.4073939999999
 31
0.0
  0
LINE
  5
1B966
330
1B727
100
AcDbEntity
  8
1
  6
Continuous
100
AcDbLine
 10
502.6571309999998
 20
235.066486
 30
0.0
 11
500.316222
 21
237.4073939999999
 31
0.0
  0
LINE
  5
1B967
330
1B727
100
AcDbEntity
  8
1
  6
Continuous
100
AcDbLine
 10
502.217954
 20
235.066486
 30
0.0
 11
504.558863
 21
237.4073939999999
 31
0.0
  0
LINE
  5
1B968
330
1B727
100
AcDbEntity
  8
1
  6
Continuous
100
AcDbLine
 10
504.7784509999998
 20
235.066486
 30
0.0
 11
502.437542
 21
237.4073939999999
 31
0.0
  0
LINE
  5
1B969
330
1B727
100
AcDbEntity
  8
1
  6
Continuous
100
AcDbLine
 10
504.3392739999998
 20
235.066486
 30
0.0
 11
506.680183
 21
237.4073939999999
 31
0.0
  0
LINE
  5
1B96A
330
1B727
100
AcDbEntity
  8
1
  6
Continuous
100
AcDbLine
 10
506.8997709999998
 20
235.066486
 30
0.0
 11
504.558863
 21
237.4073939999999
 31
0.0
  0
LINE
  5
1B96B
330
1B727
100
AcDbEntity
  8
1
  6
Continuous
100
AcDbLine
 10
506.4605949999998
 20
235.066486
 30
0.0
 11
508.801503
 21
237.4073939999999
 31
0.0
  0
LINE
  5
1B96C
330
1B727
100
AcDbEntity
  8
1
  6
Continuous
100
AcDbLine
 10
509.021092
 20
235.066486
 30
0.0
 11
506.680183
 21
237.4073939999999
 31
0.0
  0
LINE
  5
1B96D
330
1B727
100
AcDbEntity
  8
1
  6
Continuous
100
AcDbLine
 10
508.5819149999998
 20
235.066486
 30
0.0
 11
510.922824
 21
237.4073939999999
 31
0.0
  0
LINE
  5
1B96E
330
1B727
100
AcDbEntity
  8
1
  6
Continuous
100
AcDbLine
 10
511.1424119999998
 20
235.066486
 30
0.0
 11
508.801503
 21
237.4073939999999
 31
0.0
  0
LINE
  5
1B96F
330
1B727
100
AcDbEntity
  8
1
  6
Continuous
100
AcDbLine
 10
472.712144
 20
235.259162
 30
0.0
 11
474.860378
 21
237.4073939999999
 31
0.0
  0
LINE
  5
1B970
330
1B727
100
AcDbEntity
  8
1
  6
Continuous
100
AcDbLine
 10
475.079966
 20
235.066486
 30
0.0
 11
472.7390579999998
 21
237.4073939999999
 31
0.0
  0
LINE
  5
1B971
330
1B727
100
AcDbEntity
  8
1
  6
Continuous
100
AcDbLine
 10
474.64079
 20
235.066486
 30
0.0
 11
476.9816979999998
 21
237.4073939999999
 31
0.0
  0
LINE
  5
1B972
330
1B727
100
AcDbEntity
  8
1
  6
Continuous
100
AcDbLine
 10
476.7621099999998
 20
235.066486
 30
0.0
 11
479.1030189999998
 21
237.4073939999999
 31
0.0
  0
LINE
  5
1B973
330
1B727
100
AcDbEntity
  8
1
  6
Continuous
100
AcDbLine
 10
477.201287
 20
235.066486
 30
0.0
 11
474.860378
 21
237.4073939999999
 31
0.0
  0
LINE
  5
1B974
330
1B727
100
AcDbEntity
  8
1
  6
Continuous
100
AcDbLine
 10
472.712144
 20
237.4073939999999
 30
0.0
 11
472.712144
 21
235.066486
 31
0.0
  0
LINE
  5
1B975
330
1B727
100
AcDbEntity
  8
1
  6
Continuous
100
AcDbLine
 10
479.322607
 20
235.066486
 30
0.0
 11
476.9816979999998
 21
237.4073939999999
 31
0.0
  0
LINE
  5
1B976
330
1B727
100
AcDbEntity
  8
1
  6
Continuous
100
AcDbLine
 10
478.8834299999998
 20
235.066486
 30
0.0
 11
481.2243389999999
 21
237.4073939999999
 31
0.0
  0
LINE
  5
1B977
330
1B727
100
AcDbEntity
  8
1
  6
Continuous
100
AcDbLine
 10
481.443927
 20
235.066486
 30
0.0
 11
479.1030189999998
 21
237.4073939999999
 31
0.0
  0
LINE
  5
1B978
330
1B727
100
AcDbEntity
  8
1
  6
Continuous
100
AcDbLine
 10
481.004751
 20
235.066486
 30
0.0
 11
483.3456589999998
 21
237.4073939999999
 31
0.0
  0
LINE
  5
1B979
330
1B727
100
AcDbEntity
  8
1
  6
Continuous
100
AcDbLine
 10
483.565248
 20
235.066486
 30
0.0
 11
481.2243389999999
 21
237.4073939999999
 31
0.0
  0
LINE
  5
1B97A
330
1B727
100
AcDbEntity
  8
1
  6
Continuous
100
AcDbLine
 10
483.126071
 20
235.066486
 30
0.0
 11
485.4669799999999
 21
237.4073939999999
 31
0.0
  0
LINE
  5
1B97B
330
1B727
100
AcDbEntity
  8
1
  6
Continuous
100
AcDbLine
 10
485.6865679999998
 20
235.066486
 30
0.0
 11
483.3456589999998
 21
237.4073939999999
 31
0.0
  0
LINE
  5
1B97C
330
1B727
100
AcDbEntity
  8
1
  6
Continuous
100
AcDbLine
 10
485.2473909999998
 20
235.066486
 30
0.0
 11
487.5882999999998
 21
237.4073939999999
 31
0.0
  0
LINE
  5
1B97D
330
1B727
100
AcDbEntity
  8
1
  6
Continuous
100
AcDbLine
 10
487.807888
 20
235.066486
 30
0.0
 11
485.4669799999999
 21
237.4073939999999
 31
0.0
  0
LINE
  5
1B97E
330
1B727
100
AcDbEntity
  8
1
  6
Continuous
100
AcDbLine
 10
487.368712
 20
235.066486
 30
0.0
 11
489.70962
 21
237.4073939999999
 31
0.0
  0
LINE
  5
1B97F
330
1B727
100
AcDbEntity
  8
1
  6
Continuous
100
AcDbLine
 10
489.9292089999998
 20
235.066486
 30
0.0
 11
487.5882999999998
 21
237.4073939999999
 31
0.0
  0
LINE
  5
1B980
330
1B727
100
AcDbEntity
  8
1
  6
Continuous
100
AcDbLine
 10
489.4900319999998
 20
235.066486
 30
0.0
 11
491.8309409999998
 21
237.4073939999999
 31
0.0
  0
LINE
  5
1B981
330
1B727
100
AcDbEntity
  8
1
  6
Continuous
100
AcDbLine
 10
492.050529
 20
235.066486
 30
0.0
 11
489.70962
 21
237.4073939999999
 31
0.0
  0
LINE
  5
1B982
330
1B727
100
AcDbEntity
  8
1
  6
Continuous
100
AcDbLine
 10
473.773745
 20
239.388766
 30
0.0
 11
474.622107
 21
237.4073939999999
 31
0.0
  0
LINE
  5
1B983
330
1B727
100
AcDbEntity
  8
1
  6
Continuous
100
AcDbLine
 10
472.712144
 20
237.380481
 30
0.0
 11
472.7390579999998
 21
237.4073939999999
 31
0.0
  0
LINE
  5
1B984
330
1B727
100
AcDbEntity
  8
1
  6
Continuous
100
AcDbLine
 10
460.6003089999998
 20
242.765768
 30
0.0
 11
460.6003089999998
 21
245.665768
 31
0.0
  0
LINE
  5
1B985
330
1B727
100
AcDbEntity
  8
4
  6
CENTER
100
AcDbLine
 10
468.6001039999998
 20
248.565768
 30
0.0
 11
468.6001039999998
 21
239.8657679999999
 31
0.0
  0
CIRCLE
  5
1B986
330
1B727
100
AcDbEntity
  8
1
  6
Continuous
100
AcDbCircle
 10
527.150312
 20
191.1657679999999
 30
0.0
 40
7.0
  0
LINE
  5
1B987
330
1B727
100
AcDbEntity
  8
1
  6
Continuous
100
AcDbLine
 10
103.000153
 20
245.665768
 30
0.0
 11
25.0
 21
245.665768
 31
0.0
  0
LINE
  5
1B988
330
1B727
100
AcDbEntity
  8
1
  6
Continuous
100
AcDbLine
 10
103.000153
 20
242.765768
 30
0.0
 11
25.0
 21
242.765768
 31
0.0
  0
ARC
  5
1B989
330
1B727
100
AcDbEntity
  8
1
  6
Continuous
100
AcDbCircle
 10
35.700795
 20
246.610395
 30
0.0
 40
7.223855999999997
100
AcDbArc
 50
212.1550619999999
 51
268.5768749999999
  0
ARC
  5
1B98A
330
1B727
100
AcDbEntity
  8
1
  6
Continuous
100
AcDbCircle
 10
92.29950499999999
 20
246.610395
 30
0.0
 40
7.223855999999997
100
AcDbArc
 50
271.423125
 51
327.844938
  0
LINE
  5
1B98B
330
1B727
100
AcDbEntity
  8
1
  6
Continuous
100
AcDbLine
 10
262.600156
 20
242.765768
 30
0.0
 11
184.6000029999999
 21
242.765768
 31
0.0
  0
ARC
  5
1B98C
330
1B727
100
AcDbEntity
  8
1
  6
Continuous
100
AcDbCircle
 10
195.300966
 20
246.610395
 30
0.0
 40
7.223855999999997
100
AcDbArc
 50
212.1550619999999
 51
268.5768749999999
  0
ARC
  5
1B98D
330
1B727
100
AcDbEntity
  8
1
  6
Continuous
100
AcDbCircle
 10
251.8996759999998
 20
246.610395
 30
0.0
 40
7.223855999999997
100
AcDbArc
 50
271.423125
 51
327.844938
  0
ARC
  5
1B98E
330
1B727
100
AcDbEntity
  8
1
  6
Continuous
100
AcDbCircle
 10
333.3008040000001
 20
246.610395
 30
0.0
 40
7.223855999999997
100
AcDbArc
 50
212.1550619999999
 51
268.5768749999999
  0
ARC
  5
1B98F
330
1B727
100
AcDbEntity
  8
1
  6
Continuous
100
AcDbCircle
 10
389.899514
 20
246.610395
 30
0.0
 40
7.223855999999997
100
AcDbArc
 50
271.423125
 51
327.844938
  0
ARC
  5
1B990
330
1B727
100
AcDbEntity
  8
1
  6
Continuous
100
AcDbCircle
 10
471.3007889999998
 20
246.610395
 30
0.0
 40
7.223855999999997
100
AcDbArc
 50
212.1550619999999
 51
268.5768749999999
  0
ARC
  5
1B991
330
1B727
100
AcDbEntity
  8
1
  6
Continuous
100
AcDbCircle
 10
527.899499
 20
246.610395
 30
0.0
 40
7.223855999999997
100
AcDbArc
 50
271.423125
 51
327.844938
  0
LINE
  5
1B992
330
1B727
100
AcDbEntity
  8
1
  6
Continuous
100
AcDbLine
 10
460.6003089999998
 20
242.765768
 30
0.0
 11
538.600462
 21
242.765768
 31
0.0
  0
LINE
  5
1B993
330
1B727
100
AcDbEntity
  8
1
  6
Continuous
100
AcDbLine
 10
322.600156
 20
242.765768
 30
0.0
 11
400.600309
 21
242.765768
 31
0.0
  0
LINE
  5
1B994
330
1B727
100
AcDbEntity
  8
4
  6
CENTER
100
AcDbLine
 10
196.6001529999998
 20
368.6031489999999
 30
0.0
 11
196.6001529999998
 21
280.725391
 31
0.0
  0
ARC
  5
1B995
330
1B727
100
AcDbEntity
  8
1
  6
Continuous
100
AcDbCircle
 10
196.6001529999998
 20
191.1657679999999
 30
0.0
 40
21.49999999999999
100
AcDbArc
 50
92.86623599999998
 51
109.3947219999999
  0
ARC
  5
1B996
330
1B727
100
AcDbEntity
  8
1
  6
Continuous
100
AcDbCircle
 10
526.600312
 20
191.1657679999999
 30
0.0
 40
21.49999999999999
100
AcDbArc
 50
196.7730599999999
 51
87.54432199999998
  0
CIRCLE
  5
1B997
330
1B727
100
AcDbEntity
  8
1
  6
Continuous
100
AcDbCircle
 10
223.600361
 20
324.6642699999999
 30
0.0
 40
28.35
  0
LINE
  5
1B998
330
1B727
100
AcDbEntity
  8
1
  6
Continuous
100
AcDbLine
 10
187.530154
 20
229.841224
 30
0.0
 11
192.0531189999999
 21
229.841224
 31
0.0
  0
LINE
  5
1B999
330
1B727
100
AcDbEntity
  8
1
  6
Continuous
100
AcDbLine
 10
49.847311
 20
229.841224
 30
0.0
 11
78.15302800000002
 21
229.841224
 31
0.0
  0
LINE
  5
1B99A
330
1B727
100
AcDbEntity
  8
1
  6
Continuous
100
AcDbLine
 10
48.30015
 20
180.1657679999999
 30
0.0
 11
45.70015
 21
180.1657679999999
 31
0.0
  0
LINE
  5
1B99B
330
1B727
100
AcDbEntity
  8
1
  6
Continuous
100
AcDbLine
 10
379.904355
 20
180.1657679999999
 30
0.0
 11
377.300159
 21
180.1657679999999
 31
0.0
  0
LINE
  5
1B99C
330
1B727
100
AcDbEntity
  8
1
  6
Continuous
100
AcDbLine
 10
345.9001589999999
 20
180.1657679999999
 30
0.0
 11
343.972463
 21
180.1657679999999
 31
0.0
  0
LINE
  5
1B99D
330
1B727
100
AcDbEntity
  8
1
  6
Continuous
100
AcDbLine
 10
535.6703109999998
 20
229.841224
 30
0.0
 11
531.147346
 21
229.841224
 31
0.0
  0
ARC
  5
1B99E
330
1B727
100
AcDbEntity
  8
1
  6
Continuous
100
AcDbCircle
 10
235.309604
 20
67.71695099999999
 30
0.0
 40
43.12437599999999
100
AcDbArc
 50
118.9771959999999
 51
127.937704
  0
ARC
  5
1B99F
330
1B727
100
AcDbEntity
  8
1
  6
Continuous
100
AcDbCircle
 10
235.960899
 20
66.58743100000001
 30
0.0
 40
41.82449499999999
100
AcDbArc
 50
121.0034939999999
 51
128.109208
  0
ARC
  5
1B9A0
330
1B727
100
AcDbEntity
  8
1
  6
Continuous
100
AcDbCircle
 10
234.904446
 20
92.100439
 30
0.0
 40
40.147421
100
AcDbArc
 50
226.513902
 51
244.751782
  0
ARC
  5
1B9A1
330
1B727
100
AcDbEntity
  8
1
  6
Continuous
100
AcDbCircle
 10
235.309604
 20
92.280052
 30
0.0
 40
43.12437599999999
100
AcDbArc
 50
226.835039
 51
244.430645
  0
ARC
  5
1B9A2
330
1B727
100
AcDbEntity
  8
1
  6
Continuous
100
AcDbCircle
 10
24.147175
 20
170.6739579999999
 30
0.0
 40
69.225691
100
AcDbArc
 50
36.63138699999999
 51
39.58225499999999
  0
ARC
  5
1B9A3
330
1B727
100
AcDbEntity
  8
1
  6
Continuous
100
AcDbCircle
 10
103.853125
 20
170.6739579999999
 30
0.0
 40
69.225691
100
AcDbArc
 50
140.4177449999999
 51
143.3686129999999
  0
ARC
  5
1B9A4
330
1B727
100
AcDbEntity
  8
1
  6
Continuous
100
AcDbCircle
 10
192.528658
 20
238.173077
 30
0.0
 40
60.0
100
AcDbArc
 50
277.003168
 51
288.743587
  0
ARC
  5
1B9A5
330
1B727
100
AcDbEntity
  8
1
  6
Continuous
100
AcDbCircle
 10
216.7875459999999
 20
220.5217179999999
 30
0.0
 40
52.96483199999999
100
AcDbArc
 50
252.681513
 51
261.9832129999999
  0
ARC
  5
1B9A6
330
1B727
100
AcDbEntity
  8
1
  6
Continuous
100
AcDbCircle
 10
192.0874729999999
 20
191.663304
 30
0.0
 40
13.440028
100
AcDbArc
 50
303.3222949999998
 51
44.094458
  0
ARC
  5
1B9A7
330
1B727
100
AcDbEntity
  8
1
  6
Continuous
100
AcDbCircle
 10
194.8734379999999
 20
175.504414
 30
0.0
 40
28.40625
100
AcDbArc
 50
52.832411
 51
96.935295
  0
LINE
  5
1B9A8
330
1B727
100
AcDbEntity
  8
1
  6
Continuous
100
AcDbLine
 10
159.7887629999999
 20
192.628701
 30
0.0
 11
161.1290379999998
 21
204.7850429999999
 31
0.0
  0
LINE
  5
1B9A9
330
1B727
100
AcDbEntity
  8
1
  6
Continuous
100
AcDbLine
 10
176.7452219999999
 20
190.386959
 30
0.0
 11
178.1260449999998
 21
202.911068
 31
0.0
  0
LINE
  5
1B9AA
330
1B727
100
AcDbEntity
  8
1
  6
Continuous
100
AcDbLine
 10
175.4838279999999
 20
189.532962
 30
0.0
 11
159.9235549999999
 21
193.8512899999999
 31
0.0
  0
ARC
  5
1B9AB
330
1B727
100
AcDbEntity
  8
1
  6
Continuous
100
AcDbCircle
 10
168.574289
 20
178.71169
 30
0.0
 40
6.0
100
AcDbArc
 50
179.3238299999999
 51
14.208525
  0
ARC
  5
1B9AC
330
1B727
100
AcDbEntity
  8
1
  6
Continuous
100
AcDbCircle
 10
168.574289
 20
178.71169
 30
0.0
 40
7.0
100
AcDbArc
 50
201.717811
 51
21.717804
  0
ARC
  5
1B9AD
330
1B727
100
AcDbEntity
  8
1
  6
Continuous
100
AcDbCircle
 10
240.938643
 20
373.1279569999998
 30
0.0
 40
200.0
100
AcDbArc
 50
246.622234
 51
256.004236
  0
ARC
  5
1B9AE
330
1B727
100
AcDbEntity
  8
1
  6
Continuous
100
AcDbCircle
 10
182.5733129999999
 20
178.5464749999999
 30
0.0
 40
20.0
100
AcDbArc
 50
151.454554
 51
179.3238299999999
  0
ARC
  5
1B9AF
330
1B727
100
AcDbEntity
  8
1
  6
Continuous
100
AcDbCircle
 10
180.6515139999999
 20
183.522153
 30
0.0
 40
20.0
100
AcDbArc
 50
162.4701469999999
 51
201.7178069999999
  0
ARC
  5
1B9B0
330
1B727
100
AcDbEntity
  8
1
  6
Continuous
100
AcDbCircle
 10
162.7706849999999
 20
192.299939
 30
0.0
 40
3.0
100
AcDbArc
 50
173.7083759999999
 51
246.62223
  0
ARC
  5
1B9B1
330
1B727
100
AcDbEntity
  8
1
  6
Continuous
100
AcDbCircle
 10
212.0496769999999
 20
205.3274309999999
 30
0.0
 40
37.048996
100
AcDbArc
 50
233.9701279999999
 51
252.681513
  0
ARC
  5
1B9B2
330
1B727
100
AcDbEntity
  8
1
  6
Continuous
100
AcDbCircle
 10
180.6515139999999
 20
183.522153
 30
0.0
 40
6.0
100
AcDbArc
 50
171.4978669999998
 51
201.7178069999999
  0
ARC
  5
1B9B3
330
1B727
100
AcDbEntity
  8
1
  6
Continuous
100
AcDbCircle
 10
175.751238
 20
190.4965479999999
 30
0.0
 40
1.0
100
AcDbArc
 50
254.489464
 51
353.7083739999998
  0
ARC
  5
1B9B4
330
1B727
100
AcDbEntity
  8
1
  6
Continuous
100
AcDbCircle
 10
155.0025579999999
 20
175.275372
 30
0.0
 40
20.0
100
AcDbArc
 50
14.208522
 51
29.96306
  0
ARC
  5
1B9B5
330
1B727
100
AcDbEntity
  8
1
  6
Continuous
100
AcDbCircle
 10
197.4056339999999
 20
198.4714969999999
 30
0.0
 40
20.0
100
AcDbArc
 50
256.004236
 51
277.003168
  0
ARC
  5
1B9B6
330
1B727
100
AcDbEntity
  8
1
  6
Continuous
100
AcDbCircle
 10
198.8851949999999
 20
187.227925
 30
0.0
 40
14.668297
100
AcDbArc
 50
205.4496349999999
 51
233.9701279999999
  0
ARC
  5
1B9B7
330
1B727
100
AcDbEntity
  8
1
  6
Continuous
100
AcDbCircle
 10
179.605806
 20
196.95316
 30
0.0
 40
15.825663
100
AcDbArc
 50
109.2988389999999
 51
152.3649499999999
  0
LINE
  5
1B9B8
330
1B727
100
AcDbEntity
  8
1
  6
Continuous
100
AcDbLine
 10
160.876982
 20
202.4988959999999
 30
0.0
 11
177.8739779999999
 21
200.6249239999999
 31
0.0
  0
LINE
  5
1B9B9
330
1B727
100
AcDbEntity
  8
1
  6
Continuous
100
AcDbLine
 10
161.1290379999998
 20
204.7850459999999
 30
0.0
 11
178.126034
 21
202.911075
 31
0.0
  0
ARC
  5
1B9BA
330
1B727
100
AcDbEntity
  8
1
  6
Continuous
100
AcDbCircle
 10
181.292162
 20
192.137387
 30
0.0
 40
20.92815799999999
100
AcDbArc
 50
73.60481
 51
109.2988389999999
  0
ARC
  5
1B9BB
330
1B727
100
AcDbEntity
  8
1
  6
Continuous
100
AcDbCircle
 10
180.906878
 20
205.320836
 30
0.0
 40
3.5
100
AcDbArc
 50
263.708369
 51
353.7083739999998
  0
ARC
  5
1B9BC
330
1B727
100
AcDbEntity
  8
1
  6
Continuous
100
AcDbCircle
 10
178.4797989999999
 20
202.469647
 30
0.0
 40
0.4
100
AcDbArc
 50
173.7083759999999
 51
263.7083859999999
  0
LINE
  5
1B9BD
330
1B727
100
AcDbEntity
  8
1
  6
Continuous
100
AcDbLine
 10
178.4359629999999
 20
202.0720499999999
 30
0.0
 11
180.523312
 21
201.8419129999998
 31
0.0
  0
ARC
  5
1B9BE
330
1B727
100
AcDbEntity
  8
1
  6
Continuous
100
AcDbCircle
 10
163.452051
 20
166.4665949999998
 30
0.0
 40
52.56699000000001
100
AcDbArc
 50
48.00300299999999
 51
52.478703
  0
ARC
  5
1B9BF
330
1B727
100
AcDbEntity
  8
1
  6
Continuous
100
AcDbCircle
 10
182.3261889999999
 20
190.911114
 30
0.0
 40
21.68414299999999
100
AcDbArc
 50
52.72675200000001
 51
62.629099
  0
ARC
  5
1B9C0
330
1B727
100
AcDbEntity
  8
1
  6
Continuous
100
AcDbCircle
 10
173.768137
 20
177.924977
 30
0.0
 40
37.14894499999999
100
AcDbArc
 50
42.98789199999998
 51
48.00300299999999
  0
ARC
  5
1B9C1
330
1B727
100
AcDbEntity
  8
1
  6
Continuous
100
AcDbCircle
 10
172.422854
 20
215.505498
 30
0.0
 40
19.95331399999999
100
AcDbArc
 50
328.857725
 51
336.105753
  0
LINE
  5
1B9C2
330
1B727
100
AcDbEntity
  8
1
  6
Continuous
100
AcDbLine
 10
189.492662
 20
205.6318039999999
 30
0.0
 11
189.763348
 21
208.086925
 31
0.0
  0
ARC
  5
1B9C3
330
1B727
100
AcDbEntity
  8
1
  6
Continuous
100
AcDbCircle
 10
191.2321259999999
 20
205.440022
 30
0.0
 40
1.75
100
AcDbArc
 50
173.7083759999999
 51
276.9353199999999
  0
LINE
  5
1B9C4
330
1B727
100
AcDbEntity
  8
1
  6
Continuous
100
AcDbLine
 10
184.385796
 20
204.937271
 30
0.0
 11
184.7934689999999
 21
208.634867
 31
0.0
  0
LINE
  5
1B9C5
330
1B727
100
AcDbEntity
  8
1
  6
Continuous
100
AcDbLine
 10
184.793461
 20
208.634865
 30
0.0
 11
189.7633459999999
 21
208.0869199999999
 31
0.0
  0
ARC
  5
1B9C6
330
1B727
100
AcDbEntity
  8
1
  6
Continuous
100
AcDbCircle
 10
129.1794679999999
 20
247.671609
 30
0.0
 40
75.525002
100
AcDbArc
 50
324.477798
 51
329.210262
  0
LINE
  5
1B9C7
330
1B727
100
AcDbEntity
  8
1
  6
Continuous
100
AcDbLine
 10
192.2957079999999
 20
210.167564
 30
0.0
 11
190.6660629999999
 21
207.4234139999998
 31
0.0
  0
ARC
  5
1B9C8
330
1B727
100
AcDbEntity
  8
1
  6
Continuous
100
AcDbCircle
 10
179.094988
 20
184.669736
 30
0.0
 40
28.712332
100
AcDbArc
 50
62.629099
 51
73.60481
  0
LINE
  5
1B9C9
330
1B727
100
AcDbEntity
  8
1
  6
Continuous
100
AcDbLine
 10
234.18634
 20
196.730252
 30
0.0
 11
234.3836019999999
 21
198.5194059999998
 31
0.0
  0
ARC
  5
1B9CA
330
1B727
100
AcDbEntity
  8
1
  6
Continuous
100
AcDbCircle
 10
215.2459809999998
 20
198.315453
 30
0.0
 40
2.0
100
AcDbArc
 50
236.533648
 51
353.7083739999998
  0
ARC
  5
1B9CB
330
1B727
100
AcDbEntity
  8
1
  6
Continuous
100
AcDbCircle
 10
236.200972
 20
230.0154269999999
 30
0.0
 40
40.0
100
AcDbArc
 50
232.8324100000001
 51
236.533648
  0
LINE
  5
1B9CC
330
1B727
100
AcDbEntity
  8
1
  6
Continuous
100
AcDbLine
 10
217.233943
 20
198.0962749999999
 30
0.0
 11
234.127768
 21
196.2336799999999
 31
0.0
  0
LINE
  5
1B9CD
330
1B727
100
AcDbEntity
  8
1
  6
Continuous
100
AcDbLine
 10
234.1859109999998
 20
196.7264529999999
 30
0.0
 11
231.1163159999999
 21
170.7099659999998
 31
0.0
  0
LINE
  5
1B9CE
330
1B727
100
AcDbEntity
  8
1
  6
Continuous
100
AcDbLine
 10
214.417501
 20
172.5510639999999
 30
0.0
 11
215.0969519999999
 21
178.713725
 31
0.0
  0
ARC
  5
1B9CF
330
1B727
100
AcDbEntity
  8
1
  6
Continuous
100
AcDbCircle
 10
212.5456939999998
 20
190.403424
 30
0.0
 40
22.549295
100
AcDbArc
 50
261.9832129999999
 51
299.4182569999999
  0
LINE
  5
1B9D0
330
1B727
100
AcDbEntity
  8
1
  6
Continuous
100
AcDbLine
 10
214.417501
 20
172.551068
 30
0.0
 11
231.116314
 21
170.7099729999999
 31
0.0
  0
ARC
  5
1B9D1
330
1B727
100
AcDbEntity
  8
1
  6
Continuous
100
AcDbCircle
 10
215.5991759999998
 20
184.9884079999999
 30
0.0
 40
16.332693
100
AcDbArc
 50
299.4182569999999
 51
303.815451
  0
ARC
  5
1B9D2
330
1B727
100
AcDbEntity
  8
1
  6
Continuous
100
AcDbCircle
 10
212.6120089999998
 20
178.9876909999999
 30
0.0
 40
2.5
100
AcDbArc
 50
353.7083739999998
 51
108.7435919999998
  0
LINE
  5
1B9D3
330
1B727
100
AcDbEntity
  8
1
  6
Continuous
100
AcDbLine
 10
217.485997
 20
200.382418
 30
0.0
 11
234.3836019999999
 21
198.519405
 31
0.0
  0
LINE
  5
1B9D4
330
1B727
100
AcDbEntity
  8
1
  6
Continuous
100
AcDbLine
 10
217.2339449999999
 20
198.096273
 30
0.0
 11
217.4859989999999
 21
200.3824159999998
 31
0.0
  0
ARC
  5
1B9D5
330
1B727
100
AcDbEntity
  8
1
  6
Continuous
100
AcDbCircle
 10
85.127851
 20
173.7099659999999
 30
0.0
 40
3.0
100
AcDbArc
 50
187.8426389999999
 51
270.0000039999998
  0
ARC
  5
1B9D6
330
1B727
100
AcDbEntity
  8
1
  6
Continuous
100
AcDbCircle
 10
79.66584499999997
 20
178.533353
 30
0.0
 40
5.794999999999999
100
AcDbArc
 50
295.226858
 51
350.999999
  0
ARC
  5
1B9D7
330
1B727
100
AcDbEntity
  8
1
  6
Continuous
100
AcDbCircle
 10
74.40626299999998
 20
179.366391
 30
0.0
 40
11.120148
100
AcDbArc
 50
350.999999
 51
45.74679999999999
  0
LINE
  5
1B9D8
330
1B727
100
AcDbEntity
  8
1
  6
Continuous
100
AcDbLine
 10
83.561902
 20
204.7850469999999
 30
0.0
 11
94.588254
 21
204.7850469999999
 31
0.0
  0
LINE
  5
1B9D9
330
1B727
100
AcDbEntity
  8
1
  6
Continuous
100
AcDbLine
 10
81.56190200000002
 20
171.71169
 30
0.0
 11
81.56190200000002
 21
204.02276
 31
0.0
  0
LINE
  5
1B9DA
330
1B727
100
AcDbEntity
  8
1
  6
Continuous
100
AcDbLine
 10
81.061902
 20
171.71169
 30
0.0
 11
81.061902
 21
204.02276
 31
0.0
  0
LINE
  5
1B9DB
330
1B727
100
AcDbEntity
  8
1
  6
Continuous
100
AcDbLine
 10
77.41587599999999
 20
213.064213
 30
0.0
 11
77.41587599999999
 21
191.1657679999999
 31
0.0
  0
ARC
  5
1B9DC
330
1B727
100
AcDbEntity
  8
1
  6
Continuous
100
AcDbCircle
 10
261.871816
 20
191.1657679999999
 30
0.0
 40
184.4559329999999
100
AcDbArc
 50
179.999997
 51
185.917605
  0
ARC
  5
1B9DD
330
1B727
100
AcDbEntity
  8
1
  6
Continuous
100
AcDbCircle
 10
-102.8940379999999
 20
191.1657679999999
 30
0.0
 40
184.4559329999999
100
AcDbArc
 50
354.082395
 51
355.7803589999999
  0
ARC
  5
1B9DE
330
1B727
100
AcDbEntity
  8
1
  6
Continuous
100
AcDbCircle
 10
82.561902
 20
172.386411
 30
0.0
 40
1.0
100
AcDbArc
 50
115.226862
 51
179.999997
  0
ARC
  5
1B9DF
330
1B727
100
AcDbEntity
  8
1
  6
Continuous
100
AcDbCircle
 10
79.988889
 20
172.261686
 30
0.0
 40
1.095919
100
AcDbArc
 50
256.8136339999999
 51
348.2638319999999
  0
LINE
  5
1B9E0
330
1B727
100
AcDbEntity
  8
1
  6
Continuous
100
AcDbLine
 10
81.061902
 20
171.71169
 30
0.0
 11
81.56190200000002
 21
171.71169
 31
0.0
  0
ARC
  5
1B9E1
330
1B727
100
AcDbEntity
  8
1
  6
Continuous
100
AcDbCircle
 10
79.488889
 20
172.261686
 30
0.0
 40
1.095919
100
AcDbArc
 50
185.917605
 51
354.082395
  0
LINE
  5
1B9E2
330
1B727
100
AcDbEntity
  8
1
  6
Continuous
100
AcDbLine
 10
83.08825400000001
 20
189.1505549999999
 30
0.0
 11
83.08825400000001
 21
186.3148159999999
 31
0.0
  0
ARC
  5
1B9E3
330
1B727
100
AcDbEntity
  8
1
  6
Continuous
100
AcDbCircle
 10
83.561902
 20
188.763867
 30
0.0
 40
2.0
100
AcDbArc
 50
179.999997
 51
225.7467979999999
  0
LINE
  5
1B9E4
330
1B727
100
AcDbEntity
  8
1
  6
Continuous
100
AcDbLine
 10
81.67686999999999
 20
193.131363
 30
0.0
 11
83.08825400000001
 21
189.1505539999998
 31
0.0
  0
ARC
  5
1B9E5
330
1B727
100
AcDbEntity
  8
1
  6
Continuous
100
AcDbCircle
 10
83.561902
 20
193.7996949999999
 30
0.0
 40
2.0
100
AcDbArc
 50
179.999997
 51
199.5218259999998
  0
ARC
  5
1B9E6
330
1B727
100
AcDbEntity
  8
1
  6
Continuous
100
AcDbCircle
 10
83.561902
 20
202.7850469999999
 30
0.0
 40
2.0
100
AcDbArc
 50
90.00000500000002
 51
180.0000009999999
  0
ARC
  5
1B9E7
330
1B727
100
AcDbEntity
  8
1
  6
Continuous
100
AcDbCircle
 10
66.56190200000001
 20
204.02276
 30
0.0
 40
15.0
100
AcDbArc
 50
0.0
 51
32.80295499999999
  0
ARC
  5
1B9E8
330
1B727
100
AcDbEntity
  8
1
  6
Continuous
100
AcDbCircle
 10
66.56190200000001
 20
204.02276
 30
0.0
 40
14.5
100
AcDbArc
 50
0.000003
 51
36.988539
  0
ARC
  5
1B9E9
330
1B727
100
AcDbEntity
  8
1
  6
Continuous
100
AcDbCircle
 10
77.48888100000002
 20
211.0655149999999
 30
0.0
 40
2.000029
100
AcDbArc
 50
32.80295499999999
 51
92.09172
  0
ARC
  5
1B9EA
330
1B727
100
AcDbEntity
  8
1
  6
Continuous
100
AcDbCircle
 10
114.634546
 20
197.1509149999999
 30
0.0
 40
0.4932890000000001
100
AcDbArc
 50
276.2439989999999
 51
83.75601000000001
  0
LINE
  5
1B9EB
330
1B727
100
AcDbEntity
  8
1
  6
Continuous
100
AcDbLine
 10
89.683858
 20
200.63781
 30
0.0
 11
96.627836
 21
196.315456
 31
0.0
  0
LINE
  5
1B9EC
330
1B727
100
AcDbEntity
  8
1
  6
Continuous
100
AcDbLine
 10
85.38825699999998
 20
200.6378109999999
 30
0.0
 11
85.38825699999998
 21
181.113805
 31
0.0
  0
LINE
  5
1B9ED
330
1B727
100
AcDbEntity
  8
1
  6
Continuous
100
AcDbLine
 10
96.627851
 20
197.080915
 30
0.0
 11
96.627851
 21
173.7099659999999
 31
0.0
  0
LINE
  5
1B9EE
330
1B727
100
AcDbEntity
  8
1
  6
Continuous
100
AcDbLine
 10
83.86190499999997
 20
193.851301
 30
0.0
 11
83.86190499999997
 21
201.485048
 31
0.0
  0
LINE
  5
1B9EF
330
1B727
100
AcDbEntity
  8
1
  6
Continuous
100
AcDbLine
 10
84.427839
 20
175.2310229999999
 30
0.0
 11
84.427839
 21
173.7099659999999
 31
0.0
  0
LINE
  5
1B9F0
330
1B727
100
AcDbEntity
  8
1
  6
Continuous
100
AcDbLine
 10
94.327848
 20
180.870473
 30
0.0
 11
94.327848
 21
173.7099659999999
 31
0.0
  0
LINE
  5
1B9F1
330
1B727
100
AcDbEntity
  8
1
  6
Continuous
100
AcDbLine
 10
85.42783900000001
 20
172.7099659999999
 30
0.0
 11
93.327848
 21
172.7099659999999
 31
0.0
  0
ARC
  5
1B9F2
330
1B727
100
AcDbEntity
  8
1
  6
Continuous
100
AcDbCircle
 10
85.42783900000001
 20
173.7099659999999
 30
0.0
 40
1.0
100
AcDbArc
 50
179.999997
 51
270.0
  0
ARC
  5
1B9F3
330
1B727
100
AcDbEntity
  8
1
  6
Continuous
100
AcDbCircle
 10
93.327848
 20
173.7099659999999
 30
0.0
 40
1.0
100
AcDbArc
 50
270.0000039999998
 51
0.000003
  0
LINE
  5
1B9F4
330
1B727
100
AcDbEntity
  8
1
  6
Continuous
100
AcDbLine
 10
85.127851
 20
170.7099659999998
 30
0.0
 11
93.62785100000001
 21
170.7099659999998
 31
0.0
  0
ARC
  5
1B9F5
330
1B727
100
AcDbEntity
  8
1
  6
Continuous
100
AcDbCircle
 10
93.62785100000001
 20
173.7099659999999
 30
0.0
 40
3.0
100
AcDbArc
 50
270.0000039999998
 51
0.000003
  0
LINE
  5
1B9F6
330
1B727
100
AcDbEntity
  8
1
  6
Continuous
100
AcDbLine
 10
97.468564
 20
196.2209149999999
 30
0.0
 11
106.627851
 21
196.2209149999999
 31
0.0
  0
ARC
  5
1B9F7
330
1B727
100
AcDbEntity
  8
1
  6
Continuous
100
AcDbCircle
 10
97.62785100000002
 20
195.233679
 30
0.0
 40
1.0
100
AcDbArc
 50
99.16418100000001
 51
180.0000009999999
  0
LINE
  5
1B9F8
330
1B727
100
AcDbEntity
  8
1
  6
Continuous
100
AcDbLine
 10
96.627851
 20
181.4876939999998
 30
0.0
 11
85.492568
 21
178.499493
 31
0.0
  0
LINE
  5
1B9F9
330
1B727
100
AcDbEntity
  8
1
  6
Continuous
100
AcDbLine
 10
83.86189799999998
 20
193.851303
 30
0.0
 11
85.27328199999997
 21
189.870495
 31
0.0
  0
ARC
  5
1B9FA
330
1B727
100
AcDbEntity
  8
1
  6
Continuous
100
AcDbCircle
 10
83.38825699999999
 20
189.202161
 30
0.0
 40
2.0
100
AcDbArc
 50
0.000003
 51
19.521831
  0
ARC
  5
1B9FB
330
1B727
100
AcDbEntity
  8
1
  6
Continuous
100
AcDbCircle
 10
106.627851
 20
270.3305359999998
 30
0.0
 40
74.10961899999998
100
AcDbArc
 50
270.0000039999998
 51
276.2439989999999
  0
LINE
  5
1B9FC
330
1B727
100
AcDbEntity
  8
1
  6
Continuous
100
AcDbLine
 10
97.32784800000001
 20
200.3809139999999
 30
0.0
 11
106.627851
 21
200.3809139999999
 31
0.0
  0
LINE
  5
1B9FD
330
1B727
100
AcDbEntity
  8
1
  6
Continuous
100
AcDbLine
 10
97.62785100000002
 20
198.0809149999998
 30
0.0
 11
106.627851
 21
198.0809149999998
 31
0.0
  0
ARC
  5
1B9FE
330
1B727
100
AcDbEntity
  8
1
  6
Continuous
100
AcDbCircle
 10
94.588254
 20
130.675419
 30
0.0
 40
74.10961899999998
100
AcDbArc
 50
83.75599599999999
 51
89.99999100000001
  0
ARC
  5
1B9FF
330
1B727
100
AcDbEntity
  8
1
  6
Continuous
100
AcDbCircle
 10
94.588254
 20
128.3754309999999
 30
0.0
 40
74.10961899999998
100
AcDbArc
 50
83.75599599999999
 51
89.99999100000001
  0
ARC
  5
1BA00
330
1B727
100
AcDbEntity
  8
1
  6
Continuous
100
AcDbCircle
 10
94.588254
 20
274.734665
 30
0.0
 40
74.10961899999998
100
AcDbArc
 50
270.0000039999998
 51
276.2439989999999
  0
LINE
  5
1BA01
330
1B727
100
AcDbEntity
  8
1
  6
Continuous
100
AcDbLine
 10
84.86190499999997
 20
202.485048
 30
0.0
 11
94.588254
 21
202.485048
 31
0.0
  0
LINE
  5
1BA02
330
1B727
100
AcDbEntity
  8
1
  6
Continuous
100
AcDbLine
 10
84.86190499999997
 20
200.6378109999999
 30
0.0
 11
94.588254
 21
200.6378109999999
 31
0.0
  0
ARC
  5
1BA03
330
1B727
100
AcDbEntity
  8
1
  6
Continuous
100
AcDbCircle
 10
84.86190499999997
 20
201.485048
 30
0.0
 40
1.0
100
AcDbArc
 50
90.00000500000002
 51
180.0000009999999
  0
ARC
  5
1BA04
330
1B727
100
AcDbEntity
  8
1
  6
Continuous
100
AcDbCircle
 10
84.86190499999997
 20
199.637811
 30
0.0
 40
1.0
100
AcDbArc
 50
90.00000500000002
 51
180.0000009999999
  0
ARC
  5
1BA05
330
1B727
100
AcDbEntity
  8
1
  6
Continuous
100
AcDbCircle
 10
97.62785100000002
 20
197.080915
 30
0.0
 40
1.0
100
AcDbArc
 50
90.00000500000002
 51
180.0000009999999
  0
ARC
  5
1BA06
330
1B727
100
AcDbEntity
  8
1
  6
Continuous
100
AcDbCircle
 10
97.32784800000001
 20
197.380914
 30
0.0
 40
3.0
100
AcDbArc
 50
89.99999100000001
 51
173.2384689999999
  0
LINE
  5
1BA07
330
1B727
100
AcDbEntity
  8
1
  6
Continuous
100
AcDbLine
 10
103.088254
 20
201.5550479999999
 30
0.0
 11
103.088254
 21
203.8550469999999
 31
0.0
  0
ARC
  5
1BA08
330
1B727
100
AcDbEntity
  8
1
  6
Continuous
100
AcDbCircle
 10
102.5949679999999
 20
203.8550469999999
 30
0.0
 40
0.4932890000000001
100
AcDbArc
 50
0.000003
 51
83.75599599999999
  0
ARC
  5
1BA09
330
1B727
100
AcDbEntity
  8
1
  6
Continuous
100
AcDbCircle
 10
102.5949679999999
 20
201.5550479999999
 30
0.0
 40
0.4932890000000001
100
AcDbArc
 50
276.2439989999999
 51
0.000003
  0
ARC
  5
1BA0A
330
1B727
100
AcDbEntity
  8
1
  6
Continuous
100
AcDbCircle
 10
102.5949679999999
 20
201.5550479999999
 30
0.0
 40
0.4932890000000001
100
AcDbArc
 50
276.2439989999999
 51
83.75601000000001
  0
LINE
  5
1BA0B
330
1B727
100
AcDbEntity
  8
1
  6
Continuous
100
AcDbLine
 10
115.127847
 20
199.4509139999999
 30
0.0
 11
115.127847
 21
197.1509149999999
 31
0.0
  0
ARC
  5
1BA0C
330
1B727
100
AcDbEntity
  8
1
  6
Continuous
100
AcDbCircle
 10
106.627851
 20
123.9713019999999
 30
0.0
 40
74.10961899999998
100
AcDbArc
 50
83.75599599999999
 51
89.99999100000001
  0
ARC
  5
1BA0D
330
1B727
100
AcDbEntity
  8
1
  6
Continuous
100
AcDbCircle
 10
114.634546
 20
199.4509139999999
 30
0.0
 40
0.4932890000000001
100
AcDbArc
 50
359.999996
 51
83.75599599999999
  0
ARC
  5
1BA0E
330
1B727
100
AcDbEntity
  8
1
  6
Continuous
100
AcDbCircle
 10
106.627851
 20
126.2712899999998
 30
0.0
 40
74.10961899999998
100
AcDbArc
 50
83.75599599999999
 51
89.99999100000001
  0
ARC
  5
1BA0F
330
1B727
100
AcDbEntity
  8
1
  6
Continuous
100
AcDbCircle
 10
196.6001529999998
 20
191.1657679999999
 30
0.0
 40
32.5
100
AcDbArc
 50
216.244046
 51
317.932318
  0
ARC
  5
1BA10
330
1B727
100
AcDbEntity
  8
1
  6
Continuous
100
AcDbCircle
 10
196.6001529999998
 20
191.1657679999999
 30
0.0
 40
21.49999999999999
100
AcDbArc
 50
199.948204
 51
280.9899839999999
  0
LINE
  5
1BA11
330
1B727
100
AcDbEntity
  8
1
  6
Continuous
100
AcDbLine
 10
334.1001589999998
 20
202.925046
 30
0.0
 11
331.0120559999999
 21
202.925046
 31
0.0
  0
LINE
  5
1BA12
330
1B727
100
AcDbEntity
  8
1
  6
Continuous
100
AcDbLine
 10
334.1001589999998
 20
201.837831
 30
0.0
 11
330.3563700000001
 21
199.507466
 31
0.0
  0
LINE
  5
1BA13
330
1B727
100
AcDbEntity
  8
1
  6
Continuous
100
AcDbLine
 10
334.1001589999998
 20
204.7850459999999
 30
0.0
 11
331.0120559999999
 21
204.7850459999999
 31
0.0
  0
LINE
  5
1BA14
330
1B727
100
AcDbEntity
  8
1
  6
Continuous
100
AcDbLine
 10
334.1001589999998
 20
200.083402
 30
0.0
 11
332.2155619999999
 21
198.910313
 31
0.0
  0
LINE
  5
1BA15
330
1B727
100
AcDbEntity
  8
1
  6
Continuous
100
AcDbLine
 10
340.1724619999999
 20
172.7099659999999
 30
0.0
 11
332.272462
 21
172.7099659999999
 31
0.0
  0
LINE
  5
1BA16
330
1B727
100
AcDbEntity
  8
1
  6
Continuous
100
AcDbLine
 10
340.472463
 20
170.7099659999998
 30
0.0
 11
331.972463
 21
170.7099659999998
 31
0.0
  0
LINE
  5
1BA17
330
1B727
100
AcDbEntity
  8
1
  6
Continuous
100
AcDbLine
 10
328.972463
 20
195.2336779999999
 30
0.0
 11
328.972463
 21
173.7099659999999
 31
0.0
  0
LINE
  5
1BA18
330
1B727
100
AcDbEntity
  8
1
  6
Continuous
100
AcDbLine
 10
331.272462
 20
197.2123839999999
 30
0.0
 11
331.272462
 21
173.7099659999999
 31
0.0
  0
ARC
  5
1BA19
330
1B727
100
AcDbEntity
  8
1
  6
Continuous
100
AcDbCircle
 10
331.972463
 20
173.7099659999999
 30
0.0
 40
3.0
100
AcDbArc
 50
180.0000029999999
 51
269.999991
  0
ARC
  5
1BA1A
330
1B727
100
AcDbEntity
  8
1
  6
Continuous
100
AcDbCircle
 10
332.272462
 20
173.7099659999999
 30
0.0
 40
1.0
100
AcDbArc
 50
180.0000029999999
 51
269.999991
  0
ARC
  5
1BA1B
330
1B727
100
AcDbEntity
  8
1
  6
Continuous
100
AcDbCircle
 10
318.972463
 20
270.330525
 30
0.0
 40
74.10961899999998
100
AcDbArc
 50
263.7559959999999
 51
269.999991
  0
ARC
  5
1BA1C
330
1B727
100
AcDbEntity
  8
1
  6
Continuous
100
AcDbCircle
 10
318.972463
 20
272.6305279999999
 30
0.0
 40
74.10961899999998
100
AcDbArc
 50
263.7559959999999
 51
269.999991
  0
ARC
  5
1BA1D
330
1B727
100
AcDbEntity
  8
1
  6
Continuous
100
AcDbCircle
 10
318.972463
 20
126.271287
 30
0.0
 40
74.10961899999998
100
AcDbArc
 50
90.00000300000001
 51
96.243998
  0
ARC
  5
1BA1E
330
1B727
100
AcDbEntity
  8
1
  6
Continuous
100
AcDbCircle
 10
310.965753
 20
197.150914
 30
0.0
 40
0.4932890000000001
100
AcDbArc
 50
179.999989
 51
263.7560099999999
  0
ARC
  5
1BA1F
330
1B727
100
AcDbEntity
  8
1
  6
Continuous
100
AcDbCircle
 10
310.965753
 20
199.450909
 30
0.0
 40
0.4932890000000001
100
AcDbArc
 50
96.243998
 51
263.7560099999999
  0
LINE
  5
1BA20
330
1B727
100
AcDbEntity
  8
1
  6
Continuous
100
AcDbLine
 10
310.472463
 20
197.150914
 30
0.0
 11
310.472463
 21
199.450909
 31
0.0
  0
ARC
  5
1BA21
330
1B727
100
AcDbEntity
  8
1
  6
Continuous
100
AcDbCircle
 10
331.0120559999999
 20
130.6754159999998
 30
0.0
 40
74.10961899999998
100
AcDbArc
 50
90.00000300000001
 51
96.243998
  0
ARC
  5
1BA22
330
1B727
100
AcDbEntity
  8
1
  6
Continuous
100
AcDbCircle
 10
331.0120559999999
 20
277.034657
 30
0.0
 40
74.10961899999998
100
AcDbArc
 50
263.7559959999999
 51
269.999991
  0
ARC
  5
1BA23
330
1B727
100
AcDbEntity
  8
1
  6
Continuous
100
AcDbCircle
 10
331.0120559999999
 20
274.7346539999999
 30
0.0
 40
74.10961899999998
100
AcDbArc
 50
263.7559959999999
 51
269.999991
  0
ARC
  5
1BA24
330
1B727
100
AcDbEntity
  8
1
  6
Continuous
100
AcDbCircle
 10
323.0053459999999
 20
203.8550459999999
 30
0.0
 40
0.4932890000000001
100
AcDbArc
 50
96.243998
 51
263.7560099999999
  0
ARC
  5
1BA25
330
1B727
100
AcDbEntity
  8
1
  6
Continuous
100
AcDbCircle
 10
323.0053459999999
 20
201.5550429999999
 30
0.0
 40
0.4932890000000001
100
AcDbArc
 50
179.999989
 51
263.7560099999999
  0
LINE
  5
1BA26
330
1B727
100
AcDbEntity
  8
1
  6
Continuous
100
AcDbLine
 10
322.5120559999999
 20
201.5550429999999
 30
0.0
 11
322.5120559999999
 21
203.8550459999999
 31
0.0
  0
ARC
  5
1BA27
330
1B727
100
AcDbEntity
  8
1
  6
Continuous
100
AcDbCircle
 10
327.972463
 20
195.2336779999999
 30
0.0
 40
1.0
100
AcDbArc
 50
359.999997
 51
90.00000300000001
  0
ARC
  5
1BA28
330
1B727
100
AcDbEntity
  8
1
  6
Continuous
100
AcDbCircle
 10
328.272462
 20
195.5209089999999
 30
0.0
 40
3.0
100
AcDbArc
 50
359.999997
 51
90.00000300000001
  0
ARC
  5
1BA29
330
1B727
100
AcDbEntity
  8
1
  6
Continuous
100
AcDbCircle
 10
333.272462
 20
197.2123839999999
 30
0.0
 40
2.0
100
AcDbArc
 50
121.900655
 51
180.0000029999999
  0
LINE
  5
1BA2A
330
1B727
100
AcDbEntity
  8
1
  6
Continuous
100
AcDbLine
 10
332.1517799999999
 20
200.625043
 30
0.0
 11
331.0120559999999
 21
200.625043
 31
0.0
  0
ARC
  5
1BA2B
330
1B727
100
AcDbEntity
  8
1
  6
Continuous
100
AcDbCircle
 10
328.272462
 20
197.38091
 30
0.0
 40
3.0
100
AcDbArc
 50
359.999997
 51
90.00000300000001
  0
LINE
  5
1BA2C
330
1B727
100
AcDbEntity
  8
1
  6
Continuous
100
AcDbLine
 10
328.131746
 20
196.2209139999999
 30
0.0
 11
318.972463
 21
196.2209139999999
 31
0.0
  0
LINE
  5
1BA2D
330
1B727
100
AcDbEntity
  8
1
  6
Continuous
100
AcDbLine
 10
328.272462
 20
198.5209089999999
 30
0.0
 11
318.972463
 21
198.5209089999999
 31
0.0
  0
LINE
  5
1BA2E
330
1B727
100
AcDbEntity
  8
1
  6
Continuous
100
AcDbLine
 10
328.272462
 20
200.38091
 30
0.0
 11
318.972463
 21
200.38091
 31
0.0
  0
LINE
  5
1BA2F
330
1B727
100
AcDbEntity
  8
1
  6
Continuous
100
AcDbLine
 10
342.3224609999999
 20
194.7099659999999
 30
0.0
 11
340.174846
 21
193.8867079999999
 31
0.0
  0
ARC
  5
1BA30
330
1B727
100
AcDbEntity
  8
1
  6
Continuous
100
AcDbCircle
 10
350.580106
 20
201.149396
 30
0.0
 40
11.120148
100
AcDbArc
 50
170.999999
 51
216.930405
  0
LINE
  5
1BA31
330
1B727
100
AcDbEntity
  8
1
  6
Continuous
100
AcDbLine
 10
342.3224609999999
 20
194.7099659999999
 30
0.0
 11
343.2074459999999
 21
192.4013109999999
 31
0.0
  0
ARC
  5
1BA32
330
1B727
100
AcDbEntity
  8
1
  6
Continuous
100
AcDbCircle
 10
-682.149638
 20
206.825208
 30
0.0
 40
1025.944458
100
AcDbArc
 50
358.563665
 51
359.8010139999999
  0
ARC
  5
1BA33
330
1B727
100
AcDbEntity
  8
1
  6
Continuous
100
AcDbCircle
 10
-682.149638
 20
206.825208
 30
0.0
 40
1026.244507
100
AcDbArc
 50
359.1147369999998
 51
0.101002
  0
ARC
  5
1BA34
330
1B727
100
AcDbEntity
  8
1
  6
Continuous
100
AcDbCircle
 10
340.472463
 20
173.7099659999999
 30
0.0
 40
3.0
100
AcDbArc
 50
269.999991
 51
0.000001
  0
LINE
  5
1BA35
330
1B727
100
AcDbEntity
  8
1
  6
Continuous
100
AcDbLine
 10
343.972463
 20
190.9695629999999
 30
0.0
 11
343.972463
 21
167.8541309999999
 31
0.0
  0
LINE
  5
1BA36
330
1B727
100
AcDbEntity
  8
1
  6
Continuous
100
AcDbLine
 10
343.472463
 20
190.9695629999999
 30
0.0
 11
343.472463
 21
167.8541309999999
 31
0.0
  0
LINE
  5
1BA37
330
1B727
100
AcDbEntity
  8
1
  6
Continuous
100
AcDbLine
 10
343.972463
 20
167.8541309999999
 30
0.0
 11
343.472463
 21
167.8541309999999
 31
0.0
  0
LINE
  5
1BA38
330
1B727
100
AcDbEntity
  8
1
  6
Continuous
100
AcDbLine
 10
340.174846
 20
193.8867079999999
 30
0.0
 11
341.172462
 21
191.2842379999999
 31
0.0
  0
ARC
  5
1BA39
330
1B727
100
AcDbEntity
  8
1
  6
Continuous
100
AcDbCircle
 10
339.472463
 20
190.9695629999999
 30
0.0
 40
4.0
100
AcDbArc
 50
359.999997
 51
20.973494
  0
ARC
  5
1BA3A
330
1B727
100
AcDbEntity
  8
1
  6
Continuous
100
AcDbCircle
 10
342.1836829999999
 20
191.727711
 30
0.0
 40
1.5
100
AcDbArc
 50
359.1555879999999
 51
58.031337
  0
ARC
  5
1BA3B
330
1B727
100
AcDbEntity
  8
1
  6
Continuous
100
AcDbCircle
 10
340.1724619999999
 20
173.7099659999999
 30
0.0
 40
1.0
100
AcDbArc
 50
269.999991
 51
0.000001
  0
LINE
  5
1BA3C
330
1B727
100
AcDbEntity
  8
1
  6
Continuous
100
AcDbLine
 10
341.172462
 20
191.2842379999999
 30
0.0
 11
341.172462
 21
173.7099659999999
 31
0.0
  0
LINE
  5
1BA3D
330
1B727
100
AcDbEntity
  8
1
  6
Continuous
100
AcDbLine
 10
342.9558629999998
 20
208.786931
 30
0.0
 11
343.1111159999999
 21
209.086079
 31
0.0
  0
ARC
  5
1BA3E
330
1B727
100
AcDbEntity
  8
1
  6
Continuous
100
AcDbCircle
 10
345.3205179999998
 20
201.9824339999999
 30
0.0
 40
5.794999999999999
100
AcDbArc
 50
116.924081
 51
170.999999
  0
ARC
  5
1BA3F
330
1B727
100
AcDbEntity
  8
1
  6
Continuous
100
AcDbCircle
 10
343.8993699999999
 20
205.6951719999999
 30
0.0
 40
1.415548999999999
100
AcDbArc
 50
170.999999
 51
243.2730649999999
  0
ARC
  5
1BA40
330
1B727
100
AcDbEntity
  8
1
  6
Continuous
100
AcDbCircle
 10
343.920112
 20
205.338681
 30
0.0
 40
1.491802999999999
100
AcDbArc
 50
170.999999
 51
246.528142
  0
ARC
  5
1BA41
330
1B727
100
AcDbEntity
  8
1
  6
Continuous
100
AcDbCircle
 10
343.019561
 20
203.2647749999999
 30
0.0
 40
0.7691930000000001
100
AcDbArc
 50
359.8010139999999
 51
66.52813899999999
  0
ARC
  5
1BA42
330
1B727
100
AcDbEntity
  8
1
  6
Continuous
100
AcDbCircle
 10
342.5881319999998
 20
203.091115
 30
0.0
 40
1.5
100
AcDbArc
 50
359.999997
 51
63.273048
  0
LINE
  5
1BA43
330
1B727
100
AcDbEntity
  8
1
  6
Continuous
100
AcDbLine
 10
342.4466759999999
 20
205.572049
 30
0.0
 11
342.9558609999999
 21
208.786931
 31
0.0
  0
ARC
  5
1BA44
330
1B727
100
AcDbEntity
  8
1
  6
Continuous
100
AcDbCircle
 10
342.3498589999999
 20
206.2103159999999
 30
0.0
 40
2.985850999999998
100
AcDbArc
 50
54.273613
 51
75.125783
  0
LINE
  5
1BA45
330
1B727
100
AcDbEntity
  8
1
  6
Continuous
100
AcDbLine
 10
216.4175049999998
 20
98.12619900000001
 30
0.0
 11
234.1859069999999
 21
98.12619900000001
 31
0.0
  0
ARC
  5
1BA46
330
1B727
100
AcDbEntity
  8
1
  6
Continuous
100
AcDbCircle
 10
225.709925
 20
122.6502009999999
 30
0.0
 40
8.475986
100
AcDbArc
 50
0.0
 51
180.000005
  0
LINE
  5
1BA47
330
1B727
100
AcDbEntity
  8
1
  6
Continuous
100
AcDbLine
 10
211.933008
 20
112.6261989999999
 30
0.0
 11
234.1859069999999
 21
112.6261989999999
 31
0.0
  0
LINE
  5
1BA48
330
1B727
100
AcDbEntity
  8
1
  6
Continuous
100
AcDbLine
 10
217.2339339999998
 20
112.6261989999999
 30
0.0
 11
217.2339339999998
 21
122.6502009999999
 31
0.0
  0
LINE
  5
1BA49
330
1B727
100
AcDbEntity
  8
1
  6
Continuous
100
AcDbLine
 10
164.1198939999999
 20
102.5790569999999
 30
0.0
 11
190.0325489999999
 21
101.396996
 31
0.0
  0
LINE
  5
1BA4A
330
1B727
100
AcDbEntity
  8
1
  6
Continuous
100
AcDbLine
 10
178.4446959999999
 20
99.08660199999999
 30
0.0
 11
199.1775
 21
99.08660199999999
 31
0.0
  0
LINE
  5
1BA4B
330
1B727
100
AcDbEntity
  8
1
  6
Continuous
100
AcDbLine
 10
159.7887629999999
 20
99.08660600000001
 30
0.0
 11
160.520341
 21
98.07819999999999
 31
0.0
  0
ARC
  5
1BA4C
330
1B727
100
AcDbEntity
  8
1
  6
Continuous
100
AcDbCircle
 10
178.4446959999999
 20
97.08660200000002
 30
0.0
 40
2.0
100
AcDbArc
 50
90.00000300000001
 51
135.572999
  0
ARC
  5
1BA4D
330
1B727
100
AcDbEntity
  8
1
  6
Continuous
100
AcDbCircle
 10
168.516512
 20
96.60240999999999
 30
0.0
 40
5.342861
100
AcDbArc
 50
22.69403399999999
 51
54.106003
  0
ARC
  5
1BA4E
330
1B727
100
AcDbEntity
  8
1
  6
Continuous
100
AcDbCircle
 10
168.516512
 20
96.60240999999999
 30
0.0
 40
5.342861
100
AcDbArc
 50
54.106003
 51
160.841242
  0
ARC
  5
1BA4F
330
1B727
100
AcDbEntity
  8
1
  6
Continuous
100
AcDbCircle
 10
175.290873
 20
99.43535699999999
 30
0.0
 40
2.0
100
AcDbArc
 50
202.694036
 51
271.767644
  0
LINE
  5
1BA50
330
1B727
100
AcDbEntity
  8
1
  6
Continuous
100
AcDbLine
 10
160.6515139999999
 20
96.49020100000001
 30
0.0
 11
179.681433
 21
97.069665
 31
0.0
  0
LINE
  5
1BA51
330
1B727
100
AcDbEntity
  8
1
  6
Continuous
100
AcDbLine
 10
160.72426
 20
96.98486800000001
 30
0.0
 11
179.368414
 21
97.56024299999999
 31
0.0
  0
LINE
  5
1BA52
330
1B727
100
AcDbEntity
  8
1
  6
Continuous
100
AcDbLine
 10
174.5279139999999
 20
97.58660200000001
 30
0.0
 11
174.873987
 21
97.58660200000001
 31
0.0
  0
LINE
  5
1BA53
330
1B727
100
AcDbEntity
  8
1
  6
Continuous
100
AcDbLine
 10
160.7242639999998
 20
96.98487900000001
 30
0.0
 11
160.6515139999999
 21
96.49020100000001
 31
0.0
  0
ARC
  5
1BA54
330
1B727
100
AcDbEntity
  8
1
  6
Continuous
100
AcDbCircle
 10
161.580355
 20
99.01224599999999
 30
0.0
 40
2.0
100
AcDbArc
 50
271.767644
 51
340.8412479999999
  0
ARC
  5
1BA55
330
1B727
100
AcDbEntity
  8
1
  6
Continuous
100
AcDbCircle
 10
179.6968479999999
 20
96.569909
 30
0.0
 40
0.5
100
AcDbArc
 50
314.7095109999999
 51
91.76764199999999
  0
ARC
  5
1BA56
330
1B727
100
AcDbEntity
  8
1
  6
Continuous
100
AcDbCircle
 10
179.393969
 20
96.732217
 30
0.0
 40
0.8284299999999998
100
AcDbArc
 50
314.7095109999999
 51
91.76764199999999
  0
ARC
  5
1BA57
330
1B727
100
AcDbEntity
  8
1
  6
Continuous
100
AcDbCircle
 10
180.674631
 20
103.4142019999999
 30
0.0
 40
10.0
100
AcDbArc
 50
261.634115
 51
274.5033119999998
  0
ARC
  5
1BA58
330
1B727
100
AcDbEntity
  8
1
  6
Continuous
100
AcDbCircle
 10
180.6897069999999
 20
103.91736
 30
0.0
 40
10.0
100
AcDbArc
 50
254.863251
 51
274.902124
  0
ARC
  5
1BA59
330
1B727
100
AcDbEntity
  8
1
  6
Continuous
100
AcDbCircle
 10
174.873987
 20
100.586602
 30
0.0
 40
3.0
100
AcDbArc
 50
269.9999969999999
 51
315.5729969999999
  0
LINE
  5
1BA5A
330
1B727
100
AcDbEntity
  8
1
  6
Continuous
100
AcDbLine
 10
180.0486089999999
 20
96.21456999999999
 30
0.0
 11
177.5904179999998
 21
93.781178
 31
0.0
  0
ARC
  5
1BA5B
330
1B727
100
AcDbEntity
  8
1
  6
Continuous
100
AcDbCircle
 10
169.375483
 20
110.5880969999999
 30
0.0
 40
8.498503999999996
100
AcDbArc
 50
0.0
 51
180.000005
  0
LINE
  5
1BA5C
330
1B727
100
AcDbEntity
  8
1
  6
Continuous
100
AcDbLine
 10
160.876978
 20
101.977715
 30
0.0
 11
160.876978
 21
110.5880969999999
 31
0.0
  0
LINE
  5
1BA5D
330
1B727
100
AcDbEntity
  8
1
  6
Continuous
100
AcDbLine
 10
159.788752
 20
99.08660199999999
 30
0.0
 11
159.788752
 21
101.386605
 31
0.0
  0
ARC
  5
1BA5E
330
1B727
100
AcDbEntity
  8
1
  6
Continuous
100
AcDbCircle
 10
163.7887519999999
 20
95.31994
 30
0.0
 40
7.266666999999997
100
AcDbArc
 50
87.388138
 51
123.398487
  0
ARC
  5
1BA5F
330
1B727
100
AcDbEntity
  8
1
  6
Continuous
100
AcDbCircle
 10
163.7887519999999
 20
96.75834000000001
 30
0.0
 40
4.628261
100
AcDbArc
 50
85.01624699999998
 51
149.79781
  0
LINE
  5
1BA60
330
1B727
100
AcDbEntity
  8
1
  6
Continuous
100
AcDbLine
 10
177.873987
 20
101.951623
 30
0.0
 11
177.873987
 21
110.5880969999999
 31
0.0
  0
ARC
  5
1BA61
330
1B727
100
AcDbEntity
  8
1
  6
Continuous
100
AcDbCircle
 10
199.1775
 20
109.0866019999999
 30
0.0
 40
10.0
100
AcDbArc
 50
269.9999969999999
 51
318.3664589999999
  0
LINE
  5
1BA62
330
1B727
100
AcDbEntity
  8
1
  6
Continuous
100
AcDbLine
 10
204.221624
 20
98.79850199999999
 30
0.0
 11
207.915178
 21
101.568669
 31
0.0
  0
ARC
  5
1BA63
330
1B727
100
AcDbEntity
  8
1
  6
Continuous
100
AcDbCircle
 10
191.2203079999999
 20
109.0866019999999
 30
0.0
 40
10.0
100
AcDbArc
 50
269.9999969999999
 51
305.311215
  0
LINE
  5
1BA64
330
1B727
100
AcDbEntity
  8
1
  6
Continuous
100
AcDbLine
 10
209.4343279999999
 20
101.162602
 30
0.0
 11
210.8930299999999
 21
97.758962
 31
0.0
  0
ARC
  5
1BA65
330
1B727
100
AcDbEntity
  8
1
  6
Continuous
100
AcDbCircle
 10
216.4175049999998
 20
100.1261989999999
 30
0.0
 40
2.0
100
AcDbArc
 50
179.9999909999999
 51
270.000001
  0
ARC
  5
1BA66
330
1B727
100
AcDbEntity
  8
1
  6
Continuous
100
AcDbCircle
 10
212.7313179999999
 20
98.54679199999999
 30
0.0
 40
2.0
100
AcDbArc
 50
203.198596
 51
274.933061
  0
LINE
  5
1BA67
330
1B727
100
AcDbEntity
  8
1
  6
Continuous
100
AcDbLine
 10
196.268419
 20
103.2263609999997
 30
0.0
 11
207.585032
 21
111.242295
 31
0.0
  0
LINE
  5
1BA68
330
1B727
100
AcDbEntity
  8
1
  6
Continuous
100
AcDbLine
 10
197.000483
 20
100.926362
 30
0.0
 11
208.9144689999999
 21
109.365434
 31
0.0
  0
ARC
  5
1BA69
330
1B727
100
AcDbEntity
  8
1
  6
Continuous
100
AcDbCircle
 10
190.488245
 20
111.386605
 30
0.0
 40
10.0
100
AcDbArc
 50
267.344588
 51
305.311215
  0
LINE
  5
1BA6A
330
1B727
100
AcDbEntity
  8
1
  6
Continuous
100
AcDbLine
 10
214.4175049999998
 20
100.1261989999999
 30
0.0
 11
214.4175049999998
 21
110.6261989999999
 31
0.0
  0
ARC
  5
1BA6B
330
1B727
100
AcDbEntity
  8
1
  6
Continuous
100
AcDbCircle
 10
211.933008
 20
105.103951
 30
0.0
 40
5.222235999999997
100
AcDbArc
 50
90.00000300000001
 51
125.311213
  0
ARC
  5
1BA6C
330
1B727
100
AcDbEntity
  8
1
  6
Continuous
100
AcDbCircle
 10
218.1495689999999
 20
100.3261959999999
 30
0.0
 40
10.0
100
AcDbArc
 50
111.913503
 51
138.3664639999998
  0
LINE
  5
1BA6D
330
1B727
100
AcDbEntity
  8
1
  6
Continuous
100
AcDbLine
 10
211.933008
 20
110.3261959999999
 30
0.0
 11
214.4175049999998
 21
110.3261959999999
 31
0.0
  0
ARC
  5
1BA6E
330
1B727
100
AcDbEntity
  8
1
  6
Continuous
100
AcDbCircle
 10
208.5151839999999
 20
100.76867
 30
0.0
 40
1.0
100
AcDbArc
 50
23.198589
 51
126.869903
  0
LINE
  5
1BA6F
330
1B727
100
AcDbEntity
  8
1
  6
Continuous
100
AcDbLine
 10
206.651598
 20
102.442967
 30
0.0
 11
210.6754779999999
 21
106.9698379999999
 31
0.0
  0
ARC
  5
1BA70
330
1B727
100
AcDbEntity
  8
1
  6
Continuous
100
AcDbCircle
 10
211.933008
 20
105.103951
 30
0.0
 40
7.522236
100
AcDbArc
 50
90.00000300000001
 51
125.311213
  0
ARC
  5
1BA71
330
1B727
100
AcDbEntity
  8
1
  6
Continuous
100
AcDbCircle
 10
216.4175049999998
 20
110.6261989999999
 30
0.0
 40
2.0
100
AcDbArc
 50
90.00000300000001
 51
180.000005
  0
LINE
  5
1BA72
330
1B727
100
AcDbEntity
  8
1
  6
Continuous
100
AcDbLine
 10
234.1859069999999
 20
110.3261959999999
 30
0.0
 11
234.1859069999999
 21
122.6502009999999
 31
0.0
  0
ARC
  5
1BA73
330
1B727
100
AcDbEntity
  8
1
  6
Continuous
100
AcDbCircle
 10
233.1163119999999
 20
100.1261989999999
 30
0.0
 40
2.0
100
AcDbArc
 50
179.9999909999999
 51
270.000001
  0
LINE
  5
1BA74
330
1B727
100
AcDbEntity
  8
1
  6
Continuous
100
AcDbLine
 10
234.1859069999999
 20
98.12619900000001
 30
0.0
 11
234.1859069999999
 21
100.4261859999999
 31
0.0
  0
LINE
  5
1BA75
330
1B727
100
AcDbEntity
  8
1
  6
Continuous
100
AcDbLine
 10
231.1163119999999
 20
98.126195
 30
0.0
 11
231.159311
 21
97.62804500000001
 31
0.0
  0
LINE
  5
1BA76
330
1B727
100
AcDbEntity
  8
1
  6
Continuous
100
AcDbLine
 10
232.116312
 20
110.3261959999999
 30
0.0
 11
234.1859069999999
 21
110.3261959999999
 31
0.0
  0
LINE
  5
1BA77
330
1B727
100
AcDbEntity
  8
1
  6
Continuous
100
AcDbLine
 10
232.116312
 20
100.4261859999999
 30
0.0
 11
234.1859069999999
 21
100.4261859999999
 31
0.0
  0
LINE
  5
1BA78
330
1B727
100
AcDbEntity
  8
1
  6
Continuous
100
AcDbLine
 10
231.1163119999999
 20
100.1261989999999
 30
0.0
 11
231.1163119999999
 21
110.6261989999999
 31
0.0
  0
ARC
  5
1BA79
330
1B727
100
AcDbEntity
  8
1
  6
Continuous
100
AcDbCircle
 10
232.116312
 20
109.3261959999999
 30
0.0
 40
1.0
100
AcDbArc
 50
90.00000300000001
 51
180.000005
  0
ARC
  5
1BA7A
330
1B727
100
AcDbEntity
  8
1
  6
Continuous
100
AcDbCircle
 10
232.116312
 20
101.4261859999999
 30
0.0
 40
1.0
100
AcDbArc
 50
179.9999909999999
 51
270.000001
  0
LINE
  5
1BA7B
330
1B727
100
AcDbEntity
  8
1
  6
Continuous
100
AcDbLine
 10
232.116312
 20
110.3261959999999
 30
0.0
 11
234.1859069999999
 21
110.3261959999999
 31
0.0
  0
ARC
  5
1BA7C
330
1B727
100
AcDbEntity
  8
1
  6
Continuous
100
AcDbCircle
 10
233.1163119999999
 20
110.6261989999999
 30
0.0
 40
2.0
100
AcDbArc
 50
90.00000300000001
 51
180.000005
  0
ARC
  5
1BA7D
330
1B727
100
AcDbEntity
  8
1
  6
Continuous
100
AcDbCircle
 10
225.7099259999999
 20
282.01256
 30
0.0
 40
8.475986
100
AcDbArc
 50
179.9999909999999
 51
0.00001
  0
LINE
  5
1BA7E
330
1B727
100
AcDbEntity
  8
1
  6
Continuous
100
AcDbLine
 10
160.87698
 20
307.076166
 30
0.0
 11
177.8739889999999
 21
307.076166
 31
0.0
  0
ARC
  5
1BA7F
330
1B727
100
AcDbEntity
  8
1
  6
Continuous
100
AcDbCircle
 10
169.3754839999998
 20
294.074671
 30
0.0
 40
8.498503999999996
100
AcDbArc
 50
179.9999909999999
 51
0.00001
  0
LINE
  5
1BA80
330
1B727
100
AcDbEntity
  8
1
  6
Continuous
100
AcDbLine
 10
160.87698
 20
307.076166
 30
0.0
 11
160.87698
 21
294.074671
 31
0.0
  0
LINE
  5
1BA81
330
1B727
100
AcDbEntity
  8
1
  6
Continuous
100
AcDbLine
 10
159.788754
 20
305.5761659999999
 30
0.0
 11
159.788754
 21
303.2761629999999
 31
0.0
  0
LINE
  5
1BA82
330
1B727
100
AcDbEntity
  8
1
  6
Continuous
100
AcDbLine
 10
159.788757
 20
305.5761659999999
 30
0.0
 11
160.876976
 21
307.076166
 31
0.0
  0
LINE
  5
1BA83
330
1B727
100
AcDbEntity
  8
1
  6
Continuous
100
AcDbLine
 10
159.7887609999999
 20
303.2761629999999
 30
0.0
 11
160.87698
 21
304.776163
 31
0.0
  0
ARC
  5
1BA84
330
1B727
100
AcDbEntity
  8
1
  6
Continuous
100
AcDbCircle
 10
163.788754
 20
309.3428279999999
 30
0.0
 40
7.266666999999997
100
AcDbArc
 50
236.601513
 51
246.377822
  0
LINE
  5
1BA85
330
1B727
100
AcDbEntity
  8
1
  6
Continuous
100
AcDbLine
 10
177.8739889999999
 20
305.808214
 30
0.0
 11
177.8739889999999
 21
294.074671
 31
0.0
  0
LINE
  5
1BA86
330
1B727
100
AcDbEntity
  8
1
  6
Continuous
100
AcDbLine
 10
217.233935
 20
285.9515549999999
 30
0.0
 11
217.233935
 21
282.01256
 31
0.0
  0
LINE
  5
1BA87
330
1B727
100
AcDbEntity
  8
1
  6
Continuous
100
AcDbLine
 10
181.4446979999999
 20
305.5761659999999
 30
0.0
 11
183.5414059999999
 21
305.5761659999999
 31
0.0
  0
ARC
  5
1BA88
330
1B727
100
AcDbEntity
  8
1
  6
Continuous
100
AcDbCircle
 10
177.8739889999999
 20
304.076166
 30
0.0
 40
3.0
100
AcDbArc
 50
44.42700300000001
 51
90.00000300000001
  0
LINE
  5
1BA89
330
1B727
100
AcDbEntity
  8
1
  6
Continuous
100
AcDbLine
 10
177.873982
 20
302.711137
 30
0.0
 11
184.7534559999998
 21
303.0249609999998
 31
0.0
  0
ARC
  5
1BA8A
330
1B727
100
AcDbEntity
  8
1
  6
Continuous
100
AcDbCircle
 10
181.4446979999999
 20
307.5761659999999
 30
0.0
 40
4.299999999999998
100
AcDbArc
 50
224.4270009999999
 51
269.9999969999999
  0
ARC
  5
1BA8B
330
1B727
100
AcDbEntity
  8
1
  6
Continuous
100
AcDbCircle
 10
177.8739889999999
 20
304.076166
 30
0.0
 40
0.7
100
AcDbArc
 50
44.42700300000001
 51
90.00000300000001
  0
ARC
  5
1BA8C
330
1B727
100
AcDbEntity
  8
1
  6
Continuous
100
AcDbCircle
 10
178.8739889999999
 20
305.808214
 30
0.0
 40
1.0
100
AcDbArc
 50
60.000002
 51
180.000005
  0
ARC
  5
1BA8D
330
1B727
100
AcDbEntity
  8
1
  6
Continuous
100
AcDbCircle
 10
181.4446979999999
 20
307.5761659999999
 30
0.0
 40
2.0
100
AcDbArc
 50
224.4270009999999
 51
269.9999969999999
  0
LINE
  5
1BA8E
330
1B727
100
AcDbEntity
  8
1
  6
Continuous
100
AcDbLine
 10
181.4446979999999
 20
303.2761629999999
 30
0.0
 11
184.7568469999999
 21
303.2761629999999
 31
0.0
  0
LINE
  5
1BA8F
330
1B727
100
AcDbEntity
  8
1
  6
Continuous
100
AcDbLine
 10
234.1859069999999
 20
285.929117
 30
0.0
 11
234.1859069999999
 21
282.01256
 31
0.0
  0
ARC
  5
1BA90
330
1B727
100
AcDbEntity
  8
1
  6
Continuous
100
AcDbCircle
 10
77.50485799999998
 20
212.2654369999999
 30
0.0
 40
0.8
100
AcDbArc
 50
36.988539
 51
89.237155
  0
ARC
  5
1BA91
330
1B727
100
AcDbEntity
  8
1
  6
Continuous
100
AcDbCircle
 10
77.488905
 20
211.0655309999999
 30
0.0
 40
2.0
100
AcDbArc
 50
32.80295499999999
 51
32.80295499999999
  0
LINE
  5
1BA92
330
1B727
100
AcDbEntity
  8
1
  6
Continuous
100
AcDbLine
 10
82.80015
 20
206.051003
 30
0.0
 11
82.80015
 21
204.6342989999998
 31
0.0
  0
LINE
  5
1BA93
330
1B727
100
AcDbEntity
  8
1
  6
Continuous
100
AcDbLine
 10
80.52731300000003
 20
210.008966
 30
0.0
 11
82.54538399999999
 21
208.8731689999999
 31
0.0
  0
ARC
  5
1BA94
330
1B727
100
AcDbEntity
  8
1
  6
Continuous
100
AcDbCircle
 10
82.30014999999999
 20
208.4374399999999
 30
0.0
 40
0.5
100
AcDbArc
 50
20.259825
 51
60.62862899999999
  0
ARC
  5
1BA95
330
1B727
100
AcDbEntity
  8
1
  6
Continuous
100
AcDbCircle
 10
81.017781
 20
210.8804249999999
 30
0.0
 40
1.0
100
AcDbArc
 50
205.379002
 51
240.628629
  0
LINE
  5
1BA96
330
1B727
100
AcDbEntity
  8
1
  6
Continuous
100
AcDbLine
 10
204.221624
 20
98.79850199999999
 30
0.0
 11
183.3733379999999
 21
98.79850199999999
 31
0.0
  0
LINE
  5
1BA97
330
1B727
100
AcDbEntity
  8
1
  6
Continuous
100
AcDbLine
 10
182.373338
 20
95.923618
 30
0.0
 11
182.373338
 21
97.79850200000002
 31
0.0
  0
LINE
  5
1BA98
330
1B727
100
AcDbEntity
  8
1
  6
Continuous
100
AcDbLine
 10
179.2196919999999
 20
93.52060999999999
 30
0.0
 11
160.6515139999999
 21
96.49020100000001
 31
0.0
  0
LINE
  5
1BA99
330
1B727
100
AcDbEntity
  8
1
  6
Continuous
100
AcDbLine
 10
181.5496249999999
 20
93.95440200000001
 30
0.0
 11
231.1163119999999
 21
98.126195
 31
0.0
  0
LINE
  5
1BA9A
330
1B727
100
AcDbEntity
  8
1
  6
Continuous
100
AcDbLine
 10
181.459798
 20
93.44507400000001
 30
0.0
 11
231.1582459999999
 21
97.62795600000004
 31
0.0
  0
ARC
  5
1BA9B
330
1B727
100
AcDbEntity
  8
1
  6
Continuous
100
AcDbCircle
 10
183.3733379999999
 20
97.79850200000002
 30
0.0
 40
1.0
100
AcDbArc
 50
90.0
 51
180.0
  0
ARC
  5
1BA9C
330
1B727
100
AcDbEntity
  8
1
  6
Continuous
100
AcDbCircle
 10
180.3733379999999
 20
95.923618
 30
0.0
 40
2.0
100
AcDbArc
 50
267.7335819999999
 51
0.0
  0
LINE
  5
1BA9D
330
1B727
100
AcDbEntity
  8
1
  6
Continuous
100
AcDbLine
 10
190.3654119999999
 20
99.08660199999999
 30
0.0
 11
171.954652
 21
100.692075
 31
0.0
  0
LINE
  5
1BA9E
330
1B727
100
AcDbEntity
  8
1
  6
Continuous
100
AcDbLine
 10
165.838146
 20
101.225452
 30
0.0
 11
164.190824
 21
101.369103
 31
0.0
  0
ARC
  5
1BA9F
330
1B727
100
AcDbEntity
  8
1
  6
Continuous
100
AcDbCircle
 10
164.5674709999999
 20
101.0143079999999
 30
0.0
 40
5.0
100
AcDbArc
 50
215.960102
 51
233.192847
  0
LINE
  5
1BAA0
330
1B727
100
AcDbEntity
  8
1
  6
Continuous
100
AcDbLine
 10
160.72426
 20
307.677904
 30
0.0
 11
179.368414
 21
307.102529
 31
0.0
  0
LINE
  5
1BAA1
330
1B727
100
AcDbEntity
  8
1
  6
Continuous
100
AcDbLine
 10
179.9767789999999
 20
308.5193059999999
 30
0.0
 11
178.030786
 21
310.445667
 31
0.0
  0
ARC
  5
1BAA2
330
1B727
100
AcDbEntity
  8
1
  6
Continuous
100
AcDbCircle
 10
179.393969
 20
307.9305549999999
 30
0.0
 40
0.8284299999999998
100
AcDbArc
 50
268.2323579999999
 51
45.290489
  0
ARC
  5
1BAA3
330
1B727
100
AcDbEntity
  8
1
  6
Continuous
100
AcDbCircle
 10
161.580355
 20
305.6505259999998
 30
0.0
 40
2.0
100
AcDbArc
 50
45.46482799999998
 51
88.23235600000002
  0
LINE
  5
1BAA4
330
1B727
100
AcDbEntity
  8
1
  6
Continuous
100
AcDbLine
 10
160.7242639999998
 20
307.6778919999998
 30
0.0
 11
160.6515139999999
 21
308.172571
 31
0.0
  0
LINE
  5
1BAA5
330
1B727
100
AcDbEntity
  8
1
  6
Continuous
100
AcDbLine
 10
179.2196919999999
 20
311.1421619999999
 30
0.0
 11
160.6515139999999
 21
308.172571
 31
0.0
  0
ARC
  5
1BAA6
330
1B727
100
AcDbEntity
  8
1
  6
Continuous
100
AcDbCircle
 10
180.6897069999999
 20
300.7454119999998
 30
0.0
 40
10.0
100
AcDbArc
 50
85.09787600000001
 51
100.09999
  0
ARC
  5
1BAA7
330
1B727
100
AcDbEntity
  8
1
  6
Continuous
100
AcDbCircle
 10
180.3733379999999
 20
308.739154
 30
0.0
 40
2.0
100
AcDbArc
 50
0.0
 51
92.26641800000001
  0
ARC
  5
1BAA8
330
1B727
100
AcDbEntity
  8
1
  6
Continuous
100
AcDbCircle
 10
180.674631
 20
301.2485699999999
 30
0.0
 40
10.0
100
AcDbArc
 50
85.496688
 51
98.36588500000004
  0
ARC
  5
1BAA9
330
1B727
100
AcDbEntity
  8
1
  6
Continuous
100
AcDbCircle
 10
183.3733379999999
 20
306.8642699999998
 30
0.0
 40
1.0
100
AcDbArc
 50
180.0
 51
270.0
  0
LINE
  5
1BAAA
330
1B727
100
AcDbEntity
  8
1
  6
Continuous
100
AcDbLine
 10
182.373338
 20
308.739154
 30
0.0
 11
182.373338
 21
306.8642699999998
 31
0.0
  0
LINE
  5
1BAAB
330
1B727
100
AcDbEntity
  8
1
  6
Continuous
100
AcDbLine
 10
181.5496249999999
 20
310.70837
 30
0.0
 11
184.8368129999998
 21
310.4317029999999
 31
0.0
  0
LINE
  5
1BAAC
330
1B727
100
AcDbEntity
  8
1
  6
Continuous
100
AcDbLine
 10
181.459798
 20
311.217698
 30
0.0
 11
184.841212
 21
310.9331009999999
 31
0.0
  0
LINE
  5
1BAAD
330
1B727
100
AcDbEntity
  8
5
  6
PHANTOM
100
AcDbLine
 10
218.709393
 20
222.0654759999999
 30
0.0
 11
235.291768
 21
201.7848229999999
 31
0.0
  0
LINE
  5
1BAAE
330
1B727
100
AcDbEntity
  8
5
  6
PHANTOM
100
AcDbLine
 10
222.36742
 20
191.051636
 30
0.0
 11
218.4063599999999
 21
195.821336
 31
0.0
  0
ARC
  5
1BAAF
330
1B727
100
AcDbEntity
  8
5
  6
PHANTOM
100
AcDbCircle
 10
193.107485
 20
188.2652349999999
 30
0.0
 40
13.440028
100
AcDbArc
 50
349.3222949999998
 51
90.09445799999996
  0
ARC
  5
1BAB0
330
1B727
100
AcDbEntity
  8
5
  6
PHANTOM
100
AcDbCircle
 10
175.5163839999999
 20
189.7099069999999
 30
0.0
 40
3.5
100
AcDbArc
 50
309.708369
 51
39.708374
  0
ARC
  5
1BAB1
330
1B727
100
AcDbEntity
  8
5
  6
PHANTOM
100
AcDbCircle
 10
159.957627
 20
220.8910009999999
 30
0.0
 40
60.0
100
AcDbArc
 50
323.003168
 51
334.7435869999998
  0
ARC
  5
1BAB2
330
1B727
100
AcDbEntity
  8
5
  6
PHANTOM
100
AcDbCircle
 10
96.507611
 20
349.461766
 30
0.0
 40
200.0
100
AcDbArc
 50
292.6222339999998
 51
302.004236
  0
LINE
  5
1BAB3
330
1B727
100
AcDbEntity
  8
5
  6
PHANTOM
100
AcDbLine
 10
169.9764669999999
 20
165.702109
 30
0.0
 11
162.16296
 21
175.110727
 31
0.0
  0
LINE
  5
1BAB4
330
1B727
100
AcDbEntity
  8
5
  6
PHANTOM
100
AcDbLine
 10
183.106064
 20
174.841712
 30
0.0
 11
169.1906449999999
 21
166.6483519999998
 31
0.0
  0
ARC
  5
1BAB5
330
1B727
100
AcDbEntity
  8
5
  6
PHANTOM
100
AcDbCircle
 10
172.284376
 20
167.6187469999999
 30
0.0
 40
3.0
100
AcDbArc
 50
219.7083759999999
 51
292.62223
  0
LINE
  5
1BAB6
330
1B727
100
AcDbEntity
  8
5
  6
PHANTOM
100
AcDbLine
 10
163.632383
 20
173.3413209999999
 30
0.0
 11
176.787511
 21
184.266167
 31
0.0
  0
LINE
  5
1BAB7
330
1B727
100
AcDbEntity
  8
5
  6
PHANTOM
100
AcDbLine
 10
162.162958
 20
175.110729
 30
0.0
 11
175.3180849999999
 21
186.035575
 31
0.0
  0
ARC
  5
1BAB8
330
1B727
100
AcDbEntity
  8
5
  6
PHANTOM
100
AcDbCircle
 10
182.598676
 20
175.703435
 30
0.0
 40
1.0
100
AcDbArc
 50
300.4894639999998
 51
39.708374
  0
LINE
  5
1BAB9
330
1B727
100
AcDbEntity
  8
5
  6
PHANTOM
100
AcDbLine
 10
176.136924
 20
185.6756829999999
 30
0.0
 11
177.752465
 21
187.0173299999999
 31
0.0
  0
ARC
  5
1BABA
330
1B727
100
AcDbEntity
  8
5
  6
PHANTOM
100
AcDbCircle
 10
175.8813679999999
 20
185.9834109999999
 30
0.0
 40
0.4
100
AcDbArc
 50
219.7083759999999
 51
309.7083859999999
  0
LINE
  5
1BABB
330
1B727
100
AcDbEntity
  8
5
  6
PHANTOM
100
AcDbLine
 10
183.367988
 20
176.34232
 30
0.0
 11
175.3180979999999
 21
186.0355779999999
 31
0.0
  0
ARC
  5
1BABC
330
1B727
100
AcDbEntity
  8
5
  6
PHANTOM
100
AcDbCircle
 10
191.904386
 20
196.8201689999999
 30
0.0
 40
20.0
100
AcDbArc
 50
302.004236
 51
323.003168
  0
ARC
  5
1BABD
330
1B727
100
AcDbEntity
  8
5
  6
PHANTOM
100
AcDbCircle
 10
206.666511
 20
179.044383
 30
0.0
 40
28.40625
100
AcDbArc
 50
98.83241099999999
 51
142.935295
  0
LINE
  5
1BABE
330
1B727
100
AcDbEntity
  8
5
  6
PHANTOM
100
AcDbLine
 10
175.8323189999999
 20
194.8077989999999
 30
0.0
 11
179.67885
 21
198.0021999999999
 31
0.0
  0
LINE
  5
1BABF
330
1B727
100
AcDbEntity
  8
5
  6
PHANTOM
100
AcDbLine
 10
181.25688
 20
196.102021
 30
0.0
 11
179.6788469999999
 21
198.002205
 31
0.0
  0
LINE
  5
1BAC0
330
1B727
100
AcDbEntity
  8
5
  6
PHANTOM
100
AcDbLine
 10
178.208957
 20
191.945985
 30
0.0
 11
175.832323
 21
194.807806
 31
0.0
  0
ARC
  5
1BAC1
330
1B727
100
AcDbEntity
  8
5
  6
PHANTOM
100
AcDbCircle
 10
182.603169
 20
197.2200629999999
 30
0.0
 40
1.75
100
AcDbArc
 50
219.7083759999999
 51
322.9353199999999
  0
LINE
  5
1BAC2
330
1B727
100
AcDbEntity
  8
5
  6
PHANTOM
100
AcDbLine
 10
204.478777
 20
212.5922099999999
 30
0.0
 11
217.556979
 21
223.453173
 31
0.0
  0
LINE
  5
1BAC3
330
1B727
100
AcDbEntity
  8
5
  6
PHANTOM
100
AcDbLine
 10
205.948199
 20
210.8228089999998
 30
0.0
 11
219.023474
 21
221.681342
 31
0.0
  0
ARC
  5
1BAC4
330
1B727
100
AcDbEntity
  8
5
  6
PHANTOM
100
AcDbCircle
 10
196.163087
 20
246.639454
 30
0.0
 40
40.0
100
AcDbArc
 50
278.83241
 51
282.5336479999998
  0
LINE
  5
1BAC5
330
1B727
100
AcDbEntity
  8
5
  6
PHANTOM
100
AcDbLine
 10
205.9482019999999
 20
210.8228089999998
 30
0.0
 11
204.4787799999999
 21
212.5922099999999
 31
0.0
  0
ARC
  5
1BAC6
330
1B727
100
AcDbEntity
  8
5
  6
PHANTOM
100
AcDbCircle
 10
204.4095809999999
 20
209.545043
 30
0.0
 40
2.0
100
AcDbArc
 50
282.5336479999998
 51
39.708374
  0
ARC
  5
1BAC7
330
1B727
100
AcDbEntity
  8
5
  6
PHANTOM
100
AcDbCircle
 10
216.483099
 20
194.22413
 30
0.0
 40
2.5
100
AcDbArc
 50
39.708374
 51
154.743592
  0
LINE
  5
1BAC8
330
1B727
100
AcDbEntity
  8
5
  6
PHANTOM
100
AcDbLine
 10
218.7069579999999
 20
222.068424
 30
0.0
 11
217.556978
 21
223.453173
 31
0.0
  0
LINE
  5
1BAC9
330
1B727
100
AcDbEntity
  8
5
  6
PHANTOM
100
AcDbLine
 10
222.3674179999999
 20
191.0516389999999
 30
0.0
 11
235.2917609999999
 21
201.7848269999999
 31
0.0
  0
LINE
  5
1BACA
330
1B727
100
AcDbEntity
  8
1
  6
Continuous
100
AcDbLine
 10
184.5414059999999
 20
306.576166
 30
0.0
 11
184.5414059999999
 21
307.276163
 31
0.0
  0
LINE
  5
1BACB
330
1B727
100
AcDbEntity
  8
1
  6
Continuous
100
AcDbLine
 10
178.936041
 20
310.5904439999998
 30
0.0
 11
160.730475
 21
307.678845
 31
0.0
  0
ARC
  5
1BACC
330
1B727
100
AcDbEntity
  8
1
  6
Continuous
100
AcDbCircle
 10
185.541406
 20
307.276163
 30
0.0
 40
1.0
100
AcDbArc
 50
136.766684
 51
180.0
  0
ARC
  5
1BACD
330
1B727
100
AcDbEntity
  8
1
  6
Continuous
100
AcDbCircle
 10
183.5414059999999
 20
306.576166
 30
0.0
 40
1.0
100
AcDbArc
 50
270.0
 51
0.0
  0
ARC
  5
1BACE
330
1B727
100
AcDbEntity
  8
1
  6
Continuous
100
AcDbCircle
 10
183.793468
 20
304.276163
 30
0.0
 40
1.0
100
AcDbArc
 50
270.0
 51
346.791903
  0
LINE
  5
1BACF
330
1B727
100
AcDbEntity
  8
1
  6
Continuous
100
AcDbLine
 10
184.2436909999999
 20
305.86427
 30
0.0
 11
183.3733379999999
 21
305.86427
 31
0.0
  0
LINE
  5
1BAD0
330
1B727
100
AcDbEntity
  8
1
  6
Continuous
100
AcDbLine
 10
85.38825699999998
 20
205.6348649999999
 30
0.0
 11
85.38825699999998
 21
204.7850469999999
 31
0.0
  0
LINE
  5
1BAD1
330
1B727
100
AcDbEntity
  8
1
  6
Continuous
100
AcDbLine
 10
83.08825400000001
 20
205.3487179999999
 30
0.0
 11
83.08825400000001
 21
204.7281519999999
 31
0.0
  0
LINE
  5
1BAD2
330
1B727
100
AcDbEntity
  8
1
  6
Continuous
100
AcDbLine
 10
80.83525100000001
 20
208.634865
 30
0.0
 11
82.38825699999997
 21
208.634865
 31
0.0
  0
LINE
  5
1BAD3
330
1B727
100
AcDbEntity
  8
1
  6
Continuous
100
AcDbLine
 10
81.38046899999997
 20
206.348718
 30
0.0
 11
82.088254
 21
206.348718
 31
0.0
  0
ARC
  5
1BAD4
330
1B727
100
AcDbEntity
  8
1
  6
Continuous
100
AcDbCircle
 10
82.38825699999997
 20
205.6348649999999
 30
0.0
 40
3.0
100
AcDbArc
 50
0.0
 51
90.0
  0
ARC
  5
1BAD5
330
1B727
100
AcDbEntity
  8
1
  6
Continuous
100
AcDbCircle
 10
82.088254
 20
205.3487179999999
 30
0.0
 40
1.0
100
AcDbArc
 50
0.0
 51
90.0
  0
CIRCLE
  5
1BAD6
330
1B727
100
AcDbEntity
  8
1
  6
Continuous
100
AcDbCircle
 10
196.6001529999998
 20
191.1657679999999
 30
0.0
 40
7.0
  0
LINE
  5
1BAD7
330
1B727
100
AcDbEntity
  8
1
  6
Continuous
100
AcDbLine
 10
189.600153
 20
101.4167209999999
 30
0.0
 11
189.600153
 21
102.8866089999998
 31
0.0
  0
ARC
  5
1BAD8
330
1B727
100
AcDbEntity
  8
1
  6
Continuous
100
AcDbCircle
 10
79.88049499999998
 20
194.1238419999999
 30
0.0
 40
11.63843399999999
100
AcDbArc
 50
307.022058
 51
307.8514139999999
  0
LINE
  5
1BAD9
330
1B727
100
AcDbEntity
  8
1
  6
Continuous
100
AcDbLine
 10
91.50015000000001
 20
200.6378109999999
 30
0.0
 11
91.50015000000001
 21
199.5072389999999
 31
0.0
  0
LINE
  5
1BADA
330
1B727
100
AcDbEntity
  8
5
  6
PHANTOM
100
AcDbLine
 10
561.0375069999999
 20
175.110729
 30
0.0
 11
556.640383
 21
178.7623769999999
 31
0.0
  0
LINE
  5
1BADB
330
1B727
100
AcDbEntity
  8
5
  6
PHANTOM
100
AcDbLine
 10
553.223998
 20
165.702109
 30
0.0
 11
561.037505
 21
175.110727
 31
0.0
  0
ARC
  5
1BADC
330
1B727
100
AcDbEntity
  8
5
  6
PHANTOM
100
AcDbCircle
 10
626.692854
 20
349.461766
 30
0.0
 40
200.0
100
AcDbArc
 50
246.557812
 51
247.377766
  0
ARC
  5
1BADD
330
1B727
100
AcDbEntity
  8
5
  6
PHANTOM
100
AcDbCircle
 10
550.9160889999999
 20
167.6187469999999
 30
0.0
 40
3.0
100
AcDbArc
 50
247.37777
 51
320.291624
  0
LINE
  5
1BADE
330
1B727
100
AcDbEntity
  8
1
  6
Continuous
100
AcDbLine
 10
489.3065319999998
 20
194.251775
 30
0.0
 11
492.0841489999999
 21
170.7099659999998
 31
0.0
  0
ARC
  5
1BADF
330
1B727
100
AcDbEntity
  8
1
  6
Continuous
100
AcDbCircle
 10
554.626176
 20
178.71169
 30
0.0
 40
7.0
100
AcDbArc
 50
254.977257
 51
338.282189
  0
ARC
  5
1BAE0
330
1B727
100
AcDbEntity
  8
1
  6
Continuous
100
AcDbCircle
 10
554.626176
 20
178.71169
 30
0.0
 40
6.0
100
AcDbArc
 50
258.5474669999999
 51
0.6761700000000001
  0
LINE
  5
1BAE1
330
1B727
100
AcDbEntity
  8
1
  6
Continuous
100
AcDbLine
 10
498.5585599999998
 20
171.423796
 30
0.0
 11
492.0841509999998
 21
170.7099729999999
 31
0.0
  0
ARC
  5
1BAE2
330
1B727
100
AcDbEntity
  8
1
  6
Continuous
100
AcDbCircle
 10
510.654771
 20
190.403424
 30
0.0
 40
22.549295
100
AcDbArc
 50
242.465498
 51
248.727541
  0
LINE
  5
1BAE3
330
1B727
100
AcDbEntity
  8
1
  6
Continuous
100
AcDbLine
 10
562.0714269999998
 20
204.7850459999999
 30
0.0
 11
557.6149299999998
 21
204.293703
 31
0.0
  0
ARC
  5
1BAE4
330
1B727
100
AcDbEntity
  8
1
  6
Continuous
100
AcDbCircle
 10
543.5946589999998
 20
196.95316
 30
0.0
 40
15.825663
100
AcDbArc
 50
13.59890299999998
 51
50.49824199999998
  0
LINE
  5
1BAE5
330
1B727
100
AcDbEntity
  8
1
  6
Continuous
100
AcDbLine
 10
563.4117019999997
 20
192.628701
 30
0.0
 11
562.0714269999998
 21
204.7850429999999
 31
0.0
  0
ARC
  5
1BAE6
330
1B727
100
AcDbEntity
  8
1
  6
Continuous
100
AcDbCircle
 10
560.4297799999999
 20
192.299939
 30
0.0
 40
3.0
100
AcDbArc
 50
293.3777699999998
 51
6.291623999999997
  0
ARC
  5
1BAE7
330
1B727
100
AcDbEntity
  8
1
  6
Continuous
100
AcDbCircle
 10
542.548951
 20
183.522153
 30
0.0
 40
20.0
100
AcDbArc
 50
338.2821929999999
 51
13.59890299999998
  0
ARC
  5
1BAE8
330
1B727
100
AcDbEntity
  8
1
  6
Continuous
100
AcDbCircle
 10
540.6271519999997
 20
178.5464749999999
 30
0.0
 40
20.0
100
AcDbArc
 50
0.6761700000000001
 51
24.581004
  0
LINE
  5
1BAE9
330
1B727
100
AcDbEntity
  8
1
  6
Continuous
100
AcDbLine
 10
558.976657
 20
200.6741449999999
 30
0.0
 11
561.9882610000002
 21
188.2246229999998
 31
0.0
  0
LINE
  5
1BAEA
330
1B727
100
AcDbEntity
  8
1
  6
Continuous
100
AcDbLine
 10
491.744421
 20
186.390848
 30
0.0
 11
492.268191
 21
181.951611
 31
0.0
  0
ARC
  5
1BAEB
330
1B727
100
AcDbEntity
  8
1
  6
Continuous
100
AcDbCircle
 10
507.164862
 20
183.7092179999999
 30
0.0
 40
15.0
100
AcDbArc
 50
186.7290209999999
 51
242.465498
  0
ARC
  5
1BAEC
330
1B727
100
AcDbEntity
  8
1
  6
Continuous
100
AcDbCircle
 10
501.6755349999998
 20
187.562586
 30
0.0
 40
10.0
100
AcDbArc
 50
156.3343139999998
 51
186.7290209999999
  0
LINE
  5
1BAED
330
1B727
100
AcDbEntity
  8
1
  6
Continuous
100
AcDbLine
 10
77.50015000000002
 20
185.590836
 30
0.0
 11
77.50015000000002
 21
161.9457889999999
 31
0.0
  0
LINE
  5
1BAEE
330
1B727
100
AcDbEntity
  8
1
  6
Continuous
100
AcDbLine
 10
193.800153
 20
294.3761629999999
 30
0.0
 11
192.600153
 21
295.5761629999999
 31
0.0
  0
LINE
  5
1BAEF
330
1B727
100
AcDbEntity
  8
1
  6
Continuous
100
AcDbLine
 10
192.600153
 20
296.776163
 30
0.0
 11
192.600153
 21
295.5761629999999
 31
0.0
  0
LINE
  5
1BAF0
330
1B727
100
AcDbEntity
  8
2
  6
Continuous
100
AcDbLine
 10
193.276653
 20
294.8996629999999
 30
0.0
 11
193.276653
 21
296.776163
 31
0.0
  0
LINE
  5
1BAF1
330
1B727
100
AcDbEntity
  8
1
  6
Continuous
100
AcDbLine
 10
190.600153
 20
296.776163
 30
0.0
 11
190.600153
 21
297.4141589999998
 31
0.0
  0
ARC
  5
1BAF2
330
1B727
100
AcDbEntity
  8
1
  6
Continuous
100
AcDbCircle
 10
193.600153
 20
305.4412259999998
 30
0.0
 40
8.665063999999999
100
AcDbArc
 50
249.7438419999999
 51
281.327629
  0
LINE
  5
1BAF3
330
1B727
100
AcDbEntity
  8
1
  6
Continuous
100
AcDbLine
 10
190.600153
 20
296.776163
 30
0.0
 11
195.494946
 21
296.776163
 31
0.0
  0
LINE
  5
1BAF4
330
1B727
100
AcDbEntity
  8
1
  6
Continuous
100
AcDbLine
 10
192.600153
 20
295.5761629999999
 30
0.0
 11
196.3960379999998
 21
295.5761629999999
 31
0.0
  0
LINE
  5
1BAF5
330
1B727
100
AcDbEntity
  8
1
  6
Continuous
100
AcDbLine
 10
193.800153
 20
294.3761629999999
 30
0.0
 11
196.7903139999999
 21
294.3761629999999
 31
0.0
  0
LINE
  5
1BAF6
330
1B727
100
AcDbEntity
  8
1
  6
Continuous
100
AcDbLine
 10
179.3796979999999
 20
93.49839899999999
 30
0.0
 11
167.3798009999999
 21
93.49839899999999
 31
0.0
  0
ARC
  5
1BAF7
330
1B727
100
AcDbEntity
  8
1
  6
Continuous
100
AcDbCircle
 10
223.600361
 20
1712.515169
 30
0.0
 40
1593.816667
100
AcDbArc
 50
270.3805399999998
 51
271.108916
  0
ARC
  5
1BAF8
330
1B727
100
AcDbEntity
  8
1
  6
Continuous
100
AcDbCircle
 10
223.600361
 20
79.998502
 30
0.0
 40
34.618797
100
AcDbArc
 50
100.5970569999998
 51
109.5268399999998
  0
ARC
  5
1BAF9
330
1B727
100
AcDbEntity
  8
1
  6
Continuous
100
AcDbCircle
 10
223.600361
 20
79.998502
 30
0.0
 40
27.49995999999999
100
AcDbArc
 50
109.5070299999999
 51
136.8714629999997
  0
LINE
  5
1BAFA
330
1B727
100
AcDbEntity
  8
1
  6
Continuous
100
AcDbLine
 10
214.6695559999999
 20
174.8372149999999
 30
0.0
 11
231.3683689999999
 21
172.9961199999999
 31
0.0
  0
LINE
  5
1BAFB
330
1B727
100
AcDbEntity
  8
1
  6
Continuous
100
AcDbLine
 10
331.272462
 20
174.8372149999999
 30
0.0
 11
341.172462
 21
174.8372149999999
 31
0.0
  0
ARC
  5
1BAFC
330
1B727
100
AcDbEntity
  8
1
  6
Continuous
100
AcDbCircle
 10
331.972463
 20
181.4714969999999
 30
0.0
 40
3.0
100
AcDbArc
 50
256.5065859999999
 51
288.305071
  0
LINE
  5
1BAFD
330
1B727
100
AcDbEntity
  8
1
  6
Continuous
100
AcDbLine
 10
332.9146919999999
 20
178.6233039999999
 30
0.0
 11
341.172462
 21
181.3551109999999
 31
0.0
  0
ARC
  5
1BAFE
330
1B727
100
AcDbEntity
  8
1
  6
Continuous
100
AcDbCircle
 10
401.4531339999998
 20
170.6739579999999
 30
0.0
 40
69.225691
100
AcDbArc
 50
148.035341
 51
148.263553
  0
ARC
  5
1BAFF
330
1B727
100
AcDbEntity
  8
1
  6
Continuous
100
AcDbCircle
 10
401.4531339999998
 20
170.6739579999999
 30
0.0
 40
69.225691
100
AcDbArc
 50
153.565883
 51
159.1525569999998
  0
CIRCLE
  5
1BB05
330
1B727
100
AcDbEntity
  8
1
  6
Continuous
100
AcDbCircle
 10
196.6001529999999
 20
191.1657679999999
 30
0.0
 40
6.0
  0
LINE
  5
1BB06
330
1B727
100
AcDbEntity
  8
1
  6
Continuous
100
AcDbLine
 10
202.6001529999999
 20
194.6298699999999
 30
0.0
 11
202.6001529999999
 21
187.7016659999999
 31
0.0
  0
LINE
  5
1BB07
330
1B727
100
AcDbEntity
  8
1
  6
Continuous
100
AcDbLine
 10
190.6001529999999
 20
194.6298699999999
 30
0.0
 11
190.6001529999999
 21
187.7016659999999
 31
0.0
  0
LINE
  5
1BB08
330
1B727
100
AcDbEntity
  8
1
  6
Continuous
100
AcDbLine
 10
196.6001529999999
 20
184.2375649999999
 30
0.0
 11
202.6001529999999
 21
187.7016659999999
 31
0.0
  0
LINE
  5
1BB09
330
1B727
100
AcDbEntity
  8
1
  6
Continuous
100
AcDbLine
 10
196.6001529999999
 20
184.2375649999999
 30
0.0
 11
190.6001529999999
 21
187.7016659999999
 31
0.0
  0
LINE
  5
1BB0A
330
1B727
100
AcDbEntity
  8
1
  6
Continuous
100
AcDbLine
 10
202.6001529999999
 20
194.6298699999999
 30
0.0
 11
196.6001529999999
 21
198.0939709999999
 31
0.0
  0
LINE
  5
1BB0B
330
1B727
100
AcDbEntity
  8
1
  6
Continuous
100
AcDbLine
 10
190.6001529999999
 20
194.6298699999999
 30
0.0
 11
196.6001529999999
 21
198.0939709999999
 31
0.0
  0
ENDSEC
  0
SECTION
  2
OBJECTS
  0
DICTIONARY
  5
1B715
330
0
100
AcDbDictionary
281
     1
  3
ACAD_CIP_PREVIOUS_PRODUCT_INFO
350
1BB6C
  3
ACAD_COLOR
350
1BB4E
  3
ACAD_DETAILVIEWSTYLE
350
1BB67
  3
ACAD_GROUP
350
1B716
  3
ACAD_LAYOUT
350
1B722
  3
ACAD_MATERIAL
350
1BB1C
  3
ACAD_MLEADERSTYLE
350
1BB63
  3
ACAD_MLINESTYLE
350
1B71F
  3
ACAD_PLOTSETTINGS
350
1B721
  3
ACAD_PLOTSTYLENAME
350
1BB1A
  3
ACAD_SCALELIST
350
1BB51
  3
ACAD_SECTIONVIEWSTYLE
350
1BB65
  3
ACAD_TABLESTYLE
350
1BB4F
  3
ACAD_VISUALSTYLE
350
1BB35
  3
ACDB_RECOMPOSE_DATA
350
1BB8A
  3
AcDbVariableDictionary
350
1BB7D
  3
DWGPROPS
350
1BB8B
  0
DICTIONARY
  5
1BB6D
330
1B719
100
AcDbDictionary
280
     1
281
     1
  3
ADSK_XREC_LAYER_RECONCILED
360
1BB6E
  0
DICTIONARY
  5
1BB6F
330
1B72F
100
AcDbDictionary
280
     1
281
     1
  3
ADSK_XREC_LAYER_RECONCILED
360
1BB70
  0
DICTIONARY
  5
1BB71
330
1B730
100
AcDbDictionary
280
     1
281
     1
  3
ADSK_XREC_LAYER_RECONCILED
360
1BB72
  0
DICTIONARY
  5
1BB73
330
1B731
100
AcDbDictionary
280
     1
281
     1
  3
ADSK_XREC_LAYER_RECONCILED
360
1BB74
  0
DICTIONARY
  5
1BB75
330
1B732
100
AcDbDictionary
280
     1
281
     1
  3
ADSK_XREC_LAYER_RECONCILED
360
1BB76
  0
DICTIONARY
  5
1BB77
330
1B733
100
AcDbDictionary
280
     1
281
     1
  3
ADSK_XREC_LAYER_RECONCILED
360
1BB78
  0
DICTIONARY
  5
1BB79
330
1B734
100
AcDbDictionary
280
     1
281
     1
  3
ADSK_XREC_LAYER_RECONCILED
360
1BB7A
  0
DICTIONARY
  5
1BB7B
330
1B735
100
AcDbDictionary
280
     1
281
     1
  3
ADSK_XREC_LAYER_RECONCILED
360
1BB7C
  0
DICTIONARY
  5
1BB15
330
1B727
100
AcDbDictionary
281
     1
  3
ACAD_LAYOUTSELFREF
350
1BB16
  0
DICTIONARY
  5
1BB13
330
1B723
100
AcDbDictionary
281
     1
  3
ACAD_LAYOUTSELFREF
350
1BB14
  0
XRECORD
  5
1BB6C
102
{ACAD_REACTORS
330
1B715
102
}
330
1B715
100
AcDbXrecord
280
     1
300
ACDLT
300
2014
300
ACDLT_F_S
  0
DICTIONARY
  5
1BB4E
102
{ACAD_REACTORS
330
1B715
102
}
330
1B715
100
AcDbDictionary
281
     1
  0
DICTIONARY
  5
1BB67
102
{ACAD_REACTORS
330
1B715
102
}
330
1B715
100
AcDbDictionary
281
     1
  3
Imperial24
350
1BB68
  0
DICTIONARY
  5
1B716
102
{ACAD_REACTORS
330
1B715
102
}
330
1B715
100
AcDbDictionary
281
     1
  0
DICTIONARY
  5
1B722
102
{ACAD_REACTORS
330
1B715
102
}
330
1B715
100
AcDbDictionary
281
     1
  3
Model
350
1BB69
  3
レイアウト1
350
1BB6A
  0
DICTIONARY
  5
1BB1C
102
{ACAD_REACTORS
330
1B715
102
}
330
1B715
100
AcDbDictionary
281
     1
  3
ByBlock
350
1BB25
  3
ByLayer
350
1BB1D
  3
Global
350
1BB2D
  0
DICTIONARY
  5
1BB63
102
{ACAD_REACTORS
330
1B715
102
}
330
1B715
100
AcDbDictionary
281
     1
  3
Standard
350
1BB64
  0
DICTIONARY
  5
1B71F
102
{ACAD_REACTORS
330
1B715
102
}
330
1B715
100
AcDbDictionary
281
     1
  3
STANDARD
350
1B720
  0
DICTIONARY
  5
1B721
102
{ACAD_REACTORS
330
1B715
102
}
330
1B715
100
AcDbDictionary
281
     1
  0
ACDBDICTIONARYWDFLT
  5
1BB1A
102
{ACAD_REACTORS
330
1B715
102
}
330
1B715
100
AcDbDictionary
281
     1
  3
Normal
350
1BB1B
100
AcDbDictionaryWithDefault
340
1BB1B
  0
DICTIONARY
  5
1BB51
102
{ACAD_REACTORS
330
1B715
102
}
330
1B715
100
AcDbDictionary
281
     1
  3
A0
350
1BB52
  3
A1
350
1BB53
  3
A2
350
1BB54
  3
A3
350
1BB55
  3
A4
350
1BB56
  3
A5
350
1BB57
  3
A6
350
1BB58
  3
A7
350
1BB59
  3
A8
350
1BB5A
  3
A9
350
1BB5B
  3
B0
350
1BB5C
  3
B1
350
1BB5D
  3
B2
350
1BB5E
  3
B3
350
1BB5F
  3
B4
350
1BB60
  3
B5
350
1BB61
  3
B6
350
1BB62
  0
DICTIONARY
  5
1BB65
102
{ACAD_REACTORS
330
1B715
102
}
330
1B715
100
AcDbDictionary
281
     1
  3
Imperial24
350
1BB66
  0
DICTIONARY
  5
1BB4F
102
{ACAD_REACTORS
330
1B715
102
}
330
1B715
100
AcDbDictionary
281
     1
  3
Standard
350
1BB50
  0
DICTIONARY
  5
1BB35
102
{ACAD_REACTORS
330
1B715
102
}
330
1B715
100
AcDbDictionary
281
     1
  3
2dWireframe
350
1BB3B
  3
Basic
350
1BB3A
  3
Brighten
350
1BB41
  3
ColorChange
350
1BB45
  3
Conceptual
350
1BB3E
  3
Dim
350
1BB40
  3
EdgeColorOff
350
1BB4D
  3
Facepattern
350
1BB44
  3
Flat
350
1BB36
  3
FlatWithEdges
350
1BB37
  3
Gouraud
350
1BB38
  3
GouraudWithEdges
350
1BB39
  3
Hidden
350
1BB3D
  3
JitterOff
350
1BB4B
  3
Linepattern
350
1BB43
  3
OverhangOff
350
1BB4C
  3
Realistic
350
1BB3F
  3
Shaded
350
1BB4A
  3
Shaded with edges
350
1BB49
  3
Shades of Gray
350
1BB46
  3
Sketchy
350
1BB47
  3
Thicken
350
1BB42
  3
Wireframe
350
1BB3C
  3
X-Ray
350
1BB48
  0
XRECORD
  5
1BB8A
102
{ACAD_REACTORS
330
1B715
102
}
330
1B715
100
AcDbXrecord
280
     1
 90
        1
330
1BB50
  0
DICTIONARY
  5
1BB7D
102
{ACAD_REACTORS
330
1B715
102
}
330
1B715
100
AcDbDictionary
281
     1
  3
CANNOSCALE
350
1BB82
  3
CMLEADERSTYLE
350
1BB7F
  3
CTABLESTYLE
350
1BB7E
  3
CVIEWDETAILSTYLE
350
1BB80
  3
CVIEWSECTIONSTYLE
350
1BB81
  3
DIMASSOC
350
1BB85
  3
INDEXCTL
350
1BB84
  3
SORTENTS
350
1BB83
  3
XCLIPFRAME
350
1BB86
  0
XRECORD
  5
1BB8B
102
{ACAD_REACTORS
330
1B715
102
}
330
1B715
100
AcDbXrecord
280
     1
  1
DWGPROPS COOKIE
  2

  3

  4

  6

  7

  8
Yoshitsune
  9

300
=
301
=
302
=
303
=
304
=
305
=
306
=
307
=
308
=
309
=
 40
0.0002443055555556
 41
2451303.37608125
 42
2457192.686950926
  1

 90
        0
  0
XRECORD
  5
1BB6E
102
{ACAD_REACTORS
330
1BB6D
102
}
330
1BB6D
100
AcDbXrecord
280
     1
290
     1
  0
XRECORD
  5
1BB70
102
{ACAD_REACTORS
330
1BB6F
102
}
330
1BB6F
100
AcDbXrecord
280
     1
290
     1
  0
XRECORD
  5
1BB72
102
{ACAD_REACTORS
330
1BB71
102
}
330
1BB71
100
AcDbXrecord
280
     1
290
     1
  0
XRECORD
  5
1BB74
102
{ACAD_REACTORS
330
1BB73
102
}
330
1BB73
100
AcDbXrecord
280
     1
290
     1
  0
XRECORD
  5
1BB76
102
{ACAD_REACTORS
330
1BB75
102
}
330
1BB75
100
AcDbXrecord
280
     1
290
     1
  0
XRECORD
  5
1BB78
102
{ACAD_REACTORS
330
1BB77
102
}
330
1BB77
100
AcDbXrecord
280
     1
290
     1
  0
XRECORD
  5
1BB7A
102
{ACAD_REACTORS
330
1BB79
102
}
330
1BB79
100
AcDbXrecord
280
     1
290
     1
  0
XRECORD
  5
1BB7C
102
{ACAD_REACTORS
330
1BB7B
102
}
330
1BB7B
100
AcDbXrecord
280
     1
290
     1
  0
XRECORD
  5
1BB16
102
{ACAD_REACTORS
330
1BB15
102
}
330
1BB15
100
AcDbXrecord
280
     1
340
1B727
  0
XRECORD
  5
1BB14
102
{ACAD_REACTORS
330
1BB13
102
}
330
1BB13
100
AcDbXrecord
280
     1
340
1B723
  0
ACDBDETAILVIEWSTYLE
  5
1BB68
102
{ACAD_XDICTIONARY
360
1BBC3
102
}
102
{ACAD_REACTORS
330
1BB67
102
}
330
1BB67
100
AcDbModelDocViewStyle
 70
     0
  3
Imperial24
290
     0
100
AcDbDetailViewStyle
 70
     0
 71
     0
 90
        3
 71
     1
340
1B71A
 40
0.24
340
0
 40
0.24
300

 40
0.36
280
     3
 71
     2
340
1B71E
 90
       25
 71
     3
340
1B71A
 40
0.24
 90
        1
 40
0.75
 90
        1
300
%<\AcVar ViewType \f "%tc1">% %<\AcVar ViewDetailId>%\PSCALE %<\AcVar ViewScale \f "%sn">%
 71
     4
340
1B71E
 90
       25
340
1B71E
 90
       25
280
     0
  0
LAYOUT
  5
1BB69
102
{ACAD_XDICTIONARY
360
1BBC5
102
}
102
{ACAD_REACTORS
330
1B722
102
}
330
1B722
100
AcDbPlotSettings
  1

  2
Canon LBP9100C
  4

  6

 40
0.0
 41
0.0
 42
0.0
 43
0.0
 44
0.0
 45
0.0
 46
0.0
 47
0.0
 48
0.0
 49
0.0
140
0.0
141
0.0
142
1.0
143
1.0
 70
  1712
 72
     0
 73
     0
 74
     0
  7

 75
     0
147
1.0
148
0.0
149
0.0
100
AcDbLayout
  1
Model
 70
     1
 71
     0
 10
0.0
 20
0.0
 11
12.0
 21
9.0
 12
0.0
 22
0.0
 32
0.0
 14
0.0
 24
0.0
 34
0.0
 15
0.0
 25
0.0
 35
0.0
146
0.0
 13
0.0
 23
0.0
 33
0.0
 16
1.0
 26
0.0
 36
0.0
 17
0.0
 27
1.0
 37
0.0
 76
     0
330
1B727
331
1BB12
  0
LAYOUT
  5
1BB6A
102
{ACAD_XDICTIONARY
360
1BBC7
102
}
102
{ACAD_REACTORS
330
1B722
102
}
330
1B722
100
AcDbPlotSettings
  1

  2
Canon LBP9100C
  4

  6

 40
0.0
 41
0.0
 42
0.0
 43
0.0
 44
0.0
 45
0.0
 46
0.0
 47
0.0
 48
0.0
 49
0.0
140
0.0
141
0.0
142
1.0
143
1.0
 70
   688
 72
     0
 73
     0
 74
     5
  7

 75
    16
147
1.0
148
0.0
149
0.0
100
AcDbLayout
  1
レイアウト1
 70
     0
 71
     1
 10
0.0
 20
0.0
 11
420.0
 21
297.0
 12
0.0
 22
0.0
 32
0.0
 14
1.000000000000000E+20
 24
1.000000000000000E+20
 34
1.000000000000000E+20
 15
-1.000000000000000E+20
 25
-1.000000000000000E+20
 35
-1.000000000000000E+20
146
0.0
 13
0.0
 23
0.0
 33
0.0
 16
1.0
 26
0.0
 36
0.0
 17
0.0
 27
1.0
 37
0.0
 76
     0
330
1B723
  0
MATERIAL
  5
1BB25
102
{ACAD_XDICTIONARY
360
1BB26
102
}
102
{ACAD_REACTORS
330
1BB1C
102
}
330
1BB1C
100
AcDbMaterial
  1
ByBlock
 72
     0
 43
0.0208333333333333
 43
0.0
 43
0.0
 43
0.0
 43
0.0
 43
0.0208333333333333
 43
0.0
 43
0.0
 43
0.0
 43
0.0
 43
1.0
 43
0.0
 43
0.0
 43
0.0
 43
0.0
 43
1.0
 77
     0
 47
0.0208333333333333
 47
0.0
 47
0.0
 47
0.0
 47
0.0
 47
0.0208333333333333
 47
0.0
 47
0.0
 47
0.0
 47
0.0
 47
1.0
 47
0.0
 47
0.0
 47
0.0
 47
0.0
 47
1.0
171
     0
 49
0.0208333333333333
 49
0.0
 49
0.0
 49
0.0
 49
0.0
 49
0.0208333333333333
 49
0.0
 49
0.0
 49
0.0
 49
0.0
 49
1.0
 49
0.0
 49
0.0
 49
0.0
 49
0.0
 49
1.0
175
     0
142
0.0208333333333333
142
0.0
142
0.0
142
0.0
142
0.0
142
0.0208333333333333
142
0.0
142
0.0
142
0.0
142
0.0
142
1.0
142
0.0
142
0.0
142
0.0
142
0.0
142
1.0
179
     0
144
0.0208333333333333
144
0.0
144
0.0
144
0.0
144
0.0
144
0.0208333333333333
144
0.0
144
0.0
144
0.0
144
0.0
144
1.0
144
0.0
144
0.0
144
0.0
144
0.0
144
1.0
147
0.0208333333333333
147
0.0
147
0.0
147
0.0
147
0.0
147
0.0208333333333333
147
0.0
147
0.0
147
0.0
147
0.0
147
1.0
147
0.0
147
0.0
147
0.0
147
0.0
147
1.0
  0
MATERIAL
  5
1BB1D
102
{ACAD_XDICTIONARY
360
1BB1E
102
}
102
{ACAD_REACTORS
330
1BB1C
102
}
330
1BB1C
100
AcDbMaterial
  1
ByLayer
 72
     0
 43
0.0208333333333333
 43
0.0
 43
0.0
 43
0.0
 43
0.0
 43
0.0208333333333333
 43
0.0
 43
0.0
 43
0.0
 43
0.0
 43
1.0
 43
0.0
 43
0.0
 43
0.0
 43
0.0
 43
1.0
 77
     0
 47
0.0208333333333333
 47
0.0
 47
0.0
 47
0.0
 47
0.0
 47
0.0208333333333333
 47
0.0
 47
0.0
 47
0.0
 47
0.0
 47
1.0
 47
0.0
 47
0.0
 47
0.0
 47
0.0
 47
1.0
171
     0
 49
0.0208333333333333
 49
0.0
 49
0.0
 49
0.0
 49
0.0
 49
0.0208333333333333
 49
0.0
 49
0.0
 49
0.0
 49
0.0
 49
1.0
 49
0.0
 49
0.0
 49
0.0
 49
0.0
 49
1.0
175
     0
142
0.0208333333333333
142
0.0
142
0.0
142
0.0
142
0.0
142
0.0208333333333333
142
0.0
142
0.0
142
0.0
142
0.0
142
1.0
142
0.0
142
0.0
142
0.0
142
0.0
142
1.0
179
     0
144
0.0208333333333333
144
0.0
144
0.0
144
0.0
144
0.0
144
0.0208333333333333
144
0.0
144
0.0
144
0.0
144
0.0
144
1.0
144
0.0
144
0.0
144
0.0
144
0.0
144
1.0
147
0.0208333333333333
147
0.0
147
0.0
147
0.0
147
0.0
147
0.0208333333333333
147
0.0
147
0.0
147
0.0
147
0.0
147
1.0
147
0.0
147
0.0
147
0.0
147
0.0
147
1.0
  0
MATERIAL
  5
1BB2D
102
{ACAD_XDICTIONARY
360
1BB2E
102
}
102
{ACAD_REACTORS
330
1BB1C
102
}
330
1BB1C
100
AcDbMaterial
  1
Global
 72
     0
 43
0.0208333333333333
 43
0.0
 43
0.0
 43
0.0
 43
0.0
 43
0.0208333333333333
 43
0.0
 43
0.0
 43
0.0
 43
0.0
 43
1.0
 43
0.0
 43
0.0
 43
0.0
 43
0.0
 43
1.0
 77
     0
 47
0.0208333333333333
 47
0.0
 47
0.0
 47
0.0
 47
0.0
 47
0.0208333333333333
 47
0.0
 47
0.0
 47
0.0
 47
0.0
 47
1.0
 47
0.0
 47
0.0
 47
0.0
 47
0.0
 47
1.0
171
     0
 49
0.0208333333333333
 49
0.0
 49
0.0
 49
0.0
 49
0.0
 49
0.0208333333333333
 49
0.0
 49
0.0
 49
0.0
 49
0.0
 49
1.0
 49
0.0
 49
0.0
 49
0.0
 49
0.0
 49
1.0
175
     0
142
0.0208333333333333
142
0.0
142
0.0
142
0.0
142
0.0
142
0.0208333333333333
142
0.0
142
0.0
142
0.0
142
0.0
142
1.0
142
0.0
142
0.0
142
0.0
142
0.0
142
1.0
179
     0
144
0.0208333333333333
144
0.0
144
0.0
144
0.0
144
0.0
144
0.0208333333333333
144
0.0
144
0.0
144
0.0
144
0.0
144
1.0
144
0.0
144
0.0
144
0.0
144
0.0
144
1.0
147
0.0208333333333333
147
0.0
147
0.0
147
0.0
147
0.0
147
0.0208333333333333
147
0.0
147
0.0
147
0.0
147
0.0
147
1.0
147
0.0
147
0.0
147
0.0
147
0.0
147
1.0
  0
MLEADERSTYLE
  5
1BB64
102
{ACAD_REACTORS
330
1BB63
102
}
330
1BB63
100
AcDbMLeaderStyle
170
     2
171
     1
172
     0
 90
        2
 40
0.0
 41
0.0
173
     1
 91
-1056964608
340
1B71C
 92
       -2
290
     1
 42
0.09
291
     1
 43
0.36
  3
Standard
 44
0.18
300

342
1B71A
174
     1
178
     6
175
     1
176
     0
 93
-1056964608
 45
0.18
292
     0
297
     0
 46
0.18
 94
-1056964608
 47
1.0
 49
1.0
140
1.0
293
     1
141
0.0
294
     1
177
     0
142
1.0
295
     0
296
     0
143
0.125
1001
ACAD_MLEADERVER
1070
     2
  0
MLINESTYLE
  5
1B720
102
{ACAD_REACTORS
330
1B71F
102
}
330
1B71F
100
AcDbMlineStyle
  2
STANDARD
 70
     0
  3

 62
   256
 51
90.0
 52
90.0
 71
     2
 49
0.5
 62
   256
  6
BYLAYER
 49
-0.5
 62
   256
  6
BYLAYER
  0
ACDBPLACEHOLDER
  5
1BB1B
102
{ACAD_REACTORS
330
1BB1A
102
}
330
1BB1A
  0
SCALE
  5
1BB52
102
{ACAD_REACTORS
330
1BB51
102
}
330
1BB51
100
AcDbScale
 70
     0
300
1:1
140
1.0
141
1.0
290
     1
  0
SCALE
  5
1BB53
102
{ACAD_REACTORS
330
1BB51
102
}
330
1BB51
100
AcDbScale
 70
     0
300
1/128" = 1'-0"
140
0.0078125
141
12.0
290
     0
  0
SCALE
  5
1BB54
102
{ACAD_REACTORS
330
1BB51
102
}
330
1BB51
100
AcDbScale
 70
     0
300
1/64" = 1'-0"
140
0.015625
141
12.0
290
     0
  0
SCALE
  5
1BB55
102
{ACAD_REACTORS
330
1BB51
102
}
330
1BB51
100
AcDbScale
 70
     0
300
1/32" = 1'-0"
140
0.03125
141
12.0
290
     0
  0
SCALE
  5
1BB56
102
{ACAD_REACTORS
330
1BB51
102
}
330
1BB51
100
AcDbScale
 70
     0
300
1/16" = 1'-0"
140
0.0625
141
12.0
290
     0
  0
SCALE
  5
1BB57
102
{ACAD_REACTORS
330
1BB51
102
}
330
1BB51
100
AcDbScale
 70
     0
300
3/32" = 1'-0"
140
0.09375
141
12.0
290
     0
  0
SCALE
  5
1BB58
102
{ACAD_REACTORS
330
1BB51
102
}
330
1BB51
100
AcDbScale
 70
     0
300
1/8" = 1'-0"
140
0.125
141
12.0
290
     0
  0
SCALE
  5
1BB59
102
{ACAD_REACTORS
330
1BB51
102
}
330
1BB51
100
AcDbScale
 70
     0
300
3/16" = 1'-0"
140
0.1875
141
12.0
290
     0
  0
SCALE
  5
1BB5A
102
{ACAD_REACTORS
330
1BB51
102
}
330
1BB51
100
AcDbScale
 70
     0
300
1/4" = 1'-0"
140
0.25
141
12.0
290
     0
  0
SCALE
  5
1BB5B
102
{ACAD_REACTORS
330
1BB51
102
}
330
1BB51
100
AcDbScale
 70
     0
300
3/8" = 1'-0"
140
0.375
141
12.0
290
     0
  0
SCALE
  5
1BB5C
102
{ACAD_REACTORS
330
1BB51
102
}
330
1BB51
100
AcDbScale
 70
     0
300
1/2" = 1'-0"
140
0.5
141
12.0
290
     0
  0
SCALE
  5
1BB5D
102
{ACAD_REACTORS
330
1BB51
102
}
330
1BB51
100
AcDbScale
 70
     0
300
3/4" = 1'-0"
140
0.75
141
12.0
290
     0
  0
SCALE
  5
1BB5E
102
{ACAD_REACTORS
330
1BB51
102
}
330
1BB51
100
AcDbScale
 70
     0
300
1" = 1'-0"
140
1.0
141
12.0
290
     0
  0
SCALE
  5
1BB5F
102
{ACAD_REACTORS
330
1BB51
102
}
330
1BB51
100
AcDbScale
 70
     0
300
1-1/2" = 1'-0"
140
1.5
141
12.0
290
     0
  0
SCALE
  5
1BB60
102
{ACAD_REACTORS
330
1BB51
102
}
330
1BB51
100
AcDbScale
 70
     0
300
3" = 1'-0"
140
3.0
141
12.0
290
     0
  0
SCALE
  5
1BB61
102
{ACAD_REACTORS
330
1BB51
102
}
330
1BB51
100
AcDbScale
 70
     0
300
6" = 1'-0"
140
6.0
141
12.0
290
     0
  0
SCALE
  5
1BB62
102
{ACAD_REACTORS
330
1BB51
102
}
330
1BB51
100
AcDbScale
 70
     0
300
1'-0" = 1'-0"
140
12.0
141
12.0
290
     0
  0
ACDBSECTIONVIEWSTYLE
  5
1BB66
102
{ACAD_XDICTIONARY
360
1BBC1
102
}
102
{ACAD_REACTORS
330
1BB65
102
}
330
1BB65
100
AcDbModelDocViewStyle
 70
     0
  3
Imperial24
290
     0
100
AcDbSectionViewStyle
 70
     0
 71
     0
 90
       78
 71
     1
340
1B71A
 40
0.24
340
0
340
0
 40
0.24
300
I, O, Q, S, X, Z
 40
0.48
 90
        3
 40
0.18
 90
        1
 71
     2
340
1B71E
 90
       25
340
1B71E
 90
       50
 40
0.24
 40
0.0
 40
0.24
 71
     3
340
1B71A
 40
0.24
 90
        1
 40
0.75
 90
        1
300
%<\AcVar ViewType \f "%tc1">% %<\AcVar ViewSectionStartId>%-%<\AcVar ViewSectionEndId>%\PSCALE %<\AcVar ViewScale \f "%sn">%
 71
     4
300
ANSI31
 40
1.0
 90
        0
290
     0
290
     0
 90
        6
 40
0.0
 40
1.570796326794896
 40
0.2617993877991494
 40
1.308996938995747
 40
-0.2617993877991494
 40
1.832595714594046
  0
TABLESTYLE
  5
1BB50
102
{ACAD_XDICTIONARY
360
1BB88
102
}
102
{ACAD_REACTORS
330
1BB4F
102
}
330
1BB4F
100
AcDbTableStyle
  3
Standard
 70
     0
 71
     0
 40
0.06
 41
0.06
280
     0
281
     0
  7
STANDARD
140
0.18
170
     2
 62
     0
 63
     7
283
     0
274
    -2
284
     1
 64
     0
275
    -2
285
     1
 65
     0
276
    -2
286
     1
 66
     0
277
    -2
287
     1
 67
     0
278
    -2
288
     1
 68
     0
279
    -2
289
     1
 69
     0
  7
STANDARD
140
0.25
170
     5
 62
     0
 63
     7
283
     0
274
    -2
284
     1
 64
     0
275
    -2
285
     1
 65
     0
276
    -2
286
     1
 66
     0
277
    -2
287
     1
 67
     0
278
    -2
288
     1
 68
     0
279
    -2
289
     1
 69
     0
  7
STANDARD
140
0.18
170
     5
 62
     0
 63
     7
283
     0
274
    -2
284
     1
 64
     0
275
    -2
285
     1
 65
     0
276
    -2
286
     1
 66
     0
277
    -2
287
     1
 67
     0
278
    -2
288
     1
 68
     0
279
    -2
289
     1
 69
     0
  0
VISUALSTYLE
  5
1BB3B
102
{ACAD_XDICTIONARY
360
1BB99
102
}
102
{ACAD_REACTORS
330
1BB35
102
}
330
1BB35
100
AcDbVisualStyle
  2
2dWireframe
 70
     4
 71
     0
 72
     2
 73
     0
 90
        0
 40
-0.6
 41
-30.0
 62
     5
 63
     7
 74
     1
 91
        4
 64
     7
 65
   257
 75
     1
175
     1
 42
1.0
 92
        0
 66
   257
 43
1.0
 76
     1
 77
     6
 78
     2
 67
     7
 79
     5
170
     0
171
     0
290
     0
174
     0
 93
        1
 44
0.0
173
     0
291
     0
 45
0.0
1001
ACAD
1000
AcDbSavedByObjectVersion
1070
     0
  0
VISUALSTYLE
  5
1BB3A
102
{ACAD_XDICTIONARY
360
1BB97
102
}
102
{ACAD_REACTORS
330
1BB35
102
}
330
1BB35
100
AcDbVisualStyle
  2
Basic
 70
     7
 71
     1
 72
     0
 73
     1
 90
        0
 40
-0.6
 41
-30.0
 62
     5
 63
     7
 74
     0
 91
        4
 64
     7
 65
   257
 75
     1
175
     1
 42
1.0
 92
        8
 66
     7
 43
1.0
 76
     1
 77
     6
 78
     2
 67
     7
 79
     5
170
     0
171
     0
290
     0
174
     0
 93
        1
 44
0.0
173
     0
291
     1
 45
0.0
1001
ACAD
1000
AcDbSavedByObjectVersion
1070
     0
  0
VISUALSTYLE
  5
1BB41
102
{ACAD_XDICTIONARY
360
1BBA5
102
}
102
{ACAD_REACTORS
330
1BB35
102
}
330
1BB35
100
AcDbVisualStyle
  2
Brighten
 70
    12
 71
     2
 72
     2
 73
     0
 90
        0
 40
-0.6
 41
-30.0
 62
     5
 63
     7
 74
     1
 91
        4
 64
     7
 65
   257
 75
     1
175
     1
 42
1.0
 92
        8
 66
     7
 43
1.0
 76
     1
 77
     6
 78
     2
 67
     7
 79
     5
170
     0
171
     0
290
     0
174
     0
 93
        1
 44
50.0
173
     0
291
     1
 45
0.0
1001
ACAD
1000
AcDbSavedByObjectVersion
1070
     0
  0
VISUALSTYLE
  5
1BB45
102
{ACAD_XDICTIONARY
360
1BBAD
102
}
102
{ACAD_REACTORS
330
1BB35
102
}
330
1BB35
100
AcDbVisualStyle
  2
ColorChange
 70
    16
 71
     2
 72
     2
 73
     3
 90
        0
 40
-0.6
 41
-30.0
 62
     5
 63
     8
 74
     1
 91
        4
 64
     7
 65
   257
 75
     1
175
     1
 42
1.0
 92
        8
 66
     8
 43
1.0
 76
     1
 77
     6
 78
     2
 67
     7
 79
     5
170
     0
171
     0
290
     0
174
     0
 93
        1
 44
0.0
173
     0
291
     1
 45
0.0
1001
ACAD
1000
AcDbSavedByObjectVersion
1070
     0
  0
VISUALSTYLE
  5
1BB3E
102
{ACAD_XDICTIONARY
360
1BB9F
102
}
102
{ACAD_REACTORS
330
1BB35
102
}
330
1BB35
100
AcDbVisualStyle
  2
Conceptual
 70
     9
 71
     3
 72
     2
 73
     0
 90
        0
 40
-0.6
 41
-30.0
 62
     5
 63
     7
 74
     2
 91
        2
 64
     7
 65
   257
 75
     1
175
     1
 42
179.0
 92
        8
 66
     7
 43
1.0
 76
     1
 77
     6
 78
     2
 67
     7
 79
     3
170
     0
171
     0
290
     0
174
     0
 93
        1
 44
0.0
173
     0
291
     0
 45
0.0
1001
ACAD
1000
AcDbSavedByObjectVersion
1070
     0
  0
VISUALSTYLE
  5
1BB40
102
{ACAD_XDICTIONARY
360
1BBA3
102
}
102
{ACAD_REACTORS
330
1BB35
102
}
330
1BB35
100
AcDbVisualStyle
  2
Dim
 70
    11
 71
     2
 72
     2
 73
     0
 90
        0
 40
-0.6
 41
-30.0
 62
     5
 63
     7
 74
     1
 91
        4
 64
     7
 65
   257
 75
     1
175
     1
 42
1.0
 92
        8
 66
     7
 43
1.0
 76
     1
 77
     6
 78
     2
 67
     7
 79
     5
170
     0
171
     0
290
     0
174
     0
 93
        1
 44
-50.0
173
     0
291
     1
 45
0.0
1001
ACAD
1000
AcDbSavedByObjectVersion
1070
     0
  0
VISUALSTYLE
  5
1BB4D
102
{ACAD_XDICTIONARY
360
1BBBD
102
}
102
{ACAD_REACTORS
330
1BB35
102
}
330
1BB35
100
AcDbVisualStyle
  2
EdgeColorOff
 70
    22
 71
     2
 72
     2
 73
     0
 90
        0
 40
-0.6
 41
-30.0
 62
     5
 63
     7
 74
     1
 91
        4
 64
     7
 65
   257
 75
     1
175
     1
 42
1.0
 92
        8
 66
     7
 43
1.0
 76
     1
 77
     6
 78
     2
 67
     7
 79
     5
170
     0
171
     0
290
     0
174
     0
 93
        1
 44
0.0
173
     0
291
     1
 45
0.0
1001
ACAD
1000
AcDbSavedByObjectVersion
1070
     0
  0
VISUALSTYLE
  5
1BB44
102
{ACAD_XDICTIONARY
360
1BBAB
102
}
102
{ACAD_REACTORS
330
1BB35
102
}
330
1BB35
100
AcDbVisualStyle
  2
Facepattern
 70
    15
 71
     2
 72
     2
 73
     0
 90
        0
 40
-0.6
 41
-30.0
 62
     5
 63
     7
 74
     1
 91
        4
 64
     7
 65
   257
 75
     1
175
     1
 42
1.0
 92
        8
 66
     7
 43
1.0
 76
     1
 77
     6
 78
     2
 67
     7
 79
     5
170
     0
171
     0
290
     0
174
     0
 93
        1
 44
0.0
173
     0
291
     1
 45
0.0
1001
ACAD
1000
AcDbSavedByObjectVersion
1070
     0
  0
VISUALSTYLE
  5
1BB36
102
{ACAD_XDICTIONARY
360
1BB8F
102
}
102
{ACAD_REACTORS
330
1BB35
102
}
330
1BB35
100
AcDbVisualStyle
  2
Flat
 70
     0
 71
     2
 72
     1
 73
     1
 90
        2
 40
-0.6
 41
30.0
 62
     5
 63
     7
 74
     0
 91
        0
 64
     7
 65
   257
 75
     1
175
     1
 42
1.0
 92
        8
 66
     7
 43
1.0
 76
     1
 77
     6
 78
     2
 67
     7
 79
     5
170
     0
171
     0
290
     0
174
     0
 93
       13
 44
0.0
173
     0
291
     1
 45
0.0
1001
ACAD
1000
AcDbSavedByObjectVersion
1070
     0
  0
VISUALSTYLE
  5
1BB37
102
{ACAD_XDICTIONARY
360
1BB91
102
}
102
{ACAD_REACTORS
330
1BB35
102
}
330
1BB35
100
AcDbVisualStyle
  2
FlatWithEdges
 70
     1
 71
     2
 72
     1
 73
     1
 90
        2
 40
-0.6
 41
30.0
 62
     5
 63
     7
 74
     1
 91
        0
 64
     7
 65
   257
 75
     1
175
     1
 42
1.0
 92
        0
 66
   257
 43
1.0
 76
     1
 77
     6
 78
     2
 67
     7
 79
     5
170
     0
171
     0
290
     0
174
     0
 93
       13
 44
0.0
173
     0
291
     1
 45
0.0
1001
ACAD
1000
AcDbSavedByObjectVersion
1070
     0
  0
VISUALSTYLE
  5
1BB38
102
{ACAD_XDICTIONARY
360
1BB93
102
}
102
{ACAD_REACTORS
330
1BB35
102
}
330
1BB35
100
AcDbVisualStyle
  2
Gouraud
 70
     2
 71
     2
 72
     2
 73
     1
 90
        2
 40
-0.6
 41
30.0
 62
     5
 63
     7
 74
     0
 91
        0
 64
     7
 65
   257
 75
     1
175
     1
 42
1.0
 92
        0
 66
     7
 43
1.0
 76
     1
 77
     6
 78
     2
 67
     7
 79
     5
170
     0
171
     0
290
     0
174
     0
 93
       13
 44
0.0
173
     0
291
     1
 45
0.0
1001
ACAD
1000
AcDbSavedByObjectVersion
1070
     0
  0
VISUALSTYLE
  5
1BB39
102
{ACAD_XDICTIONARY
360
1BB95
102
}
102
{ACAD_REACTORS
330
1BB35
102
}
330
1BB35
100
AcDbVisualStyle
  2
GouraudWithEdges
 70
     3
 71
     2
 72
     2
 73
     1
 90
        2
 40
-0.6
 41
30.0
 62
     5
 63
     7
 74
     1
 91
        0
 64
     7
 65
   257
 75
     1
175
     1
 42
1.0
 92
        0
 66
   257
 43
1.0
 76
     1
 77
     6
 78
     2
 67
     7
 79
     5
170
     0
171
     0
290
     0
174
     0
 93
       13
 44
0.0
173
     0
291
     1
 45
0.0
1001
ACAD
1000
AcDbSavedByObjectVersion
1070
     0
  0
VISUALSTYLE
  5
1BB3D
102
{ACAD_XDICTIONARY
360
1BB9D
102
}
102
{ACAD_REACTORS
330
1BB35
102
}
330
1BB35
100
AcDbVisualStyle
  2
Hidden
 70
     6
 71
     1
 72
     2
 73
     2
 90
        0
 40
-0.6
 41
-30.0
 62
     5
 63
     7
 74
     2
 91
        2
 64
     7
 65
   257
 75
     2
175
     1
 42
40.0
 92
        0
 66
   257
 43
1.0
 76
     1
 77
     6
 78
     2
 67
     7
 79
     3
170
     0
171
     0
290
     0
174
     0
 93
        1
 44
0.0
173
     0
291
     0
 45
0.0
1001
ACAD
1000
AcDbSavedByObjectVersion
1070
     0
  0
VISUALSTYLE
  5
1BB4B
102
{ACAD_XDICTIONARY
360
1BBB9
102
}
102
{ACAD_REACTORS
330
1BB35
102
}
330
1BB35
100
AcDbVisualStyle
  2
JitterOff
 70
    20
 71
     2
 72
     2
 73
     0
 90
        0
 40
-0.6
 41
-30.0
 62
     5
 63
     7
 74
     1
 91
        4
 64
     7
 65
   257
 75
     1
175
     1
 42
1.0
 92
       10
 66
     7
 43
1.0
 76
     1
 77
     6
 78
     2
 67
     7
 79
     5
170
     0
171
     0
290
     0
174
     0
 93
        1
 44
0.0
173
     0
291
     1
 45
0.0
1001
ACAD
1000
AcDbSavedByObjectVersion
1070
     0
  0
VISUALSTYLE
  5
1BB43
102
{ACAD_XDICTIONARY
360
1BBA9
102
}
102
{ACAD_REACTORS
330
1BB35
102
}
330
1BB35
100
AcDbVisualStyle
  2
Linepattern
 70
    14
 71
     2
 72
     2
 73
     0
 90
        0
 40
-0.6
 41
-30.0
 62
     5
 63
     7
 74
     1
 91
        4
 64
     7
 65
   257
 75
     7
175
     7
 42
1.0
 92
        8
 66
     7
 43
1.0
 76
     1
 77
     6
 78
     2
 67
     7
 79
     5
170
     0
171
     0
290
     0
174
     0
 93
        1
 44
0.0
173
     0
291
     1
 45
0.0
1001
ACAD
1000
AcDbSavedByObjectVersion
1070
     0
  0
VISUALSTYLE
  5
1BB4C
102
{ACAD_XDICTIONARY
360
1BBBB
102
}
102
{ACAD_REACTORS
330
1BB35
102
}
330
1BB35
100
AcDbVisualStyle
  2
OverhangOff
 70
    21
 71
     2
 72
     2
 73
     0
 90
        0
 40
-0.6
 41
-30.0
 62
     5
 63
     7
 74
     1
 91
        4
 64
     7
 65
   257
 75
     1
175
     1
 42
1.0
 92
        9
 66
     7
 43
1.0
 76
     1
 77
     6
 78
     2
 67
     7
 79
     5
170
     0
171
     0
290
     0
174
     0
 93
        1
 44
0.0
173
     0
291
     1
 45
0.0
1001
ACAD
1000
AcDbSavedByObjectVersion
1070
     0
  0
VISUALSTYLE
  5
1BB3F
102
{ACAD_XDICTIONARY
360
1BBA1
102
}
102
{ACAD_REACTORS
330
1BB35
102
}
330
1BB35
100
AcDbVisualStyle
  2
Realistic
 70
     8
 71
     2
 72
     3
 73
     0
 90
        2
 40
-0.6
 41
30.0
 62
     5
 63
     7
 74
     0
 91
        0
 64
     7
 65
   257
 75
     1
175
     1
 42
1.0
 92
        8
 66
   257
 43
1.0
 76
     1
 77
     6
 78
     2
 67
     7
 79
     3
170
     0
171
     0
290
     0
174
     0
 93
       13
 44
0.0
173
     0
291
     0
 45
0.0
1001
ACAD
1000
AcDbSavedByObjectVersion
1070
     0
  0
VISUALSTYLE
  5
1BB4A
102
{ACAD_XDICTIONARY
360
1BBB7
102
}
102
{ACAD_REACTORS
330
1BB35
102
}
330
1BB35
100
AcDbVisualStyle
  2
Shaded
 70
    27
 71
     2
 72
     2
 73
     1
 90
        2
 40
-0.6
 41
30.0
 62
     5
 63
     7
 74
     0
 91
        4
 64
     7
 65
   257
 75
     1
175
     1
 42
1.0
 92
        8
 66
   257
 43
1.0
 76
     1
 77
     6
 78
     2
 67
     8
 79
     3
170
     0
171
     0
290
     0
174
     0
 93
        5
 44
0.0
173
     0
291
     0
 45
0.0
1001
ACAD
1000
AcDbSavedByObjectVersion
1070
     0
  0
VISUALSTYLE
  5
1BB49
102
{ACAD_XDICTIONARY
360
1BBB5
102
}
102
{ACAD_REACTORS
330
1BB35
102
}
330
1BB35
100
AcDbVisualStyle
  2
Shaded with edges
 70
    26
 71
     2
 72
     2
 73
     1
 90
        2
 40
-0.6
 41
30.0
 62
     5
 63
     7
 74
     1
 91
       10
 64
     7
 65
   257
 75
     2
175
     1
 42
1.0
 92
        8
 66
   257
 43
1.0
 76
     1
 77
     6
 78
     2
 67
     7
 79
     3
170
     0
171
     0
290
     0
174
     0
 93
        5
 44
0.0
173
     0
291
     0
 45
0.0
1001
ACAD
1000
AcDbSavedByObjectVersion
1070
     0
  0
VISUALSTYLE
  5
1BB46
102
{ACAD_XDICTIONARY
360
1BBAF
102
}
102
{ACAD_REACTORS
330
1BB35
102
}
330
1BB35
100
AcDbVisualStyle
  2
Shades of Gray
 70
    23
 71
     2
 72
     2
 73
     3
 90
        0
 40
-0.6
 41
-30.0
 62
     5
 63
     7
 74
     2
 91
        2
 64
     7
 65
     7
 75
     1
175
     1
 42
40.0
 92
        8
 66
     7
 43
1.0
 76
     1
 77
     6
 78
     2
 67
     7
 79
     3
170
     0
171
     0
290
     0
174
     0
 93
        1
 44
0.0
173
     0
291
     0
 45
0.0
1001
ACAD
1000
AcDbSavedByObjectVersion
1070
     0
  0
VISUALSTYLE
  5
1BB47
102
{ACAD_XDICTIONARY
360
1BBB1
102
}
102
{ACAD_REACTORS
330
1BB35
102
}
330
1BB35
100
AcDbVisualStyle
  2
Sketchy
 70
    24
 71
     1
 72
     2
 73
     2
 90
        0
 40
-0.6
 41
-30.0
 62
     5
 63
     7
 74
     2
 91
        2
 64
     7
 65
     7
 75
     1
175
     1
 42
40.0
 92
       11
 66
     7
 43
1.0
 76
     1
 77
     6
 78
     2
 67
     7
 79
     6
170
     0
171
     0
290
     0
174
     0
 93
        1
 44
0.0
173
     0
291
     0
 45
0.0
1001
ACAD
1000
AcDbSavedByObjectVersion
1070
     0
  0
VISUALSTYLE
  5
1BB42
102
{ACAD_XDICTIONARY
360
1BBA7
102
}
102
{ACAD_REACTORS
330
1BB35
102
}
330
1BB35
100
AcDbVisualStyle
  2
Thicken
 70
    13
 71
     2
 72
     2
 73
     0
 90
        0
 40
-0.6
 41
-30.0
 62
     5
 63
     7
 74
     1
 91
        4
 64
     7
 65
   257
 75
     1
175
     1
 42
1.0
 92
       12
 66
     7
 43
1.0
 76
     1
 77
     6
 78
     2
 67
     7
 79
     5
170
     0
171
     0
290
     0
174
     0
 93
        1
 44
0.0
173
     0
291
     1
 45
0.0
1001
ACAD
1000
AcDbSavedByObjectVersion
1070
     0
  0
VISUALSTYLE
  5
1BB3C
102
{ACAD_XDICTIONARY
360
1BB9B
102
}
102
{ACAD_REACTORS
330
1BB35
102
}
330
1BB35
100
AcDbVisualStyle
  2
Wireframe
 70
     5
 71
     0
 72
     2
 73
     0
 90
        0
 40
-0.6
 41
-30.0
 62
     5
 63
     7
 74
     1
 91
        4
 64
     7
 65
   257
 75
     1
175
     1
 42
1.0
 92
        0
 66
   257
 43
1.0
 76
     1
 77
     6
 78
     2
 67
     7
 79
     3
170
     0
171
     0
290
     0
174
     0
 93
        1
 44
0.0
173
     0
291
     0
 45
0.0
1001
ACAD
1000
AcDbSavedByObjectVersion
1070
     0
  0
VISUALSTYLE
  5
1BB48
102
{ACAD_XDICTIONARY
360
1BBB3
102
}
102
{ACAD_REACTORS
330
1BB35
102
}
330
1BB35
100
AcDbVisualStyle
  2
X-Ray
 70
    25
 71
     2
 72
     2
 73
     1
 90
        1
 40
0.5
 41
-30.0
 62
     5
 63
     7
 74
     1
 91
        0
 64
     7
 65
   257
 75
     1
175
     1
 42
1.0
 92
        8
 66
     7
 43
1.0
 76
     1
 77
     6
 78
     2
 67
     7
 79
     3
170
     0
171
     0
290
     0
174
     0
 93
       13
 44
0.0
173
     0
291
     0
 45
0.0
1001
ACAD
1000
AcDbSavedByObjectVersion
1070
     0
  0
DICTIONARYVAR
  5
1BB82
102
{ACAD_REACTORS
330
1BB7D
102
}
330
1BB7D
100
DictionaryVariables
280
     0
  1
1:1
  0
DICTIONARYVAR
  5
1BB7F
102
{ACAD_REACTORS
330
1BB7D
102
}
330
1BB7D
100
DictionaryVariables
280
     0
  1
STANDARD
  0
DICTIONARYVAR
  5
1BB7E
102
{ACAD_REACTORS
330
1BB7D
102
}
330
1BB7D
100
DictionaryVariables
280
     0
  1
STANDARD
  0
DICTIONARYVAR
  5
1BB80
102
{ACAD_REACTORS
330
1BB7D
102
}
330
1BB7D
100
DictionaryVariables
280
     0
  1
Imperial24
  0
DICTIONARYVAR
  5
1BB81
102
{ACAD_REACTORS
330
1BB7D
102
}
330
1BB7D
100
DictionaryVariables
280
     0
  1
Imperial24
  0
DICTIONARYVAR
  5
1BB85
102
{ACAD_REACTORS
330
1BB7D
102
}
330
1BB7D
100
DictionaryVariables
280
     0
  1
1
  0
DICTIONARYVAR
  5
1BB84
102
{ACAD_REACTORS
330
1BB7D
102
}
330
1BB7D
100
DictionaryVariables
280
     0
  1
0
  0
DICTIONARYVAR
  5
1BB83
102
{ACAD_REACTORS
330
1BB7D
102
}
330
1BB7D
100
DictionaryVariables
280
     0
  1
127
  0
DICTIONARYVAR
  5
1BB86
102
{ACAD_REACTORS
330
1BB7D
102
}
330
1BB7D
100
DictionaryVariables
280
     0
  1
2
  0
DICTIONARY
  5
1BBC3
330
1BB68
100
AcDbDictionary
280
     1
281
     1
  3
ACAD_XREC_ROUNDTRIP
360
1BBC4
  0
DICTIONARY
  5
1BBC5
330
1BB69
100
AcDbDictionary
280
     1
281
     1
  3
ACAD_XREC_ROUNDTRIP
360
1BBC6
  0
DICTIONARY
  5
1BBC7
330
1BB6A
100
AcDbDictionary
280
     1
281
     1
  3
ACAD_XREC_ROUNDTRIP
360
1BBC8
  0
DICTIONARY
  5
1BB26
330
1BB25
100
AcDbDictionary
280
     1
281
     1
  3
ACAD_XREC_ROUNDTRIP
360
1BB8D
  3
BUMPTILE
360
1BB28
  3
DIFFUSETILE
360
1BB27
  3
OPACITYTILE
360
1BB2B
  3
REFLECTIONTILE
360
1BB2A
  3
REFRACTIONTILE
360
1BB2C
  3
SPECULARTILE
360
1BB29
  0
DICTIONARY
  5
1BB1E
330
1BB1D
100
AcDbDictionary
280
     1
281
     1
  3
ACAD_XREC_ROUNDTRIP
360
1BB8C
  3
BUMPTILE
360
1BB20
  3
DIFFUSETILE
360
1BB1F
  3
OPACITYTILE
360
1BB23
  3
REFLECTIONTILE
360
1BB22
  3
REFRACTIONTILE
360
1BB24
  3
SPECULARTILE
360
1BB21
  0
DICTIONARY
  5
1BB2E
330
1BB2D
100
AcDbDictionary
280
     1
281
     1
  3
ACAD_XREC_ROUNDTRIP
360
1BB8E
  3
BUMPTILE
360
1BB30
  3
DIFFUSETILE
360
1BB2F
  3
OPACITYTILE
360
1BB33
  3
REFLECTIONTILE
360
1BB32
  3
REFRACTIONTILE
360
1BB34
  3
SPECULARTILE
360
1BB31
  0
DICTIONARY
  5
1BBC1
330
1BB66
100
AcDbDictionary
280
     1
281
     1
  3
ACAD_XREC_ROUNDTRIP
360
1BBC2
  0
DICTIONARY
  5
1BB88
330
1BB50
100
AcDbDictionary
280
     1
281
     1
  3
ACAD_ROUNDTRIP_2008_TABLESTYLE_CELLSTYLEMAP
360
1BB89
  3
ACAD_XREC_ROUNDTRIP
360
1BBBF
  0
DICTIONARY
  5
1BB99
330
1BB3B
100
AcDbDictionary
280
     1
281
     1
  3
ACAD_XREC_ROUNDTRIP
360
1BB9A
  0
DICTIONARY
  5
1BB97
330
1BB3A
100
AcDbDictionary
280
     1
281
     1
  3
ACAD_XREC_ROUNDTRIP
360
1BB98
  0
DICTIONARY
  5
1BBA5
330
1BB41
100
AcDbDictionary
280
     1
281
     1
  3
ACAD_XREC_ROUNDTRIP
360
1BBA6
  0
DICTIONARY
  5
1BBAD
330
1BB45
100
AcDbDictionary
280
     1
281
     1
  3
ACAD_XREC_ROUNDTRIP
360
1BBAE
  0
DICTIONARY
  5
1BB9F
330
1BB3E
100
AcDbDictionary
280
     1
281
     1
  3
ACAD_XREC_ROUNDTRIP
360
1BBA0
  0
DICTIONARY
  5
1BBA3
330
1BB40
100
AcDbDictionary
280
     1
281
     1
  3
ACAD_XREC_ROUNDTRIP
360
1BBA4
  0
DICTIONARY
  5
1BBBD
330
1BB4D
100
AcDbDictionary
280
     1
281
     1
  3
ACAD_XREC_ROUNDTRIP
360
1BBBE
  0
DICTIONARY
  5
1BBAB
330
1BB44
100
AcDbDictionary
280
     1
281
     1
  3
ACAD_XREC_ROUNDTRIP
360
1BBAC
  0
DICTIONARY
  5
1BB8F
330
1BB36
100
AcDbDictionary
280
     1
281
     1
  3
ACAD_XREC_ROUNDTRIP
360
1BB90
  0
DICTIONARY
  5
1BB91
330
1BB37
100
AcDbDictionary
280
     1
281
     1
  3
ACAD_XREC_ROUNDTRIP
360
1BB92
  0
DICTIONARY
  5
1BB93
330
1BB38
100
AcDbDictionary
280
     1
281
     1
  3
ACAD_XREC_ROUNDTRIP
360
1BB94
  0
DICTIONARY
  5
1BB95
330
1BB39
100
AcDbDictionary
280
     1
281
     1
  3
ACAD_XREC_ROUNDTRIP
360
1BB96
  0
DICTIONARY
  5
1BB9D
330
1BB3D
100
AcDbDictionary
280
     1
281
     1
  3
ACAD_XREC_ROUNDTRIP
360
1BB9E
  0
DICTIONARY
  5
1BBB9
330
1BB4B
100
AcDbDictionary
280
     1
281
     1
  3
ACAD_XREC_ROUNDTRIP
360
1BBBA
  0
DICTIONARY
  5
1BBA9
330
1BB43
100
AcDbDictionary
280
     1
281
     1
  3
ACAD_XREC_ROUNDTRIP
360
1BBAA
  0
DICTIONARY
  5
1BBBB
330
1BB4C
100
AcDbDictionary
280
     1
281
     1
  3
ACAD_XREC_ROUNDTRIP
360
1BBBC
  0
DICTIONARY
  5
1BBA1
330
1BB3F
100
AcDbDictionary
280
     1
281
     1
  3
ACAD_XREC_ROUNDTRIP
360
1BBA2
  0
DICTIONARY
  5
1BBB7
330
1BB4A
100
AcDbDictionary
280
     1
281
     1
  3
ACAD_XREC_ROUNDTRIP
360
1BBB8
  0
DICTIONARY
  5
1BBB5
330
1BB49
100
AcDbDictionary
280
     1
281
     1
  3
ACAD_XREC_ROUNDTRIP
360
1BBB6
  0
DICTIONARY
  5
1BBAF
330
1BB46
100
AcDbDictionary
280
     1
281
     1
  3
ACAD_XREC_ROUNDTRIP
360
1BBB0
  0
DICTIONARY
  5
1BBB1
330
1BB47
100
AcDbDictionary
280
     1
281
     1
  3
ACAD_XREC_ROUNDTRIP
360
1BBB2
  0
DICTIONARY
  5
1BBA7
330
1BB42
100
AcDbDictionary
280
     1
281
     1
  3
ACAD_XREC_ROUNDTRIP
360
1BBA8
  0
DICTIONARY
  5
1BB9B
330
1BB3C
100
AcDbDictionary
280
     1
281
     1
  3
ACAD_XREC_ROUNDTRIP
360
1BB9C
  0
DICTIONARY
  5
1BBB3
330
1BB48
100
AcDbDictionary
280
     1
281
     1
  3
ACAD_XREC_ROUNDTRIP
360
1BBB4
  0
XRECORD
  5
1BBC4
102
{ACAD_REACTORS
330
1BBC3
102
}
330
1BBC3
100
AcDbXrecord
280
     1
102
DISPLAYNAME
  1
Imperial24
102
FLAGS
 90
        0
  0
XRECORD
  5
1BBC6
102
{ACAD_REACTORS
330
1BBC5
102
}
330
1BBC5
100
AcDbXrecord
280
     1
102
SHADEPLOT
 70
     0
102
SHADEPLOTRESLEVEL
 70
     2
102
SHADEPLOTCUSTOMDPI
 70
   300
  0
XRECORD
  5
1BBC8
102
{ACAD_REACTORS
330
1BBC7
102
}
330
1BBC7
100
AcDbXrecord
280
     1
102
SHADEPLOT
 70
     0
102
SHADEPLOTRESLEVEL
 70
     2
102
SHADEPLOTCUSTOMDPI
 70
   300
  0
XRECORD
  5
1BB8D
102
{ACAD_REACTORS
330
1BB26
102
}
330
1BB26
100
AcDbXrecord
280
     1
102
MATERIAL
148
0.0
149
0.0
149
0.0
 93
        0
 94
      127
282
     0
 72
     0
 77
     0
171
     0
175
     0
179
     0
273
     0
  0
XRECORD
  5
1BB28
102
{ACAD_REACTORS
330
1BB26
102
}
330
1BB26
100
AcDbXrecord
280
     1
270
     1
271
     1
  0
XRECORD
  5
1BB27
102
{ACAD_REACTORS
330
1BB26
102
}
330
1BB26
100
AcDbXrecord
280
     1
270
     1
271
     1
  0
XRECORD
  5
1BB2B
102
{ACAD_REACTORS
330
1BB26
102
}
330
1BB26
100
AcDbXrecord
280
     1
270
     1
271
     1
  0
XRECORD
  5
1BB2A
102
{ACAD_REACTORS
330
1BB26
102
}
330
1BB26
100
AcDbXrecord
280
     1
270
     1
271
     1
  0
XRECORD
  5
1BB2C
102
{ACAD_REACTORS
330
1BB26
102
}
330
1BB26
100
AcDbXrecord
280
     1
270
     1
271
     1
  0
XRECORD
  5
1BB29
102
{ACAD_REACTORS
330
1BB26
102
}
330
1BB26
100
AcDbXrecord
280
     1
270
     1
271
     1
  0
XRECORD
  5
1BB8C
102
{ACAD_REACTORS
330
1BB1E
102
}
330
1BB1E
100
AcDbXrecord
280
     1
102
MATERIAL
148
0.0
149
0.0
149
0.0
 93
        0
 94
      127
282
     0
 72
     0
 77
     0
171
     0
175
     0
179
     0
273
     0
  0
XRECORD
  5
1BB20
102
{ACAD_REACTORS
330
1BB1E
102
}
330
1BB1E
100
AcDbXrecord
280
     1
270
     1
271
     1
  0
XRECORD
  5
1BB1F
102
{ACAD_REACTORS
330
1BB1E
102
}
330
1BB1E
100
AcDbXrecord
280
     1
270
     1
271
     1
  0
XRECORD
  5
1BB23
102
{ACAD_REACTORS
330
1BB1E
102
}
330
1BB1E
100
AcDbXrecord
280
     1
270
     1
271
     1
  0
XRECORD
  5
1BB22
102
{ACAD_REACTORS
330
1BB1E
102
}
330
1BB1E
100
AcDbXrecord
280
     1
270
     1
271
     1
  0
XRECORD
  5
1BB24
102
{ACAD_REACTORS
330
1BB1E
102
}
330
1BB1E
100
AcDbXrecord
280
     1
270
     1
271
     1
  0
XRECORD
  5
1BB21
102
{ACAD_REACTORS
330
1BB1E
102
}
330
1BB1E
100
AcDbXrecord
280
     1
270
     1
271
     1
  0
XRECORD
  5
1BB8E
102
{ACAD_REACTORS
330
1BB2E
102
}
330
1BB2E
100
AcDbXrecord
280
     1
102
MATERIAL
148
0.0
149
0.0
149
0.0
 93
        0
 94
      127
282
     0
 72
     0
 77
     0
171
     0
175
     0
179
     0
273
     0
  0
XRECORD
  5
1BB30
102
{ACAD_REACTORS
330
1BB2E
102
}
330
1BB2E
100
AcDbXrecord
280
     1
270
     1
271
     1
  0
XRECORD
  5
1BB2F
102
{ACAD_REACTORS
330
1BB2E
102
}
330
1BB2E
100
AcDbXrecord
280
     1
270
     1
271
     1
  0
XRECORD
  5
1BB33
102
{ACAD_REACTORS
330
1BB2E
102
}
330
1BB2E
100
AcDbXrecord
280
     1
270
     1
271
     1
  0
XRECORD
  5
1BB32
102
{ACAD_REACTORS
330
1BB2E
102
}
330
1BB2E
100
AcDbXrecord
280
     1
270
     1
271
     1
  0
XRECORD
  5
1BB34
102
{ACAD_REACTORS
330
1BB2E
102
}
330
1BB2E
100
AcDbXrecord
280
     1
270
     1
271
     1
  0
XRECORD
  5
1BB31
102
{ACAD_REACTORS
330
1BB2E
102
}
330
1BB2E
100
AcDbXrecord
280
     1
270
     1
271
     1
  0
XRECORD
  5
1BBC2
102
{ACAD_REACTORS
330
1BBC1
102
}
330
1BBC1
100
AcDbXrecord
280
     1
102
DISPLAYNAME
  1
Imperial24
102
FLAGS
 90
        0
  0
CELLSTYLEMAP
  5
1BB89
102
{ACAD_REACTORS
330
1BB88
102
}
330
1BB88
100
AcDbCellStyleMap
 90
        3
300
CELLSTYLE
  1
TABLEFORMAT_BEGIN
 90
        5
170
     1
 91
        0
 92
    32768
 62
   257
 93
        1
300
CONTENTFORMAT
  1
CONTENTFORMAT_BEGIN
 90
        0
 91
        0
 92
      512
 93
        0
300

 40
0.0
140
1.0
 94
        5
 62
     0
340
1B71A
144
0.25
309
CONTENTFORMAT_END
171
     0
 94
        0
309
TABLEFORMAT_END
  1
CELLSTYLE_BEGIN
 90
        1
 91
        1
300
_TITLE
309
CELLSTYLE_END
300
CELLSTYLE
  1
TABLEFORMAT_BEGIN
 90
        5
170
     1
 91
        0
 92
        0
 62
   257
 93
        1
300
CONTENTFORMAT
  1
CONTENTFORMAT_BEGIN
 90
        0
 91
        0
 92
      512
 93
        0
300

 40
0.0
140
1.0
 94
        5
 62
     0
340
1B71A
144
0.18
309
CONTENTFORMAT_END
171
     0
 94
        0
309
TABLEFORMAT_END
  1
CELLSTYLE_BEGIN
 90
        2
 91
        1
300
_HEADER
309
CELLSTYLE_END
300
CELLSTYLE
  1
TABLEFORMAT_BEGIN
 90
        5
170
     1
 91
        0
 92
        0
 62
   257
 93
        1
300
CONTENTFORMAT
  1
CONTENTFORMAT_BEGIN
 90
        0
 91
        0
 92
      512
 93
        0
300

 40
0.0
140
1.0
 94
        2
 62
     0
340
1B71A
144
0.18
309
CONTENTFORMAT_END
171
     0
 94
        0
309
TABLEFORMAT_END
  1
CELLSTYLE_BEGIN
 90
        3
 91
        2
300
_DATA
309
CELLSTYLE_END
  0
XRECORD
  5
1BBBF
102
{ACAD_REACTORS
330
1BB88
102
}
330
1BB88
100
AcDbXrecord
280
     1
102
ACAD_ROUNDTRIP_PRE2007_TABLESTYLE
 90
      512
 91
        0
  1

 92
      512
 93
        0
  2

 94
      512
 95
        0
  3

  0
XRECORD
  5
1BB9A
102
{ACAD_REACTORS
330
1BB99
102
}
330
1BB99
100
AcDbXrecord
280
     1
102
RTVSPost2010Prop28
280
     1
102
RTVSPost2010PropOp28
 70
     1
102
RTVSPost2010Prop29
280
     1
102
RTVSPost2010PropOp29
 70
     1
102
RTVSPost2010Prop30
280
     0
102
RTVSPost2010PropOp30
 70
     1
102
RTVSPost2010Prop31
280
     0
102
RTVSPost2010PropOp31
 70
     1
102
RTVSPost2010Prop32
280
     0
102
RTVSPost2010PropOp32
 70
     1
102
RTVSPost2010Prop33
280
     0
102
RTVSPost2010PropOp33
 70
     1
102
RTVSPost2010Prop34
280
     0
102
RTVSPost2010PropOp34
 70
     1
102
RTVSPost2010Prop35
280
     0
102
RTVSPost2010PropOp35
 70
     1
102
RTVSPost2010Prop36
280
     0
102
RTVSPost2010PropOp36
 70
     1
102
RTVSPost2010Prop37
 90
       50
102
RTVSPost2010PropOp37
 70
     1
102
RTVSPost2010Prop38
140
0.0
102
RTVSPost2010PropOp38
 70
     1
102
RTVSPost2010Prop39
140
1.0
102
RTVSPost2010PropOp39
 70
     1
102
RTVSPost2010Prop40
 90
        0
102
RTVSPost2010PropOp40
 70
     1
102
RTVSPost2010Prop41ColorIndex
 90
       18
102
RTVSPost2010Prop41ColorRGB
 90
        0
102
RTVSPost2010PropOp41
 70
     1
102
RTVSPost2010Prop42
 90
       50
102
RTVSPost2010PropOp42
 70
     1
102
RTVSPost2010Prop43
 90
        3
102
RTVSPost2010PropOp43
 70
     1
102
RTVSPost2010Prop44ColorIndex
 90
        5
102
RTVSPost2010Prop44ColorRGB
 90
      255
102
RTVSPost2010PropOp44
 70
     1
102
RTVSPost2010Prop45
280
     0
102
RTVSPost2010PropOp45
 70
     1
102
RTVSPost2010Prop46
 90
       50
102
RTVSPost2010PropOp46
 70
     1
102
RTVSPost2010Prop47
 90
       50
102
RTVSPost2010PropOp47
 70
     1
102
RTVSPost2010Prop48
 90
       50
102
RTVSPost2010PropOp48
 70
     1
102
RTVSPost2010Prop49
280
     0
102
RTVSPost2010PropOp49
 70
     1
102
RTVSPost2010Prop50
 90
       50
102
RTVSPost2010PropOp50
 70
     1
102
RTVSPost2010Prop51ColorIndex
 90
      256
102
RTVSPost2010Prop51ColorRGB
 90
-16777216
102
RTVSPost2010PropOp51
 70
     0
102
RTVSPost2010Prop52
140
1.0
102
RTVSPost2010PropOp52
 70
     0
102
RTVSPost2010Prop53
 90
        2
102
RTVSPost2010PropOp53
 70
     1
102
RTVSPost2010Prop54
  1
strokes_ogs.tif
102
RTVSPost2010PropOp54
 70
     1
102
RTVSPost2010Prop55
280
     0
102
RTVSPost2010PropOp55
 70
     1
102
RTVSPost2010Prop56
140
1.0
102
RTVSPost2010PropOp56
 70
     1
102
RTVSPost2010Prop57
140
1.0
102
RTVSPost2010PropOp57
 70
     1
102
RTVSPropertyOp0
 70
     1
102
RTVSPropertyOp1
 70
     1
102
RTVSPropertyOp2
 70
     1
102
RTVSPropertyOp3
 70
     1
102
RTVSPropertyOp4
 70
     1
102
RTVSPropertyOp5
 70
     1
102
RTVSPropertyOp6
 70
     1
102
RTVSPropertyOp7
 70
     1
102
RTVSPropertyOp8
 70
     1
102
RTVSPropertyOp9
 70
     1
102
RTVSPropertyOp10
 70
     1
102
RTVSPropertyOp11
 70
     1
102
RTVSPropertyOp12
 70
     1
102
RTVSPropertyOp13
 70
     1
102
RTVSPropertyOp14
 70
     1
102
RTVSPropertyOp15
 70
     1
102
RTVSPropertyOp16
 70
     1
102
RTVSPropertyOp17
 70
     1
102
RTVSPropertyOp18
 70
     1
102
RTVSPropertyOp19
 70
     1
102
RTVSPropertyOp20
 70
     1
102
RTVSPropertyOp21
 70
     1
102
RTVSPropertyOp22
 70
     1
102
RTVSPropertyOp23
 70
     1
102
RTVSPropertyOp24
 70
     1
102
RTVSPropertyOp25
 70
     1
102
RTVSPropertyOp26
 70
     1
102
RTVSPropertyOp27
 70
     1
102
RTVSPropertyOp28
 70
     1
102
RTVSPropertyOp29
 70
     1
102
RTVSPropertyOp30
 70
     1
102
RTVSPropertyOp31
 70
     1
102
RTVSPropertyOp32
 70
     1
102
RTVSPropertyOp33
 70
     1
102
RTVSPropertyOp34
 70
     1
102
RTVSPropertyOp35
 70
     1
102
RTVSPropertyOp36
 70
     1
102
RTVSPropertyOp37
 70
     1
102
RTVSPropertyOp38
 70
     1
102
RTVSPropertyOp39
 70
     1
102
RTVSPropertyOp40
 70
     1
102
RTVSPropertyOp41
 70
     1
102
RTVSPropertyOp42
 70
     1
102
RTVSPropertyOp43
 70
     1
102
RTVSPropertyOp44
 70
     1
102
RTVSPropertyOp45
 70
     1
102
RTVSPropertyOp46
 70
     1
102
RTVSPropertyOp47
 70
     1
102
RTVSPropertyOp48
 70
     1
102
RTVSPropertyOp49
 70
     1
102
RTVSPropertyOp50
 70
     1
102
RTVSPropertyOp51
 70
     0
102
RTVSPropertyOp52
 70
     0
102
RTVSPropertyOp53
 70
     1
102
RTVSPropertyOp54
 70
     1
102
RTVSPropertyOp55
 70
     1
102
RTVSPropertyOp56
 70
     1
102
RTVSPropertyOp57
 70
     1
102
RTVSPropertyOp58
 70
     1
102
RTVSPropertyOp59
 70
     1
102
RTVSPropertyOp60
 70
     1
102
RTVSPropertyOp61
 70
     1
102
RTVSPropertyOp62
 70
     1
  0
XRECORD
  5
1BB98
102
{ACAD_REACTORS
330
1BB97
102
}
330
1BB97
100
AcDbXrecord
280
     1
102
RTVSPost2010Prop28
280
     0
102
RTVSPost2010PropOp28
 70
     1
102
RTVSPost2010Prop29
280
     1
102
RTVSPost2010PropOp29
 70
     1
102
RTVSPost2010Prop30
280
     1
102
RTVSPost2010PropOp30
 70
     1
102
RTVSPost2010Prop31
280
     0
102
RTVSPost2010PropOp31
 70
     1
102
RTVSPost2010Prop32
280
     0
102
RTVSPost2010PropOp32
 70
     1
102
RTVSPost2010Prop33
280
     0
102
RTVSPost2010PropOp33
 70
     1
102
RTVSPost2010Prop34
280
     0
102
RTVSPost2010PropOp34
 70
     1
102
RTVSPost2010Prop35
280
     0
102
RTVSPost2010PropOp35
 70
     1
102
RTVSPost2010Prop36
280
     0
102
RTVSPost2010PropOp36
 70
     1
102
RTVSPost2010Prop37
 90
       50
102
RTVSPost2010PropOp37
 70
     1
102
RTVSPost2010Prop38
140
0.0
102
RTVSPost2010PropOp38
 70
     1
102
RTVSPost2010Prop39
140
1.0
102
RTVSPost2010PropOp39
 70
     1
102
RTVSPost2010Prop40
 90
        0
102
RTVSPost2010PropOp40
 70
     1
102
RTVSPost2010Prop41ColorIndex
 90
       18
102
RTVSPost2010Prop41ColorRGB
 90
        0
102
RTVSPost2010PropOp41
 70
     1
102
RTVSPost2010Prop42
 90
       50
102
RTVSPost2010PropOp42
 70
     1
102
RTVSPost2010Prop43
 90
        3
102
RTVSPost2010PropOp43
 70
     1
102
RTVSPost2010Prop44ColorIndex
 90
        5
102
RTVSPost2010Prop44ColorRGB
 90
      255
102
RTVSPost2010PropOp44
 70
     1
102
RTVSPost2010Prop45
280
     0
102
RTVSPost2010PropOp45
 70
     1
102
RTVSPost2010Prop46
 90
       50
102
RTVSPost2010PropOp46
 70
     1
102
RTVSPost2010Prop47
 90
       50
102
RTVSPost2010PropOp47
 70
     1
102
RTVSPost2010Prop48
 90
       50
102
RTVSPost2010PropOp48
 70
     1
102
RTVSPost2010Prop49
280
     0
102
RTVSPost2010PropOp49
 70
     1
102
RTVSPost2010Prop50
 90
       50
102
RTVSPost2010PropOp50
 70
     1
102
RTVSPost2010Prop51ColorIndex
 90
      256
102
RTVSPost2010Prop51ColorRGB
 90
-16777216
102
RTVSPost2010PropOp51
 70
     0
102
RTVSPost2010Prop52
140
1.0
102
RTVSPost2010PropOp52
 70
     0
102
RTVSPost2010Prop53
 90
        2
102
RTVSPost2010PropOp53
 70
     1
102
RTVSPost2010Prop54
  1
strokes_ogs.tif
102
RTVSPost2010PropOp54
 70
     1
102
RTVSPost2010Prop55
280
     0
102
RTVSPost2010PropOp55
 70
     1
102
RTVSPost2010Prop56
140
1.0
102
RTVSPost2010PropOp56
 70
     1
102
RTVSPost2010Prop57
140
1.0
102
RTVSPost2010PropOp57
 70
     1
102
RTVSPropertyOp0
 70
     1
102
RTVSPropertyOp1
 70
     1
102
RTVSPropertyOp2
 70
     1
102
RTVSPropertyOp3
 70
     1
102
RTVSPropertyOp4
 70
     1
102
RTVSPropertyOp5
 70
     1
102
RTVSPropertyOp6
 70
     1
102
RTVSPropertyOp7
 70
     1
102
RTVSPropertyOp8
 70
     1
102
RTVSPropertyOp9
 70
     1
102
RTVSPropertyOp10
 70
     1
102
RTVSPropertyOp11
 70
     1
102
RTVSPropertyOp12
 70
     1
102
RTVSPropertyOp13
 70
     1
102
RTVSPropertyOp14
 70
     1
102
RTVSPropertyOp15
 70
     1
102
RTVSPropertyOp16
 70
     1
102
RTVSPropertyOp17
 70
     1
102
RTVSPropertyOp18
 70
     1
102
RTVSPropertyOp19
 70
     1
102
RTVSPropertyOp20
 70
     1
102
RTVSPropertyOp21
 70
     1
102
RTVSPropertyOp22
 70
     1
102
RTVSPropertyOp23
 70
     1
102
RTVSPropertyOp24
 70
     1
102
RTVSPropertyOp25
 70
     1
102
RTVSPropertyOp26
 70
     1
102
RTVSPropertyOp27
 70
     1
102
RTVSPropertyOp28
 70
     1
102
RTVSPropertyOp29
 70
     1
102
RTVSPropertyOp30
 70
     1
102
RTVSPropertyOp31
 70
     1
102
RTVSPropertyOp32
 70
     1
102
RTVSPropertyOp33
 70
     1
102
RTVSPropertyOp34
 70
     1
102
RTVSPropertyOp35
 70
     1
102
RTVSPropertyOp36
 70
     1
102
RTVSPropertyOp37
 70
     1
102
RTVSPropertyOp38
 70
     1
102
RTVSPropertyOp39
 70
     1
102
RTVSPropertyOp40
 70
     1
102
RTVSPropertyOp41
 70
     1
102
RTVSPropertyOp42
 70
     1
102
RTVSPropertyOp43
 70
     1
102
RTVSPropertyOp44
 70
     1
102
RTVSPropertyOp45
 70
     1
102
RTVSPropertyOp46
 70
     1
102
RTVSPropertyOp47
 70
     1
102
RTVSPropertyOp48
 70
     1
102
RTVSPropertyOp49
 70
     1
102
RTVSPropertyOp50
 70
     1
102
RTVSPropertyOp51
 70
     0
102
RTVSPropertyOp52
 70
     0
102
RTVSPropertyOp53
 70
     1
102
RTVSPropertyOp54
 70
     1
102
RTVSPropertyOp55
 70
     1
102
RTVSPropertyOp56
 70
     1
102
RTVSPropertyOp57
 70
     1
102
RTVSPropertyOp58
 70
     1
102
RTVSPropertyOp59
 70
     1
102
RTVSPropertyOp60
 70
     1
102
RTVSPropertyOp61
 70
     1
102
RTVSPropertyOp62
 70
     1
  0
XRECORD
  5
1BBA6
102
{ACAD_REACTORS
330
1BBA5
102
}
330
1BBA5
100
AcDbXrecord
280
     1
102
RTVSPost2010Prop28
280
     0
102
RTVSPost2010PropOp28
 70
     1
102
RTVSPost2010Prop29
280
     1
102
RTVSPost2010PropOp29
 70
     1
102
RTVSPost2010Prop30
280
     1
102
RTVSPost2010PropOp30
 70
     1
102
RTVSPost2010Prop31
280
     0
102
RTVSPost2010PropOp31
 70
     1
102
RTVSPost2010Prop32
280
     0
102
RTVSPost2010PropOp32
 70
     1
102
RTVSPost2010Prop33
280
     0
102
RTVSPost2010PropOp33
 70
     1
102
RTVSPost2010Prop34
280
     0
102
RTVSPost2010PropOp34
 70
     1
102
RTVSPost2010Prop35
280
     0
102
RTVSPost2010PropOp35
 70
     1
102
RTVSPost2010Prop36
280
     0
102
RTVSPost2010PropOp36
 70
     1
102
RTVSPost2010Prop37
 90
       50
102
RTVSPost2010PropOp37
 70
     1
102
RTVSPost2010Prop38
140
0.0
102
RTVSPost2010PropOp38
 70
     1
102
RTVSPost2010Prop39
140
1.0
102
RTVSPost2010PropOp39
 70
     1
102
RTVSPost2010Prop40
 90
        0
102
RTVSPost2010PropOp40
 70
     1
102
RTVSPost2010Prop41ColorIndex
 90
       18
102
RTVSPost2010Prop41ColorRGB
 90
        0
102
RTVSPost2010PropOp41
 70
     1
102
RTVSPost2010Prop42
 90
       50
102
RTVSPost2010PropOp42
 70
     1
102
RTVSPost2010Prop43
 90
        3
102
RTVSPost2010PropOp43
 70
     1
102
RTVSPost2010Prop44ColorIndex
 90
        5
102
RTVSPost2010Prop44ColorRGB
 90
      255
102
RTVSPost2010PropOp44
 70
     1
102
RTVSPost2010Prop45
280
     0
102
RTVSPost2010PropOp45
 70
     1
102
RTVSPost2010Prop46
 90
       50
102
RTVSPost2010PropOp46
 70
     1
102
RTVSPost2010Prop47
 90
       50
102
RTVSPost2010PropOp47
 70
     1
102
RTVSPost2010Prop48
 90
       50
102
RTVSPost2010PropOp48
 70
     1
102
RTVSPost2010Prop49
280
     0
102
RTVSPost2010PropOp49
 70
     1
102
RTVSPost2010Prop50
 90
       50
102
RTVSPost2010PropOp50
 70
     1
102
RTVSPost2010Prop51ColorIndex
 90
      256
102
RTVSPost2010Prop51ColorRGB
 90
-16777216
102
RTVSPost2010PropOp51
 70
     0
102
RTVSPost2010Prop52
140
1.0
102
RTVSPost2010PropOp52
 70
     0
102
RTVSPost2010Prop53
 90
        2
102
RTVSPost2010PropOp53
 70
     1
102
RTVSPost2010Prop54
  1
strokes_ogs.tif
102
RTVSPost2010PropOp54
 70
     1
102
RTVSPost2010Prop55
280
     0
102
RTVSPost2010PropOp55
 70
     1
102
RTVSPost2010Prop56
140
1.0
102
RTVSPost2010PropOp56
 70
     1
102
RTVSPost2010Prop57
140
1.0
102
RTVSPost2010PropOp57
 70
     1
102
RTVSPropertyOp0
 70
     1
102
RTVSPropertyOp1
 70
     1
102
RTVSPropertyOp2
 70
     1
102
RTVSPropertyOp3
 70
     1
102
RTVSPropertyOp4
 70
     1
102
RTVSPropertyOp5
 70
     1
102
RTVSPropertyOp6
 70
     1
102
RTVSPropertyOp7
 70
     1
102
RTVSPropertyOp8
 70
     1
102
RTVSPropertyOp9
 70
     1
102
RTVSPropertyOp10
 70
     1
102
RTVSPropertyOp11
 70
     1
102
RTVSPropertyOp12
 70
     1
102
RTVSPropertyOp13
 70
     1
102
RTVSPropertyOp14
 70
     1
102
RTVSPropertyOp15
 70
     1
102
RTVSPropertyOp16
 70
     1
102
RTVSPropertyOp17
 70
     1
102
RTVSPropertyOp18
 70
     1
102
RTVSPropertyOp19
 70
     1
102
RTVSPropertyOp20
 70
     1
102
RTVSPropertyOp21
 70
     1
102
RTVSPropertyOp22
 70
     1
102
RTVSPropertyOp23
 70
     1
102
RTVSPropertyOp24
 70
     1
102
RTVSPropertyOp25
 70
     1
102
RTVSPropertyOp26
 70
     1
102
RTVSPropertyOp27
 70
     1
102
RTVSPropertyOp28
 70
     1
102
RTVSPropertyOp29
 70
     1
102
RTVSPropertyOp30
 70
     1
102
RTVSPropertyOp31
 70
     1
102
RTVSPropertyOp32
 70
     1
102
RTVSPropertyOp33
 70
     1
102
RTVSPropertyOp34
 70
     1
102
RTVSPropertyOp35
 70
     1
102
RTVSPropertyOp36
 70
     1
102
RTVSPropertyOp37
 70
     1
102
RTVSPropertyOp38
 70
     1
102
RTVSPropertyOp39
 70
     1
102
RTVSPropertyOp40
 70
     1
102
RTVSPropertyOp41
 70
     1
102
RTVSPropertyOp42
 70
     1
102
RTVSPropertyOp43
 70
     1
102
RTVSPropertyOp44
 70
     1
102
RTVSPropertyOp45
 70
     1
102
RTVSPropertyOp46
 70
     1
102
RTVSPropertyOp47
 70
     1
102
RTVSPropertyOp48
 70
     1
102
RTVSPropertyOp49
 70
     1
102
RTVSPropertyOp50
 70
     1
102
RTVSPropertyOp51
 70
     0
102
RTVSPropertyOp52
 70
     0
102
RTVSPropertyOp53
 70
     1
102
RTVSPropertyOp54
 70
     1
102
RTVSPropertyOp55
 70
     1
102
RTVSPropertyOp56
 70
     1
102
RTVSPropertyOp57
 70
     1
102
RTVSPropertyOp58
 70
     1
102
RTVSPropertyOp59
 70
     1
102
RTVSPropertyOp60
 70
     1
102
RTVSPropertyOp61
 70
     1
102
RTVSPropertyOp62
 70
     1
  0
XRECORD
  5
1BBAE
102
{ACAD_REACTORS
330
1BBAD
102
}
330
1BBAD
100
AcDbXrecord
280
     1
102
RTVSPost2010Prop28
280
     0
102
RTVSPost2010PropOp28
 70
     1
102
RTVSPost2010Prop29
280
     1
102
RTVSPost2010PropOp29
 70
     1
102
RTVSPost2010Prop30
280
     1
102
RTVSPost2010PropOp30
 70
     1
102
RTVSPost2010Prop31
280
     0
102
RTVSPost2010PropOp31
 70
     1
102
RTVSPost2010Prop32
280
     0
102
RTVSPost2010PropOp32
 70
     1
102
RTVSPost2010Prop33
280
     0
102
RTVSPost2010PropOp33
 70
     1
102
RTVSPost2010Prop34
280
     0
102
RTVSPost2010PropOp34
 70
     1
102
RTVSPost2010Prop35
280
     0
102
RTVSPost2010PropOp35
 70
     1
102
RTVSPost2010Prop36
280
     0
102
RTVSPost2010PropOp36
 70
     1
102
RTVSPost2010Prop37
 90
       50
102
RTVSPost2010PropOp37
 70
     1
102
RTVSPost2010Prop38
140
0.0
102
RTVSPost2010PropOp38
 70
     1
102
RTVSPost2010Prop39
140
1.0
102
RTVSPost2010PropOp39
 70
     1
102
RTVSPost2010Prop40
 90
        0
102
RTVSPost2010PropOp40
 70
     1
102
RTVSPost2010Prop41ColorIndex
 90
       18
102
RTVSPost2010Prop41ColorRGB
 90
        0
102
RTVSPost2010PropOp41
 70
     1
102
RTVSPost2010Prop42
 90
       50
102
RTVSPost2010PropOp42
 70
     1
102
RTVSPost2010Prop43
 90
        3
102
RTVSPost2010PropOp43
 70
     1
102
RTVSPost2010Prop44ColorIndex
 90
        5
102
RTVSPost2010Prop44ColorRGB
 90
      255
102
RTVSPost2010PropOp44
 70
     1
102
RTVSPost2010Prop45
280
     0
102
RTVSPost2010PropOp45
 70
     1
102
RTVSPost2010Prop46
 90
       50
102
RTVSPost2010PropOp46
 70
     1
102
RTVSPost2010Prop47
 90
       50
102
RTVSPost2010PropOp47
 70
     1
102
RTVSPost2010Prop48
 90
       50
102
RTVSPost2010PropOp48
 70
     1
102
RTVSPost2010Prop49
280
     0
102
RTVSPost2010PropOp49
 70
     1
102
RTVSPost2010Prop50
 90
       50
102
RTVSPost2010PropOp50
 70
     1
102
RTVSPost2010Prop51ColorIndex
 90
      256
102
RTVSPost2010Prop51ColorRGB
 90
-16777216
102
RTVSPost2010PropOp51
 70
     0
102
RTVSPost2010Prop52
140
1.0
102
RTVSPost2010PropOp52
 70
     0
102
RTVSPost2010Prop53
 90
        2
102
RTVSPost2010PropOp53
 70
     1
102
RTVSPost2010Prop54
  1
strokes_ogs.tif
102
RTVSPost2010PropOp54
 70
     1
102
RTVSPost2010Prop55
280
     0
102
RTVSPost2010PropOp55
 70
     1
102
RTVSPost2010Prop56
140
1.0
102
RTVSPost2010PropOp56
 70
     1
102
RTVSPost2010Prop57
140
1.0
102
RTVSPost2010PropOp57
 70
     1
102
RTVSPropertyOp0
 70
     1
102
RTVSPropertyOp1
 70
     1
102
RTVSPropertyOp2
 70
     1
102
RTVSPropertyOp3
 70
     1
102
RTVSPropertyOp4
 70
     1
102
RTVSPropertyOp5
 70
     1
102
RTVSPropertyOp6
 70
     1
102
RTVSPropertyOp7
 70
     1
102
RTVSPropertyOp8
 70
     1
102
RTVSPropertyOp9
 70
     1
102
RTVSPropertyOp10
 70
     1
102
RTVSPropertyOp11
 70
     1
102
RTVSPropertyOp12
 70
     1
102
RTVSPropertyOp13
 70
     1
102
RTVSPropertyOp14
 70
     1
102
RTVSPropertyOp15
 70
     1
102
RTVSPropertyOp16
 70
     1
102
RTVSPropertyOp17
 70
     1
102
RTVSPropertyOp18
 70
     1
102
RTVSPropertyOp19
 70
     1
102
RTVSPropertyOp20
 70
     1
102
RTVSPropertyOp21
 70
     1
102
RTVSPropertyOp22
 70
     1
102
RTVSPropertyOp23
 70
     1
102
RTVSPropertyOp24
 70
     1
102
RTVSPropertyOp25
 70
     1
102
RTVSPropertyOp26
 70
     1
102
RTVSPropertyOp27
 70
     1
102
RTVSPropertyOp28
 70
     1
102
RTVSPropertyOp29
 70
     1
102
RTVSPropertyOp30
 70
     1
102
RTVSPropertyOp31
 70
     1
102
RTVSPropertyOp32
 70
     1
102
RTVSPropertyOp33
 70
     1
102
RTVSPropertyOp34
 70
     1
102
RTVSPropertyOp35
 70
     1
102
RTVSPropertyOp36
 70
     1
102
RTVSPropertyOp37
 70
     1
102
RTVSPropertyOp38
 70
     1
102
RTVSPropertyOp39
 70
     1
102
RTVSPropertyOp40
 70
     1
102
RTVSPropertyOp41
 70
     1
102
RTVSPropertyOp42
 70
     1
102
RTVSPropertyOp43
 70
     1
102
RTVSPropertyOp44
 70
     1
102
RTVSPropertyOp45
 70
     1
102
RTVSPropertyOp46
 70
     1
102
RTVSPropertyOp47
 70
     1
102
RTVSPropertyOp48
 70
     1
102
RTVSPropertyOp49
 70
     1
102
RTVSPropertyOp50
 70
     1
102
RTVSPropertyOp51
 70
     0
102
RTVSPropertyOp52
 70
     0
102
RTVSPropertyOp53
 70
     1
102
RTVSPropertyOp54
 70
     1
102
RTVSPropertyOp55
 70
     1
102
RTVSPropertyOp56
 70
     1
102
RTVSPropertyOp57
 70
     1
102
RTVSPropertyOp58
 70
     1
102
RTVSPropertyOp59
 70
     1
102
RTVSPropertyOp60
 70
     1
102
RTVSPropertyOp61
 70
     1
102
RTVSPropertyOp62
 70
     1
  0
XRECORD
  5
1BBA0
102
{ACAD_REACTORS
330
1BB9F
102
}
330
1BB9F
100
AcDbXrecord
280
     1
102
RTVSPost2010Prop28
280
     0
102
RTVSPost2010PropOp28
 70
     1
102
RTVSPost2010Prop29
280
     1
102
RTVSPost2010PropOp29
 70
     1
102
RTVSPost2010Prop30
280
     1
102
RTVSPost2010PropOp30
 70
     1
102
RTVSPost2010Prop31
280
     0
102
RTVSPost2010PropOp31
 70
     1
102
RTVSPost2010Prop32
280
     0
102
RTVSPost2010PropOp32
 70
     1
102
RTVSPost2010Prop33
280
     0
102
RTVSPost2010PropOp33
 70
     1
102
RTVSPost2010Prop34
280
     0
102
RTVSPost2010PropOp34
 70
     1
102
RTVSPost2010Prop35
280
     0
102
RTVSPost2010PropOp35
 70
     1
102
RTVSPost2010Prop36
280
     0
102
RTVSPost2010PropOp36
 70
     1
102
RTVSPost2010Prop37
 90
       50
102
RTVSPost2010PropOp37
 70
     1
102
RTVSPost2010Prop38
140
0.0
102
RTVSPost2010PropOp38
 70
     1
102
RTVSPost2010Prop39
140
1.0
102
RTVSPost2010PropOp39
 70
     1
102
RTVSPost2010Prop40
 90
        0
102
RTVSPost2010PropOp40
 70
     1
102
RTVSPost2010Prop41ColorIndex
 90
       18
102
RTVSPost2010Prop41ColorRGB
 90
        0
102
RTVSPost2010PropOp41
 70
     1
102
RTVSPost2010Prop42
 90
       50
102
RTVSPost2010PropOp42
 70
     1
102
RTVSPost2010Prop43
 90
        3
102
RTVSPost2010PropOp43
 70
     1
102
RTVSPost2010Prop44ColorIndex
 90
        5
102
RTVSPost2010Prop44ColorRGB
 90
      255
102
RTVSPost2010PropOp44
 70
     1
102
RTVSPost2010Prop45
280
     0
102
RTVSPost2010PropOp45
 70
     1
102
RTVSPost2010Prop46
 90
       50
102
RTVSPost2010PropOp46
 70
     1
102
RTVSPost2010Prop47
 90
       50
102
RTVSPost2010PropOp47
 70
     1
102
RTVSPost2010Prop48
 90
       50
102
RTVSPost2010PropOp48
 70
     1
102
RTVSPost2010Prop49
280
     0
102
RTVSPost2010PropOp49
 70
     1
102
RTVSPost2010Prop50
 90
       50
102
RTVSPost2010PropOp50
 70
     1
102
RTVSPost2010Prop51ColorIndex
 90
      256
102
RTVSPost2010Prop51ColorRGB
 90
-16777216
102
RTVSPost2010PropOp51
 70
     0
102
RTVSPost2010Prop52
140
1.0
102
RTVSPost2010PropOp52
 70
     0
102
RTVSPost2010Prop53
 90
        2
102
RTVSPost2010PropOp53
 70
     1
102
RTVSPost2010Prop54
  1
strokes_ogs.tif
102
RTVSPost2010PropOp54
 70
     1
102
RTVSPost2010Prop55
280
     0
102
RTVSPost2010PropOp55
 70
     1
102
RTVSPost2010Prop56
140
1.0
102
RTVSPost2010PropOp56
 70
     1
102
RTVSPost2010Prop57
140
1.0
102
RTVSPost2010PropOp57
 70
     1
102
RTVSPropertyOp0
 70
     1
102
RTVSPropertyOp1
 70
     1
102
RTVSPropertyOp2
 70
     1
102
RTVSPropertyOp3
 70
     1
102
RTVSPropertyOp4
 70
     1
102
RTVSPropertyOp5
 70
     1
102
RTVSPropertyOp6
 70
     1
102
RTVSPropertyOp7
 70
     1
102
RTVSPropertyOp8
 70
     1
102
RTVSPropertyOp9
 70
     1
102
RTVSPropertyOp10
 70
     1
102
RTVSPropertyOp11
 70
     1
102
RTVSPropertyOp12
 70
     1
102
RTVSPropertyOp13
 70
     1
102
RTVSPropertyOp14
 70
     1
102
RTVSPropertyOp15
 70
     1
102
RTVSPropertyOp16
 70
     1
102
RTVSPropertyOp17
 70
     1
102
RTVSPropertyOp18
 70
     1
102
RTVSPropertyOp19
 70
     1
102
RTVSPropertyOp20
 70
     1
102
RTVSPropertyOp21
 70
     1
102
RTVSPropertyOp22
 70
     1
102
RTVSPropertyOp23
 70
     1
102
RTVSPropertyOp24
 70
     1
102
RTVSPropertyOp25
 70
     1
102
RTVSPropertyOp26
 70
     1
102
RTVSPropertyOp27
 70
     1
102
RTVSPropertyOp28
 70
     1
102
RTVSPropertyOp29
 70
     1
102
RTVSPropertyOp30
 70
     1
102
RTVSPropertyOp31
 70
     1
102
RTVSPropertyOp32
 70
     1
102
RTVSPropertyOp33
 70
     1
102
RTVSPropertyOp34
 70
     1
102
RTVSPropertyOp35
 70
     1
102
RTVSPropertyOp36
 70
     1
102
RTVSPropertyOp37
 70
     1
102
RTVSPropertyOp38
 70
     1
102
RTVSPropertyOp39
 70
     1
102
RTVSPropertyOp40
 70
     1
102
RTVSPropertyOp41
 70
     1
102
RTVSPropertyOp42
 70
     1
102
RTVSPropertyOp43
 70
     1
102
RTVSPropertyOp44
 70
     1
102
RTVSPropertyOp45
 70
     1
102
RTVSPropertyOp46
 70
     1
102
RTVSPropertyOp47
 70
     1
102
RTVSPropertyOp48
 70
     1
102
RTVSPropertyOp49
 70
     1
102
RTVSPropertyOp50
 70
     1
102
RTVSPropertyOp51
 70
     0
102
RTVSPropertyOp52
 70
     0
102
RTVSPropertyOp53
 70
     1
102
RTVSPropertyOp54
 70
     1
102
RTVSPropertyOp55
 70
     1
102
RTVSPropertyOp56
 70
     1
102
RTVSPropertyOp57
 70
     1
102
RTVSPropertyOp58
 70
     1
102
RTVSPropertyOp59
 70
     1
102
RTVSPropertyOp60
 70
     1
102
RTVSPropertyOp61
 70
     1
102
RTVSPropertyOp62
 70
     1
  0
XRECORD
  5
1BBA4
102
{ACAD_REACTORS
330
1BBA3
102
}
330
1BBA3
100
AcDbXrecord
280
     1
102
RTVSPost2010Prop28
280
     0
102
RTVSPost2010PropOp28
 70
     1
102
RTVSPost2010Prop29
280
     1
102
RTVSPost2010PropOp29
 70
     1
102
RTVSPost2010Prop30
280
     1
102
RTVSPost2010PropOp30
 70
     1
102
RTVSPost2010Prop31
280
     0
102
RTVSPost2010PropOp31
 70
     1
102
RTVSPost2010Prop32
280
     0
102
RTVSPost2010PropOp32
 70
     1
102
RTVSPost2010Prop33
280
     0
102
RTVSPost2010PropOp33
 70
     1
102
RTVSPost2010Prop34
280
     0
102
RTVSPost2010PropOp34
 70
     1
102
RTVSPost2010Prop35
280
     0
102
RTVSPost2010PropOp35
 70
     1
102
RTVSPost2010Prop36
280
     0
102
RTVSPost2010PropOp36
 70
     1
102
RTVSPost2010Prop37
 90
       50
102
RTVSPost2010PropOp37
 70
     1
102
RTVSPost2010Prop38
140
0.0
102
RTVSPost2010PropOp38
 70
     1
102
RTVSPost2010Prop39
140
1.0
102
RTVSPost2010PropOp39
 70
     1
102
RTVSPost2010Prop40
 90
        0
102
RTVSPost2010PropOp40
 70
     1
102
RTVSPost2010Prop41ColorIndex
 90
       18
102
RTVSPost2010Prop41ColorRGB
 90
        0
102
RTVSPost2010PropOp41
 70
     1
102
RTVSPost2010Prop42
 90
       50
102
RTVSPost2010PropOp42
 70
     1
102
RTVSPost2010Prop43
 90
        3
102
RTVSPost2010PropOp43
 70
     1
102
RTVSPost2010Prop44ColorIndex
 90
        5
102
RTVSPost2010Prop44ColorRGB
 90
      255
102
RTVSPost2010PropOp44
 70
     1
102
RTVSPost2010Prop45
280
     0
102
RTVSPost2010PropOp45
 70
     1
102
RTVSPost2010Prop46
 90
       50
102
RTVSPost2010PropOp46
 70
     1
102
RTVSPost2010Prop47
 90
       50
102
RTVSPost2010PropOp47
 70
     1
102
RTVSPost2010Prop48
 90
       50
102
RTVSPost2010PropOp48
 70
     1
102
RTVSPost2010Prop49
280
     0
102
RTVSPost2010PropOp49
 70
     1
102
RTVSPost2010Prop50
 90
       50
102
RTVSPost2010PropOp50
 70
     1
102
RTVSPost2010Prop51ColorIndex
 90
      256
102
RTVSPost2010Prop51ColorRGB
 90
-16777216
102
RTVSPost2010PropOp51
 70
     0
102
RTVSPost2010Prop52
140
1.0
102
RTVSPost2010PropOp52
 70
     0
102
RTVSPost2010Prop53
 90
        2
102
RTVSPost2010PropOp53
 70
     1
102
RTVSPost2010Prop54
  1
strokes_ogs.tif
102
RTVSPost2010PropOp54
 70
     1
102
RTVSPost2010Prop55
280
     0
102
RTVSPost2010PropOp55
 70
     1
102
RTVSPost2010Prop56
140
1.0
102
RTVSPost2010PropOp56
 70
     1
102
RTVSPost2010Prop57
140
1.0
102
RTVSPost2010PropOp57
 70
     1
102
RTVSPropertyOp0
 70
     1
102
RTVSPropertyOp1
 70
     1
102
RTVSPropertyOp2
 70
     1
102
RTVSPropertyOp3
 70
     1
102
RTVSPropertyOp4
 70
     1
102
RTVSPropertyOp5
 70
     1
102
RTVSPropertyOp6
 70
     1
102
RTVSPropertyOp7
 70
     1
102
RTVSPropertyOp8
 70
     1
102
RTVSPropertyOp9
 70
     1
102
RTVSPropertyOp10
 70
     1
102
RTVSPropertyOp11
 70
     1
102
RTVSPropertyOp12
 70
     1
102
RTVSPropertyOp13
 70
     1
102
RTVSPropertyOp14
 70
     1
102
RTVSPropertyOp15
 70
     1
102
RTVSPropertyOp16
 70
     1
102
RTVSPropertyOp17
 70
     1
102
RTVSPropertyOp18
 70
     1
102
RTVSPropertyOp19
 70
     1
102
RTVSPropertyOp20
 70
     1
102
RTVSPropertyOp21
 70
     1
102
RTVSPropertyOp22
 70
     1
102
RTVSPropertyOp23
 70
     1
102
RTVSPropertyOp24
 70
     1
102
RTVSPropertyOp25
 70
     1
102
RTVSPropertyOp26
 70
     1
102
RTVSPropertyOp27
 70
     1
102
RTVSPropertyOp28
 70
     1
102
RTVSPropertyOp29
 70
     1
102
RTVSPropertyOp30
 70
     1
102
RTVSPropertyOp31
 70
     1
102
RTVSPropertyOp32
 70
     1
102
RTVSPropertyOp33
 70
     1
102
RTVSPropertyOp34
 70
     1
102
RTVSPropertyOp35
 70
     1
102
RTVSPropertyOp36
 70
     1
102
RTVSPropertyOp37
 70
     1
102
RTVSPropertyOp38
 70
     1
102
RTVSPropertyOp39
 70
     1
102
RTVSPropertyOp40
 70
     1
102
RTVSPropertyOp41
 70
     1
102
RTVSPropertyOp42
 70
     1
102
RTVSPropertyOp43
 70
     1
102
RTVSPropertyOp44
 70
     1
102
RTVSPropertyOp45
 70
     1
102
RTVSPropertyOp46
 70
     1
102
RTVSPropertyOp47
 70
     1
102
RTVSPropertyOp48
 70
     1
102
RTVSPropertyOp49
 70
     1
102
RTVSPropertyOp50
 70
     1
102
RTVSPropertyOp51
 70
     0
102
RTVSPropertyOp52
 70
     0
102
RTVSPropertyOp53
 70
     1
102
RTVSPropertyOp54
 70
     1
102
RTVSPropertyOp55
 70
     1
102
RTVSPropertyOp56
 70
     1
102
RTVSPropertyOp57
 70
     1
102
RTVSPropertyOp58
 70
     1
102
RTVSPropertyOp59
 70
     1
102
RTVSPropertyOp60
 70
     1
102
RTVSPropertyOp61
 70
     1
102
RTVSPropertyOp62
 70
     1
  0
XRECORD
  5
1BBBE
102
{ACAD_REACTORS
330
1BBBD
102
}
330
1BBBD
100
AcDbXrecord
280
     1
102
RTVSPost2010Prop28
280
     0
102
RTVSPost2010PropOp28
 70
     1
102
RTVSPost2010Prop29
280
     1
102
RTVSPost2010PropOp29
 70
     1
102
RTVSPost2010Prop30
280
     1
102
RTVSPost2010PropOp30
 70
     1
102
RTVSPost2010Prop31
280
     0
102
RTVSPost2010PropOp31
 70
     1
102
RTVSPost2010Prop32
280
     0
102
RTVSPost2010PropOp32
 70
     1
102
RTVSPost2010Prop33
280
     0
102
RTVSPost2010PropOp33
 70
     1
102
RTVSPost2010Prop34
280
     0
102
RTVSPost2010PropOp34
 70
     1
102
RTVSPost2010Prop35
280
     0
102
RTVSPost2010PropOp35
 70
     1
102
RTVSPost2010Prop36
280
     0
102
RTVSPost2010PropOp36
 70
     1
102
RTVSPost2010Prop37
 90
       50
102
RTVSPost2010PropOp37
 70
     0
102
RTVSPost2010Prop38
140
0.0
102
RTVSPost2010PropOp38
 70
     0
102
RTVSPost2010Prop39
140
1.0
102
RTVSPost2010PropOp39
 70
     0
102
RTVSPost2010Prop40
 90
        0
102
RTVSPost2010PropOp40
 70
     0
102
RTVSPost2010Prop41ColorIndex
 90
       18
102
RTVSPost2010Prop41ColorRGB
 90
        0
102
RTVSPost2010PropOp41
 70
     0
102
RTVSPost2010Prop42
 90
       50
102
RTVSPost2010PropOp42
 70
     0
102
RTVSPost2010Prop43
 90
        3
102
RTVSPost2010PropOp43
 70
     0
102
RTVSPost2010Prop44ColorIndex
 90
        5
102
RTVSPost2010Prop44ColorRGB
 90
      255
102
RTVSPost2010PropOp44
 70
     0
102
RTVSPost2010Prop45
280
     0
102
RTVSPost2010PropOp45
 70
     1
102
RTVSPost2010Prop46
 90
       50
102
RTVSPost2010PropOp46
 70
     0
102
RTVSPost2010Prop47
 90
       50
102
RTVSPost2010PropOp47
 70
     0
102
RTVSPost2010Prop48
 90
       50
102
RTVSPost2010PropOp48
 70
     0
102
RTVSPost2010Prop49
280
     0
102
RTVSPost2010PropOp49
 70
     1
102
RTVSPost2010Prop50
 90
       50
102
RTVSPost2010PropOp50
 70
     0
102
RTVSPost2010Prop51ColorIndex
 90
      256
102
RTVSPost2010Prop51ColorRGB
 90
-16777216
102
RTVSPost2010PropOp51
 70
     0
102
RTVSPost2010Prop52
140
1.0
102
RTVSPost2010PropOp52
 70
     0
102
RTVSPost2010Prop53
 90
        2
102
RTVSPost2010PropOp53
 70
     0
102
RTVSPost2010Prop54
  1
strokes_ogs.tif
102
RTVSPost2010PropOp54
 70
     0
102
RTVSPost2010Prop55
280
     0
102
RTVSPost2010PropOp55
 70
     1
102
RTVSPost2010Prop56
140
1.0
102
RTVSPost2010PropOp56
 70
     0
102
RTVSPost2010Prop57
140
1.0
102
RTVSPost2010PropOp57
 70
     0
102
RTVSPropertyOp0
 70
     0
102
RTVSPropertyOp1
 70
     0
102
RTVSPropertyOp2
 70
     0
102
RTVSPropertyOp3
 70
     0
102
RTVSPropertyOp4
 70
     0
102
RTVSPropertyOp5
 70
     0
102
RTVSPropertyOp6
 70
     0
102
RTVSPropertyOp7
 70
     0
102
RTVSPropertyOp8
 70
     0
102
RTVSPropertyOp9
 70
     0
102
RTVSPropertyOp10
 70
     0
102
RTVSPropertyOp11
 70
     0
102
RTVSPropertyOp12
 70
     0
102
RTVSPropertyOp13
 70
     0
102
RTVSPropertyOp14
 70
     2
102
RTVSPropertyOp15
 70
     0
102
RTVSPropertyOp16
 70
     0
102
RTVSPropertyOp17
 70
     0
102
RTVSPropertyOp18
 70
     0
102
RTVSPropertyOp19
 70
     0
102
RTVSPropertyOp20
 70
     0
102
RTVSPropertyOp21
 70
     0
102
RTVSPropertyOp22
 70
     0
102
RTVSPropertyOp23
 70
     0
102
RTVSPropertyOp24
 70
     0
102
RTVSPropertyOp25
 70
     0
102
RTVSPropertyOp26
 70
     0
102
RTVSPropertyOp27
 70
     0
102
RTVSPropertyOp28
 70
     1
102
RTVSPropertyOp29
 70
     1
102
RTVSPropertyOp30
 70
     1
102
RTVSPropertyOp31
 70
     1
102
RTVSPropertyOp32
 70
     1
102
RTVSPropertyOp33
 70
     1
102
RTVSPropertyOp34
 70
     1
102
RTVSPropertyOp35
 70
     1
102
RTVSPropertyOp36
 70
     1
102
RTVSPropertyOp37
 70
     0
102
RTVSPropertyOp38
 70
     0
102
RTVSPropertyOp39
 70
     0
102
RTVSPropertyOp40
 70
     0
102
RTVSPropertyOp41
 70
     0
102
RTVSPropertyOp42
 70
     0
102
RTVSPropertyOp43
 70
     0
102
RTVSPropertyOp44
 70
     0
102
RTVSPropertyOp45
 70
     1
102
RTVSPropertyOp46
 70
     0
102
RTVSPropertyOp47
 70
     0
102
RTVSPropertyOp48
 70
     0
102
RTVSPropertyOp49
 70
     1
102
RTVSPropertyOp50
 70
     0
102
RTVSPropertyOp51
 70
     0
102
RTVSPropertyOp52
 70
     0
102
RTVSPropertyOp53
 70
     0
102
RTVSPropertyOp54
 70
     0
102
RTVSPropertyOp55
 70
     1
102
RTVSPropertyOp56
 70
     0
102
RTVSPropertyOp57
 70
     0
102
RTVSPropertyOp58
 70
     0
102
RTVSPropertyOp59
 70
     0
102
RTVSPropertyOp60
 70
     0
102
RTVSPropertyOp61
 70
     0
102
RTVSPropertyOp62
 70
     0
  0
XRECORD
  5
1BBAC
102
{ACAD_REACTORS
330
1BBAB
102
}
330
1BBAB
100
AcDbXrecord
280
     1
102
RTVSPost2010Prop28
280
     0
102
RTVSPost2010PropOp28
 70
     1
102
RTVSPost2010Prop29
280
     1
102
RTVSPost2010PropOp29
 70
     1
102
RTVSPost2010Prop30
280
     1
102
RTVSPost2010PropOp30
 70
     1
102
RTVSPost2010Prop31
280
     0
102
RTVSPost2010PropOp31
 70
     1
102
RTVSPost2010Prop32
280
     0
102
RTVSPost2010PropOp32
 70
     1
102
RTVSPost2010Prop33
280
     0
102
RTVSPost2010PropOp33
 70
     1
102
RTVSPost2010Prop34
280
     0
102
RTVSPost2010PropOp34
 70
     1
102
RTVSPost2010Prop35
280
     0
102
RTVSPost2010PropOp35
 70
     1
102
RTVSPost2010Prop36
280
     0
102
RTVSPost2010PropOp36
 70
     1
102
RTVSPost2010Prop37
 90
       50
102
RTVSPost2010PropOp37
 70
     1
102
RTVSPost2010Prop38
140
0.0
102
RTVSPost2010PropOp38
 70
     1
102
RTVSPost2010Prop39
140
1.0
102
RTVSPost2010PropOp39
 70
     1
102
RTVSPost2010Prop40
 90
        0
102
RTVSPost2010PropOp40
 70
     1
102
RTVSPost2010Prop41ColorIndex
 90
       18
102
RTVSPost2010Prop41ColorRGB
 90
        0
102
RTVSPost2010PropOp41
 70
     1
102
RTVSPost2010Prop42
 90
       50
102
RTVSPost2010PropOp42
 70
     1
102
RTVSPost2010Prop43
 90
        3
102
RTVSPost2010PropOp43
 70
     1
102
RTVSPost2010Prop44ColorIndex
 90
        5
102
RTVSPost2010Prop44ColorRGB
 90
      255
102
RTVSPost2010PropOp44
 70
     1
102
RTVSPost2010Prop45
280
     0
102
RTVSPost2010PropOp45
 70
     1
102
RTVSPost2010Prop46
 90
       50
102
RTVSPost2010PropOp46
 70
     1
102
RTVSPost2010Prop47
 90
       50
102
RTVSPost2010PropOp47
 70
     1
102
RTVSPost2010Prop48
 90
       50
102
RTVSPost2010PropOp48
 70
     1
102
RTVSPost2010Prop49
280
     0
102
RTVSPost2010PropOp49
 70
     1
102
RTVSPost2010Prop50
 90
       50
102
RTVSPost2010PropOp50
 70
     1
102
RTVSPost2010Prop51ColorIndex
 90
      256
102
RTVSPost2010Prop51ColorRGB
 90
-16777216
102
RTVSPost2010PropOp51
 70
     0
102
RTVSPost2010Prop52
140
1.0
102
RTVSPost2010PropOp52
 70
     0
102
RTVSPost2010Prop53
 90
        2
102
RTVSPost2010PropOp53
 70
     1
102
RTVSPost2010Prop54
  1
strokes_ogs.tif
102
RTVSPost2010PropOp54
 70
     1
102
RTVSPost2010Prop55
280
     0
102
RTVSPost2010PropOp55
 70
     1
102
RTVSPost2010Prop56
140
1.0
102
RTVSPost2010PropOp56
 70
     1
102
RTVSPost2010Prop57
140
1.0
102
RTVSPost2010PropOp57
 70
     1
102
RTVSPropertyOp0
 70
     1
102
RTVSPropertyOp1
 70
     1
102
RTVSPropertyOp2
 70
     1
102
RTVSPropertyOp3
 70
     1
102
RTVSPropertyOp4
 70
     1
102
RTVSPropertyOp5
 70
     1
102
RTVSPropertyOp6
 70
     1
102
RTVSPropertyOp7
 70
     1
102
RTVSPropertyOp8
 70
     1
102
RTVSPropertyOp9
 70
     1
102
RTVSPropertyOp10
 70
     1
102
RTVSPropertyOp11
 70
     1
102
RTVSPropertyOp12
 70
     1
102
RTVSPropertyOp13
 70
     1
102
RTVSPropertyOp14
 70
     1
102
RTVSPropertyOp15
 70
     1
102
RTVSPropertyOp16
 70
     1
102
RTVSPropertyOp17
 70
     1
102
RTVSPropertyOp18
 70
     1
102
RTVSPropertyOp19
 70
     1
102
RTVSPropertyOp20
 70
     1
102
RTVSPropertyOp21
 70
     1
102
RTVSPropertyOp22
 70
     1
102
RTVSPropertyOp23
 70
     1
102
RTVSPropertyOp24
 70
     1
102
RTVSPropertyOp25
 70
     1
102
RTVSPropertyOp26
 70
     1
102
RTVSPropertyOp27
 70
     1
102
RTVSPropertyOp28
 70
     1
102
RTVSPropertyOp29
 70
     1
102
RTVSPropertyOp30
 70
     1
102
RTVSPropertyOp31
 70
     1
102
RTVSPropertyOp32
 70
     1
102
RTVSPropertyOp33
 70
     1
102
RTVSPropertyOp34
 70
     1
102
RTVSPropertyOp35
 70
     1
102
RTVSPropertyOp36
 70
     1
102
RTVSPropertyOp37
 70
     1
102
RTVSPropertyOp38
 70
     1
102
RTVSPropertyOp39
 70
     1
102
RTVSPropertyOp40
 70
     1
102
RTVSPropertyOp41
 70
     1
102
RTVSPropertyOp42
 70
     1
102
RTVSPropertyOp43
 70
     1
102
RTVSPropertyOp44
 70
     1
102
RTVSPropertyOp45
 70
     1
102
RTVSPropertyOp46
 70
     1
102
RTVSPropertyOp47
 70
     1
102
RTVSPropertyOp48
 70
     1
102
RTVSPropertyOp49
 70
     1
102
RTVSPropertyOp50
 70
     1
102
RTVSPropertyOp51
 70
     0
102
RTVSPropertyOp52
 70
     0
102
RTVSPropertyOp53
 70
     1
102
RTVSPropertyOp54
 70
     1
102
RTVSPropertyOp55
 70
     1
102
RTVSPropertyOp56
 70
     1
102
RTVSPropertyOp57
 70
     1
102
RTVSPropertyOp58
 70
     1
102
RTVSPropertyOp59
 70
     1
102
RTVSPropertyOp60
 70
     1
102
RTVSPropertyOp61
 70
     1
102
RTVSPropertyOp62
 70
     1
  0
XRECORD
  5
1BB90
102
{ACAD_REACTORS
330
1BB8F
102
}
330
1BB8F
100
AcDbXrecord
280
     1
102
RTVSPost2010Prop28
280
     0
102
RTVSPost2010PropOp28
 70
     1
102
RTVSPost2010Prop29
280
     1
102
RTVSPost2010PropOp29
 70
     1
102
RTVSPost2010Prop30
280
     1
102
RTVSPost2010PropOp30
 70
     1
102
RTVSPost2010Prop31
280
     0
102
RTVSPost2010PropOp31
 70
     1
102
RTVSPost2010Prop32
280
     0
102
RTVSPost2010PropOp32
 70
     1
102
RTVSPost2010Prop33
280
     0
102
RTVSPost2010PropOp33
 70
     1
102
RTVSPost2010Prop34
280
     0
102
RTVSPost2010PropOp34
 70
     1
102
RTVSPost2010Prop35
280
     0
102
RTVSPost2010PropOp35
 70
     1
102
RTVSPost2010Prop36
280
     0
102
RTVSPost2010PropOp36
 70
     1
102
RTVSPost2010Prop37
 90
       50
102
RTVSPost2010PropOp37
 70
     1
102
RTVSPost2010Prop38
140
0.0
102
RTVSPost2010PropOp38
 70
     1
102
RTVSPost2010Prop39
140
1.0
102
RTVSPost2010PropOp39
 70
     1
102
RTVSPost2010Prop40
 90
        0
102
RTVSPost2010PropOp40
 70
     1
102
RTVSPost2010Prop41ColorIndex
 90
       18
102
RTVSPost2010Prop41ColorRGB
 90
        0
102
RTVSPost2010PropOp41
 70
     1
102
RTVSPost2010Prop42
 90
       50
102
RTVSPost2010PropOp42
 70
     1
102
RTVSPost2010Prop43
 90
        3
102
RTVSPost2010PropOp43
 70
     1
102
RTVSPost2010Prop44ColorIndex
 90
        5
102
RTVSPost2010Prop44ColorRGB
 90
      255
102
RTVSPost2010PropOp44
 70
     1
102
RTVSPost2010Prop45
280
     0
102
RTVSPost2010PropOp45
 70
     1
102
RTVSPost2010Prop46
 90
       50
102
RTVSPost2010PropOp46
 70
     1
102
RTVSPost2010Prop47
 90
       50
102
RTVSPost2010PropOp47
 70
     1
102
RTVSPost2010Prop48
 90
       50
102
RTVSPost2010PropOp48
 70
     1
102
RTVSPost2010Prop49
280
     0
102
RTVSPost2010PropOp49
 70
     1
102
RTVSPost2010Prop50
 90
       50
102
RTVSPost2010PropOp50
 70
     1
102
RTVSPost2010Prop51ColorIndex
 90
      256
102
RTVSPost2010Prop51ColorRGB
 90
-16777216
102
RTVSPost2010PropOp51
 70
     0
102
RTVSPost2010Prop52
140
1.0
102
RTVSPost2010PropOp52
 70
     0
102
RTVSPost2010Prop53
 90
        2
102
RTVSPost2010PropOp53
 70
     1
102
RTVSPost2010Prop54
  1
strokes_ogs.tif
102
RTVSPost2010PropOp54
 70
     1
102
RTVSPost2010Prop55
280
     0
102
RTVSPost2010PropOp55
 70
     1
102
RTVSPost2010Prop56
140
1.0
102
RTVSPost2010PropOp56
 70
     1
102
RTVSPost2010Prop57
140
1.0
102
RTVSPost2010PropOp57
 70
     1
102
RTVSPropertyOp0
 70
     1
102
RTVSPropertyOp1
 70
     1
102
RTVSPropertyOp2
 70
     1
102
RTVSPropertyOp3
 70
     1
102
RTVSPropertyOp4
 70
     1
102
RTVSPropertyOp5
 70
     1
102
RTVSPropertyOp6
 70
     1
102
RTVSPropertyOp7
 70
     1
102
RTVSPropertyOp8
 70
     1
102
RTVSPropertyOp9
 70
     1
102
RTVSPropertyOp10
 70
     1
102
RTVSPropertyOp11
 70
     1
102
RTVSPropertyOp12
 70
     1
102
RTVSPropertyOp13
 70
     1
102
RTVSPropertyOp14
 70
     1
102
RTVSPropertyOp15
 70
     1
102
RTVSPropertyOp16
 70
     1
102
RTVSPropertyOp17
 70
     1
102
RTVSPropertyOp18
 70
     1
102
RTVSPropertyOp19
 70
     1
102
RTVSPropertyOp20
 70
     1
102
RTVSPropertyOp21
 70
     1
102
RTVSPropertyOp22
 70
     1
102
RTVSPropertyOp23
 70
     1
102
RTVSPropertyOp24
 70
     1
102
RTVSPropertyOp25
 70
     1
102
RTVSPropertyOp26
 70
     1
102
RTVSPropertyOp27
 70
     1
102
RTVSPropertyOp28
 70
     1
102
RTVSPropertyOp29
 70
     1
102
RTVSPropertyOp30
 70
     1
102
RTVSPropertyOp31
 70
     1
102
RTVSPropertyOp32
 70
     1
102
RTVSPropertyOp33
 70
     1
102
RTVSPropertyOp34
 70
     1
102
RTVSPropertyOp35
 70
     1
102
RTVSPropertyOp36
 70
     1
102
RTVSPropertyOp37
 70
     1
102
RTVSPropertyOp38
 70
     1
102
RTVSPropertyOp39
 70
     1
102
RTVSPropertyOp40
 70
     1
102
RTVSPropertyOp41
 70
     1
102
RTVSPropertyOp42
 70
     1
102
RTVSPropertyOp43
 70
     1
102
RTVSPropertyOp44
 70
     1
102
RTVSPropertyOp45
 70
     1
102
RTVSPropertyOp46
 70
     1
102
RTVSPropertyOp47
 70
     1
102
RTVSPropertyOp48
 70
     1
102
RTVSPropertyOp49
 70
     1
102
RTVSPropertyOp50
 70
     1
102
RTVSPropertyOp51
 70
     0
102
RTVSPropertyOp52
 70
     0
102
RTVSPropertyOp53
 70
     1
102
RTVSPropertyOp54
 70
     1
102
RTVSPropertyOp55
 70
     1
102
RTVSPropertyOp56
 70
     1
102
RTVSPropertyOp57
 70
     1
102
RTVSPropertyOp58
 70
     1
102
RTVSPropertyOp59
 70
     1
102
RTVSPropertyOp60
 70
     1
102
RTVSPropertyOp61
 70
     1
102
RTVSPropertyOp62
 70
     1
  0
XRECORD
  5
1BB92
102
{ACAD_REACTORS
330
1BB91
102
}
330
1BB91
100
AcDbXrecord
280
     1
102
RTVSPost2010Prop28
280
     0
102
RTVSPost2010PropOp28
 70
     1
102
RTVSPost2010Prop29
280
     1
102
RTVSPost2010PropOp29
 70
     1
102
RTVSPost2010Prop30
280
     1
102
RTVSPost2010PropOp30
 70
     1
102
RTVSPost2010Prop31
280
     0
102
RTVSPost2010PropOp31
 70
     1
102
RTVSPost2010Prop32
280
     0
102
RTVSPost2010PropOp32
 70
     1
102
RTVSPost2010Prop33
280
     0
102
RTVSPost2010PropOp33
 70
     1
102
RTVSPost2010Prop34
280
     0
102
RTVSPost2010PropOp34
 70
     1
102
RTVSPost2010Prop35
280
     0
102
RTVSPost2010PropOp35
 70
     1
102
RTVSPost2010Prop36
280
     0
102
RTVSPost2010PropOp36
 70
     1
102
RTVSPost2010Prop37
 90
       50
102
RTVSPost2010PropOp37
 70
     1
102
RTVSPost2010Prop38
140
0.0
102
RTVSPost2010PropOp38
 70
     1
102
RTVSPost2010Prop39
140
1.0
102
RTVSPost2010PropOp39
 70
     1
102
RTVSPost2010Prop40
 90
        0
102
RTVSPost2010PropOp40
 70
     1
102
RTVSPost2010Prop41ColorIndex
 90
       18
102
RTVSPost2010Prop41ColorRGB
 90
        0
102
RTVSPost2010PropOp41
 70
     1
102
RTVSPost2010Prop42
 90
       50
102
RTVSPost2010PropOp42
 70
     1
102
RTVSPost2010Prop43
 90
        3
102
RTVSPost2010PropOp43
 70
     1
102
RTVSPost2010Prop44ColorIndex
 90
        5
102
RTVSPost2010Prop44ColorRGB
 90
      255
102
RTVSPost2010PropOp44
 70
     1
102
RTVSPost2010Prop45
280
     0
102
RTVSPost2010PropOp45
 70
     1
102
RTVSPost2010Prop46
 90
       50
102
RTVSPost2010PropOp46
 70
     1
102
RTVSPost2010Prop47
 90
       50
102
RTVSPost2010PropOp47
 70
     1
102
RTVSPost2010Prop48
 90
       50
102
RTVSPost2010PropOp48
 70
     1
102
RTVSPost2010Prop49
280
     0
102
RTVSPost2010PropOp49
 70
     1
102
RTVSPost2010Prop50
 90
       50
102
RTVSPost2010PropOp50
 70
     1
102
RTVSPost2010Prop51ColorIndex
 90
      256
102
RTVSPost2010Prop51ColorRGB
 90
-16777216
102
RTVSPost2010PropOp51
 70
     0
102
RTVSPost2010Prop52
140
1.0
102
RTVSPost2010PropOp52
 70
     0
102
RTVSPost2010Prop53
 90
        2
102
RTVSPost2010PropOp53
 70
     1
102
RTVSPost2010Prop54
  1
strokes_ogs.tif
102
RTVSPost2010PropOp54
 70
     1
102
RTVSPost2010Prop55
280
     0
102
RTVSPost2010PropOp55
 70
     1
102
RTVSPost2010Prop56
140
1.0
102
RTVSPost2010PropOp56
 70
     1
102
RTVSPost2010Prop57
140
1.0
102
RTVSPost2010PropOp57
 70
     1
102
RTVSPropertyOp0
 70
     1
102
RTVSPropertyOp1
 70
     1
102
RTVSPropertyOp2
 70
     1
102
RTVSPropertyOp3
 70
     1
102
RTVSPropertyOp4
 70
     1
102
RTVSPropertyOp5
 70
     1
102
RTVSPropertyOp6
 70
     1
102
RTVSPropertyOp7
 70
     1
102
RTVSPropertyOp8
 70
     1
102
RTVSPropertyOp9
 70
     1
102
RTVSPropertyOp10
 70
     1
102
RTVSPropertyOp11
 70
     1
102
RTVSPropertyOp12
 70
     1
102
RTVSPropertyOp13
 70
     1
102
RTVSPropertyOp14
 70
     1
102
RTVSPropertyOp15
 70
     1
102
RTVSPropertyOp16
 70
     1
102
RTVSPropertyOp17
 70
     1
102
RTVSPropertyOp18
 70
     1
102
RTVSPropertyOp19
 70
     1
102
RTVSPropertyOp20
 70
     1
102
RTVSPropertyOp21
 70
     1
102
RTVSPropertyOp22
 70
     1
102
RTVSPropertyOp23
 70
     1
102
RTVSPropertyOp24
 70
     1
102
RTVSPropertyOp25
 70
     1
102
RTVSPropertyOp26
 70
     1
102
RTVSPropertyOp27
 70
     1
102
RTVSPropertyOp28
 70
     1
102
RTVSPropertyOp29
 70
     1
102
RTVSPropertyOp30
 70
     1
102
RTVSPropertyOp31
 70
     1
102
RTVSPropertyOp32
 70
     1
102
RTVSPropertyOp33
 70
     1
102
RTVSPropertyOp34
 70
     1
102
RTVSPropertyOp35
 70
     1
102
RTVSPropertyOp36
 70
     1
102
RTVSPropertyOp37
 70
     1
102
RTVSPropertyOp38
 70
     1
102
RTVSPropertyOp39
 70
     1
102
RTVSPropertyOp40
 70
     1
102
RTVSPropertyOp41
 70
     1
102
RTVSPropertyOp42
 70
     1
102
RTVSPropertyOp43
 70
     1
102
RTVSPropertyOp44
 70
     1
102
RTVSPropertyOp45
 70
     1
102
RTVSPropertyOp46
 70
     1
102
RTVSPropertyOp47
 70
     1
102
RTVSPropertyOp48
 70
     1
102
RTVSPropertyOp49
 70
     1
102
RTVSPropertyOp50
 70
     1
102
RTVSPropertyOp51
 70
     0
102
RTVSPropertyOp52
 70
     0
102
RTVSPropertyOp53
 70
     1
102
RTVSPropertyOp54
 70
     1
102
RTVSPropertyOp55
 70
     1
102
RTVSPropertyOp56
 70
     1
102
RTVSPropertyOp57
 70
     1
102
RTVSPropertyOp58
 70
     1
102
RTVSPropertyOp59
 70
     1
102
RTVSPropertyOp60
 70
     1
102
RTVSPropertyOp61
 70
     1
102
RTVSPropertyOp62
 70
     1
  0
XRECORD
  5
1BB94
102
{ACAD_REACTORS
330
1BB93
102
}
330
1BB93
100
AcDbXrecord
280
     1
102
RTVSPost2010Prop28
280
     0
102
RTVSPost2010PropOp28
 70
     1
102
RTVSPost2010Prop29
280
     1
102
RTVSPost2010PropOp29
 70
     1
102
RTVSPost2010Prop30
280
     1
102
RTVSPost2010PropOp30
 70
     1
102
RTVSPost2010Prop31
280
     0
102
RTVSPost2010PropOp31
 70
     1
102
RTVSPost2010Prop32
280
     0
102
RTVSPost2010PropOp32
 70
     1
102
RTVSPost2010Prop33
280
     0
102
RTVSPost2010PropOp33
 70
     1
102
RTVSPost2010Prop34
280
     0
102
RTVSPost2010PropOp34
 70
     1
102
RTVSPost2010Prop35
280
     0
102
RTVSPost2010PropOp35
 70
     1
102
RTVSPost2010Prop36
280
     0
102
RTVSPost2010PropOp36
 70
     1
102
RTVSPost2010Prop37
 90
       50
102
RTVSPost2010PropOp37
 70
     1
102
RTVSPost2010Prop38
140
0.0
102
RTVSPost2010PropOp38
 70
     1
102
RTVSPost2010Prop39
140
1.0
102
RTVSPost2010PropOp39
 70
     1
102
RTVSPost2010Prop40
 90
        0
102
RTVSPost2010PropOp40
 70
     1
102
RTVSPost2010Prop41ColorIndex
 90
       18
102
RTVSPost2010Prop41ColorRGB
 90
        0
102
RTVSPost2010PropOp41
 70
     1
102
RTVSPost2010Prop42
 90
       50
102
RTVSPost2010PropOp42
 70
     1
102
RTVSPost2010Prop43
 90
        3
102
RTVSPost2010PropOp43
 70
     1
102
RTVSPost2010Prop44ColorIndex
 90
        5
102
RTVSPost2010Prop44ColorRGB
 90
      255
102
RTVSPost2010PropOp44
 70
     1
102
RTVSPost2010Prop45
280
     0
102
RTVSPost2010PropOp45
 70
     1
102
RTVSPost2010Prop46
 90
       50
102
RTVSPost2010PropOp46
 70
     1
102
RTVSPost2010Prop47
 90
       50
102
RTVSPost2010PropOp47
 70
     1
102
RTVSPost2010Prop48
 90
       50
102
RTVSPost2010PropOp48
 70
     1
102
RTVSPost2010Prop49
280
     0
102
RTVSPost2010PropOp49
 70
     1
102
RTVSPost2010Prop50
 90
       50
102
RTVSPost2010PropOp50
 70
     1
102
RTVSPost2010Prop51ColorIndex
 90
      256
102
RTVSPost2010Prop51ColorRGB
 90
-16777216
102
RTVSPost2010PropOp51
 70
     0
102
RTVSPost2010Prop52
140
1.0
102
RTVSPost2010PropOp52
 70
     0
102
RTVSPost2010Prop53
 90
        2
102
RTVSPost2010PropOp53
 70
     1
102
RTVSPost2010Prop54
  1
strokes_ogs.tif
102
RTVSPost2010PropOp54
 70
     1
102
RTVSPost2010Prop55
280
     0
102
RTVSPost2010PropOp55
 70
     1
102
RTVSPost2010Prop56
140
1.0
102
RTVSPost2010PropOp56
 70
     1
102
RTVSPost2010Prop57
140
1.0
102
RTVSPost2010PropOp57
 70
     1
102
RTVSPropertyOp0
 70
     1
102
RTVSPropertyOp1
 70
     1
102
RTVSPropertyOp2
 70
     1
102
RTVSPropertyOp3
 70
     1
102
RTVSPropertyOp4
 70
     1
102
RTVSPropertyOp5
 70
     1
102
RTVSPropertyOp6
 70
     1
102
RTVSPropertyOp7
 70
     1
102
RTVSPropertyOp8
 70
     1
102
RTVSPropertyOp9
 70
     1
102
RTVSPropertyOp10
 70
     1
102
RTVSPropertyOp11
 70
     1
102
RTVSPropertyOp12
 70
     1
102
RTVSPropertyOp13
 70
     1
102
RTVSPropertyOp14
 70
     1
102
RTVSPropertyOp15
 70
     1
102
RTVSPropertyOp16
 70
     1
102
RTVSPropertyOp17
 70
     1
102
RTVSPropertyOp18
 70
     1
102
RTVSPropertyOp19
 70
     1
102
RTVSPropertyOp20
 70
     1
102
RTVSPropertyOp21
 70
     1
102
RTVSPropertyOp22
 70
     1
102
RTVSPropertyOp23
 70
     1
102
RTVSPropertyOp24
 70
     1
102
RTVSPropertyOp25
 70
     1
102
RTVSPropertyOp26
 70
     1
102
RTVSPropertyOp27
 70
     1
102
RTVSPropertyOp28
 70
     1
102
RTVSPropertyOp29
 70
     1
102
RTVSPropertyOp30
 70
     1
102
RTVSPropertyOp31
 70
     1
102
RTVSPropertyOp32
 70
     1
102
RTVSPropertyOp33
 70
     1
102
RTVSPropertyOp34
 70
     1
102
RTVSPropertyOp35
 70
     1
102
RTVSPropertyOp36
 70
     1
102
RTVSPropertyOp37
 70
     1
102
RTVSPropertyOp38
 70
     1
102
RTVSPropertyOp39
 70
     1
102
RTVSPropertyOp40
 70
     1
102
RTVSPropertyOp41
 70
     1
102
RTVSPropertyOp42
 70
     1
102
RTVSPropertyOp43
 70
     1
102
RTVSPropertyOp44
 70
     1
102
RTVSPropertyOp45
 70
     1
102
RTVSPropertyOp46
 70
     1
102
RTVSPropertyOp47
 70
     1
102
RTVSPropertyOp48
 70
     1
102
RTVSPropertyOp49
 70
     1
102
RTVSPropertyOp50
 70
     1
102
RTVSPropertyOp51
 70
     0
102
RTVSPropertyOp52
 70
     0
102
RTVSPropertyOp53
 70
     1
102
RTVSPropertyOp54
 70
     1
102
RTVSPropertyOp55
 70
     1
102
RTVSPropertyOp56
 70
     1
102
RTVSPropertyOp57
 70
     1
102
RTVSPropertyOp58
 70
     1
102
RTVSPropertyOp59
 70
     1
102
RTVSPropertyOp60
 70
     1
102
RTVSPropertyOp61
 70
     1
102
RTVSPropertyOp62
 70
     1
  0
XRECORD
  5
1BB96
102
{ACAD_REACTORS
330
1BB95
102
}
330
1BB95
100
AcDbXrecord
280
     1
102
RTVSPost2010Prop28
280
     0
102
RTVSPost2010PropOp28
 70
     1
102
RTVSPost2010Prop29
280
     1
102
RTVSPost2010PropOp29
 70
     1
102
RTVSPost2010Prop30
280
     1
102
RTVSPost2010PropOp30
 70
     1
102
RTVSPost2010Prop31
280
     0
102
RTVSPost2010PropOp31
 70
     1
102
RTVSPost2010Prop32
280
     0
102
RTVSPost2010PropOp32
 70
     1
102
RTVSPost2010Prop33
280
     0
102
RTVSPost2010PropOp33
 70
     1
102
RTVSPost2010Prop34
280
     0
102
RTVSPost2010PropOp34
 70
     1
102
RTVSPost2010Prop35
280
     0
102
RTVSPost2010PropOp35
 70
     1
102
RTVSPost2010Prop36
280
     0
102
RTVSPost2010PropOp36
 70
     1
102
RTVSPost2010Prop37
 90
       50
102
RTVSPost2010PropOp37
 70
     1
102
RTVSPost2010Prop38
140
0.0
102
RTVSPost2010PropOp38
 70
     1
102
RTVSPost2010Prop39
140
1.0
102
RTVSPost2010PropOp39
 70
     1
102
RTVSPost2010Prop40
 90
        0
102
RTVSPost2010PropOp40
 70
     1
102
RTVSPost2010Prop41ColorIndex
 90
       18
102
RTVSPost2010Prop41ColorRGB
 90
        0
102
RTVSPost2010PropOp41
 70
     1
102
RTVSPost2010Prop42
 90
       50
102
RTVSPost2010PropOp42
 70
     1
102
RTVSPost2010Prop43
 90
        3
102
RTVSPost2010PropOp43
 70
     1
102
RTVSPost2010Prop44ColorIndex
 90
        5
102
RTVSPost2010Prop44ColorRGB
 90
      255
102
RTVSPost2010PropOp44
 70
     1
102
RTVSPost2010Prop45
280
     0
102
RTVSPost2010PropOp45
 70
     1
102
RTVSPost2010Prop46
 90
       50
102
RTVSPost2010PropOp46
 70
     1
102
RTVSPost2010Prop47
 90
       50
102
RTVSPost2010PropOp47
 70
     1
102
RTVSPost2010Prop48
 90
       50
102
RTVSPost2010PropOp48
 70
     1
102
RTVSPost2010Prop49
280
     0
102
RTVSPost2010PropOp49
 70
     1
102
RTVSPost2010Prop50
 90
       50
102
RTVSPost2010PropOp50
 70
     1
102
RTVSPost2010Prop51ColorIndex
 90
      256
102
RTVSPost2010Prop51ColorRGB
 90
-16777216
102
RTVSPost2010PropOp51
 70
     0
102
RTVSPost2010Prop52
140
1.0
102
RTVSPost2010PropOp52
 70
     0
102
RTVSPost2010Prop53
 90
        2
102
RTVSPost2010PropOp53
 70
     1
102
RTVSPost2010Prop54
  1
strokes_ogs.tif
102
RTVSPost2010PropOp54
 70
     1
102
RTVSPost2010Prop55
280
     0
102
RTVSPost2010PropOp55
 70
     1
102
RTVSPost2010Prop56
140
1.0
102
RTVSPost2010PropOp56
 70
     1
102
RTVSPost2010Prop57
140
1.0
102
RTVSPost2010PropOp57
 70
     1
102
RTVSPropertyOp0
 70
     1
102
RTVSPropertyOp1
 70
     1
102
RTVSPropertyOp2
 70
     1
102
RTVSPropertyOp3
 70
     1
102
RTVSPropertyOp4
 70
     1
102
RTVSPropertyOp5
 70
     1
102
RTVSPropertyOp6
 70
     1
102
RTVSPropertyOp7
 70
     1
102
RTVSPropertyOp8
 70
     1
102
RTVSPropertyOp9
 70
     1
102
RTVSPropertyOp10
 70
     1
102
RTVSPropertyOp11
 70
     1
102
RTVSPropertyOp12
 70
     1
102
RTVSPropertyOp13
 70
     1
102
RTVSPropertyOp14
 70
     1
102
RTVSPropertyOp15
 70
     1
102
RTVSPropertyOp16
 70
     1
102
RTVSPropertyOp17
 70
     1
102
RTVSPropertyOp18
 70
     1
102
RTVSPropertyOp19
 70
     1
102
RTVSPropertyOp20
 70
     1
102
RTVSPropertyOp21
 70
     1
102
RTVSPropertyOp22
 70
     1
102
RTVSPropertyOp23
 70
     1
102
RTVSPropertyOp24
 70
     1
102
RTVSPropertyOp25
 70
     1
102
RTVSPropertyOp26
 70
     1
102
RTVSPropertyOp27
 70
     1
102
RTVSPropertyOp28
 70
     1
102
RTVSPropertyOp29
 70
     1
102
RTVSPropertyOp30
 70
     1
102
RTVSPropertyOp31
 70
     1
102
RTVSPropertyOp32
 70
     1
102
RTVSPropertyOp33
 70
     1
102
RTVSPropertyOp34
 70
     1
102
RTVSPropertyOp35
 70
     1
102
RTVSPropertyOp36
 70
     1
102
RTVSPropertyOp37
 70
     1
102
RTVSPropertyOp38
 70
     1
102
RTVSPropertyOp39
 70
     1
102
RTVSPropertyOp40
 70
     1
102
RTVSPropertyOp41
 70
     1
102
RTVSPropertyOp42
 70
     1
102
RTVSPropertyOp43
 70
     1
102
RTVSPropertyOp44
 70
     1
102
RTVSPropertyOp45
 70
     1
102
RTVSPropertyOp46
 70
     1
102
RTVSPropertyOp47
 70
     1
102
RTVSPropertyOp48
 70
     1
102
RTVSPropertyOp49
 70
     1
102
RTVSPropertyOp50
 70
     1
102
RTVSPropertyOp51
 70
     0
102
RTVSPropertyOp52
 70
     0
102
RTVSPropertyOp53
 70
     1
102
RTVSPropertyOp54
 70
     1
102
RTVSPropertyOp55
 70
     1
102
RTVSPropertyOp56
 70
     1
102
RTVSPropertyOp57
 70
     1
102
RTVSPropertyOp58
 70
     1
102
RTVSPropertyOp59
 70
     1
102
RTVSPropertyOp60
 70
     1
102
RTVSPropertyOp61
 70
     1
102
RTVSPropertyOp62
 70
     1
  0
XRECORD
  5
1BB9E
102
{ACAD_REACTORS
330
1BB9D
102
}
330
1BB9D
100
AcDbXrecord
280
     1
102
RTVSPost2010Prop28
280
     0
102
RTVSPost2010PropOp28
 70
     1
102
RTVSPost2010Prop29
280
     1
102
RTVSPost2010PropOp29
 70
     1
102
RTVSPost2010Prop30
280
     1
102
RTVSPost2010PropOp30
 70
     1
102
RTVSPost2010Prop31
280
     0
102
RTVSPost2010PropOp31
 70
     1
102
RTVSPost2010Prop32
280
     0
102
RTVSPost2010PropOp32
 70
     1
102
RTVSPost2010Prop33
280
     0
102
RTVSPost2010PropOp33
 70
     1
102
RTVSPost2010Prop34
280
     0
102
RTVSPost2010PropOp34
 70
     1
102
RTVSPost2010Prop35
280
     0
102
RTVSPost2010PropOp35
 70
     1
102
RTVSPost2010Prop36
280
     0
102
RTVSPost2010PropOp36
 70
     1
102
RTVSPost2010Prop37
 90
       50
102
RTVSPost2010PropOp37
 70
     1
102
RTVSPost2010Prop38
140
0.0
102
RTVSPost2010PropOp38
 70
     1
102
RTVSPost2010Prop39
140
1.0
102
RTVSPost2010PropOp39
 70
     1
102
RTVSPost2010Prop40
 90
        0
102
RTVSPost2010PropOp40
 70
     1
102
RTVSPost2010Prop41ColorIndex
 90
       18
102
RTVSPost2010Prop41ColorRGB
 90
        0
102
RTVSPost2010PropOp41
 70
     1
102
RTVSPost2010Prop42
 90
       50
102
RTVSPost2010PropOp42
 70
     1
102
RTVSPost2010Prop43
 90
        3
102
RTVSPost2010PropOp43
 70
     1
102
RTVSPost2010Prop44ColorIndex
 90
        5
102
RTVSPost2010Prop44ColorRGB
 90
      255
102
RTVSPost2010PropOp44
 70
     1
102
RTVSPost2010Prop45
280
     0
102
RTVSPost2010PropOp45
 70
     1
102
RTVSPost2010Prop46
 90
       50
102
RTVSPost2010PropOp46
 70
     1
102
RTVSPost2010Prop47
 90
       50
102
RTVSPost2010PropOp47
 70
     1
102
RTVSPost2010Prop48
 90
       50
102
RTVSPost2010PropOp48
 70
     1
102
RTVSPost2010Prop49
280
     0
102
RTVSPost2010PropOp49
 70
     1
102
RTVSPost2010Prop50
 90
       50
102
RTVSPost2010PropOp50
 70
     1
102
RTVSPost2010Prop51ColorIndex
 90
      256
102
RTVSPost2010Prop51ColorRGB
 90
-16777216
102
RTVSPost2010PropOp51
 70
     0
102
RTVSPost2010Prop52
140
1.0
102
RTVSPost2010PropOp52
 70
     0
102
RTVSPost2010Prop53
 90
        2
102
RTVSPost2010PropOp53
 70
     1
102
RTVSPost2010Prop54
  1
strokes_ogs.tif
102
RTVSPost2010PropOp54
 70
     1
102
RTVSPost2010Prop55
280
     0
102
RTVSPost2010PropOp55
 70
     1
102
RTVSPost2010Prop56
140
1.0
102
RTVSPost2010PropOp56
 70
     1
102
RTVSPost2010Prop57
140
1.0
102
RTVSPost2010PropOp57
 70
     1
102
RTVSPropertyOp0
 70
     1
102
RTVSPropertyOp1
 70
     1
102
RTVSPropertyOp2
 70
     1
102
RTVSPropertyOp3
 70
     1
102
RTVSPropertyOp4
 70
     1
102
RTVSPropertyOp5
 70
     1
102
RTVSPropertyOp6
 70
     1
102
RTVSPropertyOp7
 70
     1
102
RTVSPropertyOp8
 70
     1
102
RTVSPropertyOp9
 70
     1
102
RTVSPropertyOp10
 70
     1
102
RTVSPropertyOp11
 70
     1
102
RTVSPropertyOp12
 70
     1
102
RTVSPropertyOp13
 70
     1
102
RTVSPropertyOp14
 70
     1
102
RTVSPropertyOp15
 70
     1
102
RTVSPropertyOp16
 70
     1
102
RTVSPropertyOp17
 70
     1
102
RTVSPropertyOp18
 70
     1
102
RTVSPropertyOp19
 70
     1
102
RTVSPropertyOp20
 70
     1
102
RTVSPropertyOp21
 70
     1
102
RTVSPropertyOp22
 70
     1
102
RTVSPropertyOp23
 70
     1
102
RTVSPropertyOp24
 70
     1
102
RTVSPropertyOp25
 70
     1
102
RTVSPropertyOp26
 70
     1
102
RTVSPropertyOp27
 70
     1
102
RTVSPropertyOp28
 70
     1
102
RTVSPropertyOp29
 70
     1
102
RTVSPropertyOp30
 70
     1
102
RTVSPropertyOp31
 70
     1
102
RTVSPropertyOp32
 70
     1
102
RTVSPropertyOp33
 70
     1
102
RTVSPropertyOp34
 70
     1
102
RTVSPropertyOp35
 70
     1
102
RTVSPropertyOp36
 70
     1
102
RTVSPropertyOp37
 70
     1
102
RTVSPropertyOp38
 70
     1
102
RTVSPropertyOp39
 70
     1
102
RTVSPropertyOp40
 70
     1
102
RTVSPropertyOp41
 70
     1
102
RTVSPropertyOp42
 70
     1
102
RTVSPropertyOp43
 70
     1
102
RTVSPropertyOp44
 70
     1
102
RTVSPropertyOp45
 70
     1
102
RTVSPropertyOp46
 70
     1
102
RTVSPropertyOp47
 70
     1
102
RTVSPropertyOp48
 70
     1
102
RTVSPropertyOp49
 70
     1
102
RTVSPropertyOp50
 70
     1
102
RTVSPropertyOp51
 70
     0
102
RTVSPropertyOp52
 70
     0
102
RTVSPropertyOp53
 70
     1
102
RTVSPropertyOp54
 70
     1
102
RTVSPropertyOp55
 70
     1
102
RTVSPropertyOp56
 70
     1
102
RTVSPropertyOp57
 70
     1
102
RTVSPropertyOp58
 70
     1
102
RTVSPropertyOp59
 70
     1
102
RTVSPropertyOp60
 70
     1
102
RTVSPropertyOp61
 70
     1
102
RTVSPropertyOp62
 70
     1
  0
XRECORD
  5
1BBBA
102
{ACAD_REACTORS
330
1BBB9
102
}
330
1BBB9
100
AcDbXrecord
280
     1
102
RTVSPost2010Prop28
280
     0
102
RTVSPost2010PropOp28
 70
     1
102
RTVSPost2010Prop29
280
     1
102
RTVSPost2010PropOp29
 70
     1
102
RTVSPost2010Prop30
280
     1
102
RTVSPost2010PropOp30
 70
     1
102
RTVSPost2010Prop31
280
     0
102
RTVSPost2010PropOp31
 70
     1
102
RTVSPost2010Prop32
280
     0
102
RTVSPost2010PropOp32
 70
     1
102
RTVSPost2010Prop33
280
     0
102
RTVSPost2010PropOp33
 70
     1
102
RTVSPost2010Prop34
280
     0
102
RTVSPost2010PropOp34
 70
     1
102
RTVSPost2010Prop35
280
     0
102
RTVSPost2010PropOp35
 70
     1
102
RTVSPost2010Prop36
280
     0
102
RTVSPost2010PropOp36
 70
     1
102
RTVSPost2010Prop37
 90
       50
102
RTVSPost2010PropOp37
 70
     0
102
RTVSPost2010Prop38
140
0.0
102
RTVSPost2010PropOp38
 70
     0
102
RTVSPost2010Prop39
140
1.0
102
RTVSPost2010PropOp39
 70
     0
102
RTVSPost2010Prop40
 90
        0
102
RTVSPost2010PropOp40
 70
     0
102
RTVSPost2010Prop41ColorIndex
 90
       18
102
RTVSPost2010Prop41ColorRGB
 90
        0
102
RTVSPost2010PropOp41
 70
     0
102
RTVSPost2010Prop42
 90
       50
102
RTVSPost2010PropOp42
 70
     0
102
RTVSPost2010Prop43
 90
        3
102
RTVSPost2010PropOp43
 70
     0
102
RTVSPost2010Prop44ColorIndex
 90
        5
102
RTVSPost2010Prop44ColorRGB
 90
      255
102
RTVSPost2010PropOp44
 70
     0
102
RTVSPost2010Prop45
280
     0
102
RTVSPost2010PropOp45
 70
     1
102
RTVSPost2010Prop46
 90
       50
102
RTVSPost2010PropOp46
 70
     0
102
RTVSPost2010Prop47
 90
       50
102
RTVSPost2010PropOp47
 70
     0
102
RTVSPost2010Prop48
 90
       50
102
RTVSPost2010PropOp48
 70
     0
102
RTVSPost2010Prop49
280
     0
102
RTVSPost2010PropOp49
 70
     1
102
RTVSPost2010Prop50
 90
       50
102
RTVSPost2010PropOp50
 70
     0
102
RTVSPost2010Prop51ColorIndex
 90
      256
102
RTVSPost2010Prop51ColorRGB
 90
-16777216
102
RTVSPost2010PropOp51
 70
     0
102
RTVSPost2010Prop52
140
1.0
102
RTVSPost2010PropOp52
 70
     0
102
RTVSPost2010Prop53
 90
        2
102
RTVSPost2010PropOp53
 70
     0
102
RTVSPost2010Prop54
  1
strokes_ogs.tif
102
RTVSPost2010PropOp54
 70
     0
102
RTVSPost2010Prop55
280
     0
102
RTVSPost2010PropOp55
 70
     1
102
RTVSPost2010Prop56
140
1.0
102
RTVSPost2010PropOp56
 70
     0
102
RTVSPost2010Prop57
140
1.0
102
RTVSPost2010PropOp57
 70
     0
102
RTVSPropertyOp0
 70
     0
102
RTVSPropertyOp1
 70
     0
102
RTVSPropertyOp2
 70
     0
102
RTVSPropertyOp3
 70
     0
102
RTVSPropertyOp4
 70
     0
102
RTVSPropertyOp5
 70
     0
102
RTVSPropertyOp6
 70
     0
102
RTVSPropertyOp7
 70
     0
102
RTVSPropertyOp8
 70
     0
102
RTVSPropertyOp9
 70
     0
102
RTVSPropertyOp10
 70
     0
102
RTVSPropertyOp11
 70
     0
102
RTVSPropertyOp12
 70
     0
102
RTVSPropertyOp13
 70
     0
102
RTVSPropertyOp14
 70
     2
102
RTVSPropertyOp15
 70
     0
102
RTVSPropertyOp16
 70
     0
102
RTVSPropertyOp17
 70
     0
102
RTVSPropertyOp18
 70
     0
102
RTVSPropertyOp19
 70
     0
102
RTVSPropertyOp20
 70
     0
102
RTVSPropertyOp21
 70
     0
102
RTVSPropertyOp22
 70
     0
102
RTVSPropertyOp23
 70
     0
102
RTVSPropertyOp24
 70
     0
102
RTVSPropertyOp25
 70
     0
102
RTVSPropertyOp26
 70
     0
102
RTVSPropertyOp27
 70
     0
102
RTVSPropertyOp28
 70
     1
102
RTVSPropertyOp29
 70
     1
102
RTVSPropertyOp30
 70
     1
102
RTVSPropertyOp31
 70
     1
102
RTVSPropertyOp32
 70
     1
102
RTVSPropertyOp33
 70
     1
102
RTVSPropertyOp34
 70
     1
102
RTVSPropertyOp35
 70
     1
102
RTVSPropertyOp36
 70
     1
102
RTVSPropertyOp37
 70
     0
102
RTVSPropertyOp38
 70
     0
102
RTVSPropertyOp39
 70
     0
102
RTVSPropertyOp40
 70
     0
102
RTVSPropertyOp41
 70
     0
102
RTVSPropertyOp42
 70
     0
102
RTVSPropertyOp43
 70
     0
102
RTVSPropertyOp44
 70
     0
102
RTVSPropertyOp45
 70
     1
102
RTVSPropertyOp46
 70
     0
102
RTVSPropertyOp47
 70
     0
102
RTVSPropertyOp48
 70
     0
102
RTVSPropertyOp49
 70
     1
102
RTVSPropertyOp50
 70
     0
102
RTVSPropertyOp51
 70
     0
102
RTVSPropertyOp52
 70
     0
102
RTVSPropertyOp53
 70
     0
102
RTVSPropertyOp54
 70
     0
102
RTVSPropertyOp55
 70
     1
102
RTVSPropertyOp56
 70
     0
102
RTVSPropertyOp57
 70
     0
102
RTVSPropertyOp58
 70
     0
102
RTVSPropertyOp59
 70
     0
102
RTVSPropertyOp60
 70
     0
102
RTVSPropertyOp61
 70
     0
102
RTVSPropertyOp62
 70
     0
  0
XRECORD
  5
1BBAA
102
{ACAD_REACTORS
330
1BBA9
102
}
330
1BBA9
100
AcDbXrecord
280
     1
102
RTVSPost2010Prop28
280
     0
102
RTVSPost2010PropOp28
 70
     1
102
RTVSPost2010Prop29
280
     1
102
RTVSPost2010PropOp29
 70
     1
102
RTVSPost2010Prop30
280
     1
102
RTVSPost2010PropOp30
 70
     1
102
RTVSPost2010Prop31
280
     0
102
RTVSPost2010PropOp31
 70
     1
102
RTVSPost2010Prop32
280
     0
102
RTVSPost2010PropOp32
 70
     1
102
RTVSPost2010Prop33
280
     0
102
RTVSPost2010PropOp33
 70
     1
102
RTVSPost2010Prop34
280
     0
102
RTVSPost2010PropOp34
 70
     1
102
RTVSPost2010Prop35
280
     0
102
RTVSPost2010PropOp35
 70
     1
102
RTVSPost2010Prop36
280
     0
102
RTVSPost2010PropOp36
 70
     1
102
RTVSPost2010Prop37
 90
       50
102
RTVSPost2010PropOp37
 70
     1
102
RTVSPost2010Prop38
140
0.0
102
RTVSPost2010PropOp38
 70
     1
102
RTVSPost2010Prop39
140
1.0
102
RTVSPost2010PropOp39
 70
     1
102
RTVSPost2010Prop40
 90
        0
102
RTVSPost2010PropOp40
 70
     1
102
RTVSPost2010Prop41ColorIndex
 90
       18
102
RTVSPost2010Prop41ColorRGB
 90
        0
102
RTVSPost2010PropOp41
 70
     1
102
RTVSPost2010Prop42
 90
       50
102
RTVSPost2010PropOp42
 70
     1
102
RTVSPost2010Prop43
 90
        3
102
RTVSPost2010PropOp43
 70
     1
102
RTVSPost2010Prop44ColorIndex
 90
        5
102
RTVSPost2010Prop44ColorRGB
 90
      255
102
RTVSPost2010PropOp44
 70
     1
102
RTVSPost2010Prop45
280
     0
102
RTVSPost2010PropOp45
 70
     1
102
RTVSPost2010Prop46
 90
       50
102
RTVSPost2010PropOp46
 70
     1
102
RTVSPost2010Prop47
 90
       50
102
RTVSPost2010PropOp47
 70
     1
102
RTVSPost2010Prop48
 90
       50
102
RTVSPost2010PropOp48
 70
     1
102
RTVSPost2010Prop49
280
     0
102
RTVSPost2010PropOp49
 70
     1
102
RTVSPost2010Prop50
 90
       50
102
RTVSPost2010PropOp50
 70
     1
102
RTVSPost2010Prop51ColorIndex
 90
      256
102
RTVSPost2010Prop51ColorRGB
 90
-16777216
102
RTVSPost2010PropOp51
 70
     0
102
RTVSPost2010Prop52
140
1.0
102
RTVSPost2010PropOp52
 70
     0
102
RTVSPost2010Prop53
 90
        2
102
RTVSPost2010PropOp53
 70
     1
102
RTVSPost2010Prop54
  1
strokes_ogs.tif
102
RTVSPost2010PropOp54
 70
     1
102
RTVSPost2010Prop55
280
     0
102
RTVSPost2010PropOp55
 70
     1
102
RTVSPost2010Prop56
140
1.0
102
RTVSPost2010PropOp56
 70
     1
102
RTVSPost2010Prop57
140
1.0
102
RTVSPost2010PropOp57
 70
     1
102
RTVSPropertyOp0
 70
     1
102
RTVSPropertyOp1
 70
     1
102
RTVSPropertyOp2
 70
     1
102
RTVSPropertyOp3
 70
     1
102
RTVSPropertyOp4
 70
     1
102
RTVSPropertyOp5
 70
     1
102
RTVSPropertyOp6
 70
     1
102
RTVSPropertyOp7
 70
     1
102
RTVSPropertyOp8
 70
     1
102
RTVSPropertyOp9
 70
     1
102
RTVSPropertyOp10
 70
     1
102
RTVSPropertyOp11
 70
     1
102
RTVSPropertyOp12
 70
     1
102
RTVSPropertyOp13
 70
     1
102
RTVSPropertyOp14
 70
     1
102
RTVSPropertyOp15
 70
     1
102
RTVSPropertyOp16
 70
     1
102
RTVSPropertyOp17
 70
     1
102
RTVSPropertyOp18
 70
     1
102
RTVSPropertyOp19
 70
     1
102
RTVSPropertyOp20
 70
     1
102
RTVSPropertyOp21
 70
     1
102
RTVSPropertyOp22
 70
     1
102
RTVSPropertyOp23
 70
     1
102
RTVSPropertyOp24
 70
     1
102
RTVSPropertyOp25
 70
     1
102
RTVSPropertyOp26
 70
     1
102
RTVSPropertyOp27
 70
     1
102
RTVSPropertyOp28
 70
     1
102
RTVSPropertyOp29
 70
     1
102
RTVSPropertyOp30
 70
     1
102
RTVSPropertyOp31
 70
     1
102
RTVSPropertyOp32
 70
     1
102
RTVSPropertyOp33
 70
     1
102
RTVSPropertyOp34
 70
     1
102
RTVSPropertyOp35
 70
     1
102
RTVSPropertyOp36
 70
     1
102
RTVSPropertyOp37
 70
     1
102
RTVSPropertyOp38
 70
     1
102
RTVSPropertyOp39
 70
     1
102
RTVSPropertyOp40
 70
     1
102
RTVSPropertyOp41
 70
     1
102
RTVSPropertyOp42
 70
     1
102
RTVSPropertyOp43
 70
     1
102
RTVSPropertyOp44
 70
     1
102
RTVSPropertyOp45
 70
     1
102
RTVSPropertyOp46
 70
     1
102
RTVSPropertyOp47
 70
     1
102
RTVSPropertyOp48
 70
     1
102
RTVSPropertyOp49
 70
     1
102
RTVSPropertyOp50
 70
     1
102
RTVSPropertyOp51
 70
     0
102
RTVSPropertyOp52
 70
     0
102
RTVSPropertyOp53
 70
     1
102
RTVSPropertyOp54
 70
     1
102
RTVSPropertyOp55
 70
     1
102
RTVSPropertyOp56
 70
     1
102
RTVSPropertyOp57
 70
     1
102
RTVSPropertyOp58
 70
     1
102
RTVSPropertyOp59
 70
     1
102
RTVSPropertyOp60
 70
     1
102
RTVSPropertyOp61
 70
     1
102
RTVSPropertyOp62
 70
     1
  0
XRECORD
  5
1BBBC
102
{ACAD_REACTORS
330
1BBBB
102
}
330
1BBBB
100
AcDbXrecord
280
     1
102
RTVSPost2010Prop28
280
     0
102
RTVSPost2010PropOp28
 70
     1
102
RTVSPost2010Prop29
280
     1
102
RTVSPost2010PropOp29
 70
     1
102
RTVSPost2010Prop30
280
     1
102
RTVSPost2010PropOp30
 70
     1
102
RTVSPost2010Prop31
280
     0
102
RTVSPost2010PropOp31
 70
     1
102
RTVSPost2010Prop32
280
     0
102
RTVSPost2010PropOp32
 70
     1
102
RTVSPost2010Prop33
280
     0
102
RTVSPost2010PropOp33
 70
     1
102
RTVSPost2010Prop34
280
     0
102
RTVSPost2010PropOp34
 70
     1
102
RTVSPost2010Prop35
280
     0
102
RTVSPost2010PropOp35
 70
     1
102
RTVSPost2010Prop36
280
     0
102
RTVSPost2010PropOp36
 70
     1
102
RTVSPost2010Prop37
 90
       50
102
RTVSPost2010PropOp37
 70
     0
102
RTVSPost2010Prop38
140
0.0
102
RTVSPost2010PropOp38
 70
     0
102
RTVSPost2010Prop39
140
1.0
102
RTVSPost2010PropOp39
 70
     0
102
RTVSPost2010Prop40
 90
        0
102
RTVSPost2010PropOp40
 70
     0
102
RTVSPost2010Prop41ColorIndex
 90
       18
102
RTVSPost2010Prop41ColorRGB
 90
        0
102
RTVSPost2010PropOp41
 70
     0
102
RTVSPost2010Prop42
 90
       50
102
RTVSPost2010PropOp42
 70
     0
102
RTVSPost2010Prop43
 90
        3
102
RTVSPost2010PropOp43
 70
     0
102
RTVSPost2010Prop44ColorIndex
 90
        5
102
RTVSPost2010Prop44ColorRGB
 90
      255
102
RTVSPost2010PropOp44
 70
     0
102
RTVSPost2010Prop45
280
     0
102
RTVSPost2010PropOp45
 70
     1
102
RTVSPost2010Prop46
 90
       50
102
RTVSPost2010PropOp46
 70
     0
102
RTVSPost2010Prop47
 90
       50
102
RTVSPost2010PropOp47
 70
     0
102
RTVSPost2010Prop48
 90
       50
102
RTVSPost2010PropOp48
 70
     0
102
RTVSPost2010Prop49
280
     0
102
RTVSPost2010PropOp49
 70
     1
102
RTVSPost2010Prop50
 90
       50
102
RTVSPost2010PropOp50
 70
     0
102
RTVSPost2010Prop51ColorIndex
 90
      256
102
RTVSPost2010Prop51ColorRGB
 90
-16777216
102
RTVSPost2010PropOp51
 70
     0
102
RTVSPost2010Prop52
140
1.0
102
RTVSPost2010PropOp52
 70
     0
102
RTVSPost2010Prop53
 90
        2
102
RTVSPost2010PropOp53
 70
     0
102
RTVSPost2010Prop54
  1
strokes_ogs.tif
102
RTVSPost2010PropOp54
 70
     0
102
RTVSPost2010Prop55
280
     0
102
RTVSPost2010PropOp55
 70
     1
102
RTVSPost2010Prop56
140
1.0
102
RTVSPost2010PropOp56
 70
     0
102
RTVSPost2010Prop57
140
1.0
102
RTVSPost2010PropOp57
 70
     0
102
RTVSPropertyOp0
 70
     0
102
RTVSPropertyOp1
 70
     0
102
RTVSPropertyOp2
 70
     0
102
RTVSPropertyOp3
 70
     0
102
RTVSPropertyOp4
 70
     0
102
RTVSPropertyOp5
 70
     0
102
RTVSPropertyOp6
 70
     0
102
RTVSPropertyOp7
 70
     0
102
RTVSPropertyOp8
 70
     0
102
RTVSPropertyOp9
 70
     0
102
RTVSPropertyOp10
 70
     0
102
RTVSPropertyOp11
 70
     0
102
RTVSPropertyOp12
 70
     0
102
RTVSPropertyOp13
 70
     0
102
RTVSPropertyOp14
 70
     2
102
RTVSPropertyOp15
 70
     0
102
RTVSPropertyOp16
 70
     0
102
RTVSPropertyOp17
 70
     0
102
RTVSPropertyOp18
 70
     0
102
RTVSPropertyOp19
 70
     0
102
RTVSPropertyOp20
 70
     0
102
RTVSPropertyOp21
 70
     0
102
RTVSPropertyOp22
 70
     0
102
RTVSPropertyOp23
 70
     0
102
RTVSPropertyOp24
 70
     0
102
RTVSPropertyOp25
 70
     0
102
RTVSPropertyOp26
 70
     0
102
RTVSPropertyOp27
 70
     0
102
RTVSPropertyOp28
 70
     1
102
RTVSPropertyOp29
 70
     1
102
RTVSPropertyOp30
 70
     1
102
RTVSPropertyOp31
 70
     1
102
RTVSPropertyOp32
 70
     1
102
RTVSPropertyOp33
 70
     1
102
RTVSPropertyOp34
 70
     1
102
RTVSPropertyOp35
 70
     1
102
RTVSPropertyOp36
 70
     1
102
RTVSPropertyOp37
 70
     0
102
RTVSPropertyOp38
 70
     0
102
RTVSPropertyOp39
 70
     0
102
RTVSPropertyOp40
 70
     0
102
RTVSPropertyOp41
 70
     0
102
RTVSPropertyOp42
 70
     0
102
RTVSPropertyOp43
 70
     0
102
RTVSPropertyOp44
 70
     0
102
RTVSPropertyOp45
 70
     1
102
RTVSPropertyOp46
 70
     0
102
RTVSPropertyOp47
 70
     0
102
RTVSPropertyOp48
 70
     0
102
RTVSPropertyOp49
 70
     1
102
RTVSPropertyOp50
 70
     0
102
RTVSPropertyOp51
 70
     0
102
RTVSPropertyOp52
 70
     0
102
RTVSPropertyOp53
 70
     0
102
RTVSPropertyOp54
 70
     0
102
RTVSPropertyOp55
 70
     1
102
RTVSPropertyOp56
 70
     0
102
RTVSPropertyOp57
 70
     0
102
RTVSPropertyOp58
 70
     0
102
RTVSPropertyOp59
 70
     0
102
RTVSPropertyOp60
 70
     0
102
RTVSPropertyOp61
 70
     0
102
RTVSPropertyOp62
 70
     0
  0
XRECORD
  5
1BBA2
102
{ACAD_REACTORS
330
1BBA1
102
}
330
1BBA1
100
AcDbXrecord
280
     1
102
RTVSPost2010Prop28
280
     0
102
RTVSPost2010PropOp28
 70
     1
102
RTVSPost2010Prop29
280
     1
102
RTVSPost2010PropOp29
 70
     1
102
RTVSPost2010Prop30
280
     1
102
RTVSPost2010PropOp30
 70
     1
102
RTVSPost2010Prop31
280
     0
102
RTVSPost2010PropOp31
 70
     1
102
RTVSPost2010Prop32
280
     0
102
RTVSPost2010PropOp32
 70
     1
102
RTVSPost2010Prop33
280
     0
102
RTVSPost2010PropOp33
 70
     1
102
RTVSPost2010Prop34
280
     0
102
RTVSPost2010PropOp34
 70
     1
102
RTVSPost2010Prop35
280
     0
102
RTVSPost2010PropOp35
 70
     1
102
RTVSPost2010Prop36
280
     0
102
RTVSPost2010PropOp36
 70
     1
102
RTVSPost2010Prop37
 90
       50
102
RTVSPost2010PropOp37
 70
     1
102
RTVSPost2010Prop38
140
0.0
102
RTVSPost2010PropOp38
 70
     1
102
RTVSPost2010Prop39
140
1.0
102
RTVSPost2010PropOp39
 70
     1
102
RTVSPost2010Prop40
 90
        0
102
RTVSPost2010PropOp40
 70
     1
102
RTVSPost2010Prop41ColorIndex
 90
       18
102
RTVSPost2010Prop41ColorRGB
 90
        0
102
RTVSPost2010PropOp41
 70
     1
102
RTVSPost2010Prop42
 90
       50
102
RTVSPost2010PropOp42
 70
     1
102
RTVSPost2010Prop43
 90
        3
102
RTVSPost2010PropOp43
 70
     1
102
RTVSPost2010Prop44ColorIndex
 90
        5
102
RTVSPost2010Prop44ColorRGB
 90
      255
102
RTVSPost2010PropOp44
 70
     1
102
RTVSPost2010Prop45
280
     0
102
RTVSPost2010PropOp45
 70
     1
102
RTVSPost2010Prop46
 90
       50
102
RTVSPost2010PropOp46
 70
     1
102
RTVSPost2010Prop47
 90
       50
102
RTVSPost2010PropOp47
 70
     1
102
RTVSPost2010Prop48
 90
       50
102
RTVSPost2010PropOp48
 70
     1
102
RTVSPost2010Prop49
280
     0
102
RTVSPost2010PropOp49
 70
     1
102
RTVSPost2010Prop50
 90
       50
102
RTVSPost2010PropOp50
 70
     1
102
RTVSPost2010Prop51ColorIndex
 90
      256
102
RTVSPost2010Prop51ColorRGB
 90
-16777216
102
RTVSPost2010PropOp51
 70
     0
102
RTVSPost2010Prop52
140
1.0
102
RTVSPost2010PropOp52
 70
     0
102
RTVSPost2010Prop53
 90
        2
102
RTVSPost2010PropOp53
 70
     1
102
RTVSPost2010Prop54
  1
strokes_ogs.tif
102
RTVSPost2010PropOp54
 70
     1
102
RTVSPost2010Prop55
280
     0
102
RTVSPost2010PropOp55
 70
     1
102
RTVSPost2010Prop56
140
1.0
102
RTVSPost2010PropOp56
 70
     1
102
RTVSPost2010Prop57
140
1.0
102
RTVSPost2010PropOp57
 70
     1
102
RTVSPropertyOp0
 70
     1
102
RTVSPropertyOp1
 70
     1
102
RTVSPropertyOp2
 70
     1
102
RTVSPropertyOp3
 70
     1
102
RTVSPropertyOp4
 70
     1
102
RTVSPropertyOp5
 70
     1
102
RTVSPropertyOp6
 70
     1
102
RTVSPropertyOp7
 70
     1
102
RTVSPropertyOp8
 70
     1
102
RTVSPropertyOp9
 70
     1
102
RTVSPropertyOp10
 70
     1
102
RTVSPropertyOp11
 70
     1
102
RTVSPropertyOp12
 70
     1
102
RTVSPropertyOp13
 70
     1
102
RTVSPropertyOp14
 70
     1
102
RTVSPropertyOp15
 70
     1
102
RTVSPropertyOp16
 70
     1
102
RTVSPropertyOp17
 70
     1
102
RTVSPropertyOp18
 70
     1
102
RTVSPropertyOp19
 70
     1
102
RTVSPropertyOp20
 70
     1
102
RTVSPropertyOp21
 70
     1
102
RTVSPropertyOp22
 70
     1
102
RTVSPropertyOp23
 70
     1
102
RTVSPropertyOp24
 70
     1
102
RTVSPropertyOp25
 70
     1
102
RTVSPropertyOp26
 70
     1
102
RTVSPropertyOp27
 70
     1
102
RTVSPropertyOp28
 70
     1
102
RTVSPropertyOp29
 70
     1
102
RTVSPropertyOp30
 70
     1
102
RTVSPropertyOp31
 70
     1
102
RTVSPropertyOp32
 70
     1
102
RTVSPropertyOp33
 70
     1
102
RTVSPropertyOp34
 70
     1
102
RTVSPropertyOp35
 70
     1
102
RTVSPropertyOp36
 70
     1
102
RTVSPropertyOp37
 70
     1
102
RTVSPropertyOp38
 70
     1
102
RTVSPropertyOp39
 70
     1
102
RTVSPropertyOp40
 70
     1
102
RTVSPropertyOp41
 70
     1
102
RTVSPropertyOp42
 70
     1
102
RTVSPropertyOp43
 70
     1
102
RTVSPropertyOp44
 70
     1
102
RTVSPropertyOp45
 70
     1
102
RTVSPropertyOp46
 70
     1
102
RTVSPropertyOp47
 70
     1
102
RTVSPropertyOp48
 70
     1
102
RTVSPropertyOp49
 70
     1
102
RTVSPropertyOp50
 70
     1
102
RTVSPropertyOp51
 70
     0
102
RTVSPropertyOp52
 70
     0
102
RTVSPropertyOp53
 70
     1
102
RTVSPropertyOp54
 70
     1
102
RTVSPropertyOp55
 70
     1
102
RTVSPropertyOp56
 70
     1
102
RTVSPropertyOp57
 70
     1
102
RTVSPropertyOp58
 70
     1
102
RTVSPropertyOp59
 70
     1
102
RTVSPropertyOp60
 70
     1
102
RTVSPropertyOp61
 70
     1
102
RTVSPropertyOp62
 70
     1
  0
XRECORD
  5
1BBB8
102
{ACAD_REACTORS
330
1BBB7
102
}
330
1BBB7
100
AcDbXrecord
280
     1
102
RTVSPost2010Prop28
280
     0
102
RTVSPost2010PropOp28
 70
     1
102
RTVSPost2010Prop29
280
     1
102
RTVSPost2010PropOp29
 70
     1
102
RTVSPost2010Prop30
280
     1
102
RTVSPost2010PropOp30
 70
     1
102
RTVSPost2010Prop31
280
     0
102
RTVSPost2010PropOp31
 70
     1
102
RTVSPost2010Prop32
280
     0
102
RTVSPost2010PropOp32
 70
     1
102
RTVSPost2010Prop33
280
     0
102
RTVSPost2010PropOp33
 70
     1
102
RTVSPost2010Prop34
280
     0
102
RTVSPost2010PropOp34
 70
     1
102
RTVSPost2010Prop35
280
     0
102
RTVSPost2010PropOp35
 70
     1
102
RTVSPost2010Prop36
280
     0
102
RTVSPost2010PropOp36
 70
     1
102
RTVSPost2010Prop37
 90
       50
102
RTVSPost2010PropOp37
 70
     1
102
RTVSPost2010Prop38
140
0.0
102
RTVSPost2010PropOp38
 70
     1
102
RTVSPost2010Prop39
140
1.0
102
RTVSPost2010PropOp39
 70
     1
102
RTVSPost2010Prop40
 90
        0
102
RTVSPost2010PropOp40
 70
     1
102
RTVSPost2010Prop41ColorIndex
 90
       18
102
RTVSPost2010Prop41ColorRGB
 90
        0
102
RTVSPost2010PropOp41
 70
     1
102
RTVSPost2010Prop42
 90
       50
102
RTVSPost2010PropOp42
 70
     1
102
RTVSPost2010Prop43
 90
        3
102
RTVSPost2010PropOp43
 70
     1
102
RTVSPost2010Prop44ColorIndex
 90
        5
102
RTVSPost2010Prop44ColorRGB
 90
      255
102
RTVSPost2010PropOp44
 70
     1
102
RTVSPost2010Prop45
280
     0
102
RTVSPost2010PropOp45
 70
     1
102
RTVSPost2010Prop46
 90
       50
102
RTVSPost2010PropOp46
 70
     1
102
RTVSPost2010Prop47
 90
       50
102
RTVSPost2010PropOp47
 70
     1
102
RTVSPost2010Prop48
 90
       50
102
RTVSPost2010PropOp48
 70
     1
102
RTVSPost2010Prop49
280
     0
102
RTVSPost2010PropOp49
 70
     1
102
RTVSPost2010Prop50
 90
       50
102
RTVSPost2010PropOp50
 70
     1
102
RTVSPost2010Prop51ColorIndex
 90
      256
102
RTVSPost2010Prop51ColorRGB
 90
-16777216
102
RTVSPost2010PropOp51
 70
     0
102
RTVSPost2010Prop52
140
1.0
102
RTVSPost2010PropOp52
 70
     0
102
RTVSPost2010Prop53
 90
        2
102
RTVSPost2010PropOp53
 70
     1
102
RTVSPost2010Prop54
  1
strokes_ogs.tif
102
RTVSPost2010PropOp54
 70
     1
102
RTVSPost2010Prop55
280
     0
102
RTVSPost2010PropOp55
 70
     1
102
RTVSPost2010Prop56
140
1.0
102
RTVSPost2010PropOp56
 70
     1
102
RTVSPost2010Prop57
140
1.0
102
RTVSPost2010PropOp57
 70
     1
102
RTVSPropertyOp0
 70
     1
102
RTVSPropertyOp1
 70
     1
102
RTVSPropertyOp2
 70
     1
102
RTVSPropertyOp3
 70
     1
102
RTVSPropertyOp4
 70
     1
102
RTVSPropertyOp5
 70
     1
102
RTVSPropertyOp6
 70
     1
102
RTVSPropertyOp7
 70
     1
102
RTVSPropertyOp8
 70
     1
102
RTVSPropertyOp9
 70
     1
102
RTVSPropertyOp10
 70
     1
102
RTVSPropertyOp11
 70
     1
102
RTVSPropertyOp12
 70
     1
102
RTVSPropertyOp13
 70
     1
102
RTVSPropertyOp14
 70
     1
102
RTVSPropertyOp15
 70
     1
102
RTVSPropertyOp16
 70
     1
102
RTVSPropertyOp17
 70
     1
102
RTVSPropertyOp18
 70
     1
102
RTVSPropertyOp19
 70
     1
102
RTVSPropertyOp20
 70
     1
102
RTVSPropertyOp21
 70
     1
102
RTVSPropertyOp22
 70
     1
102
RTVSPropertyOp23
 70
     1
102
RTVSPropertyOp24
 70
     1
102
RTVSPropertyOp25
 70
     1
102
RTVSPropertyOp26
 70
     1
102
RTVSPropertyOp27
 70
     1
102
RTVSPropertyOp28
 70
     1
102
RTVSPropertyOp29
 70
     1
102
RTVSPropertyOp30
 70
     1
102
RTVSPropertyOp31
 70
     1
102
RTVSPropertyOp32
 70
     1
102
RTVSPropertyOp33
 70
     1
102
RTVSPropertyOp34
 70
     1
102
RTVSPropertyOp35
 70
     1
102
RTVSPropertyOp36
 70
     1
102
RTVSPropertyOp37
 70
     1
102
RTVSPropertyOp38
 70
     1
102
RTVSPropertyOp39
 70
     1
102
RTVSPropertyOp40
 70
     1
102
RTVSPropertyOp41
 70
     1
102
RTVSPropertyOp42
 70
     1
102
RTVSPropertyOp43
 70
     1
102
RTVSPropertyOp44
 70
     1
102
RTVSPropertyOp45
 70
     1
102
RTVSPropertyOp46
 70
     1
102
RTVSPropertyOp47
 70
     1
102
RTVSPropertyOp48
 70
     1
102
RTVSPropertyOp49
 70
     1
102
RTVSPropertyOp50
 70
     1
102
RTVSPropertyOp51
 70
     0
102
RTVSPropertyOp52
 70
     0
102
RTVSPropertyOp53
 70
     1
102
RTVSPropertyOp54
 70
     1
102
RTVSPropertyOp55
 70
     1
102
RTVSPropertyOp56
 70
     1
102
RTVSPropertyOp57
 70
     1
102
RTVSPropertyOp58
 70
     1
102
RTVSPropertyOp59
 70
     1
102
RTVSPropertyOp60
 70
     1
102
RTVSPropertyOp61
 70
     1
102
RTVSPropertyOp62
 70
     1
  0
XRECORD
  5
1BBB6
102
{ACAD_REACTORS
330
1BBB5
102
}
330
1BBB5
100
AcDbXrecord
280
     1
102
RTVSPost2010Prop28
280
     0
102
RTVSPost2010PropOp28
 70
     1
102
RTVSPost2010Prop29
280
     1
102
RTVSPost2010PropOp29
 70
     1
102
RTVSPost2010Prop30
280
     1
102
RTVSPost2010PropOp30
 70
     1
102
RTVSPost2010Prop31
280
     0
102
RTVSPost2010PropOp31
 70
     1
102
RTVSPost2010Prop32
280
     0
102
RTVSPost2010PropOp32
 70
     1
102
RTVSPost2010Prop33
280
     0
102
RTVSPost2010PropOp33
 70
     1
102
RTVSPost2010Prop34
280
     0
102
RTVSPost2010PropOp34
 70
     1
102
RTVSPost2010Prop35
280
     0
102
RTVSPost2010PropOp35
 70
     1
102
RTVSPost2010Prop36
280
     0
102
RTVSPost2010PropOp36
 70
     1
102
RTVSPost2010Prop37
 90
       50
102
RTVSPost2010PropOp37
 70
     1
102
RTVSPost2010Prop38
140
0.0
102
RTVSPost2010PropOp38
 70
     1
102
RTVSPost2010Prop39
140
1.0
102
RTVSPost2010PropOp39
 70
     1
102
RTVSPost2010Prop40
 90
        0
102
RTVSPost2010PropOp40
 70
     1
102
RTVSPost2010Prop41ColorIndex
 90
       18
102
RTVSPost2010Prop41ColorRGB
 90
        0
102
RTVSPost2010PropOp41
 70
     1
102
RTVSPost2010Prop42
 90
       50
102
RTVSPost2010PropOp42
 70
     1
102
RTVSPost2010Prop43
 90
        3
102
RTVSPost2010PropOp43
 70
     1
102
RTVSPost2010Prop44ColorIndex
 90
        5
102
RTVSPost2010Prop44ColorRGB
 90
      255
102
RTVSPost2010PropOp44
 70
     1
102
RTVSPost2010Prop45
280
     0
102
RTVSPost2010PropOp45
 70
     1
102
RTVSPost2010Prop46
 90
       50
102
RTVSPost2010PropOp46
 70
     1
102
RTVSPost2010Prop47
 90
       50
102
RTVSPost2010PropOp47
 70
     1
102
RTVSPost2010Prop48
 90
       50
102
RTVSPost2010PropOp48
 70
     1
102
RTVSPost2010Prop49
280
     0
102
RTVSPost2010PropOp49
 70
     1
102
RTVSPost2010Prop50
 90
       50
102
RTVSPost2010PropOp50
 70
     1
102
RTVSPost2010Prop51ColorIndex
 90
      256
102
RTVSPost2010Prop51ColorRGB
 90
-16777216
102
RTVSPost2010PropOp51
 70
     0
102
RTVSPost2010Prop52
140
1.0
102
RTVSPost2010PropOp52
 70
     0
102
RTVSPost2010Prop53
 90
        2
102
RTVSPost2010PropOp53
 70
     1
102
RTVSPost2010Prop54
  1
strokes_ogs.tif
102
RTVSPost2010PropOp54
 70
     1
102
RTVSPost2010Prop55
280
     0
102
RTVSPost2010PropOp55
 70
     1
102
RTVSPost2010Prop56
140
1.0
102
RTVSPost2010PropOp56
 70
     1
102
RTVSPost2010Prop57
140
1.0
102
RTVSPost2010PropOp57
 70
     1
102
RTVSPropertyOp0
 70
     1
102
RTVSPropertyOp1
 70
     1
102
RTVSPropertyOp2
 70
     1
102
RTVSPropertyOp3
 70
     1
102
RTVSPropertyOp4
 70
     1
102
RTVSPropertyOp5
 70
     1
102
RTVSPropertyOp6
 70
     1
102
RTVSPropertyOp7
 70
     1
102
RTVSPropertyOp8
 70
     1
102
RTVSPropertyOp9
 70
     1
102
RTVSPropertyOp10
 70
     1
102
RTVSPropertyOp11
 70
     1
102
RTVSPropertyOp12
 70
     1
102
RTVSPropertyOp13
 70
     1
102
RTVSPropertyOp14
 70
     1
102
RTVSPropertyOp15
 70
     1
102
RTVSPropertyOp16
 70
     1
102
RTVSPropertyOp17
 70
     1
102
RTVSPropertyOp18
 70
     1
102
RTVSPropertyOp19
 70
     1
102
RTVSPropertyOp20
 70
     1
102
RTVSPropertyOp21
 70
     1
102
RTVSPropertyOp22
 70
     1
102
RTVSPropertyOp23
 70
     1
102
RTVSPropertyOp24
 70
     1
102
RTVSPropertyOp25
 70
     1
102
RTVSPropertyOp26
 70
     1
102
RTVSPropertyOp27
 70
     1
102
RTVSPropertyOp28
 70
     1
102
RTVSPropertyOp29
 70
     1
102
RTVSPropertyOp30
 70
     1
102
RTVSPropertyOp31
 70
     1
102
RTVSPropertyOp32
 70
     1
102
RTVSPropertyOp33
 70
     1
102
RTVSPropertyOp34
 70
     1
102
RTVSPropertyOp35
 70
     1
102
RTVSPropertyOp36
 70
     1
102
RTVSPropertyOp37
 70
     1
102
RTVSPropertyOp38
 70
     1
102
RTVSPropertyOp39
 70
     1
102
RTVSPropertyOp40
 70
     1
102
RTVSPropertyOp41
 70
     1
102
RTVSPropertyOp42
 70
     1
102
RTVSPropertyOp43
 70
     1
102
RTVSPropertyOp44
 70
     1
102
RTVSPropertyOp45
 70
     1
102
RTVSPropertyOp46
 70
     1
102
RTVSPropertyOp47
 70
     1
102
RTVSPropertyOp48
 70
     1
102
RTVSPropertyOp49
 70
     1
102
RTVSPropertyOp50
 70
     1
102
RTVSPropertyOp51
 70
     0
102
RTVSPropertyOp52
 70
     0
102
RTVSPropertyOp53
 70
     1
102
RTVSPropertyOp54
 70
     1
102
RTVSPropertyOp55
 70
     1
102
RTVSPropertyOp56
 70
     1
102
RTVSPropertyOp57
 70
     1
102
RTVSPropertyOp58
 70
     1
102
RTVSPropertyOp59
 70
     1
102
RTVSPropertyOp60
 70
     1
102
RTVSPropertyOp61
 70
     1
102
RTVSPropertyOp62
 70
     1
  0
XRECORD
  5
1BBB0
102
{ACAD_REACTORS
330
1BBAF
102
}
330
1BBAF
100
AcDbXrecord
280
     1
102
RTVSPost2010Prop28
280
     0
102
RTVSPost2010PropOp28
 70
     1
102
RTVSPost2010Prop29
280
     1
102
RTVSPost2010PropOp29
 70
     1
102
RTVSPost2010Prop30
280
     1
102
RTVSPost2010PropOp30
 70
     1
102
RTVSPost2010Prop31
280
     0
102
RTVSPost2010PropOp31
 70
     1
102
RTVSPost2010Prop32
280
     0
102
RTVSPost2010PropOp32
 70
     1
102
RTVSPost2010Prop33
280
     0
102
RTVSPost2010PropOp33
 70
     1
102
RTVSPost2010Prop34
280
     0
102
RTVSPost2010PropOp34
 70
     1
102
RTVSPost2010Prop35
280
     0
102
RTVSPost2010PropOp35
 70
     1
102
RTVSPost2010Prop36
280
     0
102
RTVSPost2010PropOp36
 70
     1
102
RTVSPost2010Prop37
 90
       50
102
RTVSPost2010PropOp37
 70
     1
102
RTVSPost2010Prop38
140
0.0
102
RTVSPost2010PropOp38
 70
     1
102
RTVSPost2010Prop39
140
1.0
102
RTVSPost2010PropOp39
 70
     1
102
RTVSPost2010Prop40
 90
        0
102
RTVSPost2010PropOp40
 70
     1
102
RTVSPost2010Prop41ColorIndex
 90
       18
102
RTVSPost2010Prop41ColorRGB
 90
        0
102
RTVSPost2010PropOp41
 70
     1
102
RTVSPost2010Prop42
 90
       50
102
RTVSPost2010PropOp42
 70
     1
102
RTVSPost2010Prop43
 90
        3
102
RTVSPost2010PropOp43
 70
     1
102
RTVSPost2010Prop44ColorIndex
 90
        5
102
RTVSPost2010Prop44ColorRGB
 90
      255
102
RTVSPost2010PropOp44
 70
     1
102
RTVSPost2010Prop45
280
     0
102
RTVSPost2010PropOp45
 70
     1
102
RTVSPost2010Prop46
 90
       50
102
RTVSPost2010PropOp46
 70
     1
102
RTVSPost2010Prop47
 90
       50
102
RTVSPost2010PropOp47
 70
     1
102
RTVSPost2010Prop48
 90
       50
102
RTVSPost2010PropOp48
 70
     1
102
RTVSPost2010Prop49
280
     0
102
RTVSPost2010PropOp49
 70
     1
102
RTVSPost2010Prop50
 90
       50
102
RTVSPost2010PropOp50
 70
     1
102
RTVSPost2010Prop51ColorIndex
 90
      256
102
RTVSPost2010Prop51ColorRGB
 90
-16777216
102
RTVSPost2010PropOp51
 70
     0
102
RTVSPost2010Prop52
140
1.0
102
RTVSPost2010PropOp52
 70
     0
102
RTVSPost2010Prop53
 90
        2
102
RTVSPost2010PropOp53
 70
     1
102
RTVSPost2010Prop54
  1
strokes_ogs.tif
102
RTVSPost2010PropOp54
 70
     1
102
RTVSPost2010Prop55
280
     0
102
RTVSPost2010PropOp55
 70
     1
102
RTVSPost2010Prop56
140
1.0
102
RTVSPost2010PropOp56
 70
     1
102
RTVSPost2010Prop57
140
1.0
102
RTVSPost2010PropOp57
 70
     1
102
RTVSPropertyOp0
 70
     1
102
RTVSPropertyOp1
 70
     1
102
RTVSPropertyOp2
 70
     1
102
RTVSPropertyOp3
 70
     1
102
RTVSPropertyOp4
 70
     1
102
RTVSPropertyOp5
 70
     1
102
RTVSPropertyOp6
 70
     1
102
RTVSPropertyOp7
 70
     1
102
RTVSPropertyOp8
 70
     1
102
RTVSPropertyOp9
 70
     1
102
RTVSPropertyOp10
 70
     1
102
RTVSPropertyOp11
 70
     1
102
RTVSPropertyOp12
 70
     1
102
RTVSPropertyOp13
 70
     1
102
RTVSPropertyOp14
 70
     1
102
RTVSPropertyOp15
 70
     1
102
RTVSPropertyOp16
 70
     1
102
RTVSPropertyOp17
 70
     1
102
RTVSPropertyOp18
 70
     1
102
RTVSPropertyOp19
 70
     1
102
RTVSPropertyOp20
 70
     1
102
RTVSPropertyOp21
 70
     1
102
RTVSPropertyOp22
 70
     1
102
RTVSPropertyOp23
 70
     1
102
RTVSPropertyOp24
 70
     1
102
RTVSPropertyOp25
 70
     1
102
RTVSPropertyOp26
 70
     1
102
RTVSPropertyOp27
 70
     1
102
RTVSPropertyOp28
 70
     1
102
RTVSPropertyOp29
 70
     1
102
RTVSPropertyOp30
 70
     1
102
RTVSPropertyOp31
 70
     1
102
RTVSPropertyOp32
 70
     1
102
RTVSPropertyOp33
 70
     1
102
RTVSPropertyOp34
 70
     1
102
RTVSPropertyOp35
 70
     1
102
RTVSPropertyOp36
 70
     1
102
RTVSPropertyOp37
 70
     1
102
RTVSPropertyOp38
 70
     1
102
RTVSPropertyOp39
 70
     1
102
RTVSPropertyOp40
 70
     1
102
RTVSPropertyOp41
 70
     1
102
RTVSPropertyOp42
 70
     1
102
RTVSPropertyOp43
 70
     1
102
RTVSPropertyOp44
 70
     1
102
RTVSPropertyOp45
 70
     1
102
RTVSPropertyOp46
 70
     1
102
RTVSPropertyOp47
 70
     1
102
RTVSPropertyOp48
 70
     1
102
RTVSPropertyOp49
 70
     1
102
RTVSPropertyOp50
 70
     1
102
RTVSPropertyOp51
 70
     0
102
RTVSPropertyOp52
 70
     0
102
RTVSPropertyOp53
 70
     1
102
RTVSPropertyOp54
 70
     1
102
RTVSPropertyOp55
 70
     1
102
RTVSPropertyOp56
 70
     1
102
RTVSPropertyOp57
 70
     1
102
RTVSPropertyOp58
 70
     1
102
RTVSPropertyOp59
 70
     1
102
RTVSPropertyOp60
 70
     1
102
RTVSPropertyOp61
 70
     1
102
RTVSPropertyOp62
 70
     1
  0
XRECORD
  5
1BBB2
102
{ACAD_REACTORS
330
1BBB1
102
}
330
1BBB1
100
AcDbXrecord
280
     1
102
RTVSPost2010Prop28
280
     0
102
RTVSPost2010PropOp28
 70
     1
102
RTVSPost2010Prop29
280
     1
102
RTVSPost2010PropOp29
 70
     1
102
RTVSPost2010Prop30
280
     1
102
RTVSPost2010PropOp30
 70
     1
102
RTVSPost2010Prop31
280
     0
102
RTVSPost2010PropOp31
 70
     1
102
RTVSPost2010Prop32
280
     0
102
RTVSPost2010PropOp32
 70
     1
102
RTVSPost2010Prop33
280
     0
102
RTVSPost2010PropOp33
 70
     1
102
RTVSPost2010Prop34
280
     0
102
RTVSPost2010PropOp34
 70
     1
102
RTVSPost2010Prop35
280
     0
102
RTVSPost2010PropOp35
 70
     1
102
RTVSPost2010Prop36
280
     0
102
RTVSPost2010PropOp36
 70
     1
102
RTVSPost2010Prop37
 90
       50
102
RTVSPost2010PropOp37
 70
     1
102
RTVSPost2010Prop38
140
0.0
102
RTVSPost2010PropOp38
 70
     1
102
RTVSPost2010Prop39
140
1.0
102
RTVSPost2010PropOp39
 70
     1
102
RTVSPost2010Prop40
 90
        0
102
RTVSPost2010PropOp40
 70
     1
102
RTVSPost2010Prop41ColorIndex
 90
       18
102
RTVSPost2010Prop41ColorRGB
 90
        0
102
RTVSPost2010PropOp41
 70
     1
102
RTVSPost2010Prop42
 90
       50
102
RTVSPost2010PropOp42
 70
     1
102
RTVSPost2010Prop43
 90
        3
102
RTVSPost2010PropOp43
 70
     1
102
RTVSPost2010Prop44ColorIndex
 90
        5
102
RTVSPost2010Prop44ColorRGB
 90
      255
102
RTVSPost2010PropOp44
 70
     1
102
RTVSPost2010Prop45
280
     0
102
RTVSPost2010PropOp45
 70
     1
102
RTVSPost2010Prop46
 90
       50
102
RTVSPost2010PropOp46
 70
     1
102
RTVSPost2010Prop47
 90
       50
102
RTVSPost2010PropOp47
 70
     1
102
RTVSPost2010Prop48
 90
       50
102
RTVSPost2010PropOp48
 70
     1
102
RTVSPost2010Prop49
280
     0
102
RTVSPost2010PropOp49
 70
     1
102
RTVSPost2010Prop50
 90
       50
102
RTVSPost2010PropOp50
 70
     1
102
RTVSPost2010Prop51ColorIndex
 90
      256
102
RTVSPost2010Prop51ColorRGB
 90
-16777216
102
RTVSPost2010PropOp51
 70
     0
102
RTVSPost2010Prop52
140
1.0
102
RTVSPost2010PropOp52
 70
     0
102
RTVSPost2010Prop53
 90
        2
102
RTVSPost2010PropOp53
 70
     1
102
RTVSPost2010Prop54
  1
strokes_ogs.tif
102
RTVSPost2010PropOp54
 70
     1
102
RTVSPost2010Prop55
280
     0
102
RTVSPost2010PropOp55
 70
     1
102
RTVSPost2010Prop56
140
1.0
102
RTVSPost2010PropOp56
 70
     1
102
RTVSPost2010Prop57
140
1.0
102
RTVSPost2010PropOp57
 70
     1
102
RTVSPropertyOp0
 70
     1
102
RTVSPropertyOp1
 70
     1
102
RTVSPropertyOp2
 70
     1
102
RTVSPropertyOp3
 70
     1
102
RTVSPropertyOp4
 70
     1
102
RTVSPropertyOp5
 70
     1
102
RTVSPropertyOp6
 70
     1
102
RTVSPropertyOp7
 70
     1
102
RTVSPropertyOp8
 70
     1
102
RTVSPropertyOp9
 70
     1
102
RTVSPropertyOp10
 70
     1
102
RTVSPropertyOp11
 70
     1
102
RTVSPropertyOp12
 70
     1
102
RTVSPropertyOp13
 70
     1
102
RTVSPropertyOp14
 70
     1
102
RTVSPropertyOp15
 70
     1
102
RTVSPropertyOp16
 70
     1
102
RTVSPropertyOp17
 70
     1
102
RTVSPropertyOp18
 70
     1
102
RTVSPropertyOp19
 70
     1
102
RTVSPropertyOp20
 70
     1
102
RTVSPropertyOp21
 70
     1
102
RTVSPropertyOp22
 70
     1
102
RTVSPropertyOp23
 70
     1
102
RTVSPropertyOp24
 70
     1
102
RTVSPropertyOp25
 70
     1
102
RTVSPropertyOp26
 70
     1
102
RTVSPropertyOp27
 70
     1
102
RTVSPropertyOp28
 70
     1
102
RTVSPropertyOp29
 70
     1
102
RTVSPropertyOp30
 70
     1
102
RTVSPropertyOp31
 70
     1
102
RTVSPropertyOp32
 70
     1
102
RTVSPropertyOp33
 70
     1
102
RTVSPropertyOp34
 70
     1
102
RTVSPropertyOp35
 70
     1
102
RTVSPropertyOp36
 70
     1
102
RTVSPropertyOp37
 70
     1
102
RTVSPropertyOp38
 70
     1
102
RTVSPropertyOp39
 70
     1
102
RTVSPropertyOp40
 70
     1
102
RTVSPropertyOp41
 70
     1
102
RTVSPropertyOp42
 70
     1
102
RTVSPropertyOp43
 70
     1
102
RTVSPropertyOp44
 70
     1
102
RTVSPropertyOp45
 70
     1
102
RTVSPropertyOp46
 70
     1
102
RTVSPropertyOp47
 70
     1
102
RTVSPropertyOp48
 70
     1
102
RTVSPropertyOp49
 70
     1
102
RTVSPropertyOp50
 70
     1
102
RTVSPropertyOp51
 70
     0
102
RTVSPropertyOp52
 70
     0
102
RTVSPropertyOp53
 70
     1
102
RTVSPropertyOp54
 70
     1
102
RTVSPropertyOp55
 70
     1
102
RTVSPropertyOp56
 70
     1
102
RTVSPropertyOp57
 70
     1
102
RTVSPropertyOp58
 70
     1
102
RTVSPropertyOp59
 70
     1
102
RTVSPropertyOp60
 70
     1
102
RTVSPropertyOp61
 70
     1
102
RTVSPropertyOp62
 70
     1
  0
XRECORD
  5
1BBA8
102
{ACAD_REACTORS
330
1BBA7
102
}
330
1BBA7
100
AcDbXrecord
280
     1
102
RTVSPost2010Prop28
280
     0
102
RTVSPost2010PropOp28
 70
     1
102
RTVSPost2010Prop29
280
     1
102
RTVSPost2010PropOp29
 70
     1
102
RTVSPost2010Prop30
280
     1
102
RTVSPost2010PropOp30
 70
     1
102
RTVSPost2010Prop31
280
     0
102
RTVSPost2010PropOp31
 70
     1
102
RTVSPost2010Prop32
280
     0
102
RTVSPost2010PropOp32
 70
     1
102
RTVSPost2010Prop33
280
     0
102
RTVSPost2010PropOp33
 70
     1
102
RTVSPost2010Prop34
280
     0
102
RTVSPost2010PropOp34
 70
     1
102
RTVSPost2010Prop35
280
     0
102
RTVSPost2010PropOp35
 70
     1
102
RTVSPost2010Prop36
280
     0
102
RTVSPost2010PropOp36
 70
     1
102
RTVSPost2010Prop37
 90
       50
102
RTVSPost2010PropOp37
 70
     1
102
RTVSPost2010Prop38
140
0.0
102
RTVSPost2010PropOp38
 70
     1
102
RTVSPost2010Prop39
140
1.0
102
RTVSPost2010PropOp39
 70
     1
102
RTVSPost2010Prop40
 90
        0
102
RTVSPost2010PropOp40
 70
     1
102
RTVSPost2010Prop41ColorIndex
 90
       18
102
RTVSPost2010Prop41ColorRGB
 90
        0
102
RTVSPost2010PropOp41
 70
     1
102
RTVSPost2010Prop42
 90
       50
102
RTVSPost2010PropOp42
 70
     1
102
RTVSPost2010Prop43
 90
        3
102
RTVSPost2010PropOp43
 70
     1
102
RTVSPost2010Prop44ColorIndex
 90
        5
102
RTVSPost2010Prop44ColorRGB
 90
      255
102
RTVSPost2010PropOp44
 70
     1
102
RTVSPost2010Prop45
280
     0
102
RTVSPost2010PropOp45
 70
     1
102
RTVSPost2010Prop46
 90
       50
102
RTVSPost2010PropOp46
 70
     1
102
RTVSPost2010Prop47
 90
       50
102
RTVSPost2010PropOp47
 70
     1
102
RTVSPost2010Prop48
 90
       50
102
RTVSPost2010PropOp48
 70
     1
102
RTVSPost2010Prop49
280
     0
102
RTVSPost2010PropOp49
 70
     1
102
RTVSPost2010Prop50
 90
       50
102
RTVSPost2010PropOp50
 70
     1
102
RTVSPost2010Prop51ColorIndex
 90
      256
102
RTVSPost2010Prop51ColorRGB
 90
-16777216
102
RTVSPost2010PropOp51
 70
     0
102
RTVSPost2010Prop52
140
1.0
102
RTVSPost2010PropOp52
 70
     0
102
RTVSPost2010Prop53
 90
        2
102
RTVSPost2010PropOp53
 70
     1
102
RTVSPost2010Prop54
  1
strokes_ogs.tif
102
RTVSPost2010PropOp54
 70
     1
102
RTVSPost2010Prop55
280
     0
102
RTVSPost2010PropOp55
 70
     1
102
RTVSPost2010Prop56
140
1.0
102
RTVSPost2010PropOp56
 70
     1
102
RTVSPost2010Prop57
140
1.0
102
RTVSPost2010PropOp57
 70
     1
102
RTVSPropertyOp0
 70
     1
102
RTVSPropertyOp1
 70
     1
102
RTVSPropertyOp2
 70
     1
102
RTVSPropertyOp3
 70
     1
102
RTVSPropertyOp4
 70
     1
102
RTVSPropertyOp5
 70
     1
102
RTVSPropertyOp6
 70
     1
102
RTVSPropertyOp7
 70
     1
102
RTVSPropertyOp8
 70
     1
102
RTVSPropertyOp9
 70
     1
102
RTVSPropertyOp10
 70
     1
102
RTVSPropertyOp11
 70
     1
102
RTVSPropertyOp12
 70
     1
102
RTVSPropertyOp13
 70
     1
102
RTVSPropertyOp14
 70
     1
102
RTVSPropertyOp15
 70
     1
102
RTVSPropertyOp16
 70
     1
102
RTVSPropertyOp17
 70
     1
102
RTVSPropertyOp18
 70
     1
102
RTVSPropertyOp19
 70
     1
102
RTVSPropertyOp20
 70
     1
102
RTVSPropertyOp21
 70
     1
102
RTVSPropertyOp22
 70
     1
102
RTVSPropertyOp23
 70
     1
102
RTVSPropertyOp24
 70
     1
102
RTVSPropertyOp25
 70
     1
102
RTVSPropertyOp26
 70
     1
102
RTVSPropertyOp27
 70
     1
102
RTVSPropertyOp28
 70
     1
102
RTVSPropertyOp29
 70
     1
102
RTVSPropertyOp30
 70
     1
102
RTVSPropertyOp31
 70
     1
102
RTVSPropertyOp32
 70
     1
102
RTVSPropertyOp33
 70
     1
102
RTVSPropertyOp34
 70
     1
102
RTVSPropertyOp35
 70
     1
102
RTVSPropertyOp36
 70
     1
102
RTVSPropertyOp37
 70
     1
102
RTVSPropertyOp38
 70
     1
102
RTVSPropertyOp39
 70
     1
102
RTVSPropertyOp40
 70
     1
102
RTVSPropertyOp41
 70
     1
102
RTVSPropertyOp42
 70
     1
102
RTVSPropertyOp43
 70
     1
102
RTVSPropertyOp44
 70
     1
102
RTVSPropertyOp45
 70
     1
102
RTVSPropertyOp46
 70
     1
102
RTVSPropertyOp47
 70
     1
102
RTVSPropertyOp48
 70
     1
102
RTVSPropertyOp49
 70
     1
102
RTVSPropertyOp50
 70
     1
102
RTVSPropertyOp51
 70
     0
102
RTVSPropertyOp52
 70
     0
102
RTVSPropertyOp53
 70
     1
102
RTVSPropertyOp54
 70
     1
102
RTVSPropertyOp55
 70
     1
102
RTVSPropertyOp56
 70
     1
102
RTVSPropertyOp57
 70
     1
102
RTVSPropertyOp58
 70
     1
102
RTVSPropertyOp59
 70
     1
102
RTVSPropertyOp60
 70
     1
102
RTVSPropertyOp61
 70
     1
102
RTVSPropertyOp62
 70
     1
  0
XRECORD
  5
1BB9C
102
{ACAD_REACTORS
330
1BB9B
102
}
330
1BB9B
100
AcDbXrecord
280
     1
102
RTVSPost2010Prop28
280
     0
102
RTVSPost2010PropOp28
 70
     1
102
RTVSPost2010Prop29
280
     1
102
RTVSPost2010PropOp29
 70
     1
102
RTVSPost2010Prop30
280
     1
102
RTVSPost2010PropOp30
 70
     1
102
RTVSPost2010Prop31
280
     0
102
RTVSPost2010PropOp31
 70
     1
102
RTVSPost2010Prop32
280
     0
102
RTVSPost2010PropOp32
 70
     1
102
RTVSPost2010Prop33
280
     0
102
RTVSPost2010PropOp33
 70
     1
102
RTVSPost2010Prop34
280
     0
102
RTVSPost2010PropOp34
 70
     1
102
RTVSPost2010Prop35
280
     0
102
RTVSPost2010PropOp35
 70
     1
102
RTVSPost2010Prop36
280
     0
102
RTVSPost2010PropOp36
 70
     1
102
RTVSPost2010Prop37
 90
       50
102
RTVSPost2010PropOp37
 70
     1
102
RTVSPost2010Prop38
140
0.0
102
RTVSPost2010PropOp38
 70
     1
102
RTVSPost2010Prop39
140
1.0
102
RTVSPost2010PropOp39
 70
     1
102
RTVSPost2010Prop40
 90
        0
102
RTVSPost2010PropOp40
 70
     1
102
RTVSPost2010Prop41ColorIndex
 90
       18
102
RTVSPost2010Prop41ColorRGB
 90
        0
102
RTVSPost2010PropOp41
 70
     1
102
RTVSPost2010Prop42
 90
       50
102
RTVSPost2010PropOp42
 70
     1
102
RTVSPost2010Prop43
 90
        3
102
RTVSPost2010PropOp43
 70
     1
102
RTVSPost2010Prop44ColorIndex
 90
        5
102
RTVSPost2010Prop44ColorRGB
 90
      255
102
RTVSPost2010PropOp44
 70
     1
102
RTVSPost2010Prop45
280
     0
102
RTVSPost2010PropOp45
 70
     1
102
RTVSPost2010Prop46
 90
       50
102
RTVSPost2010PropOp46
 70
     1
102
RTVSPost2010Prop47
 90
       50
102
RTVSPost2010PropOp47
 70
     1
102
RTVSPost2010Prop48
 90
       50
102
RTVSPost2010PropOp48
 70
     1
102
RTVSPost2010Prop49
280
     0
102
RTVSPost2010PropOp49
 70
     1
102
RTVSPost2010Prop50
 90
       50
102
RTVSPost2010PropOp50
 70
     1
102
RTVSPost2010Prop51ColorIndex
 90
      256
102
RTVSPost2010Prop51ColorRGB
 90
-16777216
102
RTVSPost2010PropOp51
 70
     0
102
RTVSPost2010Prop52
140
1.0
102
RTVSPost2010PropOp52
 70
     0
102
RTVSPost2010Prop53
 90
        2
102
RTVSPost2010PropOp53
 70
     1
102
RTVSPost2010Prop54
  1
strokes_ogs.tif
102
RTVSPost2010PropOp54
 70
     1
102
RTVSPost2010Prop55
280
     0
102
RTVSPost2010PropOp55
 70
     1
102
RTVSPost2010Prop56
140
1.0
102
RTVSPost2010PropOp56
 70
     1
102
RTVSPost2010Prop57
140
1.0
102
RTVSPost2010PropOp57
 70
     1
102
RTVSPropertyOp0
 70
     1
102
RTVSPropertyOp1
 70
     1
102
RTVSPropertyOp2
 70
     1
102
RTVSPropertyOp3
 70
     1
102
RTVSPropertyOp4
 70
     1
102
RTVSPropertyOp5
 70
     1
102
RTVSPropertyOp6
 70
     1
102
RTVSPropertyOp7
 70
     1
102
RTVSPropertyOp8
 70
     1
102
RTVSPropertyOp9
 70
     1
102
RTVSPropertyOp10
 70
     1
102
RTVSPropertyOp11
 70
     1
102
RTVSPropertyOp12
 70
     1
102
RTVSPropertyOp13
 70
     1
102
RTVSPropertyOp14
 70
     1
102
RTVSPropertyOp15
 70
     1
102
RTVSPropertyOp16
 70
     1
102
RTVSPropertyOp17
 70
     1
102
RTVSPropertyOp18
 70
     1
102
RTVSPropertyOp19
 70
     1
102
RTVSPropertyOp20
 70
     1
102
RTVSPropertyOp21
 70
     1
102
RTVSPropertyOp22
 70
     1
102
RTVSPropertyOp23
 70
     1
102
RTVSPropertyOp24
 70
     1
102
RTVSPropertyOp25
 70
     1
102
RTVSPropertyOp26
 70
     1
102
RTVSPropertyOp27
 70
     1
102
RTVSPropertyOp28
 70
     1
102
RTVSPropertyOp29
 70
     1
102
RTVSPropertyOp30
 70
     1
102
RTVSPropertyOp31
 70
     1
102
RTVSPropertyOp32
 70
     1
102
RTVSPropertyOp33
 70
     1
102
RTVSPropertyOp34
 70
     1
102
RTVSPropertyOp35
 70
     1
102
RTVSPropertyOp36
 70
     1
102
RTVSPropertyOp37
 70
     1
102
RTVSPropertyOp38
 70
     1
102
RTVSPropertyOp39
 70
     1
102
RTVSPropertyOp40
 70
     1
102
RTVSPropertyOp41
 70
     1
102
RTVSPropertyOp42
 70
     1
102
RTVSPropertyOp43
 70
     1
102
RTVSPropertyOp44
 70
     1
102
RTVSPropertyOp45
 70
     1
102
RTVSPropertyOp46
 70
     1
102
RTVSPropertyOp47
 70
     1
102
RTVSPropertyOp48
 70
     1
102
RTVSPropertyOp49
 70
     1
102
RTVSPropertyOp50
 70
     1
102
RTVSPropertyOp51
 70
     0
102
RTVSPropertyOp52
 70
     0
102
RTVSPropertyOp53
 70
     1
102
RTVSPropertyOp54
 70
     1
102
RTVSPropertyOp55
 70
     1
102
RTVSPropertyOp56
 70
     1
102
RTVSPropertyOp57
 70
     1
102
RTVSPropertyOp58
 70
     1
102
RTVSPropertyOp59
 70
     1
102
RTVSPropertyOp60
 70
     1
102
RTVSPropertyOp61
 70
     1
102
RTVSPropertyOp62
 70
     1
  0
XRECORD
  5
1BBB4
102
{ACAD_REACTORS
330
1BBB3
102
}
330
1BBB3
100
AcDbXrecord
280
     1
102
RTVSPost2010Prop28
280
     0
102
RTVSPost2010PropOp28
 70
     1
102
RTVSPost2010Prop29
280
     1
102
RTVSPost2010PropOp29
 70
     1
102
RTVSPost2010Prop30
280
     1
102
RTVSPost2010PropOp30
 70
     1
102
RTVSPost2010Prop31
280
     0
102
RTVSPost2010PropOp31
 70
     1
102
RTVSPost2010Prop32
280
     0
102
RTVSPost2010PropOp32
 70
     1
102
RTVSPost2010Prop33
280
     0
102
RTVSPost2010PropOp33
 70
     1
102
RTVSPost2010Prop34
280
     0
102
RTVSPost2010PropOp34
 70
     1
102
RTVSPost2010Prop35
280
     0
102
RTVSPost2010PropOp35
 70
     1
102
RTVSPost2010Prop36
280
     0
102
RTVSPost2010PropOp36
 70
     1
102
RTVSPost2010Prop37
 90
       50
102
RTVSPost2010PropOp37
 70
     1
102
RTVSPost2010Prop38
140
0.0
102
RTVSPost2010PropOp38
 70
     1
102
RTVSPost2010Prop39
140
1.0
102
RTVSPost2010PropOp39
 70
     1
102
RTVSPost2010Prop40
 90
        0
102
RTVSPost2010PropOp40
 70
     1
102
RTVSPost2010Prop41ColorIndex
 90
       18
102
RTVSPost2010Prop41ColorRGB
 90
        0
102
RTVSPost2010PropOp41
 70
     1
102
RTVSPost2010Prop42
 90
       50
102
RTVSPost2010PropOp42
 70
     1
102
RTVSPost2010Prop43
 90
        3
102
RTVSPost2010PropOp43
 70
     1
102
RTVSPost2010Prop44ColorIndex
 90
        5
102
RTVSPost2010Prop44ColorRGB
 90
      255
102
RTVSPost2010PropOp44
 70
     1
102
RTVSPost2010Prop45
280
     0
102
RTVSPost2010PropOp45
 70
     1
102
RTVSPost2010Prop46
 90
       50
102
RTVSPost2010PropOp46
 70
     1
102
RTVSPost2010Prop47
 90
       50
102
RTVSPost2010PropOp47
 70
     1
102
RTVSPost2010Prop48
 90
       50
102
RTVSPost2010PropOp48
 70
     1
102
RTVSPost2010Prop49
280
     0
102
RTVSPost2010PropOp49
 70
     1
102
RTVSPost2010Prop50
 90
       50
102
RTVSPost2010PropOp50
 70
     1
102
RTVSPost2010Prop51ColorIndex
 90
      256
102
RTVSPost2010Prop51ColorRGB
 90
-16777216
102
RTVSPost2010PropOp51
 70
     0
102
RTVSPost2010Prop52
140
1.0
102
RTVSPost2010PropOp52
 70
     0
102
RTVSPost2010Prop53
 90
        2
102
RTVSPost2010PropOp53
 70
     1
102
RTVSPost2010Prop54
  1
strokes_ogs.tif
102
RTVSPost2010PropOp54
 70
     1
102
RTVSPost2010Prop55
280
     0
102
RTVSPost2010PropOp55
 70
     1
102
RTVSPost2010Prop56
140
1.0
102
RTVSPost2010PropOp56
 70
     1
102
RTVSPost2010Prop57
140
1.0
102
RTVSPost2010PropOp57
 70
     1
102
RTVSPropertyOp0
 70
     1
102
RTVSPropertyOp1
 70
     1
102
RTVSPropertyOp2
 70
     1
102
RTVSPropertyOp3
 70
     1
102
RTVSPropertyOp4
 70
     1
102
RTVSPropertyOp5
 70
     1
102
RTVSPropertyOp6
 70
     1
102
RTVSPropertyOp7
 70
     1
102
RTVSPropertyOp8
 70
     1
102
RTVSPropertyOp9
 70
     1
102
RTVSPropertyOp10
 70
     1
102
RTVSPropertyOp11
 70
     1
102
RTVSPropertyOp12
 70
     1
102
RTVSPropertyOp13
 70
     1
102
RTVSPropertyOp14
 70
     1
102
RTVSPropertyOp15
 70
     1
102
RTVSPropertyOp16
 70
     1
102
RTVSPropertyOp17
 70
     1
102
RTVSPropertyOp18
 70
     1
102
RTVSPropertyOp19
 70
     1
102
RTVSPropertyOp20
 70
     1
102
RTVSPropertyOp21
 70
     1
102
RTVSPropertyOp22
 70
     1
102
RTVSPropertyOp23
 70
     1
102
RTVSPropertyOp24
 70
     1
102
RTVSPropertyOp25
 70
     1
102
RTVSPropertyOp26
 70
     1
102
RTVSPropertyOp27
 70
     1
102
RTVSPropertyOp28
 70
     1
102
RTVSPropertyOp29
 70
     1
102
RTVSPropertyOp30
 70
     1
102
RTVSPropertyOp31
 70
     1
102
RTVSPropertyOp32
 70
     1
102
RTVSPropertyOp33
 70
     1
102
RTVSPropertyOp34
 70
     1
102
RTVSPropertyOp35
 70
     1
102
RTVSPropertyOp36
 70
     1
102
RTVSPropertyOp37
 70
     1
102
RTVSPropertyOp38
 70
     1
102
RTVSPropertyOp39
 70
     1
102
RTVSPropertyOp40
 70
     1
102
RTVSPropertyOp41
 70
     1
102
RTVSPropertyOp42
 70
     1
102
RTVSPropertyOp43
 70
     1
102
RTVSPropertyOp44
 70
     1
102
RTVSPropertyOp45
 70
     1
102
RTVSPropertyOp46
 70
     1
102
RTVSPropertyOp47
 70
     1
102
RTVSPropertyOp48
 70
     1
102
RTVSPropertyOp49
 70
     1
102
RTVSPropertyOp50
 70
     1
102
RTVSPropertyOp51
 70
     0
102
RTVSPropertyOp52
 70
     0
102
RTVSPropertyOp53
 70
     1
102
RTVSPropertyOp54
 70
     1
102
RTVSPropertyOp55
 70
     1
102
RTVSPropertyOp56
 70
     1
102
RTVSPropertyOp57
 70
     1
102
RTVSPropertyOp58
 70
     1
102
RTVSPropertyOp59
 70
     1
102
RTVSPropertyOp60
 70
     1
102
RTVSPropertyOp61
 70
     1
102
RTVSPropertyOp62
 70
     1
  0
ENDSEC
  0
EOF
