  0
SECTION
  2
HEADER
  9
$ACADVER
  1
AC1015
  9
$ACADMAINTVER
 70
    20
  9
$DWGCODEPAGE
  3
ANSI_932
  9
$INSBASE
 10
0.0
 20
0.0
 30
0.0
  9
$EXTMIN
 10
9.9999975266385
 20
10.0
 30
0.0
  9
$EXTMAX
 10
722.8063350809649
 20
492.6529630804433
 30
0.0
  9
$LIMMIN
 10
0.0000015376083204
 20
-0.0000001931532552
  9
$LIMMAX
 10
792.0000015376079
 20
545.9999998068466
  9
$ORTHOMODE
 70
     1
  9
$REGENMODE
 70
     1
  9
$FILLMODE
 70
     1
  9
$QTEXTMODE
 70
     0
  9
$MIRRTEXT
 70
     1
  9
$LTSCALE
 40
0.5
  9
$ATTMODE
 70
     1
  9
$TEXTSIZE
 40
2.5
  9
$TRACEWID
 40
1.0
  9
$TEXTSTYLE
  7
STANDARD
  9
$CLAYER
  8
0
  9
$CELTYPE
  6
BYLAYER
  9
$CECOLOR
 62
   256
  9
$CELTSCALE
 40
1.0
  9
$DISPSILH
 70
     0
  9
$DIMSCALE
 40
1.0
  9
$DIMASZ
 40
3.0
  9
$DIMEXO
 40
1.0
  9
$DIMDLI
 40
10.0
  9
$DIMRND
 40
0.0
  9
$DIMDLE
 40
0.0
  9
$DIMEXE
 40
1.0
  9
$DIMTP
 40
0.0
  9
$DIMTM
 40
0.0
  9
$DIMTXT
 40
3.2
  9
$DIMCEN
 40
0.0
  9
$DIMTSZ
 40
0.0
  9
$DIMTOL
 70
     0
  9
$DIMLIM
 70
     0
  9
$DIMTIH
 70
     0
  9
$DIMTOH
 70
     0
  9
$DIMSE1
 70
     0
  9
$DIMSE2
 70
     0
  9
$DIMTAD
 70
     3
  9
$DIMZIN
 70
     8
  9
$DIMBLK
  1

  9
$DIMASO
 70
     1
  9
$DIMSHO
 70
     1
  9
$DIMPOST
  1

  9
$DIMAPOST
  1

  9
$DIMALT
 70
     0
  9
$DIMALTD
 70
     2
  9
$DIMALTF
 40
25.4
  9
$DIMLFAC
 40
1.0
  9
$DIMTOFL
 70
     1
  9
$DIMTVP
 40
0.0
  9
$DIMTIX
 70
     0
  9
$DIMSOXD
 70
     0
  9
$DIMSAH
 70
     1
  9
$DIMBLK1
  1
OPEN
  9
$DIMBLK2
  1
OPEN
  9
$DIMSTYLE
  2
STANDARD
  9
$DIMCLRD
 70
     0
  9
$DIMCLRE
 70
     0
  9
$DIMCLRT
 70
     0
  9
$DIMTFAC
 40
1.0
  9
$DIMGAP
 40
1.0
  9
$DIMJUST
 70
     0
  9
$DIMSD1
 70
     0
  9
$DIMSD2
 70
     0
  9
$DIMTOLJ
 70
     1
  9
$DIMTZIN
 70
     0
  9
$DIMALTZ
 70
     0
  9
$DIMALTTZ
 70
     0
  9
$DIMUPT
 70
     0
  9
$DIMDEC
 70
     4
  9
$DIMTDEC
 70
     4
  9
$DIMALTU
 70
     2
  9
$DIMALTTD
 70
     2
  9
$DIMTXSTY
  7
STANDARD
  9
$DIMAUNIT
 70
     0
  9
$DIMADEC
 70
     0
  9
$DIMALTRND
 40
0.0
  9
$DIMAZIN
 70
     0
  9
$DIMDSEP
 70
    46
  9
$DIMATFIT
 70
     3
  9
$DIMFRAC
 70
     0
  9
$DIMLDRBLK
  1
OPEN
  9
$DIMLUNIT
 70
     2
  9
$DIMLWD
 70
    -2
  9
$DIMLWE
 70
    -2
  9
$DIMTMOVE
 70
     0
  9
$LUNITS
 70
     2
  9
$LUPREC
 70
     4
  9
$SKETCHINC
 40
1.0
  9
$FILLETRAD
 40
3.0
  9
$AUNITS
 70
     0
  9
$AUPREC
 70
     0
  9
$MENU
  1
.
  9
$ELEVATION
 40
0.0
  9
$PELEVATION
 40
0.0
  9
$THICKNESS
 40
0.0
  9
$LIMCHECK
 70
     0
  9
$CHAMFERA
 40
10.0
  9
$CHAMFERB
 40
10.0
  9
$CHAMFERC
 40
20.0
  9
$CHAMFERD
 40
0.0
  9
$SKPOLY
 70
     0
  9
$TDCREATE
 40
2452969.549153276
  9
$TDUCREATE
 40
2452969.174153276
  9
$TDUPDATE
 40
2457192.686978160
  9
$TDUUPDATE
 40
2457192.311978160
  9
$TDINDWG
 40
0.0624484028
  9
$TDUSRTIMER
 40
0.0624483796
  9
$USRTIMER
 70
     1
  9
$ANGBASE
 50
0.0
  9
$ANGDIR
 70
     0
  9
$PDMODE
 70
     0
  9
$PDSIZE
 40
0.0
  9
$PLINEWID
 40
0.0
  9
$SPLFRAME
 70
     0
  9
$SPLINETYPE
 70
     6
  9
$SPLINESEGS
 70
     8
  9
$HANDSEED
  5
1B4E
  9
$SURFTAB1
 70
     6
  9
$SURFTAB2
 70
     6
  9
$SURFTYPE
 70
     6
  9
$SURFU
 70
     6
  9
$SURFV
 70
     6
  9
$UCSBASE
  2

  9
$UCSNAME
  2

  9
$UCSORG
 10
0.0
 20
0.0
 30
0.0
  9
$UCSXDIR
 10
1.0
 20
0.0
 30
0.0
  9
$UCSYDIR
 10
0.0
 20
1.0
 30
0.0
  9
$UCSORTHOREF
  2

  9
$UCSORTHOVIEW
 70
     0
  9
$UCSORGTOP
 10
0.0
 20
0.0
 30
0.0
  9
$UCSORGBOTTOM
 10
0.0
 20
0.0
 30
0.0
  9
$UCSORGLEFT
 10
0.0
 20
0.0
 30
0.0
  9
$UCSORGRIGHT
 10
0.0
 20
0.0
 30
0.0
  9
$UCSORGFRONT
 10
0.0
 20
0.0
 30
0.0
  9
$UCSORGBACK
 10
0.0
 20
0.0
 30
0.0
  9
$PUCSBASE
  2

  9
$PUCSNAME
  2

  9
$PUCSORG
 10
0.0
 20
0.0
 30
0.0
  9
$PUCSXDIR
 10
1.0
 20
0.0
 30
0.0
  9
$PUCSYDIR
 10
0.0
 20
1.0
 30
0.0
  9
$PUCSORTHOREF
  2

  9
$PUCSORTHOVIEW
 70
     0
  9
$PUCSORGTOP
 10
0.0
 20
0.0
 30
0.0
  9
$PUCSORGBOTTOM
 10
0.0
 20
0.0
 30
0.0
  9
$PUCSORGLEFT
 10
0.0
 20
0.0
 30
0.0
  9
$PUCSORGRIGHT
 10
0.0
 20
0.0
 30
0.0
  9
$PUCSORGFRONT
 10
0.0
 20
0.0
 30
0.0
  9
$PUCSORGBACK
 10
0.0
 20
0.0
 30
0.0
  9
$USERI1
 70
     0
  9
$USERI2
 70
     0
  9
$USERI3
 70
     0
  9
$USERI4
 70
     0
  9
$USERI5
 70
     0
  9
$USERR1
 40
0.0
  9
$USERR2
 40
0.0
  9
$USERR3
 40
0.0
  9
$USERR4
 40
0.0
  9
$USERR5
 40
0.0
  9
$WORLDVIEW
 70
     1
  9
$SHADEDGE
 70
     3
  9
$SHADEDIF
 70
    70
  9
$TILEMODE
 70
     1
  9
$MAXACTVP
 70
    48
  9
$PINSBASE
 10
0.0
 20
0.0
 30
0.0
  9
$PLIMCHECK
 70
     0
  9
$PEXTMIN
 10
1.000000000000000E+20
 20
1.000000000000000E+20
 30
1.000000000000000E+20
  9
$PEXTMAX
 10
-1.000000000000000E+20
 20
-1.000000000000000E+20
 30
-1.000000000000000E+20
  9
$PLIMMIN
 10
0.0
 20
0.0
  9
$PLIMMAX
 10
420.0
 20
297.0
  9
$UNITMODE
 70
     0
  9
$VISRETAIN
 70
     1
  9
$PLINEGEN
 70
     0
  9
$PSLTSCALE
 70
     1
  9
$TREEDEPTH
 70
  3020
  9
$CMLSTYLE
  2
STANDARD
  9
$CMLJUST
 70
     0
  9
$CMLSCALE
 40
20.0
  9
$PROXYGRAPHICS
 70
     1
  9
$MEASUREMENT
 70
     0
  9
$CELWEIGHT
370
    -1
  9
$ENDCAPS
280
     0
  9
$JOINSTYLE
280
     0
  9
$LWDISPLAY
290
     0
  9
$INSUNITS
 70
     0
  9
$HYPERLINKBASE
  1

  9
$STYLESHEET
  1

  9
$XEDIT
290
     1
  9
$CEPSNTYPE
380
     0
  9
$PSTYLEMODE
290
     1
  9
$FINGERPRINTGUID
  2
{6B58B21D-4226-454D-A2C9-02BF004A7F7F}
  9
$VERSIONGUID
  2
{F71807AE-9877-4359-B56D-4AED79888528}
  9
$EXTNAMES
290
     1
  9
$PSVPSCALE
 40
0.0
  9
$OLESTARTUP
290
     0
  0
ENDSEC
  0
SECTION
  2
CLASSES
  0
CLASS
  1
ACDBDICTIONARYWDFLT
  2
AcDbDictionaryWithDefault
  3
ObjectDBX Classes
 90
        0
280
     0
281
     0
  0
CLASS
  1
ACDBPLACEHOLDER
  2
AcDbPlaceHolder
  3
ObjectDBX Classes
 90
        0
280
     0
281
     0
  0
CLASS
  1
LAYOUT
  2
AcDbLayout
  3
ObjectDBX Classes
 90
        0
280
     0
281
     0
  0
CLASS
  1
DICTIONARYVAR
  2
AcDbDictionaryVar
  3
ObjectDBX Classes
 90
        0
280
     0
281
     0
  0
CLASS
  1
MATERIAL
  2
AcDbMaterial
  3
ObjectDBX Classes
 90
     1153
280
     0
281
     0
  0
CLASS
  1
VISUALSTYLE
  2
AcDbVisualStyle
  3
ObjectDBX Classes
 90
     4095
280
     0
281
     0
  0
CLASS
  1
TABLESTYLE
  2
AcDbTableStyle
  3
ObjectDBX Classes
 90
     4095
280
     0
281
     0
  0
CLASS
  1
SCALE
  2
AcDbScale
  3
ObjectDBX Classes
 90
     1153
280
     0
281
     0
  0
CLASS
  1
MLEADERSTYLE
  2
AcDbMLeaderStyle
  3
ACDB_MLEADERSTYLE_CLASS
 90
     4095
280
     0
281
     0
  0
CLASS
  1
ACDBSECTIONVIEWSTYLE
  2
AcDbSectionViewStyle
  3
ObjectDBX Classes
 90
     1025
280
     0
281
     0
  0
CLASS
  1
ACDBDETAILVIEWSTYLE
  2
AcDbDetailViewStyle
  3
ObjectDBX Classes
 90
     1025
280
     0
281
     0
  0
CLASS
  1
CELLSTYLEMAP
  2
AcDbCellStyleMap
  3
ObjectDBX Classes
 90
     1152
280
     0
281
     0
  0
ENDSEC
  0
SECTION
  2
TABLES
  0
TABLE
  2
VPORT
  5
8
330
0
100
AcDbSymbolTable
 70
     1
  0
VPORT
  5
1A98
330
8
100
AcDbSymbolTableRecord
100
AcDbViewportTableRecord
  2
*ACTIVE
 70
     0
 10
0.0
 20
0.0
 11
1.0
 21
1.0
 12
512.5850328586632
 22
251.3177958526652
 13
0.0
 23
0.0
 14
10.0
 24
10.0
 15
10.0
 25
10.0
 16
0.0
 26
0.0
 36
1.0
 17
0.0
 27
0.0
 37
0.0
 40
488.0072096611447
 41
2.35006605019815
 42
50.0
 43
0.0
 44
0.0
 50
0.0
 51
0.0
 71
     0
 72
   100
 73
     1
 74
     0
 75
     0
 76
     0
 77
     0
 78
     0
281
     0
 65
     1
110
0.0
120
0.0
130
0.0
111
1.0
121
0.0
131
0.0
112
0.0
122
1.0
132
0.0
 79
     0
146
0.0
1001
ACAD_NAV_VCDISPLAY
1070
     3
  0
ENDTAB
  0
TABLE
  2
LTYPE
  5
5
330
0
100
AcDbSymbolTable
 70
     4
  0
LTYPE
  5
12
330
5
100
AcDbSymbolTableRecord
100
AcDbLinetypeTableRecord
  2
BYBLOCK
 70
     0
  3

 72
    65
 73
     0
 40
0.0
  0
LTYPE
  5
13
330
5
100
AcDbSymbolTableRecord
100
AcDbLinetypeTableRecord
  2
BYLAYER
 70
     0
  3

 72
    65
 73
     0
 40
0.0
  0
LTYPE
  5
14
330
5
100
AcDbSymbolTableRecord
100
AcDbLinetypeTableRecord
  2
CONTINUOUS
 70
     0
  3
Solid line
 72
    65
 73
     0
 40
0.0
  0
LTYPE
  5
4B
330
5
100
AcDbSymbolTableRecord
100
AcDbLinetypeTableRecord
  2
DASHED
 70
     0
  3
Dashed __ __ __ __ __ __ __ __ __ __ __ __ __ _
 72
    65
 73
     2
 40
19.04999999999999
 49
12.7
 74
     0
 49
-6.349999999999998
 74
     0
  0
LTYPE
  5
4C
330
5
100
AcDbSymbolTableRecord
100
AcDbLinetypeTableRecord
  2
CENTER
 70
     0
  3
Center ____ _ ____ _ ____ _ ____ _ ____ _ ____
 72
    65
 73
     4
 40
50.8
 49
31.75
 74
     0
 49
-6.349999999999998
 74
     0
 49
6.349999999999998
 74
     0
 49
-6.349999999999998
 74
     0
  0
LTYPE
  5
4D
330
5
100
AcDbSymbolTableRecord
100
AcDbLinetypeTableRecord
  2
PHANTOM
 70
     0
  3
Phantom ______  __  __  ______  __  __  ______
 72
    65
 73
     6
 40
63.5
 49
31.75
 74
     0
 49
-6.349999999999998
 74
     0
 49
6.349999999999998
 74
     0
 49
-6.349999999999998
 74
     0
 49
6.349999999999998
 74
     0
 49
-6.349999999999998
 74
     0
  0
ENDTAB
  0
TABLE
  2
LAYER
  5
2
330
0
100
AcDbSymbolTable
 70
     8
  0
LAYER
  5
E
102
{ACAD_XDICTIONARY
360
1AF2
102
}
330
2
100
AcDbSymbolTableRecord
100
AcDbLayerTableRecord
  2
0
 70
     0
 62
     7
  6
CONTINUOUS
370
    -3
390
1AA1
  0
LAYER
  5
4E
102
{ACAD_XDICTIONARY
360
1AF4
102
}
330
2
100
AcDbSymbolTableRecord
100
AcDbLayerTableRecord
  2
4
 70
     0
 62
     1
  6
CENTER
370
    -3
390
1AA1
  0
LAYER
  5
4F
102
{ACAD_XDICTIONARY
360
1AF6
102
}
330
2
100
AcDbSymbolTableRecord
100
AcDbLayerTableRecord
  2
5
 70
     0
 62
     6
  6
PHANTOM
370
    -3
390
1AA1
  0
LAYER
  5
50
102
{ACAD_XDICTIONARY
360
1AF8
102
}
330
2
100
AcDbSymbolTableRecord
100
AcDbLayerTableRecord
  2
1
 70
     0
 62
     7
  6
CONTINUOUS
370
    -3
390
1AA1
  0
LAYER
  5
51
102
{ACAD_XDICTIONARY
360
1AFA
102
}
330
2
100
AcDbSymbolTableRecord
100
AcDbLayerTableRecord
  2
2
 70
     0
 62
     4
  6
CONTINUOUS
370
    -3
390
1AA1
  0
LAYER
  5
52
102
{ACAD_XDICTIONARY
360
1AFC
102
}
330
2
100
AcDbSymbolTableRecord
100
AcDbLayerTableRecord
  2
3
 70
     0
 62
     2
  6
DASHED
370
    -3
390
1AA1
  0
LAYER
  5
53
102
{ACAD_XDICTIONARY
360
1AFE
102
}
330
2
100
AcDbSymbolTableRecord
100
AcDbLayerTableRecord
  2
6
 70
     0
 62
     5
  6
CONTINUOUS
370
    -3
390
1AA1
  0
LAYER
  5
54
102
{ACAD_XDICTIONARY
360
1B00
102
}
330
2
100
AcDbSymbolTableRecord
100
AcDbLayerTableRecord
  2
7
 70
     0
 62
     3
  6
CONTINUOUS
370
    -3
390
1AA1
  0
ENDTAB
  0
TABLE
  2
STYLE
  5
3
330
0
100
AcDbSymbolTable
 70
     1
  0
STYLE
  5
F
330
3
100
AcDbSymbolTableRecord
100
AcDbTextStyleTableRecord
  2
STANDARD
 70
     0
 40
0.0
 41
1.0
 50
0.0
 71
     0
 42
2.5
  3
simplex.shx
  4

  0
ENDTAB
  0
TABLE
  2
VIEW
  5
6
330
0
100
AcDbSymbolTable
 70
     0
  0
ENDTAB
  0
TABLE
  2
UCS
  5
7
330
0
100
AcDbSymbolTable
 70
     0
  0
ENDTAB
  0
TABLE
  2
APPID
  5
9
330
0
100
AcDbSymbolTable
 70
     5
  0
APPID
  5
10
330
9
100
AcDbSymbolTableRecord
100
AcDbRegAppTableRecord
  2
ACAD
 70
     0
  0
APPID
  5
3E
330
9
100
AcDbSymbolTableRecord
100
AcDbRegAppTableRecord
  2
CONTENTTABDATA
 70
     0
  0
APPID
  5
3F
330
9
100
AcDbSymbolTableRecord
100
AcDbRegAppTableRecord
  2
CONTENTCURRENTTAB
 70
     0
  0
APPID
  5
1B0C
330
9
100
AcDbSymbolTableRecord
100
AcDbRegAppTableRecord
  2
ACAD_NAV_VCDISPLAY
 70
     0
  0
APPID
  5
1B45
330
9
100
AcDbSymbolTableRecord
100
AcDbRegAppTableRecord
  2
ACAD_MLEADERVER
 70
     0
  0
ENDTAB
  0
TABLE
  2
DIMSTYLE
  5
A
330
0
100
AcDbSymbolTable
 70
     1
100
AcDbDimStyleTable
 71
     0
  0
DIMSTYLE
105
1D
330
A
100
AcDbSymbolTableRecord
100
AcDbDimStyleTableRecord
  2
STANDARD
 70
     0
 41
3.0
 42
1.0
 43
10.0
 44
1.0
 73
     0
 74
     0
 77
     3
 78
     8
140
3.2
141
0.0
147
1.0
172
     1
173
     1
340
F
341
2E
343
2E
344
2E
  0
ENDTAB
  0
TABLE
  2
BLOCK_RECORD
  5
1
330
0
100
AcDbSymbolTable
 70
     1
  0
BLOCK_RECORD
  5
18
102
{ACAD_XDICTIONARY
360
1A9B
102
}
330
1
100
AcDbSymbolTableRecord
100
AcDbBlockTableRecord
  2
*MODEL_SPACE
340
1AEF
  0
BLOCK_RECORD
  5
15
102
{ACAD_XDICTIONARY
360
1A99
102
}
330
1
100
AcDbSymbolTableRecord
100
AcDbBlockTableRecord
  2
*PAPER_SPACE
340
1AF0
  0
BLOCK_RECORD
  5
2E
330
1
100
AcDbSymbolTableRecord
100
AcDbBlockTableRecord
  2
_OPEN
340
0
  0
ENDTAB
  0
ENDSEC
  0
SECTION
  2
BLOCKS
  0
BLOCK
  5
19
330
18
100
AcDbEntity
  8
0
100
AcDbBlockBegin
  2
*MODEL_SPACE
 70
     0
 10
0.0
 20
0.0
 30
0.0
  3
*MODEL_SPACE
  1

  0
ENDBLK
  5
1A
330
18
100
AcDbEntity
  8
0
100
AcDbBlockEnd
  0
BLOCK
  5
16
330
15
100
AcDbEntity
 67
     1
  8
0
100
AcDbBlockBegin
  2
*PAPER_SPACE
 70
     0
 10
0.0
 20
0.0
 30
0.0
  3
*PAPER_SPACE
  1

  0
ENDBLK
  5
17
330
15
100
AcDbEntity
 67
     1
  8
0
100
AcDbBlockEnd
  0
BLOCK
  5
2F
330
2E
100
AcDbEntity
  8
0
100
AcDbBlockBegin
  2
_OPEN
 70
     0
 10
0.0
 20
0.0
 30
0.0
  3
_OPEN
  1

  0
LINE
  5
30
330
2E
100
AcDbEntity
  8
0
  6
ByBlock
 62
     0
100
AcDbLine
 10
-1.0
 20
0.1666666666666666
 30
0.0
 11
0.0
 21
0.0
 31
0.0
  0
LINE
  5
31
330
2E
100
AcDbEntity
  8
0
  6
ByBlock
 62
     0
100
AcDbLine
 10
0.0
 20
0.0
 30
0.0
 11
-1.0
 21
-0.1666666666666666
 31
0.0
  0
LINE
  5
32
330
2E
100
AcDbEntity
  8
0
  6
ByBlock
 62
     0
100
AcDbLine
 10
0.0
 20
0.0
 30
0.0
 11
-1.0
 21
0.0
 31
0.0
  0
ENDBLK
  5
33
330
2E
100
AcDbEntity
  8
0
100
AcDbBlockEnd
  0
ENDSEC
  0
SECTION
  2
ENTITIES
  0
TEXT
  5
63
330
18
100
AcDbEntity
  8
4
  6
CENTER
 48
0.25
100
AcDbText
 10
23.97950852663849
 20
10.0
 30
0.0
 40
1.399999999999999
  1
4
100
AcDbText
  0
TEXT
  5
64
330
18
100
AcDbEntity
  8
7
  6
Continuous
 48
0.25
100
AcDbText
 10
9.999997526638502
 20
26.0000007607689
 30
0.0
 40
3.0
  1
CODE No.9845
100
AcDbText
  0
TEXT
  5
65
330
18
100
AcDbEntity
  8
7
  6
Continuous
 48
0.25
100
AcDbText
 10
9.999997526638502
 20
18.00000076076889
 30
0.0
 40
3.0
  1
TYPE No.105X-N
100
AcDbText
  0
TEXT
  5
66
330
18
100
AcDbEntity
  8
1
  6
Continuous
 48
0.25
100
AcDbText
 10
9.999997526638502
 20
10.00000076076889
 30
0.0
 40
1.399999999999999
  1
LAYER
100
AcDbText
  0
TEXT
  5
67
330
18
100
AcDbEntity
  8
2
  6
Continuous
 48
0.25
100
AcDbText
 10
19.9795085266385
 20
10.0
 30
0.0
 40
1.399999999999999
  1
2
100
AcDbText
  0
TEXT
  5
68
330
18
100
AcDbEntity
  8
3
  6
DASHED
 48
0.25
100
AcDbText
 10
21.9795085266385
 20
10.0
 30
0.0
 40
1.399999999999999
  1
3
100
AcDbText
  0
TEXT
  5
69
330
18
100
AcDbEntity
  8
1
  6
Continuous
 48
0.25
100
AcDbText
 10
17.9795085266385
 20
10.0
 30
0.0
 40
1.399999999999999
  1
1
100
AcDbText
  0
TEXT
  5
6A
330
18
100
AcDbEntity
  8
5
  6
PHANTOM
 48
0.25
100
AcDbText
 10
25.9795085266385
 20
10.0
 30
0.0
 40
1.399999999999999
  1
5
100
AcDbText
  0
TEXT
  5
6B
330
18
100
AcDbEntity
  8
6
  6
Continuous
 48
0.25
100
AcDbText
 10
27.9795085266385
 20
10.0
 30
0.0
 40
1.399999999999999
  1
6
100
AcDbText
  0
TEXT
  5
6C
330
18
100
AcDbEntity
  8
7
  6
Continuous
 48
0.25
100
AcDbText
 10
29.9795085266385
 20
10.0
 30
0.0
 40
1.399999999999999
  1
7
100
AcDbText
  0
LINE
  5
286
330
18
100
AcDbEntity
  8
4
  6
CENTER
100
AcDbLine
 10
110.49794492743
 20
227.9634376265625
 30
0.0
 11
26.59794492743003
 21
227.9634376265625
 31
0.0
  0
LINE
  5
287
330
18
100
AcDbEntity
  8
1
  6
Continuous
100
AcDbLine
 10
61.09794492743002
 20
310.4634376265626
 30
0.0
 11
26.54794492743008
 21
310.4634376265626
 31
0.0
  0
LINE
  5
288
330
18
100
AcDbEntity
  8
1
  6
Continuous
100
AcDbLine
 10
61.26919092743003
 20
305.4634376265626
 30
0.0
 11
26.54794492743008
 21
305.4634376265626
 31
0.0
  0
LINE
  5
289
330
18
100
AcDbEntity
  8
1
  6
Continuous
100
AcDbLine
 10
38.54794492743007
 20
287.4634376265626
 30
0.0
 11
98.54794492743009
 21
287.4634376265626
 31
0.0
  0
LINE
  5
28A
330
18
100
AcDbEntity
  8
1
  6
Continuous
100
AcDbLine
 10
38.54794492743007
 20
292.4634376265625
 30
0.0
 11
98.54794492743009
 21
292.4634376265625
 31
0.0
  0
ARC
  5
28B
330
18
100
AcDbEntity
  8
1
  6
Continuous
100
AcDbCircle
 10
49.54794492743007
 20
255.1949976265625
 30
0.0
 40
5.0
100
AcDbArc
 50
94.55475500000035
 51
180.0
  0
ARC
  5
28C
330
18
100
AcDbEntity
  8
1
  6
Continuous
100
AcDbCircle
 10
49.54794492743007
 20
200.7318756265626
 30
0.0
 40
5.0
100
AcDbArc
 50
180.0
 51
265.4452449999995
  0
ARC
  5
28D
330
18
100
AcDbEntity
  8
1
  6
Continuous
100
AcDbCircle
 10
48.14794492742999
 20
286.8634376265625
 30
0.0
 40
0.6
100
AcDbArc
 50
90.0
 51
180.0
  0
LINE
  5
28E
330
18
100
AcDbEntity
  8
1
  6
Continuous
100
AcDbLine
 10
33.59794492743003
 20
285.9634376265626
 30
0.0
 11
68.54794492743008
 21
285.9634376265626
 31
0.0
  0
LINE
  5
290
330
18
100
AcDbEntity
  8
4
  6
CENTER
100
AcDbLine
 10
68.54794492743008
 20
315.6037496265629
 30
0.0
 11
68.54794492743008
 21
190.1450856265626
 31
0.0
  0
LINE
  5
291
330
18
100
AcDbEntity
  8
4
  6
CENTER
100
AcDbLine
 10
279.8753559988993
 20
315.6037456265626
 30
0.0
 11
279.8753559988993
 21
232.4038536265625
 31
0.0
  0
LINE
  5
292
330
18
100
AcDbEntity
  8
1
  6
Continuous
100
AcDbLine
 10
286.4088419988992
 20
310.2634376265625
 30
0.0
 11
273.3418719988992
 21
310.2634376265625
 31
0.0
  0
ARC
  5
293
330
18
100
AcDbEntity
  8
1
  6
Continuous
100
AcDbCircle
 10
285.1253599988993
 20
306.3144196265625
 30
0.0
 40
2.2
100
AcDbArc
 50
270.0
 51
337.2438189999998
  0
ARC
  5
294
330
18
100
AcDbEntity
  8
1
  6
Continuous
100
AcDbCircle
 10
287.3253559988992
 20
308.2634376265625
 30
0.0
 40
2.2
100
AcDbArc
 50
90.0
 51
180.099725
  0
LINE
  5
295
330
18
100
AcDbEntity
  8
1
  6
Continuous
100
AcDbLine
 10
273.6028219988992
 20
297.3693336265625
 30
0.0
 11
286.1478899988992
 21
297.3693336265625
 31
0.0
  0
LINE
  5
296
330
18
100
AcDbEntity
  8
1
  6
Continuous
100
AcDbLine
 10
249.8753559988993
 20
287.4634376265626
 30
0.0
 11
309.8753559988992
 21
287.4634376265626
 31
0.0
  0
LINE
  5
297
330
18
100
AcDbEntity
  8
1
  6
Continuous
100
AcDbLine
 10
249.8753559988993
 20
292.4634376265625
 30
0.0
 11
309.8753559988992
 21
292.4634376265625
 31
0.0
  0
LINE
  5
298
330
18
100
AcDbEntity
  8
1
  6
Continuous
100
AcDbLine
 10
238.5560159988993
 20
212.9780376265627
 30
0.0
 11
295.5549439988992
 21
257.4069616265627
 31
0.0
  0
LINE
  5
299
330
18
100
AcDbEntity
  8
1
  6
Continuous
100
AcDbLine
 10
307.1753559988992
 20
285.9634376265626
 30
0.0
 11
250.8753559988992
 21
285.9634376265626
 31
0.0
  0
LINE
  5
29C
330
18
100
AcDbEntity
  8
1
  6
Continuous
100
AcDbLine
 10
310.6162559988991
 20
280.9634376265626
 30
0.0
 11
310.6162559988991
 21
263.4634376265625
 31
0.0
  0
LINE
  5
29D
330
18
100
AcDbEntity
  8
1
  6
Continuous
100
AcDbLine
 10
312.1753559988992
 20
280.9634376265626
 30
0.0
 11
312.1753559988992
 21
263.4634376265625
 31
0.0
  0
LINE
  5
2A2
330
18
100
AcDbEntity
  8
1
  6
Continuous
100
AcDbLine
 10
307.1753559988992
 20
258.4634376265626
 30
0.0
 11
298.6288019988992
 21
258.4634376265626
 31
0.0
  0
ARC
  5
2A3
330
18
100
AcDbEntity
  8
1
  6
Continuous
100
AcDbCircle
 10
305.6162559988992
 20
263.4634376265625
 30
0.0
 40
5.0
100
AcDbArc
 50
270.0
 51
0.000000000000007
  0
ARC
  5
2A4
330
18
100
AcDbEntity
  8
1
  6
Continuous
100
AcDbCircle
 10
307.1753559988992
 20
263.4634376265625
 30
0.0
 40
5.0
100
AcDbArc
 50
270.0
 51
0.000000000000007
  0
ARC
  5
2A5
330
18
100
AcDbEntity
  8
1
  6
Continuous
100
AcDbCircle
 10
295.1225799988992
 20
254.9134376265626
 30
0.0
 40
2.0
100
AcDbArc
 50
270.0
 51
330.0000000000002
  0
LINE
  5
2A6
330
18
100
AcDbEntity
  8
1
  6
Continuous
100
AcDbLine
 10
295.1225799988992
 20
252.9134376265626
 30
0.0
 11
289.7900947096778
 21
252.9134376265627
 31
0.0
  0
ARC
  5
2A9
330
18
100
AcDbEntity
  8
1
  6
Continuous
100
AcDbCircle
 10
298.6288019988992
 20
253.4634376265626
 30
0.0
 40
5.0
100
AcDbArc
 50
90.0
 51
127.9353269999999
  0
LINE
  5
2AA
330
18
100
AcDbEntity
  8
1
  6
Continuous
100
AcDbLine
 10
298.8753559988992
 20
257.4134376265626
 30
0.0
 11
296.8546299988993
 21
253.9134376265625
 31
0.0
  0
LINE
  5
2AB
330
18
100
AcDbEntity
  8
1
  6
Continuous
100
AcDbLine
 10
298.8753559988992
 20
257.4134376265626
 30
0.0
 11
295.5632499988992
 21
257.4134376265626
 31
0.0
  0
LINE
  5
2AC
330
18
100
AcDbEntity
  8
1
  6
Continuous
100
AcDbLine
 10
321.8753559988992
 20
310.4634376265626
 30
0.0
 11
287.3253559988992
 21
310.4634376265626
 31
0.0
  0
LINE
  5
2AD
330
18
100
AcDbEntity
  8
1
  6
Continuous
100
AcDbLine
 10
321.8753559988992
 20
304.1144196265626
 30
0.0
 11
311.8747179988993
 21
297.3689036265625
 31
0.0
  0
LINE
  5
2AE
330
18
100
AcDbEntity
  8
1
  6
Continuous
100
AcDbLine
 10
287.1541099988992
 20
305.4634376265626
 30
0.0
 11
321.8753559988992
 21
305.4634376265626
 31
0.0
  0
LINE
  5
2AF
330
18
100
AcDbEntity
  8
1
  6
Continuous
100
AcDbLine
 10
321.8753559988992
 20
310.4634376265626
 30
0.0
 11
321.8753559988992
 21
304.1144196265626
 31
0.0
  0
LINE
  5
2B0
330
18
100
AcDbEntity
  8
1
  6
Continuous
100
AcDbLine
 10
309.8753559988992
 20
292.4634376265625
 30
0.0
 11
309.8753559988992
 21
287.4634376265626
 31
0.0
  0
ARC
  5
2B1
330
18
100
AcDbEntity
  8
1
  6
Continuous
100
AcDbCircle
 10
305.6162559988992
 20
280.9634376265626
 30
0.0
 40
5.0
100
AcDbArc
 50
0.000000000000007
 51
90.0
  0
ARC
  5
2B2
330
18
100
AcDbEntity
  8
1
  6
Continuous
100
AcDbCircle
 10
307.1753559988992
 20
280.9634376265626
 30
0.0
 40
5.0
100
AcDbArc
 50
0.000000000000007
 51
90.0
  0
LINE
  5
2B3
330
18
100
AcDbEntity
  8
1
  6
Continuous
100
AcDbLine
 10
300.8753559988992
 20
285.9634376265626
 30
0.0
 11
300.8753559988992
 21
286.8634376265625
 31
0.0
  0
ARC
  5
2B4
330
18
100
AcDbEntity
  8
1
  6
Continuous
100
AcDbCircle
 10
300.2753559988991
 20
286.8634376265625
 30
0.0
 40
0.6
100
AcDbArc
 50
0.000000000000007
 51
90.0
  0
ARC
  5
2B5
330
18
100
AcDbEntity
  8
1
  6
Continuous
100
AcDbCircle
 10
292.9753559988991
 20
286.8634376265625
 30
0.0
 40
0.6
100
AcDbArc
 50
90.0
 51
180.0
  0
LINE
  5
2B6
330
18
100
AcDbEntity
  8
1
  6
Continuous
100
AcDbLine
 10
292.3753559988993
 20
285.9634376265626
 30
0.0
 11
292.3753559988993
 21
287.4634376265626
 31
0.0
  0
LINE
  5
2B7
330
18
100
AcDbEntity
  8
1
  6
Continuous
100
AcDbLine
 10
311.8753559988992
 20
297.4634376265626
 30
0.0
 11
311.8753559988992
 21
302.4634376265626
 31
0.0
  0
ARC
  5
2B8
330
18
100
AcDbEntity
  8
1
  6
Continuous
100
AcDbCircle
 10
304.8753559988993
 20
297.4634376265626
 30
0.0
 40
7.0
100
AcDbArc
 50
314.4153089999999
 51
0.000000000000007
  0
ARC
  5
2B9
330
18
100
AcDbEntity
  8
1
  6
Continuous
100
AcDbCircle
 10
314.8753559988993
 20
302.4634376265626
 30
0.0
 40
3.0
100
AcDbArc
 50
90.0
 51
180.0
  0
LINE
  5
2BA
330
18
100
AcDbEntity
  8
1
  6
Continuous
100
AcDbLine
 10
287.1541099988992
 20
304.6903616265625
 30
0.0
 11
287.1541099988992
 21
298.5222736265625
 31
0.0
  0
ARC
  5
2BB
330
18
100
AcDbEntity
  8
1
  6
Continuous
100
AcDbCircle
 10
288.1541099988992
 20
298.3693336265626
 30
0.0
 40
1.0
100
AcDbArc
 50
205.8376559999996
 51
241.4142169999999
  0
LINE
  5
2BF
330
18
100
AcDbEntity
  8
4
  6
CENTER
100
AcDbLine
 10
226.8753559988993
 20
190.4634376265626
 30
0.0
 11
226.8753559988993
 21
265.4634376265625
 31
0.0
  0
ARC
  5
2C0
330
18
100
AcDbEntity
  8
1
  6
Continuous
100
AcDbCircle
 10
226.8753559988993
 20
227.9634376265625
 30
0.0
 40
19.0
100
AcDbArc
 50
141.3918169999999
 51
307.9353269999999
  0
ARC
  5
2C1
330
18
100
AcDbEntity
  8
1
  6
Continuous
100
AcDbCircle
 10
226.8753559988993
 20
227.9634376265625
 30
0.0
 40
32.5
100
AcDbArc
 50
87.3484640000009
 51
1.982154000000207
  0
CIRCLE
  5
2C2
330
18
100
AcDbEntity
  8
1
  6
Continuous
100
AcDbCircle
 10
226.8753559988993
 20
227.9634376265625
 30
0.0
 40
10.0
  0
CIRCLE
  5
2C3
330
18
100
AcDbEntity
  8
1
  6
Continuous
100
AcDbCircle
 10
226.8753559988993
 20
227.9634376265625
 30
0.0
 40
10.5
  0
LINE
  5
2C6
330
18
100
AcDbEntity
  8
4
  6
CENTER
100
AcDbLine
 10
264.3753559988993
 20
227.9634376265625
 30
0.0
 11
189.3753559988993
 21
227.9634376265625
 31
0.0
  0
LINE
  5
2C7
330
18
100
AcDbEntity
  8
1
  6
Continuous
100
AcDbLine
 10
212.0281599988992
 20
239.8192696265625
 30
0.0
 11
246.4733419988992
 21
282.9553656265627
 31
0.0
  0
LINE
  5
2C8
330
18
100
AcDbEntity
  8
1
  6
Continuous
100
AcDbLine
 10
285.8753559988993
 20
285.9634376265626
 30
0.0
 11
285.8753559988993
 21
249.8620196265626
 31
0.0
  0
LINE
  5
319
330
18
100
AcDbEntity
  8
1
  6
Continuous
100
AcDbLine
 10
272.4253559988992
 20
310.4634376265626
 30
0.0
 11
237.8753559988993
 21
310.4634376265626
 31
0.0
  0
LINE
  5
31A
330
18
100
AcDbEntity
  8
1
  6
Continuous
100
AcDbLine
 10
272.5966019988992
 20
305.4634376265626
 30
0.0
 11
237.8753559988993
 21
305.4634376265626
 31
0.0
  0
LINE
  5
31D
330
18
100
AcDbEntity
  8
1
  6
Continuous
100
AcDbLine
 10
267.3753559988993
 20
285.9634376265626
 30
0.0
 11
267.3753559988993
 21
287.4634376265626
 31
0.0
  0
ARC
  5
31E
330
18
100
AcDbEntity
  8
1
  6
Continuous
100
AcDbCircle
 10
259.4753559988991
 20
286.8634376265625
 30
0.0
 40
0.6
100
AcDbArc
 50
90.0
 51
180.0
  0
LINE
  5
31F
330
18
100
AcDbEntity
  8
1
  6
Continuous
100
AcDbLine
 10
258.8753559988993
 20
285.9634376265626
 30
0.0
 11
258.8753559988993
 21
286.8634376265625
 31
0.0
  0
LINE
  5
320
330
18
100
AcDbEntity
  8
1
  6
Continuous
100
AcDbLine
 10
272.5966019988992
 20
304.6903616265625
 30
0.0
 11
272.5966019988992
 21
298.5222736265625
 31
0.0
  0
ARC
  5
321
330
18
100
AcDbEntity
  8
1
  6
Continuous
100
AcDbCircle
 10
271.5966019988992
 20
298.3693336265626
 30
0.0
 40
1.0
100
AcDbArc
 50
298.585783
 51
334.1623440000004
  0
LINE
  5
322
330
18
100
AcDbEntity
  8
1
  6
Continuous
100
AcDbLine
 10
274.6253519988992
 20
304.1144196265626
 30
0.0
 11
285.1253599988993
 21
304.1144196265626
 31
0.0
  0
LINE
  5
323
330
18
100
AcDbEntity
  8
1
  6
Continuous
100
AcDbLine
 10
274.6253519988992
 20
308.2596076265625
 30
0.0
 11
285.1253599988993
 21
308.2596076265625
 31
0.0
  0
ARC
  5
324
330
18
100
AcDbEntity
  8
1
  6
Continuous
100
AcDbCircle
 10
274.6253519988992
 20
306.3144196265625
 30
0.0
 40
2.2
100
AcDbArc
 50
202.7561810000003
 51
270.0
  0
ARC
  5
325
330
18
100
AcDbEntity
  8
1
  6
Continuous
100
AcDbCircle
 10
272.4253559988992
 20
308.2634376265625
 30
0.0
 40
2.2
100
AcDbArc
 50
359.9002749999999
 51
90.0
  0
LINE
  5
326
330
18
100
AcDbEntity
  8
1
  6
Continuous
100
AcDbLine
 10
249.8753559988993
 20
292.4634376265625
 30
0.0
 11
249.8753559988993
 21
287.4634376265626
 31
0.0
  0
ARC
  5
329
330
18
100
AcDbEntity
  8
1
  6
Continuous
100
AcDbCircle
 10
252.7247919988992
 20
277.9634376265625
 30
0.0
 40
8.0
100
AcDbArc
 50
90.0
 51
141.3918169999999
  0
ARC
  5
32A
330
18
100
AcDbEntity
  8
1
  6
Continuous
100
AcDbCircle
 10
250.8753559988992
 20
283.9634376265625
 30
0.0
 40
2.0
100
AcDbArc
 50
90.0
 51
142.1027990000004
  0
LINE
  5
32B
330
18
100
AcDbEntity
  8
1
  6
Continuous
100
AcDbLine
 10
237.8753559988993
 20
304.1144196265628
 30
0.0
 11
247.8759939988993
 21
297.3689036265625
 31
0.0
  0
LINE
  5
32C
330
18
100
AcDbEntity
  8
1
  6
Continuous
100
AcDbLine
 10
247.8753559988993
 20
297.4634376265626
 30
0.0
 11
247.8753559988993
 21
302.4634376265626
 31
0.0
  0
ARC
  5
32D
330
18
100
AcDbEntity
  8
1
  6
Continuous
100
AcDbCircle
 10
254.8753559988993
 20
297.4634376265626
 30
0.0
 40
7.0
100
AcDbArc
 50
180.0
 51
225.584691
  0
ARC
  5
32E
330
18
100
AcDbEntity
  8
1
  6
Continuous
100
AcDbCircle
 10
244.8753559988992
 20
302.4634376265626
 30
0.0
 40
3.0
100
AcDbArc
 50
0.000000000000007
 51
90.0
  0
LINE
  5
32F
330
18
100
AcDbEntity
  8
1
  6
Continuous
100
AcDbLine
 10
237.8753559988993
 20
310.4634376265626
 30
0.0
 11
237.8753559988993
 21
304.1144196265626
 31
0.0
  0
LINE
  5
331
330
18
100
AcDbEntity
  8
1
  6
Continuous
100
AcDbLine
 10
68.04794492743008
 20
257.4731336265625
 30
0.0
 11
68.04794492743008
 21
198.4537396265625
 31
0.0
  0
LINE
  5
332
330
18
100
AcDbEntity
  8
1
  6
Continuous
100
AcDbLine
 10
92.54794492743007
 20
200.7318756265626
 30
0.0
 11
92.54794492743007
 21
255.1949976265625
 31
0.0
  0
LINE
  5
333
330
18
100
AcDbEntity
  8
1
  6
Continuous
100
AcDbLine
 10
69.04794492743008
 20
198.4537396265625
 30
0.0
 11
69.04794492743008
 21
257.4731336265625
 31
0.0
  0
LINE
  5
334
330
18
100
AcDbEntity
  8
1
  6
Continuous
100
AcDbLine
 10
68.54794492743008
 20
216.4634376265626
 30
0.0
 11
68.54794492743008
 21
239.4634376265626
 31
0.0
  0
LINE
  5
335
330
18
100
AcDbEntity
  8
1
  6
Continuous
100
AcDbLine
 10
94.19794492742994
 20
210.9634376265625
 30
0.0
 11
94.19794492742994
 21
285.9634376265626
 31
0.0
  0
LINE
  5
336
330
18
100
AcDbEntity
  8
1
  6
Continuous
100
AcDbLine
 10
105.49794492743
 20
210.9634376265625
 30
0.0
 11
105.49794492743
 21
283.9634376265625
 31
0.0
  0
ARC
  5
337
330
18
100
AcDbEntity
  8
1
  6
Continuous
100
AcDbCircle
 10
80.79794492743008
 20
285.4634376265626
 30
0.0
 40
90.0
100
AcDbArc
 50
263.9316789999997
 51
274.5547550000003
  0
ARC
  5
338
330
18
100
AcDbEntity
  8
1
  6
Continuous
100
AcDbCircle
 10
87.54794492743005
 20
200.7318756265626
 30
0.0
 40
5.0
100
AcDbArc
 50
274.5547550000003
 51
0.000000000000007
  0
LINE
  5
339
330
18
100
AcDbEntity
  8
1
  6
Continuous
100
AcDbLine
 10
103.49794492743
 20
208.9634376265625
 30
0.0
 11
96.19794492742997
 21
208.9634376265625
 31
0.0
  0
ARC
  5
33A
330
18
100
AcDbEntity
  8
1
  6
Continuous
100
AcDbCircle
 10
103.49794492743
 20
210.9634376265625
 30
0.0
 40
2.0
100
AcDbArc
 50
270.0
 51
0.000000000000007
  0
LINE
  5
33B
330
18
100
AcDbEntity
  8
1
  6
Continuous
100
AcDbLine
 10
93.22145492742992
 20
210.1789896265626
 30
0.0
 11
92.57443692743004
 21
207.2478836265626
 31
0.0
  0
ARC
  5
33C
330
18
100
AcDbEntity
  8
1
  6
Continuous
100
AcDbCircle
 10
91.59794492743003
 20
207.4634376265626
 30
0.0
 40
1.0
100
AcDbArc
 50
341.8051289999999
 51
347.552055
  0
ARC
  5
33D
330
18
100
AcDbEntity
  8
1
  6
Continuous
100
AcDbCircle
 10
93.99794492743
 20
211.1466516265626
 30
0.0
 40
0.2
100
AcDbArc
 50
279.5941419999997
 51
0.000000000000007
  0
ARC
  5
33E
330
18
100
AcDbEntity
  8
1
  6
Continuous
100
AcDbCircle
 10
94.19794692742994
 20
209.9634376265626
 30
0.0
 40
1.0
100
AcDbArc
 50
99.59414199999978
 51
167.5520549999999
  0
ARC
  5
33F
330
18
100
AcDbEntity
  8
1
  6
Continuous
100
AcDbCircle
 10
96.19794492742997
 20
210.9634376265625
 30
0.0
 40
2.0
100
AcDbArc
 50
180.0
 51
270.0
  0
ARC
  5
340
330
18
100
AcDbEntity
  8
1
  6
Continuous
100
AcDbCircle
 10
65.54794492743008
 20
198.4537396265625
 30
0.0
 40
2.5
100
AcDbArc
 50
276.0683210000002
 51
0.000000000000007
  0
ARC
  5
341
330
18
100
AcDbEntity
  8
1
  6
Continuous
100
AcDbCircle
 10
71.54794492743008
 20
198.4537396265625
 30
0.0
 40
2.5
100
AcDbArc
 50
180.0
 51
263.9316789999997
  0
ARC
  5
342
330
18
100
AcDbEntity
  8
1
  6
Continuous
100
AcDbCircle
 10
56.29794492743007
 20
285.4634376265626
 30
0.0
 40
90.0
100
AcDbArc
 50
265.4452449999995
 51
276.0683210000002
  0
LINE
  5
343
330
18
100
AcDbEntity
  8
1
  6
Continuous
100
AcDbLine
 10
68.04794492743008
 20
215.9634376265626
 30
0.0
 11
68.54794492743008
 21
216.4634376265626
 31
0.0
  0
LINE
  5
344
330
18
100
AcDbEntity
  8
1
  6
Continuous
100
AcDbLine
 10
69.04794492743008
 20
215.9634376265628
 30
0.0
 11
68.54794492743008
 21
216.4634376265627
 31
0.0
  0
ARC
  5
345
330
18
100
AcDbEntity
  8
1
  6
Continuous
100
AcDbCircle
 10
80.79794492743008
 20
170.4634376265626
 30
0.0
 40
90.0
100
AcDbArc
 50
85.44524499999965
 51
96.06832100000028
  0
ARC
  5
346
330
18
100
AcDbEntity
  8
1
  6
Continuous
100
AcDbCircle
 10
93.99794492743
 20
244.7802216265626
 30
0.0
 40
0.2
100
AcDbArc
 50
0.000000000000007
 51
80.40585800000025
  0
LINE
  5
347
330
18
100
AcDbEntity
  8
1
  6
Continuous
100
AcDbLine
 10
93.22145492743029
 20
245.7478836265626
 30
0.0
 11
92.57443692743029
 21
248.6789896265626
 31
0.0
  0
ARC
  5
348
330
18
100
AcDbEntity
  8
1
  6
Continuous
100
AcDbCircle
 10
91.59794492743003
 20
248.4634376265625
 30
0.0
 40
1.0
100
AcDbArc
 50
12.44794500000004
 51
18.19487100000004
  0
ARC
  5
349
330
18
100
AcDbEntity
  8
1
  6
Continuous
100
AcDbCircle
 10
94.19794692742994
 20
245.9634376265626
 30
0.0
 40
1.0
100
AcDbArc
 50
192.447945
 51
260.4058580000002
  0
ARC
  5
34A
330
18
100
AcDbEntity
  8
1
  6
Continuous
100
AcDbCircle
 10
87.54794492743005
 20
255.1949976265625
 30
0.0
 40
5.0
100
AcDbArc
 50
0.000000000000007
 51
85.44524499999965
  0
LINE
  5
34B
330
18
100
AcDbEntity
  8
1
  6
Continuous
100
AcDbLine
 10
92.19794492742996
 20
258.4634376265626
 30
0.0
 11
91.33176692742997
 21
258.4634376265626
 31
0.0
  0
ARC
  5
34C
330
18
100
AcDbEntity
  8
1
  6
Continuous
100
AcDbCircle
 10
92.19794492742996
 20
256.4634376265626
 30
0.0
 40
2.0
100
AcDbArc
 50
0.000000000000007
 51
90.0
  0
LINE
  5
34D
330
18
100
AcDbEntity
  8
1
  6
Continuous
100
AcDbLine
 10
68.04794492743032
 20
239.9634376265626
 30
0.0
 11
68.54794492743008
 21
239.4634376265628
 31
0.0
  0
LINE
  5
34E
330
18
100
AcDbEntity
  8
1
  6
Continuous
100
AcDbLine
 10
69.04794492743008
 20
239.9634376265628
 30
0.0
 11
68.54794492743008
 21
239.4634376265628
 31
0.0
  0
ARC
  5
34F
330
18
100
AcDbEntity
  8
1
  6
Continuous
100
AcDbCircle
 10
56.29794492743007
 20
170.4634376265626
 30
0.0
 40
90.0
100
AcDbArc
 50
83.93167899999973
 51
94.55475500000035
  0
ARC
  5
350
330
18
100
AcDbEntity
  8
1
  6
Continuous
100
AcDbCircle
 10
65.54794492743008
 20
257.4731336265625
 30
0.0
 40
2.5
100
AcDbArc
 50
0.000000000000007
 51
83.93167899999973
  0
ARC
  5
351
330
18
100
AcDbEntity
  8
1
  6
Continuous
100
AcDbCircle
 10
71.54794492743008
 20
257.4731336265625
 30
0.0
 40
2.5
100
AcDbArc
 50
96.06832100000028
 51
180.0
  0
LINE
  5
352
330
18
100
AcDbEntity
  8
1
  6
Continuous
100
AcDbLine
 10
69.25244892743001
 20
258.4634376265626
 30
0.0
 11
67.84344092743004
 21
258.4634376265626
 31
0.0
  0
LINE
  5
353
330
18
100
AcDbEntity
  8
1
  6
Continuous
100
AcDbLine
 10
110.54794492743
 20
310.4634376265626
 30
0.0
 11
75.99794492743001
 21
310.4634376265626
 31
0.0
  0
LINE
  5
354
330
18
100
AcDbEntity
  8
1
  6
Continuous
100
AcDbLine
 10
75.82669892743002
 20
305.4634376265626
 30
0.0
 11
110.54794492743
 21
305.4634376265626
 31
0.0
  0
LINE
  5
355
330
18
100
AcDbEntity
  8
1
  6
Continuous
100
AcDbLine
 10
103.49794492743
 20
285.9634376265626
 30
0.0
 11
68.54794492743008
 21
285.9634376265626
 31
0.0
  0
LINE
  5
356
330
18
100
AcDbEntity
  8
1
  6
Continuous
100
AcDbLine
 10
98.54794492743009
 20
292.4634376265625
 30
0.0
 11
98.54794492743009
 21
287.4634376265626
 31
0.0
  0
ARC
  5
357
330
18
100
AcDbEntity
  8
1
  6
Continuous
100
AcDbCircle
 10
103.49794492743
 20
283.9634376265625
 30
0.0
 40
2.0
100
AcDbArc
 50
0.000000000000007
 51
90.0
  0
LINE
  5
358
330
18
100
AcDbEntity
  8
1
  6
Continuous
100
AcDbLine
 10
89.54794492743008
 20
285.9634376265626
 30
0.0
 11
89.54794492743008
 21
286.8634376265625
 31
0.0
  0
ARC
  5
359
330
18
100
AcDbEntity
  8
1
  6
Continuous
100
AcDbCircle
 10
88.94794492742994
 20
286.8634376265625
 30
0.0
 40
0.6
100
AcDbArc
 50
0.000000000000007
 51
90.0
  0
LINE
  5
35A
330
18
100
AcDbEntity
  8
1
  6
Continuous
100
AcDbLine
 10
110.54794492743
 20
304.1144196265626
 30
0.0
 11
100.5473069274301
 21
297.3689036265625
 31
0.0
  0
LINE
  5
35B
330
18
100
AcDbEntity
  8
1
  6
Continuous
100
AcDbLine
 10
100.54794492743
 20
297.4634376265626
 30
0.0
 11
100.54794492743
 21
302.4634376265626
 31
0.0
  0
ARC
  5
35C
330
18
100
AcDbEntity
  8
1
  6
Continuous
100
AcDbCircle
 10
93.54794492743009
 20
297.4634376265626
 30
0.0
 40
7.0
100
AcDbArc
 50
314.4153089999999
 51
0.000000000000007
  0
LINE
  5
35D
330
18
100
AcDbEntity
  8
1
  6
Continuous
100
AcDbLine
 10
110.54794492743
 20
310.4634376265626
 30
0.0
 11
110.54794492743
 21
304.1144196265626
 31
0.0
  0
ARC
  5
35E
330
18
100
AcDbEntity
  8
1
  6
Continuous
100
AcDbCircle
 10
103.54794492743
 20
302.4634376265626
 30
0.0
 40
3.0
100
AcDbArc
 50
90.0
 51
180.0
  0
LINE
  5
35F
330
18
100
AcDbEntity
  8
1
  6
Continuous
100
AcDbLine
 10
75.08143092743002
 20
310.2634376265625
 30
0.0
 11
62.01446092743004
 21
310.2634376265625
 31
0.0
  0
LINE
  5
360
330
18
100
AcDbEntity
  8
1
  6
Continuous
100
AcDbLine
 10
62.27541292743001
 20
297.3693336265625
 30
0.0
 11
74.82047892743003
 21
297.3693336265625
 31
0.0
  0
LINE
  5
361
330
18
100
AcDbEntity
  8
1
  6
Continuous
100
AcDbLine
 10
63.29794292743009
 20
304.1144196265626
 30
0.0
 11
73.79794892743007
 21
304.1144196265626
 31
0.0
  0
LINE
  5
362
330
18
100
AcDbEntity
  8
1
  6
Continuous
100
AcDbLine
 10
63.29794292743009
 20
308.2596076265625
 30
0.0
 11
73.79794892743007
 21
308.2596076265625
 31
0.0
  0
LINE
  5
363
330
18
100
AcDbEntity
  8
1
  6
Continuous
100
AcDbLine
 10
75.82669892743002
 20
304.6903616265625
 30
0.0
 11
75.82669892743002
 21
298.5222736265625
 31
0.0
  0
ARC
  5
364
330
18
100
AcDbEntity
  8
1
  6
Continuous
100
AcDbCircle
 10
76.82669892743001
 20
298.3693336265626
 30
0.0
 40
1.0
100
AcDbArc
 50
205.8376559999996
 51
241.4142169999999
  0
ARC
  5
365
330
18
100
AcDbEntity
  8
1
  6
Continuous
100
AcDbCircle
 10
73.79794892743007
 20
306.3144196265625
 30
0.0
 40
2.2
100
AcDbArc
 50
270.0
 51
337.2438189999998
  0
ARC
  5
366
330
18
100
AcDbEntity
  8
1
  6
Continuous
100
AcDbCircle
 10
75.99794492743001
 20
308.2634376265625
 30
0.0
 40
2.2
100
AcDbArc
 50
90.0
 51
180.099725
  0
LINE
  5
367
330
18
100
AcDbEntity
  8
1
  6
Continuous
100
AcDbLine
 10
61.26919092743003
 20
304.6903616265625
 30
0.0
 11
61.26919092743003
 21
298.5222736265625
 31
0.0
  0
ARC
  5
368
330
18
100
AcDbEntity
  8
1
  6
Continuous
100
AcDbCircle
 10
60.26919092743003
 20
298.3693336265626
 30
0.0
 40
1.0
100
AcDbArc
 50
298.585783
 51
334.1623440000004
  0
ARC
  5
369
330
18
100
AcDbEntity
  8
1
  6
Continuous
100
AcDbCircle
 10
63.29794292743009
 20
306.3144196265625
 30
0.0
 40
2.2
100
AcDbArc
 50
202.7561810000003
 51
270.0
  0
ARC
  5
36A
330
18
100
AcDbEntity
  8
1
  6
Continuous
100
AcDbCircle
 10
61.09794492743002
 20
308.2634376265625
 30
0.0
 40
2.2
100
AcDbArc
 50
359.9002749999999
 51
90.0
  0
LINE
  5
36D
330
18
100
AcDbEntity
  8
4
  6
CENTER
100
AcDbLine
 10
328.8753559988993
 20
445.6529630804433
 30
0.0
 11
190.7976619988992
 21
445.6529630804433
 31
0.0
  0
ARC
  5
36E
330
18
100
AcDbEntity
  8
1
  6
Continuous
100
AcDbCircle
 10
285.8048719988992
 20
445.7299770804435
 30
0.0
 40
8.0
100
AcDbArc
 50
259.7065649999998
 51
295.5826819999998
  0
ARC
  5
36F
330
18
100
AcDbEntity
  8
1
  6
Continuous
100
AcDbCircle
 10
280.8753559988992
 20
443.9209110804433
 30
0.0
 40
10.0
100
AcDbArc
 50
278.2132109999998
 51
321.7867889999999
  0
LINE
  5
370
330
18
100
AcDbEntity
  8
1
  6
Continuous
100
AcDbLine
 10
281.9882459988992
 20
445.6529630804433
 30
0.0
 11
288.8753559988992
 21
445.6529630804433
 31
0.0
  0
LINE
  5
371
330
18
100
AcDbEntity
  8
1
  6
Continuous
100
AcDbLine
 10
282.0404199988992
 20
444.4029630804434
 30
0.0
 11
289.8525819988993
 21
439.8926090804435
 31
0.0
  0
ARC
  5
372
330
18
100
AcDbEntity
  8
1
  6
Continuous
100
AcDbCircle
 10
285.8048719988992
 20
445.5759470804434
 30
0.0
 40
8.0
100
AcDbArc
 50
64.4173180000001
 51
100.293435
  0
ARC
  5
373
330
18
100
AcDbEntity
  8
1
  6
Continuous
100
AcDbCircle
 10
280.8753559988992
 20
447.3850130804433
 30
0.0
 40
10.0
100
AcDbArc
 50
38.21321100000015
 51
81.7867890000002
  0
LINE
  5
374
330
18
100
AcDbEntity
  8
1
  6
Continuous
100
AcDbLine
 10
282.040419998899
 20
446.9029630804435
 30
0.0
 11
289.8525819988991
 21
451.4133170804434
 31
0.0
  0
CIRCLE
  5
375
330
18
100
AcDbEntity
  8
1
  6
Continuous
100
AcDbCircle
 10
279.8753559988993
 20
445.6529630804433
 30
0.0
 40
19.0
  0
ARC
  5
376
330
18
100
AcDbEntity
  8
1
  6
Continuous
100
AcDbCircle
 10
291.1253559988992
 20
476.6761390804433
 30
0.0
 40
6.0
100
AcDbArc
 50
180.0
 51
228.6883180000001
  0
CIRCLE
  5
377
330
18
100
AcDbEntity
  8
1
  6
Continuous
100
AcDbCircle
 10
279.8753559988993
 20
445.6529630804433
 30
0.0
 40
27.5
  0
LINE
  5
378
330
18
100
AcDbEntity
  8
1
  6
Continuous
100
AcDbLine
 10
247.8753559988993
 20
487.6529630804433
 30
0.0
 11
311.8753559988992
 21
487.6529630804433
 31
0.0
  0
LINE
  5
379
330
18
100
AcDbEntity
  8
1
  6
Continuous
100
AcDbLine
 10
247.8753559988993
 20
403.6529630804433
 30
0.0
 11
311.8753559988992
 21
403.6529630804433
 31
0.0
  0
ARC
  5
37A
330
18
100
AcDbEntity
  8
1
  6
Continuous
100
AcDbCircle
 10
291.1253559988992
 20
414.6297850804434
 30
0.0
 40
6.0
100
AcDbArc
 50
131.3116819999999
 51
180.0
  0
ARC
  5
37B
330
18
100
AcDbEntity
  8
1
  6
Continuous
100
AcDbCircle
 10
311.8753559988992
 20
413.6529630804433
 30
0.0
 40
10.0
100
AcDbArc
 50
270.0
 51
0.000000000000007
  0
ARC
  5
37C
330
18
100
AcDbEntity
  8
1
  6
Continuous
100
AcDbCircle
 10
285.1253559988993
 20
446.9520010804434
 30
0.0
 40
6.5
100
AcDbArc
 50
21.78678899999982
 51
43.34236400000037
  0
LINE
  5
37D
330
18
100
AcDbEntity
  8
1
  6
Continuous
100
AcDbLine
 10
321.8753559988992
 20
477.6529630804433
 30
0.0
 11
321.8753559988992
 21
413.6529630804433
 31
0.0
  0
ARC
  5
37E
330
18
100
AcDbEntity
  8
1
  6
Continuous
100
AcDbCircle
 10
310.8985319988992
 20
456.9029630804433
 30
0.0
 40
6.0
100
AcDbArc
 50
221.3116819999999
 51
270.0
  0
LINE
  5
37F
330
18
100
AcDbEntity
  8
4
  6
CENTER
100
AcDbLine
 10
319.1253559988993
 20
413.6529630804433
 30
0.0
 11
304.6253559988993
 21
413.6529630804433
 31
0.0
  0
LINE
  5
380
330
18
100
AcDbEntity
  8
1
  6
Continuous
100
AcDbLine
 10
310.8985319988992
 20
440.4029630804433
 30
0.0
 11
321.8753559988992
 21
440.4029630804433
 31
0.0
  0
LINE
  5
381
330
18
100
AcDbEntity
  8
1
  6
Continuous
100
AcDbLine
 10
321.8753559988992
 20
450.9029630804433
 30
0.0
 11
310.8985319988992
 21
450.9029630804433
 31
0.0
  0
LINE
  5
382
330
18
100
AcDbEntity
  8
4
  6
CENTER
100
AcDbLine
 10
311.8753559988992
 20
406.4029630804433
 30
0.0
 11
311.8753559988992
 21
420.9029630804433
 31
0.0
  0
CIRCLE
  5
383
330
18
100
AcDbEntity
  8
1
  6
Continuous
100
AcDbCircle
 10
311.8753559988992
 20
413.6529630804433
 30
0.0
 40
4.25
  0
ARC
  5
384
330
18
100
AcDbEntity
  8
1
  6
Continuous
100
AcDbCircle
 10
310.8985319988992
 20
434.4029630804433
 30
0.0
 40
6.0
100
AcDbArc
 50
90.0
 51
138.688318
  0
ARC
  5
385
330
18
100
AcDbEntity
  8
1
  6
Continuous
100
AcDbCircle
 10
283.6253559988993
 20
441.7558470804435
 30
0.0
 40
6.5
100
AcDbArc
 50
321.7867889999999
 51
343.3423639999998
  0
ARC
  5
386
330
18
100
AcDbEntity
  8
1
  6
Continuous
100
AcDbCircle
 10
282.7734159988992
 20
440.4793430804434
 30
0.0
 40
8.0
100
AcDbArc
 50
4.417318000000168
 51
40.29343500000024
  0
ARC
  5
387
330
18
100
AcDbEntity
  8
1
  6
Continuous
100
AcDbCircle
 10
282.7734159988992
 20
450.8265810804434
 30
0.0
 40
8.0
100
AcDbArc
 50
319.7065649999998
 51
355.5826819999999
  0
ARC
  5
388
330
18
100
AcDbEntity
  8
1
  6
Continuous
100
AcDbCircle
 10
285.1253559988993
 20
444.3539250804433
 30
0.0
 40
6.5
100
AcDbArc
 50
316.6576359999996
 51
338.2132110000001
  0
ARC
  5
389
330
18
100
AcDbEntity
  8
1
  6
Continuous
100
AcDbCircle
 10
281.8753559988993
 20
445.6529630804433
 30
0.0
 40
10.0
100
AcDbArc
 50
338.2132110000001
 51
21.78678899999982
  0
LINE
  5
38A
330
18
100
AcDbEntity
  8
4
  6
CENTER
100
AcDbLine
 10
319.1253559988993
 20
477.6529630804433
 30
0.0
 11
304.6253559988993
 21
477.6529630804433
 31
0.0
  0
ARC
  5
38B
330
18
100
AcDbEntity
  8
1
  6
Continuous
100
AcDbCircle
 10
311.8753559988992
 20
477.6529630804433
 30
0.0
 40
10.0
100
AcDbArc
 50
0.000000000000007
 51
90.0
  0
LINE
  5
38C
330
18
100
AcDbEntity
  8
4
  6
CENTER
100
AcDbLine
 10
311.8753559988992
 20
470.4029630804433
 30
0.0
 11
311.8753559988992
 21
484.9029630804433
 31
0.0
  0
CIRCLE
  5
38D
330
18
100
AcDbEntity
  8
1
  6
Continuous
100
AcDbCircle
 10
311.8753559988992
 20
477.6529630804433
 30
0.0
 40
4.25
  0
ARC
  5
38E
330
18
100
AcDbEntity
  8
1
  6
Continuous
100
AcDbCircle
 10
283.6253559988993
 20
449.5500770804435
 30
0.0
 40
6.5
100
AcDbArc
 50
16.6576360000002
 51
38.21321100000015
  0
LINE
  5
392
330
18
100
AcDbEntity
  8
4
  6
CENTER
100
AcDbLine
 10
279.8753559988993
 20
398.6529630804433
 30
0.0
 11
279.8753559988993
 21
492.6529630804433
 31
0.0
  0
ARC
  5
393
330
18
100
AcDbEntity
  8
1
  6
Continuous
100
AcDbCircle
 10
247.8753559988993
 20
413.6529630804433
 30
0.0
 40
10.0
100
AcDbArc
 50
180.0
 51
270.0
  0
LINE
  5
394
330
18
100
AcDbEntity
  8
1
  6
Continuous
100
AcDbLine
 10
285.1253559988993
 20
403.6529630804433
 30
0.0
 11
285.1253559988993
 21
414.6297850804434
 31
0.0
  0
LINE
  5
395
330
18
100
AcDbEntity
  8
1
  6
Continuous
100
AcDbLine
 10
274.6253559988992
 20
403.6529630804433
 30
0.0
 11
274.6253559988992
 21
414.6297850804434
 31
0.0
  0
LINE
  5
396
330
18
100
AcDbEntity
  8
1
  6
Continuous
100
AcDbLine
 10
237.8753559988993
 20
445.6529630804433
 30
0.0
 11
215.3753559988992
 21
445.6529630804433
 31
0.0
  0
LINE
  5
397
330
18
100
AcDbEntity
  8
1
  6
Continuous
100
AcDbLine
 10
239.1864259988992
 20
408.7029630804433
 30
0.0
 11
209.8753559988992
 21
408.7029630804433
 31
0.0
  0
LINE
  5
398
330
18
100
AcDbEntity
  8
1
  6
Continuous
100
AcDbLine
 10
237.8753559988993
 20
420.0029630804436
 30
0.0
 11
209.8753559988992
 21
420.0029630804436
 31
0.0
  0
LINE
  5
399
330
18
100
AcDbEntity
  8
1
  6
Continuous
100
AcDbLine
 10
199.6437939988992
 20
421.6529630804433
 30
0.0
 11
237.8753559988993
 21
421.6529630804433
 31
0.0
  0
LINE
  5
39A
330
18
100
AcDbEntity
  8
1
  6
Continuous
100
AcDbLine
 10
197.3656579988992
 20
445.1529630804433
 30
0.0
 11
237.8753559988993
 21
445.1529630804433
 31
0.0
  0
LINE
  5
39B
330
18
100
AcDbEntity
  8
1
  6
Continuous
100
AcDbLine
 10
197.3656579988992
 20
446.1529630804433
 30
0.0
 11
237.8753559988993
 21
446.1529630804433
 31
0.0
  0
LINE
  5
39C
330
18
100
AcDbEntity
  8
1
  6
Continuous
100
AcDbLine
 10
199.6437939988992
 20
469.6529630804433
 30
0.0
 11
237.8753559988993
 21
469.6529630804433
 31
0.0
  0
LINE
  5
39D
330
18
100
AcDbEntity
  8
1
  6
Continuous
100
AcDbLine
 10
237.8753559988993
 20
471.3029630804435
 30
0.0
 11
209.8753559988992
 21
471.3029630804435
 31
0.0
  0
LINE
  5
39E
330
18
100
AcDbEntity
  8
1
  6
Continuous
100
AcDbLine
 10
239.1864259988992
 20
482.6029630804433
 30
0.0
 11
209.8753559988992
 21
482.6029630804433
 31
0.0
  0
LINE
  5
39F
330
18
100
AcDbEntity
  8
4
  6
CENTER
100
AcDbLine
 10
226.8753559988993
 20
403.7029630804433
 30
0.0
 11
226.8753559988993
 21
487.6029630804433
 31
0.0
  0
LINE
  5
3A0
330
18
100
AcDbEntity
  8
1
  6
Continuous
100
AcDbLine
 10
278.8189119988992
 20
447.4827790804432
 30
0.0
 11
275.3753559988993
 21
453.4471910804434
 31
0.0
  0
LINE
  5
3A1
330
18
100
AcDbEntity
  8
1
  6
Continuous
100
AcDbLine
 10
279.8753559988993
 20
448.1529630804433
 30
0.0
 11
279.8753559988993
 21
457.1736690804435
 31
0.0
  0
ARC
  5
3A2
330
18
100
AcDbEntity
  8
1
  6
Continuous
100
AcDbCircle
 10
274.6253559988992
 20
446.9520010804434
 30
0.0
 40
6.5
100
AcDbArc
 50
136.6576359999996
 51
158.2132110000001
  0
LINE
  5
3A3
330
18
100
AcDbEntity
  8
1
  6
Continuous
100
AcDbLine
 10
277.7102919988991
 20
446.9029630804433
 30
0.0
 11
269.8981299988992
 21
451.4133170804433
 31
0.0
  0
LINE
  5
3A4
330
18
100
AcDbEntity
  8
1
  6
Continuous
100
AcDbLine
 10
280.9317999988993
 20
447.4827790804432
 30
0.0
 11
284.3753559988993
 21
453.4471910804433
 31
0.0
  0
LINE
  5
3A5
330
18
100
AcDbEntity
  8
1
  6
Continuous
100
AcDbLine
 10
237.8753559988993
 20
477.6529630804433
 30
0.0
 11
237.8753559988993
 21
413.6529630804433
 31
0.0
  0
ARC
  5
3A6
330
18
100
AcDbEntity
  8
1
  6
Continuous
100
AcDbCircle
 10
248.8521799988992
 20
456.9029630804433
 30
0.0
 40
6.0
100
AcDbArc
 50
270.0
 51
318.6883180000001
  0
LINE
  5
3A7
330
18
100
AcDbEntity
  8
4
  6
CENTER
100
AcDbLine
 10
255.1253559988992
 20
413.6529630804433
 30
0.0
 11
240.6253559988992
 21
413.6529630804433
 31
0.0
  0
ARC
  5
3A8
330
18
100
AcDbEntity
  8
1
  6
Continuous
100
AcDbCircle
 10
248.8521799988992
 20
434.4029630804433
 30
0.0
 40
6.0
100
AcDbArc
 50
41.3116819999999
 51
90.0
  0
ARC
  5
3A9
330
18
100
AcDbEntity
  8
1
  6
Continuous
100
AcDbCircle
 10
268.6253559988993
 20
414.6297850804434
 30
0.0
 40
6.0
100
AcDbArc
 50
0.000000000000007
 51
48.68831800000013
  0
ARC
  5
3AA
330
18
100
AcDbEntity
  8
1
  6
Continuous
100
AcDbCircle
 10
276.9772959988991
 20
450.8265810804434
 30
0.0
 40
8.0
100
AcDbArc
 50
184.4173180000001
 51
220.2934350000003
  0
ARC
  5
3AB
330
18
100
AcDbEntity
  8
1
  6
Continuous
100
AcDbCircle
 10
276.9772959988991
 20
440.4793430804434
 30
0.0
 40
8.0
100
AcDbArc
 50
139.7065649999997
 51
175.5826819999998
  0
ARC
  5
3AC
330
18
100
AcDbEntity
  8
1
  6
Continuous
100
AcDbCircle
 10
274.6253559988992
 20
444.3539250804433
 30
0.0
 40
6.5
100
AcDbArc
 50
201.7867889999998
 51
223.3423640000003
  0
ARC
  5
3AD
330
18
100
AcDbEntity
  8
1
  6
Continuous
100
AcDbCircle
 10
276.1253559988992
 20
441.7558470804435
 30
0.0
 40
6.5
100
AcDbArc
 50
196.6576360000002
 51
218.2132110000001
  0
LINE
  5
3AE
330
18
100
AcDbEntity
  8
1
  6
Continuous
100
AcDbLine
 10
278.8189119988992
 20
443.8231470804433
 30
0.0
 11
275.3753559988993
 21
437.8587330804434
 31
0.0
  0
LINE
  5
3AF
330
18
100
AcDbEntity
  8
1
  6
Continuous
100
AcDbLine
 10
280.9317999988992
 20
443.8231470804433
 30
0.0
 11
284.3753559988993
 21
437.8587330804434
 31
0.0
  0
LINE
  5
3B0
330
18
100
AcDbEntity
  8
1
  6
Continuous
100
AcDbLine
 10
279.8753559988993
 20
443.1529630804432
 30
0.0
 11
279.8753559988993
 21
434.1322550804434
 31
0.0
  0
ARC
  5
3B1
330
18
100
AcDbEntity
  8
1
  6
Continuous
100
AcDbCircle
 10
282.9068119988992
 20
440.5563590804433
 30
0.0
 40
8.0
100
AcDbArc
 50
199.7065649999997
 51
235.5826820000005
  0
ARC
  5
3B2
330
18
100
AcDbEntity
  8
1
  6
Continuous
100
AcDbCircle
 10
278.3753559988992
 20
440.4568090804436
 30
0.0
 40
6.5
100
AcDbArc
 50
261.7867890000001
 51
283.342363999999
  0
ARC
  5
3B3
330
18
100
AcDbEntity
  8
1
  6
Continuous
100
AcDbCircle
 10
276.8438999988992
 20
440.5563590804433
 30
0.0
 40
8.0
100
AcDbArc
 50
304.4173179999994
 51
340.2934350000002
  0
ARC
  5
3B4
330
18
100
AcDbEntity
  8
1
  6
Continuous
100
AcDbCircle
 10
281.3753559988993
 20
440.4568090804436
 30
0.0
 40
6.5
100
AcDbArc
 50
256.6576360000009
 51
278.2132109999998
  0
ARC
  5
3B5
330
18
100
AcDbEntity
  8
1
  6
Continuous
100
AcDbCircle
 10
273.9458399988992
 20
445.7299770804435
 30
0.0
 40
8.0
100
AcDbArc
 50
244.4173180000001
 51
280.2934350000001
  0
ARC
  5
3B6
330
18
100
AcDbEntity
  8
1
  6
Continuous
100
AcDbCircle
 10
278.8753559988993
 20
443.9209110804433
 30
0.0
 40
10.0
100
AcDbArc
 50
218.2132110000001
 51
261.7867890000001
  0
ARC
  5
3B7
330
18
100
AcDbEntity
  8
1
  6
Continuous
100
AcDbCircle
 10
271.3189119988992
 20
460.4731590804433
 30
0.0
 40
15.0
100
AcDbArc
 50
295.2198079999998
 51
304.7801920000002
  0
ARC
  5
3B8
330
18
100
AcDbEntity
  8
1
  6
Continuous
100
AcDbCircle
 10
271.3189119988992
 20
430.8327650804433
 30
0.0
 40
15.0
100
AcDbArc
 50
55.21980800000004
 51
64.78019200000007
  0
ARC
  5
3B9
330
18
100
AcDbEntity
  8
1
  6
Continuous
100
AcDbCircle
 10
288.4317999988992
 20
430.8327650804433
 30
0.0
 40
15.0
100
AcDbArc
 50
115.2198079999999
 51
124.7801919999999
  0
ARC
  5
3BA
330
18
100
AcDbEntity
  8
1
  6
Continuous
100
AcDbCircle
 10
296.9882459988991
 20
445.6529630804433
 30
0.0
 40
15.0
100
AcDbArc
 50
175.2198080000003
 51
184.7801919999995
  0
ARC
  5
3BB
330
18
100
AcDbEntity
  8
1
  6
Continuous
100
AcDbCircle
 10
288.4317999988992
 20
460.4731590804433
 30
0.0
 40
15.0
100
AcDbArc
 50
235.219808
 51
244.780192
  0
ARC
  5
3BC
330
18
100
AcDbEntity
  8
1
  6
Continuous
100
AcDbCircle
 10
262.7624659988991
 20
445.6529630804433
 30
0.0
 40
15.0
100
AcDbArc
 50
355.2198080000003
 51
4.780191999999653
  0
LINE
  5
3BD
330
18
100
AcDbEntity
  8
1
  6
Continuous
100
AcDbLine
 10
277.7624659988991
 20
445.6529630804433
 30
0.0
 11
270.8753559988993
 21
445.6529630804433
 31
0.0
  0
LINE
  5
3BE
330
18
100
AcDbEntity
  8
1
  6
Continuous
100
AcDbLine
 10
277.7102919988992
 20
444.4029630804433
 30
0.0
 11
269.8981299988993
 21
439.8926090804433
 31
0.0
  0
ARC
  5
3BF
330
18
100
AcDbEntity
  8
1
  6
Continuous
100
AcDbCircle
 10
277.8753559988992
 20
445.6529630804433
 30
0.0
 40
10.0
100
AcDbArc
 50
158.2132110000001
 51
201.7867889999998
  0
LINE
  5
3C0
330
18
100
AcDbEntity
  8
4
  6
CENTER
100
AcDbLine
 10
247.8753559988993
 20
406.4029630804433
 30
0.0
 11
247.8753559988993
 21
420.9029630804433
 31
0.0
  0
CIRCLE
  5
3C1
330
18
100
AcDbEntity
  8
1
  6
Continuous
100
AcDbCircle
 10
247.8753559988993
 20
413.6529630804433
 30
0.0
 40
4.25
  0
LINE
  5
3C2
330
18
100
AcDbEntity
  8
1
  6
Continuous
100
AcDbLine
 10
237.8753559988993
 20
440.4029630804433
 30
0.0
 11
248.8521799988992
 21
440.4029630804433
 31
0.0
  0
LINE
  5
3C3
330
18
100
AcDbEntity
  8
1
  6
Continuous
100
AcDbLine
 10
237.8753559988993
 20
450.9029630804433
 30
0.0
 11
248.8521799988992
 21
450.9029630804433
 31
0.0
  0
LINE
  5
3C4
330
18
100
AcDbEntity
  8
4
  6
CENTER
100
AcDbLine
 10
255.1253559988992
 20
477.6529630804433
 30
0.0
 11
240.6253559988992
 21
477.6529630804433
 31
0.0
  0
ARC
  5
3C5
330
18
100
AcDbEntity
  8
1
  6
Continuous
100
AcDbCircle
 10
268.6253559988993
 20
476.6761390804433
 30
0.0
 40
6.0
100
AcDbArc
 50
311.3116819999999
 51
0.000000000000007
  0
ARC
  5
3C6
330
18
100
AcDbEntity
  8
1
  6
Continuous
100
AcDbCircle
 10
282.9068119988992
 20
450.7495650804435
 30
0.0
 40
8.0
100
AcDbArc
 50
124.4173179999994
 51
160.2934350000002
  0
ARC
  5
3C7
330
18
100
AcDbEntity
  8
1
  6
Continuous
100
AcDbCircle
 10
278.3753559988992
 20
450.8491150804434
 30
0.0
 40
6.5
100
AcDbArc
 50
76.65763600000097
 51
98.2132109999998
  0
ARC
  5
3C8
330
18
100
AcDbEntity
  8
1
  6
Continuous
100
AcDbCircle
 10
276.8438999988992
 20
450.7495650804435
 30
0.0
 40
8.0
100
AcDbArc
 50
19.7065649999998
 51
55.58268200000053
  0
ARC
  5
3C9
330
18
100
AcDbEntity
  8
1
  6
Continuous
100
AcDbCircle
 10
281.3753559988993
 20
450.8491150804434
 30
0.0
 40
6.5
100
AcDbArc
 50
81.7867890000002
 51
103.342363999999
  0
ARC
  5
3CA
330
18
100
AcDbEntity
  8
1
  6
Continuous
100
AcDbCircle
 10
273.9458399988992
 20
445.5759470804434
 30
0.0
 40
8.0
100
AcDbArc
 50
79.70656499999989
 51
115.5826819999998
  0
ARC
  5
3CB
330
18
100
AcDbEntity
  8
1
  6
Continuous
100
AcDbCircle
 10
278.8753559988993
 20
447.3850130804433
 30
0.0
 40
10.0
100
AcDbArc
 50
98.2132109999998
 51
141.7867889999998
  0
ARC
  5
3CC
330
18
100
AcDbEntity
  8
1
  6
Continuous
100
AcDbCircle
 10
276.1253559988992
 20
449.5500770804435
 30
0.0
 40
6.5
100
AcDbArc
 50
141.7867889999998
 51
163.3423639999998
  0
LINE
  5
3CD
330
18
100
AcDbEntity
  8
1
  6
Continuous
100
AcDbLine
 10
274.6253559988992
 20
487.6529630804433
 30
0.0
 11
274.6253559988992
 21
476.6761390804433
 31
0.0
  0
LINE
  5
3CE
330
18
100
AcDbEntity
  8
1
  6
Continuous
100
AcDbLine
 10
285.1253559988993
 20
487.6529630804433
 30
0.0
 11
285.1253559988993
 21
476.6761390804433
 31
0.0
  0
LINE
  5
3CF
330
18
100
AcDbEntity
  8
4
  6
CENTER
100
AcDbLine
 10
247.8753559988993
 20
470.4029630804433
 30
0.0
 11
247.8753559988993
 21
484.9029630804433
 31
0.0
  0
CIRCLE
  5
3D0
330
18
100
AcDbEntity
  8
1
  6
Continuous
100
AcDbCircle
 10
247.8753559988993
 20
477.6529630804433
 30
0.0
 40
4.25
  0
ARC
  5
3D1
330
18
100
AcDbEntity
  8
1
  6
Continuous
100
AcDbCircle
 10
247.8753559988993
 20
477.6529630804433
 30
0.0
 40
10.0
100
AcDbArc
 50
90.0
 51
180.0
  0
ARC
  5
3D2
330
18
100
AcDbEntity
  8
1
  6
Continuous
100
AcDbCircle
 10
284.3753559988993
 20
457.9029630804433
 30
0.0
 40
90.0
100
AcDbArc
 50
175.4452449999995
 51
186.0683210000003
  0
ARC
  5
3D3
330
18
100
AcDbEntity
  8
1
  6
Continuous
100
AcDbCircle
 10
284.3753559988993
 20
433.4029630804433
 30
0.0
 40
90.0
100
AcDbArc
 50
173.9316789999995
 51
184.5547549999995
  0
LINE
  5
3D4
330
18
100
AcDbEntity
  8
1
  6
Continuous
100
AcDbLine
 10
207.8753559988992
 20
418.0029630804435
 30
0.0
 11
207.8753559988992
 21
410.7029630804433
 31
0.0
  0
ARC
  5
3D5
330
18
100
AcDbEntity
  8
1
  6
Continuous
100
AcDbCircle
 10
209.8753559988992
 20
410.7029630804433
 30
0.0
 40
2.0
100
AcDbArc
 50
180.0
 51
270.0
  0
LINE
  5
3D6
330
18
100
AcDbEntity
  8
1
  6
Continuous
100
AcDbLine
 10
209.0909079988993
 20
420.9794530804433
 30
0.0
 11
206.1598039988993
 21
421.6264710804433
 31
0.0
  0
ARC
  5
3D7
330
18
100
AcDbEntity
  8
1
  6
Continuous
100
AcDbCircle
 10
206.3753559988993
 20
422.6029630804433
 30
0.0
 40
1.0
100
AcDbArc
 50
251.8051279999993
 51
257.5520549999999
  0
ARC
  5
3D8
330
18
100
AcDbEntity
  8
1
  6
Continuous
100
AcDbCircle
 10
208.8753559988993
 20
420.0029610804436
 30
0.0
 40
1.0
100
AcDbArc
 50
0.000000000000007
 51
77.55205500000005
  0
ARC
  5
3D9
330
18
100
AcDbEntity
  8
1
  6
Continuous
100
AcDbCircle
 10
209.8753559988992
 20
418.0029630804435
 30
0.0
 40
2.0
100
AcDbArc
 50
90.0
 51
180.0
  0
ARC
  5
3DA
330
18
100
AcDbEntity
  8
1
  6
Continuous
100
AcDbCircle
 10
199.6437939988992
 20
426.6529630804432
 30
0.0
 40
5.0
100
AcDbArc
 50
184.5547549999995
 51
270.0
  0
LINE
  5
3DB
330
18
100
AcDbEntity
  8
1
  6
Continuous
100
AcDbLine
 10
214.8753559988993
 20
446.1529630804433
 30
0.0
 11
215.3753559988992
 21
445.6529630804433
 31
0.0
  0
LINE
  5
3DC
330
18
100
AcDbEntity
  8
1
  6
Continuous
100
AcDbLine
 10
214.8753559988993
 20
445.1529630804433
 30
0.0
 11
215.3753559988992
 21
445.6529630804433
 31
0.0
  0
ARC
  5
3DD
330
18
100
AcDbEntity
  8
1
  6
Continuous
100
AcDbCircle
 10
197.3656579988992
 20
442.6529630804433
 30
0.0
 40
2.5
100
AcDbArc
 50
90.0
 51
173.9316789999995
  0
ARC
  5
3DE
330
18
100
AcDbEntity
  8
1
  6
Continuous
100
AcDbCircle
 10
197.3656579988992
 20
448.6529630804433
 30
0.0
 40
2.5
100
AcDbArc
 50
186.0683210000003
 51
270.0
  0
LINE
  5
3DF
330
18
100
AcDbEntity
  8
1
  6
Continuous
100
AcDbLine
 10
207.8753559988992
 20
473.3029630804434
 30
0.0
 11
207.8753559988992
 21
480.6029630804433
 31
0.0
  0
LINE
  5
3E0
330
18
100
AcDbEntity
  8
1
  6
Continuous
100
AcDbLine
 10
209.0909079988993
 20
470.3264710804433
 30
0.0
 11
206.1598039988993
 21
469.6794550804433
 31
0.0
  0
ARC
  5
3E1
330
18
100
AcDbEntity
  8
1
  6
Continuous
100
AcDbCircle
 10
206.3753559988993
 20
468.7029630804433
 30
0.0
 40
1.0
100
AcDbArc
 50
102.4479449999999
 51
108.1948720000006
  0
ARC
  5
3E2
330
18
100
AcDbEntity
  8
1
  6
Continuous
100
AcDbCircle
 10
208.8753559988993
 20
471.3029630804435
 30
0.0
 40
1.0
100
AcDbArc
 50
282.447945
 51
0.000000000000007
  0
ARC
  5
3E3
330
18
100
AcDbEntity
  8
1
  6
Continuous
100
AcDbCircle
 10
209.8753559988992
 20
473.3029630804434
 30
0.0
 40
2.0
100
AcDbArc
 50
180.0
 51
270.0
  0
ARC
  5
3E4
330
18
100
AcDbEntity
  8
1
  6
Continuous
100
AcDbCircle
 10
199.6437939988992
 20
464.6529630804433
 30
0.0
 40
5.0
100
AcDbArc
 50
90.0
 51
175.4452449999995
  0
ARC
  5
3E5
330
18
100
AcDbEntity
  8
1
  6
Continuous
100
AcDbCircle
 10
209.8753559988992
 20
480.6029630804433
 30
0.0
 40
2.0
100
AcDbArc
 50
90.0
 51
180.0
  0
LINE
  5
3E6
330
18
100
AcDbEntity
  8
1
  6
Continuous
100
AcDbLine
 10
44.54794492743006
 20
200.7318756265626
 30
0.0
 11
44.54794492743006
 21
255.1949976265625
 31
0.0
  0
LINE
  5
3E7
330
18
100
AcDbEntity
  8
1
  6
Continuous
100
AcDbLine
 10
42.89794492742998
 20
285.9634376265626
 30
0.0
 11
42.89794492742998
 21
210.9634376265625
 31
0.0
  0
LINE
  5
3E8
330
18
100
AcDbEntity
  8
1
  6
Continuous
100
AcDbLine
 10
31.59794492743003
 20
210.9634376265625
 30
0.0
 11
31.59794492743003
 21
283.9634376265625
 31
0.0
  0
ARC
  5
3E9
330
18
100
AcDbEntity
  8
1
  6
Continuous
100
AcDbCircle
 10
33.59794492743003
 20
210.9634376265625
 30
0.0
 40
2.0
100
AcDbArc
 50
180.0
 51
270.0
  0
LINE
  5
3EA
330
18
100
AcDbEntity
  8
1
  6
Continuous
100
AcDbLine
 10
43.87443692743
 20
210.1789896265624
 30
0.0
 11
44.52145292743
 21
207.2478836265626
 31
0.0
  0
ARC
  5
3EB
330
18
100
AcDbEntity
  8
1
  6
Continuous
100
AcDbCircle
 10
45.49794492743001
 20
207.4634376265626
 30
0.0
 40
1.0
100
AcDbArc
 50
192.447945
 51
198.1948719999999
  0
LINE
  5
3EC
330
18
100
AcDbEntity
  8
1
  6
Continuous
100
AcDbLine
 10
33.59794492743003
 20
208.9634376265625
 30
0.0
 11
40.89794492742997
 21
208.9634376265625
 31
0.0
  0
ARC
  5
3ED
330
18
100
AcDbEntity
  8
1
  6
Continuous
100
AcDbCircle
 10
43.09794492743002
 20
211.1466516265626
 30
0.0
 40
0.2
100
AcDbArc
 50
180.0
 51
260.4058580000002
  0
ARC
  5
3EE
330
18
100
AcDbEntity
  8
1
  6
Continuous
100
AcDbCircle
 10
42.89794492742998
 20
209.9634376265626
 30
0.0
 40
1.0
100
AcDbArc
 50
12.44794500000004
 51
80.40585800000025
  0
ARC
  5
3EF
330
18
100
AcDbEntity
  8
1
  6
Continuous
100
AcDbCircle
 10
40.89794492742997
 20
210.9634376265625
 30
0.0
 40
2.0
100
AcDbArc
 50
270.0
 51
0.000000000000007
  0
ARC
  5
3F0
330
18
100
AcDbEntity
  8
1
  6
Continuous
100
AcDbCircle
 10
43.09794492743002
 20
244.7802216265626
 30
0.0
 40
0.2
100
AcDbArc
 50
99.59414199999978
 51
180.0
  0
LINE
  5
3F1
330
18
100
AcDbEntity
  8
1
  6
Continuous
100
AcDbLine
 10
43.87443692742976
 20
245.7478836265628
 30
0.0
 11
44.52145292742978
 21
248.6789896265628
 31
0.0
  0
ARC
  5
3F2
330
18
100
AcDbEntity
  8
1
  6
Continuous
100
AcDbCircle
 10
45.49794492743001
 20
248.4634376265625
 30
0.0
 40
1.0
100
AcDbArc
 50
161.8051280000001
 51
167.5520549999999
  0
ARC
  5
3F3
330
18
100
AcDbEntity
  8
1
  6
Continuous
100
AcDbCircle
 10
42.89794492742998
 20
245.9634376265626
 30
0.0
 40
1.0
100
AcDbArc
 50
279.5941419999997
 51
347.552055
  0
LINE
  5
3F4
330
18
100
AcDbEntity
  8
1
  6
Continuous
100
AcDbLine
 10
44.89794492742999
 20
258.4634376265626
 30
0.0
 11
45.76412292742998
 21
258.4634376265626
 31
0.0
  0
ARC
  5
3F5
330
18
100
AcDbEntity
  8
1
  6
Continuous
100
AcDbCircle
 10
44.89794492742999
 20
256.4634376265626
 30
0.0
 40
2.0
100
AcDbArc
 50
90.0
 51
180.0
  0
LINE
  5
3F6
330
18
100
AcDbEntity
  8
1
  6
Continuous
100
AcDbLine
 10
38.54794492743007
 20
292.4634376265625
 30
0.0
 11
38.54794492743007
 21
287.4634376265626
 31
0.0
  0
ARC
  5
3F7
330
18
100
AcDbEntity
  8
1
  6
Continuous
100
AcDbCircle
 10
33.59794492743003
 20
283.9634376265625
 30
0.0
 40
2.0
100
AcDbArc
 50
90.0
 51
180.0
  0
LINE
  5
3F8
330
18
100
AcDbEntity
  8
1
  6
Continuous
100
AcDbLine
 10
47.54794492743007
 20
285.9634376265626
 30
0.0
 11
47.54794492743007
 21
286.8634376265625
 31
0.0
  0
LINE
  5
3F9
330
18
100
AcDbEntity
  8
1
  6
Continuous
100
AcDbLine
 10
26.54794492743031
 20
304.1144196265626
 30
0.0
 11
36.54858492743028
 21
297.3689036265625
 31
0.0
  0
LINE
  5
3FA
330
18
100
AcDbEntity
  8
1
  6
Continuous
100
AcDbLine
 10
36.54794492743008
 20
297.4634376265626
 30
0.0
 11
36.54794492743008
 21
302.4634376265626
 31
0.0
  0
ARC
  5
3FB
330
18
100
AcDbEntity
  8
1
  6
Continuous
100
AcDbCircle
 10
43.54794492743007
 20
297.4634376265626
 30
0.0
 40
7.0
100
AcDbArc
 50
180.0
 51
225.584691
  0
ARC
  5
3FC
330
18
100
AcDbEntity
  8
1
  6
Continuous
100
AcDbCircle
 10
33.54794492743007
 20
302.4634376265626
 30
0.0
 40
3.0
100
AcDbArc
 50
0.000000000000007
 51
90.0
  0
LINE
  5
3FD
330
18
100
AcDbEntity
  8
1
  6
Continuous
100
AcDbLine
 10
26.54794492743008
 20
310.4634376265626
 30
0.0
 11
26.54794492743008
 21
304.1144196265626
 31
0.0
  0
LINE
  5
4C2
330
18
100
AcDbEntity
  8
1
  6
Continuous
100
AcDbLine
 10
483.8963507025749
 20
292.4634376265625
 30
0.0
 11
483.8963507025749
 21
287.4634376265626
 31
0.0
  0
LINE
  5
4C3
330
18
100
AcDbEntity
  8
1
  6
Continuous
100
AcDbLine
 10
423.8963507025748
 20
292.4634376265625
 30
0.0
 11
423.8963507025748
 21
287.4634376265626
 31
0.0
  0
LINE
  5
4C6
330
18
100
AcDbEntity
  8
1
  6
Continuous
100
AcDbLine
 10
488.8463507025748
 20
285.9634376265626
 30
0.0
 11
453.8963507025748
 21
285.9634376265626
 31
0.0
  0
LINE
  5
4C7
330
18
100
AcDbEntity
  8
1
  6
Continuous
100
AcDbLine
 10
483.8963507025749
 20
287.4634376265626
 30
0.0
 11
423.8963507025748
 21
287.4634376265626
 31
0.0
  0
LINE
  5
4C8
330
18
100
AcDbEntity
  8
4
  6
CENTER
100
AcDbLine
 10
411.9463507025748
 20
227.9634376265625
 30
0.0
 11
495.8463507025748
 21
227.9634376265625
 31
0.0
  0
LINE
  5
4D7
330
18
100
AcDbEntity
  8
1
  6
Continuous
100
AcDbLine
 10
418.9963507025748
 20
285.9634376265626
 30
0.0
 11
453.9463507025748
 21
285.9634376265626
 31
0.0
  0
LINE
  5
4F8
330
18
100
AcDbEntity
  8
1
  6
Continuous
100
AcDbLine
 10
474.8963507025748
 20
285.9634376265626
 30
0.0
 11
474.8963507025748
 21
286.8634376265625
 31
0.0
  0
ARC
  5
4F9
330
18
100
AcDbEntity
  8
1
  6
Continuous
100
AcDbCircle
 10
474.2963507025748
 20
286.8634376265625
 30
0.0
 40
0.6
100
AcDbArc
 50
0.000000000000007
 51
90.0
  0
ARC
  5
4FE
330
18
100
AcDbEntity
  8
1
  6
Continuous
100
AcDbCircle
 10
433.496350702575
 20
286.8634376265625
 30
0.0
 40
0.6
100
AcDbArc
 50
90.0
 51
180.0
  0
LINE
  5
4FF
330
18
100
AcDbEntity
  8
1
  6
Continuous
100
AcDbLine
 10
432.8963507025748
 20
285.9634376265626
 30
0.0
 11
432.8963507025748
 21
286.8634376265625
 31
0.0
  0
LINE
  5
503
330
18
100
AcDbEntity
  8
1
  6
Continuous
100
AcDbLine
 10
483.8963507025749
 20
292.4634376265625
 30
0.0
 11
423.8963507025748
 21
292.4634376265625
 31
0.0
  0
LINE
  5
504
330
18
100
AcDbEntity
  8
1
  6
Continuous
100
AcDbLine
 10
461.1751047025748
 20
305.4634376265626
 30
0.0
 11
495.8963507025749
 21
305.4634376265626
 31
0.0
  0
LINE
  5
505
330
18
100
AcDbEntity
  8
1
  6
Continuous
100
AcDbLine
 10
461.3463507025748
 20
310.4634376265626
 30
0.0
 11
495.8963507025749
 21
310.4634376265626
 31
0.0
  0
LINE
  5
506
330
18
100
AcDbEntity
  8
1
  6
Continuous
100
AcDbLine
 10
495.8963507025749
 20
310.4634376265626
 30
0.0
 11
495.8963507025749
 21
304.1144196265626
 31
0.0
  0
ARC
  5
507
330
18
100
AcDbEntity
  8
1
  6
Continuous
100
AcDbCircle
 10
488.8963507025748
 20
302.4634376265626
 30
0.0
 40
3.0
100
AcDbArc
 50
90.0
 51
180.0
  0
ARC
  5
508
330
18
100
AcDbEntity
  8
1
  6
Continuous
100
AcDbCircle
 10
478.8963507025748
 20
297.4634376265626
 30
0.0
 40
7.0
100
AcDbArc
 50
314.4153089999999
 51
0.000000000000007
  0
LINE
  5
509
330
18
100
AcDbEntity
  8
1
  6
Continuous
100
AcDbLine
 10
485.8963507025748
 20
297.4634376265626
 30
0.0
 11
485.8963507025748
 21
302.4634376265626
 31
0.0
  0
LINE
  5
50A
330
18
100
AcDbEntity
  8
1
  6
Continuous
100
AcDbLine
 10
495.8963507025746
 20
304.1144196265626
 30
0.0
 11
485.8957107025745
 21
297.3689036265625
 31
0.0
  0
ARC
  5
50B
330
18
100
AcDbEntity
  8
1
  6
Continuous
100
AcDbCircle
 10
418.8963507025748
 20
302.4634376265626
 30
0.0
 40
3.0
100
AcDbArc
 50
0.000000000000007
 51
90.0
  0
LINE
  5
50C
330
18
100
AcDbEntity
  8
1
  6
Continuous
100
AcDbLine
 10
411.8963507025748
 20
304.1144196265626
 30
0.0
 11
421.8969887025748
 21
297.3689036265625
 31
0.0
  0
LINE
  5
50D
330
18
100
AcDbEntity
  8
1
  6
Continuous
100
AcDbLine
 10
446.6175967025749
 20
305.4634376265626
 30
0.0
 11
411.8963507025748
 21
305.4634376265626
 31
0.0
  0
LINE
  5
50E
330
18
100
AcDbEntity
  8
1
  6
Continuous
100
AcDbLine
 10
411.8963507025748
 20
310.4634376265626
 30
0.0
 11
446.4463507025747
 21
310.4634376265626
 31
0.0
  0
LINE
  5
50F
330
18
100
AcDbEntity
  8
1
  6
Continuous
100
AcDbLine
 10
459.1463527025748
 20
308.2596076265625
 30
0.0
 11
448.6463467025748
 21
308.2596076265625
 31
0.0
  0
LINE
  5
510
330
18
100
AcDbEntity
  8
1
  6
Continuous
100
AcDbLine
 10
459.1463527025748
 20
304.1144196265626
 30
0.0
 11
448.6463467025748
 21
304.1144196265626
 31
0.0
  0
LINE
  5
511
330
18
100
AcDbEntity
  8
1
  6
Continuous
100
AcDbLine
 10
460.1688827025748
 20
297.3693336265625
 30
0.0
 11
447.6238167025748
 21
297.3693336265625
 31
0.0
  0
LINE
  5
512
330
18
100
AcDbEntity
  8
1
  6
Continuous
100
AcDbLine
 10
447.3628647025748
 20
310.2634376265625
 30
0.0
 11
460.4298347025748
 21
310.2634376265625
 31
0.0
  0
ARC
  5
513
330
18
100
AcDbEntity
  8
1
  6
Continuous
100
AcDbCircle
 10
461.3463507025748
 20
308.2634376265625
 30
0.0
 40
2.2
100
AcDbArc
 50
90.0
 51
180.099725
  0
ARC
  5
514
330
18
100
AcDbEntity
  8
1
  6
Continuous
100
AcDbCircle
 10
459.1463527025748
 20
306.3144196265625
 30
0.0
 40
2.2
100
AcDbArc
 50
270.0
 51
337.2438189999997
  0
ARC
  5
515
330
18
100
AcDbEntity
  8
1
  6
Continuous
100
AcDbCircle
 10
462.1751047025748
 20
298.3693336265626
 30
0.0
 40
1.0
100
AcDbArc
 50
205.8376559999996
 51
241.4142169999999
  0
LINE
  5
516
330
18
100
AcDbEntity
  8
1
  6
Continuous
100
AcDbLine
 10
461.1751047025748
 20
304.6903616265625
 30
0.0
 11
461.1751047025748
 21
298.5222736265625
 31
0.0
  0
ARC
  5
517
330
18
100
AcDbEntity
  8
1
  6
Continuous
100
AcDbCircle
 10
446.4463507025747
 20
308.2634376265625
 30
0.0
 40
2.2
100
AcDbArc
 50
359.9002749999999
 51
90.0
  0
ARC
  5
518
330
18
100
AcDbEntity
  8
1
  6
Continuous
100
AcDbCircle
 10
448.6463467025748
 20
306.3144196265625
 30
0.0
 40
2.2
100
AcDbArc
 50
202.7561810000002
 51
270.0
  0
ARC
  5
519
330
18
100
AcDbEntity
  8
1
  6
Continuous
100
AcDbCircle
 10
445.6175967025749
 20
298.3693336265626
 30
0.0
 40
1.0
100
AcDbArc
 50
298.585783
 51
334.1623440000004
  0
LINE
  5
51A
330
18
100
AcDbEntity
  8
1
  6
Continuous
100
AcDbLine
 10
446.6175967025749
 20
304.6903616265625
 30
0.0
 11
446.6175967025749
 21
298.5222736265625
 31
0.0
  0
ARC
  5
51B
330
18
100
AcDbEntity
  8
1
  6
Continuous
100
AcDbCircle
 10
428.8963507025748
 20
297.4634376265626
 30
0.0
 40
7.0
100
AcDbArc
 50
180.0
 51
225.584691
  0
LINE
  5
51C
330
18
100
AcDbEntity
  8
1
  6
Continuous
100
AcDbLine
 10
421.8963507025748
 20
297.4634376265626
 30
0.0
 11
421.8963507025748
 21
302.4634376265626
 31
0.0
  0
LINE
  5
51D
330
18
100
AcDbEntity
  8
1
  6
Continuous
100
AcDbLine
 10
411.8963507025748
 20
310.4634376265626
 30
0.0
 11
411.8963507025748
 21
304.1144196265626
 31
0.0
  0
LINE
  5
51E
330
18
100
AcDbEntity
  8
1
  6
Continuous
100
AcDbLine
 10
639.5850890809651
 20
305.4634376265626
 30
0.0
 11
674.3063350809649
 21
305.4634376265626
 31
0.0
  0
LINE
  5
51F
330
18
100
AcDbEntity
  8
1
  6
Continuous
100
AcDbLine
 10
639.7563350809649
 20
310.4634376265626
 30
0.0
 11
674.3063350809649
 21
310.4634376265626
 31
0.0
  0
LINE
  5
52C
330
18
100
AcDbEntity
  8
1
  6
Continuous
100
AcDbLine
 10
605.0063350809651
 20
285.9634376265626
 30
0.0
 11
661.3063350809649
 21
285.9634376265626
 31
0.0
  0
LINE
  5
52D
330
18
100
AcDbEntity
  8
1
  6
Continuous
100
AcDbLine
 10
673.6256750809649
 20
212.9780376265627
 30
0.0
 11
616.6267470809649
 21
257.4069616265627
 31
0.0
  0
LINE
  5
52E
330
18
100
AcDbEntity
  8
1
  6
Continuous
100
AcDbLine
 10
662.3063350809649
 20
292.4634376265625
 30
0.0
 11
602.3063350809649
 21
292.4634376265625
 31
0.0
  0
LINE
  5
52F
330
18
100
AcDbEntity
  8
1
  6
Continuous
100
AcDbLine
 10
662.3063350809649
 20
287.4634376265626
 30
0.0
 11
602.3063350809649
 21
287.4634376265626
 31
0.0
  0
LINE
  5
530
330
18
100
AcDbEntity
  8
1
  6
Continuous
100
AcDbLine
 10
662.3063350809649
 20
292.4634376265625
 30
0.0
 11
662.3063350809649
 21
287.4634376265626
 31
0.0
  0
ARC
  5
531
330
18
100
AcDbEntity
  8
1
  6
Continuous
100
AcDbCircle
 10
685.3063350809649
 20
227.9634376265625
 30
0.0
 40
32.5
100
AcDbArc
 50
178.0178459999997
 51
92.65153599999909
  0
ARC
  5
532
330
18
100
AcDbEntity
  8
1
  6
Continuous
100
AcDbCircle
 10
685.3063350809649
 20
227.9634376265625
 30
0.0
 40
19.0
100
AcDbArc
 50
232.064673
 51
38.60818300000008
  0
LINE
  5
533
330
18
100
AcDbEntity
  8
4
  6
CENTER
100
AcDbLine
 10
685.3063350809649
 20
190.4634376265626
 30
0.0
 11
685.3063350809649
 21
265.4634376265625
 31
0.0
  0
LINE
  5
534
330
18
100
AcDbEntity
  8
4
  6
CENTER
100
AcDbLine
 10
647.8063350809649
 20
227.9634376265625
 30
0.0
 11
722.8063350809649
 21
227.9634376265625
 31
0.0
  0
LINE
  5
537
330
18
100
AcDbEntity
  8
1
  6
Continuous
100
AcDbLine
 10
700.1535310809649
 20
239.8192696265625
 30
0.0
 11
665.7083490809649
 21
282.9553656265627
 31
0.0
  0
CIRCLE
  5
53B
330
18
100
AcDbEntity
  8
1
  6
Continuous
100
AcDbCircle
 10
685.3063350809649
 20
227.9634376265625
 30
0.0
 40
10.5
  0
CIRCLE
  5
53C
330
18
100
AcDbEntity
  8
1
  6
Continuous
100
AcDbCircle
 10
685.3063350809649
 20
227.9634376265625
 30
0.0
 40
10.0
  0
LINE
  5
53D
330
18
100
AcDbEntity
  8
1
  6
Continuous
100
AcDbLine
 10
685.3063350809649
 20
224.4993356265625
 30
0.0
 11
688.3063350809652
 21
226.2313856265626
 31
0.0
  0
LINE
  5
53E
330
18
100
AcDbEntity
  8
1
  6
Continuous
100
AcDbLine
 10
682.3063350809649
 20
226.2313856265626
 30
0.0
 11
685.3063350809649
 21
224.4993356265625
 31
0.0
  0
LINE
  5
53F
330
18
100
AcDbEntity
  8
1
  6
Continuous
100
AcDbLine
 10
688.3063350809649
 20
226.2313856265626
 30
0.0
 11
688.3063350809649
 21
229.6954876265625
 31
0.0
  0
LINE
  5
540
330
18
100
AcDbEntity
  8
1
  6
Continuous
100
AcDbLine
 10
682.3063350809649
 20
226.2313856265626
 30
0.0
 11
682.3063350809649
 21
229.6954876265625
 31
0.0
  0
LINE
  5
541
330
18
100
AcDbEntity
  8
1
  6
Continuous
100
AcDbLine
 10
685.3063350809649
 20
231.4275376265626
 30
0.0
 11
688.3063350809649
 21
229.6954876265625
 31
0.0
  0
LINE
  5
542
330
18
100
AcDbEntity
  8
1
  6
Continuous
100
AcDbLine
 10
682.3063350809649
 20
229.6954876265625
 30
0.0
 11
685.3063350809649
 21
231.4275376265626
 31
0.0
  0
ARC
  5
577
330
18
100
AcDbEntity
  8
1
  6
Continuous
100
AcDbCircle
 10
659.4568990809649
 20
277.9634376265625
 30
0.0
 40
8.0
100
AcDbArc
 50
38.60818300000008
 51
90.0
  0
ARC
  5
578
330
18
100
AcDbEntity
  8
1
  6
Continuous
100
AcDbCircle
 10
661.3063350809649
 20
283.9634376265625
 30
0.0
 40
2.0
100
AcDbArc
 50
37.89720099999954
 51
90.0
  0
LINE
  5
57A
330
18
100
AcDbEntity
  8
1
  6
Continuous
100
AcDbLine
 10
653.3063350809649
 20
285.9634376265626
 30
0.0
 11
653.3063350809649
 21
286.8634376265625
 31
0.0
  0
ARC
  5
57B
330
18
100
AcDbEntity
  8
1
  6
Continuous
100
AcDbCircle
 10
652.7063350809651
 20
286.8634376265625
 30
0.0
 40
0.6
100
AcDbArc
 50
0.000000000000007
 51
90.0
  0
LINE
  5
57C
330
18
100
AcDbEntity
  8
1
  6
Continuous
100
AcDbLine
 10
674.3063350809649
 20
310.4634376265626
 30
0.0
 11
674.3063350809649
 21
304.1144196265626
 31
0.0
  0
ARC
  5
57D
330
18
100
AcDbEntity
  8
1
  6
Continuous
100
AcDbCircle
 10
657.3063350809649
 20
297.4634376265626
 30
0.0
 40
7.0
100
AcDbArc
 50
314.4153089999999
 51
0.000000000000007
  0
ARC
  5
57E
330
18
100
AcDbEntity
  8
1
  6
Continuous
100
AcDbCircle
 10
667.3063350809648
 20
302.4634376265626
 30
0.0
 40
3.0
100
AcDbArc
 50
90.0
 51
180.0
  0
LINE
  5
57F
330
18
100
AcDbEntity
  8
1
  6
Continuous
100
AcDbLine
 10
664.3063350809649
 20
297.4634376265626
 30
0.0
 11
664.3063350809649
 21
302.4634376265626
 31
0.0
  0
LINE
  5
580
330
18
100
AcDbEntity
  8
1
  6
Continuous
100
AcDbLine
 10
674.3063350809649
 20
304.1144196265628
 30
0.0
 11
664.3056970809649
 21
297.3689036265625
 31
0.0
  0
LINE
  5
581
330
18
100
AcDbEntity
  8
1
  6
Continuous
100
AcDbLine
 10
602.3063350809649
 20
292.4634376265625
 30
0.0
 11
602.3063350809649
 21
287.4634376265626
 31
0.0
  0
LINE
  5
582
330
18
100
AcDbEntity
  8
4
  6
CENTER
100
AcDbLine
 10
632.3063350809649
 20
315.6037456265626
 30
0.0
 11
632.3063350809649
 21
232.4038536265625
 31
0.0
  0
LINE
  5
58A
330
18
100
AcDbEntity
  8
1
  6
Continuous
100
AcDbLine
 10
613.3063350809649
 20
257.4134376265626
 30
0.0
 11
616.6184410809651
 21
257.4134376265626
 31
0.0
  0
ARC
  5
58B
330
18
100
AcDbEntity
  8
1
  6
Continuous
100
AcDbCircle
 10
613.5528890809649
 20
253.4634376265626
 30
0.0
 40
5.0
100
AcDbArc
 50
52.06467300000003
 51
90.0
  0
ARC
  5
58C
330
18
100
AcDbEntity
  8
1
  6
Continuous
100
AcDbCircle
 10
617.0591110809651
 20
254.9134376265626
 30
0.0
 40
2.0
100
AcDbArc
 50
209.9999999999997
 51
270.0
  0
LINE
  5
58D
330
18
100
AcDbEntity
  8
1
  6
Continuous
100
AcDbLine
 10
626.3063350809649
 20
285.9634376265626
 30
0.0
 11
626.3063350809649
 21
249.8620196265626
 31
0.0
  0
LINE
  5
595
330
18
100
AcDbEntity
  8
1
  6
Continuous
100
AcDbLine
 10
617.0591110809651
 20
252.9134376265626
 30
0.0
 11
622.3915963701864
 21
252.9134376265627
 31
0.0
  0
LINE
  5
596
330
18
100
AcDbEntity
  8
1
  6
Continuous
100
AcDbLine
 10
644.8063350809649
 20
285.9634376265626
 30
0.0
 11
644.8063350809649
 21
287.4634376265626
 31
0.0
  0
LINE
  5
598
330
18
100
AcDbEntity
  8
1
  6
Continuous
100
AcDbLine
 10
619.8063350809649
 20
285.9634376265626
 30
0.0
 11
619.8063350809649
 21
287.4634376265626
 31
0.0
  0
ARC
  5
599
330
18
100
AcDbEntity
  8
1
  6
Continuous
100
AcDbCircle
 10
619.2063350809651
 20
286.8634376265625
 30
0.0
 40
0.6
100
AcDbArc
 50
0.000000000000007
 51
90.0
  0
LINE
  5
59A
330
18
100
AcDbEntity
  8
1
  6
Continuous
100
AcDbLine
 10
600.0063350809649
 20
280.9634376265626
 30
0.0
 11
600.0063350809649
 21
263.4634376265625
 31
0.0
  0
LINE
  5
59B
330
18
100
AcDbEntity
  8
1
  6
Continuous
100
AcDbLine
 10
601.5654350809651
 20
280.9634376265626
 30
0.0
 11
601.5654350809651
 21
263.4634376265625
 31
0.0
  0
ARC
  5
59C
330
18
100
AcDbEntity
  8
1
  6
Continuous
100
AcDbCircle
 10
605.0063350809651
 20
263.4634376265625
 30
0.0
 40
5.0
100
AcDbArc
 50
180.0
 51
270.0
  0
ARC
  5
59D
330
18
100
AcDbEntity
  8
1
  6
Continuous
100
AcDbCircle
 10
606.5654350809651
 20
263.4634376265625
 30
0.0
 40
5.0
100
AcDbArc
 50
180.0
 51
270.0
  0
LINE
  5
59E
330
18
100
AcDbEntity
  8
1
  6
Continuous
100
AcDbLine
 10
613.3063350809649
 20
257.4134376265626
 30
0.0
 11
615.3270610809649
 21
253.9134376265625
 31
0.0
  0
LINE
  5
59F
330
18
100
AcDbEntity
  8
1
  6
Continuous
100
AcDbLine
 10
605.0063350809651
 20
258.4634376265626
 30
0.0
 11
613.5528890809649
 21
258.4634376265626
 31
0.0
  0
ARC
  5
5A0
330
18
100
AcDbEntity
  8
1
  6
Continuous
100
AcDbCircle
 10
605.0063350809651
 20
280.9634376265626
 30
0.0
 40
5.0
100
AcDbArc
 50
90.0
 51
180.0
  0
ARC
  5
5A1
330
18
100
AcDbEntity
  8
1
  6
Continuous
100
AcDbCircle
 10
606.5654350809651
 20
280.9634376265626
 30
0.0
 40
5.0
100
AcDbArc
 50
90.0
 51
180.0
  0
ARC
  5
5A2
330
18
100
AcDbEntity
  8
1
  6
Continuous
100
AcDbCircle
 10
611.9063350809653
 20
286.8634376265625
 30
0.0
 40
0.6
100
AcDbArc
 50
90.0
 51
180.0
  0
LINE
  5
5A3
330
18
100
AcDbEntity
  8
1
  6
Continuous
100
AcDbLine
 10
611.3063350809649
 20
285.9634376265626
 30
0.0
 11
611.3063350809649
 21
286.8634376265625
 31
0.0
  0
LINE
  5
5A4
330
18
100
AcDbEntity
  8
1
  6
Continuous
100
AcDbLine
 10
625.0275810809649
 20
305.4634376265626
 30
0.0
 11
590.3063350809649
 21
305.4634376265626
 31
0.0
  0
LINE
  5
5A5
330
18
100
AcDbEntity
  8
1
  6
Continuous
100
AcDbLine
 10
590.3063350809649
 20
310.4634376265626
 30
0.0
 11
624.8563350809651
 21
310.4634376265626
 31
0.0
  0
ARC
  5
5A6
330
18
100
AcDbEntity
  8
1
  6
Continuous
100
AcDbCircle
 10
639.7563350809649
 20
308.2634376265625
 30
0.0
 40
2.2
100
AcDbArc
 50
90.0
 51
180.099725
  0
ARC
  5
5A7
330
18
100
AcDbEntity
  8
1
  6
Continuous
100
AcDbCircle
 10
624.8563350809651
 20
308.2634376265625
 30
0.0
 40
2.2
100
AcDbArc
 50
359.9002749999999
 51
90.0
  0
LINE
  5
5A8
330
18
100
AcDbEntity
  8
1
  6
Continuous
100
AcDbLine
 10
637.5563390809651
 20
308.2596076265625
 30
0.0
 11
627.0563310809649
 21
308.2596076265625
 31
0.0
  0
LINE
  5
5A9
330
18
100
AcDbEntity
  8
1
  6
Continuous
100
AcDbLine
 10
637.5563390809651
 20
304.1144196265626
 30
0.0
 11
627.0563310809649
 21
304.1144196265626
 31
0.0
  0
LINE
  5
5AA
330
18
100
AcDbEntity
  8
1
  6
Continuous
100
AcDbLine
 10
638.5788690809651
 20
297.3693336265625
 30
0.0
 11
626.033801080965
 21
297.3693336265625
 31
0.0
  0
LINE
  5
5AB
330
18
100
AcDbEntity
  8
1
  6
Continuous
100
AcDbLine
 10
625.7728490809649
 20
310.2634376265625
 30
0.0
 11
638.8398190809651
 21
310.2634376265625
 31
0.0
  0
ARC
  5
5AC
330
18
100
AcDbEntity
  8
1
  6
Continuous
100
AcDbCircle
 10
637.5563390809651
 20
306.3144196265625
 30
0.0
 40
2.2
100
AcDbArc
 50
270.0
 51
337.2438189999997
  0
ARC
  5
5AD
330
18
100
AcDbEntity
  8
1
  6
Continuous
100
AcDbCircle
 10
640.585089080965
 20
298.3693336265626
 30
0.0
 40
1.0
100
AcDbArc
 50
205.8376559999996
 51
241.4142169999999
  0
LINE
  5
5AE
330
18
100
AcDbEntity
  8
1
  6
Continuous
100
AcDbLine
 10
639.5850890809651
 20
304.6903616265625
 30
0.0
 11
639.5850890809651
 21
298.5222736265625
 31
0.0
  0
ARC
  5
5AF
330
18
100
AcDbEntity
  8
1
  6
Continuous
100
AcDbCircle
 10
624.027581080965
 20
298.3693336265626
 30
0.0
 40
1.0
100
AcDbArc
 50
298.585783
 51
334.1623440000004
  0
LINE
  5
5B0
330
18
100
AcDbEntity
  8
1
  6
Continuous
100
AcDbLine
 10
625.0275810809649
 20
304.6903616265625
 30
0.0
 11
625.0275810809649
 21
298.5222736265625
 31
0.0
  0
ARC
  5
5B1
330
18
100
AcDbEntity
  8
1
  6
Continuous
100
AcDbCircle
 10
627.0563310809649
 20
306.3144196265625
 30
0.0
 40
2.2
100
AcDbArc
 50
202.7561810000002
 51
270.0
  0
LINE
  5
5B2
330
18
100
AcDbEntity
  8
1
  6
Continuous
100
AcDbLine
 10
590.3063350809649
 20
310.4634376265626
 30
0.0
 11
590.3063350809649
 21
304.1144196265626
 31
0.0
  0
ARC
  5
5B3
330
18
100
AcDbEntity
  8
1
  6
Continuous
100
AcDbCircle
 10
607.3063350809649
 20
297.4634376265626
 30
0.0
 40
7.0
100
AcDbArc
 50
180.0
 51
225.584691
  0
ARC
  5
5B4
330
18
100
AcDbEntity
  8
1
  6
Continuous
100
AcDbCircle
 10
597.3063350809649
 20
302.4634376265626
 30
0.0
 40
3.0
100
AcDbArc
 50
0.000000000000007
 51
90.0
  0
LINE
  5
5B5
330
18
100
AcDbEntity
  8
1
  6
Continuous
100
AcDbLine
 10
600.3063350809648
 20
297.4634376265626
 30
0.0
 11
600.3063350809648
 21
302.4634376265626
 31
0.0
  0
LINE
  5
5B6
330
18
100
AcDbEntity
  8
1
  6
Continuous
100
AcDbLine
 10
590.3063350809649
 20
304.1144196265626
 30
0.0
 11
600.306973080965
 21
297.3689036265625
 31
0.0
  0
LINE
  5
5B7
330
18
100
AcDbEntity
  8
1
  6
Continuous
100
AcDbLine
 10
247.8753559988993
 20
134.205663363678
 30
0.0
 11
311.8753559988992
 21
134.205663363678
 31
0.0
  0
LINE
  5
5B8
330
18
100
AcDbEntity
  8
1
  6
Continuous
100
AcDbLine
 10
247.8753559988993
 20
50.205663363678
 30
0.0
 11
311.8753559988992
 21
50.205663363678
 31
0.0
  0
LINE
  5
5BB
330
18
100
AcDbEntity
  8
4
  6
CENTER
100
AcDbLine
 10
328.8753559988993
 20
92.205663363678
 30
0.0
 11
190.7976619988992
 21
92.205663363678
 31
0.0
  0
ARC
  5
5BC
330
18
100
AcDbEntity
  8
1
  6
Continuous
100
AcDbCircle
 10
284.3753559988993
 20
79.95566336367801
 30
0.0
 40
90.0
100
AcDbArc
 50
173.9316789999995
 51
184.5547550000004
  0
LINE
  5
5BE
330
18
100
AcDbEntity
  8
4
  6
CENTER
100
AcDbLine
 10
226.8753559988993
 20
134.155663363678
 30
0.0
 11
226.8753559988993
 21
50.25566336367797
 31
0.0
  0
LINE
  5
5BF
330
18
100
AcDbEntity
  8
1
  6
Continuous
100
AcDbLine
 10
197.3656579988992
 20
91.70566336367802
 30
0.0
 11
256.3850539988993
 21
91.70566336367802
 31
0.0
  0
LINE
  5
5C0
330
18
100
AcDbEntity
  8
1
  6
Continuous
100
AcDbLine
 10
197.3656579988992
 20
92.70566336367799
 30
0.0
 11
256.3850539988993
 21
92.70566336367799
 31
0.0
  0
LINE
  5
5C1
330
18
100
AcDbEntity
  8
1
  6
Continuous
100
AcDbLine
 10
199.6437939988992
 20
116.205663363678
 30
0.0
 11
254.1069179988993
 21
116.205663363678
 31
0.0
  0
ARC
  5
5C2
330
18
100
AcDbEntity
  8
1
  6
Continuous
100
AcDbCircle
 10
284.3753559988993
 20
104.455663363678
 30
0.0
 40
90.0
100
AcDbArc
 50
175.4452450000003
 51
186.0683210000003
  0
ARC
  5
5C3
330
18
100
AcDbEntity
  8
1
  6
Continuous
100
AcDbCircle
 10
199.6437939988992
 20
111.205663363678
 30
0.0
 40
5.0
100
AcDbArc
 50
90.00000000000005
 51
175.4452450000003
  0
ARC
  5
5C4
330
18
100
AcDbEntity
  8
1
  6
Continuous
100
AcDbCircle
 10
197.3656579988992
 20
89.20566336367802
 30
0.0
 40
2.5
100
AcDbArc
 50
90.00000000000005
 51
173.9316789999995
  0
ARC
  5
5C5
330
18
100
AcDbEntity
  8
1
  6
Continuous
100
AcDbCircle
 10
197.3656579988992
 20
95.20566336367799
 30
0.0
 40
2.5
100
AcDbArc
 50
186.0683210000003
 51
270.0
  0
LINE
  5
5C6
330
18
100
AcDbEntity
  8
1
  6
Continuous
100
AcDbLine
 10
207.8753559988992
 20
119.8556633636778
 30
0.0
 11
207.8753559988992
 21
127.155663363678
 31
0.0
  0
LINE
  5
5C9
330
18
100
AcDbEntity
  8
1
  6
Continuous
100
AcDbLine
 10
282.8753559988992
 20
129.155663363678
 30
0.0
 11
209.8753559988992
 21
129.155663363678
 31
0.0
  0
ARC
  5
5CA
330
18
100
AcDbEntity
  8
1
  6
Continuous
100
AcDbCircle
 10
209.8753559988992
 20
127.155663363678
 30
0.0
 40
2.0
100
AcDbArc
 50
90.00000000000005
 51
180.0
  0
ARC
  5
5CC
330
18
100
AcDbEntity
  8
1
  6
Continuous
100
AcDbCircle
 10
247.8753559988993
 20
124.205663363678
 30
0.0
 40
10.0
100
AcDbArc
 50
90.00000000000005
 51
150.330250404344
  0
LINE
  5
5CD
330
18
100
AcDbEntity
  8
1
  6
Continuous
100
AcDbLine
 10
285.8753559988984
 20
117.8556633636778
 30
0.0
 11
209.8753559988992
 21
117.8556633636778
 31
0.0
  0
LINE
  5
5CE
330
18
100
AcDbEntity
  8
1
  6
Continuous
100
AcDbLine
 10
238.3753559988992
 20
92.205663363678
 30
0.0
 11
215.3753559988992
 21
92.205663363678
 31
0.0
  0
ARC
  5
5CF
330
18
100
AcDbEntity
  8
1
  6
Continuous
100
AcDbCircle
 10
209.8753559988992
 20
119.8556633636778
 30
0.0
 40
2.0
100
AcDbArc
 50
180.0
 51
270.0
  0
ARC
  5
5D0
330
18
100
AcDbEntity
  8
1
  6
Continuous
100
AcDbCircle
 10
208.8753559988993
 20
117.8556653636778
 30
0.0
 40
1.0
100
AcDbArc
 50
282.447945
 51
0.0
  0
ARC
  5
5D1
330
18
100
AcDbEntity
  8
1
  6
Continuous
100
AcDbCircle
 10
206.3753559988993
 20
115.2556633636779
 30
0.0
 40
1.0
100
AcDbArc
 50
102.447945
 51
108.1948720000006
  0
LINE
  5
5D2
330
18
100
AcDbEntity
  8
1
  6
Continuous
100
AcDbLine
 10
209.0909079988993
 20
116.8791733636779
 30
0.0
 11
206.1598039988993
 21
116.2321553636779
 31
0.0
  0
LINE
  5
5D3
330
18
100
AcDbEntity
  8
1
  6
Continuous
100
AcDbLine
 10
214.8753559988993
 20
92.70566336367799
 30
0.0
 11
215.3753559988992
 21
92.205663363678
 31
0.0
  0
LINE
  5
5D4
330
18
100
AcDbEntity
  8
1
  6
Continuous
100
AcDbLine
 10
214.8753559988993
 20
91.70566336367802
 30
0.0
 11
215.3753559988992
 21
92.205663363678
 31
0.0
  0
LINE
  5
5D9
330
18
100
AcDbEntity
  8
1
  6
Continuous
100
AcDbLine
 10
199.6437939988992
 20
68.20566336367801
 30
0.0
 11
254.1069179988993
 21
68.20566336367801
 31
0.0
  0
ARC
  5
5DA
330
18
100
AcDbEntity
  8
1
  6
Continuous
100
AcDbCircle
 10
199.6437939988992
 20
73.20566336367801
 30
0.0
 40
5.0
100
AcDbArc
 50
184.5547550000004
 51
270.0
  0
LINE
  5
5DB
330
18
100
AcDbEntity
  8
1
  6
Continuous
100
AcDbLine
 10
282.8753559988992
 20
55.25566336367797
 30
0.0
 11
209.8753559988992
 21
55.25566336367797
 31
0.0
  0
LINE
  5
5DC
330
18
100
AcDbEntity
  8
1
  6
Continuous
100
AcDbLine
 10
285.8753559988984
 20
66.55566336367782
 30
0.0
 11
209.8753559988992
 21
66.55566336367782
 31
0.0
  0
ARC
  5
5DD
330
18
100
AcDbEntity
  8
1
  6
Continuous
100
AcDbCircle
 10
209.8753559988992
 20
57.25566336367797
 30
0.0
 40
2.0
100
AcDbArc
 50
180.0
 51
270.0
  0
ARC
  5
5DE
330
18
100
AcDbEntity
  8
1
  6
Continuous
100
AcDbCircle
 10
209.8753559988992
 20
64.55566336367779
 30
0.0
 40
2.0
100
AcDbArc
 50
90.00000000000005
 51
180.0
  0
ARC
  5
5DF
330
18
100
AcDbEntity
  8
1
  6
Continuous
100
AcDbCircle
 10
208.8753559988993
 20
66.55566336367782
 30
0.0
 40
1.0
100
AcDbArc
 50
0.0
 51
77.55205500000005
  0
ARC
  5
5E0
330
18
100
AcDbEntity
  8
1
  6
Continuous
100
AcDbCircle
 10
206.3753559988993
 20
69.15566336367806
 30
0.0
 40
1.0
100
AcDbArc
 50
251.8051279999993
 51
257.5520549999999
  0
LINE
  5
5E1
330
18
100
AcDbEntity
  8
1
  6
Continuous
100
AcDbLine
 10
209.0909079988993
 20
67.53215536367803
 30
0.0
 11
206.1598039988993
 21
68.17917136367805
 31
0.0
  0
LINE
  5
5E2
330
18
100
AcDbEntity
  8
1
  6
Continuous
100
AcDbLine
 10
207.8753559988992
 20
64.55566336367779
 30
0.0
 11
207.8753559988992
 21
57.25566336367797
 31
0.0
  0
ARC
  5
5E3
330
18
100
AcDbEntity
  8
1
  6
Continuous
100
AcDbCircle
 10
247.8753559988993
 20
60.205663363678
 30
0.0
 40
10.0
100
AcDbArc
 50
209.6697495956559
 51
270.0
  0
LINE
  5
5E7
330
18
100
AcDbEntity
  8
4
  6
CENTER
100
AcDbLine
 10
279.8753559988993
 20
139.205663363678
 30
0.0
 11
279.8753559988993
 21
45.205663363678
 31
0.0
  0
LINE
  5
5E8
330
18
100
AcDbEntity
  8
1
  6
Continuous
100
AcDbLine
 10
321.8753559988992
 20
60.205663363678
 30
0.0
 11
321.8753559988992
 21
124.205663363678
 31
0.0
  0
CIRCLE
  5
5EA
330
18
100
AcDbEntity
  8
1
  6
Continuous
100
AcDbCircle
 10
311.8753559988992
 20
124.205663363678
 30
0.0
 40
4.25
  0
LINE
  5
5EB
330
18
100
AcDbEntity
  8
4
  6
CENTER
100
AcDbLine
 10
311.8753559988992
 20
131.4556633636779
 30
0.0
 11
311.8753559988992
 21
116.955663363678
 31
0.0
  0
LINE
  5
5EF
330
18
100
AcDbEntity
  8
4
  6
CENTER
100
AcDbLine
 10
319.1253559988993
 20
124.205663363678
 30
0.0
 11
304.6253559988993
 21
124.205663363678
 31
0.0
  0
ARC
  5
5F0
330
18
100
AcDbEntity
  8
1
  6
Continuous
100
AcDbCircle
 10
311.8753559988992
 20
124.205663363678
 30
0.0
 40
10.0
100
AcDbArc
 50
0.0
 51
90.00000000000005
  0
CIRCLE
  5
629
330
18
100
AcDbEntity
  8
1
  6
Continuous
100
AcDbCircle
 10
311.8753559988992
 20
60.205663363678
 30
0.0
 40
4.25
  0
LINE
  5
62A
330
18
100
AcDbEntity
  8
4
  6
CENTER
100
AcDbLine
 10
311.8753559988992
 20
67.45566336367801
 30
0.0
 11
311.8753559988992
 21
52.95566336367802
 31
0.0
  0
ARC
  5
62B
330
18
100
AcDbEntity
  8
1
  6
Continuous
100
AcDbCircle
 10
311.8753559988992
 20
60.205663363678
 30
0.0
 40
10.0
100
AcDbArc
 50
270.0
 51
0.0
  0
LINE
  5
62C
330
18
100
AcDbEntity
  8
4
  6
CENTER
100
AcDbLine
 10
319.1253559988993
 20
60.205663363678
 30
0.0
 11
304.6253559988993
 21
60.205663363678
 31
0.0
  0
ARC
  5
EB8
330
18
100
AcDbEntity
  8
1
  6
Continuous
100
AcDbCircle
 10
169.3753559988993
 20
104.455663363678
 30
0.0
 40
90.0
100
AcDbArc
 50
353.9316789999996
 51
4.554754999999669
  0
ARC
  5
EB9
330
18
100
AcDbEntity
  8
1
  6
Continuous
100
AcDbCircle
 10
254.1069179988993
 20
111.205663363678
 30
0.0
 40
5.0
100
AcDbArc
 50
4.554754999999669
 51
89.99999999999998
  0
ARC
  5
EBA
330
18
100
AcDbEntity
  8
1
  6
Continuous
100
AcDbCircle
 10
256.3850539988993
 20
95.20566336367799
 30
0.0
 40
2.5
100
AcDbArc
 50
270.0
 51
353.9316789999996
  0
ARC
  5
EBB
330
18
100
AcDbEntity
  8
1
  6
Continuous
100
AcDbCircle
 10
169.3753559988993
 20
79.95566336367801
 30
0.0
 40
90.0
100
AcDbArc
 50
355.4452449999995
 51
6.068321000000369
  0
ARC
  5
EBC
330
18
100
AcDbEntity
  8
1
  6
Continuous
100
AcDbCircle
 10
256.3850539988993
 20
89.20566336367802
 30
0.0
 40
2.5
100
AcDbArc
 50
6.068321000000369
 51
89.99999999999998
  0
ARC
  5
EBD
330
18
100
AcDbEntity
  8
1
  6
Continuous
100
AcDbCircle
 10
254.1069179988993
 20
73.20566336367801
 30
0.0
 40
5.0
100
AcDbArc
 50
270.0
 51
355.4452449999995
  0
LINE
  5
EBE
330
18
100
AcDbEntity
  8
1
  6
Continuous
100
AcDbLine
 10
238.8753559988992
 20
92.70566336367799
 30
0.0
 11
238.3753559988992
 21
92.205663363678
 31
0.0
  0
LINE
  5
EBF
330
18
100
AcDbEntity
  8
1
  6
Continuous
100
AcDbLine
 10
238.8753559988992
 20
91.70566336367802
 30
0.0
 11
238.3753559988992
 21
92.205663363678
 31
0.0
  0
CIRCLE
  5
EC2
330
18
100
AcDbEntity
  8
1
  6
Continuous
100
AcDbCircle
 10
279.8753559988993
 20
92.205663363678
 30
0.0
 40
13.0
  0
CIRCLE
  5
EC3
330
18
100
AcDbEntity
  8
1
  6
Continuous
100
AcDbCircle
 10
279.8753559988993
 20
92.205663363678
 30
0.0
 40
6.0
  0
ARC
  5
EC4
330
18
100
AcDbEntity
  8
1
  6
Continuous
100
AcDbCircle
 10
279.8753559988993
 20
92.205663363678
 30
0.0
 40
16.40192371428577
100
AcDbArc
 50
207.8524909756937
 51
244.5569132649809
  0
ARC
  5
EC7
330
18
100
AcDbEntity
  8
1
  6
Continuous
100
AcDbCircle
 10
279.8753559988993
 20
92.205663363678
 30
0.0
 40
16.40192371428577
100
AcDbArc
 50
295.443086735019
 51
332.1475090243063
  0
ARC
  5
EC9
330
18
100
AcDbEntity
  8
1
  6
Continuous
100
AcDbCircle
 10
279.8753559988993
 20
92.205663363678
 30
0.0
 40
16.40192371428577
100
AcDbArc
 50
115.443086735019
 51
152.1475090243063
  0
ARC
  5
ECB
330
18
100
AcDbEntity
  8
1
  6
Continuous
100
AcDbCircle
 10
279.8753559988993
 20
92.205663363678
 30
0.0
 40
16.40192371428577
100
AcDbArc
 50
27.8524909756937
 51
64.55691326498094
  0
CIRCLE
  5
ECC
330
18
100
AcDbEntity
  8
1
  6
Continuous
100
AcDbCircle
 10
279.8753559988993
 20
92.205663363678
 30
0.0
 40
19.0
  0
ARC
  5
11C1
330
18
100
AcDbEntity
  8
1
  6
Continuous
100
AcDbCircle
 10
279.8753559988993
 20
92.205663363678
 30
0.0
 40
31.0
100
AcDbArc
 50
8.213210999999825
 51
74.65052300000066
  0
ARC
  5
11C2
330
18
100
AcDbEntity
  8
1
  6
Continuous
100
AcDbCircle
 10
311.6753559988993
 20
95.70566336367802
 30
0.0
 40
0.5
100
AcDbArc
 50
0.0
 51
90.0
  0
ARC
  5
11C3
330
18
100
AcDbEntity
  8
1
  6
Continuous
100
AcDbCircle
 10
311.6753559988993
 20
88.70566336367801
 30
0.0
 40
0.5
100
AcDbArc
 50
270.0
 51
0.0
  0
ARC
  5
11C4
330
18
100
AcDbEntity
  8
1
  6
Continuous
100
AcDbCircle
 10
311.0522709988992
 20
96.70566336367802
 30
0.0
 40
0.5
100
AcDbArc
 50
188.2132109999998
 51
270.0
  0
ARC
  5
11C5
330
18
100
AcDbEntity
  8
1
  6
Continuous
100
AcDbCircle
 10
311.0522709988992
 20
87.70566336367801
 30
0.0
 40
0.5
100
AcDbArc
 50
90.0
 51
171.7867890000001
  0
LINE
  5
11C6
330
18
100
AcDbEntity
  8
1
  6
Continuous
100
AcDbLine
 10
311.6753559988993
 20
96.20566336367801
 30
0.0
 11
307.0828919988991
 21
96.20566336367801
 31
0.0
  0
LINE
  5
11C7
330
18
100
AcDbEntity
  8
1
  6
Continuous
100
AcDbLine
 10
311.6753559988993
 20
88.20566336367802
 30
0.0
 11
307.0828919988991
 21
88.20566336367802
 31
0.0
  0
LINE
  5
11C8
330
18
100
AcDbEntity
  8
1
  6
Continuous
100
AcDbLine
 10
312.1753559988994
 20
92.205663363678
 30
0.0
 11
312.1753559988994
 21
95.70566336367802
 31
0.0
  0
LINE
  5
11C9
330
18
100
AcDbEntity
  8
1
  6
Continuous
100
AcDbLine
 10
312.1753559988994
 20
92.205663363678
 30
0.0
 11
312.1753559988994
 21
88.70566336367801
 31
0.0
  0
ARC
  5
11CA
330
18
100
AcDbEntity
  8
1
  6
Continuous
100
AcDbCircle
 10
279.8753559988993
 20
92.205663363678
 30
0.0
 40
31.0
100
AcDbArc
 50
285.3494769999993
 51
351.7867890000001
  0
LINE
  5
11CB
330
18
100
AcDbEntity
  8
1
  6
Continuous
100
AcDbLine
 10
285.8753559988993
 20
58.25566336367807
 30
0.0
 11
285.8753559988993
 21
59.41847036367812
 31
0.0
  0
ARC
  5
11CC
330
18
100
AcDbEntity
  8
1
  6
Continuous
100
AcDbCircle
 10
288.8753559988992
 20
59.41847036367812
 30
0.0
 40
3.0
100
AcDbArc
 50
105.3494769999993
 51
180.0
  0
ARC
  5
11CD
330
18
100
AcDbEntity
  8
1
  6
Continuous
100
AcDbCircle
 10
282.8753559988992
 20
58.25566336367807
 30
0.0
 40
3.0
100
AcDbArc
 50
270.0
 51
0.0
  0
ARC
  5
11CE
330
18
100
AcDbEntity
  8
1
  6
Continuous
100
AcDbCircle
 10
279.8753559988993
 20
92.205663363678
 30
0.0
 40
26.34240877368667
100
AcDbArc
 50
283.1657944544388
 51
311.6592447093901
  0
ARC
  5
11CF
330
18
100
AcDbEntity
  8
1
  6
Continuous
100
AcDbCircle
 10
279.8753559988993
 20
92.205663363678
 30
0.0
 40
26.34240877368667
100
AcDbArc
 50
48.34075529060985
 51
76.83420554556114
  0
ARC
  5
11D0
330
18
100
AcDbEntity
  8
1
  6
Continuous
100
AcDbCircle
 10
288.8753559988992
 20
124.992855363678
 30
0.0
 40
3.0
100
AcDbArc
 50
180.0
 51
254.6505230000006
  0
LINE
  5
11D1
330
18
100
AcDbEntity
  8
1
  6
Continuous
100
AcDbLine
 10
285.8753559988993
 20
126.155663363678
 30
0.0
 11
285.8753559988993
 21
124.992855363678
 31
0.0
  0
ARC
  5
11D2
330
18
100
AcDbEntity
  8
1
  6
Continuous
100
AcDbCircle
 10
282.8753559988992
 20
126.155663363678
 30
0.0
 40
3.0
100
AcDbArc
 50
0.0
 51
90.0
  0
LINE
  5
11D5
330
18
100
AcDbEntity
  8
4
  6
CENTER
100
AcDbLine
 10
255.1253559988992
 20
124.205663363678
 30
0.0
 11
240.6253559988992
 21
124.205663363678
 31
0.0
  0
LINE
  5
11D6
330
18
100
AcDbEntity
  8
4
  6
CENTER
100
AcDbLine
 10
247.8753559988993
 20
131.4556633636779
 30
0.0
 11
247.8753559988993
 21
116.955663363678
 31
0.0
  0
LINE
  5
11D7
330
18
100
AcDbEntity
  8
4
  6
CENTER
100
AcDbLine
 10
247.8753559988993
 20
67.45566336367801
 30
0.0
 11
247.8753559988993
 21
52.95566336367802
 31
0.0
  0
LINE
  5
11D8
330
18
100
AcDbEntity
  8
4
  6
CENTER
100
AcDbLine
 10
255.1253559988992
 20
60.205663363678
 30
0.0
 11
240.6253559988992
 21
60.205663363678
 31
0.0
  0
ARC
  5
11D9
330
18
100
AcDbEntity
  8
1
  6
Continuous
100
AcDbCircle
 10
245.0978129988991
 20
109.855663363678
 30
0.0
 40
8.0
100
AcDbArc
 50
52.53734892745388
 51
90.0
  0
ARC
  5
11DA
330
18
100
AcDbEntity
  8
1
  6
Continuous
100
AcDbCircle
 10
279.8753559988993
 20
92.205663363678
 30
0.0
 40
31.0
100
AcDbArc
 50
179.0758344514167
 51
180.0
  0
ARC
  5
11DB
330
18
100
AcDbEntity
  8
1
  6
Continuous
100
AcDbCircle
 10
279.8753559988993
 20
92.205663363678
 30
0.0
 40
31.0
100
AcDbArc
 50
180.0
 51
180.9241655485831
  0
ARC
  5
11DC
330
18
100
AcDbEntity
  8
1
  6
Continuous
100
AcDbCircle
 10
245.0978129988991
 20
74.55566336367803
 30
0.0
 40
8.0
100
AcDbArc
 50
270.0
 51
307.462651072546
  0
ARC
  5
11DE
330
18
100
AcDbEntity
  8
1
  6
Continuous
100
AcDbCircle
 10
281.4883870339103
 20
290.4262465461295
 30
0.0
 40
48.49987399999999
100
AcDbArc
 50
263.6001443539621
 51
268.0940792340001
  0
LINE
  5
11E6
330
18
100
AcDbEntity
  8
1
  6
Continuous
100
AcDbLine
 10
292.8753559988992
 20
249.9134376265626
 30
0.0
 11
285.941323040123
 21
249.9134376265626
 31
0.0
  0
LINE
  5
11E7
330
18
100
AcDbEntity
  8
1
  6
Continuous
100
AcDbLine
 10
292.8753559988992
 20
249.9134376265626
 30
0.0
 11
292.8753559988992
 21
252.9134376265626
 31
0.0
  0
LINE
  5
121F
330
18
100
AcDbEntity
  8
1
  6
Continuous
100
AcDbLine
 10
619.3063350809649
 20
249.9134376265626
 30
0.0
 11
626.2403680397413
 21
249.9134376265626
 31
0.0
  0
LINE
  5
1220
330
18
100
AcDbEntity
  8
1
  6
Continuous
100
AcDbLine
 10
619.3063350809649
 20
249.9134376265626
 30
0.0
 11
619.3063350809649
 21
252.9134376265626
 31
0.0
  0
LINE
  5
1222
330
18
100
AcDbEntity
  8
4
  6
CENTER
100
AcDbLine
 10
36.54794492743008
 20
312.959949999989
 30
0.0
 11
36.54794492743008
 21
302.4634376265626
 31
0.0
  0
LINE
  5
1223
330
18
100
AcDbEntity
  8
4
  6
CENTER
100
AcDbLine
 10
100.54794492743
 20
312.959949999989
 30
0.0
 11
100.54794492743
 21
302.4634376265626
 31
0.0
  0
LINE
  5
123A
330
18
100
AcDbEntity
  8
4
  6
CENTER
100
AcDbLine
 10
247.8753559988993
 20
312.959949999989
 30
0.0
 11
247.8753559988993
 21
302.4634376265626
 31
0.0
  0
LINE
  5
123B
330
18
100
AcDbEntity
  8
4
  6
CENTER
100
AcDbLine
 10
311.8753559988992
 20
312.959949999989
 30
0.0
 11
311.8753559988992
 21
302.4634376265626
 31
0.0
  0
LINE
  5
1252
330
18
100
AcDbEntity
  8
4
  6
CENTER
100
AcDbLine
 10
421.8963507025748
 20
312.959949999989
 30
0.0
 11
421.8963507025748
 21
302.4634376265626
 31
0.0
  0
LINE
  5
1253
330
18
100
AcDbEntity
  8
4
  6
CENTER
100
AcDbLine
 10
485.8963507025748
 20
312.959949999989
 30
0.0
 11
485.8963507025748
 21
302.4634376265626
 31
0.0
  0
LINE
  5
126A
330
18
100
AcDbEntity
  8
4
  6
CENTER
100
AcDbLine
 10
600.3063350809648
 20
312.959949999989
 30
0.0
 11
600.3063350809648
 21
302.4634376265626
 31
0.0
  0
LINE
  5
126B
330
18
100
AcDbEntity
  8
4
  6
CENTER
100
AcDbLine
 10
664.3063350809649
 20
312.959949999989
 30
0.0
 11
664.3063350809649
 21
302.4634376265626
 31
0.0
  0
LINE
  5
1293
330
18
100
AcDbEntity
  8
1
  6
Continuous
100
AcDbLine
 10
469.1435737025751
 20
252.9134376265626
 30
0.0
 11
438.6491277025744
 21
252.9134376265626
 31
0.0
  0
LINE
  5
1294
330
18
100
AcDbEntity
  8
1
  6
Continuous
100
AcDbLine
 10
472.8963507025748
 20
257.4134376265626
 30
0.0
 11
434.8963507025748
 21
257.4134376265626
 31
0.0
  0
LINE
  5
1296
330
18
100
AcDbEntity
  8
1
  6
Continuous
100
AcDbLine
 10
474.2063445640008
 20
258.4634376265626
 30
0.0
 11
433.6863568411488
 21
258.4634376265626
 31
0.0
  0
LINE
  5
129C
330
18
100
AcDbEntity
  8
1
  6
Continuous
100
AcDbLine
 10
434.8963507025748
 20
257.4134376265626
 30
0.0
 11
436.9170767025746
 21
253.9134376265625
 31
0.0
  0
ARC
  5
12B4
330
18
100
AcDbEntity
  8
1
  6
Continuous
100
AcDbCircle
 10
438.6491277025744
 20
254.9134376265626
 30
0.0
 40
2.0
100
AcDbArc
 50
210.0000000000004
 51
270.0
  0
LINE
  5
12BC
330
18
100
AcDbEntity
  8
1
  6
Continuous
100
AcDbLine
 10
436.3963507025748
 20
257.4134376265626
 30
0.0
 11
436.3963507025748
 21
258.4634376265626
 31
0.0
  0
ARC
  5
12BD
330
18
100
AcDbEntity
  8
1
  6
Continuous
100
AcDbCircle
 10
433.37352424477
 20
256.1000509446714
 30
0.0
 40
2.38400101541469
100
AcDbArc
 50
82.45980630784073
 51
115.2911007203002
  0
ARC
  5
12BE
330
18
100
AcDbEntity
  8
1
  6
Continuous
100
AcDbCircle
 10
433.6863568411488
 20
256.4634376265626
 30
0.0
 40
2.0
100
AcDbArc
 50
90.0
 51
167.5520552478706
  0
LINE
  5
12C0
330
18
100
AcDbEntity
  8
1
  6
Continuous
100
AcDbLine
 10
472.8963507025748
 20
257.4134376265626
 30
0.0
 11
470.8756247025751
 21
253.9134376265625
 31
0.0
  0
ARC
  5
12CB
330
18
100
AcDbEntity
  8
1
  6
Continuous
100
AcDbCircle
 10
469.1435737025751
 20
254.9134376265626
 30
0.0
 40
2.0
100
AcDbArc
 50
270.0
 51
329.9999999999994
  0
LINE
  5
12CD
330
18
100
AcDbEntity
  8
1
  6
Continuous
100
AcDbLine
 10
471.3963507025749
 20
257.4134376265626
 30
0.0
 11
471.3963507025749
 21
258.4634376265626
 31
0.0
  0
LINE
  5
12D5
330
18
100
AcDbEntity
  8
1
  6
Continuous
100
AcDbLine
 10
444.3963507025748
 20
241.9134376265626
 30
0.0
 11
444.3963507025748
 21
249.9134376265626
 31
0.0
  0
LINE
  5
12D6
330
18
100
AcDbEntity
  8
1
  6
Continuous
100
AcDbLine
 10
466.8963507025749
 20
249.9134376265626
 30
0.0
 11
440.8963507025748
 21
249.9134376265626
 31
0.0
  0
LINE
  5
12D7
330
18
100
AcDbEntity
  8
1
  6
Continuous
100
AcDbLine
 10
440.8963507025748
 20
249.9134376265626
 30
0.0
 11
440.8963507025748
 21
252.9134376265626
 31
0.0
  0
LINE
  5
12D8
330
18
100
AcDbEntity
  8
1
  6
Continuous
100
AcDbLine
 10
466.8963507025749
 20
249.9134376265626
 30
0.0
 11
466.8963507025749
 21
252.9134376265626
 31
0.0
  0
LINE
  5
12D9
330
18
100
AcDbEntity
  8
1
  6
Continuous
100
AcDbLine
 10
463.3963507025748
 20
241.9134376265626
 30
0.0
 11
463.3963507025748
 21
249.9134376265626
 31
0.0
  0
ARC
  5
12DB
330
18
100
AcDbEntity
  8
1
  6
Continuous
100
AcDbCircle
 10
456.4681472248653
 20
290.4262465461295
 30
0.0
 40
48.49987399999999
100
AcDbArc
 50
272.5741068830864
 51
278.2127929999985
  0
LINE
  5
12DC
330
18
100
AcDbEntity
  8
1
  6
Continuous
100
AcDbLine
 10
453.8963507025748
 20
241.9134376265626
 30
0.0
 11
463.3963507025748
 21
241.9134376265626
 31
0.0
  0
ARC
  5
12DE
330
18
100
AcDbEntity
  8
1
  6
Continuous
100
AcDbCircle
 10
451.3245541802842
 20
290.4262465461295
 30
0.0
 40
48.49987399999999
100
AcDbArc
 50
261.7872070000014
 51
267.4258931169135
  0
LINE
  5
12DF
330
18
100
AcDbEntity
  8
1
  6
Continuous
100
AcDbLine
 10
453.8963507025748
 20
241.9134376265626
 30
0.0
 11
444.3963507025748
 21
241.9134376265626
 31
0.0
  0
LINE
  5
12E1
330
18
100
AcDbEntity
  8
1
  6
Continuous
100
AcDbLine
 10
453.8963507025799
 20
242.4237697914104
 30
0.0
 11
453.8963507025748
 21
249.9134376265626
 31
0.0
  0
ARC
  5
1613
330
18
100
AcDbEntity
  8
1
  6
Continuous
100
AcDbCircle
 10
441.6463497025748
 20
285.4634376265626
 30
0.0
 40
90.0
100
AcDbArc
 50
265.4452449999979
 51
276.0683210000002
  0
LINE
  5
1615
330
18
100
AcDbEntity
  8
1
  6
Continuous
100
AcDbLine
 10
429.2228407025747
 20
210.1789906265624
 30
0.0
 11
429.869857702575
 21
207.2478856265624
 31
0.0
  0
ARC
  5
1616
330
18
100
AcDbEntity
  8
1
  6
Continuous
100
AcDbCircle
 10
430.8463497025751
 20
207.4634376265624
 30
0.0
 40
1.0
100
AcDbArc
 50
192.4479449999993
 51
198.1948709999985
  0
ARC
  5
1617
330
18
100
AcDbEntity
  8
1
  6
Continuous
100
AcDbCircle
 10
434.8963497025748
 20
200.7318766265625
 30
0.0
 40
5.0
100
AcDbArc
 50
180.0
 51
265.4452449999979
  0
LINE
  5
1618
330
18
100
AcDbEntity
  8
1
  6
Continuous
100
AcDbLine
 10
418.9463497025752
 20
208.9634376265625
 30
0.0
 11
426.2463497025753
 21
208.9634376265625
 31
0.0
  0
ARC
  5
1619
330
18
100
AcDbEntity
  8
1
  6
Continuous
100
AcDbCircle
 10
418.9463497025752
 20
210.9634376265625
 30
0.0
 40
2.0
100
AcDbArc
 50
180.0
 51
270.0
  0
ARC
  5
161A
330
18
100
AcDbEntity
  8
1
  6
Continuous
100
AcDbCircle
 10
426.2463497025753
 20
210.9634376265625
 30
0.0
 40
2.0
100
AcDbArc
 50
270.0
 51
0.0
  0
ARC
  5
161B
330
18
100
AcDbEntity
  8
1
  6
Continuous
100
AcDbCircle
 10
428.246348702575
 20
209.9634376265624
 30
0.0
 40
1.0
100
AcDbArc
 50
12.44794499999943
 51
80.40585800000023
  0
ARC
  5
161C
330
18
100
AcDbEntity
  8
1
  6
Continuous
100
AcDbCircle
 10
428.4463497025751
 20
211.1466536265625
 30
0.0
 40
0.2
100
AcDbArc
 50
180.0
 51
260.4058580000002
  0
LINE
  5
161D
330
18
100
AcDbEntity
  8
1
  6
Continuous
100
AcDbLine
 10
488.8463497025751
 20
208.9634376265625
 30
0.0
 11
481.546349702575
 21
208.9634376265625
 31
0.0
  0
ARC
  5
161F
330
18
100
AcDbEntity
  8
1
  6
Continuous
100
AcDbCircle
 10
466.1463497025748
 20
285.4634376265626
 30
0.0
 40
90.0
100
AcDbArc
 50
263.9316789999997
 51
274.5547550000019
  0
ARC
  5
1620
330
18
100
AcDbEntity
  8
1
  6
Continuous
100
AcDbCircle
 10
450.8963497025749
 20
198.4537396265625
 30
0.0
 40
2.5
100
AcDbArc
 50
276.0683210000002
 51
0.0
  0
ARC
  5
1621
330
18
100
AcDbEntity
  8
1
  6
Continuous
100
AcDbCircle
 10
456.8963497025748
 20
198.4537396265625
 30
0.0
 40
2.5
100
AcDbArc
 50
180.0
 51
263.9316789999997
  0
LINE
  5
1622
330
18
100
AcDbEntity
  8
1
  6
Continuous
100
AcDbLine
 10
453.396349702575
 20
215.9634376265626
 30
0.0
 11
453.896349702575
 21
216.4634376265626
 31
0.0
  0
LINE
  5
1623
330
18
100
AcDbEntity
  8
1
  6
Continuous
100
AcDbLine
 10
454.396349702575
 20
215.9634376265624
 30
0.0
 11
453.896349702575
 21
216.4634376265623
 31
0.0
  0
LINE
  5
1624
330
18
100
AcDbEntity
  8
1
  6
Continuous
100
AcDbLine
 10
478.5698597025749
 20
210.1789906265624
 30
0.0
 11
477.9228427025748
 21
207.2478856265625
 31
0.0
  0
ARC
  5
1625
330
18
100
AcDbEntity
  8
1
  6
Continuous
100
AcDbCircle
 10
472.8963497025748
 20
200.7318766265625
 30
0.0
 40
5.0
100
AcDbArc
 50
274.5547550000019
 51
0.0
  0
ARC
  5
1626
330
18
100
AcDbEntity
  8
1
  6
Continuous
100
AcDbCircle
 10
476.9463497025752
 20
207.4634376265624
 30
0.0
 40
1.0
100
AcDbArc
 50
341.8051279999994
 51
347.5520550000005
  0
ARC
  5
1627
330
18
100
AcDbEntity
  8
1
  6
Continuous
100
AcDbCircle
 10
481.546349702575
 20
210.9634376265625
 30
0.0
 40
2.0
100
AcDbArc
 50
180.0
 51
270.0
  0
ARC
  5
1628
330
18
100
AcDbEntity
  8
1
  6
Continuous
100
AcDbCircle
 10
479.546351702575
 20
209.9634376265624
 30
0.0
 40
1.0
100
AcDbArc
 50
99.59414199999978
 51
167.5520550000005
  0
ARC
  5
1629
330
18
100
AcDbEntity
  8
1
  6
Continuous
100
AcDbCircle
 10
479.3463497025753
 20
211.1466536265625
 30
0.0
 40
0.2
100
AcDbArc
 50
279.5941419999997
 51
0.0
  0
ARC
  5
162A
330
18
100
AcDbEntity
  8
1
  6
Continuous
100
AcDbCircle
 10
488.8463497025751
 20
210.9634376265625
 30
0.0
 40
2.0
100
AcDbArc
 50
270.0
 51
0.0
  0
ARC
  5
162C
330
18
100
AcDbEntity
  8
1
  6
Continuous
100
AcDbCircle
 10
484.2872497025748
 20
254.2614722595046
 30
0.0
 40
5.0
100
AcDbArc
 50
270.0
 51
0.0
  0
LINE
  5
162D
330
18
100
AcDbEntity
  8
1
  6
Continuous
100
AcDbLine
 10
478.5698597025749
 20
245.7478856265626
 30
0.0
 11
476.1093280584483
 21
256.8945426769256
 31
0.0
  0
LINE
  5
162E
330
18
100
AcDbEntity
  8
1
  6
Continuous
100
AcDbLine
 10
490.8463497025749
 20
210.9634376265625
 30
0.0
 11
490.8463497025751
 21
283.9634376265625
 31
0.0
  0
LINE
  5
1630
330
18
100
AcDbEntity
  8
1
  6
Continuous
100
AcDbLine
 10
488.8463497025751
 20
249.2614722595046
 30
0.0
 11
483.8181849745738
 21
249.2614722595046
 31
0.0
  0
LINE
  5
1631
330
18
100
AcDbEntity
  8
1
  6
Continuous
100
AcDbLine
 10
477.8963497025748
 20
200.7318766265625
 30
0.0
 11
477.8963497025748
 21
248.7990087478244
 31
0.0
  0
LINE
  5
1632
330
18
100
AcDbEntity
  8
1
  6
Continuous
100
AcDbLine
 10
479.5463497025751
 20
244.7802216265626
 30
0.0
 11
479.5463497025751
 21
210.9634376265625
 31
0.0
  0
ARC
  5
1633
330
18
100
AcDbEntity
  8
1
  6
Continuous
100
AcDbCircle
 10
476.8963497025751
 20
248.4634376265625
 30
0.0
 40
1.0
100
AcDbArc
 50
12.44794499999943
 51
18.19487200000059
  0
ARC
  5
1634
330
18
100
AcDbEntity
  8
1
  6
Continuous
100
AcDbCircle
 10
479.4963517025752
 20
245.9634376265626
 30
0.0
 40
1.0
100
AcDbArc
 50
192.4479449999993
 51
260.4058580000002
  0
ARC
  5
1635
330
18
100
AcDbEntity
  8
1
  6
Continuous
100
AcDbCircle
 10
479.2963497025751
 20
244.7802216265626
 30
0.0
 40
0.2
100
AcDbArc
 50
0.0
 51
80.40585800000023
  0
ARC
  5
1636
330
18
100
AcDbEntity
  8
1
  6
Continuous
100
AcDbCircle
 10
488.8463497025751
 20
251.2614722595046
 30
0.0
 40
2.0
100
AcDbArc
 50
270.0
 51
0.0
  0
ARC
  5
1637
330
18
100
AcDbEntity
  8
1
  6
Continuous
100
AcDbCircle
 10
474.4191761603799
 20
256.1000509446714
 30
0.0
 40
2.38400101541468
100
AcDbArc
 50
64.70889927969982
 51
97.5401936921594
  0
ARC
  5
1638
330
18
100
AcDbEntity
  8
1
  6
Continuous
100
AcDbCircle
 10
474.1063435640008
 20
256.4634376265626
 30
0.0
 40
2.0
100
AcDbArc
 50
12.44794475212941
 51
90.0
  0
LINE
  5
1639
330
18
100
AcDbEntity
  8
1
  6
Continuous
100
AcDbLine
 10
486.3119795307402
 20
252.892652484243
 30
0.0
 11
475.4876629581866
 21
258.2555428802144
 31
0.0
  0
LINE
  5
163A
330
18
100
AcDbEntity
  8
1
  6
Continuous
100
AcDbLine
 10
489.2872497025748
 20
280.9634376265626
 30
0.0
 11
489.2872497025748
 21
254.2614722595046
 31
0.0
  0
ARC
  5
163B
330
18
100
AcDbEntity
  8
1
  6
Continuous
100
AcDbCircle
 10
423.5054497025751
 20
254.2614722595046
 30
0.0
 40
5.0
100
AcDbArc
 50
180.0
 51
270.0
  0
LINE
  5
163C
330
18
100
AcDbEntity
  8
1
  6
Continuous
100
AcDbLine
 10
429.2228397025748
 20
245.7478856265626
 30
0.0
 11
431.6833713467016
 21
256.8945426769256
 31
0.0
  0
LINE
  5
163D
330
18
100
AcDbEntity
  8
1
  6
Continuous
100
AcDbLine
 10
416.9463497025751
 20
210.9634376265625
 30
0.0
 11
416.9463497025751
 21
283.9634376265625
 31
0.0
  0
LINE
  5
163E
330
18
100
AcDbEntity
  8
1
  6
Continuous
100
AcDbLine
 10
428.2463497025748
 20
244.7802216265626
 30
0.0
 11
428.2463497025748
 21
210.9634376265625
 31
0.0
  0
LINE
  5
163F
330
18
100
AcDbEntity
  8
1
  6
Continuous
100
AcDbLine
 10
429.8963497025749
 20
200.7318766265625
 30
0.0
 11
429.8963497025749
 21
248.7990087478244
 31
0.0
  0
ARC
  5
1640
330
18
100
AcDbEntity
  8
1
  6
Continuous
100
AcDbCircle
 10
418.9463497025745
 20
251.2614722595046
 30
0.0
 40
2.0
100
AcDbArc
 50
180.0
 51
270.0
  0
LINE
  5
1641
330
18
100
AcDbEntity
  8
1
  6
Continuous
100
AcDbLine
 10
418.9463497025745
 20
249.2614722595046
 30
0.0
 11
423.9745144305762
 21
249.2614722595046
 31
0.0
  0
ARC
  5
1642
330
18
100
AcDbEntity
  8
1
  6
Continuous
100
AcDbCircle
 10
430.8463497025748
 20
248.4634376265625
 30
0.0
 40
1.0
100
AcDbArc
 50
161.8051279999994
 51
167.5520550000005
  0
ARC
  5
1643
330
18
100
AcDbEntity
  8
1
  6
Continuous
100
AcDbCircle
 10
428.2463477025745
 20
245.9634376265626
 30
0.0
 40
1.0
100
AcDbArc
 50
279.5941419999997
 51
347.5520550000005
  0
ARC
  5
1644
330
18
100
AcDbEntity
  8
1
  6
Continuous
100
AcDbCircle
 10
428.4463497025747
 20
244.7802216265626
 30
0.0
 40
0.2
100
AcDbArc
 50
99.59414199999978
 51
180.0
  0
LINE
  5
1645
330
18
100
AcDbEntity
  8
1
  6
Continuous
100
AcDbLine
 10
418.5054497025751
 20
280.9634376265626
 30
0.0
 11
418.5054497025751
 21
254.2614722595046
 31
0.0
  0
LINE
  5
1646
330
18
100
AcDbEntity
  8
1
  6
Continuous
100
AcDbLine
 10
421.4807198744097
 20
252.892652484243
 30
0.0
 11
432.3050364469633
 21
258.2555428802144
 31
0.0
  0
ARC
  5
1649
330
18
100
AcDbEntity
  8
1
  6
Continuous
100
AcDbCircle
 10
423.5054497025751
 20
280.9634376265626
 30
0.0
 40
5.0
100
AcDbArc
 50
90.0
 51
180.0
  0
ARC
  5
164A
330
18
100
AcDbEntity
  8
1
  6
Continuous
100
AcDbCircle
 10
418.9463497025752
 20
283.9634376265625
 30
0.0
 40
2.0
100
AcDbArc
 50
90.0
 51
180.0
  0
LINE
  5
164B
330
18
100
AcDbEntity
  8
1
  6
Continuous
100
AcDbLine
 10
418.9463497025752
 20
285.9634376265626
 30
0.0
 11
488.8463497025751
 21
285.9634376265626
 31
0.0
  0
ARC
  5
164C
330
18
100
AcDbEntity
  8
1
  6
Continuous
100
AcDbCircle
 10
484.2872497025748
 20
280.9634376265626
 30
0.0
 40
5.0
100
AcDbArc
 50
0.0
 51
90.0
  0
ARC
  5
164D
330
18
100
AcDbEntity
  8
1
  6
Continuous
100
AcDbCircle
 10
488.8463497025751
 20
283.9634376265625
 30
0.0
 40
2.0
100
AcDbArc
 50
0.0
 51
90.0
  0
LINE
  5
164E
330
18
100
AcDbEntity
  8
1
  6
Continuous
100
AcDbLine
 10
449.8463497025748
 20
285.9634376265626
 30
0.0
 11
449.8463497025748
 21
258.4634376265626
 31
0.0
  0
LINE
  5
164F
330
18
100
AcDbEntity
  8
1
  6
Continuous
100
AcDbLine
 10
457.8463497025748
 20
285.9634376265626
 30
0.0
 11
457.8463497025748
 21
258.4634376265626
 31
0.0
  0
LINE
  5
1652
330
18
100
AcDbEntity
  8
1
  6
Continuous
100
AcDbLine
 10
453.896349702575
 20
216.4634376265626
 30
0.0
 11
453.896349702575
 21
239.4634376265626
 31
0.0
  0
LINE
  5
1653
330
18
100
AcDbEntity
  8
1
  6
Continuous
100
AcDbLine
 10
453.396349702575
 20
198.4537396265625
 30
0.0
 11
453.396349702575
 21
241.9134376265626
 31
0.0
  0
LINE
  5
1654
330
18
100
AcDbEntity
  8
1
  6
Continuous
100
AcDbLine
 10
454.396349702575
 20
241.9134376265626
 30
0.0
 11
454.396349702575
 21
198.4537396265625
 31
0.0
  0
LINE
  5
16CE
330
18
100
AcDbEntity
  8
1
  6
Continuous
100
AcDbLine
 10
454.396349702575
 20
239.9634376265628
 30
0.0
 11
453.896349702575
 21
239.4634376265628
 31
0.0
  0
LINE
  5
16CF
330
18
100
AcDbEntity
  8
1
  6
Continuous
100
AcDbLine
 10
453.396349702575
 20
239.9634376265626
 30
0.0
 11
453.896349702575
 21
239.4634376265626
 31
0.0
  0
LINE
  5
1839
330
18
100
AcDbEntity
  8
4
  6
CENTER
100
AcDbLine
 10
453.8963507025748
 20
315.7436019167533
 30
0.0
 11
453.8963507025748
 21
190.021131934267
 31
0.0
  0
CIRCLE
  5
1861
330
18
100
AcDbEntity
  8
1
  6
Continuous
100
AcDbCircle
 10
226.8753559988993
 20
227.9634376265625
 30
0.0
 40
5.0
  0
LINE
  5
1882
330
18
100
AcDbEntity
  8
1
  6
Continuous
100
AcDbLine
 10
287.1541099988992
 20
128.7890915273628
 30
0.0
 11
287.1541099988992
 21
134.205663363678
 31
0.0
  0
LINE
  5
1883
330
18
100
AcDbEntity
  8
1
  6
Continuous
100
AcDbLine
 10
272.5966019988992
 20
134.205663363678
 30
0.0
 11
272.5966019988992
 21
129.155663363678
 31
0.0
  0
LINE
  5
1884
330
18
100
AcDbEntity
  8
1
  6
Continuous
100
AcDbLine
 10
287.1541099988992
 20
55.62223519999323
 30
0.0
 11
287.1541099988992
 21
50.205663363678
 31
0.0
  0
LINE
  5
1885
330
18
100
AcDbEntity
  8
1
  6
Continuous
100
AcDbLine
 10
272.5966019988992
 20
50.205663363678
 30
0.0
 11
272.5966019988992
 21
55.25566336367797
 31
0.0
  0
LINE
  5
1886
330
18
100
AcDbEntity
  8
1
  6
Continuous
100
AcDbLine
 10
316.4587841625841
 20
84.92690936367806
 30
0.0
 11
321.8753559988992
 21
84.92690936367806
 31
0.0
  0
LINE
  5
1887
330
18
100
AcDbEntity
  8
1
  6
Continuous
100
AcDbLine
 10
321.8753559988992
 20
99.48441736367804
 30
0.0
 11
316.458784162584
 21
99.48441736367804
 31
0.0
  0
LINE
  5
1911
330
18
100
AcDbEntity
  8
1
  6
Continuous
100
AcDbLine
 10
285.3601835562035
 20
242.4237697914104
 30
0.0
 11
285.3601835562035
 21
248.8312099204609
 31
0.0
  0
LINE
  5
1912
330
18
100
AcDbEntity
  8
1
  6
Continuous
100
AcDbLine
 10
290.8450111135049
 20
242.3072298511367
 30
0.0
 11
290.8450111135049
 21
249.9134376265625
 31
0.0
  0
LINE
  5
1914
330
18
100
AcDbEntity
  8
1
  6
Continuous
100
AcDbLine
 10
275.6779319213104
 20
241.9134376265626
 30
0.0
 11
289.3753559989022
 21
241.9134376265625
 31
0.0
  0
ARC
  5
1915
330
18
100
AcDbEntity
  8
1
  6
Continuous
100
AcDbCircle
 10
277.73289429977
 20
299.1256199389038
 30
0.0
 40
57.21254540352221
100
AcDbArc
 50
272.1460803782902
 51
277.6611945290379
  0
LINE
  5
1916
330
18
100
AcDbEntity
  8
1
  6
Continuous
100
AcDbLine
 10
289.3753559989022
 20
241.9134376265625
 30
0.0
 11
290.8450111135049
 21
242.3072298511367
 31
0.0
  0
ARC
  5
1917
330
18
100
AcDbEntity
  8
1
  6
Continuous
100
AcDbCircle
 10
288.3491690821843
 20
253.970135205759
 30
0.0
 40
11.92696896768772
100
AcDbArc
 50
255.4865478514309
 51
282.0790120214777
  0
CIRCLE
  5
1919
330
18
100
AcDbEntity
  8
1
  6
Continuous
100
AcDbCircle
 10
279.8753559988993
 20
92.205663363678
 30
0.0
 40
9.499999999999973
  0
LINE
  5
191A
330
18
100
AcDbEntity
  8
1
  6
Continuous
100
AcDbLine
 10
274.3905284415979
 20
101.7056633636779
 30
0.0
 11
285.3601835562006
 21
101.7056633636779
 31
0.0
  0
LINE
  5
191B
330
18
100
AcDbEntity
  8
1
  6
Continuous
100
AcDbLine
 10
268.9057008842965
 20
92.20566336367806
 30
0.0
 11
274.3905284415977
 21
101.7056633636781
 31
0.0
  0
LINE
  5
191C
330
18
100
AcDbEntity
  8
1
  6
Continuous
100
AcDbLine
 10
268.9057008842965
 20
92.20566336367806
 30
0.0
 11
274.3905284415977
 21
82.70566336367798
 31
0.0
  0
LINE
  5
191D
330
18
100
AcDbEntity
  8
1
  6
Continuous
100
AcDbLine
 10
274.3905284415979
 20
82.7056633636781
 30
0.0
 11
285.3601835562006
 21
82.7056633636781
 31
0.0
  0
LINE
  5
191E
330
18
100
AcDbEntity
  8
1
  6
Continuous
100
AcDbLine
 10
290.8450111135021
 20
92.20566336367806
 30
0.0
 11
285.3601835562008
 21
82.70566336367798
 31
0.0
  0
LINE
  5
191F
330
18
100
AcDbEntity
  8
1
  6
Continuous
100
AcDbLine
 10
290.8450111135021
 20
92.20566336367806
 30
0.0
 11
285.3601835562008
 21
101.7056633636781
 31
0.0
  0
ARC
  5
1A03
330
18
100
AcDbEntity
  8
1
  6
Continuous
100
AcDbCircle
 10
446.9681472248719
 20
290.4262465461295
 30
0.0
 40
48.49987399999999
100
AcDbArc
 50
272.5741068830864
 51
278.2127929999985
  0
ARC
  5
1A04
330
18
100
AcDbEntity
  8
1
  6
Continuous
100
AcDbCircle
 10
460.8245541802777
 20
290.4262465461295
 30
0.0
 40
48.49987399999999
100
AcDbArc
 50
261.7872070000014
 51
267.4258931169135
  0
LINE
  5
1A05
330
18
100
AcDbEntity
  8
1
  6
Continuous
100
AcDbLine
 10
636.5037591585538
 20
241.9134376265626
 30
0.0
 11
622.8063350809621
 21
241.9134376265625
 31
0.0
  0
ARC
  5
1A06
330
18
100
AcDbEntity
  8
1
  6
Continuous
100
AcDbCircle
 10
623.8325219976799
 20
253.970135205759
 30
0.0
 40
11.92696896768772
100
AcDbArc
 50
257.9209879785222
 51
284.513452148569
  0
ARC
  5
1A08
330
18
100
AcDbEntity
  8
1
  6
Continuous
100
AcDbCircle
 10
634.4487967800942
 20
299.1256199389038
 30
0.0
 40
57.21254540352221
100
AcDbArc
 50
262.338805470962
 51
267.8539196217097
  0
ARC
  5
1A09
330
18
100
AcDbEntity
  8
1
  6
Continuous
100
AcDbCircle
 10
630.6933040459539
 20
290.4262465461295
 30
0.0
 40
48.49987399999999
100
AcDbArc
 50
271.9059207659999
 51
276.3998556460379
  0
LINE
  5
1A0A
330
18
100
AcDbEntity
  8
1
  6
Continuous
100
AcDbLine
 10
626.8215075236607
 20
242.4237697914104
 30
0.0
 11
626.8215075236607
 21
248.8312099204609
 31
0.0
  0
LINE
  5
1A0B
330
18
100
AcDbEntity
  8
1
  6
Continuous
100
AcDbLine
 10
621.3366799663592
 20
242.3072298511367
 30
0.0
 11
621.3366799663592
 21
249.9134376265625
 31
0.0
  0
LINE
  5
1A0C
330
18
100
AcDbEntity
  8
1
  6
Continuous
100
AcDbLine
 10
622.8063350809621
 20
241.9134376265625
 30
0.0
 11
621.3366799663592
 21
242.3072298511367
 31
0.0
  0
ARC
  5
1A6C
330
18
100
AcDbEntity
  8
1
  6
Continuous
100
AcDbCircle
 10
279.8753559988993
 20
92.205663363678
 30
0.0
 40
35.0
100
AcDbArc
 50
285.6936366446635
 51
344.3063633553364
  0
ARC
  5
1A6D
330
18
100
AcDbEntity
  8
1
  6
Continuous
100
AcDbCircle
 10
316.458784162584
 20
102.484417363678
 30
0.0
 40
3.0
100
AcDbArc
 50
195.6936366446635
 51
270.0
  0
ARC
  5
1A6E
330
18
100
AcDbEntity
  8
1
  6
Continuous
100
AcDbCircle
 10
316.4587841625841
 20
81.92690936367808
 30
0.0
 40
3.0
100
AcDbArc
 50
90.0
 51
164.3063633553363
  0
ARC
  5
1A6F
330
18
100
AcDbEntity
  8
1
  6
Continuous
100
AcDbCircle
 10
290.1541099988992
 20
55.62223519999323
 30
0.0
 40
3.0
100
AcDbArc
 50
105.6936366446641
 51
180.0
  0
ARC
  5
1A70
330
18
100
AcDbEntity
  8
1
  6
Continuous
100
AcDbCircle
 10
290.1541099988992
 20
128.7890915273628
 30
0.0
 40
3.0
100
AcDbArc
 50
180.0
 51
254.306363355337
  0
ARC
  5
1A71
330
18
100
AcDbEntity
  8
1
  6
Continuous
100
AcDbCircle
 10
279.8753559988993
 20
92.205663363678
 30
0.0
 40
35.0
100
AcDbArc
 50
15.69363664466369
 51
74.30636335533645
  0
ENDSEC
  0
SECTION
  2
OBJECTS
  0
DICTIONARY
  5
C
330
0
100
AcDbDictionary
281
     1
  3
ACAD_CIP_PREVIOUS_PRODUCT_INFO
350
1AF1
  3
ACAD_COLOR
350
1AD4
  3
ACAD_DETAILVIEWSTYLE
350
1AED
  3
ACAD_GROUP
350
D
  3
ACAD_LAYOUT
350
94
  3
ACAD_MATERIAL
350
1AA2
  3
ACAD_MLEADERSTYLE
350
1AE9
  3
ACAD_MLINESTYLE
350
1B
  3
ACAD_PLOTSETTINGS
350
95
  3
ACAD_PLOTSTYLENAME
350
1AA0
  3
ACAD_SCALELIST
350
1AD7
  3
ACAD_SECTIONVIEWSTYLE
350
1AEB
  3
ACAD_TABLESTYLE
350
1AD5
  3
ACAD_VISUALSTYLE
350
1ABB
  3
ACDB_RECOMPOSE_DATA
350
1B0F
  3
AcDbVariableDictionary
350
1B02
  3
CONTENTDICTIONARY
350
3D
  3
DWGPROPS
350
1B10
  0
DICTIONARY
  5
1AF2
330
E
100
AcDbDictionary
280
     1
281
     1
  3
ADSK_XREC_LAYER_RECONCILED
360
1AF3
  0
DICTIONARY
  5
1AF4
330
4E
100
AcDbDictionary
280
     1
281
     1
  3
ADSK_XREC_LAYER_RECONCILED
360
1AF5
  0
DICTIONARY
  5
1AF6
330
4F
100
AcDbDictionary
280
     1
281
     1
  3
ADSK_XREC_LAYER_RECONCILED
360
1AF7
  0
DICTIONARY
  5
1AF8
330
50
100
AcDbDictionary
280
     1
281
     1
  3
ADSK_XREC_LAYER_RECONCILED
360
1AF9
  0
DICTIONARY
  5
1AFA
330
51
100
AcDbDictionary
280
     1
281
     1
  3
ADSK_XREC_LAYER_RECONCILED
360
1AFB
  0
DICTIONARY
  5
1AFC
330
52
100
AcDbDictionary
280
     1
281
     1
  3
ADSK_XREC_LAYER_RECONCILED
360
1AFD
  0
DICTIONARY
  5
1AFE
330
53
100
AcDbDictionary
280
     1
281
     1
  3
ADSK_XREC_LAYER_RECONCILED
360
1AFF
  0
DICTIONARY
  5
1B00
330
54
100
AcDbDictionary
280
     1
281
     1
  3
ADSK_XREC_LAYER_RECONCILED
360
1B01
  0
DICTIONARY
  5
1A9B
330
18
100
AcDbDictionary
281
     1
  3
ACAD_LAYOUTSELFREF
350
1A9C
  0
DICTIONARY
  5
1A99
330
15
100
AcDbDictionary
281
     1
  3
ACAD_LAYOUTSELFREF
350
1A9A
  0
XRECORD
  5
1AF1
102
{ACAD_REACTORS
330
C
102
}
330
C
100
AcDbXrecord
280
     1
300
ACDLT
300
2014
300
ACDLT_F_S
  0
DICTIONARY
  5
1AD4
102
{ACAD_REACTORS
330
C
102
}
330
C
100
AcDbDictionary
281
     1
  0
DICTIONARY
  5
1AED
102
{ACAD_REACTORS
330
C
102
}
330
C
100
AcDbDictionary
281
     1
  3
Imperial24
350
1AEE
  0
DICTIONARY
  5
D
102
{ACAD_REACTORS
330
C
102
}
330
C
100
AcDbDictionary
281
     1
  0
DICTIONARY
  5
94
102
{ACAD_REACTORS
330
C
102
}
330
C
100
AcDbDictionary
281
     1
  3
Model
350
1AEF
  3
レイアウト1
350
1AF0
  0
DICTIONARY
  5
1AA2
102
{ACAD_REACTORS
330
C
102
}
330
C
100
AcDbDictionary
281
     1
  3
ByBlock
350
1AAB
  3
ByLayer
350
1AA3
  3
Global
350
1AB3
  0
DICTIONARY
  5
1AE9
102
{ACAD_REACTORS
330
C
102
}
330
C
100
AcDbDictionary
281
     1
  3
Standard
350
1AEA
  0
DICTIONARY
  5
1B
102
{ACAD_REACTORS
330
C
102
}
330
C
100
AcDbDictionary
281
     1
  3
STANDARD
350
1C
  0
DICTIONARY
  5
95
102
{ACAD_REACTORS
330
C
102
}
330
C
100
AcDbDictionary
281
     1
  0
ACDBDICTIONARYWDFLT
  5
1AA0
102
{ACAD_REACTORS
330
C
102
}
330
C
100
AcDbDictionary
281
     1
  3
Normal
350
1AA1
100
AcDbDictionaryWithDefault
340
1AA1
  0
DICTIONARY
  5
1AD7
102
{ACAD_REACTORS
330
C
102
}
330
C
100
AcDbDictionary
281
     1
  3
A0
350
1AD8
  3
A1
350
1AD9
  3
A2
350
1ADA
  3
A3
350
1ADB
  3
A4
350
1ADC
  3
A5
350
1ADD
  3
A6
350
1ADE
  3
A7
350
1ADF
  3
A8
350
1AE0
  3
A9
350
1AE1
  3
B0
350
1AE2
  3
B1
350
1AE3
  3
B2
350
1AE4
  3
B3
350
1AE5
  3
B4
350
1AE6
  3
B5
350
1AE7
  3
B6
350
1AE8
  0
DICTIONARY
  5
1AEB
102
{ACAD_REACTORS
330
C
102
}
330
C
100
AcDbDictionary
281
     1
  3
Imperial24
350
1AEC
  0
DICTIONARY
  5
1AD5
102
{ACAD_REACTORS
330
C
102
}
330
C
100
AcDbDictionary
281
     1
  3
Standard
350
1AD6
  0
DICTIONARY
  5
1ABB
102
{ACAD_REACTORS
330
C
102
}
330
C
100
AcDbDictionary
281
     1
  3
2dWireframe
350
1AC1
  3
Basic
350
1AC0
  3
Brighten
350
1AC7
  3
ColorChange
350
1ACB
  3
Conceptual
350
1AC4
  3
Dim
350
1AC6
  3
EdgeColorOff
350
1AD3
  3
Facepattern
350
1ACA
  3
Flat
350
1ABC
  3
FlatWithEdges
350
1ABD
  3
Gouraud
350
1ABE
  3
GouraudWithEdges
350
1ABF
  3
Hidden
350
1AC3
  3
JitterOff
350
1AD1
  3
Linepattern
350
1AC9
  3
OverhangOff
350
1AD2
  3
Realistic
350
1AC5
  3
Shaded
350
1AD0
  3
Shaded with edges
350
1ACF
  3
Shades of Gray
350
1ACC
  3
Sketchy
350
1ACD
  3
Thicken
350
1AC8
  3
Wireframe
350
1AC2
  3
X-Ray
350
1ACE
  0
XRECORD
  5
1B0F
102
{ACAD_REACTORS
330
C
102
}
330
C
100
AcDbXrecord
280
     1
 90
        1
330
1AD6
  0
DICTIONARY
  5
1B02
102
{ACAD_REACTORS
330
C
102
}
330
C
100
AcDbDictionary
281
     1
  3
CANNOSCALE
350
1B07
  3
CMLEADERSTYLE
350
1B04
  3
CTABLESTYLE
350
1B03
  3
CVIEWDETAILSTYLE
350
1B05
  3
CVIEWSECTIONSTYLE
350
1B06
  3
DIMASSOC
350
1B0A
  3
INDEXCTL
350
1B09
  3
SORTENTS
350
1B08
  3
XCLIPFRAME
350
1B0B
  0
DICTIONARY
  5
3D
102
{ACAD_REACTORS
330
C
102
}
330
C
100
AcDbDictionary
281
     1
  0
XRECORD
  5
1B10
102
{ACAD_REACTORS
330
C
102
}
330
C
100
AcDbXrecord
280
     1
  1
DWGPROPS COOKIE
  2

  3

  4

  6

  7

  8
Yoshitsune
  9

300
=
301
=
302
=
303
=
304
=
305
=
306
=
307
=
308
=
309
=
 40
0.0624477083333333
 41
2452969.549153276
 42
2457192.68697816
  1

 90
        0
  0
XRECORD
  5
1AF3
102
{ACAD_REACTORS
330
1AF2
102
}
330
1AF2
100
AcDbXrecord
280
     1
290
     1
  0
XRECORD
  5
1AF5
102
{ACAD_REACTORS
330
1AF4
102
}
330
1AF4
100
AcDbXrecord
280
     1
290
     1
  0
XRECORD
  5
1AF7
102
{ACAD_REACTORS
330
1AF6
102
}
330
1AF6
100
AcDbXrecord
280
     1
290
     1
  0
XRECORD
  5
1AF9
102
{ACAD_REACTORS
330
1AF8
102
}
330
1AF8
100
AcDbXrecord
280
     1
290
     1
  0
XRECORD
  5
1AFB
102
{ACAD_REACTORS
330
1AFA
102
}
330
1AFA
100
AcDbXrecord
280
     1
290
     1
  0
XRECORD
  5
1AFD
102
{ACAD_REACTORS
330
1AFC
102
}
330
1AFC
100
AcDbXrecord
280
     1
290
     1
  0
XRECORD
  5
1AFF
102
{ACAD_REACTORS
330
1AFE
102
}
330
1AFE
100
AcDbXrecord
280
     1
290
     1
  0
XRECORD
  5
1B01
102
{ACAD_REACTORS
330
1B00
102
}
330
1B00
100
AcDbXrecord
280
     1
290
     1
  0
XRECORD
  5
1A9C
102
{ACAD_REACTORS
330
1A9B
102
}
330
1A9B
100
AcDbXrecord
280
     1
340
18
  0
XRECORD
  5
1A9A
102
{ACAD_REACTORS
330
1A99
102
}
330
1A99
100
AcDbXrecord
280
     1
340
15
  0
ACDBDETAILVIEWSTYLE
  5
1AEE
102
{ACAD_XDICTIONARY
360
1B48
102
}
102
{ACAD_REACTORS
330
1AED
102
}
330
1AED
100
AcDbModelDocViewStyle
 70
     0
  3
Imperial24
290
     0
100
AcDbDetailViewStyle
 70
     0
 71
     0
 90
        3
 71
     1
340
F
 40
0.24
340
0
 40
0.24
300

 40
0.36
280
     3
 71
     2
340
14
 90
       25
 71
     3
340
F
 40
0.24
 90
        1
 40
0.75
 90
        1
300
%<\AcVar ViewType \f "%tc1">% %<\AcVar ViewDetailId>%\PSCALE %<\AcVar ViewScale \f "%sn">%
 71
     4
340
14
 90
       25
340
14
 90
       25
280
     0
  0
LAYOUT
  5
1AEF
102
{ACAD_XDICTIONARY
360
1B4A
102
}
102
{ACAD_REACTORS
330
94
102
}
330
94
100
AcDbPlotSettings
  1

  2
Canon LBP9100C
  4

  6

 40
0.0
 41
0.0
 42
0.0
 43
0.0
 44
0.0
 45
0.0
 46
0.0
 47
0.0
 48
0.0
 49
0.0
140
0.0
141
0.0
142
1.0
143
1.0
 70
  1712
 72
     0
 73
     0
 74
     0
  7

 75
     0
147
1.0
148
0.0
149
0.0
100
AcDbLayout
  1
Model
 70
     1
 71
     0
 10
0.0
 20
0.0
 11
12.0
 21
9.0
 12
0.0
 22
0.0
 32
0.0
 14
0.0
 24
0.0
 34
0.0
 15
0.0
 25
0.0
 35
0.0
146
0.0
 13
0.0
 23
0.0
 33
0.0
 16
1.0
 26
0.0
 36
0.0
 17
0.0
 27
1.0
 37
0.0
 76
     0
330
18
331
1A98
  0
LAYOUT
  5
1AF0
102
{ACAD_XDICTIONARY
360
1B4C
102
}
102
{ACAD_REACTORS
330
94
102
}
330
94
100
AcDbPlotSettings
  1

  2
Canon LBP9100C
  4

  6

 40
0.0
 41
0.0
 42
0.0
 43
0.0
 44
0.0
 45
0.0
 46
0.0
 47
0.0
 48
0.0
 49
0.0
140
0.0
141
0.0
142
1.0
143
1.0
 70
   688
 72
     0
 73
     0
 74
     5
  7

 75
    16
147
1.0
148
0.0
149
0.0
100
AcDbLayout
  1
レイアウト1
 70
     1
 71
     1
 10
0.0
 20
0.0
 11
420.0
 21
297.0
 12
0.0
 22
0.0
 32
0.0
 14
1.000000000000000E+20
 24
1.000000000000000E+20
 34
1.000000000000000E+20
 15
-1.000000000000000E+20
 25
-1.000000000000000E+20
 35
-1.000000000000000E+20
146
0.0
 13
0.0
 23
0.0
 33
0.0
 16
1.0
 26
0.0
 36
0.0
 17
0.0
 27
1.0
 37
0.0
 76
     0
330
15
  0
MATERIAL
  5
1AAB
102
{ACAD_XDICTIONARY
360
1AAC
102
}
102
{ACAD_REACTORS
330
1AA2
102
}
330
1AA2
100
AcDbMaterial
  1
ByBlock
 72
     0
 43
0.0208333333333333
 43
0.0
 43
0.0
 43
0.0
 43
0.0
 43
0.0208333333333333
 43
0.0
 43
0.0
 43
0.0
 43
0.0
 43
1.0
 43
0.0
 43
0.0
 43
0.0
 43
0.0
 43
1.0
 77
     0
 47
0.0208333333333333
 47
0.0
 47
0.0
 47
0.0
 47
0.0
 47
0.0208333333333333
 47
0.0
 47
0.0
 47
0.0
 47
0.0
 47
1.0
 47
0.0
 47
0.0
 47
0.0
 47
0.0
 47
1.0
171
     0
 49
0.0208333333333333
 49
0.0
 49
0.0
 49
0.0
 49
0.0
 49
0.0208333333333333
 49
0.0
 49
0.0
 49
0.0
 49
0.0
 49
1.0
 49
0.0
 49
0.0
 49
0.0
 49
0.0
 49
1.0
175
     0
142
0.0208333333333333
142
0.0
142
0.0
142
0.0
142
0.0
142
0.0208333333333333
142
0.0
142
0.0
142
0.0
142
0.0
142
1.0
142
0.0
142
0.0
142
0.0
142
0.0
142
1.0
179
     0
144
0.0208333333333333
144
0.0
144
0.0
144
0.0
144
0.0
144
0.0208333333333333
144
0.0
144
0.0
144
0.0
144
0.0
144
1.0
144
0.0
144
0.0
144
0.0
144
0.0
144
1.0
147
0.0208333333333333
147
0.0
147
0.0
147
0.0
147
0.0
147
0.0208333333333333
147
0.0
147
0.0
147
0.0
147
0.0
147
1.0
147
0.0
147
0.0
147
0.0
147
0.0
147
1.0
  0
MATERIAL
  5
1AA3
102
{ACAD_XDICTIONARY
360
1AA4
102
}
102
{ACAD_REACTORS
330
1AA2
102
}
330
1AA2
100
AcDbMaterial
  1
ByLayer
 72
     0
 43
0.0208333333333333
 43
0.0
 43
0.0
 43
0.0
 43
0.0
 43
0.0208333333333333
 43
0.0
 43
0.0
 43
0.0
 43
0.0
 43
1.0
 43
0.0
 43
0.0
 43
0.0
 43
0.0
 43
1.0
 77
     0
 47
0.0208333333333333
 47
0.0
 47
0.0
 47
0.0
 47
0.0
 47
0.0208333333333333
 47
0.0
 47
0.0
 47
0.0
 47
0.0
 47
1.0
 47
0.0
 47
0.0
 47
0.0
 47
0.0
 47
1.0
171
     0
 49
0.0208333333333333
 49
0.0
 49
0.0
 49
0.0
 49
0.0
 49
0.0208333333333333
 49
0.0
 49
0.0
 49
0.0
 49
0.0
 49
1.0
 49
0.0
 49
0.0
 49
0.0
 49
0.0
 49
1.0
175
     0
142
0.0208333333333333
142
0.0
142
0.0
142
0.0
142
0.0
142
0.0208333333333333
142
0.0
142
0.0
142
0.0
142
0.0
142
1.0
142
0.0
142
0.0
142
0.0
142
0.0
142
1.0
179
     0
144
0.0208333333333333
144
0.0
144
0.0
144
0.0
144
0.0
144
0.0208333333333333
144
0.0
144
0.0
144
0.0
144
0.0
144
1.0
144
0.0
144
0.0
144
0.0
144
0.0
144
1.0
147
0.0208333333333333
147
0.0
147
0.0
147
0.0
147
0.0
147
0.0208333333333333
147
0.0
147
0.0
147
0.0
147
0.0
147
1.0
147
0.0
147
0.0
147
0.0
147
0.0
147
1.0
  0
MATERIAL
  5
1AB3
102
{ACAD_XDICTIONARY
360
1AB4
102
}
102
{ACAD_REACTORS
330
1AA2
102
}
330
1AA2
100
AcDbMaterial
  1
Global
 72
     0
 43
0.0208333333333333
 43
0.0
 43
0.0
 43
0.0
 43
0.0
 43
0.0208333333333333
 43
0.0
 43
0.0
 43
0.0
 43
0.0
 43
1.0
 43
0.0
 43
0.0
 43
0.0
 43
0.0
 43
1.0
 77
     0
 47
0.0208333333333333
 47
0.0
 47
0.0
 47
0.0
 47
0.0
 47
0.0208333333333333
 47
0.0
 47
0.0
 47
0.0
 47
0.0
 47
1.0
 47
0.0
 47
0.0
 47
0.0
 47
0.0
 47
1.0
171
     0
 49
0.0208333333333333
 49
0.0
 49
0.0
 49
0.0
 49
0.0
 49
0.0208333333333333
 49
0.0
 49
0.0
 49
0.0
 49
0.0
 49
1.0
 49
0.0
 49
0.0
 49
0.0
 49
0.0
 49
1.0
175
     0
142
0.0208333333333333
142
0.0
142
0.0
142
0.0
142
0.0
142
0.0208333333333333
142
0.0
142
0.0
142
0.0
142
0.0
142
1.0
142
0.0
142
0.0
142
0.0
142
0.0
142
1.0
179
     0
144
0.0208333333333333
144
0.0
144
0.0
144
0.0
144
0.0
144
0.0208333333333333
144
0.0
144
0.0
144
0.0
144
0.0
144
1.0
144
0.0
144
0.0
144
0.0
144
0.0
144
1.0
147
0.0208333333333333
147
0.0
147
0.0
147
0.0
147
0.0
147
0.0208333333333333
147
0.0
147
0.0
147
0.0
147
0.0
147
1.0
147
0.0
147
0.0
147
0.0
147
0.0
147
1.0
  0
MLEADERSTYLE
  5
1AEA
102
{ACAD_REACTORS
330
1AE9
102
}
330
1AE9
100
AcDbMLeaderStyle
170
     2
171
     1
172
     0
 90
        2
 40
0.0
 41
0.0
173
     1
 91
-1056964608
340
12
 92
       -2
290
     1
 42
0.09
291
     1
 43
0.36
  3
Standard
 44
0.18
300

342
F
174
     1
178
     6
175
     1
176
     0
 93
-1056964608
 45
0.18
292
     0
297
     0
 46
0.18
 94
-1056964608
 47
1.0
 49
1.0
140
1.0
293
     1
141
0.0
294
     1
177
     0
142
1.0
295
     0
296
     0
143
0.125
1001
ACAD_MLEADERVER
1070
     2
  0
MLINESTYLE
  5
1C
102
{ACAD_REACTORS
330
1B
102
}
330
1B
100
AcDbMlineStyle
  2
STANDARD
 70
     0
  3

 62
   256
 51
90.0
 52
90.0
 71
     2
 49
0.5
 62
   256
  6
BYLAYER
 49
-0.5
 62
   256
  6
BYLAYER
  0
ACDBPLACEHOLDER
  5
1AA1
102
{ACAD_REACTORS
330
1AA0
102
}
330
1AA0
  0
SCALE
  5
1AD8
102
{ACAD_REACTORS
330
1AD7
102
}
330
1AD7
100
AcDbScale
 70
     0
300
1:1
140
1.0
141
1.0
290
     1
  0
SCALE
  5
1AD9
102
{ACAD_REACTORS
330
1AD7
102
}
330
1AD7
100
AcDbScale
 70
     0
300
1/128" = 1'-0"
140
0.0078125
141
12.0
290
     0
  0
SCALE
  5
1ADA
102
{ACAD_REACTORS
330
1AD7
102
}
330
1AD7
100
AcDbScale
 70
     0
300
1/64" = 1'-0"
140
0.015625
141
12.0
290
     0
  0
SCALE
  5
1ADB
102
{ACAD_REACTORS
330
1AD7
102
}
330
1AD7
100
AcDbScale
 70
     0
300
1/32" = 1'-0"
140
0.03125
141
12.0
290
     0
  0
SCALE
  5
1ADC
102
{ACAD_REACTORS
330
1AD7
102
}
330
1AD7
100
AcDbScale
 70
     0
300
1/16" = 1'-0"
140
0.0625
141
12.0
290
     0
  0
SCALE
  5
1ADD
102
{ACAD_REACTORS
330
1AD7
102
}
330
1AD7
100
AcDbScale
 70
     0
300
3/32" = 1'-0"
140
0.09375
141
12.0
290
     0
  0
SCALE
  5
1ADE
102
{ACAD_REACTORS
330
1AD7
102
}
330
1AD7
100
AcDbScale
 70
     0
300
1/8" = 1'-0"
140
0.125
141
12.0
290
     0
  0
SCALE
  5
1ADF
102
{ACAD_REACTORS
330
1AD7
102
}
330
1AD7
100
AcDbScale
 70
     0
300
3/16" = 1'-0"
140
0.1875
141
12.0
290
     0
  0
SCALE
  5
1AE0
102
{ACAD_REACTORS
330
1AD7
102
}
330
1AD7
100
AcDbScale
 70
     0
300
1/4" = 1'-0"
140
0.25
141
12.0
290
     0
  0
SCALE
  5
1AE1
102
{ACAD_REACTORS
330
1AD7
102
}
330
1AD7
100
AcDbScale
 70
     0
300
3/8" = 1'-0"
140
0.375
141
12.0
290
     0
  0
SCALE
  5
1AE2
102
{ACAD_REACTORS
330
1AD7
102
}
330
1AD7
100
AcDbScale
 70
     0
300
1/2" = 1'-0"
140
0.5
141
12.0
290
     0
  0
SCALE
  5
1AE3
102
{ACAD_REACTORS
330
1AD7
102
}
330
1AD7
100
AcDbScale
 70
     0
300
3/4" = 1'-0"
140
0.75
141
12.0
290
     0
  0
SCALE
  5
1AE4
102
{ACAD_REACTORS
330
1AD7
102
}
330
1AD7
100
AcDbScale
 70
     0
300
1" = 1'-0"
140
1.0
141
12.0
290
     0
  0
SCALE
  5
1AE5
102
{ACAD_REACTORS
330
1AD7
102
}
330
1AD7
100
AcDbScale
 70
     0
300
1-1/2" = 1'-0"
140
1.5
141
12.0
290
     0
  0
SCALE
  5
1AE6
102
{ACAD_REACTORS
330
1AD7
102
}
330
1AD7
100
AcDbScale
 70
     0
300
3" = 1'-0"
140
3.0
141
12.0
290
     0
  0
SCALE
  5
1AE7
102
{ACAD_REACTORS
330
1AD7
102
}
330
1AD7
100
AcDbScale
 70
     0
300
6" = 1'-0"
140
6.0
141
12.0
290
     0
  0
SCALE
  5
1AE8
102
{ACAD_REACTORS
330
1AD7
102
}
330
1AD7
100
AcDbScale
 70
     0
300
1'-0" = 1'-0"
140
12.0
141
12.0
290
     0
  0
ACDBSECTIONVIEWSTYLE
  5
1AEC
102
{ACAD_XDICTIONARY
360
1B46
102
}
102
{ACAD_REACTORS
330
1AEB
102
}
330
1AEB
100
AcDbModelDocViewStyle
 70
     0
  3
Imperial24
290
     0
100
AcDbSectionViewStyle
 70
     0
 71
     0
 90
       78
 71
     1
340
F
 40
0.24
340
0
340
0
 40
0.24
300
I, O, Q, S, X, Z
 40
0.48
 90
        3
 40
0.18
 90
        1
 71
     2
340
14
 90
       25
340
14
 90
       50
 40
0.24
 40
0.0
 40
0.24
 71
     3
340
F
 40
0.24
 90
        1
 40
0.75
 90
        1
300
%<\AcVar ViewType \f "%tc1">% %<\AcVar ViewSectionStartId>%-%<\AcVar ViewSectionEndId>%\PSCALE %<\AcVar ViewScale \f "%sn">%
 71
     4
300
ANSI31
 40
1.0
 90
        0
290
     0
290
     0
 90
        6
 40
0.0
 40
1.570796326794896
 40
0.2617993877991494
 40
1.308996938995747
 40
-0.2617993877991494
 40
1.832595714594046
  0
TABLESTYLE
  5
1AD6
102
{ACAD_XDICTIONARY
360
1B0D
102
}
102
{ACAD_REACTORS
330
1AD5
102
}
330
1AD5
100
AcDbTableStyle
  3
Standard
 70
     0
 71
     0
 40
0.06
 41
0.06
280
     0
281
     0
  7
STANDARD
140
0.18
170
     2
 62
     0
 63
     7
283
     0
274
    -2
284
     1
 64
     0
275
    -2
285
     1
 65
     0
276
    -2
286
     1
 66
     0
277
    -2
287
     1
 67
     0
278
    -2
288
     1
 68
     0
279
    -2
289
     1
 69
     0
  7
STANDARD
140
0.25
170
     5
 62
     0
 63
     7
283
     0
274
    -2
284
     1
 64
     0
275
    -2
285
     1
 65
     0
276
    -2
286
     1
 66
     0
277
    -2
287
     1
 67
     0
278
    -2
288
     1
 68
     0
279
    -2
289
     1
 69
     0
  7
STANDARD
140
0.18
170
     5
 62
     0
 63
     7
283
     0
274
    -2
284
     1
 64
     0
275
    -2
285
     1
 65
     0
276
    -2
286
     1
 66
     0
277
    -2
287
     1
 67
     0
278
    -2
288
     1
 68
     0
279
    -2
289
     1
 69
     0
  0
VISUALSTYLE
  5
1AC1
102
{ACAD_XDICTIONARY
360
1B1E
102
}
102
{ACAD_REACTORS
330
1ABB
102
}
330
1ABB
100
AcDbVisualStyle
  2
2dWireframe
 70
     4
 71
     0
 72
     2
 73
     0
 90
        0
 40
-0.6
 41
-30.0
 62
     5
 63
     7
 74
     1
 91
        4
 64
     7
 65
   257
 75
     1
175
     1
 42
1.0
 92
        0
 66
   257
 43
1.0
 76
     1
 77
     6
 78
     2
 67
     7
 79
     5
170
     0
171
     0
290
     0
174
     0
 93
        1
 44
0.0
173
     0
291
     0
 45
0.0
1001
ACAD
1000
AcDbSavedByObjectVersion
1070
     0
  0
VISUALSTYLE
  5
1AC0
102
{ACAD_XDICTIONARY
360
1B1C
102
}
102
{ACAD_REACTORS
330
1ABB
102
}
330
1ABB
100
AcDbVisualStyle
  2
Basic
 70
     7
 71
     1
 72
     0
 73
     1
 90
        0
 40
-0.6
 41
-30.0
 62
     5
 63
     7
 74
     0
 91
        4
 64
     7
 65
   257
 75
     1
175
     1
 42
1.0
 92
        8
 66
     7
 43
1.0
 76
     1
 77
     6
 78
     2
 67
     7
 79
     5
170
     0
171
     0
290
     0
174
     0
 93
        1
 44
0.0
173
     0
291
     1
 45
0.0
1001
ACAD
1000
AcDbSavedByObjectVersion
1070
     0
  0
VISUALSTYLE
  5
1AC7
102
{ACAD_XDICTIONARY
360
1B2A
102
}
102
{ACAD_REACTORS
330
1ABB
102
}
330
1ABB
100
AcDbVisualStyle
  2
Brighten
 70
    12
 71
     2
 72
     2
 73
     0
 90
        0
 40
-0.6
 41
-30.0
 62
     5
 63
     7
 74
     1
 91
        4
 64
     7
 65
   257
 75
     1
175
     1
 42
1.0
 92
        8
 66
     7
 43
1.0
 76
     1
 77
     6
 78
     2
 67
     7
 79
     5
170
     0
171
     0
290
     0
174
     0
 93
        1
 44
50.0
173
     0
291
     1
 45
0.0
1001
ACAD
1000
AcDbSavedByObjectVersion
1070
     0
  0
VISUALSTYLE
  5
1ACB
102
{ACAD_XDICTIONARY
360
1B32
102
}
102
{ACAD_REACTORS
330
1ABB
102
}
330
1ABB
100
AcDbVisualStyle
  2
ColorChange
 70
    16
 71
     2
 72
     2
 73
     3
 90
        0
 40
-0.6
 41
-30.0
 62
     5
 63
     8
 74
     1
 91
        4
 64
     7
 65
   257
 75
     1
175
     1
 42
1.0
 92
        8
 66
     8
 43
1.0
 76
     1
 77
     6
 78
     2
 67
     7
 79
     5
170
     0
171
     0
290
     0
174
     0
 93
        1
 44
0.0
173
     0
291
     1
 45
0.0
1001
ACAD
1000
AcDbSavedByObjectVersion
1070
     0
  0
VISUALSTYLE
  5
1AC4
102
{ACAD_XDICTIONARY
360
1B24
102
}
102
{ACAD_REACTORS
330
1ABB
102
}
330
1ABB
100
AcDbVisualStyle
  2
Conceptual
 70
     9
 71
     3
 72
     2
 73
     0
 90
        0
 40
-0.6
 41
-30.0
 62
     5
 63
     7
 74
     2
 91
        2
 64
     7
 65
   257
 75
     1
175
     1
 42
179.0
 92
        8
 66
     7
 43
1.0
 76
     1
 77
     6
 78
     2
 67
     7
 79
     3
170
     0
171
     0
290
     0
174
     0
 93
        1
 44
0.0
173
     0
291
     0
 45
0.0
1001
ACAD
1000
AcDbSavedByObjectVersion
1070
     0
  0
VISUALSTYLE
  5
1AC6
102
{ACAD_XDICTIONARY
360
1B28
102
}
102
{ACAD_REACTORS
330
1ABB
102
}
330
1ABB
100
AcDbVisualStyle
  2
Dim
 70
    11
 71
     2
 72
     2
 73
     0
 90
        0
 40
-0.6
 41
-30.0
 62
     5
 63
     7
 74
     1
 91
        4
 64
     7
 65
   257
 75
     1
175
     1
 42
1.0
 92
        8
 66
     7
 43
1.0
 76
     1
 77
     6
 78
     2
 67
     7
 79
     5
170
     0
171
     0
290
     0
174
     0
 93
        1
 44
-50.0
173
     0
291
     1
 45
0.0
1001
ACAD
1000
AcDbSavedByObjectVersion
1070
     0
  0
VISUALSTYLE
  5
1AD3
102
{ACAD_XDICTIONARY
360
1B42
102
}
102
{ACAD_REACTORS
330
1ABB
102
}
330
1ABB
100
AcDbVisualStyle
  2
EdgeColorOff
 70
    22
 71
     2
 72
     2
 73
     0
 90
        0
 40
-0.6
 41
-30.0
 62
     5
 63
     7
 74
     1
 91
        4
 64
     7
 65
   257
 75
     1
175
     1
 42
1.0
 92
        8
 66
     7
 43
1.0
 76
     1
 77
     6
 78
     2
 67
     7
 79
     5
170
     0
171
     0
290
     0
174
     0
 93
        1
 44
0.0
173
     0
291
     1
 45
0.0
1001
ACAD
1000
AcDbSavedByObjectVersion
1070
     0
  0
VISUALSTYLE
  5
1ACA
102
{ACAD_XDICTIONARY
360
1B30
102
}
102
{ACAD_REACTORS
330
1ABB
102
}
330
1ABB
100
AcDbVisualStyle
  2
Facepattern
 70
    15
 71
     2
 72
     2
 73
     0
 90
        0
 40
-0.6
 41
-30.0
 62
     5
 63
     7
 74
     1
 91
        4
 64
     7
 65
   257
 75
     1
175
     1
 42
1.0
 92
        8
 66
     7
 43
1.0
 76
     1
 77
     6
 78
     2
 67
     7
 79
     5
170
     0
171
     0
290
     0
174
     0
 93
        1
 44
0.0
173
     0
291
     1
 45
0.0
1001
ACAD
1000
AcDbSavedByObjectVersion
1070
     0
  0
VISUALSTYLE
  5
1ABC
102
{ACAD_XDICTIONARY
360
1B14
102
}
102
{ACAD_REACTORS
330
1ABB
102
}
330
1ABB
100
AcDbVisualStyle
  2
Flat
 70
     0
 71
     2
 72
     1
 73
     1
 90
        2
 40
-0.6
 41
30.0
 62
     5
 63
     7
 74
     0
 91
        0
 64
     7
 65
   257
 75
     1
175
     1
 42
1.0
 92
        8
 66
     7
 43
1.0
 76
     1
 77
     6
 78
     2
 67
     7
 79
     5
170
     0
171
     0
290
     0
174
     0
 93
       13
 44
0.0
173
     0
291
     1
 45
0.0
1001
ACAD
1000
AcDbSavedByObjectVersion
1070
     0
  0
VISUALSTYLE
  5
1ABD
102
{ACAD_XDICTIONARY
360
1B16
102
}
102
{ACAD_REACTORS
330
1ABB
102
}
330
1ABB
100
AcDbVisualStyle
  2
FlatWithEdges
 70
     1
 71
     2
 72
     1
 73
     1
 90
        2
 40
-0.6
 41
30.0
 62
     5
 63
     7
 74
     1
 91
        0
 64
     7
 65
   257
 75
     1
175
     1
 42
1.0
 92
        0
 66
   257
 43
1.0
 76
     1
 77
     6
 78
     2
 67
     7
 79
     5
170
     0
171
     0
290
     0
174
     0
 93
       13
 44
0.0
173
     0
291
     1
 45
0.0
1001
ACAD
1000
AcDbSavedByObjectVersion
1070
     0
  0
VISUALSTYLE
  5
1ABE
102
{ACAD_XDICTIONARY
360
1B18
102
}
102
{ACAD_REACTORS
330
1ABB
102
}
330
1ABB
100
AcDbVisualStyle
  2
Gouraud
 70
     2
 71
     2
 72
     2
 73
     1
 90
        2
 40
-0.6
 41
30.0
 62
     5
 63
     7
 74
     0
 91
        0
 64
     7
 65
   257
 75
     1
175
     1
 42
1.0
 92
        0
 66
     7
 43
1.0
 76
     1
 77
     6
 78
     2
 67
     7
 79
     5
170
     0
171
     0
290
     0
174
     0
 93
       13
 44
0.0
173
     0
291
     1
 45
0.0
1001
ACAD
1000
AcDbSavedByObjectVersion
1070
     0
  0
VISUALSTYLE
  5
1ABF
102
{ACAD_XDICTIONARY
360
1B1A
102
}
102
{ACAD_REACTORS
330
1ABB
102
}
330
1ABB
100
AcDbVisualStyle
  2
GouraudWithEdges
 70
     3
 71
     2
 72
     2
 73
     1
 90
        2
 40
-0.6
 41
30.0
 62
     5
 63
     7
 74
     1
 91
        0
 64
     7
 65
   257
 75
     1
175
     1
 42
1.0
 92
        0
 66
   257
 43
1.0
 76
     1
 77
     6
 78
     2
 67
     7
 79
     5
170
     0
171
     0
290
     0
174
     0
 93
       13
 44
0.0
173
     0
291
     1
 45
0.0
1001
ACAD
1000
AcDbSavedByObjectVersion
1070
     0
  0
VISUALSTYLE
  5
1AC3
102
{ACAD_XDICTIONARY
360
1B22
102
}
102
{ACAD_REACTORS
330
1ABB
102
}
330
1ABB
100
AcDbVisualStyle
  2
Hidden
 70
     6
 71
     1
 72
     2
 73
     2
 90
        0
 40
-0.6
 41
-30.0
 62
     5
 63
     7
 74
     2
 91
        2
 64
     7
 65
   257
 75
     2
175
     1
 42
40.0
 92
        0
 66
   257
 43
1.0
 76
     1
 77
     6
 78
     2
 67
     7
 79
     3
170
     0
171
     0
290
     0
174
     0
 93
        1
 44
0.0
173
     0
291
     0
 45
0.0
1001
ACAD
1000
AcDbSavedByObjectVersion
1070
     0
  0
VISUALSTYLE
  5
1AD1
102
{ACAD_XDICTIONARY
360
1B3E
102
}
102
{ACAD_REACTORS
330
1ABB
102
}
330
1ABB
100
AcDbVisualStyle
  2
JitterOff
 70
    20
 71
     2
 72
     2
 73
     0
 90
        0
 40
-0.6
 41
-30.0
 62
     5
 63
     7
 74
     1
 91
        4
 64
     7
 65
   257
 75
     1
175
     1
 42
1.0
 92
       10
 66
     7
 43
1.0
 76
     1
 77
     6
 78
     2
 67
     7
 79
     5
170
     0
171
     0
290
     0
174
     0
 93
        1
 44
0.0
173
     0
291
     1
 45
0.0
1001
ACAD
1000
AcDbSavedByObjectVersion
1070
     0
  0
VISUALSTYLE
  5
1AC9
102
{ACAD_XDICTIONARY
360
1B2E
102
}
102
{ACAD_REACTORS
330
1ABB
102
}
330
1ABB
100
AcDbVisualStyle
  2
Linepattern
 70
    14
 71
     2
 72
     2
 73
     0
 90
        0
 40
-0.6
 41
-30.0
 62
     5
 63
     7
 74
     1
 91
        4
 64
     7
 65
   257
 75
     7
175
     7
 42
1.0
 92
        8
 66
     7
 43
1.0
 76
     1
 77
     6
 78
     2
 67
     7
 79
     5
170
     0
171
     0
290
     0
174
     0
 93
        1
 44
0.0
173
     0
291
     1
 45
0.0
1001
ACAD
1000
AcDbSavedByObjectVersion
1070
     0
  0
VISUALSTYLE
  5
1AD2
102
{ACAD_XDICTIONARY
360
1B40
102
}
102
{ACAD_REACTORS
330
1ABB
102
}
330
1ABB
100
AcDbVisualStyle
  2
OverhangOff
 70
    21
 71
     2
 72
     2
 73
     0
 90
        0
 40
-0.6
 41
-30.0
 62
     5
 63
     7
 74
     1
 91
        4
 64
     7
 65
   257
 75
     1
175
     1
 42
1.0
 92
        9
 66
     7
 43
1.0
 76
     1
 77
     6
 78
     2
 67
     7
 79
     5
170
     0
171
     0
290
     0
174
     0
 93
        1
 44
0.0
173
     0
291
     1
 45
0.0
1001
ACAD
1000
AcDbSavedByObjectVersion
1070
     0
  0
VISUALSTYLE
  5
1AC5
102
{ACAD_XDICTIONARY
360
1B26
102
}
102
{ACAD_REACTORS
330
1ABB
102
}
330
1ABB
100
AcDbVisualStyle
  2
Realistic
 70
     8
 71
     2
 72
     3
 73
     0
 90
        2
 40
-0.6
 41
30.0
 62
     5
 63
     7
 74
     0
 91
        0
 64
     7
 65
   257
 75
     1
175
     1
 42
1.0
 92
        8
 66
   257
 43
1.0
 76
     1
 77
     6
 78
     2
 67
     7
 79
     3
170
     0
171
     0
290
     0
174
     0
 93
       13
 44
0.0
173
     0
291
     0
 45
0.0
1001
ACAD
1000
AcDbSavedByObjectVersion
1070
     0
  0
VISUALSTYLE
  5
1AD0
102
{ACAD_XDICTIONARY
360
1B3C
102
}
102
{ACAD_REACTORS
330
1ABB
102
}
330
1ABB
100
AcDbVisualStyle
  2
Shaded
 70
    27
 71
     2
 72
     2
 73
     1
 90
        2
 40
-0.6
 41
30.0
 62
     5
 63
     7
 74
     0
 91
        4
 64
     7
 65
   257
 75
     1
175
     1
 42
1.0
 92
        8
 66
   257
 43
1.0
 76
     1
 77
     6
 78
     2
 67
     8
 79
     3
170
     0
171
     0
290
     0
174
     0
 93
        5
 44
0.0
173
     0
291
     0
 45
0.0
1001
ACAD
1000
AcDbSavedByObjectVersion
1070
     0
  0
VISUALSTYLE
  5
1ACF
102
{ACAD_XDICTIONARY
360
1B3A
102
}
102
{ACAD_REACTORS
330
1ABB
102
}
330
1ABB
100
AcDbVisualStyle
  2
Shaded with edges
 70
    26
 71
     2
 72
     2
 73
     1
 90
        2
 40
-0.6
 41
30.0
 62
     5
 63
     7
 74
     1
 91
       10
 64
     7
 65
   257
 75
     2
175
     1
 42
1.0
 92
        8
 66
   257
 43
1.0
 76
     1
 77
     6
 78
     2
 67
     7
 79
     3
170
     0
171
     0
290
     0
174
     0
 93
        5
 44
0.0
173
     0
291
     0
 45
0.0
1001
ACAD
1000
AcDbSavedByObjectVersion
1070
     0
  0
VISUALSTYLE
  5
1ACC
102
{ACAD_XDICTIONARY
360
1B34
102
}
102
{ACAD_REACTORS
330
1ABB
102
}
330
1ABB
100
AcDbVisualStyle
  2
Shades of Gray
 70
    23
 71
     2
 72
     2
 73
     3
 90
        0
 40
-0.6
 41
-30.0
 62
     5
 63
     7
 74
     2
 91
        2
 64
     7
 65
     7
 75
     1
175
     1
 42
40.0
 92
        8
 66
     7
 43
1.0
 76
     1
 77
     6
 78
     2
 67
     7
 79
     3
170
     0
171
     0
290
     0
174
     0
 93
        1
 44
0.0
173
     0
291
     0
 45
0.0
1001
ACAD
1000
AcDbSavedByObjectVersion
1070
     0
  0
VISUALSTYLE
  5
1ACD
102
{ACAD_XDICTIONARY
360
1B36
102
}
102
{ACAD_REACTORS
330
1ABB
102
}
330
1ABB
100
AcDbVisualStyle
  2
Sketchy
 70
    24
 71
     1
 72
     2
 73
     2
 90
        0
 40
-0.6
 41
-30.0
 62
     5
 63
     7
 74
     2
 91
        2
 64
     7
 65
     7
 75
     1
175
     1
 42
40.0
 92
       11
 66
     7
 43
1.0
 76
     1
 77
     6
 78
     2
 67
     7
 79
     6
170
     0
171
     0
290
     0
174
     0
 93
        1
 44
0.0
173
     0
291
     0
 45
0.0
1001
ACAD
1000
AcDbSavedByObjectVersion
1070
     0
  0
VISUALSTYLE
  5
1AC8
102
{ACAD_XDICTIONARY
360
1B2C
102
}
102
{ACAD_REACTORS
330
1ABB
102
}
330
1ABB
100
AcDbVisualStyle
  2
Thicken
 70
    13
 71
     2
 72
     2
 73
     0
 90
        0
 40
-0.6
 41
-30.0
 62
     5
 63
     7
 74
     1
 91
        4
 64
     7
 65
   257
 75
     1
175
     1
 42
1.0
 92
       12
 66
     7
 43
1.0
 76
     1
 77
     6
 78
     2
 67
     7
 79
     5
170
     0
171
     0
290
     0
174
     0
 93
        1
 44
0.0
173
     0
291
     1
 45
0.0
1001
ACAD
1000
AcDbSavedByObjectVersion
1070
     0
  0
VISUALSTYLE
  5
1AC2
102
{ACAD_XDICTIONARY
360
1B20
102
}
102
{ACAD_REACTORS
330
1ABB
102
}
330
1ABB
100
AcDbVisualStyle
  2
Wireframe
 70
     5
 71
     0
 72
     2
 73
     0
 90
        0
 40
-0.6
 41
-30.0
 62
     5
 63
     7
 74
     1
 91
        4
 64
     7
 65
   257
 75
     1
175
     1
 42
1.0
 92
        0
 66
   257
 43
1.0
 76
     1
 77
     6
 78
     2
 67
     7
 79
     3
170
     0
171
     0
290
     0
174
     0
 93
        1
 44
0.0
173
     0
291
     0
 45
0.0
1001
ACAD
1000
AcDbSavedByObjectVersion
1070
     0
  0
VISUALSTYLE
  5
1ACE
102
{ACAD_XDICTIONARY
360
1B38
102
}
102
{ACAD_REACTORS
330
1ABB
102
}
330
1ABB
100
AcDbVisualStyle
  2
X-Ray
 70
    25
 71
     2
 72
     2
 73
     1
 90
        1
 40
0.5
 41
-30.0
 62
     5
 63
     7
 74
     1
 91
        0
 64
     7
 65
   257
 75
     1
175
     1
 42
1.0
 92
        8
 66
     7
 43
1.0
 76
     1
 77
     6
 78
     2
 67
     7
 79
     3
170
     0
171
     0
290
     0
174
     0
 93
       13
 44
0.0
173
     0
291
     0
 45
0.0
1001
ACAD
1000
AcDbSavedByObjectVersion
1070
     0
  0
DICTIONARYVAR
  5
1B07
102
{ACAD_REACTORS
330
1B02
102
}
330
1B02
100
DictionaryVariables
280
     0
  1
1:1
  0
DICTIONARYVAR
  5
1B04
102
{ACAD_REACTORS
330
1B02
102
}
330
1B02
100
DictionaryVariables
280
     0
  1
STANDARD
  0
DICTIONARYVAR
  5
1B03
102
{ACAD_REACTORS
330
1B02
102
}
330
1B02
100
DictionaryVariables
280
     0
  1
STANDARD
  0
DICTIONARYVAR
  5
1B05
102
{ACAD_REACTORS
330
1B02
102
}
330
1B02
100
DictionaryVariables
280
     0
  1
Imperial24
  0
DICTIONARYVAR
  5
1B06
102
{ACAD_REACTORS
330
1B02
102
}
330
1B02
100
DictionaryVariables
280
     0
  1
Imperial24
  0
DICTIONARYVAR
  5
1B0A
102
{ACAD_REACTORS
330
1B02
102
}
330
1B02
100
DictionaryVariables
280
     0
  1
1
  0
DICTIONARYVAR
  5
1B09
102
{ACAD_REACTORS
330
1B02
102
}
330
1B02
100
DictionaryVariables
280
     0
  1
0
  0
DICTIONARYVAR
  5
1B08
102
{ACAD_REACTORS
330
1B02
102
}
330
1B02
100
DictionaryVariables
280
     0
  1
127
  0
DICTIONARYVAR
  5
1B0B
102
{ACAD_REACTORS
330
1B02
102
}
330
1B02
100
DictionaryVariables
280
     0
  1
2
  0
DICTIONARY
  5
1B48
330
1AEE
100
AcDbDictionary
280
     1
281
     1
  3
ACAD_XREC_ROUNDTRIP
360
1B49
  0
DICTIONARY
  5
1B4A
330
1AEF
100
AcDbDictionary
280
     1
281
     1
  3
ACAD_XREC_ROUNDTRIP
360
1B4B
  0
DICTIONARY
  5
1B4C
330
1AF0
100
AcDbDictionary
280
     1
281
     1
  3
ACAD_XREC_ROUNDTRIP
360
1B4D
  0
DICTIONARY
  5
1AAC
330
1AAB
100
AcDbDictionary
280
     1
281
     1
  3
ACAD_XREC_ROUNDTRIP
360
1B12
  3
BUMPTILE
360
1AAE
  3
DIFFUSETILE
360
1AAD
  3
OPACITYTILE
360
1AB1
  3
REFLECTIONTILE
360
1AB0
  3
REFRACTIONTILE
360
1AB2
  3
SPECULARTILE
360
1AAF
  0
DICTIONARY
  5
1AA4
330
1AA3
100
AcDbDictionary
280
     1
281
     1
  3
ACAD_XREC_ROUNDTRIP
360
1B11
  3
BUMPTILE
360
1AA6
  3
DIFFUSETILE
360
1AA5
  3
OPACITYTILE
360
1AA9
  3
REFLECTIONTILE
360
1AA8
  3
REFRACTIONTILE
360
1AAA
  3
SPECULARTILE
360
1AA7
  0
DICTIONARY
  5
1AB4
330
1AB3
100
AcDbDictionary
280
     1
281
     1
  3
ACAD_XREC_ROUNDTRIP
360
1B13
  3
BUMPTILE
360
1AB6
  3
DIFFUSETILE
360
1AB5
  3
OPACITYTILE
360
1AB9
  3
REFLECTIONTILE
360
1AB8
  3
REFRACTIONTILE
360
1ABA
  3
SPECULARTILE
360
1AB7
  0
DICTIONARY
  5
1B46
330
1AEC
100
AcDbDictionary
280
     1
281
     1
  3
ACAD_XREC_ROUNDTRIP
360
1B47
  0
DICTIONARY
  5
1B0D
330
1AD6
100
AcDbDictionary
280
     1
281
     1
  3
ACAD_ROUNDTRIP_2008_TABLESTYLE_CELLSTYLEMAP
360
1B0E
  3
ACAD_XREC_ROUNDTRIP
360
1B44
  0
DICTIONARY
  5
1B1E
330
1AC1
100
AcDbDictionary
280
     1
281
     1
  3
ACAD_XREC_ROUNDTRIP
360
1B1F
  0
DICTIONARY
  5
1B1C
330
1AC0
100
AcDbDictionary
280
     1
281
     1
  3
ACAD_XREC_ROUNDTRIP
360
1B1D
  0
DICTIONARY
  5
1B2A
330
1AC7
100
AcDbDictionary
280
     1
281
     1
  3
ACAD_XREC_ROUNDTRIP
360
1B2B
  0
DICTIONARY
  5
1B32
330
1ACB
100
AcDbDictionary
280
     1
281
     1
  3
ACAD_XREC_ROUNDTRIP
360
1B33
  0
DICTIONARY
  5
1B24
330
1AC4
100
AcDbDictionary
280
     1
281
     1
  3
ACAD_XREC_ROUNDTRIP
360
1B25
  0
DICTIONARY
  5
1B28
330
1AC6
100
AcDbDictionary
280
     1
281
     1
  3
ACAD_XREC_ROUNDTRIP
360
1B29
  0
DICTIONARY
  5
1B42
330
1AD3
100
AcDbDictionary
280
     1
281
     1
  3
ACAD_XREC_ROUNDTRIP
360
1B43
  0
DICTIONARY
  5
1B30
330
1ACA
100
AcDbDictionary
280
     1
281
     1
  3
ACAD_XREC_ROUNDTRIP
360
1B31
  0
DICTIONARY
  5
1B14
330
1ABC
100
AcDbDictionary
280
     1
281
     1
  3
ACAD_XREC_ROUNDTRIP
360
1B15
  0
DICTIONARY
  5
1B16
330
1ABD
100
AcDbDictionary
280
     1
281
     1
  3
ACAD_XREC_ROUNDTRIP
360
1B17
  0
DICTIONARY
  5
1B18
330
1ABE
100
AcDbDictionary
280
     1
281
     1
  3
ACAD_XREC_ROUNDTRIP
360
1B19
  0
DICTIONARY
  5
1B1A
330
1ABF
100
AcDbDictionary
280
     1
281
     1
  3
ACAD_XREC_ROUNDTRIP
360
1B1B
  0
DICTIONARY
  5
1B22
330
1AC3
100
AcDbDictionary
280
     1
281
     1
  3
ACAD_XREC_ROUNDTRIP
360
1B23
  0
DICTIONARY
  5
1B3E
330
1AD1
100
AcDbDictionary
280
     1
281
     1
  3
ACAD_XREC_ROUNDTRIP
360
1B3F
  0
DICTIONARY
  5
1B2E
330
1AC9
100
AcDbDictionary
280
     1
281
     1
  3
ACAD_XREC_ROUNDTRIP
360
1B2F
  0
DICTIONARY
  5
1B40
330
1AD2
100
AcDbDictionary
280
     1
281
     1
  3
ACAD_XREC_ROUNDTRIP
360
1B41
  0
DICTIONARY
  5
1B26
330
1AC5
100
AcDbDictionary
280
     1
281
     1
  3
ACAD_XREC_ROUNDTRIP
360
1B27
  0
DICTIONARY
  5
1B3C
330
1AD0
100
AcDbDictionary
280
     1
281
     1
  3
ACAD_XREC_ROUNDTRIP
360
1B3D
  0
DICTIONARY
  5
1B3A
330
1ACF
100
AcDbDictionary
280
     1
281
     1
  3
ACAD_XREC_ROUNDTRIP
360
1B3B
  0
DICTIONARY
  5
1B34
330
1ACC
100
AcDbDictionary
280
     1
281
     1
  3
ACAD_XREC_ROUNDTRIP
360
1B35
  0
DICTIONARY
  5
1B36
330
1ACD
100
AcDbDictionary
280
     1
281
     1
  3
ACAD_XREC_ROUNDTRIP
360
1B37
  0
DICTIONARY
  5
1B2C
330
1AC8
100
AcDbDictionary
280
     1
281
     1
  3
ACAD_XREC_ROUNDTRIP
360
1B2D
  0
DICTIONARY
  5
1B20
330
1AC2
100
AcDbDictionary
280
     1
281
     1
  3
ACAD_XREC_ROUNDTRIP
360
1B21
  0
DICTIONARY
  5
1B38
330
1ACE
100
AcDbDictionary
280
     1
281
     1
  3
ACAD_XREC_ROUNDTRIP
360
1B39
  0
XRECORD
  5
1B49
102
{ACAD_REACTORS
330
1B48
102
}
330
1B48
100
AcDbXrecord
280
     1
102
DISPLAYNAME
  1
Imperial24
102
FLAGS
 90
        0
  0
XRECORD
  5
1B4B
102
{ACAD_REACTORS
330
1B4A
102
}
330
1B4A
100
AcDbXrecord
280
     1
102
SHADEPLOT
 70
     0
102
SHADEPLOTRESLEVEL
 70
     2
102
SHADEPLOTCUSTOMDPI
 70
   300
  0
XRECORD
  5
1B4D
102
{ACAD_REACTORS
330
1B4C
102
}
330
1B4C
100
AcDbXrecord
280
     1
102
SHADEPLOT
 70
     0
102
SHADEPLOTRESLEVEL
 70
     2
102
SHADEPLOTCUSTOMDPI
 70
   300
  0
XRECORD
  5
1B12
102
{ACAD_REACTORS
330
1AAC
102
}
330
1AAC
100
AcDbXrecord
280
     1
102
MATERIAL
148
0.0
149
0.0
149
0.0
 93
        0
 94
      127
282
     0
 72
     0
 77
     0
171
     0
175
     0
179
     0
273
     0
  0
XRECORD
  5
1AAE
102
{ACAD_REACTORS
330
1AAC
102
}
330
1AAC
100
AcDbXrecord
280
     1
270
     1
271
     1
  0
XRECORD
  5
1AAD
102
{ACAD_REACTORS
330
1AAC
102
}
330
1AAC
100
AcDbXrecord
280
     1
270
     1
271
     1
  0
XRECORD
  5
1AB1
102
{ACAD_REACTORS
330
1AAC
102
}
330
1AAC
100
AcDbXrecord
280
     1
270
     1
271
     1
  0
XRECORD
  5
1AB0
102
{ACAD_REACTORS
330
1AAC
102
}
330
1AAC
100
AcDbXrecord
280
     1
270
     1
271
     1
  0
XRECORD
  5
1AB2
102
{ACAD_REACTORS
330
1AAC
102
}
330
1AAC
100
AcDbXrecord
280
     1
270
     1
271
     1
  0
XRECORD
  5
1AAF
102
{ACAD_REACTORS
330
1AAC
102
}
330
1AAC
100
AcDbXrecord
280
     1
270
     1
271
     1
  0
XRECORD
  5
1B11
102
{ACAD_REACTORS
330
1AA4
102
}
330
1AA4
100
AcDbXrecord
280
     1
102
MATERIAL
148
0.0
149
0.0
149
0.0
 93
        0
 94
      127
282
     0
 72
     0
 77
     0
171
     0
175
     0
179
     0
273
     0
  0
XRECORD
  5
1AA6
102
{ACAD_REACTORS
330
1AA4
102
}
330
1AA4
100
AcDbXrecord
280
     1
270
     1
271
     1
  0
XRECORD
  5
1AA5
102
{ACAD_REACTORS
330
1AA4
102
}
330
1AA4
100
AcDbXrecord
280
     1
270
     1
271
     1
  0
XRECORD
  5
1AA9
102
{ACAD_REACTORS
330
1AA4
102
}
330
1AA4
100
AcDbXrecord
280
     1
270
     1
271
     1
  0
XRECORD
  5
1AA8
102
{ACAD_REACTORS
330
1AA4
102
}
330
1AA4
100
AcDbXrecord
280
     1
270
     1
271
     1
  0
XRECORD
  5
1AAA
102
{ACAD_REACTORS
330
1AA4
102
}
330
1AA4
100
AcDbXrecord
280
     1
270
     1
271
     1
  0
XRECORD
  5
1AA7
102
{ACAD_REACTORS
330
1AA4
102
}
330
1AA4
100
AcDbXrecord
280
     1
270
     1
271
     1
  0
XRECORD
  5
1B13
102
{ACAD_REACTORS
330
1AB4
102
}
330
1AB4
100
AcDbXrecord
280
     1
102
MATERIAL
148
0.0
149
0.0
149
0.0
 93
        0
 94
      127
282
     0
 72
     0
 77
     0
171
     0
175
     0
179
     0
273
     0
  0
XRECORD
  5
1AB6
102
{ACAD_REACTORS
330
1AB4
102
}
330
1AB4
100
AcDbXrecord
280
     1
270
     1
271
     1
  0
XRECORD
  5
1AB5
102
{ACAD_REACTORS
330
1AB4
102
}
330
1AB4
100
AcDbXrecord
280
     1
270
     1
271
     1
  0
XRECORD
  5
1AB9
102
{ACAD_REACTORS
330
1AB4
102
}
330
1AB4
100
AcDbXrecord
280
     1
270
     1
271
     1
  0
XRECORD
  5
1AB8
102
{ACAD_REACTORS
330
1AB4
102
}
330
1AB4
100
AcDbXrecord
280
     1
270
     1
271
     1
  0
XRECORD
  5
1ABA
102
{ACAD_REACTORS
330
1AB4
102
}
330
1AB4
100
AcDbXrecord
280
     1
270
     1
271
     1
  0
XRECORD
  5
1AB7
102
{ACAD_REACTORS
330
1AB4
102
}
330
1AB4
100
AcDbXrecord
280
     1
270
     1
271
     1
  0
XRECORD
  5
1B47
102
{ACAD_REACTORS
330
1B46
102
}
330
1B46
100
AcDbXrecord
280
     1
102
DISPLAYNAME
  1
Imperial24
102
FLAGS
 90
        0
  0
CELLSTYLEMAP
  5
1B0E
102
{ACAD_REACTORS
330
1B0D
102
}
330
1B0D
100
AcDbCellStyleMap
 90
        3
300
CELLSTYLE
  1
TABLEFORMAT_BEGIN
 90
        5
170
     1
 91
        0
 92
    32768
 62
   257
 93
        1
300
CONTENTFORMAT
  1
CONTENTFORMAT_BEGIN
 90
        0
 91
        0
 92
      512
 93
        0
300

 40
0.0
140
1.0
 94
        5
 62
     0
340
F
144
0.25
309
CONTENTFORMAT_END
171
     0
 94
        0
309
TABLEFORMAT_END
  1
CELLSTYLE_BEGIN
 90
        1
 91
        1
300
_TITLE
309
CELLSTYLE_END
300
CELLSTYLE
  1
TABLEFORMAT_BEGIN
 90
        5
170
     1
 91
        0
 92
        0
 62
   257
 93
        1
300
CONTENTFORMAT
  1
CONTENTFORMAT_BEGIN
 90
        0
 91
        0
 92
      512
 93
        0
300

 40
0.0
140
1.0
 94
        5
 62
     0
340
F
144
0.18
309
CONTENTFORMAT_END
171
     0
 94
        0
309
TABLEFORMAT_END
  1
CELLSTYLE_BEGIN
 90
        2
 91
        1
300
_HEADER
309
CELLSTYLE_END
300
CELLSTYLE
  1
TABLEFORMAT_BEGIN
 90
        5
170
     1
 91
        0
 92
        0
 62
   257
 93
        1
300
CONTENTFORMAT
  1
CONTENTFORMAT_BEGIN
 90
        0
 91
        0
 92
      512
 93
        0
300

 40
0.0
140
1.0
 94
        2
 62
     0
340
F
144
0.18
309
CONTENTFORMAT_END
171
     0
 94
        0
309
TABLEFORMAT_END
  1
CELLSTYLE_BEGIN
 90
        3
 91
        2
300
_DATA
309
CELLSTYLE_END
  0
XRECORD
  5
1B44
102
{ACAD_REACTORS
330
1B0D
102
}
330
1B0D
100
AcDbXrecord
280
     1
102
ACAD_ROUNDTRIP_PRE2007_TABLESTYLE
 90
      512
 91
        0
  1

 92
      512
 93
        0
  2

 94
      512
 95
        0
  3

  0
XRECORD
  5
1B1F
102
{ACAD_REACTORS
330
1B1E
102
}
330
1B1E
100
AcDbXrecord
280
     1
102
RTVSPost2010Prop28
280
     1
102
RTVSPost2010PropOp28
 70
     1
102
RTVSPost2010Prop29
280
     1
102
RTVSPost2010PropOp29
 70
     1
102
RTVSPost2010Prop30
280
     0
102
RTVSPost2010PropOp30
 70
     1
102
RTVSPost2010Prop31
280
     0
102
RTVSPost2010PropOp31
 70
     1
102
RTVSPost2010Prop32
280
     0
102
RTVSPost2010PropOp32
 70
     1
102
RTVSPost2010Prop33
280
     0
102
RTVSPost2010PropOp33
 70
     1
102
RTVSPost2010Prop34
280
     0
102
RTVSPost2010PropOp34
 70
     1
102
RTVSPost2010Prop35
280
     0
102
RTVSPost2010PropOp35
 70
     1
102
RTVSPost2010Prop36
280
     0
102
RTVSPost2010PropOp36
 70
     1
102
RTVSPost2010Prop37
 90
       50
102
RTVSPost2010PropOp37
 70
     1
102
RTVSPost2010Prop38
140
0.0
102
RTVSPost2010PropOp38
 70
     1
102
RTVSPost2010Prop39
140
1.0
102
RTVSPost2010PropOp39
 70
     1
102
RTVSPost2010Prop40
 90
        0
102
RTVSPost2010PropOp40
 70
     1
102
RTVSPost2010Prop41ColorIndex
 90
       18
102
RTVSPost2010Prop41ColorRGB
 90
        0
102
RTVSPost2010PropOp41
 70
     1
102
RTVSPost2010Prop42
 90
       50
102
RTVSPost2010PropOp42
 70
     1
102
RTVSPost2010Prop43
 90
        3
102
RTVSPost2010PropOp43
 70
     1
102
RTVSPost2010Prop44ColorIndex
 90
        5
102
RTVSPost2010Prop44ColorRGB
 90
      255
102
RTVSPost2010PropOp44
 70
     1
102
RTVSPost2010Prop45
280
     0
102
RTVSPost2010PropOp45
 70
     1
102
RTVSPost2010Prop46
 90
       50
102
RTVSPost2010PropOp46
 70
     1
102
RTVSPost2010Prop47
 90
       50
102
RTVSPost2010PropOp47
 70
     1
102
RTVSPost2010Prop48
 90
       50
102
RTVSPost2010PropOp48
 70
     1
102
RTVSPost2010Prop49
280
     0
102
RTVSPost2010PropOp49
 70
     1
102
RTVSPost2010Prop50
 90
       50
102
RTVSPost2010PropOp50
 70
     1
102
RTVSPost2010Prop51ColorIndex
 90
      256
102
RTVSPost2010Prop51ColorRGB
 90
-16777216
102
RTVSPost2010PropOp51
 70
     0
102
RTVSPost2010Prop52
140
1.0
102
RTVSPost2010PropOp52
 70
     0
102
RTVSPost2010Prop53
 90
        2
102
RTVSPost2010PropOp53
 70
     1
102
RTVSPost2010Prop54
  1
strokes_ogs.tif
102
RTVSPost2010PropOp54
 70
     1
102
RTVSPost2010Prop55
280
     0
102
RTVSPost2010PropOp55
 70
     1
102
RTVSPost2010Prop56
140
1.0
102
RTVSPost2010PropOp56
 70
     1
102
RTVSPost2010Prop57
140
1.0
102
RTVSPost2010PropOp57
 70
     1
102
RTVSPropertyOp0
 70
     1
102
RTVSPropertyOp1
 70
     1
102
RTVSPropertyOp2
 70
     1
102
RTVSPropertyOp3
 70
     1
102
RTVSPropertyOp4
 70
     1
102
RTVSPropertyOp5
 70
     1
102
RTVSPropertyOp6
 70
     1
102
RTVSPropertyOp7
 70
     1
102
RTVSPropertyOp8
 70
     1
102
RTVSPropertyOp9
 70
     1
102
RTVSPropertyOp10
 70
     1
102
RTVSPropertyOp11
 70
     1
102
RTVSPropertyOp12
 70
     1
102
RTVSPropertyOp13
 70
     1
102
RTVSPropertyOp14
 70
     1
102
RTVSPropertyOp15
 70
     1
102
RTVSPropertyOp16
 70
     1
102
RTVSPropertyOp17
 70
     1
102
RTVSPropertyOp18
 70
     1
102
RTVSPropertyOp19
 70
     1
102
RTVSPropertyOp20
 70
     1
102
RTVSPropertyOp21
 70
     1
102
RTVSPropertyOp22
 70
     1
102
RTVSPropertyOp23
 70
     1
102
RTVSPropertyOp24
 70
     1
102
RTVSPropertyOp25
 70
     1
102
RTVSPropertyOp26
 70
     1
102
RTVSPropertyOp27
 70
     1
102
RTVSPropertyOp28
 70
     1
102
RTVSPropertyOp29
 70
     1
102
RTVSPropertyOp30
 70
     1
102
RTVSPropertyOp31
 70
     1
102
RTVSPropertyOp32
 70
     1
102
RTVSPropertyOp33
 70
     1
102
RTVSPropertyOp34
 70
     1
102
RTVSPropertyOp35
 70
     1
102
RTVSPropertyOp36
 70
     1
102
RTVSPropertyOp37
 70
     1
102
RTVSPropertyOp38
 70
     1
102
RTVSPropertyOp39
 70
     1
102
RTVSPropertyOp40
 70
     1
102
RTVSPropertyOp41
 70
     1
102
RTVSPropertyOp42
 70
     1
102
RTVSPropertyOp43
 70
     1
102
RTVSPropertyOp44
 70
     1
102
RTVSPropertyOp45
 70
     1
102
RTVSPropertyOp46
 70
     1
102
RTVSPropertyOp47
 70
     1
102
RTVSPropertyOp48
 70
     1
102
RTVSPropertyOp49
 70
     1
102
RTVSPropertyOp50
 70
     1
102
RTVSPropertyOp51
 70
     0
102
RTVSPropertyOp52
 70
     0
102
RTVSPropertyOp53
 70
     1
102
RTVSPropertyOp54
 70
     1
102
RTVSPropertyOp55
 70
     1
102
RTVSPropertyOp56
 70
     1
102
RTVSPropertyOp57
 70
     1
102
RTVSPropertyOp58
 70
     1
102
RTVSPropertyOp59
 70
     1
102
RTVSPropertyOp60
 70
     1
102
RTVSPropertyOp61
 70
     1
102
RTVSPropertyOp62
 70
     1
  0
XRECORD
  5
1B1D
102
{ACAD_REACTORS
330
1B1C
102
}
330
1B1C
100
AcDbXrecord
280
     1
102
RTVSPost2010Prop28
280
     0
102
RTVSPost2010PropOp28
 70
     1
102
RTVSPost2010Prop29
280
     1
102
RTVSPost2010PropOp29
 70
     1
102
RTVSPost2010Prop30
280
     1
102
RTVSPost2010PropOp30
 70
     1
102
RTVSPost2010Prop31
280
     0
102
RTVSPost2010PropOp31
 70
     1
102
RTVSPost2010Prop32
280
     0
102
RTVSPost2010PropOp32
 70
     1
102
RTVSPost2010Prop33
280
     0
102
RTVSPost2010PropOp33
 70
     1
102
RTVSPost2010Prop34
280
     0
102
RTVSPost2010PropOp34
 70
     1
102
RTVSPost2010Prop35
280
     0
102
RTVSPost2010PropOp35
 70
     1
102
RTVSPost2010Prop36
280
     0
102
RTVSPost2010PropOp36
 70
     1
102
RTVSPost2010Prop37
 90
       50
102
RTVSPost2010PropOp37
 70
     1
102
RTVSPost2010Prop38
140
0.0
102
RTVSPost2010PropOp38
 70
     1
102
RTVSPost2010Prop39
140
1.0
102
RTVSPost2010PropOp39
 70
     1
102
RTVSPost2010Prop40
 90
        0
102
RTVSPost2010PropOp40
 70
     1
102
RTVSPost2010Prop41ColorIndex
 90
       18
102
RTVSPost2010Prop41ColorRGB
 90
        0
102
RTVSPost2010PropOp41
 70
     1
102
RTVSPost2010Prop42
 90
       50
102
RTVSPost2010PropOp42
 70
     1
102
RTVSPost2010Prop43
 90
        3
102
RTVSPost2010PropOp43
 70
     1
102
RTVSPost2010Prop44ColorIndex
 90
        5
102
RTVSPost2010Prop44ColorRGB
 90
      255
102
RTVSPost2010PropOp44
 70
     1
102
RTVSPost2010Prop45
280
     0
102
RTVSPost2010PropOp45
 70
     1
102
RTVSPost2010Prop46
 90
       50
102
RTVSPost2010PropOp46
 70
     1
102
RTVSPost2010Prop47
 90
       50
102
RTVSPost2010PropOp47
 70
     1
102
RTVSPost2010Prop48
 90
       50
102
RTVSPost2010PropOp48
 70
     1
102
RTVSPost2010Prop49
280
     0
102
RTVSPost2010PropOp49
 70
     1
102
RTVSPost2010Prop50
 90
       50
102
RTVSPost2010PropOp50
 70
     1
102
RTVSPost2010Prop51ColorIndex
 90
      256
102
RTVSPost2010Prop51ColorRGB
 90
-16777216
102
RTVSPost2010PropOp51
 70
     0
102
RTVSPost2010Prop52
140
1.0
102
RTVSPost2010PropOp52
 70
     0
102
RTVSPost2010Prop53
 90
        2
102
RTVSPost2010PropOp53
 70
     1
102
RTVSPost2010Prop54
  1
strokes_ogs.tif
102
RTVSPost2010PropOp54
 70
     1
102
RTVSPost2010Prop55
280
     0
102
RTVSPost2010PropOp55
 70
     1
102
RTVSPost2010Prop56
140
1.0
102
RTVSPost2010PropOp56
 70
     1
102
RTVSPost2010Prop57
140
1.0
102
RTVSPost2010PropOp57
 70
     1
102
RTVSPropertyOp0
 70
     1
102
RTVSPropertyOp1
 70
     1
102
RTVSPropertyOp2
 70
     1
102
RTVSPropertyOp3
 70
     1
102
RTVSPropertyOp4
 70
     1
102
RTVSPropertyOp5
 70
     1
102
RTVSPropertyOp6
 70
     1
102
RTVSPropertyOp7
 70
     1
102
RTVSPropertyOp8
 70
     1
102
RTVSPropertyOp9
 70
     1
102
RTVSPropertyOp10
 70
     1
102
RTVSPropertyOp11
 70
     1
102
RTVSPropertyOp12
 70
     1
102
RTVSPropertyOp13
 70
     1
102
RTVSPropertyOp14
 70
     1
102
RTVSPropertyOp15
 70
     1
102
RTVSPropertyOp16
 70
     1
102
RTVSPropertyOp17
 70
     1
102
RTVSPropertyOp18
 70
     1
102
RTVSPropertyOp19
 70
     1
102
RTVSPropertyOp20
 70
     1
102
RTVSPropertyOp21
 70
     1
102
RTVSPropertyOp22
 70
     1
102
RTVSPropertyOp23
 70
     1
102
RTVSPropertyOp24
 70
     1
102
RTVSPropertyOp25
 70
     1
102
RTVSPropertyOp26
 70
     1
102
RTVSPropertyOp27
 70
     1
102
RTVSPropertyOp28
 70
     1
102
RTVSPropertyOp29
 70
     1
102
RTVSPropertyOp30
 70
     1
102
RTVSPropertyOp31
 70
     1
102
RTVSPropertyOp32
 70
     1
102
RTVSPropertyOp33
 70
     1
102
RTVSPropertyOp34
 70
     1
102
RTVSPropertyOp35
 70
     1
102
RTVSPropertyOp36
 70
     1
102
RTVSPropertyOp37
 70
     1
102
RTVSPropertyOp38
 70
     1
102
RTVSPropertyOp39
 70
     1
102
RTVSPropertyOp40
 70
     1
102
RTVSPropertyOp41
 70
     1
102
RTVSPropertyOp42
 70
     1
102
RTVSPropertyOp43
 70
     1
102
RTVSPropertyOp44
 70
     1
102
RTVSPropertyOp45
 70
     1
102
RTVSPropertyOp46
 70
     1
102
RTVSPropertyOp47
 70
     1
102
RTVSPropertyOp48
 70
     1
102
RTVSPropertyOp49
 70
     1
102
RTVSPropertyOp50
 70
     1
102
RTVSPropertyOp51
 70
     0
102
RTVSPropertyOp52
 70
     0
102
RTVSPropertyOp53
 70
     1
102
RTVSPropertyOp54
 70
     1
102
RTVSPropertyOp55
 70
     1
102
RTVSPropertyOp56
 70
     1
102
RTVSPropertyOp57
 70
     1
102
RTVSPropertyOp58
 70
     1
102
RTVSPropertyOp59
 70
     1
102
RTVSPropertyOp60
 70
     1
102
RTVSPropertyOp61
 70
     1
102
RTVSPropertyOp62
 70
     1
  0
XRECORD
  5
1B2B
102
{ACAD_REACTORS
330
1B2A
102
}
330
1B2A
100
AcDbXrecord
280
     1
102
RTVSPost2010Prop28
280
     0
102
RTVSPost2010PropOp28
 70
     1
102
RTVSPost2010Prop29
280
     1
102
RTVSPost2010PropOp29
 70
     1
102
RTVSPost2010Prop30
280
     1
102
RTVSPost2010PropOp30
 70
     1
102
RTVSPost2010Prop31
280
     0
102
RTVSPost2010PropOp31
 70
     1
102
RTVSPost2010Prop32
280
     0
102
RTVSPost2010PropOp32
 70
     1
102
RTVSPost2010Prop33
280
     0
102
RTVSPost2010PropOp33
 70
     1
102
RTVSPost2010Prop34
280
     0
102
RTVSPost2010PropOp34
 70
     1
102
RTVSPost2010Prop35
280
     0
102
RTVSPost2010PropOp35
 70
     1
102
RTVSPost2010Prop36
280
     0
102
RTVSPost2010PropOp36
 70
     1
102
RTVSPost2010Prop37
 90
       50
102
RTVSPost2010PropOp37
 70
     1
102
RTVSPost2010Prop38
140
0.0
102
RTVSPost2010PropOp38
 70
     1
102
RTVSPost2010Prop39
140
1.0
102
RTVSPost2010PropOp39
 70
     1
102
RTVSPost2010Prop40
 90
        0
102
RTVSPost2010PropOp40
 70
     1
102
RTVSPost2010Prop41ColorIndex
 90
       18
102
RTVSPost2010Prop41ColorRGB
 90
        0
102
RTVSPost2010PropOp41
 70
     1
102
RTVSPost2010Prop42
 90
       50
102
RTVSPost2010PropOp42
 70
     1
102
RTVSPost2010Prop43
 90
        3
102
RTVSPost2010PropOp43
 70
     1
102
RTVSPost2010Prop44ColorIndex
 90
        5
102
RTVSPost2010Prop44ColorRGB
 90
      255
102
RTVSPost2010PropOp44
 70
     1
102
RTVSPost2010Prop45
280
     0
102
RTVSPost2010PropOp45
 70
     1
102
RTVSPost2010Prop46
 90
       50
102
RTVSPost2010PropOp46
 70
     1
102
RTVSPost2010Prop47
 90
       50
102
RTVSPost2010PropOp47
 70
     1
102
RTVSPost2010Prop48
 90
       50
102
RTVSPost2010PropOp48
 70
     1
102
RTVSPost2010Prop49
280
     0
102
RTVSPost2010PropOp49
 70
     1
102
RTVSPost2010Prop50
 90
       50
102
RTVSPost2010PropOp50
 70
     1
102
RTVSPost2010Prop51ColorIndex
 90
      256
102
RTVSPost2010Prop51ColorRGB
 90
-16777216
102
RTVSPost2010PropOp51
 70
     0
102
RTVSPost2010Prop52
140
1.0
102
RTVSPost2010PropOp52
 70
     0
102
RTVSPost2010Prop53
 90
        2
102
RTVSPost2010PropOp53
 70
     1
102
RTVSPost2010Prop54
  1
strokes_ogs.tif
102
RTVSPost2010PropOp54
 70
     1
102
RTVSPost2010Prop55
280
     0
102
RTVSPost2010PropOp55
 70
     1
102
RTVSPost2010Prop56
140
1.0
102
RTVSPost2010PropOp56
 70
     1
102
RTVSPost2010Prop57
140
1.0
102
RTVSPost2010PropOp57
 70
     1
102
RTVSPropertyOp0
 70
     1
102
RTVSPropertyOp1
 70
     1
102
RTVSPropertyOp2
 70
     1
102
RTVSPropertyOp3
 70
     1
102
RTVSPropertyOp4
 70
     1
102
RTVSPropertyOp5
 70
     1
102
RTVSPropertyOp6
 70
     1
102
RTVSPropertyOp7
 70
     1
102
RTVSPropertyOp8
 70
     1
102
RTVSPropertyOp9
 70
     1
102
RTVSPropertyOp10
 70
     1
102
RTVSPropertyOp11
 70
     1
102
RTVSPropertyOp12
 70
     1
102
RTVSPropertyOp13
 70
     1
102
RTVSPropertyOp14
 70
     1
102
RTVSPropertyOp15
 70
     1
102
RTVSPropertyOp16
 70
     1
102
RTVSPropertyOp17
 70
     1
102
RTVSPropertyOp18
 70
     1
102
RTVSPropertyOp19
 70
     1
102
RTVSPropertyOp20
 70
     1
102
RTVSPropertyOp21
 70
     1
102
RTVSPropertyOp22
 70
     1
102
RTVSPropertyOp23
 70
     1
102
RTVSPropertyOp24
 70
     1
102
RTVSPropertyOp25
 70
     1
102
RTVSPropertyOp26
 70
     1
102
RTVSPropertyOp27
 70
     1
102
RTVSPropertyOp28
 70
     1
102
RTVSPropertyOp29
 70
     1
102
RTVSPropertyOp30
 70
     1
102
RTVSPropertyOp31
 70
     1
102
RTVSPropertyOp32
 70
     1
102
RTVSPropertyOp33
 70
     1
102
RTVSPropertyOp34
 70
     1
102
RTVSPropertyOp35
 70
     1
102
RTVSPropertyOp36
 70
     1
102
RTVSPropertyOp37
 70
     1
102
RTVSPropertyOp38
 70
     1
102
RTVSPropertyOp39
 70
     1
102
RTVSPropertyOp40
 70
     1
102
RTVSPropertyOp41
 70
     1
102
RTVSPropertyOp42
 70
     1
102
RTVSPropertyOp43
 70
     1
102
RTVSPropertyOp44
 70
     1
102
RTVSPropertyOp45
 70
     1
102
RTVSPropertyOp46
 70
     1
102
RTVSPropertyOp47
 70
     1
102
RTVSPropertyOp48
 70
     1
102
RTVSPropertyOp49
 70
     1
102
RTVSPropertyOp50
 70
     1
102
RTVSPropertyOp51
 70
     0
102
RTVSPropertyOp52
 70
     0
102
RTVSPropertyOp53
 70
     1
102
RTVSPropertyOp54
 70
     1
102
RTVSPropertyOp55
 70
     1
102
RTVSPropertyOp56
 70
     1
102
RTVSPropertyOp57
 70
     1
102
RTVSPropertyOp58
 70
     1
102
RTVSPropertyOp59
 70
     1
102
RTVSPropertyOp60
 70
     1
102
RTVSPropertyOp61
 70
     1
102
RTVSPropertyOp62
 70
     1
  0
XRECORD
  5
1B33
102
{ACAD_REACTORS
330
1B32
102
}
330
1B32
100
AcDbXrecord
280
     1
102
RTVSPost2010Prop28
280
     0
102
RTVSPost2010PropOp28
 70
     1
102
RTVSPost2010Prop29
280
     1
102
RTVSPost2010PropOp29
 70
     1
102
RTVSPost2010Prop30
280
     1
102
RTVSPost2010PropOp30
 70
     1
102
RTVSPost2010Prop31
280
     0
102
RTVSPost2010PropOp31
 70
     1
102
RTVSPost2010Prop32
280
     0
102
RTVSPost2010PropOp32
 70
     1
102
RTVSPost2010Prop33
280
     0
102
RTVSPost2010PropOp33
 70
     1
102
RTVSPost2010Prop34
280
     0
102
RTVSPost2010PropOp34
 70
     1
102
RTVSPost2010Prop35
280
     0
102
RTVSPost2010PropOp35
 70
     1
102
RTVSPost2010Prop36
280
     0
102
RTVSPost2010PropOp36
 70
     1
102
RTVSPost2010Prop37
 90
       50
102
RTVSPost2010PropOp37
 70
     1
102
RTVSPost2010Prop38
140
0.0
102
RTVSPost2010PropOp38
 70
     1
102
RTVSPost2010Prop39
140
1.0
102
RTVSPost2010PropOp39
 70
     1
102
RTVSPost2010Prop40
 90
        0
102
RTVSPost2010PropOp40
 70
     1
102
RTVSPost2010Prop41ColorIndex
 90
       18
102
RTVSPost2010Prop41ColorRGB
 90
        0
102
RTVSPost2010PropOp41
 70
     1
102
RTVSPost2010Prop42
 90
       50
102
RTVSPost2010PropOp42
 70
     1
102
RTVSPost2010Prop43
 90
        3
102
RTVSPost2010PropOp43
 70
     1
102
RTVSPost2010Prop44ColorIndex
 90
        5
102
RTVSPost2010Prop44ColorRGB
 90
      255
102
RTVSPost2010PropOp44
 70
     1
102
RTVSPost2010Prop45
280
     0
102
RTVSPost2010PropOp45
 70
     1
102
RTVSPost2010Prop46
 90
       50
102
RTVSPost2010PropOp46
 70
     1
102
RTVSPost2010Prop47
 90
       50
102
RTVSPost2010PropOp47
 70
     1
102
RTVSPost2010Prop48
 90
       50
102
RTVSPost2010PropOp48
 70
     1
102
RTVSPost2010Prop49
280
     0
102
RTVSPost2010PropOp49
 70
     1
102
RTVSPost2010Prop50
 90
       50
102
RTVSPost2010PropOp50
 70
     1
102
RTVSPost2010Prop51ColorIndex
 90
      256
102
RTVSPost2010Prop51ColorRGB
 90
-16777216
102
RTVSPost2010PropOp51
 70
     0
102
RTVSPost2010Prop52
140
1.0
102
RTVSPost2010PropOp52
 70
     0
102
RTVSPost2010Prop53
 90
        2
102
RTVSPost2010PropOp53
 70
     1
102
RTVSPost2010Prop54
  1
strokes_ogs.tif
102
RTVSPost2010PropOp54
 70
     1
102
RTVSPost2010Prop55
280
     0
102
RTVSPost2010PropOp55
 70
     1
102
RTVSPost2010Prop56
140
1.0
102
RTVSPost2010PropOp56
 70
     1
102
RTVSPost2010Prop57
140
1.0
102
RTVSPost2010PropOp57
 70
     1
102
RTVSPropertyOp0
 70
     1
102
RTVSPropertyOp1
 70
     1
102
RTVSPropertyOp2
 70
     1
102
RTVSPropertyOp3
 70
     1
102
RTVSPropertyOp4
 70
     1
102
RTVSPropertyOp5
 70
     1
102
RTVSPropertyOp6
 70
     1
102
RTVSPropertyOp7
 70
     1
102
RTVSPropertyOp8
 70
     1
102
RTVSPropertyOp9
 70
     1
102
RTVSPropertyOp10
 70
     1
102
RTVSPropertyOp11
 70
     1
102
RTVSPropertyOp12
 70
     1
102
RTVSPropertyOp13
 70
     1
102
RTVSPropertyOp14
 70
     1
102
RTVSPropertyOp15
 70
     1
102
RTVSPropertyOp16
 70
     1
102
RTVSPropertyOp17
 70
     1
102
RTVSPropertyOp18
 70
     1
102
RTVSPropertyOp19
 70
     1
102
RTVSPropertyOp20
 70
     1
102
RTVSPropertyOp21
 70
     1
102
RTVSPropertyOp22
 70
     1
102
RTVSPropertyOp23
 70
     1
102
RTVSPropertyOp24
 70
     1
102
RTVSPropertyOp25
 70
     1
102
RTVSPropertyOp26
 70
     1
102
RTVSPropertyOp27
 70
     1
102
RTVSPropertyOp28
 70
     1
102
RTVSPropertyOp29
 70
     1
102
RTVSPropertyOp30
 70
     1
102
RTVSPropertyOp31
 70
     1
102
RTVSPropertyOp32
 70
     1
102
RTVSPropertyOp33
 70
     1
102
RTVSPropertyOp34
 70
     1
102
RTVSPropertyOp35
 70
     1
102
RTVSPropertyOp36
 70
     1
102
RTVSPropertyOp37
 70
     1
102
RTVSPropertyOp38
 70
     1
102
RTVSPropertyOp39
 70
     1
102
RTVSPropertyOp40
 70
     1
102
RTVSPropertyOp41
 70
     1
102
RTVSPropertyOp42
 70
     1
102
RTVSPropertyOp43
 70
     1
102
RTVSPropertyOp44
 70
     1
102
RTVSPropertyOp45
 70
     1
102
RTVSPropertyOp46
 70
     1
102
RTVSPropertyOp47
 70
     1
102
RTVSPropertyOp48
 70
     1
102
RTVSPropertyOp49
 70
     1
102
RTVSPropertyOp50
 70
     1
102
RTVSPropertyOp51
 70
     0
102
RTVSPropertyOp52
 70
     0
102
RTVSPropertyOp53
 70
     1
102
RTVSPropertyOp54
 70
     1
102
RTVSPropertyOp55
 70
     1
102
RTVSPropertyOp56
 70
     1
102
RTVSPropertyOp57
 70
     1
102
RTVSPropertyOp58
 70
     1
102
RTVSPropertyOp59
 70
     1
102
RTVSPropertyOp60
 70
     1
102
RTVSPropertyOp61
 70
     1
102
RTVSPropertyOp62
 70
     1
  0
XRECORD
  5
1B25
102
{ACAD_REACTORS
330
1B24
102
}
330
1B24
100
AcDbXrecord
280
     1
102
RTVSPost2010Prop28
280
     0
102
RTVSPost2010PropOp28
 70
     1
102
RTVSPost2010Prop29
280
     1
102
RTVSPost2010PropOp29
 70
     1
102
RTVSPost2010Prop30
280
     1
102
RTVSPost2010PropOp30
 70
     1
102
RTVSPost2010Prop31
280
     0
102
RTVSPost2010PropOp31
 70
     1
102
RTVSPost2010Prop32
280
     0
102
RTVSPost2010PropOp32
 70
     1
102
RTVSPost2010Prop33
280
     0
102
RTVSPost2010PropOp33
 70
     1
102
RTVSPost2010Prop34
280
     0
102
RTVSPost2010PropOp34
 70
     1
102
RTVSPost2010Prop35
280
     0
102
RTVSPost2010PropOp35
 70
     1
102
RTVSPost2010Prop36
280
     0
102
RTVSPost2010PropOp36
 70
     1
102
RTVSPost2010Prop37
 90
       50
102
RTVSPost2010PropOp37
 70
     1
102
RTVSPost2010Prop38
140
0.0
102
RTVSPost2010PropOp38
 70
     1
102
RTVSPost2010Prop39
140
1.0
102
RTVSPost2010PropOp39
 70
     1
102
RTVSPost2010Prop40
 90
        0
102
RTVSPost2010PropOp40
 70
     1
102
RTVSPost2010Prop41ColorIndex
 90
       18
102
RTVSPost2010Prop41ColorRGB
 90
        0
102
RTVSPost2010PropOp41
 70
     1
102
RTVSPost2010Prop42
 90
       50
102
RTVSPost2010PropOp42
 70
     1
102
RTVSPost2010Prop43
 90
        3
102
RTVSPost2010PropOp43
 70
     1
102
RTVSPost2010Prop44ColorIndex
 90
        5
102
RTVSPost2010Prop44ColorRGB
 90
      255
102
RTVSPost2010PropOp44
 70
     1
102
RTVSPost2010Prop45
280
     0
102
RTVSPost2010PropOp45
 70
     1
102
RTVSPost2010Prop46
 90
       50
102
RTVSPost2010PropOp46
 70
     1
102
RTVSPost2010Prop47
 90
       50
102
RTVSPost2010PropOp47
 70
     1
102
RTVSPost2010Prop48
 90
       50
102
RTVSPost2010PropOp48
 70
     1
102
RTVSPost2010Prop49
280
     0
102
RTVSPost2010PropOp49
 70
     1
102
RTVSPost2010Prop50
 90
       50
102
RTVSPost2010PropOp50
 70
     1
102
RTVSPost2010Prop51ColorIndex
 90
      256
102
RTVSPost2010Prop51ColorRGB
 90
-16777216
102
RTVSPost2010PropOp51
 70
     0
102
RTVSPost2010Prop52
140
1.0
102
RTVSPost2010PropOp52
 70
     0
102
RTVSPost2010Prop53
 90
        2
102
RTVSPost2010PropOp53
 70
     1
102
RTVSPost2010Prop54
  1
strokes_ogs.tif
102
RTVSPost2010PropOp54
 70
     1
102
RTVSPost2010Prop55
280
     0
102
RTVSPost2010PropOp55
 70
     1
102
RTVSPost2010Prop56
140
1.0
102
RTVSPost2010PropOp56
 70
     1
102
RTVSPost2010Prop57
140
1.0
102
RTVSPost2010PropOp57
 70
     1
102
RTVSPropertyOp0
 70
     1
102
RTVSPropertyOp1
 70
     1
102
RTVSPropertyOp2
 70
     1
102
RTVSPropertyOp3
 70
     1
102
RTVSPropertyOp4
 70
     1
102
RTVSPropertyOp5
 70
     1
102
RTVSPropertyOp6
 70
     1
102
RTVSPropertyOp7
 70
     1
102
RTVSPropertyOp8
 70
     1
102
RTVSPropertyOp9
 70
     1
102
RTVSPropertyOp10
 70
     1
102
RTVSPropertyOp11
 70
     1
102
RTVSPropertyOp12
 70
     1
102
RTVSPropertyOp13
 70
     1
102
RTVSPropertyOp14
 70
     1
102
RTVSPropertyOp15
 70
     1
102
RTVSPropertyOp16
 70
     1
102
RTVSPropertyOp17
 70
     1
102
RTVSPropertyOp18
 70
     1
102
RTVSPropertyOp19
 70
     1
102
RTVSPropertyOp20
 70
     1
102
RTVSPropertyOp21
 70
     1
102
RTVSPropertyOp22
 70
     1
102
RTVSPropertyOp23
 70
     1
102
RTVSPropertyOp24
 70
     1
102
RTVSPropertyOp25
 70
     1
102
RTVSPropertyOp26
 70
     1
102
RTVSPropertyOp27
 70
     1
102
RTVSPropertyOp28
 70
     1
102
RTVSPropertyOp29
 70
     1
102
RTVSPropertyOp30
 70
     1
102
RTVSPropertyOp31
 70
     1
102
RTVSPropertyOp32
 70
     1
102
RTVSPropertyOp33
 70
     1
102
RTVSPropertyOp34
 70
     1
102
RTVSPropertyOp35
 70
     1
102
RTVSPropertyOp36
 70
     1
102
RTVSPropertyOp37
 70
     1
102
RTVSPropertyOp38
 70
     1
102
RTVSPropertyOp39
 70
     1
102
RTVSPropertyOp40
 70
     1
102
RTVSPropertyOp41
 70
     1
102
RTVSPropertyOp42
 70
     1
102
RTVSPropertyOp43
 70
     1
102
RTVSPropertyOp44
 70
     1
102
RTVSPropertyOp45
 70
     1
102
RTVSPropertyOp46
 70
     1
102
RTVSPropertyOp47
 70
     1
102
RTVSPropertyOp48
 70
     1
102
RTVSPropertyOp49
 70
     1
102
RTVSPropertyOp50
 70
     1
102
RTVSPropertyOp51
 70
     0
102
RTVSPropertyOp52
 70
     0
102
RTVSPropertyOp53
 70
     1
102
RTVSPropertyOp54
 70
     1
102
RTVSPropertyOp55
 70
     1
102
RTVSPropertyOp56
 70
     1
102
RTVSPropertyOp57
 70
     1
102
RTVSPropertyOp58
 70
     1
102
RTVSPropertyOp59
 70
     1
102
RTVSPropertyOp60
 70
     1
102
RTVSPropertyOp61
 70
     1
102
RTVSPropertyOp62
 70
     1
  0
XRECORD
  5
1B29
102
{ACAD_REACTORS
330
1B28
102
}
330
1B28
100
AcDbXrecord
280
     1
102
RTVSPost2010Prop28
280
     0
102
RTVSPost2010PropOp28
 70
     1
102
RTVSPost2010Prop29
280
     1
102
RTVSPost2010PropOp29
 70
     1
102
RTVSPost2010Prop30
280
     1
102
RTVSPost2010PropOp30
 70
     1
102
RTVSPost2010Prop31
280
     0
102
RTVSPost2010PropOp31
 70
     1
102
RTVSPost2010Prop32
280
     0
102
RTVSPost2010PropOp32
 70
     1
102
RTVSPost2010Prop33
280
     0
102
RTVSPost2010PropOp33
 70
     1
102
RTVSPost2010Prop34
280
     0
102
RTVSPost2010PropOp34
 70
     1
102
RTVSPost2010Prop35
280
     0
102
RTVSPost2010PropOp35
 70
     1
102
RTVSPost2010Prop36
280
     0
102
RTVSPost2010PropOp36
 70
     1
102
RTVSPost2010Prop37
 90
       50
102
RTVSPost2010PropOp37
 70
     1
102
RTVSPost2010Prop38
140
0.0
102
RTVSPost2010PropOp38
 70
     1
102
RTVSPost2010Prop39
140
1.0
102
RTVSPost2010PropOp39
 70
     1
102
RTVSPost2010Prop40
 90
        0
102
RTVSPost2010PropOp40
 70
     1
102
RTVSPost2010Prop41ColorIndex
 90
       18
102
RTVSPost2010Prop41ColorRGB
 90
        0
102
RTVSPost2010PropOp41
 70
     1
102
RTVSPost2010Prop42
 90
       50
102
RTVSPost2010PropOp42
 70
     1
102
RTVSPost2010Prop43
 90
        3
102
RTVSPost2010PropOp43
 70
     1
102
RTVSPost2010Prop44ColorIndex
 90
        5
102
RTVSPost2010Prop44ColorRGB
 90
      255
102
RTVSPost2010PropOp44
 70
     1
102
RTVSPost2010Prop45
280
     0
102
RTVSPost2010PropOp45
 70
     1
102
RTVSPost2010Prop46
 90
       50
102
RTVSPost2010PropOp46
 70
     1
102
RTVSPost2010Prop47
 90
       50
102
RTVSPost2010PropOp47
 70
     1
102
RTVSPost2010Prop48
 90
       50
102
RTVSPost2010PropOp48
 70
     1
102
RTVSPost2010Prop49
280
     0
102
RTVSPost2010PropOp49
 70
     1
102
RTVSPost2010Prop50
 90
       50
102
RTVSPost2010PropOp50
 70
     1
102
RTVSPost2010Prop51ColorIndex
 90
      256
102
RTVSPost2010Prop51ColorRGB
 90
-16777216
102
RTVSPost2010PropOp51
 70
     0
102
RTVSPost2010Prop52
140
1.0
102
RTVSPost2010PropOp52
 70
     0
102
RTVSPost2010Prop53
 90
        2
102
RTVSPost2010PropOp53
 70
     1
102
RTVSPost2010Prop54
  1
strokes_ogs.tif
102
RTVSPost2010PropOp54
 70
     1
102
RTVSPost2010Prop55
280
     0
102
RTVSPost2010PropOp55
 70
     1
102
RTVSPost2010Prop56
140
1.0
102
RTVSPost2010PropOp56
 70
     1
102
RTVSPost2010Prop57
140
1.0
102
RTVSPost2010PropOp57
 70
     1
102
RTVSPropertyOp0
 70
     1
102
RTVSPropertyOp1
 70
     1
102
RTVSPropertyOp2
 70
     1
102
RTVSPropertyOp3
 70
     1
102
RTVSPropertyOp4
 70
     1
102
RTVSPropertyOp5
 70
     1
102
RTVSPropertyOp6
 70
     1
102
RTVSPropertyOp7
 70
     1
102
RTVSPropertyOp8
 70
     1
102
RTVSPropertyOp9
 70
     1
102
RTVSPropertyOp10
 70
     1
102
RTVSPropertyOp11
 70
     1
102
RTVSPropertyOp12
 70
     1
102
RTVSPropertyOp13
 70
     1
102
RTVSPropertyOp14
 70
     1
102
RTVSPropertyOp15
 70
     1
102
RTVSPropertyOp16
 70
     1
102
RTVSPropertyOp17
 70
     1
102
RTVSPropertyOp18
 70
     1
102
RTVSPropertyOp19
 70
     1
102
RTVSPropertyOp20
 70
     1
102
RTVSPropertyOp21
 70
     1
102
RTVSPropertyOp22
 70
     1
102
RTVSPropertyOp23
 70
     1
102
RTVSPropertyOp24
 70
     1
102
RTVSPropertyOp25
 70
     1
102
RTVSPropertyOp26
 70
     1
102
RTVSPropertyOp27
 70
     1
102
RTVSPropertyOp28
 70
     1
102
RTVSPropertyOp29
 70
     1
102
RTVSPropertyOp30
 70
     1
102
RTVSPropertyOp31
 70
     1
102
RTVSPropertyOp32
 70
     1
102
RTVSPropertyOp33
 70
     1
102
RTVSPropertyOp34
 70
     1
102
RTVSPropertyOp35
 70
     1
102
RTVSPropertyOp36
 70
     1
102
RTVSPropertyOp37
 70
     1
102
RTVSPropertyOp38
 70
     1
102
RTVSPropertyOp39
 70
     1
102
RTVSPropertyOp40
 70
     1
102
RTVSPropertyOp41
 70
     1
102
RTVSPropertyOp42
 70
     1
102
RTVSPropertyOp43
 70
     1
102
RTVSPropertyOp44
 70
     1
102
RTVSPropertyOp45
 70
     1
102
RTVSPropertyOp46
 70
     1
102
RTVSPropertyOp47
 70
     1
102
RTVSPropertyOp48
 70
     1
102
RTVSPropertyOp49
 70
     1
102
RTVSPropertyOp50
 70
     1
102
RTVSPropertyOp51
 70
     0
102
RTVSPropertyOp52
 70
     0
102
RTVSPropertyOp53
 70
     1
102
RTVSPropertyOp54
 70
     1
102
RTVSPropertyOp55
 70
     1
102
RTVSPropertyOp56
 70
     1
102
RTVSPropertyOp57
 70
     1
102
RTVSPropertyOp58
 70
     1
102
RTVSPropertyOp59
 70
     1
102
RTVSPropertyOp60
 70
     1
102
RTVSPropertyOp61
 70
     1
102
RTVSPropertyOp62
 70
     1
  0
XRECORD
  5
1B43
102
{ACAD_REACTORS
330
1B42
102
}
330
1B42
100
AcDbXrecord
280
     1
102
RTVSPost2010Prop28
280
     0
102
RTVSPost2010PropOp28
 70
     1
102
RTVSPost2010Prop29
280
     1
102
RTVSPost2010PropOp29
 70
     1
102
RTVSPost2010Prop30
280
     1
102
RTVSPost2010PropOp30
 70
     1
102
RTVSPost2010Prop31
280
     0
102
RTVSPost2010PropOp31
 70
     1
102
RTVSPost2010Prop32
280
     0
102
RTVSPost2010PropOp32
 70
     1
102
RTVSPost2010Prop33
280
     0
102
RTVSPost2010PropOp33
 70
     1
102
RTVSPost2010Prop34
280
     0
102
RTVSPost2010PropOp34
 70
     1
102
RTVSPost2010Prop35
280
     0
102
RTVSPost2010PropOp35
 70
     1
102
RTVSPost2010Prop36
280
     0
102
RTVSPost2010PropOp36
 70
     1
102
RTVSPost2010Prop37
 90
       50
102
RTVSPost2010PropOp37
 70
     0
102
RTVSPost2010Prop38
140
0.0
102
RTVSPost2010PropOp38
 70
     0
102
RTVSPost2010Prop39
140
1.0
102
RTVSPost2010PropOp39
 70
     0
102
RTVSPost2010Prop40
 90
        0
102
RTVSPost2010PropOp40
 70
     0
102
RTVSPost2010Prop41ColorIndex
 90
       18
102
RTVSPost2010Prop41ColorRGB
 90
        0
102
RTVSPost2010PropOp41
 70
     0
102
RTVSPost2010Prop42
 90
       50
102
RTVSPost2010PropOp42
 70
     0
102
RTVSPost2010Prop43
 90
        3
102
RTVSPost2010PropOp43
 70
     0
102
RTVSPost2010Prop44ColorIndex
 90
        5
102
RTVSPost2010Prop44ColorRGB
 90
      255
102
RTVSPost2010PropOp44
 70
     0
102
RTVSPost2010Prop45
280
     0
102
RTVSPost2010PropOp45
 70
     1
102
RTVSPost2010Prop46
 90
       50
102
RTVSPost2010PropOp46
 70
     0
102
RTVSPost2010Prop47
 90
       50
102
RTVSPost2010PropOp47
 70
     0
102
RTVSPost2010Prop48
 90
       50
102
RTVSPost2010PropOp48
 70
     0
102
RTVSPost2010Prop49
280
     0
102
RTVSPost2010PropOp49
 70
     1
102
RTVSPost2010Prop50
 90
       50
102
RTVSPost2010PropOp50
 70
     0
102
RTVSPost2010Prop51ColorIndex
 90
      256
102
RTVSPost2010Prop51ColorRGB
 90
-16777216
102
RTVSPost2010PropOp51
 70
     0
102
RTVSPost2010Prop52
140
1.0
102
RTVSPost2010PropOp52
 70
     0
102
RTVSPost2010Prop53
 90
        2
102
RTVSPost2010PropOp53
 70
     0
102
RTVSPost2010Prop54
  1
strokes_ogs.tif
102
RTVSPost2010PropOp54
 70
     0
102
RTVSPost2010Prop55
280
     0
102
RTVSPost2010PropOp55
 70
     1
102
RTVSPost2010Prop56
140
1.0
102
RTVSPost2010PropOp56
 70
     0
102
RTVSPost2010Prop57
140
1.0
102
RTVSPost2010PropOp57
 70
     0
102
RTVSPropertyOp0
 70
     0
102
RTVSPropertyOp1
 70
     0
102
RTVSPropertyOp2
 70
     0
102
RTVSPropertyOp3
 70
     0
102
RTVSPropertyOp4
 70
     0
102
RTVSPropertyOp5
 70
     0
102
RTVSPropertyOp6
 70
     0
102
RTVSPropertyOp7
 70
     0
102
RTVSPropertyOp8
 70
     0
102
RTVSPropertyOp9
 70
     0
102
RTVSPropertyOp10
 70
     0
102
RTVSPropertyOp11
 70
     0
102
RTVSPropertyOp12
 70
     0
102
RTVSPropertyOp13
 70
     0
102
RTVSPropertyOp14
 70
     2
102
RTVSPropertyOp15
 70
     0
102
RTVSPropertyOp16
 70
     0
102
RTVSPropertyOp17
 70
     0
102
RTVSPropertyOp18
 70
     0
102
RTVSPropertyOp19
 70
     0
102
RTVSPropertyOp20
 70
     0
102
RTVSPropertyOp21
 70
     0
102
RTVSPropertyOp22
 70
     0
102
RTVSPropertyOp23
 70
     0
102
RTVSPropertyOp24
 70
     0
102
RTVSPropertyOp25
 70
     0
102
RTVSPropertyOp26
 70
     0
102
RTVSPropertyOp27
 70
     0
102
RTVSPropertyOp28
 70
     1
102
RTVSPropertyOp29
 70
     1
102
RTVSPropertyOp30
 70
     1
102
RTVSPropertyOp31
 70
     1
102
RTVSPropertyOp32
 70
     1
102
RTVSPropertyOp33
 70
     1
102
RTVSPropertyOp34
 70
     1
102
RTVSPropertyOp35
 70
     1
102
RTVSPropertyOp36
 70
     1
102
RTVSPropertyOp37
 70
     0
102
RTVSPropertyOp38
 70
     0
102
RTVSPropertyOp39
 70
     0
102
RTVSPropertyOp40
 70
     0
102
RTVSPropertyOp41
 70
     0
102
RTVSPropertyOp42
 70
     0
102
RTVSPropertyOp43
 70
     0
102
RTVSPropertyOp44
 70
     0
102
RTVSPropertyOp45
 70
     1
102
RTVSPropertyOp46
 70
     0
102
RTVSPropertyOp47
 70
     0
102
RTVSPropertyOp48
 70
     0
102
RTVSPropertyOp49
 70
     1
102
RTVSPropertyOp50
 70
     0
102
RTVSPropertyOp51
 70
     0
102
RTVSPropertyOp52
 70
     0
102
RTVSPropertyOp53
 70
     0
102
RTVSPropertyOp54
 70
     0
102
RTVSPropertyOp55
 70
     1
102
RTVSPropertyOp56
 70
     0
102
RTVSPropertyOp57
 70
     0
102
RTVSPropertyOp58
 70
     0
102
RTVSPropertyOp59
 70
     0
102
RTVSPropertyOp60
 70
     0
102
RTVSPropertyOp61
 70
     0
102
RTVSPropertyOp62
 70
     0
  0
XRECORD
  5
1B31
102
{ACAD_REACTORS
330
1B30
102
}
330
1B30
100
AcDbXrecord
280
     1
102
RTVSPost2010Prop28
280
     0
102
RTVSPost2010PropOp28
 70
     1
102
RTVSPost2010Prop29
280
     1
102
RTVSPost2010PropOp29
 70
     1
102
RTVSPost2010Prop30
280
     1
102
RTVSPost2010PropOp30
 70
     1
102
RTVSPost2010Prop31
280
     0
102
RTVSPost2010PropOp31
 70
     1
102
RTVSPost2010Prop32
280
     0
102
RTVSPost2010PropOp32
 70
     1
102
RTVSPost2010Prop33
280
     0
102
RTVSPost2010PropOp33
 70
     1
102
RTVSPost2010Prop34
280
     0
102
RTVSPost2010PropOp34
 70
     1
102
RTVSPost2010Prop35
280
     0
102
RTVSPost2010PropOp35
 70
     1
102
RTVSPost2010Prop36
280
     0
102
RTVSPost2010PropOp36
 70
     1
102
RTVSPost2010Prop37
 90
       50
102
RTVSPost2010PropOp37
 70
     1
102
RTVSPost2010Prop38
140
0.0
102
RTVSPost2010PropOp38
 70
     1
102
RTVSPost2010Prop39
140
1.0
102
RTVSPost2010PropOp39
 70
     1
102
RTVSPost2010Prop40
 90
        0
102
RTVSPost2010PropOp40
 70
     1
102
RTVSPost2010Prop41ColorIndex
 90
       18
102
RTVSPost2010Prop41ColorRGB
 90
        0
102
RTVSPost2010PropOp41
 70
     1
102
RTVSPost2010Prop42
 90
       50
102
RTVSPost2010PropOp42
 70
     1
102
RTVSPost2010Prop43
 90
        3
102
RTVSPost2010PropOp43
 70
     1
102
RTVSPost2010Prop44ColorIndex
 90
        5
102
RTVSPost2010Prop44ColorRGB
 90
      255
102
RTVSPost2010PropOp44
 70
     1
102
RTVSPost2010Prop45
280
     0
102
RTVSPost2010PropOp45
 70
     1
102
RTVSPost2010Prop46
 90
       50
102
RTVSPost2010PropOp46
 70
     1
102
RTVSPost2010Prop47
 90
       50
102
RTVSPost2010PropOp47
 70
     1
102
RTVSPost2010Prop48
 90
       50
102
RTVSPost2010PropOp48
 70
     1
102
RTVSPost2010Prop49
280
     0
102
RTVSPost2010PropOp49
 70
     1
102
RTVSPost2010Prop50
 90
       50
102
RTVSPost2010PropOp50
 70
     1
102
RTVSPost2010Prop51ColorIndex
 90
      256
102
RTVSPost2010Prop51ColorRGB
 90
-16777216
102
RTVSPost2010PropOp51
 70
     0
102
RTVSPost2010Prop52
140
1.0
102
RTVSPost2010PropOp52
 70
     0
102
RTVSPost2010Prop53
 90
        2
102
RTVSPost2010PropOp53
 70
     1
102
RTVSPost2010Prop54
  1
strokes_ogs.tif
102
RTVSPost2010PropOp54
 70
     1
102
RTVSPost2010Prop55
280
     0
102
RTVSPost2010PropOp55
 70
     1
102
RTVSPost2010Prop56
140
1.0
102
RTVSPost2010PropOp56
 70
     1
102
RTVSPost2010Prop57
140
1.0
102
RTVSPost2010PropOp57
 70
     1
102
RTVSPropertyOp0
 70
     1
102
RTVSPropertyOp1
 70
     1
102
RTVSPropertyOp2
 70
     1
102
RTVSPropertyOp3
 70
     1
102
RTVSPropertyOp4
 70
     1
102
RTVSPropertyOp5
 70
     1
102
RTVSPropertyOp6
 70
     1
102
RTVSPropertyOp7
 70
     1
102
RTVSPropertyOp8
 70
     1
102
RTVSPropertyOp9
 70
     1
102
RTVSPropertyOp10
 70
     1
102
RTVSPropertyOp11
 70
     1
102
RTVSPropertyOp12
 70
     1
102
RTVSPropertyOp13
 70
     1
102
RTVSPropertyOp14
 70
     1
102
RTVSPropertyOp15
 70
     1
102
RTVSPropertyOp16
 70
     1
102
RTVSPropertyOp17
 70
     1
102
RTVSPropertyOp18
 70
     1
102
RTVSPropertyOp19
 70
     1
102
RTVSPropertyOp20
 70
     1
102
RTVSPropertyOp21
 70
     1
102
RTVSPropertyOp22
 70
     1
102
RTVSPropertyOp23
 70
     1
102
RTVSPropertyOp24
 70
     1
102
RTVSPropertyOp25
 70
     1
102
RTVSPropertyOp26
 70
     1
102
RTVSPropertyOp27
 70
     1
102
RTVSPropertyOp28
 70
     1
102
RTVSPropertyOp29
 70
     1
102
RTVSPropertyOp30
 70
     1
102
RTVSPropertyOp31
 70
     1
102
RTVSPropertyOp32
 70
     1
102
RTVSPropertyOp33
 70
     1
102
RTVSPropertyOp34
 70
     1
102
RTVSPropertyOp35
 70
     1
102
RTVSPropertyOp36
 70
     1
102
RTVSPropertyOp37
 70
     1
102
RTVSPropertyOp38
 70
     1
102
RTVSPropertyOp39
 70
     1
102
RTVSPropertyOp40
 70
     1
102
RTVSPropertyOp41
 70
     1
102
RTVSPropertyOp42
 70
     1
102
RTVSPropertyOp43
 70
     1
102
RTVSPropertyOp44
 70
     1
102
RTVSPropertyOp45
 70
     1
102
RTVSPropertyOp46
 70
     1
102
RTVSPropertyOp47
 70
     1
102
RTVSPropertyOp48
 70
     1
102
RTVSPropertyOp49
 70
     1
102
RTVSPropertyOp50
 70
     1
102
RTVSPropertyOp51
 70
     0
102
RTVSPropertyOp52
 70
     0
102
RTVSPropertyOp53
 70
     1
102
RTVSPropertyOp54
 70
     1
102
RTVSPropertyOp55
 70
     1
102
RTVSPropertyOp56
 70
     1
102
RTVSPropertyOp57
 70
     1
102
RTVSPropertyOp58
 70
     1
102
RTVSPropertyOp59
 70
     1
102
RTVSPropertyOp60
 70
     1
102
RTVSPropertyOp61
 70
     1
102
RTVSPropertyOp62
 70
     1
  0
XRECORD
  5
1B15
102
{ACAD_REACTORS
330
1B14
102
}
330
1B14
100
AcDbXrecord
280
     1
102
RTVSPost2010Prop28
280
     0
102
RTVSPost2010PropOp28
 70
     1
102
RTVSPost2010Prop29
280
     1
102
RTVSPost2010PropOp29
 70
     1
102
RTVSPost2010Prop30
280
     1
102
RTVSPost2010PropOp30
 70
     1
102
RTVSPost2010Prop31
280
     0
102
RTVSPost2010PropOp31
 70
     1
102
RTVSPost2010Prop32
280
     0
102
RTVSPost2010PropOp32
 70
     1
102
RTVSPost2010Prop33
280
     0
102
RTVSPost2010PropOp33
 70
     1
102
RTVSPost2010Prop34
280
     0
102
RTVSPost2010PropOp34
 70
     1
102
RTVSPost2010Prop35
280
     0
102
RTVSPost2010PropOp35
 70
     1
102
RTVSPost2010Prop36
280
     0
102
RTVSPost2010PropOp36
 70
     1
102
RTVSPost2010Prop37
 90
       50
102
RTVSPost2010PropOp37
 70
     1
102
RTVSPost2010Prop38
140
0.0
102
RTVSPost2010PropOp38
 70
     1
102
RTVSPost2010Prop39
140
1.0
102
RTVSPost2010PropOp39
 70
     1
102
RTVSPost2010Prop40
 90
        0
102
RTVSPost2010PropOp40
 70
     1
102
RTVSPost2010Prop41ColorIndex
 90
       18
102
RTVSPost2010Prop41ColorRGB
 90
        0
102
RTVSPost2010PropOp41
 70
     1
102
RTVSPost2010Prop42
 90
       50
102
RTVSPost2010PropOp42
 70
     1
102
RTVSPost2010Prop43
 90
        3
102
RTVSPost2010PropOp43
 70
     1
102
RTVSPost2010Prop44ColorIndex
 90
        5
102
RTVSPost2010Prop44ColorRGB
 90
      255
102
RTVSPost2010PropOp44
 70
     1
102
RTVSPost2010Prop45
280
     0
102
RTVSPost2010PropOp45
 70
     1
102
RTVSPost2010Prop46
 90
       50
102
RTVSPost2010PropOp46
 70
     1
102
RTVSPost2010Prop47
 90
       50
102
RTVSPost2010PropOp47
 70
     1
102
RTVSPost2010Prop48
 90
       50
102
RTVSPost2010PropOp48
 70
     1
102
RTVSPost2010Prop49
280
     0
102
RTVSPost2010PropOp49
 70
     1
102
RTVSPost2010Prop50
 90
       50
102
RTVSPost2010PropOp50
 70
     1
102
RTVSPost2010Prop51ColorIndex
 90
      256
102
RTVSPost2010Prop51ColorRGB
 90
-16777216
102
RTVSPost2010PropOp51
 70
     0
102
RTVSPost2010Prop52
140
1.0
102
RTVSPost2010PropOp52
 70
     0
102
RTVSPost2010Prop53
 90
        2
102
RTVSPost2010PropOp53
 70
     1
102
RTVSPost2010Prop54
  1
strokes_ogs.tif
102
RTVSPost2010PropOp54
 70
     1
102
RTVSPost2010Prop55
280
     0
102
RTVSPost2010PropOp55
 70
     1
102
RTVSPost2010Prop56
140
1.0
102
RTVSPost2010PropOp56
 70
     1
102
RTVSPost2010Prop57
140
1.0
102
RTVSPost2010PropOp57
 70
     1
102
RTVSPropertyOp0
 70
     1
102
RTVSPropertyOp1
 70
     1
102
RTVSPropertyOp2
 70
     1
102
RTVSPropertyOp3
 70
     1
102
RTVSPropertyOp4
 70
     1
102
RTVSPropertyOp5
 70
     1
102
RTVSPropertyOp6
 70
     1
102
RTVSPropertyOp7
 70
     1
102
RTVSPropertyOp8
 70
     1
102
RTVSPropertyOp9
 70
     1
102
RTVSPropertyOp10
 70
     1
102
RTVSPropertyOp11
 70
     1
102
RTVSPropertyOp12
 70
     1
102
RTVSPropertyOp13
 70
     1
102
RTVSPropertyOp14
 70
     1
102
RTVSPropertyOp15
 70
     1
102
RTVSPropertyOp16
 70
     1
102
RTVSPropertyOp17
 70
     1
102
RTVSPropertyOp18
 70
     1
102
RTVSPropertyOp19
 70
     1
102
RTVSPropertyOp20
 70
     1
102
RTVSPropertyOp21
 70
     1
102
RTVSPropertyOp22
 70
     1
102
RTVSPropertyOp23
 70
     1
102
RTVSPropertyOp24
 70
     1
102
RTVSPropertyOp25
 70
     1
102
RTVSPropertyOp26
 70
     1
102
RTVSPropertyOp27
 70
     1
102
RTVSPropertyOp28
 70
     1
102
RTVSPropertyOp29
 70
     1
102
RTVSPropertyOp30
 70
     1
102
RTVSPropertyOp31
 70
     1
102
RTVSPropertyOp32
 70
     1
102
RTVSPropertyOp33
 70
     1
102
RTVSPropertyOp34
 70
     1
102
RTVSPropertyOp35
 70
     1
102
RTVSPropertyOp36
 70
     1
102
RTVSPropertyOp37
 70
     1
102
RTVSPropertyOp38
 70
     1
102
RTVSPropertyOp39
 70
     1
102
RTVSPropertyOp40
 70
     1
102
RTVSPropertyOp41
 70
     1
102
RTVSPropertyOp42
 70
     1
102
RTVSPropertyOp43
 70
     1
102
RTVSPropertyOp44
 70
     1
102
RTVSPropertyOp45
 70
     1
102
RTVSPropertyOp46
 70
     1
102
RTVSPropertyOp47
 70
     1
102
RTVSPropertyOp48
 70
     1
102
RTVSPropertyOp49
 70
     1
102
RTVSPropertyOp50
 70
     1
102
RTVSPropertyOp51
 70
     0
102
RTVSPropertyOp52
 70
     0
102
RTVSPropertyOp53
 70
     1
102
RTVSPropertyOp54
 70
     1
102
RTVSPropertyOp55
 70
     1
102
RTVSPropertyOp56
 70
     1
102
RTVSPropertyOp57
 70
     1
102
RTVSPropertyOp58
 70
     1
102
RTVSPropertyOp59
 70
     1
102
RTVSPropertyOp60
 70
     1
102
RTVSPropertyOp61
 70
     1
102
RTVSPropertyOp62
 70
     1
  0
XRECORD
  5
1B17
102
{ACAD_REACTORS
330
1B16
102
}
330
1B16
100
AcDbXrecord
280
     1
102
RTVSPost2010Prop28
280
     0
102
RTVSPost2010PropOp28
 70
     1
102
RTVSPost2010Prop29
280
     1
102
RTVSPost2010PropOp29
 70
     1
102
RTVSPost2010Prop30
280
     1
102
RTVSPost2010PropOp30
 70
     1
102
RTVSPost2010Prop31
280
     0
102
RTVSPost2010PropOp31
 70
     1
102
RTVSPost2010Prop32
280
     0
102
RTVSPost2010PropOp32
 70
     1
102
RTVSPost2010Prop33
280
     0
102
RTVSPost2010PropOp33
 70
     1
102
RTVSPost2010Prop34
280
     0
102
RTVSPost2010PropOp34
 70
     1
102
RTVSPost2010Prop35
280
     0
102
RTVSPost2010PropOp35
 70
     1
102
RTVSPost2010Prop36
280
     0
102
RTVSPost2010PropOp36
 70
     1
102
RTVSPost2010Prop37
 90
       50
102
RTVSPost2010PropOp37
 70
     1
102
RTVSPost2010Prop38
140
0.0
102
RTVSPost2010PropOp38
 70
     1
102
RTVSPost2010Prop39
140
1.0
102
RTVSPost2010PropOp39
 70
     1
102
RTVSPost2010Prop40
 90
        0
102
RTVSPost2010PropOp40
 70
     1
102
RTVSPost2010Prop41ColorIndex
 90
       18
102
RTVSPost2010Prop41ColorRGB
 90
        0
102
RTVSPost2010PropOp41
 70
     1
102
RTVSPost2010Prop42
 90
       50
102
RTVSPost2010PropOp42
 70
     1
102
RTVSPost2010Prop43
 90
        3
102
RTVSPost2010PropOp43
 70
     1
102
RTVSPost2010Prop44ColorIndex
 90
        5
102
RTVSPost2010Prop44ColorRGB
 90
      255
102
RTVSPost2010PropOp44
 70
     1
102
RTVSPost2010Prop45
280
     0
102
RTVSPost2010PropOp45
 70
     1
102
RTVSPost2010Prop46
 90
       50
102
RTVSPost2010PropOp46
 70
     1
102
RTVSPost2010Prop47
 90
       50
102
RTVSPost2010PropOp47
 70
     1
102
RTVSPost2010Prop48
 90
       50
102
RTVSPost2010PropOp48
 70
     1
102
RTVSPost2010Prop49
280
     0
102
RTVSPost2010PropOp49
 70
     1
102
RTVSPost2010Prop50
 90
       50
102
RTVSPost2010PropOp50
 70
     1
102
RTVSPost2010Prop51ColorIndex
 90
      256
102
RTVSPost2010Prop51ColorRGB
 90
-16777216
102
RTVSPost2010PropOp51
 70
     0
102
RTVSPost2010Prop52
140
1.0
102
RTVSPost2010PropOp52
 70
     0
102
RTVSPost2010Prop53
 90
        2
102
RTVSPost2010PropOp53
 70
     1
102
RTVSPost2010Prop54
  1
strokes_ogs.tif
102
RTVSPost2010PropOp54
 70
     1
102
RTVSPost2010Prop55
280
     0
102
RTVSPost2010PropOp55
 70
     1
102
RTVSPost2010Prop56
140
1.0
102
RTVSPost2010PropOp56
 70
     1
102
RTVSPost2010Prop57
140
1.0
102
RTVSPost2010PropOp57
 70
     1
102
RTVSPropertyOp0
 70
     1
102
RTVSPropertyOp1
 70
     1
102
RTVSPropertyOp2
 70
     1
102
RTVSPropertyOp3
 70
     1
102
RTVSPropertyOp4
 70
     1
102
RTVSPropertyOp5
 70
     1
102
RTVSPropertyOp6
 70
     1
102
RTVSPropertyOp7
 70
     1
102
RTVSPropertyOp8
 70
     1
102
RTVSPropertyOp9
 70
     1
102
RTVSPropertyOp10
 70
     1
102
RTVSPropertyOp11
 70
     1
102
RTVSPropertyOp12
 70
     1
102
RTVSPropertyOp13
 70
     1
102
RTVSPropertyOp14
 70
     1
102
RTVSPropertyOp15
 70
     1
102
RTVSPropertyOp16
 70
     1
102
RTVSPropertyOp17
 70
     1
102
RTVSPropertyOp18
 70
     1
102
RTVSPropertyOp19
 70
     1
102
RTVSPropertyOp20
 70
     1
102
RTVSPropertyOp21
 70
     1
102
RTVSPropertyOp22
 70
     1
102
RTVSPropertyOp23
 70
     1
102
RTVSPropertyOp24
 70
     1
102
RTVSPropertyOp25
 70
     1
102
RTVSPropertyOp26
 70
     1
102
RTVSPropertyOp27
 70
     1
102
RTVSPropertyOp28
 70
     1
102
RTVSPropertyOp29
 70
     1
102
RTVSPropertyOp30
 70
     1
102
RTVSPropertyOp31
 70
     1
102
RTVSPropertyOp32
 70
     1
102
RTVSPropertyOp33
 70
     1
102
RTVSPropertyOp34
 70
     1
102
RTVSPropertyOp35
 70
     1
102
RTVSPropertyOp36
 70
     1
102
RTVSPropertyOp37
 70
     1
102
RTVSPropertyOp38
 70
     1
102
RTVSPropertyOp39
 70
     1
102
RTVSPropertyOp40
 70
     1
102
RTVSPropertyOp41
 70
     1
102
RTVSPropertyOp42
 70
     1
102
RTVSPropertyOp43
 70
     1
102
RTVSPropertyOp44
 70
     1
102
RTVSPropertyOp45
 70
     1
102
RTVSPropertyOp46
 70
     1
102
RTVSPropertyOp47
 70
     1
102
RTVSPropertyOp48
 70
     1
102
RTVSPropertyOp49
 70
     1
102
RTVSPropertyOp50
 70
     1
102
RTVSPropertyOp51
 70
     0
102
RTVSPropertyOp52
 70
     0
102
RTVSPropertyOp53
 70
     1
102
RTVSPropertyOp54
 70
     1
102
RTVSPropertyOp55
 70
     1
102
RTVSPropertyOp56
 70
     1
102
RTVSPropertyOp57
 70
     1
102
RTVSPropertyOp58
 70
     1
102
RTVSPropertyOp59
 70
     1
102
RTVSPropertyOp60
 70
     1
102
RTVSPropertyOp61
 70
     1
102
RTVSPropertyOp62
 70
     1
  0
XRECORD
  5
1B19
102
{ACAD_REACTORS
330
1B18
102
}
330
1B18
100
AcDbXrecord
280
     1
102
RTVSPost2010Prop28
280
     0
102
RTVSPost2010PropOp28
 70
     1
102
RTVSPost2010Prop29
280
     1
102
RTVSPost2010PropOp29
 70
     1
102
RTVSPost2010Prop30
280
     1
102
RTVSPost2010PropOp30
 70
     1
102
RTVSPost2010Prop31
280
     0
102
RTVSPost2010PropOp31
 70
     1
102
RTVSPost2010Prop32
280
     0
102
RTVSPost2010PropOp32
 70
     1
102
RTVSPost2010Prop33
280
     0
102
RTVSPost2010PropOp33
 70
     1
102
RTVSPost2010Prop34
280
     0
102
RTVSPost2010PropOp34
 70
     1
102
RTVSPost2010Prop35
280
     0
102
RTVSPost2010PropOp35
 70
     1
102
RTVSPost2010Prop36
280
     0
102
RTVSPost2010PropOp36
 70
     1
102
RTVSPost2010Prop37
 90
       50
102
RTVSPost2010PropOp37
 70
     1
102
RTVSPost2010Prop38
140
0.0
102
RTVSPost2010PropOp38
 70
     1
102
RTVSPost2010Prop39
140
1.0
102
RTVSPost2010PropOp39
 70
     1
102
RTVSPost2010Prop40
 90
        0
102
RTVSPost2010PropOp40
 70
     1
102
RTVSPost2010Prop41ColorIndex
 90
       18
102
RTVSPost2010Prop41ColorRGB
 90
        0
102
RTVSPost2010PropOp41
 70
     1
102
RTVSPost2010Prop42
 90
       50
102
RTVSPost2010PropOp42
 70
     1
102
RTVSPost2010Prop43
 90
        3
102
RTVSPost2010PropOp43
 70
     1
102
RTVSPost2010Prop44ColorIndex
 90
        5
102
RTVSPost2010Prop44ColorRGB
 90
      255
102
RTVSPost2010PropOp44
 70
     1
102
RTVSPost2010Prop45
280
     0
102
RTVSPost2010PropOp45
 70
     1
102
RTVSPost2010Prop46
 90
       50
102
RTVSPost2010PropOp46
 70
     1
102
RTVSPost2010Prop47
 90
       50
102
RTVSPost2010PropOp47
 70
     1
102
RTVSPost2010Prop48
 90
       50
102
RTVSPost2010PropOp48
 70
     1
102
RTVSPost2010Prop49
280
     0
102
RTVSPost2010PropOp49
 70
     1
102
RTVSPost2010Prop50
 90
       50
102
RTVSPost2010PropOp50
 70
     1
102
RTVSPost2010Prop51ColorIndex
 90
      256
102
RTVSPost2010Prop51ColorRGB
 90
-16777216
102
RTVSPost2010PropOp51
 70
     0
102
RTVSPost2010Prop52
140
1.0
102
RTVSPost2010PropOp52
 70
     0
102
RTVSPost2010Prop53
 90
        2
102
RTVSPost2010PropOp53
 70
     1
102
RTVSPost2010Prop54
  1
strokes_ogs.tif
102
RTVSPost2010PropOp54
 70
     1
102
RTVSPost2010Prop55
280
     0
102
RTVSPost2010PropOp55
 70
     1
102
RTVSPost2010Prop56
140
1.0
102
RTVSPost2010PropOp56
 70
     1
102
RTVSPost2010Prop57
140
1.0
102
RTVSPost2010PropOp57
 70
     1
102
RTVSPropertyOp0
 70
     1
102
RTVSPropertyOp1
 70
     1
102
RTVSPropertyOp2
 70
     1
102
RTVSPropertyOp3
 70
     1
102
RTVSPropertyOp4
 70
     1
102
RTVSPropertyOp5
 70
     1
102
RTVSPropertyOp6
 70
     1
102
RTVSPropertyOp7
 70
     1
102
RTVSPropertyOp8
 70
     1
102
RTVSPropertyOp9
 70
     1
102
RTVSPropertyOp10
 70
     1
102
RTVSPropertyOp11
 70
     1
102
RTVSPropertyOp12
 70
     1
102
RTVSPropertyOp13
 70
     1
102
RTVSPropertyOp14
 70
     1
102
RTVSPropertyOp15
 70
     1
102
RTVSPropertyOp16
 70
     1
102
RTVSPropertyOp17
 70
     1
102
RTVSPropertyOp18
 70
     1
102
RTVSPropertyOp19
 70
     1
102
RTVSPropertyOp20
 70
     1
102
RTVSPropertyOp21
 70
     1
102
RTVSPropertyOp22
 70
     1
102
RTVSPropertyOp23
 70
     1
102
RTVSPropertyOp24
 70
     1
102
RTVSPropertyOp25
 70
     1
102
RTVSPropertyOp26
 70
     1
102
RTVSPropertyOp27
 70
     1
102
RTVSPropertyOp28
 70
     1
102
RTVSPropertyOp29
 70
     1
102
RTVSPropertyOp30
 70
     1
102
RTVSPropertyOp31
 70
     1
102
RTVSPropertyOp32
 70
     1
102
RTVSPropertyOp33
 70
     1
102
RTVSPropertyOp34
 70
     1
102
RTVSPropertyOp35
 70
     1
102
RTVSPropertyOp36
 70
     1
102
RTVSPropertyOp37
 70
     1
102
RTVSPropertyOp38
 70
     1
102
RTVSPropertyOp39
 70
     1
102
RTVSPropertyOp40
 70
     1
102
RTVSPropertyOp41
 70
     1
102
RTVSPropertyOp42
 70
     1
102
RTVSPropertyOp43
 70
     1
102
RTVSPropertyOp44
 70
     1
102
RTVSPropertyOp45
 70
     1
102
RTVSPropertyOp46
 70
     1
102
RTVSPropertyOp47
 70
     1
102
RTVSPropertyOp48
 70
     1
102
RTVSPropertyOp49
 70
     1
102
RTVSPropertyOp50
 70
     1
102
RTVSPropertyOp51
 70
     0
102
RTVSPropertyOp52
 70
     0
102
RTVSPropertyOp53
 70
     1
102
RTVSPropertyOp54
 70
     1
102
RTVSPropertyOp55
 70
     1
102
RTVSPropertyOp56
 70
     1
102
RTVSPropertyOp57
 70
     1
102
RTVSPropertyOp58
 70
     1
102
RTVSPropertyOp59
 70
     1
102
RTVSPropertyOp60
 70
     1
102
RTVSPropertyOp61
 70
     1
102
RTVSPropertyOp62
 70
     1
  0
XRECORD
  5
1B1B
102
{ACAD_REACTORS
330
1B1A
102
}
330
1B1A
100
AcDbXrecord
280
     1
102
RTVSPost2010Prop28
280
     0
102
RTVSPost2010PropOp28
 70
     1
102
RTVSPost2010Prop29
280
     1
102
RTVSPost2010PropOp29
 70
     1
102
RTVSPost2010Prop30
280
     1
102
RTVSPost2010PropOp30
 70
     1
102
RTVSPost2010Prop31
280
     0
102
RTVSPost2010PropOp31
 70
     1
102
RTVSPost2010Prop32
280
     0
102
RTVSPost2010PropOp32
 70
     1
102
RTVSPost2010Prop33
280
     0
102
RTVSPost2010PropOp33
 70
     1
102
RTVSPost2010Prop34
280
     0
102
RTVSPost2010PropOp34
 70
     1
102
RTVSPost2010Prop35
280
     0
102
RTVSPost2010PropOp35
 70
     1
102
RTVSPost2010Prop36
280
     0
102
RTVSPost2010PropOp36
 70
     1
102
RTVSPost2010Prop37
 90
       50
102
RTVSPost2010PropOp37
 70
     1
102
RTVSPost2010Prop38
140
0.0
102
RTVSPost2010PropOp38
 70
     1
102
RTVSPost2010Prop39
140
1.0
102
RTVSPost2010PropOp39
 70
     1
102
RTVSPost2010Prop40
 90
        0
102
RTVSPost2010PropOp40
 70
     1
102
RTVSPost2010Prop41ColorIndex
 90
       18
102
RTVSPost2010Prop41ColorRGB
 90
        0
102
RTVSPost2010PropOp41
 70
     1
102
RTVSPost2010Prop42
 90
       50
102
RTVSPost2010PropOp42
 70
     1
102
RTVSPost2010Prop43
 90
        3
102
RTVSPost2010PropOp43
 70
     1
102
RTVSPost2010Prop44ColorIndex
 90
        5
102
RTVSPost2010Prop44ColorRGB
 90
      255
102
RTVSPost2010PropOp44
 70
     1
102
RTVSPost2010Prop45
280
     0
102
RTVSPost2010PropOp45
 70
     1
102
RTVSPost2010Prop46
 90
       50
102
RTVSPost2010PropOp46
 70
     1
102
RTVSPost2010Prop47
 90
       50
102
RTVSPost2010PropOp47
 70
     1
102
RTVSPost2010Prop48
 90
       50
102
RTVSPost2010PropOp48
 70
     1
102
RTVSPost2010Prop49
280
     0
102
RTVSPost2010PropOp49
 70
     1
102
RTVSPost2010Prop50
 90
       50
102
RTVSPost2010PropOp50
 70
     1
102
RTVSPost2010Prop51ColorIndex
 90
      256
102
RTVSPost2010Prop51ColorRGB
 90
-16777216
102
RTVSPost2010PropOp51
 70
     0
102
RTVSPost2010Prop52
140
1.0
102
RTVSPost2010PropOp52
 70
     0
102
RTVSPost2010Prop53
 90
        2
102
RTVSPost2010PropOp53
 70
     1
102
RTVSPost2010Prop54
  1
strokes_ogs.tif
102
RTVSPost2010PropOp54
 70
     1
102
RTVSPost2010Prop55
280
     0
102
RTVSPost2010PropOp55
 70
     1
102
RTVSPost2010Prop56
140
1.0
102
RTVSPost2010PropOp56
 70
     1
102
RTVSPost2010Prop57
140
1.0
102
RTVSPost2010PropOp57
 70
     1
102
RTVSPropertyOp0
 70
     1
102
RTVSPropertyOp1
 70
     1
102
RTVSPropertyOp2
 70
     1
102
RTVSPropertyOp3
 70
     1
102
RTVSPropertyOp4
 70
     1
102
RTVSPropertyOp5
 70
     1
102
RTVSPropertyOp6
 70
     1
102
RTVSPropertyOp7
 70
     1
102
RTVSPropertyOp8
 70
     1
102
RTVSPropertyOp9
 70
     1
102
RTVSPropertyOp10
 70
     1
102
RTVSPropertyOp11
 70
     1
102
RTVSPropertyOp12
 70
     1
102
RTVSPropertyOp13
 70
     1
102
RTVSPropertyOp14
 70
     1
102
RTVSPropertyOp15
 70
     1
102
RTVSPropertyOp16
 70
     1
102
RTVSPropertyOp17
 70
     1
102
RTVSPropertyOp18
 70
     1
102
RTVSPropertyOp19
 70
     1
102
RTVSPropertyOp20
 70
     1
102
RTVSPropertyOp21
 70
     1
102
RTVSPropertyOp22
 70
     1
102
RTVSPropertyOp23
 70
     1
102
RTVSPropertyOp24
 70
     1
102
RTVSPropertyOp25
 70
     1
102
RTVSPropertyOp26
 70
     1
102
RTVSPropertyOp27
 70
     1
102
RTVSPropertyOp28
 70
     1
102
RTVSPropertyOp29
 70
     1
102
RTVSPropertyOp30
 70
     1
102
RTVSPropertyOp31
 70
     1
102
RTVSPropertyOp32
 70
     1
102
RTVSPropertyOp33
 70
     1
102
RTVSPropertyOp34
 70
     1
102
RTVSPropertyOp35
 70
     1
102
RTVSPropertyOp36
 70
     1
102
RTVSPropertyOp37
 70
     1
102
RTVSPropertyOp38
 70
     1
102
RTVSPropertyOp39
 70
     1
102
RTVSPropertyOp40
 70
     1
102
RTVSPropertyOp41
 70
     1
102
RTVSPropertyOp42
 70
     1
102
RTVSPropertyOp43
 70
     1
102
RTVSPropertyOp44
 70
     1
102
RTVSPropertyOp45
 70
     1
102
RTVSPropertyOp46
 70
     1
102
RTVSPropertyOp47
 70
     1
102
RTVSPropertyOp48
 70
     1
102
RTVSPropertyOp49
 70
     1
102
RTVSPropertyOp50
 70
     1
102
RTVSPropertyOp51
 70
     0
102
RTVSPropertyOp52
 70
     0
102
RTVSPropertyOp53
 70
     1
102
RTVSPropertyOp54
 70
     1
102
RTVSPropertyOp55
 70
     1
102
RTVSPropertyOp56
 70
     1
102
RTVSPropertyOp57
 70
     1
102
RTVSPropertyOp58
 70
     1
102
RTVSPropertyOp59
 70
     1
102
RTVSPropertyOp60
 70
     1
102
RTVSPropertyOp61
 70
     1
102
RTVSPropertyOp62
 70
     1
  0
XRECORD
  5
1B23
102
{ACAD_REACTORS
330
1B22
102
}
330
1B22
100
AcDbXrecord
280
     1
102
RTVSPost2010Prop28
280
     0
102
RTVSPost2010PropOp28
 70
     1
102
RTVSPost2010Prop29
280
     1
102
RTVSPost2010PropOp29
 70
     1
102
RTVSPost2010Prop30
280
     1
102
RTVSPost2010PropOp30
 70
     1
102
RTVSPost2010Prop31
280
     0
102
RTVSPost2010PropOp31
 70
     1
102
RTVSPost2010Prop32
280
     0
102
RTVSPost2010PropOp32
 70
     1
102
RTVSPost2010Prop33
280
     0
102
RTVSPost2010PropOp33
 70
     1
102
RTVSPost2010Prop34
280
     0
102
RTVSPost2010PropOp34
 70
     1
102
RTVSPost2010Prop35
280
     0
102
RTVSPost2010PropOp35
 70
     1
102
RTVSPost2010Prop36
280
     0
102
RTVSPost2010PropOp36
 70
     1
102
RTVSPost2010Prop37
 90
       50
102
RTVSPost2010PropOp37
 70
     1
102
RTVSPost2010Prop38
140
0.0
102
RTVSPost2010PropOp38
 70
     1
102
RTVSPost2010Prop39
140
1.0
102
RTVSPost2010PropOp39
 70
     1
102
RTVSPost2010Prop40
 90
        0
102
RTVSPost2010PropOp40
 70
     1
102
RTVSPost2010Prop41ColorIndex
 90
       18
102
RTVSPost2010Prop41ColorRGB
 90
        0
102
RTVSPost2010PropOp41
 70
     1
102
RTVSPost2010Prop42
 90
       50
102
RTVSPost2010PropOp42
 70
     1
102
RTVSPost2010Prop43
 90
        3
102
RTVSPost2010PropOp43
 70
     1
102
RTVSPost2010Prop44ColorIndex
 90
        5
102
RTVSPost2010Prop44ColorRGB
 90
      255
102
RTVSPost2010PropOp44
 70
     1
102
RTVSPost2010Prop45
280
     0
102
RTVSPost2010PropOp45
 70
     1
102
RTVSPost2010Prop46
 90
       50
102
RTVSPost2010PropOp46
 70
     1
102
RTVSPost2010Prop47
 90
       50
102
RTVSPost2010PropOp47
 70
     1
102
RTVSPost2010Prop48
 90
       50
102
RTVSPost2010PropOp48
 70
     1
102
RTVSPost2010Prop49
280
     0
102
RTVSPost2010PropOp49
 70
     1
102
RTVSPost2010Prop50
 90
       50
102
RTVSPost2010PropOp50
 70
     1
102
RTVSPost2010Prop51ColorIndex
 90
      256
102
RTVSPost2010Prop51ColorRGB
 90
-16777216
102
RTVSPost2010PropOp51
 70
     0
102
RTVSPost2010Prop52
140
1.0
102
RTVSPost2010PropOp52
 70
     0
102
RTVSPost2010Prop53
 90
        2
102
RTVSPost2010PropOp53
 70
     1
102
RTVSPost2010Prop54
  1
strokes_ogs.tif
102
RTVSPost2010PropOp54
 70
     1
102
RTVSPost2010Prop55
280
     0
102
RTVSPost2010PropOp55
 70
     1
102
RTVSPost2010Prop56
140
1.0
102
RTVSPost2010PropOp56
 70
     1
102
RTVSPost2010Prop57
140
1.0
102
RTVSPost2010PropOp57
 70
     1
102
RTVSPropertyOp0
 70
     1
102
RTVSPropertyOp1
 70
     1
102
RTVSPropertyOp2
 70
     1
102
RTVSPropertyOp3
 70
     1
102
RTVSPropertyOp4
 70
     1
102
RTVSPropertyOp5
 70
     1
102
RTVSPropertyOp6
 70
     1
102
RTVSPropertyOp7
 70
     1
102
RTVSPropertyOp8
 70
     1
102
RTVSPropertyOp9
 70
     1
102
RTVSPropertyOp10
 70
     1
102
RTVSPropertyOp11
 70
     1
102
RTVSPropertyOp12
 70
     1
102
RTVSPropertyOp13
 70
     1
102
RTVSPropertyOp14
 70
     1
102
RTVSPropertyOp15
 70
     1
102
RTVSPropertyOp16
 70
     1
102
RTVSPropertyOp17
 70
     1
102
RTVSPropertyOp18
 70
     1
102
RTVSPropertyOp19
 70
     1
102
RTVSPropertyOp20
 70
     1
102
RTVSPropertyOp21
 70
     1
102
RTVSPropertyOp22
 70
     1
102
RTVSPropertyOp23
 70
     1
102
RTVSPropertyOp24
 70
     1
102
RTVSPropertyOp25
 70
     1
102
RTVSPropertyOp26
 70
     1
102
RTVSPropertyOp27
 70
     1
102
RTVSPropertyOp28
 70
     1
102
RTVSPropertyOp29
 70
     1
102
RTVSPropertyOp30
 70
     1
102
RTVSPropertyOp31
 70
     1
102
RTVSPropertyOp32
 70
     1
102
RTVSPropertyOp33
 70
     1
102
RTVSPropertyOp34
 70
     1
102
RTVSPropertyOp35
 70
     1
102
RTVSPropertyOp36
 70
     1
102
RTVSPropertyOp37
 70
     1
102
RTVSPropertyOp38
 70
     1
102
RTVSPropertyOp39
 70
     1
102
RTVSPropertyOp40
 70
     1
102
RTVSPropertyOp41
 70
     1
102
RTVSPropertyOp42
 70
     1
102
RTVSPropertyOp43
 70
     1
102
RTVSPropertyOp44
 70
     1
102
RTVSPropertyOp45
 70
     1
102
RTVSPropertyOp46
 70
     1
102
RTVSPropertyOp47
 70
     1
102
RTVSPropertyOp48
 70
     1
102
RTVSPropertyOp49
 70
     1
102
RTVSPropertyOp50
 70
     1
102
RTVSPropertyOp51
 70
     0
102
RTVSPropertyOp52
 70
     0
102
RTVSPropertyOp53
 70
     1
102
RTVSPropertyOp54
 70
     1
102
RTVSPropertyOp55
 70
     1
102
RTVSPropertyOp56
 70
     1
102
RTVSPropertyOp57
 70
     1
102
RTVSPropertyOp58
 70
     1
102
RTVSPropertyOp59
 70
     1
102
RTVSPropertyOp60
 70
     1
102
RTVSPropertyOp61
 70
     1
102
RTVSPropertyOp62
 70
     1
  0
XRECORD
  5
1B3F
102
{ACAD_REACTORS
330
1B3E
102
}
330
1B3E
100
AcDbXrecord
280
     1
102
RTVSPost2010Prop28
280
     0
102
RTVSPost2010PropOp28
 70
     1
102
RTVSPost2010Prop29
280
     1
102
RTVSPost2010PropOp29
 70
     1
102
RTVSPost2010Prop30
280
     1
102
RTVSPost2010PropOp30
 70
     1
102
RTVSPost2010Prop31
280
     0
102
RTVSPost2010PropOp31
 70
     1
102
RTVSPost2010Prop32
280
     0
102
RTVSPost2010PropOp32
 70
     1
102
RTVSPost2010Prop33
280
     0
102
RTVSPost2010PropOp33
 70
     1
102
RTVSPost2010Prop34
280
     0
102
RTVSPost2010PropOp34
 70
     1
102
RTVSPost2010Prop35
280
     0
102
RTVSPost2010PropOp35
 70
     1
102
RTVSPost2010Prop36
280
     0
102
RTVSPost2010PropOp36
 70
     1
102
RTVSPost2010Prop37
 90
       50
102
RTVSPost2010PropOp37
 70
     0
102
RTVSPost2010Prop38
140
0.0
102
RTVSPost2010PropOp38
 70
     0
102
RTVSPost2010Prop39
140
1.0
102
RTVSPost2010PropOp39
 70
     0
102
RTVSPost2010Prop40
 90
        0
102
RTVSPost2010PropOp40
 70
     0
102
RTVSPost2010Prop41ColorIndex
 90
       18
102
RTVSPost2010Prop41ColorRGB
 90
        0
102
RTVSPost2010PropOp41
 70
     0
102
RTVSPost2010Prop42
 90
       50
102
RTVSPost2010PropOp42
 70
     0
102
RTVSPost2010Prop43
 90
        3
102
RTVSPost2010PropOp43
 70
     0
102
RTVSPost2010Prop44ColorIndex
 90
        5
102
RTVSPost2010Prop44ColorRGB
 90
      255
102
RTVSPost2010PropOp44
 70
     0
102
RTVSPost2010Prop45
280
     0
102
RTVSPost2010PropOp45
 70
     1
102
RTVSPost2010Prop46
 90
       50
102
RTVSPost2010PropOp46
 70
     0
102
RTVSPost2010Prop47
 90
       50
102
RTVSPost2010PropOp47
 70
     0
102
RTVSPost2010Prop48
 90
       50
102
RTVSPost2010PropOp48
 70
     0
102
RTVSPost2010Prop49
280
     0
102
RTVSPost2010PropOp49
 70
     1
102
RTVSPost2010Prop50
 90
       50
102
RTVSPost2010PropOp50
 70
     0
102
RTVSPost2010Prop51ColorIndex
 90
      256
102
RTVSPost2010Prop51ColorRGB
 90
-16777216
102
RTVSPost2010PropOp51
 70
     0
102
RTVSPost2010Prop52
140
1.0
102
RTVSPost2010PropOp52
 70
     0
102
RTVSPost2010Prop53
 90
        2
102
RTVSPost2010PropOp53
 70
     0
102
RTVSPost2010Prop54
  1
strokes_ogs.tif
102
RTVSPost2010PropOp54
 70
     0
102
RTVSPost2010Prop55
280
     0
102
RTVSPost2010PropOp55
 70
     1
102
RTVSPost2010Prop56
140
1.0
102
RTVSPost2010PropOp56
 70
     0
102
RTVSPost2010Prop57
140
1.0
102
RTVSPost2010PropOp57
 70
     0
102
RTVSPropertyOp0
 70
     0
102
RTVSPropertyOp1
 70
     0
102
RTVSPropertyOp2
 70
     0
102
RTVSPropertyOp3
 70
     0
102
RTVSPropertyOp4
 70
     0
102
RTVSPropertyOp5
 70
     0
102
RTVSPropertyOp6
 70
     0
102
RTVSPropertyOp7
 70
     0
102
RTVSPropertyOp8
 70
     0
102
RTVSPropertyOp9
 70
     0
102
RTVSPropertyOp10
 70
     0
102
RTVSPropertyOp11
 70
     0
102
RTVSPropertyOp12
 70
     0
102
RTVSPropertyOp13
 70
     0
102
RTVSPropertyOp14
 70
     2
102
RTVSPropertyOp15
 70
     0
102
RTVSPropertyOp16
 70
     0
102
RTVSPropertyOp17
 70
     0
102
RTVSPropertyOp18
 70
     0
102
RTVSPropertyOp19
 70
     0
102
RTVSPropertyOp20
 70
     0
102
RTVSPropertyOp21
 70
     0
102
RTVSPropertyOp22
 70
     0
102
RTVSPropertyOp23
 70
     0
102
RTVSPropertyOp24
 70
     0
102
RTVSPropertyOp25
 70
     0
102
RTVSPropertyOp26
 70
     0
102
RTVSPropertyOp27
 70
     0
102
RTVSPropertyOp28
 70
     1
102
RTVSPropertyOp29
 70
     1
102
RTVSPropertyOp30
 70
     1
102
RTVSPropertyOp31
 70
     1
102
RTVSPropertyOp32
 70
     1
102
RTVSPropertyOp33
 70
     1
102
RTVSPropertyOp34
 70
     1
102
RTVSPropertyOp35
 70
     1
102
RTVSPropertyOp36
 70
     1
102
RTVSPropertyOp37
 70
     0
102
RTVSPropertyOp38
 70
     0
102
RTVSPropertyOp39
 70
     0
102
RTVSPropertyOp40
 70
     0
102
RTVSPropertyOp41
 70
     0
102
RTVSPropertyOp42
 70
     0
102
RTVSPropertyOp43
 70
     0
102
RTVSPropertyOp44
 70
     0
102
RTVSPropertyOp45
 70
     1
102
RTVSPropertyOp46
 70
     0
102
RTVSPropertyOp47
 70
     0
102
RTVSPropertyOp48
 70
     0
102
RTVSPropertyOp49
 70
     1
102
RTVSPropertyOp50
 70
     0
102
RTVSPropertyOp51
 70
     0
102
RTVSPropertyOp52
 70
     0
102
RTVSPropertyOp53
 70
     0
102
RTVSPropertyOp54
 70
     0
102
RTVSPropertyOp55
 70
     1
102
RTVSPropertyOp56
 70
     0
102
RTVSPropertyOp57
 70
     0
102
RTVSPropertyOp58
 70
     0
102
RTVSPropertyOp59
 70
     0
102
RTVSPropertyOp60
 70
     0
102
RTVSPropertyOp61
 70
     0
102
RTVSPropertyOp62
 70
     0
  0
XRECORD
  5
1B2F
102
{ACAD_REACTORS
330
1B2E
102
}
330
1B2E
100
AcDbXrecord
280
     1
102
RTVSPost2010Prop28
280
     0
102
RTVSPost2010PropOp28
 70
     1
102
RTVSPost2010Prop29
280
     1
102
RTVSPost2010PropOp29
 70
     1
102
RTVSPost2010Prop30
280
     1
102
RTVSPost2010PropOp30
 70
     1
102
RTVSPost2010Prop31
280
     0
102
RTVSPost2010PropOp31
 70
     1
102
RTVSPost2010Prop32
280
     0
102
RTVSPost2010PropOp32
 70
     1
102
RTVSPost2010Prop33
280
     0
102
RTVSPost2010PropOp33
 70
     1
102
RTVSPost2010Prop34
280
     0
102
RTVSPost2010PropOp34
 70
     1
102
RTVSPost2010Prop35
280
     0
102
RTVSPost2010PropOp35
 70
     1
102
RTVSPost2010Prop36
280
     0
102
RTVSPost2010PropOp36
 70
     1
102
RTVSPost2010Prop37
 90
       50
102
RTVSPost2010PropOp37
 70
     1
102
RTVSPost2010Prop38
140
0.0
102
RTVSPost2010PropOp38
 70
     1
102
RTVSPost2010Prop39
140
1.0
102
RTVSPost2010PropOp39
 70
     1
102
RTVSPost2010Prop40
 90
        0
102
RTVSPost2010PropOp40
 70
     1
102
RTVSPost2010Prop41ColorIndex
 90
       18
102
RTVSPost2010Prop41ColorRGB
 90
        0
102
RTVSPost2010PropOp41
 70
     1
102
RTVSPost2010Prop42
 90
       50
102
RTVSPost2010PropOp42
 70
     1
102
RTVSPost2010Prop43
 90
        3
102
RTVSPost2010PropOp43
 70
     1
102
RTVSPost2010Prop44ColorIndex
 90
        5
102
RTVSPost2010Prop44ColorRGB
 90
      255
102
RTVSPost2010PropOp44
 70
     1
102
RTVSPost2010Prop45
280
     0
102
RTVSPost2010PropOp45
 70
     1
102
RTVSPost2010Prop46
 90
       50
102
RTVSPost2010PropOp46
 70
     1
102
RTVSPost2010Prop47
 90
       50
102
RTVSPost2010PropOp47
 70
     1
102
RTVSPost2010Prop48
 90
       50
102
RTVSPost2010PropOp48
 70
     1
102
RTVSPost2010Prop49
280
     0
102
RTVSPost2010PropOp49
 70
     1
102
RTVSPost2010Prop50
 90
       50
102
RTVSPost2010PropOp50
 70
     1
102
RTVSPost2010Prop51ColorIndex
 90
      256
102
RTVSPost2010Prop51ColorRGB
 90
-16777216
102
RTVSPost2010PropOp51
 70
     0
102
RTVSPost2010Prop52
140
1.0
102
RTVSPost2010PropOp52
 70
     0
102
RTVSPost2010Prop53
 90
        2
102
RTVSPost2010PropOp53
 70
     1
102
RTVSPost2010Prop54
  1
strokes_ogs.tif
102
RTVSPost2010PropOp54
 70
     1
102
RTVSPost2010Prop55
280
     0
102
RTVSPost2010PropOp55
 70
     1
102
RTVSPost2010Prop56
140
1.0
102
RTVSPost2010PropOp56
 70
     1
102
RTVSPost2010Prop57
140
1.0
102
RTVSPost2010PropOp57
 70
     1
102
RTVSPropertyOp0
 70
     1
102
RTVSPropertyOp1
 70
     1
102
RTVSPropertyOp2
 70
     1
102
RTVSPropertyOp3
 70
     1
102
RTVSPropertyOp4
 70
     1
102
RTVSPropertyOp5
 70
     1
102
RTVSPropertyOp6
 70
     1
102
RTVSPropertyOp7
 70
     1
102
RTVSPropertyOp8
 70
     1
102
RTVSPropertyOp9
 70
     1
102
RTVSPropertyOp10
 70
     1
102
RTVSPropertyOp11
 70
     1
102
RTVSPropertyOp12
 70
     1
102
RTVSPropertyOp13
 70
     1
102
RTVSPropertyOp14
 70
     1
102
RTVSPropertyOp15
 70
     1
102
RTVSPropertyOp16
 70
     1
102
RTVSPropertyOp17
 70
     1
102
RTVSPropertyOp18
 70
     1
102
RTVSPropertyOp19
 70
     1
102
RTVSPropertyOp20
 70
     1
102
RTVSPropertyOp21
 70
     1
102
RTVSPropertyOp22
 70
     1
102
RTVSPropertyOp23
 70
     1
102
RTVSPropertyOp24
 70
     1
102
RTVSPropertyOp25
 70
     1
102
RTVSPropertyOp26
 70
     1
102
RTVSPropertyOp27
 70
     1
102
RTVSPropertyOp28
 70
     1
102
RTVSPropertyOp29
 70
     1
102
RTVSPropertyOp30
 70
     1
102
RTVSPropertyOp31
 70
     1
102
RTVSPropertyOp32
 70
     1
102
RTVSPropertyOp33
 70
     1
102
RTVSPropertyOp34
 70
     1
102
RTVSPropertyOp35
 70
     1
102
RTVSPropertyOp36
 70
     1
102
RTVSPropertyOp37
 70
     1
102
RTVSPropertyOp38
 70
     1
102
RTVSPropertyOp39
 70
     1
102
RTVSPropertyOp40
 70
     1
102
RTVSPropertyOp41
 70
     1
102
RTVSPropertyOp42
 70
     1
102
RTVSPropertyOp43
 70
     1
102
RTVSPropertyOp44
 70
     1
102
RTVSPropertyOp45
 70
     1
102
RTVSPropertyOp46
 70
     1
102
RTVSPropertyOp47
 70
     1
102
RTVSPropertyOp48
 70
     1
102
RTVSPropertyOp49
 70
     1
102
RTVSPropertyOp50
 70
     1
102
RTVSPropertyOp51
 70
     0
102
RTVSPropertyOp52
 70
     0
102
RTVSPropertyOp53
 70
     1
102
RTVSPropertyOp54
 70
     1
102
RTVSPropertyOp55
 70
     1
102
RTVSPropertyOp56
 70
     1
102
RTVSPropertyOp57
 70
     1
102
RTVSPropertyOp58
 70
     1
102
RTVSPropertyOp59
 70
     1
102
RTVSPropertyOp60
 70
     1
102
RTVSPropertyOp61
 70
     1
102
RTVSPropertyOp62
 70
     1
  0
XRECORD
  5
1B41
102
{ACAD_REACTORS
330
1B40
102
}
330
1B40
100
AcDbXrecord
280
     1
102
RTVSPost2010Prop28
280
     0
102
RTVSPost2010PropOp28
 70
     1
102
RTVSPost2010Prop29
280
     1
102
RTVSPost2010PropOp29
 70
     1
102
RTVSPost2010Prop30
280
     1
102
RTVSPost2010PropOp30
 70
     1
102
RTVSPost2010Prop31
280
     0
102
RTVSPost2010PropOp31
 70
     1
102
RTVSPost2010Prop32
280
     0
102
RTVSPost2010PropOp32
 70
     1
102
RTVSPost2010Prop33
280
     0
102
RTVSPost2010PropOp33
 70
     1
102
RTVSPost2010Prop34
280
     0
102
RTVSPost2010PropOp34
 70
     1
102
RTVSPost2010Prop35
280
     0
102
RTVSPost2010PropOp35
 70
     1
102
RTVSPost2010Prop36
280
     0
102
RTVSPost2010PropOp36
 70
     1
102
RTVSPost2010Prop37
 90
       50
102
RTVSPost2010PropOp37
 70
     0
102
RTVSPost2010Prop38
140
0.0
102
RTVSPost2010PropOp38
 70
     0
102
RTVSPost2010Prop39
140
1.0
102
RTVSPost2010PropOp39
 70
     0
102
RTVSPost2010Prop40
 90
        0
102
RTVSPost2010PropOp40
 70
     0
102
RTVSPost2010Prop41ColorIndex
 90
       18
102
RTVSPost2010Prop41ColorRGB
 90
        0
102
RTVSPost2010PropOp41
 70
     0
102
RTVSPost2010Prop42
 90
       50
102
RTVSPost2010PropOp42
 70
     0
102
RTVSPost2010Prop43
 90
        3
102
RTVSPost2010PropOp43
 70
     0
102
RTVSPost2010Prop44ColorIndex
 90
        5
102
RTVSPost2010Prop44ColorRGB
 90
      255
102
RTVSPost2010PropOp44
 70
     0
102
RTVSPost2010Prop45
280
     0
102
RTVSPost2010PropOp45
 70
     1
102
RTVSPost2010Prop46
 90
       50
102
RTVSPost2010PropOp46
 70
     0
102
RTVSPost2010Prop47
 90
       50
102
RTVSPost2010PropOp47
 70
     0
102
RTVSPost2010Prop48
 90
       50
102
RTVSPost2010PropOp48
 70
     0
102
RTVSPost2010Prop49
280
     0
102
RTVSPost2010PropOp49
 70
     1
102
RTVSPost2010Prop50
 90
       50
102
RTVSPost2010PropOp50
 70
     0
102
RTVSPost2010Prop51ColorIndex
 90
      256
102
RTVSPost2010Prop51ColorRGB
 90
-16777216
102
RTVSPost2010PropOp51
 70
     0
102
RTVSPost2010Prop52
140
1.0
102
RTVSPost2010PropOp52
 70
     0
102
RTVSPost2010Prop53
 90
        2
102
RTVSPost2010PropOp53
 70
     0
102
RTVSPost2010Prop54
  1
strokes_ogs.tif
102
RTVSPost2010PropOp54
 70
     0
102
RTVSPost2010Prop55
280
     0
102
RTVSPost2010PropOp55
 70
     1
102
RTVSPost2010Prop56
140
1.0
102
RTVSPost2010PropOp56
 70
     0
102
RTVSPost2010Prop57
140
1.0
102
RTVSPost2010PropOp57
 70
     0
102
RTVSPropertyOp0
 70
     0
102
RTVSPropertyOp1
 70
     0
102
RTVSPropertyOp2
 70
     0
102
RTVSPropertyOp3
 70
     0
102
RTVSPropertyOp4
 70
     0
102
RTVSPropertyOp5
 70
     0
102
RTVSPropertyOp6
 70
     0
102
RTVSPropertyOp7
 70
     0
102
RTVSPropertyOp8
 70
     0
102
RTVSPropertyOp9
 70
     0
102
RTVSPropertyOp10
 70
     0
102
RTVSPropertyOp11
 70
     0
102
RTVSPropertyOp12
 70
     0
102
RTVSPropertyOp13
 70
     0
102
RTVSPropertyOp14
 70
     2
102
RTVSPropertyOp15
 70
     0
102
RTVSPropertyOp16
 70
     0
102
RTVSPropertyOp17
 70
     0
102
RTVSPropertyOp18
 70
     0
102
RTVSPropertyOp19
 70
     0
102
RTVSPropertyOp20
 70
     0
102
RTVSPropertyOp21
 70
     0
102
RTVSPropertyOp22
 70
     0
102
RTVSPropertyOp23
 70
     0
102
RTVSPropertyOp24
 70
     0
102
RTVSPropertyOp25
 70
     0
102
RTVSPropertyOp26
 70
     0
102
RTVSPropertyOp27
 70
     0
102
RTVSPropertyOp28
 70
     1
102
RTVSPropertyOp29
 70
     1
102
RTVSPropertyOp30
 70
     1
102
RTVSPropertyOp31
 70
     1
102
RTVSPropertyOp32
 70
     1
102
RTVSPropertyOp33
 70
     1
102
RTVSPropertyOp34
 70
     1
102
RTVSPropertyOp35
 70
     1
102
RTVSPropertyOp36
 70
     1
102
RTVSPropertyOp37
 70
     0
102
RTVSPropertyOp38
 70
     0
102
RTVSPropertyOp39
 70
     0
102
RTVSPropertyOp40
 70
     0
102
RTVSPropertyOp41
 70
     0
102
RTVSPropertyOp42
 70
     0
102
RTVSPropertyOp43
 70
     0
102
RTVSPropertyOp44
 70
     0
102
RTVSPropertyOp45
 70
     1
102
RTVSPropertyOp46
 70
     0
102
RTVSPropertyOp47
 70
     0
102
RTVSPropertyOp48
 70
     0
102
RTVSPropertyOp49
 70
     1
102
RTVSPropertyOp50
 70
     0
102
RTVSPropertyOp51
 70
     0
102
RTVSPropertyOp52
 70
     0
102
RTVSPropertyOp53
 70
     0
102
RTVSPropertyOp54
 70
     0
102
RTVSPropertyOp55
 70
     1
102
RTVSPropertyOp56
 70
     0
102
RTVSPropertyOp57
 70
     0
102
RTVSPropertyOp58
 70
     0
102
RTVSPropertyOp59
 70
     0
102
RTVSPropertyOp60
 70
     0
102
RTVSPropertyOp61
 70
     0
102
RTVSPropertyOp62
 70
     0
  0
XRECORD
  5
1B27
102
{ACAD_REACTORS
330
1B26
102
}
330
1B26
100
AcDbXrecord
280
     1
102
RTVSPost2010Prop28
280
     0
102
RTVSPost2010PropOp28
 70
     1
102
RTVSPost2010Prop29
280
     1
102
RTVSPost2010PropOp29
 70
     1
102
RTVSPost2010Prop30
280
     1
102
RTVSPost2010PropOp30
 70
     1
102
RTVSPost2010Prop31
280
     0
102
RTVSPost2010PropOp31
 70
     1
102
RTVSPost2010Prop32
280
     0
102
RTVSPost2010PropOp32
 70
     1
102
RTVSPost2010Prop33
280
     0
102
RTVSPost2010PropOp33
 70
     1
102
RTVSPost2010Prop34
280
     0
102
RTVSPost2010PropOp34
 70
     1
102
RTVSPost2010Prop35
280
     0
102
RTVSPost2010PropOp35
 70
     1
102
RTVSPost2010Prop36
280
     0
102
RTVSPost2010PropOp36
 70
     1
102
RTVSPost2010Prop37
 90
       50
102
RTVSPost2010PropOp37
 70
     1
102
RTVSPost2010Prop38
140
0.0
102
RTVSPost2010PropOp38
 70
     1
102
RTVSPost2010Prop39
140
1.0
102
RTVSPost2010PropOp39
 70
     1
102
RTVSPost2010Prop40
 90
        0
102
RTVSPost2010PropOp40
 70
     1
102
RTVSPost2010Prop41ColorIndex
 90
       18
102
RTVSPost2010Prop41ColorRGB
 90
        0
102
RTVSPost2010PropOp41
 70
     1
102
RTVSPost2010Prop42
 90
       50
102
RTVSPost2010PropOp42
 70
     1
102
RTVSPost2010Prop43
 90
        3
102
RTVSPost2010PropOp43
 70
     1
102
RTVSPost2010Prop44ColorIndex
 90
        5
102
RTVSPost2010Prop44ColorRGB
 90
      255
102
RTVSPost2010PropOp44
 70
     1
102
RTVSPost2010Prop45
280
     0
102
RTVSPost2010PropOp45
 70
     1
102
RTVSPost2010Prop46
 90
       50
102
RTVSPost2010PropOp46
 70
     1
102
RTVSPost2010Prop47
 90
       50
102
RTVSPost2010PropOp47
 70
     1
102
RTVSPost2010Prop48
 90
       50
102
RTVSPost2010PropOp48
 70
     1
102
RTVSPost2010Prop49
280
     0
102
RTVSPost2010PropOp49
 70
     1
102
RTVSPost2010Prop50
 90
       50
102
RTVSPost2010PropOp50
 70
     1
102
RTVSPost2010Prop51ColorIndex
 90
      256
102
RTVSPost2010Prop51ColorRGB
 90
-16777216
102
RTVSPost2010PropOp51
 70
     0
102
RTVSPost2010Prop52
140
1.0
102
RTVSPost2010PropOp52
 70
     0
102
RTVSPost2010Prop53
 90
        2
102
RTVSPost2010PropOp53
 70
     1
102
RTVSPost2010Prop54
  1
strokes_ogs.tif
102
RTVSPost2010PropOp54
 70
     1
102
RTVSPost2010Prop55
280
     0
102
RTVSPost2010PropOp55
 70
     1
102
RTVSPost2010Prop56
140
1.0
102
RTVSPost2010PropOp56
 70
     1
102
RTVSPost2010Prop57
140
1.0
102
RTVSPost2010PropOp57
 70
     1
102
RTVSPropertyOp0
 70
     1
102
RTVSPropertyOp1
 70
     1
102
RTVSPropertyOp2
 70
     1
102
RTVSPropertyOp3
 70
     1
102
RTVSPropertyOp4
 70
     1
102
RTVSPropertyOp5
 70
     1
102
RTVSPropertyOp6
 70
     1
102
RTVSPropertyOp7
 70
     1
102
RTVSPropertyOp8
 70
     1
102
RTVSPropertyOp9
 70
     1
102
RTVSPropertyOp10
 70
     1
102
RTVSPropertyOp11
 70
     1
102
RTVSPropertyOp12
 70
     1
102
RTVSPropertyOp13
 70
     1
102
RTVSPropertyOp14
 70
     1
102
RTVSPropertyOp15
 70
     1
102
RTVSPropertyOp16
 70
     1
102
RTVSPropertyOp17
 70
     1
102
RTVSPropertyOp18
 70
     1
102
RTVSPropertyOp19
 70
     1
102
RTVSPropertyOp20
 70
     1
102
RTVSPropertyOp21
 70
     1
102
RTVSPropertyOp22
 70
     1
102
RTVSPropertyOp23
 70
     1
102
RTVSPropertyOp24
 70
     1
102
RTVSPropertyOp25
 70
     1
102
RTVSPropertyOp26
 70
     1
102
RTVSPropertyOp27
 70
     1
102
RTVSPropertyOp28
 70
     1
102
RTVSPropertyOp29
 70
     1
102
RTVSPropertyOp30
 70
     1
102
RTVSPropertyOp31
 70
     1
102
RTVSPropertyOp32
 70
     1
102
RTVSPropertyOp33
 70
     1
102
RTVSPropertyOp34
 70
     1
102
RTVSPropertyOp35
 70
     1
102
RTVSPropertyOp36
 70
     1
102
RTVSPropertyOp37
 70
     1
102
RTVSPropertyOp38
 70
     1
102
RTVSPropertyOp39
 70
     1
102
RTVSPropertyOp40
 70
     1
102
RTVSPropertyOp41
 70
     1
102
RTVSPropertyOp42
 70
     1
102
RTVSPropertyOp43
 70
     1
102
RTVSPropertyOp44
 70
     1
102
RTVSPropertyOp45
 70
     1
102
RTVSPropertyOp46
 70
     1
102
RTVSPropertyOp47
 70
     1
102
RTVSPropertyOp48
 70
     1
102
RTVSPropertyOp49
 70
     1
102
RTVSPropertyOp50
 70
     1
102
RTVSPropertyOp51
 70
     0
102
RTVSPropertyOp52
 70
     0
102
RTVSPropertyOp53
 70
     1
102
RTVSPropertyOp54
 70
     1
102
RTVSPropertyOp55
 70
     1
102
RTVSPropertyOp56
 70
     1
102
RTVSPropertyOp57
 70
     1
102
RTVSPropertyOp58
 70
     1
102
RTVSPropertyOp59
 70
     1
102
RTVSPropertyOp60
 70
     1
102
RTVSPropertyOp61
 70
     1
102
RTVSPropertyOp62
 70
     1
  0
XRECORD
  5
1B3D
102
{ACAD_REACTORS
330
1B3C
102
}
330
1B3C
100
AcDbXrecord
280
     1
102
RTVSPost2010Prop28
280
     0
102
RTVSPost2010PropOp28
 70
     1
102
RTVSPost2010Prop29
280
     1
102
RTVSPost2010PropOp29
 70
     1
102
RTVSPost2010Prop30
280
     1
102
RTVSPost2010PropOp30
 70
     1
102
RTVSPost2010Prop31
280
     0
102
RTVSPost2010PropOp31
 70
     1
102
RTVSPost2010Prop32
280
     0
102
RTVSPost2010PropOp32
 70
     1
102
RTVSPost2010Prop33
280
     0
102
RTVSPost2010PropOp33
 70
     1
102
RTVSPost2010Prop34
280
     0
102
RTVSPost2010PropOp34
 70
     1
102
RTVSPost2010Prop35
280
     0
102
RTVSPost2010PropOp35
 70
     1
102
RTVSPost2010Prop36
280
     0
102
RTVSPost2010PropOp36
 70
     1
102
RTVSPost2010Prop37
 90
       50
102
RTVSPost2010PropOp37
 70
     1
102
RTVSPost2010Prop38
140
0.0
102
RTVSPost2010PropOp38
 70
     1
102
RTVSPost2010Prop39
140
1.0
102
RTVSPost2010PropOp39
 70
     1
102
RTVSPost2010Prop40
 90
        0
102
RTVSPost2010PropOp40
 70
     1
102
RTVSPost2010Prop41ColorIndex
 90
       18
102
RTVSPost2010Prop41ColorRGB
 90
        0
102
RTVSPost2010PropOp41
 70
     1
102
RTVSPost2010Prop42
 90
       50
102
RTVSPost2010PropOp42
 70
     1
102
RTVSPost2010Prop43
 90
        3
102
RTVSPost2010PropOp43
 70
     1
102
RTVSPost2010Prop44ColorIndex
 90
        5
102
RTVSPost2010Prop44ColorRGB
 90
      255
102
RTVSPost2010PropOp44
 70
     1
102
RTVSPost2010Prop45
280
     0
102
RTVSPost2010PropOp45
 70
     1
102
RTVSPost2010Prop46
 90
       50
102
RTVSPost2010PropOp46
 70
     1
102
RTVSPost2010Prop47
 90
       50
102
RTVSPost2010PropOp47
 70
     1
102
RTVSPost2010Prop48
 90
       50
102
RTVSPost2010PropOp48
 70
     1
102
RTVSPost2010Prop49
280
     0
102
RTVSPost2010PropOp49
 70
     1
102
RTVSPost2010Prop50
 90
       50
102
RTVSPost2010PropOp50
 70
     1
102
RTVSPost2010Prop51ColorIndex
 90
      256
102
RTVSPost2010Prop51ColorRGB
 90
-16777216
102
RTVSPost2010PropOp51
 70
     0
102
RTVSPost2010Prop52
140
1.0
102
RTVSPost2010PropOp52
 70
     0
102
RTVSPost2010Prop53
 90
        2
102
RTVSPost2010PropOp53
 70
     1
102
RTVSPost2010Prop54
  1
strokes_ogs.tif
102
RTVSPost2010PropOp54
 70
     1
102
RTVSPost2010Prop55
280
     0
102
RTVSPost2010PropOp55
 70
     1
102
RTVSPost2010Prop56
140
1.0
102
RTVSPost2010PropOp56
 70
     1
102
RTVSPost2010Prop57
140
1.0
102
RTVSPost2010PropOp57
 70
     1
102
RTVSPropertyOp0
 70
     1
102
RTVSPropertyOp1
 70
     1
102
RTVSPropertyOp2
 70
     1
102
RTVSPropertyOp3
 70
     1
102
RTVSPropertyOp4
 70
     1
102
RTVSPropertyOp5
 70
     1
102
RTVSPropertyOp6
 70
     1
102
RTVSPropertyOp7
 70
     1
102
RTVSPropertyOp8
 70
     1
102
RTVSPropertyOp9
 70
     1
102
RTVSPropertyOp10
 70
     1
102
RTVSPropertyOp11
 70
     1
102
RTVSPropertyOp12
 70
     1
102
RTVSPropertyOp13
 70
     1
102
RTVSPropertyOp14
 70
     1
102
RTVSPropertyOp15
 70
     1
102
RTVSPropertyOp16
 70
     1
102
RTVSPropertyOp17
 70
     1
102
RTVSPropertyOp18
 70
     1
102
RTVSPropertyOp19
 70
     1
102
RTVSPropertyOp20
 70
     1
102
RTVSPropertyOp21
 70
     1
102
RTVSPropertyOp22
 70
     1
102
RTVSPropertyOp23
 70
     1
102
RTVSPropertyOp24
 70
     1
102
RTVSPropertyOp25
 70
     1
102
RTVSPropertyOp26
 70
     1
102
RTVSPropertyOp27
 70
     1
102
RTVSPropertyOp28
 70
     1
102
RTVSPropertyOp29
 70
     1
102
RTVSPropertyOp30
 70
     1
102
RTVSPropertyOp31
 70
     1
102
RTVSPropertyOp32
 70
     1
102
RTVSPropertyOp33
 70
     1
102
RTVSPropertyOp34
 70
     1
102
RTVSPropertyOp35
 70
     1
102
RTVSPropertyOp36
 70
     1
102
RTVSPropertyOp37
 70
     1
102
RTVSPropertyOp38
 70
     1
102
RTVSPropertyOp39
 70
     1
102
RTVSPropertyOp40
 70
     1
102
RTVSPropertyOp41
 70
     1
102
RTVSPropertyOp42
 70
     1
102
RTVSPropertyOp43
 70
     1
102
RTVSPropertyOp44
 70
     1
102
RTVSPropertyOp45
 70
     1
102
RTVSPropertyOp46
 70
     1
102
RTVSPropertyOp47
 70
     1
102
RTVSPropertyOp48
 70
     1
102
RTVSPropertyOp49
 70
     1
102
RTVSPropertyOp50
 70
     1
102
RTVSPropertyOp51
 70
     0
102
RTVSPropertyOp52
 70
     0
102
RTVSPropertyOp53
 70
     1
102
RTVSPropertyOp54
 70
     1
102
RTVSPropertyOp55
 70
     1
102
RTVSPropertyOp56
 70
     1
102
RTVSPropertyOp57
 70
     1
102
RTVSPropertyOp58
 70
     1
102
RTVSPropertyOp59
 70
     1
102
RTVSPropertyOp60
 70
     1
102
RTVSPropertyOp61
 70
     1
102
RTVSPropertyOp62
 70
     1
  0
XRECORD
  5
1B3B
102
{ACAD_REACTORS
330
1B3A
102
}
330
1B3A
100
AcDbXrecord
280
     1
102
RTVSPost2010Prop28
280
     0
102
RTVSPost2010PropOp28
 70
     1
102
RTVSPost2010Prop29
280
     1
102
RTVSPost2010PropOp29
 70
     1
102
RTVSPost2010Prop30
280
     1
102
RTVSPost2010PropOp30
 70
     1
102
RTVSPost2010Prop31
280
     0
102
RTVSPost2010PropOp31
 70
     1
102
RTVSPost2010Prop32
280
     0
102
RTVSPost2010PropOp32
 70
     1
102
RTVSPost2010Prop33
280
     0
102
RTVSPost2010PropOp33
 70
     1
102
RTVSPost2010Prop34
280
     0
102
RTVSPost2010PropOp34
 70
     1
102
RTVSPost2010Prop35
280
     0
102
RTVSPost2010PropOp35
 70
     1
102
RTVSPost2010Prop36
280
     0
102
RTVSPost2010PropOp36
 70
     1
102
RTVSPost2010Prop37
 90
       50
102
RTVSPost2010PropOp37
 70
     1
102
RTVSPost2010Prop38
140
0.0
102
RTVSPost2010PropOp38
 70
     1
102
RTVSPost2010Prop39
140
1.0
102
RTVSPost2010PropOp39
 70
     1
102
RTVSPost2010Prop40
 90
        0
102
RTVSPost2010PropOp40
 70
     1
102
RTVSPost2010Prop41ColorIndex
 90
       18
102
RTVSPost2010Prop41ColorRGB
 90
        0
102
RTVSPost2010PropOp41
 70
     1
102
RTVSPost2010Prop42
 90
       50
102
RTVSPost2010PropOp42
 70
     1
102
RTVSPost2010Prop43
 90
        3
102
RTVSPost2010PropOp43
 70
     1
102
RTVSPost2010Prop44ColorIndex
 90
        5
102
RTVSPost2010Prop44ColorRGB
 90
      255
102
RTVSPost2010PropOp44
 70
     1
102
RTVSPost2010Prop45
280
     0
102
RTVSPost2010PropOp45
 70
     1
102
RTVSPost2010Prop46
 90
       50
102
RTVSPost2010PropOp46
 70
     1
102
RTVSPost2010Prop47
 90
       50
102
RTVSPost2010PropOp47
 70
     1
102
RTVSPost2010Prop48
 90
       50
102
RTVSPost2010PropOp48
 70
     1
102
RTVSPost2010Prop49
280
     0
102
RTVSPost2010PropOp49
 70
     1
102
RTVSPost2010Prop50
 90
       50
102
RTVSPost2010PropOp50
 70
     1
102
RTVSPost2010Prop51ColorIndex
 90
      256
102
RTVSPost2010Prop51ColorRGB
 90
-16777216
102
RTVSPost2010PropOp51
 70
     0
102
RTVSPost2010Prop52
140
1.0
102
RTVSPost2010PropOp52
 70
     0
102
RTVSPost2010Prop53
 90
        2
102
RTVSPost2010PropOp53
 70
     1
102
RTVSPost2010Prop54
  1
strokes_ogs.tif
102
RTVSPost2010PropOp54
 70
     1
102
RTVSPost2010Prop55
280
     0
102
RTVSPost2010PropOp55
 70
     1
102
RTVSPost2010Prop56
140
1.0
102
RTVSPost2010PropOp56
 70
     1
102
RTVSPost2010Prop57
140
1.0
102
RTVSPost2010PropOp57
 70
     1
102
RTVSPropertyOp0
 70
     1
102
RTVSPropertyOp1
 70
     1
102
RTVSPropertyOp2
 70
     1
102
RTVSPropertyOp3
 70
     1
102
RTVSPropertyOp4
 70
     1
102
RTVSPropertyOp5
 70
     1
102
RTVSPropertyOp6
 70
     1
102
RTVSPropertyOp7
 70
     1
102
RTVSPropertyOp8
 70
     1
102
RTVSPropertyOp9
 70
     1
102
RTVSPropertyOp10
 70
     1
102
RTVSPropertyOp11
 70
     1
102
RTVSPropertyOp12
 70
     1
102
RTVSPropertyOp13
 70
     1
102
RTVSPropertyOp14
 70
     1
102
RTVSPropertyOp15
 70
     1
102
RTVSPropertyOp16
 70
     1
102
RTVSPropertyOp17
 70
     1
102
RTVSPropertyOp18
 70
     1
102
RTVSPropertyOp19
 70
     1
102
RTVSPropertyOp20
 70
     1
102
RTVSPropertyOp21
 70
     1
102
RTVSPropertyOp22
 70
     1
102
RTVSPropertyOp23
 70
     1
102
RTVSPropertyOp24
 70
     1
102
RTVSPropertyOp25
 70
     1
102
RTVSPropertyOp26
 70
     1
102
RTVSPropertyOp27
 70
     1
102
RTVSPropertyOp28
 70
     1
102
RTVSPropertyOp29
 70
     1
102
RTVSPropertyOp30
 70
     1
102
RTVSPropertyOp31
 70
     1
102
RTVSPropertyOp32
 70
     1
102
RTVSPropertyOp33
 70
     1
102
RTVSPropertyOp34
 70
     1
102
RTVSPropertyOp35
 70
     1
102
RTVSPropertyOp36
 70
     1
102
RTVSPropertyOp37
 70
     1
102
RTVSPropertyOp38
 70
     1
102
RTVSPropertyOp39
 70
     1
102
RTVSPropertyOp40
 70
     1
102
RTVSPropertyOp41
 70
     1
102
RTVSPropertyOp42
 70
     1
102
RTVSPropertyOp43
 70
     1
102
RTVSPropertyOp44
 70
     1
102
RTVSPropertyOp45
 70
     1
102
RTVSPropertyOp46
 70
     1
102
RTVSPropertyOp47
 70
     1
102
RTVSPropertyOp48
 70
     1
102
RTVSPropertyOp49
 70
     1
102
RTVSPropertyOp50
 70
     1
102
RTVSPropertyOp51
 70
     0
102
RTVSPropertyOp52
 70
     0
102
RTVSPropertyOp53
 70
     1
102
RTVSPropertyOp54
 70
     1
102
RTVSPropertyOp55
 70
     1
102
RTVSPropertyOp56
 70
     1
102
RTVSPropertyOp57
 70
     1
102
RTVSPropertyOp58
 70
     1
102
RTVSPropertyOp59
 70
     1
102
RTVSPropertyOp60
 70
     1
102
RTVSPropertyOp61
 70
     1
102
RTVSPropertyOp62
 70
     1
  0
XRECORD
  5
1B35
102
{ACAD_REACTORS
330
1B34
102
}
330
1B34
100
AcDbXrecord
280
     1
102
RTVSPost2010Prop28
280
     0
102
RTVSPost2010PropOp28
 70
     1
102
RTVSPost2010Prop29
280
     1
102
RTVSPost2010PropOp29
 70
     1
102
RTVSPost2010Prop30
280
     1
102
RTVSPost2010PropOp30
 70
     1
102
RTVSPost2010Prop31
280
     0
102
RTVSPost2010PropOp31
 70
     1
102
RTVSPost2010Prop32
280
     0
102
RTVSPost2010PropOp32
 70
     1
102
RTVSPost2010Prop33
280
     0
102
RTVSPost2010PropOp33
 70
     1
102
RTVSPost2010Prop34
280
     0
102
RTVSPost2010PropOp34
 70
     1
102
RTVSPost2010Prop35
280
     0
102
RTVSPost2010PropOp35
 70
     1
102
RTVSPost2010Prop36
280
     0
102
RTVSPost2010PropOp36
 70
     1
102
RTVSPost2010Prop37
 90
       50
102
RTVSPost2010PropOp37
 70
     1
102
RTVSPost2010Prop38
140
0.0
102
RTVSPost2010PropOp38
 70
     1
102
RTVSPost2010Prop39
140
1.0
102
RTVSPost2010PropOp39
 70
     1
102
RTVSPost2010Prop40
 90
        0
102
RTVSPost2010PropOp40
 70
     1
102
RTVSPost2010Prop41ColorIndex
 90
       18
102
RTVSPost2010Prop41ColorRGB
 90
        0
102
RTVSPost2010PropOp41
 70
     1
102
RTVSPost2010Prop42
 90
       50
102
RTVSPost2010PropOp42
 70
     1
102
RTVSPost2010Prop43
 90
        3
102
RTVSPost2010PropOp43
 70
     1
102
RTVSPost2010Prop44ColorIndex
 90
        5
102
RTVSPost2010Prop44ColorRGB
 90
      255
102
RTVSPost2010PropOp44
 70
     1
102
RTVSPost2010Prop45
280
     0
102
RTVSPost2010PropOp45
 70
     1
102
RTVSPost2010Prop46
 90
       50
102
RTVSPost2010PropOp46
 70
     1
102
RTVSPost2010Prop47
 90
       50
102
RTVSPost2010PropOp47
 70
     1
102
RTVSPost2010Prop48
 90
       50
102
RTVSPost2010PropOp48
 70
     1
102
RTVSPost2010Prop49
280
     0
102
RTVSPost2010PropOp49
 70
     1
102
RTVSPost2010Prop50
 90
       50
102
RTVSPost2010PropOp50
 70
     1
102
RTVSPost2010Prop51ColorIndex
 90
      256
102
RTVSPost2010Prop51ColorRGB
 90
-16777216
102
RTVSPost2010PropOp51
 70
     0
102
RTVSPost2010Prop52
140
1.0
102
RTVSPost2010PropOp52
 70
     0
102
RTVSPost2010Prop53
 90
        2
102
RTVSPost2010PropOp53
 70
     1
102
RTVSPost2010Prop54
  1
strokes_ogs.tif
102
RTVSPost2010PropOp54
 70
     1
102
RTVSPost2010Prop55
280
     0
102
RTVSPost2010PropOp55
 70
     1
102
RTVSPost2010Prop56
140
1.0
102
RTVSPost2010PropOp56
 70
     1
102
RTVSPost2010Prop57
140
1.0
102
RTVSPost2010PropOp57
 70
     1
102
RTVSPropertyOp0
 70
     1
102
RTVSPropertyOp1
 70
     1
102
RTVSPropertyOp2
 70
     1
102
RTVSPropertyOp3
 70
     1
102
RTVSPropertyOp4
 70
     1
102
RTVSPropertyOp5
 70
     1
102
RTVSPropertyOp6
 70
     1
102
RTVSPropertyOp7
 70
     1
102
RTVSPropertyOp8
 70
     1
102
RTVSPropertyOp9
 70
     1
102
RTVSPropertyOp10
 70
     1
102
RTVSPropertyOp11
 70
     1
102
RTVSPropertyOp12
 70
     1
102
RTVSPropertyOp13
 70
     1
102
RTVSPropertyOp14
 70
     1
102
RTVSPropertyOp15
 70
     1
102
RTVSPropertyOp16
 70
     1
102
RTVSPropertyOp17
 70
     1
102
RTVSPropertyOp18
 70
     1
102
RTVSPropertyOp19
 70
     1
102
RTVSPropertyOp20
 70
     1
102
RTVSPropertyOp21
 70
     1
102
RTVSPropertyOp22
 70
     1
102
RTVSPropertyOp23
 70
     1
102
RTVSPropertyOp24
 70
     1
102
RTVSPropertyOp25
 70
     1
102
RTVSPropertyOp26
 70
     1
102
RTVSPropertyOp27
 70
     1
102
RTVSPropertyOp28
 70
     1
102
RTVSPropertyOp29
 70
     1
102
RTVSPropertyOp30
 70
     1
102
RTVSPropertyOp31
 70
     1
102
RTVSPropertyOp32
 70
     1
102
RTVSPropertyOp33
 70
     1
102
RTVSPropertyOp34
 70
     1
102
RTVSPropertyOp35
 70
     1
102
RTVSPropertyOp36
 70
     1
102
RTVSPropertyOp37
 70
     1
102
RTVSPropertyOp38
 70
     1
102
RTVSPropertyOp39
 70
     1
102
RTVSPropertyOp40
 70
     1
102
RTVSPropertyOp41
 70
     1
102
RTVSPropertyOp42
 70
     1
102
RTVSPropertyOp43
 70
     1
102
RTVSPropertyOp44
 70
     1
102
RTVSPropertyOp45
 70
     1
102
RTVSPropertyOp46
 70
     1
102
RTVSPropertyOp47
 70
     1
102
RTVSPropertyOp48
 70
     1
102
RTVSPropertyOp49
 70
     1
102
RTVSPropertyOp50
 70
     1
102
RTVSPropertyOp51
 70
     0
102
RTVSPropertyOp52
 70
     0
102
RTVSPropertyOp53
 70
     1
102
RTVSPropertyOp54
 70
     1
102
RTVSPropertyOp55
 70
     1
102
RTVSPropertyOp56
 70
     1
102
RTVSPropertyOp57
 70
     1
102
RTVSPropertyOp58
 70
     1
102
RTVSPropertyOp59
 70
     1
102
RTVSPropertyOp60
 70
     1
102
RTVSPropertyOp61
 70
     1
102
RTVSPropertyOp62
 70
     1
  0
XRECORD
  5
1B37
102
{ACAD_REACTORS
330
1B36
102
}
330
1B36
100
AcDbXrecord
280
     1
102
RTVSPost2010Prop28
280
     0
102
RTVSPost2010PropOp28
 70
     1
102
RTVSPost2010Prop29
280
     1
102
RTVSPost2010PropOp29
 70
     1
102
RTVSPost2010Prop30
280
     1
102
RTVSPost2010PropOp30
 70
     1
102
RTVSPost2010Prop31
280
     0
102
RTVSPost2010PropOp31
 70
     1
102
RTVSPost2010Prop32
280
     0
102
RTVSPost2010PropOp32
 70
     1
102
RTVSPost2010Prop33
280
     0
102
RTVSPost2010PropOp33
 70
     1
102
RTVSPost2010Prop34
280
     0
102
RTVSPost2010PropOp34
 70
     1
102
RTVSPost2010Prop35
280
     0
102
RTVSPost2010PropOp35
 70
     1
102
RTVSPost2010Prop36
280
     0
102
RTVSPost2010PropOp36
 70
     1
102
RTVSPost2010Prop37
 90
       50
102
RTVSPost2010PropOp37
 70
     1
102
RTVSPost2010Prop38
140
0.0
102
RTVSPost2010PropOp38
 70
     1
102
RTVSPost2010Prop39
140
1.0
102
RTVSPost2010PropOp39
 70
     1
102
RTVSPost2010Prop40
 90
        0
102
RTVSPost2010PropOp40
 70
     1
102
RTVSPost2010Prop41ColorIndex
 90
       18
102
RTVSPost2010Prop41ColorRGB
 90
        0
102
RTVSPost2010PropOp41
 70
     1
102
RTVSPost2010Prop42
 90
       50
102
RTVSPost2010PropOp42
 70
     1
102
RTVSPost2010Prop43
 90
        3
102
RTVSPost2010PropOp43
 70
     1
102
RTVSPost2010Prop44ColorIndex
 90
        5
102
RTVSPost2010Prop44ColorRGB
 90
      255
102
RTVSPost2010PropOp44
 70
     1
102
RTVSPost2010Prop45
280
     0
102
RTVSPost2010PropOp45
 70
     1
102
RTVSPost2010Prop46
 90
       50
102
RTVSPost2010PropOp46
 70
     1
102
RTVSPost2010Prop47
 90
       50
102
RTVSPost2010PropOp47
 70
     1
102
RTVSPost2010Prop48
 90
       50
102
RTVSPost2010PropOp48
 70
     1
102
RTVSPost2010Prop49
280
     0
102
RTVSPost2010PropOp49
 70
     1
102
RTVSPost2010Prop50
 90
       50
102
RTVSPost2010PropOp50
 70
     1
102
RTVSPost2010Prop51ColorIndex
 90
      256
102
RTVSPost2010Prop51ColorRGB
 90
-16777216
102
RTVSPost2010PropOp51
 70
     0
102
RTVSPost2010Prop52
140
1.0
102
RTVSPost2010PropOp52
 70
     0
102
RTVSPost2010Prop53
 90
        2
102
RTVSPost2010PropOp53
 70
     1
102
RTVSPost2010Prop54
  1
strokes_ogs.tif
102
RTVSPost2010PropOp54
 70
     1
102
RTVSPost2010Prop55
280
     0
102
RTVSPost2010PropOp55
 70
     1
102
RTVSPost2010Prop56
140
1.0
102
RTVSPost2010PropOp56
 70
     1
102
RTVSPost2010Prop57
140
1.0
102
RTVSPost2010PropOp57
 70
     1
102
RTVSPropertyOp0
 70
     1
102
RTVSPropertyOp1
 70
     1
102
RTVSPropertyOp2
 70
     1
102
RTVSPropertyOp3
 70
     1
102
RTVSPropertyOp4
 70
     1
102
RTVSPropertyOp5
 70
     1
102
RTVSPropertyOp6
 70
     1
102
RTVSPropertyOp7
 70
     1
102
RTVSPropertyOp8
 70
     1
102
RTVSPropertyOp9
 70
     1
102
RTVSPropertyOp10
 70
     1
102
RTVSPropertyOp11
 70
     1
102
RTVSPropertyOp12
 70
     1
102
RTVSPropertyOp13
 70
     1
102
RTVSPropertyOp14
 70
     1
102
RTVSPropertyOp15
 70
     1
102
RTVSPropertyOp16
 70
     1
102
RTVSPropertyOp17
 70
     1
102
RTVSPropertyOp18
 70
     1
102
RTVSPropertyOp19
 70
     1
102
RTVSPropertyOp20
 70
     1
102
RTVSPropertyOp21
 70
     1
102
RTVSPropertyOp22
 70
     1
102
RTVSPropertyOp23
 70
     1
102
RTVSPropertyOp24
 70
     1
102
RTVSPropertyOp25
 70
     1
102
RTVSPropertyOp26
 70
     1
102
RTVSPropertyOp27
 70
     1
102
RTVSPropertyOp28
 70
     1
102
RTVSPropertyOp29
 70
     1
102
RTVSPropertyOp30
 70
     1
102
RTVSPropertyOp31
 70
     1
102
RTVSPropertyOp32
 70
     1
102
RTVSPropertyOp33
 70
     1
102
RTVSPropertyOp34
 70
     1
102
RTVSPropertyOp35
 70
     1
102
RTVSPropertyOp36
 70
     1
102
RTVSPropertyOp37
 70
     1
102
RTVSPropertyOp38
 70
     1
102
RTVSPropertyOp39
 70
     1
102
RTVSPropertyOp40
 70
     1
102
RTVSPropertyOp41
 70
     1
102
RTVSPropertyOp42
 70
     1
102
RTVSPropertyOp43
 70
     1
102
RTVSPropertyOp44
 70
     1
102
RTVSPropertyOp45
 70
     1
102
RTVSPropertyOp46
 70
     1
102
RTVSPropertyOp47
 70
     1
102
RTVSPropertyOp48
 70
     1
102
RTVSPropertyOp49
 70
     1
102
RTVSPropertyOp50
 70
     1
102
RTVSPropertyOp51
 70
     0
102
RTVSPropertyOp52
 70
     0
102
RTVSPropertyOp53
 70
     1
102
RTVSPropertyOp54
 70
     1
102
RTVSPropertyOp55
 70
     1
102
RTVSPropertyOp56
 70
     1
102
RTVSPropertyOp57
 70
     1
102
RTVSPropertyOp58
 70
     1
102
RTVSPropertyOp59
 70
     1
102
RTVSPropertyOp60
 70
     1
102
RTVSPropertyOp61
 70
     1
102
RTVSPropertyOp62
 70
     1
  0
XRECORD
  5
1B2D
102
{ACAD_REACTORS
330
1B2C
102
}
330
1B2C
100
AcDbXrecord
280
     1
102
RTVSPost2010Prop28
280
     0
102
RTVSPost2010PropOp28
 70
     1
102
RTVSPost2010Prop29
280
     1
102
RTVSPost2010PropOp29
 70
     1
102
RTVSPost2010Prop30
280
     1
102
RTVSPost2010PropOp30
 70
     1
102
RTVSPost2010Prop31
280
     0
102
RTVSPost2010PropOp31
 70
     1
102
RTVSPost2010Prop32
280
     0
102
RTVSPost2010PropOp32
 70
     1
102
RTVSPost2010Prop33
280
     0
102
RTVSPost2010PropOp33
 70
     1
102
RTVSPost2010Prop34
280
     0
102
RTVSPost2010PropOp34
 70
     1
102
RTVSPost2010Prop35
280
     0
102
RTVSPost2010PropOp35
 70
     1
102
RTVSPost2010Prop36
280
     0
102
RTVSPost2010PropOp36
 70
     1
102
RTVSPost2010Prop37
 90
       50
102
RTVSPost2010PropOp37
 70
     1
102
RTVSPost2010Prop38
140
0.0
102
RTVSPost2010PropOp38
 70
     1
102
RTVSPost2010Prop39
140
1.0
102
RTVSPost2010PropOp39
 70
     1
102
RTVSPost2010Prop40
 90
        0
102
RTVSPost2010PropOp40
 70
     1
102
RTVSPost2010Prop41ColorIndex
 90
       18
102
RTVSPost2010Prop41ColorRGB
 90
        0
102
RTVSPost2010PropOp41
 70
     1
102
RTVSPost2010Prop42
 90
       50
102
RTVSPost2010PropOp42
 70
     1
102
RTVSPost2010Prop43
 90
        3
102
RTVSPost2010PropOp43
 70
     1
102
RTVSPost2010Prop44ColorIndex
 90
        5
102
RTVSPost2010Prop44ColorRGB
 90
      255
102
RTVSPost2010PropOp44
 70
     1
102
RTVSPost2010Prop45
280
     0
102
RTVSPost2010PropOp45
 70
     1
102
RTVSPost2010Prop46
 90
       50
102
RTVSPost2010PropOp46
 70
     1
102
RTVSPost2010Prop47
 90
       50
102
RTVSPost2010PropOp47
 70
     1
102
RTVSPost2010Prop48
 90
       50
102
RTVSPost2010PropOp48
 70
     1
102
RTVSPost2010Prop49
280
     0
102
RTVSPost2010PropOp49
 70
     1
102
RTVSPost2010Prop50
 90
       50
102
RTVSPost2010PropOp50
 70
     1
102
RTVSPost2010Prop51ColorIndex
 90
      256
102
RTVSPost2010Prop51ColorRGB
 90
-16777216
102
RTVSPost2010PropOp51
 70
     0
102
RTVSPost2010Prop52
140
1.0
102
RTVSPost2010PropOp52
 70
     0
102
RTVSPost2010Prop53
 90
        2
102
RTVSPost2010PropOp53
 70
     1
102
RTVSPost2010Prop54
  1
strokes_ogs.tif
102
RTVSPost2010PropOp54
 70
     1
102
RTVSPost2010Prop55
280
     0
102
RTVSPost2010PropOp55
 70
     1
102
RTVSPost2010Prop56
140
1.0
102
RTVSPost2010PropOp56
 70
     1
102
RTVSPost2010Prop57
140
1.0
102
RTVSPost2010PropOp57
 70
     1
102
RTVSPropertyOp0
 70
     1
102
RTVSPropertyOp1
 70
     1
102
RTVSPropertyOp2
 70
     1
102
RTVSPropertyOp3
 70
     1
102
RTVSPropertyOp4
 70
     1
102
RTVSPropertyOp5
 70
     1
102
RTVSPropertyOp6
 70
     1
102
RTVSPropertyOp7
 70
     1
102
RTVSPropertyOp8
 70
     1
102
RTVSPropertyOp9
 70
     1
102
RTVSPropertyOp10
 70
     1
102
RTVSPropertyOp11
 70
     1
102
RTVSPropertyOp12
 70
     1
102
RTVSPropertyOp13
 70
     1
102
RTVSPropertyOp14
 70
     1
102
RTVSPropertyOp15
 70
     1
102
RTVSPropertyOp16
 70
     1
102
RTVSPropertyOp17
 70
     1
102
RTVSPropertyOp18
 70
     1
102
RTVSPropertyOp19
 70
     1
102
RTVSPropertyOp20
 70
     1
102
RTVSPropertyOp21
 70
     1
102
RTVSPropertyOp22
 70
     1
102
RTVSPropertyOp23
 70
     1
102
RTVSPropertyOp24
 70
     1
102
RTVSPropertyOp25
 70
     1
102
RTVSPropertyOp26
 70
     1
102
RTVSPropertyOp27
 70
     1
102
RTVSPropertyOp28
 70
     1
102
RTVSPropertyOp29
 70
     1
102
RTVSPropertyOp30
 70
     1
102
RTVSPropertyOp31
 70
     1
102
RTVSPropertyOp32
 70
     1
102
RTVSPropertyOp33
 70
     1
102
RTVSPropertyOp34
 70
     1
102
RTVSPropertyOp35
 70
     1
102
RTVSPropertyOp36
 70
     1
102
RTVSPropertyOp37
 70
     1
102
RTVSPropertyOp38
 70
     1
102
RTVSPropertyOp39
 70
     1
102
RTVSPropertyOp40
 70
     1
102
RTVSPropertyOp41
 70
     1
102
RTVSPropertyOp42
 70
     1
102
RTVSPropertyOp43
 70
     1
102
RTVSPropertyOp44
 70
     1
102
RTVSPropertyOp45
 70
     1
102
RTVSPropertyOp46
 70
     1
102
RTVSPropertyOp47
 70
     1
102
RTVSPropertyOp48
 70
     1
102
RTVSPropertyOp49
 70
     1
102
RTVSPropertyOp50
 70
     1
102
RTVSPropertyOp51
 70
     0
102
RTVSPropertyOp52
 70
     0
102
RTVSPropertyOp53
 70
     1
102
RTVSPropertyOp54
 70
     1
102
RTVSPropertyOp55
 70
     1
102
RTVSPropertyOp56
 70
     1
102
RTVSPropertyOp57
 70
     1
102
RTVSPropertyOp58
 70
     1
102
RTVSPropertyOp59
 70
     1
102
RTVSPropertyOp60
 70
     1
102
RTVSPropertyOp61
 70
     1
102
RTVSPropertyOp62
 70
     1
  0
XRECORD
  5
1B21
102
{ACAD_REACTORS
330
1B20
102
}
330
1B20
100
AcDbXrecord
280
     1
102
RTVSPost2010Prop28
280
     0
102
RTVSPost2010PropOp28
 70
     1
102
RTVSPost2010Prop29
280
     1
102
RTVSPost2010PropOp29
 70
     1
102
RTVSPost2010Prop30
280
     1
102
RTVSPost2010PropOp30
 70
     1
102
RTVSPost2010Prop31
280
     0
102
RTVSPost2010PropOp31
 70
     1
102
RTVSPost2010Prop32
280
     0
102
RTVSPost2010PropOp32
 70
     1
102
RTVSPost2010Prop33
280
     0
102
RTVSPost2010PropOp33
 70
     1
102
RTVSPost2010Prop34
280
     0
102
RTVSPost2010PropOp34
 70
     1
102
RTVSPost2010Prop35
280
     0
102
RTVSPost2010PropOp35
 70
     1
102
RTVSPost2010Prop36
280
     0
102
RTVSPost2010PropOp36
 70
     1
102
RTVSPost2010Prop37
 90
       50
102
RTVSPost2010PropOp37
 70
     1
102
RTVSPost2010Prop38
140
0.0
102
RTVSPost2010PropOp38
 70
     1
102
RTVSPost2010Prop39
140
1.0
102
RTVSPost2010PropOp39
 70
     1
102
RTVSPost2010Prop40
 90
        0
102
RTVSPost2010PropOp40
 70
     1
102
RTVSPost2010Prop41ColorIndex
 90
       18
102
RTVSPost2010Prop41ColorRGB
 90
        0
102
RTVSPost2010PropOp41
 70
     1
102
RTVSPost2010Prop42
 90
       50
102
RTVSPost2010PropOp42
 70
     1
102
RTVSPost2010Prop43
 90
        3
102
RTVSPost2010PropOp43
 70
     1
102
RTVSPost2010Prop44ColorIndex
 90
        5
102
RTVSPost2010Prop44ColorRGB
 90
      255
102
RTVSPost2010PropOp44
 70
     1
102
RTVSPost2010Prop45
280
     0
102
RTVSPost2010PropOp45
 70
     1
102
RTVSPost2010Prop46
 90
       50
102
RTVSPost2010PropOp46
 70
     1
102
RTVSPost2010Prop47
 90
       50
102
RTVSPost2010PropOp47
 70
     1
102
RTVSPost2010Prop48
 90
       50
102
RTVSPost2010PropOp48
 70
     1
102
RTVSPost2010Prop49
280
     0
102
RTVSPost2010PropOp49
 70
     1
102
RTVSPost2010Prop50
 90
       50
102
RTVSPost2010PropOp50
 70
     1
102
RTVSPost2010Prop51ColorIndex
 90
      256
102
RTVSPost2010Prop51ColorRGB
 90
-16777216
102
RTVSPost2010PropOp51
 70
     0
102
RTVSPost2010Prop52
140
1.0
102
RTVSPost2010PropOp52
 70
     0
102
RTVSPost2010Prop53
 90
        2
102
RTVSPost2010PropOp53
 70
     1
102
RTVSPost2010Prop54
  1
strokes_ogs.tif
102
RTVSPost2010PropOp54
 70
     1
102
RTVSPost2010Prop55
280
     0
102
RTVSPost2010PropOp55
 70
     1
102
RTVSPost2010Prop56
140
1.0
102
RTVSPost2010PropOp56
 70
     1
102
RTVSPost2010Prop57
140
1.0
102
RTVSPost2010PropOp57
 70
     1
102
RTVSPropertyOp0
 70
     1
102
RTVSPropertyOp1
 70
     1
102
RTVSPropertyOp2
 70
     1
102
RTVSPropertyOp3
 70
     1
102
RTVSPropertyOp4
 70
     1
102
RTVSPropertyOp5
 70
     1
102
RTVSPropertyOp6
 70
     1
102
RTVSPropertyOp7
 70
     1
102
RTVSPropertyOp8
 70
     1
102
RTVSPropertyOp9
 70
     1
102
RTVSPropertyOp10
 70
     1
102
RTVSPropertyOp11
 70
     1
102
RTVSPropertyOp12
 70
     1
102
RTVSPropertyOp13
 70
     1
102
RTVSPropertyOp14
 70
     1
102
RTVSPropertyOp15
 70
     1
102
RTVSPropertyOp16
 70
     1
102
RTVSPropertyOp17
 70
     1
102
RTVSPropertyOp18
 70
     1
102
RTVSPropertyOp19
 70
     1
102
RTVSPropertyOp20
 70
     1
102
RTVSPropertyOp21
 70
     1
102
RTVSPropertyOp22
 70
     1
102
RTVSPropertyOp23
 70
     1
102
RTVSPropertyOp24
 70
     1
102
RTVSPropertyOp25
 70
     1
102
RTVSPropertyOp26
 70
     1
102
RTVSPropertyOp27
 70
     1
102
RTVSPropertyOp28
 70
     1
102
RTVSPropertyOp29
 70
     1
102
RTVSPropertyOp30
 70
     1
102
RTVSPropertyOp31
 70
     1
102
RTVSPropertyOp32
 70
     1
102
RTVSPropertyOp33
 70
     1
102
RTVSPropertyOp34
 70
     1
102
RTVSPropertyOp35
 70
     1
102
RTVSPropertyOp36
 70
     1
102
RTVSPropertyOp37
 70
     1
102
RTVSPropertyOp38
 70
     1
102
RTVSPropertyOp39
 70
     1
102
RTVSPropertyOp40
 70
     1
102
RTVSPropertyOp41
 70
     1
102
RTVSPropertyOp42
 70
     1
102
RTVSPropertyOp43
 70
     1
102
RTVSPropertyOp44
 70
     1
102
RTVSPropertyOp45
 70
     1
102
RTVSPropertyOp46
 70
     1
102
RTVSPropertyOp47
 70
     1
102
RTVSPropertyOp48
 70
     1
102
RTVSPropertyOp49
 70
     1
102
RTVSPropertyOp50
 70
     1
102
RTVSPropertyOp51
 70
     0
102
RTVSPropertyOp52
 70
     0
102
RTVSPropertyOp53
 70
     1
102
RTVSPropertyOp54
 70
     1
102
RTVSPropertyOp55
 70
     1
102
RTVSPropertyOp56
 70
     1
102
RTVSPropertyOp57
 70
     1
102
RTVSPropertyOp58
 70
     1
102
RTVSPropertyOp59
 70
     1
102
RTVSPropertyOp60
 70
     1
102
RTVSPropertyOp61
 70
     1
102
RTVSPropertyOp62
 70
     1
  0
XRECORD
  5
1B39
102
{ACAD_REACTORS
330
1B38
102
}
330
1B38
100
AcDbXrecord
280
     1
102
RTVSPost2010Prop28
280
     0
102
RTVSPost2010PropOp28
 70
     1
102
RTVSPost2010Prop29
280
     1
102
RTVSPost2010PropOp29
 70
     1
102
RTVSPost2010Prop30
280
     1
102
RTVSPost2010PropOp30
 70
     1
102
RTVSPost2010Prop31
280
     0
102
RTVSPost2010PropOp31
 70
     1
102
RTVSPost2010Prop32
280
     0
102
RTVSPost2010PropOp32
 70
     1
102
RTVSPost2010Prop33
280
     0
102
RTVSPost2010PropOp33
 70
     1
102
RTVSPost2010Prop34
280
     0
102
RTVSPost2010PropOp34
 70
     1
102
RTVSPost2010Prop35
280
     0
102
RTVSPost2010PropOp35
 70
     1
102
RTVSPost2010Prop36
280
     0
102
RTVSPost2010PropOp36
 70
     1
102
RTVSPost2010Prop37
 90
       50
102
RTVSPost2010PropOp37
 70
     1
102
RTVSPost2010Prop38
140
0.0
102
RTVSPost2010PropOp38
 70
     1
102
RTVSPost2010Prop39
140
1.0
102
RTVSPost2010PropOp39
 70
     1
102
RTVSPost2010Prop40
 90
        0
102
RTVSPost2010PropOp40
 70
     1
102
RTVSPost2010Prop41ColorIndex
 90
       18
102
RTVSPost2010Prop41ColorRGB
 90
        0
102
RTVSPost2010PropOp41
 70
     1
102
RTVSPost2010Prop42
 90
       50
102
RTVSPost2010PropOp42
 70
     1
102
RTVSPost2010Prop43
 90
        3
102
RTVSPost2010PropOp43
 70
     1
102
RTVSPost2010Prop44ColorIndex
 90
        5
102
RTVSPost2010Prop44ColorRGB
 90
      255
102
RTVSPost2010PropOp44
 70
     1
102
RTVSPost2010Prop45
280
     0
102
RTVSPost2010PropOp45
 70
     1
102
RTVSPost2010Prop46
 90
       50
102
RTVSPost2010PropOp46
 70
     1
102
RTVSPost2010Prop47
 90
       50
102
RTVSPost2010PropOp47
 70
     1
102
RTVSPost2010Prop48
 90
       50
102
RTVSPost2010PropOp48
 70
     1
102
RTVSPost2010Prop49
280
     0
102
RTVSPost2010PropOp49
 70
     1
102
RTVSPost2010Prop50
 90
       50
102
RTVSPost2010PropOp50
 70
     1
102
RTVSPost2010Prop51ColorIndex
 90
      256
102
RTVSPost2010Prop51ColorRGB
 90
-16777216
102
RTVSPost2010PropOp51
 70
     0
102
RTVSPost2010Prop52
140
1.0
102
RTVSPost2010PropOp52
 70
     0
102
RTVSPost2010Prop53
 90
        2
102
RTVSPost2010PropOp53
 70
     1
102
RTVSPost2010Prop54
  1
strokes_ogs.tif
102
RTVSPost2010PropOp54
 70
     1
102
RTVSPost2010Prop55
280
     0
102
RTVSPost2010PropOp55
 70
     1
102
RTVSPost2010Prop56
140
1.0
102
RTVSPost2010PropOp56
 70
     1
102
RTVSPost2010Prop57
140
1.0
102
RTVSPost2010PropOp57
 70
     1
102
RTVSPropertyOp0
 70
     1
102
RTVSPropertyOp1
 70
     1
102
RTVSPropertyOp2
 70
     1
102
RTVSPropertyOp3
 70
     1
102
RTVSPropertyOp4
 70
     1
102
RTVSPropertyOp5
 70
     1
102
RTVSPropertyOp6
 70
     1
102
RTVSPropertyOp7
 70
     1
102
RTVSPropertyOp8
 70
     1
102
RTVSPropertyOp9
 70
     1
102
RTVSPropertyOp10
 70
     1
102
RTVSPropertyOp11
 70
     1
102
RTVSPropertyOp12
 70
     1
102
RTVSPropertyOp13
 70
     1
102
RTVSPropertyOp14
 70
     1
102
RTVSPropertyOp15
 70
     1
102
RTVSPropertyOp16
 70
     1
102
RTVSPropertyOp17
 70
     1
102
RTVSPropertyOp18
 70
     1
102
RTVSPropertyOp19
 70
     1
102
RTVSPropertyOp20
 70
     1
102
RTVSPropertyOp21
 70
     1
102
RTVSPropertyOp22
 70
     1
102
RTVSPropertyOp23
 70
     1
102
RTVSPropertyOp24
 70
     1
102
RTVSPropertyOp25
 70
     1
102
RTVSPropertyOp26
 70
     1
102
RTVSPropertyOp27
 70
     1
102
RTVSPropertyOp28
 70
     1
102
RTVSPropertyOp29
 70
     1
102
RTVSPropertyOp30
 70
     1
102
RTVSPropertyOp31
 70
     1
102
RTVSPropertyOp32
 70
     1
102
RTVSPropertyOp33
 70
     1
102
RTVSPropertyOp34
 70
     1
102
RTVSPropertyOp35
 70
     1
102
RTVSPropertyOp36
 70
     1
102
RTVSPropertyOp37
 70
     1
102
RTVSPropertyOp38
 70
     1
102
RTVSPropertyOp39
 70
     1
102
RTVSPropertyOp40
 70
     1
102
RTVSPropertyOp41
 70
     1
102
RTVSPropertyOp42
 70
     1
102
RTVSPropertyOp43
 70
     1
102
RTVSPropertyOp44
 70
     1
102
RTVSPropertyOp45
 70
     1
102
RTVSPropertyOp46
 70
     1
102
RTVSPropertyOp47
 70
     1
102
RTVSPropertyOp48
 70
     1
102
RTVSPropertyOp49
 70
     1
102
RTVSPropertyOp50
 70
     1
102
RTVSPropertyOp51
 70
     0
102
RTVSPropertyOp52
 70
     0
102
RTVSPropertyOp53
 70
     1
102
RTVSPropertyOp54
 70
     1
102
RTVSPropertyOp55
 70
     1
102
RTVSPropertyOp56
 70
     1
102
RTVSPropertyOp57
 70
     1
102
RTVSPropertyOp58
 70
     1
102
RTVSPropertyOp59
 70
     1
102
RTVSPropertyOp60
 70
     1
102
RTVSPropertyOp61
 70
     1
102
RTVSPropertyOp62
 70
     1
  0
ENDSEC
  0
EOF
