  0
SECTION
  2
HEADER
  9
$ACADVER
  1
AC1015
  9
$ACADMAINTVER
 70
    20
  9
$DWGCODEPAGE
  3
ANSI_932
  9
$INSBASE
 10
0.0
 20
0.0
 30
0.0
  9
$EXTMIN
 10
10.0
 20
9.999999999999998
 30
0.0
  9
$EXTMAX
 10
467.9947359999999
 20
329.525192
 30
0.0
  9
$LIMMIN
 10
0.0
 20
0.0
  9
$LIMMAX
 10
495.0
 20
341.25
  9
$ORTHOMODE
 70
     1
  9
$REGENMODE
 70
     1
  9
$FILLMODE
 70
     1
  9
$QTEXTMODE
 70
     0
  9
$MIRRTEXT
 70
     1
  9
$LTSCALE
 40
20.0
  9
$ATTMODE
 70
     1
  9
$TEXTSIZE
 40
5.0
  9
$TRACEWID
 40
1.0
  9
$TEXTSTYLE
  7
STANDARD
  9
$CLAYER
  8
0
  9
$CELTYPE
  6
BYLAYER
  9
$CECOLOR
 62
   256
  9
$CELTSCALE
 40
1.0
  9
$DISPSILH
 70
     0
  9
$DIMSCALE
 40
1.0
  9
$DIMASZ
 40
3.0
  9
$DIMEXO
 40
1.0
  9
$DIMDLI
 40
10.0
  9
$DIMRND
 40
0.0
  9
$DIMDLE
 40
0.0
  9
$DIMEXE
 40
1.0
  9
$DIMTP
 40
0.0
  9
$DIMTM
 40
0.0
  9
$DIMTXT
 40
3.2
  9
$DIMCEN
 40
0.0
  9
$DIMTSZ
 40
0.0
  9
$DIMTOL
 70
     0
  9
$DIMLIM
 70
     0
  9
$DIMTIH
 70
     0
  9
$DIMTOH
 70
     0
  9
$DIMSE1
 70
     0
  9
$DIMSE2
 70
     0
  9
$DIMTAD
 70
     3
  9
$DIMZIN
 70
     8
  9
$DIMBLK
  1

  9
$DIMASO
 70
     1
  9
$DIMSHO
 70
     1
  9
$DIMPOST
  1

  9
$DIMAPOST
  1

  9
$DIMALT
 70
     0
  9
$DIMALTD
 70
     2
  9
$DIMALTF
 40
25.4
  9
$DIMLFAC
 40
1.0
  9
$DIMTOFL
 70
     1
  9
$DIMTVP
 40
0.0
  9
$DIMTIX
 70
     0
  9
$DIMSOXD
 70
     0
  9
$DIMSAH
 70
     1
  9
$DIMBLK1
  1
OPEN
  9
$DIMBLK2
  1
OPEN
  9
$DIMSTYLE
  2
STANDARD
  9
$DIMCLRD
 70
     0
  9
$DIMCLRE
 70
     0
  9
$DIMCLRT
 70
     0
  9
$DIMTFAC
 40
1.0
  9
$DIMGAP
 40
1.0
  9
$DIMJUST
 70
     0
  9
$DIMSD1
 70
     0
  9
$DIMSD2
 70
     0
  9
$DIMTOLJ
 70
     1
  9
$DIMTZIN
 70
     0
  9
$DIMALTZ
 70
     0
  9
$DIMALTTZ
 70
     0
  9
$DIMUPT
 70
     0
  9
$DIMDEC
 70
     4
  9
$DIMTDEC
 70
     4
  9
$DIMALTU
 70
     2
  9
$DIMALTTD
 70
     2
  9
$DIMTXSTY
  7
STANDARD
  9
$DIMAUNIT
 70
     0
  9
$DIMADEC
 70
     0
  9
$DIMALTRND
 40
0.0
  9
$DIMAZIN
 70
     0
  9
$DIMDSEP
 70
    46
  9
$DIMATFIT
 70
     3
  9
$DIMFRAC
 70
     0
  9
$DIMLDRBLK
  1
OPEN
  9
$DIMLUNIT
 70
     2
  9
$DIMLWD
 70
    -2
  9
$DIMLWE
 70
    -2
  9
$DIMTMOVE
 70
     0
  9
$LUNITS
 70
     2
  9
$LUPREC
 70
     4
  9
$SKETCHINC
 40
1.0
  9
$FILLETRAD
 40
8.0
  9
$AUNITS
 70
     0
  9
$AUPREC
 70
     2
  9
$MENU
  1
.
  9
$ELEVATION
 40
0.0
  9
$PELEVATION
 40
0.0
  9
$THICKNESS
 40
0.0
  9
$LIMCHECK
 70
     0
  9
$CHAMFERA
 40
10.0
  9
$CHAMFERB
 40
10.0
  9
$CHAMFERC
 40
0.0
  9
$CHAMFERD
 40
0.0
  9
$SKPOLY
 70
     0
  9
$TDCREATE
 40
2451301.440094213
  9
$TDUCREATE
 40
2451301.065094213
  9
$TDUPDATE
 40
2457192.687013808
  9
$TDUUPDATE
 40
2457192.312013808
  9
$TDINDWG
 40
0.0000110648
  9
$TDUSRTIMER
 40
0.0000107639
  9
$USRTIMER
 70
     1
  9
$ANGBASE
 50
0.0
  9
$ANGDIR
 70
     0
  9
$PDMODE
 70
     0
  9
$PDSIZE
 40
0.0
  9
$PLINEWID
 40
0.0
  9
$SPLFRAME
 70
     0
  9
$SPLINETYPE
 70
     6
  9
$SPLINESEGS
 70
     8
  9
$HANDSEED
  5
A6C1
  9
$SURFTAB1
 70
     6
  9
$SURFTAB2
 70
     6
  9
$SURFTYPE
 70
     6
  9
$SURFU
 70
     6
  9
$SURFV
 70
     6
  9
$UCSBASE
  2

  9
$UCSNAME
  2

  9
$UCSORG
 10
0.0
 20
0.0
 30
0.0
  9
$UCSXDIR
 10
1.0
 20
0.0
 30
0.0
  9
$UCSYDIR
 10
0.0
 20
1.0
 30
0.0
  9
$UCSORTHOREF
  2

  9
$UCSORTHOVIEW
 70
     0
  9
$UCSORGTOP
 10
0.0
 20
0.0
 30
0.0
  9
$UCSORGBOTTOM
 10
0.0
 20
0.0
 30
0.0
  9
$UCSORGLEFT
 10
0.0
 20
0.0
 30
0.0
  9
$UCSORGRIGHT
 10
0.0
 20
0.0
 30
0.0
  9
$UCSORGFRONT
 10
0.0
 20
0.0
 30
0.0
  9
$UCSORGBACK
 10
0.0
 20
0.0
 30
0.0
  9
$PUCSBASE
  2

  9
$PUCSNAME
  2

  9
$PUCSORG
 10
0.0
 20
0.0
 30
0.0
  9
$PUCSXDIR
 10
1.0
 20
0.0
 30
0.0
  9
$PUCSYDIR
 10
0.0
 20
1.0
 30
0.0
  9
$PUCSORTHOREF
  2

  9
$PUCSORTHOVIEW
 70
     0
  9
$PUCSORGTOP
 10
0.0
 20
0.0
 30
0.0
  9
$PUCSORGBOTTOM
 10
0.0
 20
0.0
 30
0.0
  9
$PUCSORGLEFT
 10
0.0
 20
0.0
 30
0.0
  9
$PUCSORGRIGHT
 10
0.0
 20
0.0
 30
0.0
  9
$PUCSORGFRONT
 10
0.0
 20
0.0
 30
0.0
  9
$PUCSORGBACK
 10
0.0
 20
0.0
 30
0.0
  9
$USERI1
 70
     0
  9
$USERI2
 70
     0
  9
$USERI3
 70
     0
  9
$USERI4
 70
     0
  9
$USERI5
 70
     0
  9
$USERR1
 40
0.0
  9
$USERR2
 40
0.0
  9
$USERR3
 40
0.0
  9
$USERR4
 40
0.0
  9
$USERR5
 40
0.0
  9
$WORLDVIEW
 70
     1
  9
$SHADEDGE
 70
     3
  9
$SHADEDIF
 70
    70
  9
$TILEMODE
 70
     1
  9
$MAXACTVP
 70
    16
  9
$PINSBASE
 10
0.0
 20
0.0
 30
0.0
  9
$PLIMCHECK
 70
     0
  9
$PEXTMIN
 10
1.000000000000000E+20
 20
1.000000000000000E+20
 30
1.000000000000000E+20
  9
$PEXTMAX
 10
-1.000000000000000E+20
 20
-1.000000000000000E+20
 30
-1.000000000000000E+20
  9
$PLIMMIN
 10
0.0
 20
0.0
  9
$PLIMMAX
 10
420.0
 20
297.0
  9
$UNITMODE
 70
     0
  9
$VISRETAIN
 70
     0
  9
$PLINEGEN
 70
     0
  9
$PSLTSCALE
 70
     0
  9
$TREEDEPTH
 70
  3020
  9
$CMLSTYLE
  2
STANDARD
  9
$CMLJUST
 70
     0
  9
$CMLSCALE
 40
1.0
  9
$PROXYGRAPHICS
 70
     1
  9
$MEASUREMENT
 70
     0
  9
$CELWEIGHT
370
    -1
  9
$ENDCAPS
280
     0
  9
$JOINSTYLE
280
     0
  9
$LWDISPLAY
290
     0
  9
$INSUNITS
 70
     0
  9
$HYPERLINKBASE
  1

  9
$STYLESHEET
  1

  9
$XEDIT
290
     1
  9
$CEPSNTYPE
380
     0
  9
$PSTYLEMODE
290
     1
  9
$FINGERPRINTGUID
  2
{727258C7-EF10-4AC3-B296-DBBDE382BEBC}
  9
$VERSIONGUID
  2
{02741843-8A46-47E4-A0EB-0899A23919CE}
  9
$EXTNAMES
290
     1
  9
$PSVPSCALE
 40
0.0
  9
$OLESTARTUP
290
     0
  0
ENDSEC
  0
SECTION
  2
CLASSES
  0
CLASS
  1
ACDBDICTIONARYWDFLT
  2
AcDbDictionaryWithDefault
  3
ObjectDBX Classes
 90
        0
280
     0
281
     0
  0
CLASS
  1
ACDBPLACEHOLDER
  2
AcDbPlaceHolder
  3
ObjectDBX Classes
 90
        0
280
     0
281
     0
  0
CLASS
  1
LAYOUT
  2
AcDbLayout
  3
ObjectDBX Classes
 90
        0
280
     0
281
     0
  0
CLASS
  1
DICTIONARYVAR
  2
AcDbDictionaryVar
  3
ObjectDBX Classes
 90
        0
280
     0
281
     0
  0
CLASS
  1
MATERIAL
  2
AcDbMaterial
  3
ObjectDBX Classes
 90
     1153
280
     0
281
     0
  0
CLASS
  1
VISUALSTYLE
  2
AcDbVisualStyle
  3
ObjectDBX Classes
 90
     4095
280
     0
281
     0
  0
CLASS
  1
TABLESTYLE
  2
AcDbTableStyle
  3
ObjectDBX Classes
 90
     4095
280
     0
281
     0
  0
CLASS
  1
SCALE
  2
AcDbScale
  3
ObjectDBX Classes
 90
     1153
280
     0
281
     0
  0
CLASS
  1
MLEADERSTYLE
  2
AcDbMLeaderStyle
  3
ACDB_MLEADERSTYLE_CLASS
 90
     4095
280
     0
281
     0
  0
CLASS
  1
ACDBSECTIONVIEWSTYLE
  2
AcDbSectionViewStyle
  3
ObjectDBX Classes
 90
     1025
280
     0
281
     0
  0
CLASS
  1
ACDBDETAILVIEWSTYLE
  2
AcDbDetailViewStyle
  3
ObjectDBX Classes
 90
     1025
280
     0
281
     0
  0
CLASS
  1
CELLSTYLEMAP
  2
AcDbCellStyleMap
  3
ObjectDBX Classes
 90
     1152
280
     0
281
     0
  0
ENDSEC
  0
SECTION
  2
TABLES
  0
TABLE
  2
VPORT
  5
A33D
330
0
100
AcDbSymbolTable
 70
     1
  0
VPORT
  5
A60A
330
A33D
100
AcDbSymbolTableRecord
100
AcDbViewportTableRecord
  2
*ACTIVE
 70
     0
 10
0.0
 20
0.0
 11
1.0
 21
1.0
 12
335.7909274239939
 22
169.7658356018839
 13
0.0
 23
0.0
 14
10.0
 24
10.0
 15
10.0
 25
10.0
 16
0.0
 26
0.0
 36
1.0
 17
0.0
 27
0.0
 37
0.0
 40
323.0884014316901
 41
2.35006605019815
 42
50.0
 43
0.0
 44
0.0
 50
0.0
 51
0.0
 71
     0
 72
   100
 73
     1
 74
     0
 75
     0
 76
     0
 77
     0
 78
     0
281
     0
 65
     1
110
0.0
120
0.0
130
0.0
111
1.0
121
0.0
131
0.0
112
0.0
122
1.0
132
0.0
 79
     0
146
0.0
1001
ACAD_NAV_VCDISPLAY
1070
     3
  0
ENDTAB
  0
TABLE
  2
LTYPE
  5
A33A
330
0
100
AcDbSymbolTable
 70
     4
  0
LTYPE
  5
A348
330
A33A
100
AcDbSymbolTableRecord
100
AcDbLinetypeTableRecord
  2
BYBLOCK
 70
     0
  3

 72
    65
 73
     0
 40
0.0
  0
LTYPE
  5
A349
330
A33A
100
AcDbSymbolTableRecord
100
AcDbLinetypeTableRecord
  2
BYLAYER
 70
     0
  3

 72
    65
 73
     0
 40
0.0
  0
LTYPE
  5
A34A
330
A33A
100
AcDbSymbolTableRecord
100
AcDbLinetypeTableRecord
  2
CONTINUOUS
 70
     0
  3
Solid line
 72
    65
 73
     0
 40
0.0
  0
LTYPE
  5
A358
330
A33A
100
AcDbSymbolTableRecord
100
AcDbLinetypeTableRecord
  2
DASHED
 70
     0
  3
__ __ __ __ __ __ __ __ __ __ __ __ __ __ __ __
 72
    65
 73
     2
 40
0.75
 49
0.5
 74
     0
 49
-0.25
 74
     0
  0
LTYPE
  5
A359
330
A33A
100
AcDbSymbolTableRecord
100
AcDbLinetypeTableRecord
  2
CENTER
 70
     0
  3
____ _ ____ _ ____ _ ____ _ ____ _ ____ _ ____ 
 72
    65
 73
     4
 40
2.0
 49
1.25
 74
     0
 49
-0.25
 74
     0
 49
0.25
 74
     0
 49
-0.25
 74
     0
  0
LTYPE
  5
A35A
330
A33A
100
AcDbSymbolTableRecord
100
AcDbLinetypeTableRecord
  2
PHANTOM
 70
     0
  3
______  __  __  ______  __  __  ______  __  __ 
 72
    65
 73
     6
 40
2.5
 49
1.25
 74
     0
 49
-0.25
 74
     0
 49
0.25
 74
     0
 49
-0.25
 74
     0
 49
0.25
 74
     0
 49
-0.25
 74
     0
  0
ENDTAB
  0
TABLE
  2
LAYER
  5
A337
330
0
100
AcDbSymbolTable
 70
     8
  0
LAYER
  5
A345
102
{ACAD_XDICTIONARY
360
A665
102
}
330
A337
100
AcDbSymbolTableRecord
100
AcDbLayerTableRecord
  2
0
 70
     0
 62
     7
  6
CONTINUOUS
370
    -3
390
A613
  0
LAYER
  5
A35B
102
{ACAD_XDICTIONARY
360
A667
102
}
330
A337
100
AcDbSymbolTableRecord
100
AcDbLayerTableRecord
  2
4
 70
     0
 62
     1
  6
CENTER
370
    -3
390
A613
  0
LAYER
  5
A35C
102
{ACAD_XDICTIONARY
360
A669
102
}
330
A337
100
AcDbSymbolTableRecord
100
AcDbLayerTableRecord
  2
5
 70
     0
 62
     6
  6
PHANTOM
370
    -3
390
A613
  0
LAYER
  5
A35D
102
{ACAD_XDICTIONARY
360
A66B
102
}
330
A337
100
AcDbSymbolTableRecord
100
AcDbLayerTableRecord
  2
1
 70
     0
 62
     7
  6
CONTINUOUS
370
    -3
390
A613
  0
LAYER
  5
A35E
102
{ACAD_XDICTIONARY
360
A66D
102
}
330
A337
100
AcDbSymbolTableRecord
100
AcDbLayerTableRecord
  2
2
 70
     0
 62
     4
  6
CONTINUOUS
370
    -3
390
A613
  0
LAYER
  5
A35F
102
{ACAD_XDICTIONARY
360
A66F
102
}
330
A337
100
AcDbSymbolTableRecord
100
AcDbLayerTableRecord
  2
3
 70
     0
 62
     2
  6
DASHED
370
    -3
390
A613
  0
LAYER
  5
A360
102
{ACAD_XDICTIONARY
360
A671
102
}
330
A337
100
AcDbSymbolTableRecord
100
AcDbLayerTableRecord
  2
6
 70
     0
 62
     5
  6
CONTINUOUS
370
    -3
390
A613
  0
LAYER
  5
A361
102
{ACAD_XDICTIONARY
360
A673
102
}
330
A337
100
AcDbSymbolTableRecord
100
AcDbLayerTableRecord
  2
7
 70
     0
 62
     3
  6
CONTINUOUS
370
    -3
390
A613
  0
ENDTAB
  0
TABLE
  2
STYLE
  5
A338
330
0
100
AcDbSymbolTable
 70
     1
  0
STYLE
  5
A346
330
A338
100
AcDbSymbolTableRecord
100
AcDbTextStyleTableRecord
  2
STANDARD
 70
     0
 40
0.0
 41
1.0
 50
0.0
 71
     0
 42
5.0
  3
txt
  4

  0
ENDTAB
  0
TABLE
  2
VIEW
  5
A33B
330
0
100
AcDbSymbolTable
 70
     0
  0
ENDTAB
  0
TABLE
  2
UCS
  5
A33C
330
0
100
AcDbSymbolTable
 70
     0
  0
ENDTAB
  0
TABLE
  2
APPID
  5
A33E
330
0
100
AcDbSymbolTable
 70
     3
  0
APPID
  5
A347
330
A33E
100
AcDbSymbolTableRecord
100
AcDbRegAppTableRecord
  2
ACAD
 70
     0
  0
APPID
  5
A67F
330
A33E
100
AcDbSymbolTableRecord
100
AcDbRegAppTableRecord
  2
ACAD_NAV_VCDISPLAY
 70
     0
  0
APPID
  5
A6B8
330
A33E
100
AcDbSymbolTableRecord
100
AcDbRegAppTableRecord
  2
ACAD_MLEADERVER
 70
     0
  0
ENDTAB
  0
TABLE
  2
DIMSTYLE
  5
A33F
330
0
100
AcDbSymbolTable
 70
     1
100
AcDbDimStyleTable
 71
     0
  0
DIMSTYLE
105
A363
330
A33F
100
AcDbSymbolTableRecord
100
AcDbDimStyleTableRecord
  2
STANDARD
 70
     0
 41
3.0
 42
1.0
 43
10.0
 44
1.0
 73
     0
 74
     0
 77
     3
 78
     8
140
3.2
141
0.0
147
1.0
172
     1
173
     1
284
     8
285
     8
286
     8
340
A346
  0
ENDTAB
  0
TABLE
  2
BLOCK_RECORD
  5
A336
330
0
100
AcDbSymbolTable
 70
     1
  0
BLOCK_RECORD
  5
A353
102
{ACAD_XDICTIONARY
360
A60D
102
}
330
A336
100
AcDbSymbolTableRecord
100
AcDbBlockTableRecord
  2
*MODEL_SPACE
340
A661
  0
BLOCK_RECORD
  5
A34F
102
{ACAD_XDICTIONARY
360
A60B
102
}
330
A336
100
AcDbSymbolTableRecord
100
AcDbBlockTableRecord
  2
*PAPER_SPACE
340
A662
  0
BLOCK_RECORD
  5
A36B
330
A336
100
AcDbSymbolTableRecord
100
AcDbBlockTableRecord
  2
_OPEN
340
0
  0
ENDTAB
  0
ENDSEC
  0
SECTION
  2
BLOCKS
  0
BLOCK
  5
A354
330
A353
100
AcDbEntity
  8
0
100
AcDbBlockBegin
  2
*MODEL_SPACE
 70
     0
 10
0.0
 20
0.0
 30
0.0
  3
*MODEL_SPACE
  1

  0
ENDBLK
  5
A355
330
A353
100
AcDbEntity
  8
0
100
AcDbBlockEnd
  0
BLOCK
  5
A350
330
A34F
100
AcDbEntity
 67
     1
  8
0
100
AcDbBlockBegin
  2
*PAPER_SPACE
 70
     0
 10
0.0
 20
0.0
 30
0.0
  3
*PAPER_SPACE
  1

  0
ENDBLK
  5
A351
330
A34F
100
AcDbEntity
 67
     1
  8
0
100
AcDbBlockEnd
  0
BLOCK
  5
A36C
330
A36B
100
AcDbEntity
  8
0
100
AcDbBlockBegin
  2
_OPEN
 70
     0
 10
0.0
 20
0.0
 30
0.0
  3
_OPEN
  1

  0
LINE
  5
A36D
330
A36B
100
AcDbEntity
  8
0
  6
ByBlock
 62
     0
100
AcDbLine
 10
-1.0
 20
0.166667
 30
0.0
 11
0.0
 21
0.0
 31
0.0
  0
LINE
  5
A36E
330
A36B
100
AcDbEntity
  8
0
  6
ByBlock
 62
     0
100
AcDbLine
 10
0.0
 20
0.0
 30
0.0
 11
-1.0
 21
-0.166667
 31
0.0
  0
LINE
  5
A36F
330
A36B
100
AcDbEntity
  8
0
  6
ByBlock
 62
     0
100
AcDbLine
 10
0.0
 20
0.0
 30
0.0
 11
-1.0
 21
0.0
 31
0.0
  0
ENDBLK
  5
A370
330
A36B
100
AcDbEntity
  8
0
100
AcDbBlockEnd
  0
ENDSEC
  0
SECTION
  2
ENTITIES
  0
TEXT
  5
A371
330
A353
100
AcDbEntity
  8
7
  6
Continuous
100
AcDbText
 10
10.0
 20
18.0
 30
0.0
 40
3.0
  1
TYPE No.105-N
100
AcDbText
  0
TEXT
  5
A372
330
A353
100
AcDbEntity
  8
7
  6
Continuous
100
AcDbText
 10
10.0
 20
26.0
 30
0.0
 40
3.0
  1
CODE No.9054
100
AcDbText
  0
TEXT
  5
A373
330
A353
100
AcDbEntity
  8
1
  6
Continuous
100
AcDbText
 10
10.0
 20
10.0
 30
0.0
 40
1.399999999999999
  1
LAYER
100
AcDbText
  0
TEXT
  5
A374
330
A353
100
AcDbEntity
  8
1
  6
Continuous
100
AcDbText
 10
17.97951099999998
 20
10.04873699999998
 30
0.0
 40
1.399999999999999
  1
1
100
AcDbText
  0
TEXT
  5
A375
330
A353
100
AcDbEntity
  8
7
  6
Continuous
100
AcDbText
 10
29.97951099999999
 20
10.04873699999998
 30
0.0
 40
1.399999999999999
  1
7
100
AcDbText
  0
TEXT
  5
A376
330
A353
100
AcDbEntity
  8
4
  6
CENTER
100
AcDbText
 10
23.97951099999999
 20
10.04873699999998
 30
0.0
 40
1.399999999999999
  1
4
100
AcDbText
  0
TEXT
  5
A377
330
A353
100
AcDbEntity
  8
3
  6
DASHED
100
AcDbText
 10
21.979511
 20
10.04873699999998
 30
0.0
 40
1.399999999999999
  1
3
100
AcDbText
  0
TEXT
  5
A378
330
A353
100
AcDbEntity
  8
2
  6
Continuous
100
AcDbText
 10
19.97951099999999
 20
10.04873699999998
 30
0.0
 40
1.399999999999999
  1
2
100
AcDbText
  0
TEXT
  5
A379
330
A353
100
AcDbEntity
  8
6
  6
Continuous
100
AcDbText
 10
27.979511
 20
10.04873699999998
 30
0.0
 40
1.399999999999999
  1
6
100
AcDbText
  0
TEXT
  5
A37A
330
A353
100
AcDbEntity
  8
5
  6
PHANTOM
100
AcDbText
 10
25.97951099999999
 20
10.04873699999998
 30
0.0
 40
1.399999999999999
  1
5
100
AcDbText
  0
CIRCLE
  5
A37B
330
A353
100
AcDbEntity
  8
1
  6
Continuous
100
AcDbCircle
 10
212.490146
 20
316.9206459999998
 30
0.0
 40
3.25
  0
CIRCLE
  5
A37C
330
A353
100
AcDbEntity
  8
1
  6
Continuous
100
AcDbCircle
 10
212.490146
 20
280.920646
 30
0.0
 40
3.25
  0
CIRCLE
  5
A37D
330
A353
100
AcDbEntity
  8
1
  6
Continuous
100
AcDbCircle
 10
158.490146
 20
280.920646
 30
0.0
 40
3.25
  0
CIRCLE
  5
A37E
330
A353
100
AcDbEntity
  8
1
  6
Continuous
100
AcDbCircle
 10
158.490146
 20
316.9206459999998
 30
0.0
 40
3.25
  0
CIRCLE
  5
A37F
330
A353
100
AcDbEntity
  8
1
  6
Continuous
100
AcDbCircle
 10
185.490146
 20
298.9206459999999
 30
0.0
 40
23.5
  0
CIRCLE
  5
A380
330
A353
100
AcDbEntity
  8
1
  6
Continuous
100
AcDbCircle
 10
185.490146
 20
298.9206459999999
 30
0.0
 40
20.89999999999999
  0
CIRCLE
  5
A381
330
A353
100
AcDbEntity
  8
1
  6
Continuous
100
AcDbCircle
 10
185.490146
 20
298.9206459999999
 30
0.0
 40
12.0
  0
ARC
  5
A382
330
A353
100
AcDbEntity
  8
1
  6
Continuous
100
AcDbCircle
 10
205.427976
 20
211.132781
 30
0.0
 40
4.377608
100
AcDbArc
 50
8.294477
 51
67.581971
  0
ARC
  5
A383
330
A353
100
AcDbEntity
  8
1
  6
Continuous
100
AcDbCircle
 10
80.27936399999999
 20
191.216185
 30
0.0
 40
131.100749
100
AcDbArc
 50
7.561295
 51
9.017450999999999
  0
ARC
  5
A384
330
A353
100
AcDbEntity
  8
1
  6
Continuous
100
AcDbCircle
 10
160.854892
 20
214.858092
 30
0.0
 40
1.997709
100
AcDbArc
 50
270.1599779999999
 51
299.197035
  0
ARC
  5
A385
330
A353
100
AcDbEntity
  8
1
  6
Continuous
100
AcDbCircle
 10
165.5953659999999
 20
211.2232759999999
 30
0.0
 40
4.224822999999998
100
AcDbArc
 50
110.5384659999999
 51
148.632099
  0
ARC
  5
A386
330
A353
100
AcDbEntity
  8
1
  6
Continuous
100
AcDbCircle
 10
161.6764959999999
 20
213.3878249999999
 30
0.0
 40
0.313453
100
AcDbArc
 50
299.197035
 51
6.338015999999998
  0
LINE
  5
A387
330
A353
100
AcDbEntity
  8
1
  6
Continuous
100
AcDbLine
 10
210.240147
 20
208.4673099999998
 30
0.0
 11
202.222361
 21
208.4673099999998
 31
0.0
  0
LINE
  5
A388
330
A353
100
AcDbEntity
  8
1
  6
Continuous
100
AcDbLine
 10
220.490146
 20
221.917417
 30
0.0
 11
150.490146
 21
221.917417
 31
0.0
  0
ARC
  5
A389
330
A353
100
AcDbEntity
  8
1
  6
Continuous
100
AcDbCircle
 10
205.2460299999999
 20
230.5325559999999
 30
0.0
 40
10.64
100
AcDbArc
 50
270.0
 51
305.934008
  0
ARC
  5
A38A
330
A353
100
AcDbEntity
  8
1
  6
Continuous
100
AcDbCircle
 10
165.734262
 20
230.5325559999999
 30
0.0
 40
10.64
100
AcDbArc
 50
234.0659919999999
 51
270.0
  0
LINE
  5
A38B
330
A353
100
AcDbEntity
  8
1
  6
Continuous
100
AcDbLine
 10
205.2460299999999
 20
219.892556
 30
0.0
 11
165.734262
 21
219.892556
 31
0.0
  0
LINE
  5
A38C
330
A353
100
AcDbEntity
  8
1
  6
Continuous
100
AcDbLine
 10
220.490146
 20
224.2177
 30
0.0
 11
150.490146
 21
224.2177
 31
0.0
  0
ARC
  5
A38D
330
A353
100
AcDbEntity
  8
1
  6
Continuous
100
AcDbCircle
 10
208.216259
 20
217.2349639999999
 30
0.0
 40
0.9569799999999998
100
AcDbArc
 50
24.04026499999999
 51
73.98808699999998
  0
LINE
  5
A38E
330
A353
100
AcDbEntity
  8
1
  6
Continuous
100
AcDbLine
 10
208.48023
 20
218.1548169999998
 30
0.0
 11
207.66523
 21
218.1548169999998
 31
0.0
  0
LINE
  5
A38F
330
A353
100
AcDbEntity
  8
1
  6
Continuous
100
AcDbLine
 10
207.66523
 20
218.1548169999998
 30
0.0
 11
207.49523
 21
218.514817
 31
0.0
  0
ARC
  5
A390
330
A353
100
AcDbEntity
  8
1
  6
Continuous
100
AcDbCircle
 10
204.878748
 20
219.7050439999999
 30
0.0
 40
4.697225
100
AcDbArc
 50
319.789963
 51
333.713305
  0
ARC
  5
A391
330
A353
100
AcDbEntity
  8
1
  6
Continuous
100
AcDbCircle
 10
202.676648
 20
214.603845
 30
0.0
 40
6.206
100
AcDbArc
 50
39.064301
 51
58.798683
  0
ARC
  5
A392
330
A353
100
AcDbEntity
  8
1
  6
Continuous
100
AcDbCircle
 10
162.7640319999999
 20
217.2349639999999
 30
0.0
 40
0.9569799999999998
100
AcDbArc
 50
106.011913
 51
155.9597349999999
  0
LINE
  5
A393
330
A353
100
AcDbEntity
  8
1
  6
Continuous
100
AcDbLine
 10
162.500062
 20
218.1548169999998
 30
0.0
 11
163.315062
 21
218.1548169999998
 31
0.0
  0
LINE
  5
A394
330
A353
100
AcDbEntity
  8
1
  6
Continuous
100
AcDbLine
 10
163.315062
 20
218.1548169999998
 30
0.0
 11
163.4850619999999
 21
218.514817
 31
0.0
  0
ARC
  5
A395
330
A353
100
AcDbEntity
  8
1
  6
Continuous
100
AcDbCircle
 10
166.1015439999999
 20
219.7050439999999
 30
0.0
 40
4.697225
100
AcDbArc
 50
206.286695
 51
220.210037
  0
ARC
  5
A396
330
A353
100
AcDbEntity
  8
1
  6
Continuous
100
AcDbCircle
 10
168.3036439999999
 20
214.603845
 30
0.0
 40
6.206
100
AcDbArc
 50
121.2013169999998
 51
140.935699
  0
LINE
  5
A397
330
A353
100
AcDbEntity
  8
1
  6
Continuous
100
AcDbLine
 10
207.66523
 20
218.1548169999998
 30
0.0
 11
163.315062
 21
218.1548169999998
 31
0.0
  0
LINE
  5
A398
330
A353
100
AcDbEntity
  8
1
  6
Continuous
100
AcDbLine
 10
208.490146
 20
216.6725559999999
 30
0.0
 11
162.490146
 21
216.6725559999999
 31
0.0
  0
LINE
  5
A399
330
A353
100
AcDbEntity
  8
1
  6
Continuous
100
AcDbLine
 10
268.9924409999999
 20
221.9173819999999
 30
0.0
 11
322.9924409999999
 21
221.9173819999999
 31
0.0
  0
ARC
  5
A39A
330
A353
100
AcDbEntity
  8
1
  6
Continuous
100
AcDbCircle
 10
276.236557
 20
230.5325199999999
 30
0.0
 40
10.64
100
AcDbArc
 50
234.0659919999999
 51
270.0
  0
ARC
  5
A39B
330
A353
100
AcDbEntity
  8
1
  6
Continuous
100
AcDbCircle
 10
315.748325
 20
230.5325199999999
 30
0.0
 40
10.64
100
AcDbArc
 50
270.0
 51
305.934008
  0
LINE
  5
A39C
330
A353
100
AcDbEntity
  8
1
  6
Continuous
100
AcDbLine
 10
276.236557
 20
219.89252
 30
0.0
 11
315.748325
 21
219.89252
 31
0.0
  0
LINE
  5
A39D
330
A353
100
AcDbEntity
  8
1
  6
Continuous
100
AcDbLine
 10
268.9924409999999
 20
224.2176649999999
 30
0.0
 11
322.9924409999999
 21
224.2176649999999
 31
0.0
  0
ARC
  5
A39E
330
A353
100
AcDbEntity
  8
1
  6
Continuous
100
AcDbCircle
 10
273.2663269999998
 20
217.234929
 30
0.0
 40
0.9569799999999998
100
AcDbArc
 50
106.011913
 51
155.9597349999999
  0
LINE
  5
A39F
330
A353
100
AcDbEntity
  8
1
  6
Continuous
100
AcDbLine
 10
273.0023569999999
 20
218.154782
 30
0.0
 11
273.8173569999998
 21
218.154782
 31
0.0
  0
LINE
  5
A3A0
330
A353
100
AcDbEntity
  8
1
  6
Continuous
100
AcDbLine
 10
273.8173569999998
 20
218.154782
 30
0.0
 11
273.9873569999999
 21
218.514782
 31
0.0
  0
ARC
  5
A3A1
330
A353
100
AcDbEntity
  8
1
  6
Continuous
100
AcDbCircle
 10
276.6038389999998
 20
219.7050089999999
 30
0.0
 40
4.697225
100
AcDbArc
 50
206.286695
 51
220.210037
  0
ARC
  5
A3A2
330
A353
100
AcDbEntity
  8
1
  6
Continuous
100
AcDbCircle
 10
278.805939
 20
214.6038089999999
 30
0.0
 40
6.206
100
AcDbArc
 50
121.2013169999998
 51
140.935699
  0
ARC
  5
A3A3
330
A353
100
AcDbEntity
  8
1
  6
Continuous
100
AcDbCircle
 10
318.7185549999999
 20
217.234929
 30
0.0
 40
0.9569799999999998
100
AcDbArc
 50
24.04026499999999
 51
73.98808699999998
  0
LINE
  5
A3A4
330
A353
100
AcDbEntity
  8
1
  6
Continuous
100
AcDbLine
 10
318.982525
 20
218.154782
 30
0.0
 11
318.167525
 21
218.154782
 31
0.0
  0
LINE
  5
A3A5
330
A353
100
AcDbEntity
  8
1
  6
Continuous
100
AcDbLine
 10
318.167525
 20
218.154782
 30
0.0
 11
317.997525
 21
218.514782
 31
0.0
  0
ARC
  5
A3A6
330
A353
100
AcDbEntity
  8
1
  6
Continuous
100
AcDbCircle
 10
315.381043
 20
219.7050089999999
 30
0.0
 40
4.697225
100
AcDbArc
 50
319.789963
 51
333.713305
  0
ARC
  5
A3A7
330
A353
100
AcDbEntity
  8
1
  6
Continuous
100
AcDbCircle
 10
313.1789429999999
 20
214.6038089999999
 30
0.0
 40
6.206
100
AcDbArc
 50
39.064301
 51
58.798683
  0
LINE
  5
A3A8
330
A353
100
AcDbEntity
  8
1
  6
Continuous
100
AcDbLine
 10
273.8173569999998
 20
218.154782
 30
0.0
 11
318.167525
 21
218.154782
 31
0.0
  0
LINE
  5
A3A9
330
A353
100
AcDbEntity
  8
1
  6
Continuous
100
AcDbLine
 10
272.9924409999999
 20
216.67252
 30
0.0
 11
318.9924409999999
 21
216.67252
 31
0.0
  0
LINE
  5
A3AA
330
A353
100
AcDbEntity
  8
1
  6
Continuous
100
AcDbLine
 10
271.2424410000001
 20
211.191224
 30
0.0
 11
271.2424410000001
 21
189.4850059999999
 31
0.0
  0
LINE
  5
A3AB
330
A353
100
AcDbEntity
  8
1
  6
Continuous
100
AcDbLine
 10
320.7424409999999
 20
211.191224
 30
0.0
 11
320.7424409999999
 21
189.4850059999999
 31
0.0
  0
ARC
  5
A3AC
330
A353
100
AcDbEntity
  8
1
  6
Continuous
100
AcDbCircle
 10
275.2424409999999
 20
211.191224
 30
0.0
 40
4.0
100
AcDbArc
 50
94.384039
 51
180.0
  0
ARC
  5
A3AD
330
A353
100
AcDbEntity
  8
1
  6
Continuous
100
AcDbCircle
 10
316.7424409999999
 20
211.191224
 30
0.0
 40
4.0
100
AcDbArc
 50
0.0
 51
85.615961
  0
ARC
  5
A3AE
330
A353
100
AcDbEntity
  8
1
  6
Continuous
100
AcDbCircle
 10
292.5841909999999
 20
189.4850059999999
 30
0.0
 40
28.15825
100
AcDbArc
 50
323.663991
 51
0.0
  0
ARC
  5
A3AF
330
A353
100
AcDbEntity
  8
1
  6
Continuous
100
AcDbCircle
 10
299.4006909999999
 20
189.4850059999999
 30
0.0
 40
28.15825
100
AcDbArc
 50
180.0
 51
182.984359
  0
LINE
  5
A3B0
330
A353
100
AcDbEntity
  8
1
  6
Continuous
100
AcDbLine
 10
275.0637259999999
 20
208.46721
 30
0.0
 11
316.9211559999999
 21
208.46721
 31
0.0
  0
ARC
  5
A3B1
330
A353
100
AcDbEntity
  8
1
  6
Continuous
100
AcDbCircle
 10
353.326634
 20
189.4850059999999
 30
0.0
 40
82.084193
100
AcDbArc
 50
167.757229
 51
180.0
  0
ARC
  5
A3B2
330
A353
100
AcDbEntity
  8
1
  6
Continuous
100
AcDbCircle
 10
353.326634
 20
189.4850059999999
 30
0.0
 40
79.784193
100
AcDbArc
 50
167.389352
 51
180.0
  0
ARC
  5
A3B3
330
A353
100
AcDbEntity
  8
1
  6
Continuous
100
AcDbCircle
 10
275.0637259999999
 20
206.46721
 30
0.0
 40
2.0
100
AcDbArc
 50
90.0
 51
167.757229
  0
ARC
  5
A3B4
330
A353
100
AcDbEntity
  8
1
  6
Continuous
100
AcDbCircle
 10
277.4188909999999
 20
206.46721
 30
0.0
 40
2.0
100
AcDbArc
 50
90.0
 51
167.389352
  0
ARC
  5
A3B5
330
A353
100
AcDbEntity
  8
1
  6
Continuous
100
AcDbCircle
 10
292.5841909999999
 20
189.4850059999999
 30
0.0
 40
25.85825
100
AcDbArc
 50
322.428066
 51
0.0
  0
ARC
  5
A3B6
330
A353
100
AcDbEntity
  8
1
  6
Continuous
100
AcDbCircle
 10
238.6582479999999
 20
189.4850059999999
 30
0.0
 40
82.084193
100
AcDbArc
 50
0.0
 51
12.242771
  0
ARC
  5
A3B7
330
A353
100
AcDbEntity
  8
1
  6
Continuous
100
AcDbCircle
 10
238.6582479999999
 20
189.4850059999999
 30
0.0
 40
79.784193
100
AcDbArc
 50
0.0
 51
12.61064799999999
  0
ARC
  5
A3B8
330
A353
100
AcDbEntity
  8
1
  6
Continuous
100
AcDbCircle
 10
316.9211559999999
 20
206.46721
 30
0.0
 40
2.0
100
AcDbArc
 50
12.242771
 51
90.0
  0
ARC
  5
A3B9
330
A353
100
AcDbEntity
  8
1
  6
Continuous
100
AcDbCircle
 10
314.565991
 20
206.46721
 30
0.0
 40
2.0
100
AcDbArc
 50
12.61064799999999
 51
90.0
  0
LINE
  5
A3BA
330
A353
100
AcDbEntity
  8
1
  6
Continuous
100
AcDbLine
 10
280.5886899999998
 20
165.1057189999999
 30
0.0
 11
278.2757859999999
 21
165.1057189999999
 31
0.0
  0
LINE
  5
A3BB
330
A353
100
AcDbEntity
  8
1
  6
Continuous
100
AcDbLine
 10
280.4497519999998
 20
179.7177819999998
 30
0.0
 11
280.9924409999999
 21
179.7177819999998
 31
0.0
  0
LINE
  5
A3BC
330
A353
100
AcDbEntity
  8
1
  6
Continuous
100
AcDbLine
 10
310.992441
 20
179.7177819999998
 30
0.0
 11
311.5351309999998
 21
179.7177819999998
 31
0.0
  0
LINE
  5
A3BD
330
A353
100
AcDbEntity
  8
1
  6
Continuous
100
AcDbLine
 10
280.534866
 20
171.717782
 30
0.0
 11
280.9924409999999
 21
171.717782
 31
0.0
  0
LINE
  5
A3BE
330
A353
100
AcDbEntity
  8
1
  6
Continuous
100
AcDbLine
 10
310.992441
 20
171.717782
 30
0.0
 11
311.4500159999999
 21
171.717782
 31
0.0
  0
LINE
  5
A3BF
330
A353
100
AcDbEntity
  8
1
  6
Continuous
100
AcDbLine
 10
162.490146
 20
215.179556
 30
0.0
 11
208.490146
 21
215.179556
 31
0.0
  0
LINE
  5
A3C0
330
A353
100
AcDbEntity
  8
1
  6
Continuous
100
AcDbLine
 10
208.490146
 20
216.6725559999999
 30
0.0
 11
208.490146
 21
215.179556
 31
0.0
  0
LINE
  5
A3C1
330
A353
100
AcDbEntity
  8
1
  6
Continuous
100
AcDbLine
 10
162.490146
 20
216.6725559999999
 30
0.0
 11
162.490146
 21
215.179556
 31
0.0
  0
LINE
  5
A3C2
330
A353
100
AcDbEntity
  8
1
  6
Continuous
100
AcDbLine
 10
318.9924409999999
 20
215.17952
 30
0.0
 11
272.9924409999999
 21
215.17952
 31
0.0
  0
LINE
  5
A3C3
330
A353
100
AcDbEntity
  8
1
  6
Continuous
100
AcDbLine
 10
272.9924409999999
 20
216.67252
 30
0.0
 11
272.9924409999999
 21
215.17952
 31
0.0
  0
LINE
  5
A3C4
330
A353
100
AcDbEntity
  8
1
  6
Continuous
100
AcDbLine
 10
318.9924409999999
 20
216.67252
 30
0.0
 11
318.9924409999999
 21
215.17952
 31
0.0
  0
LINE
  5
A3C5
330
A353
100
AcDbEntity
  8
1
  6
Continuous
100
AcDbLine
 10
187.490146
 20
215.179556
 30
0.0
 11
185.490146
 21
216.6725559999999
 31
0.0
  0
LINE
  5
A3C6
330
A353
100
AcDbEntity
  8
1
  6
Continuous
100
AcDbLine
 10
186.0759319999999
 20
215.179556
 30
0.0
 11
184.075932
 21
216.6725559999999
 31
0.0
  0
LINE
  5
A3C7
330
A353
100
AcDbEntity
  8
1
  6
Continuous
100
AcDbLine
 10
184.661719
 20
215.179556
 30
0.0
 11
182.661719
 21
216.6725559999999
 31
0.0
  0
LINE
  5
A3C8
330
A353
100
AcDbEntity
  8
1
  6
Continuous
100
AcDbLine
 10
183.247505
 20
215.179556
 30
0.0
 11
181.2475049999999
 21
216.6725559999999
 31
0.0
  0
LINE
  5
A3C9
330
A353
100
AcDbEntity
  8
1
  6
Continuous
100
AcDbLine
 10
181.8332919999998
 20
215.179556
 30
0.0
 11
179.833292
 21
216.6725559999999
 31
0.0
  0
LINE
  5
A3CA
330
A353
100
AcDbEntity
  8
1
  6
Continuous
100
AcDbLine
 10
180.419078
 20
215.179556
 30
0.0
 11
178.419078
 21
216.6725559999999
 31
0.0
  0
LINE
  5
A3CB
330
A353
100
AcDbEntity
  8
1
  6
Continuous
100
AcDbLine
 10
179.0048649999999
 20
215.179556
 30
0.0
 11
177.0048649999999
 21
216.6725559999999
 31
0.0
  0
LINE
  5
A3CC
330
A353
100
AcDbEntity
  8
1
  6
Continuous
100
AcDbLine
 10
177.590651
 20
215.179556
 30
0.0
 11
175.590651
 21
216.6725559999999
 31
0.0
  0
LINE
  5
A3CD
330
A353
100
AcDbEntity
  8
1
  6
Continuous
100
AcDbLine
 10
176.1764369999999
 20
215.179556
 30
0.0
 11
174.176437
 21
216.6725559999999
 31
0.0
  0
LINE
  5
A3CE
330
A353
100
AcDbEntity
  8
1
  6
Continuous
100
AcDbLine
 10
174.762224
 20
215.179556
 30
0.0
 11
172.762224
 21
216.6725559999999
 31
0.0
  0
LINE
  5
A3CF
330
A353
100
AcDbEntity
  8
1
  6
Continuous
100
AcDbLine
 10
173.3480099999999
 20
215.179556
 30
0.0
 11
171.3480099999999
 21
216.6725559999999
 31
0.0
  0
LINE
  5
A3D0
330
A353
100
AcDbEntity
  8
1
  6
Continuous
100
AcDbLine
 10
171.9337969999999
 20
215.179556
 30
0.0
 11
169.933797
 21
216.6725559999999
 31
0.0
  0
LINE
  5
A3D1
330
A353
100
AcDbEntity
  8
1
  6
Continuous
100
AcDbLine
 10
170.519583
 20
215.179556
 30
0.0
 11
168.519583
 21
216.6725559999999
 31
0.0
  0
LINE
  5
A3D2
330
A353
100
AcDbEntity
  8
1
  6
Continuous
100
AcDbLine
 10
169.1053699999999
 20
215.179556
 30
0.0
 11
167.1053699999999
 21
216.6725559999999
 31
0.0
  0
LINE
  5
A3D3
330
A353
100
AcDbEntity
  8
1
  6
Continuous
100
AcDbLine
 10
167.691156
 20
215.179556
 30
0.0
 11
165.691156
 21
216.6725559999999
 31
0.0
  0
LINE
  5
A3D4
330
A353
100
AcDbEntity
  8
1
  6
Continuous
100
AcDbLine
 10
166.2769429999999
 20
215.179556
 30
0.0
 11
164.2769429999999
 21
216.6725559999999
 31
0.0
  0
LINE
  5
A3D5
330
A353
100
AcDbEntity
  8
1
  6
Continuous
100
AcDbLine
 10
164.862729
 20
215.179556
 30
0.0
 11
162.862729
 21
216.6725559999999
 31
0.0
  0
LINE
  5
A3D6
330
A353
100
AcDbEntity
  8
1
  6
Continuous
100
AcDbLine
 10
163.4485149999999
 20
215.179556
 30
0.0
 11
162.490146
 21
216.1379249999999
 31
0.0
  0
LINE
  5
A3D7
330
A353
100
AcDbEntity
  8
1
  6
Continuous
100
AcDbLine
 10
188.9043599999999
 20
215.179556
 30
0.0
 11
186.9043599999999
 21
216.6725559999999
 31
0.0
  0
LINE
  5
A3D8
330
A353
100
AcDbEntity
  8
1
  6
Continuous
100
AcDbLine
 10
190.3185729999999
 20
215.179556
 30
0.0
 11
188.3185729999999
 21
216.6725559999999
 31
0.0
  0
LINE
  5
A3D9
330
A353
100
AcDbEntity
  8
1
  6
Continuous
100
AcDbLine
 10
191.732787
 20
215.179556
 30
0.0
 11
189.7327869999998
 21
216.6725559999999
 31
0.0
  0
LINE
  5
A3DA
330
A353
100
AcDbEntity
  8
1
  6
Continuous
100
AcDbLine
 10
193.147
 20
215.179556
 30
0.0
 11
191.1469999999999
 21
216.6725559999999
 31
0.0
  0
LINE
  5
A3DB
330
A353
100
AcDbEntity
  8
1
  6
Continuous
100
AcDbLine
 10
194.5612139999999
 20
215.179556
 30
0.0
 11
192.5612139999999
 21
216.6725559999999
 31
0.0
  0
LINE
  5
A3DC
330
A353
100
AcDbEntity
  8
1
  6
Continuous
100
AcDbLine
 10
195.9754269999999
 20
215.179556
 30
0.0
 11
193.975427
 21
216.6725559999999
 31
0.0
  0
LINE
  5
A3DD
330
A353
100
AcDbEntity
  8
1
  6
Continuous
100
AcDbLine
 10
197.3896409999999
 20
215.179556
 30
0.0
 11
195.3896409999999
 21
216.6725559999999
 31
0.0
  0
LINE
  5
A3DE
330
A353
100
AcDbEntity
  8
1
  6
Continuous
100
AcDbLine
 10
198.8038539999998
 20
215.179556
 30
0.0
 11
196.803854
 21
216.6725559999999
 31
0.0
  0
LINE
  5
A3DF
330
A353
100
AcDbEntity
  8
1
  6
Continuous
100
AcDbLine
 10
200.2180679999999
 20
215.179556
 30
0.0
 11
198.2180679999999
 21
216.6725559999999
 31
0.0
  0
LINE
  5
A3E0
330
A353
100
AcDbEntity
  8
1
  6
Continuous
100
AcDbLine
 10
201.632282
 20
215.179556
 30
0.0
 11
199.6322819999998
 21
216.6725559999999
 31
0.0
  0
LINE
  5
A3E1
330
A353
100
AcDbEntity
  8
1
  6
Continuous
100
AcDbLine
 10
203.0464949999999
 20
215.179556
 30
0.0
 11
201.0464949999999
 21
216.6725559999999
 31
0.0
  0
LINE
  5
A3E2
330
A353
100
AcDbEntity
  8
1
  6
Continuous
100
AcDbLine
 10
204.4607089999999
 20
215.179556
 30
0.0
 11
202.4607089999999
 21
216.6725559999999
 31
0.0
  0
LINE
  5
A3E3
330
A353
100
AcDbEntity
  8
1
  6
Continuous
100
AcDbLine
 10
205.874922
 20
215.179556
 30
0.0
 11
203.874922
 21
216.6725559999999
 31
0.0
  0
LINE
  5
A3E4
330
A353
100
AcDbEntity
  8
1
  6
Continuous
100
AcDbLine
 10
207.289136
 20
215.179556
 30
0.0
 11
205.289136
 21
216.6725559999999
 31
0.0
  0
LINE
  5
A3E5
330
A353
100
AcDbEntity
  8
1
  6
Continuous
100
AcDbLine
 10
208.490146
 20
215.3927589999999
 30
0.0
 11
206.703349
 21
216.6725559999999
 31
0.0
  0
LINE
  5
A3E6
330
A353
100
AcDbEntity
  8
1
  6
Continuous
100
AcDbLine
 10
208.490146
 20
216.299973
 30
0.0
 11
208.1175629999999
 21
216.6725559999999
 31
0.0
  0
LINE
  5
A3E7
330
A353
100
AcDbEntity
  8
1
  6
Continuous
100
AcDbLine
 10
183.490146
 20
215.179556
 30
0.0
 11
185.490146
 21
216.6725559999999
 31
0.0
  0
LINE
  5
A3E8
330
A353
100
AcDbEntity
  8
1
  6
Continuous
100
AcDbLine
 10
180.661719
 20
215.179556
 30
0.0
 11
182.661719
 21
216.6725559999999
 31
0.0
  0
LINE
  5
A3E9
330
A353
100
AcDbEntity
  8
1
  6
Continuous
100
AcDbLine
 10
177.8332919999998
 20
215.179556
 30
0.0
 11
179.833292
 21
216.6725559999999
 31
0.0
  0
LINE
  5
A3EA
330
A353
100
AcDbEntity
  8
1
  6
Continuous
100
AcDbLine
 10
175.004865
 20
215.179556
 30
0.0
 11
177.0048649999999
 21
216.6725559999999
 31
0.0
  0
LINE
  5
A3EB
330
A353
100
AcDbEntity
  8
1
  6
Continuous
100
AcDbLine
 10
172.1764369999999
 20
215.179556
 30
0.0
 11
174.176437
 21
216.6725559999999
 31
0.0
  0
LINE
  5
A3EC
330
A353
100
AcDbEntity
  8
1
  6
Continuous
100
AcDbLine
 10
169.3480099999999
 20
215.179556
 30
0.0
 11
171.3480099999999
 21
216.6725559999999
 31
0.0
  0
LINE
  5
A3ED
330
A353
100
AcDbEntity
  8
1
  6
Continuous
100
AcDbLine
 10
166.519583
 20
215.179556
 30
0.0
 11
168.519583
 21
216.6725559999999
 31
0.0
  0
LINE
  5
A3EE
330
A353
100
AcDbEntity
  8
1
  6
Continuous
100
AcDbLine
 10
163.691156
 20
215.179556
 30
0.0
 11
165.691156
 21
216.6725559999999
 31
0.0
  0
LINE
  5
A3EF
330
A353
100
AcDbEntity
  8
1
  6
Continuous
100
AcDbLine
 10
162.490146
 20
216.299973
 30
0.0
 11
162.862729
 21
216.6725559999999
 31
0.0
  0
LINE
  5
A3F0
330
A353
100
AcDbEntity
  8
1
  6
Continuous
100
AcDbLine
 10
186.3185729999999
 20
215.179556
 30
0.0
 11
188.3185729999999
 21
216.6725559999999
 31
0.0
  0
LINE
  5
A3F1
330
A353
100
AcDbEntity
  8
1
  6
Continuous
100
AcDbLine
 10
189.1469999999999
 20
215.179556
 30
0.0
 11
191.1469999999999
 21
216.6725559999999
 31
0.0
  0
LINE
  5
A3F2
330
A353
100
AcDbEntity
  8
1
  6
Continuous
100
AcDbLine
 10
191.975427
 20
215.179556
 30
0.0
 11
193.975427
 21
216.6725559999999
 31
0.0
  0
LINE
  5
A3F3
330
A353
100
AcDbEntity
  8
1
  6
Continuous
100
AcDbLine
 10
194.8038539999998
 20
215.179556
 30
0.0
 11
196.803854
 21
216.6725559999999
 31
0.0
  0
LINE
  5
A3F4
330
A353
100
AcDbEntity
  8
1
  6
Continuous
100
AcDbLine
 10
197.632282
 20
215.179556
 30
0.0
 11
199.6322819999998
 21
216.6725559999999
 31
0.0
  0
LINE
  5
A3F5
330
A353
100
AcDbEntity
  8
1
  6
Continuous
100
AcDbLine
 10
200.4607089999999
 20
215.179556
 30
0.0
 11
202.4607089999999
 21
216.6725559999999
 31
0.0
  0
LINE
  5
A3F6
330
A353
100
AcDbEntity
  8
1
  6
Continuous
100
AcDbLine
 10
203.289136
 20
215.179556
 30
0.0
 11
205.289136
 21
216.6725559999999
 31
0.0
  0
LINE
  5
A3F7
330
A353
100
AcDbEntity
  8
1
  6
Continuous
100
AcDbLine
 10
206.117563
 20
215.179556
 30
0.0
 11
208.1175629999999
 21
216.6725559999999
 31
0.0
  0
LINE
  5
A3F8
330
A353
100
AcDbEntity
  8
1
  6
Continuous
100
AcDbLine
 10
293.9924409999999
 20
215.17952
 30
0.0
 11
295.9924409999999
 21
216.67252
 31
0.0
  0
LINE
  5
A3F9
330
A353
100
AcDbEntity
  8
1
  6
Continuous
100
AcDbLine
 10
295.4066549999998
 20
215.17952
 30
0.0
 11
297.4066549999998
 21
216.67252
 31
0.0
  0
LINE
  5
A3FA
330
A353
100
AcDbEntity
  8
1
  6
Continuous
100
AcDbLine
 10
296.820868
 20
215.17952
 30
0.0
 11
298.8208679999999
 21
216.67252
 31
0.0
  0
LINE
  5
A3FB
330
A353
100
AcDbEntity
  8
1
  6
Continuous
100
AcDbLine
 10
298.2350819999999
 20
215.17952
 30
0.0
 11
300.2350819999999
 21
216.67252
 31
0.0
  0
LINE
  5
A3FC
330
A353
100
AcDbEntity
  8
1
  6
Continuous
100
AcDbLine
 10
299.649295
 20
215.17952
 30
0.0
 11
301.6492949999999
 21
216.67252
 31
0.0
  0
LINE
  5
A3FD
330
A353
100
AcDbEntity
  8
1
  6
Continuous
100
AcDbLine
 10
301.063509
 20
215.17952
 30
0.0
 11
303.063509
 21
216.67252
 31
0.0
  0
LINE
  5
A3FE
330
A353
100
AcDbEntity
  8
1
  6
Continuous
100
AcDbLine
 10
302.477722
 20
215.17952
 30
0.0
 11
304.477722
 21
216.67252
 31
0.0
  0
LINE
  5
A3FF
330
A353
100
AcDbEntity
  8
1
  6
Continuous
100
AcDbLine
 10
303.8919359999998
 20
215.17952
 30
0.0
 11
305.8919359999998
 21
216.67252
 31
0.0
  0
LINE
  5
A400
330
A353
100
AcDbEntity
  8
1
  6
Continuous
100
AcDbLine
 10
305.306149
 20
215.17952
 30
0.0
 11
307.306149
 21
216.67252
 31
0.0
  0
LINE
  5
A401
330
A353
100
AcDbEntity
  8
1
  6
Continuous
100
AcDbLine
 10
306.7203629999998
 20
215.17952
 30
0.0
 11
308.7203629999998
 21
216.67252
 31
0.0
  0
LINE
  5
A402
330
A353
100
AcDbEntity
  8
1
  6
Continuous
100
AcDbLine
 10
308.1345769999999
 20
215.17952
 30
0.0
 11
310.134577
 21
216.67252
 31
0.0
  0
LINE
  5
A403
330
A353
100
AcDbEntity
  8
1
  6
Continuous
100
AcDbLine
 10
309.54879
 20
215.17952
 30
0.0
 11
311.54879
 21
216.67252
 31
0.0
  0
LINE
  5
A404
330
A353
100
AcDbEntity
  8
1
  6
Continuous
100
AcDbLine
 10
310.963004
 20
215.17952
 30
0.0
 11
312.963004
 21
216.67252
 31
0.0
  0
LINE
  5
A405
330
A353
100
AcDbEntity
  8
1
  6
Continuous
100
AcDbLine
 10
312.3772169999999
 20
215.17952
 30
0.0
 11
314.3772169999999
 21
216.67252
 31
0.0
  0
LINE
  5
A406
330
A353
100
AcDbEntity
  8
1
  6
Continuous
100
AcDbLine
 10
313.7914309999998
 20
215.17952
 30
0.0
 11
315.7914309999998
 21
216.67252
 31
0.0
  0
LINE
  5
A407
330
A353
100
AcDbEntity
  8
1
  6
Continuous
100
AcDbLine
 10
315.2056439999999
 20
215.17952
 30
0.0
 11
317.2056439999999
 21
216.67252
 31
0.0
  0
LINE
  5
A408
330
A353
100
AcDbEntity
  8
1
  6
Continuous
100
AcDbLine
 10
316.619858
 20
215.17952
 30
0.0
 11
318.619858
 21
216.67252
 31
0.0
  0
LINE
  5
A409
330
A353
100
AcDbEntity
  8
1
  6
Continuous
100
AcDbLine
 10
318.0340719999999
 20
215.17952
 30
0.0
 11
318.9924409999999
 21
216.1378899999998
 31
0.0
  0
LINE
  5
A40A
330
A353
100
AcDbEntity
  8
1
  6
Continuous
100
AcDbLine
 10
292.578227
 20
215.17952
 30
0.0
 11
294.578227
 21
216.67252
 31
0.0
  0
LINE
  5
A40B
330
A353
100
AcDbEntity
  8
1
  6
Continuous
100
AcDbLine
 10
291.164014
 20
215.17952
 30
0.0
 11
293.164014
 21
216.67252
 31
0.0
  0
LINE
  5
A40C
330
A353
100
AcDbEntity
  8
1
  6
Continuous
100
AcDbLine
 10
289.7498
 20
215.17952
 30
0.0
 11
291.7498
 21
216.67252
 31
0.0
  0
LINE
  5
A40D
330
A353
100
AcDbEntity
  8
1
  6
Continuous
100
AcDbLine
 10
288.3355869999999
 20
215.17952
 30
0.0
 11
290.335587
 21
216.67252
 31
0.0
  0
LINE
  5
A40E
330
A353
100
AcDbEntity
  8
1
  6
Continuous
100
AcDbLine
 10
286.921373
 20
215.17952
 30
0.0
 11
288.921373
 21
216.67252
 31
0.0
  0
LINE
  5
A40F
330
A353
100
AcDbEntity
  8
1
  6
Continuous
100
AcDbLine
 10
285.50716
 20
215.17952
 30
0.0
 11
287.50716
 21
216.67252
 31
0.0
  0
LINE
  5
A410
330
A353
100
AcDbEntity
  8
1
  6
Continuous
100
AcDbLine
 10
284.0929459999999
 20
215.17952
 30
0.0
 11
286.0929459999999
 21
216.67252
 31
0.0
  0
LINE
  5
A411
330
A353
100
AcDbEntity
  8
1
  6
Continuous
100
AcDbLine
 10
282.6787319999999
 20
215.17952
 30
0.0
 11
284.6787319999999
 21
216.67252
 31
0.0
  0
LINE
  5
A412
330
A353
100
AcDbEntity
  8
1
  6
Continuous
100
AcDbLine
 10
281.2645189999999
 20
215.17952
 30
0.0
 11
283.264519
 21
216.67252
 31
0.0
  0
LINE
  5
A413
330
A353
100
AcDbEntity
  8
1
  6
Continuous
100
AcDbLine
 10
279.8503049999998
 20
215.17952
 30
0.0
 11
281.8503049999998
 21
216.67252
 31
0.0
  0
LINE
  5
A414
330
A353
100
AcDbEntity
  8
1
  6
Continuous
100
AcDbLine
 10
278.4360919999999
 20
215.17952
 30
0.0
 11
280.4360919999999
 21
216.67252
 31
0.0
  0
LINE
  5
A415
330
A353
100
AcDbEntity
  8
1
  6
Continuous
100
AcDbLine
 10
277.0218779999999
 20
215.17952
 30
0.0
 11
279.0218779999999
 21
216.67252
 31
0.0
  0
LINE
  5
A416
330
A353
100
AcDbEntity
  8
1
  6
Continuous
100
AcDbLine
 10
275.607665
 20
215.17952
 30
0.0
 11
277.6076649999998
 21
216.67252
 31
0.0
  0
LINE
  5
A417
330
A353
100
AcDbEntity
  8
1
  6
Continuous
100
AcDbLine
 10
274.1934509999999
 20
215.17952
 30
0.0
 11
276.1934509999999
 21
216.67252
 31
0.0
  0
LINE
  5
A418
330
A353
100
AcDbEntity
  8
1
  6
Continuous
100
AcDbLine
 10
272.9924409999999
 20
215.3927239999999
 30
0.0
 11
274.7792379999999
 21
216.67252
 31
0.0
  0
LINE
  5
A419
330
A353
100
AcDbEntity
  8
1
  6
Continuous
100
AcDbLine
 10
272.9924409999999
 20
216.299937
 30
0.0
 11
273.365024
 21
216.67252
 31
0.0
  0
LINE
  5
A41A
330
A353
100
AcDbEntity
  8
1
  6
Continuous
100
AcDbLine
 10
297.9924409999999
 20
215.17952
 30
0.0
 11
295.9924409999999
 21
216.67252
 31
0.0
  0
LINE
  5
A41B
330
A353
100
AcDbEntity
  8
1
  6
Continuous
100
AcDbLine
 10
300.820868
 20
215.17952
 30
0.0
 11
298.8208679999999
 21
216.67252
 31
0.0
  0
LINE
  5
A41C
330
A353
100
AcDbEntity
  8
1
  6
Continuous
100
AcDbLine
 10
303.6492949999999
 20
215.17952
 30
0.0
 11
301.6492949999999
 21
216.67252
 31
0.0
  0
LINE
  5
A41D
330
A353
100
AcDbEntity
  8
1
  6
Continuous
100
AcDbLine
 10
306.477722
 20
215.17952
 30
0.0
 11
304.477722
 21
216.67252
 31
0.0
  0
LINE
  5
A41E
330
A353
100
AcDbEntity
  8
1
  6
Continuous
100
AcDbLine
 10
309.306149
 20
215.17952
 30
0.0
 11
307.306149
 21
216.67252
 31
0.0
  0
LINE
  5
A41F
330
A353
100
AcDbEntity
  8
1
  6
Continuous
100
AcDbLine
 10
312.134577
 20
215.17952
 30
0.0
 11
310.134577
 21
216.67252
 31
0.0
  0
LINE
  5
A420
330
A353
100
AcDbEntity
  8
1
  6
Continuous
100
AcDbLine
 10
314.963004
 20
215.17952
 30
0.0
 11
312.963004
 21
216.67252
 31
0.0
  0
LINE
  5
A421
330
A353
100
AcDbEntity
  8
1
  6
Continuous
100
AcDbLine
 10
317.7914309999998
 20
215.17952
 30
0.0
 11
315.7914309999998
 21
216.67252
 31
0.0
  0
LINE
  5
A422
330
A353
100
AcDbEntity
  8
1
  6
Continuous
100
AcDbLine
 10
318.9924409999999
 20
216.299937
 30
0.0
 11
318.619858
 21
216.67252
 31
0.0
  0
LINE
  5
A423
330
A353
100
AcDbEntity
  8
1
  6
Continuous
100
AcDbLine
 10
295.164014
 20
215.17952
 30
0.0
 11
293.164014
 21
216.67252
 31
0.0
  0
LINE
  5
A424
330
A353
100
AcDbEntity
  8
1
  6
Continuous
100
AcDbLine
 10
292.3355869999999
 20
215.17952
 30
0.0
 11
290.335587
 21
216.67252
 31
0.0
  0
LINE
  5
A425
330
A353
100
AcDbEntity
  8
1
  6
Continuous
100
AcDbLine
 10
289.5071599999998
 20
215.17952
 30
0.0
 11
287.50716
 21
216.67252
 31
0.0
  0
LINE
  5
A426
330
A353
100
AcDbEntity
  8
1
  6
Continuous
100
AcDbLine
 10
286.6787319999999
 20
215.17952
 30
0.0
 11
284.6787319999999
 21
216.67252
 31
0.0
  0
LINE
  5
A427
330
A353
100
AcDbEntity
  8
1
  6
Continuous
100
AcDbLine
 10
283.8503049999999
 20
215.17952
 30
0.0
 11
281.8503049999998
 21
216.67252
 31
0.0
  0
LINE
  5
A428
330
A353
100
AcDbEntity
  8
1
  6
Continuous
100
AcDbLine
 10
281.0218779999999
 20
215.17952
 30
0.0
 11
279.0218779999999
 21
216.67252
 31
0.0
  0
LINE
  5
A429
330
A353
100
AcDbEntity
  8
1
  6
Continuous
100
AcDbLine
 10
278.1934509999999
 20
215.17952
 30
0.0
 11
276.1934509999999
 21
216.67252
 31
0.0
  0
LINE
  5
A42A
330
A353
100
AcDbEntity
  8
1
  6
Continuous
100
AcDbLine
 10
275.365024
 20
215.17952
 30
0.0
 11
273.365024
 21
216.67252
 31
0.0
  0
LINE
  5
A42B
330
A353
100
AcDbEntity
  8
4
  6
CENTER
100
AcDbLine
 10
218.740146
 20
316.9206459999998
 30
0.0
 11
206.240146
 21
316.9206459999998
 31
0.0
  0
LINE
  5
A42C
330
A353
100
AcDbEntity
  8
4
  6
CENTER
100
AcDbLine
 10
212.490146
 20
310.6706459999998
 30
0.0
 11
212.490146
 21
323.1706459999998
 31
0.0
  0
LINE
  5
A42D
330
A353
100
AcDbEntity
  8
4
  6
CENTER
100
AcDbLine
 10
218.740146
 20
280.920646
 30
0.0
 11
206.240146
 21
280.920646
 31
0.0
  0
LINE
  5
A42E
330
A353
100
AcDbEntity
  8
4
  6
CENTER
100
AcDbLine
 10
212.490146
 20
274.6706459999999
 30
0.0
 11
212.490146
 21
287.170646
 31
0.0
  0
LINE
  5
A42F
330
A353
100
AcDbEntity
  8
4
  6
CENTER
100
AcDbLine
 10
164.740146
 20
280.920646
 30
0.0
 11
152.240146
 21
280.920646
 31
0.0
  0
LINE
  5
A430
330
A353
100
AcDbEntity
  8
4
  6
CENTER
100
AcDbLine
 10
158.490146
 20
274.6706459999999
 30
0.0
 11
158.490146
 21
287.170646
 31
0.0
  0
LINE
  5
A431
330
A353
100
AcDbEntity
  8
4
  6
CENTER
100
AcDbLine
 10
164.740146
 20
316.9206459999998
 30
0.0
 11
152.240146
 21
316.9206459999998
 31
0.0
  0
LINE
  5
A432
330
A353
100
AcDbEntity
  8
4
  6
CENTER
100
AcDbLine
 10
158.490146
 20
310.6706459999998
 30
0.0
 11
158.490146
 21
323.1706459999998
 31
0.0
  0
LINE
  5
A433
330
A353
100
AcDbEntity
  8
4
  6
CENTER
100
AcDbLine
 10
226.5224509999999
 20
298.9206459999999
 30
0.0
 11
123.990146
 21
298.9206459999999
 31
0.0
  0
LINE
  5
A434
330
A353
100
AcDbEntity
  8
4
  6
CENTER
100
AcDbLine
 10
185.490146
 20
268.578617
 30
0.0
 11
185.490146
 21
329.525192
 31
0.0
  0
LINE
  5
A435
330
A353
100
AcDbEntity
  8
4
  6
CENTER
100
AcDbLine
 10
185.490146
 20
202.215713
 30
0.0
 11
185.490146
 21
229.2177
 31
0.0
  0
LINE
  5
A436
330
A353
100
AcDbEntity
  8
4
  6
CENTER
100
AcDbLine
 10
196.990146
 20
175.717882
 30
0.0
 11
123.990146
 21
175.717882
 31
0.0
  0
LINE
  5
A437
330
A353
100
AcDbEntity
  8
4
  6
CENTER
100
AcDbLine
 10
160.490146
 20
139.217882
 30
0.0
 11
160.490146
 21
207.891468
 31
0.0
  0
LINE
  5
A438
330
A353
100
AcDbEntity
  8
4
  6
CENTER
100
AcDbLine
 10
270.6925519999999
 20
175.717782
 30
0.0
 11
322.792299
 21
175.717782
 31
0.0
  0
LINE
  5
A439
330
A353
100
AcDbEntity
  8
4
  6
CENTER
100
AcDbLine
 10
295.9924409999999
 20
229.217665
 30
0.0
 11
295.9924409999999
 21
139.217782
 31
0.0
  0
LINE
  5
A43A
330
A353
100
AcDbEntity
  8
1
  6
Continuous
100
AcDbLine
 10
213.490146
 20
325.9206459999999
 30
0.0
 11
157.490146
 21
325.9206459999999
 31
0.0
  0
LINE
  5
A43B
330
A353
100
AcDbEntity
  8
1
  6
Continuous
100
AcDbLine
 10
150.490146
 20
278.9206459999999
 30
0.0
 11
150.490146
 21
318.9206459999998
 31
0.0
  0
LINE
  5
A43C
330
A353
100
AcDbEntity
  8
1
  6
Continuous
100
AcDbLine
 10
213.490146
 20
271.9206459999999
 30
0.0
 11
157.490146
 21
271.9206459999999
 31
0.0
  0
LINE
  5
A43D
330
A353
100
AcDbEntity
  8
1
  6
Continuous
100
AcDbLine
 10
220.490146
 20
278.9206459999999
 30
0.0
 11
220.490146
 21
318.9206459999998
 31
0.0
  0
ARC
  5
A43E
330
A353
100
AcDbEntity
  8
1
  6
Continuous
100
AcDbCircle
 10
157.490146
 20
318.9206459999998
 30
0.0
 40
7.0
100
AcDbArc
 50
90.0
 51
180.0
  0
ARC
  5
A43F
330
A353
100
AcDbEntity
  8
1
  6
Continuous
100
AcDbCircle
 10
213.490146
 20
318.9206459999998
 30
0.0
 40
7.0
100
AcDbArc
 50
0.0
 51
90.0
  0
ARC
  5
A440
330
A353
100
AcDbEntity
  8
1
  6
Continuous
100
AcDbCircle
 10
157.490146
 20
278.9206459999999
 30
0.0
 40
7.0
100
AcDbArc
 50
180.0
 51
270.0
  0
ARC
  5
A441
330
A353
100
AcDbEntity
  8
1
  6
Continuous
100
AcDbCircle
 10
213.490146
 20
278.9206459999999
 30
0.0
 40
7.0
100
AcDbArc
 50
270.0
 51
0.0
  0
LINE
  5
A442
330
A353
100
AcDbEntity
  8
1
  6
Continuous
100
AcDbLine
 10
220.490146
 20
221.917417
 30
0.0
 11
220.490146
 21
224.2177
 31
0.0
  0
LINE
  5
A443
330
A353
100
AcDbEntity
  8
1
  6
Continuous
100
AcDbLine
 10
150.490146
 20
221.917417
 30
0.0
 11
150.490146
 21
224.2177
 31
0.0
  0
LINE
  5
A444
330
A353
100
AcDbEntity
  8
4
  6
CENTER
100
AcDbLine
 10
158.490146
 20
216.917417
 30
0.0
 11
158.490146
 21
229.2177
 31
0.0
  0
LINE
  5
A445
330
A353
100
AcDbEntity
  8
4
  6
CENTER
100
AcDbLine
 10
212.490146
 20
216.917417
 30
0.0
 11
212.490146
 21
229.2177
 31
0.0
  0
LINE
  5
A446
330
A353
100
AcDbEntity
  8
4
  6
CENTER
100
AcDbLine
 10
277.992441
 20
229.217665
 30
0.0
 11
277.992441
 21
216.9173819999998
 31
0.0
  0
LINE
  5
A447
330
A353
100
AcDbEntity
  8
4
  6
CENTER
100
AcDbLine
 10
313.9924409999999
 20
229.217665
 30
0.0
 11
313.9924409999999
 21
216.9173819999998
 31
0.0
  0
LINE
  5
A448
330
A353
100
AcDbEntity
  8
1
  6
Continuous
100
AcDbLine
 10
268.9924409999999
 20
224.2176649999999
 30
0.0
 11
268.9924409999999
 21
221.9173819999999
 31
0.0
  0
LINE
  5
A449
330
A353
100
AcDbEntity
  8
1
  6
Continuous
100
AcDbLine
 10
322.9924409999999
 20
224.2176649999999
 30
0.0
 11
322.9924409999999
 21
221.9173819999999
 31
0.0
  0
ARC
  5
A44A
330
A353
100
AcDbEntity
  8
1
  6
Continuous
100
AcDbCircle
 10
161.590146
 20
176.117882
 30
0.0
 40
11.0
100
AcDbArc
 50
165.8563979999998
 51
326.3274589999999
  0
LINE
  5
A44B
330
A353
100
AcDbEntity
  8
1
  6
Continuous
100
AcDbLine
 10
166.8243219999999
 20
212.8770429999999
 30
0.0
 11
155.702287
 21
212.845989
 31
0.0
  0
ARC
  5
A44C
330
A353
100
AcDbEntity
  8
1
  6
Continuous
100
AcDbCircle
 10
202.222361
 20
194.23831
 30
0.0
 40
14.229
100
AcDbArc
 50
90.0
 51
133.500573
  0
ARC
  5
A44D
330
A353
100
AcDbEntity
  8
1
  6
Continuous
100
AcDbCircle
 10
200.835986
 20
197.46731
 30
0.0
 40
11.0
100
AcDbArc
 50
139.8530389999999
 51
146.327459
  0
ARC
  5
A44E
330
A353
100
AcDbEntity
  8
1
  6
Continuous
100
AcDbCircle
 10
156.646199
 20
294.757624
 30
0.0
 40
84.15427099999998
100
AcDbArc
 50
268.6251529999998
 51
270.661561
  0
ARC
  5
A44F
330
A353
100
AcDbEntity
  8
1
  6
Continuous
100
AcDbCircle
 10
155.716879
 20
207.620059
 30
0.0
 40
5.22595
100
AcDbArc
 50
90.15997800000002
 51
100.38805
  0
ARC
  5
A450
330
A353
100
AcDbEntity
  8
1
  6
Continuous
100
AcDbCircle
 10
154.9009879999998
 20
212.0707279999999
 30
0.0
 40
0.7011149999999999
100
AcDbArc
 50
100.38805
 51
140.399055
  0
ARC
  5
A451
330
A353
100
AcDbEntity
  8
1
  6
Continuous
100
AcDbCircle
 10
154.63379
 20
210.907969
 30
0.0
 40
0.28047
100
AcDbArc
 50
216.5458509999999
 51
268.6251529999998
  0
ARC
  5
A452
330
A353
100
AcDbEntity
  8
1
  6
Continuous
100
AcDbCircle
 10
141.337801
 20
209.431971
 30
0.0
 40
13.13604599999999
100
AcDbArc
 50
5.718930999999998
 51
8.653186999999999
  0
ARC
  5
A453
330
A353
100
AcDbEntity
  8
1
  6
Continuous
100
AcDbCircle
 10
122.542776
 20
213.0080229999999
 30
0.0
 40
31.82178
100
AcDbArc
 50
357.118506
 51
359.117028
  0
LINE
  5
A454
330
A353
100
AcDbEntity
  8
1
  6
Continuous
100
AcDbLine
 10
158.090134
 20
212.852656
 30
0.0
 11
150.9235969999998
 21
178.8057659999998
 31
0.0
  0
LINE
  5
A455
330
A353
100
AcDbEntity
  8
1
  6
Continuous
100
AcDbLine
 10
191.681567
 20
203.5662129999999
 30
0.0
 11
170.7445659999999
 21
170.0189799999999
 31
0.0
  0
LINE
  5
A456
330
A353
100
AcDbEntity
  8
4
  6
CENTER
100
AcDbLine
 10
53.987851
 20
229.217665
 30
0.0
 11
53.987851
 21
139.217782
 31
0.0
  0
LINE
  5
A457
330
A353
100
AcDbEntity
  8
4
  6
CENTER
100
AcDbLine
 10
79.28774
 20
175.717782
 30
0.0
 11
27.18796199999999
 21
175.717782
 31
0.0
  0
LINE
  5
A458
330
A353
100
AcDbEntity
  8
1
  6
Continuous
100
AcDbLine
 10
69.445426
 20
171.717782
 30
0.0
 11
68.98785100000001
 21
171.717782
 31
0.0
  0
LINE
  5
A459
330
A353
100
AcDbEntity
  8
1
  6
Continuous
100
AcDbLine
 10
69.530541
 20
179.7177819999998
 30
0.0
 11
68.98785100000001
 21
179.7177819999998
 31
0.0
  0
LINE
  5
A45A
330
A353
100
AcDbEntity
  8
1
  6
Continuous
100
AcDbLine
 10
38.98785099999999
 20
171.717782
 30
0.0
 11
38.530276
 21
171.717782
 31
0.0
  0
LINE
  5
A45B
330
A353
100
AcDbEntity
  8
1
  6
Continuous
100
AcDbLine
 10
38.98785099999999
 20
179.7177819999998
 30
0.0
 11
38.44516199999999
 21
179.7177819999998
 31
0.0
  0
LINE
  5
A45C
330
A353
100
AcDbEntity
  8
1
  6
Continuous
100
AcDbLine
 10
76.98785100000002
 20
216.67252
 30
0.0
 11
30.98785100000001
 21
216.67252
 31
0.0
  0
LINE
  5
A45D
330
A353
100
AcDbEntity
  8
1
  6
Continuous
100
AcDbLine
 10
76.16293500000002
 20
218.154782
 30
0.0
 11
31.81276699999999
 21
218.154782
 31
0.0
  0
LINE
  5
A45E
330
A353
100
AcDbEntity
  8
1
  6
Continuous
100
AcDbLine
 10
80.987851
 20
224.2176649999999
 30
0.0
 11
26.987851
 21
224.2176649999999
 31
0.0
  0
LINE
  5
A45F
330
A353
100
AcDbEntity
  8
1
  6
Continuous
100
AcDbLine
 10
73.743735
 20
219.89252
 30
0.0
 11
34.231967
 21
219.89252
 31
0.0
  0
LINE
  5
A460
330
A353
100
AcDbEntity
  8
1
  6
Continuous
100
AcDbLine
 10
80.987851
 20
221.9173819999999
 30
0.0
 11
26.987851
 21
221.9173819999999
 31
0.0
  0
LINE
  5
A461
330
A353
100
AcDbEntity
  8
1
  6
Continuous
100
AcDbLine
 10
30.98785100000001
 20
215.17952
 30
0.0
 11
76.98785100000002
 21
215.17952
 31
0.0
  0
LINE
  5
A462
330
A353
100
AcDbEntity
  8
1
  6
Continuous
100
AcDbLine
 10
49.159424
 20
215.17952
 30
0.0
 11
51.159424
 21
216.67252
 31
0.0
  0
LINE
  5
A463
330
A353
100
AcDbEntity
  8
1
  6
Continuous
100
AcDbLine
 10
50.33099700000001
 20
215.17952
 30
0.0
 11
48.33099699999999
 21
216.67252
 31
0.0
  0
LINE
  5
A464
330
A353
100
AcDbEntity
  8
1
  6
Continuous
100
AcDbLine
 10
51.74521
 20
215.17952
 30
0.0
 11
49.74521
 21
216.67252
 31
0.0
  0
ARC
  5
A465
330
A353
100
AcDbEntity
  8
1
  6
Continuous
100
AcDbCircle
 10
74.737851
 20
211.191224
 30
0.0
 40
4.0
100
AcDbArc
 50
0.0
 51
85.615961
  0
LINE
  5
A466
330
A353
100
AcDbEntity
  8
1
  6
Continuous
100
AcDbLine
 10
78.737851
 20
211.191224
 30
0.0
 11
78.737851
 21
189.4850059999999
 31
0.0
  0
LINE
  5
A467
330
A353
100
AcDbEntity
  8
1
  6
Continuous
100
AcDbLine
 10
67.30156
 20
215.17952
 30
0.0
 11
65.30155999999999
 21
216.67252
 31
0.0
  0
LINE
  5
A468
330
A353
100
AcDbEntity
  8
1
  6
Continuous
100
AcDbLine
 10
65.88734599999999
 20
215.17952
 30
0.0
 11
63.88734599999999
 21
216.67252
 31
0.0
  0
LINE
  5
A469
330
A353
100
AcDbEntity
  8
1
  6
Continuous
100
AcDbLine
 10
80.987851
 20
224.2176649999999
 30
0.0
 11
80.987851
 21
221.9173819999999
 31
0.0
  0
LINE
  5
A46A
330
A353
100
AcDbEntity
  8
1
  6
Continuous
100
AcDbLine
 10
76.98785100000002
 20
216.299937
 30
0.0
 11
76.615268
 21
216.67252
 31
0.0
  0
ARC
  5
A46B
330
A353
100
AcDbEntity
  8
1
  6
Continuous
100
AcDbCircle
 10
71.174353
 20
214.6038089999999
 30
0.0
 40
6.206
100
AcDbArc
 50
39.064301
 51
58.798683
  0
ARC
  5
A46C
330
A353
100
AcDbEntity
  8
1
  6
Continuous
100
AcDbCircle
 10
73.376453
 20
219.7050089999999
 30
0.0
 40
4.697225
100
AcDbArc
 50
319.789963
 51
333.713305
  0
LINE
  5
A46D
330
A353
100
AcDbEntity
  8
1
  6
Continuous
100
AcDbLine
 10
76.16293500000002
 20
218.154782
 30
0.0
 11
75.992935
 21
218.514782
 31
0.0
  0
LINE
  5
A46E
330
A353
100
AcDbEntity
  8
1
  6
Continuous
100
AcDbLine
 10
76.977935
 20
218.154782
 30
0.0
 11
76.16293500000002
 21
218.154782
 31
0.0
  0
ARC
  5
A46F
330
A353
100
AcDbEntity
  8
1
  6
Continuous
100
AcDbCircle
 10
76.713965
 20
217.234929
 30
0.0
 40
0.9569799999999998
100
AcDbArc
 50
24.04026499999999
 51
73.98808699999998
  0
ARC
  5
A470
330
A353
100
AcDbEntity
  8
1
  6
Continuous
100
AcDbCircle
 10
73.743735
 20
230.5325199999999
 30
0.0
 40
10.64
100
AcDbArc
 50
270.0
 51
305.934008
  0
LINE
  5
A471
330
A353
100
AcDbEntity
  8
1
  6
Continuous
100
AcDbLine
 10
74.615268
 20
215.17952
 30
0.0
 11
76.615268
 21
216.67252
 31
0.0
  0
LINE
  5
A472
330
A353
100
AcDbEntity
  8
1
  6
Continuous
100
AcDbLine
 10
71.78684100000002
 20
215.17952
 30
0.0
 11
73.78684099999998
 21
216.67252
 31
0.0
  0
LINE
  5
A473
330
A353
100
AcDbEntity
  8
1
  6
Continuous
100
AcDbLine
 10
68.95841400000001
 20
215.17952
 30
0.0
 11
70.95841400000002
 21
216.67252
 31
0.0
  0
LINE
  5
A474
330
A353
100
AcDbEntity
  8
1
  6
Continuous
100
AcDbLine
 10
66.129987
 20
215.17952
 30
0.0
 11
68.129987
 21
216.67252
 31
0.0
  0
LINE
  5
A475
330
A353
100
AcDbEntity
  8
1
  6
Continuous
100
AcDbLine
 10
76.98785100000002
 20
215.3927239999999
 30
0.0
 11
75.201054
 21
216.67252
 31
0.0
  0
LINE
  5
A476
330
A353
100
AcDbEntity
  8
1
  6
Continuous
100
AcDbLine
 10
75.78684100000002
 20
215.17952
 30
0.0
 11
73.78684099999998
 21
216.67252
 31
0.0
  0
LINE
  5
A477
330
A353
100
AcDbEntity
  8
1
  6
Continuous
100
AcDbLine
 10
74.37262699999998
 20
215.17952
 30
0.0
 11
72.37262699999998
 21
216.67252
 31
0.0
  0
LINE
  5
A478
330
A353
100
AcDbEntity
  8
1
  6
Continuous
100
AcDbLine
 10
72.958414
 20
215.17952
 30
0.0
 11
70.95841400000002
 21
216.67252
 31
0.0
  0
LINE
  5
A479
330
A353
100
AcDbEntity
  8
1
  6
Continuous
100
AcDbLine
 10
71.5442
 20
215.17952
 30
0.0
 11
69.5442
 21
216.67252
 31
0.0
  0
LINE
  5
A47A
330
A353
100
AcDbEntity
  8
1
  6
Continuous
100
AcDbLine
 10
70.129987
 20
215.17952
 30
0.0
 11
68.129987
 21
216.67252
 31
0.0
  0
LINE
  5
A47B
330
A353
100
AcDbEntity
  8
1
  6
Continuous
100
AcDbLine
 10
68.715773
 20
215.17952
 30
0.0
 11
66.715773
 21
216.67252
 31
0.0
  0
LINE
  5
A47C
330
A353
100
AcDbEntity
  8
1
  6
Continuous
100
AcDbLine
 10
76.98785100000002
 20
216.67252
 30
0.0
 11
76.98785100000002
 21
215.17952
 31
0.0
  0
LINE
  5
A47D
330
A353
100
AcDbEntity
  8
4
  6
CENTER
100
AcDbLine
 10
71.98785100000002
 20
229.217665
 30
0.0
 11
71.98785100000002
 21
216.9173819999998
 31
0.0
  0
LINE
  5
A47E
330
A353
100
AcDbEntity
  8
1
  6
Continuous
100
AcDbLine
 10
63.30155999999998
 20
215.17952
 30
0.0
 11
65.30155999999999
 21
216.67252
 31
0.0
  0
LINE
  5
A47F
330
A353
100
AcDbEntity
  8
1
  6
Continuous
100
AcDbLine
 10
60.47313199999999
 20
215.17952
 30
0.0
 11
62.47313199999999
 21
216.67252
 31
0.0
  0
LINE
  5
A480
330
A353
100
AcDbEntity
  8
1
  6
Continuous
100
AcDbLine
 10
57.644705
 20
215.17952
 30
0.0
 11
59.644705
 21
216.67252
 31
0.0
  0
LINE
  5
A481
330
A353
100
AcDbEntity
  8
1
  6
Continuous
100
AcDbLine
 10
54.816278
 20
215.17952
 30
0.0
 11
56.81627800000001
 21
216.67252
 31
0.0
  0
LINE
  5
A482
330
A353
100
AcDbEntity
  8
1
  6
Continuous
100
AcDbLine
 10
51.987851
 20
215.17952
 30
0.0
 11
53.987851
 21
216.67252
 31
0.0
  0
LINE
  5
A483
330
A353
100
AcDbEntity
  8
1
  6
Continuous
100
AcDbLine
 10
64.47313199999999
 20
215.17952
 30
0.0
 11
62.47313199999999
 21
216.67252
 31
0.0
  0
LINE
  5
A484
330
A353
100
AcDbEntity
  8
1
  6
Continuous
100
AcDbLine
 10
63.05891899999998
 20
215.17952
 30
0.0
 11
61.05891899999999
 21
216.67252
 31
0.0
  0
LINE
  5
A485
330
A353
100
AcDbEntity
  8
1
  6
Continuous
100
AcDbLine
 10
61.644705
 20
215.17952
 30
0.0
 11
59.644705
 21
216.67252
 31
0.0
  0
LINE
  5
A486
330
A353
100
AcDbEntity
  8
1
  6
Continuous
100
AcDbLine
 10
60.23049199999999
 20
215.17952
 30
0.0
 11
58.23049199999999
 21
216.67252
 31
0.0
  0
LINE
  5
A487
330
A353
100
AcDbEntity
  8
1
  6
Continuous
100
AcDbLine
 10
58.816278
 20
215.17952
 30
0.0
 11
56.81627800000001
 21
216.67252
 31
0.0
  0
LINE
  5
A488
330
A353
100
AcDbEntity
  8
1
  6
Continuous
100
AcDbLine
 10
57.402065
 20
215.17952
 30
0.0
 11
55.402065
 21
216.67252
 31
0.0
  0
LINE
  5
A489
330
A353
100
AcDbEntity
  8
1
  6
Continuous
100
AcDbLine
 10
53.159424
 20
215.17952
 30
0.0
 11
51.159424
 21
216.67252
 31
0.0
  0
LINE
  5
A48A
330
A353
100
AcDbEntity
  8
1
  6
Continuous
100
AcDbLine
 10
54.573637
 20
215.17952
 30
0.0
 11
52.57363699999999
 21
216.67252
 31
0.0
  0
LINE
  5
A48B
330
A353
100
AcDbEntity
  8
1
  6
Continuous
100
AcDbLine
 10
55.987851
 20
215.17952
 30
0.0
 11
53.987851
 21
216.67252
 31
0.0
  0
ARC
  5
A48C
330
A353
100
AcDbEntity
  8
1
  6
Continuous
100
AcDbCircle
 10
33.237851
 20
211.191224
 30
0.0
 40
4.0
100
AcDbArc
 50
94.384039
 51
180.0
  0
LINE
  5
A48D
330
A353
100
AcDbEntity
  8
1
  6
Continuous
100
AcDbLine
 10
29.23785099999999
 20
211.191224
 30
0.0
 11
29.23785099999999
 21
189.4850059999999
 31
0.0
  0
ARC
  5
A48E
330
A353
100
AcDbEntity
  8
1
  6
Continuous
100
AcDbCircle
 10
34.231967
 20
230.5325199999999
 30
0.0
 40
10.64
100
AcDbArc
 50
234.0659919999999
 51
270.0
  0
LINE
  5
A48F
330
A353
100
AcDbEntity
  8
1
  6
Continuous
100
AcDbLine
 10
32.18886099999998
 20
215.17952
 30
0.0
 11
34.18886099999999
 21
216.67252
 31
0.0
  0
LINE
  5
A490
330
A353
100
AcDbEntity
  8
1
  6
Continuous
100
AcDbLine
 10
34.77464799999999
 20
215.17952
 30
0.0
 11
32.774648
 21
216.67252
 31
0.0
  0
LINE
  5
A491
330
A353
100
AcDbEntity
  8
1
  6
Continuous
100
AcDbLine
 10
35.017288
 20
215.17952
 30
0.0
 11
37.017288
 21
216.67252
 31
0.0
  0
LINE
  5
A492
330
A353
100
AcDbEntity
  8
1
  6
Continuous
100
AcDbLine
 10
37.84571500000001
 20
215.17952
 30
0.0
 11
39.84571499999999
 21
216.67252
 31
0.0
  0
LINE
  5
A493
330
A353
100
AcDbEntity
  8
1
  6
Continuous
100
AcDbLine
 10
40.674143
 20
215.17952
 30
0.0
 11
42.674143
 21
216.67252
 31
0.0
  0
LINE
  5
A494
330
A353
100
AcDbEntity
  8
1
  6
Continuous
100
AcDbLine
 10
43.50257
 20
215.17952
 30
0.0
 11
45.50257
 21
216.67252
 31
0.0
  0
LINE
  5
A495
330
A353
100
AcDbEntity
  8
1
  6
Continuous
100
AcDbLine
 10
46.33099699999998
 20
215.17952
 30
0.0
 11
48.33099699999999
 21
216.67252
 31
0.0
  0
LINE
  5
A496
330
A353
100
AcDbEntity
  8
1
  6
Continuous
100
AcDbLine
 10
36.18886099999999
 20
215.17952
 30
0.0
 11
34.18886099999999
 21
216.67252
 31
0.0
  0
LINE
  5
A497
330
A353
100
AcDbEntity
  8
1
  6
Continuous
100
AcDbLine
 10
37.60307499999999
 20
215.17952
 30
0.0
 11
35.60307499999999
 21
216.67252
 31
0.0
  0
LINE
  5
A498
330
A353
100
AcDbEntity
  8
1
  6
Continuous
100
AcDbLine
 10
39.017288
 20
215.17952
 30
0.0
 11
37.017288
 21
216.67252
 31
0.0
  0
LINE
  5
A499
330
A353
100
AcDbEntity
  8
1
  6
Continuous
100
AcDbLine
 10
40.431502
 20
215.17952
 30
0.0
 11
38.431502
 21
216.67252
 31
0.0
  0
LINE
  5
A49A
330
A353
100
AcDbEntity
  8
1
  6
Continuous
100
AcDbLine
 10
41.84571499999999
 20
215.17952
 30
0.0
 11
39.84571499999999
 21
216.67252
 31
0.0
  0
LINE
  5
A49B
330
A353
100
AcDbEntity
  8
1
  6
Continuous
100
AcDbLine
 10
43.259929
 20
215.17952
 30
0.0
 11
41.25992899999999
 21
216.67252
 31
0.0
  0
LINE
  5
A49C
330
A353
100
AcDbEntity
  8
1
  6
Continuous
100
AcDbLine
 10
44.674143
 20
215.17952
 30
0.0
 11
42.674143
 21
216.67252
 31
0.0
  0
LINE
  5
A49D
330
A353
100
AcDbEntity
  8
1
  6
Continuous
100
AcDbLine
 10
46.08835599999999
 20
215.17952
 30
0.0
 11
44.08835599999998
 21
216.67252
 31
0.0
  0
LINE
  5
A49E
330
A353
100
AcDbEntity
  8
1
  6
Continuous
100
AcDbLine
 10
47.50257
 20
215.17952
 30
0.0
 11
45.50257
 21
216.67252
 31
0.0
  0
LINE
  5
A49F
330
A353
100
AcDbEntity
  8
1
  6
Continuous
100
AcDbLine
 10
48.916783
 20
215.17952
 30
0.0
 11
46.916783
 21
216.67252
 31
0.0
  0
LINE
  5
A4A0
330
A353
100
AcDbEntity
  8
4
  6
CENTER
100
AcDbLine
 10
35.987851
 20
229.217665
 30
0.0
 11
35.987851
 21
216.9173819999998
 31
0.0
  0
LINE
  5
A4A1
330
A353
100
AcDbEntity
  8
1
  6
Continuous
100
AcDbLine
 10
26.987851
 20
224.2176649999999
 30
0.0
 11
26.987851
 21
221.9173819999999
 31
0.0
  0
LINE
  5
A4A2
330
A353
100
AcDbEntity
  8
1
  6
Continuous
100
AcDbLine
 10
30.98785100000001
 20
216.299937
 30
0.0
 11
31.360434
 21
216.67252
 31
0.0
  0
ARC
  5
A4A3
330
A353
100
AcDbEntity
  8
1
  6
Continuous
100
AcDbCircle
 10
36.801349
 20
214.6038089999999
 30
0.0
 40
6.206
100
AcDbArc
 50
121.2013169999998
 51
140.935699
  0
ARC
  5
A4A4
330
A353
100
AcDbEntity
  8
1
  6
Continuous
100
AcDbCircle
 10
34.599249
 20
219.7050089999999
 30
0.0
 40
4.697225
100
AcDbArc
 50
206.286695
 51
220.210037
  0
LINE
  5
A4A5
330
A353
100
AcDbEntity
  8
1
  6
Continuous
100
AcDbLine
 10
31.81276699999999
 20
218.154782
 30
0.0
 11
31.982767
 21
218.514782
 31
0.0
  0
LINE
  5
A4A6
330
A353
100
AcDbEntity
  8
1
  6
Continuous
100
AcDbLine
 10
30.997767
 20
218.154782
 30
0.0
 11
31.81276699999999
 21
218.154782
 31
0.0
  0
ARC
  5
A4A7
330
A353
100
AcDbEntity
  8
1
  6
Continuous
100
AcDbCircle
 10
31.261737
 20
217.234929
 30
0.0
 40
0.9569799999999998
100
AcDbArc
 50
106.011913
 51
155.9597349999999
  0
LINE
  5
A4A8
330
A353
100
AcDbEntity
  8
1
  6
Continuous
100
AcDbLine
 10
31.94622
 20
215.17952
 30
0.0
 11
30.98785100000001
 21
216.1378899999998
 31
0.0
  0
LINE
  5
A4A9
330
A353
100
AcDbEntity
  8
1
  6
Continuous
100
AcDbLine
 10
33.36043399999999
 20
215.17952
 30
0.0
 11
31.360434
 21
216.67252
 31
0.0
  0
LINE
  5
A4AA
330
A353
100
AcDbEntity
  8
1
  6
Continuous
100
AcDbLine
 10
30.98785100000001
 20
216.67252
 30
0.0
 11
30.98785100000001
 21
215.17952
 31
0.0
  0
LINE
  5
A4AB
330
A353
100
AcDbEntity
  8
1
  6
Continuous
100
AcDbLine
 10
39.087182
 20
210.5764409999999
 30
0.0
 11
68.88851999999999
 21
210.5764409999999
 31
0.0
  0
LINE
  5
A4AC
330
A353
100
AcDbEntity
  8
1
  6
Continuous
100
AcDbLine
 10
38.98785099999999
 20
212.80205
 30
0.0
 11
68.98785100000001
 21
212.80205
 31
0.0
  0
ARC
  5
A4AD
330
A353
100
AcDbEntity
  8
1
  6
Continuous
100
AcDbCircle
 10
67.63674399999999
 20
208.509672
 30
0.0
 40
4.5
100
AcDbArc
 50
359.391148
 51
72.527617
  0
ARC
  5
A4AE
330
A353
100
AcDbEntity
  8
1
  6
Continuous
100
AcDbCircle
 10
67.337851
 20
208.615465
 30
0.0
 40
2.5
100
AcDbArc
 50
0.0
 51
51.66432999999999
  0
LINE
  5
A4AF
330
A353
100
AcDbEntity
  8
1
  6
Continuous
100
AcDbLine
 10
69.83771
 20
208.5888989999999
 30
0.0
 11
69.375078
 21
165.1057189999999
 31
0.0
  0
LINE
  5
A4B0
330
A353
100
AcDbEntity
  8
1
  6
Continuous
100
AcDbLine
 10
72.13649000000002
 20
208.461854
 30
0.0
 11
71.675208
 21
165.1057189999999
 31
0.0
  0
LINE
  5
A4B1
330
A353
100
AcDbEntity
  8
1
  6
Continuous
100
AcDbLine
 10
69.375078
 20
165.1057189999999
 30
0.0
 11
71.675208
 21
165.1057189999999
 31
0.0
  0
LINE
  5
A4B2
330
A353
100
AcDbEntity
  8
1
  6
Continuous
100
AcDbLine
 10
35.83921199999998
 20
208.461854
 30
0.0
 11
36.300494
 21
165.1057189999999
 31
0.0
  0
LINE
  5
A4B3
330
A353
100
AcDbEntity
  8
1
  6
Continuous
100
AcDbLine
 10
38.60062399999998
 20
165.1057189999999
 30
0.0
 11
36.300494
 21
165.1057189999999
 31
0.0
  0
LINE
  5
A4B4
330
A353
100
AcDbEntity
  8
1
  6
Continuous
100
AcDbLine
 10
38.137992
 20
208.5888989999999
 30
0.0
 11
38.60062399999998
 21
165.1057189999999
 31
0.0
  0
ARC
  5
A4B5
330
A353
100
AcDbEntity
  8
1
  6
Continuous
100
AcDbCircle
 10
40.33895799999998
 20
208.509672
 30
0.0
 40
4.5
100
AcDbArc
 50
107.4723829999999
 51
180.608852
  0
ARC
  5
A4B6
330
A353
100
AcDbEntity
  8
1
  6
Continuous
100
AcDbCircle
 10
40.63785099999999
 20
208.615465
 30
0.0
 40
2.5
100
AcDbArc
 50
128.3356699999999
 51
180.608852
  0
ARC
  5
A4B7
330
A353
100
AcDbEntity
  8
1
  6
Continuous
100
AcDbCircle
 10
57.396101
 20
189.4850059999999
 30
0.0
 40
28.15825
100
AcDbArc
 50
180.0
 51
206.726255
  0
ARC
  5
A4B8
330
A353
100
AcDbEntity
  8
1
  6
Continuous
100
AcDbCircle
 10
50.57960099999998
 20
189.4850059999999
 30
0.0
 40
28.15825
100
AcDbArc
 50
326.9891059999999
 51
0.0
  0
ARC
  5
A4B9
330
A353
100
AcDbEntity
  8
1
  6
Continuous
100
AcDbCircle
 10
42.68796199999999
 20
175.717782
 30
0.0
 40
10.5
100
AcDbArc
 50
146.796177
 51
213.203823
  0
LINE
  5
A4BA
330
A353
100
AcDbEntity
  8
1
  6
Continuous
100
AcDbLine
 10
33.90232000000001
 20
181.4677819999998
 30
0.0
 11
36.12661699999998
 21
181.4677819999998
 31
0.0
  0
LINE
  5
A4BB
330
A353
100
AcDbEntity
  8
1
  6
Continuous
100
AcDbLine
 10
36.248826
 20
169.9677819999998
 30
0.0
 11
33.90232000000001
 21
169.9677819999998
 31
0.0
  0
LINE
  5
A4BC
330
A353
100
AcDbEntity
  8
1
  6
Continuous
100
AcDbLine
 10
33.90232000000001
 20
181.4677819999998
 30
0.0
 11
33.90232000000001
 21
169.9677819999998
 31
0.0
  0
LINE
  5
A4BD
330
A353
100
AcDbEntity
  8
1
  6
Continuous
100
AcDbLine
 10
73.28774
 20
180.7177819999998
 30
0.0
 11
71.841115
 21
180.7177819999998
 31
0.0
  0
LINE
  5
A4BE
330
A353
100
AcDbEntity
  8
1
  6
Continuous
100
AcDbLine
 10
73.28774
 20
170.717782
 30
0.0
 11
71.734847
 21
170.717782
 31
0.0
  0
ARC
  5
A4BF
330
A353
100
AcDbEntity
  8
1
  6
Continuous
100
AcDbCircle
 10
61.28773999999999
 20
175.717782
 30
0.0
 40
13.0
100
AcDbArc
 50
337.3801349999999
 51
22.619865
  0
LINE
  5
A4C0
330
A353
100
AcDbEntity
  8
1
  6
Continuous
100
AcDbLine
 10
73.28774
 20
170.717782
 30
0.0
 11
73.28774
 21
180.7177819999998
 31
0.0
  0
LINE
  5
A4C1
330
A353
100
AcDbEntity
  8
1
  6
Continuous
100
AcDbLine
 10
280.1438769999999
 20
208.46721
 30
0.0
 11
280.6052139999998
 21
165.1057189999999
 31
0.0
  0
LINE
  5
A4C2
330
A353
100
AcDbEntity
  8
1
  6
Continuous
100
AcDbLine
 10
311.8410059999998
 20
208.46721
 30
0.0
 11
311.379668
 21
165.1057189999999
 31
0.0
  0
LINE
  5
A4C3
330
A353
100
AcDbEntity
  8
1
  6
Continuous
100
AcDbLine
 10
311.3961929999998
 20
165.1057189999999
 30
0.0
 11
313.679798
 21
165.1057189999999
 31
0.0
  0
LINE
  5
A4C4
330
A353
100
AcDbEntity
  8
1
  6
Continuous
100
AcDbLine
 10
400.303316
 20
203.5662129999999
 30
0.0
 11
421.2403169999998
 21
170.0189799999999
 31
0.0
  0
LINE
  5
A4C5
330
A353
100
AcDbEntity
  8
1
  6
Continuous
100
AcDbLine
 10
433.8947479999998
 20
212.852656
 30
0.0
 11
441.061286
 21
178.8057659999998
 31
0.0
  0
LINE
  5
A4C6
330
A353
100
AcDbEntity
  8
4
  6
CENTER
100
AcDbLine
 10
431.4947359999998
 20
139.217882
 30
0.0
 11
431.4947359999998
 21
207.891468
 31
0.0
  0
LINE
  5
A4C7
330
A353
100
AcDbEntity
  8
4
  6
CENTER
100
AcDbLine
 10
394.9947359999999
 20
175.717882
 30
0.0
 11
467.9947359999999
 21
175.717882
 31
0.0
  0
ARC
  5
A4C8
330
A353
100
AcDbEntity
  8
1
  6
Continuous
100
AcDbCircle
 10
430.394736
 20
176.117882
 30
0.0
 40
11.0
100
AcDbArc
 50
213.672541
 51
14.14360199999999
  0
LINE
  5
A4C9
330
A353
100
AcDbEntity
  8
1
  6
Continuous
100
AcDbLine
 10
416.980017
 20
215.179556
 30
0.0
 11
414.9800169999998
 21
216.6725559999999
 31
0.0
  0
LINE
  5
A4CA
330
A353
100
AcDbEntity
  8
1
  6
Continuous
100
AcDbLine
 10
414.3942309999998
 20
215.179556
 30
0.0
 11
416.394231
 21
216.6725559999999
 31
0.0
  0
LINE
  5
A4CB
330
A353
100
AcDbEntity
  8
1
  6
Continuous
100
AcDbLine
 10
429.494736
 20
215.179556
 30
0.0
 11
383.494736
 21
215.179556
 31
0.0
  0
LINE
  5
A4CC
330
A353
100
AcDbEntity
  8
1
  6
Continuous
100
AcDbLine
 10
383.494736
 20
216.6725559999999
 30
0.0
 11
429.494736
 21
216.6725559999999
 31
0.0
  0
LINE
  5
A4CD
330
A353
100
AcDbEntity
  8
1
  6
Continuous
100
AcDbLine
 10
384.319652
 20
218.1548169999998
 30
0.0
 11
428.66982
 21
218.1548169999998
 31
0.0
  0
LINE
  5
A4CE
330
A353
100
AcDbEntity
  8
1
  6
Continuous
100
AcDbLine
 10
371.494736
 20
224.2177
 30
0.0
 11
441.494736
 21
224.2177
 31
0.0
  0
LINE
  5
A4CF
330
A353
100
AcDbEntity
  8
1
  6
Continuous
100
AcDbLine
 10
386.738852
 20
219.892556
 30
0.0
 11
426.25062
 21
219.892556
 31
0.0
  0
LINE
  5
A4D0
330
A353
100
AcDbEntity
  8
1
  6
Continuous
100
AcDbLine
 10
371.494736
 20
221.917417
 30
0.0
 11
441.494736
 21
221.917417
 31
0.0
  0
ARC
  5
A4D1
330
A353
100
AcDbEntity
  8
1
  6
Continuous
100
AcDbCircle
 10
469.4421059999998
 20
213.0080229999999
 30
0.0
 40
31.82178
100
AcDbArc
 50
180.882972
 51
182.8814939999999
  0
ARC
  5
A4D2
330
A353
100
AcDbEntity
  8
1
  6
Continuous
100
AcDbCircle
 10
450.6470809999998
 20
209.431971
 30
0.0
 40
13.13604599999999
100
AcDbArc
 50
171.346813
 51
174.2810689999998
  0
ARC
  5
A4D3
330
A353
100
AcDbEntity
  8
1
  6
Continuous
100
AcDbCircle
 10
437.351092
 20
210.907969
 30
0.0
 40
0.28047
100
AcDbArc
 50
271.374847
 51
323.4541489999998
  0
ARC
  5
A4D4
330
A353
100
AcDbEntity
  8
1
  6
Continuous
100
AcDbCircle
 10
435.3386829999998
 20
294.757624
 30
0.0
 40
84.15427099999998
100
AcDbArc
 50
269.3384389999998
 51
271.374847
  0
LINE
  5
A4D5
330
A353
100
AcDbEntity
  8
1
  6
Continuous
100
AcDbLine
 10
425.1605599999998
 20
212.8770429999999
 30
0.0
 11
436.282595
 21
212.845989
 31
0.0
  0
ARC
  5
A4D6
330
A353
100
AcDbEntity
  8
1
  6
Continuous
100
AcDbCircle
 10
426.25062
 20
230.5325559999999
 30
0.0
 40
10.64
100
AcDbArc
 50
270.0
 51
305.934008
  0
ARC
  5
A4D7
330
A353
100
AcDbEntity
  8
1
  6
Continuous
100
AcDbCircle
 10
437.0838939999998
 20
212.0707279999999
 30
0.0
 40
0.7011149999999999
100
AcDbArc
 50
39.600945
 51
79.61194999999998
  0
ARC
  5
A4D8
330
A353
100
AcDbEntity
  8
1
  6
Continuous
100
AcDbCircle
 10
436.2680029999999
 20
207.620059
 30
0.0
 40
5.22595
100
AcDbArc
 50
79.61194999999998
 51
89.84002199999997
  0
LINE
  5
A4D9
330
A353
100
AcDbEntity
  8
4
  6
CENTER
100
AcDbLine
 10
433.494736
 20
216.917417
 30
0.0
 11
433.494736
 21
229.2177
 31
0.0
  0
LINE
  5
A4DA
330
A353
100
AcDbEntity
  8
1
  6
Continuous
100
AcDbLine
 10
441.494736
 20
221.917417
 30
0.0
 11
441.494736
 21
224.2177
 31
0.0
  0
LINE
  5
A4DB
330
A353
100
AcDbEntity
  8
1
  6
Continuous
100
AcDbLine
 10
429.494736
 20
216.299973
 30
0.0
 11
429.122153
 21
216.6725559999999
 31
0.0
  0
LINE
  5
A4DC
330
A353
100
AcDbEntity
  8
1
  6
Continuous
100
AcDbLine
 10
428.2937259999997
 20
215.179556
 30
0.0
 11
426.293726
 21
216.6725559999999
 31
0.0
  0
LINE
  5
A4DD
330
A353
100
AcDbEntity
  8
1
  6
Continuous
100
AcDbLine
 10
425.465299
 20
215.179556
 30
0.0
 11
423.4652989999998
 21
216.6725559999999
 31
0.0
  0
LINE
  5
A4DE
330
A353
100
AcDbEntity
  8
1
  6
Continuous
100
AcDbLine
 10
422.6368719999999
 20
215.179556
 30
0.0
 11
420.6368719999998
 21
216.6725559999999
 31
0.0
  0
LINE
  5
A4DF
330
A353
100
AcDbEntity
  8
1
  6
Continuous
100
AcDbLine
 10
419.808445
 20
215.179556
 30
0.0
 11
417.808445
 21
216.6725559999999
 31
0.0
  0
LINE
  5
A4E0
330
A353
100
AcDbEntity
  8
1
  6
Continuous
100
AcDbLine
 10
428.5363669999998
 20
215.179556
 30
0.0
 11
429.494736
 21
216.1379249999999
 31
0.0
  0
LINE
  5
A4E1
330
A353
100
AcDbEntity
  8
1
  6
Continuous
100
AcDbLine
 10
427.122153
 20
215.179556
 30
0.0
 11
429.122153
 21
216.6725559999999
 31
0.0
  0
LINE
  5
A4E2
330
A353
100
AcDbEntity
  8
1
  6
Continuous
100
AcDbLine
 10
425.7079389999998
 20
215.179556
 30
0.0
 11
427.7079389999998
 21
216.6725559999999
 31
0.0
  0
LINE
  5
A4E3
330
A353
100
AcDbEntity
  8
1
  6
Continuous
100
AcDbLine
 10
424.2937259999997
 20
215.179556
 30
0.0
 11
426.293726
 21
216.6725559999999
 31
0.0
  0
LINE
  5
A4E4
330
A353
100
AcDbEntity
  8
1
  6
Continuous
100
AcDbLine
 10
422.879512
 20
215.179556
 30
0.0
 11
424.8795119999998
 21
216.6725559999999
 31
0.0
  0
LINE
  5
A4E5
330
A353
100
AcDbEntity
  8
1
  6
Continuous
100
AcDbLine
 10
421.465299
 20
215.179556
 30
0.0
 11
423.4652989999998
 21
216.6725559999999
 31
0.0
  0
LINE
  5
A4E6
330
A353
100
AcDbEntity
  8
1
  6
Continuous
100
AcDbLine
 10
420.0510849999998
 20
215.179556
 30
0.0
 11
422.0510849999998
 21
216.6725559999999
 31
0.0
  0
LINE
  5
A4E7
330
A353
100
AcDbEntity
  8
1
  6
Continuous
100
AcDbLine
 10
418.6368719999999
 20
215.179556
 30
0.0
 11
420.6368719999998
 21
216.6725559999999
 31
0.0
  0
LINE
  5
A4E8
330
A353
100
AcDbEntity
  8
1
  6
Continuous
100
AcDbLine
 10
417.222658
 20
215.179556
 30
0.0
 11
419.222658
 21
216.6725559999999
 31
0.0
  0
LINE
  5
A4E9
330
A353
100
AcDbEntity
  8
1
  6
Continuous
100
AcDbLine
 10
415.808445
 20
215.179556
 30
0.0
 11
417.808445
 21
216.6725559999999
 31
0.0
  0
LINE
  5
A4EA
330
A353
100
AcDbEntity
  8
1
  6
Continuous
100
AcDbLine
 10
429.494736
 20
216.6725559999999
 30
0.0
 11
429.494736
 21
215.179556
 31
0.0
  0
ARC
  5
A4EB
330
A353
100
AcDbEntity
  8
1
  6
Continuous
100
AcDbCircle
 10
423.6812379999998
 20
214.603845
 30
0.0
 40
6.206
100
AcDbArc
 50
39.064301
 51
58.798683
  0
ARC
  5
A4EC
330
A353
100
AcDbEntity
  8
1
  6
Continuous
100
AcDbCircle
 10
425.8833379999998
 20
219.7050439999999
 30
0.0
 40
4.697225
100
AcDbArc
 50
319.789963
 51
333.713305
  0
LINE
  5
A4ED
330
A353
100
AcDbEntity
  8
1
  6
Continuous
100
AcDbLine
 10
428.66982
 20
218.1548169999998
 30
0.0
 11
428.49982
 21
218.514817
 31
0.0
  0
LINE
  5
A4EE
330
A353
100
AcDbEntity
  8
1
  6
Continuous
100
AcDbLine
 10
429.48482
 20
218.1548169999998
 30
0.0
 11
428.66982
 21
218.1548169999998
 31
0.0
  0
ARC
  5
A4EF
330
A353
100
AcDbEntity
  8
1
  6
Continuous
100
AcDbCircle
 10
429.22085
 20
217.2349639999999
 30
0.0
 40
0.9569799999999998
100
AcDbArc
 50
24.04026499999999
 51
73.98808699999998
  0
ARC
  5
A4F0
330
A353
100
AcDbEntity
  8
1
  6
Continuous
100
AcDbCircle
 10
430.308386
 20
213.3878249999999
 30
0.0
 40
0.313453
100
AcDbArc
 50
173.6619839999999
 51
240.802965
  0
ARC
  5
A4F1
330
A353
100
AcDbEntity
  8
1
  6
Continuous
100
AcDbCircle
 10
426.389516
 20
211.2232759999999
 30
0.0
 40
4.224822999999998
100
AcDbArc
 50
31.367901
 51
69.461534
  0
ARC
  5
A4F2
330
A353
100
AcDbEntity
  8
1
  6
Continuous
100
AcDbCircle
 10
431.12999
 20
214.858092
 30
0.0
 40
1.997709
100
AcDbArc
 50
240.802965
 51
269.8400219999999
  0
LINE
  5
A4F3
330
A353
100
AcDbEntity
  8
1
  6
Continuous
100
AcDbLine
 10
381.744736
 20
208.4673099999998
 30
0.0
 11
389.762521
 21
208.4673099999998
 31
0.0
  0
LINE
  5
A4F4
330
A353
100
AcDbEntity
  8
1
  6
Continuous
100
AcDbLine
 10
383.494736
 20
216.299973
 30
0.0
 11
383.867319
 21
216.6725559999999
 31
0.0
  0
LINE
  5
A4F5
330
A353
100
AcDbEntity
  8
1
  6
Continuous
100
AcDbLine
 10
383.494736
 20
215.3927589999999
 30
0.0
 11
385.281533
 21
216.6725559999999
 31
0.0
  0
LINE
  5
A4F6
330
A353
100
AcDbEntity
  8
1
  6
Continuous
100
AcDbLine
 10
383.504652
 20
218.1548169999998
 30
0.0
 11
384.319652
 21
218.1548169999998
 31
0.0
  0
ARC
  5
A4F7
330
A353
100
AcDbEntity
  8
1
  6
Continuous
100
AcDbCircle
 10
386.738852
 20
230.5325559999999
 30
0.0
 40
10.64
100
AcDbArc
 50
234.0659919999999
 51
270.0
  0
ARC
  5
A4F8
330
A353
100
AcDbEntity
  8
1
  6
Continuous
100
AcDbCircle
 10
386.556906
 20
211.132781
 30
0.0
 40
4.377608
100
AcDbArc
 50
112.4180289999999
 51
171.7055229999999
  0
LINE
  5
A4F9
330
A353
100
AcDbEntity
  8
4
  6
CENTER
100
AcDbLine
 10
406.4947359999998
 20
202.215713
 30
0.0
 11
406.4947359999998
 21
229.2177
 31
0.0
  0
ARC
  5
A4FA
330
A353
100
AcDbEntity
  8
1
  6
Continuous
100
AcDbCircle
 10
389.762521
 20
194.23831
 30
0.0
 40
14.229
100
AcDbArc
 50
46.49942699999999
 51
90.0
  0
ARC
  5
A4FB
330
A353
100
AcDbEntity
  8
1
  6
Continuous
100
AcDbCircle
 10
391.1488959999999
 20
197.46731
 30
0.0
 40
11.0
100
AcDbArc
 50
33.67254099999998
 51
40.146961
  0
LINE
  5
A4FC
330
A353
100
AcDbEntity
  8
1
  6
Continuous
100
AcDbLine
 10
400.009455
 20
215.179556
 30
0.0
 11
398.009455
 21
216.6725559999999
 31
0.0
  0
LINE
  5
A4FD
330
A353
100
AcDbEntity
  8
1
  6
Continuous
100
AcDbLine
 10
398.8378819999999
 20
215.179556
 30
0.0
 11
400.8378819999999
 21
216.6725559999999
 31
0.0
  0
LINE
  5
A4FE
330
A353
100
AcDbEntity
  8
1
  6
Continuous
100
AcDbLine
 10
402.8378819999998
 20
215.179556
 30
0.0
 11
400.8378819999999
 21
216.6725559999999
 31
0.0
  0
LINE
  5
A4FF
330
A353
100
AcDbEntity
  8
1
  6
Continuous
100
AcDbLine
 10
405.6663089999998
 20
215.179556
 30
0.0
 11
403.666309
 21
216.6725559999999
 31
0.0
  0
LINE
  5
A500
330
A353
100
AcDbEntity
  8
1
  6
Continuous
100
AcDbLine
 10
414.1515899999998
 20
215.179556
 30
0.0
 11
412.15159
 21
216.6725559999999
 31
0.0
  0
LINE
  5
A501
330
A353
100
AcDbEntity
  8
1
  6
Continuous
100
AcDbLine
 10
411.3231629999998
 20
215.179556
 30
0.0
 11
409.323163
 21
216.6725559999999
 31
0.0
  0
LINE
  5
A502
330
A353
100
AcDbEntity
  8
1
  6
Continuous
100
AcDbLine
 10
408.494736
 20
215.179556
 30
0.0
 11
406.4947359999998
 21
216.6725559999999
 31
0.0
  0
LINE
  5
A503
330
A353
100
AcDbEntity
  8
1
  6
Continuous
100
AcDbLine
 10
400.252095
 20
215.179556
 30
0.0
 11
402.2520949999998
 21
216.6725559999999
 31
0.0
  0
LINE
  5
A504
330
A353
100
AcDbEntity
  8
1
  6
Continuous
100
AcDbLine
 10
401.6663089999998
 20
215.179556
 30
0.0
 11
403.666309
 21
216.6725559999999
 31
0.0
  0
LINE
  5
A505
330
A353
100
AcDbEntity
  8
1
  6
Continuous
100
AcDbLine
 10
403.0805219999998
 20
215.179556
 30
0.0
 11
405.0805219999999
 21
216.6725559999999
 31
0.0
  0
LINE
  5
A506
330
A353
100
AcDbEntity
  8
1
  6
Continuous
100
AcDbLine
 10
412.980017
 20
215.179556
 30
0.0
 11
414.9800169999998
 21
216.6725559999999
 31
0.0
  0
LINE
  5
A507
330
A353
100
AcDbEntity
  8
1
  6
Continuous
100
AcDbLine
 10
411.565804
 20
215.179556
 30
0.0
 11
413.565804
 21
216.6725559999999
 31
0.0
  0
LINE
  5
A508
330
A353
100
AcDbEntity
  8
1
  6
Continuous
100
AcDbLine
 10
410.1515899999998
 20
215.179556
 30
0.0
 11
412.15159
 21
216.6725559999999
 31
0.0
  0
LINE
  5
A509
330
A353
100
AcDbEntity
  8
1
  6
Continuous
100
AcDbLine
 10
408.737377
 20
215.179556
 30
0.0
 11
410.7373769999998
 21
216.6725559999999
 31
0.0
  0
LINE
  5
A50A
330
A353
100
AcDbEntity
  8
1
  6
Continuous
100
AcDbLine
 10
407.3231629999998
 20
215.179556
 30
0.0
 11
409.323163
 21
216.6725559999999
 31
0.0
  0
LINE
  5
A50B
330
A353
100
AcDbEntity
  8
1
  6
Continuous
100
AcDbLine
 10
405.9089499999998
 20
215.179556
 30
0.0
 11
407.90895
 21
216.6725559999999
 31
0.0
  0
LINE
  5
A50C
330
A353
100
AcDbEntity
  8
1
  6
Continuous
100
AcDbLine
 10
404.494736
 20
215.179556
 30
0.0
 11
406.4947359999998
 21
216.6725559999999
 31
0.0
  0
LINE
  5
A50D
330
A353
100
AcDbEntity
  8
1
  6
Continuous
100
AcDbLine
 10
385.867319
 20
215.179556
 30
0.0
 11
383.867319
 21
216.6725559999999
 31
0.0
  0
LINE
  5
A50E
330
A353
100
AcDbEntity
  8
1
  6
Continuous
100
AcDbLine
 10
388.6957459999999
 20
215.179556
 30
0.0
 11
386.695746
 21
216.6725559999999
 31
0.0
  0
LINE
  5
A50F
330
A353
100
AcDbEntity
  8
1
  6
Continuous
100
AcDbLine
 10
391.524173
 20
215.179556
 30
0.0
 11
389.524173
 21
216.6725559999999
 31
0.0
  0
LINE
  5
A510
330
A353
100
AcDbEntity
  8
1
  6
Continuous
100
AcDbLine
 10
394.3525999999998
 20
215.179556
 30
0.0
 11
392.3525999999998
 21
216.6725559999999
 31
0.0
  0
LINE
  5
A511
330
A353
100
AcDbEntity
  8
1
  6
Continuous
100
AcDbLine
 10
397.1810279999999
 20
215.179556
 30
0.0
 11
395.1810279999999
 21
216.6725559999999
 31
0.0
  0
LINE
  5
A512
330
A353
100
AcDbEntity
  8
1
  6
Continuous
100
AcDbLine
 10
384.695746
 20
215.179556
 30
0.0
 11
386.695746
 21
216.6725559999999
 31
0.0
  0
LINE
  5
A513
330
A353
100
AcDbEntity
  8
1
  6
Continuous
100
AcDbLine
 10
386.10996
 20
215.179556
 30
0.0
 11
388.10996
 21
216.6725559999999
 31
0.0
  0
LINE
  5
A514
330
A353
100
AcDbEntity
  8
1
  6
Continuous
100
AcDbLine
 10
387.524173
 20
215.179556
 30
0.0
 11
389.524173
 21
216.6725559999999
 31
0.0
  0
LINE
  5
A515
330
A353
100
AcDbEntity
  8
1
  6
Continuous
100
AcDbLine
 10
388.9383869999999
 20
215.179556
 30
0.0
 11
390.9383869999999
 21
216.6725559999999
 31
0.0
  0
LINE
  5
A516
330
A353
100
AcDbEntity
  8
1
  6
Continuous
100
AcDbLine
 10
390.3525999999999
 20
215.179556
 30
0.0
 11
392.3525999999998
 21
216.6725559999999
 31
0.0
  0
LINE
  5
A517
330
A353
100
AcDbEntity
  8
1
  6
Continuous
100
AcDbLine
 10
391.766814
 20
215.179556
 30
0.0
 11
393.7668139999999
 21
216.6725559999999
 31
0.0
  0
LINE
  5
A518
330
A353
100
AcDbEntity
  8
1
  6
Continuous
100
AcDbLine
 10
393.1810279999999
 20
215.179556
 30
0.0
 11
395.1810279999999
 21
216.6725559999999
 31
0.0
  0
LINE
  5
A519
330
A353
100
AcDbEntity
  8
1
  6
Continuous
100
AcDbLine
 10
394.5952409999999
 20
215.179556
 30
0.0
 11
396.5952409999999
 21
216.6725559999999
 31
0.0
  0
LINE
  5
A51A
330
A353
100
AcDbEntity
  8
1
  6
Continuous
100
AcDbLine
 10
396.0094549999998
 20
215.179556
 30
0.0
 11
398.009455
 21
216.6725559999999
 31
0.0
  0
LINE
  5
A51B
330
A353
100
AcDbEntity
  8
1
  6
Continuous
100
AcDbLine
 10
397.423668
 20
215.179556
 30
0.0
 11
399.423668
 21
216.6725559999999
 31
0.0
  0
ARC
  5
A51C
330
A353
100
AcDbEntity
  8
1
  6
Continuous
100
AcDbCircle
 10
389.3082339999999
 20
214.603845
 30
0.0
 40
6.206
100
AcDbArc
 50
121.2013169999998
 51
140.935699
  0
LINE
  5
A51D
330
A353
100
AcDbEntity
  8
1
  6
Continuous
100
AcDbLine
 10
384.319652
 20
218.1548169999998
 30
0.0
 11
384.4896519999999
 21
218.514817
 31
0.0
  0
ARC
  5
A51E
330
A353
100
AcDbEntity
  8
1
  6
Continuous
100
AcDbCircle
 10
511.705519
 20
191.216185
 30
0.0
 40
131.100749
100
AcDbArc
 50
170.982549
 51
172.4387049999999
  0
LINE
  5
A51F
330
A353
100
AcDbEntity
  8
4
  6
CENTER
100
AcDbLine
 10
379.494736
 20
216.917417
 30
0.0
 11
379.494736
 21
229.2177
 31
0.0
  0
LINE
  5
A520
330
A353
100
AcDbEntity
  8
1
  6
Continuous
100
AcDbLine
 10
371.494736
 20
221.917417
 30
0.0
 11
371.494736
 21
224.2177
 31
0.0
  0
LINE
  5
A521
330
A353
100
AcDbEntity
  8
1
  6
Continuous
100
AcDbLine
 10
383.494736
 20
216.6725559999999
 30
0.0
 11
383.494736
 21
215.179556
 31
0.0
  0
ARC
  5
A522
330
A353
100
AcDbEntity
  8
1
  6
Continuous
100
AcDbCircle
 10
387.106134
 20
219.7050439999999
 30
0.0
 40
4.697225
100
AcDbArc
 50
206.286695
 51
220.210037
  0
ARC
  5
A523
330
A353
100
AcDbEntity
  8
1
  6
Continuous
100
AcDbCircle
 10
383.768623
 20
217.2349639999999
 30
0.0
 40
0.9569799999999998
100
AcDbArc
 50
106.011913
 51
155.9597349999999
  0
CIRCLE
  5
A524
330
A353
100
AcDbEntity
  8
1
  6
Continuous
100
AcDbCircle
 10
212.490146
 20
86.81031800000004
 30
0.0
 40
3.25
  0
ARC
  5
A525
330
A353
100
AcDbEntity
  8
1
  6
Continuous
100
AcDbCircle
 10
158.490146
 20
86.81031800000004
 30
0.0
 40
3.25
100
AcDbArc
 50
44.95851599999999
 51
184.5087529999998
  0
LINE
  5
A526
330
A353
100
AcDbEntity
  8
4
  6
CENTER
100
AcDbLine
 10
212.490146
 20
93.06031800000004
 30
0.0
 11
212.490146
 21
80.56031800000003
 31
0.0
  0
LINE
  5
A527
330
A353
100
AcDbEntity
  8
4
  6
CENTER
100
AcDbLine
 10
158.490146
 20
93.06031800000004
 30
0.0
 11
158.490146
 21
80.56031800000003
 31
0.0
  0
LINE
  5
A528
330
A353
100
AcDbEntity
  8
4
  6
CENTER
100
AcDbLine
 10
185.490146
 20
100.810318
 30
0.0
 11
185.490146
 21
36.810318
 31
0.0
  0
LINE
  5
A529
330
A353
100
AcDbEntity
  8
1
  6
Continuous
100
AcDbLine
 10
150.490146
 20
88.81031799999998
 30
0.0
 11
150.490146
 21
81.31031799999998
 31
0.0
  0
LINE
  5
A52A
330
A353
100
AcDbEntity
  8
1
  6
Continuous
100
AcDbLine
 10
220.490146
 20
88.81031799999998
 30
0.0
 11
220.490146
 21
48.810318
 31
0.0
  0
LINE
  5
A52B
330
A353
100
AcDbEntity
  8
1
  6
Continuous
100
AcDbLine
 10
213.490146
 20
95.81031800000003
 30
0.0
 11
157.490146
 21
95.81031800000003
 31
0.0
  0
ARC
  5
A52C
330
A353
100
AcDbEntity
  8
1
  6
Continuous
100
AcDbCircle
 10
157.490146
 20
88.81031799999998
 30
0.0
 40
7.0
100
AcDbArc
 50
90.0
 51
180.0
  0
ARC
  5
A52D
330
A353
100
AcDbEntity
  8
1
  6
Continuous
100
AcDbCircle
 10
213.490146
 20
88.81031799999998
 30
0.0
 40
7.0
100
AcDbArc
 50
0.0
 51
90.0
  0
LINE
  5
A52E
330
A353
100
AcDbEntity
  8
4
  6
CENTER
100
AcDbLine
 10
225.490146
 20
68.81031800000001
 30
0.0
 11
123.990146
 21
68.81031800000001
 31
0.0
  0
LINE
  5
A52F
330
A353
100
AcDbEntity
  8
1
  6
Continuous
100
AcDbLine
 10
213.490146
 20
41.810318
 30
0.0
 11
157.490146
 21
41.810318
 31
0.0
  0
ARC
  5
A530
330
A353
100
AcDbEntity
  8
1
  6
Continuous
100
AcDbCircle
 10
157.490146
 20
48.810318
 30
0.0
 40
7.0
100
AcDbArc
 50
180.0
 51
270.0
  0
LINE
  5
A531
330
A353
100
AcDbEntity
  8
4
  6
CENTER
100
AcDbLine
 10
164.740146
 20
50.810318
 30
0.0
 11
152.240146
 21
50.810318
 31
0.0
  0
LINE
  5
A532
330
A353
100
AcDbEntity
  8
4
  6
CENTER
100
AcDbLine
 10
164.740146
 20
86.81031800000004
 30
0.0
 11
152.240146
 21
86.81031800000004
 31
0.0
  0
LINE
  5
A533
330
A353
100
AcDbEntity
  8
4
  6
CENTER
100
AcDbLine
 10
158.490146
 20
57.060318
 30
0.0
 11
158.490146
 21
44.560318
 31
0.0
  0
ARC
  5
A534
330
A353
100
AcDbEntity
  8
1
  6
Continuous
100
AcDbCircle
 10
213.490146
 20
48.810318
 30
0.0
 40
7.0
100
AcDbArc
 50
270.0
 51
0.0
  0
LINE
  5
A535
330
A353
100
AcDbEntity
  8
4
  6
CENTER
100
AcDbLine
 10
218.740146
 20
86.81031800000004
 30
0.0
 11
206.240146
 21
86.81031800000004
 31
0.0
  0
LINE
  5
A536
330
A353
100
AcDbEntity
  8
4
  6
CENTER
100
AcDbLine
 10
218.740146
 20
50.810318
 30
0.0
 11
206.240146
 21
50.810318
 31
0.0
  0
CIRCLE
  5
A537
330
A353
100
AcDbEntity
  8
1
  6
Continuous
100
AcDbCircle
 10
212.490146
 20
50.810318
 30
0.0
 40
3.25
  0
LINE
  5
A538
330
A353
100
AcDbEntity
  8
4
  6
CENTER
100
AcDbLine
 10
212.490146
 20
57.060318
 30
0.0
 11
212.490146
 21
44.560318
 31
0.0
  0
LINE
  5
A539
330
A353
100
AcDbEntity
  8
1
  6
Continuous
100
AcDbLine
 10
156.490146
 20
84.26789300000001
 30
0.0
 11
156.490146
 21
83.81031799999998
 31
0.0
  0
LINE
  5
A53A
330
A353
100
AcDbEntity
  8
1
  6
Continuous
100
AcDbLine
 10
164.4901459999998
 20
84.353008
 30
0.0
 11
164.4901459999998
 21
83.81031799999998
 31
0.0
  0
LINE
  5
A53B
330
A353
100
AcDbEntity
  8
1
  6
Continuous
100
AcDbLine
 10
156.490146
 20
53.810318
 30
0.0
 11
156.490146
 21
53.35274399999999
 31
0.0
  0
LINE
  5
A53C
330
A353
100
AcDbEntity
  8
1
  6
Continuous
100
AcDbLine
 10
164.4901459999998
 20
53.810318
 30
0.0
 11
164.4901459999998
 21
53.35274399999999
 31
0.0
  0
ARC
  5
A53D
330
A353
100
AcDbEntity
  8
1
  6
Continuous
100
AcDbCircle
 10
160.490146
 20
57.510429
 30
0.0
 40
10.5
100
AcDbArc
 50
236.7961769999999
 51
303.2038229999999
  0
LINE
  5
A53E
330
A353
100
AcDbEntity
  8
1
  6
Continuous
100
AcDbLine
 10
154.740146
 20
48.724787
 30
0.0
 11
154.740146
 21
50.949084
 31
0.0
  0
LINE
  5
A53F
330
A353
100
AcDbEntity
  8
1
  6
Continuous
100
AcDbLine
 10
166.240146
 20
50.91174099999999
 30
0.0
 11
166.240146
 21
48.724787
 31
0.0
  0
LINE
  5
A540
330
A353
100
AcDbEntity
  8
1
  6
Continuous
100
AcDbLine
 10
154.740146
 20
48.724787
 30
0.0
 11
166.240146
 21
48.724787
 31
0.0
  0
LINE
  5
A541
330
A353
100
AcDbEntity
  8
1
  6
Continuous
100
AcDbLine
 10
155.490146
 20
88.11020699999996
 30
0.0
 11
155.490146
 21
86.557384
 31
0.0
  0
LINE
  5
A542
330
A353
100
AcDbEntity
  8
1
  6
Continuous
100
AcDbLine
 10
165.490146
 20
88.11020699999996
 30
0.0
 11
165.490146
 21
86.663802
 31
0.0
  0
ARC
  5
A543
330
A353
100
AcDbEntity
  8
1
  6
Continuous
100
AcDbCircle
 10
160.490146
 20
76.11020699999999
 30
0.0
 40
13.0
100
AcDbArc
 50
67.380135
 51
112.6198649999998
  0
LINE
  5
A544
330
A353
100
AcDbEntity
  8
1
  6
Continuous
100
AcDbLine
 10
165.490146
 20
88.11020699999996
 30
0.0
 11
155.490146
 21
88.11020699999996
 31
0.0
  0
LINE
  5
A545
330
A353
100
AcDbEntity
  8
1
  6
Continuous
100
AcDbLine
 10
165.427809
 20
84.36298399999998
 30
0.0
 11
150.5974219999998
 21
84.20519899999998
 31
0.0
  0
LINE
  5
A546
330
A353
100
AcDbEntity
  8
1
  6
Continuous
100
AcDbLine
 10
165.470648
 20
86.66357099999997
 30
0.0
 11
150.5974219999998
 21
86.50532899999998
 31
0.0
  0
LINE
  5
A547
330
A353
100
AcDbEntity
  8
1
  6
Continuous
100
AcDbLine
 10
165.470648
 20
50.95706599999999
 30
0.0
 11
150.5974219999998
 21
51.115308
 31
0.0
  0
LINE
  5
A548
330
A353
100
AcDbEntity
  8
1
  6
Continuous
100
AcDbLine
 10
165.427809
 20
53.257653
 30
0.0
 11
150.5974219999998
 21
53.415438
 31
0.0
  0
LINE
  5
A549
330
A353
100
AcDbEntity
  8
4
  6
CENTER
100
AcDbLine
 10
160.490146
 20
100.810318
 30
0.0
 11
160.490146
 21
36.810318
 31
0.0
  0
LINE
  5
A54A
330
A353
100
AcDbEntity
  8
1
  6
Continuous
100
AcDbLine
 10
150.5974219999998
 20
86.50532899999998
 30
0.0
 11
150.5974219999998
 21
84.20519899999998
 31
0.0
  0
LINE
  5
A54B
330
A353
100
AcDbEntity
  8
1
  6
Continuous
100
AcDbLine
 10
150.5974219999998
 20
53.415438
 30
0.0
 11
150.5974219999998
 21
51.115308
 31
0.0
  0
LINE
  5
A54C
330
A353
100
AcDbEntity
  8
1
  6
Continuous
100
AcDbLine
 10
150.490146
 20
56.310318
 30
0.0
 11
150.490146
 21
48.810318
 31
0.0
  0
ARC
  5
A54D
330
A353
100
AcDbEntity
  8
1
  6
Continuous
100
AcDbCircle
 10
185.490146
 20
68.81031800000001
 30
0.0
 40
24.75
100
AcDbArc
 50
232.1293309999998
 51
127.8706689999999
  0
ARC
  5
A54E
330
A353
100
AcDbEntity
  8
1
  6
Continuous
100
AcDbCircle
 10
185.490146
 20
68.81031800000001
 30
0.0
 40
22.45
100
AcDbArc
 50
232.2467339999999
 51
127.753266
  0
ARC
  5
A54F
330
A353
100
AcDbEntity
  8
1
  6
Continuous
100
AcDbCircle
 10
165.3855379999999
 20
94.66311799999999
 30
0.0
 40
8.0
100
AcDbArc
 50
270.609568
 51
307.870669
  0
ARC
  5
A550
330
A353
100
AcDbEntity
  8
1
  6
Continuous
100
AcDbCircle
 10
165.3161019999998
 20
94.86239000000001
 30
0.0
 40
10.5
100
AcDbArc
 50
270.6095659999999
 51
307.753266
  0
ARC
  5
A551
330
A353
100
AcDbEntity
  8
1
  6
Continuous
100
AcDbCircle
 10
165.3161019999998
 20
42.758247
 30
0.0
 40
10.5
100
AcDbArc
 50
52.246734
 51
89.390434
  0
ARC
  5
A552
330
A353
100
AcDbEntity
  8
1
  6
Continuous
100
AcDbCircle
 10
165.3855379999999
 20
42.95751899999999
 30
0.0
 40
8.0
100
AcDbArc
 50
52.129331
 51
89.39043199999996
  0
ARC
  5
A553
330
A353
100
AcDbEntity
  8
1
  6
Continuous
100
AcDbCircle
 10
185.490146
 20
68.81031800000001
 30
0.0
 40
20.44999999999999
100
AcDbArc
 50
217.67972
 51
142.32028
  0
ARC
  5
A554
330
A353
100
AcDbEntity
  8
1
  6
Continuous
100
AcDbCircle
 10
185.490146
 20
68.81031800000001
 30
0.0
 40
18.44999999999998
100
AcDbArc
 50
222.64912
 51
137.3508799999999
  0
ARC
  5
A555
330
A353
100
AcDbEntity
  8
1
  6
Continuous
100
AcDbCircle
 10
185.490146
 20
68.81031800000001
 30
0.0
 40
9.449999999999999
100
AcDbArc
 50
311.391798
 51
48.608202
  0
ARC
  5
A556
330
A353
100
AcDbEntity
  8
1
  6
Continuous
100
AcDbCircle
 10
185.490146
 20
68.81031800000001
 30
0.0
 40
26.0
100
AcDbArc
 50
223.690664
 51
136.309336
  0
CIRCLE
  5
A557
330
A353
100
AcDbEntity
  8
1
  6
Continuous
100
AcDbCircle
 10
160.490146
 20
175.717882
 30
0.0
 40
5.0
  0
CIRCLE
  5
A558
330
A353
100
AcDbEntity
  8
1
  6
Continuous
100
AcDbCircle
 10
431.4947359999998
 20
175.717882
 30
0.0
 40
5.75
  0
LINE
  5
A559
330
A353
100
AcDbEntity
  8
1
  6
Continuous
100
AcDbLine
 10
313.7121409999999
 20
168.1456459999999
 30
0.0
 11
313.679798
 21
165.1057189999999
 31
0.0
  0
ARC
  5
A55A
330
A353
100
AcDbEntity
  8
1
  6
Continuous
100
AcDbCircle
 10
321.7116889999999
 20
168.060536
 30
0.0
 40
8.0
100
AcDbArc
 50
143.6639909999998
 51
179.390432
  0
ARC
  5
A55B
330
A353
100
AcDbEntity
  8
1
  6
Continuous
100
AcDbCircle
 10
319.419848
 20
168.839702
 30
0.0
 40
8.0
100
AcDbArc
 50
142.4280659999998
 51
179.390434
  0
ARC
  5
A55C
330
A353
100
AcDbEntity
  8
1
  6
Continuous
100
AcDbCircle
 10
299.4006909999999
 20
189.4850059999999
 30
0.0
 40
28.15825
100
AcDbArc
 50
180.0
 51
216.3360089999999
  0
ARC
  5
A55D
330
A353
100
AcDbEntity
  8
1
  6
Continuous
100
AcDbCircle
 10
299.4006909999999
 20
189.4850059999999
 30
0.0
 40
25.85825
100
AcDbArc
 50
180.0
 51
217.571934
  0
ARC
  5
A55E
330
A353
100
AcDbEntity
  8
1
  6
Continuous
100
AcDbCircle
 10
270.273194
 20
168.060536
 30
0.0
 40
8.0
100
AcDbArc
 50
0.609568
 51
36.33600899999999
  0
ARC
  5
A55F
330
A353
100
AcDbEntity
  8
1
  6
Continuous
100
AcDbCircle
 10
272.565035
 20
168.839702
 30
0.0
 40
8.0
100
AcDbArc
 50
0.6095660000000001
 51
37.57193400000001
  0
LINE
  5
A560
330
A353
100
AcDbEntity
  8
1
  6
Continuous
100
AcDbLine
 10
278.272742
 20
168.1456459999999
 30
0.0
 11
278.3050839999999
 21
165.1057189999999
 31
0.0
  0
LINE
  5
A561
330
A353
100
AcDbEntity
  8
1
  6
Continuous
100
AcDbLine
 10
276.692552
 20
170.717782
 30
0.0
 11
276.692552
 21
172.834857
 31
0.0
  0
ARC
  5
A562
330
A353
100
AcDbEntity
  8
1
  6
Continuous
100
AcDbCircle
 10
288.6925519999999
 20
175.717782
 30
0.0
 40
13.0
100
AcDbArc
 50
186.951364
 51
202.6198649999999
  0
LINE
  5
A563
330
A353
100
AcDbEntity
  8
1
  6
Continuous
100
AcDbLine
 10
276.692552
 20
170.717782
 30
0.0
 11
277.81899
 21
170.717782
 31
0.0
  0
LINE
  5
A564
330
A353
100
AcDbEntity
  8
1
  6
Continuous
100
AcDbLine
 10
313.9423639999999
 20
169.9677819999998
 30
0.0
 11
316.0779409999999
 21
169.9677819999998
 31
0.0
  0
LINE
  5
A565
330
A353
100
AcDbEntity
  8
1
  6
Continuous
100
AcDbLine
 10
316.0779409999999
 20
173.9630619999998
 30
0.0
 11
316.0779409999999
 21
169.9677819999998
 31
0.0
  0
ARC
  5
A566
330
A353
100
AcDbEntity
  8
1
  6
Continuous
100
AcDbCircle
 10
307.292299
 20
175.717782
 30
0.0
 40
10.5
100
AcDbArc
 50
326.7961769999998
 51
6.033259999999998
  0
ARC
  5
A567
330
A353
100
AcDbEntity
  8
1
  6
Continuous
100
AcDbCircle
 10
160.490146
 20
175.717882
 30
0.0
 40
31.5
100
AcDbArc
 50
96.61782700000001
 51
36.19536999999999
  0
LINE
  5
A568
330
A353
100
AcDbEntity
  8
1
  6
Continuous
100
AcDbLine
 10
150.490146
 20
286.4206459999999
 30
0.0
 11
131.5542699999998
 21
286.4206459999999
 31
0.0
  0
LINE
  5
A569
330
A353
100
AcDbEntity
  8
1
  6
Continuous
100
AcDbLine
 10
150.490146
 20
311.4206459999999
 30
0.0
 11
131.5542699999998
 21
311.4206459999999
 31
0.0
  0
ARC
  5
A56A
330
A353
100
AcDbEntity
  8
1
  6
Continuous
100
AcDbCircle
 10
228.990146
 20
298.9206459999999
 30
0.0
 40
100.0
100
AcDbArc
 50
173.8493599999999
 51
186.15064
  0
ARC
  5
A56B
330
A353
100
AcDbEntity
  8
1
  6
Continuous
100
AcDbCircle
 10
131.5542699999998
 20
288.4206459999999
 30
0.0
 40
2.0
100
AcDbArc
 50
186.15064
 51
270.0
  0
ARC
  5
A56C
330
A353
100
AcDbEntity
  8
1
  6
Continuous
100
AcDbCircle
 10
131.5542699999998
 20
309.4206459999999
 30
0.0
 40
2.0
100
AcDbArc
 50
90.0
 51
173.8493599999999
  0
ARC
  5
A56D
330
A353
100
AcDbEntity
  8
1
  6
Continuous
100
AcDbCircle
 10
160.490146
 20
175.717882
 30
0.0
 40
24.5
100
AcDbArc
 50
102.196284
 51
29.461922
  0
ARC
  5
A56E
330
A353
100
AcDbEntity
  8
1
  6
Continuous
100
AcDbCircle
 10
431.4947359999998
 20
175.717882
 30
0.0
 40
24.5
100
AcDbArc
 50
150.538078
 51
77.80371600000002
  0
ARC
  5
A56F
330
A353
100
AcDbEntity
  8
1
  6
Continuous
100
AcDbCircle
 10
431.4947359999998
 20
175.717882
 30
0.0
 40
31.5
100
AcDbArc
 50
143.80463
 51
83.38217299999998
  0
LINE
  5
A570
330
A353
100
AcDbEntity
  8
1
  6
Continuous
100
AcDbLine
 10
66.48785100000001
 20
146.7819049999999
 30
0.0
 11
66.48785100000001
 21
204.653658
 31
0.0
  0
LINE
  5
A571
330
A353
100
AcDbEntity
  8
1
  6
Continuous
100
AcDbLine
 10
41.487851
 20
146.7819049999999
 30
0.0
 11
41.487851
 21
204.653658
 31
0.0
  0
ARC
  5
A572
330
A353
100
AcDbEntity
  8
1
  6
Continuous
100
AcDbCircle
 10
53.987851
 20
244.2177819999999
 30
0.0
 40
100.0
100
AcDbArc
 50
263.8493599999998
 51
276.15064
  0
ARC
  5
A573
330
A353
100
AcDbEntity
  8
1
  6
Continuous
100
AcDbCircle
 10
43.48785099999999
 20
146.7819049999999
 30
0.0
 40
2.0
100
AcDbArc
 50
180.0
 51
263.8493599999998
  0
ARC
  5
A574
330
A353
100
AcDbEntity
  8
1
  6
Continuous
100
AcDbCircle
 10
64.48785100000001
 20
146.7819049999999
 30
0.0
 40
2.0
100
AcDbArc
 50
276.15064
 51
0.0
  0
LINE
  5
A575
330
A353
100
AcDbEntity
  8
1
  6
Continuous
100
AcDbLine
 10
39.900695
 20
183.797645
 30
0.0
 11
41.487851
 21
183.9365029999999
 31
0.0
  0
LINE
  5
A576
330
A353
100
AcDbEntity
  8
1
  6
Continuous
100
AcDbLine
 10
39.900695
 20
167.6379179999998
 30
0.0
 11
41.487851
 21
167.4990599999999
 31
0.0
  0
ARC
  5
A577
330
A353
100
AcDbEntity
  8
1
  6
Continuous
100
AcDbCircle
 10
39.987851
 20
182.8014509999999
 30
0.0
 40
1.0
100
AcDbArc
 50
95.0
 51
180.0
  0
ARC
  5
A578
330
A353
100
AcDbEntity
  8
1
  6
Continuous
100
AcDbCircle
 10
39.987851
 20
168.6341129999999
 30
0.0
 40
1.0
100
AcDbArc
 50
180.0
 51
265.0
  0
LINE
  5
A579
330
A353
100
AcDbEntity
  8
1
  6
Continuous
100
AcDbLine
 10
38.98785099999999
 20
168.6341129999999
 30
0.0
 11
38.98785099999999
 21
182.8014509999999
 31
0.0
  0
ARC
  5
A57A
330
A353
100
AcDbEntity
  8
1
  6
Continuous
100
AcDbCircle
 10
67.987851
 20
182.8014509999999
 30
0.0
 40
1.0
100
AcDbArc
 50
0.0
 51
85.0
  0
LINE
  5
A57B
330
A353
100
AcDbEntity
  8
1
  6
Continuous
100
AcDbLine
 10
68.075007
 20
183.797645
 30
0.0
 11
66.48785100000001
 21
183.9365029999999
 31
0.0
  0
ARC
  5
A57C
330
A353
100
AcDbEntity
  8
1
  6
Continuous
100
AcDbCircle
 10
67.987851
 20
168.6341129999999
 30
0.0
 40
1.0
100
AcDbArc
 50
275.0
 51
0.0
  0
LINE
  5
A57D
330
A353
100
AcDbEntity
  8
1
  6
Continuous
100
AcDbLine
 10
68.075007
 20
167.6379179999998
 30
0.0
 11
66.48785100000001
 21
167.4990599999999
 31
0.0
  0
LINE
  5
A57E
330
A353
100
AcDbEntity
  8
1
  6
Continuous
100
AcDbLine
 10
68.98785100000001
 20
168.6341129999999
 30
0.0
 11
68.98785100000001
 21
182.8014509999999
 31
0.0
  0
ARC
  5
A57F
330
A353
100
AcDbEntity
  8
1
  6
Continuous
100
AcDbCircle
 10
53.987851
 20
107.217782
 30
0.0
 40
100.0
100
AcDbArc
 50
83.84936000000001
 51
96.15064
  0
ARC
  5
A580
330
A353
100
AcDbEntity
  8
1
  6
Continuous
100
AcDbCircle
 10
43.48785099999999
 20
204.653658
 30
0.0
 40
2.0
100
AcDbArc
 50
96.15064
 51
180.0
  0
ARC
  5
A581
330
A353
100
AcDbEntity
  8
1
  6
Continuous
100
AcDbCircle
 10
64.48785100000001
 20
204.653658
 30
0.0
 40
2.0
100
AcDbArc
 50
0.0
 51
83.84936000000001
  0
LINE
  5
A582
330
A353
100
AcDbEntity
  8
1
  6
Continuous
100
AcDbLine
 10
310.992441
 20
168.6341129999999
 30
0.0
 11
310.992441
 21
182.8014509999999
 31
0.0
  0
LINE
  5
A583
330
A353
100
AcDbEntity
  8
1
  6
Continuous
100
AcDbLine
 10
280.9924409999999
 20
168.6341129999999
 30
0.0
 11
280.9924409999999
 21
182.8014509999999
 31
0.0
  0
LINE
  5
A584
330
A353
100
AcDbEntity
  8
1
  6
Continuous
100
AcDbLine
 10
283.4924409999999
 20
146.7819049999999
 30
0.0
 11
283.4924409999999
 21
204.653658
 31
0.0
  0
LINE
  5
A585
330
A353
100
AcDbEntity
  8
1
  6
Continuous
100
AcDbLine
 10
308.4924409999999
 20
146.7819049999999
 30
0.0
 11
308.4924409999999
 21
204.653658
 31
0.0
  0
ARC
  5
A586
330
A353
100
AcDbEntity
  8
1
  6
Continuous
100
AcDbCircle
 10
285.4924409999999
 20
146.7819049999999
 30
0.0
 40
2.0
100
AcDbArc
 50
180.0
 51
263.8493599999998
  0
ARC
  5
A587
330
A353
100
AcDbEntity
  8
1
  6
Continuous
100
AcDbCircle
 10
281.992441
 20
168.6341129999999
 30
0.0
 40
1.0
100
AcDbArc
 50
180.0
 51
265.0
  0
LINE
  5
A588
330
A353
100
AcDbEntity
  8
1
  6
Continuous
100
AcDbLine
 10
281.9052849999998
 20
167.6379179999998
 30
0.0
 11
283.4924409999999
 21
167.4990599999999
 31
0.0
  0
ARC
  5
A589
330
A353
100
AcDbEntity
  8
1
  6
Continuous
100
AcDbCircle
 10
295.9924409999999
 20
244.2177819999999
 30
0.0
 40
100.0
100
AcDbArc
 50
263.8493599999998
 51
276.15064
  0
ARC
  5
A58A
330
A353
100
AcDbEntity
  8
1
  6
Continuous
100
AcDbCircle
 10
306.4924409999999
 20
146.7819049999999
 30
0.0
 40
2.0
100
AcDbArc
 50
276.15064
 51
0.0
  0
LINE
  5
A58B
330
A353
100
AcDbEntity
  8
1
  6
Continuous
100
AcDbLine
 10
310.079597
 20
167.6379179999998
 30
0.0
 11
308.4924409999999
 21
167.4990599999999
 31
0.0
  0
ARC
  5
A58C
330
A353
100
AcDbEntity
  8
1
  6
Continuous
100
AcDbCircle
 10
309.9924409999999
 20
168.6341129999999
 30
0.0
 40
1.0
100
AcDbArc
 50
275.0
 51
0.0
  0
ARC
  5
A58D
330
A353
100
AcDbEntity
  8
1
  6
Continuous
100
AcDbCircle
 10
285.4924409999999
 20
204.653658
 30
0.0
 40
2.0
100
AcDbArc
 50
150.474945
 51
180.0
  0
ARC
  5
A58E
330
A353
100
AcDbEntity
  8
1
  6
Continuous
100
AcDbCircle
 10
281.992441
 20
182.8014509999999
 30
0.0
 40
1.0
100
AcDbArc
 50
95.0
 51
180.0
  0
LINE
  5
A58F
330
A353
100
AcDbEntity
  8
1
  6
Continuous
100
AcDbLine
 10
281.9052849999998
 20
183.797645
 30
0.0
 11
283.4924409999999
 21
183.9365029999999
 31
0.0
  0
LINE
  5
A590
330
A353
100
AcDbEntity
  8
1
  6
Continuous
100
AcDbLine
 10
310.079597
 20
183.797645
 30
0.0
 11
308.4924409999999
 21
183.9365029999999
 31
0.0
  0
ARC
  5
A591
330
A353
100
AcDbEntity
  8
1
  6
Continuous
100
AcDbCircle
 10
309.9924409999999
 20
182.8014509999999
 30
0.0
 40
1.0
100
AcDbArc
 50
0.0
 51
85.0
  0
ARC
  5
A592
330
A353
100
AcDbEntity
  8
1
  6
Continuous
100
AcDbCircle
 10
306.4924409999999
 20
204.653658
 30
0.0
 40
2.0
100
AcDbArc
 50
0.0
 51
29.525055
  0
ARC
  5
A593
330
A353
100
AcDbEntity
  8
1
  6
Continuous
100
AcDbCircle
 10
131.5542699999998
 20
58.310318
 30
0.0
 40
2.0
100
AcDbArc
 50
186.15064
 51
270.0
  0
ARC
  5
A594
330
A353
100
AcDbEntity
  8
1
  6
Continuous
100
AcDbCircle
 10
189.426023
 20
58.310318
 30
0.0
 40
2.0
100
AcDbArc
 50
270.0
 51
353.8493599999998
  0
LINE
  5
A595
330
A353
100
AcDbEntity
  8
1
  6
Continuous
100
AcDbLine
 10
189.426023
 20
56.310318
 30
0.0
 11
131.5542699999998
 21
56.310318
 31
0.0
  0
LINE
  5
A596
330
A353
100
AcDbEntity
  8
1
  6
Continuous
100
AcDbLine
 10
167.5738149999999
 20
53.810318
 30
0.0
 11
153.406477
 21
53.810318
 31
0.0
  0
LINE
  5
A597
330
A353
100
AcDbEntity
  8
1
  6
Continuous
100
AcDbLine
 10
152.4102829999999
 20
54.723162
 30
0.0
 11
152.2714249999999
 21
56.310318
 31
0.0
  0
ARC
  5
A598
330
A353
100
AcDbEntity
  8
1
  6
Continuous
100
AcDbCircle
 10
153.406477
 20
54.810318
 30
0.0
 40
1.0
100
AcDbArc
 50
185.0
 51
270.0
  0
LINE
  5
A599
330
A353
100
AcDbEntity
  8
1
  6
Continuous
100
AcDbLine
 10
168.57001
 20
54.723162
 30
0.0
 11
168.708868
 21
56.310318
 31
0.0
  0
ARC
  5
A59A
330
A353
100
AcDbEntity
  8
1
  6
Continuous
100
AcDbCircle
 10
167.5738149999999
 20
54.810318
 30
0.0
 40
1.0
100
AcDbArc
 50
270.0
 51
355.0
  0
LINE
  5
A59B
330
A353
100
AcDbEntity
  8
1
  6
Continuous
100
AcDbLine
 10
189.426023
 20
81.31031799999998
 30
0.0
 11
131.5542699999998
 21
81.31031799999998
 31
0.0
  0
ARC
  5
A59C
330
A353
100
AcDbEntity
  8
1
  6
Continuous
100
AcDbCircle
 10
131.5542699999998
 20
79.31031800000003
 30
0.0
 40
2.0
100
AcDbArc
 50
90.0
 51
173.8493599999999
  0
ARC
  5
A59D
330
A353
100
AcDbEntity
  8
1
  6
Continuous
100
AcDbCircle
 10
228.990146
 20
68.81031800000001
 30
0.0
 40
100.0
100
AcDbArc
 50
173.8493599999999
 51
186.15064
  0
ARC
  5
A59E
330
A353
100
AcDbEntity
  8
1
  6
Continuous
100
AcDbCircle
 10
167.5738149999999
 20
82.81031799999999
 30
0.0
 40
1.0
100
AcDbArc
 50
5.0
 51
90.0
  0
ARC
  5
A59F
330
A353
100
AcDbEntity
  8
1
  6
Continuous
100
AcDbCircle
 10
153.406477
 20
82.81031799999999
 30
0.0
 40
1.0
100
AcDbArc
 50
90.0
 51
175.0
  0
LINE
  5
A5A0
330
A353
100
AcDbEntity
  8
1
  6
Continuous
100
AcDbLine
 10
152.4102829999999
 20
82.89747400000001
 30
0.0
 11
152.2714249999999
 21
81.31031799999998
 31
0.0
  0
LINE
  5
A5A1
330
A353
100
AcDbEntity
  8
1
  6
Continuous
100
AcDbLine
 10
168.57001
 20
82.89747400000001
 30
0.0
 11
168.708868
 21
81.31031799999998
 31
0.0
  0
LINE
  5
A5A2
330
A353
100
AcDbEntity
  8
1
  6
Continuous
100
AcDbLine
 10
167.5738149999999
 20
83.81031799999998
 30
0.0
 11
153.406477
 21
83.81031799999998
 31
0.0
  0
ARC
  5
A5A3
330
A353
100
AcDbEntity
  8
1
  6
Continuous
100
AcDbCircle
 10
189.426023
 20
79.31031800000003
 30
0.0
 40
2.0
100
AcDbArc
 50
6.15064
 51
90.0
  0
ARC
  5
A5A4
330
A353
100
AcDbEntity
  8
1
  6
Continuous
100
AcDbCircle
 10
91.99014599999999
 20
68.81031800000001
 30
0.0
 40
100.0
100
AcDbArc
 50
353.8493599999998
 51
6.15064
  0
LINE
  5
A5A5
330
A353
100
AcDbEntity
  8
1
  6
Continuous
100
AcDbLine
 10
161.685132
 20
280.325193
 30
0.0
 11
155.490146
 21
280.325193
 31
0.0
  0
ARC
  5
A5A6
330
A353
100
AcDbEntity
  8
1
  6
Continuous
100
AcDbCircle
 10
160.490146
 20
292.325193
 30
0.0
 40
13.0
100
AcDbArc
 50
247.380135
 51
273.7348799999999
  0
LINE
  5
A5A7
330
A353
100
AcDbEntity
  8
1
  6
Continuous
100
AcDbLine
 10
155.490146
 20
280.325193
 30
0.0
 11
155.490146
 21
281.878017
 31
0.0
  0
LINE
  5
A5A8
330
A353
100
AcDbEntity
  8
1
  6
Continuous
100
AcDbLine
 10
161.615282
 20
281.812849
 30
0.0
 11
155.384701
 21
281.879139
 31
0.0
  0
LINE
  5
A5A9
330
A353
100
AcDbEntity
  8
1
  6
Continuous
100
AcDbLine
 10
156.9823909999998
 20
314.6250819999999
 30
0.0
 11
156.1895189999999
 21
314.6250819999999
 31
0.0
  0
LINE
  5
A5AA
330
A353
100
AcDbEntity
  8
1
  6
Continuous
100
AcDbLine
 10
157.152861
 20
315.089708
 30
0.0
 11
155.8147339999999
 21
315.075471
 31
0.0
  0
LINE
  5
A5AB
330
A353
100
AcDbEntity
  8
1
  6
Continuous
100
AcDbLine
 10
156.490146
 20
314.6250819999999
 30
0.0
 11
156.490146
 21
315.0826569999999
 31
0.0
  0
LINE
  5
A5AC
330
A353
100
AcDbEntity
  8
1
  6
Continuous
100
AcDbLine
 10
161.6986719999998
 20
317.4382029999998
 30
0.0
 11
155.271336
 21
317.36982
 31
0.0
  0
LINE
  5
A5AD
330
A353
100
AcDbEntity
  8
1
  6
Continuous
100
AcDbLine
 10
156.8232379999998
 20
319.7106129999998
 30
0.0
 11
160.157055
 21
319.7106129999998
 31
0.0
  0
ARC
  5
A5AE
330
A353
100
AcDbEntity
  8
1
  6
Continuous
100
AcDbCircle
 10
198.5840969999999
 20
299.6250819999999
 30
0.0
 40
44.22331899999998
100
AcDbArc
 50
200.7990889999999
 51
203.6989569999998
  0
ARC
  5
A5AF
330
A353
100
AcDbEntity
  8
1
  6
Continuous
100
AcDbCircle
 10
198.5840969999999
 20
299.6250819999999
 30
0.0
 40
44.22331899999998
100
AcDbArc
 50
156.301043
 51
160.8413209999999
  0
LINE
  5
A5B0
330
A353
100
AcDbEntity
  8
1
  6
Continuous
100
AcDbLine
 10
38.866056
 20
209.988604
 30
0.0
 11
39.493571
 21
209.3610889999999
 31
0.0
  0
ARC
  5
A5B1
330
A353
100
AcDbEntity
  8
1
  6
Continuous
100
AcDbCircle
 10
42.227783
 20
210.0128329999999
 30
0.0
 40
4.217937
100
AcDbArc
 50
212.9024809999999
 51
227.0719179999999
  0
ARC
  5
A5B2
330
A353
100
AcDbEntity
  8
1
  6
Continuous
100
AcDbCircle
 10
43.003175
 20
210.846435
 30
0.0
 40
5.356411999999998
100
AcDbArc
 50
227.0719179999999
 51
256.4430649999998
  0
ARC
  5
A5B3
330
A353
100
AcDbEntity
  8
1
  6
Continuous
100
AcDbCircle
 10
37.49265799999999
 20
210.1638349999999
 30
0.0
 40
2.088299
100
AcDbArc
 50
319.8145149999998
 51
335.385289
  0
LINE
  5
A5B4
330
A353
100
AcDbEntity
  8
1
  6
Continuous
100
AcDbLine
 10
38.709404
 20
209.6954119999999
 30
0.0
 11
39.59043299999999
 21
210.5764409999999
 31
0.0
  0
ARC
  5
A5B5
330
A353
100
AcDbEntity
  8
1
  6
Continuous
100
AcDbCircle
 10
40.98785099999999
 20
208.6664889999999
 30
0.0
 40
2.5
100
AcDbArc
 50
130.183595
 51
187.18198
  0
LINE
  5
A5B6
330
A353
100
AcDbEntity
  8
1
  6
Continuous
100
AcDbLine
 10
69.38942
 20
209.3610889999999
 30
0.0
 11
38.586282
 21
209.3610889999999
 31
0.0
  0
LINE
  5
A5B7
330
A353
100
AcDbEntity
  8
1
  6
Continuous
100
AcDbLine
 10
38.507466
 20
208.353936
 30
0.0
 11
69.468237
 21
208.353936
 31
0.0
  0
ARC
  5
A5B8
330
A353
100
AcDbEntity
  8
1
  6
Continuous
100
AcDbCircle
 10
38.82010499999999
 20
209.042632
 30
0.0
 40
0.3507099999999999
100
AcDbArc
 50
305.759494
 51
319.8145149999998
  0
LINE
  5
A5B9
330
A353
100
AcDbEntity
  8
1
  6
Continuous
100
AcDbLine
 10
39.025055
 20
208.7580389999998
 30
0.0
 11
38.806344
 21
208.353936
 31
0.0
  0
LINE
  5
A5BA
330
A353
100
AcDbEntity
  8
1
  6
Continuous
100
AcDbLine
 10
38.730922
 20
208.353936
 30
0.0
 11
38.62296699999999
 21
208.3471679999999
 31
0.0
  0
ARC
  5
A5BB
330
A353
100
AcDbEntity
  8
1
  6
Continuous
100
AcDbCircle
 10
38.78015299999999
 20
208.2492709999999
 30
0.0
 40
0.18518
100
AcDbArc
 50
148.0847599999999
 51
201.017471
  0
ARC
  5
A5BC
330
A353
100
AcDbEntity
  8
1
  6
Continuous
100
AcDbCircle
 10
37.490958
 20
207.7539439999999
 30
0.0
 40
1.195896999999998
100
AcDbArc
 50
358.4503999999999
 51
21.017471
  0
LINE
  5
A5BD
330
A353
100
AcDbEntity
  8
1
  6
Continuous
100
AcDbLine
 10
56.464134
 20
209.3610889999999
 30
0.0
 11
55.24878199999999
 21
210.5764409999999
 31
0.0
  0
LINE
  5
A5BE
330
A353
100
AcDbEntity
  8
1
  6
Continuous
100
AcDbLine
 10
49.393066
 20
209.3610889999999
 30
0.0
 11
48.177715
 21
210.5764409999999
 31
0.0
  0
LINE
  5
A5BF
330
A353
100
AcDbEntity
  8
1
  6
Continuous
100
AcDbLine
 10
50.80728
 20
209.3610889999999
 30
0.0
 11
49.591928
 21
210.5764409999999
 31
0.0
  0
LINE
  5
A5C0
330
A353
100
AcDbEntity
  8
1
  6
Continuous
100
AcDbLine
 10
48.274576
 20
209.3610889999999
 30
0.0
 11
49.489928
 21
210.5764409999999
 31
0.0
  0
LINE
  5
A5C1
330
A353
100
AcDbEntity
  8
1
  6
Continuous
100
AcDbLine
 10
49.68879000000001
 20
209.3610889999999
 30
0.0
 11
50.904142
 21
210.5764409999999
 31
0.0
  0
LINE
  5
A5C2
330
A353
100
AcDbEntity
  8
1
  6
Continuous
100
AcDbLine
 10
52.221494
 20
209.3610889999999
 30
0.0
 11
51.00614199999998
 21
210.5764409999999
 31
0.0
  0
LINE
  5
A5C3
330
A353
100
AcDbEntity
  8
1
  6
Continuous
100
AcDbLine
 10
51.103003
 20
209.3610889999999
 30
0.0
 11
52.31835499999998
 21
210.5764409999999
 31
0.0
  0
LINE
  5
A5C4
330
A353
100
AcDbEntity
  8
1
  6
Continuous
100
AcDbLine
 10
55.04992099999999
 20
209.3610889999999
 30
0.0
 11
53.83456899999998
 21
210.5764409999999
 31
0.0
  0
LINE
  5
A5C5
330
A353
100
AcDbEntity
  8
1
  6
Continuous
100
AcDbLine
 10
52.517217
 20
209.3610889999999
 30
0.0
 11
53.73256899999999
 21
210.5764409999999
 31
0.0
  0
LINE
  5
A5C6
330
A353
100
AcDbEntity
  8
1
  6
Continuous
100
AcDbLine
 10
53.93143000000002
 20
209.3610889999999
 30
0.0
 11
55.14678199999998
 21
210.5764409999999
 31
0.0
  0
LINE
  5
A5C7
330
A353
100
AcDbEntity
  8
1
  6
Continuous
100
AcDbLine
 10
53.635707
 20
209.3610889999999
 30
0.0
 11
52.420355
 21
210.5764409999999
 31
0.0
  0
ARC
  5
A5C8
330
A353
100
AcDbEntity
  8
1
  6
Continuous
100
AcDbCircle
 10
39.527945
 20
209.231376
 30
0.0
 40
0.150422
100
AcDbArc
 50
120.421811
 51
155.3852889999998
  0
LINE
  5
A5C9
330
A353
100
AcDbEntity
  8
1
  6
Continuous
100
AcDbLine
 10
41.20350799999999
 20
209.3610889999999
 30
0.0
 11
42.41886
 21
210.5764409999999
 31
0.0
  0
LINE
  5
A5CA
330
A353
100
AcDbEntity
  8
1
  6
Continuous
100
AcDbLine
 10
43.736212
 20
209.3610889999999
 30
0.0
 11
42.52086
 21
210.5764409999999
 31
0.0
  0
LINE
  5
A5CB
330
A353
100
AcDbEntity
  8
1
  6
Continuous
100
AcDbLine
 10
39.789295
 20
209.3610889999999
 30
0.0
 11
41.00464699999998
 21
210.5764409999999
 31
0.0
  0
LINE
  5
A5CC
330
A353
100
AcDbEntity
  8
1
  6
Continuous
100
AcDbLine
 10
42.321999
 20
209.3610889999999
 30
0.0
 11
41.106647
 21
210.5764409999999
 31
0.0
  0
LINE
  5
A5CD
330
A353
100
AcDbEntity
  8
1
  6
Continuous
100
AcDbLine
 10
40.90778499999998
 20
209.3610889999999
 30
0.0
 11
39.692433
 21
210.5764409999999
 31
0.0
  0
LINE
  5
A5CE
330
A353
100
AcDbEntity
  8
1
  6
Continuous
100
AcDbLine
 10
44.031936
 20
209.3610889999999
 30
0.0
 11
45.24728699999999
 21
210.5764409999999
 31
0.0
  0
LINE
  5
A5CF
330
A353
100
AcDbEntity
  8
1
  6
Continuous
100
AcDbLine
 10
42.617722
 20
209.3610889999999
 30
0.0
 11
43.83307399999998
 21
210.5764409999999
 31
0.0
  0
LINE
  5
A5D0
330
A353
100
AcDbEntity
  8
1
  6
Continuous
100
AcDbLine
 10
45.150426
 20
209.3610889999999
 30
0.0
 11
43.93507399999999
 21
210.5764409999999
 31
0.0
  0
LINE
  5
A5D1
330
A353
100
AcDbEntity
  8
1
  6
Continuous
100
AcDbLine
 10
46.564639
 20
209.3610889999999
 30
0.0
 11
45.349287
 21
210.5764409999999
 31
0.0
  0
LINE
  5
A5D2
330
A353
100
AcDbEntity
  8
1
  6
Continuous
100
AcDbLine
 10
45.446149
 20
209.3610889999999
 30
0.0
 11
46.661501
 21
210.5764409999999
 31
0.0
  0
LINE
  5
A5D3
330
A353
100
AcDbEntity
  8
1
  6
Continuous
100
AcDbLine
 10
47.97885299999999
 20
209.3610889999999
 30
0.0
 11
46.76350099999999
 21
210.5764409999999
 31
0.0
  0
LINE
  5
A5D4
330
A353
100
AcDbEntity
  8
1
  6
Continuous
100
AcDbLine
 10
46.860363
 20
209.3610889999999
 30
0.0
 11
48.075715
 21
210.5764409999999
 31
0.0
  0
LINE
  5
A5D5
330
A353
100
AcDbEntity
  8
1
  6
Continuous
100
AcDbLine
 10
68.073566
 20
209.3610889999999
 30
0.0
 11
68.940326
 21
210.2278479999999
 31
0.0
  0
ARC
  5
A5D6
330
A353
100
AcDbEntity
  8
1
  6
Continuous
100
AcDbCircle
 10
68.44775699999999
 20
209.231376
 30
0.0
 40
0.150422
100
AcDbArc
 50
24.614711
 51
59.57818899999999
  0
ARC
  5
A5D7
330
A353
100
AcDbEntity
  8
1
  6
Continuous
100
AcDbCircle
 10
65.747919
 20
210.0128329999999
 30
0.0
 40
4.217937
100
AcDbArc
 50
312.9280819999999
 51
327.0975189999999
  0
ARC
  5
A5D8
330
A353
100
AcDbEntity
  8
1
  6
Continuous
100
AcDbCircle
 10
70.48304399999998
 20
210.1638349999999
 30
0.0
 40
2.088299
100
AcDbArc
 50
204.614711
 51
220.185485
  0
ARC
  5
A5D9
330
A353
100
AcDbEntity
  8
1
  6
Continuous
100
AcDbCircle
 10
69.155597
 20
209.042632
 30
0.0
 40
0.3507099999999999
100
AcDbArc
 50
220.185485
 51
234.240506
  0
LINE
  5
A5DA
330
A353
100
AcDbEntity
  8
1
  6
Continuous
100
AcDbLine
 10
68.950647
 20
208.7580389999998
 30
0.0
 11
69.169358
 21
208.353936
 31
0.0
  0
LINE
  5
A5DB
330
A353
100
AcDbEntity
  8
1
  6
Continuous
100
AcDbLine
 10
69.24478
 20
208.353936
 30
0.0
 11
69.352735
 21
208.3471679999999
 31
0.0
  0
ARC
  5
A5DC
330
A353
100
AcDbEntity
  8
1
  6
Continuous
100
AcDbCircle
 10
69.195549
 20
208.2492709999999
 30
0.0
 40
0.18518
100
AcDbArc
 50
338.982529
 51
31.91524
  0
ARC
  5
A5DD
330
A353
100
AcDbEntity
  8
1
  6
Continuous
100
AcDbCircle
 10
70.48474399999998
 20
207.7539439999999
 30
0.0
 40
1.195896999999998
100
AcDbArc
 50
158.982529
 51
181.5495999999999
  0
ARC
  5
A5DE
330
A353
100
AcDbEntity
  8
1
  6
Continuous
100
AcDbCircle
 10
64.972527
 20
210.846435
 30
0.0
 40
5.356411999999998
100
AcDbArc
 50
283.556935
 51
312.9280819999999
  0
LINE
  5
A5DF
330
A353
100
AcDbEntity
  8
1
  6
Continuous
100
AcDbLine
 10
66.363629
 20
209.3610889999999
 30
0.0
 11
65.14827700000001
 21
210.5764409999999
 31
0.0
  0
LINE
  5
A5E0
330
A353
100
AcDbEntity
  8
1
  6
Continuous
100
AcDbLine
 10
63.830925
 20
209.3610889999999
 30
0.0
 11
65.046277
 21
210.5764409999999
 31
0.0
  0
LINE
  5
A5E1
330
A353
100
AcDbEntity
  8
1
  6
Continuous
100
AcDbLine
 10
65.24513899999999
 20
209.3610889999999
 30
0.0
 11
66.460491
 21
210.5764409999999
 31
0.0
  0
LINE
  5
A5E2
330
A353
100
AcDbEntity
  8
1
  6
Continuous
100
AcDbLine
 10
67.777843
 20
209.3610889999999
 30
0.0
 11
66.56249100000001
 21
210.5764409999999
 31
0.0
  0
LINE
  5
A5E3
330
A353
100
AcDbEntity
  8
1
  6
Continuous
100
AcDbLine
 10
66.659353
 20
209.3610889999999
 30
0.0
 11
67.87470400000001
 21
210.5764409999999
 31
0.0
  0
LINE
  5
A5E4
330
A353
100
AcDbEntity
  8
1
  6
Continuous
100
AcDbLine
 10
69.19205600000001
 20
209.3610889999999
 30
0.0
 11
67.976704
 21
210.5764409999999
 31
0.0
  0
ARC
  5
A5E5
330
A353
100
AcDbEntity
  8
1
  6
Continuous
100
AcDbCircle
 10
66.98785100000001
 20
208.6664889999999
 30
0.0
 40
2.5
100
AcDbArc
 50
352.8180199999998
 51
49.81640500000001
  0
LINE
  5
A5E6
330
A353
100
AcDbEntity
  8
1
  6
Continuous
100
AcDbLine
 10
55.34564399999999
 20
209.3610889999999
 30
0.0
 11
56.56099600000001
 21
210.5764409999999
 31
0.0
  0
LINE
  5
A5E7
330
A353
100
AcDbEntity
  8
1
  6
Continuous
100
AcDbLine
 10
57.87834799999998
 20
209.3610889999999
 30
0.0
 11
56.662996
 21
210.5764409999999
 31
0.0
  0
LINE
  5
A5E8
330
A353
100
AcDbEntity
  8
1
  6
Continuous
100
AcDbLine
 10
56.75985799999999
 20
209.3610889999999
 30
0.0
 11
57.975209
 21
210.5764409999999
 31
0.0
  0
LINE
  5
A5E9
330
A353
100
AcDbEntity
  8
1
  6
Continuous
100
AcDbLine
 10
59.29256099999999
 20
209.3610889999999
 30
0.0
 11
58.07720899999999
 21
210.5764409999999
 31
0.0
  0
LINE
  5
A5EA
330
A353
100
AcDbEntity
  8
1
  6
Continuous
100
AcDbLine
 10
58.174071
 20
209.3610889999999
 30
0.0
 11
59.389423
 21
210.5764409999999
 31
0.0
  0
LINE
  5
A5EB
330
A353
100
AcDbEntity
  8
1
  6
Continuous
100
AcDbLine
 10
60.706775
 20
209.3610889999999
 30
0.0
 11
59.491423
 21
210.5764409999999
 31
0.0
  0
LINE
  5
A5EC
330
A353
100
AcDbEntity
  8
1
  6
Continuous
100
AcDbLine
 10
61.002498
 20
209.3610889999999
 30
0.0
 11
62.21785
 21
210.5764409999999
 31
0.0
  0
LINE
  5
A5ED
330
A353
100
AcDbEntity
  8
1
  6
Continuous
100
AcDbLine
 10
63.53520200000001
 20
209.3610889999999
 30
0.0
 11
62.31985
 21
210.5764409999999
 31
0.0
  0
LINE
  5
A5EE
330
A353
100
AcDbEntity
  8
1
  6
Continuous
100
AcDbLine
 10
59.588285
 20
209.3610889999999
 30
0.0
 11
60.803637
 21
210.5764409999999
 31
0.0
  0
LINE
  5
A5EF
330
A353
100
AcDbEntity
  8
1
  6
Continuous
100
AcDbLine
 10
62.12098799999999
 20
209.3610889999999
 30
0.0
 11
60.905637
 21
210.5764409999999
 31
0.0
  0
LINE
  5
A5F0
330
A353
100
AcDbEntity
  8
1
  6
Continuous
100
AcDbLine
 10
62.41671199999998
 20
209.3610889999999
 30
0.0
 11
63.632064
 21
210.5764409999999
 31
0.0
  0
LINE
  5
A5F1
330
A353
100
AcDbEntity
  8
1
  6
Continuous
100
AcDbLine
 10
64.949416
 20
209.3610889999999
 30
0.0
 11
63.734064
 21
210.5764409999999
 31
0.0
  0
ARC
  5
A5F2
330
A353
100
AcDbEntity
  8
1
  6
Continuous
100
AcDbCircle
 10
196.4748219999999
 20
210.84647
 30
0.0
 40
5.356411999999998
100
AcDbArc
 50
283.556935
 51
312.9280819999999
  0
ARC
  5
A5F3
330
A353
100
AcDbEntity
  8
1
  6
Continuous
100
AcDbCircle
 10
197.2502139999998
 20
210.012868
 30
0.0
 40
4.217937
100
AcDbArc
 50
312.9280819999999
 51
337.9224849999999
  0
LINE
  5
A5F4
330
A353
100
AcDbEntity
  8
1
  6
Continuous
100
AcDbLine
 10
197.7304269999999
 20
205.6393019999999
 30
0.0
 11
193.7087349999999
 21
205.6393019999999
 31
0.0
  0
ARC
  5
A5F5
330
A353
100
AcDbEntity
  8
1
  6
Continuous
100
AcDbCircle
 10
306.9771169999999
 20
210.846435
 30
0.0
 40
5.356411999999998
100
AcDbArc
 50
283.556935
 51
312.9280819999999
  0
ARC
  5
A5F6
330
A353
100
AcDbEntity
  8
1
  6
Continuous
100
AcDbCircle
 10
285.007765
 20
210.846435
 30
0.0
 40
5.356411999999998
100
AcDbArc
 50
227.0719179999999
 51
256.4430649999998
  0
ARC
  5
A5F7
330
A353
100
AcDbEntity
  8
1
  6
Continuous
100
AcDbCircle
 10
284.232373
 20
210.0128329999999
 30
0.0
 40
4.217937
100
AcDbArc
 50
212.9024809999999
 51
227.0719179999999
  0
ARC
  5
A5F8
330
A353
100
AcDbEntity
  8
1
  6
Continuous
100
AcDbCircle
 10
279.495548
 20
207.7539439999999
 30
0.0
 40
1.195896999999998
100
AcDbArc
 50
358.4503999999999
 51
36.614471
  0
ARC
  5
A5F9
330
A353
100
AcDbEntity
  8
1
  6
Continuous
100
AcDbCircle
 10
307.7525089999999
 20
210.0128329999999
 30
0.0
 40
4.217937
100
AcDbArc
 50
312.9280819999999
 51
338.5037389999999
  0
LINE
  5
A5FA
330
A353
100
AcDbEntity
  8
1
  6
Continuous
100
AcDbLine
 10
280.5120559999999
 20
208.353936
 30
0.0
 11
311.630531
 21
208.353936
 31
0.0
  0
LINE
  5
A5FB
330
A353
100
AcDbEntity
  8
1
  6
Continuous
100
AcDbLine
 10
308.232722
 20
205.639267
 30
0.0
 11
283.7521609999999
 21
205.639267
 31
0.0
  0
ARC
  5
A5FC
330
A353
100
AcDbEntity
  8
1
  6
Continuous
100
AcDbCircle
 10
395.51006
 20
210.84647
 30
0.0
 40
5.356411999999998
100
AcDbArc
 50
227.0719179999999
 51
256.4430649999998
  0
ARC
  5
A5FD
330
A353
100
AcDbEntity
  8
1
  6
Continuous
100
AcDbCircle
 10
394.7346679999998
 20
210.012868
 30
0.0
 40
4.217937
100
AcDbArc
 50
212.9024809999999
 51
227.0719179999999
  0
ARC
  5
A5FE
330
A353
100
AcDbEntity
  8
1
  6
Continuous
100
AcDbCircle
 10
389.9978429999999
 20
207.7539789999999
 30
0.0
 40
1.195896999999998
100
AcDbArc
 50
358.4503999999999
 51
33.48697399999998
  0
ARC
  5
A5FF
330
A353
100
AcDbEntity
  8
1
  6
Continuous
100
AcDbCircle
 10
393.4947359999999
 20
208.666524
 30
0.0
 40
2.5
100
AcDbArc
 50
185.8266419999999
 51
187.18198
  0
LINE
  5
A600
330
A353
100
AcDbEntity
  8
1
  6
Continuous
100
AcDbLine
 10
394.2544559999999
 20
205.6393019999999
 30
0.0
 11
398.2761479999999
 21
205.6393019999999
 31
0.0
  0
ARC
  5
A601
330
A353
100
AcDbEntity
  8
1
  6
Continuous
100
AcDbCircle
 10
185.490146
 20
68.81031800000001
 30
0.0
 40
15.0
100
AcDbArc
 50
236.44269
 51
123.55731
  0
LINE
  5
A602
330
A353
100
AcDbEntity
  8
4
  6
CENTER
100
AcDbLine
 10
160.490146
 20
268.578617
 30
0.0
 11
160.490146
 21
329.525192
 31
0.0
  0
ENDSEC
  0
SECTION
  2
OBJECTS
  0
DICTIONARY
  5
A341
330
0
100
AcDbDictionary
281
     1
  3
ACAD_CIP_PREVIOUS_PRODUCT_INFO
350
A664
  3
ACAD_COLOR
350
A646
  3
ACAD_DETAILVIEWSTYLE
350
A65F
  3
ACAD_GROUP
350
A342
  3
ACAD_LAYOUT
350
A34E
  3
ACAD_MATERIAL
350
A614
  3
ACAD_MLEADERSTYLE
350
A65B
  3
ACAD_MLINESTYLE
350
A34B
  3
ACAD_PLOTSETTINGS
350
A34D
  3
ACAD_PLOTSTYLENAME
350
A612
  3
ACAD_SCALELIST
350
A649
  3
ACAD_SECTIONVIEWSTYLE
350
A65D
  3
ACAD_TABLESTYLE
350
A647
  3
ACAD_VISUALSTYLE
350
A62D
  3
ACDB_RECOMPOSE_DATA
350
A682
  3
AcDbVariableDictionary
350
A675
  3
DWGPROPS
350
A683
  0
DICTIONARY
  5
A665
330
A345
100
AcDbDictionary
280
     1
281
     1
  3
ADSK_XREC_LAYER_RECONCILED
360
A666
  0
DICTIONARY
  5
A667
330
A35B
100
AcDbDictionary
280
     1
281
     1
  3
ADSK_XREC_LAYER_RECONCILED
360
A668
  0
DICTIONARY
  5
A669
330
A35C
100
AcDbDictionary
280
     1
281
     1
  3
ADSK_XREC_LAYER_RECONCILED
360
A66A
  0
DICTIONARY
  5
A66B
330
A35D
100
AcDbDictionary
280
     1
281
     1
  3
ADSK_XREC_LAYER_RECONCILED
360
A66C
  0
DICTIONARY
  5
A66D
330
A35E
100
AcDbDictionary
280
     1
281
     1
  3
ADSK_XREC_LAYER_RECONCILED
360
A66E
  0
DICTIONARY
  5
A66F
330
A35F
100
AcDbDictionary
280
     1
281
     1
  3
ADSK_XREC_LAYER_RECONCILED
360
A670
  0
DICTIONARY
  5
A671
330
A360
100
AcDbDictionary
280
     1
281
     1
  3
ADSK_XREC_LAYER_RECONCILED
360
A672
  0
DICTIONARY
  5
A673
330
A361
100
AcDbDictionary
280
     1
281
     1
  3
ADSK_XREC_LAYER_RECONCILED
360
A674
  0
DICTIONARY
  5
A60D
330
A353
100
AcDbDictionary
281
     1
  3
ACAD_LAYOUTSELFREF
350
A60E
  0
DICTIONARY
  5
A60B
330
A34F
100
AcDbDictionary
281
     1
  3
ACAD_LAYOUTSELFREF
350
A60C
  0
XRECORD
  5
A664
102
{ACAD_REACTORS
330
A341
102
}
330
A341
100
AcDbXrecord
280
     1
300
ACDLT
300
2014
300
ACDLT_F_S
  0
DICTIONARY
  5
A646
102
{ACAD_REACTORS
330
A341
102
}
330
A341
100
AcDbDictionary
281
     1
  0
DICTIONARY
  5
A65F
102
{ACAD_REACTORS
330
A341
102
}
330
A341
100
AcDbDictionary
281
     1
  3
Imperial24
350
A660
  0
DICTIONARY
  5
A342
102
{ACAD_REACTORS
330
A341
102
}
330
A341
100
AcDbDictionary
281
     1
  0
DICTIONARY
  5
A34E
102
{ACAD_REACTORS
330
A341
102
}
330
A341
100
AcDbDictionary
281
     1
  3
Model
350
A661
  3
レイアウト1
350
A662
  0
DICTIONARY
  5
A614
102
{ACAD_REACTORS
330
A341
102
}
330
A341
100
AcDbDictionary
281
     1
  3
ByBlock
350
A61D
  3
ByLayer
350
A615
  3
Global
350
A625
  0
DICTIONARY
  5
A65B
102
{ACAD_REACTORS
330
A341
102
}
330
A341
100
AcDbDictionary
281
     1
  3
Standard
350
A65C
  0
DICTIONARY
  5
A34B
102
{ACAD_REACTORS
330
A341
102
}
330
A341
100
AcDbDictionary
281
     1
  3
STANDARD
350
A34C
  0
DICTIONARY
  5
A34D
102
{ACAD_REACTORS
330
A341
102
}
330
A341
100
AcDbDictionary
281
     1
  0
ACDBDICTIONARYWDFLT
  5
A612
102
{ACAD_REACTORS
330
A341
102
}
330
A341
100
AcDbDictionary
281
     1
  3
Normal
350
A613
100
AcDbDictionaryWithDefault
340
A613
  0
DICTIONARY
  5
A649
102
{ACAD_REACTORS
330
A341
102
}
330
A341
100
AcDbDictionary
281
     1
  3
A0
350
A64A
  3
A1
350
A64B
  3
A2
350
A64C
  3
A3
350
A64D
  3
A4
350
A64E
  3
A5
350
A64F
  3
A6
350
A650
  3
A7
350
A651
  3
A8
350
A652
  3
A9
350
A653
  3
B0
350
A654
  3
B1
350
A655
  3
B2
350
A656
  3
B3
350
A657
  3
B4
350
A658
  3
B5
350
A659
  3
B6
350
A65A
  0
DICTIONARY
  5
A65D
102
{ACAD_REACTORS
330
A341
102
}
330
A341
100
AcDbDictionary
281
     1
  3
Imperial24
350
A65E
  0
DICTIONARY
  5
A647
102
{ACAD_REACTORS
330
A341
102
}
330
A341
100
AcDbDictionary
281
     1
  3
Standard
350
A648
  0
DICTIONARY
  5
A62D
102
{ACAD_REACTORS
330
A341
102
}
330
A341
100
AcDbDictionary
281
     1
  3
2dWireframe
350
A633
  3
Basic
350
A632
  3
Brighten
350
A639
  3
ColorChange
350
A63D
  3
Conceptual
350
A636
  3
Dim
350
A638
  3
EdgeColorOff
350
A645
  3
Facepattern
350
A63C
  3
Flat
350
A62E
  3
FlatWithEdges
350
A62F
  3
Gouraud
350
A630
  3
GouraudWithEdges
350
A631
  3
Hidden
350
A635
  3
JitterOff
350
A643
  3
Linepattern
350
A63B
  3
OverhangOff
350
A644
  3
Realistic
350
A637
  3
Shaded
350
A642
  3
Shaded with edges
350
A641
  3
Shades of Gray
350
A63E
  3
Sketchy
350
A63F
  3
Thicken
350
A63A
  3
Wireframe
350
A634
  3
X-Ray
350
A640
  0
XRECORD
  5
A682
102
{ACAD_REACTORS
330
A341
102
}
330
A341
100
AcDbXrecord
280
     1
 90
        1
330
A648
  0
DICTIONARY
  5
A675
102
{ACAD_REACTORS
330
A341
102
}
330
A341
100
AcDbDictionary
281
     1
  3
CANNOSCALE
350
A67A
  3
CMLEADERSTYLE
350
A677
  3
CTABLESTYLE
350
A676
  3
CVIEWDETAILSTYLE
350
A678
  3
CVIEWSECTIONSTYLE
350
A679
  3
DIMASSOC
350
A67D
  3
INDEXCTL
350
A67C
  3
SORTENTS
350
A67B
  3
XCLIPFRAME
350
A67E
  0
XRECORD
  5
A683
102
{ACAD_REACTORS
330
A341
102
}
330
A341
100
AcDbXrecord
280
     1
  1
DWGPROPS COOKIE
  2

  3

  4

  6

  7

  8
Yoshitsune
  9

300
=
301
=
302
=
303
=
304
=
305
=
306
=
307
=
308
=
309
=
 40
0.0000103819444444
 41
2451301.440094213
 42
2457192.687013808
  1

 90
        0
  0
XRECORD
  5
A666
102
{ACAD_REACTORS
330
A665
102
}
330
A665
100
AcDbXrecord
280
     1
290
     1
  0
XRECORD
  5
A668
102
{ACAD_REACTORS
330
A667
102
}
330
A667
100
AcDbXrecord
280
     1
290
     1
  0
XRECORD
  5
A66A
102
{ACAD_REACTORS
330
A669
102
}
330
A669
100
AcDbXrecord
280
     1
290
     1
  0
XRECORD
  5
A66C
102
{ACAD_REACTORS
330
A66B
102
}
330
A66B
100
AcDbXrecord
280
     1
290
     1
  0
XRECORD
  5
A66E
102
{ACAD_REACTORS
330
A66D
102
}
330
A66D
100
AcDbXrecord
280
     1
290
     1
  0
XRECORD
  5
A670
102
{ACAD_REACTORS
330
A66F
102
}
330
A66F
100
AcDbXrecord
280
     1
290
     1
  0
XRECORD
  5
A672
102
{ACAD_REACTORS
330
A671
102
}
330
A671
100
AcDbXrecord
280
     1
290
     1
  0
XRECORD
  5
A674
102
{ACAD_REACTORS
330
A673
102
}
330
A673
100
AcDbXrecord
280
     1
290
     1
  0
XRECORD
  5
A60E
102
{ACAD_REACTORS
330
A60D
102
}
330
A60D
100
AcDbXrecord
280
     1
340
A353
  0
XRECORD
  5
A60C
102
{ACAD_REACTORS
330
A60B
102
}
330
A60B
100
AcDbXrecord
280
     1
340
A34F
  0
ACDBDETAILVIEWSTYLE
  5
A660
102
{ACAD_XDICTIONARY
360
A6BB
102
}
102
{ACAD_REACTORS
330
A65F
102
}
330
A65F
100
AcDbModelDocViewStyle
 70
     0
  3
Imperial24
290
     0
100
AcDbDetailViewStyle
 70
     0
 71
     0
 90
        3
 71
     1
340
A346
 40
0.24
340
0
 40
0.24
300

 40
0.36
280
     3
 71
     2
340
A34A
 90
       25
 71
     3
340
A346
 40
0.24
 90
        1
 40
0.75
 90
        1
300
%<\AcVar ViewType \f "%tc1">% %<\AcVar ViewDetailId>%\PSCALE %<\AcVar ViewScale \f "%sn">%
 71
     4
340
A34A
 90
       25
340
A34A
 90
       25
280
     0
  0
LAYOUT
  5
A661
102
{ACAD_XDICTIONARY
360
A6BD
102
}
102
{ACAD_REACTORS
330
A34E
102
}
330
A34E
100
AcDbPlotSettings
  1

  2
Canon LBP9100C
  4

  6

 40
0.0
 41
0.0
 42
0.0
 43
0.0
 44
0.0
 45
0.0
 46
0.0
 47
0.0
 48
0.0
 49
0.0
140
0.0
141
0.0
142
1.0
143
1.0
 70
  1712
 72
     0
 73
     0
 74
     0
  7

 75
     0
147
1.0
148
0.0
149
0.0
100
AcDbLayout
  1
Model
 70
     1
 71
     0
 10
0.0
 20
0.0
 11
12.0
 21
9.0
 12
0.0
 22
0.0
 32
0.0
 14
0.0
 24
0.0
 34
0.0
 15
0.0
 25
0.0
 35
0.0
146
0.0
 13
0.0
 23
0.0
 33
0.0
 16
1.0
 26
0.0
 36
0.0
 17
0.0
 27
1.0
 37
0.0
 76
     0
330
A353
331
A60A
  0
LAYOUT
  5
A662
102
{ACAD_XDICTIONARY
360
A6BF
102
}
102
{ACAD_REACTORS
330
A34E
102
}
330
A34E
100
AcDbPlotSettings
  1

  2
Canon LBP9100C
  4

  6

 40
0.0
 41
0.0
 42
0.0
 43
0.0
 44
0.0
 45
0.0
 46
0.0
 47
0.0
 48
0.0
 49
0.0
140
0.0
141
0.0
142
1.0
143
1.0
 70
   688
 72
     0
 73
     0
 74
     5
  7

 75
    16
147
1.0
148
0.0
149
0.0
100
AcDbLayout
  1
レイアウト1
 70
     0
 71
     1
 10
0.0
 20
0.0
 11
420.0
 21
297.0
 12
0.0
 22
0.0
 32
0.0
 14
1.000000000000000E+20
 24
1.000000000000000E+20
 34
1.000000000000000E+20
 15
-1.000000000000000E+20
 25
-1.000000000000000E+20
 35
-1.000000000000000E+20
146
0.0
 13
0.0
 23
0.0
 33
0.0
 16
1.0
 26
0.0
 36
0.0
 17
0.0
 27
1.0
 37
0.0
 76
     0
330
A34F
  0
MATERIAL
  5
A61D
102
{ACAD_XDICTIONARY
360
A61E
102
}
102
{ACAD_REACTORS
330
A614
102
}
330
A614
100
AcDbMaterial
  1
ByBlock
 72
     0
 43
0.0208333333333333
 43
0.0
 43
0.0
 43
0.0
 43
0.0
 43
0.0208333333333333
 43
0.0
 43
0.0
 43
0.0
 43
0.0
 43
1.0
 43
0.0
 43
0.0
 43
0.0
 43
0.0
 43
1.0
 77
     0
 47
0.0208333333333333
 47
0.0
 47
0.0
 47
0.0
 47
0.0
 47
0.0208333333333333
 47
0.0
 47
0.0
 47
0.0
 47
0.0
 47
1.0
 47
0.0
 47
0.0
 47
0.0
 47
0.0
 47
1.0
171
     0
 49
0.0208333333333333
 49
0.0
 49
0.0
 49
0.0
 49
0.0
 49
0.0208333333333333
 49
0.0
 49
0.0
 49
0.0
 49
0.0
 49
1.0
 49
0.0
 49
0.0
 49
0.0
 49
0.0
 49
1.0
175
     0
142
0.0208333333333333
142
0.0
142
0.0
142
0.0
142
0.0
142
0.0208333333333333
142
0.0
142
0.0
142
0.0
142
0.0
142
1.0
142
0.0
142
0.0
142
0.0
142
0.0
142
1.0
179
     0
144
0.0208333333333333
144
0.0
144
0.0
144
0.0
144
0.0
144
0.0208333333333333
144
0.0
144
0.0
144
0.0
144
0.0
144
1.0
144
0.0
144
0.0
144
0.0
144
0.0
144
1.0
147
0.0208333333333333
147
0.0
147
0.0
147
0.0
147
0.0
147
0.0208333333333333
147
0.0
147
0.0
147
0.0
147
0.0
147
1.0
147
0.0
147
0.0
147
0.0
147
0.0
147
1.0
  0
MATERIAL
  5
A615
102
{ACAD_XDICTIONARY
360
A616
102
}
102
{ACAD_REACTORS
330
A614
102
}
330
A614
100
AcDbMaterial
  1
ByLayer
 72
     0
 43
0.0208333333333333
 43
0.0
 43
0.0
 43
0.0
 43
0.0
 43
0.0208333333333333
 43
0.0
 43
0.0
 43
0.0
 43
0.0
 43
1.0
 43
0.0
 43
0.0
 43
0.0
 43
0.0
 43
1.0
 77
     0
 47
0.0208333333333333
 47
0.0
 47
0.0
 47
0.0
 47
0.0
 47
0.0208333333333333
 47
0.0
 47
0.0
 47
0.0
 47
0.0
 47
1.0
 47
0.0
 47
0.0
 47
0.0
 47
0.0
 47
1.0
171
     0
 49
0.0208333333333333
 49
0.0
 49
0.0
 49
0.0
 49
0.0
 49
0.0208333333333333
 49
0.0
 49
0.0
 49
0.0
 49
0.0
 49
1.0
 49
0.0
 49
0.0
 49
0.0
 49
0.0
 49
1.0
175
     0
142
0.0208333333333333
142
0.0
142
0.0
142
0.0
142
0.0
142
0.0208333333333333
142
0.0
142
0.0
142
0.0
142
0.0
142
1.0
142
0.0
142
0.0
142
0.0
142
0.0
142
1.0
179
     0
144
0.0208333333333333
144
0.0
144
0.0
144
0.0
144
0.0
144
0.0208333333333333
144
0.0
144
0.0
144
0.0
144
0.0
144
1.0
144
0.0
144
0.0
144
0.0
144
0.0
144
1.0
147
0.0208333333333333
147
0.0
147
0.0
147
0.0
147
0.0
147
0.0208333333333333
147
0.0
147
0.0
147
0.0
147
0.0
147
1.0
147
0.0
147
0.0
147
0.0
147
0.0
147
1.0
  0
MATERIAL
  5
A625
102
{ACAD_XDICTIONARY
360
A626
102
}
102
{ACAD_REACTORS
330
A614
102
}
330
A614
100
AcDbMaterial
  1
Global
 72
     0
 43
0.0208333333333333
 43
0.0
 43
0.0
 43
0.0
 43
0.0
 43
0.0208333333333333
 43
0.0
 43
0.0
 43
0.0
 43
0.0
 43
1.0
 43
0.0
 43
0.0
 43
0.0
 43
0.0
 43
1.0
 77
     0
 47
0.0208333333333333
 47
0.0
 47
0.0
 47
0.0
 47
0.0
 47
0.0208333333333333
 47
0.0
 47
0.0
 47
0.0
 47
0.0
 47
1.0
 47
0.0
 47
0.0
 47
0.0
 47
0.0
 47
1.0
171
     0
 49
0.0208333333333333
 49
0.0
 49
0.0
 49
0.0
 49
0.0
 49
0.0208333333333333
 49
0.0
 49
0.0
 49
0.0
 49
0.0
 49
1.0
 49
0.0
 49
0.0
 49
0.0
 49
0.0
 49
1.0
175
     0
142
0.0208333333333333
142
0.0
142
0.0
142
0.0
142
0.0
142
0.0208333333333333
142
0.0
142
0.0
142
0.0
142
0.0
142
1.0
142
0.0
142
0.0
142
0.0
142
0.0
142
1.0
179
     0
144
0.0208333333333333
144
0.0
144
0.0
144
0.0
144
0.0
144
0.0208333333333333
144
0.0
144
0.0
144
0.0
144
0.0
144
1.0
144
0.0
144
0.0
144
0.0
144
0.0
144
1.0
147
0.0208333333333333
147
0.0
147
0.0
147
0.0
147
0.0
147
0.0208333333333333
147
0.0
147
0.0
147
0.0
147
0.0
147
1.0
147
0.0
147
0.0
147
0.0
147
0.0
147
1.0
  0
MLEADERSTYLE
  5
A65C
102
{ACAD_REACTORS
330
A65B
102
}
330
A65B
100
AcDbMLeaderStyle
170
     2
171
     1
172
     0
 90
        2
 40
0.0
 41
0.0
173
     1
 91
-1056964608
340
A348
 92
       -2
290
     1
 42
0.09
291
     1
 43
0.36
  3
Standard
 44
0.18
300

342
A346
174
     1
178
     6
175
     1
176
     0
 93
-1056964608
 45
0.18
292
     0
297
     0
 46
0.18
 94
-1056964608
 47
1.0
 49
1.0
140
1.0
293
     1
141
0.0
294
     1
177
     0
142
1.0
295
     0
296
     0
143
0.125
1001
ACAD_MLEADERVER
1070
     2
  0
MLINESTYLE
  5
A34C
102
{ACAD_REACTORS
330
A34B
102
}
330
A34B
100
AcDbMlineStyle
  2
STANDARD
 70
     0
  3

 62
   256
 51
90.0
 52
90.0
 71
     2
 49
0.5
 62
   256
  6
BYLAYER
 49
-0.5
 62
   256
  6
BYLAYER
  0
ACDBPLACEHOLDER
  5
A613
102
{ACAD_REACTORS
330
A612
102
}
330
A612
  0
SCALE
  5
A64A
102
{ACAD_REACTORS
330
A649
102
}
330
A649
100
AcDbScale
 70
     0
300
1:1
140
1.0
141
1.0
290
     1
  0
SCALE
  5
A64B
102
{ACAD_REACTORS
330
A649
102
}
330
A649
100
AcDbScale
 70
     0
300
1/128" = 1'-0"
140
0.0078125
141
12.0
290
     0
  0
SCALE
  5
A64C
102
{ACAD_REACTORS
330
A649
102
}
330
A649
100
AcDbScale
 70
     0
300
1/64" = 1'-0"
140
0.015625
141
12.0
290
     0
  0
SCALE
  5
A64D
102
{ACAD_REACTORS
330
A649
102
}
330
A649
100
AcDbScale
 70
     0
300
1/32" = 1'-0"
140
0.03125
141
12.0
290
     0
  0
SCALE
  5
A64E
102
{ACAD_REACTORS
330
A649
102
}
330
A649
100
AcDbScale
 70
     0
300
1/16" = 1'-0"
140
0.0625
141
12.0
290
     0
  0
SCALE
  5
A64F
102
{ACAD_REACTORS
330
A649
102
}
330
A649
100
AcDbScale
 70
     0
300
3/32" = 1'-0"
140
0.09375
141
12.0
290
     0
  0
SCALE
  5
A650
102
{ACAD_REACTORS
330
A649
102
}
330
A649
100
AcDbScale
 70
     0
300
1/8" = 1'-0"
140
0.125
141
12.0
290
     0
  0
SCALE
  5
A651
102
{ACAD_REACTORS
330
A649
102
}
330
A649
100
AcDbScale
 70
     0
300
3/16" = 1'-0"
140
0.1875
141
12.0
290
     0
  0
SCALE
  5
A652
102
{ACAD_REACTORS
330
A649
102
}
330
A649
100
AcDbScale
 70
     0
300
1/4" = 1'-0"
140
0.25
141
12.0
290
     0
  0
SCALE
  5
A653
102
{ACAD_REACTORS
330
A649
102
}
330
A649
100
AcDbScale
 70
     0
300
3/8" = 1'-0"
140
0.375
141
12.0
290
     0
  0
SCALE
  5
A654
102
{ACAD_REACTORS
330
A649
102
}
330
A649
100
AcDbScale
 70
     0
300
1/2" = 1'-0"
140
0.5
141
12.0
290
     0
  0
SCALE
  5
A655
102
{ACAD_REACTORS
330
A649
102
}
330
A649
100
AcDbScale
 70
     0
300
3/4" = 1'-0"
140
0.75
141
12.0
290
     0
  0
SCALE
  5
A656
102
{ACAD_REACTORS
330
A649
102
}
330
A649
100
AcDbScale
 70
     0
300
1" = 1'-0"
140
1.0
141
12.0
290
     0
  0
SCALE
  5
A657
102
{ACAD_REACTORS
330
A649
102
}
330
A649
100
AcDbScale
 70
     0
300
1-1/2" = 1'-0"
140
1.5
141
12.0
290
     0
  0
SCALE
  5
A658
102
{ACAD_REACTORS
330
A649
102
}
330
A649
100
AcDbScale
 70
     0
300
3" = 1'-0"
140
3.0
141
12.0
290
     0
  0
SCALE
  5
A659
102
{ACAD_REACTORS
330
A649
102
}
330
A649
100
AcDbScale
 70
     0
300
6" = 1'-0"
140
6.0
141
12.0
290
     0
  0
SCALE
  5
A65A
102
{ACAD_REACTORS
330
A649
102
}
330
A649
100
AcDbScale
 70
     0
300
1'-0" = 1'-0"
140
12.0
141
12.0
290
     0
  0
ACDBSECTIONVIEWSTYLE
  5
A65E
102
{ACAD_XDICTIONARY
360
A6B9
102
}
102
{ACAD_REACTORS
330
A65D
102
}
330
A65D
100
AcDbModelDocViewStyle
 70
     0
  3
Imperial24
290
     0
100
AcDbSectionViewStyle
 70
     0
 71
     0
 90
       78
 71
     1
340
A346
 40
0.24
340
0
340
0
 40
0.24
300
I, O, Q, S, X, Z
 40
0.48
 90
        3
 40
0.18
 90
        1
 71
     2
340
A34A
 90
       25
340
A34A
 90
       50
 40
0.24
 40
0.0
 40
0.24
 71
     3
340
A346
 40
0.24
 90
        1
 40
0.75
 90
        1
300
%<\AcVar ViewType \f "%tc1">% %<\AcVar ViewSectionStartId>%-%<\AcVar ViewSectionEndId>%\PSCALE %<\AcVar ViewScale \f "%sn">%
 71
     4
300
ANSI31
 40
1.0
 90
        0
290
     0
290
     0
 90
        6
 40
0.0
 40
1.570796326794896
 40
0.2617993877991494
 40
1.308996938995747
 40
-0.2617993877991494
 40
1.832595714594046
  0
TABLESTYLE
  5
A648
102
{ACAD_XDICTIONARY
360
A680
102
}
102
{ACAD_REACTORS
330
A647
102
}
330
A647
100
AcDbTableStyle
  3
Standard
 70
     0
 71
     0
 40
0.06
 41
0.06
280
     0
281
     0
  7
STANDARD
140
0.18
170
     2
 62
     0
 63
     7
283
     0
274
    -2
284
     1
 64
     0
275
    -2
285
     1
 65
     0
276
    -2
286
     1
 66
     0
277
    -2
287
     1
 67
     0
278
    -2
288
     1
 68
     0
279
    -2
289
     1
 69
     0
  7
STANDARD
140
0.25
170
     5
 62
     0
 63
     7
283
     0
274
    -2
284
     1
 64
     0
275
    -2
285
     1
 65
     0
276
    -2
286
     1
 66
     0
277
    -2
287
     1
 67
     0
278
    -2
288
     1
 68
     0
279
    -2
289
     1
 69
     0
  7
STANDARD
140
0.18
170
     5
 62
     0
 63
     7
283
     0
274
    -2
284
     1
 64
     0
275
    -2
285
     1
 65
     0
276
    -2
286
     1
 66
     0
277
    -2
287
     1
 67
     0
278
    -2
288
     1
 68
     0
279
    -2
289
     1
 69
     0
  0
VISUALSTYLE
  5
A633
102
{ACAD_XDICTIONARY
360
A691
102
}
102
{ACAD_REACTORS
330
A62D
102
}
330
A62D
100
AcDbVisualStyle
  2
2dWireframe
 70
     4
 71
     0
 72
     2
 73
     0
 90
        0
 40
-0.6
 41
-30.0
 62
     5
 63
     7
 74
     1
 91
        4
 64
     7
 65
   257
 75
     1
175
     1
 42
1.0
 92
        0
 66
   257
 43
1.0
 76
     1
 77
     6
 78
     2
 67
     7
 79
     5
170
     0
171
     0
290
     0
174
     0
 93
        1
 44
0.0
173
     0
291
     0
 45
0.0
1001
ACAD
1000
AcDbSavedByObjectVersion
1070
     0
  0
VISUALSTYLE
  5
A632
102
{ACAD_XDICTIONARY
360
A68F
102
}
102
{ACAD_REACTORS
330
A62D
102
}
330
A62D
100
AcDbVisualStyle
  2
Basic
 70
     7
 71
     1
 72
     0
 73
     1
 90
        0
 40
-0.6
 41
-30.0
 62
     5
 63
     7
 74
     0
 91
        4
 64
     7
 65
   257
 75
     1
175
     1
 42
1.0
 92
        8
 66
     7
 43
1.0
 76
     1
 77
     6
 78
     2
 67
     7
 79
     5
170
     0
171
     0
290
     0
174
     0
 93
        1
 44
0.0
173
     0
291
     1
 45
0.0
1001
ACAD
1000
AcDbSavedByObjectVersion
1070
     0
  0
VISUALSTYLE
  5
A639
102
{ACAD_XDICTIONARY
360
A69D
102
}
102
{ACAD_REACTORS
330
A62D
102
}
330
A62D
100
AcDbVisualStyle
  2
Brighten
 70
    12
 71
     2
 72
     2
 73
     0
 90
        0
 40
-0.6
 41
-30.0
 62
     5
 63
     7
 74
     1
 91
        4
 64
     7
 65
   257
 75
     1
175
     1
 42
1.0
 92
        8
 66
     7
 43
1.0
 76
     1
 77
     6
 78
     2
 67
     7
 79
     5
170
     0
171
     0
290
     0
174
     0
 93
        1
 44
50.0
173
     0
291
     1
 45
0.0
1001
ACAD
1000
AcDbSavedByObjectVersion
1070
     0
  0
VISUALSTYLE
  5
A63D
102
{ACAD_XDICTIONARY
360
A6A5
102
}
102
{ACAD_REACTORS
330
A62D
102
}
330
A62D
100
AcDbVisualStyle
  2
ColorChange
 70
    16
 71
     2
 72
     2
 73
     3
 90
        0
 40
-0.6
 41
-30.0
 62
     5
 63
     8
 74
     1
 91
        4
 64
     7
 65
   257
 75
     1
175
     1
 42
1.0
 92
        8
 66
     8
 43
1.0
 76
     1
 77
     6
 78
     2
 67
     7
 79
     5
170
     0
171
     0
290
     0
174
     0
 93
        1
 44
0.0
173
     0
291
     1
 45
0.0
1001
ACAD
1000
AcDbSavedByObjectVersion
1070
     0
  0
VISUALSTYLE
  5
A636
102
{ACAD_XDICTIONARY
360
A697
102
}
102
{ACAD_REACTORS
330
A62D
102
}
330
A62D
100
AcDbVisualStyle
  2
Conceptual
 70
     9
 71
     3
 72
     2
 73
     0
 90
        0
 40
-0.6
 41
-30.0
 62
     5
 63
     7
 74
     2
 91
        2
 64
     7
 65
   257
 75
     1
175
     1
 42
179.0
 92
        8
 66
     7
 43
1.0
 76
     1
 77
     6
 78
     2
 67
     7
 79
     3
170
     0
171
     0
290
     0
174
     0
 93
        1
 44
0.0
173
     0
291
     0
 45
0.0
1001
ACAD
1000
AcDbSavedByObjectVersion
1070
     0
  0
VISUALSTYLE
  5
A638
102
{ACAD_XDICTIONARY
360
A69B
102
}
102
{ACAD_REACTORS
330
A62D
102
}
330
A62D
100
AcDbVisualStyle
  2
Dim
 70
    11
 71
     2
 72
     2
 73
     0
 90
        0
 40
-0.6
 41
-30.0
 62
     5
 63
     7
 74
     1
 91
        4
 64
     7
 65
   257
 75
     1
175
     1
 42
1.0
 92
        8
 66
     7
 43
1.0
 76
     1
 77
     6
 78
     2
 67
     7
 79
     5
170
     0
171
     0
290
     0
174
     0
 93
        1
 44
-50.0
173
     0
291
     1
 45
0.0
1001
ACAD
1000
AcDbSavedByObjectVersion
1070
     0
  0
VISUALSTYLE
  5
A645
102
{ACAD_XDICTIONARY
360
A6B5
102
}
102
{ACAD_REACTORS
330
A62D
102
}
330
A62D
100
AcDbVisualStyle
  2
EdgeColorOff
 70
    22
 71
     2
 72
     2
 73
     0
 90
        0
 40
-0.6
 41
-30.0
 62
     5
 63
     7
 74
     1
 91
        4
 64
     7
 65
   257
 75
     1
175
     1
 42
1.0
 92
        8
 66
     7
 43
1.0
 76
     1
 77
     6
 78
     2
 67
     7
 79
     5
170
     0
171
     0
290
     0
174
     0
 93
        1
 44
0.0
173
     0
291
     1
 45
0.0
1001
ACAD
1000
AcDbSavedByObjectVersion
1070
     0
  0
VISUALSTYLE
  5
A63C
102
{ACAD_XDICTIONARY
360
A6A3
102
}
102
{ACAD_REACTORS
330
A62D
102
}
330
A62D
100
AcDbVisualStyle
  2
Facepattern
 70
    15
 71
     2
 72
     2
 73
     0
 90
        0
 40
-0.6
 41
-30.0
 62
     5
 63
     7
 74
     1
 91
        4
 64
     7
 65
   257
 75
     1
175
     1
 42
1.0
 92
        8
 66
     7
 43
1.0
 76
     1
 77
     6
 78
     2
 67
     7
 79
     5
170
     0
171
     0
290
     0
174
     0
 93
        1
 44
0.0
173
     0
291
     1
 45
0.0
1001
ACAD
1000
AcDbSavedByObjectVersion
1070
     0
  0
VISUALSTYLE
  5
A62E
102
{ACAD_XDICTIONARY
360
A687
102
}
102
{ACAD_REACTORS
330
A62D
102
}
330
A62D
100
AcDbVisualStyle
  2
Flat
 70
     0
 71
     2
 72
     1
 73
     1
 90
        2
 40
-0.6
 41
30.0
 62
     5
 63
     7
 74
     0
 91
        0
 64
     7
 65
   257
 75
     1
175
     1
 42
1.0
 92
        8
 66
     7
 43
1.0
 76
     1
 77
     6
 78
     2
 67
     7
 79
     5
170
     0
171
     0
290
     0
174
     0
 93
       13
 44
0.0
173
     0
291
     1
 45
0.0
1001
ACAD
1000
AcDbSavedByObjectVersion
1070
     0
  0
VISUALSTYLE
  5
A62F
102
{ACAD_XDICTIONARY
360
A689
102
}
102
{ACAD_REACTORS
330
A62D
102
}
330
A62D
100
AcDbVisualStyle
  2
FlatWithEdges
 70
     1
 71
     2
 72
     1
 73
     1
 90
        2
 40
-0.6
 41
30.0
 62
     5
 63
     7
 74
     1
 91
        0
 64
     7
 65
   257
 75
     1
175
     1
 42
1.0
 92
        0
 66
   257
 43
1.0
 76
     1
 77
     6
 78
     2
 67
     7
 79
     5
170
     0
171
     0
290
     0
174
     0
 93
       13
 44
0.0
173
     0
291
     1
 45
0.0
1001
ACAD
1000
AcDbSavedByObjectVersion
1070
     0
  0
VISUALSTYLE
  5
A630
102
{ACAD_XDICTIONARY
360
A68B
102
}
102
{ACAD_REACTORS
330
A62D
102
}
330
A62D
100
AcDbVisualStyle
  2
Gouraud
 70
     2
 71
     2
 72
     2
 73
     1
 90
        2
 40
-0.6
 41
30.0
 62
     5
 63
     7
 74
     0
 91
        0
 64
     7
 65
   257
 75
     1
175
     1
 42
1.0
 92
        0
 66
     7
 43
1.0
 76
     1
 77
     6
 78
     2
 67
     7
 79
     5
170
     0
171
     0
290
     0
174
     0
 93
       13
 44
0.0
173
     0
291
     1
 45
0.0
1001
ACAD
1000
AcDbSavedByObjectVersion
1070
     0
  0
VISUALSTYLE
  5
A631
102
{ACAD_XDICTIONARY
360
A68D
102
}
102
{ACAD_REACTORS
330
A62D
102
}
330
A62D
100
AcDbVisualStyle
  2
GouraudWithEdges
 70
     3
 71
     2
 72
     2
 73
     1
 90
        2
 40
-0.6
 41
30.0
 62
     5
 63
     7
 74
     1
 91
        0
 64
     7
 65
   257
 75
     1
175
     1
 42
1.0
 92
        0
 66
   257
 43
1.0
 76
     1
 77
     6
 78
     2
 67
     7
 79
     5
170
     0
171
     0
290
     0
174
     0
 93
       13
 44
0.0
173
     0
291
     1
 45
0.0
1001
ACAD
1000
AcDbSavedByObjectVersion
1070
     0
  0
VISUALSTYLE
  5
A635
102
{ACAD_XDICTIONARY
360
A695
102
}
102
{ACAD_REACTORS
330
A62D
102
}
330
A62D
100
AcDbVisualStyle
  2
Hidden
 70
     6
 71
     1
 72
     2
 73
     2
 90
        0
 40
-0.6
 41
-30.0
 62
     5
 63
     7
 74
     2
 91
        2
 64
     7
 65
   257
 75
     2
175
     1
 42
40.0
 92
        0
 66
   257
 43
1.0
 76
     1
 77
     6
 78
     2
 67
     7
 79
     3
170
     0
171
     0
290
     0
174
     0
 93
        1
 44
0.0
173
     0
291
     0
 45
0.0
1001
ACAD
1000
AcDbSavedByObjectVersion
1070
     0
  0
VISUALSTYLE
  5
A643
102
{ACAD_XDICTIONARY
360
A6B1
102
}
102
{ACAD_REACTORS
330
A62D
102
}
330
A62D
100
AcDbVisualStyle
  2
JitterOff
 70
    20
 71
     2
 72
     2
 73
     0
 90
        0
 40
-0.6
 41
-30.0
 62
     5
 63
     7
 74
     1
 91
        4
 64
     7
 65
   257
 75
     1
175
     1
 42
1.0
 92
       10
 66
     7
 43
1.0
 76
     1
 77
     6
 78
     2
 67
     7
 79
     5
170
     0
171
     0
290
     0
174
     0
 93
        1
 44
0.0
173
     0
291
     1
 45
0.0
1001
ACAD
1000
AcDbSavedByObjectVersion
1070
     0
  0
VISUALSTYLE
  5
A63B
102
{ACAD_XDICTIONARY
360
A6A1
102
}
102
{ACAD_REACTORS
330
A62D
102
}
330
A62D
100
AcDbVisualStyle
  2
Linepattern
 70
    14
 71
     2
 72
     2
 73
     0
 90
        0
 40
-0.6
 41
-30.0
 62
     5
 63
     7
 74
     1
 91
        4
 64
     7
 65
   257
 75
     7
175
     7
 42
1.0
 92
        8
 66
     7
 43
1.0
 76
     1
 77
     6
 78
     2
 67
     7
 79
     5
170
     0
171
     0
290
     0
174
     0
 93
        1
 44
0.0
173
     0
291
     1
 45
0.0
1001
ACAD
1000
AcDbSavedByObjectVersion
1070
     0
  0
VISUALSTYLE
  5
A644
102
{ACAD_XDICTIONARY
360
A6B3
102
}
102
{ACAD_REACTORS
330
A62D
102
}
330
A62D
100
AcDbVisualStyle
  2
OverhangOff
 70
    21
 71
     2
 72
     2
 73
     0
 90
        0
 40
-0.6
 41
-30.0
 62
     5
 63
     7
 74
     1
 91
        4
 64
     7
 65
   257
 75
     1
175
     1
 42
1.0
 92
        9
 66
     7
 43
1.0
 76
     1
 77
     6
 78
     2
 67
     7
 79
     5
170
     0
171
     0
290
     0
174
     0
 93
        1
 44
0.0
173
     0
291
     1
 45
0.0
1001
ACAD
1000
AcDbSavedByObjectVersion
1070
     0
  0
VISUALSTYLE
  5
A637
102
{ACAD_XDICTIONARY
360
A699
102
}
102
{ACAD_REACTORS
330
A62D
102
}
330
A62D
100
AcDbVisualStyle
  2
Realistic
 70
     8
 71
     2
 72
     3
 73
     0
 90
        2
 40
-0.6
 41
30.0
 62
     5
 63
     7
 74
     0
 91
        0
 64
     7
 65
   257
 75
     1
175
     1
 42
1.0
 92
        8
 66
   257
 43
1.0
 76
     1
 77
     6
 78
     2
 67
     7
 79
     3
170
     0
171
     0
290
     0
174
     0
 93
       13
 44
0.0
173
     0
291
     0
 45
0.0
1001
ACAD
1000
AcDbSavedByObjectVersion
1070
     0
  0
VISUALSTYLE
  5
A642
102
{ACAD_XDICTIONARY
360
A6AF
102
}
102
{ACAD_REACTORS
330
A62D
102
}
330
A62D
100
AcDbVisualStyle
  2
Shaded
 70
    27
 71
     2
 72
     2
 73
     1
 90
        2
 40
-0.6
 41
30.0
 62
     5
 63
     7
 74
     0
 91
        4
 64
     7
 65
   257
 75
     1
175
     1
 42
1.0
 92
        8
 66
   257
 43
1.0
 76
     1
 77
     6
 78
     2
 67
     8
 79
     3
170
     0
171
     0
290
     0
174
     0
 93
        5
 44
0.0
173
     0
291
     0
 45
0.0
1001
ACAD
1000
AcDbSavedByObjectVersion
1070
     0
  0
VISUALSTYLE
  5
A641
102
{ACAD_XDICTIONARY
360
A6AD
102
}
102
{ACAD_REACTORS
330
A62D
102
}
330
A62D
100
AcDbVisualStyle
  2
Shaded with edges
 70
    26
 71
     2
 72
     2
 73
     1
 90
        2
 40
-0.6
 41
30.0
 62
     5
 63
     7
 74
     1
 91
       10
 64
     7
 65
   257
 75
     2
175
     1
 42
1.0
 92
        8
 66
   257
 43
1.0
 76
     1
 77
     6
 78
     2
 67
     7
 79
     3
170
     0
171
     0
290
     0
174
     0
 93
        5
 44
0.0
173
     0
291
     0
 45
0.0
1001
ACAD
1000
AcDbSavedByObjectVersion
1070
     0
  0
VISUALSTYLE
  5
A63E
102
{ACAD_XDICTIONARY
360
A6A7
102
}
102
{ACAD_REACTORS
330
A62D
102
}
330
A62D
100
AcDbVisualStyle
  2
Shades of Gray
 70
    23
 71
     2
 72
     2
 73
     3
 90
        0
 40
-0.6
 41
-30.0
 62
     5
 63
     7
 74
     2
 91
        2
 64
     7
 65
     7
 75
     1
175
     1
 42
40.0
 92
        8
 66
     7
 43
1.0
 76
     1
 77
     6
 78
     2
 67
     7
 79
     3
170
     0
171
     0
290
     0
174
     0
 93
        1
 44
0.0
173
     0
291
     0
 45
0.0
1001
ACAD
1000
AcDbSavedByObjectVersion
1070
     0
  0
VISUALSTYLE
  5
A63F
102
{ACAD_XDICTIONARY
360
A6A9
102
}
102
{ACAD_REACTORS
330
A62D
102
}
330
A62D
100
AcDbVisualStyle
  2
Sketchy
 70
    24
 71
     1
 72
     2
 73
     2
 90
        0
 40
-0.6
 41
-30.0
 62
     5
 63
     7
 74
     2
 91
        2
 64
     7
 65
     7
 75
     1
175
     1
 42
40.0
 92
       11
 66
     7
 43
1.0
 76
     1
 77
     6
 78
     2
 67
     7
 79
     6
170
     0
171
     0
290
     0
174
     0
 93
        1
 44
0.0
173
     0
291
     0
 45
0.0
1001
ACAD
1000
AcDbSavedByObjectVersion
1070
     0
  0
VISUALSTYLE
  5
A63A
102
{ACAD_XDICTIONARY
360
A69F
102
}
102
{ACAD_REACTORS
330
A62D
102
}
330
A62D
100
AcDbVisualStyle
  2
Thicken
 70
    13
 71
     2
 72
     2
 73
     0
 90
        0
 40
-0.6
 41
-30.0
 62
     5
 63
     7
 74
     1
 91
        4
 64
     7
 65
   257
 75
     1
175
     1
 42
1.0
 92
       12
 66
     7
 43
1.0
 76
     1
 77
     6
 78
     2
 67
     7
 79
     5
170
     0
171
     0
290
     0
174
     0
 93
        1
 44
0.0
173
     0
291
     1
 45
0.0
1001
ACAD
1000
AcDbSavedByObjectVersion
1070
     0
  0
VISUALSTYLE
  5
A634
102
{ACAD_XDICTIONARY
360
A693
102
}
102
{ACAD_REACTORS
330
A62D
102
}
330
A62D
100
AcDbVisualStyle
  2
Wireframe
 70
     5
 71
     0
 72
     2
 73
     0
 90
        0
 40
-0.6
 41
-30.0
 62
     5
 63
     7
 74
     1
 91
        4
 64
     7
 65
   257
 75
     1
175
     1
 42
1.0
 92
        0
 66
   257
 43
1.0
 76
     1
 77
     6
 78
     2
 67
     7
 79
     3
170
     0
171
     0
290
     0
174
     0
 93
        1
 44
0.0
173
     0
291
     0
 45
0.0
1001
ACAD
1000
AcDbSavedByObjectVersion
1070
     0
  0
VISUALSTYLE
  5
A640
102
{ACAD_XDICTIONARY
360
A6AB
102
}
102
{ACAD_REACTORS
330
A62D
102
}
330
A62D
100
AcDbVisualStyle
  2
X-Ray
 70
    25
 71
     2
 72
     2
 73
     1
 90
        1
 40
0.5
 41
-30.0
 62
     5
 63
     7
 74
     1
 91
        0
 64
     7
 65
   257
 75
     1
175
     1
 42
1.0
 92
        8
 66
     7
 43
1.0
 76
     1
 77
     6
 78
     2
 67
     7
 79
     3
170
     0
171
     0
290
     0
174
     0
 93
       13
 44
0.0
173
     0
291
     0
 45
0.0
1001
ACAD
1000
AcDbSavedByObjectVersion
1070
     0
  0
DICTIONARYVAR
  5
A67A
102
{ACAD_REACTORS
330
A675
102
}
330
A675
100
DictionaryVariables
280
     0
  1
1:1
  0
DICTIONARYVAR
  5
A677
102
{ACAD_REACTORS
330
A675
102
}
330
A675
100
DictionaryVariables
280
     0
  1
STANDARD
  0
DICTIONARYVAR
  5
A676
102
{ACAD_REACTORS
330
A675
102
}
330
A675
100
DictionaryVariables
280
     0
  1
STANDARD
  0
DICTIONARYVAR
  5
A678
102
{ACAD_REACTORS
330
A675
102
}
330
A675
100
DictionaryVariables
280
     0
  1
Imperial24
  0
DICTIONARYVAR
  5
A679
102
{ACAD_REACTORS
330
A675
102
}
330
A675
100
DictionaryVariables
280
     0
  1
Imperial24
  0
DICTIONARYVAR
  5
A67D
102
{ACAD_REACTORS
330
A675
102
}
330
A675
100
DictionaryVariables
280
     0
  1
1
  0
DICTIONARYVAR
  5
A67C
102
{ACAD_REACTORS
330
A675
102
}
330
A675
100
DictionaryVariables
280
     0
  1
0
  0
DICTIONARYVAR
  5
A67B
102
{ACAD_REACTORS
330
A675
102
}
330
A675
100
DictionaryVariables
280
     0
  1
127
  0
DICTIONARYVAR
  5
A67E
102
{ACAD_REACTORS
330
A675
102
}
330
A675
100
DictionaryVariables
280
     0
  1
2
  0
DICTIONARY
  5
A6BB
330
A660
100
AcDbDictionary
280
     1
281
     1
  3
ACAD_XREC_ROUNDTRIP
360
A6BC
  0
DICTIONARY
  5
A6BD
330
A661
100
AcDbDictionary
280
     1
281
     1
  3
ACAD_XREC_ROUNDTRIP
360
A6BE
  0
DICTIONARY
  5
A6BF
330
A662
100
AcDbDictionary
280
     1
281
     1
  3
ACAD_XREC_ROUNDTRIP
360
A6C0
  0
DICTIONARY
  5
A61E
330
A61D
100
AcDbDictionary
280
     1
281
     1
  3
ACAD_XREC_ROUNDTRIP
360
A685
  3
BUMPTILE
360
A620
  3
DIFFUSETILE
360
A61F
  3
OPACITYTILE
360
A623
  3
REFLECTIONTILE
360
A622
  3
REFRACTIONTILE
360
A624
  3
SPECULARTILE
360
A621
  0
DICTIONARY
  5
A616
330
A615
100
AcDbDictionary
280
     1
281
     1
  3
ACAD_XREC_ROUNDTRIP
360
A684
  3
BUMPTILE
360
A618
  3
DIFFUSETILE
360
A617
  3
OPACITYTILE
360
A61B
  3
REFLECTIONTILE
360
A61A
  3
REFRACTIONTILE
360
A61C
  3
SPECULARTILE
360
A619
  0
DICTIONARY
  5
A626
330
A625
100
AcDbDictionary
280
     1
281
     1
  3
ACAD_XREC_ROUNDTRIP
360
A686
  3
BUMPTILE
360
A628
  3
DIFFUSETILE
360
A627
  3
OPACITYTILE
360
A62B
  3
REFLECTIONTILE
360
A62A
  3
REFRACTIONTILE
360
A62C
  3
SPECULARTILE
360
A629
  0
DICTIONARY
  5
A6B9
330
A65E
100
AcDbDictionary
280
     1
281
     1
  3
ACAD_XREC_ROUNDTRIP
360
A6BA
  0
DICTIONARY
  5
A680
330
A648
100
AcDbDictionary
280
     1
281
     1
  3
ACAD_ROUNDTRIP_2008_TABLESTYLE_CELLSTYLEMAP
360
A681
  3
ACAD_XREC_ROUNDTRIP
360
A6B7
  0
DICTIONARY
  5
A691
330
A633
100
AcDbDictionary
280
     1
281
     1
  3
ACAD_XREC_ROUNDTRIP
360
A692
  0
DICTIONARY
  5
A68F
330
A632
100
AcDbDictionary
280
     1
281
     1
  3
ACAD_XREC_ROUNDTRIP
360
A690
  0
DICTIONARY
  5
A69D
330
A639
100
AcDbDictionary
280
     1
281
     1
  3
ACAD_XREC_ROUNDTRIP
360
A69E
  0
DICTIONARY
  5
A6A5
330
A63D
100
AcDbDictionary
280
     1
281
     1
  3
ACAD_XREC_ROUNDTRIP
360
A6A6
  0
DICTIONARY
  5
A697
330
A636
100
AcDbDictionary
280
     1
281
     1
  3
ACAD_XREC_ROUNDTRIP
360
A698
  0
DICTIONARY
  5
A69B
330
A638
100
AcDbDictionary
280
     1
281
     1
  3
ACAD_XREC_ROUNDTRIP
360
A69C
  0
DICTIONARY
  5
A6B5
330
A645
100
AcDbDictionary
280
     1
281
     1
  3
ACAD_XREC_ROUNDTRIP
360
A6B6
  0
DICTIONARY
  5
A6A3
330
A63C
100
AcDbDictionary
280
     1
281
     1
  3
ACAD_XREC_ROUNDTRIP
360
A6A4
  0
DICTIONARY
  5
A687
330
A62E
100
AcDbDictionary
280
     1
281
     1
  3
ACAD_XREC_ROUNDTRIP
360
A688
  0
DICTIONARY
  5
A689
330
A62F
100
AcDbDictionary
280
     1
281
     1
  3
ACAD_XREC_ROUNDTRIP
360
A68A
  0
DICTIONARY
  5
A68B
330
A630
100
AcDbDictionary
280
     1
281
     1
  3
ACAD_XREC_ROUNDTRIP
360
A68C
  0
DICTIONARY
  5
A68D
330
A631
100
AcDbDictionary
280
     1
281
     1
  3
ACAD_XREC_ROUNDTRIP
360
A68E
  0
DICTIONARY
  5
A695
330
A635
100
AcDbDictionary
280
     1
281
     1
  3
ACAD_XREC_ROUNDTRIP
360
A696
  0
DICTIONARY
  5
A6B1
330
A643
100
AcDbDictionary
280
     1
281
     1
  3
ACAD_XREC_ROUNDTRIP
360
A6B2
  0
DICTIONARY
  5
A6A1
330
A63B
100
AcDbDictionary
280
     1
281
     1
  3
ACAD_XREC_ROUNDTRIP
360
A6A2
  0
DICTIONARY
  5
A6B3
330
A644
100
AcDbDictionary
280
     1
281
     1
  3
ACAD_XREC_ROUNDTRIP
360
A6B4
  0
DICTIONARY
  5
A699
330
A637
100
AcDbDictionary
280
     1
281
     1
  3
ACAD_XREC_ROUNDTRIP
360
A69A
  0
DICTIONARY
  5
A6AF
330
A642
100
AcDbDictionary
280
     1
281
     1
  3
ACAD_XREC_ROUNDTRIP
360
A6B0
  0
DICTIONARY
  5
A6AD
330
A641
100
AcDbDictionary
280
     1
281
     1
  3
ACAD_XREC_ROUNDTRIP
360
A6AE
  0
DICTIONARY
  5
A6A7
330
A63E
100
AcDbDictionary
280
     1
281
     1
  3
ACAD_XREC_ROUNDTRIP
360
A6A8
  0
DICTIONARY
  5
A6A9
330
A63F
100
AcDbDictionary
280
     1
281
     1
  3
ACAD_XREC_ROUNDTRIP
360
A6AA
  0
DICTIONARY
  5
A69F
330
A63A
100
AcDbDictionary
280
     1
281
     1
  3
ACAD_XREC_ROUNDTRIP
360
A6A0
  0
DICTIONARY
  5
A693
330
A634
100
AcDbDictionary
280
     1
281
     1
  3
ACAD_XREC_ROUNDTRIP
360
A694
  0
DICTIONARY
  5
A6AB
330
A640
100
AcDbDictionary
280
     1
281
     1
  3
ACAD_XREC_ROUNDTRIP
360
A6AC
  0
XRECORD
  5
A6BC
102
{ACAD_REACTORS
330
A6BB
102
}
330
A6BB
100
AcDbXrecord
280
     1
102
DISPLAYNAME
  1
Imperial24
102
FLAGS
 90
        0
  0
XRECORD
  5
A6BE
102
{ACAD_REACTORS
330
A6BD
102
}
330
A6BD
100
AcDbXrecord
280
     1
102
SHADEPLOT
 70
     0
102
SHADEPLOTRESLEVEL
 70
     2
102
SHADEPLOTCUSTOMDPI
 70
   300
  0
XRECORD
  5
A6C0
102
{ACAD_REACTORS
330
A6BF
102
}
330
A6BF
100
AcDbXrecord
280
     1
102
SHADEPLOT
 70
     0
102
SHADEPLOTRESLEVEL
 70
     2
102
SHADEPLOTCUSTOMDPI
 70
   300
  0
XRECORD
  5
A685
102
{ACAD_REACTORS
330
A61E
102
}
330
A61E
100
AcDbXrecord
280
     1
102
MATERIAL
148
0.0
149
0.0
149
0.0
 93
        0
 94
      127
282
     0
 72
     0
 77
     0
171
     0
175
     0
179
     0
273
     0
  0
XRECORD
  5
A620
102
{ACAD_REACTORS
330
A61E
102
}
330
A61E
100
AcDbXrecord
280
     1
270
     1
271
     1
  0
XRECORD
  5
A61F
102
{ACAD_REACTORS
330
A61E
102
}
330
A61E
100
AcDbXrecord
280
     1
270
     1
271
     1
  0
XRECORD
  5
A623
102
{ACAD_REACTORS
330
A61E
102
}
330
A61E
100
AcDbXrecord
280
     1
270
     1
271
     1
  0
XRECORD
  5
A622
102
{ACAD_REACTORS
330
A61E
102
}
330
A61E
100
AcDbXrecord
280
     1
270
     1
271
     1
  0
XRECORD
  5
A624
102
{ACAD_REACTORS
330
A61E
102
}
330
A61E
100
AcDbXrecord
280
     1
270
     1
271
     1
  0
XRECORD
  5
A621
102
{ACAD_REACTORS
330
A61E
102
}
330
A61E
100
AcDbXrecord
280
     1
270
     1
271
     1
  0
XRECORD
  5
A684
102
{ACAD_REACTORS
330
A616
102
}
330
A616
100
AcDbXrecord
280
     1
102
MATERIAL
148
0.0
149
0.0
149
0.0
 93
        0
 94
      127
282
     0
 72
     0
 77
     0
171
     0
175
     0
179
     0
273
     0
  0
XRECORD
  5
A618
102
{ACAD_REACTORS
330
A616
102
}
330
A616
100
AcDbXrecord
280
     1
270
     1
271
     1
  0
XRECORD
  5
A617
102
{ACAD_REACTORS
330
A616
102
}
330
A616
100
AcDbXrecord
280
     1
270
     1
271
     1
  0
XRECORD
  5
A61B
102
{ACAD_REACTORS
330
A616
102
}
330
A616
100
AcDbXrecord
280
     1
270
     1
271
     1
  0
XRECORD
  5
A61A
102
{ACAD_REACTORS
330
A616
102
}
330
A616
100
AcDbXrecord
280
     1
270
     1
271
     1
  0
XRECORD
  5
A61C
102
{ACAD_REACTORS
330
A616
102
}
330
A616
100
AcDbXrecord
280
     1
270
     1
271
     1
  0
XRECORD
  5
A619
102
{ACAD_REACTORS
330
A616
102
}
330
A616
100
AcDbXrecord
280
     1
270
     1
271
     1
  0
XRECORD
  5
A686
102
{ACAD_REACTORS
330
A626
102
}
330
A626
100
AcDbXrecord
280
     1
102
MATERIAL
148
0.0
149
0.0
149
0.0
 93
        0
 94
      127
282
     0
 72
     0
 77
     0
171
     0
175
     0
179
     0
273
     0
  0
XRECORD
  5
A628
102
{ACAD_REACTORS
330
A626
102
}
330
A626
100
AcDbXrecord
280
     1
270
     1
271
     1
  0
XRECORD
  5
A627
102
{ACAD_REACTORS
330
A626
102
}
330
A626
100
AcDbXrecord
280
     1
270
     1
271
     1
  0
XRECORD
  5
A62B
102
{ACAD_REACTORS
330
A626
102
}
330
A626
100
AcDbXrecord
280
     1
270
     1
271
     1
  0
XRECORD
  5
A62A
102
{ACAD_REACTORS
330
A626
102
}
330
A626
100
AcDbXrecord
280
     1
270
     1
271
     1
  0
XRECORD
  5
A62C
102
{ACAD_REACTORS
330
A626
102
}
330
A626
100
AcDbXrecord
280
     1
270
     1
271
     1
  0
XRECORD
  5
A629
102
{ACAD_REACTORS
330
A626
102
}
330
A626
100
AcDbXrecord
280
     1
270
     1
271
     1
  0
XRECORD
  5
A6BA
102
{ACAD_REACTORS
330
A6B9
102
}
330
A6B9
100
AcDbXrecord
280
     1
102
DISPLAYNAME
  1
Imperial24
102
FLAGS
 90
        0
  0
CELLSTYLEMAP
  5
A681
102
{ACAD_REACTORS
330
A680
102
}
330
A680
100
AcDbCellStyleMap
 90
        3
300
CELLSTYLE
  1
TABLEFORMAT_BEGIN
 90
        5
170
     1
 91
        0
 92
    32768
 62
   257
 93
        1
300
CONTENTFORMAT
  1
CONTENTFORMAT_BEGIN
 90
        0
 91
        0
 92
      512
 93
        0
300

 40
0.0
140
1.0
 94
        5
 62
     0
340
A346
144
0.25
309
CONTENTFORMAT_END
171
     0
 94
        0
309
TABLEFORMAT_END
  1
CELLSTYLE_BEGIN
 90
        1
 91
        1
300
_TITLE
309
CELLSTYLE_END
300
CELLSTYLE
  1
TABLEFORMAT_BEGIN
 90
        5
170
     1
 91
        0
 92
        0
 62
   257
 93
        1
300
CONTENTFORMAT
  1
CONTENTFORMAT_BEGIN
 90
        0
 91
        0
 92
      512
 93
        0
300

 40
0.0
140
1.0
 94
        5
 62
     0
340
A346
144
0.18
309
CONTENTFORMAT_END
171
     0
 94
        0
309
TABLEFORMAT_END
  1
CELLSTYLE_BEGIN
 90
        2
 91
        1
300
_HEADER
309
CELLSTYLE_END
300
CELLSTYLE
  1
TABLEFORMAT_BEGIN
 90
        5
170
     1
 91
        0
 92
        0
 62
   257
 93
        1
300
CONTENTFORMAT
  1
CONTENTFORMAT_BEGIN
 90
        0
 91
        0
 92
      512
 93
        0
300

 40
0.0
140
1.0
 94
        2
 62
     0
340
A346
144
0.18
309
CONTENTFORMAT_END
171
     0
 94
        0
309
TABLEFORMAT_END
  1
CELLSTYLE_BEGIN
 90
        3
 91
        2
300
_DATA
309
CELLSTYLE_END
  0
XRECORD
  5
A6B7
102
{ACAD_REACTORS
330
A680
102
}
330
A680
100
AcDbXrecord
280
     1
102
ACAD_ROUNDTRIP_PRE2007_TABLESTYLE
 90
      512
 91
        0
  1

 92
      512
 93
        0
  2

 94
      512
 95
        0
  3

  0
XRECORD
  5
A692
102
{ACAD_REACTORS
330
A691
102
}
330
A691
100
AcDbXrecord
280
     1
102
RTVSPost2010Prop28
280
     1
102
RTVSPost2010PropOp28
 70
     1
102
RTVSPost2010Prop29
280
     1
102
RTVSPost2010PropOp29
 70
     1
102
RTVSPost2010Prop30
280
     0
102
RTVSPost2010PropOp30
 70
     1
102
RTVSPost2010Prop31
280
     0
102
RTVSPost2010PropOp31
 70
     1
102
RTVSPost2010Prop32
280
     0
102
RTVSPost2010PropOp32
 70
     1
102
RTVSPost2010Prop33
280
     0
102
RTVSPost2010PropOp33
 70
     1
102
RTVSPost2010Prop34
280
     0
102
RTVSPost2010PropOp34
 70
     1
102
RTVSPost2010Prop35
280
     0
102
RTVSPost2010PropOp35
 70
     1
102
RTVSPost2010Prop36
280
     0
102
RTVSPost2010PropOp36
 70
     1
102
RTVSPost2010Prop37
 90
       50
102
RTVSPost2010PropOp37
 70
     1
102
RTVSPost2010Prop38
140
0.0
102
RTVSPost2010PropOp38
 70
     1
102
RTVSPost2010Prop39
140
1.0
102
RTVSPost2010PropOp39
 70
     1
102
RTVSPost2010Prop40
 90
        0
102
RTVSPost2010PropOp40
 70
     1
102
RTVSPost2010Prop41ColorIndex
 90
       18
102
RTVSPost2010Prop41ColorRGB
 90
        0
102
RTVSPost2010PropOp41
 70
     1
102
RTVSPost2010Prop42
 90
       50
102
RTVSPost2010PropOp42
 70
     1
102
RTVSPost2010Prop43
 90
        3
102
RTVSPost2010PropOp43
 70
     1
102
RTVSPost2010Prop44ColorIndex
 90
        5
102
RTVSPost2010Prop44ColorRGB
 90
      255
102
RTVSPost2010PropOp44
 70
     1
102
RTVSPost2010Prop45
280
     0
102
RTVSPost2010PropOp45
 70
     1
102
RTVSPost2010Prop46
 90
       50
102
RTVSPost2010PropOp46
 70
     1
102
RTVSPost2010Prop47
 90
       50
102
RTVSPost2010PropOp47
 70
     1
102
RTVSPost2010Prop48
 90
       50
102
RTVSPost2010PropOp48
 70
     1
102
RTVSPost2010Prop49
280
     0
102
RTVSPost2010PropOp49
 70
     1
102
RTVSPost2010Prop50
 90
       50
102
RTVSPost2010PropOp50
 70
     1
102
RTVSPost2010Prop51ColorIndex
 90
      256
102
RTVSPost2010Prop51ColorRGB
 90
-16777216
102
RTVSPost2010PropOp51
 70
     0
102
RTVSPost2010Prop52
140
1.0
102
RTVSPost2010PropOp52
 70
     0
102
RTVSPost2010Prop53
 90
        2
102
RTVSPost2010PropOp53
 70
     1
102
RTVSPost2010Prop54
  1
strokes_ogs.tif
102
RTVSPost2010PropOp54
 70
     1
102
RTVSPost2010Prop55
280
     0
102
RTVSPost2010PropOp55
 70
     1
102
RTVSPost2010Prop56
140
1.0
102
RTVSPost2010PropOp56
 70
     1
102
RTVSPost2010Prop57
140
1.0
102
RTVSPost2010PropOp57
 70
     1
102
RTVSPropertyOp0
 70
     1
102
RTVSPropertyOp1
 70
     1
102
RTVSPropertyOp2
 70
     1
102
RTVSPropertyOp3
 70
     1
102
RTVSPropertyOp4
 70
     1
102
RTVSPropertyOp5
 70
     1
102
RTVSPropertyOp6
 70
     1
102
RTVSPropertyOp7
 70
     1
102
RTVSPropertyOp8
 70
     1
102
RTVSPropertyOp9
 70
     1
102
RTVSPropertyOp10
 70
     1
102
RTVSPropertyOp11
 70
     1
102
RTVSPropertyOp12
 70
     1
102
RTVSPropertyOp13
 70
     1
102
RTVSPropertyOp14
 70
     1
102
RTVSPropertyOp15
 70
     1
102
RTVSPropertyOp16
 70
     1
102
RTVSPropertyOp17
 70
     1
102
RTVSPropertyOp18
 70
     1
102
RTVSPropertyOp19
 70
     1
102
RTVSPropertyOp20
 70
     1
102
RTVSPropertyOp21
 70
     1
102
RTVSPropertyOp22
 70
     1
102
RTVSPropertyOp23
 70
     1
102
RTVSPropertyOp24
 70
     1
102
RTVSPropertyOp25
 70
     1
102
RTVSPropertyOp26
 70
     1
102
RTVSPropertyOp27
 70
     1
102
RTVSPropertyOp28
 70
     1
102
RTVSPropertyOp29
 70
     1
102
RTVSPropertyOp30
 70
     1
102
RTVSPropertyOp31
 70
     1
102
RTVSPropertyOp32
 70
     1
102
RTVSPropertyOp33
 70
     1
102
RTVSPropertyOp34
 70
     1
102
RTVSPropertyOp35
 70
     1
102
RTVSPropertyOp36
 70
     1
102
RTVSPropertyOp37
 70
     1
102
RTVSPropertyOp38
 70
     1
102
RTVSPropertyOp39
 70
     1
102
RTVSPropertyOp40
 70
     1
102
RTVSPropertyOp41
 70
     1
102
RTVSPropertyOp42
 70
     1
102
RTVSPropertyOp43
 70
     1
102
RTVSPropertyOp44
 70
     1
102
RTVSPropertyOp45
 70
     1
102
RTVSPropertyOp46
 70
     1
102
RTVSPropertyOp47
 70
     1
102
RTVSPropertyOp48
 70
     1
102
RTVSPropertyOp49
 70
     1
102
RTVSPropertyOp50
 70
     1
102
RTVSPropertyOp51
 70
     0
102
RTVSPropertyOp52
 70
     0
102
RTVSPropertyOp53
 70
     1
102
RTVSPropertyOp54
 70
     1
102
RTVSPropertyOp55
 70
     1
102
RTVSPropertyOp56
 70
     1
102
RTVSPropertyOp57
 70
     1
102
RTVSPropertyOp58
 70
     1
102
RTVSPropertyOp59
 70
     1
102
RTVSPropertyOp60
 70
     1
102
RTVSPropertyOp61
 70
     1
102
RTVSPropertyOp62
 70
     1
  0
XRECORD
  5
A690
102
{ACAD_REACTORS
330
A68F
102
}
330
A68F
100
AcDbXrecord
280
     1
102
RTVSPost2010Prop28
280
     0
102
RTVSPost2010PropOp28
 70
     1
102
RTVSPost2010Prop29
280
     1
102
RTVSPost2010PropOp29
 70
     1
102
RTVSPost2010Prop30
280
     1
102
RTVSPost2010PropOp30
 70
     1
102
RTVSPost2010Prop31
280
     0
102
RTVSPost2010PropOp31
 70
     1
102
RTVSPost2010Prop32
280
     0
102
RTVSPost2010PropOp32
 70
     1
102
RTVSPost2010Prop33
280
     0
102
RTVSPost2010PropOp33
 70
     1
102
RTVSPost2010Prop34
280
     0
102
RTVSPost2010PropOp34
 70
     1
102
RTVSPost2010Prop35
280
     0
102
RTVSPost2010PropOp35
 70
     1
102
RTVSPost2010Prop36
280
     0
102
RTVSPost2010PropOp36
 70
     1
102
RTVSPost2010Prop37
 90
       50
102
RTVSPost2010PropOp37
 70
     1
102
RTVSPost2010Prop38
140
0.0
102
RTVSPost2010PropOp38
 70
     1
102
RTVSPost2010Prop39
140
1.0
102
RTVSPost2010PropOp39
 70
     1
102
RTVSPost2010Prop40
 90
        0
102
RTVSPost2010PropOp40
 70
     1
102
RTVSPost2010Prop41ColorIndex
 90
       18
102
RTVSPost2010Prop41ColorRGB
 90
        0
102
RTVSPost2010PropOp41
 70
     1
102
RTVSPost2010Prop42
 90
       50
102
RTVSPost2010PropOp42
 70
     1
102
RTVSPost2010Prop43
 90
        3
102
RTVSPost2010PropOp43
 70
     1
102
RTVSPost2010Prop44ColorIndex
 90
        5
102
RTVSPost2010Prop44ColorRGB
 90
      255
102
RTVSPost2010PropOp44
 70
     1
102
RTVSPost2010Prop45
280
     0
102
RTVSPost2010PropOp45
 70
     1
102
RTVSPost2010Prop46
 90
       50
102
RTVSPost2010PropOp46
 70
     1
102
RTVSPost2010Prop47
 90
       50
102
RTVSPost2010PropOp47
 70
     1
102
RTVSPost2010Prop48
 90
       50
102
RTVSPost2010PropOp48
 70
     1
102
RTVSPost2010Prop49
280
     0
102
RTVSPost2010PropOp49
 70
     1
102
RTVSPost2010Prop50
 90
       50
102
RTVSPost2010PropOp50
 70
     1
102
RTVSPost2010Prop51ColorIndex
 90
      256
102
RTVSPost2010Prop51ColorRGB
 90
-16777216
102
RTVSPost2010PropOp51
 70
     0
102
RTVSPost2010Prop52
140
1.0
102
RTVSPost2010PropOp52
 70
     0
102
RTVSPost2010Prop53
 90
        2
102
RTVSPost2010PropOp53
 70
     1
102
RTVSPost2010Prop54
  1
strokes_ogs.tif
102
RTVSPost2010PropOp54
 70
     1
102
RTVSPost2010Prop55
280
     0
102
RTVSPost2010PropOp55
 70
     1
102
RTVSPost2010Prop56
140
1.0
102
RTVSPost2010PropOp56
 70
     1
102
RTVSPost2010Prop57
140
1.0
102
RTVSPost2010PropOp57
 70
     1
102
RTVSPropertyOp0
 70
     1
102
RTVSPropertyOp1
 70
     1
102
RTVSPropertyOp2
 70
     1
102
RTVSPropertyOp3
 70
     1
102
RTVSPropertyOp4
 70
     1
102
RTVSPropertyOp5
 70
     1
102
RTVSPropertyOp6
 70
     1
102
RTVSPropertyOp7
 70
     1
102
RTVSPropertyOp8
 70
     1
102
RTVSPropertyOp9
 70
     1
102
RTVSPropertyOp10
 70
     1
102
RTVSPropertyOp11
 70
     1
102
RTVSPropertyOp12
 70
     1
102
RTVSPropertyOp13
 70
     1
102
RTVSPropertyOp14
 70
     1
102
RTVSPropertyOp15
 70
     1
102
RTVSPropertyOp16
 70
     1
102
RTVSPropertyOp17
 70
     1
102
RTVSPropertyOp18
 70
     1
102
RTVSPropertyOp19
 70
     1
102
RTVSPropertyOp20
 70
     1
102
RTVSPropertyOp21
 70
     1
102
RTVSPropertyOp22
 70
     1
102
RTVSPropertyOp23
 70
     1
102
RTVSPropertyOp24
 70
     1
102
RTVSPropertyOp25
 70
     1
102
RTVSPropertyOp26
 70
     1
102
RTVSPropertyOp27
 70
     1
102
RTVSPropertyOp28
 70
     1
102
RTVSPropertyOp29
 70
     1
102
RTVSPropertyOp30
 70
     1
102
RTVSPropertyOp31
 70
     1
102
RTVSPropertyOp32
 70
     1
102
RTVSPropertyOp33
 70
     1
102
RTVSPropertyOp34
 70
     1
102
RTVSPropertyOp35
 70
     1
102
RTVSPropertyOp36
 70
     1
102
RTVSPropertyOp37
 70
     1
102
RTVSPropertyOp38
 70
     1
102
RTVSPropertyOp39
 70
     1
102
RTVSPropertyOp40
 70
     1
102
RTVSPropertyOp41
 70
     1
102
RTVSPropertyOp42
 70
     1
102
RTVSPropertyOp43
 70
     1
102
RTVSPropertyOp44
 70
     1
102
RTVSPropertyOp45
 70
     1
102
RTVSPropertyOp46
 70
     1
102
RTVSPropertyOp47
 70
     1
102
RTVSPropertyOp48
 70
     1
102
RTVSPropertyOp49
 70
     1
102
RTVSPropertyOp50
 70
     1
102
RTVSPropertyOp51
 70
     0
102
RTVSPropertyOp52
 70
     0
102
RTVSPropertyOp53
 70
     1
102
RTVSPropertyOp54
 70
     1
102
RTVSPropertyOp55
 70
     1
102
RTVSPropertyOp56
 70
     1
102
RTVSPropertyOp57
 70
     1
102
RTVSPropertyOp58
 70
     1
102
RTVSPropertyOp59
 70
     1
102
RTVSPropertyOp60
 70
     1
102
RTVSPropertyOp61
 70
     1
102
RTVSPropertyOp62
 70
     1
  0
XRECORD
  5
A69E
102
{ACAD_REACTORS
330
A69D
102
}
330
A69D
100
AcDbXrecord
280
     1
102
RTVSPost2010Prop28
280
     0
102
RTVSPost2010PropOp28
 70
     1
102
RTVSPost2010Prop29
280
     1
102
RTVSPost2010PropOp29
 70
     1
102
RTVSPost2010Prop30
280
     1
102
RTVSPost2010PropOp30
 70
     1
102
RTVSPost2010Prop31
280
     0
102
RTVSPost2010PropOp31
 70
     1
102
RTVSPost2010Prop32
280
     0
102
RTVSPost2010PropOp32
 70
     1
102
RTVSPost2010Prop33
280
     0
102
RTVSPost2010PropOp33
 70
     1
102
RTVSPost2010Prop34
280
     0
102
RTVSPost2010PropOp34
 70
     1
102
RTVSPost2010Prop35
280
     0
102
RTVSPost2010PropOp35
 70
     1
102
RTVSPost2010Prop36
280
     0
102
RTVSPost2010PropOp36
 70
     1
102
RTVSPost2010Prop37
 90
       50
102
RTVSPost2010PropOp37
 70
     1
102
RTVSPost2010Prop38
140
0.0
102
RTVSPost2010PropOp38
 70
     1
102
RTVSPost2010Prop39
140
1.0
102
RTVSPost2010PropOp39
 70
     1
102
RTVSPost2010Prop40
 90
        0
102
RTVSPost2010PropOp40
 70
     1
102
RTVSPost2010Prop41ColorIndex
 90
       18
102
RTVSPost2010Prop41ColorRGB
 90
        0
102
RTVSPost2010PropOp41
 70
     1
102
RTVSPost2010Prop42
 90
       50
102
RTVSPost2010PropOp42
 70
     1
102
RTVSPost2010Prop43
 90
        3
102
RTVSPost2010PropOp43
 70
     1
102
RTVSPost2010Prop44ColorIndex
 90
        5
102
RTVSPost2010Prop44ColorRGB
 90
      255
102
RTVSPost2010PropOp44
 70
     1
102
RTVSPost2010Prop45
280
     0
102
RTVSPost2010PropOp45
 70
     1
102
RTVSPost2010Prop46
 90
       50
102
RTVSPost2010PropOp46
 70
     1
102
RTVSPost2010Prop47
 90
       50
102
RTVSPost2010PropOp47
 70
     1
102
RTVSPost2010Prop48
 90
       50
102
RTVSPost2010PropOp48
 70
     1
102
RTVSPost2010Prop49
280
     0
102
RTVSPost2010PropOp49
 70
     1
102
RTVSPost2010Prop50
 90
       50
102
RTVSPost2010PropOp50
 70
     1
102
RTVSPost2010Prop51ColorIndex
 90
      256
102
RTVSPost2010Prop51ColorRGB
 90
-16777216
102
RTVSPost2010PropOp51
 70
     0
102
RTVSPost2010Prop52
140
1.0
102
RTVSPost2010PropOp52
 70
     0
102
RTVSPost2010Prop53
 90
        2
102
RTVSPost2010PropOp53
 70
     1
102
RTVSPost2010Prop54
  1
strokes_ogs.tif
102
RTVSPost2010PropOp54
 70
     1
102
RTVSPost2010Prop55
280
     0
102
RTVSPost2010PropOp55
 70
     1
102
RTVSPost2010Prop56
140
1.0
102
RTVSPost2010PropOp56
 70
     1
102
RTVSPost2010Prop57
140
1.0
102
RTVSPost2010PropOp57
 70
     1
102
RTVSPropertyOp0
 70
     1
102
RTVSPropertyOp1
 70
     1
102
RTVSPropertyOp2
 70
     1
102
RTVSPropertyOp3
 70
     1
102
RTVSPropertyOp4
 70
     1
102
RTVSPropertyOp5
 70
     1
102
RTVSPropertyOp6
 70
     1
102
RTVSPropertyOp7
 70
     1
102
RTVSPropertyOp8
 70
     1
102
RTVSPropertyOp9
 70
     1
102
RTVSPropertyOp10
 70
     1
102
RTVSPropertyOp11
 70
     1
102
RTVSPropertyOp12
 70
     1
102
RTVSPropertyOp13
 70
     1
102
RTVSPropertyOp14
 70
     1
102
RTVSPropertyOp15
 70
     1
102
RTVSPropertyOp16
 70
     1
102
RTVSPropertyOp17
 70
     1
102
RTVSPropertyOp18
 70
     1
102
RTVSPropertyOp19
 70
     1
102
RTVSPropertyOp20
 70
     1
102
RTVSPropertyOp21
 70
     1
102
RTVSPropertyOp22
 70
     1
102
RTVSPropertyOp23
 70
     1
102
RTVSPropertyOp24
 70
     1
102
RTVSPropertyOp25
 70
     1
102
RTVSPropertyOp26
 70
     1
102
RTVSPropertyOp27
 70
     1
102
RTVSPropertyOp28
 70
     1
102
RTVSPropertyOp29
 70
     1
102
RTVSPropertyOp30
 70
     1
102
RTVSPropertyOp31
 70
     1
102
RTVSPropertyOp32
 70
     1
102
RTVSPropertyOp33
 70
     1
102
RTVSPropertyOp34
 70
     1
102
RTVSPropertyOp35
 70
     1
102
RTVSPropertyOp36
 70
     1
102
RTVSPropertyOp37
 70
     1
102
RTVSPropertyOp38
 70
     1
102
RTVSPropertyOp39
 70
     1
102
RTVSPropertyOp40
 70
     1
102
RTVSPropertyOp41
 70
     1
102
RTVSPropertyOp42
 70
     1
102
RTVSPropertyOp43
 70
     1
102
RTVSPropertyOp44
 70
     1
102
RTVSPropertyOp45
 70
     1
102
RTVSPropertyOp46
 70
     1
102
RTVSPropertyOp47
 70
     1
102
RTVSPropertyOp48
 70
     1
102
RTVSPropertyOp49
 70
     1
102
RTVSPropertyOp50
 70
     1
102
RTVSPropertyOp51
 70
     0
102
RTVSPropertyOp52
 70
     0
102
RTVSPropertyOp53
 70
     1
102
RTVSPropertyOp54
 70
     1
102
RTVSPropertyOp55
 70
     1
102
RTVSPropertyOp56
 70
     1
102
RTVSPropertyOp57
 70
     1
102
RTVSPropertyOp58
 70
     1
102
RTVSPropertyOp59
 70
     1
102
RTVSPropertyOp60
 70
     1
102
RTVSPropertyOp61
 70
     1
102
RTVSPropertyOp62
 70
     1
  0
XRECORD
  5
A6A6
102
{ACAD_REACTORS
330
A6A5
102
}
330
A6A5
100
AcDbXrecord
280
     1
102
RTVSPost2010Prop28
280
     0
102
RTVSPost2010PropOp28
 70
     1
102
RTVSPost2010Prop29
280
     1
102
RTVSPost2010PropOp29
 70
     1
102
RTVSPost2010Prop30
280
     1
102
RTVSPost2010PropOp30
 70
     1
102
RTVSPost2010Prop31
280
     0
102
RTVSPost2010PropOp31
 70
     1
102
RTVSPost2010Prop32
280
     0
102
RTVSPost2010PropOp32
 70
     1
102
RTVSPost2010Prop33
280
     0
102
RTVSPost2010PropOp33
 70
     1
102
RTVSPost2010Prop34
280
     0
102
RTVSPost2010PropOp34
 70
     1
102
RTVSPost2010Prop35
280
     0
102
RTVSPost2010PropOp35
 70
     1
102
RTVSPost2010Prop36
280
     0
102
RTVSPost2010PropOp36
 70
     1
102
RTVSPost2010Prop37
 90
       50
102
RTVSPost2010PropOp37
 70
     1
102
RTVSPost2010Prop38
140
0.0
102
RTVSPost2010PropOp38
 70
     1
102
RTVSPost2010Prop39
140
1.0
102
RTVSPost2010PropOp39
 70
     1
102
RTVSPost2010Prop40
 90
        0
102
RTVSPost2010PropOp40
 70
     1
102
RTVSPost2010Prop41ColorIndex
 90
       18
102
RTVSPost2010Prop41ColorRGB
 90
        0
102
RTVSPost2010PropOp41
 70
     1
102
RTVSPost2010Prop42
 90
       50
102
RTVSPost2010PropOp42
 70
     1
102
RTVSPost2010Prop43
 90
        3
102
RTVSPost2010PropOp43
 70
     1
102
RTVSPost2010Prop44ColorIndex
 90
        5
102
RTVSPost2010Prop44ColorRGB
 90
      255
102
RTVSPost2010PropOp44
 70
     1
102
RTVSPost2010Prop45
280
     0
102
RTVSPost2010PropOp45
 70
     1
102
RTVSPost2010Prop46
 90
       50
102
RTVSPost2010PropOp46
 70
     1
102
RTVSPost2010Prop47
 90
       50
102
RTVSPost2010PropOp47
 70
     1
102
RTVSPost2010Prop48
 90
       50
102
RTVSPost2010PropOp48
 70
     1
102
RTVSPost2010Prop49
280
     0
102
RTVSPost2010PropOp49
 70
     1
102
RTVSPost2010Prop50
 90
       50
102
RTVSPost2010PropOp50
 70
     1
102
RTVSPost2010Prop51ColorIndex
 90
      256
102
RTVSPost2010Prop51ColorRGB
 90
-16777216
102
RTVSPost2010PropOp51
 70
     0
102
RTVSPost2010Prop52
140
1.0
102
RTVSPost2010PropOp52
 70
     0
102
RTVSPost2010Prop53
 90
        2
102
RTVSPost2010PropOp53
 70
     1
102
RTVSPost2010Prop54
  1
strokes_ogs.tif
102
RTVSPost2010PropOp54
 70
     1
102
RTVSPost2010Prop55
280
     0
102
RTVSPost2010PropOp55
 70
     1
102
RTVSPost2010Prop56
140
1.0
102
RTVSPost2010PropOp56
 70
     1
102
RTVSPost2010Prop57
140
1.0
102
RTVSPost2010PropOp57
 70
     1
102
RTVSPropertyOp0
 70
     1
102
RTVSPropertyOp1
 70
     1
102
RTVSPropertyOp2
 70
     1
102
RTVSPropertyOp3
 70
     1
102
RTVSPropertyOp4
 70
     1
102
RTVSPropertyOp5
 70
     1
102
RTVSPropertyOp6
 70
     1
102
RTVSPropertyOp7
 70
     1
102
RTVSPropertyOp8
 70
     1
102
RTVSPropertyOp9
 70
     1
102
RTVSPropertyOp10
 70
     1
102
RTVSPropertyOp11
 70
     1
102
RTVSPropertyOp12
 70
     1
102
RTVSPropertyOp13
 70
     1
102
RTVSPropertyOp14
 70
     1
102
RTVSPropertyOp15
 70
     1
102
RTVSPropertyOp16
 70
     1
102
RTVSPropertyOp17
 70
     1
102
RTVSPropertyOp18
 70
     1
102
RTVSPropertyOp19
 70
     1
102
RTVSPropertyOp20
 70
     1
102
RTVSPropertyOp21
 70
     1
102
RTVSPropertyOp22
 70
     1
102
RTVSPropertyOp23
 70
     1
102
RTVSPropertyOp24
 70
     1
102
RTVSPropertyOp25
 70
     1
102
RTVSPropertyOp26
 70
     1
102
RTVSPropertyOp27
 70
     1
102
RTVSPropertyOp28
 70
     1
102
RTVSPropertyOp29
 70
     1
102
RTVSPropertyOp30
 70
     1
102
RTVSPropertyOp31
 70
     1
102
RTVSPropertyOp32
 70
     1
102
RTVSPropertyOp33
 70
     1
102
RTVSPropertyOp34
 70
     1
102
RTVSPropertyOp35
 70
     1
102
RTVSPropertyOp36
 70
     1
102
RTVSPropertyOp37
 70
     1
102
RTVSPropertyOp38
 70
     1
102
RTVSPropertyOp39
 70
     1
102
RTVSPropertyOp40
 70
     1
102
RTVSPropertyOp41
 70
     1
102
RTVSPropertyOp42
 70
     1
102
RTVSPropertyOp43
 70
     1
102
RTVSPropertyOp44
 70
     1
102
RTVSPropertyOp45
 70
     1
102
RTVSPropertyOp46
 70
     1
102
RTVSPropertyOp47
 70
     1
102
RTVSPropertyOp48
 70
     1
102
RTVSPropertyOp49
 70
     1
102
RTVSPropertyOp50
 70
     1
102
RTVSPropertyOp51
 70
     0
102
RTVSPropertyOp52
 70
     0
102
RTVSPropertyOp53
 70
     1
102
RTVSPropertyOp54
 70
     1
102
RTVSPropertyOp55
 70
     1
102
RTVSPropertyOp56
 70
     1
102
RTVSPropertyOp57
 70
     1
102
RTVSPropertyOp58
 70
     1
102
RTVSPropertyOp59
 70
     1
102
RTVSPropertyOp60
 70
     1
102
RTVSPropertyOp61
 70
     1
102
RTVSPropertyOp62
 70
     1
  0
XRECORD
  5
A698
102
{ACAD_REACTORS
330
A697
102
}
330
A697
100
AcDbXrecord
280
     1
102
RTVSPost2010Prop28
280
     0
102
RTVSPost2010PropOp28
 70
     1
102
RTVSPost2010Prop29
280
     1
102
RTVSPost2010PropOp29
 70
     1
102
RTVSPost2010Prop30
280
     1
102
RTVSPost2010PropOp30
 70
     1
102
RTVSPost2010Prop31
280
     0
102
RTVSPost2010PropOp31
 70
     1
102
RTVSPost2010Prop32
280
     0
102
RTVSPost2010PropOp32
 70
     1
102
RTVSPost2010Prop33
280
     0
102
RTVSPost2010PropOp33
 70
     1
102
RTVSPost2010Prop34
280
     0
102
RTVSPost2010PropOp34
 70
     1
102
RTVSPost2010Prop35
280
     0
102
RTVSPost2010PropOp35
 70
     1
102
RTVSPost2010Prop36
280
     0
102
RTVSPost2010PropOp36
 70
     1
102
RTVSPost2010Prop37
 90
       50
102
RTVSPost2010PropOp37
 70
     1
102
RTVSPost2010Prop38
140
0.0
102
RTVSPost2010PropOp38
 70
     1
102
RTVSPost2010Prop39
140
1.0
102
RTVSPost2010PropOp39
 70
     1
102
RTVSPost2010Prop40
 90
        0
102
RTVSPost2010PropOp40
 70
     1
102
RTVSPost2010Prop41ColorIndex
 90
       18
102
RTVSPost2010Prop41ColorRGB
 90
        0
102
RTVSPost2010PropOp41
 70
     1
102
RTVSPost2010Prop42
 90
       50
102
RTVSPost2010PropOp42
 70
     1
102
RTVSPost2010Prop43
 90
        3
102
RTVSPost2010PropOp43
 70
     1
102
RTVSPost2010Prop44ColorIndex
 90
        5
102
RTVSPost2010Prop44ColorRGB
 90
      255
102
RTVSPost2010PropOp44
 70
     1
102
RTVSPost2010Prop45
280
     0
102
RTVSPost2010PropOp45
 70
     1
102
RTVSPost2010Prop46
 90
       50
102
RTVSPost2010PropOp46
 70
     1
102
RTVSPost2010Prop47
 90
       50
102
RTVSPost2010PropOp47
 70
     1
102
RTVSPost2010Prop48
 90
       50
102
RTVSPost2010PropOp48
 70
     1
102
RTVSPost2010Prop49
280
     0
102
RTVSPost2010PropOp49
 70
     1
102
RTVSPost2010Prop50
 90
       50
102
RTVSPost2010PropOp50
 70
     1
102
RTVSPost2010Prop51ColorIndex
 90
      256
102
RTVSPost2010Prop51ColorRGB
 90
-16777216
102
RTVSPost2010PropOp51
 70
     0
102
RTVSPost2010Prop52
140
1.0
102
RTVSPost2010PropOp52
 70
     0
102
RTVSPost2010Prop53
 90
        2
102
RTVSPost2010PropOp53
 70
     1
102
RTVSPost2010Prop54
  1
strokes_ogs.tif
102
RTVSPost2010PropOp54
 70
     1
102
RTVSPost2010Prop55
280
     0
102
RTVSPost2010PropOp55
 70
     1
102
RTVSPost2010Prop56
140
1.0
102
RTVSPost2010PropOp56
 70
     1
102
RTVSPost2010Prop57
140
1.0
102
RTVSPost2010PropOp57
 70
     1
102
RTVSPropertyOp0
 70
     1
102
RTVSPropertyOp1
 70
     1
102
RTVSPropertyOp2
 70
     1
102
RTVSPropertyOp3
 70
     1
102
RTVSPropertyOp4
 70
     1
102
RTVSPropertyOp5
 70
     1
102
RTVSPropertyOp6
 70
     1
102
RTVSPropertyOp7
 70
     1
102
RTVSPropertyOp8
 70
     1
102
RTVSPropertyOp9
 70
     1
102
RTVSPropertyOp10
 70
     1
102
RTVSPropertyOp11
 70
     1
102
RTVSPropertyOp12
 70
     1
102
RTVSPropertyOp13
 70
     1
102
RTVSPropertyOp14
 70
     1
102
RTVSPropertyOp15
 70
     1
102
RTVSPropertyOp16
 70
     1
102
RTVSPropertyOp17
 70
     1
102
RTVSPropertyOp18
 70
     1
102
RTVSPropertyOp19
 70
     1
102
RTVSPropertyOp20
 70
     1
102
RTVSPropertyOp21
 70
     1
102
RTVSPropertyOp22
 70
     1
102
RTVSPropertyOp23
 70
     1
102
RTVSPropertyOp24
 70
     1
102
RTVSPropertyOp25
 70
     1
102
RTVSPropertyOp26
 70
     1
102
RTVSPropertyOp27
 70
     1
102
RTVSPropertyOp28
 70
     1
102
RTVSPropertyOp29
 70
     1
102
RTVSPropertyOp30
 70
     1
102
RTVSPropertyOp31
 70
     1
102
RTVSPropertyOp32
 70
     1
102
RTVSPropertyOp33
 70
     1
102
RTVSPropertyOp34
 70
     1
102
RTVSPropertyOp35
 70
     1
102
RTVSPropertyOp36
 70
     1
102
RTVSPropertyOp37
 70
     1
102
RTVSPropertyOp38
 70
     1
102
RTVSPropertyOp39
 70
     1
102
RTVSPropertyOp40
 70
     1
102
RTVSPropertyOp41
 70
     1
102
RTVSPropertyOp42
 70
     1
102
RTVSPropertyOp43
 70
     1
102
RTVSPropertyOp44
 70
     1
102
RTVSPropertyOp45
 70
     1
102
RTVSPropertyOp46
 70
     1
102
RTVSPropertyOp47
 70
     1
102
RTVSPropertyOp48
 70
     1
102
RTVSPropertyOp49
 70
     1
102
RTVSPropertyOp50
 70
     1
102
RTVSPropertyOp51
 70
     0
102
RTVSPropertyOp52
 70
     0
102
RTVSPropertyOp53
 70
     1
102
RTVSPropertyOp54
 70
     1
102
RTVSPropertyOp55
 70
     1
102
RTVSPropertyOp56
 70
     1
102
RTVSPropertyOp57
 70
     1
102
RTVSPropertyOp58
 70
     1
102
RTVSPropertyOp59
 70
     1
102
RTVSPropertyOp60
 70
     1
102
RTVSPropertyOp61
 70
     1
102
RTVSPropertyOp62
 70
     1
  0
XRECORD
  5
A69C
102
{ACAD_REACTORS
330
A69B
102
}
330
A69B
100
AcDbXrecord
280
     1
102
RTVSPost2010Prop28
280
     0
102
RTVSPost2010PropOp28
 70
     1
102
RTVSPost2010Prop29
280
     1
102
RTVSPost2010PropOp29
 70
     1
102
RTVSPost2010Prop30
280
     1
102
RTVSPost2010PropOp30
 70
     1
102
RTVSPost2010Prop31
280
     0
102
RTVSPost2010PropOp31
 70
     1
102
RTVSPost2010Prop32
280
     0
102
RTVSPost2010PropOp32
 70
     1
102
RTVSPost2010Prop33
280
     0
102
RTVSPost2010PropOp33
 70
     1
102
RTVSPost2010Prop34
280
     0
102
RTVSPost2010PropOp34
 70
     1
102
RTVSPost2010Prop35
280
     0
102
RTVSPost2010PropOp35
 70
     1
102
RTVSPost2010Prop36
280
     0
102
RTVSPost2010PropOp36
 70
     1
102
RTVSPost2010Prop37
 90
       50
102
RTVSPost2010PropOp37
 70
     1
102
RTVSPost2010Prop38
140
0.0
102
RTVSPost2010PropOp38
 70
     1
102
RTVSPost2010Prop39
140
1.0
102
RTVSPost2010PropOp39
 70
     1
102
RTVSPost2010Prop40
 90
        0
102
RTVSPost2010PropOp40
 70
     1
102
RTVSPost2010Prop41ColorIndex
 90
       18
102
RTVSPost2010Prop41ColorRGB
 90
        0
102
RTVSPost2010PropOp41
 70
     1
102
RTVSPost2010Prop42
 90
       50
102
RTVSPost2010PropOp42
 70
     1
102
RTVSPost2010Prop43
 90
        3
102
RTVSPost2010PropOp43
 70
     1
102
RTVSPost2010Prop44ColorIndex
 90
        5
102
RTVSPost2010Prop44ColorRGB
 90
      255
102
RTVSPost2010PropOp44
 70
     1
102
RTVSPost2010Prop45
280
     0
102
RTVSPost2010PropOp45
 70
     1
102
RTVSPost2010Prop46
 90
       50
102
RTVSPost2010PropOp46
 70
     1
102
RTVSPost2010Prop47
 90
       50
102
RTVSPost2010PropOp47
 70
     1
102
RTVSPost2010Prop48
 90
       50
102
RTVSPost2010PropOp48
 70
     1
102
RTVSPost2010Prop49
280
     0
102
RTVSPost2010PropOp49
 70
     1
102
RTVSPost2010Prop50
 90
       50
102
RTVSPost2010PropOp50
 70
     1
102
RTVSPost2010Prop51ColorIndex
 90
      256
102
RTVSPost2010Prop51ColorRGB
 90
-16777216
102
RTVSPost2010PropOp51
 70
     0
102
RTVSPost2010Prop52
140
1.0
102
RTVSPost2010PropOp52
 70
     0
102
RTVSPost2010Prop53
 90
        2
102
RTVSPost2010PropOp53
 70
     1
102
RTVSPost2010Prop54
  1
strokes_ogs.tif
102
RTVSPost2010PropOp54
 70
     1
102
RTVSPost2010Prop55
280
     0
102
RTVSPost2010PropOp55
 70
     1
102
RTVSPost2010Prop56
140
1.0
102
RTVSPost2010PropOp56
 70
     1
102
RTVSPost2010Prop57
140
1.0
102
RTVSPost2010PropOp57
 70
     1
102
RTVSPropertyOp0
 70
     1
102
RTVSPropertyOp1
 70
     1
102
RTVSPropertyOp2
 70
     1
102
RTVSPropertyOp3
 70
     1
102
RTVSPropertyOp4
 70
     1
102
RTVSPropertyOp5
 70
     1
102
RTVSPropertyOp6
 70
     1
102
RTVSPropertyOp7
 70
     1
102
RTVSPropertyOp8
 70
     1
102
RTVSPropertyOp9
 70
     1
102
RTVSPropertyOp10
 70
     1
102
RTVSPropertyOp11
 70
     1
102
RTVSPropertyOp12
 70
     1
102
RTVSPropertyOp13
 70
     1
102
RTVSPropertyOp14
 70
     1
102
RTVSPropertyOp15
 70
     1
102
RTVSPropertyOp16
 70
     1
102
RTVSPropertyOp17
 70
     1
102
RTVSPropertyOp18
 70
     1
102
RTVSPropertyOp19
 70
     1
102
RTVSPropertyOp20
 70
     1
102
RTVSPropertyOp21
 70
     1
102
RTVSPropertyOp22
 70
     1
102
RTVSPropertyOp23
 70
     1
102
RTVSPropertyOp24
 70
     1
102
RTVSPropertyOp25
 70
     1
102
RTVSPropertyOp26
 70
     1
102
RTVSPropertyOp27
 70
     1
102
RTVSPropertyOp28
 70
     1
102
RTVSPropertyOp29
 70
     1
102
RTVSPropertyOp30
 70
     1
102
RTVSPropertyOp31
 70
     1
102
RTVSPropertyOp32
 70
     1
102
RTVSPropertyOp33
 70
     1
102
RTVSPropertyOp34
 70
     1
102
RTVSPropertyOp35
 70
     1
102
RTVSPropertyOp36
 70
     1
102
RTVSPropertyOp37
 70
     1
102
RTVSPropertyOp38
 70
     1
102
RTVSPropertyOp39
 70
     1
102
RTVSPropertyOp40
 70
     1
102
RTVSPropertyOp41
 70
     1
102
RTVSPropertyOp42
 70
     1
102
RTVSPropertyOp43
 70
     1
102
RTVSPropertyOp44
 70
     1
102
RTVSPropertyOp45
 70
     1
102
RTVSPropertyOp46
 70
     1
102
RTVSPropertyOp47
 70
     1
102
RTVSPropertyOp48
 70
     1
102
RTVSPropertyOp49
 70
     1
102
RTVSPropertyOp50
 70
     1
102
RTVSPropertyOp51
 70
     0
102
RTVSPropertyOp52
 70
     0
102
RTVSPropertyOp53
 70
     1
102
RTVSPropertyOp54
 70
     1
102
RTVSPropertyOp55
 70
     1
102
RTVSPropertyOp56
 70
     1
102
RTVSPropertyOp57
 70
     1
102
RTVSPropertyOp58
 70
     1
102
RTVSPropertyOp59
 70
     1
102
RTVSPropertyOp60
 70
     1
102
RTVSPropertyOp61
 70
     1
102
RTVSPropertyOp62
 70
     1
  0
XRECORD
  5
A6B6
102
{ACAD_REACTORS
330
A6B5
102
}
330
A6B5
100
AcDbXrecord
280
     1
102
RTVSPost2010Prop28
280
     0
102
RTVSPost2010PropOp28
 70
     1
102
RTVSPost2010Prop29
280
     1
102
RTVSPost2010PropOp29
 70
     1
102
RTVSPost2010Prop30
280
     1
102
RTVSPost2010PropOp30
 70
     1
102
RTVSPost2010Prop31
280
     0
102
RTVSPost2010PropOp31
 70
     1
102
RTVSPost2010Prop32
280
     0
102
RTVSPost2010PropOp32
 70
     1
102
RTVSPost2010Prop33
280
     0
102
RTVSPost2010PropOp33
 70
     1
102
RTVSPost2010Prop34
280
     0
102
RTVSPost2010PropOp34
 70
     1
102
RTVSPost2010Prop35
280
     0
102
RTVSPost2010PropOp35
 70
     1
102
RTVSPost2010Prop36
280
     0
102
RTVSPost2010PropOp36
 70
     1
102
RTVSPost2010Prop37
 90
       50
102
RTVSPost2010PropOp37
 70
     0
102
RTVSPost2010Prop38
140
0.0
102
RTVSPost2010PropOp38
 70
     0
102
RTVSPost2010Prop39
140
1.0
102
RTVSPost2010PropOp39
 70
     0
102
RTVSPost2010Prop40
 90
        0
102
RTVSPost2010PropOp40
 70
     0
102
RTVSPost2010Prop41ColorIndex
 90
       18
102
RTVSPost2010Prop41ColorRGB
 90
        0
102
RTVSPost2010PropOp41
 70
     0
102
RTVSPost2010Prop42
 90
       50
102
RTVSPost2010PropOp42
 70
     0
102
RTVSPost2010Prop43
 90
        3
102
RTVSPost2010PropOp43
 70
     0
102
RTVSPost2010Prop44ColorIndex
 90
        5
102
RTVSPost2010Prop44ColorRGB
 90
      255
102
RTVSPost2010PropOp44
 70
     0
102
RTVSPost2010Prop45
280
     0
102
RTVSPost2010PropOp45
 70
     1
102
RTVSPost2010Prop46
 90
       50
102
RTVSPost2010PropOp46
 70
     0
102
RTVSPost2010Prop47
 90
       50
102
RTVSPost2010PropOp47
 70
     0
102
RTVSPost2010Prop48
 90
       50
102
RTVSPost2010PropOp48
 70
     0
102
RTVSPost2010Prop49
280
     0
102
RTVSPost2010PropOp49
 70
     1
102
RTVSPost2010Prop50
 90
       50
102
RTVSPost2010PropOp50
 70
     0
102
RTVSPost2010Prop51ColorIndex
 90
      256
102
RTVSPost2010Prop51ColorRGB
 90
-16777216
102
RTVSPost2010PropOp51
 70
     0
102
RTVSPost2010Prop52
140
1.0
102
RTVSPost2010PropOp52
 70
     0
102
RTVSPost2010Prop53
 90
        2
102
RTVSPost2010PropOp53
 70
     0
102
RTVSPost2010Prop54
  1
strokes_ogs.tif
102
RTVSPost2010PropOp54
 70
     0
102
RTVSPost2010Prop55
280
     0
102
RTVSPost2010PropOp55
 70
     1
102
RTVSPost2010Prop56
140
1.0
102
RTVSPost2010PropOp56
 70
     0
102
RTVSPost2010Prop57
140
1.0
102
RTVSPost2010PropOp57
 70
     0
102
RTVSPropertyOp0
 70
     0
102
RTVSPropertyOp1
 70
     0
102
RTVSPropertyOp2
 70
     0
102
RTVSPropertyOp3
 70
     0
102
RTVSPropertyOp4
 70
     0
102
RTVSPropertyOp5
 70
     0
102
RTVSPropertyOp6
 70
     0
102
RTVSPropertyOp7
 70
     0
102
RTVSPropertyOp8
 70
     0
102
RTVSPropertyOp9
 70
     0
102
RTVSPropertyOp10
 70
     0
102
RTVSPropertyOp11
 70
     0
102
RTVSPropertyOp12
 70
     0
102
RTVSPropertyOp13
 70
     0
102
RTVSPropertyOp14
 70
     2
102
RTVSPropertyOp15
 70
     0
102
RTVSPropertyOp16
 70
     0
102
RTVSPropertyOp17
 70
     0
102
RTVSPropertyOp18
 70
     0
102
RTVSPropertyOp19
 70
     0
102
RTVSPropertyOp20
 70
     0
102
RTVSPropertyOp21
 70
     0
102
RTVSPropertyOp22
 70
     0
102
RTVSPropertyOp23
 70
     0
102
RTVSPropertyOp24
 70
     0
102
RTVSPropertyOp25
 70
     0
102
RTVSPropertyOp26
 70
     0
102
RTVSPropertyOp27
 70
     0
102
RTVSPropertyOp28
 70
     1
102
RTVSPropertyOp29
 70
     1
102
RTVSPropertyOp30
 70
     1
102
RTVSPropertyOp31
 70
     1
102
RTVSPropertyOp32
 70
     1
102
RTVSPropertyOp33
 70
     1
102
RTVSPropertyOp34
 70
     1
102
RTVSPropertyOp35
 70
     1
102
RTVSPropertyOp36
 70
     1
102
RTVSPropertyOp37
 70
     0
102
RTVSPropertyOp38
 70
     0
102
RTVSPropertyOp39
 70
     0
102
RTVSPropertyOp40
 70
     0
102
RTVSPropertyOp41
 70
     0
102
RTVSPropertyOp42
 70
     0
102
RTVSPropertyOp43
 70
     0
102
RTVSPropertyOp44
 70
     0
102
RTVSPropertyOp45
 70
     1
102
RTVSPropertyOp46
 70
     0
102
RTVSPropertyOp47
 70
     0
102
RTVSPropertyOp48
 70
     0
102
RTVSPropertyOp49
 70
     1
102
RTVSPropertyOp50
 70
     0
102
RTVSPropertyOp51
 70
     0
102
RTVSPropertyOp52
 70
     0
102
RTVSPropertyOp53
 70
     0
102
RTVSPropertyOp54
 70
     0
102
RTVSPropertyOp55
 70
     1
102
RTVSPropertyOp56
 70
     0
102
RTVSPropertyOp57
 70
     0
102
RTVSPropertyOp58
 70
     0
102
RTVSPropertyOp59
 70
     0
102
RTVSPropertyOp60
 70
     0
102
RTVSPropertyOp61
 70
     0
102
RTVSPropertyOp62
 70
     0
  0
XRECORD
  5
A6A4
102
{ACAD_REACTORS
330
A6A3
102
}
330
A6A3
100
AcDbXrecord
280
     1
102
RTVSPost2010Prop28
280
     0
102
RTVSPost2010PropOp28
 70
     1
102
RTVSPost2010Prop29
280
     1
102
RTVSPost2010PropOp29
 70
     1
102
RTVSPost2010Prop30
280
     1
102
RTVSPost2010PropOp30
 70
     1
102
RTVSPost2010Prop31
280
     0
102
RTVSPost2010PropOp31
 70
     1
102
RTVSPost2010Prop32
280
     0
102
RTVSPost2010PropOp32
 70
     1
102
RTVSPost2010Prop33
280
     0
102
RTVSPost2010PropOp33
 70
     1
102
RTVSPost2010Prop34
280
     0
102
RTVSPost2010PropOp34
 70
     1
102
RTVSPost2010Prop35
280
     0
102
RTVSPost2010PropOp35
 70
     1
102
RTVSPost2010Prop36
280
     0
102
RTVSPost2010PropOp36
 70
     1
102
RTVSPost2010Prop37
 90
       50
102
RTVSPost2010PropOp37
 70
     1
102
RTVSPost2010Prop38
140
0.0
102
RTVSPost2010PropOp38
 70
     1
102
RTVSPost2010Prop39
140
1.0
102
RTVSPost2010PropOp39
 70
     1
102
RTVSPost2010Prop40
 90
        0
102
RTVSPost2010PropOp40
 70
     1
102
RTVSPost2010Prop41ColorIndex
 90
       18
102
RTVSPost2010Prop41ColorRGB
 90
        0
102
RTVSPost2010PropOp41
 70
     1
102
RTVSPost2010Prop42
 90
       50
102
RTVSPost2010PropOp42
 70
     1
102
RTVSPost2010Prop43
 90
        3
102
RTVSPost2010PropOp43
 70
     1
102
RTVSPost2010Prop44ColorIndex
 90
        5
102
RTVSPost2010Prop44ColorRGB
 90
      255
102
RTVSPost2010PropOp44
 70
     1
102
RTVSPost2010Prop45
280
     0
102
RTVSPost2010PropOp45
 70
     1
102
RTVSPost2010Prop46
 90
       50
102
RTVSPost2010PropOp46
 70
     1
102
RTVSPost2010Prop47
 90
       50
102
RTVSPost2010PropOp47
 70
     1
102
RTVSPost2010Prop48
 90
       50
102
RTVSPost2010PropOp48
 70
     1
102
RTVSPost2010Prop49
280
     0
102
RTVSPost2010PropOp49
 70
     1
102
RTVSPost2010Prop50
 90
       50
102
RTVSPost2010PropOp50
 70
     1
102
RTVSPost2010Prop51ColorIndex
 90
      256
102
RTVSPost2010Prop51ColorRGB
 90
-16777216
102
RTVSPost2010PropOp51
 70
     0
102
RTVSPost2010Prop52
140
1.0
102
RTVSPost2010PropOp52
 70
     0
102
RTVSPost2010Prop53
 90
        2
102
RTVSPost2010PropOp53
 70
     1
102
RTVSPost2010Prop54
  1
strokes_ogs.tif
102
RTVSPost2010PropOp54
 70
     1
102
RTVSPost2010Prop55
280
     0
102
RTVSPost2010PropOp55
 70
     1
102
RTVSPost2010Prop56
140
1.0
102
RTVSPost2010PropOp56
 70
     1
102
RTVSPost2010Prop57
140
1.0
102
RTVSPost2010PropOp57
 70
     1
102
RTVSPropertyOp0
 70
     1
102
RTVSPropertyOp1
 70
     1
102
RTVSPropertyOp2
 70
     1
102
RTVSPropertyOp3
 70
     1
102
RTVSPropertyOp4
 70
     1
102
RTVSPropertyOp5
 70
     1
102
RTVSPropertyOp6
 70
     1
102
RTVSPropertyOp7
 70
     1
102
RTVSPropertyOp8
 70
     1
102
RTVSPropertyOp9
 70
     1
102
RTVSPropertyOp10
 70
     1
102
RTVSPropertyOp11
 70
     1
102
RTVSPropertyOp12
 70
     1
102
RTVSPropertyOp13
 70
     1
102
RTVSPropertyOp14
 70
     1
102
RTVSPropertyOp15
 70
     1
102
RTVSPropertyOp16
 70
     1
102
RTVSPropertyOp17
 70
     1
102
RTVSPropertyOp18
 70
     1
102
RTVSPropertyOp19
 70
     1
102
RTVSPropertyOp20
 70
     1
102
RTVSPropertyOp21
 70
     1
102
RTVSPropertyOp22
 70
     1
102
RTVSPropertyOp23
 70
     1
102
RTVSPropertyOp24
 70
     1
102
RTVSPropertyOp25
 70
     1
102
RTVSPropertyOp26
 70
     1
102
RTVSPropertyOp27
 70
     1
102
RTVSPropertyOp28
 70
     1
102
RTVSPropertyOp29
 70
     1
102
RTVSPropertyOp30
 70
     1
102
RTVSPropertyOp31
 70
     1
102
RTVSPropertyOp32
 70
     1
102
RTVSPropertyOp33
 70
     1
102
RTVSPropertyOp34
 70
     1
102
RTVSPropertyOp35
 70
     1
102
RTVSPropertyOp36
 70
     1
102
RTVSPropertyOp37
 70
     1
102
RTVSPropertyOp38
 70
     1
102
RTVSPropertyOp39
 70
     1
102
RTVSPropertyOp40
 70
     1
102
RTVSPropertyOp41
 70
     1
102
RTVSPropertyOp42
 70
     1
102
RTVSPropertyOp43
 70
     1
102
RTVSPropertyOp44
 70
     1
102
RTVSPropertyOp45
 70
     1
102
RTVSPropertyOp46
 70
     1
102
RTVSPropertyOp47
 70
     1
102
RTVSPropertyOp48
 70
     1
102
RTVSPropertyOp49
 70
     1
102
RTVSPropertyOp50
 70
     1
102
RTVSPropertyOp51
 70
     0
102
RTVSPropertyOp52
 70
     0
102
RTVSPropertyOp53
 70
     1
102
RTVSPropertyOp54
 70
     1
102
RTVSPropertyOp55
 70
     1
102
RTVSPropertyOp56
 70
     1
102
RTVSPropertyOp57
 70
     1
102
RTVSPropertyOp58
 70
     1
102
RTVSPropertyOp59
 70
     1
102
RTVSPropertyOp60
 70
     1
102
RTVSPropertyOp61
 70
     1
102
RTVSPropertyOp62
 70
     1
  0
XRECORD
  5
A688
102
{ACAD_REACTORS
330
A687
102
}
330
A687
100
AcDbXrecord
280
     1
102
RTVSPost2010Prop28
280
     0
102
RTVSPost2010PropOp28
 70
     1
102
RTVSPost2010Prop29
280
     1
102
RTVSPost2010PropOp29
 70
     1
102
RTVSPost2010Prop30
280
     1
102
RTVSPost2010PropOp30
 70
     1
102
RTVSPost2010Prop31
280
     0
102
RTVSPost2010PropOp31
 70
     1
102
RTVSPost2010Prop32
280
     0
102
RTVSPost2010PropOp32
 70
     1
102
RTVSPost2010Prop33
280
     0
102
RTVSPost2010PropOp33
 70
     1
102
RTVSPost2010Prop34
280
     0
102
RTVSPost2010PropOp34
 70
     1
102
RTVSPost2010Prop35
280
     0
102
RTVSPost2010PropOp35
 70
     1
102
RTVSPost2010Prop36
280
     0
102
RTVSPost2010PropOp36
 70
     1
102
RTVSPost2010Prop37
 90
       50
102
RTVSPost2010PropOp37
 70
     1
102
RTVSPost2010Prop38
140
0.0
102
RTVSPost2010PropOp38
 70
     1
102
RTVSPost2010Prop39
140
1.0
102
RTVSPost2010PropOp39
 70
     1
102
RTVSPost2010Prop40
 90
        0
102
RTVSPost2010PropOp40
 70
     1
102
RTVSPost2010Prop41ColorIndex
 90
       18
102
RTVSPost2010Prop41ColorRGB
 90
        0
102
RTVSPost2010PropOp41
 70
     1
102
RTVSPost2010Prop42
 90
       50
102
RTVSPost2010PropOp42
 70
     1
102
RTVSPost2010Prop43
 90
        3
102
RTVSPost2010PropOp43
 70
     1
102
RTVSPost2010Prop44ColorIndex
 90
        5
102
RTVSPost2010Prop44ColorRGB
 90
      255
102
RTVSPost2010PropOp44
 70
     1
102
RTVSPost2010Prop45
280
     0
102
RTVSPost2010PropOp45
 70
     1
102
RTVSPost2010Prop46
 90
       50
102
RTVSPost2010PropOp46
 70
     1
102
RTVSPost2010Prop47
 90
       50
102
RTVSPost2010PropOp47
 70
     1
102
RTVSPost2010Prop48
 90
       50
102
RTVSPost2010PropOp48
 70
     1
102
RTVSPost2010Prop49
280
     0
102
RTVSPost2010PropOp49
 70
     1
102
RTVSPost2010Prop50
 90
       50
102
RTVSPost2010PropOp50
 70
     1
102
RTVSPost2010Prop51ColorIndex
 90
      256
102
RTVSPost2010Prop51ColorRGB
 90
-16777216
102
RTVSPost2010PropOp51
 70
     0
102
RTVSPost2010Prop52
140
1.0
102
RTVSPost2010PropOp52
 70
     0
102
RTVSPost2010Prop53
 90
        2
102
RTVSPost2010PropOp53
 70
     1
102
RTVSPost2010Prop54
  1
strokes_ogs.tif
102
RTVSPost2010PropOp54
 70
     1
102
RTVSPost2010Prop55
280
     0
102
RTVSPost2010PropOp55
 70
     1
102
RTVSPost2010Prop56
140
1.0
102
RTVSPost2010PropOp56
 70
     1
102
RTVSPost2010Prop57
140
1.0
102
RTVSPost2010PropOp57
 70
     1
102
RTVSPropertyOp0
 70
     1
102
RTVSPropertyOp1
 70
     1
102
RTVSPropertyOp2
 70
     1
102
RTVSPropertyOp3
 70
     1
102
RTVSPropertyOp4
 70
     1
102
RTVSPropertyOp5
 70
     1
102
RTVSPropertyOp6
 70
     1
102
RTVSPropertyOp7
 70
     1
102
RTVSPropertyOp8
 70
     1
102
RTVSPropertyOp9
 70
     1
102
RTVSPropertyOp10
 70
     1
102
RTVSPropertyOp11
 70
     1
102
RTVSPropertyOp12
 70
     1
102
RTVSPropertyOp13
 70
     1
102
RTVSPropertyOp14
 70
     1
102
RTVSPropertyOp15
 70
     1
102
RTVSPropertyOp16
 70
     1
102
RTVSPropertyOp17
 70
     1
102
RTVSPropertyOp18
 70
     1
102
RTVSPropertyOp19
 70
     1
102
RTVSPropertyOp20
 70
     1
102
RTVSPropertyOp21
 70
     1
102
RTVSPropertyOp22
 70
     1
102
RTVSPropertyOp23
 70
     1
102
RTVSPropertyOp24
 70
     1
102
RTVSPropertyOp25
 70
     1
102
RTVSPropertyOp26
 70
     1
102
RTVSPropertyOp27
 70
     1
102
RTVSPropertyOp28
 70
     1
102
RTVSPropertyOp29
 70
     1
102
RTVSPropertyOp30
 70
     1
102
RTVSPropertyOp31
 70
     1
102
RTVSPropertyOp32
 70
     1
102
RTVSPropertyOp33
 70
     1
102
RTVSPropertyOp34
 70
     1
102
RTVSPropertyOp35
 70
     1
102
RTVSPropertyOp36
 70
     1
102
RTVSPropertyOp37
 70
     1
102
RTVSPropertyOp38
 70
     1
102
RTVSPropertyOp39
 70
     1
102
RTVSPropertyOp40
 70
     1
102
RTVSPropertyOp41
 70
     1
102
RTVSPropertyOp42
 70
     1
102
RTVSPropertyOp43
 70
     1
102
RTVSPropertyOp44
 70
     1
102
RTVSPropertyOp45
 70
     1
102
RTVSPropertyOp46
 70
     1
102
RTVSPropertyOp47
 70
     1
102
RTVSPropertyOp48
 70
     1
102
RTVSPropertyOp49
 70
     1
102
RTVSPropertyOp50
 70
     1
102
RTVSPropertyOp51
 70
     0
102
RTVSPropertyOp52
 70
     0
102
RTVSPropertyOp53
 70
     1
102
RTVSPropertyOp54
 70
     1
102
RTVSPropertyOp55
 70
     1
102
RTVSPropertyOp56
 70
     1
102
RTVSPropertyOp57
 70
     1
102
RTVSPropertyOp58
 70
     1
102
RTVSPropertyOp59
 70
     1
102
RTVSPropertyOp60
 70
     1
102
RTVSPropertyOp61
 70
     1
102
RTVSPropertyOp62
 70
     1
  0
XRECORD
  5
A68A
102
{ACAD_REACTORS
330
A689
102
}
330
A689
100
AcDbXrecord
280
     1
102
RTVSPost2010Prop28
280
     0
102
RTVSPost2010PropOp28
 70
     1
102
RTVSPost2010Prop29
280
     1
102
RTVSPost2010PropOp29
 70
     1
102
RTVSPost2010Prop30
280
     1
102
RTVSPost2010PropOp30
 70
     1
102
RTVSPost2010Prop31
280
     0
102
RTVSPost2010PropOp31
 70
     1
102
RTVSPost2010Prop32
280
     0
102
RTVSPost2010PropOp32
 70
     1
102
RTVSPost2010Prop33
280
     0
102
RTVSPost2010PropOp33
 70
     1
102
RTVSPost2010Prop34
280
     0
102
RTVSPost2010PropOp34
 70
     1
102
RTVSPost2010Prop35
280
     0
102
RTVSPost2010PropOp35
 70
     1
102
RTVSPost2010Prop36
280
     0
102
RTVSPost2010PropOp36
 70
     1
102
RTVSPost2010Prop37
 90
       50
102
RTVSPost2010PropOp37
 70
     1
102
RTVSPost2010Prop38
140
0.0
102
RTVSPost2010PropOp38
 70
     1
102
RTVSPost2010Prop39
140
1.0
102
RTVSPost2010PropOp39
 70
     1
102
RTVSPost2010Prop40
 90
        0
102
RTVSPost2010PropOp40
 70
     1
102
RTVSPost2010Prop41ColorIndex
 90
       18
102
RTVSPost2010Prop41ColorRGB
 90
        0
102
RTVSPost2010PropOp41
 70
     1
102
RTVSPost2010Prop42
 90
       50
102
RTVSPost2010PropOp42
 70
     1
102
RTVSPost2010Prop43
 90
        3
102
RTVSPost2010PropOp43
 70
     1
102
RTVSPost2010Prop44ColorIndex
 90
        5
102
RTVSPost2010Prop44ColorRGB
 90
      255
102
RTVSPost2010PropOp44
 70
     1
102
RTVSPost2010Prop45
280
     0
102
RTVSPost2010PropOp45
 70
     1
102
RTVSPost2010Prop46
 90
       50
102
RTVSPost2010PropOp46
 70
     1
102
RTVSPost2010Prop47
 90
       50
102
RTVSPost2010PropOp47
 70
     1
102
RTVSPost2010Prop48
 90
       50
102
RTVSPost2010PropOp48
 70
     1
102
RTVSPost2010Prop49
280
     0
102
RTVSPost2010PropOp49
 70
     1
102
RTVSPost2010Prop50
 90
       50
102
RTVSPost2010PropOp50
 70
     1
102
RTVSPost2010Prop51ColorIndex
 90
      256
102
RTVSPost2010Prop51ColorRGB
 90
-16777216
102
RTVSPost2010PropOp51
 70
     0
102
RTVSPost2010Prop52
140
1.0
102
RTVSPost2010PropOp52
 70
     0
102
RTVSPost2010Prop53
 90
        2
102
RTVSPost2010PropOp53
 70
     1
102
RTVSPost2010Prop54
  1
strokes_ogs.tif
102
RTVSPost2010PropOp54
 70
     1
102
RTVSPost2010Prop55
280
     0
102
RTVSPost2010PropOp55
 70
     1
102
RTVSPost2010Prop56
140
1.0
102
RTVSPost2010PropOp56
 70
     1
102
RTVSPost2010Prop57
140
1.0
102
RTVSPost2010PropOp57
 70
     1
102
RTVSPropertyOp0
 70
     1
102
RTVSPropertyOp1
 70
     1
102
RTVSPropertyOp2
 70
     1
102
RTVSPropertyOp3
 70
     1
102
RTVSPropertyOp4
 70
     1
102
RTVSPropertyOp5
 70
     1
102
RTVSPropertyOp6
 70
     1
102
RTVSPropertyOp7
 70
     1
102
RTVSPropertyOp8
 70
     1
102
RTVSPropertyOp9
 70
     1
102
RTVSPropertyOp10
 70
     1
102
RTVSPropertyOp11
 70
     1
102
RTVSPropertyOp12
 70
     1
102
RTVSPropertyOp13
 70
     1
102
RTVSPropertyOp14
 70
     1
102
RTVSPropertyOp15
 70
     1
102
RTVSPropertyOp16
 70
     1
102
RTVSPropertyOp17
 70
     1
102
RTVSPropertyOp18
 70
     1
102
RTVSPropertyOp19
 70
     1
102
RTVSPropertyOp20
 70
     1
102
RTVSPropertyOp21
 70
     1
102
RTVSPropertyOp22
 70
     1
102
RTVSPropertyOp23
 70
     1
102
RTVSPropertyOp24
 70
     1
102
RTVSPropertyOp25
 70
     1
102
RTVSPropertyOp26
 70
     1
102
RTVSPropertyOp27
 70
     1
102
RTVSPropertyOp28
 70
     1
102
RTVSPropertyOp29
 70
     1
102
RTVSPropertyOp30
 70
     1
102
RTVSPropertyOp31
 70
     1
102
RTVSPropertyOp32
 70
     1
102
RTVSPropertyOp33
 70
     1
102
RTVSPropertyOp34
 70
     1
102
RTVSPropertyOp35
 70
     1
102
RTVSPropertyOp36
 70
     1
102
RTVSPropertyOp37
 70
     1
102
RTVSPropertyOp38
 70
     1
102
RTVSPropertyOp39
 70
     1
102
RTVSPropertyOp40
 70
     1
102
RTVSPropertyOp41
 70
     1
102
RTVSPropertyOp42
 70
     1
102
RTVSPropertyOp43
 70
     1
102
RTVSPropertyOp44
 70
     1
102
RTVSPropertyOp45
 70
     1
102
RTVSPropertyOp46
 70
     1
102
RTVSPropertyOp47
 70
     1
102
RTVSPropertyOp48
 70
     1
102
RTVSPropertyOp49
 70
     1
102
RTVSPropertyOp50
 70
     1
102
RTVSPropertyOp51
 70
     0
102
RTVSPropertyOp52
 70
     0
102
RTVSPropertyOp53
 70
     1
102
RTVSPropertyOp54
 70
     1
102
RTVSPropertyOp55
 70
     1
102
RTVSPropertyOp56
 70
     1
102
RTVSPropertyOp57
 70
     1
102
RTVSPropertyOp58
 70
     1
102
RTVSPropertyOp59
 70
     1
102
RTVSPropertyOp60
 70
     1
102
RTVSPropertyOp61
 70
     1
102
RTVSPropertyOp62
 70
     1
  0
XRECORD
  5
A68C
102
{ACAD_REACTORS
330
A68B
102
}
330
A68B
100
AcDbXrecord
280
     1
102
RTVSPost2010Prop28
280
     0
102
RTVSPost2010PropOp28
 70
     1
102
RTVSPost2010Prop29
280
     1
102
RTVSPost2010PropOp29
 70
     1
102
RTVSPost2010Prop30
280
     1
102
RTVSPost2010PropOp30
 70
     1
102
RTVSPost2010Prop31
280
     0
102
RTVSPost2010PropOp31
 70
     1
102
RTVSPost2010Prop32
280
     0
102
RTVSPost2010PropOp32
 70
     1
102
RTVSPost2010Prop33
280
     0
102
RTVSPost2010PropOp33
 70
     1
102
RTVSPost2010Prop34
280
     0
102
RTVSPost2010PropOp34
 70
     1
102
RTVSPost2010Prop35
280
     0
102
RTVSPost2010PropOp35
 70
     1
102
RTVSPost2010Prop36
280
     0
102
RTVSPost2010PropOp36
 70
     1
102
RTVSPost2010Prop37
 90
       50
102
RTVSPost2010PropOp37
 70
     1
102
RTVSPost2010Prop38
140
0.0
102
RTVSPost2010PropOp38
 70
     1
102
RTVSPost2010Prop39
140
1.0
102
RTVSPost2010PropOp39
 70
     1
102
RTVSPost2010Prop40
 90
        0
102
RTVSPost2010PropOp40
 70
     1
102
RTVSPost2010Prop41ColorIndex
 90
       18
102
RTVSPost2010Prop41ColorRGB
 90
        0
102
RTVSPost2010PropOp41
 70
     1
102
RTVSPost2010Prop42
 90
       50
102
RTVSPost2010PropOp42
 70
     1
102
RTVSPost2010Prop43
 90
        3
102
RTVSPost2010PropOp43
 70
     1
102
RTVSPost2010Prop44ColorIndex
 90
        5
102
RTVSPost2010Prop44ColorRGB
 90
      255
102
RTVSPost2010PropOp44
 70
     1
102
RTVSPost2010Prop45
280
     0
102
RTVSPost2010PropOp45
 70
     1
102
RTVSPost2010Prop46
 90
       50
102
RTVSPost2010PropOp46
 70
     1
102
RTVSPost2010Prop47
 90
       50
102
RTVSPost2010PropOp47
 70
     1
102
RTVSPost2010Prop48
 90
       50
102
RTVSPost2010PropOp48
 70
     1
102
RTVSPost2010Prop49
280
     0
102
RTVSPost2010PropOp49
 70
     1
102
RTVSPost2010Prop50
 90
       50
102
RTVSPost2010PropOp50
 70
     1
102
RTVSPost2010Prop51ColorIndex
 90
      256
102
RTVSPost2010Prop51ColorRGB
 90
-16777216
102
RTVSPost2010PropOp51
 70
     0
102
RTVSPost2010Prop52
140
1.0
102
RTVSPost2010PropOp52
 70
     0
102
RTVSPost2010Prop53
 90
        2
102
RTVSPost2010PropOp53
 70
     1
102
RTVSPost2010Prop54
  1
strokes_ogs.tif
102
RTVSPost2010PropOp54
 70
     1
102
RTVSPost2010Prop55
280
     0
102
RTVSPost2010PropOp55
 70
     1
102
RTVSPost2010Prop56
140
1.0
102
RTVSPost2010PropOp56
 70
     1
102
RTVSPost2010Prop57
140
1.0
102
RTVSPost2010PropOp57
 70
     1
102
RTVSPropertyOp0
 70
     1
102
RTVSPropertyOp1
 70
     1
102
RTVSPropertyOp2
 70
     1
102
RTVSPropertyOp3
 70
     1
102
RTVSPropertyOp4
 70
     1
102
RTVSPropertyOp5
 70
     1
102
RTVSPropertyOp6
 70
     1
102
RTVSPropertyOp7
 70
     1
102
RTVSPropertyOp8
 70
     1
102
RTVSPropertyOp9
 70
     1
102
RTVSPropertyOp10
 70
     1
102
RTVSPropertyOp11
 70
     1
102
RTVSPropertyOp12
 70
     1
102
RTVSPropertyOp13
 70
     1
102
RTVSPropertyOp14
 70
     1
102
RTVSPropertyOp15
 70
     1
102
RTVSPropertyOp16
 70
     1
102
RTVSPropertyOp17
 70
     1
102
RTVSPropertyOp18
 70
     1
102
RTVSPropertyOp19
 70
     1
102
RTVSPropertyOp20
 70
     1
102
RTVSPropertyOp21
 70
     1
102
RTVSPropertyOp22
 70
     1
102
RTVSPropertyOp23
 70
     1
102
RTVSPropertyOp24
 70
     1
102
RTVSPropertyOp25
 70
     1
102
RTVSPropertyOp26
 70
     1
102
RTVSPropertyOp27
 70
     1
102
RTVSPropertyOp28
 70
     1
102
RTVSPropertyOp29
 70
     1
102
RTVSPropertyOp30
 70
     1
102
RTVSPropertyOp31
 70
     1
102
RTVSPropertyOp32
 70
     1
102
RTVSPropertyOp33
 70
     1
102
RTVSPropertyOp34
 70
     1
102
RTVSPropertyOp35
 70
     1
102
RTVSPropertyOp36
 70
     1
102
RTVSPropertyOp37
 70
     1
102
RTVSPropertyOp38
 70
     1
102
RTVSPropertyOp39
 70
     1
102
RTVSPropertyOp40
 70
     1
102
RTVSPropertyOp41
 70
     1
102
RTVSPropertyOp42
 70
     1
102
RTVSPropertyOp43
 70
     1
102
RTVSPropertyOp44
 70
     1
102
RTVSPropertyOp45
 70
     1
102
RTVSPropertyOp46
 70
     1
102
RTVSPropertyOp47
 70
     1
102
RTVSPropertyOp48
 70
     1
102
RTVSPropertyOp49
 70
     1
102
RTVSPropertyOp50
 70
     1
102
RTVSPropertyOp51
 70
     0
102
RTVSPropertyOp52
 70
     0
102
RTVSPropertyOp53
 70
     1
102
RTVSPropertyOp54
 70
     1
102
RTVSPropertyOp55
 70
     1
102
RTVSPropertyOp56
 70
     1
102
RTVSPropertyOp57
 70
     1
102
RTVSPropertyOp58
 70
     1
102
RTVSPropertyOp59
 70
     1
102
RTVSPropertyOp60
 70
     1
102
RTVSPropertyOp61
 70
     1
102
RTVSPropertyOp62
 70
     1
  0
XRECORD
  5
A68E
102
{ACAD_REACTORS
330
A68D
102
}
330
A68D
100
AcDbXrecord
280
     1
102
RTVSPost2010Prop28
280
     0
102
RTVSPost2010PropOp28
 70
     1
102
RTVSPost2010Prop29
280
     1
102
RTVSPost2010PropOp29
 70
     1
102
RTVSPost2010Prop30
280
     1
102
RTVSPost2010PropOp30
 70
     1
102
RTVSPost2010Prop31
280
     0
102
RTVSPost2010PropOp31
 70
     1
102
RTVSPost2010Prop32
280
     0
102
RTVSPost2010PropOp32
 70
     1
102
RTVSPost2010Prop33
280
     0
102
RTVSPost2010PropOp33
 70
     1
102
RTVSPost2010Prop34
280
     0
102
RTVSPost2010PropOp34
 70
     1
102
RTVSPost2010Prop35
280
     0
102
RTVSPost2010PropOp35
 70
     1
102
RTVSPost2010Prop36
280
     0
102
RTVSPost2010PropOp36
 70
     1
102
RTVSPost2010Prop37
 90
       50
102
RTVSPost2010PropOp37
 70
     1
102
RTVSPost2010Prop38
140
0.0
102
RTVSPost2010PropOp38
 70
     1
102
RTVSPost2010Prop39
140
1.0
102
RTVSPost2010PropOp39
 70
     1
102
RTVSPost2010Prop40
 90
        0
102
RTVSPost2010PropOp40
 70
     1
102
RTVSPost2010Prop41ColorIndex
 90
       18
102
RTVSPost2010Prop41ColorRGB
 90
        0
102
RTVSPost2010PropOp41
 70
     1
102
RTVSPost2010Prop42
 90
       50
102
RTVSPost2010PropOp42
 70
     1
102
RTVSPost2010Prop43
 90
        3
102
RTVSPost2010PropOp43
 70
     1
102
RTVSPost2010Prop44ColorIndex
 90
        5
102
RTVSPost2010Prop44ColorRGB
 90
      255
102
RTVSPost2010PropOp44
 70
     1
102
RTVSPost2010Prop45
280
     0
102
RTVSPost2010PropOp45
 70
     1
102
RTVSPost2010Prop46
 90
       50
102
RTVSPost2010PropOp46
 70
     1
102
RTVSPost2010Prop47
 90
       50
102
RTVSPost2010PropOp47
 70
     1
102
RTVSPost2010Prop48
 90
       50
102
RTVSPost2010PropOp48
 70
     1
102
RTVSPost2010Prop49
280
     0
102
RTVSPost2010PropOp49
 70
     1
102
RTVSPost2010Prop50
 90
       50
102
RTVSPost2010PropOp50
 70
     1
102
RTVSPost2010Prop51ColorIndex
 90
      256
102
RTVSPost2010Prop51ColorRGB
 90
-16777216
102
RTVSPost2010PropOp51
 70
     0
102
RTVSPost2010Prop52
140
1.0
102
RTVSPost2010PropOp52
 70
     0
102
RTVSPost2010Prop53
 90
        2
102
RTVSPost2010PropOp53
 70
     1
102
RTVSPost2010Prop54
  1
strokes_ogs.tif
102
RTVSPost2010PropOp54
 70
     1
102
RTVSPost2010Prop55
280
     0
102
RTVSPost2010PropOp55
 70
     1
102
RTVSPost2010Prop56
140
1.0
102
RTVSPost2010PropOp56
 70
     1
102
RTVSPost2010Prop57
140
1.0
102
RTVSPost2010PropOp57
 70
     1
102
RTVSPropertyOp0
 70
     1
102
RTVSPropertyOp1
 70
     1
102
RTVSPropertyOp2
 70
     1
102
RTVSPropertyOp3
 70
     1
102
RTVSPropertyOp4
 70
     1
102
RTVSPropertyOp5
 70
     1
102
RTVSPropertyOp6
 70
     1
102
RTVSPropertyOp7
 70
     1
102
RTVSPropertyOp8
 70
     1
102
RTVSPropertyOp9
 70
     1
102
RTVSPropertyOp10
 70
     1
102
RTVSPropertyOp11
 70
     1
102
RTVSPropertyOp12
 70
     1
102
RTVSPropertyOp13
 70
     1
102
RTVSPropertyOp14
 70
     1
102
RTVSPropertyOp15
 70
     1
102
RTVSPropertyOp16
 70
     1
102
RTVSPropertyOp17
 70
     1
102
RTVSPropertyOp18
 70
     1
102
RTVSPropertyOp19
 70
     1
102
RTVSPropertyOp20
 70
     1
102
RTVSPropertyOp21
 70
     1
102
RTVSPropertyOp22
 70
     1
102
RTVSPropertyOp23
 70
     1
102
RTVSPropertyOp24
 70
     1
102
RTVSPropertyOp25
 70
     1
102
RTVSPropertyOp26
 70
     1
102
RTVSPropertyOp27
 70
     1
102
RTVSPropertyOp28
 70
     1
102
RTVSPropertyOp29
 70
     1
102
RTVSPropertyOp30
 70
     1
102
RTVSPropertyOp31
 70
     1
102
RTVSPropertyOp32
 70
     1
102
RTVSPropertyOp33
 70
     1
102
RTVSPropertyOp34
 70
     1
102
RTVSPropertyOp35
 70
     1
102
RTVSPropertyOp36
 70
     1
102
RTVSPropertyOp37
 70
     1
102
RTVSPropertyOp38
 70
     1
102
RTVSPropertyOp39
 70
     1
102
RTVSPropertyOp40
 70
     1
102
RTVSPropertyOp41
 70
     1
102
RTVSPropertyOp42
 70
     1
102
RTVSPropertyOp43
 70
     1
102
RTVSPropertyOp44
 70
     1
102
RTVSPropertyOp45
 70
     1
102
RTVSPropertyOp46
 70
     1
102
RTVSPropertyOp47
 70
     1
102
RTVSPropertyOp48
 70
     1
102
RTVSPropertyOp49
 70
     1
102
RTVSPropertyOp50
 70
     1
102
RTVSPropertyOp51
 70
     0
102
RTVSPropertyOp52
 70
     0
102
RTVSPropertyOp53
 70
     1
102
RTVSPropertyOp54
 70
     1
102
RTVSPropertyOp55
 70
     1
102
RTVSPropertyOp56
 70
     1
102
RTVSPropertyOp57
 70
     1
102
RTVSPropertyOp58
 70
     1
102
RTVSPropertyOp59
 70
     1
102
RTVSPropertyOp60
 70
     1
102
RTVSPropertyOp61
 70
     1
102
RTVSPropertyOp62
 70
     1
  0
XRECORD
  5
A696
102
{ACAD_REACTORS
330
A695
102
}
330
A695
100
AcDbXrecord
280
     1
102
RTVSPost2010Prop28
280
     0
102
RTVSPost2010PropOp28
 70
     1
102
RTVSPost2010Prop29
280
     1
102
RTVSPost2010PropOp29
 70
     1
102
RTVSPost2010Prop30
280
     1
102
RTVSPost2010PropOp30
 70
     1
102
RTVSPost2010Prop31
280
     0
102
RTVSPost2010PropOp31
 70
     1
102
RTVSPost2010Prop32
280
     0
102
RTVSPost2010PropOp32
 70
     1
102
RTVSPost2010Prop33
280
     0
102
RTVSPost2010PropOp33
 70
     1
102
RTVSPost2010Prop34
280
     0
102
RTVSPost2010PropOp34
 70
     1
102
RTVSPost2010Prop35
280
     0
102
RTVSPost2010PropOp35
 70
     1
102
RTVSPost2010Prop36
280
     0
102
RTVSPost2010PropOp36
 70
     1
102
RTVSPost2010Prop37
 90
       50
102
RTVSPost2010PropOp37
 70
     1
102
RTVSPost2010Prop38
140
0.0
102
RTVSPost2010PropOp38
 70
     1
102
RTVSPost2010Prop39
140
1.0
102
RTVSPost2010PropOp39
 70
     1
102
RTVSPost2010Prop40
 90
        0
102
RTVSPost2010PropOp40
 70
     1
102
RTVSPost2010Prop41ColorIndex
 90
       18
102
RTVSPost2010Prop41ColorRGB
 90
        0
102
RTVSPost2010PropOp41
 70
     1
102
RTVSPost2010Prop42
 90
       50
102
RTVSPost2010PropOp42
 70
     1
102
RTVSPost2010Prop43
 90
        3
102
RTVSPost2010PropOp43
 70
     1
102
RTVSPost2010Prop44ColorIndex
 90
        5
102
RTVSPost2010Prop44ColorRGB
 90
      255
102
RTVSPost2010PropOp44
 70
     1
102
RTVSPost2010Prop45
280
     0
102
RTVSPost2010PropOp45
 70
     1
102
RTVSPost2010Prop46
 90
       50
102
RTVSPost2010PropOp46
 70
     1
102
RTVSPost2010Prop47
 90
       50
102
RTVSPost2010PropOp47
 70
     1
102
RTVSPost2010Prop48
 90
       50
102
RTVSPost2010PropOp48
 70
     1
102
RTVSPost2010Prop49
280
     0
102
RTVSPost2010PropOp49
 70
     1
102
RTVSPost2010Prop50
 90
       50
102
RTVSPost2010PropOp50
 70
     1
102
RTVSPost2010Prop51ColorIndex
 90
      256
102
RTVSPost2010Prop51ColorRGB
 90
-16777216
102
RTVSPost2010PropOp51
 70
     0
102
RTVSPost2010Prop52
140
1.0
102
RTVSPost2010PropOp52
 70
     0
102
RTVSPost2010Prop53
 90
        2
102
RTVSPost2010PropOp53
 70
     1
102
RTVSPost2010Prop54
  1
strokes_ogs.tif
102
RTVSPost2010PropOp54
 70
     1
102
RTVSPost2010Prop55
280
     0
102
RTVSPost2010PropOp55
 70
     1
102
RTVSPost2010Prop56
140
1.0
102
RTVSPost2010PropOp56
 70
     1
102
RTVSPost2010Prop57
140
1.0
102
RTVSPost2010PropOp57
 70
     1
102
RTVSPropertyOp0
 70
     1
102
RTVSPropertyOp1
 70
     1
102
RTVSPropertyOp2
 70
     1
102
RTVSPropertyOp3
 70
     1
102
RTVSPropertyOp4
 70
     1
102
RTVSPropertyOp5
 70
     1
102
RTVSPropertyOp6
 70
     1
102
RTVSPropertyOp7
 70
     1
102
RTVSPropertyOp8
 70
     1
102
RTVSPropertyOp9
 70
     1
102
RTVSPropertyOp10
 70
     1
102
RTVSPropertyOp11
 70
     1
102
RTVSPropertyOp12
 70
     1
102
RTVSPropertyOp13
 70
     1
102
RTVSPropertyOp14
 70
     1
102
RTVSPropertyOp15
 70
     1
102
RTVSPropertyOp16
 70
     1
102
RTVSPropertyOp17
 70
     1
102
RTVSPropertyOp18
 70
     1
102
RTVSPropertyOp19
 70
     1
102
RTVSPropertyOp20
 70
     1
102
RTVSPropertyOp21
 70
     1
102
RTVSPropertyOp22
 70
     1
102
RTVSPropertyOp23
 70
     1
102
RTVSPropertyOp24
 70
     1
102
RTVSPropertyOp25
 70
     1
102
RTVSPropertyOp26
 70
     1
102
RTVSPropertyOp27
 70
     1
102
RTVSPropertyOp28
 70
     1
102
RTVSPropertyOp29
 70
     1
102
RTVSPropertyOp30
 70
     1
102
RTVSPropertyOp31
 70
     1
102
RTVSPropertyOp32
 70
     1
102
RTVSPropertyOp33
 70
     1
102
RTVSPropertyOp34
 70
     1
102
RTVSPropertyOp35
 70
     1
102
RTVSPropertyOp36
 70
     1
102
RTVSPropertyOp37
 70
     1
102
RTVSPropertyOp38
 70
     1
102
RTVSPropertyOp39
 70
     1
102
RTVSPropertyOp40
 70
     1
102
RTVSPropertyOp41
 70
     1
102
RTVSPropertyOp42
 70
     1
102
RTVSPropertyOp43
 70
     1
102
RTVSPropertyOp44
 70
     1
102
RTVSPropertyOp45
 70
     1
102
RTVSPropertyOp46
 70
     1
102
RTVSPropertyOp47
 70
     1
102
RTVSPropertyOp48
 70
     1
102
RTVSPropertyOp49
 70
     1
102
RTVSPropertyOp50
 70
     1
102
RTVSPropertyOp51
 70
     0
102
RTVSPropertyOp52
 70
     0
102
RTVSPropertyOp53
 70
     1
102
RTVSPropertyOp54
 70
     1
102
RTVSPropertyOp55
 70
     1
102
RTVSPropertyOp56
 70
     1
102
RTVSPropertyOp57
 70
     1
102
RTVSPropertyOp58
 70
     1
102
RTVSPropertyOp59
 70
     1
102
RTVSPropertyOp60
 70
     1
102
RTVSPropertyOp61
 70
     1
102
RTVSPropertyOp62
 70
     1
  0
XRECORD
  5
A6B2
102
{ACAD_REACTORS
330
A6B1
102
}
330
A6B1
100
AcDbXrecord
280
     1
102
RTVSPost2010Prop28
280
     0
102
RTVSPost2010PropOp28
 70
     1
102
RTVSPost2010Prop29
280
     1
102
RTVSPost2010PropOp29
 70
     1
102
RTVSPost2010Prop30
280
     1
102
RTVSPost2010PropOp30
 70
     1
102
RTVSPost2010Prop31
280
     0
102
RTVSPost2010PropOp31
 70
     1
102
RTVSPost2010Prop32
280
     0
102
RTVSPost2010PropOp32
 70
     1
102
RTVSPost2010Prop33
280
     0
102
RTVSPost2010PropOp33
 70
     1
102
RTVSPost2010Prop34
280
     0
102
RTVSPost2010PropOp34
 70
     1
102
RTVSPost2010Prop35
280
     0
102
RTVSPost2010PropOp35
 70
     1
102
RTVSPost2010Prop36
280
     0
102
RTVSPost2010PropOp36
 70
     1
102
RTVSPost2010Prop37
 90
       50
102
RTVSPost2010PropOp37
 70
     0
102
RTVSPost2010Prop38
140
0.0
102
RTVSPost2010PropOp38
 70
     0
102
RTVSPost2010Prop39
140
1.0
102
RTVSPost2010PropOp39
 70
     0
102
RTVSPost2010Prop40
 90
        0
102
RTVSPost2010PropOp40
 70
     0
102
RTVSPost2010Prop41ColorIndex
 90
       18
102
RTVSPost2010Prop41ColorRGB
 90
        0
102
RTVSPost2010PropOp41
 70
     0
102
RTVSPost2010Prop42
 90
       50
102
RTVSPost2010PropOp42
 70
     0
102
RTVSPost2010Prop43
 90
        3
102
RTVSPost2010PropOp43
 70
     0
102
RTVSPost2010Prop44ColorIndex
 90
        5
102
RTVSPost2010Prop44ColorRGB
 90
      255
102
RTVSPost2010PropOp44
 70
     0
102
RTVSPost2010Prop45
280
     0
102
RTVSPost2010PropOp45
 70
     1
102
RTVSPost2010Prop46
 90
       50
102
RTVSPost2010PropOp46
 70
     0
102
RTVSPost2010Prop47
 90
       50
102
RTVSPost2010PropOp47
 70
     0
102
RTVSPost2010Prop48
 90
       50
102
RTVSPost2010PropOp48
 70
     0
102
RTVSPost2010Prop49
280
     0
102
RTVSPost2010PropOp49
 70
     1
102
RTVSPost2010Prop50
 90
       50
102
RTVSPost2010PropOp50
 70
     0
102
RTVSPost2010Prop51ColorIndex
 90
      256
102
RTVSPost2010Prop51ColorRGB
 90
-16777216
102
RTVSPost2010PropOp51
 70
     0
102
RTVSPost2010Prop52
140
1.0
102
RTVSPost2010PropOp52
 70
     0
102
RTVSPost2010Prop53
 90
        2
102
RTVSPost2010PropOp53
 70
     0
102
RTVSPost2010Prop54
  1
strokes_ogs.tif
102
RTVSPost2010PropOp54
 70
     0
102
RTVSPost2010Prop55
280
     0
102
RTVSPost2010PropOp55
 70
     1
102
RTVSPost2010Prop56
140
1.0
102
RTVSPost2010PropOp56
 70
     0
102
RTVSPost2010Prop57
140
1.0
102
RTVSPost2010PropOp57
 70
     0
102
RTVSPropertyOp0
 70
     0
102
RTVSPropertyOp1
 70
     0
102
RTVSPropertyOp2
 70
     0
102
RTVSPropertyOp3
 70
     0
102
RTVSPropertyOp4
 70
     0
102
RTVSPropertyOp5
 70
     0
102
RTVSPropertyOp6
 70
     0
102
RTVSPropertyOp7
 70
     0
102
RTVSPropertyOp8
 70
     0
102
RTVSPropertyOp9
 70
     0
102
RTVSPropertyOp10
 70
     0
102
RTVSPropertyOp11
 70
     0
102
RTVSPropertyOp12
 70
     0
102
RTVSPropertyOp13
 70
     0
102
RTVSPropertyOp14
 70
     2
102
RTVSPropertyOp15
 70
     0
102
RTVSPropertyOp16
 70
     0
102
RTVSPropertyOp17
 70
     0
102
RTVSPropertyOp18
 70
     0
102
RTVSPropertyOp19
 70
     0
102
RTVSPropertyOp20
 70
     0
102
RTVSPropertyOp21
 70
     0
102
RTVSPropertyOp22
 70
     0
102
RTVSPropertyOp23
 70
     0
102
RTVSPropertyOp24
 70
     0
102
RTVSPropertyOp25
 70
     0
102
RTVSPropertyOp26
 70
     0
102
RTVSPropertyOp27
 70
     0
102
RTVSPropertyOp28
 70
     1
102
RTVSPropertyOp29
 70
     1
102
RTVSPropertyOp30
 70
     1
102
RTVSPropertyOp31
 70
     1
102
RTVSPropertyOp32
 70
     1
102
RTVSPropertyOp33
 70
     1
102
RTVSPropertyOp34
 70
     1
102
RTVSPropertyOp35
 70
     1
102
RTVSPropertyOp36
 70
     1
102
RTVSPropertyOp37
 70
     0
102
RTVSPropertyOp38
 70
     0
102
RTVSPropertyOp39
 70
     0
102
RTVSPropertyOp40
 70
     0
102
RTVSPropertyOp41
 70
     0
102
RTVSPropertyOp42
 70
     0
102
RTVSPropertyOp43
 70
     0
102
RTVSPropertyOp44
 70
     0
102
RTVSPropertyOp45
 70
     1
102
RTVSPropertyOp46
 70
     0
102
RTVSPropertyOp47
 70
     0
102
RTVSPropertyOp48
 70
     0
102
RTVSPropertyOp49
 70
     1
102
RTVSPropertyOp50
 70
     0
102
RTVSPropertyOp51
 70
     0
102
RTVSPropertyOp52
 70
     0
102
RTVSPropertyOp53
 70
     0
102
RTVSPropertyOp54
 70
     0
102
RTVSPropertyOp55
 70
     1
102
RTVSPropertyOp56
 70
     0
102
RTVSPropertyOp57
 70
     0
102
RTVSPropertyOp58
 70
     0
102
RTVSPropertyOp59
 70
     0
102
RTVSPropertyOp60
 70
     0
102
RTVSPropertyOp61
 70
     0
102
RTVSPropertyOp62
 70
     0
  0
XRECORD
  5
A6A2
102
{ACAD_REACTORS
330
A6A1
102
}
330
A6A1
100
AcDbXrecord
280
     1
102
RTVSPost2010Prop28
280
     0
102
RTVSPost2010PropOp28
 70
     1
102
RTVSPost2010Prop29
280
     1
102
RTVSPost2010PropOp29
 70
     1
102
RTVSPost2010Prop30
280
     1
102
RTVSPost2010PropOp30
 70
     1
102
RTVSPost2010Prop31
280
     0
102
RTVSPost2010PropOp31
 70
     1
102
RTVSPost2010Prop32
280
     0
102
RTVSPost2010PropOp32
 70
     1
102
RTVSPost2010Prop33
280
     0
102
RTVSPost2010PropOp33
 70
     1
102
RTVSPost2010Prop34
280
     0
102
RTVSPost2010PropOp34
 70
     1
102
RTVSPost2010Prop35
280
     0
102
RTVSPost2010PropOp35
 70
     1
102
RTVSPost2010Prop36
280
     0
102
RTVSPost2010PropOp36
 70
     1
102
RTVSPost2010Prop37
 90
       50
102
RTVSPost2010PropOp37
 70
     1
102
RTVSPost2010Prop38
140
0.0
102
RTVSPost2010PropOp38
 70
     1
102
RTVSPost2010Prop39
140
1.0
102
RTVSPost2010PropOp39
 70
     1
102
RTVSPost2010Prop40
 90
        0
102
RTVSPost2010PropOp40
 70
     1
102
RTVSPost2010Prop41ColorIndex
 90
       18
102
RTVSPost2010Prop41ColorRGB
 90
        0
102
RTVSPost2010PropOp41
 70
     1
102
RTVSPost2010Prop42
 90
       50
102
RTVSPost2010PropOp42
 70
     1
102
RTVSPost2010Prop43
 90
        3
102
RTVSPost2010PropOp43
 70
     1
102
RTVSPost2010Prop44ColorIndex
 90
        5
102
RTVSPost2010Prop44ColorRGB
 90
      255
102
RTVSPost2010PropOp44
 70
     1
102
RTVSPost2010Prop45
280
     0
102
RTVSPost2010PropOp45
 70
     1
102
RTVSPost2010Prop46
 90
       50
102
RTVSPost2010PropOp46
 70
     1
102
RTVSPost2010Prop47
 90
       50
102
RTVSPost2010PropOp47
 70
     1
102
RTVSPost2010Prop48
 90
       50
102
RTVSPost2010PropOp48
 70
     1
102
RTVSPost2010Prop49
280
     0
102
RTVSPost2010PropOp49
 70
     1
102
RTVSPost2010Prop50
 90
       50
102
RTVSPost2010PropOp50
 70
     1
102
RTVSPost2010Prop51ColorIndex
 90
      256
102
RTVSPost2010Prop51ColorRGB
 90
-16777216
102
RTVSPost2010PropOp51
 70
     0
102
RTVSPost2010Prop52
140
1.0
102
RTVSPost2010PropOp52
 70
     0
102
RTVSPost2010Prop53
 90
        2
102
RTVSPost2010PropOp53
 70
     1
102
RTVSPost2010Prop54
  1
strokes_ogs.tif
102
RTVSPost2010PropOp54
 70
     1
102
RTVSPost2010Prop55
280
     0
102
RTVSPost2010PropOp55
 70
     1
102
RTVSPost2010Prop56
140
1.0
102
RTVSPost2010PropOp56
 70
     1
102
RTVSPost2010Prop57
140
1.0
102
RTVSPost2010PropOp57
 70
     1
102
RTVSPropertyOp0
 70
     1
102
RTVSPropertyOp1
 70
     1
102
RTVSPropertyOp2
 70
     1
102
RTVSPropertyOp3
 70
     1
102
RTVSPropertyOp4
 70
     1
102
RTVSPropertyOp5
 70
     1
102
RTVSPropertyOp6
 70
     1
102
RTVSPropertyOp7
 70
     1
102
RTVSPropertyOp8
 70
     1
102
RTVSPropertyOp9
 70
     1
102
RTVSPropertyOp10
 70
     1
102
RTVSPropertyOp11
 70
     1
102
RTVSPropertyOp12
 70
     1
102
RTVSPropertyOp13
 70
     1
102
RTVSPropertyOp14
 70
     1
102
RTVSPropertyOp15
 70
     1
102
RTVSPropertyOp16
 70
     1
102
RTVSPropertyOp17
 70
     1
102
RTVSPropertyOp18
 70
     1
102
RTVSPropertyOp19
 70
     1
102
RTVSPropertyOp20
 70
     1
102
RTVSPropertyOp21
 70
     1
102
RTVSPropertyOp22
 70
     1
102
RTVSPropertyOp23
 70
     1
102
RTVSPropertyOp24
 70
     1
102
RTVSPropertyOp25
 70
     1
102
RTVSPropertyOp26
 70
     1
102
RTVSPropertyOp27
 70
     1
102
RTVSPropertyOp28
 70
     1
102
RTVSPropertyOp29
 70
     1
102
RTVSPropertyOp30
 70
     1
102
RTVSPropertyOp31
 70
     1
102
RTVSPropertyOp32
 70
     1
102
RTVSPropertyOp33
 70
     1
102
RTVSPropertyOp34
 70
     1
102
RTVSPropertyOp35
 70
     1
102
RTVSPropertyOp36
 70
     1
102
RTVSPropertyOp37
 70
     1
102
RTVSPropertyOp38
 70
     1
102
RTVSPropertyOp39
 70
     1
102
RTVSPropertyOp40
 70
     1
102
RTVSPropertyOp41
 70
     1
102
RTVSPropertyOp42
 70
     1
102
RTVSPropertyOp43
 70
     1
102
RTVSPropertyOp44
 70
     1
102
RTVSPropertyOp45
 70
     1
102
RTVSPropertyOp46
 70
     1
102
RTVSPropertyOp47
 70
     1
102
RTVSPropertyOp48
 70
     1
102
RTVSPropertyOp49
 70
     1
102
RTVSPropertyOp50
 70
     1
102
RTVSPropertyOp51
 70
     0
102
RTVSPropertyOp52
 70
     0
102
RTVSPropertyOp53
 70
     1
102
RTVSPropertyOp54
 70
     1
102
RTVSPropertyOp55
 70
     1
102
RTVSPropertyOp56
 70
     1
102
RTVSPropertyOp57
 70
     1
102
RTVSPropertyOp58
 70
     1
102
RTVSPropertyOp59
 70
     1
102
RTVSPropertyOp60
 70
     1
102
RTVSPropertyOp61
 70
     1
102
RTVSPropertyOp62
 70
     1
  0
XRECORD
  5
A6B4
102
{ACAD_REACTORS
330
A6B3
102
}
330
A6B3
100
AcDbXrecord
280
     1
102
RTVSPost2010Prop28
280
     0
102
RTVSPost2010PropOp28
 70
     1
102
RTVSPost2010Prop29
280
     1
102
RTVSPost2010PropOp29
 70
     1
102
RTVSPost2010Prop30
280
     1
102
RTVSPost2010PropOp30
 70
     1
102
RTVSPost2010Prop31
280
     0
102
RTVSPost2010PropOp31
 70
     1
102
RTVSPost2010Prop32
280
     0
102
RTVSPost2010PropOp32
 70
     1
102
RTVSPost2010Prop33
280
     0
102
RTVSPost2010PropOp33
 70
     1
102
RTVSPost2010Prop34
280
     0
102
RTVSPost2010PropOp34
 70
     1
102
RTVSPost2010Prop35
280
     0
102
RTVSPost2010PropOp35
 70
     1
102
RTVSPost2010Prop36
280
     0
102
RTVSPost2010PropOp36
 70
     1
102
RTVSPost2010Prop37
 90
       50
102
RTVSPost2010PropOp37
 70
     0
102
RTVSPost2010Prop38
140
0.0
102
RTVSPost2010PropOp38
 70
     0
102
RTVSPost2010Prop39
140
1.0
102
RTVSPost2010PropOp39
 70
     0
102
RTVSPost2010Prop40
 90
        0
102
RTVSPost2010PropOp40
 70
     0
102
RTVSPost2010Prop41ColorIndex
 90
       18
102
RTVSPost2010Prop41ColorRGB
 90
        0
102
RTVSPost2010PropOp41
 70
     0
102
RTVSPost2010Prop42
 90
       50
102
RTVSPost2010PropOp42
 70
     0
102
RTVSPost2010Prop43
 90
        3
102
RTVSPost2010PropOp43
 70
     0
102
RTVSPost2010Prop44ColorIndex
 90
        5
102
RTVSPost2010Prop44ColorRGB
 90
      255
102
RTVSPost2010PropOp44
 70
     0
102
RTVSPost2010Prop45
280
     0
102
RTVSPost2010PropOp45
 70
     1
102
RTVSPost2010Prop46
 90
       50
102
RTVSPost2010PropOp46
 70
     0
102
RTVSPost2010Prop47
 90
       50
102
RTVSPost2010PropOp47
 70
     0
102
RTVSPost2010Prop48
 90
       50
102
RTVSPost2010PropOp48
 70
     0
102
RTVSPost2010Prop49
280
     0
102
RTVSPost2010PropOp49
 70
     1
102
RTVSPost2010Prop50
 90
       50
102
RTVSPost2010PropOp50
 70
     0
102
RTVSPost2010Prop51ColorIndex
 90
      256
102
RTVSPost2010Prop51ColorRGB
 90
-16777216
102
RTVSPost2010PropOp51
 70
     0
102
RTVSPost2010Prop52
140
1.0
102
RTVSPost2010PropOp52
 70
     0
102
RTVSPost2010Prop53
 90
        2
102
RTVSPost2010PropOp53
 70
     0
102
RTVSPost2010Prop54
  1
strokes_ogs.tif
102
RTVSPost2010PropOp54
 70
     0
102
RTVSPost2010Prop55
280
     0
102
RTVSPost2010PropOp55
 70
     1
102
RTVSPost2010Prop56
140
1.0
102
RTVSPost2010PropOp56
 70
     0
102
RTVSPost2010Prop57
140
1.0
102
RTVSPost2010PropOp57
 70
     0
102
RTVSPropertyOp0
 70
     0
102
RTVSPropertyOp1
 70
     0
102
RTVSPropertyOp2
 70
     0
102
RTVSPropertyOp3
 70
     0
102
RTVSPropertyOp4
 70
     0
102
RTVSPropertyOp5
 70
     0
102
RTVSPropertyOp6
 70
     0
102
RTVSPropertyOp7
 70
     0
102
RTVSPropertyOp8
 70
     0
102
RTVSPropertyOp9
 70
     0
102
RTVSPropertyOp10
 70
     0
102
RTVSPropertyOp11
 70
     0
102
RTVSPropertyOp12
 70
     0
102
RTVSPropertyOp13
 70
     0
102
RTVSPropertyOp14
 70
     2
102
RTVSPropertyOp15
 70
     0
102
RTVSPropertyOp16
 70
     0
102
RTVSPropertyOp17
 70
     0
102
RTVSPropertyOp18
 70
     0
102
RTVSPropertyOp19
 70
     0
102
RTVSPropertyOp20
 70
     0
102
RTVSPropertyOp21
 70
     0
102
RTVSPropertyOp22
 70
     0
102
RTVSPropertyOp23
 70
     0
102
RTVSPropertyOp24
 70
     0
102
RTVSPropertyOp25
 70
     0
102
RTVSPropertyOp26
 70
     0
102
RTVSPropertyOp27
 70
     0
102
RTVSPropertyOp28
 70
     1
102
RTVSPropertyOp29
 70
     1
102
RTVSPropertyOp30
 70
     1
102
RTVSPropertyOp31
 70
     1
102
RTVSPropertyOp32
 70
     1
102
RTVSPropertyOp33
 70
     1
102
RTVSPropertyOp34
 70
     1
102
RTVSPropertyOp35
 70
     1
102
RTVSPropertyOp36
 70
     1
102
RTVSPropertyOp37
 70
     0
102
RTVSPropertyOp38
 70
     0
102
RTVSPropertyOp39
 70
     0
102
RTVSPropertyOp40
 70
     0
102
RTVSPropertyOp41
 70
     0
102
RTVSPropertyOp42
 70
     0
102
RTVSPropertyOp43
 70
     0
102
RTVSPropertyOp44
 70
     0
102
RTVSPropertyOp45
 70
     1
102
RTVSPropertyOp46
 70
     0
102
RTVSPropertyOp47
 70
     0
102
RTVSPropertyOp48
 70
     0
102
RTVSPropertyOp49
 70
     1
102
RTVSPropertyOp50
 70
     0
102
RTVSPropertyOp51
 70
     0
102
RTVSPropertyOp52
 70
     0
102
RTVSPropertyOp53
 70
     0
102
RTVSPropertyOp54
 70
     0
102
RTVSPropertyOp55
 70
     1
102
RTVSPropertyOp56
 70
     0
102
RTVSPropertyOp57
 70
     0
102
RTVSPropertyOp58
 70
     0
102
RTVSPropertyOp59
 70
     0
102
RTVSPropertyOp60
 70
     0
102
RTVSPropertyOp61
 70
     0
102
RTVSPropertyOp62
 70
     0
  0
XRECORD
  5
A69A
102
{ACAD_REACTORS
330
A699
102
}
330
A699
100
AcDbXrecord
280
     1
102
RTVSPost2010Prop28
280
     0
102
RTVSPost2010PropOp28
 70
     1
102
RTVSPost2010Prop29
280
     1
102
RTVSPost2010PropOp29
 70
     1
102
RTVSPost2010Prop30
280
     1
102
RTVSPost2010PropOp30
 70
     1
102
RTVSPost2010Prop31
280
     0
102
RTVSPost2010PropOp31
 70
     1
102
RTVSPost2010Prop32
280
     0
102
RTVSPost2010PropOp32
 70
     1
102
RTVSPost2010Prop33
280
     0
102
RTVSPost2010PropOp33
 70
     1
102
RTVSPost2010Prop34
280
     0
102
RTVSPost2010PropOp34
 70
     1
102
RTVSPost2010Prop35
280
     0
102
RTVSPost2010PropOp35
 70
     1
102
RTVSPost2010Prop36
280
     0
102
RTVSPost2010PropOp36
 70
     1
102
RTVSPost2010Prop37
 90
       50
102
RTVSPost2010PropOp37
 70
     1
102
RTVSPost2010Prop38
140
0.0
102
RTVSPost2010PropOp38
 70
     1
102
RTVSPost2010Prop39
140
1.0
102
RTVSPost2010PropOp39
 70
     1
102
RTVSPost2010Prop40
 90
        0
102
RTVSPost2010PropOp40
 70
     1
102
RTVSPost2010Prop41ColorIndex
 90
       18
102
RTVSPost2010Prop41ColorRGB
 90
        0
102
RTVSPost2010PropOp41
 70
     1
102
RTVSPost2010Prop42
 90
       50
102
RTVSPost2010PropOp42
 70
     1
102
RTVSPost2010Prop43
 90
        3
102
RTVSPost2010PropOp43
 70
     1
102
RTVSPost2010Prop44ColorIndex
 90
        5
102
RTVSPost2010Prop44ColorRGB
 90
      255
102
RTVSPost2010PropOp44
 70
     1
102
RTVSPost2010Prop45
280
     0
102
RTVSPost2010PropOp45
 70
     1
102
RTVSPost2010Prop46
 90
       50
102
RTVSPost2010PropOp46
 70
     1
102
RTVSPost2010Prop47
 90
       50
102
RTVSPost2010PropOp47
 70
     1
102
RTVSPost2010Prop48
 90
       50
102
RTVSPost2010PropOp48
 70
     1
102
RTVSPost2010Prop49
280
     0
102
RTVSPost2010PropOp49
 70
     1
102
RTVSPost2010Prop50
 90
       50
102
RTVSPost2010PropOp50
 70
     1
102
RTVSPost2010Prop51ColorIndex
 90
      256
102
RTVSPost2010Prop51ColorRGB
 90
-16777216
102
RTVSPost2010PropOp51
 70
     0
102
RTVSPost2010Prop52
140
1.0
102
RTVSPost2010PropOp52
 70
     0
102
RTVSPost2010Prop53
 90
        2
102
RTVSPost2010PropOp53
 70
     1
102
RTVSPost2010Prop54
  1
strokes_ogs.tif
102
RTVSPost2010PropOp54
 70
     1
102
RTVSPost2010Prop55
280
     0
102
RTVSPost2010PropOp55
 70
     1
102
RTVSPost2010Prop56
140
1.0
102
RTVSPost2010PropOp56
 70
     1
102
RTVSPost2010Prop57
140
1.0
102
RTVSPost2010PropOp57
 70
     1
102
RTVSPropertyOp0
 70
     1
102
RTVSPropertyOp1
 70
     1
102
RTVSPropertyOp2
 70
     1
102
RTVSPropertyOp3
 70
     1
102
RTVSPropertyOp4
 70
     1
102
RTVSPropertyOp5
 70
     1
102
RTVSPropertyOp6
 70
     1
102
RTVSPropertyOp7
 70
     1
102
RTVSPropertyOp8
 70
     1
102
RTVSPropertyOp9
 70
     1
102
RTVSPropertyOp10
 70
     1
102
RTVSPropertyOp11
 70
     1
102
RTVSPropertyOp12
 70
     1
102
RTVSPropertyOp13
 70
     1
102
RTVSPropertyOp14
 70
     1
102
RTVSPropertyOp15
 70
     1
102
RTVSPropertyOp16
 70
     1
102
RTVSPropertyOp17
 70
     1
102
RTVSPropertyOp18
 70
     1
102
RTVSPropertyOp19
 70
     1
102
RTVSPropertyOp20
 70
     1
102
RTVSPropertyOp21
 70
     1
102
RTVSPropertyOp22
 70
     1
102
RTVSPropertyOp23
 70
     1
102
RTVSPropertyOp24
 70
     1
102
RTVSPropertyOp25
 70
     1
102
RTVSPropertyOp26
 70
     1
102
RTVSPropertyOp27
 70
     1
102
RTVSPropertyOp28
 70
     1
102
RTVSPropertyOp29
 70
     1
102
RTVSPropertyOp30
 70
     1
102
RTVSPropertyOp31
 70
     1
102
RTVSPropertyOp32
 70
     1
102
RTVSPropertyOp33
 70
     1
102
RTVSPropertyOp34
 70
     1
102
RTVSPropertyOp35
 70
     1
102
RTVSPropertyOp36
 70
     1
102
RTVSPropertyOp37
 70
     1
102
RTVSPropertyOp38
 70
     1
102
RTVSPropertyOp39
 70
     1
102
RTVSPropertyOp40
 70
     1
102
RTVSPropertyOp41
 70
     1
102
RTVSPropertyOp42
 70
     1
102
RTVSPropertyOp43
 70
     1
102
RTVSPropertyOp44
 70
     1
102
RTVSPropertyOp45
 70
     1
102
RTVSPropertyOp46
 70
     1
102
RTVSPropertyOp47
 70
     1
102
RTVSPropertyOp48
 70
     1
102
RTVSPropertyOp49
 70
     1
102
RTVSPropertyOp50
 70
     1
102
RTVSPropertyOp51
 70
     0
102
RTVSPropertyOp52
 70
     0
102
RTVSPropertyOp53
 70
     1
102
RTVSPropertyOp54
 70
     1
102
RTVSPropertyOp55
 70
     1
102
RTVSPropertyOp56
 70
     1
102
RTVSPropertyOp57
 70
     1
102
RTVSPropertyOp58
 70
     1
102
RTVSPropertyOp59
 70
     1
102
RTVSPropertyOp60
 70
     1
102
RTVSPropertyOp61
 70
     1
102
RTVSPropertyOp62
 70
     1
  0
XRECORD
  5
A6B0
102
{ACAD_REACTORS
330
A6AF
102
}
330
A6AF
100
AcDbXrecord
280
     1
102
RTVSPost2010Prop28
280
     0
102
RTVSPost2010PropOp28
 70
     1
102
RTVSPost2010Prop29
280
     1
102
RTVSPost2010PropOp29
 70
     1
102
RTVSPost2010Prop30
280
     1
102
RTVSPost2010PropOp30
 70
     1
102
RTVSPost2010Prop31
280
     0
102
RTVSPost2010PropOp31
 70
     1
102
RTVSPost2010Prop32
280
     0
102
RTVSPost2010PropOp32
 70
     1
102
RTVSPost2010Prop33
280
     0
102
RTVSPost2010PropOp33
 70
     1
102
RTVSPost2010Prop34
280
     0
102
RTVSPost2010PropOp34
 70
     1
102
RTVSPost2010Prop35
280
     0
102
RTVSPost2010PropOp35
 70
     1
102
RTVSPost2010Prop36
280
     0
102
RTVSPost2010PropOp36
 70
     1
102
RTVSPost2010Prop37
 90
       50
102
RTVSPost2010PropOp37
 70
     1
102
RTVSPost2010Prop38
140
0.0
102
RTVSPost2010PropOp38
 70
     1
102
RTVSPost2010Prop39
140
1.0
102
RTVSPost2010PropOp39
 70
     1
102
RTVSPost2010Prop40
 90
        0
102
RTVSPost2010PropOp40
 70
     1
102
RTVSPost2010Prop41ColorIndex
 90
       18
102
RTVSPost2010Prop41ColorRGB
 90
        0
102
RTVSPost2010PropOp41
 70
     1
102
RTVSPost2010Prop42
 90
       50
102
RTVSPost2010PropOp42
 70
     1
102
RTVSPost2010Prop43
 90
        3
102
RTVSPost2010PropOp43
 70
     1
102
RTVSPost2010Prop44ColorIndex
 90
        5
102
RTVSPost2010Prop44ColorRGB
 90
      255
102
RTVSPost2010PropOp44
 70
     1
102
RTVSPost2010Prop45
280
     0
102
RTVSPost2010PropOp45
 70
     1
102
RTVSPost2010Prop46
 90
       50
102
RTVSPost2010PropOp46
 70
     1
102
RTVSPost2010Prop47
 90
       50
102
RTVSPost2010PropOp47
 70
     1
102
RTVSPost2010Prop48
 90
       50
102
RTVSPost2010PropOp48
 70
     1
102
RTVSPost2010Prop49
280
     0
102
RTVSPost2010PropOp49
 70
     1
102
RTVSPost2010Prop50
 90
       50
102
RTVSPost2010PropOp50
 70
     1
102
RTVSPost2010Prop51ColorIndex
 90
      256
102
RTVSPost2010Prop51ColorRGB
 90
-16777216
102
RTVSPost2010PropOp51
 70
     0
102
RTVSPost2010Prop52
140
1.0
102
RTVSPost2010PropOp52
 70
     0
102
RTVSPost2010Prop53
 90
        2
102
RTVSPost2010PropOp53
 70
     1
102
RTVSPost2010Prop54
  1
strokes_ogs.tif
102
RTVSPost2010PropOp54
 70
     1
102
RTVSPost2010Prop55
280
     0
102
RTVSPost2010PropOp55
 70
     1
102
RTVSPost2010Prop56
140
1.0
102
RTVSPost2010PropOp56
 70
     1
102
RTVSPost2010Prop57
140
1.0
102
RTVSPost2010PropOp57
 70
     1
102
RTVSPropertyOp0
 70
     1
102
RTVSPropertyOp1
 70
     1
102
RTVSPropertyOp2
 70
     1
102
RTVSPropertyOp3
 70
     1
102
RTVSPropertyOp4
 70
     1
102
RTVSPropertyOp5
 70
     1
102
RTVSPropertyOp6
 70
     1
102
RTVSPropertyOp7
 70
     1
102
RTVSPropertyOp8
 70
     1
102
RTVSPropertyOp9
 70
     1
102
RTVSPropertyOp10
 70
     1
102
RTVSPropertyOp11
 70
     1
102
RTVSPropertyOp12
 70
     1
102
RTVSPropertyOp13
 70
     1
102
RTVSPropertyOp14
 70
     1
102
RTVSPropertyOp15
 70
     1
102
RTVSPropertyOp16
 70
     1
102
RTVSPropertyOp17
 70
     1
102
RTVSPropertyOp18
 70
     1
102
RTVSPropertyOp19
 70
     1
102
RTVSPropertyOp20
 70
     1
102
RTVSPropertyOp21
 70
     1
102
RTVSPropertyOp22
 70
     1
102
RTVSPropertyOp23
 70
     1
102
RTVSPropertyOp24
 70
     1
102
RTVSPropertyOp25
 70
     1
102
RTVSPropertyOp26
 70
     1
102
RTVSPropertyOp27
 70
     1
102
RTVSPropertyOp28
 70
     1
102
RTVSPropertyOp29
 70
     1
102
RTVSPropertyOp30
 70
     1
102
RTVSPropertyOp31
 70
     1
102
RTVSPropertyOp32
 70
     1
102
RTVSPropertyOp33
 70
     1
102
RTVSPropertyOp34
 70
     1
102
RTVSPropertyOp35
 70
     1
102
RTVSPropertyOp36
 70
     1
102
RTVSPropertyOp37
 70
     1
102
RTVSPropertyOp38
 70
     1
102
RTVSPropertyOp39
 70
     1
102
RTVSPropertyOp40
 70
     1
102
RTVSPropertyOp41
 70
     1
102
RTVSPropertyOp42
 70
     1
102
RTVSPropertyOp43
 70
     1
102
RTVSPropertyOp44
 70
     1
102
RTVSPropertyOp45
 70
     1
102
RTVSPropertyOp46
 70
     1
102
RTVSPropertyOp47
 70
     1
102
RTVSPropertyOp48
 70
     1
102
RTVSPropertyOp49
 70
     1
102
RTVSPropertyOp50
 70
     1
102
RTVSPropertyOp51
 70
     0
102
RTVSPropertyOp52
 70
     0
102
RTVSPropertyOp53
 70
     1
102
RTVSPropertyOp54
 70
     1
102
RTVSPropertyOp55
 70
     1
102
RTVSPropertyOp56
 70
     1
102
RTVSPropertyOp57
 70
     1
102
RTVSPropertyOp58
 70
     1
102
RTVSPropertyOp59
 70
     1
102
RTVSPropertyOp60
 70
     1
102
RTVSPropertyOp61
 70
     1
102
RTVSPropertyOp62
 70
     1
  0
XRECORD
  5
A6AE
102
{ACAD_REACTORS
330
A6AD
102
}
330
A6AD
100
AcDbXrecord
280
     1
102
RTVSPost2010Prop28
280
     0
102
RTVSPost2010PropOp28
 70
     1
102
RTVSPost2010Prop29
280
     1
102
RTVSPost2010PropOp29
 70
     1
102
RTVSPost2010Prop30
280
     1
102
RTVSPost2010PropOp30
 70
     1
102
RTVSPost2010Prop31
280
     0
102
RTVSPost2010PropOp31
 70
     1
102
RTVSPost2010Prop32
280
     0
102
RTVSPost2010PropOp32
 70
     1
102
RTVSPost2010Prop33
280
     0
102
RTVSPost2010PropOp33
 70
     1
102
RTVSPost2010Prop34
280
     0
102
RTVSPost2010PropOp34
 70
     1
102
RTVSPost2010Prop35
280
     0
102
RTVSPost2010PropOp35
 70
     1
102
RTVSPost2010Prop36
280
     0
102
RTVSPost2010PropOp36
 70
     1
102
RTVSPost2010Prop37
 90
       50
102
RTVSPost2010PropOp37
 70
     1
102
RTVSPost2010Prop38
140
0.0
102
RTVSPost2010PropOp38
 70
     1
102
RTVSPost2010Prop39
140
1.0
102
RTVSPost2010PropOp39
 70
     1
102
RTVSPost2010Prop40
 90
        0
102
RTVSPost2010PropOp40
 70
     1
102
RTVSPost2010Prop41ColorIndex
 90
       18
102
RTVSPost2010Prop41ColorRGB
 90
        0
102
RTVSPost2010PropOp41
 70
     1
102
RTVSPost2010Prop42
 90
       50
102
RTVSPost2010PropOp42
 70
     1
102
RTVSPost2010Prop43
 90
        3
102
RTVSPost2010PropOp43
 70
     1
102
RTVSPost2010Prop44ColorIndex
 90
        5
102
RTVSPost2010Prop44ColorRGB
 90
      255
102
RTVSPost2010PropOp44
 70
     1
102
RTVSPost2010Prop45
280
     0
102
RTVSPost2010PropOp45
 70
     1
102
RTVSPost2010Prop46
 90
       50
102
RTVSPost2010PropOp46
 70
     1
102
RTVSPost2010Prop47
 90
       50
102
RTVSPost2010PropOp47
 70
     1
102
RTVSPost2010Prop48
 90
       50
102
RTVSPost2010PropOp48
 70
     1
102
RTVSPost2010Prop49
280
     0
102
RTVSPost2010PropOp49
 70
     1
102
RTVSPost2010Prop50
 90
       50
102
RTVSPost2010PropOp50
 70
     1
102
RTVSPost2010Prop51ColorIndex
 90
      256
102
RTVSPost2010Prop51ColorRGB
 90
-16777216
102
RTVSPost2010PropOp51
 70
     0
102
RTVSPost2010Prop52
140
1.0
102
RTVSPost2010PropOp52
 70
     0
102
RTVSPost2010Prop53
 90
        2
102
RTVSPost2010PropOp53
 70
     1
102
RTVSPost2010Prop54
  1
strokes_ogs.tif
102
RTVSPost2010PropOp54
 70
     1
102
RTVSPost2010Prop55
280
     0
102
RTVSPost2010PropOp55
 70
     1
102
RTVSPost2010Prop56
140
1.0
102
RTVSPost2010PropOp56
 70
     1
102
RTVSPost2010Prop57
140
1.0
102
RTVSPost2010PropOp57
 70
     1
102
RTVSPropertyOp0
 70
     1
102
RTVSPropertyOp1
 70
     1
102
RTVSPropertyOp2
 70
     1
102
RTVSPropertyOp3
 70
     1
102
RTVSPropertyOp4
 70
     1
102
RTVSPropertyOp5
 70
     1
102
RTVSPropertyOp6
 70
     1
102
RTVSPropertyOp7
 70
     1
102
RTVSPropertyOp8
 70
     1
102
RTVSPropertyOp9
 70
     1
102
RTVSPropertyOp10
 70
     1
102
RTVSPropertyOp11
 70
     1
102
RTVSPropertyOp12
 70
     1
102
RTVSPropertyOp13
 70
     1
102
RTVSPropertyOp14
 70
     1
102
RTVSPropertyOp15
 70
     1
102
RTVSPropertyOp16
 70
     1
102
RTVSPropertyOp17
 70
     1
102
RTVSPropertyOp18
 70
     1
102
RTVSPropertyOp19
 70
     1
102
RTVSPropertyOp20
 70
     1
102
RTVSPropertyOp21
 70
     1
102
RTVSPropertyOp22
 70
     1
102
RTVSPropertyOp23
 70
     1
102
RTVSPropertyOp24
 70
     1
102
RTVSPropertyOp25
 70
     1
102
RTVSPropertyOp26
 70
     1
102
RTVSPropertyOp27
 70
     1
102
RTVSPropertyOp28
 70
     1
102
RTVSPropertyOp29
 70
     1
102
RTVSPropertyOp30
 70
     1
102
RTVSPropertyOp31
 70
     1
102
RTVSPropertyOp32
 70
     1
102
RTVSPropertyOp33
 70
     1
102
RTVSPropertyOp34
 70
     1
102
RTVSPropertyOp35
 70
     1
102
RTVSPropertyOp36
 70
     1
102
RTVSPropertyOp37
 70
     1
102
RTVSPropertyOp38
 70
     1
102
RTVSPropertyOp39
 70
     1
102
RTVSPropertyOp40
 70
     1
102
RTVSPropertyOp41
 70
     1
102
RTVSPropertyOp42
 70
     1
102
RTVSPropertyOp43
 70
     1
102
RTVSPropertyOp44
 70
     1
102
RTVSPropertyOp45
 70
     1
102
RTVSPropertyOp46
 70
     1
102
RTVSPropertyOp47
 70
     1
102
RTVSPropertyOp48
 70
     1
102
RTVSPropertyOp49
 70
     1
102
RTVSPropertyOp50
 70
     1
102
RTVSPropertyOp51
 70
     0
102
RTVSPropertyOp52
 70
     0
102
RTVSPropertyOp53
 70
     1
102
RTVSPropertyOp54
 70
     1
102
RTVSPropertyOp55
 70
     1
102
RTVSPropertyOp56
 70
     1
102
RTVSPropertyOp57
 70
     1
102
RTVSPropertyOp58
 70
     1
102
RTVSPropertyOp59
 70
     1
102
RTVSPropertyOp60
 70
     1
102
RTVSPropertyOp61
 70
     1
102
RTVSPropertyOp62
 70
     1
  0
XRECORD
  5
A6A8
102
{ACAD_REACTORS
330
A6A7
102
}
330
A6A7
100
AcDbXrecord
280
     1
102
RTVSPost2010Prop28
280
     0
102
RTVSPost2010PropOp28
 70
     1
102
RTVSPost2010Prop29
280
     1
102
RTVSPost2010PropOp29
 70
     1
102
RTVSPost2010Prop30
280
     1
102
RTVSPost2010PropOp30
 70
     1
102
RTVSPost2010Prop31
280
     0
102
RTVSPost2010PropOp31
 70
     1
102
RTVSPost2010Prop32
280
     0
102
RTVSPost2010PropOp32
 70
     1
102
RTVSPost2010Prop33
280
     0
102
RTVSPost2010PropOp33
 70
     1
102
RTVSPost2010Prop34
280
     0
102
RTVSPost2010PropOp34
 70
     1
102
RTVSPost2010Prop35
280
     0
102
RTVSPost2010PropOp35
 70
     1
102
RTVSPost2010Prop36
280
     0
102
RTVSPost2010PropOp36
 70
     1
102
RTVSPost2010Prop37
 90
       50
102
RTVSPost2010PropOp37
 70
     1
102
RTVSPost2010Prop38
140
0.0
102
RTVSPost2010PropOp38
 70
     1
102
RTVSPost2010Prop39
140
1.0
102
RTVSPost2010PropOp39
 70
     1
102
RTVSPost2010Prop40
 90
        0
102
RTVSPost2010PropOp40
 70
     1
102
RTVSPost2010Prop41ColorIndex
 90
       18
102
RTVSPost2010Prop41ColorRGB
 90
        0
102
RTVSPost2010PropOp41
 70
     1
102
RTVSPost2010Prop42
 90
       50
102
RTVSPost2010PropOp42
 70
     1
102
RTVSPost2010Prop43
 90
        3
102
RTVSPost2010PropOp43
 70
     1
102
RTVSPost2010Prop44ColorIndex
 90
        5
102
RTVSPost2010Prop44ColorRGB
 90
      255
102
RTVSPost2010PropOp44
 70
     1
102
RTVSPost2010Prop45
280
     0
102
RTVSPost2010PropOp45
 70
     1
102
RTVSPost2010Prop46
 90
       50
102
RTVSPost2010PropOp46
 70
     1
102
RTVSPost2010Prop47
 90
       50
102
RTVSPost2010PropOp47
 70
     1
102
RTVSPost2010Prop48
 90
       50
102
RTVSPost2010PropOp48
 70
     1
102
RTVSPost2010Prop49
280
     0
102
RTVSPost2010PropOp49
 70
     1
102
RTVSPost2010Prop50
 90
       50
102
RTVSPost2010PropOp50
 70
     1
102
RTVSPost2010Prop51ColorIndex
 90
      256
102
RTVSPost2010Prop51ColorRGB
 90
-16777216
102
RTVSPost2010PropOp51
 70
     0
102
RTVSPost2010Prop52
140
1.0
102
RTVSPost2010PropOp52
 70
     0
102
RTVSPost2010Prop53
 90
        2
102
RTVSPost2010PropOp53
 70
     1
102
RTVSPost2010Prop54
  1
strokes_ogs.tif
102
RTVSPost2010PropOp54
 70
     1
102
RTVSPost2010Prop55
280
     0
102
RTVSPost2010PropOp55
 70
     1
102
RTVSPost2010Prop56
140
1.0
102
RTVSPost2010PropOp56
 70
     1
102
RTVSPost2010Prop57
140
1.0
102
RTVSPost2010PropOp57
 70
     1
102
RTVSPropertyOp0
 70
     1
102
RTVSPropertyOp1
 70
     1
102
RTVSPropertyOp2
 70
     1
102
RTVSPropertyOp3
 70
     1
102
RTVSPropertyOp4
 70
     1
102
RTVSPropertyOp5
 70
     1
102
RTVSPropertyOp6
 70
     1
102
RTVSPropertyOp7
 70
     1
102
RTVSPropertyOp8
 70
     1
102
RTVSPropertyOp9
 70
     1
102
RTVSPropertyOp10
 70
     1
102
RTVSPropertyOp11
 70
     1
102
RTVSPropertyOp12
 70
     1
102
RTVSPropertyOp13
 70
     1
102
RTVSPropertyOp14
 70
     1
102
RTVSPropertyOp15
 70
     1
102
RTVSPropertyOp16
 70
     1
102
RTVSPropertyOp17
 70
     1
102
RTVSPropertyOp18
 70
     1
102
RTVSPropertyOp19
 70
     1
102
RTVSPropertyOp20
 70
     1
102
RTVSPropertyOp21
 70
     1
102
RTVSPropertyOp22
 70
     1
102
RTVSPropertyOp23
 70
     1
102
RTVSPropertyOp24
 70
     1
102
RTVSPropertyOp25
 70
     1
102
RTVSPropertyOp26
 70
     1
102
RTVSPropertyOp27
 70
     1
102
RTVSPropertyOp28
 70
     1
102
RTVSPropertyOp29
 70
     1
102
RTVSPropertyOp30
 70
     1
102
RTVSPropertyOp31
 70
     1
102
RTVSPropertyOp32
 70
     1
102
RTVSPropertyOp33
 70
     1
102
RTVSPropertyOp34
 70
     1
102
RTVSPropertyOp35
 70
     1
102
RTVSPropertyOp36
 70
     1
102
RTVSPropertyOp37
 70
     1
102
RTVSPropertyOp38
 70
     1
102
RTVSPropertyOp39
 70
     1
102
RTVSPropertyOp40
 70
     1
102
RTVSPropertyOp41
 70
     1
102
RTVSPropertyOp42
 70
     1
102
RTVSPropertyOp43
 70
     1
102
RTVSPropertyOp44
 70
     1
102
RTVSPropertyOp45
 70
     1
102
RTVSPropertyOp46
 70
     1
102
RTVSPropertyOp47
 70
     1
102
RTVSPropertyOp48
 70
     1
102
RTVSPropertyOp49
 70
     1
102
RTVSPropertyOp50
 70
     1
102
RTVSPropertyOp51
 70
     0
102
RTVSPropertyOp52
 70
     0
102
RTVSPropertyOp53
 70
     1
102
RTVSPropertyOp54
 70
     1
102
RTVSPropertyOp55
 70
     1
102
RTVSPropertyOp56
 70
     1
102
RTVSPropertyOp57
 70
     1
102
RTVSPropertyOp58
 70
     1
102
RTVSPropertyOp59
 70
     1
102
RTVSPropertyOp60
 70
     1
102
RTVSPropertyOp61
 70
     1
102
RTVSPropertyOp62
 70
     1
  0
XRECORD
  5
A6AA
102
{ACAD_REACTORS
330
A6A9
102
}
330
A6A9
100
AcDbXrecord
280
     1
102
RTVSPost2010Prop28
280
     0
102
RTVSPost2010PropOp28
 70
     1
102
RTVSPost2010Prop29
280
     1
102
RTVSPost2010PropOp29
 70
     1
102
RTVSPost2010Prop30
280
     1
102
RTVSPost2010PropOp30
 70
     1
102
RTVSPost2010Prop31
280
     0
102
RTVSPost2010PropOp31
 70
     1
102
RTVSPost2010Prop32
280
     0
102
RTVSPost2010PropOp32
 70
     1
102
RTVSPost2010Prop33
280
     0
102
RTVSPost2010PropOp33
 70
     1
102
RTVSPost2010Prop34
280
     0
102
RTVSPost2010PropOp34
 70
     1
102
RTVSPost2010Prop35
280
     0
102
RTVSPost2010PropOp35
 70
     1
102
RTVSPost2010Prop36
280
     0
102
RTVSPost2010PropOp36
 70
     1
102
RTVSPost2010Prop37
 90
       50
102
RTVSPost2010PropOp37
 70
     1
102
RTVSPost2010Prop38
140
0.0
102
RTVSPost2010PropOp38
 70
     1
102
RTVSPost2010Prop39
140
1.0
102
RTVSPost2010PropOp39
 70
     1
102
RTVSPost2010Prop40
 90
        0
102
RTVSPost2010PropOp40
 70
     1
102
RTVSPost2010Prop41ColorIndex
 90
       18
102
RTVSPost2010Prop41ColorRGB
 90
        0
102
RTVSPost2010PropOp41
 70
     1
102
RTVSPost2010Prop42
 90
       50
102
RTVSPost2010PropOp42
 70
     1
102
RTVSPost2010Prop43
 90
        3
102
RTVSPost2010PropOp43
 70
     1
102
RTVSPost2010Prop44ColorIndex
 90
        5
102
RTVSPost2010Prop44ColorRGB
 90
      255
102
RTVSPost2010PropOp44
 70
     1
102
RTVSPost2010Prop45
280
     0
102
RTVSPost2010PropOp45
 70
     1
102
RTVSPost2010Prop46
 90
       50
102
RTVSPost2010PropOp46
 70
     1
102
RTVSPost2010Prop47
 90
       50
102
RTVSPost2010PropOp47
 70
     1
102
RTVSPost2010Prop48
 90
       50
102
RTVSPost2010PropOp48
 70
     1
102
RTVSPost2010Prop49
280
     0
102
RTVSPost2010PropOp49
 70
     1
102
RTVSPost2010Prop50
 90
       50
102
RTVSPost2010PropOp50
 70
     1
102
RTVSPost2010Prop51ColorIndex
 90
      256
102
RTVSPost2010Prop51ColorRGB
 90
-16777216
102
RTVSPost2010PropOp51
 70
     0
102
RTVSPost2010Prop52
140
1.0
102
RTVSPost2010PropOp52
 70
     0
102
RTVSPost2010Prop53
 90
        2
102
RTVSPost2010PropOp53
 70
     1
102
RTVSPost2010Prop54
  1
strokes_ogs.tif
102
RTVSPost2010PropOp54
 70
     1
102
RTVSPost2010Prop55
280
     0
102
RTVSPost2010PropOp55
 70
     1
102
RTVSPost2010Prop56
140
1.0
102
RTVSPost2010PropOp56
 70
     1
102
RTVSPost2010Prop57
140
1.0
102
RTVSPost2010PropOp57
 70
     1
102
RTVSPropertyOp0
 70
     1
102
RTVSPropertyOp1
 70
     1
102
RTVSPropertyOp2
 70
     1
102
RTVSPropertyOp3
 70
     1
102
RTVSPropertyOp4
 70
     1
102
RTVSPropertyOp5
 70
     1
102
RTVSPropertyOp6
 70
     1
102
RTVSPropertyOp7
 70
     1
102
RTVSPropertyOp8
 70
     1
102
RTVSPropertyOp9
 70
     1
102
RTVSPropertyOp10
 70
     1
102
RTVSPropertyOp11
 70
     1
102
RTVSPropertyOp12
 70
     1
102
RTVSPropertyOp13
 70
     1
102
RTVSPropertyOp14
 70
     1
102
RTVSPropertyOp15
 70
     1
102
RTVSPropertyOp16
 70
     1
102
RTVSPropertyOp17
 70
     1
102
RTVSPropertyOp18
 70
     1
102
RTVSPropertyOp19
 70
     1
102
RTVSPropertyOp20
 70
     1
102
RTVSPropertyOp21
 70
     1
102
RTVSPropertyOp22
 70
     1
102
RTVSPropertyOp23
 70
     1
102
RTVSPropertyOp24
 70
     1
102
RTVSPropertyOp25
 70
     1
102
RTVSPropertyOp26
 70
     1
102
RTVSPropertyOp27
 70
     1
102
RTVSPropertyOp28
 70
     1
102
RTVSPropertyOp29
 70
     1
102
RTVSPropertyOp30
 70
     1
102
RTVSPropertyOp31
 70
     1
102
RTVSPropertyOp32
 70
     1
102
RTVSPropertyOp33
 70
     1
102
RTVSPropertyOp34
 70
     1
102
RTVSPropertyOp35
 70
     1
102
RTVSPropertyOp36
 70
     1
102
RTVSPropertyOp37
 70
     1
102
RTVSPropertyOp38
 70
     1
102
RTVSPropertyOp39
 70
     1
102
RTVSPropertyOp40
 70
     1
102
RTVSPropertyOp41
 70
     1
102
RTVSPropertyOp42
 70
     1
102
RTVSPropertyOp43
 70
     1
102
RTVSPropertyOp44
 70
     1
102
RTVSPropertyOp45
 70
     1
102
RTVSPropertyOp46
 70
     1
102
RTVSPropertyOp47
 70
     1
102
RTVSPropertyOp48
 70
     1
102
RTVSPropertyOp49
 70
     1
102
RTVSPropertyOp50
 70
     1
102
RTVSPropertyOp51
 70
     0
102
RTVSPropertyOp52
 70
     0
102
RTVSPropertyOp53
 70
     1
102
RTVSPropertyOp54
 70
     1
102
RTVSPropertyOp55
 70
     1
102
RTVSPropertyOp56
 70
     1
102
RTVSPropertyOp57
 70
     1
102
RTVSPropertyOp58
 70
     1
102
RTVSPropertyOp59
 70
     1
102
RTVSPropertyOp60
 70
     1
102
RTVSPropertyOp61
 70
     1
102
RTVSPropertyOp62
 70
     1
  0
XRECORD
  5
A6A0
102
{ACAD_REACTORS
330
A69F
102
}
330
A69F
100
AcDbXrecord
280
     1
102
RTVSPost2010Prop28
280
     0
102
RTVSPost2010PropOp28
 70
     1
102
RTVSPost2010Prop29
280
     1
102
RTVSPost2010PropOp29
 70
     1
102
RTVSPost2010Prop30
280
     1
102
RTVSPost2010PropOp30
 70
     1
102
RTVSPost2010Prop31
280
     0
102
RTVSPost2010PropOp31
 70
     1
102
RTVSPost2010Prop32
280
     0
102
RTVSPost2010PropOp32
 70
     1
102
RTVSPost2010Prop33
280
     0
102
RTVSPost2010PropOp33
 70
     1
102
RTVSPost2010Prop34
280
     0
102
RTVSPost2010PropOp34
 70
     1
102
RTVSPost2010Prop35
280
     0
102
RTVSPost2010PropOp35
 70
     1
102
RTVSPost2010Prop36
280
     0
102
RTVSPost2010PropOp36
 70
     1
102
RTVSPost2010Prop37
 90
       50
102
RTVSPost2010PropOp37
 70
     1
102
RTVSPost2010Prop38
140
0.0
102
RTVSPost2010PropOp38
 70
     1
102
RTVSPost2010Prop39
140
1.0
102
RTVSPost2010PropOp39
 70
     1
102
RTVSPost2010Prop40
 90
        0
102
RTVSPost2010PropOp40
 70
     1
102
RTVSPost2010Prop41ColorIndex
 90
       18
102
RTVSPost2010Prop41ColorRGB
 90
        0
102
RTVSPost2010PropOp41
 70
     1
102
RTVSPost2010Prop42
 90
       50
102
RTVSPost2010PropOp42
 70
     1
102
RTVSPost2010Prop43
 90
        3
102
RTVSPost2010PropOp43
 70
     1
102
RTVSPost2010Prop44ColorIndex
 90
        5
102
RTVSPost2010Prop44ColorRGB
 90
      255
102
RTVSPost2010PropOp44
 70
     1
102
RTVSPost2010Prop45
280
     0
102
RTVSPost2010PropOp45
 70
     1
102
RTVSPost2010Prop46
 90
       50
102
RTVSPost2010PropOp46
 70
     1
102
RTVSPost2010Prop47
 90
       50
102
RTVSPost2010PropOp47
 70
     1
102
RTVSPost2010Prop48
 90
       50
102
RTVSPost2010PropOp48
 70
     1
102
RTVSPost2010Prop49
280
     0
102
RTVSPost2010PropOp49
 70
     1
102
RTVSPost2010Prop50
 90
       50
102
RTVSPost2010PropOp50
 70
     1
102
RTVSPost2010Prop51ColorIndex
 90
      256
102
RTVSPost2010Prop51ColorRGB
 90
-16777216
102
RTVSPost2010PropOp51
 70
     0
102
RTVSPost2010Prop52
140
1.0
102
RTVSPost2010PropOp52
 70
     0
102
RTVSPost2010Prop53
 90
        2
102
RTVSPost2010PropOp53
 70
     1
102
RTVSPost2010Prop54
  1
strokes_ogs.tif
102
RTVSPost2010PropOp54
 70
     1
102
RTVSPost2010Prop55
280
     0
102
RTVSPost2010PropOp55
 70
     1
102
RTVSPost2010Prop56
140
1.0
102
RTVSPost2010PropOp56
 70
     1
102
RTVSPost2010Prop57
140
1.0
102
RTVSPost2010PropOp57
 70
     1
102
RTVSPropertyOp0
 70
     1
102
RTVSPropertyOp1
 70
     1
102
RTVSPropertyOp2
 70
     1
102
RTVSPropertyOp3
 70
     1
102
RTVSPropertyOp4
 70
     1
102
RTVSPropertyOp5
 70
     1
102
RTVSPropertyOp6
 70
     1
102
RTVSPropertyOp7
 70
     1
102
RTVSPropertyOp8
 70
     1
102
RTVSPropertyOp9
 70
     1
102
RTVSPropertyOp10
 70
     1
102
RTVSPropertyOp11
 70
     1
102
RTVSPropertyOp12
 70
     1
102
RTVSPropertyOp13
 70
     1
102
RTVSPropertyOp14
 70
     1
102
RTVSPropertyOp15
 70
     1
102
RTVSPropertyOp16
 70
     1
102
RTVSPropertyOp17
 70
     1
102
RTVSPropertyOp18
 70
     1
102
RTVSPropertyOp19
 70
     1
102
RTVSPropertyOp20
 70
     1
102
RTVSPropertyOp21
 70
     1
102
RTVSPropertyOp22
 70
     1
102
RTVSPropertyOp23
 70
     1
102
RTVSPropertyOp24
 70
     1
102
RTVSPropertyOp25
 70
     1
102
RTVSPropertyOp26
 70
     1
102
RTVSPropertyOp27
 70
     1
102
RTVSPropertyOp28
 70
     1
102
RTVSPropertyOp29
 70
     1
102
RTVSPropertyOp30
 70
     1
102
RTVSPropertyOp31
 70
     1
102
RTVSPropertyOp32
 70
     1
102
RTVSPropertyOp33
 70
     1
102
RTVSPropertyOp34
 70
     1
102
RTVSPropertyOp35
 70
     1
102
RTVSPropertyOp36
 70
     1
102
RTVSPropertyOp37
 70
     1
102
RTVSPropertyOp38
 70
     1
102
RTVSPropertyOp39
 70
     1
102
RTVSPropertyOp40
 70
     1
102
RTVSPropertyOp41
 70
     1
102
RTVSPropertyOp42
 70
     1
102
RTVSPropertyOp43
 70
     1
102
RTVSPropertyOp44
 70
     1
102
RTVSPropertyOp45
 70
     1
102
RTVSPropertyOp46
 70
     1
102
RTVSPropertyOp47
 70
     1
102
RTVSPropertyOp48
 70
     1
102
RTVSPropertyOp49
 70
     1
102
RTVSPropertyOp50
 70
     1
102
RTVSPropertyOp51
 70
     0
102
RTVSPropertyOp52
 70
     0
102
RTVSPropertyOp53
 70
     1
102
RTVSPropertyOp54
 70
     1
102
RTVSPropertyOp55
 70
     1
102
RTVSPropertyOp56
 70
     1
102
RTVSPropertyOp57
 70
     1
102
RTVSPropertyOp58
 70
     1
102
RTVSPropertyOp59
 70
     1
102
RTVSPropertyOp60
 70
     1
102
RTVSPropertyOp61
 70
     1
102
RTVSPropertyOp62
 70
     1
  0
XRECORD
  5
A694
102
{ACAD_REACTORS
330
A693
102
}
330
A693
100
AcDbXrecord
280
     1
102
RTVSPost2010Prop28
280
     0
102
RTVSPost2010PropOp28
 70
     1
102
RTVSPost2010Prop29
280
     1
102
RTVSPost2010PropOp29
 70
     1
102
RTVSPost2010Prop30
280
     1
102
RTVSPost2010PropOp30
 70
     1
102
RTVSPost2010Prop31
280
     0
102
RTVSPost2010PropOp31
 70
     1
102
RTVSPost2010Prop32
280
     0
102
RTVSPost2010PropOp32
 70
     1
102
RTVSPost2010Prop33
280
     0
102
RTVSPost2010PropOp33
 70
     1
102
RTVSPost2010Prop34
280
     0
102
RTVSPost2010PropOp34
 70
     1
102
RTVSPost2010Prop35
280
     0
102
RTVSPost2010PropOp35
 70
     1
102
RTVSPost2010Prop36
280
     0
102
RTVSPost2010PropOp36
 70
     1
102
RTVSPost2010Prop37
 90
       50
102
RTVSPost2010PropOp37
 70
     1
102
RTVSPost2010Prop38
140
0.0
102
RTVSPost2010PropOp38
 70
     1
102
RTVSPost2010Prop39
140
1.0
102
RTVSPost2010PropOp39
 70
     1
102
RTVSPost2010Prop40
 90
        0
102
RTVSPost2010PropOp40
 70
     1
102
RTVSPost2010Prop41ColorIndex
 90
       18
102
RTVSPost2010Prop41ColorRGB
 90
        0
102
RTVSPost2010PropOp41
 70
     1
102
RTVSPost2010Prop42
 90
       50
102
RTVSPost2010PropOp42
 70
     1
102
RTVSPost2010Prop43
 90
        3
102
RTVSPost2010PropOp43
 70
     1
102
RTVSPost2010Prop44ColorIndex
 90
        5
102
RTVSPost2010Prop44ColorRGB
 90
      255
102
RTVSPost2010PropOp44
 70
     1
102
RTVSPost2010Prop45
280
     0
102
RTVSPost2010PropOp45
 70
     1
102
RTVSPost2010Prop46
 90
       50
102
RTVSPost2010PropOp46
 70
     1
102
RTVSPost2010Prop47
 90
       50
102
RTVSPost2010PropOp47
 70
     1
102
RTVSPost2010Prop48
 90
       50
102
RTVSPost2010PropOp48
 70
     1
102
RTVSPost2010Prop49
280
     0
102
RTVSPost2010PropOp49
 70
     1
102
RTVSPost2010Prop50
 90
       50
102
RTVSPost2010PropOp50
 70
     1
102
RTVSPost2010Prop51ColorIndex
 90
      256
102
RTVSPost2010Prop51ColorRGB
 90
-16777216
102
RTVSPost2010PropOp51
 70
     0
102
RTVSPost2010Prop52
140
1.0
102
RTVSPost2010PropOp52
 70
     0
102
RTVSPost2010Prop53
 90
        2
102
RTVSPost2010PropOp53
 70
     1
102
RTVSPost2010Prop54
  1
strokes_ogs.tif
102
RTVSPost2010PropOp54
 70
     1
102
RTVSPost2010Prop55
280
     0
102
RTVSPost2010PropOp55
 70
     1
102
RTVSPost2010Prop56
140
1.0
102
RTVSPost2010PropOp56
 70
     1
102
RTVSPost2010Prop57
140
1.0
102
RTVSPost2010PropOp57
 70
     1
102
RTVSPropertyOp0
 70
     1
102
RTVSPropertyOp1
 70
     1
102
RTVSPropertyOp2
 70
     1
102
RTVSPropertyOp3
 70
     1
102
RTVSPropertyOp4
 70
     1
102
RTVSPropertyOp5
 70
     1
102
RTVSPropertyOp6
 70
     1
102
RTVSPropertyOp7
 70
     1
102
RTVSPropertyOp8
 70
     1
102
RTVSPropertyOp9
 70
     1
102
RTVSPropertyOp10
 70
     1
102
RTVSPropertyOp11
 70
     1
102
RTVSPropertyOp12
 70
     1
102
RTVSPropertyOp13
 70
     1
102
RTVSPropertyOp14
 70
     1
102
RTVSPropertyOp15
 70
     1
102
RTVSPropertyOp16
 70
     1
102
RTVSPropertyOp17
 70
     1
102
RTVSPropertyOp18
 70
     1
102
RTVSPropertyOp19
 70
     1
102
RTVSPropertyOp20
 70
     1
102
RTVSPropertyOp21
 70
     1
102
RTVSPropertyOp22
 70
     1
102
RTVSPropertyOp23
 70
     1
102
RTVSPropertyOp24
 70
     1
102
RTVSPropertyOp25
 70
     1
102
RTVSPropertyOp26
 70
     1
102
RTVSPropertyOp27
 70
     1
102
RTVSPropertyOp28
 70
     1
102
RTVSPropertyOp29
 70
     1
102
RTVSPropertyOp30
 70
     1
102
RTVSPropertyOp31
 70
     1
102
RTVSPropertyOp32
 70
     1
102
RTVSPropertyOp33
 70
     1
102
RTVSPropertyOp34
 70
     1
102
RTVSPropertyOp35
 70
     1
102
RTVSPropertyOp36
 70
     1
102
RTVSPropertyOp37
 70
     1
102
RTVSPropertyOp38
 70
     1
102
RTVSPropertyOp39
 70
     1
102
RTVSPropertyOp40
 70
     1
102
RTVSPropertyOp41
 70
     1
102
RTVSPropertyOp42
 70
     1
102
RTVSPropertyOp43
 70
     1
102
RTVSPropertyOp44
 70
     1
102
RTVSPropertyOp45
 70
     1
102
RTVSPropertyOp46
 70
     1
102
RTVSPropertyOp47
 70
     1
102
RTVSPropertyOp48
 70
     1
102
RTVSPropertyOp49
 70
     1
102
RTVSPropertyOp50
 70
     1
102
RTVSPropertyOp51
 70
     0
102
RTVSPropertyOp52
 70
     0
102
RTVSPropertyOp53
 70
     1
102
RTVSPropertyOp54
 70
     1
102
RTVSPropertyOp55
 70
     1
102
RTVSPropertyOp56
 70
     1
102
RTVSPropertyOp57
 70
     1
102
RTVSPropertyOp58
 70
     1
102
RTVSPropertyOp59
 70
     1
102
RTVSPropertyOp60
 70
     1
102
RTVSPropertyOp61
 70
     1
102
RTVSPropertyOp62
 70
     1
  0
XRECORD
  5
A6AC
102
{ACAD_REACTORS
330
A6AB
102
}
330
A6AB
100
AcDbXrecord
280
     1
102
RTVSPost2010Prop28
280
     0
102
RTVSPost2010PropOp28
 70
     1
102
RTVSPost2010Prop29
280
     1
102
RTVSPost2010PropOp29
 70
     1
102
RTVSPost2010Prop30
280
     1
102
RTVSPost2010PropOp30
 70
     1
102
RTVSPost2010Prop31
280
     0
102
RTVSPost2010PropOp31
 70
     1
102
RTVSPost2010Prop32
280
     0
102
RTVSPost2010PropOp32
 70
     1
102
RTVSPost2010Prop33
280
     0
102
RTVSPost2010PropOp33
 70
     1
102
RTVSPost2010Prop34
280
     0
102
RTVSPost2010PropOp34
 70
     1
102
RTVSPost2010Prop35
280
     0
102
RTVSPost2010PropOp35
 70
     1
102
RTVSPost2010Prop36
280
     0
102
RTVSPost2010PropOp36
 70
     1
102
RTVSPost2010Prop37
 90
       50
102
RTVSPost2010PropOp37
 70
     1
102
RTVSPost2010Prop38
140
0.0
102
RTVSPost2010PropOp38
 70
     1
102
RTVSPost2010Prop39
140
1.0
102
RTVSPost2010PropOp39
 70
     1
102
RTVSPost2010Prop40
 90
        0
102
RTVSPost2010PropOp40
 70
     1
102
RTVSPost2010Prop41ColorIndex
 90
       18
102
RTVSPost2010Prop41ColorRGB
 90
        0
102
RTVSPost2010PropOp41
 70
     1
102
RTVSPost2010Prop42
 90
       50
102
RTVSPost2010PropOp42
 70
     1
102
RTVSPost2010Prop43
 90
        3
102
RTVSPost2010PropOp43
 70
     1
102
RTVSPost2010Prop44ColorIndex
 90
        5
102
RTVSPost2010Prop44ColorRGB
 90
      255
102
RTVSPost2010PropOp44
 70
     1
102
RTVSPost2010Prop45
280
     0
102
RTVSPost2010PropOp45
 70
     1
102
RTVSPost2010Prop46
 90
       50
102
RTVSPost2010PropOp46
 70
     1
102
RTVSPost2010Prop47
 90
       50
102
RTVSPost2010PropOp47
 70
     1
102
RTVSPost2010Prop48
 90
       50
102
RTVSPost2010PropOp48
 70
     1
102
RTVSPost2010Prop49
280
     0
102
RTVSPost2010PropOp49
 70
     1
102
RTVSPost2010Prop50
 90
       50
102
RTVSPost2010PropOp50
 70
     1
102
RTVSPost2010Prop51ColorIndex
 90
      256
102
RTVSPost2010Prop51ColorRGB
 90
-16777216
102
RTVSPost2010PropOp51
 70
     0
102
RTVSPost2010Prop52
140
1.0
102
RTVSPost2010PropOp52
 70
     0
102
RTVSPost2010Prop53
 90
        2
102
RTVSPost2010PropOp53
 70
     1
102
RTVSPost2010Prop54
  1
strokes_ogs.tif
102
RTVSPost2010PropOp54
 70
     1
102
RTVSPost2010Prop55
280
     0
102
RTVSPost2010PropOp55
 70
     1
102
RTVSPost2010Prop56
140
1.0
102
RTVSPost2010PropOp56
 70
     1
102
RTVSPost2010Prop57
140
1.0
102
RTVSPost2010PropOp57
 70
     1
102
RTVSPropertyOp0
 70
     1
102
RTVSPropertyOp1
 70
     1
102
RTVSPropertyOp2
 70
     1
102
RTVSPropertyOp3
 70
     1
102
RTVSPropertyOp4
 70
     1
102
RTVSPropertyOp5
 70
     1
102
RTVSPropertyOp6
 70
     1
102
RTVSPropertyOp7
 70
     1
102
RTVSPropertyOp8
 70
     1
102
RTVSPropertyOp9
 70
     1
102
RTVSPropertyOp10
 70
     1
102
RTVSPropertyOp11
 70
     1
102
RTVSPropertyOp12
 70
     1
102
RTVSPropertyOp13
 70
     1
102
RTVSPropertyOp14
 70
     1
102
RTVSPropertyOp15
 70
     1
102
RTVSPropertyOp16
 70
     1
102
RTVSPropertyOp17
 70
     1
102
RTVSPropertyOp18
 70
     1
102
RTVSPropertyOp19
 70
     1
102
RTVSPropertyOp20
 70
     1
102
RTVSPropertyOp21
 70
     1
102
RTVSPropertyOp22
 70
     1
102
RTVSPropertyOp23
 70
     1
102
RTVSPropertyOp24
 70
     1
102
RTVSPropertyOp25
 70
     1
102
RTVSPropertyOp26
 70
     1
102
RTVSPropertyOp27
 70
     1
102
RTVSPropertyOp28
 70
     1
102
RTVSPropertyOp29
 70
     1
102
RTVSPropertyOp30
 70
     1
102
RTVSPropertyOp31
 70
     1
102
RTVSPropertyOp32
 70
     1
102
RTVSPropertyOp33
 70
     1
102
RTVSPropertyOp34
 70
     1
102
RTVSPropertyOp35
 70
     1
102
RTVSPropertyOp36
 70
     1
102
RTVSPropertyOp37
 70
     1
102
RTVSPropertyOp38
 70
     1
102
RTVSPropertyOp39
 70
     1
102
RTVSPropertyOp40
 70
     1
102
RTVSPropertyOp41
 70
     1
102
RTVSPropertyOp42
 70
     1
102
RTVSPropertyOp43
 70
     1
102
RTVSPropertyOp44
 70
     1
102
RTVSPropertyOp45
 70
     1
102
RTVSPropertyOp46
 70
     1
102
RTVSPropertyOp47
 70
     1
102
RTVSPropertyOp48
 70
     1
102
RTVSPropertyOp49
 70
     1
102
RTVSPropertyOp50
 70
     1
102
RTVSPropertyOp51
 70
     0
102
RTVSPropertyOp52
 70
     0
102
RTVSPropertyOp53
 70
     1
102
RTVSPropertyOp54
 70
     1
102
RTVSPropertyOp55
 70
     1
102
RTVSPropertyOp56
 70
     1
102
RTVSPropertyOp57
 70
     1
102
RTVSPropertyOp58
 70
     1
102
RTVSPropertyOp59
 70
     1
102
RTVSPropertyOp60
 70
     1
102
RTVSPropertyOp61
 70
     1
102
RTVSPropertyOp62
 70
     1
  0
ENDSEC
  0
EOF
