  0
SECTION
  2
HEADER
  9
$ACADVER
  1
AC1015
  9
$ACADMAINTVER
 70
    20
  9
$DWGCODEPAGE
  3
ANSI_932
  9
$INSBASE
 10
0.0
 20
0.0
 30
0.0
  9
$EXTMIN
 10
10.0
 20
9.999999999999998
 30
0.0
  9
$EXTMAX
 10
468.6386409999998
 20
329.525192
 30
0.0
  9
$LIMMIN
 10
0.0
 20
0.0
  9
$LIMMAX
 10
495.0
 20
341.25
  9
$ORTHOMODE
 70
     1
  9
$REGENMODE
 70
     1
  9
$FILLMODE
 70
     1
  9
$QTEXTMODE
 70
     0
  9
$MIRRTEXT
 70
     1
  9
$LTSCALE
 40
20.0
  9
$ATTMODE
 70
     1
  9
$TEXTSIZE
 40
5.0
  9
$TRACEWID
 40
1.0
  9
$TEXTSTYLE
  7
STANDARD
  9
$CLAYER
  8
0
  9
$CELTYPE
  6
BYLAYER
  9
$CECOLOR
 62
   256
  9
$CELTSCALE
 40
1.0
  9
$DISPSILH
 70
     0
  9
$DIMSCALE
 40
1.0
  9
$DIMASZ
 40
3.0
  9
$DIMEXO
 40
1.0
  9
$DIMDLI
 40
10.0
  9
$DIMRND
 40
0.0
  9
$DIMDLE
 40
0.0
  9
$DIMEXE
 40
1.0
  9
$DIMTP
 40
0.0
  9
$DIMTM
 40
0.0
  9
$DIMTXT
 40
3.2
  9
$DIMCEN
 40
0.0
  9
$DIMTSZ
 40
0.0
  9
$DIMTOL
 70
     0
  9
$DIMLIM
 70
     0
  9
$DIMTIH
 70
     0
  9
$DIMTOH
 70
     0
  9
$DIMSE1
 70
     0
  9
$DIMSE2
 70
     0
  9
$DIMTAD
 70
     3
  9
$DIMZIN
 70
     8
  9
$DIMBLK
  1

  9
$DIMASO
 70
     1
  9
$DIMSHO
 70
     1
  9
$DIMPOST
  1

  9
$DIMAPOST
  1

  9
$DIMALT
 70
     0
  9
$DIMALTD
 70
     2
  9
$DIMALTF
 40
25.4
  9
$DIMLFAC
 40
1.0
  9
$DIMTOFL
 70
     1
  9
$DIMTVP
 40
0.0
  9
$DIMTIX
 70
     0
  9
$DIMSOXD
 70
     0
  9
$DIMSAH
 70
     1
  9
$DIMBLK1
  1
OPEN
  9
$DIMBLK2
  1
OPEN
  9
$DIMSTYLE
  2
STANDARD
  9
$DIMCLRD
 70
     0
  9
$DIMCLRE
 70
     0
  9
$DIMCLRT
 70
     0
  9
$DIMTFAC
 40
1.0
  9
$DIMGAP
 40
1.0
  9
$DIMJUST
 70
     0
  9
$DIMSD1
 70
     0
  9
$DIMSD2
 70
     0
  9
$DIMTOLJ
 70
     1
  9
$DIMTZIN
 70
     0
  9
$DIMALTZ
 70
     0
  9
$DIMALTTZ
 70
     0
  9
$DIMUPT
 70
     0
  9
$DIMDEC
 70
     4
  9
$DIMTDEC
 70
     4
  9
$DIMALTU
 70
     2
  9
$DIMALTTD
 70
     2
  9
$DIMTXSTY
  7
STANDARD
  9
$DIMAUNIT
 70
     0
  9
$DIMADEC
 70
     0
  9
$DIMALTRND
 40
0.0
  9
$DIMAZIN
 70
     0
  9
$DIMDSEP
 70
    46
  9
$DIMATFIT
 70
     3
  9
$DIMFRAC
 70
     0
  9
$DIMLDRBLK
  1
OPEN
  9
$DIMLUNIT
 70
     2
  9
$DIMLWD
 70
    -2
  9
$DIMLWE
 70
    -2
  9
$DIMTMOVE
 70
     0
  9
$LUNITS
 70
     2
  9
$LUPREC
 70
     4
  9
$SKETCHINC
 40
1.0
  9
$FILLETRAD
 40
8.0
  9
$AUNITS
 70
     0
  9
$AUPREC
 70
     2
  9
$MENU
  1
.
  9
$ELEVATION
 40
0.0
  9
$PELEVATION
 40
0.0
  9
$THICKNESS
 40
0.0
  9
$LIMCHECK
 70
     0
  9
$CHAMFERA
 40
10.0
  9
$CHAMFERB
 40
10.0
  9
$CHAMFERC
 40
0.0
  9
$CHAMFERD
 40
0.0
  9
$SKPOLY
 70
     0
  9
$TDCREATE
 40
2449980.970532755
  9
$TDUCREATE
 40
2449980.595532755
  9
$TDUPDATE
 40
2457192.687021991
  9
$TDUUPDATE
 40
2457192.312021991
  9
$TDINDWG
 40
2.4007523843
  9
$TDUSRTIMER
 40
2.4007518866
  9
$USRTIMER
 70
     1
  9
$ANGBASE
 50
0.0
  9
$ANGDIR
 70
     0
  9
$PDMODE
 70
     0
  9
$PDSIZE
 40
0.0
  9
$PLINEWID
 40
0.0
  9
$SPLFRAME
 70
     0
  9
$SPLINETYPE
 70
     6
  9
$SPLINESEGS
 70
     8
  9
$HANDSEED
  5
B86C
  9
$SURFTAB1
 70
     6
  9
$SURFTAB2
 70
     6
  9
$SURFTYPE
 70
     6
  9
$SURFU
 70
     6
  9
$SURFV
 70
     6
  9
$UCSBASE
  2

  9
$UCSNAME
  2

  9
$UCSORG
 10
0.0
 20
0.0
 30
0.0
  9
$UCSXDIR
 10
1.0
 20
0.0
 30
0.0
  9
$UCSYDIR
 10
0.0
 20
1.0
 30
0.0
  9
$UCSORTHOREF
  2

  9
$UCSORTHOVIEW
 70
     0
  9
$UCSORGTOP
 10
0.0
 20
0.0
 30
0.0
  9
$UCSORGBOTTOM
 10
0.0
 20
0.0
 30
0.0
  9
$UCSORGLEFT
 10
0.0
 20
0.0
 30
0.0
  9
$UCSORGRIGHT
 10
0.0
 20
0.0
 30
0.0
  9
$UCSORGFRONT
 10
0.0
 20
0.0
 30
0.0
  9
$UCSORGBACK
 10
0.0
 20
0.0
 30
0.0
  9
$PUCSBASE
  2

  9
$PUCSNAME
  2

  9
$PUCSORG
 10
0.0
 20
0.0
 30
0.0
  9
$PUCSXDIR
 10
1.0
 20
0.0
 30
0.0
  9
$PUCSYDIR
 10
0.0
 20
1.0
 30
0.0
  9
$PUCSORTHOREF
  2

  9
$PUCSORTHOVIEW
 70
     0
  9
$PUCSORGTOP
 10
0.0
 20
0.0
 30
0.0
  9
$PUCSORGBOTTOM
 10
0.0
 20
0.0
 30
0.0
  9
$PUCSORGLEFT
 10
0.0
 20
0.0
 30
0.0
  9
$PUCSORGRIGHT
 10
0.0
 20
0.0
 30
0.0
  9
$PUCSORGFRONT
 10
0.0
 20
0.0
 30
0.0
  9
$PUCSORGBACK
 10
0.0
 20
0.0
 30
0.0
  9
$USERI1
 70
     0
  9
$USERI2
 70
     0
  9
$USERI3
 70
     0
  9
$USERI4
 70
     0
  9
$USERI5
 70
     0
  9
$USERR1
 40
0.0
  9
$USERR2
 40
0.0
  9
$USERR3
 40
0.0
  9
$USERR4
 40
0.0
  9
$USERR5
 40
0.0
  9
$WORLDVIEW
 70
     1
  9
$SHADEDGE
 70
     3
  9
$SHADEDIF
 70
    70
  9
$TILEMODE
 70
     1
  9
$MAXACTVP
 70
    16
  9
$PINSBASE
 10
0.0
 20
0.0
 30
0.0
  9
$PLIMCHECK
 70
     0
  9
$PEXTMIN
 10
1.000000000000000E+20
 20
1.000000000000000E+20
 30
1.000000000000000E+20
  9
$PEXTMAX
 10
-1.000000000000000E+20
 20
-1.000000000000000E+20
 30
-1.000000000000000E+20
  9
$PLIMMIN
 10
0.0
 20
0.0
  9
$PLIMMAX
 10
420.0
 20
297.0
  9
$UNITMODE
 70
     0
  9
$VISRETAIN
 70
     0
  9
$PLINEGEN
 70
     0
  9
$PSLTSCALE
 70
     0
  9
$TREEDEPTH
 70
  3020
  9
$CMLSTYLE
  2
STANDARD
  9
$CMLJUST
 70
     0
  9
$CMLSCALE
 40
1.0
  9
$PROXYGRAPHICS
 70
     1
  9
$MEASUREMENT
 70
     0
  9
$CELWEIGHT
370
    -1
  9
$ENDCAPS
280
     0
  9
$JOINSTYLE
280
     0
  9
$LWDISPLAY
290
     0
  9
$INSUNITS
 70
     0
  9
$HYPERLINKBASE
  1

  9
$STYLESHEET
  1

  9
$XEDIT
290
     1
  9
$CEPSNTYPE
380
     0
  9
$PSTYLEMODE
290
     1
  9
$FINGERPRINTGUID
  2
{EC9B084F-BCE3-4218-947F-EAE1EFC4FE01}
  9
$VERSIONGUID
  2
{6600CD57-338D-43BC-8164-3A7A9108D64B}
  9
$EXTNAMES
290
     1
  9
$PSVPSCALE
 40
0.0
  9
$OLESTARTUP
290
     0
  0
ENDSEC
  0
SECTION
  2
CLASSES
  0
CLASS
  1
ACDBDICTIONARYWDFLT
  2
AcDbDictionaryWithDefault
  3
ObjectDBX Classes
 90
        0
280
     0
281
     0
  0
CLASS
  1
ACDBPLACEHOLDER
  2
AcDbPlaceHolder
  3
ObjectDBX Classes
 90
        0
280
     0
281
     0
  0
CLASS
  1
LAYOUT
  2
AcDbLayout
  3
ObjectDBX Classes
 90
        0
280
     0
281
     0
  0
CLASS
  1
DICTIONARYVAR
  2
AcDbDictionaryVar
  3
ObjectDBX Classes
 90
        0
280
     0
281
     0
  0
CLASS
  1
MATERIAL
  2
AcDbMaterial
  3
ObjectDBX Classes
 90
     1153
280
     0
281
     0
  0
CLASS
  1
VISUALSTYLE
  2
AcDbVisualStyle
  3
ObjectDBX Classes
 90
     4095
280
     0
281
     0
  0
CLASS
  1
TABLESTYLE
  2
AcDbTableStyle
  3
ObjectDBX Classes
 90
     4095
280
     0
281
     0
  0
CLASS
  1
SCALE
  2
AcDbScale
  3
ObjectDBX Classes
 90
     1153
280
     0
281
     0
  0
CLASS
  1
MLEADERSTYLE
  2
AcDbMLeaderStyle
  3
ACDB_MLEADERSTYLE_CLASS
 90
     4095
280
     0
281
     0
  0
CLASS
  1
ACDBSECTIONVIEWSTYLE
  2
AcDbSectionViewStyle
  3
ObjectDBX Classes
 90
     1025
280
     0
281
     0
  0
CLASS
  1
ACDBDETAILVIEWSTYLE
  2
AcDbDetailViewStyle
  3
ObjectDBX Classes
 90
     1025
280
     0
281
     0
  0
CLASS
  1
CELLSTYLEMAP
  2
AcDbCellStyleMap
  3
ObjectDBX Classes
 90
     1152
280
     0
281
     0
  0
ENDSEC
  0
SECTION
  2
TABLES
  0
TABLE
  2
VPORT
  5
B39C
330
0
100
AcDbSymbolTable
 70
     1
  0
VPORT
  5
B7B5
330
B39C
100
AcDbSymbolTableRecord
100
AcDbViewportTableRecord
  2
*ACTIVE
 70
     0
 10
0.0
 20
0.0
 11
1.0
 21
1.0
 12
336.11193419927
 22
169.7658356018839
 13
0.0
 23
0.0
 14
10.0
 24
10.0
 15
10.0
 25
10.0
 16
0.0
 26
0.0
 36
1.0
 17
0.0
 27
0.0
 37
0.0
 40
323.0884014316901
 41
2.35006605019815
 42
50.0
 43
0.0
 44
0.0
 50
0.0
 51
0.0
 71
     0
 72
   100
 73
     1
 74
     0
 75
     0
 76
     0
 77
     0
 78
     0
281
     0
 65
     1
110
0.0
120
0.0
130
0.0
111
1.0
121
0.0
131
0.0
112
0.0
122
1.0
132
0.0
 79
     0
146
0.0
1001
ACAD_NAV_VCDISPLAY
1070
     3
  0
ENDTAB
  0
TABLE
  2
LTYPE
  5
B399
330
0
100
AcDbSymbolTable
 70
     4
  0
LTYPE
  5
B3A7
330
B399
100
AcDbSymbolTableRecord
100
AcDbLinetypeTableRecord
  2
BYBLOCK
 70
     0
  3

 72
    65
 73
     0
 40
0.0
  0
LTYPE
  5
B3A8
330
B399
100
AcDbSymbolTableRecord
100
AcDbLinetypeTableRecord
  2
BYLAYER
 70
     0
  3

 72
    65
 73
     0
 40
0.0
  0
LTYPE
  5
B3A9
330
B399
100
AcDbSymbolTableRecord
100
AcDbLinetypeTableRecord
  2
CONTINUOUS
 70
     0
  3
Solid line
 72
    65
 73
     0
 40
0.0
  0
LTYPE
  5
B3B7
330
B399
100
AcDbSymbolTableRecord
100
AcDbLinetypeTableRecord
  2
DASHED
 70
     0
  3
__ __ __ __ __ __ __ __ __ __ __ __ __ __ __ __
 72
    65
 73
     2
 40
0.75
 49
0.5
 74
     0
 49
-0.25
 74
     0
  0
LTYPE
  5
B3B8
330
B399
100
AcDbSymbolTableRecord
100
AcDbLinetypeTableRecord
  2
CENTER
 70
     0
  3
____ _ ____ _ ____ _ ____ _ ____ _ ____ _ ____ 
 72
    65
 73
     4
 40
2.0
 49
1.25
 74
     0
 49
-0.25
 74
     0
 49
0.25
 74
     0
 49
-0.25
 74
     0
  0
LTYPE
  5
B3B9
330
B399
100
AcDbSymbolTableRecord
100
AcDbLinetypeTableRecord
  2
PHANTOM
 70
     0
  3
______  __  __  ______  __  __  ______  __  __ 
 72
    65
 73
     6
 40
2.5
 49
1.25
 74
     0
 49
-0.25
 74
     0
 49
0.25
 74
     0
 49
-0.25
 74
     0
 49
0.25
 74
     0
 49
-0.25
 74
     0
  0
ENDTAB
  0
TABLE
  2
LAYER
  5
B396
330
0
100
AcDbSymbolTable
 70
     8
  0
LAYER
  5
B3A4
102
{ACAD_XDICTIONARY
360
B810
102
}
330
B396
100
AcDbSymbolTableRecord
100
AcDbLayerTableRecord
  2
0
 70
     0
 62
     7
  6
CONTINUOUS
370
    -3
390
B7BE
  0
LAYER
  5
B3BA
102
{ACAD_XDICTIONARY
360
B812
102
}
330
B396
100
AcDbSymbolTableRecord
100
AcDbLayerTableRecord
  2
4
 70
     0
 62
     1
  6
CENTER
370
    -3
390
B7BE
  0
LAYER
  5
B3BB
102
{ACAD_XDICTIONARY
360
B814
102
}
330
B396
100
AcDbSymbolTableRecord
100
AcDbLayerTableRecord
  2
5
 70
     0
 62
     6
  6
PHANTOM
370
    -3
390
B7BE
  0
LAYER
  5
B3BC
102
{ACAD_XDICTIONARY
360
B816
102
}
330
B396
100
AcDbSymbolTableRecord
100
AcDbLayerTableRecord
  2
1
 70
     0
 62
     7
  6
CONTINUOUS
370
    -3
390
B7BE
  0
LAYER
  5
B3BD
102
{ACAD_XDICTIONARY
360
B818
102
}
330
B396
100
AcDbSymbolTableRecord
100
AcDbLayerTableRecord
  2
2
 70
     0
 62
     4
  6
CONTINUOUS
370
    -3
390
B7BE
  0
LAYER
  5
B3BE
102
{ACAD_XDICTIONARY
360
B81A
102
}
330
B396
100
AcDbSymbolTableRecord
100
AcDbLayerTableRecord
  2
3
 70
     0
 62
     2
  6
DASHED
370
    -3
390
B7BE
  0
LAYER
  5
B3BF
102
{ACAD_XDICTIONARY
360
B81C
102
}
330
B396
100
AcDbSymbolTableRecord
100
AcDbLayerTableRecord
  2
6
 70
     0
 62
     5
  6
CONTINUOUS
370
    -3
390
B7BE
  0
LAYER
  5
B3C0
102
{ACAD_XDICTIONARY
360
B81E
102
}
330
B396
100
AcDbSymbolTableRecord
100
AcDbLayerTableRecord
  2
7
 70
     0
 62
     3
  6
CONTINUOUS
370
    -3
390
B7BE
  0
ENDTAB
  0
TABLE
  2
STYLE
  5
B397
330
0
100
AcDbSymbolTable
 70
     1
  0
STYLE
  5
B3A5
330
B397
100
AcDbSymbolTableRecord
100
AcDbTextStyleTableRecord
  2
STANDARD
 70
     0
 40
0.0
 41
1.0
 50
0.0
 71
     0
 42
5.0
  3
txt
  4

  0
ENDTAB
  0
TABLE
  2
VIEW
  5
B39A
330
0
100
AcDbSymbolTable
 70
     0
  0
ENDTAB
  0
TABLE
  2
UCS
  5
B39B
330
0
100
AcDbSymbolTable
 70
     0
  0
ENDTAB
  0
TABLE
  2
APPID
  5
B39D
330
0
100
AcDbSymbolTable
 70
     3
  0
APPID
  5
B3A6
330
B39D
100
AcDbSymbolTableRecord
100
AcDbRegAppTableRecord
  2
ACAD
 70
     0
  0
APPID
  5
B82A
330
B39D
100
AcDbSymbolTableRecord
100
AcDbRegAppTableRecord
  2
ACAD_NAV_VCDISPLAY
 70
     0
  0
APPID
  5
B863
330
B39D
100
AcDbSymbolTableRecord
100
AcDbRegAppTableRecord
  2
ACAD_MLEADERVER
 70
     0
  0
ENDTAB
  0
TABLE
  2
DIMSTYLE
  5
B39E
330
0
100
AcDbSymbolTable
 70
     1
100
AcDbDimStyleTable
 71
     0
  0
DIMSTYLE
105
B3C2
330
B39E
100
AcDbSymbolTableRecord
100
AcDbDimStyleTableRecord
  2
STANDARD
 70
     0
 41
3.0
 42
1.0
 43
10.0
 44
1.0
 73
     0
 74
     0
 77
     3
 78
     8
140
3.2
141
0.0
147
1.0
172
     1
173
     1
284
     8
285
     8
286
     8
340
B3A5
  0
ENDTAB
  0
TABLE
  2
BLOCK_RECORD
  5
B395
330
0
100
AcDbSymbolTable
 70
     1
  0
BLOCK_RECORD
  5
B3B2
102
{ACAD_XDICTIONARY
360
B7B8
102
}
330
B395
100
AcDbSymbolTableRecord
100
AcDbBlockTableRecord
  2
*MODEL_SPACE
340
B80C
  0
BLOCK_RECORD
  5
B3AE
102
{ACAD_XDICTIONARY
360
B7B6
102
}
330
B395
100
AcDbSymbolTableRecord
100
AcDbBlockTableRecord
  2
*PAPER_SPACE
340
B80D
  0
BLOCK_RECORD
  5
B3CA
330
B395
100
AcDbSymbolTableRecord
100
AcDbBlockTableRecord
  2
_OPEN
340
0
  0
ENDTAB
  0
ENDSEC
  0
SECTION
  2
BLOCKS
  0
BLOCK
  5
B3B3
330
B3B2
100
AcDbEntity
  8
0
100
AcDbBlockBegin
  2
*MODEL_SPACE
 70
     0
 10
0.0
 20
0.0
 30
0.0
  3
*MODEL_SPACE
  1

  0
ENDBLK
  5
B3B4
330
B3B2
100
AcDbEntity
  8
0
100
AcDbBlockEnd
  0
BLOCK
  5
B3AF
330
B3AE
100
AcDbEntity
 67
     1
  8
0
100
AcDbBlockBegin
  2
*PAPER_SPACE
 70
     0
 10
0.0
 20
0.0
 30
0.0
  3
*PAPER_SPACE
  1

  0
ENDBLK
  5
B3B0
330
B3AE
100
AcDbEntity
 67
     1
  8
0
100
AcDbBlockEnd
  0
BLOCK
  5
B3CB
330
B3CA
100
AcDbEntity
  8
0
100
AcDbBlockBegin
  2
_OPEN
 70
     0
 10
0.0
 20
0.0
 30
0.0
  3
_OPEN
  1

  0
LINE
  5
B3CC
330
B3CA
100
AcDbEntity
  8
0
  6
ByBlock
 62
     0
100
AcDbLine
 10
-1.0
 20
0.166667
 30
0.0
 11
0.0
 21
0.0
 31
0.0
  0
LINE
  5
B3CD
330
B3CA
100
AcDbEntity
  8
0
  6
ByBlock
 62
     0
100
AcDbLine
 10
0.0
 20
0.0
 30
0.0
 11
-1.0
 21
-0.166667
 31
0.0
  0
LINE
  5
B3CE
330
B3CA
100
AcDbEntity
  8
0
  6
ByBlock
 62
     0
100
AcDbLine
 10
0.0
 20
0.0
 30
0.0
 11
-1.0
 21
0.0
 31
0.0
  0
ENDBLK
  5
B3CF
330
B3CA
100
AcDbEntity
  8
0
100
AcDbBlockEnd
  0
ENDSEC
  0
SECTION
  2
ENTITIES
  0
TEXT
  5
B3D0
330
B3B2
100
AcDbEntity
  8
7
  6
Continuous
100
AcDbText
 10
10.0
 20
18.0
 30
0.0
 40
3.0
  1
TYPE No.105-NS
100
AcDbText
  0
TEXT
  5
B3D1
330
B3B2
100
AcDbEntity
  8
7
  6
Continuous
100
AcDbText
 10
10.0
 20
26.0
 30
0.0
 40
3.0
  1
CODE No.9057
100
AcDbText
  0
TEXT
  5
B3D2
330
B3B2
100
AcDbEntity
  8
1
  6
Continuous
100
AcDbText
 10
10.0
 20
10.0
 30
0.0
 40
1.399999999999999
  1
LAYER
100
AcDbText
  0
TEXT
  5
B3D3
330
B3B2
100
AcDbEntity
  8
1
  6
Continuous
100
AcDbText
 10
17.97951099999998
 20
10.04873699999998
 30
0.0
 40
1.399999999999999
  1
1
100
AcDbText
  0
TEXT
  5
B3D4
330
B3B2
100
AcDbEntity
  8
7
  6
Continuous
100
AcDbText
 10
29.97951099999999
 20
10.04873699999998
 30
0.0
 40
1.399999999999999
  1
7
100
AcDbText
  0
TEXT
  5
B3D5
330
B3B2
100
AcDbEntity
  8
4
  6
CENTER
100
AcDbText
 10
23.97951099999999
 20
10.04873699999998
 30
0.0
 40
1.399999999999999
  1
4
100
AcDbText
  0
TEXT
  5
B3D6
330
B3B2
100
AcDbEntity
  8
3
  6
DASHED
100
AcDbText
 10
21.979511
 20
10.04873699999998
 30
0.0
 40
1.399999999999999
  1
3
100
AcDbText
  0
TEXT
  5
B3D7
330
B3B2
100
AcDbEntity
  8
2
  6
Continuous
100
AcDbText
 10
19.97951099999999
 20
10.04873699999998
 30
0.0
 40
1.399999999999999
  1
2
100
AcDbText
  0
TEXT
  5
B3D8
330
B3B2
100
AcDbEntity
  8
6
  6
Continuous
100
AcDbText
 10
27.979511
 20
10.04873699999998
 30
0.0
 40
1.399999999999999
  1
6
100
AcDbText
  0
TEXT
  5
B3D9
330
B3B2
100
AcDbEntity
  8
5
  6
PHANTOM
100
AcDbText
 10
25.97951099999999
 20
10.04873699999998
 30
0.0
 40
1.399999999999999
  1
5
100
AcDbText
  0
CIRCLE
  5
B3DA
330
B3B2
100
AcDbEntity
  8
1
  6
Continuous
100
AcDbCircle
 10
212.490146
 20
316.9206459999998
 30
0.0
 40
3.25
  0
CIRCLE
  5
B3DB
330
B3B2
100
AcDbEntity
  8
1
  6
Continuous
100
AcDbCircle
 10
212.490146
 20
280.920646
 30
0.0
 40
3.25
  0
CIRCLE
  5
B3DC
330
B3B2
100
AcDbEntity
  8
1
  6
Continuous
100
AcDbCircle
 10
158.490146
 20
280.920646
 30
0.0
 40
3.25
  0
CIRCLE
  5
B3DD
330
B3B2
100
AcDbEntity
  8
1
  6
Continuous
100
AcDbCircle
 10
158.490146
 20
316.9206459999998
 30
0.0
 40
3.25
  0
CIRCLE
  5
B3DE
330
B3B2
100
AcDbEntity
  8
1
  6
Continuous
100
AcDbCircle
 10
185.490146
 20
298.9206459999999
 30
0.0
 40
23.5
  0
CIRCLE
  5
B3DF
330
B3B2
100
AcDbEntity
  8
1
  6
Continuous
100
AcDbCircle
 10
185.490146
 20
298.9206459999999
 30
0.0
 40
20.89999999999999
  0
CIRCLE
  5
B3E0
330
B3B2
100
AcDbEntity
  8
1
  6
Continuous
100
AcDbCircle
 10
185.490146
 20
298.9206459999999
 30
0.0
 40
12.0
  0
ARC
  5
B3E1
330
B3B2
100
AcDbEntity
  8
1
  6
Continuous
100
AcDbCircle
 10
205.427976
 20
211.132781
 30
0.0
 40
4.377608
100
AcDbArc
 50
8.294477
 51
67.581971
  0
ARC
  5
B3E2
330
B3B2
100
AcDbEntity
  8
1
  6
Continuous
100
AcDbCircle
 10
80.27936399999999
 20
191.216185
 30
0.0
 40
131.100749
100
AcDbArc
 50
7.561295
 51
9.017450999999999
  0
ARC
  5
B3E3
330
B3B2
100
AcDbEntity
  8
1
  6
Continuous
100
AcDbCircle
 10
160.854892
 20
214.858092
 30
0.0
 40
1.997709
100
AcDbArc
 50
270.1599779999999
 51
299.197035
  0
ARC
  5
B3E4
330
B3B2
100
AcDbEntity
  8
1
  6
Continuous
100
AcDbCircle
 10
165.5953659999999
 20
211.2232759999999
 30
0.0
 40
4.224822999999998
100
AcDbArc
 50
110.5384659999999
 51
148.632099
  0
ARC
  5
B3E5
330
B3B2
100
AcDbEntity
  8
1
  6
Continuous
100
AcDbCircle
 10
161.6764959999999
 20
213.3878249999999
 30
0.0
 40
0.313453
100
AcDbArc
 50
299.197035
 51
6.338015999999998
  0
LINE
  5
B3E6
330
B3B2
100
AcDbEntity
  8
1
  6
Continuous
100
AcDbLine
 10
210.240147
 20
208.4673099999998
 30
0.0
 11
202.222361
 21
208.4673099999998
 31
0.0
  0
LINE
  5
B3E7
330
B3B2
100
AcDbEntity
  8
1
  6
Continuous
100
AcDbLine
 10
220.490146
 20
221.917417
 30
0.0
 11
150.490146
 21
221.917417
 31
0.0
  0
ARC
  5
B3E8
330
B3B2
100
AcDbEntity
  8
1
  6
Continuous
100
AcDbCircle
 10
205.2460299999999
 20
230.5325559999999
 30
0.0
 40
10.64
100
AcDbArc
 50
270.0
 51
305.934008
  0
ARC
  5
B3E9
330
B3B2
100
AcDbEntity
  8
1
  6
Continuous
100
AcDbCircle
 10
165.734262
 20
230.5325559999999
 30
0.0
 40
10.64
100
AcDbArc
 50
234.0659919999999
 51
270.0
  0
LINE
  5
B3EA
330
B3B2
100
AcDbEntity
  8
1
  6
Continuous
100
AcDbLine
 10
205.2460299999999
 20
219.892556
 30
0.0
 11
165.734262
 21
219.892556
 31
0.0
  0
LINE
  5
B3EB
330
B3B2
100
AcDbEntity
  8
1
  6
Continuous
100
AcDbLine
 10
220.490146
 20
224.2177
 30
0.0
 11
150.490146
 21
224.2177
 31
0.0
  0
ARC
  5
B3EC
330
B3B2
100
AcDbEntity
  8
1
  6
Continuous
100
AcDbCircle
 10
208.216259
 20
217.2349639999999
 30
0.0
 40
0.9569799999999998
100
AcDbArc
 50
24.04026499999999
 51
73.98808699999998
  0
LINE
  5
B3ED
330
B3B2
100
AcDbEntity
  8
1
  6
Continuous
100
AcDbLine
 10
208.48023
 20
218.1548169999998
 30
0.0
 11
207.66523
 21
218.1548169999998
 31
0.0
  0
LINE
  5
B3EE
330
B3B2
100
AcDbEntity
  8
1
  6
Continuous
100
AcDbLine
 10
207.66523
 20
218.1548169999998
 30
0.0
 11
207.49523
 21
218.514817
 31
0.0
  0
ARC
  5
B3EF
330
B3B2
100
AcDbEntity
  8
1
  6
Continuous
100
AcDbCircle
 10
204.878748
 20
219.7050439999999
 30
0.0
 40
4.697225
100
AcDbArc
 50
319.789963
 51
333.713305
  0
ARC
  5
B3F0
330
B3B2
100
AcDbEntity
  8
1
  6
Continuous
100
AcDbCircle
 10
202.676648
 20
214.603845
 30
0.0
 40
6.206
100
AcDbArc
 50
39.064301
 51
58.798683
  0
ARC
  5
B3F1
330
B3B2
100
AcDbEntity
  8
1
  6
Continuous
100
AcDbCircle
 10
162.7640319999999
 20
217.2349639999999
 30
0.0
 40
0.9569799999999998
100
AcDbArc
 50
106.011913
 51
155.9597349999999
  0
LINE
  5
B3F2
330
B3B2
100
AcDbEntity
  8
1
  6
Continuous
100
AcDbLine
 10
162.500062
 20
218.1548169999998
 30
0.0
 11
163.315062
 21
218.1548169999998
 31
0.0
  0
LINE
  5
B3F3
330
B3B2
100
AcDbEntity
  8
1
  6
Continuous
100
AcDbLine
 10
163.315062
 20
218.1548169999998
 30
0.0
 11
163.4850619999999
 21
218.514817
 31
0.0
  0
ARC
  5
B3F4
330
B3B2
100
AcDbEntity
  8
1
  6
Continuous
100
AcDbCircle
 10
166.1015439999999
 20
219.7050439999999
 30
0.0
 40
4.697225
100
AcDbArc
 50
206.286695
 51
220.210037
  0
ARC
  5
B3F5
330
B3B2
100
AcDbEntity
  8
1
  6
Continuous
100
AcDbCircle
 10
168.3036439999999
 20
214.603845
 30
0.0
 40
6.206
100
AcDbArc
 50
121.2013169999998
 51
140.935699
  0
LINE
  5
B3F6
330
B3B2
100
AcDbEntity
  8
1
  6
Continuous
100
AcDbLine
 10
207.66523
 20
218.1548169999998
 30
0.0
 11
163.315062
 21
218.1548169999998
 31
0.0
  0
LINE
  5
B3F7
330
B3B2
100
AcDbEntity
  8
1
  6
Continuous
100
AcDbLine
 10
208.490146
 20
216.6725559999999
 30
0.0
 11
162.490146
 21
216.6725559999999
 31
0.0
  0
LINE
  5
B3F8
330
B3B2
100
AcDbEntity
  8
1
  6
Continuous
100
AcDbLine
 10
268.9924409999999
 20
221.9173819999999
 30
0.0
 11
322.9924409999999
 21
221.9173819999999
 31
0.0
  0
ARC
  5
B3F9
330
B3B2
100
AcDbEntity
  8
1
  6
Continuous
100
AcDbCircle
 10
276.236557
 20
230.5325199999999
 30
0.0
 40
10.64
100
AcDbArc
 50
234.0659919999999
 51
270.0
  0
ARC
  5
B3FA
330
B3B2
100
AcDbEntity
  8
1
  6
Continuous
100
AcDbCircle
 10
315.748325
 20
230.5325199999999
 30
0.0
 40
10.64
100
AcDbArc
 50
270.0
 51
305.934008
  0
LINE
  5
B3FB
330
B3B2
100
AcDbEntity
  8
1
  6
Continuous
100
AcDbLine
 10
276.236557
 20
219.89252
 30
0.0
 11
315.748325
 21
219.89252
 31
0.0
  0
LINE
  5
B3FC
330
B3B2
100
AcDbEntity
  8
1
  6
Continuous
100
AcDbLine
 10
268.9924409999999
 20
224.2176649999999
 30
0.0
 11
322.9924409999999
 21
224.2176649999999
 31
0.0
  0
ARC
  5
B3FD
330
B3B2
100
AcDbEntity
  8
1
  6
Continuous
100
AcDbCircle
 10
273.2663269999998
 20
217.234929
 30
0.0
 40
0.9569799999999998
100
AcDbArc
 50
106.011913
 51
155.9597349999999
  0
LINE
  5
B3FE
330
B3B2
100
AcDbEntity
  8
1
  6
Continuous
100
AcDbLine
 10
273.0023569999999
 20
218.154782
 30
0.0
 11
273.8173569999998
 21
218.154782
 31
0.0
  0
LINE
  5
B3FF
330
B3B2
100
AcDbEntity
  8
1
  6
Continuous
100
AcDbLine
 10
273.8173569999998
 20
218.154782
 30
0.0
 11
273.9873569999999
 21
218.514782
 31
0.0
  0
ARC
  5
B400
330
B3B2
100
AcDbEntity
  8
1
  6
Continuous
100
AcDbCircle
 10
276.6038389999998
 20
219.7050089999999
 30
0.0
 40
4.697225
100
AcDbArc
 50
206.286695
 51
220.210037
  0
ARC
  5
B401
330
B3B2
100
AcDbEntity
  8
1
  6
Continuous
100
AcDbCircle
 10
278.805939
 20
214.6038089999999
 30
0.0
 40
6.206
100
AcDbArc
 50
121.2013169999998
 51
140.935699
  0
ARC
  5
B402
330
B3B2
100
AcDbEntity
  8
1
  6
Continuous
100
AcDbCircle
 10
318.7185549999999
 20
217.234929
 30
0.0
 40
0.9569799999999998
100
AcDbArc
 50
24.04026499999999
 51
73.98808699999998
  0
LINE
  5
B403
330
B3B2
100
AcDbEntity
  8
1
  6
Continuous
100
AcDbLine
 10
318.982525
 20
218.154782
 30
0.0
 11
318.167525
 21
218.154782
 31
0.0
  0
LINE
  5
B404
330
B3B2
100
AcDbEntity
  8
1
  6
Continuous
100
AcDbLine
 10
318.167525
 20
218.154782
 30
0.0
 11
317.997525
 21
218.514782
 31
0.0
  0
ARC
  5
B405
330
B3B2
100
AcDbEntity
  8
1
  6
Continuous
100
AcDbCircle
 10
315.381043
 20
219.7050089999999
 30
0.0
 40
4.697225
100
AcDbArc
 50
319.789963
 51
333.713305
  0
ARC
  5
B406
330
B3B2
100
AcDbEntity
  8
1
  6
Continuous
100
AcDbCircle
 10
313.1789429999999
 20
214.6038089999999
 30
0.0
 40
6.206
100
AcDbArc
 50
39.064301
 51
58.798683
  0
LINE
  5
B407
330
B3B2
100
AcDbEntity
  8
1
  6
Continuous
100
AcDbLine
 10
273.8173569999998
 20
218.154782
 30
0.0
 11
318.167525
 21
218.154782
 31
0.0
  0
LINE
  5
B408
330
B3B2
100
AcDbEntity
  8
1
  6
Continuous
100
AcDbLine
 10
272.9924409999999
 20
216.67252
 30
0.0
 11
318.9924409999999
 21
216.67252
 31
0.0
  0
LINE
  5
B409
330
B3B2
100
AcDbEntity
  8
1
  6
Continuous
100
AcDbLine
 10
271.2424410000001
 20
211.191224
 30
0.0
 11
271.2424410000001
 21
189.4850059999999
 31
0.0
  0
LINE
  5
B40A
330
B3B2
100
AcDbEntity
  8
1
  6
Continuous
100
AcDbLine
 10
320.7424409999999
 20
211.191224
 30
0.0
 11
320.7424409999999
 21
189.4850059999999
 31
0.0
  0
ARC
  5
B40B
330
B3B2
100
AcDbEntity
  8
1
  6
Continuous
100
AcDbCircle
 10
275.2424409999999
 20
211.191224
 30
0.0
 40
4.0
100
AcDbArc
 50
94.384039
 51
180.0
  0
ARC
  5
B40C
330
B3B2
100
AcDbEntity
  8
1
  6
Continuous
100
AcDbCircle
 10
316.7424409999999
 20
211.191224
 30
0.0
 40
4.0
100
AcDbArc
 50
0.0
 51
85.615961
  0
ARC
  5
B40D
330
B3B2
100
AcDbEntity
  8
1
  6
Continuous
100
AcDbCircle
 10
292.5841909999999
 20
189.4850059999999
 30
0.0
 40
28.15825
100
AcDbArc
 50
323.663991
 51
0.0
  0
ARC
  5
B40E
330
B3B2
100
AcDbEntity
  8
1
  6
Continuous
100
AcDbCircle
 10
299.4006909999999
 20
189.4850059999999
 30
0.0
 40
28.15825
100
AcDbArc
 50
180.0
 51
182.984359
  0
LINE
  5
B40F
330
B3B2
100
AcDbEntity
  8
1
  6
Continuous
100
AcDbLine
 10
275.0637259999999
 20
208.46721
 30
0.0
 11
316.9211559999999
 21
208.46721
 31
0.0
  0
ARC
  5
B410
330
B3B2
100
AcDbEntity
  8
1
  6
Continuous
100
AcDbCircle
 10
353.326634
 20
189.4850059999999
 30
0.0
 40
82.084193
100
AcDbArc
 50
167.757229
 51
180.0
  0
ARC
  5
B411
330
B3B2
100
AcDbEntity
  8
1
  6
Continuous
100
AcDbCircle
 10
353.326634
 20
189.4850059999999
 30
0.0
 40
79.784193
100
AcDbArc
 50
167.389352
 51
180.0
  0
ARC
  5
B412
330
B3B2
100
AcDbEntity
  8
1
  6
Continuous
100
AcDbCircle
 10
275.0637259999999
 20
206.46721
 30
0.0
 40
2.0
100
AcDbArc
 50
90.0
 51
167.757229
  0
ARC
  5
B413
330
B3B2
100
AcDbEntity
  8
1
  6
Continuous
100
AcDbCircle
 10
277.4188909999999
 20
206.46721
 30
0.0
 40
2.0
100
AcDbArc
 50
90.0
 51
167.389352
  0
ARC
  5
B414
330
B3B2
100
AcDbEntity
  8
1
  6
Continuous
100
AcDbCircle
 10
292.5841909999999
 20
189.4850059999999
 30
0.0
 40
25.85825
100
AcDbArc
 50
322.428066
 51
0.0
  0
ARC
  5
B415
330
B3B2
100
AcDbEntity
  8
1
  6
Continuous
100
AcDbCircle
 10
238.6582479999999
 20
189.4850059999999
 30
0.0
 40
82.084193
100
AcDbArc
 50
0.0
 51
12.242771
  0
ARC
  5
B416
330
B3B2
100
AcDbEntity
  8
1
  6
Continuous
100
AcDbCircle
 10
238.6582479999999
 20
189.4850059999999
 30
0.0
 40
79.784193
100
AcDbArc
 50
0.0
 51
12.61064799999999
  0
ARC
  5
B417
330
B3B2
100
AcDbEntity
  8
1
  6
Continuous
100
AcDbCircle
 10
316.9211559999999
 20
206.46721
 30
0.0
 40
2.0
100
AcDbArc
 50
12.242771
 51
90.0
  0
ARC
  5
B418
330
B3B2
100
AcDbEntity
  8
1
  6
Continuous
100
AcDbCircle
 10
314.565991
 20
206.46721
 30
0.0
 40
2.0
100
AcDbArc
 50
12.61064799999999
 51
90.0
  0
LINE
  5
B419
330
B3B2
100
AcDbEntity
  8
1
  6
Continuous
100
AcDbLine
 10
280.5886899999998
 20
165.1057189999999
 30
0.0
 11
278.2757859999999
 21
165.1057189999999
 31
0.0
  0
LINE
  5
B41A
330
B3B2
100
AcDbEntity
  8
1
  6
Continuous
100
AcDbLine
 10
280.4497519999998
 20
179.7177819999998
 30
0.0
 11
280.9924409999999
 21
179.7177819999998
 31
0.0
  0
LINE
  5
B41B
330
B3B2
100
AcDbEntity
  8
1
  6
Continuous
100
AcDbLine
 10
310.992441
 20
179.7177819999998
 30
0.0
 11
311.5351309999998
 21
179.7177819999998
 31
0.0
  0
LINE
  5
B41C
330
B3B2
100
AcDbEntity
  8
1
  6
Continuous
100
AcDbLine
 10
280.534866
 20
171.717782
 30
0.0
 11
280.9924409999999
 21
171.717782
 31
0.0
  0
LINE
  5
B41D
330
B3B2
100
AcDbEntity
  8
1
  6
Continuous
100
AcDbLine
 10
310.992441
 20
171.717782
 30
0.0
 11
311.4500159999999
 21
171.717782
 31
0.0
  0
LINE
  5
B41E
330
B3B2
100
AcDbEntity
  8
1
  6
Continuous
100
AcDbLine
 10
162.490146
 20
215.179556
 30
0.0
 11
208.490146
 21
215.179556
 31
0.0
  0
LINE
  5
B41F
330
B3B2
100
AcDbEntity
  8
1
  6
Continuous
100
AcDbLine
 10
208.490146
 20
216.6725559999999
 30
0.0
 11
208.490146
 21
215.179556
 31
0.0
  0
LINE
  5
B420
330
B3B2
100
AcDbEntity
  8
1
  6
Continuous
100
AcDbLine
 10
162.490146
 20
216.6725559999999
 30
0.0
 11
162.490146
 21
215.179556
 31
0.0
  0
LINE
  5
B421
330
B3B2
100
AcDbEntity
  8
1
  6
Continuous
100
AcDbLine
 10
318.9924409999999
 20
215.17952
 30
0.0
 11
272.9924409999999
 21
215.17952
 31
0.0
  0
LINE
  5
B422
330
B3B2
100
AcDbEntity
  8
1
  6
Continuous
100
AcDbLine
 10
272.9924409999999
 20
216.67252
 30
0.0
 11
272.9924409999999
 21
215.17952
 31
0.0
  0
LINE
  5
B423
330
B3B2
100
AcDbEntity
  8
1
  6
Continuous
100
AcDbLine
 10
318.9924409999999
 20
216.67252
 30
0.0
 11
318.9924409999999
 21
215.17952
 31
0.0
  0
LINE
  5
B424
330
B3B2
100
AcDbEntity
  8
1
  6
Continuous
100
AcDbLine
 10
187.490146
 20
215.179556
 30
0.0
 11
185.490146
 21
216.6725559999999
 31
0.0
  0
LINE
  5
B425
330
B3B2
100
AcDbEntity
  8
1
  6
Continuous
100
AcDbLine
 10
186.0759319999999
 20
215.179556
 30
0.0
 11
184.075932
 21
216.6725559999999
 31
0.0
  0
LINE
  5
B426
330
B3B2
100
AcDbEntity
  8
1
  6
Continuous
100
AcDbLine
 10
184.661719
 20
215.179556
 30
0.0
 11
182.661719
 21
216.6725559999999
 31
0.0
  0
LINE
  5
B427
330
B3B2
100
AcDbEntity
  8
1
  6
Continuous
100
AcDbLine
 10
183.247505
 20
215.179556
 30
0.0
 11
181.2475049999999
 21
216.6725559999999
 31
0.0
  0
LINE
  5
B428
330
B3B2
100
AcDbEntity
  8
1
  6
Continuous
100
AcDbLine
 10
181.8332919999998
 20
215.179556
 30
0.0
 11
179.833292
 21
216.6725559999999
 31
0.0
  0
LINE
  5
B429
330
B3B2
100
AcDbEntity
  8
1
  6
Continuous
100
AcDbLine
 10
180.419078
 20
215.179556
 30
0.0
 11
178.419078
 21
216.6725559999999
 31
0.0
  0
LINE
  5
B42A
330
B3B2
100
AcDbEntity
  8
1
  6
Continuous
100
AcDbLine
 10
179.0048649999999
 20
215.179556
 30
0.0
 11
177.0048649999999
 21
216.6725559999999
 31
0.0
  0
LINE
  5
B42B
330
B3B2
100
AcDbEntity
  8
1
  6
Continuous
100
AcDbLine
 10
177.590651
 20
215.179556
 30
0.0
 11
175.590651
 21
216.6725559999999
 31
0.0
  0
LINE
  5
B42C
330
B3B2
100
AcDbEntity
  8
1
  6
Continuous
100
AcDbLine
 10
176.1764369999999
 20
215.179556
 30
0.0
 11
174.176437
 21
216.6725559999999
 31
0.0
  0
LINE
  5
B42D
330
B3B2
100
AcDbEntity
  8
1
  6
Continuous
100
AcDbLine
 10
174.762224
 20
215.179556
 30
0.0
 11
172.762224
 21
216.6725559999999
 31
0.0
  0
LINE
  5
B42E
330
B3B2
100
AcDbEntity
  8
1
  6
Continuous
100
AcDbLine
 10
173.3480099999999
 20
215.179556
 30
0.0
 11
171.3480099999999
 21
216.6725559999999
 31
0.0
  0
LINE
  5
B42F
330
B3B2
100
AcDbEntity
  8
1
  6
Continuous
100
AcDbLine
 10
171.9337969999999
 20
215.179556
 30
0.0
 11
169.933797
 21
216.6725559999999
 31
0.0
  0
LINE
  5
B430
330
B3B2
100
AcDbEntity
  8
1
  6
Continuous
100
AcDbLine
 10
170.519583
 20
215.179556
 30
0.0
 11
168.519583
 21
216.6725559999999
 31
0.0
  0
LINE
  5
B431
330
B3B2
100
AcDbEntity
  8
1
  6
Continuous
100
AcDbLine
 10
169.1053699999999
 20
215.179556
 30
0.0
 11
167.1053699999999
 21
216.6725559999999
 31
0.0
  0
LINE
  5
B432
330
B3B2
100
AcDbEntity
  8
1
  6
Continuous
100
AcDbLine
 10
167.691156
 20
215.179556
 30
0.0
 11
165.691156
 21
216.6725559999999
 31
0.0
  0
LINE
  5
B433
330
B3B2
100
AcDbEntity
  8
1
  6
Continuous
100
AcDbLine
 10
166.2769429999999
 20
215.179556
 30
0.0
 11
164.2769429999999
 21
216.6725559999999
 31
0.0
  0
LINE
  5
B434
330
B3B2
100
AcDbEntity
  8
1
  6
Continuous
100
AcDbLine
 10
164.862729
 20
215.179556
 30
0.0
 11
162.862729
 21
216.6725559999999
 31
0.0
  0
LINE
  5
B435
330
B3B2
100
AcDbEntity
  8
1
  6
Continuous
100
AcDbLine
 10
163.4485149999999
 20
215.179556
 30
0.0
 11
162.490146
 21
216.1379249999999
 31
0.0
  0
LINE
  5
B436
330
B3B2
100
AcDbEntity
  8
1
  6
Continuous
100
AcDbLine
 10
188.9043599999999
 20
215.179556
 30
0.0
 11
186.9043599999999
 21
216.6725559999999
 31
0.0
  0
LINE
  5
B437
330
B3B2
100
AcDbEntity
  8
1
  6
Continuous
100
AcDbLine
 10
190.3185729999999
 20
215.179556
 30
0.0
 11
188.3185729999999
 21
216.6725559999999
 31
0.0
  0
LINE
  5
B438
330
B3B2
100
AcDbEntity
  8
1
  6
Continuous
100
AcDbLine
 10
191.732787
 20
215.179556
 30
0.0
 11
189.7327869999998
 21
216.6725559999999
 31
0.0
  0
LINE
  5
B439
330
B3B2
100
AcDbEntity
  8
1
  6
Continuous
100
AcDbLine
 10
193.147
 20
215.179556
 30
0.0
 11
191.1469999999999
 21
216.6725559999999
 31
0.0
  0
LINE
  5
B43A
330
B3B2
100
AcDbEntity
  8
1
  6
Continuous
100
AcDbLine
 10
194.5612139999999
 20
215.179556
 30
0.0
 11
192.5612139999999
 21
216.6725559999999
 31
0.0
  0
LINE
  5
B43B
330
B3B2
100
AcDbEntity
  8
1
  6
Continuous
100
AcDbLine
 10
195.9754269999999
 20
215.179556
 30
0.0
 11
193.975427
 21
216.6725559999999
 31
0.0
  0
LINE
  5
B43C
330
B3B2
100
AcDbEntity
  8
1
  6
Continuous
100
AcDbLine
 10
197.3896409999999
 20
215.179556
 30
0.0
 11
195.3896409999999
 21
216.6725559999999
 31
0.0
  0
LINE
  5
B43D
330
B3B2
100
AcDbEntity
  8
1
  6
Continuous
100
AcDbLine
 10
198.8038539999998
 20
215.179556
 30
0.0
 11
196.803854
 21
216.6725559999999
 31
0.0
  0
LINE
  5
B43E
330
B3B2
100
AcDbEntity
  8
1
  6
Continuous
100
AcDbLine
 10
200.2180679999999
 20
215.179556
 30
0.0
 11
198.2180679999999
 21
216.6725559999999
 31
0.0
  0
LINE
  5
B43F
330
B3B2
100
AcDbEntity
  8
1
  6
Continuous
100
AcDbLine
 10
201.632282
 20
215.179556
 30
0.0
 11
199.6322819999998
 21
216.6725559999999
 31
0.0
  0
LINE
  5
B440
330
B3B2
100
AcDbEntity
  8
1
  6
Continuous
100
AcDbLine
 10
203.0464949999999
 20
215.179556
 30
0.0
 11
201.0464949999999
 21
216.6725559999999
 31
0.0
  0
LINE
  5
B441
330
B3B2
100
AcDbEntity
  8
1
  6
Continuous
100
AcDbLine
 10
204.4607089999999
 20
215.179556
 30
0.0
 11
202.4607089999999
 21
216.6725559999999
 31
0.0
  0
LINE
  5
B442
330
B3B2
100
AcDbEntity
  8
1
  6
Continuous
100
AcDbLine
 10
205.874922
 20
215.179556
 30
0.0
 11
203.874922
 21
216.6725559999999
 31
0.0
  0
LINE
  5
B443
330
B3B2
100
AcDbEntity
  8
1
  6
Continuous
100
AcDbLine
 10
207.289136
 20
215.179556
 30
0.0
 11
205.289136
 21
216.6725559999999
 31
0.0
  0
LINE
  5
B444
330
B3B2
100
AcDbEntity
  8
1
  6
Continuous
100
AcDbLine
 10
208.490146
 20
215.3927589999999
 30
0.0
 11
206.703349
 21
216.6725559999999
 31
0.0
  0
LINE
  5
B445
330
B3B2
100
AcDbEntity
  8
1
  6
Continuous
100
AcDbLine
 10
208.490146
 20
216.299973
 30
0.0
 11
208.1175629999999
 21
216.6725559999999
 31
0.0
  0
LINE
  5
B446
330
B3B2
100
AcDbEntity
  8
1
  6
Continuous
100
AcDbLine
 10
183.490146
 20
215.179556
 30
0.0
 11
185.490146
 21
216.6725559999999
 31
0.0
  0
LINE
  5
B447
330
B3B2
100
AcDbEntity
  8
1
  6
Continuous
100
AcDbLine
 10
180.661719
 20
215.179556
 30
0.0
 11
182.661719
 21
216.6725559999999
 31
0.0
  0
LINE
  5
B448
330
B3B2
100
AcDbEntity
  8
1
  6
Continuous
100
AcDbLine
 10
177.8332919999998
 20
215.179556
 30
0.0
 11
179.833292
 21
216.6725559999999
 31
0.0
  0
LINE
  5
B449
330
B3B2
100
AcDbEntity
  8
1
  6
Continuous
100
AcDbLine
 10
175.004865
 20
215.179556
 30
0.0
 11
177.0048649999999
 21
216.6725559999999
 31
0.0
  0
LINE
  5
B44A
330
B3B2
100
AcDbEntity
  8
1
  6
Continuous
100
AcDbLine
 10
172.1764369999999
 20
215.179556
 30
0.0
 11
174.176437
 21
216.6725559999999
 31
0.0
  0
LINE
  5
B44B
330
B3B2
100
AcDbEntity
  8
1
  6
Continuous
100
AcDbLine
 10
169.3480099999999
 20
215.179556
 30
0.0
 11
171.3480099999999
 21
216.6725559999999
 31
0.0
  0
LINE
  5
B44C
330
B3B2
100
AcDbEntity
  8
1
  6
Continuous
100
AcDbLine
 10
166.519583
 20
215.179556
 30
0.0
 11
168.519583
 21
216.6725559999999
 31
0.0
  0
LINE
  5
B44D
330
B3B2
100
AcDbEntity
  8
1
  6
Continuous
100
AcDbLine
 10
163.691156
 20
215.179556
 30
0.0
 11
165.691156
 21
216.6725559999999
 31
0.0
  0
LINE
  5
B44E
330
B3B2
100
AcDbEntity
  8
1
  6
Continuous
100
AcDbLine
 10
162.490146
 20
216.299973
 30
0.0
 11
162.862729
 21
216.6725559999999
 31
0.0
  0
LINE
  5
B44F
330
B3B2
100
AcDbEntity
  8
1
  6
Continuous
100
AcDbLine
 10
186.3185729999999
 20
215.179556
 30
0.0
 11
188.3185729999999
 21
216.6725559999999
 31
0.0
  0
LINE
  5
B450
330
B3B2
100
AcDbEntity
  8
1
  6
Continuous
100
AcDbLine
 10
189.1469999999999
 20
215.179556
 30
0.0
 11
191.1469999999999
 21
216.6725559999999
 31
0.0
  0
LINE
  5
B451
330
B3B2
100
AcDbEntity
  8
1
  6
Continuous
100
AcDbLine
 10
191.975427
 20
215.179556
 30
0.0
 11
193.975427
 21
216.6725559999999
 31
0.0
  0
LINE
  5
B452
330
B3B2
100
AcDbEntity
  8
1
  6
Continuous
100
AcDbLine
 10
194.8038539999998
 20
215.179556
 30
0.0
 11
196.803854
 21
216.6725559999999
 31
0.0
  0
LINE
  5
B453
330
B3B2
100
AcDbEntity
  8
1
  6
Continuous
100
AcDbLine
 10
197.632282
 20
215.179556
 30
0.0
 11
199.6322819999998
 21
216.6725559999999
 31
0.0
  0
LINE
  5
B454
330
B3B2
100
AcDbEntity
  8
1
  6
Continuous
100
AcDbLine
 10
200.4607089999999
 20
215.179556
 30
0.0
 11
202.4607089999999
 21
216.6725559999999
 31
0.0
  0
LINE
  5
B455
330
B3B2
100
AcDbEntity
  8
1
  6
Continuous
100
AcDbLine
 10
203.289136
 20
215.179556
 30
0.0
 11
205.289136
 21
216.6725559999999
 31
0.0
  0
LINE
  5
B456
330
B3B2
100
AcDbEntity
  8
1
  6
Continuous
100
AcDbLine
 10
206.117563
 20
215.179556
 30
0.0
 11
208.1175629999999
 21
216.6725559999999
 31
0.0
  0
LINE
  5
B457
330
B3B2
100
AcDbEntity
  8
1
  6
Continuous
100
AcDbLine
 10
293.9924409999999
 20
215.17952
 30
0.0
 11
295.9924409999999
 21
216.67252
 31
0.0
  0
LINE
  5
B458
330
B3B2
100
AcDbEntity
  8
1
  6
Continuous
100
AcDbLine
 10
295.4066549999998
 20
215.17952
 30
0.0
 11
297.4066549999998
 21
216.67252
 31
0.0
  0
LINE
  5
B459
330
B3B2
100
AcDbEntity
  8
1
  6
Continuous
100
AcDbLine
 10
296.820868
 20
215.17952
 30
0.0
 11
298.8208679999999
 21
216.67252
 31
0.0
  0
LINE
  5
B45A
330
B3B2
100
AcDbEntity
  8
1
  6
Continuous
100
AcDbLine
 10
298.2350819999999
 20
215.17952
 30
0.0
 11
300.2350819999999
 21
216.67252
 31
0.0
  0
LINE
  5
B45B
330
B3B2
100
AcDbEntity
  8
1
  6
Continuous
100
AcDbLine
 10
299.649295
 20
215.17952
 30
0.0
 11
301.6492949999999
 21
216.67252
 31
0.0
  0
LINE
  5
B45C
330
B3B2
100
AcDbEntity
  8
1
  6
Continuous
100
AcDbLine
 10
301.063509
 20
215.17952
 30
0.0
 11
303.063509
 21
216.67252
 31
0.0
  0
LINE
  5
B45D
330
B3B2
100
AcDbEntity
  8
1
  6
Continuous
100
AcDbLine
 10
302.477722
 20
215.17952
 30
0.0
 11
304.477722
 21
216.67252
 31
0.0
  0
LINE
  5
B45E
330
B3B2
100
AcDbEntity
  8
1
  6
Continuous
100
AcDbLine
 10
303.8919359999998
 20
215.17952
 30
0.0
 11
305.8919359999998
 21
216.67252
 31
0.0
  0
LINE
  5
B45F
330
B3B2
100
AcDbEntity
  8
1
  6
Continuous
100
AcDbLine
 10
305.306149
 20
215.17952
 30
0.0
 11
307.306149
 21
216.67252
 31
0.0
  0
LINE
  5
B460
330
B3B2
100
AcDbEntity
  8
1
  6
Continuous
100
AcDbLine
 10
306.7203629999998
 20
215.17952
 30
0.0
 11
308.7203629999998
 21
216.67252
 31
0.0
  0
LINE
  5
B461
330
B3B2
100
AcDbEntity
  8
1
  6
Continuous
100
AcDbLine
 10
308.1345769999999
 20
215.17952
 30
0.0
 11
310.134577
 21
216.67252
 31
0.0
  0
LINE
  5
B462
330
B3B2
100
AcDbEntity
  8
1
  6
Continuous
100
AcDbLine
 10
309.54879
 20
215.17952
 30
0.0
 11
311.54879
 21
216.67252
 31
0.0
  0
LINE
  5
B463
330
B3B2
100
AcDbEntity
  8
1
  6
Continuous
100
AcDbLine
 10
310.963004
 20
215.17952
 30
0.0
 11
312.963004
 21
216.67252
 31
0.0
  0
LINE
  5
B464
330
B3B2
100
AcDbEntity
  8
1
  6
Continuous
100
AcDbLine
 10
312.3772169999999
 20
215.17952
 30
0.0
 11
314.3772169999999
 21
216.67252
 31
0.0
  0
LINE
  5
B465
330
B3B2
100
AcDbEntity
  8
1
  6
Continuous
100
AcDbLine
 10
313.7914309999998
 20
215.17952
 30
0.0
 11
315.7914309999998
 21
216.67252
 31
0.0
  0
LINE
  5
B466
330
B3B2
100
AcDbEntity
  8
1
  6
Continuous
100
AcDbLine
 10
315.2056439999999
 20
215.17952
 30
0.0
 11
317.2056439999999
 21
216.67252
 31
0.0
  0
LINE
  5
B467
330
B3B2
100
AcDbEntity
  8
1
  6
Continuous
100
AcDbLine
 10
316.619858
 20
215.17952
 30
0.0
 11
318.619858
 21
216.67252
 31
0.0
  0
LINE
  5
B468
330
B3B2
100
AcDbEntity
  8
1
  6
Continuous
100
AcDbLine
 10
318.0340719999999
 20
215.17952
 30
0.0
 11
318.9924409999999
 21
216.1378899999998
 31
0.0
  0
LINE
  5
B469
330
B3B2
100
AcDbEntity
  8
1
  6
Continuous
100
AcDbLine
 10
292.578227
 20
215.17952
 30
0.0
 11
294.578227
 21
216.67252
 31
0.0
  0
LINE
  5
B46A
330
B3B2
100
AcDbEntity
  8
1
  6
Continuous
100
AcDbLine
 10
291.164014
 20
215.17952
 30
0.0
 11
293.164014
 21
216.67252
 31
0.0
  0
LINE
  5
B46B
330
B3B2
100
AcDbEntity
  8
1
  6
Continuous
100
AcDbLine
 10
289.7498
 20
215.17952
 30
0.0
 11
291.7498
 21
216.67252
 31
0.0
  0
LINE
  5
B46C
330
B3B2
100
AcDbEntity
  8
1
  6
Continuous
100
AcDbLine
 10
288.3355869999999
 20
215.17952
 30
0.0
 11
290.335587
 21
216.67252
 31
0.0
  0
LINE
  5
B46D
330
B3B2
100
AcDbEntity
  8
1
  6
Continuous
100
AcDbLine
 10
286.921373
 20
215.17952
 30
0.0
 11
288.921373
 21
216.67252
 31
0.0
  0
LINE
  5
B46E
330
B3B2
100
AcDbEntity
  8
1
  6
Continuous
100
AcDbLine
 10
285.50716
 20
215.17952
 30
0.0
 11
287.50716
 21
216.67252
 31
0.0
  0
LINE
  5
B46F
330
B3B2
100
AcDbEntity
  8
1
  6
Continuous
100
AcDbLine
 10
284.0929459999999
 20
215.17952
 30
0.0
 11
286.0929459999999
 21
216.67252
 31
0.0
  0
LINE
  5
B470
330
B3B2
100
AcDbEntity
  8
1
  6
Continuous
100
AcDbLine
 10
282.6787319999999
 20
215.17952
 30
0.0
 11
284.6787319999999
 21
216.67252
 31
0.0
  0
LINE
  5
B471
330
B3B2
100
AcDbEntity
  8
1
  6
Continuous
100
AcDbLine
 10
281.2645189999999
 20
215.17952
 30
0.0
 11
283.264519
 21
216.67252
 31
0.0
  0
LINE
  5
B472
330
B3B2
100
AcDbEntity
  8
1
  6
Continuous
100
AcDbLine
 10
279.8503049999998
 20
215.17952
 30
0.0
 11
281.8503049999998
 21
216.67252
 31
0.0
  0
LINE
  5
B473
330
B3B2
100
AcDbEntity
  8
1
  6
Continuous
100
AcDbLine
 10
278.4360919999999
 20
215.17952
 30
0.0
 11
280.4360919999999
 21
216.67252
 31
0.0
  0
LINE
  5
B474
330
B3B2
100
AcDbEntity
  8
1
  6
Continuous
100
AcDbLine
 10
277.0218779999999
 20
215.17952
 30
0.0
 11
279.0218779999999
 21
216.67252
 31
0.0
  0
LINE
  5
B475
330
B3B2
100
AcDbEntity
  8
1
  6
Continuous
100
AcDbLine
 10
275.607665
 20
215.17952
 30
0.0
 11
277.6076649999998
 21
216.67252
 31
0.0
  0
LINE
  5
B476
330
B3B2
100
AcDbEntity
  8
1
  6
Continuous
100
AcDbLine
 10
274.1934509999999
 20
215.17952
 30
0.0
 11
276.1934509999999
 21
216.67252
 31
0.0
  0
LINE
  5
B477
330
B3B2
100
AcDbEntity
  8
1
  6
Continuous
100
AcDbLine
 10
272.9924409999999
 20
215.3927239999999
 30
0.0
 11
274.7792379999999
 21
216.67252
 31
0.0
  0
LINE
  5
B478
330
B3B2
100
AcDbEntity
  8
1
  6
Continuous
100
AcDbLine
 10
272.9924409999999
 20
216.299937
 30
0.0
 11
273.365024
 21
216.67252
 31
0.0
  0
LINE
  5
B479
330
B3B2
100
AcDbEntity
  8
1
  6
Continuous
100
AcDbLine
 10
297.9924409999999
 20
215.17952
 30
0.0
 11
295.9924409999999
 21
216.67252
 31
0.0
  0
LINE
  5
B47A
330
B3B2
100
AcDbEntity
  8
1
  6
Continuous
100
AcDbLine
 10
300.820868
 20
215.17952
 30
0.0
 11
298.8208679999999
 21
216.67252
 31
0.0
  0
LINE
  5
B47B
330
B3B2
100
AcDbEntity
  8
1
  6
Continuous
100
AcDbLine
 10
303.6492949999999
 20
215.17952
 30
0.0
 11
301.6492949999999
 21
216.67252
 31
0.0
  0
LINE
  5
B47C
330
B3B2
100
AcDbEntity
  8
1
  6
Continuous
100
AcDbLine
 10
306.477722
 20
215.17952
 30
0.0
 11
304.477722
 21
216.67252
 31
0.0
  0
LINE
  5
B47D
330
B3B2
100
AcDbEntity
  8
1
  6
Continuous
100
AcDbLine
 10
309.306149
 20
215.17952
 30
0.0
 11
307.306149
 21
216.67252
 31
0.0
  0
LINE
  5
B47E
330
B3B2
100
AcDbEntity
  8
1
  6
Continuous
100
AcDbLine
 10
312.134577
 20
215.17952
 30
0.0
 11
310.134577
 21
216.67252
 31
0.0
  0
LINE
  5
B47F
330
B3B2
100
AcDbEntity
  8
1
  6
Continuous
100
AcDbLine
 10
314.963004
 20
215.17952
 30
0.0
 11
312.963004
 21
216.67252
 31
0.0
  0
LINE
  5
B480
330
B3B2
100
AcDbEntity
  8
1
  6
Continuous
100
AcDbLine
 10
317.7914309999998
 20
215.17952
 30
0.0
 11
315.7914309999998
 21
216.67252
 31
0.0
  0
LINE
  5
B481
330
B3B2
100
AcDbEntity
  8
1
  6
Continuous
100
AcDbLine
 10
318.9924409999999
 20
216.299937
 30
0.0
 11
318.619858
 21
216.67252
 31
0.0
  0
LINE
  5
B482
330
B3B2
100
AcDbEntity
  8
1
  6
Continuous
100
AcDbLine
 10
295.164014
 20
215.17952
 30
0.0
 11
293.164014
 21
216.67252
 31
0.0
  0
LINE
  5
B483
330
B3B2
100
AcDbEntity
  8
1
  6
Continuous
100
AcDbLine
 10
292.3355869999999
 20
215.17952
 30
0.0
 11
290.335587
 21
216.67252
 31
0.0
  0
LINE
  5
B484
330
B3B2
100
AcDbEntity
  8
1
  6
Continuous
100
AcDbLine
 10
289.5071599999998
 20
215.17952
 30
0.0
 11
287.50716
 21
216.67252
 31
0.0
  0
LINE
  5
B485
330
B3B2
100
AcDbEntity
  8
1
  6
Continuous
100
AcDbLine
 10
286.6787319999999
 20
215.17952
 30
0.0
 11
284.6787319999999
 21
216.67252
 31
0.0
  0
LINE
  5
B486
330
B3B2
100
AcDbEntity
  8
1
  6
Continuous
100
AcDbLine
 10
283.8503049999999
 20
215.17952
 30
0.0
 11
281.8503049999998
 21
216.67252
 31
0.0
  0
LINE
  5
B487
330
B3B2
100
AcDbEntity
  8
1
  6
Continuous
100
AcDbLine
 10
281.0218779999999
 20
215.17952
 30
0.0
 11
279.0218779999999
 21
216.67252
 31
0.0
  0
LINE
  5
B488
330
B3B2
100
AcDbEntity
  8
1
  6
Continuous
100
AcDbLine
 10
278.1934509999999
 20
215.17952
 30
0.0
 11
276.1934509999999
 21
216.67252
 31
0.0
  0
LINE
  5
B489
330
B3B2
100
AcDbEntity
  8
1
  6
Continuous
100
AcDbLine
 10
275.365024
 20
215.17952
 30
0.0
 11
273.365024
 21
216.67252
 31
0.0
  0
LINE
  5
B48A
330
B3B2
100
AcDbEntity
  8
4
  6
CENTER
100
AcDbLine
 10
218.740146
 20
316.9206459999998
 30
0.0
 11
206.240146
 21
316.9206459999998
 31
0.0
  0
LINE
  5
B48B
330
B3B2
100
AcDbEntity
  8
4
  6
CENTER
100
AcDbLine
 10
212.490146
 20
310.6706459999998
 30
0.0
 11
212.490146
 21
323.1706459999998
 31
0.0
  0
LINE
  5
B48C
330
B3B2
100
AcDbEntity
  8
4
  6
CENTER
100
AcDbLine
 10
218.740146
 20
280.920646
 30
0.0
 11
206.240146
 21
280.920646
 31
0.0
  0
LINE
  5
B48D
330
B3B2
100
AcDbEntity
  8
4
  6
CENTER
100
AcDbLine
 10
212.490146
 20
274.6706459999999
 30
0.0
 11
212.490146
 21
287.170646
 31
0.0
  0
LINE
  5
B48E
330
B3B2
100
AcDbEntity
  8
4
  6
CENTER
100
AcDbLine
 10
164.740146
 20
280.920646
 30
0.0
 11
152.240146
 21
280.920646
 31
0.0
  0
LINE
  5
B48F
330
B3B2
100
AcDbEntity
  8
4
  6
CENTER
100
AcDbLine
 10
158.490146
 20
274.6706459999999
 30
0.0
 11
158.490146
 21
287.170646
 31
0.0
  0
LINE
  5
B490
330
B3B2
100
AcDbEntity
  8
4
  6
CENTER
100
AcDbLine
 10
164.740146
 20
316.9206459999998
 30
0.0
 11
152.240146
 21
316.9206459999998
 31
0.0
  0
LINE
  5
B491
330
B3B2
100
AcDbEntity
  8
4
  6
CENTER
100
AcDbLine
 10
158.490146
 20
310.6706459999998
 30
0.0
 11
158.490146
 21
323.1706459999998
 31
0.0
  0
LINE
  5
B492
330
B3B2
100
AcDbEntity
  8
4
  6
CENTER
100
AcDbLine
 10
226.5224509999999
 20
298.9206459999999
 30
0.0
 11
123.990146
 21
298.9206459999999
 31
0.0
  0
LINE
  5
B493
330
B3B2
100
AcDbEntity
  8
4
  6
CENTER
100
AcDbLine
 10
185.490146
 20
265.5382649999999
 30
0.0
 11
185.490146
 21
329.525192
 31
0.0
  0
LINE
  5
B494
330
B3B2
100
AcDbEntity
  8
4
  6
CENTER
100
AcDbLine
 10
185.490146
 20
202.215713
 30
0.0
 11
185.490146
 21
229.2177
 31
0.0
  0
LINE
  5
B495
330
B3B2
100
AcDbEntity
  8
4
  6
CENTER
100
AcDbLine
 10
196.990146
 20
175.717882
 30
0.0
 11
123.990146
 21
175.717882
 31
0.0
  0
LINE
  5
B496
330
B3B2
100
AcDbEntity
  8
4
  6
CENTER
100
AcDbLine
 10
160.490146
 20
139.217882
 30
0.0
 11
160.490146
 21
207.891468
 31
0.0
  0
LINE
  5
B497
330
B3B2
100
AcDbEntity
  8
4
  6
CENTER
100
AcDbLine
 10
269.910058
 20
175.717782
 30
0.0
 11
322.792299
 21
175.717782
 31
0.0
  0
LINE
  5
B498
330
B3B2
100
AcDbEntity
  8
4
  6
CENTER
100
AcDbLine
 10
295.9924409999999
 20
229.217665
 30
0.0
 11
295.9924409999999
 21
139.217782
 31
0.0
  0
LINE
  5
B499
330
B3B2
100
AcDbEntity
  8
1
  6
Continuous
100
AcDbLine
 10
213.490146
 20
325.9206459999999
 30
0.0
 11
157.490146
 21
325.9206459999999
 31
0.0
  0
LINE
  5
B49A
330
B3B2
100
AcDbEntity
  8
1
  6
Continuous
100
AcDbLine
 10
150.490146
 20
278.9206459999999
 30
0.0
 11
150.490146
 21
318.9206459999998
 31
0.0
  0
LINE
  5
B49B
330
B3B2
100
AcDbEntity
  8
1
  6
Continuous
100
AcDbLine
 10
213.490146
 20
271.9206459999999
 30
0.0
 11
157.490146
 21
271.9206459999999
 31
0.0
  0
LINE
  5
B49C
330
B3B2
100
AcDbEntity
  8
1
  6
Continuous
100
AcDbLine
 10
220.490146
 20
278.9206459999999
 30
0.0
 11
220.490146
 21
318.9206459999998
 31
0.0
  0
ARC
  5
B49D
330
B3B2
100
AcDbEntity
  8
1
  6
Continuous
100
AcDbCircle
 10
157.490146
 20
318.9206459999998
 30
0.0
 40
7.0
100
AcDbArc
 50
90.0
 51
180.0
  0
ARC
  5
B49E
330
B3B2
100
AcDbEntity
  8
1
  6
Continuous
100
AcDbCircle
 10
213.490146
 20
318.9206459999998
 30
0.0
 40
7.0
100
AcDbArc
 50
0.0
 51
90.0
  0
ARC
  5
B49F
330
B3B2
100
AcDbEntity
  8
1
  6
Continuous
100
AcDbCircle
 10
157.490146
 20
278.9206459999999
 30
0.0
 40
7.0
100
AcDbArc
 50
180.0
 51
270.0
  0
ARC
  5
B4A0
330
B3B2
100
AcDbEntity
  8
1
  6
Continuous
100
AcDbCircle
 10
213.490146
 20
278.9206459999999
 30
0.0
 40
7.0
100
AcDbArc
 50
270.0
 51
0.0
  0
LINE
  5
B4A1
330
B3B2
100
AcDbEntity
  8
1
  6
Continuous
100
AcDbLine
 10
220.490146
 20
221.917417
 30
0.0
 11
220.490146
 21
224.2177
 31
0.0
  0
LINE
  5
B4A2
330
B3B2
100
AcDbEntity
  8
1
  6
Continuous
100
AcDbLine
 10
150.490146
 20
221.917417
 30
0.0
 11
150.490146
 21
224.2177
 31
0.0
  0
LINE
  5
B4A3
330
B3B2
100
AcDbEntity
  8
4
  6
CENTER
100
AcDbLine
 10
158.490146
 20
216.917417
 30
0.0
 11
158.490146
 21
229.2177
 31
0.0
  0
LINE
  5
B4A4
330
B3B2
100
AcDbEntity
  8
4
  6
CENTER
100
AcDbLine
 10
212.490146
 20
216.917417
 30
0.0
 11
212.490146
 21
229.2177
 31
0.0
  0
LINE
  5
B4A5
330
B3B2
100
AcDbEntity
  8
4
  6
CENTER
100
AcDbLine
 10
277.992441
 20
229.217665
 30
0.0
 11
277.992441
 21
216.9173819999998
 31
0.0
  0
LINE
  5
B4A6
330
B3B2
100
AcDbEntity
  8
4
  6
CENTER
100
AcDbLine
 10
313.9924409999999
 20
229.217665
 30
0.0
 11
313.9924409999999
 21
216.9173819999998
 31
0.0
  0
LINE
  5
B4A7
330
B3B2
100
AcDbEntity
  8
1
  6
Continuous
100
AcDbLine
 10
268.9924409999999
 20
224.2176649999999
 30
0.0
 11
268.9924409999999
 21
221.9173819999999
 31
0.0
  0
LINE
  5
B4A8
330
B3B2
100
AcDbEntity
  8
1
  6
Continuous
100
AcDbLine
 10
322.9924409999999
 20
224.2176649999999
 30
0.0
 11
322.9924409999999
 21
221.9173819999999
 31
0.0
  0
LINE
  5
B4A9
330
B3B2
100
AcDbEntity
  8
1
  6
Continuous
100
AcDbLine
 10
166.8243219999999
 20
212.8770429999999
 30
0.0
 11
155.702287
 21
212.845989
 31
0.0
  0
ARC
  5
B4AA
330
B3B2
100
AcDbEntity
  8
1
  6
Continuous
100
AcDbCircle
 10
202.222361
 20
194.23831
 30
0.0
 40
14.229
100
AcDbArc
 50
90.0
 51
133.500573
  0
ARC
  5
B4AB
330
B3B2
100
AcDbEntity
  8
1
  6
Continuous
100
AcDbCircle
 10
200.835986
 20
197.46731
 30
0.0
 40
11.0
100
AcDbArc
 50
139.8530389999999
 51
146.327459
  0
ARC
  5
B4AC
330
B3B2
100
AcDbEntity
  8
1
  6
Continuous
100
AcDbCircle
 10
156.646199
 20
294.757624
 30
0.0
 40
84.15427099999998
100
AcDbArc
 50
268.6251529999998
 51
270.661561
  0
ARC
  5
B4AD
330
B3B2
100
AcDbEntity
  8
1
  6
Continuous
100
AcDbCircle
 10
155.716879
 20
207.620059
 30
0.0
 40
5.22595
100
AcDbArc
 50
90.15997800000002
 51
100.38805
  0
ARC
  5
B4AE
330
B3B2
100
AcDbEntity
  8
1
  6
Continuous
100
AcDbCircle
 10
154.9009879999998
 20
212.0707279999999
 30
0.0
 40
0.7011149999999999
100
AcDbArc
 50
100.38805
 51
140.399055
  0
ARC
  5
B4AF
330
B3B2
100
AcDbEntity
  8
1
  6
Continuous
100
AcDbCircle
 10
154.63379
 20
210.907969
 30
0.0
 40
0.28047
100
AcDbArc
 50
216.5458509999999
 51
268.6251529999998
  0
ARC
  5
B4B0
330
B3B2
100
AcDbEntity
  8
1
  6
Continuous
100
AcDbCircle
 10
141.337801
 20
209.431971
 30
0.0
 40
13.13604599999999
100
AcDbArc
 50
5.718930999999998
 51
8.653186999999999
  0
ARC
  5
B4B1
330
B3B2
100
AcDbEntity
  8
1
  6
Continuous
100
AcDbCircle
 10
122.542776
 20
213.0080229999999
 30
0.0
 40
31.82178
100
AcDbArc
 50
357.118506
 51
359.117028
  0
LINE
  5
B4B2
330
B3B2
100
AcDbEntity
  8
1
  6
Continuous
100
AcDbLine
 10
158.090134
 20
212.852656
 30
0.0
 11
153.02705
 21
188.79888
 31
0.0
  0
LINE
  5
B4B3
330
B3B2
100
AcDbEntity
  8
1
  6
Continuous
100
AcDbLine
 10
191.681567
 20
203.5662129999999
 30
0.0
 11
177.0521019999999
 21
180.1255079999999
 31
0.0
  0
LINE
  5
B4B4
330
B3B2
100
AcDbEntity
  8
4
  6
CENTER
100
AcDbLine
 10
53.987851
 20
229.217665
 30
0.0
 11
53.987851
 21
139.217782
 31
0.0
  0
LINE
  5
B4B5
330
B3B2
100
AcDbEntity
  8
4
  6
CENTER
100
AcDbLine
 10
88.12068499999998
 20
175.717782
 30
0.0
 11
27.18796199999999
 21
175.717782
 31
0.0
  0
LINE
  5
B4B6
330
B3B2
100
AcDbEntity
  8
1
  6
Continuous
100
AcDbLine
 10
38.98785099999999
 20
171.717782
 30
0.0
 11
38.530276
 21
171.717782
 31
0.0
  0
LINE
  5
B4B7
330
B3B2
100
AcDbEntity
  8
1
  6
Continuous
100
AcDbLine
 10
38.98785099999999
 20
179.7177819999998
 30
0.0
 11
38.44516199999999
 21
179.7177819999998
 31
0.0
  0
LINE
  5
B4B8
330
B3B2
100
AcDbEntity
  8
1
  6
Continuous
100
AcDbLine
 10
76.98785100000002
 20
216.67252
 30
0.0
 11
30.98785100000001
 21
216.67252
 31
0.0
  0
LINE
  5
B4B9
330
B3B2
100
AcDbEntity
  8
1
  6
Continuous
100
AcDbLine
 10
76.16293500000002
 20
218.154782
 30
0.0
 11
31.81276699999999
 21
218.154782
 31
0.0
  0
LINE
  5
B4BA
330
B3B2
100
AcDbEntity
  8
1
  6
Continuous
100
AcDbLine
 10
80.987851
 20
224.2176649999999
 30
0.0
 11
26.987851
 21
224.2176649999999
 31
0.0
  0
LINE
  5
B4BB
330
B3B2
100
AcDbEntity
  8
1
  6
Continuous
100
AcDbLine
 10
73.743735
 20
219.89252
 30
0.0
 11
34.231967
 21
219.89252
 31
0.0
  0
LINE
  5
B4BC
330
B3B2
100
AcDbEntity
  8
1
  6
Continuous
100
AcDbLine
 10
80.987851
 20
221.9173819999999
 30
0.0
 11
26.987851
 21
221.9173819999999
 31
0.0
  0
LINE
  5
B4BD
330
B3B2
100
AcDbEntity
  8
1
  6
Continuous
100
AcDbLine
 10
30.98785100000001
 20
215.17952
 30
0.0
 11
76.98785100000002
 21
215.17952
 31
0.0
  0
LINE
  5
B4BE
330
B3B2
100
AcDbEntity
  8
1
  6
Continuous
100
AcDbLine
 10
49.159424
 20
215.17952
 30
0.0
 11
51.159424
 21
216.67252
 31
0.0
  0
LINE
  5
B4BF
330
B3B2
100
AcDbEntity
  8
1
  6
Continuous
100
AcDbLine
 10
50.33099700000001
 20
215.17952
 30
0.0
 11
48.33099699999999
 21
216.67252
 31
0.0
  0
LINE
  5
B4C0
330
B3B2
100
AcDbEntity
  8
1
  6
Continuous
100
AcDbLine
 10
51.74521
 20
215.17952
 30
0.0
 11
49.74521
 21
216.67252
 31
0.0
  0
ARC
  5
B4C1
330
B3B2
100
AcDbEntity
  8
1
  6
Continuous
100
AcDbCircle
 10
74.737851
 20
211.191224
 30
0.0
 40
4.0
100
AcDbArc
 50
0.0
 51
85.615961
  0
LINE
  5
B4C2
330
B3B2
100
AcDbEntity
  8
1
  6
Continuous
100
AcDbLine
 10
78.737851
 20
211.191224
 30
0.0
 11
78.737851
 21
189.4850059999999
 31
0.0
  0
LINE
  5
B4C3
330
B3B2
100
AcDbEntity
  8
1
  6
Continuous
100
AcDbLine
 10
67.30156
 20
215.17952
 30
0.0
 11
65.30155999999999
 21
216.67252
 31
0.0
  0
LINE
  5
B4C4
330
B3B2
100
AcDbEntity
  8
1
  6
Continuous
100
AcDbLine
 10
65.88734599999999
 20
215.17952
 30
0.0
 11
63.88734599999999
 21
216.67252
 31
0.0
  0
LINE
  5
B4C5
330
B3B2
100
AcDbEntity
  8
1
  6
Continuous
100
AcDbLine
 10
80.987851
 20
224.2176649999999
 30
0.0
 11
80.987851
 21
221.9173819999999
 31
0.0
  0
LINE
  5
B4C6
330
B3B2
100
AcDbEntity
  8
1
  6
Continuous
100
AcDbLine
 10
76.98785100000002
 20
216.299937
 30
0.0
 11
76.615268
 21
216.67252
 31
0.0
  0
ARC
  5
B4C7
330
B3B2
100
AcDbEntity
  8
1
  6
Continuous
100
AcDbCircle
 10
71.174353
 20
214.6038089999999
 30
0.0
 40
6.206
100
AcDbArc
 50
39.064301
 51
58.798683
  0
ARC
  5
B4C8
330
B3B2
100
AcDbEntity
  8
1
  6
Continuous
100
AcDbCircle
 10
73.376453
 20
219.7050089999999
 30
0.0
 40
4.697225
100
AcDbArc
 50
319.789963
 51
333.713305
  0
LINE
  5
B4C9
330
B3B2
100
AcDbEntity
  8
1
  6
Continuous
100
AcDbLine
 10
76.16293500000002
 20
218.154782
 30
0.0
 11
75.992935
 21
218.514782
 31
0.0
  0
LINE
  5
B4CA
330
B3B2
100
AcDbEntity
  8
1
  6
Continuous
100
AcDbLine
 10
76.977935
 20
218.154782
 30
0.0
 11
76.16293500000002
 21
218.154782
 31
0.0
  0
ARC
  5
B4CB
330
B3B2
100
AcDbEntity
  8
1
  6
Continuous
100
AcDbCircle
 10
76.713965
 20
217.234929
 30
0.0
 40
0.9569799999999998
100
AcDbArc
 50
24.04026499999999
 51
73.98808699999998
  0
ARC
  5
B4CC
330
B3B2
100
AcDbEntity
  8
1
  6
Continuous
100
AcDbCircle
 10
73.743735
 20
230.5325199999999
 30
0.0
 40
10.64
100
AcDbArc
 50
270.0
 51
305.934008
  0
LINE
  5
B4CD
330
B3B2
100
AcDbEntity
  8
1
  6
Continuous
100
AcDbLine
 10
74.615268
 20
215.17952
 30
0.0
 11
76.615268
 21
216.67252
 31
0.0
  0
LINE
  5
B4CE
330
B3B2
100
AcDbEntity
  8
1
  6
Continuous
100
AcDbLine
 10
71.78684100000002
 20
215.17952
 30
0.0
 11
73.78684099999998
 21
216.67252
 31
0.0
  0
LINE
  5
B4CF
330
B3B2
100
AcDbEntity
  8
1
  6
Continuous
100
AcDbLine
 10
68.95841400000001
 20
215.17952
 30
0.0
 11
70.95841400000002
 21
216.67252
 31
0.0
  0
LINE
  5
B4D0
330
B3B2
100
AcDbEntity
  8
1
  6
Continuous
100
AcDbLine
 10
66.129987
 20
215.17952
 30
0.0
 11
68.129987
 21
216.67252
 31
0.0
  0
LINE
  5
B4D1
330
B3B2
100
AcDbEntity
  8
1
  6
Continuous
100
AcDbLine
 10
76.98785100000002
 20
215.3927239999999
 30
0.0
 11
75.201054
 21
216.67252
 31
0.0
  0
LINE
  5
B4D2
330
B3B2
100
AcDbEntity
  8
1
  6
Continuous
100
AcDbLine
 10
75.78684100000002
 20
215.17952
 30
0.0
 11
73.78684099999998
 21
216.67252
 31
0.0
  0
LINE
  5
B4D3
330
B3B2
100
AcDbEntity
  8
1
  6
Continuous
100
AcDbLine
 10
74.37262699999998
 20
215.17952
 30
0.0
 11
72.37262699999998
 21
216.67252
 31
0.0
  0
LINE
  5
B4D4
330
B3B2
100
AcDbEntity
  8
1
  6
Continuous
100
AcDbLine
 10
72.958414
 20
215.17952
 30
0.0
 11
70.95841400000002
 21
216.67252
 31
0.0
  0
LINE
  5
B4D5
330
B3B2
100
AcDbEntity
  8
1
  6
Continuous
100
AcDbLine
 10
71.5442
 20
215.17952
 30
0.0
 11
69.5442
 21
216.67252
 31
0.0
  0
LINE
  5
B4D6
330
B3B2
100
AcDbEntity
  8
1
  6
Continuous
100
AcDbLine
 10
70.129987
 20
215.17952
 30
0.0
 11
68.129987
 21
216.67252
 31
0.0
  0
LINE
  5
B4D7
330
B3B2
100
AcDbEntity
  8
1
  6
Continuous
100
AcDbLine
 10
68.715773
 20
215.17952
 30
0.0
 11
66.715773
 21
216.67252
 31
0.0
  0
LINE
  5
B4D8
330
B3B2
100
AcDbEntity
  8
1
  6
Continuous
100
AcDbLine
 10
76.98785100000002
 20
216.67252
 30
0.0
 11
76.98785100000002
 21
215.17952
 31
0.0
  0
LINE
  5
B4D9
330
B3B2
100
AcDbEntity
  8
4
  6
CENTER
100
AcDbLine
 10
71.98785100000002
 20
229.217665
 30
0.0
 11
71.98785100000002
 21
216.9173819999998
 31
0.0
  0
LINE
  5
B4DA
330
B3B2
100
AcDbEntity
  8
1
  6
Continuous
100
AcDbLine
 10
63.30155999999998
 20
215.17952
 30
0.0
 11
65.30155999999999
 21
216.67252
 31
0.0
  0
LINE
  5
B4DB
330
B3B2
100
AcDbEntity
  8
1
  6
Continuous
100
AcDbLine
 10
60.47313199999999
 20
215.17952
 30
0.0
 11
62.47313199999999
 21
216.67252
 31
0.0
  0
LINE
  5
B4DC
330
B3B2
100
AcDbEntity
  8
1
  6
Continuous
100
AcDbLine
 10
57.644705
 20
215.17952
 30
0.0
 11
59.644705
 21
216.67252
 31
0.0
  0
LINE
  5
B4DD
330
B3B2
100
AcDbEntity
  8
1
  6
Continuous
100
AcDbLine
 10
54.816278
 20
215.17952
 30
0.0
 11
56.81627800000001
 21
216.67252
 31
0.0
  0
LINE
  5
B4DE
330
B3B2
100
AcDbEntity
  8
1
  6
Continuous
100
AcDbLine
 10
51.987851
 20
215.17952
 30
0.0
 11
53.987851
 21
216.67252
 31
0.0
  0
LINE
  5
B4DF
330
B3B2
100
AcDbEntity
  8
1
  6
Continuous
100
AcDbLine
 10
64.47313199999999
 20
215.17952
 30
0.0
 11
62.47313199999999
 21
216.67252
 31
0.0
  0
LINE
  5
B4E0
330
B3B2
100
AcDbEntity
  8
1
  6
Continuous
100
AcDbLine
 10
63.05891899999998
 20
215.17952
 30
0.0
 11
61.05891899999999
 21
216.67252
 31
0.0
  0
LINE
  5
B4E1
330
B3B2
100
AcDbEntity
  8
1
  6
Continuous
100
AcDbLine
 10
61.644705
 20
215.17952
 30
0.0
 11
59.644705
 21
216.67252
 31
0.0
  0
LINE
  5
B4E2
330
B3B2
100
AcDbEntity
  8
1
  6
Continuous
100
AcDbLine
 10
60.23049199999999
 20
215.17952
 30
0.0
 11
58.23049199999999
 21
216.67252
 31
0.0
  0
LINE
  5
B4E3
330
B3B2
100
AcDbEntity
  8
1
  6
Continuous
100
AcDbLine
 10
58.816278
 20
215.17952
 30
0.0
 11
56.81627800000001
 21
216.67252
 31
0.0
  0
LINE
  5
B4E4
330
B3B2
100
AcDbEntity
  8
1
  6
Continuous
100
AcDbLine
 10
57.402065
 20
215.17952
 30
0.0
 11
55.402065
 21
216.67252
 31
0.0
  0
LINE
  5
B4E5
330
B3B2
100
AcDbEntity
  8
1
  6
Continuous
100
AcDbLine
 10
53.159424
 20
215.17952
 30
0.0
 11
51.159424
 21
216.67252
 31
0.0
  0
LINE
  5
B4E6
330
B3B2
100
AcDbEntity
  8
1
  6
Continuous
100
AcDbLine
 10
54.573637
 20
215.17952
 30
0.0
 11
52.57363699999999
 21
216.67252
 31
0.0
  0
LINE
  5
B4E7
330
B3B2
100
AcDbEntity
  8
1
  6
Continuous
100
AcDbLine
 10
55.987851
 20
215.17952
 30
0.0
 11
53.987851
 21
216.67252
 31
0.0
  0
ARC
  5
B4E8
330
B3B2
100
AcDbEntity
  8
1
  6
Continuous
100
AcDbCircle
 10
33.237851
 20
211.191224
 30
0.0
 40
4.0
100
AcDbArc
 50
94.384039
 51
180.0
  0
LINE
  5
B4E9
330
B3B2
100
AcDbEntity
  8
1
  6
Continuous
100
AcDbLine
 10
29.23785099999999
 20
211.191224
 30
0.0
 11
29.23785099999999
 21
189.4850059999999
 31
0.0
  0
ARC
  5
B4EA
330
B3B2
100
AcDbEntity
  8
1
  6
Continuous
100
AcDbCircle
 10
34.231967
 20
230.5325199999999
 30
0.0
 40
10.64
100
AcDbArc
 50
234.0659919999999
 51
270.0
  0
LINE
  5
B4EB
330
B3B2
100
AcDbEntity
  8
1
  6
Continuous
100
AcDbLine
 10
32.18886099999998
 20
215.17952
 30
0.0
 11
34.18886099999999
 21
216.67252
 31
0.0
  0
LINE
  5
B4EC
330
B3B2
100
AcDbEntity
  8
1
  6
Continuous
100
AcDbLine
 10
34.77464799999999
 20
215.17952
 30
0.0
 11
32.774648
 21
216.67252
 31
0.0
  0
LINE
  5
B4ED
330
B3B2
100
AcDbEntity
  8
1
  6
Continuous
100
AcDbLine
 10
35.017288
 20
215.17952
 30
0.0
 11
37.017288
 21
216.67252
 31
0.0
  0
LINE
  5
B4EE
330
B3B2
100
AcDbEntity
  8
1
  6
Continuous
100
AcDbLine
 10
37.84571500000001
 20
215.17952
 30
0.0
 11
39.84571499999999
 21
216.67252
 31
0.0
  0
LINE
  5
B4EF
330
B3B2
100
AcDbEntity
  8
1
  6
Continuous
100
AcDbLine
 10
40.674143
 20
215.17952
 30
0.0
 11
42.674143
 21
216.67252
 31
0.0
  0
LINE
  5
B4F0
330
B3B2
100
AcDbEntity
  8
1
  6
Continuous
100
AcDbLine
 10
43.50257
 20
215.17952
 30
0.0
 11
45.50257
 21
216.67252
 31
0.0
  0
LINE
  5
B4F1
330
B3B2
100
AcDbEntity
  8
1
  6
Continuous
100
AcDbLine
 10
46.33099699999998
 20
215.17952
 30
0.0
 11
48.33099699999999
 21
216.67252
 31
0.0
  0
LINE
  5
B4F2
330
B3B2
100
AcDbEntity
  8
1
  6
Continuous
100
AcDbLine
 10
36.18886099999999
 20
215.17952
 30
0.0
 11
34.18886099999999
 21
216.67252
 31
0.0
  0
LINE
  5
B4F3
330
B3B2
100
AcDbEntity
  8
1
  6
Continuous
100
AcDbLine
 10
37.60307499999999
 20
215.17952
 30
0.0
 11
35.60307499999999
 21
216.67252
 31
0.0
  0
LINE
  5
B4F4
330
B3B2
100
AcDbEntity
  8
1
  6
Continuous
100
AcDbLine
 10
39.017288
 20
215.17952
 30
0.0
 11
37.017288
 21
216.67252
 31
0.0
  0
LINE
  5
B4F5
330
B3B2
100
AcDbEntity
  8
1
  6
Continuous
100
AcDbLine
 10
40.431502
 20
215.17952
 30
0.0
 11
38.431502
 21
216.67252
 31
0.0
  0
LINE
  5
B4F6
330
B3B2
100
AcDbEntity
  8
1
  6
Continuous
100
AcDbLine
 10
41.84571499999999
 20
215.17952
 30
0.0
 11
39.84571499999999
 21
216.67252
 31
0.0
  0
LINE
  5
B4F7
330
B3B2
100
AcDbEntity
  8
1
  6
Continuous
100
AcDbLine
 10
43.259929
 20
215.17952
 30
0.0
 11
41.25992899999999
 21
216.67252
 31
0.0
  0
LINE
  5
B4F8
330
B3B2
100
AcDbEntity
  8
1
  6
Continuous
100
AcDbLine
 10
44.674143
 20
215.17952
 30
0.0
 11
42.674143
 21
216.67252
 31
0.0
  0
LINE
  5
B4F9
330
B3B2
100
AcDbEntity
  8
1
  6
Continuous
100
AcDbLine
 10
46.08835599999999
 20
215.17952
 30
0.0
 11
44.08835599999998
 21
216.67252
 31
0.0
  0
LINE
  5
B4FA
330
B3B2
100
AcDbEntity
  8
1
  6
Continuous
100
AcDbLine
 10
47.50257
 20
215.17952
 30
0.0
 11
45.50257
 21
216.67252
 31
0.0
  0
LINE
  5
B4FB
330
B3B2
100
AcDbEntity
  8
1
  6
Continuous
100
AcDbLine
 10
48.916783
 20
215.17952
 30
0.0
 11
46.916783
 21
216.67252
 31
0.0
  0
LINE
  5
B4FC
330
B3B2
100
AcDbEntity
  8
4
  6
CENTER
100
AcDbLine
 10
35.987851
 20
229.217665
 30
0.0
 11
35.987851
 21
216.9173819999998
 31
0.0
  0
LINE
  5
B4FD
330
B3B2
100
AcDbEntity
  8
1
  6
Continuous
100
AcDbLine
 10
26.987851
 20
224.2176649999999
 30
0.0
 11
26.987851
 21
221.9173819999999
 31
0.0
  0
LINE
  5
B4FE
330
B3B2
100
AcDbEntity
  8
1
  6
Continuous
100
AcDbLine
 10
30.98785100000001
 20
216.299937
 30
0.0
 11
31.360434
 21
216.67252
 31
0.0
  0
ARC
  5
B4FF
330
B3B2
100
AcDbEntity
  8
1
  6
Continuous
100
AcDbCircle
 10
36.801349
 20
214.6038089999999
 30
0.0
 40
6.206
100
AcDbArc
 50
121.2013169999998
 51
140.935699
  0
ARC
  5
B500
330
B3B2
100
AcDbEntity
  8
1
  6
Continuous
100
AcDbCircle
 10
34.599249
 20
219.7050089999999
 30
0.0
 40
4.697225
100
AcDbArc
 50
206.286695
 51
220.210037
  0
LINE
  5
B501
330
B3B2
100
AcDbEntity
  8
1
  6
Continuous
100
AcDbLine
 10
31.81276699999999
 20
218.154782
 30
0.0
 11
31.982767
 21
218.514782
 31
0.0
  0
LINE
  5
B502
330
B3B2
100
AcDbEntity
  8
1
  6
Continuous
100
AcDbLine
 10
30.997767
 20
218.154782
 30
0.0
 11
31.81276699999999
 21
218.154782
 31
0.0
  0
ARC
  5
B503
330
B3B2
100
AcDbEntity
  8
1
  6
Continuous
100
AcDbCircle
 10
31.261737
 20
217.234929
 30
0.0
 40
0.9569799999999998
100
AcDbArc
 50
106.011913
 51
155.9597349999999
  0
LINE
  5
B504
330
B3B2
100
AcDbEntity
  8
1
  6
Continuous
100
AcDbLine
 10
31.94622
 20
215.17952
 30
0.0
 11
30.98785100000001
 21
216.1378899999998
 31
0.0
  0
LINE
  5
B505
330
B3B2
100
AcDbEntity
  8
1
  6
Continuous
100
AcDbLine
 10
33.36043399999999
 20
215.17952
 30
0.0
 11
31.360434
 21
216.67252
 31
0.0
  0
LINE
  5
B506
330
B3B2
100
AcDbEntity
  8
1
  6
Continuous
100
AcDbLine
 10
30.98785100000001
 20
216.67252
 30
0.0
 11
30.98785100000001
 21
215.17952
 31
0.0
  0
LINE
  5
B507
330
B3B2
100
AcDbEntity
  8
1
  6
Continuous
100
AcDbLine
 10
39.087182
 20
210.5764409999999
 30
0.0
 11
68.88851999999999
 21
210.5764409999999
 31
0.0
  0
LINE
  5
B508
330
B3B2
100
AcDbEntity
  8
1
  6
Continuous
100
AcDbLine
 10
38.98785099999999
 20
212.80205
 30
0.0
 11
68.98785100000001
 21
212.80205
 31
0.0
  0
ARC
  5
B509
330
B3B2
100
AcDbEntity
  8
1
  6
Continuous
100
AcDbCircle
 10
67.63674399999999
 20
208.509672
 30
0.0
 40
4.5
100
AcDbArc
 50
359.391148
 51
72.527617
  0
ARC
  5
B50A
330
B3B2
100
AcDbEntity
  8
1
  6
Continuous
100
AcDbCircle
 10
67.337851
 20
208.615465
 30
0.0
 40
2.5
100
AcDbArc
 50
0.0
 51
51.66432999999999
  0
LINE
  5
B50B
330
B3B2
100
AcDbEntity
  8
1
  6
Continuous
100
AcDbLine
 10
69.83771
 20
208.5888989999999
 30
0.0
 11
69.620563
 21
188.1790349999999
 31
0.0
  0
LINE
  5
B50C
330
B3B2
100
AcDbEntity
  8
1
  6
Continuous
100
AcDbLine
 10
72.13649000000002
 20
208.461854
 30
0.0
 11
71.92728800000002
 21
188.798782
 31
0.0
  0
LINE
  5
B50D
330
B3B2
100
AcDbEntity
  8
1
  6
Continuous
100
AcDbLine
 10
69.375078
 20
165.1057189999999
 30
0.0
 11
70.16972599999999
 21
165.1057189999999
 31
0.0
  0
LINE
  5
B50E
330
B3B2
100
AcDbEntity
  8
1
  6
Continuous
100
AcDbLine
 10
35.83921199999998
 20
208.461854
 30
0.0
 11
36.300494
 21
165.1057189999999
 31
0.0
  0
LINE
  5
B50F
330
B3B2
100
AcDbEntity
  8
1
  6
Continuous
100
AcDbLine
 10
38.60062399999998
 20
165.1057189999999
 30
0.0
 11
36.300494
 21
165.1057189999999
 31
0.0
  0
LINE
  5
B510
330
B3B2
100
AcDbEntity
  8
1
  6
Continuous
100
AcDbLine
 10
38.137992
 20
208.5888989999999
 30
0.0
 11
38.60062399999998
 21
165.1057189999999
 31
0.0
  0
ARC
  5
B511
330
B3B2
100
AcDbEntity
  8
1
  6
Continuous
100
AcDbCircle
 10
40.33895799999998
 20
208.509672
 30
0.0
 40
4.5
100
AcDbArc
 50
107.4723829999999
 51
180.608852
  0
ARC
  5
B512
330
B3B2
100
AcDbEntity
  8
1
  6
Continuous
100
AcDbCircle
 10
40.63785099999999
 20
208.615465
 30
0.0
 40
2.5
100
AcDbArc
 50
128.3356699999999
 51
180.608852
  0
ARC
  5
B513
330
B3B2
100
AcDbEntity
  8
1
  6
Continuous
100
AcDbCircle
 10
57.396101
 20
189.4850059999999
 30
0.0
 40
28.15825
100
AcDbArc
 50
180.0
 51
206.726255
  0
ARC
  5
B514
330
B3B2
100
AcDbEntity
  8
1
  6
Continuous
100
AcDbCircle
 10
50.57960099999998
 20
189.4850059999999
 30
0.0
 40
28.15825
100
AcDbArc
 50
358.603548
 51
0.0
  0
ARC
  5
B515
330
B3B2
100
AcDbEntity
  8
1
  6
Continuous
100
AcDbCircle
 10
42.68796199999999
 20
175.717782
 30
0.0
 40
10.5
100
AcDbArc
 50
146.796177
 51
213.203823
  0
LINE
  5
B516
330
B3B2
100
AcDbEntity
  8
1
  6
Continuous
100
AcDbLine
 10
33.90232000000001
 20
181.4677819999998
 30
0.0
 11
36.12661699999998
 21
181.4677819999998
 31
0.0
  0
LINE
  5
B517
330
B3B2
100
AcDbEntity
  8
1
  6
Continuous
100
AcDbLine
 10
36.248826
 20
169.9677819999998
 30
0.0
 11
33.90232000000001
 21
169.9677819999998
 31
0.0
  0
LINE
  5
B518
330
B3B2
100
AcDbEntity
  8
1
  6
Continuous
100
AcDbLine
 10
33.90232000000001
 20
181.4677819999998
 30
0.0
 11
33.90232000000001
 21
169.9677819999998
 31
0.0
  0
LINE
  5
B519
330
B3B2
100
AcDbEntity
  8
1
  6
Continuous
100
AcDbLine
 10
280.1438769999999
 20
208.46721
 30
0.0
 11
280.6052139999998
 21
165.1057189999999
 31
0.0
  0
LINE
  5
B51A
330
B3B2
100
AcDbEntity
  8
1
  6
Continuous
100
AcDbLine
 10
311.8410059999998
 20
208.46721
 30
0.0
 11
311.379668
 21
165.1057189999999
 31
0.0
  0
LINE
  5
B51B
330
B3B2
100
AcDbEntity
  8
1
  6
Continuous
100
AcDbLine
 10
311.3961929999998
 20
165.1057189999999
 30
0.0
 11
313.679798
 21
165.1057189999999
 31
0.0
  0
CIRCLE
  5
B51C
330
B3B2
100
AcDbEntity
  8
1
  6
Continuous
100
AcDbCircle
 10
212.490146
 20
86.81031800000004
 30
0.0
 40
3.25
  0
LINE
  5
B51D
330
B3B2
100
AcDbEntity
  8
4
  6
CENTER
100
AcDbLine
 10
212.490146
 20
93.06031800000004
 30
0.0
 11
212.490146
 21
80.56031800000003
 31
0.0
  0
LINE
  5
B51E
330
B3B2
100
AcDbEntity
  8
4
  6
CENTER
100
AcDbLine
 10
158.490146
 20
93.06031800000004
 30
0.0
 11
158.490146
 21
80.56031800000003
 31
0.0
  0
LINE
  5
B51F
330
B3B2
100
AcDbEntity
  8
4
  6
CENTER
100
AcDbLine
 10
185.490146
 20
100.810318
 30
0.0
 11
185.490146
 21
36.810318
 31
0.0
  0
LINE
  5
B520
330
B3B2
100
AcDbEntity
  8
1
  6
Continuous
100
AcDbLine
 10
150.490146
 20
86.26031999999998
 30
0.0
 11
150.490146
 21
84.613732
 31
0.0
  0
LINE
  5
B521
330
B3B2
100
AcDbEntity
  8
1
  6
Continuous
100
AcDbLine
 10
220.490146
 20
88.81031799999998
 30
0.0
 11
220.490146
 21
48.810318
 31
0.0
  0
LINE
  5
B522
330
B3B2
100
AcDbEntity
  8
1
  6
Continuous
100
AcDbLine
 10
213.490146
 20
95.81031800000003
 30
0.0
 11
213.316133
 21
95.81031800000003
 31
0.0
  0
ARC
  5
B523
330
B3B2
100
AcDbEntity
  8
1
  6
Continuous
100
AcDbCircle
 10
213.490146
 20
88.81031799999998
 30
0.0
 40
7.0
100
AcDbArc
 50
0.0
 51
90.0
  0
LINE
  5
B524
330
B3B2
100
AcDbEntity
  8
4
  6
CENTER
100
AcDbLine
 10
225.490146
 20
68.81031800000001
 30
0.0
 11
123.990146
 21
68.81031800000001
 31
0.0
  0
LINE
  5
B525
330
B3B2
100
AcDbEntity
  8
1
  6
Continuous
100
AcDbLine
 10
213.490146
 20
41.810318
 30
0.0
 11
157.490146
 21
41.810318
 31
0.0
  0
ARC
  5
B526
330
B3B2
100
AcDbEntity
  8
1
  6
Continuous
100
AcDbCircle
 10
157.490146
 20
48.810318
 30
0.0
 40
7.0
100
AcDbArc
 50
180.0
 51
270.0
  0
LINE
  5
B527
330
B3B2
100
AcDbEntity
  8
4
  6
CENTER
100
AcDbLine
 10
164.740146
 20
50.810318
 30
0.0
 11
152.240146
 21
50.810318
 31
0.0
  0
LINE
  5
B528
330
B3B2
100
AcDbEntity
  8
4
  6
CENTER
100
AcDbLine
 10
164.740146
 20
86.81031800000004
 30
0.0
 11
152.240146
 21
86.81031800000004
 31
0.0
  0
LINE
  5
B529
330
B3B2
100
AcDbEntity
  8
4
  6
CENTER
100
AcDbLine
 10
158.490146
 20
57.060318
 30
0.0
 11
158.490146
 21
44.560318
 31
0.0
  0
ARC
  5
B52A
330
B3B2
100
AcDbEntity
  8
1
  6
Continuous
100
AcDbCircle
 10
213.490146
 20
48.810318
 30
0.0
 40
7.0
100
AcDbArc
 50
270.0
 51
0.0
  0
LINE
  5
B52B
330
B3B2
100
AcDbEntity
  8
4
  6
CENTER
100
AcDbLine
 10
218.740146
 20
86.81031800000004
 30
0.0
 11
206.240146
 21
86.81031800000004
 31
0.0
  0
LINE
  5
B52C
330
B3B2
100
AcDbEntity
  8
4
  6
CENTER
100
AcDbLine
 10
218.740146
 20
50.810318
 30
0.0
 11
206.240146
 21
50.810318
 31
0.0
  0
CIRCLE
  5
B52D
330
B3B2
100
AcDbEntity
  8
1
  6
Continuous
100
AcDbCircle
 10
212.490146
 20
50.810318
 30
0.0
 40
3.25
  0
LINE
  5
B52E
330
B3B2
100
AcDbEntity
  8
4
  6
CENTER
100
AcDbLine
 10
212.490146
 20
57.060318
 30
0.0
 11
212.490146
 21
44.560318
 31
0.0
  0
LINE
  5
B52F
330
B3B2
100
AcDbEntity
  8
1
  6
Continuous
100
AcDbLine
 10
156.490146
 20
84.13940399999999
 30
0.0
 11
156.490146
 21
83.81031799999998
 31
0.0
  0
LINE
  5
B530
330
B3B2
100
AcDbEntity
  8
1
  6
Continuous
100
AcDbLine
 10
164.4901459999998
 20
84.353008
 30
0.0
 11
164.4901459999998
 21
83.81031799999998
 31
0.0
  0
LINE
  5
B531
330
B3B2
100
AcDbEntity
  8
1
  6
Continuous
100
AcDbLine
 10
156.490146
 20
53.810318
 30
0.0
 11
156.490146
 21
53.35274399999999
 31
0.0
  0
LINE
  5
B532
330
B3B2
100
AcDbEntity
  8
1
  6
Continuous
100
AcDbLine
 10
164.4901459999998
 20
53.810318
 30
0.0
 11
164.4901459999998
 21
53.35274399999999
 31
0.0
  0
ARC
  5
B533
330
B3B2
100
AcDbEntity
  8
1
  6
Continuous
100
AcDbCircle
 10
160.490146
 20
57.510429
 30
0.0
 40
10.5
100
AcDbArc
 50
236.7961769999999
 51
303.2038229999999
  0
LINE
  5
B534
330
B3B2
100
AcDbEntity
  8
1
  6
Continuous
100
AcDbLine
 10
154.740146
 20
48.724787
 30
0.0
 11
154.740146
 21
50.949084
 31
0.0
  0
LINE
  5
B535
330
B3B2
100
AcDbEntity
  8
1
  6
Continuous
100
AcDbLine
 10
166.240146
 20
50.91174099999999
 30
0.0
 11
166.240146
 21
48.724787
 31
0.0
  0
LINE
  5
B536
330
B3B2
100
AcDbEntity
  8
1
  6
Continuous
100
AcDbLine
 10
154.740146
 20
48.724787
 30
0.0
 11
166.240146
 21
48.724787
 31
0.0
  0
LINE
  5
B537
330
B3B2
100
AcDbEntity
  8
1
  6
Continuous
100
AcDbLine
 10
165.470648
 20
50.95706599999999
 30
0.0
 11
150.5974219999998
 21
51.115308
 31
0.0
  0
LINE
  5
B538
330
B3B2
100
AcDbEntity
  8
1
  6
Continuous
100
AcDbLine
 10
165.427809
 20
53.257653
 30
0.0
 11
150.5974219999998
 21
53.415438
 31
0.0
  0
LINE
  5
B539
330
B3B2
100
AcDbEntity
  8
4
  6
CENTER
100
AcDbLine
 10
160.490146
 20
102.943118
 30
0.0
 11
160.490146
 21
36.810318
 31
0.0
  0
LINE
  5
B53A
330
B3B2
100
AcDbEntity
  8
1
  6
Continuous
100
AcDbLine
 10
150.5974219999998
 20
53.415438
 30
0.0
 11
150.5974219999998
 21
51.115308
 31
0.0
  0
LINE
  5
B53B
330
B3B2
100
AcDbEntity
  8
1
  6
Continuous
100
AcDbLine
 10
150.490146
 20
56.310318
 30
0.0
 11
150.490146
 21
48.810318
 31
0.0
  0
ARC
  5
B53C
330
B3B2
100
AcDbEntity
  8
1
  6
Continuous
100
AcDbCircle
 10
185.490146
 20
68.81031800000001
 30
0.0
 40
24.75
100
AcDbArc
 50
232.1293309999998
 51
80.403602
  0
ARC
  5
B53D
330
B3B2
100
AcDbEntity
  8
1
  6
Continuous
100
AcDbCircle
 10
185.490146
 20
68.81031800000001
 30
0.0
 40
22.45
100
AcDbArc
 50
232.2467339999999
 51
79.96109100000002
  0
ARC
  5
B53E
330
B3B2
100
AcDbEntity
  8
1
  6
Continuous
100
AcDbCircle
 10
165.3161019999998
 20
42.758247
 30
0.0
 40
10.5
100
AcDbArc
 50
52.246734
 51
89.390434
  0
ARC
  5
B53F
330
B3B2
100
AcDbEntity
  8
1
  6
Continuous
100
AcDbCircle
 10
165.3855379999999
 20
42.95751899999999
 30
0.0
 40
8.0
100
AcDbArc
 50
52.129331
 51
89.39043199999996
  0
ARC
  5
B540
330
B3B2
100
AcDbEntity
  8
1
  6
Continuous
100
AcDbCircle
 10
185.490146
 20
68.81031800000001
 30
0.0
 40
20.44999999999999
100
AcDbArc
 50
217.67972
 51
142.32028
  0
ARC
  5
B541
330
B3B2
100
AcDbEntity
  8
1
  6
Continuous
100
AcDbCircle
 10
185.490146
 20
68.81031800000001
 30
0.0
 40
18.44999999999998
100
AcDbArc
 50
222.64912
 51
137.3508799999999
  0
ARC
  5
B542
330
B3B2
100
AcDbEntity
  8
1
  6
Continuous
100
AcDbCircle
 10
185.490146
 20
68.81031800000001
 30
0.0
 40
9.449999999999999
100
AcDbArc
 50
311.391798
 51
48.608202
  0
ARC
  5
B543
330
B3B2
100
AcDbEntity
  8
1
  6
Continuous
100
AcDbCircle
 10
185.490146
 20
68.81031800000001
 30
0.0
 40
26.0
100
AcDbArc
 50
223.690664
 51
80.35126600000003
  0
LINE
  5
B544
330
B3B2
100
AcDbEntity
  8
1
  6
Continuous
100
AcDbLine
 10
313.7121409999999
 20
168.1456459999999
 30
0.0
 11
313.679798
 21
165.1057189999999
 31
0.0
  0
ARC
  5
B545
330
B3B2
100
AcDbEntity
  8
1
  6
Continuous
100
AcDbCircle
 10
321.7116889999999
 20
168.060536
 30
0.0
 40
8.0
100
AcDbArc
 50
143.6639909999998
 51
179.390432
  0
ARC
  5
B546
330
B3B2
100
AcDbEntity
  8
1
  6
Continuous
100
AcDbCircle
 10
319.419848
 20
168.839702
 30
0.0
 40
8.0
100
AcDbArc
 50
142.4280659999998
 51
179.390434
  0
ARC
  5
B547
330
B3B2
100
AcDbEntity
  8
1
  6
Continuous
100
AcDbCircle
 10
299.4006909999999
 20
189.4850059999999
 30
0.0
 40
28.15825
100
AcDbArc
 50
180.0
 51
203.6943289999999
  0
ARC
  5
B548
330
B3B2
100
AcDbEntity
  8
1
  6
Continuous
100
AcDbCircle
 10
299.4006909999999
 20
189.4850059999999
 30
0.0
 40
25.85825
100
AcDbArc
 50
180.0
 51
217.571934
  0
ARC
  5
B549
330
B3B2
100
AcDbEntity
  8
1
  6
Continuous
100
AcDbCircle
 10
270.273194
 20
168.060536
 30
0.0
 40
8.0
100
AcDbArc
 50
0.609568
 51
36.33600899999999
  0
ARC
  5
B54A
330
B3B2
100
AcDbEntity
  8
1
  6
Continuous
100
AcDbCircle
 10
272.565035
 20
168.839702
 30
0.0
 40
8.0
100
AcDbArc
 50
0.6095660000000001
 51
37.57193400000001
  0
LINE
  5
B54B
330
B3B2
100
AcDbEntity
  8
1
  6
Continuous
100
AcDbLine
 10
278.272742
 20
168.1456459999999
 30
0.0
 11
278.3050839999999
 21
165.1057189999999
 31
0.0
  0
LINE
  5
B54C
330
B3B2
100
AcDbEntity
  8
1
  6
Continuous
100
AcDbLine
 10
313.9423639999999
 20
169.9677819999998
 30
0.0
 11
316.0779409999999
 21
169.9677819999998
 31
0.0
  0
LINE
  5
B54D
330
B3B2
100
AcDbEntity
  8
1
  6
Continuous
100
AcDbLine
 10
316.0779409999999
 20
173.9630619999998
 30
0.0
 11
316.0779409999999
 21
169.9677819999998
 31
0.0
  0
ARC
  5
B54E
330
B3B2
100
AcDbEntity
  8
1
  6
Continuous
100
AcDbCircle
 10
307.292299
 20
175.717782
 30
0.0
 40
10.5
100
AcDbArc
 50
326.7961769999998
 51
6.033259999999998
  0
ARC
  5
B54F
330
B3B2
100
AcDbEntity
  8
1
  6
Continuous
100
AcDbCircle
 10
160.490146
 20
175.717882
 30
0.0
 40
31.5
100
AcDbArc
 50
96.61782700000001
 51
155.4636939999998
  0
LINE
  5
B550
330
B3B2
100
AcDbEntity
  8
1
  6
Continuous
100
AcDbLine
 10
150.490146
 20
286.4206459999999
 30
0.0
 11
131.5542699999998
 21
286.4206459999999
 31
0.0
  0
LINE
  5
B551
330
B3B2
100
AcDbEntity
  8
1
  6
Continuous
100
AcDbLine
 10
150.490146
 20
311.4206459999999
 30
0.0
 11
131.5542699999998
 21
311.4206459999999
 31
0.0
  0
ARC
  5
B552
330
B3B2
100
AcDbEntity
  8
1
  6
Continuous
100
AcDbCircle
 10
228.990146
 20
298.9206459999999
 30
0.0
 40
100.0
100
AcDbArc
 50
173.8493599999999
 51
186.15064
  0
ARC
  5
B553
330
B3B2
100
AcDbEntity
  8
1
  6
Continuous
100
AcDbCircle
 10
131.5542699999998
 20
288.4206459999999
 30
0.0
 40
2.0
100
AcDbArc
 50
186.15064
 51
270.0
  0
ARC
  5
B554
330
B3B2
100
AcDbEntity
  8
1
  6
Continuous
100
AcDbCircle
 10
131.5542699999998
 20
309.4206459999999
 30
0.0
 40
2.0
100
AcDbArc
 50
90.0
 51
173.8493599999999
  0
ARC
  5
B555
330
B3B2
100
AcDbEntity
  8
1
  6
Continuous
100
AcDbCircle
 10
160.490146
 20
175.717882
 30
0.0
 40
24.5
100
AcDbArc
 50
102.196284
 51
147.729419
  0
LINE
  5
B556
330
B3B2
100
AcDbEntity
  8
1
  6
Continuous
100
AcDbLine
 10
66.48785100000001
 20
146.7819049999999
 30
0.0
 11
66.48785100000001
 21
204.653658
 31
0.0
  0
LINE
  5
B557
330
B3B2
100
AcDbEntity
  8
1
  6
Continuous
100
AcDbLine
 10
41.487851
 20
146.7819049999999
 30
0.0
 11
41.487851
 21
204.653658
 31
0.0
  0
ARC
  5
B558
330
B3B2
100
AcDbEntity
  8
1
  6
Continuous
100
AcDbCircle
 10
53.987851
 20
244.2177819999999
 30
0.0
 40
100.0
100
AcDbArc
 50
263.8493599999998
 51
276.15064
  0
ARC
  5
B559
330
B3B2
100
AcDbEntity
  8
1
  6
Continuous
100
AcDbCircle
 10
43.48785099999999
 20
146.7819049999999
 30
0.0
 40
2.0
100
AcDbArc
 50
180.0
 51
263.8493599999998
  0
ARC
  5
B55A
330
B3B2
100
AcDbEntity
  8
1
  6
Continuous
100
AcDbCircle
 10
64.48785100000001
 20
146.7819049999999
 30
0.0
 40
2.0
100
AcDbArc
 50
276.15064
 51
0.0
  0
LINE
  5
B55B
330
B3B2
100
AcDbEntity
  8
1
  6
Continuous
100
AcDbLine
 10
39.900695
 20
183.797645
 30
0.0
 11
41.487851
 21
183.9365029999999
 31
0.0
  0
LINE
  5
B55C
330
B3B2
100
AcDbEntity
  8
1
  6
Continuous
100
AcDbLine
 10
39.900695
 20
167.6379179999998
 30
0.0
 11
41.487851
 21
167.4990599999999
 31
0.0
  0
ARC
  5
B55D
330
B3B2
100
AcDbEntity
  8
1
  6
Continuous
100
AcDbCircle
 10
39.987851
 20
182.8014509999999
 30
0.0
 40
1.0
100
AcDbArc
 50
95.0
 51
180.0
  0
ARC
  5
B55E
330
B3B2
100
AcDbEntity
  8
1
  6
Continuous
100
AcDbCircle
 10
39.987851
 20
168.6341129999999
 30
0.0
 40
1.0
100
AcDbArc
 50
180.0
 51
265.0
  0
LINE
  5
B55F
330
B3B2
100
AcDbEntity
  8
1
  6
Continuous
100
AcDbLine
 10
38.98785099999999
 20
168.6341129999999
 30
0.0
 11
38.98785099999999
 21
182.8014509999999
 31
0.0
  0
LINE
  5
B560
330
B3B2
100
AcDbEntity
  8
1
  6
Continuous
100
AcDbLine
 10
67.75923
 20
183.8252719999999
 30
0.0
 11
66.48785100000001
 21
183.9365029999999
 31
0.0
  0
ARC
  5
B561
330
B3B2
100
AcDbEntity
  8
1
  6
Continuous
100
AcDbCircle
 10
67.987851
 20
168.6341129999999
 30
0.0
 40
1.0
100
AcDbArc
 50
275.0
 51
331.9884529999999
  0
LINE
  5
B562
330
B3B2
100
AcDbEntity
  8
1
  6
Continuous
100
AcDbLine
 10
68.075007
 20
167.6379179999998
 30
0.0
 11
66.48785100000001
 21
167.4990599999999
 31
0.0
  0
ARC
  5
B563
330
B3B2
100
AcDbEntity
  8
1
  6
Continuous
100
AcDbCircle
 10
53.987851
 20
107.217782
 30
0.0
 40
100.0
100
AcDbArc
 50
83.84936000000001
 51
96.15064
  0
ARC
  5
B564
330
B3B2
100
AcDbEntity
  8
1
  6
Continuous
100
AcDbCircle
 10
43.48785099999999
 20
204.653658
 30
0.0
 40
2.0
100
AcDbArc
 50
96.15064
 51
180.0
  0
ARC
  5
B565
330
B3B2
100
AcDbEntity
  8
1
  6
Continuous
100
AcDbCircle
 10
64.48785100000001
 20
204.653658
 30
0.0
 40
2.0
100
AcDbArc
 50
0.0
 51
83.84936000000001
  0
LINE
  5
B566
330
B3B2
100
AcDbEntity
  8
1
  6
Continuous
100
AcDbLine
 10
310.992441
 20
168.6341129999999
 30
0.0
 11
310.992441
 21
182.8014509999999
 31
0.0
  0
LINE
  5
B567
330
B3B2
100
AcDbEntity
  8
1
  6
Continuous
100
AcDbLine
 10
280.9924409999999
 20
168.6341129999999
 30
0.0
 11
280.9924409999999
 21
182.8014509999999
 31
0.0
  0
LINE
  5
B568
330
B3B2
100
AcDbEntity
  8
1
  6
Continuous
100
AcDbLine
 10
283.4924409999999
 20
146.7819049999999
 30
0.0
 11
283.4924409999999
 21
204.653658
 31
0.0
  0
LINE
  5
B569
330
B3B2
100
AcDbEntity
  8
1
  6
Continuous
100
AcDbLine
 10
308.4924409999999
 20
146.7819049999999
 30
0.0
 11
308.4924409999999
 21
204.653658
 31
0.0
  0
ARC
  5
B56A
330
B3B2
100
AcDbEntity
  8
1
  6
Continuous
100
AcDbCircle
 10
285.4924409999999
 20
146.7819049999999
 30
0.0
 40
2.0
100
AcDbArc
 50
180.0
 51
263.8493599999998
  0
ARC
  5
B56B
330
B3B2
100
AcDbEntity
  8
1
  6
Continuous
100
AcDbCircle
 10
281.992441
 20
168.6341129999999
 30
0.0
 40
1.0
100
AcDbArc
 50
180.0
 51
265.0
  0
LINE
  5
B56C
330
B3B2
100
AcDbEntity
  8
1
  6
Continuous
100
AcDbLine
 10
281.9052849999998
 20
167.6379179999998
 30
0.0
 11
283.4924409999999
 21
167.4990599999999
 31
0.0
  0
ARC
  5
B56D
330
B3B2
100
AcDbEntity
  8
1
  6
Continuous
100
AcDbCircle
 10
295.9924409999999
 20
244.2177819999999
 30
0.0
 40
100.0
100
AcDbArc
 50
263.8493599999998
 51
276.15064
  0
ARC
  5
B56E
330
B3B2
100
AcDbEntity
  8
1
  6
Continuous
100
AcDbCircle
 10
306.4924409999999
 20
146.7819049999999
 30
0.0
 40
2.0
100
AcDbArc
 50
276.15064
 51
0.0
  0
LINE
  5
B56F
330
B3B2
100
AcDbEntity
  8
1
  6
Continuous
100
AcDbLine
 10
310.079597
 20
167.6379179999998
 30
0.0
 11
308.4924409999999
 21
167.4990599999999
 31
0.0
  0
ARC
  5
B570
330
B3B2
100
AcDbEntity
  8
1
  6
Continuous
100
AcDbCircle
 10
309.9924409999999
 20
168.6341129999999
 30
0.0
 40
1.0
100
AcDbArc
 50
275.0
 51
0.0
  0
ARC
  5
B571
330
B3B2
100
AcDbEntity
  8
1
  6
Continuous
100
AcDbCircle
 10
285.4924409999999
 20
204.653658
 30
0.0
 40
2.0
100
AcDbArc
 50
150.474945
 51
180.0
  0
ARC
  5
B572
330
B3B2
100
AcDbEntity
  8
1
  6
Continuous
100
AcDbCircle
 10
281.992441
 20
182.8014509999999
 30
0.0
 40
1.0
100
AcDbArc
 50
95.0
 51
180.0
  0
LINE
  5
B573
330
B3B2
100
AcDbEntity
  8
1
  6
Continuous
100
AcDbLine
 10
281.9052849999998
 20
183.797645
 30
0.0
 11
283.4924409999999
 21
183.9365029999999
 31
0.0
  0
LINE
  5
B574
330
B3B2
100
AcDbEntity
  8
1
  6
Continuous
100
AcDbLine
 10
310.079597
 20
183.797645
 30
0.0
 11
308.4924409999999
 21
183.9365029999999
 31
0.0
  0
ARC
  5
B575
330
B3B2
100
AcDbEntity
  8
1
  6
Continuous
100
AcDbCircle
 10
309.9924409999999
 20
182.8014509999999
 30
0.0
 40
1.0
100
AcDbArc
 50
0.0
 51
85.0
  0
ARC
  5
B576
330
B3B2
100
AcDbEntity
  8
1
  6
Continuous
100
AcDbCircle
 10
306.4924409999999
 20
204.653658
 30
0.0
 40
2.0
100
AcDbArc
 50
0.0
 51
29.525055
  0
ARC
  5
B577
330
B3B2
100
AcDbEntity
  8
1
  6
Continuous
100
AcDbCircle
 10
131.5542699999998
 20
58.310318
 30
0.0
 40
2.0
100
AcDbArc
 50
186.15064
 51
270.0
  0
ARC
  5
B578
330
B3B2
100
AcDbEntity
  8
1
  6
Continuous
100
AcDbCircle
 10
189.426023
 20
58.310318
 30
0.0
 40
2.0
100
AcDbArc
 50
270.0
 51
353.8493599999998
  0
LINE
  5
B579
330
B3B2
100
AcDbEntity
  8
1
  6
Continuous
100
AcDbLine
 10
189.426023
 20
56.310318
 30
0.0
 11
131.5542699999998
 21
56.310318
 31
0.0
  0
LINE
  5
B57A
330
B3B2
100
AcDbEntity
  8
1
  6
Continuous
100
AcDbLine
 10
167.5738149999999
 20
53.810318
 30
0.0
 11
153.406477
 21
53.810318
 31
0.0
  0
LINE
  5
B57B
330
B3B2
100
AcDbEntity
  8
1
  6
Continuous
100
AcDbLine
 10
152.4102829999999
 20
54.723162
 30
0.0
 11
152.2714249999999
 21
56.310318
 31
0.0
  0
ARC
  5
B57C
330
B3B2
100
AcDbEntity
  8
1
  6
Continuous
100
AcDbCircle
 10
153.406477
 20
54.810318
 30
0.0
 40
1.0
100
AcDbArc
 50
185.0
 51
270.0
  0
LINE
  5
B57D
330
B3B2
100
AcDbEntity
  8
1
  6
Continuous
100
AcDbLine
 10
168.57001
 20
54.723162
 30
0.0
 11
168.708868
 21
56.310318
 31
0.0
  0
ARC
  5
B57E
330
B3B2
100
AcDbEntity
  8
1
  6
Continuous
100
AcDbCircle
 10
167.5738149999999
 20
54.810318
 30
0.0
 40
1.0
100
AcDbArc
 50
270.0
 51
355.0
  0
LINE
  5
B57F
330
B3B2
100
AcDbEntity
  8
1
  6
Continuous
100
AcDbLine
 10
189.426023
 20
81.31031799999998
 30
0.0
 11
131.5542699999998
 21
81.31031799999998
 31
0.0
  0
ARC
  5
B580
330
B3B2
100
AcDbEntity
  8
1
  6
Continuous
100
AcDbCircle
 10
131.5542699999998
 20
79.31031800000003
 30
0.0
 40
2.0
100
AcDbArc
 50
90.0
 51
173.8493599999999
  0
ARC
  5
B581
330
B3B2
100
AcDbEntity
  8
1
  6
Continuous
100
AcDbCircle
 10
228.990146
 20
68.81031800000001
 30
0.0
 40
100.0
100
AcDbArc
 50
173.8493599999999
 51
186.15064
  0
ARC
  5
B582
330
B3B2
100
AcDbEntity
  8
1
  6
Continuous
100
AcDbCircle
 10
167.5738149999999
 20
82.81031799999999
 30
0.0
 40
1.0
100
AcDbArc
 50
5.0
 51
90.0
  0
ARC
  5
B583
330
B3B2
100
AcDbEntity
  8
1
  6
Continuous
100
AcDbCircle
 10
153.406477
 20
82.81031799999999
 30
0.0
 40
1.0
100
AcDbArc
 50
146.826594
 51
175.0
  0
LINE
  5
B584
330
B3B2
100
AcDbEntity
  8
1
  6
Continuous
100
AcDbLine
 10
152.4102829999999
 20
82.89747400000001
 30
0.0
 11
152.2714249999999
 21
81.31031799999998
 31
0.0
  0
LINE
  5
B585
330
B3B2
100
AcDbEntity
  8
1
  6
Continuous
100
AcDbLine
 10
168.57001
 20
82.89747400000001
 30
0.0
 11
168.708868
 21
81.31031799999998
 31
0.0
  0
LINE
  5
B586
330
B3B2
100
AcDbEntity
  8
1
  6
Continuous
100
AcDbLine
 10
167.5738149999999
 20
83.81031799999998
 30
0.0
 11
154.600502
 21
83.81031799999998
 31
0.0
  0
ARC
  5
B587
330
B3B2
100
AcDbEntity
  8
1
  6
Continuous
100
AcDbCircle
 10
189.426023
 20
79.31031800000003
 30
0.0
 40
2.0
100
AcDbArc
 50
6.15064
 51
90.0
  0
ARC
  5
B588
330
B3B2
100
AcDbEntity
  8
1
  6
Continuous
100
AcDbCircle
 10
91.99014599999999
 20
68.81031800000001
 30
0.0
 40
100.0
100
AcDbArc
 50
353.8493599999998
 51
6.15064
  0
LINE
  5
B589
330
B3B2
100
AcDbEntity
  8
1
  6
Continuous
100
AcDbLine
 10
38.866056
 20
209.988604
 30
0.0
 11
39.493571
 21
209.3610889999999
 31
0.0
  0
ARC
  5
B58A
330
B3B2
100
AcDbEntity
  8
1
  6
Continuous
100
AcDbCircle
 10
42.227783
 20
210.0128329999999
 30
0.0
 40
4.217937
100
AcDbArc
 50
212.9024809999999
 51
227.0719179999999
  0
ARC
  5
B58B
330
B3B2
100
AcDbEntity
  8
1
  6
Continuous
100
AcDbCircle
 10
43.003175
 20
210.846435
 30
0.0
 40
5.356411999999998
100
AcDbArc
 50
227.0719179999999
 51
256.4430649999998
  0
ARC
  5
B58C
330
B3B2
100
AcDbEntity
  8
1
  6
Continuous
100
AcDbCircle
 10
37.49265799999999
 20
210.1638349999999
 30
0.0
 40
2.088299
100
AcDbArc
 50
319.8145149999998
 51
335.385289
  0
LINE
  5
B58D
330
B3B2
100
AcDbEntity
  8
1
  6
Continuous
100
AcDbLine
 10
38.709404
 20
209.6954119999999
 30
0.0
 11
39.59043299999999
 21
210.5764409999999
 31
0.0
  0
ARC
  5
B58E
330
B3B2
100
AcDbEntity
  8
1
  6
Continuous
100
AcDbCircle
 10
40.98785099999999
 20
208.6664889999999
 30
0.0
 40
2.5
100
AcDbArc
 50
130.183595
 51
187.18198
  0
LINE
  5
B58F
330
B3B2
100
AcDbEntity
  8
1
  6
Continuous
100
AcDbLine
 10
69.38942
 20
209.3610889999999
 30
0.0
 11
38.586282
 21
209.3610889999999
 31
0.0
  0
LINE
  5
B590
330
B3B2
100
AcDbEntity
  8
1
  6
Continuous
100
AcDbLine
 10
38.507466
 20
208.353936
 30
0.0
 11
69.468237
 21
208.353936
 31
0.0
  0
ARC
  5
B591
330
B3B2
100
AcDbEntity
  8
1
  6
Continuous
100
AcDbCircle
 10
38.82010499999999
 20
209.042632
 30
0.0
 40
0.3507099999999999
100
AcDbArc
 50
305.759494
 51
319.8145149999998
  0
LINE
  5
B592
330
B3B2
100
AcDbEntity
  8
1
  6
Continuous
100
AcDbLine
 10
39.025055
 20
208.7580389999998
 30
0.0
 11
38.806344
 21
208.353936
 31
0.0
  0
LINE
  5
B593
330
B3B2
100
AcDbEntity
  8
1
  6
Continuous
100
AcDbLine
 10
38.730922
 20
208.353936
 30
0.0
 11
38.62296699999999
 21
208.3471679999999
 31
0.0
  0
ARC
  5
B594
330
B3B2
100
AcDbEntity
  8
1
  6
Continuous
100
AcDbCircle
 10
38.78015299999999
 20
208.2492709999999
 30
0.0
 40
0.18518
100
AcDbArc
 50
148.0847599999999
 51
201.017471
  0
ARC
  5
B595
330
B3B2
100
AcDbEntity
  8
1
  6
Continuous
100
AcDbCircle
 10
37.490958
 20
207.7539439999999
 30
0.0
 40
1.195896999999998
100
AcDbArc
 50
358.4503999999999
 51
21.017471
  0
LINE
  5
B596
330
B3B2
100
AcDbEntity
  8
1
  6
Continuous
100
AcDbLine
 10
56.464134
 20
209.3610889999999
 30
0.0
 11
55.24878199999999
 21
210.5764409999999
 31
0.0
  0
LINE
  5
B597
330
B3B2
100
AcDbEntity
  8
1
  6
Continuous
100
AcDbLine
 10
49.393066
 20
209.3610889999999
 30
0.0
 11
48.177715
 21
210.5764409999999
 31
0.0
  0
LINE
  5
B598
330
B3B2
100
AcDbEntity
  8
1
  6
Continuous
100
AcDbLine
 10
50.80728
 20
209.3610889999999
 30
0.0
 11
49.591928
 21
210.5764409999999
 31
0.0
  0
LINE
  5
B599
330
B3B2
100
AcDbEntity
  8
1
  6
Continuous
100
AcDbLine
 10
48.274576
 20
209.3610889999999
 30
0.0
 11
49.489928
 21
210.5764409999999
 31
0.0
  0
LINE
  5
B59A
330
B3B2
100
AcDbEntity
  8
1
  6
Continuous
100
AcDbLine
 10
49.68879000000001
 20
209.3610889999999
 30
0.0
 11
50.904142
 21
210.5764409999999
 31
0.0
  0
LINE
  5
B59B
330
B3B2
100
AcDbEntity
  8
1
  6
Continuous
100
AcDbLine
 10
52.221494
 20
209.3610889999999
 30
0.0
 11
51.00614199999998
 21
210.5764409999999
 31
0.0
  0
LINE
  5
B59C
330
B3B2
100
AcDbEntity
  8
1
  6
Continuous
100
AcDbLine
 10
51.103003
 20
209.3610889999999
 30
0.0
 11
52.31835499999998
 21
210.5764409999999
 31
0.0
  0
LINE
  5
B59D
330
B3B2
100
AcDbEntity
  8
1
  6
Continuous
100
AcDbLine
 10
55.04992099999999
 20
209.3610889999999
 30
0.0
 11
53.83456899999998
 21
210.5764409999999
 31
0.0
  0
LINE
  5
B59E
330
B3B2
100
AcDbEntity
  8
1
  6
Continuous
100
AcDbLine
 10
52.517217
 20
209.3610889999999
 30
0.0
 11
53.73256899999999
 21
210.5764409999999
 31
0.0
  0
LINE
  5
B59F
330
B3B2
100
AcDbEntity
  8
1
  6
Continuous
100
AcDbLine
 10
53.93143000000002
 20
209.3610889999999
 30
0.0
 11
55.14678199999998
 21
210.5764409999999
 31
0.0
  0
LINE
  5
B5A0
330
B3B2
100
AcDbEntity
  8
1
  6
Continuous
100
AcDbLine
 10
53.635707
 20
209.3610889999999
 30
0.0
 11
52.420355
 21
210.5764409999999
 31
0.0
  0
ARC
  5
B5A1
330
B3B2
100
AcDbEntity
  8
1
  6
Continuous
100
AcDbCircle
 10
39.527945
 20
209.231376
 30
0.0
 40
0.150422
100
AcDbArc
 50
120.421811
 51
155.3852889999998
  0
LINE
  5
B5A2
330
B3B2
100
AcDbEntity
  8
1
  6
Continuous
100
AcDbLine
 10
41.20350799999999
 20
209.3610889999999
 30
0.0
 11
42.41886
 21
210.5764409999999
 31
0.0
  0
LINE
  5
B5A3
330
B3B2
100
AcDbEntity
  8
1
  6
Continuous
100
AcDbLine
 10
43.736212
 20
209.3610889999999
 30
0.0
 11
42.52086
 21
210.5764409999999
 31
0.0
  0
LINE
  5
B5A4
330
B3B2
100
AcDbEntity
  8
1
  6
Continuous
100
AcDbLine
 10
39.789295
 20
209.3610889999999
 30
0.0
 11
41.00464699999998
 21
210.5764409999999
 31
0.0
  0
LINE
  5
B5A5
330
B3B2
100
AcDbEntity
  8
1
  6
Continuous
100
AcDbLine
 10
42.321999
 20
209.3610889999999
 30
0.0
 11
41.106647
 21
210.5764409999999
 31
0.0
  0
LINE
  5
B5A6
330
B3B2
100
AcDbEntity
  8
1
  6
Continuous
100
AcDbLine
 10
40.90778499999998
 20
209.3610889999999
 30
0.0
 11
39.692433
 21
210.5764409999999
 31
0.0
  0
LINE
  5
B5A7
330
B3B2
100
AcDbEntity
  8
1
  6
Continuous
100
AcDbLine
 10
44.031936
 20
209.3610889999999
 30
0.0
 11
45.24728699999999
 21
210.5764409999999
 31
0.0
  0
LINE
  5
B5A8
330
B3B2
100
AcDbEntity
  8
1
  6
Continuous
100
AcDbLine
 10
42.617722
 20
209.3610889999999
 30
0.0
 11
43.83307399999998
 21
210.5764409999999
 31
0.0
  0
LINE
  5
B5A9
330
B3B2
100
AcDbEntity
  8
1
  6
Continuous
100
AcDbLine
 10
45.150426
 20
209.3610889999999
 30
0.0
 11
43.93507399999999
 21
210.5764409999999
 31
0.0
  0
LINE
  5
B5AA
330
B3B2
100
AcDbEntity
  8
1
  6
Continuous
100
AcDbLine
 10
46.564639
 20
209.3610889999999
 30
0.0
 11
45.349287
 21
210.5764409999999
 31
0.0
  0
LINE
  5
B5AB
330
B3B2
100
AcDbEntity
  8
1
  6
Continuous
100
AcDbLine
 10
45.446149
 20
209.3610889999999
 30
0.0
 11
46.661501
 21
210.5764409999999
 31
0.0
  0
LINE
  5
B5AC
330
B3B2
100
AcDbEntity
  8
1
  6
Continuous
100
AcDbLine
 10
47.97885299999999
 20
209.3610889999999
 30
0.0
 11
46.76350099999999
 21
210.5764409999999
 31
0.0
  0
LINE
  5
B5AD
330
B3B2
100
AcDbEntity
  8
1
  6
Continuous
100
AcDbLine
 10
46.860363
 20
209.3610889999999
 30
0.0
 11
48.075715
 21
210.5764409999999
 31
0.0
  0
LINE
  5
B5AE
330
B3B2
100
AcDbEntity
  8
1
  6
Continuous
100
AcDbLine
 10
68.073566
 20
209.3610889999999
 30
0.0
 11
68.940326
 21
210.2278479999999
 31
0.0
  0
ARC
  5
B5AF
330
B3B2
100
AcDbEntity
  8
1
  6
Continuous
100
AcDbCircle
 10
68.44775699999999
 20
209.231376
 30
0.0
 40
0.150422
100
AcDbArc
 50
24.614711
 51
59.57818899999999
  0
ARC
  5
B5B0
330
B3B2
100
AcDbEntity
  8
1
  6
Continuous
100
AcDbCircle
 10
65.747919
 20
210.0128329999999
 30
0.0
 40
4.217937
100
AcDbArc
 50
312.9280819999999
 51
327.0975189999999
  0
ARC
  5
B5B1
330
B3B2
100
AcDbEntity
  8
1
  6
Continuous
100
AcDbCircle
 10
70.48304399999998
 20
210.1638349999999
 30
0.0
 40
2.088299
100
AcDbArc
 50
204.614711
 51
220.185485
  0
ARC
  5
B5B2
330
B3B2
100
AcDbEntity
  8
1
  6
Continuous
100
AcDbCircle
 10
69.155597
 20
209.042632
 30
0.0
 40
0.3507099999999999
100
AcDbArc
 50
220.185485
 51
234.240506
  0
LINE
  5
B5B3
330
B3B2
100
AcDbEntity
  8
1
  6
Continuous
100
AcDbLine
 10
68.950647
 20
208.7580389999998
 30
0.0
 11
69.169358
 21
208.353936
 31
0.0
  0
LINE
  5
B5B4
330
B3B2
100
AcDbEntity
  8
1
  6
Continuous
100
AcDbLine
 10
69.24478
 20
208.353936
 30
0.0
 11
69.352735
 21
208.3471679999999
 31
0.0
  0
ARC
  5
B5B5
330
B3B2
100
AcDbEntity
  8
1
  6
Continuous
100
AcDbCircle
 10
69.195549
 20
208.2492709999999
 30
0.0
 40
0.18518
100
AcDbArc
 50
338.982529
 51
31.91524
  0
ARC
  5
B5B6
330
B3B2
100
AcDbEntity
  8
1
  6
Continuous
100
AcDbCircle
 10
70.48474399999998
 20
207.7539439999999
 30
0.0
 40
1.195896999999998
100
AcDbArc
 50
158.982529
 51
181.5495999999999
  0
ARC
  5
B5B7
330
B3B2
100
AcDbEntity
  8
1
  6
Continuous
100
AcDbCircle
 10
64.972527
 20
210.846435
 30
0.0
 40
5.356411999999998
100
AcDbArc
 50
283.556935
 51
312.9280819999999
  0
LINE
  5
B5B8
330
B3B2
100
AcDbEntity
  8
1
  6
Continuous
100
AcDbLine
 10
66.363629
 20
209.3610889999999
 30
0.0
 11
65.14827700000001
 21
210.5764409999999
 31
0.0
  0
LINE
  5
B5B9
330
B3B2
100
AcDbEntity
  8
1
  6
Continuous
100
AcDbLine
 10
63.830925
 20
209.3610889999999
 30
0.0
 11
65.046277
 21
210.5764409999999
 31
0.0
  0
LINE
  5
B5BA
330
B3B2
100
AcDbEntity
  8
1
  6
Continuous
100
AcDbLine
 10
65.24513899999999
 20
209.3610889999999
 30
0.0
 11
66.460491
 21
210.5764409999999
 31
0.0
  0
LINE
  5
B5BB
330
B3B2
100
AcDbEntity
  8
1
  6
Continuous
100
AcDbLine
 10
67.777843
 20
209.3610889999999
 30
0.0
 11
66.56249100000001
 21
210.5764409999999
 31
0.0
  0
LINE
  5
B5BC
330
B3B2
100
AcDbEntity
  8
1
  6
Continuous
100
AcDbLine
 10
66.659353
 20
209.3610889999999
 30
0.0
 11
67.87470400000001
 21
210.5764409999999
 31
0.0
  0
LINE
  5
B5BD
330
B3B2
100
AcDbEntity
  8
1
  6
Continuous
100
AcDbLine
 10
69.19205600000001
 20
209.3610889999999
 30
0.0
 11
67.976704
 21
210.5764409999999
 31
0.0
  0
ARC
  5
B5BE
330
B3B2
100
AcDbEntity
  8
1
  6
Continuous
100
AcDbCircle
 10
66.98785100000001
 20
208.6664889999999
 30
0.0
 40
2.5
100
AcDbArc
 50
352.8180199999998
 51
49.81640500000001
  0
LINE
  5
B5BF
330
B3B2
100
AcDbEntity
  8
1
  6
Continuous
100
AcDbLine
 10
55.34564399999999
 20
209.3610889999999
 30
0.0
 11
56.56099600000001
 21
210.5764409999999
 31
0.0
  0
LINE
  5
B5C0
330
B3B2
100
AcDbEntity
  8
1
  6
Continuous
100
AcDbLine
 10
57.87834799999998
 20
209.3610889999999
 30
0.0
 11
56.662996
 21
210.5764409999999
 31
0.0
  0
LINE
  5
B5C1
330
B3B2
100
AcDbEntity
  8
1
  6
Continuous
100
AcDbLine
 10
56.75985799999999
 20
209.3610889999999
 30
0.0
 11
57.975209
 21
210.5764409999999
 31
0.0
  0
LINE
  5
B5C2
330
B3B2
100
AcDbEntity
  8
1
  6
Continuous
100
AcDbLine
 10
59.29256099999999
 20
209.3610889999999
 30
0.0
 11
58.07720899999999
 21
210.5764409999999
 31
0.0
  0
LINE
  5
B5C3
330
B3B2
100
AcDbEntity
  8
1
  6
Continuous
100
AcDbLine
 10
58.174071
 20
209.3610889999999
 30
0.0
 11
59.389423
 21
210.5764409999999
 31
0.0
  0
LINE
  5
B5C4
330
B3B2
100
AcDbEntity
  8
1
  6
Continuous
100
AcDbLine
 10
60.706775
 20
209.3610889999999
 30
0.0
 11
59.491423
 21
210.5764409999999
 31
0.0
  0
LINE
  5
B5C5
330
B3B2
100
AcDbEntity
  8
1
  6
Continuous
100
AcDbLine
 10
61.002498
 20
209.3610889999999
 30
0.0
 11
62.21785
 21
210.5764409999999
 31
0.0
  0
LINE
  5
B5C6
330
B3B2
100
AcDbEntity
  8
1
  6
Continuous
100
AcDbLine
 10
63.53520200000001
 20
209.3610889999999
 30
0.0
 11
62.31985
 21
210.5764409999999
 31
0.0
  0
LINE
  5
B5C7
330
B3B2
100
AcDbEntity
  8
1
  6
Continuous
100
AcDbLine
 10
59.588285
 20
209.3610889999999
 30
0.0
 11
60.803637
 21
210.5764409999999
 31
0.0
  0
LINE
  5
B5C8
330
B3B2
100
AcDbEntity
  8
1
  6
Continuous
100
AcDbLine
 10
62.12098799999999
 20
209.3610889999999
 30
0.0
 11
60.905637
 21
210.5764409999999
 31
0.0
  0
LINE
  5
B5C9
330
B3B2
100
AcDbEntity
  8
1
  6
Continuous
100
AcDbLine
 10
62.41671199999998
 20
209.3610889999999
 30
0.0
 11
63.632064
 21
210.5764409999999
 31
0.0
  0
LINE
  5
B5CA
330
B3B2
100
AcDbEntity
  8
1
  6
Continuous
100
AcDbLine
 10
64.949416
 20
209.3610889999999
 30
0.0
 11
63.734064
 21
210.5764409999999
 31
0.0
  0
ARC
  5
B5CB
330
B3B2
100
AcDbEntity
  8
1
  6
Continuous
100
AcDbCircle
 10
196.4748219999999
 20
210.84647
 30
0.0
 40
5.356411999999998
100
AcDbArc
 50
283.556935
 51
312.9280819999999
  0
ARC
  5
B5CC
330
B3B2
100
AcDbEntity
  8
1
  6
Continuous
100
AcDbCircle
 10
197.2502139999998
 20
210.012868
 30
0.0
 40
4.217937
100
AcDbArc
 50
312.9280819999999
 51
337.9224849999999
  0
LINE
  5
B5CD
330
B3B2
100
AcDbEntity
  8
1
  6
Continuous
100
AcDbLine
 10
197.7304269999999
 20
205.6393019999999
 30
0.0
 11
193.7087349999999
 21
205.6393019999999
 31
0.0
  0
ARC
  5
B5CE
330
B3B2
100
AcDbEntity
  8
1
  6
Continuous
100
AcDbCircle
 10
306.9771169999999
 20
210.846435
 30
0.0
 40
5.356411999999998
100
AcDbArc
 50
283.556935
 51
312.9280819999999
  0
ARC
  5
B5CF
330
B3B2
100
AcDbEntity
  8
1
  6
Continuous
100
AcDbCircle
 10
285.007765
 20
210.846435
 30
0.0
 40
5.356411999999998
100
AcDbArc
 50
227.0719179999999
 51
256.4430649999998
  0
ARC
  5
B5D0
330
B3B2
100
AcDbEntity
  8
1
  6
Continuous
100
AcDbCircle
 10
284.232373
 20
210.0128329999999
 30
0.0
 40
4.217937
100
AcDbArc
 50
212.9024809999999
 51
227.0719179999999
  0
ARC
  5
B5D1
330
B3B2
100
AcDbEntity
  8
1
  6
Continuous
100
AcDbCircle
 10
279.495548
 20
207.7539439999999
 30
0.0
 40
1.195896999999998
100
AcDbArc
 50
358.4503999999999
 51
36.614471
  0
ARC
  5
B5D2
330
B3B2
100
AcDbEntity
  8
1
  6
Continuous
100
AcDbCircle
 10
307.7525089999999
 20
210.0128329999999
 30
0.0
 40
4.217937
100
AcDbArc
 50
312.9280819999999
 51
338.5037389999999
  0
LINE
  5
B5D3
330
B3B2
100
AcDbEntity
  8
1
  6
Continuous
100
AcDbLine
 10
280.5120559999999
 20
208.353936
 30
0.0
 11
311.630531
 21
208.353936
 31
0.0
  0
LINE
  5
B5D4
330
B3B2
100
AcDbEntity
  8
1
  6
Continuous
100
AcDbLine
 10
308.232722
 20
205.639267
 30
0.0
 11
283.7521609999999
 21
205.639267
 31
0.0
  0
ARC
  5
B5D5
330
B3B2
100
AcDbEntity
  8
1
  6
Continuous
100
AcDbCircle
 10
185.490146
 20
68.81031800000001
 30
0.0
 40
15.0
100
AcDbArc
 50
236.44269
 51
123.55731
  0
LINE
  5
B5D6
330
B3B2
100
AcDbEntity
  8
4
  6
CENTER
100
AcDbLine
 10
160.490146
 20
264.787847
 30
0.0
 11
160.490146
 21
329.525192
 31
0.0
  0
ARC
  5
B5D7
330
B3B2
100
AcDbEntity
  8
1
  6
Continuous
100
AcDbCircle
 10
71.75923
 20
185.2987819999999
 30
0.0
 40
3.5
100
AcDbArc
 50
90.00001000000002
 51
180.0
  0
ARC
  5
B5D8
330
B3B2
100
AcDbEntity
  8
1
  6
Continuous
100
AcDbCircle
 10
71.75923
 20
184.7987819999999
 30
0.0
 40
4.0
100
AcDbArc
 50
90.00001000000002
 51
180.0
  0
ARC
  5
B5D9
330
B3B2
100
AcDbEntity
  8
1
  6
Continuous
100
AcDbCircle
 10
71.05155699999997
 20
173.130812
 30
0.0
 40
1.0
100
AcDbArc
 50
308.8423430000001
 51
51.15746
  0
ARC
  5
B5DA
330
B3B2
100
AcDbEntity
  8
1
  6
Continuous
100
AcDbCircle
 10
72.75155500000002
 20
185.7987819999999
 30
0.0
 40
3.0
100
AcDbArc
 50
90.00001000000002
 51
180.0
  0
LINE
  5
B5DB
330
B3B2
100
AcDbEntity
  8
1
  6
Continuous
100
AcDbLine
 10
72.466841
 20
163.7690719999999
 30
0.0
 11
71.238984
 21
163.032362
 31
0.0
  0
LINE
  5
B5DC
330
B3B2
100
AcDbEntity
  8
1
  6
Continuous
100
AcDbLine
 10
70.347774
 20
177.9335619999999
 30
0.0
 11
73.43786
 21
173.7953719999999
 31
0.0
  0
LINE
  5
B5DD
330
B3B2
100
AcDbEntity
  8
1
  6
Continuous
100
AcDbLine
 10
68.25923
 20
185.2987819999999
 30
0.0
 11
68.25923
 21
169.0189919999999
 31
0.0
  0
LINE
  5
B5DE
330
B3B2
100
AcDbEntity
  8
1
  6
Continuous
100
AcDbLine
 10
69.00487199999999
 20
170.198832
 30
0.0
 11
71.678735
 21
172.3519419999998
 31
0.0
  0
LINE
  5
B5DF
330
B3B2
100
AcDbEntity
  8
1
  6
Continuous
100
AcDbLine
 10
67.75923
 20
184.7987819999999
 30
0.0
 11
67.75923
 21
169.598412
 31
0.0
  0
ARC
  5
B5E0
330
B3B2
100
AcDbEntity
  8
1
  6
Continuous
100
AcDbCircle
 10
60.44382999999999
 20
162.7804319999999
 30
0.0
 40
10.0
100
AcDbArc
 50
0.000003
 51
42.98429999999998
  0
ARC
  5
B5E1
330
B3B2
100
AcDbEntity
  8
1
  6
Continuous
100
AcDbCircle
 10
73.811476
 20
158.744902
 30
0.0
 40
5.0
100
AcDbArc
 50
120.9637599999999
 51
132.43259
  0
ARC
  5
B5E2
330
B3B2
100
AcDbEntity
  8
1
  6
Continuous
100
AcDbCircle
 10
70.25923
 20
168.6410919999999
 30
0.0
 40
2.0
100
AcDbArc
 50
128.8423399999998
 51
170.182435
  0
LINE
  5
B5E3
330
B3B2
100
AcDbEntity
  8
1
  6
Continuous
100
AcDbLine
 10
70.43786400000001
 20
163.125622
 30
0.0
 11
70.43786400000001
 21
162.435272
 31
0.0
  0
ARC
  5
B5E4
330
B3B2
100
AcDbEntity
  8
1
  6
Continuous
100
AcDbCircle
 10
72.75155500000002
 20
179.7285119999999
 30
0.0
 40
3.0
100
AcDbArc
 50
180.0
 51
216.7496099999999
  0
ARC
  5
B5E5
330
B3B2
100
AcDbEntity
  8
1
  6
Continuous
100
AcDbCircle
 10
70.25923
 20
177.6205519999998
 30
0.0
 40
2.0
100
AcDbArc
 50
180.0
 51
231.15746
  0
LINE
  5
B5E6
330
B3B2
100
AcDbEntity
  8
1
  6
Continuous
100
AcDbLine
 10
69.004867
 20
176.0628119999998
 30
0.0
 11
71.678747
 21
173.909682
 31
0.0
  0
LINE
  5
B5E7
330
B3B2
100
AcDbEntity
  8
1
  6
Continuous
100
AcDbLine
 10
69.751554
 20
185.7987819999999
 30
0.0
 11
69.751554
 21
179.7285119999999
 31
0.0
  0
ARC
  5
B5E8
330
B3B2
100
AcDbEntity
  8
1
  6
Continuous
100
AcDbCircle
 10
210.70927
 20
107.6431139999999
 30
0.0
 40
2.0
100
AcDbArc
 50
0.0
 51
90.00000300000001
  0
ARC
  5
B5E9
330
B3B2
100
AcDbEntity
  8
1
  6
Continuous
100
AcDbCircle
 10
198.229327
 20
107.6431139999999
 30
0.0
 40
2.0
100
AcDbArc
 50
90.00000300000001
 51
180.00001
  0
ARC
  5
B5EA
330
B3B2
100
AcDbEntity
  8
1
  6
Continuous
100
AcDbCircle
 10
211.6343259999999
 20
107.6431139999999
 30
0.0
 40
2.0
100
AcDbArc
 50
0.0
 51
90.00000300000001
  0
LINE
  5
B5EB
330
B3B2
100
AcDbEntity
  8
1
  6
Continuous
100
AcDbLine
 10
170.906047
 20
94.89269
 30
0.0
 11
211.6343259999999
 21
94.89269
 31
0.0
  0
LINE
  5
B5EC
330
B3B2
100
AcDbEntity
  8
1
  6
Continuous
100
AcDbLine
 10
143.7258389999998
 20
97.19269000000002
 30
0.0
 11
156.5397179999999
 21
97.19269000000002
 31
0.0
  0
ARC
  5
B5ED
330
B3B2
100
AcDbEntity
  8
1
  6
Continuous
100
AcDbCircle
 10
143.613527
 20
149.3186999999998
 30
0.0
 40
67.237015
100
AcDbArc
 50
254.6140499999999
 51
268.1567999999999
  0
LINE
  5
B5EE
330
B3B2
100
AcDbEntity
  8
1
  6
Continuous
100
AcDbLine
 10
125.725835
 20
88.26031999999996
 30
0.0
 11
168.341983
 21
88.26031999999996
 31
0.0
  0
LINE
  5
B5EF
330
B3B2
100
AcDbEntity
  8
1
  6
Continuous
100
AcDbLine
 10
125.725835
 20
90.56029999999998
 30
0.0
 11
161.490146
 21
90.56029999999998
 31
0.0
  0
ARC
  5
B5F0
330
B3B2
100
AcDbEntity
  8
1
  6
Continuous
100
AcDbCircle
 10
139.0967269999999
 20
89.57401
 30
0.0
 40
5.0
100
AcDbArc
 50
270.0
 51
303.7962299999999
  0
ARC
  5
B5F1
330
B3B2
100
AcDbEntity
  8
1
  6
Continuous
100
AcDbCircle
 10
143.613527
 20
149.3186999999998
 30
0.0
 40
66.73701499999999
100
AcDbArc
 50
254.6140499999999
 51
268.1567999999999
  0
ARC
  5
B5F2
330
B3B2
100
AcDbEntity
  8
1
  6
Continuous
100
AcDbCircle
 10
140.7258389999998
 20
100.5740069999999
 30
0.0
 40
2.0
100
AcDbArc
 50
0.0
 51
90.00000300000001
  0
LINE
  5
B5F3
330
B3B2
100
AcDbEntity
  8
1
  6
Continuous
100
AcDbLine
 10
128.607301
 20
85.15086999999999
 30
0.0
 11
131.2920959999999
 21
87.45213000000005
 31
0.0
  0
LINE
  5
B5F4
330
B3B2
100
AcDbEntity
  8
1
  6
Continuous
100
AcDbLine
 10
125.725835
 20
84.50475
 30
0.0
 11
125.725835
 21
95.57401
 31
0.0
  0
LINE
  5
B5F5
330
B3B2
100
AcDbEntity
  8
1
  6
Continuous
100
AcDbLine
 10
134.499143
 20
84.05289000000001
 30
0.0
 11
132.8234759999999
 21
87.16673
 31
0.0
  0
LINE
  5
B5F6
330
B3B2
100
AcDbEntity
  8
1
  6
Continuous
100
AcDbLine
 10
134.2187129999998
 20
84.57401
 30
0.0
 11
139.0967269999999
 21
84.57401
 31
0.0
  0
LINE
  5
B5F7
330
B3B2
100
AcDbEntity
  8
1
  6
Continuous
100
AcDbLine
 10
125.906888
 20
84.9735
 30
0.0
 11
125.7742279999999
 21
84.49142999999997
 31
0.0
  0
ARC
  5
B5F8
330
B3B2
100
AcDbEntity
  8
1
  6
Continuous
100
AcDbCircle
 10
127.305726
 20
86.66937
 30
0.0
 40
2.0
100
AcDbArc
 50
255.40953
 51
310.6012999999999
  0
ARC
  5
B5F9
330
B3B2
100
AcDbEntity
  8
1
  6
Continuous
100
AcDbCircle
 10
136.260331
 20
85.00064
 30
0.0
 40
2.0
100
AcDbArc
 50
208.28619
 51
263.47795
  0
LINE
  5
B5FA
330
B3B2
100
AcDbEntity
  8
1
  6
Continuous
100
AcDbLine
 10
132.7258309999999
 20
102.5740069999999
 30
0.0
 11
140.7258389999998
 21
102.5740069999999
 31
0.0
  0
ARC
  5
B5FB
330
B3B2
100
AcDbEntity
  8
1
  6
Continuous
100
AcDbCircle
 10
132.7258309999999
 20
95.57401
 30
0.0
 40
7.0
100
AcDbArc
 50
90.00000300000001
 51
180.00001
  0
ARC
  5
B5FC
330
B3B2
100
AcDbEntity
  8
1
  6
Continuous
100
AcDbCircle
 10
131.9428879999998
 20
86.69285999999997
 30
0.0
 40
1.0
100
AcDbArc
 50
28.286183
 51
130.6012899999998
  0
LINE
  5
B5FD
330
B3B2
100
AcDbEntity
  8
1
  6
Continuous
100
AcDbLine
 10
152.541448
 20
87.28931000000001
 30
0.0
 11
151.804731
 21
86.06144999999996
 31
0.0
  0
LINE
  5
B5FE
330
B3B2
100
AcDbEntity
  8
1
  6
Continuous
100
AcDbLine
 10
147.562082
 20
86.26031999999998
 30
0.0
 11
147.562082
 21
88.26031999999996
 31
0.0
  0
LINE
  5
B5FF
330
B3B2
100
AcDbEntity
  8
1
  6
Continuous
100
AcDbLine
 10
150.827806
 20
86.26031999999998
 30
0.0
 11
150.827806
 21
88.26031999999996
 31
0.0
  0
ARC
  5
B600
330
B3B2
100
AcDbEntity
  8
1
  6
Continuous
100
AcDbCircle
 10
131.428926
 20
101.0296639999999
 30
0.0
 40
18.785038
100
AcDbArc
 50
303.7962299999999
 51
314.7181799999998
  0
ARC
  5
B601
330
B3B2
100
AcDbEntity
  8
1
  6
Continuous
100
AcDbCircle
 10
185.490146
 20
68.81031
 30
0.0
 40
21.950001
100
AcDbArc
 50
111.80128
 51
127.75327
  0
ARC
  5
B602
330
B3B2
100
AcDbEntity
  8
1
  6
Continuous
100
AcDbCircle
 10
162.745227
 20
42.41496
 30
0.0
 40
42.19070099999998
100
AcDbArc
 50
92.219998
 51
101.07685
  0
ARC
  5
B603
330
B3B2
100
AcDbEntity
  8
1
  6
Continuous
100
AcDbCircle
 10
162.745227
 20
42.41496
 30
0.0
 40
42.69070099999999
100
AcDbArc
 50
92.219998
 51
101.07685
  0
ARC
  5
B604
330
B3B2
100
AcDbEntity
  8
1
  6
Continuous
100
AcDbCircle
 10
140.2293559999999
 20
143.487478
 30
0.0
 40
61.383167
100
AcDbArc
 50
271.1406699999999
 51
283.57714
  0
LINE
  5
B605
330
B3B2
100
AcDbEntity
  8
1
  6
Continuous
100
AcDbLine
 10
147.562082
 20
86.26031999999998
 30
0.0
 11
150.827806
 21
86.26031999999998
 31
0.0
  0
ARC
  5
B606
330
B3B2
100
AcDbEntity
  8
1
  6
Continuous
100
AcDbCircle
 10
140.2293559999999
 20
143.487478
 30
0.0
 40
60.883167
100
AcDbArc
 50
271.1406699999999
 51
283.57714
  0
ARC
  5
B607
330
B3B2
100
AcDbEntity
  8
1
  6
Continuous
100
AcDbCircle
 10
142.8117079999998
 20
99.76911000000001
 30
0.0
 40
17.088612
100
AcDbArc
 50
273.38042
 51
292.9081699999999
  0
ARC
  5
B608
330
B3B2
100
AcDbEntity
  8
1
  6
Continuous
100
AcDbCircle
 10
147.517267
 20
88.63393
 30
0.0
 40
5.0
100
AcDbArc
 50
292.9081699999999
 51
329.0362399999999
  0
LINE
  5
B609
330
B3B2
100
AcDbEntity
  8
1
  6
Continuous
100
AcDbLine
 10
161.111055
 20
84.57401
 30
0.0
 11
167.704582
 21
84.27429999999999
 31
0.0
  0
LINE
  5
B60A
330
B3B2
100
AcDbEntity
  8
1
  6
Continuous
100
AcDbLine
 10
161.133758
 20
85.07349999999998
 30
0.0
 11
169.508916
 21
84.69280000000003
 31
0.0
  0
ARC
  5
B60B
330
B3B2
100
AcDbEntity
  8
1
  6
Continuous
100
AcDbCircle
 10
165.316104
 20
94.86238
 30
0.0
 40
11.0
100
AcDbArc
 50
288.3962899999999
 51
307.7532699999999
  0
ARC
  5
B60C
330
B3B2
100
AcDbEntity
  8
1
  6
Continuous
100
AcDbCircle
 10
167.840801
 20
87.27120999999998
 30
0.0
 40
3.0
100
AcDbArc
 50
267.39744
 51
288.3962899999999
  0
LINE
  5
B60D
330
B3B2
100
AcDbEntity
  8
1
  6
Continuous
100
AcDbLine
 10
142.7258389999998
 20
98.19269000000002
 30
0.0
 11
142.7258389999998
 21
100.5740069999999
 31
0.0
  0
ARC
  5
B60E
330
B3B2
100
AcDbEntity
  8
1
  6
Continuous
100
AcDbCircle
 10
146.0536969999998
 20
86.26031999999998
 30
0.0
 40
2.0
100
AcDbArc
 50
90.00000300000001
 51
134.71819
  0
ARC
  5
B60F
330
B3B2
100
AcDbEntity
  8
1
  6
Continuous
100
AcDbCircle
 10
154.256425
 20
86.26031999999998
 30
0.0
 40
2.0
100
AcDbArc
 50
90.00000300000001
 51
149.0362399999999
  0
ARC
  5
B610
330
B3B2
100
AcDbEntity
  8
1
  6
Continuous
100
AcDbCircle
 10
143.7258389999998
 20
98.19269000000002
 30
0.0
 40
1.0
100
AcDbArc
 50
179.9999899999999
 51
270.0
  0
LINE
  5
B611
330
B3B2
100
AcDbEntity
  8
1
  6
Continuous
100
AcDbLine
 10
176.0378949999999
 20
92.22436
 30
0.0
 11
177.338167
 21
89.19038999999997
 31
0.0
  0
ARC
  5
B612
330
B3B2
100
AcDbEntity
  8
1
  6
Continuous
100
AcDbCircle
 10
161.490146
 20
92.5603
 30
0.0
 40
2.0
100
AcDbArc
 50
270.0
 51
340.32031
  0
ARC
  5
B613
330
B3B2
100
AcDbEntity
  8
1
  6
Continuous
100
AcDbCircle
 10
170.906047
 20
89.19268999999998
 30
0.0
 40
8.0
100
AcDbArc
 50
90.00000300000001
 51
160.3203
  0
ARC
  5
B614
330
B3B2
100
AcDbEntity
  8
1
  6
Continuous
100
AcDbCircle
 10
167.6607009999998
 20
92.5603
 30
0.0
 40
4.299999999999998
100
AcDbArc
 50
270.0
 51
340.32031
  0
ARC
  5
B615
330
B3B2
100
AcDbEntity
  8
1
  6
Continuous
100
AcDbCircle
 10
177.076601
 20
89.19268999999998
 30
0.0
 40
5.7
100
AcDbArc
 50
90.00000300000001
 51
160.3203
  0
ARC
  5
B616
330
B3B2
100
AcDbEntity
  8
1
  6
Continuous
100
AcDbCircle
 10
161.490146
 20
92.5603
 30
0.0
 40
4.299999999999998
100
AcDbArc
 50
270.0
 51
340.32031
  0
ARC
  5
B617
330
B3B2
100
AcDbEntity
  8
1
  6
Continuous
100
AcDbCircle
 10
170.906047
 20
89.19268999999998
 30
0.0
 40
5.7
100
AcDbArc
 50
90.00000300000001
 51
160.3203
  0
ARC
  5
B618
330
B3B2
100
AcDbEntity
  8
1
  6
Continuous
100
AcDbCircle
 10
185.490146
 20
68.81031
 30
0.0
 40
25.25
100
AcDbArc
 50
111.9839299999999
 51
127.3739399999999
  0
ARC
  5
B619
330
B3B2
100
AcDbEntity
  8
1
  6
Continuous
100
AcDbCircle
 10
168.341983
 20
91.26032
 30
0.0
 40
3.0
100
AcDbArc
 50
270.0
 51
307.3739499999998
  0
ARC
  5
B61A
330
B3B2
100
AcDbEntity
  8
1
  6
Continuous
100
AcDbCircle
 10
211.6343259999999
 20
96.89269000000001
 30
0.0
 40
2.0
100
AcDbArc
 50
270.0
 51
0.0
  0
LINE
  5
B61B
330
B3B2
100
AcDbEntity
  8
1
  6
Continuous
100
AcDbLine
 10
186.6444579999999
 20
89.48908000000001
 30
0.0
 11
188.3597289999999
 21
89.48908000000001
 31
0.0
  0
LINE
  5
B61C
330
B3B2
100
AcDbEntity
  8
1
  6
Continuous
100
AcDbLine
 10
185.31672
 20
93.98483
 30
0.0
 11
185.6487089999999
 21
90.39694
 31
0.0
  0
LINE
  5
B61D
330
B3B2
100
AcDbEntity
  8
1
  6
Continuous
100
AcDbLine
 10
189.6874659999998
 20
93.98483
 30
0.0
 11
189.355477
 21
90.39694
 31
0.0
  0
ARC
  5
B61E
330
B3B2
100
AcDbEntity
  8
1
  6
Continuous
100
AcDbCircle
 10
190.6832149999999
 20
93.89269
 30
0.0
 40
1.0
100
AcDbArc
 50
90.00000300000001
 51
174.71344
  0
ARC
  5
B61F
330
B3B2
100
AcDbEntity
  8
1
  6
Continuous
100
AcDbCircle
 10
184.3209719999999
 20
93.89269
 30
0.0
 40
1.0
100
AcDbArc
 50
5.286559999999997
 51
90.00000300000001
  0
ARC
  5
B620
330
B3B2
100
AcDbEntity
  8
1
  6
Continuous
100
AcDbCircle
 10
186.6444579999999
 20
90.48908
 30
0.0
 40
1.0
100
AcDbArc
 50
185.28656
 51
270.0
  0
ARC
  5
B621
330
B3B2
100
AcDbEntity
  8
1
  6
Continuous
100
AcDbCircle
 10
188.3597289999999
 20
90.48908
 30
0.0
 40
1.0
100
AcDbArc
 50
270.0
 51
354.71344
  0
LINE
  5
B622
330
B3B2
100
AcDbEntity
  8
1
  6
Continuous
100
AcDbLine
 10
212.70927
 20
98.19269000000002
 30
0.0
 11
212.70927
 21
107.6431139999999
 31
0.0
  0
LINE
  5
B623
330
B3B2
100
AcDbEntity
  8
1
  6
Continuous
100
AcDbLine
 10
196.229327
 20
97.19269000000002
 30
0.0
 11
196.229327
 21
107.6431139999999
 31
0.0
  0
LINE
  5
B624
330
B3B2
100
AcDbEntity
  8
1
  6
Continuous
100
AcDbLine
 10
213.6343259999999
 20
96.89269000000001
 30
0.0
 11
213.6343259999999
 21
107.6431139999999
 31
0.0
  0
ARC
  5
B625
330
B3B2
100
AcDbEntity
  8
1
  6
Continuous
100
AcDbCircle
 10
211.70927
 20
98.19269000000002
 30
0.0
 40
1.0
100
AcDbArc
 50
270.0
 51
0.0
  0
ARC
  5
B626
330
B3B2
100
AcDbEntity
  8
1
  6
Continuous
100
AcDbCircle
 10
211.6343259999999
 20
270.838268
 30
0.0
 40
2.0
100
AcDbArc
 50
0.0
 51
32.76461599999999
  0
ARC
  5
B627
330
B3B2
100
AcDbEntity
  8
1
  6
Continuous
100
AcDbCircle
 10
132.725833
 20
272.1569479999998
 30
0.0
 40
7.0
100
AcDbArc
 50
179.9999899999999
 51
270.0
  0
ARC
  5
B628
330
B3B2
100
AcDbEntity
  8
1
  6
Continuous
100
AcDbCircle
 10
183.196415
 20
272.5382649999999
 30
0.0
 40
2.0
100
AcDbArc
 50
270.0
 51
342.0125
  0
ARC
  5
B629
330
B3B2
100
AcDbEntity
  8
1
  6
Continuous
100
AcDbCircle
 10
191.807773
 20
272.5382649999999
 30
0.0
 40
2.0
100
AcDbArc
 50
197.9875
 51
270.0
  0
ARC
  5
B62A
330
B3B2
100
AcDbEntity
  8
5
  6
PHANTOM
100
AcDbCircle
 10
163.364288
 20
166.5554779999999
 30
0.0
 40
22.099991
100
AcDbArc
 50
54.01544000000001
 51
88.78753000000001
  0
ARC
  5
B62B
330
B3B2
100
AcDbEntity
  8
5
  6
PHANTOM
100
AcDbCircle
 10
165.901979
 20
168.7797789999999
 30
0.0
 40
18.073711
100
AcDbArc
 50
57.01935699999999
 51
93.781368
  0
ARC
  5
B62C
330
B3B2
100
AcDbEntity
  8
1
  6
Continuous
100
AcDbCircle
 10
155.042232
 20
140.724649
 30
0.0
 40
45.86199999999998
100
AcDbArc
 50
73.128568
 51
86.454786
  0
ARC
  5
B62D
330
B3B2
100
AcDbEntity
  8
1
  6
Continuous
100
AcDbCircle
 10
157.0058009999999
 20
158.798883
 30
0.0
 40
30.0
100
AcDbArc
 50
68.13473000000001
 51
90.00000300000001
  0
ARC
  5
B62E
330
B3B2
100
AcDbEntity
  8
5
  6
PHANTOM
100
AcDbCircle
 10
170.6790589999999
 20
142.6320849999999
 30
0.0
 40
23.0
100
AcDbArc
 50
85.21808000000001
 51
111.1078639999999
  0
ARC
  5
B62F
330
B3B2
100
AcDbEntity
  8
1
  6
Continuous
100
AcDbCircle
 10
158.35477
 20
141.1646749999998
 30
0.0
 40
23.0
100
AcDbArc
 50
64.56528
 51
90.455064
  0
ARC
  5
B630
330
B3B2
100
AcDbEntity
  8
1
  6
Continuous
100
AcDbCircle
 10
150.05356
 20
173.34392
 30
0.0
 40
16.60713799999999
100
AcDbArc
 50
324.00662
 51
356.5987509999998
  0
ARC
  5
B631
330
B3B2
100
AcDbEntity
  8
5
  6
PHANTOM
100
AcDbCircle
 10
151.561575
 20
169.815456
 30
0.0
 40
16.60713799999999
100
AcDbArc
 50
344.65942
 51
69.49848799999999
  0
LINE
  5
B632
330
B3B2
100
AcDbEntity
  8
1
  6
Continuous
100
AcDbLine
 10
143.725841
 20
270.5382649999999
 30
0.0
 11
211.70927
 21
270.5382649999999
 31
0.0
  0
LINE
  5
B633
330
B3B2
100
AcDbEntity
  8
1
  6
Continuous
100
AcDbLine
 10
75.73786699999998
 20
185.498772
 30
0.0
 11
75.73786699999998
 21
161.8283319999999
 31
0.0
  0
LINE
  5
B634
330
B3B2
100
AcDbEntity
  8
1
  6
Continuous
100
AcDbLine
 10
73.437864
 20
173.7953719999999
 30
0.0
 11
73.437864
 21
161.8283319999999
 31
0.0
  0
LINE
  5
B635
330
B3B2
100
AcDbEntity
  8
1
  6
Continuous
100
AcDbLine
 10
83.17024000000001
 20
174.1743919999999
 30
0.0
 11
83.17024000000001
 21
164.9041219999998
 31
0.0
  0
LINE
  5
B636
330
B3B2
100
AcDbEntity
  8
1
  6
Continuous
100
AcDbLine
 10
82.37023699999998
 20
186.498772
 30
0.0
 11
82.37023699999998
 21
179.668231
 31
0.0
  0
ARC
  5
B637
330
B3B2
100
AcDbEntity
  8
1
  6
Continuous
100
AcDbCircle
 10
71.43786400000002
 20
165.4840619999999
 30
0.0
 40
2.0
100
AcDbArc
 50
300.9637579999999
 51
359.999996
  0
ARC
  5
B638
330
B3B2
100
AcDbEntity
  8
1
  6
Continuous
100
AcDbCircle
 10
74.27726599999998
 20
151.9355919999999
 30
0.0
 40
10.0
100
AcDbArc
 50
35.97262
 51
81.6013
  0
ARC
  5
B639
330
B3B2
100
AcDbEntity
  8
1
  6
Continuous
100
AcDbCircle
 10
71.97726299999998
 20
151.9355919999999
 30
0.0
 40
10.0
100
AcDbArc
 50
35.97262
 51
81.60129000000003
  0
ARC
  5
B63A
330
B3B2
100
AcDbEntity
  8
1
  6
Continuous
100
AcDbCircle
 10
82.37023699999998
 20
164.9041219999998
 30
0.0
 40
0.8
100
AcDbArc
 50
270.0
 51
0.000003
  0
LINE
  5
B63B
330
B3B2
100
AcDbEntity
  8
1
  6
Continuous
100
AcDbLine
 10
73.437865
 20
161.828382
 30
0.0
 11
75.737868
 21
161.828382
 31
0.0
  0
LINE
  5
B63C
330
B3B2
100
AcDbEntity
  8
1
  6
Continuous
100
AcDbLine
 10
80.07023399999999
 20
157.809562
 30
0.0
 11
82.37023699999998
 21
157.809562
 31
0.0
  0
LINE
  5
B63D
330
B3B2
100
AcDbEntity
  8
1
  6
Continuous
100
AcDbLine
 10
82.37023699999998
 20
183.5197219999998
 30
0.0
 11
93.82066
 21
183.5197219999998
 31
0.0
  0
LINE
  5
B63E
330
B3B2
100
AcDbEntity
  8
1
  6
Continuous
100
AcDbLine
 10
82.37023699999998
 20
181.4139619999999
 30
0.0
 11
93.82066
 21
181.4139619999999
 31
0.0
  0
LINE
  5
B63F
330
B3B2
100
AcDbEntity
  8
1
  6
Continuous
100
AcDbLine
 10
83.370238
 20
174.1743919999999
 30
0.0
 11
93.82066
 21
174.1743919999999
 31
0.0
  0
ARC
  5
B640
330
B3B2
100
AcDbEntity
  8
1
  6
Continuous
100
AcDbCircle
 10
76.73786699999998
 20
185.498772
 30
0.0
 40
1.0
100
AcDbArc
 50
90.00001000000002
 51
180.0
  0
ARC
  5
B641
330
B3B2
100
AcDbEntity
  8
1
  6
Continuous
100
AcDbCircle
 10
72.73786699999998
 20
173.3083619999999
 30
0.0
 40
3.0
100
AcDbArc
 50
0.000003
 51
36.74960999999999
  0
ARC
  5
B642
330
B3B2
100
AcDbEntity
  8
1
  6
Continuous
100
AcDbCircle
 10
74.37312099999998
 20
178.498802
 30
0.0
 40
8.0
100
AcDbArc
 50
31.22484699999999
 51
77.23384
  0
ARC
  5
B643
330
B3B2
100
AcDbEntity
  8
1
  6
Continuous
100
AcDbCircle
 10
72.75155500000002
 20
185.7987819999999
 30
0.0
 40
0.7
100
AcDbArc
 50
90.00001000000002
 51
180.0
  0
ARC
  5
B644
330
B3B2
100
AcDbEntity
  8
1
  6
Continuous
100
AcDbCircle
 10
83.370238
 20
173.1743919999999
 30
0.0
 40
1.0
100
AcDbArc
 50
90.00001000000002
 51
104.4510199999999
  0
LINE
  5
B645
330
B3B2
100
AcDbEntity
  8
1
  6
Continuous
100
AcDbLine
 10
72.05155499999998
 20
179.2414919999999
 30
0.0
 11
75.141632
 21
175.1033319999999
 31
0.0
  0
LINE
  5
B646
330
B3B2
100
AcDbEntity
  8
1
  6
Continuous
100
AcDbLine
 10
72.05155799999999
 20
185.7987819999999
 30
0.0
 11
72.05155799999999
 21
179.241512
 31
0.0
  0
LINE
  5
B647
330
B3B2
100
AcDbEntity
  8
1
  6
Continuous
100
AcDbLine
 10
87.751554
 20
188.798782
 30
0.0
 11
87.751554
 21
186.498772
 31
0.0
  0
LINE
  5
B648
330
B3B2
100
AcDbEntity
  8
1
  6
Continuous
100
AcDbLine
 10
72.75155500000002
 20
186.498772
 30
0.0
 11
87.751554
 21
186.498772
 31
0.0
  0
LINE
  5
B649
330
B3B2
100
AcDbEntity
  8
1
  6
Continuous
100
AcDbLine
 10
71.75923
 20
188.798782
 30
0.0
 11
87.751554
 21
188.798782
 31
0.0
  0
ARC
  5
B64A
330
B3B2
100
AcDbEntity
  8
1
  6
Continuous
100
AcDbCircle
 10
93.82066
 20
182.5197219999998
 30
0.0
 40
1.0
100
AcDbArc
 50
0.000003
 51
90.00001000000002
  0
ARC
  5
B64B
330
B3B2
100
AcDbEntity
  8
1
  6
Continuous
100
AcDbCircle
 10
93.82066
 20
180.4139619999999
 30
0.0
 40
1.0
100
AcDbArc
 50
0.000003
 51
90.00001000000002
  0
ARC
  5
B64C
330
B3B2
100
AcDbEntity
  8
1
  6
Continuous
100
AcDbCircle
 10
93.82066
 20
175.1743919999999
 30
0.0
 40
1.0
100
AcDbArc
 50
270.0
 51
0.000003
  0
LINE
  5
B64D
330
B3B2
100
AcDbEntity
  8
1
  6
Continuous
100
AcDbLine
 10
94.82066000000001
 20
175.1743919999999
 30
0.0
 11
94.82066000000001
 21
182.5197219999998
 31
0.0
  0
LINE
  5
B64E
330
B3B2
100
AcDbEntity
  8
1
  6
Continuous
100
AcDbLine
 10
125.725831
 20
179.24161
 30
0.0
 11
137.8213889999998
 21
179.24161
 31
0.0
  0
LINE
  5
B64F
330
B3B2
100
AcDbEntity
  8
1
  6
Continuous
100
AcDbLine
 10
125.725831
 20
186.498881
 30
0.0
 11
157.8781619999998
 21
186.498881
 31
0.0
  0
LINE
  5
B650
330
B3B2
100
AcDbEntity
  8
1
  6
Continuous
100
AcDbLine
 10
125.725831
 20
188.79888
 30
0.0
 11
157.0058009999999
 21
188.79888
 31
0.0
  0
LINE
  5
B651
330
B3B2
100
AcDbEntity
  8
1
  6
Continuous
100
AcDbLine
 10
126.1696179999999
 20
174.3049719999999
 30
0.0
 11
141.365182
 21
174.3049719999999
 31
0.0
  0
LINE
  5
B652
330
B3B2
100
AcDbEntity
  8
5
  6
PHANTOM
100
AcDbLine
 10
128.8735699999998
 20
162.290782
 30
0.0
 11
143.092589
 21
167.650319
 31
0.0
  0
LINE
  5
B653
330
B3B2
100
AcDbEntity
  8
5
  6
PHANTOM
100
AcDbLine
 10
126.71713
 20
166.7536399999999
 30
0.0
 11
138.0353659999999
 21
171.0197929999999
 31
0.0
  0
ARC
  5
B654
330
B3B2
100
AcDbEntity
  8
1
  6
Continuous
100
AcDbCircle
 10
137.7258389999997
 20
176.469958
 30
0.0
 40
12.0
100
AcDbArc
 50
179.9999899999999
 51
267.8198899999999
  0
ARC
  5
B655
330
B3B2
100
AcDbEntity
  8
5
  6
PHANTOM
100
AcDbCircle
 10
138.9235299999998
 20
168.392561
 30
0.0
 40
12.0
100
AcDbArc
 50
200.65279
 51
288.47269
  0
LINE
  5
B656
330
B3B2
100
AcDbEntity
  8
5
  6
PHANTOM
100
AcDbLine
 10
124.157461
 20
173.544522
 30
0.0
 11
154.2435189999999
 21
184.884781
 31
0.0
  0
LINE
  5
B657
330
B3B2
100
AcDbEntity
  8
5
  6
PHANTOM
100
AcDbLine
 10
123.3462419999999
 20
175.6967119999999
 30
0.0
 11
152.616002
 21
186.729286
 31
0.0
  0
LINE
  5
B658
330
B3B2
100
AcDbEntity
  8
5
  6
PHANTOM
100
AcDbLine
 10
123.3462419999999
 20
175.6967119999999
 30
0.0
 11
127.694703
 21
164.1601089999998
 31
0.0
  0
LINE
  5
B659
330
B3B2
100
AcDbEntity
  8
1
  6
Continuous
100
AcDbLine
 10
125.725831
 20
188.79888
 30
0.0
 11
125.725831
 21
176.469958
 31
0.0
  0
ARC
  5
B65A
330
B3B2
100
AcDbEntity
  8
5
  6
PHANTOM
100
AcDbCircle
 10
141.6817729999999
 20
171.3932589999998
 30
0.0
 40
4.0
100
AcDbArc
 50
290.56905
 51
21.000022
  0
ARC
  5
B65B
330
B3B2
100
AcDbEntity
  8
1
  6
Continuous
100
AcDbCircle
 10
154.561725
 20
618.7222419999999
 30
0.0
 40
454.57263
100
AcDbArc
 50
267.8198899999999
 51
270.4550699999999
  0
ARC
  5
B65C
330
B3B2
100
AcDbEntity
  8
5
  6
PHANTOM
100
AcDbCircle
 10
-1.306742
 20
588.161546
 30
0.0
 40
454.57263
100
AcDbArc
 50
288.47269
 51
291.10787
  0
LINE
  5
B65D
330
B3B2
100
AcDbEntity
  8
1
  6
Continuous
100
AcDbLine
 10
150.827806
 20
179.079845
 30
0.0
 11
147.562082
 21
179.598139
 31
0.0
  0
LINE
  5
B65E
330
B3B2
100
AcDbEntity
  8
1
  6
Continuous
100
AcDbLine
 10
151.5725299999998
 20
183.772298
 30
0.0
 11
148.30681
 21
184.2905919999998
 31
0.0
  0
LINE
  5
B65F
330
B3B2
100
AcDbEntity
  8
5
  6
PHANTOM
100
AcDbLine
 10
149.304796
 20
180.1094009999999
 30
0.0
 11
146.066144
 21
179.4425539999998
 31
0.0
  0
LINE
  5
B660
330
B3B2
100
AcDbEntity
  8
5
  6
PHANTOM
100
AcDbLine
 10
150.26298
 20
175.455841
 30
0.0
 11
147.024323
 21
174.788993
 31
0.0
  0
LINE
  5
B661
330
B3B2
100
AcDbEntity
  8
1
  6
Continuous
100
AcDbLine
 10
145.365106
 20
186.498881
 30
0.0
 11
145.365106
 21
178.3292109999999
 31
0.0
  0
LINE
  5
B662
330
B3B2
100
AcDbEntity
  8
1
  6
Continuous
100
AcDbLine
 10
148.30681
 20
184.2905919999998
 30
0.0
 11
147.562082
 21
179.598139
 31
0.0
  0
ARC
  5
B663
330
B3B2
100
AcDbEntity
  8
1
  6
Continuous
100
AcDbCircle
 10
137.8213889999998
 20
181.2416059999999
 30
0.0
 40
2.0
100
AcDbArc
 50
270.0
 51
0.0
  0
LINE
  5
B664
330
B3B2
100
AcDbEntity
  8
1
  6
Continuous
100
AcDbLine
 10
139.8213889999998
 20
186.498881
 30
0.0
 11
139.8213889999998
 21
181.2416059999999
 31
0.0
  0
LINE
  5
B665
330
B3B2
100
AcDbEntity
  8
1
  6
Continuous
100
AcDbLine
 10
142.7258389999998
 20
188.79888
 30
0.0
 11
142.7258389999998
 21
186.498881
 31
0.0
  0
LINE
  5
B666
330
B3B2
100
AcDbEntity
  8
5
  6
PHANTOM
100
AcDbLine
 10
139.2537429999999
 20
181.692684
 30
0.0
 11
140.064962
 21
179.5404949999999
 31
0.0
  0
ARC
  5
B667
330
B3B2
100
AcDbEntity
  8
5
  6
PHANTOM
100
AcDbCircle
 10
137.329959
 20
172.8912599999999
 30
0.0
 40
2.0
100
AcDbArc
 50
290.6528
 51
20.6528
  0
ARC
  5
B668
330
B3B2
100
AcDbEntity
  8
1
  6
Continuous
100
AcDbCircle
 10
141.365182
 20
178.3049719999999
 30
0.0
 40
4.0
100
AcDbArc
 50
269.9162499999999
 51
0.347222
  0
LINE
  5
B669
330
B3B2
100
AcDbEntity
  8
5
  6
PHANTOM
100
AcDbLine
 10
142.5346159999998
 20
180.4713749999999
 30
0.0
 11
145.4160919999999
 21
172.8267299999999
 31
0.0
  0
LINE
  5
B66A
330
B3B2
100
AcDbEntity
  8
5
  6
PHANTOM
100
AcDbLine
 10
146.066144
 20
179.4425539999998
 30
0.0
 11
147.024323
 21
174.788993
 31
0.0
  0
LINE
  5
B66B
330
B3B2
100
AcDbEntity
  8
5
  6
PHANTOM
100
AcDbLine
 10
137.3471669999998
 20
178.516083
 30
0.0
 11
139.2014289999999
 21
173.5966679999999
 31
0.0
  0
ARC
  5
B66C
330
B3B2
100
AcDbEntity
  8
1
  6
Continuous
100
AcDbCircle
 10
159.6663619999999
 20
184.3422149999999
 30
0.0
 40
2.0
100
AcDbArc
 50
48.84568800000001
 51
83.94838
  0
LINE
  5
B66D
330
B3B2
100
AcDbEntity
  8
1
  6
Continuous
100
AcDbLine
 10
151.5725299999998
 20
183.772298
 30
0.0
 11
150.827806
 21
179.079845
 31
0.0
  0
ARC
  5
B66E
330
B3B2
100
AcDbEntity
  8
5
  6
PHANTOM
100
AcDbCircle
 10
156.6774649999999
 20
183.497419
 30
0.0
 40
2.0
100
AcDbArc
 50
69.49848799999999
 51
104.6011799999998
  0
ARC
  5
B66F
330
B3B2
100
AcDbEntity
  8
5
  6
PHANTOM
100
AcDbCircle
 10
167.7346
 20
141.0519909999998
 30
0.0
 40
45.86199999999998
100
AcDbArc
 50
93.781368
 51
107.107586
  0
ARC
  5
B670
330
B3B2
100
AcDbEntity
  8
5
  6
PHANTOM
100
AcDbCircle
 10
163.197124
 20
158.6572419999999
 30
0.0
 40
30.0
100
AcDbArc
 50
88.78753000000001
 51
110.6528029999999
  0
LINE
  5
B671
330
B3B2
100
AcDbEntity
  8
5
  6
PHANTOM
100
AcDbLine
 10
149.304796
 20
180.1094009999999
 30
0.0
 11
150.26298
 21
175.455841
 31
0.0
  0
LINE
  5
B672
330
B3B2
100
AcDbEntity
  8
1
  6
Continuous
100
AcDbLine
 10
132.725833
 20
265.156948
 30
0.0
 11
140.725841
 21
265.156948
 31
0.0
  0
LINE
  5
B673
330
B3B2
100
AcDbEntity
  8
1
  6
Continuous
100
AcDbLine
 10
142.725841
 20
269.5382649999999
 30
0.0
 11
142.725841
 21
267.156948
 31
0.0
  0
ARC
  5
B674
330
B3B2
100
AcDbEntity
  8
1
  6
Continuous
100
AcDbCircle
 10
143.725841
 20
269.5382649999999
 30
0.0
 40
1.0
100
AcDbArc
 50
90.00000300000001
 51
180.00001
  0
ARC
  5
B675
330
B3B2
100
AcDbEntity
  8
1
  6
Continuous
100
AcDbCircle
 10
140.725841
 20
267.156948
 30
0.0
 40
2.0
100
AcDbArc
 50
270.0
 51
0.0
  0
LINE
  5
B676
330
B3B2
100
AcDbEntity
  8
5
  6
PHANTOM
100
AcDbLine
 10
210.020658
 20
194.9882879999999
 30
0.0
 11
209.5401579999999
 21
186.008451
 31
0.0
  0
LINE
  5
B677
330
B3B2
100
AcDbEntity
  8
5
  6
PHANTOM
100
AcDbLine
 10
192.0463709999999
 20
195.9500689999999
 30
0.0
 11
191.748725
 21
190.387493
 31
0.0
  0
ARC
  5
B678
330
B3B2
100
AcDbEntity
  8
1
  6
Continuous
100
AcDbCircle
 10
244.1984689999999
 20
178.169412
 30
0.0
 40
25.711592
100
AcDbArc
 50
10.21667
 51
24.41908
  0
LINE
  5
B679
330
B3B2
100
AcDbEntity
  8
1
  6
Continuous
100
AcDbLine
 10
267.610055
 20
188.7987719999999
 30
0.0
 11
267.610055
 21
186.4987919999999
 31
0.0
  0
LINE
  5
B67A
330
B3B2
100
AcDbEntity
  8
1
  6
Continuous
100
AcDbLine
 10
262.228739
 20
188.7987719999999
 30
0.0
 11
262.228739
 21
186.4987919999999
 31
0.0
  0
LINE
  5
B67B
330
B3B2
100
AcDbEntity
  8
1
  6
Continuous
100
AcDbLine
 10
198.229327
 20
109.6431139999999
 30
0.0
 11
211.6343259999999
 21
109.6431139999999
 31
0.0
  0
ARC
  5
B67C
330
B3B2
100
AcDbEntity
  8
5
  6
PHANTOM
100
AcDbCircle
 10
200.296399
 20
183.776467
 30
0.0
 40
5.114551999999997
100
AcDbArc
 50
290.4729199999999
 51
110.634149
  0
ARC
  5
B67D
330
B3B2
100
AcDbEntity
  8
1
  6
Continuous
100
AcDbCircle
 10
196.2999749999999
 20
174.073038
 30
0.0
 40
14.982765
100
AcDbArc
 50
279.9655599999999
 51
336.2843
  0
ARC
  5
B67E
330
B3B2
100
AcDbEntity
  8
1
  6
Continuous
100
AcDbCircle
 10
200.5805419999998
 20
169.218752
 30
0.0
 40
5.114551999999997
100
AcDbArc
 50
269.8201199999999
 51
89.98134899999998
  0
LINE
  5
B67F
330
B3B2
100
AcDbEntity
  8
1
  6
Continuous
100
AcDbLine
 10
196.2293239999999
 20
181.414062
 30
0.0
 11
212.709268
 21
174.174485
 31
0.0
  0
LINE
  5
B680
330
B3B2
100
AcDbEntity
  8
1
  6
Continuous
100
AcDbLine
 10
197.1543819999999
 20
183.5198359999999
 30
0.0
 11
213.6343259999999
 21
176.2802579999998
 31
0.0
  0
ARC
  5
B681
330
B3B2
100
AcDbEntity
  8
5
  6
PHANTOM
100
AcDbCircle
 10
194.5787969999998
 20
186.8090179999999
 30
0.0
 40
14.982765
100
AcDbArc
 50
300.6183599999999
 51
356.9370999999999
  0
ARC
  5
B682
330
B3B2
100
AcDbEntity
  8
1
  6
Continuous
100
AcDbCircle
 10
185.6624629999998
 20
169.2445999999999
 30
0.0
 40
5.093562
100
AcDbArc
 50
89.98134899999998
 51
269.8201199999999
  0
ARC
  5
B683
330
B3B2
100
AcDbEntity
  8
5
  6
PHANTOM
100
AcDbCircle
 10
151.3504859999999
 20
259.8506489999999
 30
0.0
 40
99.857773
100
AcDbArc
 50
294.77256
 51
300.6183599999999
  0
ARC
  5
B684
330
B3B2
100
AcDbEntity
  8
1
  6
Continuous
100
AcDbCircle
 10
185.840449
 20
198.958978
 30
0.0
 40
40.997215
100
AcDbArc
 50
244.5652799999999
 51
274.11976
  0
ARC
  5
B685
330
B3B2
100
AcDbEntity
  8
5
  6
PHANTOM
100
AcDbCircle
 10
176.01408
 20
206.4065429999998
 30
0.0
 40
40.997215
100
AcDbArc
 50
265.21808
 51
294.77256
  0
ARC
  5
B686
330
B3B2
100
AcDbEntity
  8
1
  6
Continuous
100
AcDbCircle
 10
181.61182
 20
257.667444
 30
0.0
 40
99.857773
100
AcDbArc
 50
274.11976
 51
279.9655599999999
  0
LINE
  5
B687
330
B3B2
100
AcDbEntity
  8
1
  6
Continuous
100
AcDbLine
 10
185.646474
 20
164.15106
 30
0.0
 11
200.56448
 21
164.104225
 31
0.0
  0
LINE
  5
B688
330
B3B2
100
AcDbEntity
  8
1
  6
Continuous
100
AcDbLine
 10
185.2327159999999
 20
178.16951
 30
0.0
 11
184.401958
 21
177.750471
 31
0.0
  0
LINE
  5
B689
330
B3B2
100
AcDbEntity
  8
5
  6
PHANTOM
100
AcDbLine
 10
182.777931
 20
186.7387629999998
 30
0.0
 11
187.0250049999999
 21
188.339602
 31
0.0
  0
LINE
  5
B68A
330
B3B2
100
AcDbEntity
  8
5
  6
PHANTOM
100
AcDbLine
 10
184.5329449999999
 20
183.305787
 30
0.0
 11
198.4940359999999
 21
188.5629139999998
 31
0.0
  0
ARC
  5
B68B
330
B3B2
100
AcDbEntity
  8
5
  6
PHANTOM
100
AcDbCircle
 10
186.3279149999999
 20
178.5389859999999
 30
0.0
 40
5.093562
100
AcDbArc
 50
110.634149
 51
290.4729199999999
  0
LINE
  5
B68C
330
B3B2
100
AcDbEntity
  8
5
  6
PHANTOM
100
AcDbLine
 10
182.777933
 20
186.738762
 30
0.0
 11
182.14836
 21
186.0536409999999
 31
0.0
  0
ARC
  5
B68D
330
B3B2
100
AcDbEntity
  8
1
  6
Continuous
100
AcDbCircle
 10
163.107089
 20
167.3168809999999
 30
0.0
 40
18.073711
100
AcDbArc
 50
36.366557
 51
73.128568
  0
ARC
  5
B68E
330
B3B2
100
AcDbEntity
  8
1
  6
Continuous
100
AcDbCircle
 10
159.9479629999999
 20
166.130579
 30
0.0
 40
22.099991
100
AcDbArc
 50
33.36263999999999
 51
68.13473000000001
  0
LINE
  5
B68F
330
B3B2
100
AcDbEntity
  8
5
  6
PHANTOM
100
AcDbLine
 10
179.761089
 20
185.2665639999999
 30
0.0
 11
176.3495179999999
 21
184.4382429999998
 31
0.0
  0
LINE
  5
B690
330
B3B2
100
AcDbEntity
  8
1
  6
Continuous
100
AcDbLine
 10
177.6607669999999
 20
178.0336729999999
 30
0.0
 11
184.40196
 21
177.750471
 31
0.0
  0
LINE
  5
B691
330
B3B2
100
AcDbEntity
  8
1
  6
Continuous
100
AcDbLine
 10
181.890499
 20
177.855976
 30
0.0
 11
178.4060199999999
 21
178.2841629999999
 31
0.0
  0
LINE
  5
B692
330
B3B2
100
AcDbEntity
  8
5
  6
PHANTOM
100
AcDbLine
 10
175.740507
 20
183.940997
 30
0.0
 11
182.1483629999999
 21
186.0536409999999
 31
0.0
  0
LINE
  5
B693
330
B3B2
100
AcDbEntity
  8
1
  6
Continuous
100
AcDbLine
 10
197.1543819999999
 20
183.5198359999999
 30
0.0
 11
194.913921
 21
178.4197199999999
 31
0.0
  0
ARC
  5
B694
330
B3B2
100
AcDbEntity
  8
1
  6
Continuous
100
AcDbCircle
 10
193.9983699999999
 20
178.821925
 30
0.0
 40
1.0
100
AcDbArc
 50
270.0
 51
336.2843
  0
LINE
  5
B695
330
B3B2
100
AcDbEntity
  8
1
  6
Continuous
100
AcDbLine
 10
185.2327149999999
 20
178.169512
 30
0.0
 11
189.7714719999999
 21
178.169512
 31
0.0
  0
LINE
  5
B696
330
B3B2
100
AcDbEntity
  8
1
  6
Continuous
100
AcDbLine
 10
189.7714729999999
 20
178.16951
 30
0.0
 11
190.593074
 21
177.821924
 31
0.0
  0
LINE
  5
B697
330
B3B2
100
AcDbEntity
  8
1
  6
Continuous
100
AcDbLine
 10
190.593074
 20
177.821925
 30
0.0
 11
193.9983699999999
 21
177.821925
 31
0.0
  0
ARC
  5
B698
330
B3B2
100
AcDbEntity
  8
5
  6
PHANTOM
100
AcDbCircle
 10
190.750152
 20
190.440931
 30
0.0
 40
1.0
100
AcDbArc
 50
290.6528
 51
356.9370999999999
  0
LINE
  5
B699
330
B3B2
100
AcDbEntity
  8
5
  6
PHANTOM
100
AcDbLine
 10
187.025006
 20
188.3395999999999
 30
0.0
 11
187.916402
 21
188.304133
 31
0.0
  0
LINE
  5
B69A
330
B3B2
100
AcDbEntity
  8
5
  6
PHANTOM
100
AcDbLine
 10
187.916402
 20
188.304134
 30
0.0
 11
191.102856
 21
189.5051959999999
 31
0.0
  0
LINE
  5
B69B
330
B3B2
100
AcDbEntity
  8
1
  6
Continuous
100
AcDbLine
 10
185.664118
 20
174.3381559999999
 30
0.0
 11
200.582207
 21
174.3332979999999
 31
0.0
  0
LINE
  5
B69C
330
B3B2
100
AcDbEntity
  8
5
  6
PHANTOM
100
AcDbLine
 10
188.109466
 20
173.7671439999998
 30
0.0
 11
202.0852839999998
 21
178.984961
 31
0.0
  0
LINE
  5
B69D
330
B3B2
100
AcDbEntity
  8
1
  6
Continuous
100
AcDbLine
 10
213.6343259999999
 20
176.2802579999998
 30
0.0
 11
210.01748
 21
168.046985
 31
0.0
  0
LINE
  5
B69E
330
B3B2
100
AcDbEntity
  8
1
  6
Continuous
100
AcDbLine
 10
277.9287389999999
 20
170.3827409999998
 30
0.0
 11
277.9287389999999
 21
164.1495119999999
 31
0.0
  0
LINE
  5
B69F
330
B3B2
100
AcDbEntity
  8
1
  6
Continuous
100
AcDbLine
 10
266.8100559999999
 20
174.174382
 30
0.0
 11
266.8100559999999
 21
164.9041219999998
 31
0.0
  0
LINE
  5
B6A0
330
B3B2
100
AcDbEntity
  8
1
  6
Continuous
100
AcDbLine
 10
267.610055
 20
173.174382
 30
0.0
 11
267.610055
 21
157.809572
 31
0.0
  0
LINE
  5
B6A1
330
B3B2
100
AcDbEntity
  8
1
  6
Continuous
100
AcDbLine
 10
269.910058
 20
181.5197219999998
 30
0.0
 11
269.910058
 21
157.809572
 31
0.0
  0
LINE
  5
B6A2
330
B3B2
100
AcDbEntity
  8
1
  6
Continuous
100
AcDbLine
 10
269.910058
 20
157.809572
 30
0.0
 11
267.610055
 21
157.809572
 31
0.0
  0
ARC
  5
B6A3
330
B3B2
100
AcDbEntity
  8
1
  6
Continuous
100
AcDbCircle
 10
267.610055
 20
164.9041219999998
 30
0.0
 40
0.8
100
AcDbArc
 50
180.0000029999999
 51
269.9999899999999
  0
ARC
  5
B6A4
330
B3B2
100
AcDbEntity
  8
1
  6
Continuous
100
AcDbCircle
 10
277.4756889999998
 20
162.2014919999998
 30
0.0
 40
2.0
100
AcDbArc
 50
76.90743999999998
 51
135.754696
  0
ARC
  5
B6A5
330
B3B2
100
AcDbEntity
  8
1
  6
Continuous
100
AcDbCircle
 10
268.8793779999999
 20
170.574272
 30
0.0
 40
10.0
100
AcDbArc
 50
275.9158699999999
 51
315.7546899999999
  0
ARC
  5
B6A6
330
B3B2
100
AcDbEntity
  8
1
  6
Continuous
100
AcDbCircle
 10
267.910058
 20
174.2801619999999
 30
0.0
 40
2.0
100
AcDbArc
 50
0.0
 51
90.00000300000001
  0
ARC
  5
B6A7
330
B3B2
100
AcDbEntity
  8
1
  6
Continuous
100
AcDbCircle
 10
267.910058
 20
181.5197219999998
 30
0.0
 40
2.0
100
AcDbArc
 50
0.0
 51
90.00000300000001
  0
ARC
  5
B6A8
330
B3B2
100
AcDbEntity
  8
1
  6
Continuous
100
AcDbCircle
 10
244.1984689999999
 20
175.8694219999999
 30
0.0
 40
25.711592
100
AcDbArc
 50
16.80985
 51
24.41908
  0
ARC
  5
B6A9
330
B3B2
100
AcDbEntity
  8
1
  6
Continuous
100
AcDbCircle
 10
266.6100549999999
 20
173.174382
 30
0.0
 40
1.0
100
AcDbArc
 50
0.0
 51
90.00000300000001
  0
ARC
  5
B6AA
330
B3B2
100
AcDbEntity
  8
1
  6
Continuous
100
AcDbCircle
 10
256.159632
 20
175.174382
 30
0.0
 40
1.0
100
AcDbArc
 50
180.0000029999999
 51
269.9999899999999
  0
ARC
  5
B6AB
330
B3B2
100
AcDbEntity
  8
1
  6
Continuous
100
AcDbCircle
 10
256.159632
 20
177.2801619999999
 30
0.0
 40
1.0
100
AcDbArc
 50
180.0000029999999
 51
269.9999899999999
  0
ARC
  5
B6AC
330
B3B2
100
AcDbEntity
  8
1
  6
Continuous
100
AcDbCircle
 10
256.159632
 20
182.5197219999998
 30
0.0
 40
1.0
100
AcDbArc
 50
90.00000300000001
 51
180.0000029999999
  0
LINE
  5
B6AD
330
B3B2
100
AcDbEntity
  8
1
  6
Continuous
100
AcDbLine
 10
267.610055
 20
186.4987919999999
 30
0.0
 11
262.228739
 21
186.4987919999999
 31
0.0
  0
LINE
  5
B6AE
330
B3B2
100
AcDbEntity
  8
1
  6
Continuous
100
AcDbLine
 10
266.6100549999999
 20
174.174382
 30
0.0
 11
256.159632
 21
174.174382
 31
0.0
  0
LINE
  5
B6AF
330
B3B2
100
AcDbEntity
  8
1
  6
Continuous
100
AcDbLine
 10
267.910058
 20
176.2801619999999
 30
0.0
 11
256.159632
 21
176.2801619999999
 31
0.0
  0
LINE
  5
B6B0
330
B3B2
100
AcDbEntity
  8
1
  6
Continuous
100
AcDbLine
 10
267.910058
 20
183.5197219999998
 30
0.0
 11
256.159632
 21
183.5197219999998
 31
0.0
  0
LINE
  5
B6B1
330
B3B2
100
AcDbEntity
  8
1
  6
Continuous
100
AcDbLine
 10
255.1596319999999
 20
182.5197219999998
 30
0.0
 11
255.1596319999999
 21
175.174382
 31
0.0
  0
LINE
  5
B6B2
330
B3B2
100
AcDbEntity
  8
1
  6
Continuous
100
AcDbLine
 10
275.313669
 20
175.869412
 30
0.0
 11
269.910058
 21
175.869412
 31
0.0
  0
LINE
  5
B6B3
330
B3B2
100
AcDbEntity
  8
1
  6
Continuous
100
AcDbLine
 10
275.313669
 20
178.169412
 30
0.0
 11
275.313669
 21
175.869412
 31
0.0
  0
LINE
  5
B6B4
330
B3B2
100
AcDbEntity
  8
1
  6
Continuous
100
AcDbLine
 10
275.313669
 20
178.169412
 30
0.0
 11
269.910058
 21
178.169412
 31
0.0
  0
LINE
  5
B6B5
330
B3B2
100
AcDbEntity
  8
5
  6
PHANTOM
100
AcDbLine
 10
191.9234769999999
 20
193.653352
 30
0.0
 11
209.897764
 21
192.691571
 31
0.0
  0
LINE
  5
B6B6
330
B3B2
100
AcDbEntity
  8
5
  6
PHANTOM
100
AcDbLine
 10
192.0463709999999
 20
195.9500689999999
 30
0.0
 11
210.020658
 21
194.9882879999999
 31
0.0
  0
LINE
  5
B6B7
330
B3B2
100
AcDbEntity
  8
1
  6
Continuous
100
AcDbLine
 10
198.229328
 20
258.087841
 30
0.0
 11
211.6343259999999
 21
258.087841
 31
0.0
  0
LINE
  5
B6B8
330
B3B2
100
AcDbEntity
  8
1
  6
Continuous
100
AcDbLine
 10
196.229328
 20
270.5382649999999
 30
0.0
 11
196.229328
 21
260.087841
 31
0.0
  0
ARC
  5
B6B9
330
B3B2
100
AcDbEntity
  8
1
  6
Continuous
100
AcDbCircle
 10
198.229328
 20
260.087841
 30
0.0
 40
2.0
100
AcDbArc
 50
179.9999899999999
 51
270.0
  0
LINE
  5
B6BA
330
B3B2
100
AcDbEntity
  8
1
  6
Continuous
100
AcDbLine
 10
212.70927
 20
269.5382649999999
 30
0.0
 11
212.70927
 21
260.087841
 31
0.0
  0
LINE
  5
B6BB
330
B3B2
100
AcDbEntity
  8
1
  6
Continuous
100
AcDbLine
 10
213.6343259999999
 20
270.838268
 30
0.0
 11
213.6343259999999
 21
260.087841
 31
0.0
  0
ARC
  5
B6BC
330
B3B2
100
AcDbEntity
  8
1
  6
Continuous
100
AcDbCircle
 10
210.70927
 20
260.087841
 30
0.0
 40
2.0
100
AcDbArc
 50
270.0
 51
0.0
  0
ARC
  5
B6BD
330
B3B2
100
AcDbEntity
  8
1
  6
Continuous
100
AcDbCircle
 10
211.6343259999999
 20
260.087841
 30
0.0
 40
2.0
100
AcDbArc
 50
270.0
 51
0.0
  0
ARC
  5
B6BE
330
B3B2
100
AcDbEntity
  8
1
  6
Continuous
100
AcDbCircle
 10
211.70927
 20
269.5382649999999
 30
0.0
 40
1.0
100
AcDbArc
 50
0.0
 51
90.00000300000001
  0
LINE
  5
B6BF
330
B3B2
100
AcDbEntity
  8
1
  6
Continuous
100
AcDbLine
 10
271.2508049999998
 20
188.7987719999999
 30
0.0
 11
262.228739
 21
188.7987719999999
 31
0.0
  0
LINE
  5
B6C0
330
B3B2
100
AcDbEntity
  8
1
  6
Continuous
100
AcDbLine
 10
146.053699
 20
279.470638
 30
0.0
 11
150.490146
 21
279.470638
 31
0.0
  0
LINE
  5
B6C1
330
B3B2
100
AcDbEntity
  8
1
  6
Continuous
100
AcDbLine
 10
125.7258329999999
 20
283.156948
 30
0.0
 11
139.096729
 21
283.156948
 31
0.0
  0
ARC
  5
B6C2
330
B3B2
100
AcDbEntity
  8
1
  6
Continuous
100
AcDbCircle
 10
143.6135289999998
 20
218.412262
 30
0.0
 40
67.237015
100
AcDbArc
 50
91.843204
 51
105.3859499999998
  0
ARC
  5
B6C3
330
B3B2
100
AcDbEntity
  8
1
  6
Continuous
100
AcDbCircle
 10
143.6135289999998
 20
218.412262
 30
0.0
 40
66.73701499999999
100
AcDbArc
 50
91.843204
 51
104.0352699999999
  0
LINE
  5
B6C4
330
B3B2
100
AcDbEntity
  8
1
  6
Continuous
100
AcDbLine
 10
125.7258329999999
 20
283.156948
 30
0.0
 11
125.7258329999999
 21
272.1569479999998
 31
0.0
  0
LINE
  5
B6C5
330
B3B2
100
AcDbEntity
  8
1
  6
Continuous
100
AcDbLine
 10
134.4991449999999
 20
283.678074
 30
0.0
 11
134.218711
 21
283.1569549999999
 31
0.0
  0
LINE
  5
B6C6
330
B3B2
100
AcDbEntity
  8
1
  6
Continuous
100
AcDbLine
 10
125.796951
 20
283.1569549999999
 30
0.0
 11
125.774227
 21
283.2395359999998
 31
0.0
  0
ARC
  5
B6C7
330
B3B2
100
AcDbEntity
  8
1
  6
Continuous
100
AcDbCircle
 10
136.260333
 20
282.730312
 30
0.0
 40
2.0
100
AcDbArc
 50
96.522055
 51
151.7138099999999
  0
LINE
  5
B6C8
330
B3B2
100
AcDbEntity
  8
1
  6
Continuous
100
AcDbLine
 10
147.5620839999999
 20
281.470638
 30
0.0
 11
147.5620839999999
 21
279.470638
 31
0.0
  0
LINE
  5
B6C9
330
B3B2
100
AcDbEntity
  8
1
  6
Continuous
100
AcDbLine
 10
147.5620839999999
 20
281.470638
 30
0.0
 11
150.490146
 21
281.470638
 31
0.0
  0
ARC
  5
B6CA
330
B3B2
100
AcDbEntity
  8
1
  6
Continuous
100
AcDbCircle
 10
140.229358
 20
224.243484
 30
0.0
 40
61.383167
100
AcDbArc
 50
80.377285
 51
88.85932699999997
  0
ARC
  5
B6CB
330
B3B2
100
AcDbEntity
  8
1
  6
Continuous
100
AcDbCircle
 10
131.428928
 20
266.7012899999999
 30
0.0
 40
18.785038
100
AcDbArc
 50
45.28181799999997
 51
56.203769
  0
ARC
  5
B6CC
330
B3B2
100
AcDbEntity
  8
1
  6
Continuous
100
AcDbCircle
 10
139.096729
 20
278.1569479999999
 30
0.0
 40
5.0
100
AcDbArc
 50
56.203769
 51
90.00000300000001
  0
ARC
  5
B6CD
330
B3B2
100
AcDbEntity
  8
1
  6
Continuous
100
AcDbCircle
 10
146.053699
 20
281.470638
 30
0.0
 40
2.0
100
AcDbArc
 50
225.2818099999998
 51
270.0
  0
ARC
  5
B6CE
330
B3B2
100
AcDbEntity
  8
1
  6
Continuous
100
AcDbCircle
 10
140.229358
 20
224.243484
 30
0.0
 40
60.883167
100
AcDbArc
 50
80.29749800000002
 51
88.85932699999997
  0
ARC
  5
B6CF
330
B3B2
100
AcDbEntity
  8
1
  6
Continuous
100
AcDbCircle
 10
142.81171
 20
267.9618489999999
 30
0.0
 40
17.088612
100
AcDbArc
 50
67.091835
 51
86.619585
  0
ARC
  5
B6D0
330
B3B2
100
AcDbEntity
  8
1
  6
Continuous
100
AcDbCircle
 10
147.517268
 20
279.0970259999999
 30
0.0
 40
5.0
100
AcDbArc
 50
53.517617
 51
67.091835
  0
LINE
  5
B6D1
330
B3B2
100
AcDbEntity
  8
1
  6
Continuous
100
AcDbLine
 10
157.143033
 20
283.4561249999998
 30
0.0
 11
156.465976
 21
283.4633289999998
 31
0.0
  0
ARC
  5
B6D2
330
B3B2
100
AcDbEntity
  8
1
  6
Continuous
100
AcDbCircle
 10
198.155812
 20
298.9206459999999
 30
0.0
 40
43.83148900000001
100
AcDbArc
 50
200.1606489999999
 51
203.923978
  0
LINE
  5
B6D3
330
B3B2
100
AcDbEntity
  8
1
  6
Continuous
100
AcDbLine
 10
161.734791
 20
281.107142
 30
0.0
 11
155.250204
 21
281.1761329999999
 31
0.0
  0
LINE
  5
B6D4
330
B3B2
100
AcDbEntity
  8
1
  6
Continuous
100
AcDbLine
 10
156.490146
 20
283.463072
 30
0.0
 11
156.490146
 21
283.4823839999998
 31
0.0
  0
LINE
  5
B6D5
330
B3B2
100
AcDbEntity
  8
1
  6
Continuous
100
AcDbLine
 10
157.143033
 20
314.385168
 30
0.0
 11
156.465976
 21
314.377964
 31
0.0
  0
ARC
  5
B6D6
330
B3B2
100
AcDbEntity
  8
1
  6
Continuous
100
AcDbCircle
 10
198.155812
 20
298.9206459999999
 30
0.0
 40
43.83148900000001
100
AcDbArc
 50
156.0760219999998
 51
159.839351
  0
LINE
  5
B6D7
330
B3B2
100
AcDbEntity
  8
1
  6
Continuous
100
AcDbLine
 10
156.490146
 20
314.3589089999999
 30
0.0
 11
156.490146
 21
314.3782209999999
 31
0.0
  0
LINE
  5
B6D8
330
B3B2
100
AcDbEntity
  8
1
  6
Continuous
100
AcDbLine
 10
155.997545
 20
319.0061769999999
 30
0.0
 11
160.9827479999998
 21
319.0061769999999
 31
0.0
  0
LINE
  5
B6D9
330
B3B2
100
AcDbEntity
  8
1
  6
Continuous
100
AcDbLine
 10
161.734791
 20
316.7341509999999
 30
0.0
 11
155.250204
 21
316.6651589999998
 31
0.0
  0
LINE
  5
B6DA
330
B3B2
100
AcDbEntity
  8
4
  6
CENTER
100
AcDbLine
 10
379.494736
 20
216.917417
 30
0.0
 11
379.494736
 21
229.2177
 31
0.0
  0
LINE
  5
B6DB
330
B3B2
100
AcDbEntity
  8
4
  6
CENTER
100
AcDbLine
 10
433.494736
 20
216.917417
 30
0.0
 11
433.494736
 21
229.2177
 31
0.0
  0
LINE
  5
B6DC
330
B3B2
100
AcDbEntity
  8
4
  6
CENTER
100
AcDbLine
 10
406.4947359999998
 20
202.215713
 30
0.0
 11
406.4947359999998
 21
229.2177
 31
0.0
  0
ARC
  5
B6DD
330
B3B2
100
AcDbEntity
  8
1
  6
Continuous
100
AcDbCircle
 10
429.22085
 20
217.2349639999999
 30
0.0
 40
0.9569799999999998
100
AcDbArc
 50
24.04026499999999
 51
73.98808699999998
  0
ARC
  5
B6DE
330
B3B2
100
AcDbEntity
  8
1
  6
Continuous
100
AcDbCircle
 10
383.768623
 20
217.2349639999999
 30
0.0
 40
0.9569799999999998
100
AcDbArc
 50
106.011913
 51
155.9597349999999
  0
LINE
  5
B6DF
330
B3B2
100
AcDbEntity
  8
5
  6
PHANTOM
100
AcDbLine
 10
399.9385119999999
 20
195.9500689999999
 30
0.0
 11
381.964225
 21
194.9882879999999
 31
0.0
  0
LINE
  5
B6E0
330
B3B2
100
AcDbEntity
  8
5
  6
PHANTOM
100
AcDbLine
 10
399.998759
 20
175.214479
 30
0.0
 11
389.899599
 21
178.984961
 31
0.0
  0
LINE
  5
B6E1
330
B3B2
100
AcDbEntity
  8
1
  6
Continuous
100
AcDbLine
 10
400.025057
 20
174.3361059999998
 30
0.0
 11
391.402675
 21
174.3332979999999
 31
0.0
  0
ARC
  5
B6E2
330
B3B2
100
AcDbEntity
  8
1
  6
Continuous
100
AcDbCircle
 10
397.986513
 20
178.821925
 30
0.0
 40
1.0
100
AcDbArc
 50
203.7157
 51
270.0
  0
LINE
  5
B6E3
330
B3B2
100
AcDbEntity
  8
5
  6
PHANTOM
100
AcDbLine
 10
401.560101
 20
185.5243909999998
 30
0.0
 11
393.4908469999998
 21
188.5629139999998
 31
0.0
  0
LINE
  5
B6E4
330
B3B2
100
AcDbEntity
  8
1
  6
Continuous
100
AcDbLine
 10
402.2004039999997
 20
164.138069
 30
0.0
 11
391.420402
 21
164.104225
 31
0.0
  0
ARC
  5
B6E5
330
B3B2
100
AcDbEntity
  8
1
  6
Continuous
100
AcDbCircle
 10
410.373063
 20
257.667444
 30
0.0
 40
99.857773
100
AcDbArc
 50
260.03444
 51
265.88024
  0
ARC
  5
B6E6
330
B3B2
100
AcDbEntity
  8
5
  6
PHANTOM
100
AcDbCircle
 10
440.6343969999999
 20
259.8506489999999
 30
0.0
 40
99.857773
100
AcDbArc
 50
239.3816399999999
 51
245.22744
  0
LINE
  5
B6E7
330
B3B2
100
AcDbEntity
  8
1
  6
Continuous
100
AcDbLine
 10
394.2544559999999
 20
205.6393019999999
 30
0.0
 11
398.2761479999999
 21
205.6393019999999
 31
0.0
  0
ARC
  5
B6E8
330
B3B2
100
AcDbEntity
  8
1
  6
Continuous
100
AcDbCircle
 10
389.762521
 20
194.23831
 30
0.0
 40
14.229
100
AcDbArc
 50
46.49942699999999
 51
90.0
  0
LINE
  5
B6E9
330
B3B2
100
AcDbEntity
  8
4
  6
CENTER
100
AcDbLine
 10
394.9947359999999
 20
175.717882
 30
0.0
 11
467.9947359999999
 21
175.717882
 31
0.0
  0
LINE
  5
B6EA
330
B3B2
100
AcDbEntity
  8
1
  6
Continuous
100
AcDbLine
 10
396.0094549999998
 20
215.179556
 30
0.0
 11
398.009455
 21
216.6725559999999
 31
0.0
  0
LINE
  5
B6EB
330
B3B2
100
AcDbEntity
  8
1
  6
Continuous
100
AcDbLine
 10
397.423668
 20
215.179556
 30
0.0
 11
399.423668
 21
216.6725559999999
 31
0.0
  0
LINE
  5
B6EC
330
B3B2
100
AcDbEntity
  8
1
  6
Continuous
100
AcDbLine
 10
429.494736
 20
215.179556
 30
0.0
 11
383.494736
 21
215.179556
 31
0.0
  0
LINE
  5
B6ED
330
B3B2
100
AcDbEntity
  8
1
  6
Continuous
100
AcDbLine
 10
383.494736
 20
216.6725559999999
 30
0.0
 11
429.494736
 21
216.6725559999999
 31
0.0
  0
ARC
  5
B6EE
330
B3B2
100
AcDbEntity
  8
1
  6
Continuous
100
AcDbCircle
 10
406.1444329999998
 20
198.958978
 30
0.0
 40
40.997215
100
AcDbArc
 50
265.88024
 51
269.060652
  0
ARC
  5
B6EF
330
B3B2
100
AcDbEntity
  8
5
  6
PHANTOM
100
AcDbCircle
 10
453.061353
 20
168.392561
 30
0.0
 40
12.0
100
AcDbArc
 50
288.304238
 51
339.34721
  0
ARC
  5
B6F0
330
B3B2
100
AcDbEntity
  8
1
  6
Continuous
100
AcDbCircle
 10
431.4947359999998
 20
175.717882
 30
0.0
 40
24.5
100
AcDbArc
 50
150.538078
 51
77.80371600000002
  0
ARC
  5
B6F1
330
B3B2
100
AcDbEntity
  8
1
  6
Continuous
100
AcDbCircle
 10
431.4947359999998
 20
175.717882
 30
0.0
 40
31.5
100
AcDbArc
 50
143.80463
 51
83.38217299999998
  0
LINE
  5
B6F2
330
B3B2
100
AcDbEntity
  8
4
  6
CENTER
100
AcDbLine
 10
431.4947359999998
 20
139.217882
 30
0.0
 11
431.4947359999998
 21
207.891468
 31
0.0
  0
LINE
  5
B6F3
330
B3B2
100
AcDbEntity
  8
5
  6
PHANTOM
100
AcDbLine
 10
468.6386409999998
 20
175.6967119999999
 30
0.0
 11
462.922407
 21
177.851317
 31
0.0
  0
ARC
  5
B6F4
330
B3B2
100
AcDbEntity
  8
1
  6
Continuous
100
AcDbCircle
 10
454.2590429999998
 20
176.469958
 30
0.0
 40
12.0
100
AcDbArc
 50
308.957038
 51
0.00001
  0
LINE
  5
B6F5
330
B3B2
100
AcDbEntity
  8
5
  6
PHANTOM
100
AcDbLine
 10
465.267753
 20
166.7536399999999
 30
0.0
 11
462.028215
 21
167.974711
 31
0.0
  0
LINE
  5
B6F6
330
B3B2
100
AcDbEntity
  8
5
  6
PHANTOM
100
AcDbLine
 10
463.111313
 20
162.290782
 30
0.0
 11
460.4423799999998
 21
163.2967749999999
 31
0.0
  0
LINE
  5
B6F7
330
B3B2
100
AcDbEntity
  8
1
  6
Continuous
100
AcDbLine
 10
466.062129
 20
174.3049719999999
 30
0.0
 11
465.1124849999998
 21
174.3049719999999
 31
0.0
  0
LINE
  5
B6F8
330
B3B2
100
AcDbEntity
  8
1
  6
Continuous
100
AcDbLine
 10
466.259051
 20
188.79888
 30
0.0
 11
460.150233
 21
188.79888
 31
0.0
  0
LINE
  5
B6F9
330
B3B2
100
AcDbEntity
  8
1
  6
Continuous
100
AcDbLine
 10
466.259051
 20
179.24161
 30
0.0
 11
462.7970259999998
 21
179.24161
 31
0.0
  0
LINE
  5
B6FA
330
B3B2
100
AcDbEntity
  8
1
  6
Continuous
100
AcDbLine
 10
466.259051
 20
188.79888
 30
0.0
 11
466.259051
 21
176.469958
 31
0.0
  0
LINE
  5
B6FB
330
B3B2
100
AcDbEntity
  8
5
  6
PHANTOM
100
AcDbLine
 10
468.6386409999998
 20
175.6967119999999
 30
0.0
 11
464.290179
 21
164.1601089999998
 31
0.0
  0
LINE
  5
B6FC
330
B3B2
100
AcDbEntity
  8
1
  6
Continuous
100
AcDbLine
 10
400.303316
 20
203.5662129999999
 30
0.0
 11
421.2403169999998
 21
170.0189799999999
 31
0.0
  0
LINE
  5
B6FD
330
B3B2
100
AcDbEntity
  8
1
  6
Continuous
100
AcDbLine
 10
433.8947479999998
 20
212.852656
 30
0.0
 11
441.061286
 21
178.8057659999998
 31
0.0
  0
ARC
  5
B6FE
330
B3B2
100
AcDbEntity
  8
1
  6
Continuous
100
AcDbCircle
 10
430.394736
 20
176.117882
 30
0.0
 40
11.0
100
AcDbArc
 50
213.672541
 51
14.14360199999999
  0
LINE
  5
B6FF
330
B3B2
100
AcDbEntity
  8
1
  6
Continuous
100
AcDbLine
 10
400.065085
 20
177.821925
 30
0.0
 11
397.986513
 21
177.821925
 31
0.0
  0
ARC
  5
B700
330
B3B2
100
AcDbEntity
  8
5
  6
PHANTOM
100
AcDbCircle
 10
415.970803
 20
206.4065429999998
 30
0.0
 40
40.997215
100
AcDbArc
 50
245.22744
 51
248.4078519999999
  0
LINE
  5
B701
330
B3B2
100
AcDbEntity
  8
1
  6
Continuous
100
AcDbLine
 10
425.1605599999998
 20
212.8770429999999
 30
0.0
 11
436.282595
 21
212.845989
 31
0.0
  0
ARC
  5
B702
330
B3B2
100
AcDbEntity
  8
1
  6
Continuous
100
AcDbCircle
 10
425.8833379999998
 20
219.7050439999999
 30
0.0
 40
4.697225
100
AcDbArc
 50
319.789963
 51
333.713305
  0
ARC
  5
B703
330
B3B2
100
AcDbEntity
  8
1
  6
Continuous
100
AcDbCircle
 10
426.389516
 20
211.2232759999999
 30
0.0
 40
4.224822999999998
100
AcDbArc
 50
31.367901
 51
69.461534
  0
ARC
  5
B704
330
B3B2
100
AcDbEntity
  8
1
  6
Continuous
100
AcDbCircle
 10
469.4421059999998
 20
213.0080229999999
 30
0.0
 40
31.82178
100
AcDbArc
 50
180.882972
 51
182.8814939999999
  0
ARC
  5
B705
330
B3B2
100
AcDbEntity
  8
1
  6
Continuous
100
AcDbCircle
 10
450.6470809999998
 20
209.431971
 30
0.0
 40
13.13604599999999
100
AcDbArc
 50
171.346813
 51
174.2810689999998
  0
ARC
  5
B706
330
B3B2
100
AcDbEntity
  8
1
  6
Continuous
100
AcDbCircle
 10
437.351092
 20
210.907969
 30
0.0
 40
0.28047
100
AcDbArc
 50
271.374847
 51
323.4541489999998
  0
ARC
  5
B707
330
B3B2
100
AcDbEntity
  8
1
  6
Continuous
100
AcDbCircle
 10
437.0838939999998
 20
212.0707279999999
 30
0.0
 40
0.7011149999999999
100
AcDbArc
 50
39.600945
 51
79.61194999999998
  0
ARC
  5
B708
330
B3B2
100
AcDbEntity
  8
1
  6
Continuous
100
AcDbCircle
 10
436.2680029999999
 20
207.620059
 30
0.0
 40
5.22595
100
AcDbArc
 50
79.61194999999998
 51
89.84002199999997
  0
ARC
  5
B709
330
B3B2
100
AcDbEntity
  8
1
  6
Continuous
100
AcDbCircle
 10
435.3386829999998
 20
294.757624
 30
0.0
 40
84.15427099999998
100
AcDbArc
 50
269.3384389999998
 51
271.374847
  0
ARC
  5
B70A
330
B3B2
100
AcDbEntity
  8
1
  6
Continuous
100
AcDbCircle
 10
430.308386
 20
213.3878249999999
 30
0.0
 40
0.313453
100
AcDbArc
 50
173.6619839999999
 51
240.802965
  0
ARC
  5
B70B
330
B3B2
100
AcDbEntity
  8
1
  6
Continuous
100
AcDbCircle
 10
431.12999
 20
214.858092
 30
0.0
 40
1.997709
100
AcDbArc
 50
240.802965
 51
269.8400219999999
  0
LINE
  5
B70C
330
B3B2
100
AcDbEntity
  8
5
  6
PHANTOM
100
AcDbLine
 10
402.8270189999998
 20
188.7720749999998
 30
0.0
 11
400.882026
 21
189.5051959999999
 31
0.0
  0
ARC
  5
B70D
330
B3B2
100
AcDbEntity
  8
5
  6
PHANTOM
100
AcDbCircle
 10
401.23473
 20
190.440931
 30
0.0
 40
1.0
100
AcDbArc
 50
183.0629
 51
249.3472
  0
LINE
  5
B70E
330
B3B2
100
AcDbEntity
  8
5
  6
PHANTOM
100
AcDbLine
 10
399.9385119999999
 20
195.9500689999999
 30
0.0
 11
400.2361579999998
 21
190.387493
 31
0.0
  0
ARC
  5
B70F
330
B3B2
100
AcDbEntity
  8
1
  6
Continuous
100
AcDbCircle
 10
391.1488959999999
 20
197.46731
 30
0.0
 40
11.0
100
AcDbArc
 50
33.67254099999998
 51
40.146961
  0
LINE
  5
B710
330
B3B2
100
AcDbEntity
  8
1
  6
Continuous
100
AcDbLine
 10
400.009455
 20
215.179556
 30
0.0
 11
398.009455
 21
216.6725559999999
 31
0.0
  0
LINE
  5
B711
330
B3B2
100
AcDbEntity
  8
1
  6
Continuous
100
AcDbLine
 10
402.8378819999998
 20
215.179556
 30
0.0
 11
400.8378819999999
 21
216.6725559999999
 31
0.0
  0
LINE
  5
B712
330
B3B2
100
AcDbEntity
  8
1
  6
Continuous
100
AcDbLine
 10
405.6663089999998
 20
215.179556
 30
0.0
 11
403.666309
 21
216.6725559999999
 31
0.0
  0
LINE
  5
B713
330
B3B2
100
AcDbEntity
  8
1
  6
Continuous
100
AcDbLine
 10
429.494736
 20
216.299973
 30
0.0
 11
429.122153
 21
216.6725559999999
 31
0.0
  0
LINE
  5
B714
330
B3B2
100
AcDbEntity
  8
1
  6
Continuous
100
AcDbLine
 10
428.2937259999997
 20
215.179556
 30
0.0
 11
426.293726
 21
216.6725559999999
 31
0.0
  0
LINE
  5
B715
330
B3B2
100
AcDbEntity
  8
1
  6
Continuous
100
AcDbLine
 10
425.465299
 20
215.179556
 30
0.0
 11
423.4652989999998
 21
216.6725559999999
 31
0.0
  0
LINE
  5
B716
330
B3B2
100
AcDbEntity
  8
1
  6
Continuous
100
AcDbLine
 10
422.6368719999999
 20
215.179556
 30
0.0
 11
420.6368719999998
 21
216.6725559999999
 31
0.0
  0
LINE
  5
B717
330
B3B2
100
AcDbEntity
  8
1
  6
Continuous
100
AcDbLine
 10
419.808445
 20
215.179556
 30
0.0
 11
417.808445
 21
216.6725559999999
 31
0.0
  0
LINE
  5
B718
330
B3B2
100
AcDbEntity
  8
1
  6
Continuous
100
AcDbLine
 10
416.980017
 20
215.179556
 30
0.0
 11
414.9800169999998
 21
216.6725559999999
 31
0.0
  0
LINE
  5
B719
330
B3B2
100
AcDbEntity
  8
1
  6
Continuous
100
AcDbLine
 10
414.1515899999998
 20
215.179556
 30
0.0
 11
412.15159
 21
216.6725559999999
 31
0.0
  0
LINE
  5
B71A
330
B3B2
100
AcDbEntity
  8
1
  6
Continuous
100
AcDbLine
 10
411.3231629999998
 20
215.179556
 30
0.0
 11
409.323163
 21
216.6725559999999
 31
0.0
  0
LINE
  5
B71B
330
B3B2
100
AcDbEntity
  8
1
  6
Continuous
100
AcDbLine
 10
408.494736
 20
215.179556
 30
0.0
 11
406.4947359999998
 21
216.6725559999999
 31
0.0
  0
LINE
  5
B71C
330
B3B2
100
AcDbEntity
  8
1
  6
Continuous
100
AcDbLine
 10
398.8378819999999
 20
215.179556
 30
0.0
 11
400.8378819999999
 21
216.6725559999999
 31
0.0
  0
LINE
  5
B71D
330
B3B2
100
AcDbEntity
  8
1
  6
Continuous
100
AcDbLine
 10
400.252095
 20
215.179556
 30
0.0
 11
402.2520949999998
 21
216.6725559999999
 31
0.0
  0
LINE
  5
B71E
330
B3B2
100
AcDbEntity
  8
1
  6
Continuous
100
AcDbLine
 10
401.6663089999998
 20
215.179556
 30
0.0
 11
403.666309
 21
216.6725559999999
 31
0.0
  0
LINE
  5
B71F
330
B3B2
100
AcDbEntity
  8
1
  6
Continuous
100
AcDbLine
 10
403.0805219999998
 20
215.179556
 30
0.0
 11
405.0805219999999
 21
216.6725559999999
 31
0.0
  0
LINE
  5
B720
330
B3B2
100
AcDbEntity
  8
1
  6
Continuous
100
AcDbLine
 10
428.5363669999998
 20
215.179556
 30
0.0
 11
429.494736
 21
216.1379249999999
 31
0.0
  0
LINE
  5
B721
330
B3B2
100
AcDbEntity
  8
1
  6
Continuous
100
AcDbLine
 10
427.122153
 20
215.179556
 30
0.0
 11
429.122153
 21
216.6725559999999
 31
0.0
  0
LINE
  5
B722
330
B3B2
100
AcDbEntity
  8
1
  6
Continuous
100
AcDbLine
 10
425.7079389999998
 20
215.179556
 30
0.0
 11
427.7079389999998
 21
216.6725559999999
 31
0.0
  0
LINE
  5
B723
330
B3B2
100
AcDbEntity
  8
1
  6
Continuous
100
AcDbLine
 10
424.2937259999997
 20
215.179556
 30
0.0
 11
426.293726
 21
216.6725559999999
 31
0.0
  0
LINE
  5
B724
330
B3B2
100
AcDbEntity
  8
1
  6
Continuous
100
AcDbLine
 10
422.879512
 20
215.179556
 30
0.0
 11
424.8795119999998
 21
216.6725559999999
 31
0.0
  0
LINE
  5
B725
330
B3B2
100
AcDbEntity
  8
1
  6
Continuous
100
AcDbLine
 10
421.465299
 20
215.179556
 30
0.0
 11
423.4652989999998
 21
216.6725559999999
 31
0.0
  0
LINE
  5
B726
330
B3B2
100
AcDbEntity
  8
1
  6
Continuous
100
AcDbLine
 10
420.0510849999998
 20
215.179556
 30
0.0
 11
422.0510849999998
 21
216.6725559999999
 31
0.0
  0
LINE
  5
B727
330
B3B2
100
AcDbEntity
  8
1
  6
Continuous
100
AcDbLine
 10
418.6368719999999
 20
215.179556
 30
0.0
 11
420.6368719999998
 21
216.6725559999999
 31
0.0
  0
LINE
  5
B728
330
B3B2
100
AcDbEntity
  8
1
  6
Continuous
100
AcDbLine
 10
417.222658
 20
215.179556
 30
0.0
 11
419.222658
 21
216.6725559999999
 31
0.0
  0
LINE
  5
B729
330
B3B2
100
AcDbEntity
  8
1
  6
Continuous
100
AcDbLine
 10
415.808445
 20
215.179556
 30
0.0
 11
417.808445
 21
216.6725559999999
 31
0.0
  0
LINE
  5
B72A
330
B3B2
100
AcDbEntity
  8
1
  6
Continuous
100
AcDbLine
 10
414.3942309999998
 20
215.179556
 30
0.0
 11
416.394231
 21
216.6725559999999
 31
0.0
  0
LINE
  5
B72B
330
B3B2
100
AcDbEntity
  8
1
  6
Continuous
100
AcDbLine
 10
412.980017
 20
215.179556
 30
0.0
 11
414.9800169999998
 21
216.6725559999999
 31
0.0
  0
LINE
  5
B72C
330
B3B2
100
AcDbEntity
  8
1
  6
Continuous
100
AcDbLine
 10
411.565804
 20
215.179556
 30
0.0
 11
413.565804
 21
216.6725559999999
 31
0.0
  0
LINE
  5
B72D
330
B3B2
100
AcDbEntity
  8
1
  6
Continuous
100
AcDbLine
 10
410.1515899999998
 20
215.179556
 30
0.0
 11
412.15159
 21
216.6725559999999
 31
0.0
  0
LINE
  5
B72E
330
B3B2
100
AcDbEntity
  8
1
  6
Continuous
100
AcDbLine
 10
408.737377
 20
215.179556
 30
0.0
 11
410.7373769999998
 21
216.6725559999999
 31
0.0
  0
LINE
  5
B72F
330
B3B2
100
AcDbEntity
  8
1
  6
Continuous
100
AcDbLine
 10
407.3231629999998
 20
215.179556
 30
0.0
 11
409.323163
 21
216.6725559999999
 31
0.0
  0
LINE
  5
B730
330
B3B2
100
AcDbEntity
  8
1
  6
Continuous
100
AcDbLine
 10
405.9089499999998
 20
215.179556
 30
0.0
 11
407.90895
 21
216.6725559999999
 31
0.0
  0
LINE
  5
B731
330
B3B2
100
AcDbEntity
  8
1
  6
Continuous
100
AcDbLine
 10
404.494736
 20
215.179556
 30
0.0
 11
406.4947359999998
 21
216.6725559999999
 31
0.0
  0
LINE
  5
B732
330
B3B2
100
AcDbEntity
  8
1
  6
Continuous
100
AcDbLine
 10
429.494736
 20
216.6725559999999
 30
0.0
 11
429.494736
 21
215.179556
 31
0.0
  0
ARC
  5
B733
330
B3B2
100
AcDbEntity
  8
5
  6
PHANTOM
100
AcDbCircle
 10
391.6884839999998
 20
183.776467
 30
0.0
 40
5.114551999999997
100
AcDbArc
 50
69.36585100000001
 51
249.52708
  0
LINE
  5
B734
330
B3B2
100
AcDbEntity
  8
5
  6
PHANTOM
100
AcDbLine
 10
381.964225
 20
194.9882879999999
 30
0.0
 11
382.4447239999998
 21
186.008451
 31
0.0
  0
LINE
  5
B735
330
B3B2
100
AcDbEntity
  8
1
  6
Continuous
100
AcDbLine
 10
378.350556
 20
176.2802579999998
 30
0.0
 11
381.9674019999998
 21
168.046985
 31
0.0
  0
LINE
  5
B736
330
B3B2
100
AcDbEntity
  8
1
  6
Continuous
100
AcDbLine
 10
394.8304999999999
 20
183.5198359999999
 30
0.0
 11
397.070962
 21
178.4197199999999
 31
0.0
  0
ARC
  5
B737
330
B3B2
100
AcDbEntity
  8
5
  6
PHANTOM
100
AcDbCircle
 10
397.4060859999998
 20
186.8090179999999
 30
0.0
 40
14.982765
100
AcDbArc
 50
183.0629
 51
239.3816399999999
  0
LINE
  5
B738
330
B3B2
100
AcDbEntity
  8
1
  6
Continuous
100
AcDbLine
 10
394.8304999999999
 20
183.5198359999999
 30
0.0
 11
378.350556
 21
176.2802579999998
 31
0.0
  0
ARC
  5
B739
330
B3B2
100
AcDbEntity
  8
1
  6
Continuous
100
AcDbCircle
 10
391.40434
 20
169.218752
 30
0.0
 40
5.114551999999997
100
AcDbArc
 50
90.01865100000001
 51
270.1798799999999
  0
ARC
  5
B73A
330
B3B2
100
AcDbEntity
  8
1
  6
Continuous
100
AcDbCircle
 10
395.684907
 20
174.073038
 30
0.0
 40
14.982765
100
AcDbArc
 50
203.7157
 51
260.03444
  0
ARC
  5
B73B
330
B3B2
100
AcDbEntity
  8
1
  6
Continuous
100
AcDbCircle
 10
394.7346679999998
 20
210.012868
 30
0.0
 40
4.217937
100
AcDbArc
 50
202.0775149999999
 51
227.0719179999999
  0
ARC
  5
B73C
330
B3B2
100
AcDbEntity
  8
1
  6
Continuous
100
AcDbCircle
 10
395.51006
 20
210.84647
 30
0.0
 40
5.356411999999998
100
AcDbArc
 50
227.0719179999999
 51
256.4430649999998
  0
LINE
  5
B73D
330
B3B2
100
AcDbEntity
  8
1
  6
Continuous
100
AcDbLine
 10
385.867319
 20
215.179556
 30
0.0
 11
383.867319
 21
216.6725559999999
 31
0.0
  0
LINE
  5
B73E
330
B3B2
100
AcDbEntity
  8
1
  6
Continuous
100
AcDbLine
 10
388.6957459999999
 20
215.179556
 30
0.0
 11
386.695746
 21
216.6725559999999
 31
0.0
  0
LINE
  5
B73F
330
B3B2
100
AcDbEntity
  8
1
  6
Continuous
100
AcDbLine
 10
391.524173
 20
215.179556
 30
0.0
 11
389.524173
 21
216.6725559999999
 31
0.0
  0
LINE
  5
B740
330
B3B2
100
AcDbEntity
  8
1
  6
Continuous
100
AcDbLine
 10
394.3525999999998
 20
215.179556
 30
0.0
 11
392.3525999999998
 21
216.6725559999999
 31
0.0
  0
LINE
  5
B741
330
B3B2
100
AcDbEntity
  8
1
  6
Continuous
100
AcDbLine
 10
397.1810279999999
 20
215.179556
 30
0.0
 11
395.1810279999999
 21
216.6725559999999
 31
0.0
  0
LINE
  5
B742
330
B3B2
100
AcDbEntity
  8
1
  6
Continuous
100
AcDbLine
 10
383.494736
 20
216.299973
 30
0.0
 11
383.867319
 21
216.6725559999999
 31
0.0
  0
LINE
  5
B743
330
B3B2
100
AcDbEntity
  8
1
  6
Continuous
100
AcDbLine
 10
383.494736
 20
215.3927589999999
 30
0.0
 11
385.281533
 21
216.6725559999999
 31
0.0
  0
LINE
  5
B744
330
B3B2
100
AcDbEntity
  8
1
  6
Continuous
100
AcDbLine
 10
384.695746
 20
215.179556
 30
0.0
 11
386.695746
 21
216.6725559999999
 31
0.0
  0
LINE
  5
B745
330
B3B2
100
AcDbEntity
  8
1
  6
Continuous
100
AcDbLine
 10
386.10996
 20
215.179556
 30
0.0
 11
388.10996
 21
216.6725559999999
 31
0.0
  0
LINE
  5
B746
330
B3B2
100
AcDbEntity
  8
1
  6
Continuous
100
AcDbLine
 10
387.524173
 20
215.179556
 30
0.0
 11
389.524173
 21
216.6725559999999
 31
0.0
  0
LINE
  5
B747
330
B3B2
100
AcDbEntity
  8
1
  6
Continuous
100
AcDbLine
 10
388.9383869999999
 20
215.179556
 30
0.0
 11
390.9383869999999
 21
216.6725559999999
 31
0.0
  0
LINE
  5
B748
330
B3B2
100
AcDbEntity
  8
1
  6
Continuous
100
AcDbLine
 10
390.3525999999999
 20
215.179556
 30
0.0
 11
392.3525999999998
 21
216.6725559999999
 31
0.0
  0
LINE
  5
B749
330
B3B2
100
AcDbEntity
  8
1
  6
Continuous
100
AcDbLine
 10
391.766814
 20
215.179556
 30
0.0
 11
393.7668139999999
 21
216.6725559999999
 31
0.0
  0
LINE
  5
B74A
330
B3B2
100
AcDbEntity
  8
1
  6
Continuous
100
AcDbLine
 10
393.1810279999999
 20
215.179556
 30
0.0
 11
395.1810279999999
 21
216.6725559999999
 31
0.0
  0
LINE
  5
B74B
330
B3B2
100
AcDbEntity
  8
1
  6
Continuous
100
AcDbLine
 10
394.5952409999999
 20
215.179556
 30
0.0
 11
396.5952409999999
 21
216.6725559999999
 31
0.0
  0
LINE
  5
B74C
330
B3B2
100
AcDbEntity
  8
1
  6
Continuous
100
AcDbLine
 10
383.494736
 20
216.6725559999999
 30
0.0
 11
383.494736
 21
215.179556
 31
0.0
  0
ARC
  5
B74D
330
B3B2
100
AcDbEntity
  8
1
  6
Continuous
100
AcDbCircle
 10
387.106134
 20
219.7050439999999
 30
0.0
 40
4.697225
100
AcDbArc
 50
206.286695
 51
220.210037
  0
LINE
  5
B74E
330
B3B2
100
AcDbEntity
  8
1
  6
Continuous
100
AcDbLine
 10
381.744736
 20
208.4673099999998
 30
0.0
 11
389.762521
 21
208.4673099999998
 31
0.0
  0
ARC
  5
B74F
330
B3B2
100
AcDbEntity
  8
1
  6
Continuous
100
AcDbCircle
 10
511.705519
 20
191.216185
 30
0.0
 40
131.100749
100
AcDbArc
 50
170.982549
 51
172.4387049999999
  0
ARC
  5
B750
330
B3B2
100
AcDbEntity
  8
1
  6
Continuous
100
AcDbCircle
 10
386.556906
 20
211.132781
 30
0.0
 40
4.377608
100
AcDbArc
 50
112.4180289999999
 51
171.7055229999999
  0
LINE
  5
B751
330
B3B2
100
AcDbEntity
  8
1
  6
Continuous
100
AcDbLine
 10
384.319652
 20
218.1548169999998
 30
0.0
 11
428.66982
 21
218.1548169999998
 31
0.0
  0
LINE
  5
B752
330
B3B2
100
AcDbEntity
  8
1
  6
Continuous
100
AcDbLine
 10
371.494736
 20
224.2177
 30
0.0
 11
441.494736
 21
224.2177
 31
0.0
  0
LINE
  5
B753
330
B3B2
100
AcDbEntity
  8
1
  6
Continuous
100
AcDbLine
 10
386.738852
 20
219.892556
 30
0.0
 11
426.25062
 21
219.892556
 31
0.0
  0
LINE
  5
B754
330
B3B2
100
AcDbEntity
  8
1
  6
Continuous
100
AcDbLine
 10
371.494736
 20
221.917417
 30
0.0
 11
441.494736
 21
221.917417
 31
0.0
  0
ARC
  5
B755
330
B3B2
100
AcDbEntity
  8
1
  6
Continuous
100
AcDbCircle
 10
426.25062
 20
230.5325559999999
 30
0.0
 40
10.64
100
AcDbArc
 50
270.0
 51
305.934008
  0
LINE
  5
B756
330
B3B2
100
AcDbEntity
  8
1
  6
Continuous
100
AcDbLine
 10
441.494736
 20
221.917417
 30
0.0
 11
441.494736
 21
224.2177
 31
0.0
  0
ARC
  5
B757
330
B3B2
100
AcDbEntity
  8
1
  6
Continuous
100
AcDbCircle
 10
423.6812379999998
 20
214.603845
 30
0.0
 40
6.206
100
AcDbArc
 50
39.064301
 51
58.798683
  0
LINE
  5
B758
330
B3B2
100
AcDbEntity
  8
1
  6
Continuous
100
AcDbLine
 10
428.66982
 20
218.1548169999998
 30
0.0
 11
428.49982
 21
218.514817
 31
0.0
  0
LINE
  5
B759
330
B3B2
100
AcDbEntity
  8
1
  6
Continuous
100
AcDbLine
 10
429.48482
 20
218.1548169999998
 30
0.0
 11
428.66982
 21
218.1548169999998
 31
0.0
  0
LINE
  5
B75A
330
B3B2
100
AcDbEntity
  8
1
  6
Continuous
100
AcDbLine
 10
371.494736
 20
221.917417
 30
0.0
 11
371.494736
 21
224.2177
 31
0.0
  0
ARC
  5
B75B
330
B3B2
100
AcDbEntity
  8
1
  6
Continuous
100
AcDbCircle
 10
389.3082339999999
 20
214.603845
 30
0.0
 40
6.206
100
AcDbArc
 50
121.2013169999998
 51
140.935699
  0
LINE
  5
B75C
330
B3B2
100
AcDbEntity
  8
1
  6
Continuous
100
AcDbLine
 10
384.319652
 20
218.1548169999998
 30
0.0
 11
384.4896519999999
 21
218.514817
 31
0.0
  0
LINE
  5
B75D
330
B3B2
100
AcDbEntity
  8
1
  6
Continuous
100
AcDbLine
 10
383.504652
 20
218.1548169999998
 30
0.0
 11
384.319652
 21
218.1548169999998
 31
0.0
  0
ARC
  5
B75E
330
B3B2
100
AcDbEntity
  8
1
  6
Continuous
100
AcDbCircle
 10
386.738852
 20
230.5325559999999
 30
0.0
 40
10.64
100
AcDbArc
 50
234.0659919999999
 51
270.0
  0
ARC
  5
B75F
330
B3B2
100
AcDbEntity
  8
1
  6
Continuous
100
AcDbCircle
 10
299.4006909999999
 20
189.4850059999999
 30
0.0
 40
28.15825
100
AcDbArc
 50
208.9167539999998
 51
216.3360089999999
  0
LINE
  5
B760
330
B3B2
100
AcDbEntity
  8
1
  6
Continuous
100
AcDbLine
 10
69.39771400000001
 20
167.233292
 30
0.0
 11
69.375078
 21
165.1057189999999
 31
0.0
  0
LINE
  5
B761
330
B3B2
100
AcDbEntity
  8
1
  6
Continuous
100
AcDbLine
 10
150.490146
 20
82.96798199999997
 30
0.0
 11
150.490146
 21
81.31031799999998
 31
0.0
  0
ARC
  5
B762
330
B3B2
100
AcDbEntity
  8
1
  6
Continuous
100
AcDbCircle
 10
185.490146
 20
68.81031800000001
 30
0.0
 40
26.0
100
AcDbArc
 50
91.648077
 51
122.3692689999999
  0
ARC
  5
B763
330
B3B2
100
AcDbEntity
  8
1
  6
Continuous
100
AcDbCircle
 10
185.490146
 20
68.81031800000001
 30
0.0
 40
24.75
100
AcDbArc
 50
90.31046999999999
 51
111.959393
  0
ARC
  5
B764
330
B3B2
100
AcDbEntity
  8
1
  6
Continuous
100
AcDbCircle
 10
185.490146
 20
68.81031800000001
 30
0.0
 40
22.45
100
AcDbArc
 50
89.799181
 51
111.832416
  0
LINE
  5
B765
330
B3B2
100
AcDbEntity
  8
5
  6
PHANTOM
100
AcDbLine
 10
402.015799
 20
186.619885
 30
0.0
 11
400.0708069999998
 21
187.353006
 31
0.0
  0
LINE
  5
B766
330
B3B2
100
AcDbEntity
  8
1
  6
Continuous
100
AcDbLine
 10
400.065085
 20
175.521925
 30
0.0
 11
397.986513
 21
175.521925
 31
0.0
  0
LINE
  5
B767
330
B3B2
100
AcDbEntity
  8
5
  6
PHANTOM
100
AcDbLine
 10
400.882026
 20
189.5051959999999
 30
0.0
 11
400.0708069999998
 21
187.353006
 31
0.0
  0
LINE
  5
B768
330
B3B2
100
AcDbEntity
  8
1
  6
Continuous
100
AcDbLine
 10
397.986513
 20
177.821925
 30
0.0
 11
397.986513
 21
175.521925
 31
0.0
  0
ARC
  5
B769
330
B3B2
100
AcDbEntity
  8
1
  6
Continuous
100
AcDbCircle
 10
160.490146
 20
175.717882
 30
0.0
 40
31.5
100
AcDbArc
 50
195.804742
 51
325.701015
  0
ARC
  5
B76A
330
B3B2
100
AcDbEntity
  8
1
  6
Continuous
100
AcDbCircle
 10
160.490146
 20
175.717882
 30
0.0
 40
24.5
100
AcDbArc
 50
207.4480349999999
 51
315.993618
  0
ARC
  5
B76B
330
B3B2
100
AcDbEntity
  8
1
  6
Continuous
100
AcDbCircle
 10
160.490146
 20
175.717882
 30
0.0
 40
24.5
100
AcDbArc
 50
5.329973999999999
 51
29.461922
  0
ARC
  5
B76C
330
B3B2
100
AcDbEntity
  8
1
  6
Continuous
100
AcDbCircle
 10
160.490146
 20
175.717882
 30
0.0
 40
31.5
100
AcDbArc
 50
3.829921999999998
 51
36.19536999999999
  0
LINE
  5
B76D
330
B3B2
100
AcDbEntity
  8
1
  6
Continuous
100
AcDbLine
 10
153.490146
 20
92.0603
 30
0.0
 11
153.490146
 21
90.56029999999998
 31
0.0
  0
LINE
  5
B76E
330
B3B2
100
AcDbEntity
  8
1
  6
Continuous
100
AcDbLine
 10
163.4376599999999
 20
92.0603
 30
0.0
 11
153.490146
 21
92.0603
 31
0.0
  0
CIRCLE
  5
B76F
330
B3B2
100
AcDbEntity
  8
1
  6
Continuous
100
AcDbCircle
 10
160.490146
 20
175.717882
 30
0.0
 40
7.0
  0
LINE
  5
B770
330
B3B2
100
AcDbEntity
  8
1
  6
Continuous
100
AcDbLine
 10
154.490146
 20
179.181984
 30
0.0
 11
160.490146
 21
182.646086
 31
0.0
  0
LINE
  5
B771
330
B3B2
100
AcDbEntity
  8
1
  6
Continuous
100
AcDbLine
 10
160.490146
 20
168.789679
 30
0.0
 11
154.490146
 21
172.253781
 31
0.0
  0
LINE
  5
B772
330
B3B2
100
AcDbEntity
  8
1
  6
Continuous
100
AcDbLine
 10
83.12068499999998
 20
178.9177819999999
 30
0.0
 11
82.32068499999998
 21
179.7177819999998
 31
0.0
  0
LINE
  5
B773
330
B3B2
100
AcDbEntity
  8
2
  6
Continuous
100
AcDbLine
 10
82.997185
 20
179.041282
 30
0.0
 11
82.23786699999998
 21
179.041282
 31
0.0
  0
CIRCLE
  5
B774
330
B3B2
100
AcDbEntity
  8
1
  6
Continuous
100
AcDbCircle
 10
160.490146
 20
175.717882
 30
0.0
 40
6.0
  0
CIRCLE
  5
B775
330
B3B2
100
AcDbEntity
  8
1
  6
Continuous
100
AcDbCircle
 10
160.490146
 20
175.717882
 30
0.0
 40
4.0
  0
CIRCLE
  5
B776
330
B3B2
100
AcDbEntity
  8
2
  6
Continuous
100
AcDbCircle
 10
160.490146
 20
175.717882
 30
0.0
 40
3.3235
  0
ARC
  5
B777
330
B3B2
100
AcDbEntity
  8
1
  6
Continuous
100
AcDbCircle
 10
163.490146
 20
88.39523599999997
 30
0.0
 40
8.665063999999999
100
AcDbArc
 50
69.743842
 51
110.256158
  0
LINE
  5
B778
330
B3B2
100
AcDbEntity
  8
1
  6
Continuous
100
AcDbLine
 10
156.490146
 20
97.143118
 30
0.0
 11
164.4901459999998
 21
97.143118
 31
0.0
  0
LINE
  5
B779
330
B3B2
100
AcDbEntity
  8
1
  6
Continuous
100
AcDbLine
 10
163.6901459999999
 20
97.943118
 30
0.0
 11
157.2901459999999
 21
97.943118
 31
0.0
  0
LINE
  5
B77A
330
B3B2
100
AcDbEntity
  8
1
  6
Continuous
100
AcDbLine
 10
154.490146
 20
97.0603
 30
0.0
 11
166.490146
 21
97.0603
 31
0.0
  0
LINE
  5
B77B
330
B3B2
100
AcDbEntity
  8
1
  6
Continuous
100
AcDbLine
 10
83.12068499999998
 20
172.517782
 30
0.0
 11
82.32068499999998
 21
171.717782
 31
0.0
  0
LINE
  5
B77C
330
B3B2
100
AcDbEntity
  8
2
  6
Continuous
100
AcDbLine
 10
82.997185
 20
172.3942819999998
 30
0.0
 11
82.23786699999998
 21
172.3942819999998
 31
0.0
  0
ARC
  5
B77D
330
B3B2
100
AcDbEntity
  8
1
  6
Continuous
100
AcDbCircle
 10
163.490146
 20
100.725363
 30
0.0
 40
8.665063999999999
100
AcDbArc
 50
249.7438419999999
 51
269.6533449999999
  0
LINE
  5
B77E
330
B3B2
100
AcDbEntity
  8
1
  6
Continuous
100
AcDbLine
 10
154.490146
 20
179.181984
 30
0.0
 11
154.490146
 21
172.253781
 31
0.0
  0
LINE
  5
B77F
330
B3B2
100
AcDbEntity
  8
1
  6
Continuous
100
AcDbLine
 10
77.23786699999998
 20
168.717782
 30
0.0
 11
77.23786699999998
 21
182.7177819999998
 31
0.0
  0
LINE
  5
B780
330
B3B2
100
AcDbEntity
  8
1
  6
Continuous
100
AcDbLine
 10
82.32068499999998
 20
179.7177819999998
 30
0.0
 11
82.32068499999998
 21
171.717782
 31
0.0
  0
ARC
  5
B781
330
B3B2
100
AcDbEntity
  8
1
  6
Continuous
100
AcDbCircle
 10
88.70196899999998
 20
175.717782
 30
0.0
 40
11.464102
100
AcDbArc
 50
162.412046
 51
197.5879539999999
  0
ARC
  5
B782
330
B3B2
100
AcDbEntity
  8
1
  6
Continuous
100
AcDbCircle
 10
70.773766
 20
175.717782
 30
0.0
 40
11.464102
100
AcDbArc
 50
342.4120459999999
 51
17.587954
  0
LINE
  5
B783
330
B3B2
100
AcDbEntity
  8
1
  6
Continuous
100
AcDbLine
 10
82.23786699999998
 20
181.7177819999998
 30
0.0
 11
82.23786699999998
 21
169.717782
 31
0.0
  0
LINE
  5
B784
330
B3B2
100
AcDbEntity
  8
1
  6
Continuous
100
AcDbLine
 10
77.23786699999998
 20
168.717782
 30
0.0
 11
75.73786699999998
 21
168.717782
 31
0.0
  0
LINE
  5
B785
330
B3B2
100
AcDbEntity
  8
2
  6
Continuous
100
AcDbLine
 10
157.1666459999998
 20
97.81961800000001
 30
0.0
 11
157.1666459999998
 21
97.0603
 31
0.0
  0
LINE
  5
B786
330
B3B2
100
AcDbEntity
  8
1
  6
Continuous
100
AcDbLine
 10
157.2901459999999
 20
97.943118
 30
0.0
 11
156.490146
 21
97.143118
 31
0.0
  0
LINE
  5
B787
330
B3B2
100
AcDbEntity
  8
1
  6
Continuous
100
AcDbLine
 10
156.490146
 20
97.0603
 30
0.0
 11
156.490146
 21
97.143118
 31
0.0
  0
ARC
  5
B788
330
B3B2
100
AcDbEntity
  8
1
  6
Continuous
100
AcDbCircle
 10
157.490146
 20
88.39523599999997
 30
0.0
 40
8.665063999999999
100
AcDbArc
 50
69.743842
 51
110.256158
  0
LINE
  5
B789
330
B3B2
100
AcDbEntity
  8
1
  6
Continuous
100
AcDbLine
 10
160.490146
 20
92.59619800000001
 30
0.0
 11
160.490146
 21
96.524402
 31
0.0
  0
LINE
  5
B78A
330
B3B2
100
AcDbEntity
  8
1
  6
Continuous
100
AcDbLine
 10
82.23786699999998
 20
171.717782
 30
0.0
 11
82.32068499999998
 21
171.717782
 31
0.0
  0
ARC
  5
B78B
330
B3B2
100
AcDbEntity
  8
1
  6
Continuous
100
AcDbCircle
 10
79.17088000000003
 20
170.52163
 30
0.0
 40
3.066986999999998
100
AcDbArc
 50
334.384247
 51
34.38424699999998
  0
ARC
  5
B78C
330
B3B2
100
AcDbEntity
  8
1
  6
Continuous
100
AcDbCircle
 10
80.30485500000002
 20
170.52163
 30
0.0
 40
3.066986999999998
100
AcDbArc
 50
145.615753
 51
205.615753
  0
LINE
  5
B78D
330
B3B2
100
AcDbEntity
  8
1
  6
Continuous
100
AcDbLine
 10
77.77376600000002
 20
172.253681
 30
0.0
 11
81.70196899999998
 21
172.253681
 31
0.0
  0
LINE
  5
B78E
330
B3B2
100
AcDbEntity
  8
1
  6
Continuous
100
AcDbLine
 10
77.77376600000002
 20
168.7895789999998
 30
0.0
 11
81.70196899999998
 21
168.7895789999998
 31
0.0
  0
LINE
  5
B78F
330
B3B2
100
AcDbEntity
  8
1
  6
Continuous
100
AcDbLine
 10
77.77376600000002
 20
168.7895789999998
 30
0.0
 11
77.23786699999998
 21
169.717782
 31
0.0
  0
LINE
  5
B790
330
B3B2
100
AcDbEntity
  8
1
  6
Continuous
100
AcDbLine
 10
81.70196899999998
 20
168.7895789999998
 30
0.0
 11
82.23786699999998
 21
169.717782
 31
0.0
  0
ARC
  5
B791
330
B3B2
100
AcDbEntity
  8
1
  6
Continuous
100
AcDbCircle
 10
157.490146
 20
100.725363
 30
0.0
 40
8.665063999999999
100
AcDbArc
 50
249.7438419999999
 51
290.256158
  0
LINE
  5
B792
330
B3B2
100
AcDbEntity
  8
1
  6
Continuous
100
AcDbLine
 10
154.490146
 20
97.0603
 30
0.0
 11
154.490146
 21
92.0603
 31
0.0
  0
LINE
  5
B793
330
B3B2
100
AcDbEntity
  8
1
  6
Continuous
100
AcDbLine
 10
77.23786699999998
 20
182.7177819999998
 30
0.0
 11
75.73786699999998
 21
182.7177819999998
 31
0.0
  0
LINE
  5
B794
330
B3B2
100
AcDbEntity
  8
1
  6
Continuous
100
AcDbLine
 10
82.23786699999998
 20
179.7177819999998
 30
0.0
 11
82.32068499999998
 21
179.7177819999998
 31
0.0
  0
LINE
  5
B795
330
B3B2
100
AcDbEntity
  8
1
  6
Continuous
100
AcDbLine
 10
81.70196899999998
 20
182.6459859999999
 30
0.0
 11
82.23786699999998
 21
181.7177819999998
 31
0.0
  0
LINE
  5
B796
330
B3B2
100
AcDbEntity
  8
1
  6
Continuous
100
AcDbLine
 10
77.77376600000002
 20
182.6459859999999
 30
0.0
 11
77.23786699999998
 21
181.7177819999998
 31
0.0
  0
LINE
  5
B797
330
B3B2
100
AcDbEntity
  8
1
  6
Continuous
100
AcDbLine
 10
77.77376600000002
 20
182.6459859999999
 30
0.0
 11
81.70196899999998
 21
182.6459859999999
 31
0.0
  0
LINE
  5
B798
330
B3B2
100
AcDbEntity
  8
1
  6
Continuous
100
AcDbLine
 10
77.77376600000002
 20
179.1818839999999
 30
0.0
 11
81.70196899999998
 21
179.1818839999999
 31
0.0
  0
ARC
  5
B799
330
B3B2
100
AcDbEntity
  8
1
  6
Continuous
100
AcDbCircle
 10
80.30485500000002
 20
180.913935
 30
0.0
 40
3.066986999999998
100
AcDbArc
 50
154.3842469999999
 51
214.384247
  0
ARC
  5
B79A
330
B3B2
100
AcDbEntity
  8
1
  6
Continuous
100
AcDbCircle
 10
79.17088000000003
 20
180.913935
 30
0.0
 40
3.066986999999998
100
AcDbArc
 50
325.6157529999999
 51
25.615753
  0
LINE
  5
B79B
330
B3B2
100
AcDbEntity
  8
1
  6
Continuous
100
AcDbLine
 10
166.490146
 20
179.181984
 30
0.0
 11
166.490146
 21
172.253781
 31
0.0
  0
LINE
  5
B79C
330
B3B2
100
AcDbEntity
  8
1
  6
Continuous
100
AcDbLine
 10
83.12068499999998
 20
172.517782
 30
0.0
 11
83.12068499999998
 21
178.9177819999999
 31
0.0
  0
LINE
  5
B79D
330
B3B2
100
AcDbEntity
  8
2
  6
Continuous
100
AcDbLine
 10
163.813646
 20
97.81961800000001
 30
0.0
 11
163.813646
 21
97.0603
 31
0.0
  0
LINE
  5
B79E
330
B3B2
100
AcDbEntity
  8
1
  6
Continuous
100
AcDbLine
 10
163.6901459999999
 20
97.943118
 30
0.0
 11
164.4901459999998
 21
97.143118
 31
0.0
  0
LINE
  5
B79F
330
B3B2
100
AcDbEntity
  8
1
  6
Continuous
100
AcDbLine
 10
164.4901459999998
 20
97.0603
 30
0.0
 11
164.4901459999998
 21
97.143118
 31
0.0
  0
LINE
  5
B7A0
330
B3B2
100
AcDbEntity
  8
1
  6
Continuous
100
AcDbLine
 10
166.490146
 20
97.0603
 30
0.0
 11
166.490146
 21
95.86350799999999
 31
0.0
  0
LINE
  5
B7A1
330
B3B2
100
AcDbEntity
  8
1
  6
Continuous
100
AcDbLine
 10
160.490146
 20
168.789679
 30
0.0
 11
166.490146
 21
172.253781
 31
0.0
  0
LINE
  5
B7A2
330
B3B2
100
AcDbEntity
  8
1
  6
Continuous
100
AcDbLine
 10
166.490146
 20
179.181984
 30
0.0
 11
160.490146
 21
182.646086
 31
0.0
  0
LINE
  5
B7A3
330
B3B2
100
AcDbEntity
  8
1
  6
Continuous
100
AcDbLine
 10
164.440574
 20
97.19269000000002
 30
0.0
 11
211.70927
 21
97.19269000000002
 31
0.0
  0
LINE
  5
B7A4
330
B3B2
100
AcDbEntity
  8
1
  6
Continuous
100
AcDbLine
 10
82.37023699999998
 20
171.767334
 30
0.0
 11
82.37023699999998
 21
157.809562
 31
0.0
  0
CIRCLE
  5
B7A5
330
B3B2
100
AcDbEntity
  8
1
  6
Continuous
100
AcDbCircle
 10
431.4947359999998
 20
175.717882
 30
0.0
 40
5.75
  0
ARC
  5
B7A6
330
B3B2
100
AcDbEntity
  8
1
  6
Continuous
100
AcDbCircle
 10
150.05356
 20
173.34392
 30
0.0
 40
16.60713799999999
100
AcDbArc
 50
29.03077599999999
 51
48.84568800000001
  0
LINE
  5
B7A7
330
B3B2
100
AcDbEntity
  8
1
  6
Continuous
100
AcDbLine
 10
163.6901459999999
 20
269.787847
 30
0.0
 11
164.4405649999999
 21
270.5382649999999
 31
0.0
  0
LINE
  5
B7A8
330
B3B2
100
AcDbEntity
  8
2
  6
Continuous
100
AcDbLine
 10
163.813646
 20
269.9113469999999
 30
0.0
 11
163.813646
 21
270.5382649999999
 31
0.0
  0
LINE
  5
B7A9
330
B3B2
100
AcDbEntity
  8
1
  6
Continuous
100
AcDbLine
 10
157.2901459999999
 20
269.787847
 30
0.0
 11
156.539728
 21
270.5382649999999
 31
0.0
  0
LINE
  5
B7AA
330
B3B2
100
AcDbEntity
  8
2
  6
Continuous
100
AcDbLine
 10
157.1666459999998
 20
269.9113469999999
 30
0.0
 11
157.1666459999998
 21
270.5382649999999
 31
0.0
  0
LINE
  5
B7AB
330
B3B2
100
AcDbEntity
  8
1
  6
Continuous
100
AcDbLine
 10
163.6901459999999
 20
269.787847
 30
0.0
 11
157.2901459999999
 21
269.787847
 31
0.0
  0
LINE
  5
B7AC
330
B3B2
100
AcDbEntity
  8
1
  6
Continuous
100
AcDbLine
 10
275.313669
 20
175.869412
 30
0.0
 11
277.4174089999998
 21
175.869412
 31
0.0
  0
ARC
  5
B7AD
330
B3B2
100
AcDbEntity
  8
1
  6
Continuous
100
AcDbCircle
 10
458.6149709999999
 20
174.268742
 30
0.0
 40
6.497614999999998
100
AcDbArc
 50
303.9457169999999
 51
49.93702299999998
  0
ENDSEC
  0
SECTION
  2
OBJECTS
  0
DICTIONARY
  5
B3A0
330
0
100
AcDbDictionary
281
     1
  3
ACAD_CIP_PREVIOUS_PRODUCT_INFO
350
B80F
  3
ACAD_COLOR
350
B7F1
  3
ACAD_DETAILVIEWSTYLE
350
B80A
  3
ACAD_GROUP
350
B3A1
  3
ACAD_LAYOUT
350
B3AD
  3
ACAD_MATERIAL
350
B7BF
  3
ACAD_MLEADERSTYLE
350
B806
  3
ACAD_MLINESTYLE
350
B3AA
  3
ACAD_PLOTSETTINGS
350
B3AC
  3
ACAD_PLOTSTYLENAME
350
B7BD
  3
ACAD_SCALELIST
350
B7F4
  3
ACAD_SECTIONVIEWSTYLE
350
B808
  3
ACAD_TABLESTYLE
350
B7F2
  3
ACAD_VISUALSTYLE
350
B7D8
  3
ACDB_RECOMPOSE_DATA
350
B82D
  3
AcDbVariableDictionary
350
B820
  3
DWGPROPS
350
B82E
  0
DICTIONARY
  5
B810
330
B3A4
100
AcDbDictionary
280
     1
281
     1
  3
ADSK_XREC_LAYER_RECONCILED
360
B811
  0
DICTIONARY
  5
B812
330
B3BA
100
AcDbDictionary
280
     1
281
     1
  3
ADSK_XREC_LAYER_RECONCILED
360
B813
  0
DICTIONARY
  5
B814
330
B3BB
100
AcDbDictionary
280
     1
281
     1
  3
ADSK_XREC_LAYER_RECONCILED
360
B815
  0
DICTIONARY
  5
B816
330
B3BC
100
AcDbDictionary
280
     1
281
     1
  3
ADSK_XREC_LAYER_RECONCILED
360
B817
  0
DICTIONARY
  5
B818
330
B3BD
100
AcDbDictionary
280
     1
281
     1
  3
ADSK_XREC_LAYER_RECONCILED
360
B819
  0
DICTIONARY
  5
B81A
330
B3BE
100
AcDbDictionary
280
     1
281
     1
  3
ADSK_XREC_LAYER_RECONCILED
360
B81B
  0
DICTIONARY
  5
B81C
330
B3BF
100
AcDbDictionary
280
     1
281
     1
  3
ADSK_XREC_LAYER_RECONCILED
360
B81D
  0
DICTIONARY
  5
B81E
330
B3C0
100
AcDbDictionary
280
     1
281
     1
  3
ADSK_XREC_LAYER_RECONCILED
360
B81F
  0
DICTIONARY
  5
B7B8
330
B3B2
100
AcDbDictionary
281
     1
  3
ACAD_LAYOUTSELFREF
350
B7B9
  0
DICTIONARY
  5
B7B6
330
B3AE
100
AcDbDictionary
281
     1
  3
ACAD_LAYOUTSELFREF
350
B7B7
  0
XRECORD
  5
B80F
102
{ACAD_REACTORS
330
B3A0
102
}
330
B3A0
100
AcDbXrecord
280
     1
300
ACDLT
300
2014
300
ACDLT_F_S
  0
DICTIONARY
  5
B7F1
102
{ACAD_REACTORS
330
B3A0
102
}
330
B3A0
100
AcDbDictionary
281
     1
  0
DICTIONARY
  5
B80A
102
{ACAD_REACTORS
330
B3A0
102
}
330
B3A0
100
AcDbDictionary
281
     1
  3
Imperial24
350
B80B
  0
DICTIONARY
  5
B3A1
102
{ACAD_REACTORS
330
B3A0
102
}
330
B3A0
100
AcDbDictionary
281
     1
  0
DICTIONARY
  5
B3AD
102
{ACAD_REACTORS
330
B3A0
102
}
330
B3A0
100
AcDbDictionary
281
     1
  3
Model
350
B80C
  3
レイアウト1
350
B80D
  0
DICTIONARY
  5
B7BF
102
{ACAD_REACTORS
330
B3A0
102
}
330
B3A0
100
AcDbDictionary
281
     1
  3
ByBlock
350
B7C8
  3
ByLayer
350
B7C0
  3
Global
350
B7D0
  0
DICTIONARY
  5
B806
102
{ACAD_REACTORS
330
B3A0
102
}
330
B3A0
100
AcDbDictionary
281
     1
  3
Standard
350
B807
  0
DICTIONARY
  5
B3AA
102
{ACAD_REACTORS
330
B3A0
102
}
330
B3A0
100
AcDbDictionary
281
     1
  3
STANDARD
350
B3AB
  0
DICTIONARY
  5
B3AC
102
{ACAD_REACTORS
330
B3A0
102
}
330
B3A0
100
AcDbDictionary
281
     1
  0
ACDBDICTIONARYWDFLT
  5
B7BD
102
{ACAD_REACTORS
330
B3A0
102
}
330
B3A0
100
AcDbDictionary
281
     1
  3
Normal
350
B7BE
100
AcDbDictionaryWithDefault
340
B7BE
  0
DICTIONARY
  5
B7F4
102
{ACAD_REACTORS
330
B3A0
102
}
330
B3A0
100
AcDbDictionary
281
     1
  3
A0
350
B7F5
  3
A1
350
B7F6
  3
A2
350
B7F7
  3
A3
350
B7F8
  3
A4
350
B7F9
  3
A5
350
B7FA
  3
A6
350
B7FB
  3
A7
350
B7FC
  3
A8
350
B7FD
  3
A9
350
B7FE
  3
B0
350
B7FF
  3
B1
350
B800
  3
B2
350
B801
  3
B3
350
B802
  3
B4
350
B803
  3
B5
350
B804
  3
B6
350
B805
  0
DICTIONARY
  5
B808
102
{ACAD_REACTORS
330
B3A0
102
}
330
B3A0
100
AcDbDictionary
281
     1
  3
Imperial24
350
B809
  0
DICTIONARY
  5
B7F2
102
{ACAD_REACTORS
330
B3A0
102
}
330
B3A0
100
AcDbDictionary
281
     1
  3
Standard
350
B7F3
  0
DICTIONARY
  5
B7D8
102
{ACAD_REACTORS
330
B3A0
102
}
330
B3A0
100
AcDbDictionary
281
     1
  3
2dWireframe
350
B7DE
  3
Basic
350
B7DD
  3
Brighten
350
B7E4
  3
ColorChange
350
B7E8
  3
Conceptual
350
B7E1
  3
Dim
350
B7E3
  3
EdgeColorOff
350
B7F0
  3
Facepattern
350
B7E7
  3
Flat
350
B7D9
  3
FlatWithEdges
350
B7DA
  3
Gouraud
350
B7DB
  3
GouraudWithEdges
350
B7DC
  3
Hidden
350
B7E0
  3
JitterOff
350
B7EE
  3
Linepattern
350
B7E6
  3
OverhangOff
350
B7EF
  3
Realistic
350
B7E2
  3
Shaded
350
B7ED
  3
Shaded with edges
350
B7EC
  3
Shades of Gray
350
B7E9
  3
Sketchy
350
B7EA
  3
Thicken
350
B7E5
  3
Wireframe
350
B7DF
  3
X-Ray
350
B7EB
  0
XRECORD
  5
B82D
102
{ACAD_REACTORS
330
B3A0
102
}
330
B3A0
100
AcDbXrecord
280
     1
 90
        1
330
B7F3
  0
DICTIONARY
  5
B820
102
{ACAD_REACTORS
330
B3A0
102
}
330
B3A0
100
AcDbDictionary
281
     1
  3
CANNOSCALE
350
B825
  3
CMLEADERSTYLE
350
B822
  3
CTABLESTYLE
350
B821
  3
CVIEWDETAILSTYLE
350
B823
  3
CVIEWSECTIONSTYLE
350
B824
  3
DIMASSOC
350
B828
  3
INDEXCTL
350
B827
  3
SORTENTS
350
B826
  3
XCLIPFRAME
350
B829
  0
XRECORD
  5
B82E
102
{ACAD_REACTORS
330
B3A0
102
}
330
B3A0
100
AcDbXrecord
280
     1
  1
DWGPROPS COOKIE
  2

  3

  4

  6

  7

  8
Yoshitsune
  9

300
=
301
=
302
=
303
=
304
=
305
=
306
=
307
=
308
=
309
=
 40
2.400751689814814
 41
2449980.970532755
 42
2457192.687021991
  1

 90
        0
  0
XRECORD
  5
B811
102
{ACAD_REACTORS
330
B810
102
}
330
B810
100
AcDbXrecord
280
     1
290
     1
  0
XRECORD
  5
B813
102
{ACAD_REACTORS
330
B812
102
}
330
B812
100
AcDbXrecord
280
     1
290
     1
  0
XRECORD
  5
B815
102
{ACAD_REACTORS
330
B814
102
}
330
B814
100
AcDbXrecord
280
     1
290
     1
  0
XRECORD
  5
B817
102
{ACAD_REACTORS
330
B816
102
}
330
B816
100
AcDbXrecord
280
     1
290
     1
  0
XRECORD
  5
B819
102
{ACAD_REACTORS
330
B818
102
}
330
B818
100
AcDbXrecord
280
     1
290
     1
  0
XRECORD
  5
B81B
102
{ACAD_REACTORS
330
B81A
102
}
330
B81A
100
AcDbXrecord
280
     1
290
     1
  0
XRECORD
  5
B81D
102
{ACAD_REACTORS
330
B81C
102
}
330
B81C
100
AcDbXrecord
280
     1
290
     1
  0
XRECORD
  5
B81F
102
{ACAD_REACTORS
330
B81E
102
}
330
B81E
100
AcDbXrecord
280
     1
290
     1
  0
XRECORD
  5
B7B9
102
{ACAD_REACTORS
330
B7B8
102
}
330
B7B8
100
AcDbXrecord
280
     1
340
B3B2
  0
XRECORD
  5
B7B7
102
{ACAD_REACTORS
330
B7B6
102
}
330
B7B6
100
AcDbXrecord
280
     1
340
B3AE
  0
ACDBDETAILVIEWSTYLE
  5
B80B
102
{ACAD_XDICTIONARY
360
B866
102
}
102
{ACAD_REACTORS
330
B80A
102
}
330
B80A
100
AcDbModelDocViewStyle
 70
     0
  3
Imperial24
290
     0
100
AcDbDetailViewStyle
 70
     0
 71
     0
 90
        3
 71
     1
340
B3A5
 40
0.24
340
0
 40
0.24
300

 40
0.36
280
     3
 71
     2
340
B3A9
 90
       25
 71
     3
340
B3A5
 40
0.24
 90
        1
 40
0.75
 90
        1
300
%<\AcVar ViewType \f "%tc1">% %<\AcVar ViewDetailId>%\PSCALE %<\AcVar ViewScale \f "%sn">%
 71
     4
340
B3A9
 90
       25
340
B3A9
 90
       25
280
     0
  0
LAYOUT
  5
B80C
102
{ACAD_XDICTIONARY
360
B868
102
}
102
{ACAD_REACTORS
330
B3AD
102
}
330
B3AD
100
AcDbPlotSettings
  1

  2
Canon LBP9100C
  4

  6

 40
0.0
 41
0.0
 42
0.0
 43
0.0
 44
0.0
 45
0.0
 46
0.0
 47
0.0
 48
0.0
 49
0.0
140
0.0
141
0.0
142
1.0
143
1.0
 70
  1712
 72
     0
 73
     0
 74
     0
  7

 75
     0
147
1.0
148
0.0
149
0.0
100
AcDbLayout
  1
Model
 70
     1
 71
     0
 10
0.0
 20
0.0
 11
12.0
 21
9.0
 12
0.0
 22
0.0
 32
0.0
 14
0.0
 24
0.0
 34
0.0
 15
0.0
 25
0.0
 35
0.0
146
0.0
 13
0.0
 23
0.0
 33
0.0
 16
1.0
 26
0.0
 36
0.0
 17
0.0
 27
1.0
 37
0.0
 76
     0
330
B3B2
331
B7B5
  0
LAYOUT
  5
B80D
102
{ACAD_XDICTIONARY
360
B86A
102
}
102
{ACAD_REACTORS
330
B3AD
102
}
330
B3AD
100
AcDbPlotSettings
  1

  2
Canon LBP9100C
  4

  6

 40
0.0
 41
0.0
 42
0.0
 43
0.0
 44
0.0
 45
0.0
 46
0.0
 47
0.0
 48
0.0
 49
0.0
140
0.0
141
0.0
142
1.0
143
1.0
 70
   688
 72
     0
 73
     0
 74
     5
  7

 75
    16
147
1.0
148
0.0
149
0.0
100
AcDbLayout
  1
レイアウト1
 70
     0
 71
     1
 10
0.0
 20
0.0
 11
420.0
 21
297.0
 12
0.0
 22
0.0
 32
0.0
 14
1.000000000000000E+20
 24
1.000000000000000E+20
 34
1.000000000000000E+20
 15
-1.000000000000000E+20
 25
-1.000000000000000E+20
 35
-1.000000000000000E+20
146
0.0
 13
0.0
 23
0.0
 33
0.0
 16
1.0
 26
0.0
 36
0.0
 17
0.0
 27
1.0
 37
0.0
 76
     0
330
B3AE
  0
MATERIAL
  5
B7C8
102
{ACAD_XDICTIONARY
360
B7C9
102
}
102
{ACAD_REACTORS
330
B7BF
102
}
330
B7BF
100
AcDbMaterial
  1
ByBlock
 72
     0
 43
0.0208333333333333
 43
0.0
 43
0.0
 43
0.0
 43
0.0
 43
0.0208333333333333
 43
0.0
 43
0.0
 43
0.0
 43
0.0
 43
1.0
 43
0.0
 43
0.0
 43
0.0
 43
0.0
 43
1.0
 77
     0
 47
0.0208333333333333
 47
0.0
 47
0.0
 47
0.0
 47
0.0
 47
0.0208333333333333
 47
0.0
 47
0.0
 47
0.0
 47
0.0
 47
1.0
 47
0.0
 47
0.0
 47
0.0
 47
0.0
 47
1.0
171
     0
 49
0.0208333333333333
 49
0.0
 49
0.0
 49
0.0
 49
0.0
 49
0.0208333333333333
 49
0.0
 49
0.0
 49
0.0
 49
0.0
 49
1.0
 49
0.0
 49
0.0
 49
0.0
 49
0.0
 49
1.0
175
     0
142
0.0208333333333333
142
0.0
142
0.0
142
0.0
142
0.0
142
0.0208333333333333
142
0.0
142
0.0
142
0.0
142
0.0
142
1.0
142
0.0
142
0.0
142
0.0
142
0.0
142
1.0
179
     0
144
0.0208333333333333
144
0.0
144
0.0
144
0.0
144
0.0
144
0.0208333333333333
144
0.0
144
0.0
144
0.0
144
0.0
144
1.0
144
0.0
144
0.0
144
0.0
144
0.0
144
1.0
147
0.0208333333333333
147
0.0
147
0.0
147
0.0
147
0.0
147
0.0208333333333333
147
0.0
147
0.0
147
0.0
147
0.0
147
1.0
147
0.0
147
0.0
147
0.0
147
0.0
147
1.0
  0
MATERIAL
  5
B7C0
102
{ACAD_XDICTIONARY
360
B7C1
102
}
102
{ACAD_REACTORS
330
B7BF
102
}
330
B7BF
100
AcDbMaterial
  1
ByLayer
 72
     0
 43
0.0208333333333333
 43
0.0
 43
0.0
 43
0.0
 43
0.0
 43
0.0208333333333333
 43
0.0
 43
0.0
 43
0.0
 43
0.0
 43
1.0
 43
0.0
 43
0.0
 43
0.0
 43
0.0
 43
1.0
 77
     0
 47
0.0208333333333333
 47
0.0
 47
0.0
 47
0.0
 47
0.0
 47
0.0208333333333333
 47
0.0
 47
0.0
 47
0.0
 47
0.0
 47
1.0
 47
0.0
 47
0.0
 47
0.0
 47
0.0
 47
1.0
171
     0
 49
0.0208333333333333
 49
0.0
 49
0.0
 49
0.0
 49
0.0
 49
0.0208333333333333
 49
0.0
 49
0.0
 49
0.0
 49
0.0
 49
1.0
 49
0.0
 49
0.0
 49
0.0
 49
0.0
 49
1.0
175
     0
142
0.0208333333333333
142
0.0
142
0.0
142
0.0
142
0.0
142
0.0208333333333333
142
0.0
142
0.0
142
0.0
142
0.0
142
1.0
142
0.0
142
0.0
142
0.0
142
0.0
142
1.0
179
     0
144
0.0208333333333333
144
0.0
144
0.0
144
0.0
144
0.0
144
0.0208333333333333
144
0.0
144
0.0
144
0.0
144
0.0
144
1.0
144
0.0
144
0.0
144
0.0
144
0.0
144
1.0
147
0.0208333333333333
147
0.0
147
0.0
147
0.0
147
0.0
147
0.0208333333333333
147
0.0
147
0.0
147
0.0
147
0.0
147
1.0
147
0.0
147
0.0
147
0.0
147
0.0
147
1.0
  0
MATERIAL
  5
B7D0
102
{ACAD_XDICTIONARY
360
B7D1
102
}
102
{ACAD_REACTORS
330
B7BF
102
}
330
B7BF
100
AcDbMaterial
  1
Global
 72
     0
 43
0.0208333333333333
 43
0.0
 43
0.0
 43
0.0
 43
0.0
 43
0.0208333333333333
 43
0.0
 43
0.0
 43
0.0
 43
0.0
 43
1.0
 43
0.0
 43
0.0
 43
0.0
 43
0.0
 43
1.0
 77
     0
 47
0.0208333333333333
 47
0.0
 47
0.0
 47
0.0
 47
0.0
 47
0.0208333333333333
 47
0.0
 47
0.0
 47
0.0
 47
0.0
 47
1.0
 47
0.0
 47
0.0
 47
0.0
 47
0.0
 47
1.0
171
     0
 49
0.0208333333333333
 49
0.0
 49
0.0
 49
0.0
 49
0.0
 49
0.0208333333333333
 49
0.0
 49
0.0
 49
0.0
 49
0.0
 49
1.0
 49
0.0
 49
0.0
 49
0.0
 49
0.0
 49
1.0
175
     0
142
0.0208333333333333
142
0.0
142
0.0
142
0.0
142
0.0
142
0.0208333333333333
142
0.0
142
0.0
142
0.0
142
0.0
142
1.0
142
0.0
142
0.0
142
0.0
142
0.0
142
1.0
179
     0
144
0.0208333333333333
144
0.0
144
0.0
144
0.0
144
0.0
144
0.0208333333333333
144
0.0
144
0.0
144
0.0
144
0.0
144
1.0
144
0.0
144
0.0
144
0.0
144
0.0
144
1.0
147
0.0208333333333333
147
0.0
147
0.0
147
0.0
147
0.0
147
0.0208333333333333
147
0.0
147
0.0
147
0.0
147
0.0
147
1.0
147
0.0
147
0.0
147
0.0
147
0.0
147
1.0
  0
MLEADERSTYLE
  5
B807
102
{ACAD_REACTORS
330
B806
102
}
330
B806
100
AcDbMLeaderStyle
170
     2
171
     1
172
     0
 90
        2
 40
0.0
 41
0.0
173
     1
 91
-1056964608
340
B3A7
 92
       -2
290
     1
 42
0.09
291
     1
 43
0.36
  3
Standard
 44
0.18
300

342
B3A5
174
     1
178
     6
175
     1
176
     0
 93
-1056964608
 45
0.18
292
     0
297
     0
 46
0.18
 94
-1056964608
 47
1.0
 49
1.0
140
1.0
293
     1
141
0.0
294
     1
177
     0
142
1.0
295
     0
296
     0
143
0.125
1001
ACAD_MLEADERVER
1070
     2
  0
MLINESTYLE
  5
B3AB
102
{ACAD_REACTORS
330
B3AA
102
}
330
B3AA
100
AcDbMlineStyle
  2
STANDARD
 70
     0
  3

 62
   256
 51
90.0
 52
90.0
 71
     2
 49
0.5
 62
   256
  6
BYLAYER
 49
-0.5
 62
   256
  6
BYLAYER
  0
ACDBPLACEHOLDER
  5
B7BE
102
{ACAD_REACTORS
330
B7BD
102
}
330
B7BD
  0
SCALE
  5
B7F5
102
{ACAD_REACTORS
330
B7F4
102
}
330
B7F4
100
AcDbScale
 70
     0
300
1:1
140
1.0
141
1.0
290
     1
  0
SCALE
  5
B7F6
102
{ACAD_REACTORS
330
B7F4
102
}
330
B7F4
100
AcDbScale
 70
     0
300
1/128" = 1'-0"
140
0.0078125
141
12.0
290
     0
  0
SCALE
  5
B7F7
102
{ACAD_REACTORS
330
B7F4
102
}
330
B7F4
100
AcDbScale
 70
     0
300
1/64" = 1'-0"
140
0.015625
141
12.0
290
     0
  0
SCALE
  5
B7F8
102
{ACAD_REACTORS
330
B7F4
102
}
330
B7F4
100
AcDbScale
 70
     0
300
1/32" = 1'-0"
140
0.03125
141
12.0
290
     0
  0
SCALE
  5
B7F9
102
{ACAD_REACTORS
330
B7F4
102
}
330
B7F4
100
AcDbScale
 70
     0
300
1/16" = 1'-0"
140
0.0625
141
12.0
290
     0
  0
SCALE
  5
B7FA
102
{ACAD_REACTORS
330
B7F4
102
}
330
B7F4
100
AcDbScale
 70
     0
300
3/32" = 1'-0"
140
0.09375
141
12.0
290
     0
  0
SCALE
  5
B7FB
102
{ACAD_REACTORS
330
B7F4
102
}
330
B7F4
100
AcDbScale
 70
     0
300
1/8" = 1'-0"
140
0.125
141
12.0
290
     0
  0
SCALE
  5
B7FC
102
{ACAD_REACTORS
330
B7F4
102
}
330
B7F4
100
AcDbScale
 70
     0
300
3/16" = 1'-0"
140
0.1875
141
12.0
290
     0
  0
SCALE
  5
B7FD
102
{ACAD_REACTORS
330
B7F4
102
}
330
B7F4
100
AcDbScale
 70
     0
300
1/4" = 1'-0"
140
0.25
141
12.0
290
     0
  0
SCALE
  5
B7FE
102
{ACAD_REACTORS
330
B7F4
102
}
330
B7F4
100
AcDbScale
 70
     0
300
3/8" = 1'-0"
140
0.375
141
12.0
290
     0
  0
SCALE
  5
B7FF
102
{ACAD_REACTORS
330
B7F4
102
}
330
B7F4
100
AcDbScale
 70
     0
300
1/2" = 1'-0"
140
0.5
141
12.0
290
     0
  0
SCALE
  5
B800
102
{ACAD_REACTORS
330
B7F4
102
}
330
B7F4
100
AcDbScale
 70
     0
300
3/4" = 1'-0"
140
0.75
141
12.0
290
     0
  0
SCALE
  5
B801
102
{ACAD_REACTORS
330
B7F4
102
}
330
B7F4
100
AcDbScale
 70
     0
300
1" = 1'-0"
140
1.0
141
12.0
290
     0
  0
SCALE
  5
B802
102
{ACAD_REACTORS
330
B7F4
102
}
330
B7F4
100
AcDbScale
 70
     0
300
1-1/2" = 1'-0"
140
1.5
141
12.0
290
     0
  0
SCALE
  5
B803
102
{ACAD_REACTORS
330
B7F4
102
}
330
B7F4
100
AcDbScale
 70
     0
300
3" = 1'-0"
140
3.0
141
12.0
290
     0
  0
SCALE
  5
B804
102
{ACAD_REACTORS
330
B7F4
102
}
330
B7F4
100
AcDbScale
 70
     0
300
6" = 1'-0"
140
6.0
141
12.0
290
     0
  0
SCALE
  5
B805
102
{ACAD_REACTORS
330
B7F4
102
}
330
B7F4
100
AcDbScale
 70
     0
300
1'-0" = 1'-0"
140
12.0
141
12.0
290
     0
  0
ACDBSECTIONVIEWSTYLE
  5
B809
102
{ACAD_XDICTIONARY
360
B864
102
}
102
{ACAD_REACTORS
330
B808
102
}
330
B808
100
AcDbModelDocViewStyle
 70
     0
  3
Imperial24
290
     0
100
AcDbSectionViewStyle
 70
     0
 71
     0
 90
       78
 71
     1
340
B3A5
 40
0.24
340
0
340
0
 40
0.24
300
I, O, Q, S, X, Z
 40
0.48
 90
        3
 40
0.18
 90
        1
 71
     2
340
B3A9
 90
       25
340
B3A9
 90
       50
 40
0.24
 40
0.0
 40
0.24
 71
     3
340
B3A5
 40
0.24
 90
        1
 40
0.75
 90
        1
300
%<\AcVar ViewType \f "%tc1">% %<\AcVar ViewSectionStartId>%-%<\AcVar ViewSectionEndId>%\PSCALE %<\AcVar ViewScale \f "%sn">%
 71
     4
300
ANSI31
 40
1.0
 90
        0
290
     0
290
     0
 90
        6
 40
0.0
 40
1.570796326794896
 40
0.2617993877991494
 40
1.308996938995747
 40
-0.2617993877991494
 40
1.832595714594046
  0
TABLESTYLE
  5
B7F3
102
{ACAD_XDICTIONARY
360
B82B
102
}
102
{ACAD_REACTORS
330
B7F2
102
}
330
B7F2
100
AcDbTableStyle
  3
Standard
 70
     0
 71
     0
 40
0.06
 41
0.06
280
     0
281
     0
  7
STANDARD
140
0.18
170
     2
 62
     0
 63
     7
283
     0
274
    -2
284
     1
 64
     0
275
    -2
285
     1
 65
     0
276
    -2
286
     1
 66
     0
277
    -2
287
     1
 67
     0
278
    -2
288
     1
 68
     0
279
    -2
289
     1
 69
     0
  7
STANDARD
140
0.25
170
     5
 62
     0
 63
     7
283
     0
274
    -2
284
     1
 64
     0
275
    -2
285
     1
 65
     0
276
    -2
286
     1
 66
     0
277
    -2
287
     1
 67
     0
278
    -2
288
     1
 68
     0
279
    -2
289
     1
 69
     0
  7
STANDARD
140
0.18
170
     5
 62
     0
 63
     7
283
     0
274
    -2
284
     1
 64
     0
275
    -2
285
     1
 65
     0
276
    -2
286
     1
 66
     0
277
    -2
287
     1
 67
     0
278
    -2
288
     1
 68
     0
279
    -2
289
     1
 69
     0
  0
VISUALSTYLE
  5
B7DE
102
{ACAD_XDICTIONARY
360
B83C
102
}
102
{ACAD_REACTORS
330
B7D8
102
}
330
B7D8
100
AcDbVisualStyle
  2
2dWireframe
 70
     4
 71
     0
 72
     2
 73
     0
 90
        0
 40
-0.6
 41
-30.0
 62
     5
 63
     7
 74
     1
 91
        4
 64
     7
 65
   257
 75
     1
175
     1
 42
1.0
 92
        0
 66
   257
 43
1.0
 76
     1
 77
     6
 78
     2
 67
     7
 79
     5
170
     0
171
     0
290
     0
174
     0
 93
        1
 44
0.0
173
     0
291
     0
 45
0.0
1001
ACAD
1000
AcDbSavedByObjectVersion
1070
     0
  0
VISUALSTYLE
  5
B7DD
102
{ACAD_XDICTIONARY
360
B83A
102
}
102
{ACAD_REACTORS
330
B7D8
102
}
330
B7D8
100
AcDbVisualStyle
  2
Basic
 70
     7
 71
     1
 72
     0
 73
     1
 90
        0
 40
-0.6
 41
-30.0
 62
     5
 63
     7
 74
     0
 91
        4
 64
     7
 65
   257
 75
     1
175
     1
 42
1.0
 92
        8
 66
     7
 43
1.0
 76
     1
 77
     6
 78
     2
 67
     7
 79
     5
170
     0
171
     0
290
     0
174
     0
 93
        1
 44
0.0
173
     0
291
     1
 45
0.0
1001
ACAD
1000
AcDbSavedByObjectVersion
1070
     0
  0
VISUALSTYLE
  5
B7E4
102
{ACAD_XDICTIONARY
360
B848
102
}
102
{ACAD_REACTORS
330
B7D8
102
}
330
B7D8
100
AcDbVisualStyle
  2
Brighten
 70
    12
 71
     2
 72
     2
 73
     0
 90
        0
 40
-0.6
 41
-30.0
 62
     5
 63
     7
 74
     1
 91
        4
 64
     7
 65
   257
 75
     1
175
     1
 42
1.0
 92
        8
 66
     7
 43
1.0
 76
     1
 77
     6
 78
     2
 67
     7
 79
     5
170
     0
171
     0
290
     0
174
     0
 93
        1
 44
50.0
173
     0
291
     1
 45
0.0
1001
ACAD
1000
AcDbSavedByObjectVersion
1070
     0
  0
VISUALSTYLE
  5
B7E8
102
{ACAD_XDICTIONARY
360
B850
102
}
102
{ACAD_REACTORS
330
B7D8
102
}
330
B7D8
100
AcDbVisualStyle
  2
ColorChange
 70
    16
 71
     2
 72
     2
 73
     3
 90
        0
 40
-0.6
 41
-30.0
 62
     5
 63
     8
 74
     1
 91
        4
 64
     7
 65
   257
 75
     1
175
     1
 42
1.0
 92
        8
 66
     8
 43
1.0
 76
     1
 77
     6
 78
     2
 67
     7
 79
     5
170
     0
171
     0
290
     0
174
     0
 93
        1
 44
0.0
173
     0
291
     1
 45
0.0
1001
ACAD
1000
AcDbSavedByObjectVersion
1070
     0
  0
VISUALSTYLE
  5
B7E1
102
{ACAD_XDICTIONARY
360
B842
102
}
102
{ACAD_REACTORS
330
B7D8
102
}
330
B7D8
100
AcDbVisualStyle
  2
Conceptual
 70
     9
 71
     3
 72
     2
 73
     0
 90
        0
 40
-0.6
 41
-30.0
 62
     5
 63
     7
 74
     2
 91
        2
 64
     7
 65
   257
 75
     1
175
     1
 42
179.0
 92
        8
 66
     7
 43
1.0
 76
     1
 77
     6
 78
     2
 67
     7
 79
     3
170
     0
171
     0
290
     0
174
     0
 93
        1
 44
0.0
173
     0
291
     0
 45
0.0
1001
ACAD
1000
AcDbSavedByObjectVersion
1070
     0
  0
VISUALSTYLE
  5
B7E3
102
{ACAD_XDICTIONARY
360
B846
102
}
102
{ACAD_REACTORS
330
B7D8
102
}
330
B7D8
100
AcDbVisualStyle
  2
Dim
 70
    11
 71
     2
 72
     2
 73
     0
 90
        0
 40
-0.6
 41
-30.0
 62
     5
 63
     7
 74
     1
 91
        4
 64
     7
 65
   257
 75
     1
175
     1
 42
1.0
 92
        8
 66
     7
 43
1.0
 76
     1
 77
     6
 78
     2
 67
     7
 79
     5
170
     0
171
     0
290
     0
174
     0
 93
        1
 44
-50.0
173
     0
291
     1
 45
0.0
1001
ACAD
1000
AcDbSavedByObjectVersion
1070
     0
  0
VISUALSTYLE
  5
B7F0
102
{ACAD_XDICTIONARY
360
B860
102
}
102
{ACAD_REACTORS
330
B7D8
102
}
330
B7D8
100
AcDbVisualStyle
  2
EdgeColorOff
 70
    22
 71
     2
 72
     2
 73
     0
 90
        0
 40
-0.6
 41
-30.0
 62
     5
 63
     7
 74
     1
 91
        4
 64
     7
 65
   257
 75
     1
175
     1
 42
1.0
 92
        8
 66
     7
 43
1.0
 76
     1
 77
     6
 78
     2
 67
     7
 79
     5
170
     0
171
     0
290
     0
174
     0
 93
        1
 44
0.0
173
     0
291
     1
 45
0.0
1001
ACAD
1000
AcDbSavedByObjectVersion
1070
     0
  0
VISUALSTYLE
  5
B7E7
102
{ACAD_XDICTIONARY
360
B84E
102
}
102
{ACAD_REACTORS
330
B7D8
102
}
330
B7D8
100
AcDbVisualStyle
  2
Facepattern
 70
    15
 71
     2
 72
     2
 73
     0
 90
        0
 40
-0.6
 41
-30.0
 62
     5
 63
     7
 74
     1
 91
        4
 64
     7
 65
   257
 75
     1
175
     1
 42
1.0
 92
        8
 66
     7
 43
1.0
 76
     1
 77
     6
 78
     2
 67
     7
 79
     5
170
     0
171
     0
290
     0
174
     0
 93
        1
 44
0.0
173
     0
291
     1
 45
0.0
1001
ACAD
1000
AcDbSavedByObjectVersion
1070
     0
  0
VISUALSTYLE
  5
B7D9
102
{ACAD_XDICTIONARY
360
B832
102
}
102
{ACAD_REACTORS
330
B7D8
102
}
330
B7D8
100
AcDbVisualStyle
  2
Flat
 70
     0
 71
     2
 72
     1
 73
     1
 90
        2
 40
-0.6
 41
30.0
 62
     5
 63
     7
 74
     0
 91
        0
 64
     7
 65
   257
 75
     1
175
     1
 42
1.0
 92
        8
 66
     7
 43
1.0
 76
     1
 77
     6
 78
     2
 67
     7
 79
     5
170
     0
171
     0
290
     0
174
     0
 93
       13
 44
0.0
173
     0
291
     1
 45
0.0
1001
ACAD
1000
AcDbSavedByObjectVersion
1070
     0
  0
VISUALSTYLE
  5
B7DA
102
{ACAD_XDICTIONARY
360
B834
102
}
102
{ACAD_REACTORS
330
B7D8
102
}
330
B7D8
100
AcDbVisualStyle
  2
FlatWithEdges
 70
     1
 71
     2
 72
     1
 73
     1
 90
        2
 40
-0.6
 41
30.0
 62
     5
 63
     7
 74
     1
 91
        0
 64
     7
 65
   257
 75
     1
175
     1
 42
1.0
 92
        0
 66
   257
 43
1.0
 76
     1
 77
     6
 78
     2
 67
     7
 79
     5
170
     0
171
     0
290
     0
174
     0
 93
       13
 44
0.0
173
     0
291
     1
 45
0.0
1001
ACAD
1000
AcDbSavedByObjectVersion
1070
     0
  0
VISUALSTYLE
  5
B7DB
102
{ACAD_XDICTIONARY
360
B836
102
}
102
{ACAD_REACTORS
330
B7D8
102
}
330
B7D8
100
AcDbVisualStyle
  2
Gouraud
 70
     2
 71
     2
 72
     2
 73
     1
 90
        2
 40
-0.6
 41
30.0
 62
     5
 63
     7
 74
     0
 91
        0
 64
     7
 65
   257
 75
     1
175
     1
 42
1.0
 92
        0
 66
     7
 43
1.0
 76
     1
 77
     6
 78
     2
 67
     7
 79
     5
170
     0
171
     0
290
     0
174
     0
 93
       13
 44
0.0
173
     0
291
     1
 45
0.0
1001
ACAD
1000
AcDbSavedByObjectVersion
1070
     0
  0
VISUALSTYLE
  5
B7DC
102
{ACAD_XDICTIONARY
360
B838
102
}
102
{ACAD_REACTORS
330
B7D8
102
}
330
B7D8
100
AcDbVisualStyle
  2
GouraudWithEdges
 70
     3
 71
     2
 72
     2
 73
     1
 90
        2
 40
-0.6
 41
30.0
 62
     5
 63
     7
 74
     1
 91
        0
 64
     7
 65
   257
 75
     1
175
     1
 42
1.0
 92
        0
 66
   257
 43
1.0
 76
     1
 77
     6
 78
     2
 67
     7
 79
     5
170
     0
171
     0
290
     0
174
     0
 93
       13
 44
0.0
173
     0
291
     1
 45
0.0
1001
ACAD
1000
AcDbSavedByObjectVersion
1070
     0
  0
VISUALSTYLE
  5
B7E0
102
{ACAD_XDICTIONARY
360
B840
102
}
102
{ACAD_REACTORS
330
B7D8
102
}
330
B7D8
100
AcDbVisualStyle
  2
Hidden
 70
     6
 71
     1
 72
     2
 73
     2
 90
        0
 40
-0.6
 41
-30.0
 62
     5
 63
     7
 74
     2
 91
        2
 64
     7
 65
   257
 75
     2
175
     1
 42
40.0
 92
        0
 66
   257
 43
1.0
 76
     1
 77
     6
 78
     2
 67
     7
 79
     3
170
     0
171
     0
290
     0
174
     0
 93
        1
 44
0.0
173
     0
291
     0
 45
0.0
1001
ACAD
1000
AcDbSavedByObjectVersion
1070
     0
  0
VISUALSTYLE
  5
B7EE
102
{ACAD_XDICTIONARY
360
B85C
102
}
102
{ACAD_REACTORS
330
B7D8
102
}
330
B7D8
100
AcDbVisualStyle
  2
JitterOff
 70
    20
 71
     2
 72
     2
 73
     0
 90
        0
 40
-0.6
 41
-30.0
 62
     5
 63
     7
 74
     1
 91
        4
 64
     7
 65
   257
 75
     1
175
     1
 42
1.0
 92
       10
 66
     7
 43
1.0
 76
     1
 77
     6
 78
     2
 67
     7
 79
     5
170
     0
171
     0
290
     0
174
     0
 93
        1
 44
0.0
173
     0
291
     1
 45
0.0
1001
ACAD
1000
AcDbSavedByObjectVersion
1070
     0
  0
VISUALSTYLE
  5
B7E6
102
{ACAD_XDICTIONARY
360
B84C
102
}
102
{ACAD_REACTORS
330
B7D8
102
}
330
B7D8
100
AcDbVisualStyle
  2
Linepattern
 70
    14
 71
     2
 72
     2
 73
     0
 90
        0
 40
-0.6
 41
-30.0
 62
     5
 63
     7
 74
     1
 91
        4
 64
     7
 65
   257
 75
     7
175
     7
 42
1.0
 92
        8
 66
     7
 43
1.0
 76
     1
 77
     6
 78
     2
 67
     7
 79
     5
170
     0
171
     0
290
     0
174
     0
 93
        1
 44
0.0
173
     0
291
     1
 45
0.0
1001
ACAD
1000
AcDbSavedByObjectVersion
1070
     0
  0
VISUALSTYLE
  5
B7EF
102
{ACAD_XDICTIONARY
360
B85E
102
}
102
{ACAD_REACTORS
330
B7D8
102
}
330
B7D8
100
AcDbVisualStyle
  2
OverhangOff
 70
    21
 71
     2
 72
     2
 73
     0
 90
        0
 40
-0.6
 41
-30.0
 62
     5
 63
     7
 74
     1
 91
        4
 64
     7
 65
   257
 75
     1
175
     1
 42
1.0
 92
        9
 66
     7
 43
1.0
 76
     1
 77
     6
 78
     2
 67
     7
 79
     5
170
     0
171
     0
290
     0
174
     0
 93
        1
 44
0.0
173
     0
291
     1
 45
0.0
1001
ACAD
1000
AcDbSavedByObjectVersion
1070
     0
  0
VISUALSTYLE
  5
B7E2
102
{ACAD_XDICTIONARY
360
B844
102
}
102
{ACAD_REACTORS
330
B7D8
102
}
330
B7D8
100
AcDbVisualStyle
  2
Realistic
 70
     8
 71
     2
 72
     3
 73
     0
 90
        2
 40
-0.6
 41
30.0
 62
     5
 63
     7
 74
     0
 91
        0
 64
     7
 65
   257
 75
     1
175
     1
 42
1.0
 92
        8
 66
   257
 43
1.0
 76
     1
 77
     6
 78
     2
 67
     7
 79
     3
170
     0
171
     0
290
     0
174
     0
 93
       13
 44
0.0
173
     0
291
     0
 45
0.0
1001
ACAD
1000
AcDbSavedByObjectVersion
1070
     0
  0
VISUALSTYLE
  5
B7ED
102
{ACAD_XDICTIONARY
360
B85A
102
}
102
{ACAD_REACTORS
330
B7D8
102
}
330
B7D8
100
AcDbVisualStyle
  2
Shaded
 70
    27
 71
     2
 72
     2
 73
     1
 90
        2
 40
-0.6
 41
30.0
 62
     5
 63
     7
 74
     0
 91
        4
 64
     7
 65
   257
 75
     1
175
     1
 42
1.0
 92
        8
 66
   257
 43
1.0
 76
     1
 77
     6
 78
     2
 67
     8
 79
     3
170
     0
171
     0
290
     0
174
     0
 93
        5
 44
0.0
173
     0
291
     0
 45
0.0
1001
ACAD
1000
AcDbSavedByObjectVersion
1070
     0
  0
VISUALSTYLE
  5
B7EC
102
{ACAD_XDICTIONARY
360
B858
102
}
102
{ACAD_REACTORS
330
B7D8
102
}
330
B7D8
100
AcDbVisualStyle
  2
Shaded with edges
 70
    26
 71
     2
 72
     2
 73
     1
 90
        2
 40
-0.6
 41
30.0
 62
     5
 63
     7
 74
     1
 91
       10
 64
     7
 65
   257
 75
     2
175
     1
 42
1.0
 92
        8
 66
   257
 43
1.0
 76
     1
 77
     6
 78
     2
 67
     7
 79
     3
170
     0
171
     0
290
     0
174
     0
 93
        5
 44
0.0
173
     0
291
     0
 45
0.0
1001
ACAD
1000
AcDbSavedByObjectVersion
1070
     0
  0
VISUALSTYLE
  5
B7E9
102
{ACAD_XDICTIONARY
360
B852
102
}
102
{ACAD_REACTORS
330
B7D8
102
}
330
B7D8
100
AcDbVisualStyle
  2
Shades of Gray
 70
    23
 71
     2
 72
     2
 73
     3
 90
        0
 40
-0.6
 41
-30.0
 62
     5
 63
     7
 74
     2
 91
        2
 64
     7
 65
     7
 75
     1
175
     1
 42
40.0
 92
        8
 66
     7
 43
1.0
 76
     1
 77
     6
 78
     2
 67
     7
 79
     3
170
     0
171
     0
290
     0
174
     0
 93
        1
 44
0.0
173
     0
291
     0
 45
0.0
1001
ACAD
1000
AcDbSavedByObjectVersion
1070
     0
  0
VISUALSTYLE
  5
B7EA
102
{ACAD_XDICTIONARY
360
B854
102
}
102
{ACAD_REACTORS
330
B7D8
102
}
330
B7D8
100
AcDbVisualStyle
  2
Sketchy
 70
    24
 71
     1
 72
     2
 73
     2
 90
        0
 40
-0.6
 41
-30.0
 62
     5
 63
     7
 74
     2
 91
        2
 64
     7
 65
     7
 75
     1
175
     1
 42
40.0
 92
       11
 66
     7
 43
1.0
 76
     1
 77
     6
 78
     2
 67
     7
 79
     6
170
     0
171
     0
290
     0
174
     0
 93
        1
 44
0.0
173
     0
291
     0
 45
0.0
1001
ACAD
1000
AcDbSavedByObjectVersion
1070
     0
  0
VISUALSTYLE
  5
B7E5
102
{ACAD_XDICTIONARY
360
B84A
102
}
102
{ACAD_REACTORS
330
B7D8
102
}
330
B7D8
100
AcDbVisualStyle
  2
Thicken
 70
    13
 71
     2
 72
     2
 73
     0
 90
        0
 40
-0.6
 41
-30.0
 62
     5
 63
     7
 74
     1
 91
        4
 64
     7
 65
   257
 75
     1
175
     1
 42
1.0
 92
       12
 66
     7
 43
1.0
 76
     1
 77
     6
 78
     2
 67
     7
 79
     5
170
     0
171
     0
290
     0
174
     0
 93
        1
 44
0.0
173
     0
291
     1
 45
0.0
1001
ACAD
1000
AcDbSavedByObjectVersion
1070
     0
  0
VISUALSTYLE
  5
B7DF
102
{ACAD_XDICTIONARY
360
B83E
102
}
102
{ACAD_REACTORS
330
B7D8
102
}
330
B7D8
100
AcDbVisualStyle
  2
Wireframe
 70
     5
 71
     0
 72
     2
 73
     0
 90
        0
 40
-0.6
 41
-30.0
 62
     5
 63
     7
 74
     1
 91
        4
 64
     7
 65
   257
 75
     1
175
     1
 42
1.0
 92
        0
 66
   257
 43
1.0
 76
     1
 77
     6
 78
     2
 67
     7
 79
     3
170
     0
171
     0
290
     0
174
     0
 93
        1
 44
0.0
173
     0
291
     0
 45
0.0
1001
ACAD
1000
AcDbSavedByObjectVersion
1070
     0
  0
VISUALSTYLE
  5
B7EB
102
{ACAD_XDICTIONARY
360
B856
102
}
102
{ACAD_REACTORS
330
B7D8
102
}
330
B7D8
100
AcDbVisualStyle
  2
X-Ray
 70
    25
 71
     2
 72
     2
 73
     1
 90
        1
 40
0.5
 41
-30.0
 62
     5
 63
     7
 74
     1
 91
        0
 64
     7
 65
   257
 75
     1
175
     1
 42
1.0
 92
        8
 66
     7
 43
1.0
 76
     1
 77
     6
 78
     2
 67
     7
 79
     3
170
     0
171
     0
290
     0
174
     0
 93
       13
 44
0.0
173
     0
291
     0
 45
0.0
1001
ACAD
1000
AcDbSavedByObjectVersion
1070
     0
  0
DICTIONARYVAR
  5
B825
102
{ACAD_REACTORS
330
B820
102
}
330
B820
100
DictionaryVariables
280
     0
  1
1:1
  0
DICTIONARYVAR
  5
B822
102
{ACAD_REACTORS
330
B820
102
}
330
B820
100
DictionaryVariables
280
     0
  1
STANDARD
  0
DICTIONARYVAR
  5
B821
102
{ACAD_REACTORS
330
B820
102
}
330
B820
100
DictionaryVariables
280
     0
  1
STANDARD
  0
DICTIONARYVAR
  5
B823
102
{ACAD_REACTORS
330
B820
102
}
330
B820
100
DictionaryVariables
280
     0
  1
Imperial24
  0
DICTIONARYVAR
  5
B824
102
{ACAD_REACTORS
330
B820
102
}
330
B820
100
DictionaryVariables
280
     0
  1
Imperial24
  0
DICTIONARYVAR
  5
B828
102
{ACAD_REACTORS
330
B820
102
}
330
B820
100
DictionaryVariables
280
     0
  1
1
  0
DICTIONARYVAR
  5
B827
102
{ACAD_REACTORS
330
B820
102
}
330
B820
100
DictionaryVariables
280
     0
  1
0
  0
DICTIONARYVAR
  5
B826
102
{ACAD_REACTORS
330
B820
102
}
330
B820
100
DictionaryVariables
280
     0
  1
127
  0
DICTIONARYVAR
  5
B829
102
{ACAD_REACTORS
330
B820
102
}
330
B820
100
DictionaryVariables
280
     0
  1
2
  0
DICTIONARY
  5
B866
330
B80B
100
AcDbDictionary
280
     1
281
     1
  3
ACAD_XREC_ROUNDTRIP
360
B867
  0
DICTIONARY
  5
B868
330
B80C
100
AcDbDictionary
280
     1
281
     1
  3
ACAD_XREC_ROUNDTRIP
360
B869
  0
DICTIONARY
  5
B86A
330
B80D
100
AcDbDictionary
280
     1
281
     1
  3
ACAD_XREC_ROUNDTRIP
360
B86B
  0
DICTIONARY
  5
B7C9
330
B7C8
100
AcDbDictionary
280
     1
281
     1
  3
ACAD_XREC_ROUNDTRIP
360
B830
  3
BUMPTILE
360
B7CB
  3
DIFFUSETILE
360
B7CA
  3
OPACITYTILE
360
B7CE
  3
REFLECTIONTILE
360
B7CD
  3
REFRACTIONTILE
360
B7CF
  3
SPECULARTILE
360
B7CC
  0
DICTIONARY
  5
B7C1
330
B7C0
100
AcDbDictionary
280
     1
281
     1
  3
ACAD_XREC_ROUNDTRIP
360
B82F
  3
BUMPTILE
360
B7C3
  3
DIFFUSETILE
360
B7C2
  3
OPACITYTILE
360
B7C6
  3
REFLECTIONTILE
360
B7C5
  3
REFRACTIONTILE
360
B7C7
  3
SPECULARTILE
360
B7C4
  0
DICTIONARY
  5
B7D1
330
B7D0
100
AcDbDictionary
280
     1
281
     1
  3
ACAD_XREC_ROUNDTRIP
360
B831
  3
BUMPTILE
360
B7D3
  3
DIFFUSETILE
360
B7D2
  3
OPACITYTILE
360
B7D6
  3
REFLECTIONTILE
360
B7D5
  3
REFRACTIONTILE
360
B7D7
  3
SPECULARTILE
360
B7D4
  0
DICTIONARY
  5
B864
330
B809
100
AcDbDictionary
280
     1
281
     1
  3
ACAD_XREC_ROUNDTRIP
360
B865
  0
DICTIONARY
  5
B82B
330
B7F3
100
AcDbDictionary
280
     1
281
     1
  3
ACAD_ROUNDTRIP_2008_TABLESTYLE_CELLSTYLEMAP
360
B82C
  3
ACAD_XREC_ROUNDTRIP
360
B862
  0
DICTIONARY
  5
B83C
330
B7DE
100
AcDbDictionary
280
     1
281
     1
  3
ACAD_XREC_ROUNDTRIP
360
B83D
  0
DICTIONARY
  5
B83A
330
B7DD
100
AcDbDictionary
280
     1
281
     1
  3
ACAD_XREC_ROUNDTRIP
360
B83B
  0
DICTIONARY
  5
B848
330
B7E4
100
AcDbDictionary
280
     1
281
     1
  3
ACAD_XREC_ROUNDTRIP
360
B849
  0
DICTIONARY
  5
B850
330
B7E8
100
AcDbDictionary
280
     1
281
     1
  3
ACAD_XREC_ROUNDTRIP
360
B851
  0
DICTIONARY
  5
B842
330
B7E1
100
AcDbDictionary
280
     1
281
     1
  3
ACAD_XREC_ROUNDTRIP
360
B843
  0
DICTIONARY
  5
B846
330
B7E3
100
AcDbDictionary
280
     1
281
     1
  3
ACAD_XREC_ROUNDTRIP
360
B847
  0
DICTIONARY
  5
B860
330
B7F0
100
AcDbDictionary
280
     1
281
     1
  3
ACAD_XREC_ROUNDTRIP
360
B861
  0
DICTIONARY
  5
B84E
330
B7E7
100
AcDbDictionary
280
     1
281
     1
  3
ACAD_XREC_ROUNDTRIP
360
B84F
  0
DICTIONARY
  5
B832
330
B7D9
100
AcDbDictionary
280
     1
281
     1
  3
ACAD_XREC_ROUNDTRIP
360
B833
  0
DICTIONARY
  5
B834
330
B7DA
100
AcDbDictionary
280
     1
281
     1
  3
ACAD_XREC_ROUNDTRIP
360
B835
  0
DICTIONARY
  5
B836
330
B7DB
100
AcDbDictionary
280
     1
281
     1
  3
ACAD_XREC_ROUNDTRIP
360
B837
  0
DICTIONARY
  5
B838
330
B7DC
100
AcDbDictionary
280
     1
281
     1
  3
ACAD_XREC_ROUNDTRIP
360
B839
  0
DICTIONARY
  5
B840
330
B7E0
100
AcDbDictionary
280
     1
281
     1
  3
ACAD_XREC_ROUNDTRIP
360
B841
  0
DICTIONARY
  5
B85C
330
B7EE
100
AcDbDictionary
280
     1
281
     1
  3
ACAD_XREC_ROUNDTRIP
360
B85D
  0
DICTIONARY
  5
B84C
330
B7E6
100
AcDbDictionary
280
     1
281
     1
  3
ACAD_XREC_ROUNDTRIP
360
B84D
  0
DICTIONARY
  5
B85E
330
B7EF
100
AcDbDictionary
280
     1
281
     1
  3
ACAD_XREC_ROUNDTRIP
360
B85F
  0
DICTIONARY
  5
B844
330
B7E2
100
AcDbDictionary
280
     1
281
     1
  3
ACAD_XREC_ROUNDTRIP
360
B845
  0
DICTIONARY
  5
B85A
330
B7ED
100
AcDbDictionary
280
     1
281
     1
  3
ACAD_XREC_ROUNDTRIP
360
B85B
  0
DICTIONARY
  5
B858
330
B7EC
100
AcDbDictionary
280
     1
281
     1
  3
ACAD_XREC_ROUNDTRIP
360
B859
  0
DICTIONARY
  5
B852
330
B7E9
100
AcDbDictionary
280
     1
281
     1
  3
ACAD_XREC_ROUNDTRIP
360
B853
  0
DICTIONARY
  5
B854
330
B7EA
100
AcDbDictionary
280
     1
281
     1
  3
ACAD_XREC_ROUNDTRIP
360
B855
  0
DICTIONARY
  5
B84A
330
B7E5
100
AcDbDictionary
280
     1
281
     1
  3
ACAD_XREC_ROUNDTRIP
360
B84B
  0
DICTIONARY
  5
B83E
330
B7DF
100
AcDbDictionary
280
     1
281
     1
  3
ACAD_XREC_ROUNDTRIP
360
B83F
  0
DICTIONARY
  5
B856
330
B7EB
100
AcDbDictionary
280
     1
281
     1
  3
ACAD_XREC_ROUNDTRIP
360
B857
  0
XRECORD
  5
B867
102
{ACAD_REACTORS
330
B866
102
}
330
B866
100
AcDbXrecord
280
     1
102
DISPLAYNAME
  1
Imperial24
102
FLAGS
 90
        0
  0
XRECORD
  5
B869
102
{ACAD_REACTORS
330
B868
102
}
330
B868
100
AcDbXrecord
280
     1
102
SHADEPLOT
 70
     0
102
SHADEPLOTRESLEVEL
 70
     2
102
SHADEPLOTCUSTOMDPI
 70
   300
  0
XRECORD
  5
B86B
102
{ACAD_REACTORS
330
B86A
102
}
330
B86A
100
AcDbXrecord
280
     1
102
SHADEPLOT
 70
     0
102
SHADEPLOTRESLEVEL
 70
     2
102
SHADEPLOTCUSTOMDPI
 70
   300
  0
XRECORD
  5
B830
102
{ACAD_REACTORS
330
B7C9
102
}
330
B7C9
100
AcDbXrecord
280
     1
102
MATERIAL
148
0.0
149
0.0
149
0.0
 93
        0
 94
      127
282
     0
 72
     0
 77
     0
171
     0
175
     0
179
     0
273
     0
  0
XRECORD
  5
B7CB
102
{ACAD_REACTORS
330
B7C9
102
}
330
B7C9
100
AcDbXrecord
280
     1
270
     1
271
     1
  0
XRECORD
  5
B7CA
102
{ACAD_REACTORS
330
B7C9
102
}
330
B7C9
100
AcDbXrecord
280
     1
270
     1
271
     1
  0
XRECORD
  5
B7CE
102
{ACAD_REACTORS
330
B7C9
102
}
330
B7C9
100
AcDbXrecord
280
     1
270
     1
271
     1
  0
XRECORD
  5
B7CD
102
{ACAD_REACTORS
330
B7C9
102
}
330
B7C9
100
AcDbXrecord
280
     1
270
     1
271
     1
  0
XRECORD
  5
B7CF
102
{ACAD_REACTORS
330
B7C9
102
}
330
B7C9
100
AcDbXrecord
280
     1
270
     1
271
     1
  0
XRECORD
  5
B7CC
102
{ACAD_REACTORS
330
B7C9
102
}
330
B7C9
100
AcDbXrecord
280
     1
270
     1
271
     1
  0
XRECORD
  5
B82F
102
{ACAD_REACTORS
330
B7C1
102
}
330
B7C1
100
AcDbXrecord
280
     1
102
MATERIAL
148
0.0
149
0.0
149
0.0
 93
        0
 94
      127
282
     0
 72
     0
 77
     0
171
     0
175
     0
179
     0
273
     0
  0
XRECORD
  5
B7C3
102
{ACAD_REACTORS
330
B7C1
102
}
330
B7C1
100
AcDbXrecord
280
     1
270
     1
271
     1
  0
XRECORD
  5
B7C2
102
{ACAD_REACTORS
330
B7C1
102
}
330
B7C1
100
AcDbXrecord
280
     1
270
     1
271
     1
  0
XRECORD
  5
B7C6
102
{ACAD_REACTORS
330
B7C1
102
}
330
B7C1
100
AcDbXrecord
280
     1
270
     1
271
     1
  0
XRECORD
  5
B7C5
102
{ACAD_REACTORS
330
B7C1
102
}
330
B7C1
100
AcDbXrecord
280
     1
270
     1
271
     1
  0
XRECORD
  5
B7C7
102
{ACAD_REACTORS
330
B7C1
102
}
330
B7C1
100
AcDbXrecord
280
     1
270
     1
271
     1
  0
XRECORD
  5
B7C4
102
{ACAD_REACTORS
330
B7C1
102
}
330
B7C1
100
AcDbXrecord
280
     1
270
     1
271
     1
  0
XRECORD
  5
B831
102
{ACAD_REACTORS
330
B7D1
102
}
330
B7D1
100
AcDbXrecord
280
     1
102
MATERIAL
148
0.0
149
0.0
149
0.0
 93
        0
 94
      127
282
     0
 72
     0
 77
     0
171
     0
175
     0
179
     0
273
     0
  0
XRECORD
  5
B7D3
102
{ACAD_REACTORS
330
B7D1
102
}
330
B7D1
100
AcDbXrecord
280
     1
270
     1
271
     1
  0
XRECORD
  5
B7D2
102
{ACAD_REACTORS
330
B7D1
102
}
330
B7D1
100
AcDbXrecord
280
     1
270
     1
271
     1
  0
XRECORD
  5
B7D6
102
{ACAD_REACTORS
330
B7D1
102
}
330
B7D1
100
AcDbXrecord
280
     1
270
     1
271
     1
  0
XRECORD
  5
B7D5
102
{ACAD_REACTORS
330
B7D1
102
}
330
B7D1
100
AcDbXrecord
280
     1
270
     1
271
     1
  0
XRECORD
  5
B7D7
102
{ACAD_REACTORS
330
B7D1
102
}
330
B7D1
100
AcDbXrecord
280
     1
270
     1
271
     1
  0
XRECORD
  5
B7D4
102
{ACAD_REACTORS
330
B7D1
102
}
330
B7D1
100
AcDbXrecord
280
     1
270
     1
271
     1
  0
XRECORD
  5
B865
102
{ACAD_REACTORS
330
B864
102
}
330
B864
100
AcDbXrecord
280
     1
102
DISPLAYNAME
  1
Imperial24
102
FLAGS
 90
        0
  0
CELLSTYLEMAP
  5
B82C
102
{ACAD_REACTORS
330
B82B
102
}
330
B82B
100
AcDbCellStyleMap
 90
        3
300
CELLSTYLE
  1
TABLEFORMAT_BEGIN
 90
        5
170
     1
 91
        0
 92
    32768
 62
   257
 93
        1
300
CONTENTFORMAT
  1
CONTENTFORMAT_BEGIN
 90
        0
 91
        0
 92
      512
 93
        0
300

 40
0.0
140
1.0
 94
        5
 62
     0
340
B3A5
144
0.25
309
CONTENTFORMAT_END
171
     0
 94
        0
309
TABLEFORMAT_END
  1
CELLSTYLE_BEGIN
 90
        1
 91
        1
300
_TITLE
309
CELLSTYLE_END
300
CELLSTYLE
  1
TABLEFORMAT_BEGIN
 90
        5
170
     1
 91
        0
 92
        0
 62
   257
 93
        1
300
CONTENTFORMAT
  1
CONTENTFORMAT_BEGIN
 90
        0
 91
        0
 92
      512
 93
        0
300

 40
0.0
140
1.0
 94
        5
 62
     0
340
B3A5
144
0.18
309
CONTENTFORMAT_END
171
     0
 94
        0
309
TABLEFORMAT_END
  1
CELLSTYLE_BEGIN
 90
        2
 91
        1
300
_HEADER
309
CELLSTYLE_END
300
CELLSTYLE
  1
TABLEFORMAT_BEGIN
 90
        5
170
     1
 91
        0
 92
        0
 62
   257
 93
        1
300
CONTENTFORMAT
  1
CONTENTFORMAT_BEGIN
 90
        0
 91
        0
 92
      512
 93
        0
300

 40
0.0
140
1.0
 94
        2
 62
     0
340
B3A5
144
0.18
309
CONTENTFORMAT_END
171
     0
 94
        0
309
TABLEFORMAT_END
  1
CELLSTYLE_BEGIN
 90
        3
 91
        2
300
_DATA
309
CELLSTYLE_END
  0
XRECORD
  5
B862
102
{ACAD_REACTORS
330
B82B
102
}
330
B82B
100
AcDbXrecord
280
     1
102
ACAD_ROUNDTRIP_PRE2007_TABLESTYLE
 90
      512
 91
        0
  1

 92
      512
 93
        0
  2

 94
      512
 95
        0
  3

  0
XRECORD
  5
B83D
102
{ACAD_REACTORS
330
B83C
102
}
330
B83C
100
AcDbXrecord
280
     1
102
RTVSPost2010Prop28
280
     1
102
RTVSPost2010PropOp28
 70
     1
102
RTVSPost2010Prop29
280
     1
102
RTVSPost2010PropOp29
 70
     1
102
RTVSPost2010Prop30
280
     0
102
RTVSPost2010PropOp30
 70
     1
102
RTVSPost2010Prop31
280
     0
102
RTVSPost2010PropOp31
 70
     1
102
RTVSPost2010Prop32
280
     0
102
RTVSPost2010PropOp32
 70
     1
102
RTVSPost2010Prop33
280
     0
102
RTVSPost2010PropOp33
 70
     1
102
RTVSPost2010Prop34
280
     0
102
RTVSPost2010PropOp34
 70
     1
102
RTVSPost2010Prop35
280
     0
102
RTVSPost2010PropOp35
 70
     1
102
RTVSPost2010Prop36
280
     0
102
RTVSPost2010PropOp36
 70
     1
102
RTVSPost2010Prop37
 90
       50
102
RTVSPost2010PropOp37
 70
     1
102
RTVSPost2010Prop38
140
0.0
102
RTVSPost2010PropOp38
 70
     1
102
RTVSPost2010Prop39
140
1.0
102
RTVSPost2010PropOp39
 70
     1
102
RTVSPost2010Prop40
 90
        0
102
RTVSPost2010PropOp40
 70
     1
102
RTVSPost2010Prop41ColorIndex
 90
       18
102
RTVSPost2010Prop41ColorRGB
 90
        0
102
RTVSPost2010PropOp41
 70
     1
102
RTVSPost2010Prop42
 90
       50
102
RTVSPost2010PropOp42
 70
     1
102
RTVSPost2010Prop43
 90
        3
102
RTVSPost2010PropOp43
 70
     1
102
RTVSPost2010Prop44ColorIndex
 90
        5
102
RTVSPost2010Prop44ColorRGB
 90
      255
102
RTVSPost2010PropOp44
 70
     1
102
RTVSPost2010Prop45
280
     0
102
RTVSPost2010PropOp45
 70
     1
102
RTVSPost2010Prop46
 90
       50
102
RTVSPost2010PropOp46
 70
     1
102
RTVSPost2010Prop47
 90
       50
102
RTVSPost2010PropOp47
 70
     1
102
RTVSPost2010Prop48
 90
       50
102
RTVSPost2010PropOp48
 70
     1
102
RTVSPost2010Prop49
280
     0
102
RTVSPost2010PropOp49
 70
     1
102
RTVSPost2010Prop50
 90
       50
102
RTVSPost2010PropOp50
 70
     1
102
RTVSPost2010Prop51ColorIndex
 90
      256
102
RTVSPost2010Prop51ColorRGB
 90
-16777216
102
RTVSPost2010PropOp51
 70
     0
102
RTVSPost2010Prop52
140
1.0
102
RTVSPost2010PropOp52
 70
     0
102
RTVSPost2010Prop53
 90
        2
102
RTVSPost2010PropOp53
 70
     1
102
RTVSPost2010Prop54
  1
strokes_ogs.tif
102
RTVSPost2010PropOp54
 70
     1
102
RTVSPost2010Prop55
280
     0
102
RTVSPost2010PropOp55
 70
     1
102
RTVSPost2010Prop56
140
1.0
102
RTVSPost2010PropOp56
 70
     1
102
RTVSPost2010Prop57
140
1.0
102
RTVSPost2010PropOp57
 70
     1
102
RTVSPropertyOp0
 70
     1
102
RTVSPropertyOp1
 70
     1
102
RTVSPropertyOp2
 70
     1
102
RTVSPropertyOp3
 70
     1
102
RTVSPropertyOp4
 70
     1
102
RTVSPropertyOp5
 70
     1
102
RTVSPropertyOp6
 70
     1
102
RTVSPropertyOp7
 70
     1
102
RTVSPropertyOp8
 70
     1
102
RTVSPropertyOp9
 70
     1
102
RTVSPropertyOp10
 70
     1
102
RTVSPropertyOp11
 70
     1
102
RTVSPropertyOp12
 70
     1
102
RTVSPropertyOp13
 70
     1
102
RTVSPropertyOp14
 70
     1
102
RTVSPropertyOp15
 70
     1
102
RTVSPropertyOp16
 70
     1
102
RTVSPropertyOp17
 70
     1
102
RTVSPropertyOp18
 70
     1
102
RTVSPropertyOp19
 70
     1
102
RTVSPropertyOp20
 70
     1
102
RTVSPropertyOp21
 70
     1
102
RTVSPropertyOp22
 70
     1
102
RTVSPropertyOp23
 70
     1
102
RTVSPropertyOp24
 70
     1
102
RTVSPropertyOp25
 70
     1
102
RTVSPropertyOp26
 70
     1
102
RTVSPropertyOp27
 70
     1
102
RTVSPropertyOp28
 70
     1
102
RTVSPropertyOp29
 70
     1
102
RTVSPropertyOp30
 70
     1
102
RTVSPropertyOp31
 70
     1
102
RTVSPropertyOp32
 70
     1
102
RTVSPropertyOp33
 70
     1
102
RTVSPropertyOp34
 70
     1
102
RTVSPropertyOp35
 70
     1
102
RTVSPropertyOp36
 70
     1
102
RTVSPropertyOp37
 70
     1
102
RTVSPropertyOp38
 70
     1
102
RTVSPropertyOp39
 70
     1
102
RTVSPropertyOp40
 70
     1
102
RTVSPropertyOp41
 70
     1
102
RTVSPropertyOp42
 70
     1
102
RTVSPropertyOp43
 70
     1
102
RTVSPropertyOp44
 70
     1
102
RTVSPropertyOp45
 70
     1
102
RTVSPropertyOp46
 70
     1
102
RTVSPropertyOp47
 70
     1
102
RTVSPropertyOp48
 70
     1
102
RTVSPropertyOp49
 70
     1
102
RTVSPropertyOp50
 70
     1
102
RTVSPropertyOp51
 70
     0
102
RTVSPropertyOp52
 70
     0
102
RTVSPropertyOp53
 70
     1
102
RTVSPropertyOp54
 70
     1
102
RTVSPropertyOp55
 70
     1
102
RTVSPropertyOp56
 70
     1
102
RTVSPropertyOp57
 70
     1
102
RTVSPropertyOp58
 70
     1
102
RTVSPropertyOp59
 70
     1
102
RTVSPropertyOp60
 70
     1
102
RTVSPropertyOp61
 70
     1
102
RTVSPropertyOp62
 70
     1
  0
XRECORD
  5
B83B
102
{ACAD_REACTORS
330
B83A
102
}
330
B83A
100
AcDbXrecord
280
     1
102
RTVSPost2010Prop28
280
     0
102
RTVSPost2010PropOp28
 70
     1
102
RTVSPost2010Prop29
280
     1
102
RTVSPost2010PropOp29
 70
     1
102
RTVSPost2010Prop30
280
     1
102
RTVSPost2010PropOp30
 70
     1
102
RTVSPost2010Prop31
280
     0
102
RTVSPost2010PropOp31
 70
     1
102
RTVSPost2010Prop32
280
     0
102
RTVSPost2010PropOp32
 70
     1
102
RTVSPost2010Prop33
280
     0
102
RTVSPost2010PropOp33
 70
     1
102
RTVSPost2010Prop34
280
     0
102
RTVSPost2010PropOp34
 70
     1
102
RTVSPost2010Prop35
280
     0
102
RTVSPost2010PropOp35
 70
     1
102
RTVSPost2010Prop36
280
     0
102
RTVSPost2010PropOp36
 70
     1
102
RTVSPost2010Prop37
 90
       50
102
RTVSPost2010PropOp37
 70
     1
102
RTVSPost2010Prop38
140
0.0
102
RTVSPost2010PropOp38
 70
     1
102
RTVSPost2010Prop39
140
1.0
102
RTVSPost2010PropOp39
 70
     1
102
RTVSPost2010Prop40
 90
        0
102
RTVSPost2010PropOp40
 70
     1
102
RTVSPost2010Prop41ColorIndex
 90
       18
102
RTVSPost2010Prop41ColorRGB
 90
        0
102
RTVSPost2010PropOp41
 70
     1
102
RTVSPost2010Prop42
 90
       50
102
RTVSPost2010PropOp42
 70
     1
102
RTVSPost2010Prop43
 90
        3
102
RTVSPost2010PropOp43
 70
     1
102
RTVSPost2010Prop44ColorIndex
 90
        5
102
RTVSPost2010Prop44ColorRGB
 90
      255
102
RTVSPost2010PropOp44
 70
     1
102
RTVSPost2010Prop45
280
     0
102
RTVSPost2010PropOp45
 70
     1
102
RTVSPost2010Prop46
 90
       50
102
RTVSPost2010PropOp46
 70
     1
102
RTVSPost2010Prop47
 90
       50
102
RTVSPost2010PropOp47
 70
     1
102
RTVSPost2010Prop48
 90
       50
102
RTVSPost2010PropOp48
 70
     1
102
RTVSPost2010Prop49
280
     0
102
RTVSPost2010PropOp49
 70
     1
102
RTVSPost2010Prop50
 90
       50
102
RTVSPost2010PropOp50
 70
     1
102
RTVSPost2010Prop51ColorIndex
 90
      256
102
RTVSPost2010Prop51ColorRGB
 90
-16777216
102
RTVSPost2010PropOp51
 70
     0
102
RTVSPost2010Prop52
140
1.0
102
RTVSPost2010PropOp52
 70
     0
102
RTVSPost2010Prop53
 90
        2
102
RTVSPost2010PropOp53
 70
     1
102
RTVSPost2010Prop54
  1
strokes_ogs.tif
102
RTVSPost2010PropOp54
 70
     1
102
RTVSPost2010Prop55
280
     0
102
RTVSPost2010PropOp55
 70
     1
102
RTVSPost2010Prop56
140
1.0
102
RTVSPost2010PropOp56
 70
     1
102
RTVSPost2010Prop57
140
1.0
102
RTVSPost2010PropOp57
 70
     1
102
RTVSPropertyOp0
 70
     1
102
RTVSPropertyOp1
 70
     1
102
RTVSPropertyOp2
 70
     1
102
RTVSPropertyOp3
 70
     1
102
RTVSPropertyOp4
 70
     1
102
RTVSPropertyOp5
 70
     1
102
RTVSPropertyOp6
 70
     1
102
RTVSPropertyOp7
 70
     1
102
RTVSPropertyOp8
 70
     1
102
RTVSPropertyOp9
 70
     1
102
RTVSPropertyOp10
 70
     1
102
RTVSPropertyOp11
 70
     1
102
RTVSPropertyOp12
 70
     1
102
RTVSPropertyOp13
 70
     1
102
RTVSPropertyOp14
 70
     1
102
RTVSPropertyOp15
 70
     1
102
RTVSPropertyOp16
 70
     1
102
RTVSPropertyOp17
 70
     1
102
RTVSPropertyOp18
 70
     1
102
RTVSPropertyOp19
 70
     1
102
RTVSPropertyOp20
 70
     1
102
RTVSPropertyOp21
 70
     1
102
RTVSPropertyOp22
 70
     1
102
RTVSPropertyOp23
 70
     1
102
RTVSPropertyOp24
 70
     1
102
RTVSPropertyOp25
 70
     1
102
RTVSPropertyOp26
 70
     1
102
RTVSPropertyOp27
 70
     1
102
RTVSPropertyOp28
 70
     1
102
RTVSPropertyOp29
 70
     1
102
RTVSPropertyOp30
 70
     1
102
RTVSPropertyOp31
 70
     1
102
RTVSPropertyOp32
 70
     1
102
RTVSPropertyOp33
 70
     1
102
RTVSPropertyOp34
 70
     1
102
RTVSPropertyOp35
 70
     1
102
RTVSPropertyOp36
 70
     1
102
RTVSPropertyOp37
 70
     1
102
RTVSPropertyOp38
 70
     1
102
RTVSPropertyOp39
 70
     1
102
RTVSPropertyOp40
 70
     1
102
RTVSPropertyOp41
 70
     1
102
RTVSPropertyOp42
 70
     1
102
RTVSPropertyOp43
 70
     1
102
RTVSPropertyOp44
 70
     1
102
RTVSPropertyOp45
 70
     1
102
RTVSPropertyOp46
 70
     1
102
RTVSPropertyOp47
 70
     1
102
RTVSPropertyOp48
 70
     1
102
RTVSPropertyOp49
 70
     1
102
RTVSPropertyOp50
 70
     1
102
RTVSPropertyOp51
 70
     0
102
RTVSPropertyOp52
 70
     0
102
RTVSPropertyOp53
 70
     1
102
RTVSPropertyOp54
 70
     1
102
RTVSPropertyOp55
 70
     1
102
RTVSPropertyOp56
 70
     1
102
RTVSPropertyOp57
 70
     1
102
RTVSPropertyOp58
 70
     1
102
RTVSPropertyOp59
 70
     1
102
RTVSPropertyOp60
 70
     1
102
RTVSPropertyOp61
 70
     1
102
RTVSPropertyOp62
 70
     1
  0
XRECORD
  5
B849
102
{ACAD_REACTORS
330
B848
102
}
330
B848
100
AcDbXrecord
280
     1
102
RTVSPost2010Prop28
280
     0
102
RTVSPost2010PropOp28
 70
     1
102
RTVSPost2010Prop29
280
     1
102
RTVSPost2010PropOp29
 70
     1
102
RTVSPost2010Prop30
280
     1
102
RTVSPost2010PropOp30
 70
     1
102
RTVSPost2010Prop31
280
     0
102
RTVSPost2010PropOp31
 70
     1
102
RTVSPost2010Prop32
280
     0
102
RTVSPost2010PropOp32
 70
     1
102
RTVSPost2010Prop33
280
     0
102
RTVSPost2010PropOp33
 70
     1
102
RTVSPost2010Prop34
280
     0
102
RTVSPost2010PropOp34
 70
     1
102
RTVSPost2010Prop35
280
     0
102
RTVSPost2010PropOp35
 70
     1
102
RTVSPost2010Prop36
280
     0
102
RTVSPost2010PropOp36
 70
     1
102
RTVSPost2010Prop37
 90
       50
102
RTVSPost2010PropOp37
 70
     1
102
RTVSPost2010Prop38
140
0.0
102
RTVSPost2010PropOp38
 70
     1
102
RTVSPost2010Prop39
140
1.0
102
RTVSPost2010PropOp39
 70
     1
102
RTVSPost2010Prop40
 90
        0
102
RTVSPost2010PropOp40
 70
     1
102
RTVSPost2010Prop41ColorIndex
 90
       18
102
RTVSPost2010Prop41ColorRGB
 90
        0
102
RTVSPost2010PropOp41
 70
     1
102
RTVSPost2010Prop42
 90
       50
102
RTVSPost2010PropOp42
 70
     1
102
RTVSPost2010Prop43
 90
        3
102
RTVSPost2010PropOp43
 70
     1
102
RTVSPost2010Prop44ColorIndex
 90
        5
102
RTVSPost2010Prop44ColorRGB
 90
      255
102
RTVSPost2010PropOp44
 70
     1
102
RTVSPost2010Prop45
280
     0
102
RTVSPost2010PropOp45
 70
     1
102
RTVSPost2010Prop46
 90
       50
102
RTVSPost2010PropOp46
 70
     1
102
RTVSPost2010Prop47
 90
       50
102
RTVSPost2010PropOp47
 70
     1
102
RTVSPost2010Prop48
 90
       50
102
RTVSPost2010PropOp48
 70
     1
102
RTVSPost2010Prop49
280
     0
102
RTVSPost2010PropOp49
 70
     1
102
RTVSPost2010Prop50
 90
       50
102
RTVSPost2010PropOp50
 70
     1
102
RTVSPost2010Prop51ColorIndex
 90
      256
102
RTVSPost2010Prop51ColorRGB
 90
-16777216
102
RTVSPost2010PropOp51
 70
     0
102
RTVSPost2010Prop52
140
1.0
102
RTVSPost2010PropOp52
 70
     0
102
RTVSPost2010Prop53
 90
        2
102
RTVSPost2010PropOp53
 70
     1
102
RTVSPost2010Prop54
  1
strokes_ogs.tif
102
RTVSPost2010PropOp54
 70
     1
102
RTVSPost2010Prop55
280
     0
102
RTVSPost2010PropOp55
 70
     1
102
RTVSPost2010Prop56
140
1.0
102
RTVSPost2010PropOp56
 70
     1
102
RTVSPost2010Prop57
140
1.0
102
RTVSPost2010PropOp57
 70
     1
102
RTVSPropertyOp0
 70
     1
102
RTVSPropertyOp1
 70
     1
102
RTVSPropertyOp2
 70
     1
102
RTVSPropertyOp3
 70
     1
102
RTVSPropertyOp4
 70
     1
102
RTVSPropertyOp5
 70
     1
102
RTVSPropertyOp6
 70
     1
102
RTVSPropertyOp7
 70
     1
102
RTVSPropertyOp8
 70
     1
102
RTVSPropertyOp9
 70
     1
102
RTVSPropertyOp10
 70
     1
102
RTVSPropertyOp11
 70
     1
102
RTVSPropertyOp12
 70
     1
102
RTVSPropertyOp13
 70
     1
102
RTVSPropertyOp14
 70
     1
102
RTVSPropertyOp15
 70
     1
102
RTVSPropertyOp16
 70
     1
102
RTVSPropertyOp17
 70
     1
102
RTVSPropertyOp18
 70
     1
102
RTVSPropertyOp19
 70
     1
102
RTVSPropertyOp20
 70
     1
102
RTVSPropertyOp21
 70
     1
102
RTVSPropertyOp22
 70
     1
102
RTVSPropertyOp23
 70
     1
102
RTVSPropertyOp24
 70
     1
102
RTVSPropertyOp25
 70
     1
102
RTVSPropertyOp26
 70
     1
102
RTVSPropertyOp27
 70
     1
102
RTVSPropertyOp28
 70
     1
102
RTVSPropertyOp29
 70
     1
102
RTVSPropertyOp30
 70
     1
102
RTVSPropertyOp31
 70
     1
102
RTVSPropertyOp32
 70
     1
102
RTVSPropertyOp33
 70
     1
102
RTVSPropertyOp34
 70
     1
102
RTVSPropertyOp35
 70
     1
102
RTVSPropertyOp36
 70
     1
102
RTVSPropertyOp37
 70
     1
102
RTVSPropertyOp38
 70
     1
102
RTVSPropertyOp39
 70
     1
102
RTVSPropertyOp40
 70
     1
102
RTVSPropertyOp41
 70
     1
102
RTVSPropertyOp42
 70
     1
102
RTVSPropertyOp43
 70
     1
102
RTVSPropertyOp44
 70
     1
102
RTVSPropertyOp45
 70
     1
102
RTVSPropertyOp46
 70
     1
102
RTVSPropertyOp47
 70
     1
102
RTVSPropertyOp48
 70
     1
102
RTVSPropertyOp49
 70
     1
102
RTVSPropertyOp50
 70
     1
102
RTVSPropertyOp51
 70
     0
102
RTVSPropertyOp52
 70
     0
102
RTVSPropertyOp53
 70
     1
102
RTVSPropertyOp54
 70
     1
102
RTVSPropertyOp55
 70
     1
102
RTVSPropertyOp56
 70
     1
102
RTVSPropertyOp57
 70
     1
102
RTVSPropertyOp58
 70
     1
102
RTVSPropertyOp59
 70
     1
102
RTVSPropertyOp60
 70
     1
102
RTVSPropertyOp61
 70
     1
102
RTVSPropertyOp62
 70
     1
  0
XRECORD
  5
B851
102
{ACAD_REACTORS
330
B850
102
}
330
B850
100
AcDbXrecord
280
     1
102
RTVSPost2010Prop28
280
     0
102
RTVSPost2010PropOp28
 70
     1
102
RTVSPost2010Prop29
280
     1
102
RTVSPost2010PropOp29
 70
     1
102
RTVSPost2010Prop30
280
     1
102
RTVSPost2010PropOp30
 70
     1
102
RTVSPost2010Prop31
280
     0
102
RTVSPost2010PropOp31
 70
     1
102
RTVSPost2010Prop32
280
     0
102
RTVSPost2010PropOp32
 70
     1
102
RTVSPost2010Prop33
280
     0
102
RTVSPost2010PropOp33
 70
     1
102
RTVSPost2010Prop34
280
     0
102
RTVSPost2010PropOp34
 70
     1
102
RTVSPost2010Prop35
280
     0
102
RTVSPost2010PropOp35
 70
     1
102
RTVSPost2010Prop36
280
     0
102
RTVSPost2010PropOp36
 70
     1
102
RTVSPost2010Prop37
 90
       50
102
RTVSPost2010PropOp37
 70
     1
102
RTVSPost2010Prop38
140
0.0
102
RTVSPost2010PropOp38
 70
     1
102
RTVSPost2010Prop39
140
1.0
102
RTVSPost2010PropOp39
 70
     1
102
RTVSPost2010Prop40
 90
        0
102
RTVSPost2010PropOp40
 70
     1
102
RTVSPost2010Prop41ColorIndex
 90
       18
102
RTVSPost2010Prop41ColorRGB
 90
        0
102
RTVSPost2010PropOp41
 70
     1
102
RTVSPost2010Prop42
 90
       50
102
RTVSPost2010PropOp42
 70
     1
102
RTVSPost2010Prop43
 90
        3
102
RTVSPost2010PropOp43
 70
     1
102
RTVSPost2010Prop44ColorIndex
 90
        5
102
RTVSPost2010Prop44ColorRGB
 90
      255
102
RTVSPost2010PropOp44
 70
     1
102
RTVSPost2010Prop45
280
     0
102
RTVSPost2010PropOp45
 70
     1
102
RTVSPost2010Prop46
 90
       50
102
RTVSPost2010PropOp46
 70
     1
102
RTVSPost2010Prop47
 90
       50
102
RTVSPost2010PropOp47
 70
     1
102
RTVSPost2010Prop48
 90
       50
102
RTVSPost2010PropOp48
 70
     1
102
RTVSPost2010Prop49
280
     0
102
RTVSPost2010PropOp49
 70
     1
102
RTVSPost2010Prop50
 90
       50
102
RTVSPost2010PropOp50
 70
     1
102
RTVSPost2010Prop51ColorIndex
 90
      256
102
RTVSPost2010Prop51ColorRGB
 90
-16777216
102
RTVSPost2010PropOp51
 70
     0
102
RTVSPost2010Prop52
140
1.0
102
RTVSPost2010PropOp52
 70
     0
102
RTVSPost2010Prop53
 90
        2
102
RTVSPost2010PropOp53
 70
     1
102
RTVSPost2010Prop54
  1
strokes_ogs.tif
102
RTVSPost2010PropOp54
 70
     1
102
RTVSPost2010Prop55
280
     0
102
RTVSPost2010PropOp55
 70
     1
102
RTVSPost2010Prop56
140
1.0
102
RTVSPost2010PropOp56
 70
     1
102
RTVSPost2010Prop57
140
1.0
102
RTVSPost2010PropOp57
 70
     1
102
RTVSPropertyOp0
 70
     1
102
RTVSPropertyOp1
 70
     1
102
RTVSPropertyOp2
 70
     1
102
RTVSPropertyOp3
 70
     1
102
RTVSPropertyOp4
 70
     1
102
RTVSPropertyOp5
 70
     1
102
RTVSPropertyOp6
 70
     1
102
RTVSPropertyOp7
 70
     1
102
RTVSPropertyOp8
 70
     1
102
RTVSPropertyOp9
 70
     1
102
RTVSPropertyOp10
 70
     1
102
RTVSPropertyOp11
 70
     1
102
RTVSPropertyOp12
 70
     1
102
RTVSPropertyOp13
 70
     1
102
RTVSPropertyOp14
 70
     1
102
RTVSPropertyOp15
 70
     1
102
RTVSPropertyOp16
 70
     1
102
RTVSPropertyOp17
 70
     1
102
RTVSPropertyOp18
 70
     1
102
RTVSPropertyOp19
 70
     1
102
RTVSPropertyOp20
 70
     1
102
RTVSPropertyOp21
 70
     1
102
RTVSPropertyOp22
 70
     1
102
RTVSPropertyOp23
 70
     1
102
RTVSPropertyOp24
 70
     1
102
RTVSPropertyOp25
 70
     1
102
RTVSPropertyOp26
 70
     1
102
RTVSPropertyOp27
 70
     1
102
RTVSPropertyOp28
 70
     1
102
RTVSPropertyOp29
 70
     1
102
RTVSPropertyOp30
 70
     1
102
RTVSPropertyOp31
 70
     1
102
RTVSPropertyOp32
 70
     1
102
RTVSPropertyOp33
 70
     1
102
RTVSPropertyOp34
 70
     1
102
RTVSPropertyOp35
 70
     1
102
RTVSPropertyOp36
 70
     1
102
RTVSPropertyOp37
 70
     1
102
RTVSPropertyOp38
 70
     1
102
RTVSPropertyOp39
 70
     1
102
RTVSPropertyOp40
 70
     1
102
RTVSPropertyOp41
 70
     1
102
RTVSPropertyOp42
 70
     1
102
RTVSPropertyOp43
 70
     1
102
RTVSPropertyOp44
 70
     1
102
RTVSPropertyOp45
 70
     1
102
RTVSPropertyOp46
 70
     1
102
RTVSPropertyOp47
 70
     1
102
RTVSPropertyOp48
 70
     1
102
RTVSPropertyOp49
 70
     1
102
RTVSPropertyOp50
 70
     1
102
RTVSPropertyOp51
 70
     0
102
RTVSPropertyOp52
 70
     0
102
RTVSPropertyOp53
 70
     1
102
RTVSPropertyOp54
 70
     1
102
RTVSPropertyOp55
 70
     1
102
RTVSPropertyOp56
 70
     1
102
RTVSPropertyOp57
 70
     1
102
RTVSPropertyOp58
 70
     1
102
RTVSPropertyOp59
 70
     1
102
RTVSPropertyOp60
 70
     1
102
RTVSPropertyOp61
 70
     1
102
RTVSPropertyOp62
 70
     1
  0
XRECORD
  5
B843
102
{ACAD_REACTORS
330
B842
102
}
330
B842
100
AcDbXrecord
280
     1
102
RTVSPost2010Prop28
280
     0
102
RTVSPost2010PropOp28
 70
     1
102
RTVSPost2010Prop29
280
     1
102
RTVSPost2010PropOp29
 70
     1
102
RTVSPost2010Prop30
280
     1
102
RTVSPost2010PropOp30
 70
     1
102
RTVSPost2010Prop31
280
     0
102
RTVSPost2010PropOp31
 70
     1
102
RTVSPost2010Prop32
280
     0
102
RTVSPost2010PropOp32
 70
     1
102
RTVSPost2010Prop33
280
     0
102
RTVSPost2010PropOp33
 70
     1
102
RTVSPost2010Prop34
280
     0
102
RTVSPost2010PropOp34
 70
     1
102
RTVSPost2010Prop35
280
     0
102
RTVSPost2010PropOp35
 70
     1
102
RTVSPost2010Prop36
280
     0
102
RTVSPost2010PropOp36
 70
     1
102
RTVSPost2010Prop37
 90
       50
102
RTVSPost2010PropOp37
 70
     1
102
RTVSPost2010Prop38
140
0.0
102
RTVSPost2010PropOp38
 70
     1
102
RTVSPost2010Prop39
140
1.0
102
RTVSPost2010PropOp39
 70
     1
102
RTVSPost2010Prop40
 90
        0
102
RTVSPost2010PropOp40
 70
     1
102
RTVSPost2010Prop41ColorIndex
 90
       18
102
RTVSPost2010Prop41ColorRGB
 90
        0
102
RTVSPost2010PropOp41
 70
     1
102
RTVSPost2010Prop42
 90
       50
102
RTVSPost2010PropOp42
 70
     1
102
RTVSPost2010Prop43
 90
        3
102
RTVSPost2010PropOp43
 70
     1
102
RTVSPost2010Prop44ColorIndex
 90
        5
102
RTVSPost2010Prop44ColorRGB
 90
      255
102
RTVSPost2010PropOp44
 70
     1
102
RTVSPost2010Prop45
280
     0
102
RTVSPost2010PropOp45
 70
     1
102
RTVSPost2010Prop46
 90
       50
102
RTVSPost2010PropOp46
 70
     1
102
RTVSPost2010Prop47
 90
       50
102
RTVSPost2010PropOp47
 70
     1
102
RTVSPost2010Prop48
 90
       50
102
RTVSPost2010PropOp48
 70
     1
102
RTVSPost2010Prop49
280
     0
102
RTVSPost2010PropOp49
 70
     1
102
RTVSPost2010Prop50
 90
       50
102
RTVSPost2010PropOp50
 70
     1
102
RTVSPost2010Prop51ColorIndex
 90
      256
102
RTVSPost2010Prop51ColorRGB
 90
-16777216
102
RTVSPost2010PropOp51
 70
     0
102
RTVSPost2010Prop52
140
1.0
102
RTVSPost2010PropOp52
 70
     0
102
RTVSPost2010Prop53
 90
        2
102
RTVSPost2010PropOp53
 70
     1
102
RTVSPost2010Prop54
  1
strokes_ogs.tif
102
RTVSPost2010PropOp54
 70
     1
102
RTVSPost2010Prop55
280
     0
102
RTVSPost2010PropOp55
 70
     1
102
RTVSPost2010Prop56
140
1.0
102
RTVSPost2010PropOp56
 70
     1
102
RTVSPost2010Prop57
140
1.0
102
RTVSPost2010PropOp57
 70
     1
102
RTVSPropertyOp0
 70
     1
102
RTVSPropertyOp1
 70
     1
102
RTVSPropertyOp2
 70
     1
102
RTVSPropertyOp3
 70
     1
102
RTVSPropertyOp4
 70
     1
102
RTVSPropertyOp5
 70
     1
102
RTVSPropertyOp6
 70
     1
102
RTVSPropertyOp7
 70
     1
102
RTVSPropertyOp8
 70
     1
102
RTVSPropertyOp9
 70
     1
102
RTVSPropertyOp10
 70
     1
102
RTVSPropertyOp11
 70
     1
102
RTVSPropertyOp12
 70
     1
102
RTVSPropertyOp13
 70
     1
102
RTVSPropertyOp14
 70
     1
102
RTVSPropertyOp15
 70
     1
102
RTVSPropertyOp16
 70
     1
102
RTVSPropertyOp17
 70
     1
102
RTVSPropertyOp18
 70
     1
102
RTVSPropertyOp19
 70
     1
102
RTVSPropertyOp20
 70
     1
102
RTVSPropertyOp21
 70
     1
102
RTVSPropertyOp22
 70
     1
102
RTVSPropertyOp23
 70
     1
102
RTVSPropertyOp24
 70
     1
102
RTVSPropertyOp25
 70
     1
102
RTVSPropertyOp26
 70
     1
102
RTVSPropertyOp27
 70
     1
102
RTVSPropertyOp28
 70
     1
102
RTVSPropertyOp29
 70
     1
102
RTVSPropertyOp30
 70
     1
102
RTVSPropertyOp31
 70
     1
102
RTVSPropertyOp32
 70
     1
102
RTVSPropertyOp33
 70
     1
102
RTVSPropertyOp34
 70
     1
102
RTVSPropertyOp35
 70
     1
102
RTVSPropertyOp36
 70
     1
102
RTVSPropertyOp37
 70
     1
102
RTVSPropertyOp38
 70
     1
102
RTVSPropertyOp39
 70
     1
102
RTVSPropertyOp40
 70
     1
102
RTVSPropertyOp41
 70
     1
102
RTVSPropertyOp42
 70
     1
102
RTVSPropertyOp43
 70
     1
102
RTVSPropertyOp44
 70
     1
102
RTVSPropertyOp45
 70
     1
102
RTVSPropertyOp46
 70
     1
102
RTVSPropertyOp47
 70
     1
102
RTVSPropertyOp48
 70
     1
102
RTVSPropertyOp49
 70
     1
102
RTVSPropertyOp50
 70
     1
102
RTVSPropertyOp51
 70
     0
102
RTVSPropertyOp52
 70
     0
102
RTVSPropertyOp53
 70
     1
102
RTVSPropertyOp54
 70
     1
102
RTVSPropertyOp55
 70
     1
102
RTVSPropertyOp56
 70
     1
102
RTVSPropertyOp57
 70
     1
102
RTVSPropertyOp58
 70
     1
102
RTVSPropertyOp59
 70
     1
102
RTVSPropertyOp60
 70
     1
102
RTVSPropertyOp61
 70
     1
102
RTVSPropertyOp62
 70
     1
  0
XRECORD
  5
B847
102
{ACAD_REACTORS
330
B846
102
}
330
B846
100
AcDbXrecord
280
     1
102
RTVSPost2010Prop28
280
     0
102
RTVSPost2010PropOp28
 70
     1
102
RTVSPost2010Prop29
280
     1
102
RTVSPost2010PropOp29
 70
     1
102
RTVSPost2010Prop30
280
     1
102
RTVSPost2010PropOp30
 70
     1
102
RTVSPost2010Prop31
280
     0
102
RTVSPost2010PropOp31
 70
     1
102
RTVSPost2010Prop32
280
     0
102
RTVSPost2010PropOp32
 70
     1
102
RTVSPost2010Prop33
280
     0
102
RTVSPost2010PropOp33
 70
     1
102
RTVSPost2010Prop34
280
     0
102
RTVSPost2010PropOp34
 70
     1
102
RTVSPost2010Prop35
280
     0
102
RTVSPost2010PropOp35
 70
     1
102
RTVSPost2010Prop36
280
     0
102
RTVSPost2010PropOp36
 70
     1
102
RTVSPost2010Prop37
 90
       50
102
RTVSPost2010PropOp37
 70
     1
102
RTVSPost2010Prop38
140
0.0
102
RTVSPost2010PropOp38
 70
     1
102
RTVSPost2010Prop39
140
1.0
102
RTVSPost2010PropOp39
 70
     1
102
RTVSPost2010Prop40
 90
        0
102
RTVSPost2010PropOp40
 70
     1
102
RTVSPost2010Prop41ColorIndex
 90
       18
102
RTVSPost2010Prop41ColorRGB
 90
        0
102
RTVSPost2010PropOp41
 70
     1
102
RTVSPost2010Prop42
 90
       50
102
RTVSPost2010PropOp42
 70
     1
102
RTVSPost2010Prop43
 90
        3
102
RTVSPost2010PropOp43
 70
     1
102
RTVSPost2010Prop44ColorIndex
 90
        5
102
RTVSPost2010Prop44ColorRGB
 90
      255
102
RTVSPost2010PropOp44
 70
     1
102
RTVSPost2010Prop45
280
     0
102
RTVSPost2010PropOp45
 70
     1
102
RTVSPost2010Prop46
 90
       50
102
RTVSPost2010PropOp46
 70
     1
102
RTVSPost2010Prop47
 90
       50
102
RTVSPost2010PropOp47
 70
     1
102
RTVSPost2010Prop48
 90
       50
102
RTVSPost2010PropOp48
 70
     1
102
RTVSPost2010Prop49
280
     0
102
RTVSPost2010PropOp49
 70
     1
102
RTVSPost2010Prop50
 90
       50
102
RTVSPost2010PropOp50
 70
     1
102
RTVSPost2010Prop51ColorIndex
 90
      256
102
RTVSPost2010Prop51ColorRGB
 90
-16777216
102
RTVSPost2010PropOp51
 70
     0
102
RTVSPost2010Prop52
140
1.0
102
RTVSPost2010PropOp52
 70
     0
102
RTVSPost2010Prop53
 90
        2
102
RTVSPost2010PropOp53
 70
     1
102
RTVSPost2010Prop54
  1
strokes_ogs.tif
102
RTVSPost2010PropOp54
 70
     1
102
RTVSPost2010Prop55
280
     0
102
RTVSPost2010PropOp55
 70
     1
102
RTVSPost2010Prop56
140
1.0
102
RTVSPost2010PropOp56
 70
     1
102
RTVSPost2010Prop57
140
1.0
102
RTVSPost2010PropOp57
 70
     1
102
RTVSPropertyOp0
 70
     1
102
RTVSPropertyOp1
 70
     1
102
RTVSPropertyOp2
 70
     1
102
RTVSPropertyOp3
 70
     1
102
RTVSPropertyOp4
 70
     1
102
RTVSPropertyOp5
 70
     1
102
RTVSPropertyOp6
 70
     1
102
RTVSPropertyOp7
 70
     1
102
RTVSPropertyOp8
 70
     1
102
RTVSPropertyOp9
 70
     1
102
RTVSPropertyOp10
 70
     1
102
RTVSPropertyOp11
 70
     1
102
RTVSPropertyOp12
 70
     1
102
RTVSPropertyOp13
 70
     1
102
RTVSPropertyOp14
 70
     1
102
RTVSPropertyOp15
 70
     1
102
RTVSPropertyOp16
 70
     1
102
RTVSPropertyOp17
 70
     1
102
RTVSPropertyOp18
 70
     1
102
RTVSPropertyOp19
 70
     1
102
RTVSPropertyOp20
 70
     1
102
RTVSPropertyOp21
 70
     1
102
RTVSPropertyOp22
 70
     1
102
RTVSPropertyOp23
 70
     1
102
RTVSPropertyOp24
 70
     1
102
RTVSPropertyOp25
 70
     1
102
RTVSPropertyOp26
 70
     1
102
RTVSPropertyOp27
 70
     1
102
RTVSPropertyOp28
 70
     1
102
RTVSPropertyOp29
 70
     1
102
RTVSPropertyOp30
 70
     1
102
RTVSPropertyOp31
 70
     1
102
RTVSPropertyOp32
 70
     1
102
RTVSPropertyOp33
 70
     1
102
RTVSPropertyOp34
 70
     1
102
RTVSPropertyOp35
 70
     1
102
RTVSPropertyOp36
 70
     1
102
RTVSPropertyOp37
 70
     1
102
RTVSPropertyOp38
 70
     1
102
RTVSPropertyOp39
 70
     1
102
RTVSPropertyOp40
 70
     1
102
RTVSPropertyOp41
 70
     1
102
RTVSPropertyOp42
 70
     1
102
RTVSPropertyOp43
 70
     1
102
RTVSPropertyOp44
 70
     1
102
RTVSPropertyOp45
 70
     1
102
RTVSPropertyOp46
 70
     1
102
RTVSPropertyOp47
 70
     1
102
RTVSPropertyOp48
 70
     1
102
RTVSPropertyOp49
 70
     1
102
RTVSPropertyOp50
 70
     1
102
RTVSPropertyOp51
 70
     0
102
RTVSPropertyOp52
 70
     0
102
RTVSPropertyOp53
 70
     1
102
RTVSPropertyOp54
 70
     1
102
RTVSPropertyOp55
 70
     1
102
RTVSPropertyOp56
 70
     1
102
RTVSPropertyOp57
 70
     1
102
RTVSPropertyOp58
 70
     1
102
RTVSPropertyOp59
 70
     1
102
RTVSPropertyOp60
 70
     1
102
RTVSPropertyOp61
 70
     1
102
RTVSPropertyOp62
 70
     1
  0
XRECORD
  5
B861
102
{ACAD_REACTORS
330
B860
102
}
330
B860
100
AcDbXrecord
280
     1
102
RTVSPost2010Prop28
280
     0
102
RTVSPost2010PropOp28
 70
     1
102
RTVSPost2010Prop29
280
     1
102
RTVSPost2010PropOp29
 70
     1
102
RTVSPost2010Prop30
280
     1
102
RTVSPost2010PropOp30
 70
     1
102
RTVSPost2010Prop31
280
     0
102
RTVSPost2010PropOp31
 70
     1
102
RTVSPost2010Prop32
280
     0
102
RTVSPost2010PropOp32
 70
     1
102
RTVSPost2010Prop33
280
     0
102
RTVSPost2010PropOp33
 70
     1
102
RTVSPost2010Prop34
280
     0
102
RTVSPost2010PropOp34
 70
     1
102
RTVSPost2010Prop35
280
     0
102
RTVSPost2010PropOp35
 70
     1
102
RTVSPost2010Prop36
280
     0
102
RTVSPost2010PropOp36
 70
     1
102
RTVSPost2010Prop37
 90
       50
102
RTVSPost2010PropOp37
 70
     0
102
RTVSPost2010Prop38
140
0.0
102
RTVSPost2010PropOp38
 70
     0
102
RTVSPost2010Prop39
140
1.0
102
RTVSPost2010PropOp39
 70
     0
102
RTVSPost2010Prop40
 90
        0
102
RTVSPost2010PropOp40
 70
     0
102
RTVSPost2010Prop41ColorIndex
 90
       18
102
RTVSPost2010Prop41ColorRGB
 90
        0
102
RTVSPost2010PropOp41
 70
     0
102
RTVSPost2010Prop42
 90
       50
102
RTVSPost2010PropOp42
 70
     0
102
RTVSPost2010Prop43
 90
        3
102
RTVSPost2010PropOp43
 70
     0
102
RTVSPost2010Prop44ColorIndex
 90
        5
102
RTVSPost2010Prop44ColorRGB
 90
      255
102
RTVSPost2010PropOp44
 70
     0
102
RTVSPost2010Prop45
280
     0
102
RTVSPost2010PropOp45
 70
     1
102
RTVSPost2010Prop46
 90
       50
102
RTVSPost2010PropOp46
 70
     0
102
RTVSPost2010Prop47
 90
       50
102
RTVSPost2010PropOp47
 70
     0
102
RTVSPost2010Prop48
 90
       50
102
RTVSPost2010PropOp48
 70
     0
102
RTVSPost2010Prop49
280
     0
102
RTVSPost2010PropOp49
 70
     1
102
RTVSPost2010Prop50
 90
       50
102
RTVSPost2010PropOp50
 70
     0
102
RTVSPost2010Prop51ColorIndex
 90
      256
102
RTVSPost2010Prop51ColorRGB
 90
-16777216
102
RTVSPost2010PropOp51
 70
     0
102
RTVSPost2010Prop52
140
1.0
102
RTVSPost2010PropOp52
 70
     0
102
RTVSPost2010Prop53
 90
        2
102
RTVSPost2010PropOp53
 70
     0
102
RTVSPost2010Prop54
  1
strokes_ogs.tif
102
RTVSPost2010PropOp54
 70
     0
102
RTVSPost2010Prop55
280
     0
102
RTVSPost2010PropOp55
 70
     1
102
RTVSPost2010Prop56
140
1.0
102
RTVSPost2010PropOp56
 70
     0
102
RTVSPost2010Prop57
140
1.0
102
RTVSPost2010PropOp57
 70
     0
102
RTVSPropertyOp0
 70
     0
102
RTVSPropertyOp1
 70
     0
102
RTVSPropertyOp2
 70
     0
102
RTVSPropertyOp3
 70
     0
102
RTVSPropertyOp4
 70
     0
102
RTVSPropertyOp5
 70
     0
102
RTVSPropertyOp6
 70
     0
102
RTVSPropertyOp7
 70
     0
102
RTVSPropertyOp8
 70
     0
102
RTVSPropertyOp9
 70
     0
102
RTVSPropertyOp10
 70
     0
102
RTVSPropertyOp11
 70
     0
102
RTVSPropertyOp12
 70
     0
102
RTVSPropertyOp13
 70
     0
102
RTVSPropertyOp14
 70
     2
102
RTVSPropertyOp15
 70
     0
102
RTVSPropertyOp16
 70
     0
102
RTVSPropertyOp17
 70
     0
102
RTVSPropertyOp18
 70
     0
102
RTVSPropertyOp19
 70
     0
102
RTVSPropertyOp20
 70
     0
102
RTVSPropertyOp21
 70
     0
102
RTVSPropertyOp22
 70
     0
102
RTVSPropertyOp23
 70
     0
102
RTVSPropertyOp24
 70
     0
102
RTVSPropertyOp25
 70
     0
102
RTVSPropertyOp26
 70
     0
102
RTVSPropertyOp27
 70
     0
102
RTVSPropertyOp28
 70
     1
102
RTVSPropertyOp29
 70
     1
102
RTVSPropertyOp30
 70
     1
102
RTVSPropertyOp31
 70
     1
102
RTVSPropertyOp32
 70
     1
102
RTVSPropertyOp33
 70
     1
102
RTVSPropertyOp34
 70
     1
102
RTVSPropertyOp35
 70
     1
102
RTVSPropertyOp36
 70
     1
102
RTVSPropertyOp37
 70
     0
102
RTVSPropertyOp38
 70
     0
102
RTVSPropertyOp39
 70
     0
102
RTVSPropertyOp40
 70
     0
102
RTVSPropertyOp41
 70
     0
102
RTVSPropertyOp42
 70
     0
102
RTVSPropertyOp43
 70
     0
102
RTVSPropertyOp44
 70
     0
102
RTVSPropertyOp45
 70
     1
102
RTVSPropertyOp46
 70
     0
102
RTVSPropertyOp47
 70
     0
102
RTVSPropertyOp48
 70
     0
102
RTVSPropertyOp49
 70
     1
102
RTVSPropertyOp50
 70
     0
102
RTVSPropertyOp51
 70
     0
102
RTVSPropertyOp52
 70
     0
102
RTVSPropertyOp53
 70
     0
102
RTVSPropertyOp54
 70
     0
102
RTVSPropertyOp55
 70
     1
102
RTVSPropertyOp56
 70
     0
102
RTVSPropertyOp57
 70
     0
102
RTVSPropertyOp58
 70
     0
102
RTVSPropertyOp59
 70
     0
102
RTVSPropertyOp60
 70
     0
102
RTVSPropertyOp61
 70
     0
102
RTVSPropertyOp62
 70
     0
  0
XRECORD
  5
B84F
102
{ACAD_REACTORS
330
B84E
102
}
330
B84E
100
AcDbXrecord
280
     1
102
RTVSPost2010Prop28
280
     0
102
RTVSPost2010PropOp28
 70
     1
102
RTVSPost2010Prop29
280
     1
102
RTVSPost2010PropOp29
 70
     1
102
RTVSPost2010Prop30
280
     1
102
RTVSPost2010PropOp30
 70
     1
102
RTVSPost2010Prop31
280
     0
102
RTVSPost2010PropOp31
 70
     1
102
RTVSPost2010Prop32
280
     0
102
RTVSPost2010PropOp32
 70
     1
102
RTVSPost2010Prop33
280
     0
102
RTVSPost2010PropOp33
 70
     1
102
RTVSPost2010Prop34
280
     0
102
RTVSPost2010PropOp34
 70
     1
102
RTVSPost2010Prop35
280
     0
102
RTVSPost2010PropOp35
 70
     1
102
RTVSPost2010Prop36
280
     0
102
RTVSPost2010PropOp36
 70
     1
102
RTVSPost2010Prop37
 90
       50
102
RTVSPost2010PropOp37
 70
     1
102
RTVSPost2010Prop38
140
0.0
102
RTVSPost2010PropOp38
 70
     1
102
RTVSPost2010Prop39
140
1.0
102
RTVSPost2010PropOp39
 70
     1
102
RTVSPost2010Prop40
 90
        0
102
RTVSPost2010PropOp40
 70
     1
102
RTVSPost2010Prop41ColorIndex
 90
       18
102
RTVSPost2010Prop41ColorRGB
 90
        0
102
RTVSPost2010PropOp41
 70
     1
102
RTVSPost2010Prop42
 90
       50
102
RTVSPost2010PropOp42
 70
     1
102
RTVSPost2010Prop43
 90
        3
102
RTVSPost2010PropOp43
 70
     1
102
RTVSPost2010Prop44ColorIndex
 90
        5
102
RTVSPost2010Prop44ColorRGB
 90
      255
102
RTVSPost2010PropOp44
 70
     1
102
RTVSPost2010Prop45
280
     0
102
RTVSPost2010PropOp45
 70
     1
102
RTVSPost2010Prop46
 90
       50
102
RTVSPost2010PropOp46
 70
     1
102
RTVSPost2010Prop47
 90
       50
102
RTVSPost2010PropOp47
 70
     1
102
RTVSPost2010Prop48
 90
       50
102
RTVSPost2010PropOp48
 70
     1
102
RTVSPost2010Prop49
280
     0
102
RTVSPost2010PropOp49
 70
     1
102
RTVSPost2010Prop50
 90
       50
102
RTVSPost2010PropOp50
 70
     1
102
RTVSPost2010Prop51ColorIndex
 90
      256
102
RTVSPost2010Prop51ColorRGB
 90
-16777216
102
RTVSPost2010PropOp51
 70
     0
102
RTVSPost2010Prop52
140
1.0
102
RTVSPost2010PropOp52
 70
     0
102
RTVSPost2010Prop53
 90
        2
102
RTVSPost2010PropOp53
 70
     1
102
RTVSPost2010Prop54
  1
strokes_ogs.tif
102
RTVSPost2010PropOp54
 70
     1
102
RTVSPost2010Prop55
280
     0
102
RTVSPost2010PropOp55
 70
     1
102
RTVSPost2010Prop56
140
1.0
102
RTVSPost2010PropOp56
 70
     1
102
RTVSPost2010Prop57
140
1.0
102
RTVSPost2010PropOp57
 70
     1
102
RTVSPropertyOp0
 70
     1
102
RTVSPropertyOp1
 70
     1
102
RTVSPropertyOp2
 70
     1
102
RTVSPropertyOp3
 70
     1
102
RTVSPropertyOp4
 70
     1
102
RTVSPropertyOp5
 70
     1
102
RTVSPropertyOp6
 70
     1
102
RTVSPropertyOp7
 70
     1
102
RTVSPropertyOp8
 70
     1
102
RTVSPropertyOp9
 70
     1
102
RTVSPropertyOp10
 70
     1
102
RTVSPropertyOp11
 70
     1
102
RTVSPropertyOp12
 70
     1
102
RTVSPropertyOp13
 70
     1
102
RTVSPropertyOp14
 70
     1
102
RTVSPropertyOp15
 70
     1
102
RTVSPropertyOp16
 70
     1
102
RTVSPropertyOp17
 70
     1
102
RTVSPropertyOp18
 70
     1
102
RTVSPropertyOp19
 70
     1
102
RTVSPropertyOp20
 70
     1
102
RTVSPropertyOp21
 70
     1
102
RTVSPropertyOp22
 70
     1
102
RTVSPropertyOp23
 70
     1
102
RTVSPropertyOp24
 70
     1
102
RTVSPropertyOp25
 70
     1
102
RTVSPropertyOp26
 70
     1
102
RTVSPropertyOp27
 70
     1
102
RTVSPropertyOp28
 70
     1
102
RTVSPropertyOp29
 70
     1
102
RTVSPropertyOp30
 70
     1
102
RTVSPropertyOp31
 70
     1
102
RTVSPropertyOp32
 70
     1
102
RTVSPropertyOp33
 70
     1
102
RTVSPropertyOp34
 70
     1
102
RTVSPropertyOp35
 70
     1
102
RTVSPropertyOp36
 70
     1
102
RTVSPropertyOp37
 70
     1
102
RTVSPropertyOp38
 70
     1
102
RTVSPropertyOp39
 70
     1
102
RTVSPropertyOp40
 70
     1
102
RTVSPropertyOp41
 70
     1
102
RTVSPropertyOp42
 70
     1
102
RTVSPropertyOp43
 70
     1
102
RTVSPropertyOp44
 70
     1
102
RTVSPropertyOp45
 70
     1
102
RTVSPropertyOp46
 70
     1
102
RTVSPropertyOp47
 70
     1
102
RTVSPropertyOp48
 70
     1
102
RTVSPropertyOp49
 70
     1
102
RTVSPropertyOp50
 70
     1
102
RTVSPropertyOp51
 70
     0
102
RTVSPropertyOp52
 70
     0
102
RTVSPropertyOp53
 70
     1
102
RTVSPropertyOp54
 70
     1
102
RTVSPropertyOp55
 70
     1
102
RTVSPropertyOp56
 70
     1
102
RTVSPropertyOp57
 70
     1
102
RTVSPropertyOp58
 70
     1
102
RTVSPropertyOp59
 70
     1
102
RTVSPropertyOp60
 70
     1
102
RTVSPropertyOp61
 70
     1
102
RTVSPropertyOp62
 70
     1
  0
XRECORD
  5
B833
102
{ACAD_REACTORS
330
B832
102
}
330
B832
100
AcDbXrecord
280
     1
102
RTVSPost2010Prop28
280
     0
102
RTVSPost2010PropOp28
 70
     1
102
RTVSPost2010Prop29
280
     1
102
RTVSPost2010PropOp29
 70
     1
102
RTVSPost2010Prop30
280
     1
102
RTVSPost2010PropOp30
 70
     1
102
RTVSPost2010Prop31
280
     0
102
RTVSPost2010PropOp31
 70
     1
102
RTVSPost2010Prop32
280
     0
102
RTVSPost2010PropOp32
 70
     1
102
RTVSPost2010Prop33
280
     0
102
RTVSPost2010PropOp33
 70
     1
102
RTVSPost2010Prop34
280
     0
102
RTVSPost2010PropOp34
 70
     1
102
RTVSPost2010Prop35
280
     0
102
RTVSPost2010PropOp35
 70
     1
102
RTVSPost2010Prop36
280
     0
102
RTVSPost2010PropOp36
 70
     1
102
RTVSPost2010Prop37
 90
       50
102
RTVSPost2010PropOp37
 70
     1
102
RTVSPost2010Prop38
140
0.0
102
RTVSPost2010PropOp38
 70
     1
102
RTVSPost2010Prop39
140
1.0
102
RTVSPost2010PropOp39
 70
     1
102
RTVSPost2010Prop40
 90
        0
102
RTVSPost2010PropOp40
 70
     1
102
RTVSPost2010Prop41ColorIndex
 90
       18
102
RTVSPost2010Prop41ColorRGB
 90
        0
102
RTVSPost2010PropOp41
 70
     1
102
RTVSPost2010Prop42
 90
       50
102
RTVSPost2010PropOp42
 70
     1
102
RTVSPost2010Prop43
 90
        3
102
RTVSPost2010PropOp43
 70
     1
102
RTVSPost2010Prop44ColorIndex
 90
        5
102
RTVSPost2010Prop44ColorRGB
 90
      255
102
RTVSPost2010PropOp44
 70
     1
102
RTVSPost2010Prop45
280
     0
102
RTVSPost2010PropOp45
 70
     1
102
RTVSPost2010Prop46
 90
       50
102
RTVSPost2010PropOp46
 70
     1
102
RTVSPost2010Prop47
 90
       50
102
RTVSPost2010PropOp47
 70
     1
102
RTVSPost2010Prop48
 90
       50
102
RTVSPost2010PropOp48
 70
     1
102
RTVSPost2010Prop49
280
     0
102
RTVSPost2010PropOp49
 70
     1
102
RTVSPost2010Prop50
 90
       50
102
RTVSPost2010PropOp50
 70
     1
102
RTVSPost2010Prop51ColorIndex
 90
      256
102
RTVSPost2010Prop51ColorRGB
 90
-16777216
102
RTVSPost2010PropOp51
 70
     0
102
RTVSPost2010Prop52
140
1.0
102
RTVSPost2010PropOp52
 70
     0
102
RTVSPost2010Prop53
 90
        2
102
RTVSPost2010PropOp53
 70
     1
102
RTVSPost2010Prop54
  1
strokes_ogs.tif
102
RTVSPost2010PropOp54
 70
     1
102
RTVSPost2010Prop55
280
     0
102
RTVSPost2010PropOp55
 70
     1
102
RTVSPost2010Prop56
140
1.0
102
RTVSPost2010PropOp56
 70
     1
102
RTVSPost2010Prop57
140
1.0
102
RTVSPost2010PropOp57
 70
     1
102
RTVSPropertyOp0
 70
     1
102
RTVSPropertyOp1
 70
     1
102
RTVSPropertyOp2
 70
     1
102
RTVSPropertyOp3
 70
     1
102
RTVSPropertyOp4
 70
     1
102
RTVSPropertyOp5
 70
     1
102
RTVSPropertyOp6
 70
     1
102
RTVSPropertyOp7
 70
     1
102
RTVSPropertyOp8
 70
     1
102
RTVSPropertyOp9
 70
     1
102
RTVSPropertyOp10
 70
     1
102
RTVSPropertyOp11
 70
     1
102
RTVSPropertyOp12
 70
     1
102
RTVSPropertyOp13
 70
     1
102
RTVSPropertyOp14
 70
     1
102
RTVSPropertyOp15
 70
     1
102
RTVSPropertyOp16
 70
     1
102
RTVSPropertyOp17
 70
     1
102
RTVSPropertyOp18
 70
     1
102
RTVSPropertyOp19
 70
     1
102
RTVSPropertyOp20
 70
     1
102
RTVSPropertyOp21
 70
     1
102
RTVSPropertyOp22
 70
     1
102
RTVSPropertyOp23
 70
     1
102
RTVSPropertyOp24
 70
     1
102
RTVSPropertyOp25
 70
     1
102
RTVSPropertyOp26
 70
     1
102
RTVSPropertyOp27
 70
     1
102
RTVSPropertyOp28
 70
     1
102
RTVSPropertyOp29
 70
     1
102
RTVSPropertyOp30
 70
     1
102
RTVSPropertyOp31
 70
     1
102
RTVSPropertyOp32
 70
     1
102
RTVSPropertyOp33
 70
     1
102
RTVSPropertyOp34
 70
     1
102
RTVSPropertyOp35
 70
     1
102
RTVSPropertyOp36
 70
     1
102
RTVSPropertyOp37
 70
     1
102
RTVSPropertyOp38
 70
     1
102
RTVSPropertyOp39
 70
     1
102
RTVSPropertyOp40
 70
     1
102
RTVSPropertyOp41
 70
     1
102
RTVSPropertyOp42
 70
     1
102
RTVSPropertyOp43
 70
     1
102
RTVSPropertyOp44
 70
     1
102
RTVSPropertyOp45
 70
     1
102
RTVSPropertyOp46
 70
     1
102
RTVSPropertyOp47
 70
     1
102
RTVSPropertyOp48
 70
     1
102
RTVSPropertyOp49
 70
     1
102
RTVSPropertyOp50
 70
     1
102
RTVSPropertyOp51
 70
     0
102
RTVSPropertyOp52
 70
     0
102
RTVSPropertyOp53
 70
     1
102
RTVSPropertyOp54
 70
     1
102
RTVSPropertyOp55
 70
     1
102
RTVSPropertyOp56
 70
     1
102
RTVSPropertyOp57
 70
     1
102
RTVSPropertyOp58
 70
     1
102
RTVSPropertyOp59
 70
     1
102
RTVSPropertyOp60
 70
     1
102
RTVSPropertyOp61
 70
     1
102
RTVSPropertyOp62
 70
     1
  0
XRECORD
  5
B835
102
{ACAD_REACTORS
330
B834
102
}
330
B834
100
AcDbXrecord
280
     1
102
RTVSPost2010Prop28
280
     0
102
RTVSPost2010PropOp28
 70
     1
102
RTVSPost2010Prop29
280
     1
102
RTVSPost2010PropOp29
 70
     1
102
RTVSPost2010Prop30
280
     1
102
RTVSPost2010PropOp30
 70
     1
102
RTVSPost2010Prop31
280
     0
102
RTVSPost2010PropOp31
 70
     1
102
RTVSPost2010Prop32
280
     0
102
RTVSPost2010PropOp32
 70
     1
102
RTVSPost2010Prop33
280
     0
102
RTVSPost2010PropOp33
 70
     1
102
RTVSPost2010Prop34
280
     0
102
RTVSPost2010PropOp34
 70
     1
102
RTVSPost2010Prop35
280
     0
102
RTVSPost2010PropOp35
 70
     1
102
RTVSPost2010Prop36
280
     0
102
RTVSPost2010PropOp36
 70
     1
102
RTVSPost2010Prop37
 90
       50
102
RTVSPost2010PropOp37
 70
     1
102
RTVSPost2010Prop38
140
0.0
102
RTVSPost2010PropOp38
 70
     1
102
RTVSPost2010Prop39
140
1.0
102
RTVSPost2010PropOp39
 70
     1
102
RTVSPost2010Prop40
 90
        0
102
RTVSPost2010PropOp40
 70
     1
102
RTVSPost2010Prop41ColorIndex
 90
       18
102
RTVSPost2010Prop41ColorRGB
 90
        0
102
RTVSPost2010PropOp41
 70
     1
102
RTVSPost2010Prop42
 90
       50
102
RTVSPost2010PropOp42
 70
     1
102
RTVSPost2010Prop43
 90
        3
102
RTVSPost2010PropOp43
 70
     1
102
RTVSPost2010Prop44ColorIndex
 90
        5
102
RTVSPost2010Prop44ColorRGB
 90
      255
102
RTVSPost2010PropOp44
 70
     1
102
RTVSPost2010Prop45
280
     0
102
RTVSPost2010PropOp45
 70
     1
102
RTVSPost2010Prop46
 90
       50
102
RTVSPost2010PropOp46
 70
     1
102
RTVSPost2010Prop47
 90
       50
102
RTVSPost2010PropOp47
 70
     1
102
RTVSPost2010Prop48
 90
       50
102
RTVSPost2010PropOp48
 70
     1
102
RTVSPost2010Prop49
280
     0
102
RTVSPost2010PropOp49
 70
     1
102
RTVSPost2010Prop50
 90
       50
102
RTVSPost2010PropOp50
 70
     1
102
RTVSPost2010Prop51ColorIndex
 90
      256
102
RTVSPost2010Prop51ColorRGB
 90
-16777216
102
RTVSPost2010PropOp51
 70
     0
102
RTVSPost2010Prop52
140
1.0
102
RTVSPost2010PropOp52
 70
     0
102
RTVSPost2010Prop53
 90
        2
102
RTVSPost2010PropOp53
 70
     1
102
RTVSPost2010Prop54
  1
strokes_ogs.tif
102
RTVSPost2010PropOp54
 70
     1
102
RTVSPost2010Prop55
280
     0
102
RTVSPost2010PropOp55
 70
     1
102
RTVSPost2010Prop56
140
1.0
102
RTVSPost2010PropOp56
 70
     1
102
RTVSPost2010Prop57
140
1.0
102
RTVSPost2010PropOp57
 70
     1
102
RTVSPropertyOp0
 70
     1
102
RTVSPropertyOp1
 70
     1
102
RTVSPropertyOp2
 70
     1
102
RTVSPropertyOp3
 70
     1
102
RTVSPropertyOp4
 70
     1
102
RTVSPropertyOp5
 70
     1
102
RTVSPropertyOp6
 70
     1
102
RTVSPropertyOp7
 70
     1
102
RTVSPropertyOp8
 70
     1
102
RTVSPropertyOp9
 70
     1
102
RTVSPropertyOp10
 70
     1
102
RTVSPropertyOp11
 70
     1
102
RTVSPropertyOp12
 70
     1
102
RTVSPropertyOp13
 70
     1
102
RTVSPropertyOp14
 70
     1
102
RTVSPropertyOp15
 70
     1
102
RTVSPropertyOp16
 70
     1
102
RTVSPropertyOp17
 70
     1
102
RTVSPropertyOp18
 70
     1
102
RTVSPropertyOp19
 70
     1
102
RTVSPropertyOp20
 70
     1
102
RTVSPropertyOp21
 70
     1
102
RTVSPropertyOp22
 70
     1
102
RTVSPropertyOp23
 70
     1
102
RTVSPropertyOp24
 70
     1
102
RTVSPropertyOp25
 70
     1
102
RTVSPropertyOp26
 70
     1
102
RTVSPropertyOp27
 70
     1
102
RTVSPropertyOp28
 70
     1
102
RTVSPropertyOp29
 70
     1
102
RTVSPropertyOp30
 70
     1
102
RTVSPropertyOp31
 70
     1
102
RTVSPropertyOp32
 70
     1
102
RTVSPropertyOp33
 70
     1
102
RTVSPropertyOp34
 70
     1
102
RTVSPropertyOp35
 70
     1
102
RTVSPropertyOp36
 70
     1
102
RTVSPropertyOp37
 70
     1
102
RTVSPropertyOp38
 70
     1
102
RTVSPropertyOp39
 70
     1
102
RTVSPropertyOp40
 70
     1
102
RTVSPropertyOp41
 70
     1
102
RTVSPropertyOp42
 70
     1
102
RTVSPropertyOp43
 70
     1
102
RTVSPropertyOp44
 70
     1
102
RTVSPropertyOp45
 70
     1
102
RTVSPropertyOp46
 70
     1
102
RTVSPropertyOp47
 70
     1
102
RTVSPropertyOp48
 70
     1
102
RTVSPropertyOp49
 70
     1
102
RTVSPropertyOp50
 70
     1
102
RTVSPropertyOp51
 70
     0
102
RTVSPropertyOp52
 70
     0
102
RTVSPropertyOp53
 70
     1
102
RTVSPropertyOp54
 70
     1
102
RTVSPropertyOp55
 70
     1
102
RTVSPropertyOp56
 70
     1
102
RTVSPropertyOp57
 70
     1
102
RTVSPropertyOp58
 70
     1
102
RTVSPropertyOp59
 70
     1
102
RTVSPropertyOp60
 70
     1
102
RTVSPropertyOp61
 70
     1
102
RTVSPropertyOp62
 70
     1
  0
XRECORD
  5
B837
102
{ACAD_REACTORS
330
B836
102
}
330
B836
100
AcDbXrecord
280
     1
102
RTVSPost2010Prop28
280
     0
102
RTVSPost2010PropOp28
 70
     1
102
RTVSPost2010Prop29
280
     1
102
RTVSPost2010PropOp29
 70
     1
102
RTVSPost2010Prop30
280
     1
102
RTVSPost2010PropOp30
 70
     1
102
RTVSPost2010Prop31
280
     0
102
RTVSPost2010PropOp31
 70
     1
102
RTVSPost2010Prop32
280
     0
102
RTVSPost2010PropOp32
 70
     1
102
RTVSPost2010Prop33
280
     0
102
RTVSPost2010PropOp33
 70
     1
102
RTVSPost2010Prop34
280
     0
102
RTVSPost2010PropOp34
 70
     1
102
RTVSPost2010Prop35
280
     0
102
RTVSPost2010PropOp35
 70
     1
102
RTVSPost2010Prop36
280
     0
102
RTVSPost2010PropOp36
 70
     1
102
RTVSPost2010Prop37
 90
       50
102
RTVSPost2010PropOp37
 70
     1
102
RTVSPost2010Prop38
140
0.0
102
RTVSPost2010PropOp38
 70
     1
102
RTVSPost2010Prop39
140
1.0
102
RTVSPost2010PropOp39
 70
     1
102
RTVSPost2010Prop40
 90
        0
102
RTVSPost2010PropOp40
 70
     1
102
RTVSPost2010Prop41ColorIndex
 90
       18
102
RTVSPost2010Prop41ColorRGB
 90
        0
102
RTVSPost2010PropOp41
 70
     1
102
RTVSPost2010Prop42
 90
       50
102
RTVSPost2010PropOp42
 70
     1
102
RTVSPost2010Prop43
 90
        3
102
RTVSPost2010PropOp43
 70
     1
102
RTVSPost2010Prop44ColorIndex
 90
        5
102
RTVSPost2010Prop44ColorRGB
 90
      255
102
RTVSPost2010PropOp44
 70
     1
102
RTVSPost2010Prop45
280
     0
102
RTVSPost2010PropOp45
 70
     1
102
RTVSPost2010Prop46
 90
       50
102
RTVSPost2010PropOp46
 70
     1
102
RTVSPost2010Prop47
 90
       50
102
RTVSPost2010PropOp47
 70
     1
102
RTVSPost2010Prop48
 90
       50
102
RTVSPost2010PropOp48
 70
     1
102
RTVSPost2010Prop49
280
     0
102
RTVSPost2010PropOp49
 70
     1
102
RTVSPost2010Prop50
 90
       50
102
RTVSPost2010PropOp50
 70
     1
102
RTVSPost2010Prop51ColorIndex
 90
      256
102
RTVSPost2010Prop51ColorRGB
 90
-16777216
102
RTVSPost2010PropOp51
 70
     0
102
RTVSPost2010Prop52
140
1.0
102
RTVSPost2010PropOp52
 70
     0
102
RTVSPost2010Prop53
 90
        2
102
RTVSPost2010PropOp53
 70
     1
102
RTVSPost2010Prop54
  1
strokes_ogs.tif
102
RTVSPost2010PropOp54
 70
     1
102
RTVSPost2010Prop55
280
     0
102
RTVSPost2010PropOp55
 70
     1
102
RTVSPost2010Prop56
140
1.0
102
RTVSPost2010PropOp56
 70
     1
102
RTVSPost2010Prop57
140
1.0
102
RTVSPost2010PropOp57
 70
     1
102
RTVSPropertyOp0
 70
     1
102
RTVSPropertyOp1
 70
     1
102
RTVSPropertyOp2
 70
     1
102
RTVSPropertyOp3
 70
     1
102
RTVSPropertyOp4
 70
     1
102
RTVSPropertyOp5
 70
     1
102
RTVSPropertyOp6
 70
     1
102
RTVSPropertyOp7
 70
     1
102
RTVSPropertyOp8
 70
     1
102
RTVSPropertyOp9
 70
     1
102
RTVSPropertyOp10
 70
     1
102
RTVSPropertyOp11
 70
     1
102
RTVSPropertyOp12
 70
     1
102
RTVSPropertyOp13
 70
     1
102
RTVSPropertyOp14
 70
     1
102
RTVSPropertyOp15
 70
     1
102
RTVSPropertyOp16
 70
     1
102
RTVSPropertyOp17
 70
     1
102
RTVSPropertyOp18
 70
     1
102
RTVSPropertyOp19
 70
     1
102
RTVSPropertyOp20
 70
     1
102
RTVSPropertyOp21
 70
     1
102
RTVSPropertyOp22
 70
     1
102
RTVSPropertyOp23
 70
     1
102
RTVSPropertyOp24
 70
     1
102
RTVSPropertyOp25
 70
     1
102
RTVSPropertyOp26
 70
     1
102
RTVSPropertyOp27
 70
     1
102
RTVSPropertyOp28
 70
     1
102
RTVSPropertyOp29
 70
     1
102
RTVSPropertyOp30
 70
     1
102
RTVSPropertyOp31
 70
     1
102
RTVSPropertyOp32
 70
     1
102
RTVSPropertyOp33
 70
     1
102
RTVSPropertyOp34
 70
     1
102
RTVSPropertyOp35
 70
     1
102
RTVSPropertyOp36
 70
     1
102
RTVSPropertyOp37
 70
     1
102
RTVSPropertyOp38
 70
     1
102
RTVSPropertyOp39
 70
     1
102
RTVSPropertyOp40
 70
     1
102
RTVSPropertyOp41
 70
     1
102
RTVSPropertyOp42
 70
     1
102
RTVSPropertyOp43
 70
     1
102
RTVSPropertyOp44
 70
     1
102
RTVSPropertyOp45
 70
     1
102
RTVSPropertyOp46
 70
     1
102
RTVSPropertyOp47
 70
     1
102
RTVSPropertyOp48
 70
     1
102
RTVSPropertyOp49
 70
     1
102
RTVSPropertyOp50
 70
     1
102
RTVSPropertyOp51
 70
     0
102
RTVSPropertyOp52
 70
     0
102
RTVSPropertyOp53
 70
     1
102
RTVSPropertyOp54
 70
     1
102
RTVSPropertyOp55
 70
     1
102
RTVSPropertyOp56
 70
     1
102
RTVSPropertyOp57
 70
     1
102
RTVSPropertyOp58
 70
     1
102
RTVSPropertyOp59
 70
     1
102
RTVSPropertyOp60
 70
     1
102
RTVSPropertyOp61
 70
     1
102
RTVSPropertyOp62
 70
     1
  0
XRECORD
  5
B839
102
{ACAD_REACTORS
330
B838
102
}
330
B838
100
AcDbXrecord
280
     1
102
RTVSPost2010Prop28
280
     0
102
RTVSPost2010PropOp28
 70
     1
102
RTVSPost2010Prop29
280
     1
102
RTVSPost2010PropOp29
 70
     1
102
RTVSPost2010Prop30
280
     1
102
RTVSPost2010PropOp30
 70
     1
102
RTVSPost2010Prop31
280
     0
102
RTVSPost2010PropOp31
 70
     1
102
RTVSPost2010Prop32
280
     0
102
RTVSPost2010PropOp32
 70
     1
102
RTVSPost2010Prop33
280
     0
102
RTVSPost2010PropOp33
 70
     1
102
RTVSPost2010Prop34
280
     0
102
RTVSPost2010PropOp34
 70
     1
102
RTVSPost2010Prop35
280
     0
102
RTVSPost2010PropOp35
 70
     1
102
RTVSPost2010Prop36
280
     0
102
RTVSPost2010PropOp36
 70
     1
102
RTVSPost2010Prop37
 90
       50
102
RTVSPost2010PropOp37
 70
     1
102
RTVSPost2010Prop38
140
0.0
102
RTVSPost2010PropOp38
 70
     1
102
RTVSPost2010Prop39
140
1.0
102
RTVSPost2010PropOp39
 70
     1
102
RTVSPost2010Prop40
 90
        0
102
RTVSPost2010PropOp40
 70
     1
102
RTVSPost2010Prop41ColorIndex
 90
       18
102
RTVSPost2010Prop41ColorRGB
 90
        0
102
RTVSPost2010PropOp41
 70
     1
102
RTVSPost2010Prop42
 90
       50
102
RTVSPost2010PropOp42
 70
     1
102
RTVSPost2010Prop43
 90
        3
102
RTVSPost2010PropOp43
 70
     1
102
RTVSPost2010Prop44ColorIndex
 90
        5
102
RTVSPost2010Prop44ColorRGB
 90
      255
102
RTVSPost2010PropOp44
 70
     1
102
RTVSPost2010Prop45
280
     0
102
RTVSPost2010PropOp45
 70
     1
102
RTVSPost2010Prop46
 90
       50
102
RTVSPost2010PropOp46
 70
     1
102
RTVSPost2010Prop47
 90
       50
102
RTVSPost2010PropOp47
 70
     1
102
RTVSPost2010Prop48
 90
       50
102
RTVSPost2010PropOp48
 70
     1
102
RTVSPost2010Prop49
280
     0
102
RTVSPost2010PropOp49
 70
     1
102
RTVSPost2010Prop50
 90
       50
102
RTVSPost2010PropOp50
 70
     1
102
RTVSPost2010Prop51ColorIndex
 90
      256
102
RTVSPost2010Prop51ColorRGB
 90
-16777216
102
RTVSPost2010PropOp51
 70
     0
102
RTVSPost2010Prop52
140
1.0
102
RTVSPost2010PropOp52
 70
     0
102
RTVSPost2010Prop53
 90
        2
102
RTVSPost2010PropOp53
 70
     1
102
RTVSPost2010Prop54
  1
strokes_ogs.tif
102
RTVSPost2010PropOp54
 70
     1
102
RTVSPost2010Prop55
280
     0
102
RTVSPost2010PropOp55
 70
     1
102
RTVSPost2010Prop56
140
1.0
102
RTVSPost2010PropOp56
 70
     1
102
RTVSPost2010Prop57
140
1.0
102
RTVSPost2010PropOp57
 70
     1
102
RTVSPropertyOp0
 70
     1
102
RTVSPropertyOp1
 70
     1
102
RTVSPropertyOp2
 70
     1
102
RTVSPropertyOp3
 70
     1
102
RTVSPropertyOp4
 70
     1
102
RTVSPropertyOp5
 70
     1
102
RTVSPropertyOp6
 70
     1
102
RTVSPropertyOp7
 70
     1
102
RTVSPropertyOp8
 70
     1
102
RTVSPropertyOp9
 70
     1
102
RTVSPropertyOp10
 70
     1
102
RTVSPropertyOp11
 70
     1
102
RTVSPropertyOp12
 70
     1
102
RTVSPropertyOp13
 70
     1
102
RTVSPropertyOp14
 70
     1
102
RTVSPropertyOp15
 70
     1
102
RTVSPropertyOp16
 70
     1
102
RTVSPropertyOp17
 70
     1
102
RTVSPropertyOp18
 70
     1
102
RTVSPropertyOp19
 70
     1
102
RTVSPropertyOp20
 70
     1
102
RTVSPropertyOp21
 70
     1
102
RTVSPropertyOp22
 70
     1
102
RTVSPropertyOp23
 70
     1
102
RTVSPropertyOp24
 70
     1
102
RTVSPropertyOp25
 70
     1
102
RTVSPropertyOp26
 70
     1
102
RTVSPropertyOp27
 70
     1
102
RTVSPropertyOp28
 70
     1
102
RTVSPropertyOp29
 70
     1
102
RTVSPropertyOp30
 70
     1
102
RTVSPropertyOp31
 70
     1
102
RTVSPropertyOp32
 70
     1
102
RTVSPropertyOp33
 70
     1
102
RTVSPropertyOp34
 70
     1
102
RTVSPropertyOp35
 70
     1
102
RTVSPropertyOp36
 70
     1
102
RTVSPropertyOp37
 70
     1
102
RTVSPropertyOp38
 70
     1
102
RTVSPropertyOp39
 70
     1
102
RTVSPropertyOp40
 70
     1
102
RTVSPropertyOp41
 70
     1
102
RTVSPropertyOp42
 70
     1
102
RTVSPropertyOp43
 70
     1
102
RTVSPropertyOp44
 70
     1
102
RTVSPropertyOp45
 70
     1
102
RTVSPropertyOp46
 70
     1
102
RTVSPropertyOp47
 70
     1
102
RTVSPropertyOp48
 70
     1
102
RTVSPropertyOp49
 70
     1
102
RTVSPropertyOp50
 70
     1
102
RTVSPropertyOp51
 70
     0
102
RTVSPropertyOp52
 70
     0
102
RTVSPropertyOp53
 70
     1
102
RTVSPropertyOp54
 70
     1
102
RTVSPropertyOp55
 70
     1
102
RTVSPropertyOp56
 70
     1
102
RTVSPropertyOp57
 70
     1
102
RTVSPropertyOp58
 70
     1
102
RTVSPropertyOp59
 70
     1
102
RTVSPropertyOp60
 70
     1
102
RTVSPropertyOp61
 70
     1
102
RTVSPropertyOp62
 70
     1
  0
XRECORD
  5
B841
102
{ACAD_REACTORS
330
B840
102
}
330
B840
100
AcDbXrecord
280
     1
102
RTVSPost2010Prop28
280
     0
102
RTVSPost2010PropOp28
 70
     1
102
RTVSPost2010Prop29
280
     1
102
RTVSPost2010PropOp29
 70
     1
102
RTVSPost2010Prop30
280
     1
102
RTVSPost2010PropOp30
 70
     1
102
RTVSPost2010Prop31
280
     0
102
RTVSPost2010PropOp31
 70
     1
102
RTVSPost2010Prop32
280
     0
102
RTVSPost2010PropOp32
 70
     1
102
RTVSPost2010Prop33
280
     0
102
RTVSPost2010PropOp33
 70
     1
102
RTVSPost2010Prop34
280
     0
102
RTVSPost2010PropOp34
 70
     1
102
RTVSPost2010Prop35
280
     0
102
RTVSPost2010PropOp35
 70
     1
102
RTVSPost2010Prop36
280
     0
102
RTVSPost2010PropOp36
 70
     1
102
RTVSPost2010Prop37
 90
       50
102
RTVSPost2010PropOp37
 70
     1
102
RTVSPost2010Prop38
140
0.0
102
RTVSPost2010PropOp38
 70
     1
102
RTVSPost2010Prop39
140
1.0
102
RTVSPost2010PropOp39
 70
     1
102
RTVSPost2010Prop40
 90
        0
102
RTVSPost2010PropOp40
 70
     1
102
RTVSPost2010Prop41ColorIndex
 90
       18
102
RTVSPost2010Prop41ColorRGB
 90
        0
102
RTVSPost2010PropOp41
 70
     1
102
RTVSPost2010Prop42
 90
       50
102
RTVSPost2010PropOp42
 70
     1
102
RTVSPost2010Prop43
 90
        3
102
RTVSPost2010PropOp43
 70
     1
102
RTVSPost2010Prop44ColorIndex
 90
        5
102
RTVSPost2010Prop44ColorRGB
 90
      255
102
RTVSPost2010PropOp44
 70
     1
102
RTVSPost2010Prop45
280
     0
102
RTVSPost2010PropOp45
 70
     1
102
RTVSPost2010Prop46
 90
       50
102
RTVSPost2010PropOp46
 70
     1
102
RTVSPost2010Prop47
 90
       50
102
RTVSPost2010PropOp47
 70
     1
102
RTVSPost2010Prop48
 90
       50
102
RTVSPost2010PropOp48
 70
     1
102
RTVSPost2010Prop49
280
     0
102
RTVSPost2010PropOp49
 70
     1
102
RTVSPost2010Prop50
 90
       50
102
RTVSPost2010PropOp50
 70
     1
102
RTVSPost2010Prop51ColorIndex
 90
      256
102
RTVSPost2010Prop51ColorRGB
 90
-16777216
102
RTVSPost2010PropOp51
 70
     0
102
RTVSPost2010Prop52
140
1.0
102
RTVSPost2010PropOp52
 70
     0
102
RTVSPost2010Prop53
 90
        2
102
RTVSPost2010PropOp53
 70
     1
102
RTVSPost2010Prop54
  1
strokes_ogs.tif
102
RTVSPost2010PropOp54
 70
     1
102
RTVSPost2010Prop55
280
     0
102
RTVSPost2010PropOp55
 70
     1
102
RTVSPost2010Prop56
140
1.0
102
RTVSPost2010PropOp56
 70
     1
102
RTVSPost2010Prop57
140
1.0
102
RTVSPost2010PropOp57
 70
     1
102
RTVSPropertyOp0
 70
     1
102
RTVSPropertyOp1
 70
     1
102
RTVSPropertyOp2
 70
     1
102
RTVSPropertyOp3
 70
     1
102
RTVSPropertyOp4
 70
     1
102
RTVSPropertyOp5
 70
     1
102
RTVSPropertyOp6
 70
     1
102
RTVSPropertyOp7
 70
     1
102
RTVSPropertyOp8
 70
     1
102
RTVSPropertyOp9
 70
     1
102
RTVSPropertyOp10
 70
     1
102
RTVSPropertyOp11
 70
     1
102
RTVSPropertyOp12
 70
     1
102
RTVSPropertyOp13
 70
     1
102
RTVSPropertyOp14
 70
     1
102
RTVSPropertyOp15
 70
     1
102
RTVSPropertyOp16
 70
     1
102
RTVSPropertyOp17
 70
     1
102
RTVSPropertyOp18
 70
     1
102
RTVSPropertyOp19
 70
     1
102
RTVSPropertyOp20
 70
     1
102
RTVSPropertyOp21
 70
     1
102
RTVSPropertyOp22
 70
     1
102
RTVSPropertyOp23
 70
     1
102
RTVSPropertyOp24
 70
     1
102
RTVSPropertyOp25
 70
     1
102
RTVSPropertyOp26
 70
     1
102
RTVSPropertyOp27
 70
     1
102
RTVSPropertyOp28
 70
     1
102
RTVSPropertyOp29
 70
     1
102
RTVSPropertyOp30
 70
     1
102
RTVSPropertyOp31
 70
     1
102
RTVSPropertyOp32
 70
     1
102
RTVSPropertyOp33
 70
     1
102
RTVSPropertyOp34
 70
     1
102
RTVSPropertyOp35
 70
     1
102
RTVSPropertyOp36
 70
     1
102
RTVSPropertyOp37
 70
     1
102
RTVSPropertyOp38
 70
     1
102
RTVSPropertyOp39
 70
     1
102
RTVSPropertyOp40
 70
     1
102
RTVSPropertyOp41
 70
     1
102
RTVSPropertyOp42
 70
     1
102
RTVSPropertyOp43
 70
     1
102
RTVSPropertyOp44
 70
     1
102
RTVSPropertyOp45
 70
     1
102
RTVSPropertyOp46
 70
     1
102
RTVSPropertyOp47
 70
     1
102
RTVSPropertyOp48
 70
     1
102
RTVSPropertyOp49
 70
     1
102
RTVSPropertyOp50
 70
     1
102
RTVSPropertyOp51
 70
     0
102
RTVSPropertyOp52
 70
     0
102
RTVSPropertyOp53
 70
     1
102
RTVSPropertyOp54
 70
     1
102
RTVSPropertyOp55
 70
     1
102
RTVSPropertyOp56
 70
     1
102
RTVSPropertyOp57
 70
     1
102
RTVSPropertyOp58
 70
     1
102
RTVSPropertyOp59
 70
     1
102
RTVSPropertyOp60
 70
     1
102
RTVSPropertyOp61
 70
     1
102
RTVSPropertyOp62
 70
     1
  0
XRECORD
  5
B85D
102
{ACAD_REACTORS
330
B85C
102
}
330
B85C
100
AcDbXrecord
280
     1
102
RTVSPost2010Prop28
280
     0
102
RTVSPost2010PropOp28
 70
     1
102
RTVSPost2010Prop29
280
     1
102
RTVSPost2010PropOp29
 70
     1
102
RTVSPost2010Prop30
280
     1
102
RTVSPost2010PropOp30
 70
     1
102
RTVSPost2010Prop31
280
     0
102
RTVSPost2010PropOp31
 70
     1
102
RTVSPost2010Prop32
280
     0
102
RTVSPost2010PropOp32
 70
     1
102
RTVSPost2010Prop33
280
     0
102
RTVSPost2010PropOp33
 70
     1
102
RTVSPost2010Prop34
280
     0
102
RTVSPost2010PropOp34
 70
     1
102
RTVSPost2010Prop35
280
     0
102
RTVSPost2010PropOp35
 70
     1
102
RTVSPost2010Prop36
280
     0
102
RTVSPost2010PropOp36
 70
     1
102
RTVSPost2010Prop37
 90
       50
102
RTVSPost2010PropOp37
 70
     0
102
RTVSPost2010Prop38
140
0.0
102
RTVSPost2010PropOp38
 70
     0
102
RTVSPost2010Prop39
140
1.0
102
RTVSPost2010PropOp39
 70
     0
102
RTVSPost2010Prop40
 90
        0
102
RTVSPost2010PropOp40
 70
     0
102
RTVSPost2010Prop41ColorIndex
 90
       18
102
RTVSPost2010Prop41ColorRGB
 90
        0
102
RTVSPost2010PropOp41
 70
     0
102
RTVSPost2010Prop42
 90
       50
102
RTVSPost2010PropOp42
 70
     0
102
RTVSPost2010Prop43
 90
        3
102
RTVSPost2010PropOp43
 70
     0
102
RTVSPost2010Prop44ColorIndex
 90
        5
102
RTVSPost2010Prop44ColorRGB
 90
      255
102
RTVSPost2010PropOp44
 70
     0
102
RTVSPost2010Prop45
280
     0
102
RTVSPost2010PropOp45
 70
     1
102
RTVSPost2010Prop46
 90
       50
102
RTVSPost2010PropOp46
 70
     0
102
RTVSPost2010Prop47
 90
       50
102
RTVSPost2010PropOp47
 70
     0
102
RTVSPost2010Prop48
 90
       50
102
RTVSPost2010PropOp48
 70
     0
102
RTVSPost2010Prop49
280
     0
102
RTVSPost2010PropOp49
 70
     1
102
RTVSPost2010Prop50
 90
       50
102
RTVSPost2010PropOp50
 70
     0
102
RTVSPost2010Prop51ColorIndex
 90
      256
102
RTVSPost2010Prop51ColorRGB
 90
-16777216
102
RTVSPost2010PropOp51
 70
     0
102
RTVSPost2010Prop52
140
1.0
102
RTVSPost2010PropOp52
 70
     0
102
RTVSPost2010Prop53
 90
        2
102
RTVSPost2010PropOp53
 70
     0
102
RTVSPost2010Prop54
  1
strokes_ogs.tif
102
RTVSPost2010PropOp54
 70
     0
102
RTVSPost2010Prop55
280
     0
102
RTVSPost2010PropOp55
 70
     1
102
RTVSPost2010Prop56
140
1.0
102
RTVSPost2010PropOp56
 70
     0
102
RTVSPost2010Prop57
140
1.0
102
RTVSPost2010PropOp57
 70
     0
102
RTVSPropertyOp0
 70
     0
102
RTVSPropertyOp1
 70
     0
102
RTVSPropertyOp2
 70
     0
102
RTVSPropertyOp3
 70
     0
102
RTVSPropertyOp4
 70
     0
102
RTVSPropertyOp5
 70
     0
102
RTVSPropertyOp6
 70
     0
102
RTVSPropertyOp7
 70
     0
102
RTVSPropertyOp8
 70
     0
102
RTVSPropertyOp9
 70
     0
102
RTVSPropertyOp10
 70
     0
102
RTVSPropertyOp11
 70
     0
102
RTVSPropertyOp12
 70
     0
102
RTVSPropertyOp13
 70
     0
102
RTVSPropertyOp14
 70
     2
102
RTVSPropertyOp15
 70
     0
102
RTVSPropertyOp16
 70
     0
102
RTVSPropertyOp17
 70
     0
102
RTVSPropertyOp18
 70
     0
102
RTVSPropertyOp19
 70
     0
102
RTVSPropertyOp20
 70
     0
102
RTVSPropertyOp21
 70
     0
102
RTVSPropertyOp22
 70
     0
102
RTVSPropertyOp23
 70
     0
102
RTVSPropertyOp24
 70
     0
102
RTVSPropertyOp25
 70
     0
102
RTVSPropertyOp26
 70
     0
102
RTVSPropertyOp27
 70
     0
102
RTVSPropertyOp28
 70
     1
102
RTVSPropertyOp29
 70
     1
102
RTVSPropertyOp30
 70
     1
102
RTVSPropertyOp31
 70
     1
102
RTVSPropertyOp32
 70
     1
102
RTVSPropertyOp33
 70
     1
102
RTVSPropertyOp34
 70
     1
102
RTVSPropertyOp35
 70
     1
102
RTVSPropertyOp36
 70
     1
102
RTVSPropertyOp37
 70
     0
102
RTVSPropertyOp38
 70
     0
102
RTVSPropertyOp39
 70
     0
102
RTVSPropertyOp40
 70
     0
102
RTVSPropertyOp41
 70
     0
102
RTVSPropertyOp42
 70
     0
102
RTVSPropertyOp43
 70
     0
102
RTVSPropertyOp44
 70
     0
102
RTVSPropertyOp45
 70
     1
102
RTVSPropertyOp46
 70
     0
102
RTVSPropertyOp47
 70
     0
102
RTVSPropertyOp48
 70
     0
102
RTVSPropertyOp49
 70
     1
102
RTVSPropertyOp50
 70
     0
102
RTVSPropertyOp51
 70
     0
102
RTVSPropertyOp52
 70
     0
102
RTVSPropertyOp53
 70
     0
102
RTVSPropertyOp54
 70
     0
102
RTVSPropertyOp55
 70
     1
102
RTVSPropertyOp56
 70
     0
102
RTVSPropertyOp57
 70
     0
102
RTVSPropertyOp58
 70
     0
102
RTVSPropertyOp59
 70
     0
102
RTVSPropertyOp60
 70
     0
102
RTVSPropertyOp61
 70
     0
102
RTVSPropertyOp62
 70
     0
  0
XRECORD
  5
B84D
102
{ACAD_REACTORS
330
B84C
102
}
330
B84C
100
AcDbXrecord
280
     1
102
RTVSPost2010Prop28
280
     0
102
RTVSPost2010PropOp28
 70
     1
102
RTVSPost2010Prop29
280
     1
102
RTVSPost2010PropOp29
 70
     1
102
RTVSPost2010Prop30
280
     1
102
RTVSPost2010PropOp30
 70
     1
102
RTVSPost2010Prop31
280
     0
102
RTVSPost2010PropOp31
 70
     1
102
RTVSPost2010Prop32
280
     0
102
RTVSPost2010PropOp32
 70
     1
102
RTVSPost2010Prop33
280
     0
102
RTVSPost2010PropOp33
 70
     1
102
RTVSPost2010Prop34
280
     0
102
RTVSPost2010PropOp34
 70
     1
102
RTVSPost2010Prop35
280
     0
102
RTVSPost2010PropOp35
 70
     1
102
RTVSPost2010Prop36
280
     0
102
RTVSPost2010PropOp36
 70
     1
102
RTVSPost2010Prop37
 90
       50
102
RTVSPost2010PropOp37
 70
     1
102
RTVSPost2010Prop38
140
0.0
102
RTVSPost2010PropOp38
 70
     1
102
RTVSPost2010Prop39
140
1.0
102
RTVSPost2010PropOp39
 70
     1
102
RTVSPost2010Prop40
 90
        0
102
RTVSPost2010PropOp40
 70
     1
102
RTVSPost2010Prop41ColorIndex
 90
       18
102
RTVSPost2010Prop41ColorRGB
 90
        0
102
RTVSPost2010PropOp41
 70
     1
102
RTVSPost2010Prop42
 90
       50
102
RTVSPost2010PropOp42
 70
     1
102
RTVSPost2010Prop43
 90
        3
102
RTVSPost2010PropOp43
 70
     1
102
RTVSPost2010Prop44ColorIndex
 90
        5
102
RTVSPost2010Prop44ColorRGB
 90
      255
102
RTVSPost2010PropOp44
 70
     1
102
RTVSPost2010Prop45
280
     0
102
RTVSPost2010PropOp45
 70
     1
102
RTVSPost2010Prop46
 90
       50
102
RTVSPost2010PropOp46
 70
     1
102
RTVSPost2010Prop47
 90
       50
102
RTVSPost2010PropOp47
 70
     1
102
RTVSPost2010Prop48
 90
       50
102
RTVSPost2010PropOp48
 70
     1
102
RTVSPost2010Prop49
280
     0
102
RTVSPost2010PropOp49
 70
     1
102
RTVSPost2010Prop50
 90
       50
102
RTVSPost2010PropOp50
 70
     1
102
RTVSPost2010Prop51ColorIndex
 90
      256
102
RTVSPost2010Prop51ColorRGB
 90
-16777216
102
RTVSPost2010PropOp51
 70
     0
102
RTVSPost2010Prop52
140
1.0
102
RTVSPost2010PropOp52
 70
     0
102
RTVSPost2010Prop53
 90
        2
102
RTVSPost2010PropOp53
 70
     1
102
RTVSPost2010Prop54
  1
strokes_ogs.tif
102
RTVSPost2010PropOp54
 70
     1
102
RTVSPost2010Prop55
280
     0
102
RTVSPost2010PropOp55
 70
     1
102
RTVSPost2010Prop56
140
1.0
102
RTVSPost2010PropOp56
 70
     1
102
RTVSPost2010Prop57
140
1.0
102
RTVSPost2010PropOp57
 70
     1
102
RTVSPropertyOp0
 70
     1
102
RTVSPropertyOp1
 70
     1
102
RTVSPropertyOp2
 70
     1
102
RTVSPropertyOp3
 70
     1
102
RTVSPropertyOp4
 70
     1
102
RTVSPropertyOp5
 70
     1
102
RTVSPropertyOp6
 70
     1
102
RTVSPropertyOp7
 70
     1
102
RTVSPropertyOp8
 70
     1
102
RTVSPropertyOp9
 70
     1
102
RTVSPropertyOp10
 70
     1
102
RTVSPropertyOp11
 70
     1
102
RTVSPropertyOp12
 70
     1
102
RTVSPropertyOp13
 70
     1
102
RTVSPropertyOp14
 70
     1
102
RTVSPropertyOp15
 70
     1
102
RTVSPropertyOp16
 70
     1
102
RTVSPropertyOp17
 70
     1
102
RTVSPropertyOp18
 70
     1
102
RTVSPropertyOp19
 70
     1
102
RTVSPropertyOp20
 70
     1
102
RTVSPropertyOp21
 70
     1
102
RTVSPropertyOp22
 70
     1
102
RTVSPropertyOp23
 70
     1
102
RTVSPropertyOp24
 70
     1
102
RTVSPropertyOp25
 70
     1
102
RTVSPropertyOp26
 70
     1
102
RTVSPropertyOp27
 70
     1
102
RTVSPropertyOp28
 70
     1
102
RTVSPropertyOp29
 70
     1
102
RTVSPropertyOp30
 70
     1
102
RTVSPropertyOp31
 70
     1
102
RTVSPropertyOp32
 70
     1
102
RTVSPropertyOp33
 70
     1
102
RTVSPropertyOp34
 70
     1
102
RTVSPropertyOp35
 70
     1
102
RTVSPropertyOp36
 70
     1
102
RTVSPropertyOp37
 70
     1
102
RTVSPropertyOp38
 70
     1
102
RTVSPropertyOp39
 70
     1
102
RTVSPropertyOp40
 70
     1
102
RTVSPropertyOp41
 70
     1
102
RTVSPropertyOp42
 70
     1
102
RTVSPropertyOp43
 70
     1
102
RTVSPropertyOp44
 70
     1
102
RTVSPropertyOp45
 70
     1
102
RTVSPropertyOp46
 70
     1
102
RTVSPropertyOp47
 70
     1
102
RTVSPropertyOp48
 70
     1
102
RTVSPropertyOp49
 70
     1
102
RTVSPropertyOp50
 70
     1
102
RTVSPropertyOp51
 70
     0
102
RTVSPropertyOp52
 70
     0
102
RTVSPropertyOp53
 70
     1
102
RTVSPropertyOp54
 70
     1
102
RTVSPropertyOp55
 70
     1
102
RTVSPropertyOp56
 70
     1
102
RTVSPropertyOp57
 70
     1
102
RTVSPropertyOp58
 70
     1
102
RTVSPropertyOp59
 70
     1
102
RTVSPropertyOp60
 70
     1
102
RTVSPropertyOp61
 70
     1
102
RTVSPropertyOp62
 70
     1
  0
XRECORD
  5
B85F
102
{ACAD_REACTORS
330
B85E
102
}
330
B85E
100
AcDbXrecord
280
     1
102
RTVSPost2010Prop28
280
     0
102
RTVSPost2010PropOp28
 70
     1
102
RTVSPost2010Prop29
280
     1
102
RTVSPost2010PropOp29
 70
     1
102
RTVSPost2010Prop30
280
     1
102
RTVSPost2010PropOp30
 70
     1
102
RTVSPost2010Prop31
280
     0
102
RTVSPost2010PropOp31
 70
     1
102
RTVSPost2010Prop32
280
     0
102
RTVSPost2010PropOp32
 70
     1
102
RTVSPost2010Prop33
280
     0
102
RTVSPost2010PropOp33
 70
     1
102
RTVSPost2010Prop34
280
     0
102
RTVSPost2010PropOp34
 70
     1
102
RTVSPost2010Prop35
280
     0
102
RTVSPost2010PropOp35
 70
     1
102
RTVSPost2010Prop36
280
     0
102
RTVSPost2010PropOp36
 70
     1
102
RTVSPost2010Prop37
 90
       50
102
RTVSPost2010PropOp37
 70
     0
102
RTVSPost2010Prop38
140
0.0
102
RTVSPost2010PropOp38
 70
     0
102
RTVSPost2010Prop39
140
1.0
102
RTVSPost2010PropOp39
 70
     0
102
RTVSPost2010Prop40
 90
        0
102
RTVSPost2010PropOp40
 70
     0
102
RTVSPost2010Prop41ColorIndex
 90
       18
102
RTVSPost2010Prop41ColorRGB
 90
        0
102
RTVSPost2010PropOp41
 70
     0
102
RTVSPost2010Prop42
 90
       50
102
RTVSPost2010PropOp42
 70
     0
102
RTVSPost2010Prop43
 90
        3
102
RTVSPost2010PropOp43
 70
     0
102
RTVSPost2010Prop44ColorIndex
 90
        5
102
RTVSPost2010Prop44ColorRGB
 90
      255
102
RTVSPost2010PropOp44
 70
     0
102
RTVSPost2010Prop45
280
     0
102
RTVSPost2010PropOp45
 70
     1
102
RTVSPost2010Prop46
 90
       50
102
RTVSPost2010PropOp46
 70
     0
102
RTVSPost2010Prop47
 90
       50
102
RTVSPost2010PropOp47
 70
     0
102
RTVSPost2010Prop48
 90
       50
102
RTVSPost2010PropOp48
 70
     0
102
RTVSPost2010Prop49
280
     0
102
RTVSPost2010PropOp49
 70
     1
102
RTVSPost2010Prop50
 90
       50
102
RTVSPost2010PropOp50
 70
     0
102
RTVSPost2010Prop51ColorIndex
 90
      256
102
RTVSPost2010Prop51ColorRGB
 90
-16777216
102
RTVSPost2010PropOp51
 70
     0
102
RTVSPost2010Prop52
140
1.0
102
RTVSPost2010PropOp52
 70
     0
102
RTVSPost2010Prop53
 90
        2
102
RTVSPost2010PropOp53
 70
     0
102
RTVSPost2010Prop54
  1
strokes_ogs.tif
102
RTVSPost2010PropOp54
 70
     0
102
RTVSPost2010Prop55
280
     0
102
RTVSPost2010PropOp55
 70
     1
102
RTVSPost2010Prop56
140
1.0
102
RTVSPost2010PropOp56
 70
     0
102
RTVSPost2010Prop57
140
1.0
102
RTVSPost2010PropOp57
 70
     0
102
RTVSPropertyOp0
 70
     0
102
RTVSPropertyOp1
 70
     0
102
RTVSPropertyOp2
 70
     0
102
RTVSPropertyOp3
 70
     0
102
RTVSPropertyOp4
 70
     0
102
RTVSPropertyOp5
 70
     0
102
RTVSPropertyOp6
 70
     0
102
RTVSPropertyOp7
 70
     0
102
RTVSPropertyOp8
 70
     0
102
RTVSPropertyOp9
 70
     0
102
RTVSPropertyOp10
 70
     0
102
RTVSPropertyOp11
 70
     0
102
RTVSPropertyOp12
 70
     0
102
RTVSPropertyOp13
 70
     0
102
RTVSPropertyOp14
 70
     2
102
RTVSPropertyOp15
 70
     0
102
RTVSPropertyOp16
 70
     0
102
RTVSPropertyOp17
 70
     0
102
RTVSPropertyOp18
 70
     0
102
RTVSPropertyOp19
 70
     0
102
RTVSPropertyOp20
 70
     0
102
RTVSPropertyOp21
 70
     0
102
RTVSPropertyOp22
 70
     0
102
RTVSPropertyOp23
 70
     0
102
RTVSPropertyOp24
 70
     0
102
RTVSPropertyOp25
 70
     0
102
RTVSPropertyOp26
 70
     0
102
RTVSPropertyOp27
 70
     0
102
RTVSPropertyOp28
 70
     1
102
RTVSPropertyOp29
 70
     1
102
RTVSPropertyOp30
 70
     1
102
RTVSPropertyOp31
 70
     1
102
RTVSPropertyOp32
 70
     1
102
RTVSPropertyOp33
 70
     1
102
RTVSPropertyOp34
 70
     1
102
RTVSPropertyOp35
 70
     1
102
RTVSPropertyOp36
 70
     1
102
RTVSPropertyOp37
 70
     0
102
RTVSPropertyOp38
 70
     0
102
RTVSPropertyOp39
 70
     0
102
RTVSPropertyOp40
 70
     0
102
RTVSPropertyOp41
 70
     0
102
RTVSPropertyOp42
 70
     0
102
RTVSPropertyOp43
 70
     0
102
RTVSPropertyOp44
 70
     0
102
RTVSPropertyOp45
 70
     1
102
RTVSPropertyOp46
 70
     0
102
RTVSPropertyOp47
 70
     0
102
RTVSPropertyOp48
 70
     0
102
RTVSPropertyOp49
 70
     1
102
RTVSPropertyOp50
 70
     0
102
RTVSPropertyOp51
 70
     0
102
RTVSPropertyOp52
 70
     0
102
RTVSPropertyOp53
 70
     0
102
RTVSPropertyOp54
 70
     0
102
RTVSPropertyOp55
 70
     1
102
RTVSPropertyOp56
 70
     0
102
RTVSPropertyOp57
 70
     0
102
RTVSPropertyOp58
 70
     0
102
RTVSPropertyOp59
 70
     0
102
RTVSPropertyOp60
 70
     0
102
RTVSPropertyOp61
 70
     0
102
RTVSPropertyOp62
 70
     0
  0
XRECORD
  5
B845
102
{ACAD_REACTORS
330
B844
102
}
330
B844
100
AcDbXrecord
280
     1
102
RTVSPost2010Prop28
280
     0
102
RTVSPost2010PropOp28
 70
     1
102
RTVSPost2010Prop29
280
     1
102
RTVSPost2010PropOp29
 70
     1
102
RTVSPost2010Prop30
280
     1
102
RTVSPost2010PropOp30
 70
     1
102
RTVSPost2010Prop31
280
     0
102
RTVSPost2010PropOp31
 70
     1
102
RTVSPost2010Prop32
280
     0
102
RTVSPost2010PropOp32
 70
     1
102
RTVSPost2010Prop33
280
     0
102
RTVSPost2010PropOp33
 70
     1
102
RTVSPost2010Prop34
280
     0
102
RTVSPost2010PropOp34
 70
     1
102
RTVSPost2010Prop35
280
     0
102
RTVSPost2010PropOp35
 70
     1
102
RTVSPost2010Prop36
280
     0
102
RTVSPost2010PropOp36
 70
     1
102
RTVSPost2010Prop37
 90
       50
102
RTVSPost2010PropOp37
 70
     1
102
RTVSPost2010Prop38
140
0.0
102
RTVSPost2010PropOp38
 70
     1
102
RTVSPost2010Prop39
140
1.0
102
RTVSPost2010PropOp39
 70
     1
102
RTVSPost2010Prop40
 90
        0
102
RTVSPost2010PropOp40
 70
     1
102
RTVSPost2010Prop41ColorIndex
 90
       18
102
RTVSPost2010Prop41ColorRGB
 90
        0
102
RTVSPost2010PropOp41
 70
     1
102
RTVSPost2010Prop42
 90
       50
102
RTVSPost2010PropOp42
 70
     1
102
RTVSPost2010Prop43
 90
        3
102
RTVSPost2010PropOp43
 70
     1
102
RTVSPost2010Prop44ColorIndex
 90
        5
102
RTVSPost2010Prop44ColorRGB
 90
      255
102
RTVSPost2010PropOp44
 70
     1
102
RTVSPost2010Prop45
280
     0
102
RTVSPost2010PropOp45
 70
     1
102
RTVSPost2010Prop46
 90
       50
102
RTVSPost2010PropOp46
 70
     1
102
RTVSPost2010Prop47
 90
       50
102
RTVSPost2010PropOp47
 70
     1
102
RTVSPost2010Prop48
 90
       50
102
RTVSPost2010PropOp48
 70
     1
102
RTVSPost2010Prop49
280
     0
102
RTVSPost2010PropOp49
 70
     1
102
RTVSPost2010Prop50
 90
       50
102
RTVSPost2010PropOp50
 70
     1
102
RTVSPost2010Prop51ColorIndex
 90
      256
102
RTVSPost2010Prop51ColorRGB
 90
-16777216
102
RTVSPost2010PropOp51
 70
     0
102
RTVSPost2010Prop52
140
1.0
102
RTVSPost2010PropOp52
 70
     0
102
RTVSPost2010Prop53
 90
        2
102
RTVSPost2010PropOp53
 70
     1
102
RTVSPost2010Prop54
  1
strokes_ogs.tif
102
RTVSPost2010PropOp54
 70
     1
102
RTVSPost2010Prop55
280
     0
102
RTVSPost2010PropOp55
 70
     1
102
RTVSPost2010Prop56
140
1.0
102
RTVSPost2010PropOp56
 70
     1
102
RTVSPost2010Prop57
140
1.0
102
RTVSPost2010PropOp57
 70
     1
102
RTVSPropertyOp0
 70
     1
102
RTVSPropertyOp1
 70
     1
102
RTVSPropertyOp2
 70
     1
102
RTVSPropertyOp3
 70
     1
102
RTVSPropertyOp4
 70
     1
102
RTVSPropertyOp5
 70
     1
102
RTVSPropertyOp6
 70
     1
102
RTVSPropertyOp7
 70
     1
102
RTVSPropertyOp8
 70
     1
102
RTVSPropertyOp9
 70
     1
102
RTVSPropertyOp10
 70
     1
102
RTVSPropertyOp11
 70
     1
102
RTVSPropertyOp12
 70
     1
102
RTVSPropertyOp13
 70
     1
102
RTVSPropertyOp14
 70
     1
102
RTVSPropertyOp15
 70
     1
102
RTVSPropertyOp16
 70
     1
102
RTVSPropertyOp17
 70
     1
102
RTVSPropertyOp18
 70
     1
102
RTVSPropertyOp19
 70
     1
102
RTVSPropertyOp20
 70
     1
102
RTVSPropertyOp21
 70
     1
102
RTVSPropertyOp22
 70
     1
102
RTVSPropertyOp23
 70
     1
102
RTVSPropertyOp24
 70
     1
102
RTVSPropertyOp25
 70
     1
102
RTVSPropertyOp26
 70
     1
102
RTVSPropertyOp27
 70
     1
102
RTVSPropertyOp28
 70
     1
102
RTVSPropertyOp29
 70
     1
102
RTVSPropertyOp30
 70
     1
102
RTVSPropertyOp31
 70
     1
102
RTVSPropertyOp32
 70
     1
102
RTVSPropertyOp33
 70
     1
102
RTVSPropertyOp34
 70
     1
102
RTVSPropertyOp35
 70
     1
102
RTVSPropertyOp36
 70
     1
102
RTVSPropertyOp37
 70
     1
102
RTVSPropertyOp38
 70
     1
102
RTVSPropertyOp39
 70
     1
102
RTVSPropertyOp40
 70
     1
102
RTVSPropertyOp41
 70
     1
102
RTVSPropertyOp42
 70
     1
102
RTVSPropertyOp43
 70
     1
102
RTVSPropertyOp44
 70
     1
102
RTVSPropertyOp45
 70
     1
102
RTVSPropertyOp46
 70
     1
102
RTVSPropertyOp47
 70
     1
102
RTVSPropertyOp48
 70
     1
102
RTVSPropertyOp49
 70
     1
102
RTVSPropertyOp50
 70
     1
102
RTVSPropertyOp51
 70
     0
102
RTVSPropertyOp52
 70
     0
102
RTVSPropertyOp53
 70
     1
102
RTVSPropertyOp54
 70
     1
102
RTVSPropertyOp55
 70
     1
102
RTVSPropertyOp56
 70
     1
102
RTVSPropertyOp57
 70
     1
102
RTVSPropertyOp58
 70
     1
102
RTVSPropertyOp59
 70
     1
102
RTVSPropertyOp60
 70
     1
102
RTVSPropertyOp61
 70
     1
102
RTVSPropertyOp62
 70
     1
  0
XRECORD
  5
B85B
102
{ACAD_REACTORS
330
B85A
102
}
330
B85A
100
AcDbXrecord
280
     1
102
RTVSPost2010Prop28
280
     0
102
RTVSPost2010PropOp28
 70
     1
102
RTVSPost2010Prop29
280
     1
102
RTVSPost2010PropOp29
 70
     1
102
RTVSPost2010Prop30
280
     1
102
RTVSPost2010PropOp30
 70
     1
102
RTVSPost2010Prop31
280
     0
102
RTVSPost2010PropOp31
 70
     1
102
RTVSPost2010Prop32
280
     0
102
RTVSPost2010PropOp32
 70
     1
102
RTVSPost2010Prop33
280
     0
102
RTVSPost2010PropOp33
 70
     1
102
RTVSPost2010Prop34
280
     0
102
RTVSPost2010PropOp34
 70
     1
102
RTVSPost2010Prop35
280
     0
102
RTVSPost2010PropOp35
 70
     1
102
RTVSPost2010Prop36
280
     0
102
RTVSPost2010PropOp36
 70
     1
102
RTVSPost2010Prop37
 90
       50
102
RTVSPost2010PropOp37
 70
     1
102
RTVSPost2010Prop38
140
0.0
102
RTVSPost2010PropOp38
 70
     1
102
RTVSPost2010Prop39
140
1.0
102
RTVSPost2010PropOp39
 70
     1
102
RTVSPost2010Prop40
 90
        0
102
RTVSPost2010PropOp40
 70
     1
102
RTVSPost2010Prop41ColorIndex
 90
       18
102
RTVSPost2010Prop41ColorRGB
 90
        0
102
RTVSPost2010PropOp41
 70
     1
102
RTVSPost2010Prop42
 90
       50
102
RTVSPost2010PropOp42
 70
     1
102
RTVSPost2010Prop43
 90
        3
102
RTVSPost2010PropOp43
 70
     1
102
RTVSPost2010Prop44ColorIndex
 90
        5
102
RTVSPost2010Prop44ColorRGB
 90
      255
102
RTVSPost2010PropOp44
 70
     1
102
RTVSPost2010Prop45
280
     0
102
RTVSPost2010PropOp45
 70
     1
102
RTVSPost2010Prop46
 90
       50
102
RTVSPost2010PropOp46
 70
     1
102
RTVSPost2010Prop47
 90
       50
102
RTVSPost2010PropOp47
 70
     1
102
RTVSPost2010Prop48
 90
       50
102
RTVSPost2010PropOp48
 70
     1
102
RTVSPost2010Prop49
280
     0
102
RTVSPost2010PropOp49
 70
     1
102
RTVSPost2010Prop50
 90
       50
102
RTVSPost2010PropOp50
 70
     1
102
RTVSPost2010Prop51ColorIndex
 90
      256
102
RTVSPost2010Prop51ColorRGB
 90
-16777216
102
RTVSPost2010PropOp51
 70
     0
102
RTVSPost2010Prop52
140
1.0
102
RTVSPost2010PropOp52
 70
     0
102
RTVSPost2010Prop53
 90
        2
102
RTVSPost2010PropOp53
 70
     1
102
RTVSPost2010Prop54
  1
strokes_ogs.tif
102
RTVSPost2010PropOp54
 70
     1
102
RTVSPost2010Prop55
280
     0
102
RTVSPost2010PropOp55
 70
     1
102
RTVSPost2010Prop56
140
1.0
102
RTVSPost2010PropOp56
 70
     1
102
RTVSPost2010Prop57
140
1.0
102
RTVSPost2010PropOp57
 70
     1
102
RTVSPropertyOp0
 70
     1
102
RTVSPropertyOp1
 70
     1
102
RTVSPropertyOp2
 70
     1
102
RTVSPropertyOp3
 70
     1
102
RTVSPropertyOp4
 70
     1
102
RTVSPropertyOp5
 70
     1
102
RTVSPropertyOp6
 70
     1
102
RTVSPropertyOp7
 70
     1
102
RTVSPropertyOp8
 70
     1
102
RTVSPropertyOp9
 70
     1
102
RTVSPropertyOp10
 70
     1
102
RTVSPropertyOp11
 70
     1
102
RTVSPropertyOp12
 70
     1
102
RTVSPropertyOp13
 70
     1
102
RTVSPropertyOp14
 70
     1
102
RTVSPropertyOp15
 70
     1
102
RTVSPropertyOp16
 70
     1
102
RTVSPropertyOp17
 70
     1
102
RTVSPropertyOp18
 70
     1
102
RTVSPropertyOp19
 70
     1
102
RTVSPropertyOp20
 70
     1
102
RTVSPropertyOp21
 70
     1
102
RTVSPropertyOp22
 70
     1
102
RTVSPropertyOp23
 70
     1
102
RTVSPropertyOp24
 70
     1
102
RTVSPropertyOp25
 70
     1
102
RTVSPropertyOp26
 70
     1
102
RTVSPropertyOp27
 70
     1
102
RTVSPropertyOp28
 70
     1
102
RTVSPropertyOp29
 70
     1
102
RTVSPropertyOp30
 70
     1
102
RTVSPropertyOp31
 70
     1
102
RTVSPropertyOp32
 70
     1
102
RTVSPropertyOp33
 70
     1
102
RTVSPropertyOp34
 70
     1
102
RTVSPropertyOp35
 70
     1
102
RTVSPropertyOp36
 70
     1
102
RTVSPropertyOp37
 70
     1
102
RTVSPropertyOp38
 70
     1
102
RTVSPropertyOp39
 70
     1
102
RTVSPropertyOp40
 70
     1
102
RTVSPropertyOp41
 70
     1
102
RTVSPropertyOp42
 70
     1
102
RTVSPropertyOp43
 70
     1
102
RTVSPropertyOp44
 70
     1
102
RTVSPropertyOp45
 70
     1
102
RTVSPropertyOp46
 70
     1
102
RTVSPropertyOp47
 70
     1
102
RTVSPropertyOp48
 70
     1
102
RTVSPropertyOp49
 70
     1
102
RTVSPropertyOp50
 70
     1
102
RTVSPropertyOp51
 70
     0
102
RTVSPropertyOp52
 70
     0
102
RTVSPropertyOp53
 70
     1
102
RTVSPropertyOp54
 70
     1
102
RTVSPropertyOp55
 70
     1
102
RTVSPropertyOp56
 70
     1
102
RTVSPropertyOp57
 70
     1
102
RTVSPropertyOp58
 70
     1
102
RTVSPropertyOp59
 70
     1
102
RTVSPropertyOp60
 70
     1
102
RTVSPropertyOp61
 70
     1
102
RTVSPropertyOp62
 70
     1
  0
XRECORD
  5
B859
102
{ACAD_REACTORS
330
B858
102
}
330
B858
100
AcDbXrecord
280
     1
102
RTVSPost2010Prop28
280
     0
102
RTVSPost2010PropOp28
 70
     1
102
RTVSPost2010Prop29
280
     1
102
RTVSPost2010PropOp29
 70
     1
102
RTVSPost2010Prop30
280
     1
102
RTVSPost2010PropOp30
 70
     1
102
RTVSPost2010Prop31
280
     0
102
RTVSPost2010PropOp31
 70
     1
102
RTVSPost2010Prop32
280
     0
102
RTVSPost2010PropOp32
 70
     1
102
RTVSPost2010Prop33
280
     0
102
RTVSPost2010PropOp33
 70
     1
102
RTVSPost2010Prop34
280
     0
102
RTVSPost2010PropOp34
 70
     1
102
RTVSPost2010Prop35
280
     0
102
RTVSPost2010PropOp35
 70
     1
102
RTVSPost2010Prop36
280
     0
102
RTVSPost2010PropOp36
 70
     1
102
RTVSPost2010Prop37
 90
       50
102
RTVSPost2010PropOp37
 70
     1
102
RTVSPost2010Prop38
140
0.0
102
RTVSPost2010PropOp38
 70
     1
102
RTVSPost2010Prop39
140
1.0
102
RTVSPost2010PropOp39
 70
     1
102
RTVSPost2010Prop40
 90
        0
102
RTVSPost2010PropOp40
 70
     1
102
RTVSPost2010Prop41ColorIndex
 90
       18
102
RTVSPost2010Prop41ColorRGB
 90
        0
102
RTVSPost2010PropOp41
 70
     1
102
RTVSPost2010Prop42
 90
       50
102
RTVSPost2010PropOp42
 70
     1
102
RTVSPost2010Prop43
 90
        3
102
RTVSPost2010PropOp43
 70
     1
102
RTVSPost2010Prop44ColorIndex
 90
        5
102
RTVSPost2010Prop44ColorRGB
 90
      255
102
RTVSPost2010PropOp44
 70
     1
102
RTVSPost2010Prop45
280
     0
102
RTVSPost2010PropOp45
 70
     1
102
RTVSPost2010Prop46
 90
       50
102
RTVSPost2010PropOp46
 70
     1
102
RTVSPost2010Prop47
 90
       50
102
RTVSPost2010PropOp47
 70
     1
102
RTVSPost2010Prop48
 90
       50
102
RTVSPost2010PropOp48
 70
     1
102
RTVSPost2010Prop49
280
     0
102
RTVSPost2010PropOp49
 70
     1
102
RTVSPost2010Prop50
 90
       50
102
RTVSPost2010PropOp50
 70
     1
102
RTVSPost2010Prop51ColorIndex
 90
      256
102
RTVSPost2010Prop51ColorRGB
 90
-16777216
102
RTVSPost2010PropOp51
 70
     0
102
RTVSPost2010Prop52
140
1.0
102
RTVSPost2010PropOp52
 70
     0
102
RTVSPost2010Prop53
 90
        2
102
RTVSPost2010PropOp53
 70
     1
102
RTVSPost2010Prop54
  1
strokes_ogs.tif
102
RTVSPost2010PropOp54
 70
     1
102
RTVSPost2010Prop55
280
     0
102
RTVSPost2010PropOp55
 70
     1
102
RTVSPost2010Prop56
140
1.0
102
RTVSPost2010PropOp56
 70
     1
102
RTVSPost2010Prop57
140
1.0
102
RTVSPost2010PropOp57
 70
     1
102
RTVSPropertyOp0
 70
     1
102
RTVSPropertyOp1
 70
     1
102
RTVSPropertyOp2
 70
     1
102
RTVSPropertyOp3
 70
     1
102
RTVSPropertyOp4
 70
     1
102
RTVSPropertyOp5
 70
     1
102
RTVSPropertyOp6
 70
     1
102
RTVSPropertyOp7
 70
     1
102
RTVSPropertyOp8
 70
     1
102
RTVSPropertyOp9
 70
     1
102
RTVSPropertyOp10
 70
     1
102
RTVSPropertyOp11
 70
     1
102
RTVSPropertyOp12
 70
     1
102
RTVSPropertyOp13
 70
     1
102
RTVSPropertyOp14
 70
     1
102
RTVSPropertyOp15
 70
     1
102
RTVSPropertyOp16
 70
     1
102
RTVSPropertyOp17
 70
     1
102
RTVSPropertyOp18
 70
     1
102
RTVSPropertyOp19
 70
     1
102
RTVSPropertyOp20
 70
     1
102
RTVSPropertyOp21
 70
     1
102
RTVSPropertyOp22
 70
     1
102
RTVSPropertyOp23
 70
     1
102
RTVSPropertyOp24
 70
     1
102
RTVSPropertyOp25
 70
     1
102
RTVSPropertyOp26
 70
     1
102
RTVSPropertyOp27
 70
     1
102
RTVSPropertyOp28
 70
     1
102
RTVSPropertyOp29
 70
     1
102
RTVSPropertyOp30
 70
     1
102
RTVSPropertyOp31
 70
     1
102
RTVSPropertyOp32
 70
     1
102
RTVSPropertyOp33
 70
     1
102
RTVSPropertyOp34
 70
     1
102
RTVSPropertyOp35
 70
     1
102
RTVSPropertyOp36
 70
     1
102
RTVSPropertyOp37
 70
     1
102
RTVSPropertyOp38
 70
     1
102
RTVSPropertyOp39
 70
     1
102
RTVSPropertyOp40
 70
     1
102
RTVSPropertyOp41
 70
     1
102
RTVSPropertyOp42
 70
     1
102
RTVSPropertyOp43
 70
     1
102
RTVSPropertyOp44
 70
     1
102
RTVSPropertyOp45
 70
     1
102
RTVSPropertyOp46
 70
     1
102
RTVSPropertyOp47
 70
     1
102
RTVSPropertyOp48
 70
     1
102
RTVSPropertyOp49
 70
     1
102
RTVSPropertyOp50
 70
     1
102
RTVSPropertyOp51
 70
     0
102
RTVSPropertyOp52
 70
     0
102
RTVSPropertyOp53
 70
     1
102
RTVSPropertyOp54
 70
     1
102
RTVSPropertyOp55
 70
     1
102
RTVSPropertyOp56
 70
     1
102
RTVSPropertyOp57
 70
     1
102
RTVSPropertyOp58
 70
     1
102
RTVSPropertyOp59
 70
     1
102
RTVSPropertyOp60
 70
     1
102
RTVSPropertyOp61
 70
     1
102
RTVSPropertyOp62
 70
     1
  0
XRECORD
  5
B853
102
{ACAD_REACTORS
330
B852
102
}
330
B852
100
AcDbXrecord
280
     1
102
RTVSPost2010Prop28
280
     0
102
RTVSPost2010PropOp28
 70
     1
102
RTVSPost2010Prop29
280
     1
102
RTVSPost2010PropOp29
 70
     1
102
RTVSPost2010Prop30
280
     1
102
RTVSPost2010PropOp30
 70
     1
102
RTVSPost2010Prop31
280
     0
102
RTVSPost2010PropOp31
 70
     1
102
RTVSPost2010Prop32
280
     0
102
RTVSPost2010PropOp32
 70
     1
102
RTVSPost2010Prop33
280
     0
102
RTVSPost2010PropOp33
 70
     1
102
RTVSPost2010Prop34
280
     0
102
RTVSPost2010PropOp34
 70
     1
102
RTVSPost2010Prop35
280
     0
102
RTVSPost2010PropOp35
 70
     1
102
RTVSPost2010Prop36
280
     0
102
RTVSPost2010PropOp36
 70
     1
102
RTVSPost2010Prop37
 90
       50
102
RTVSPost2010PropOp37
 70
     1
102
RTVSPost2010Prop38
140
0.0
102
RTVSPost2010PropOp38
 70
     1
102
RTVSPost2010Prop39
140
1.0
102
RTVSPost2010PropOp39
 70
     1
102
RTVSPost2010Prop40
 90
        0
102
RTVSPost2010PropOp40
 70
     1
102
RTVSPost2010Prop41ColorIndex
 90
       18
102
RTVSPost2010Prop41ColorRGB
 90
        0
102
RTVSPost2010PropOp41
 70
     1
102
RTVSPost2010Prop42
 90
       50
102
RTVSPost2010PropOp42
 70
     1
102
RTVSPost2010Prop43
 90
        3
102
RTVSPost2010PropOp43
 70
     1
102
RTVSPost2010Prop44ColorIndex
 90
        5
102
RTVSPost2010Prop44ColorRGB
 90
      255
102
RTVSPost2010PropOp44
 70
     1
102
RTVSPost2010Prop45
280
     0
102
RTVSPost2010PropOp45
 70
     1
102
RTVSPost2010Prop46
 90
       50
102
RTVSPost2010PropOp46
 70
     1
102
RTVSPost2010Prop47
 90
       50
102
RTVSPost2010PropOp47
 70
     1
102
RTVSPost2010Prop48
 90
       50
102
RTVSPost2010PropOp48
 70
     1
102
RTVSPost2010Prop49
280
     0
102
RTVSPost2010PropOp49
 70
     1
102
RTVSPost2010Prop50
 90
       50
102
RTVSPost2010PropOp50
 70
     1
102
RTVSPost2010Prop51ColorIndex
 90
      256
102
RTVSPost2010Prop51ColorRGB
 90
-16777216
102
RTVSPost2010PropOp51
 70
     0
102
RTVSPost2010Prop52
140
1.0
102
RTVSPost2010PropOp52
 70
     0
102
RTVSPost2010Prop53
 90
        2
102
RTVSPost2010PropOp53
 70
     1
102
RTVSPost2010Prop54
  1
strokes_ogs.tif
102
RTVSPost2010PropOp54
 70
     1
102
RTVSPost2010Prop55
280
     0
102
RTVSPost2010PropOp55
 70
     1
102
RTVSPost2010Prop56
140
1.0
102
RTVSPost2010PropOp56
 70
     1
102
RTVSPost2010Prop57
140
1.0
102
RTVSPost2010PropOp57
 70
     1
102
RTVSPropertyOp0
 70
     1
102
RTVSPropertyOp1
 70
     1
102
RTVSPropertyOp2
 70
     1
102
RTVSPropertyOp3
 70
     1
102
RTVSPropertyOp4
 70
     1
102
RTVSPropertyOp5
 70
     1
102
RTVSPropertyOp6
 70
     1
102
RTVSPropertyOp7
 70
     1
102
RTVSPropertyOp8
 70
     1
102
RTVSPropertyOp9
 70
     1
102
RTVSPropertyOp10
 70
     1
102
RTVSPropertyOp11
 70
     1
102
RTVSPropertyOp12
 70
     1
102
RTVSPropertyOp13
 70
     1
102
RTVSPropertyOp14
 70
     1
102
RTVSPropertyOp15
 70
     1
102
RTVSPropertyOp16
 70
     1
102
RTVSPropertyOp17
 70
     1
102
RTVSPropertyOp18
 70
     1
102
RTVSPropertyOp19
 70
     1
102
RTVSPropertyOp20
 70
     1
102
RTVSPropertyOp21
 70
     1
102
RTVSPropertyOp22
 70
     1
102
RTVSPropertyOp23
 70
     1
102
RTVSPropertyOp24
 70
     1
102
RTVSPropertyOp25
 70
     1
102
RTVSPropertyOp26
 70
     1
102
RTVSPropertyOp27
 70
     1
102
RTVSPropertyOp28
 70
     1
102
RTVSPropertyOp29
 70
     1
102
RTVSPropertyOp30
 70
     1
102
RTVSPropertyOp31
 70
     1
102
RTVSPropertyOp32
 70
     1
102
RTVSPropertyOp33
 70
     1
102
RTVSPropertyOp34
 70
     1
102
RTVSPropertyOp35
 70
     1
102
RTVSPropertyOp36
 70
     1
102
RTVSPropertyOp37
 70
     1
102
RTVSPropertyOp38
 70
     1
102
RTVSPropertyOp39
 70
     1
102
RTVSPropertyOp40
 70
     1
102
RTVSPropertyOp41
 70
     1
102
RTVSPropertyOp42
 70
     1
102
RTVSPropertyOp43
 70
     1
102
RTVSPropertyOp44
 70
     1
102
RTVSPropertyOp45
 70
     1
102
RTVSPropertyOp46
 70
     1
102
RTVSPropertyOp47
 70
     1
102
RTVSPropertyOp48
 70
     1
102
RTVSPropertyOp49
 70
     1
102
RTVSPropertyOp50
 70
     1
102
RTVSPropertyOp51
 70
     0
102
RTVSPropertyOp52
 70
     0
102
RTVSPropertyOp53
 70
     1
102
RTVSPropertyOp54
 70
     1
102
RTVSPropertyOp55
 70
     1
102
RTVSPropertyOp56
 70
     1
102
RTVSPropertyOp57
 70
     1
102
RTVSPropertyOp58
 70
     1
102
RTVSPropertyOp59
 70
     1
102
RTVSPropertyOp60
 70
     1
102
RTVSPropertyOp61
 70
     1
102
RTVSPropertyOp62
 70
     1
  0
XRECORD
  5
B855
102
{ACAD_REACTORS
330
B854
102
}
330
B854
100
AcDbXrecord
280
     1
102
RTVSPost2010Prop28
280
     0
102
RTVSPost2010PropOp28
 70
     1
102
RTVSPost2010Prop29
280
     1
102
RTVSPost2010PropOp29
 70
     1
102
RTVSPost2010Prop30
280
     1
102
RTVSPost2010PropOp30
 70
     1
102
RTVSPost2010Prop31
280
     0
102
RTVSPost2010PropOp31
 70
     1
102
RTVSPost2010Prop32
280
     0
102
RTVSPost2010PropOp32
 70
     1
102
RTVSPost2010Prop33
280
     0
102
RTVSPost2010PropOp33
 70
     1
102
RTVSPost2010Prop34
280
     0
102
RTVSPost2010PropOp34
 70
     1
102
RTVSPost2010Prop35
280
     0
102
RTVSPost2010PropOp35
 70
     1
102
RTVSPost2010Prop36
280
     0
102
RTVSPost2010PropOp36
 70
     1
102
RTVSPost2010Prop37
 90
       50
102
RTVSPost2010PropOp37
 70
     1
102
RTVSPost2010Prop38
140
0.0
102
RTVSPost2010PropOp38
 70
     1
102
RTVSPost2010Prop39
140
1.0
102
RTVSPost2010PropOp39
 70
     1
102
RTVSPost2010Prop40
 90
        0
102
RTVSPost2010PropOp40
 70
     1
102
RTVSPost2010Prop41ColorIndex
 90
       18
102
RTVSPost2010Prop41ColorRGB
 90
        0
102
RTVSPost2010PropOp41
 70
     1
102
RTVSPost2010Prop42
 90
       50
102
RTVSPost2010PropOp42
 70
     1
102
RTVSPost2010Prop43
 90
        3
102
RTVSPost2010PropOp43
 70
     1
102
RTVSPost2010Prop44ColorIndex
 90
        5
102
RTVSPost2010Prop44ColorRGB
 90
      255
102
RTVSPost2010PropOp44
 70
     1
102
RTVSPost2010Prop45
280
     0
102
RTVSPost2010PropOp45
 70
     1
102
RTVSPost2010Prop46
 90
       50
102
RTVSPost2010PropOp46
 70
     1
102
RTVSPost2010Prop47
 90
       50
102
RTVSPost2010PropOp47
 70
     1
102
RTVSPost2010Prop48
 90
       50
102
RTVSPost2010PropOp48
 70
     1
102
RTVSPost2010Prop49
280
     0
102
RTVSPost2010PropOp49
 70
     1
102
RTVSPost2010Prop50
 90
       50
102
RTVSPost2010PropOp50
 70
     1
102
RTVSPost2010Prop51ColorIndex
 90
      256
102
RTVSPost2010Prop51ColorRGB
 90
-16777216
102
RTVSPost2010PropOp51
 70
     0
102
RTVSPost2010Prop52
140
1.0
102
RTVSPost2010PropOp52
 70
     0
102
RTVSPost2010Prop53
 90
        2
102
RTVSPost2010PropOp53
 70
     1
102
RTVSPost2010Prop54
  1
strokes_ogs.tif
102
RTVSPost2010PropOp54
 70
     1
102
RTVSPost2010Prop55
280
     0
102
RTVSPost2010PropOp55
 70
     1
102
RTVSPost2010Prop56
140
1.0
102
RTVSPost2010PropOp56
 70
     1
102
RTVSPost2010Prop57
140
1.0
102
RTVSPost2010PropOp57
 70
     1
102
RTVSPropertyOp0
 70
     1
102
RTVSPropertyOp1
 70
     1
102
RTVSPropertyOp2
 70
     1
102
RTVSPropertyOp3
 70
     1
102
RTVSPropertyOp4
 70
     1
102
RTVSPropertyOp5
 70
     1
102
RTVSPropertyOp6
 70
     1
102
RTVSPropertyOp7
 70
     1
102
RTVSPropertyOp8
 70
     1
102
RTVSPropertyOp9
 70
     1
102
RTVSPropertyOp10
 70
     1
102
RTVSPropertyOp11
 70
     1
102
RTVSPropertyOp12
 70
     1
102
RTVSPropertyOp13
 70
     1
102
RTVSPropertyOp14
 70
     1
102
RTVSPropertyOp15
 70
     1
102
RTVSPropertyOp16
 70
     1
102
RTVSPropertyOp17
 70
     1
102
RTVSPropertyOp18
 70
     1
102
RTVSPropertyOp19
 70
     1
102
RTVSPropertyOp20
 70
     1
102
RTVSPropertyOp21
 70
     1
102
RTVSPropertyOp22
 70
     1
102
RTVSPropertyOp23
 70
     1
102
RTVSPropertyOp24
 70
     1
102
RTVSPropertyOp25
 70
     1
102
RTVSPropertyOp26
 70
     1
102
RTVSPropertyOp27
 70
     1
102
RTVSPropertyOp28
 70
     1
102
RTVSPropertyOp29
 70
     1
102
RTVSPropertyOp30
 70
     1
102
RTVSPropertyOp31
 70
     1
102
RTVSPropertyOp32
 70
     1
102
RTVSPropertyOp33
 70
     1
102
RTVSPropertyOp34
 70
     1
102
RTVSPropertyOp35
 70
     1
102
RTVSPropertyOp36
 70
     1
102
RTVSPropertyOp37
 70
     1
102
RTVSPropertyOp38
 70
     1
102
RTVSPropertyOp39
 70
     1
102
RTVSPropertyOp40
 70
     1
102
RTVSPropertyOp41
 70
     1
102
RTVSPropertyOp42
 70
     1
102
RTVSPropertyOp43
 70
     1
102
RTVSPropertyOp44
 70
     1
102
RTVSPropertyOp45
 70
     1
102
RTVSPropertyOp46
 70
     1
102
RTVSPropertyOp47
 70
     1
102
RTVSPropertyOp48
 70
     1
102
RTVSPropertyOp49
 70
     1
102
RTVSPropertyOp50
 70
     1
102
RTVSPropertyOp51
 70
     0
102
RTVSPropertyOp52
 70
     0
102
RTVSPropertyOp53
 70
     1
102
RTVSPropertyOp54
 70
     1
102
RTVSPropertyOp55
 70
     1
102
RTVSPropertyOp56
 70
     1
102
RTVSPropertyOp57
 70
     1
102
RTVSPropertyOp58
 70
     1
102
RTVSPropertyOp59
 70
     1
102
RTVSPropertyOp60
 70
     1
102
RTVSPropertyOp61
 70
     1
102
RTVSPropertyOp62
 70
     1
  0
XRECORD
  5
B84B
102
{ACAD_REACTORS
330
B84A
102
}
330
B84A
100
AcDbXrecord
280
     1
102
RTVSPost2010Prop28
280
     0
102
RTVSPost2010PropOp28
 70
     1
102
RTVSPost2010Prop29
280
     1
102
RTVSPost2010PropOp29
 70
     1
102
RTVSPost2010Prop30
280
     1
102
RTVSPost2010PropOp30
 70
     1
102
RTVSPost2010Prop31
280
     0
102
RTVSPost2010PropOp31
 70
     1
102
RTVSPost2010Prop32
280
     0
102
RTVSPost2010PropOp32
 70
     1
102
RTVSPost2010Prop33
280
     0
102
RTVSPost2010PropOp33
 70
     1
102
RTVSPost2010Prop34
280
     0
102
RTVSPost2010PropOp34
 70
     1
102
RTVSPost2010Prop35
280
     0
102
RTVSPost2010PropOp35
 70
     1
102
RTVSPost2010Prop36
280
     0
102
RTVSPost2010PropOp36
 70
     1
102
RTVSPost2010Prop37
 90
       50
102
RTVSPost2010PropOp37
 70
     1
102
RTVSPost2010Prop38
140
0.0
102
RTVSPost2010PropOp38
 70
     1
102
RTVSPost2010Prop39
140
1.0
102
RTVSPost2010PropOp39
 70
     1
102
RTVSPost2010Prop40
 90
        0
102
RTVSPost2010PropOp40
 70
     1
102
RTVSPost2010Prop41ColorIndex
 90
       18
102
RTVSPost2010Prop41ColorRGB
 90
        0
102
RTVSPost2010PropOp41
 70
     1
102
RTVSPost2010Prop42
 90
       50
102
RTVSPost2010PropOp42
 70
     1
102
RTVSPost2010Prop43
 90
        3
102
RTVSPost2010PropOp43
 70
     1
102
RTVSPost2010Prop44ColorIndex
 90
        5
102
RTVSPost2010Prop44ColorRGB
 90
      255
102
RTVSPost2010PropOp44
 70
     1
102
RTVSPost2010Prop45
280
     0
102
RTVSPost2010PropOp45
 70
     1
102
RTVSPost2010Prop46
 90
       50
102
RTVSPost2010PropOp46
 70
     1
102
RTVSPost2010Prop47
 90
       50
102
RTVSPost2010PropOp47
 70
     1
102
RTVSPost2010Prop48
 90
       50
102
RTVSPost2010PropOp48
 70
     1
102
RTVSPost2010Prop49
280
     0
102
RTVSPost2010PropOp49
 70
     1
102
RTVSPost2010Prop50
 90
       50
102
RTVSPost2010PropOp50
 70
     1
102
RTVSPost2010Prop51ColorIndex
 90
      256
102
RTVSPost2010Prop51ColorRGB
 90
-16777216
102
RTVSPost2010PropOp51
 70
     0
102
RTVSPost2010Prop52
140
1.0
102
RTVSPost2010PropOp52
 70
     0
102
RTVSPost2010Prop53
 90
        2
102
RTVSPost2010PropOp53
 70
     1
102
RTVSPost2010Prop54
  1
strokes_ogs.tif
102
RTVSPost2010PropOp54
 70
     1
102
RTVSPost2010Prop55
280
     0
102
RTVSPost2010PropOp55
 70
     1
102
RTVSPost2010Prop56
140
1.0
102
RTVSPost2010PropOp56
 70
     1
102
RTVSPost2010Prop57
140
1.0
102
RTVSPost2010PropOp57
 70
     1
102
RTVSPropertyOp0
 70
     1
102
RTVSPropertyOp1
 70
     1
102
RTVSPropertyOp2
 70
     1
102
RTVSPropertyOp3
 70
     1
102
RTVSPropertyOp4
 70
     1
102
RTVSPropertyOp5
 70
     1
102
RTVSPropertyOp6
 70
     1
102
RTVSPropertyOp7
 70
     1
102
RTVSPropertyOp8
 70
     1
102
RTVSPropertyOp9
 70
     1
102
RTVSPropertyOp10
 70
     1
102
RTVSPropertyOp11
 70
     1
102
RTVSPropertyOp12
 70
     1
102
RTVSPropertyOp13
 70
     1
102
RTVSPropertyOp14
 70
     1
102
RTVSPropertyOp15
 70
     1
102
RTVSPropertyOp16
 70
     1
102
RTVSPropertyOp17
 70
     1
102
RTVSPropertyOp18
 70
     1
102
RTVSPropertyOp19
 70
     1
102
RTVSPropertyOp20
 70
     1
102
RTVSPropertyOp21
 70
     1
102
RTVSPropertyOp22
 70
     1
102
RTVSPropertyOp23
 70
     1
102
RTVSPropertyOp24
 70
     1
102
RTVSPropertyOp25
 70
     1
102
RTVSPropertyOp26
 70
     1
102
RTVSPropertyOp27
 70
     1
102
RTVSPropertyOp28
 70
     1
102
RTVSPropertyOp29
 70
     1
102
RTVSPropertyOp30
 70
     1
102
RTVSPropertyOp31
 70
     1
102
RTVSPropertyOp32
 70
     1
102
RTVSPropertyOp33
 70
     1
102
RTVSPropertyOp34
 70
     1
102
RTVSPropertyOp35
 70
     1
102
RTVSPropertyOp36
 70
     1
102
RTVSPropertyOp37
 70
     1
102
RTVSPropertyOp38
 70
     1
102
RTVSPropertyOp39
 70
     1
102
RTVSPropertyOp40
 70
     1
102
RTVSPropertyOp41
 70
     1
102
RTVSPropertyOp42
 70
     1
102
RTVSPropertyOp43
 70
     1
102
RTVSPropertyOp44
 70
     1
102
RTVSPropertyOp45
 70
     1
102
RTVSPropertyOp46
 70
     1
102
RTVSPropertyOp47
 70
     1
102
RTVSPropertyOp48
 70
     1
102
RTVSPropertyOp49
 70
     1
102
RTVSPropertyOp50
 70
     1
102
RTVSPropertyOp51
 70
     0
102
RTVSPropertyOp52
 70
     0
102
RTVSPropertyOp53
 70
     1
102
RTVSPropertyOp54
 70
     1
102
RTVSPropertyOp55
 70
     1
102
RTVSPropertyOp56
 70
     1
102
RTVSPropertyOp57
 70
     1
102
RTVSPropertyOp58
 70
     1
102
RTVSPropertyOp59
 70
     1
102
RTVSPropertyOp60
 70
     1
102
RTVSPropertyOp61
 70
     1
102
RTVSPropertyOp62
 70
     1
  0
XRECORD
  5
B83F
102
{ACAD_REACTORS
330
B83E
102
}
330
B83E
100
AcDbXrecord
280
     1
102
RTVSPost2010Prop28
280
     0
102
RTVSPost2010PropOp28
 70
     1
102
RTVSPost2010Prop29
280
     1
102
RTVSPost2010PropOp29
 70
     1
102
RTVSPost2010Prop30
280
     1
102
RTVSPost2010PropOp30
 70
     1
102
RTVSPost2010Prop31
280
     0
102
RTVSPost2010PropOp31
 70
     1
102
RTVSPost2010Prop32
280
     0
102
RTVSPost2010PropOp32
 70
     1
102
RTVSPost2010Prop33
280
     0
102
RTVSPost2010PropOp33
 70
     1
102
RTVSPost2010Prop34
280
     0
102
RTVSPost2010PropOp34
 70
     1
102
RTVSPost2010Prop35
280
     0
102
RTVSPost2010PropOp35
 70
     1
102
RTVSPost2010Prop36
280
     0
102
RTVSPost2010PropOp36
 70
     1
102
RTVSPost2010Prop37
 90
       50
102
RTVSPost2010PropOp37
 70
     1
102
RTVSPost2010Prop38
140
0.0
102
RTVSPost2010PropOp38
 70
     1
102
RTVSPost2010Prop39
140
1.0
102
RTVSPost2010PropOp39
 70
     1
102
RTVSPost2010Prop40
 90
        0
102
RTVSPost2010PropOp40
 70
     1
102
RTVSPost2010Prop41ColorIndex
 90
       18
102
RTVSPost2010Prop41ColorRGB
 90
        0
102
RTVSPost2010PropOp41
 70
     1
102
RTVSPost2010Prop42
 90
       50
102
RTVSPost2010PropOp42
 70
     1
102
RTVSPost2010Prop43
 90
        3
102
RTVSPost2010PropOp43
 70
     1
102
RTVSPost2010Prop44ColorIndex
 90
        5
102
RTVSPost2010Prop44ColorRGB
 90
      255
102
RTVSPost2010PropOp44
 70
     1
102
RTVSPost2010Prop45
280
     0
102
RTVSPost2010PropOp45
 70
     1
102
RTVSPost2010Prop46
 90
       50
102
RTVSPost2010PropOp46
 70
     1
102
RTVSPost2010Prop47
 90
       50
102
RTVSPost2010PropOp47
 70
     1
102
RTVSPost2010Prop48
 90
       50
102
RTVSPost2010PropOp48
 70
     1
102
RTVSPost2010Prop49
280
     0
102
RTVSPost2010PropOp49
 70
     1
102
RTVSPost2010Prop50
 90
       50
102
RTVSPost2010PropOp50
 70
     1
102
RTVSPost2010Prop51ColorIndex
 90
      256
102
RTVSPost2010Prop51ColorRGB
 90
-16777216
102
RTVSPost2010PropOp51
 70
     0
102
RTVSPost2010Prop52
140
1.0
102
RTVSPost2010PropOp52
 70
     0
102
RTVSPost2010Prop53
 90
        2
102
RTVSPost2010PropOp53
 70
     1
102
RTVSPost2010Prop54
  1
strokes_ogs.tif
102
RTVSPost2010PropOp54
 70
     1
102
RTVSPost2010Prop55
280
     0
102
RTVSPost2010PropOp55
 70
     1
102
RTVSPost2010Prop56
140
1.0
102
RTVSPost2010PropOp56
 70
     1
102
RTVSPost2010Prop57
140
1.0
102
RTVSPost2010PropOp57
 70
     1
102
RTVSPropertyOp0
 70
     1
102
RTVSPropertyOp1
 70
     1
102
RTVSPropertyOp2
 70
     1
102
RTVSPropertyOp3
 70
     1
102
RTVSPropertyOp4
 70
     1
102
RTVSPropertyOp5
 70
     1
102
RTVSPropertyOp6
 70
     1
102
RTVSPropertyOp7
 70
     1
102
RTVSPropertyOp8
 70
     1
102
RTVSPropertyOp9
 70
     1
102
RTVSPropertyOp10
 70
     1
102
RTVSPropertyOp11
 70
     1
102
RTVSPropertyOp12
 70
     1
102
RTVSPropertyOp13
 70
     1
102
RTVSPropertyOp14
 70
     1
102
RTVSPropertyOp15
 70
     1
102
RTVSPropertyOp16
 70
     1
102
RTVSPropertyOp17
 70
     1
102
RTVSPropertyOp18
 70
     1
102
RTVSPropertyOp19
 70
     1
102
RTVSPropertyOp20
 70
     1
102
RTVSPropertyOp21
 70
     1
102
RTVSPropertyOp22
 70
     1
102
RTVSPropertyOp23
 70
     1
102
RTVSPropertyOp24
 70
     1
102
RTVSPropertyOp25
 70
     1
102
RTVSPropertyOp26
 70
     1
102
RTVSPropertyOp27
 70
     1
102
RTVSPropertyOp28
 70
     1
102
RTVSPropertyOp29
 70
     1
102
RTVSPropertyOp30
 70
     1
102
RTVSPropertyOp31
 70
     1
102
RTVSPropertyOp32
 70
     1
102
RTVSPropertyOp33
 70
     1
102
RTVSPropertyOp34
 70
     1
102
RTVSPropertyOp35
 70
     1
102
RTVSPropertyOp36
 70
     1
102
RTVSPropertyOp37
 70
     1
102
RTVSPropertyOp38
 70
     1
102
RTVSPropertyOp39
 70
     1
102
RTVSPropertyOp40
 70
     1
102
RTVSPropertyOp41
 70
     1
102
RTVSPropertyOp42
 70
     1
102
RTVSPropertyOp43
 70
     1
102
RTVSPropertyOp44
 70
     1
102
RTVSPropertyOp45
 70
     1
102
RTVSPropertyOp46
 70
     1
102
RTVSPropertyOp47
 70
     1
102
RTVSPropertyOp48
 70
     1
102
RTVSPropertyOp49
 70
     1
102
RTVSPropertyOp50
 70
     1
102
RTVSPropertyOp51
 70
     0
102
RTVSPropertyOp52
 70
     0
102
RTVSPropertyOp53
 70
     1
102
RTVSPropertyOp54
 70
     1
102
RTVSPropertyOp55
 70
     1
102
RTVSPropertyOp56
 70
     1
102
RTVSPropertyOp57
 70
     1
102
RTVSPropertyOp58
 70
     1
102
RTVSPropertyOp59
 70
     1
102
RTVSPropertyOp60
 70
     1
102
RTVSPropertyOp61
 70
     1
102
RTVSPropertyOp62
 70
     1
  0
XRECORD
  5
B857
102
{ACAD_REACTORS
330
B856
102
}
330
B856
100
AcDbXrecord
280
     1
102
RTVSPost2010Prop28
280
     0
102
RTVSPost2010PropOp28
 70
     1
102
RTVSPost2010Prop29
280
     1
102
RTVSPost2010PropOp29
 70
     1
102
RTVSPost2010Prop30
280
     1
102
RTVSPost2010PropOp30
 70
     1
102
RTVSPost2010Prop31
280
     0
102
RTVSPost2010PropOp31
 70
     1
102
RTVSPost2010Prop32
280
     0
102
RTVSPost2010PropOp32
 70
     1
102
RTVSPost2010Prop33
280
     0
102
RTVSPost2010PropOp33
 70
     1
102
RTVSPost2010Prop34
280
     0
102
RTVSPost2010PropOp34
 70
     1
102
RTVSPost2010Prop35
280
     0
102
RTVSPost2010PropOp35
 70
     1
102
RTVSPost2010Prop36
280
     0
102
RTVSPost2010PropOp36
 70
     1
102
RTVSPost2010Prop37
 90
       50
102
RTVSPost2010PropOp37
 70
     1
102
RTVSPost2010Prop38
140
0.0
102
RTVSPost2010PropOp38
 70
     1
102
RTVSPost2010Prop39
140
1.0
102
RTVSPost2010PropOp39
 70
     1
102
RTVSPost2010Prop40
 90
        0
102
RTVSPost2010PropOp40
 70
     1
102
RTVSPost2010Prop41ColorIndex
 90
       18
102
RTVSPost2010Prop41ColorRGB
 90
        0
102
RTVSPost2010PropOp41
 70
     1
102
RTVSPost2010Prop42
 90
       50
102
RTVSPost2010PropOp42
 70
     1
102
RTVSPost2010Prop43
 90
        3
102
RTVSPost2010PropOp43
 70
     1
102
RTVSPost2010Prop44ColorIndex
 90
        5
102
RTVSPost2010Prop44ColorRGB
 90
      255
102
RTVSPost2010PropOp44
 70
     1
102
RTVSPost2010Prop45
280
     0
102
RTVSPost2010PropOp45
 70
     1
102
RTVSPost2010Prop46
 90
       50
102
RTVSPost2010PropOp46
 70
     1
102
RTVSPost2010Prop47
 90
       50
102
RTVSPost2010PropOp47
 70
     1
102
RTVSPost2010Prop48
 90
       50
102
RTVSPost2010PropOp48
 70
     1
102
RTVSPost2010Prop49
280
     0
102
RTVSPost2010PropOp49
 70
     1
102
RTVSPost2010Prop50
 90
       50
102
RTVSPost2010PropOp50
 70
     1
102
RTVSPost2010Prop51ColorIndex
 90
      256
102
RTVSPost2010Prop51ColorRGB
 90
-16777216
102
RTVSPost2010PropOp51
 70
     0
102
RTVSPost2010Prop52
140
1.0
102
RTVSPost2010PropOp52
 70
     0
102
RTVSPost2010Prop53
 90
        2
102
RTVSPost2010PropOp53
 70
     1
102
RTVSPost2010Prop54
  1
strokes_ogs.tif
102
RTVSPost2010PropOp54
 70
     1
102
RTVSPost2010Prop55
280
     0
102
RTVSPost2010PropOp55
 70
     1
102
RTVSPost2010Prop56
140
1.0
102
RTVSPost2010PropOp56
 70
     1
102
RTVSPost2010Prop57
140
1.0
102
RTVSPost2010PropOp57
 70
     1
102
RTVSPropertyOp0
 70
     1
102
RTVSPropertyOp1
 70
     1
102
RTVSPropertyOp2
 70
     1
102
RTVSPropertyOp3
 70
     1
102
RTVSPropertyOp4
 70
     1
102
RTVSPropertyOp5
 70
     1
102
RTVSPropertyOp6
 70
     1
102
RTVSPropertyOp7
 70
     1
102
RTVSPropertyOp8
 70
     1
102
RTVSPropertyOp9
 70
     1
102
RTVSPropertyOp10
 70
     1
102
RTVSPropertyOp11
 70
     1
102
RTVSPropertyOp12
 70
     1
102
RTVSPropertyOp13
 70
     1
102
RTVSPropertyOp14
 70
     1
102
RTVSPropertyOp15
 70
     1
102
RTVSPropertyOp16
 70
     1
102
RTVSPropertyOp17
 70
     1
102
RTVSPropertyOp18
 70
     1
102
RTVSPropertyOp19
 70
     1
102
RTVSPropertyOp20
 70
     1
102
RTVSPropertyOp21
 70
     1
102
RTVSPropertyOp22
 70
     1
102
RTVSPropertyOp23
 70
     1
102
RTVSPropertyOp24
 70
     1
102
RTVSPropertyOp25
 70
     1
102
RTVSPropertyOp26
 70
     1
102
RTVSPropertyOp27
 70
     1
102
RTVSPropertyOp28
 70
     1
102
RTVSPropertyOp29
 70
     1
102
RTVSPropertyOp30
 70
     1
102
RTVSPropertyOp31
 70
     1
102
RTVSPropertyOp32
 70
     1
102
RTVSPropertyOp33
 70
     1
102
RTVSPropertyOp34
 70
     1
102
RTVSPropertyOp35
 70
     1
102
RTVSPropertyOp36
 70
     1
102
RTVSPropertyOp37
 70
     1
102
RTVSPropertyOp38
 70
     1
102
RTVSPropertyOp39
 70
     1
102
RTVSPropertyOp40
 70
     1
102
RTVSPropertyOp41
 70
     1
102
RTVSPropertyOp42
 70
     1
102
RTVSPropertyOp43
 70
     1
102
RTVSPropertyOp44
 70
     1
102
RTVSPropertyOp45
 70
     1
102
RTVSPropertyOp46
 70
     1
102
RTVSPropertyOp47
 70
     1
102
RTVSPropertyOp48
 70
     1
102
RTVSPropertyOp49
 70
     1
102
RTVSPropertyOp50
 70
     1
102
RTVSPropertyOp51
 70
     0
102
RTVSPropertyOp52
 70
     0
102
RTVSPropertyOp53
 70
     1
102
RTVSPropertyOp54
 70
     1
102
RTVSPropertyOp55
 70
     1
102
RTVSPropertyOp56
 70
     1
102
RTVSPropertyOp57
 70
     1
102
RTVSPropertyOp58
 70
     1
102
RTVSPropertyOp59
 70
     1
102
RTVSPropertyOp60
 70
     1
102
RTVSPropertyOp61
 70
     1
102
RTVSPropertyOp62
 70
     1
  0
ENDSEC
  0
EOF
