  0
SECTION
  2
HEADER
  9
$ACADVER
  1
AC1015
  9
$ACADMAINTVER
 70
    20
  9
$DWGCODEPAGE
  3
ANSI_932
  9
$INSBASE
 10
0.0
 20
0.0
 30
0.0
  9
$EXTMIN
 10
10.0
 20
9.999999999999998
 30
0.0
  9
$EXTMAX
 10
459.6375039999998
 20
331.5054979999998
 30
0.0
  9
$LIMMIN
 10
0.0
 20
0.0
  9
$LIMMAX
 10
495.0
 20
341.25
  9
$ORTHOMODE
 70
     1
  9
$REGENMODE
 70
     1
  9
$FILLMODE
 70
     1
  9
$QTEXTMODE
 70
     0
  9
$MIRRTEXT
 70
     1
  9
$LTSCALE
 40
20.0
  9
$ATTMODE
 70
     1
  9
$TEXTSIZE
 40
5.0
  9
$TRACEWID
 40
1.0
  9
$TEXTSTYLE
  7
STANDARD
  9
$CLAYER
  8
0
  9
$CELTYPE
  6
BYLAYER
  9
$CECOLOR
 62
   256
  9
$CELTSCALE
 40
1.0
  9
$DISPSILH
 70
     0
  9
$DIMSCALE
 40
1.0
  9
$DIMASZ
 40
3.0
  9
$DIMEXO
 40
1.0
  9
$DIMDLI
 40
10.0
  9
$DIMRND
 40
0.0
  9
$DIMDLE
 40
0.0
  9
$DIMEXE
 40
1.0
  9
$DIMTP
 40
0.0
  9
$DIMTM
 40
0.0
  9
$DIMTXT
 40
3.2
  9
$DIMCEN
 40
0.0
  9
$DIMTSZ
 40
0.0
  9
$DIMTOL
 70
     0
  9
$DIMLIM
 70
     0
  9
$DIMTIH
 70
     0
  9
$DIMTOH
 70
     0
  9
$DIMSE1
 70
     0
  9
$DIMSE2
 70
     0
  9
$DIMTAD
 70
     3
  9
$DIMZIN
 70
     8
  9
$DIMBLK
  1

  9
$DIMASO
 70
     1
  9
$DIMSHO
 70
     1
  9
$DIMPOST
  1

  9
$DIMAPOST
  1

  9
$DIMALT
 70
     0
  9
$DIMALTD
 70
     2
  9
$DIMALTF
 40
25.4
  9
$DIMLFAC
 40
1.0
  9
$DIMTOFL
 70
     1
  9
$DIMTVP
 40
0.0
  9
$DIMTIX
 70
     0
  9
$DIMSOXD
 70
     0
  9
$DIMSAH
 70
     1
  9
$DIMBLK1
  1
OPEN
  9
$DIMBLK2
  1
OPEN
  9
$DIMSTYLE
  2
STANDARD
  9
$DIMCLRD
 70
     0
  9
$DIMCLRE
 70
     0
  9
$DIMCLRT
 70
     0
  9
$DIMTFAC
 40
1.0
  9
$DIMGAP
 40
1.0
  9
$DIMJUST
 70
     0
  9
$DIMSD1
 70
     0
  9
$DIMSD2
 70
     0
  9
$DIMTOLJ
 70
     1
  9
$DIMTZIN
 70
     0
  9
$DIMALTZ
 70
     0
  9
$DIMALTTZ
 70
     0
  9
$DIMUPT
 70
     0
  9
$DIMDEC
 70
     4
  9
$DIMTDEC
 70
     4
  9
$DIMALTU
 70
     2
  9
$DIMALTTD
 70
     2
  9
$DIMTXSTY
  7
STANDARD
  9
$DIMAUNIT
 70
     0
  9
$DIMADEC
 70
     0
  9
$DIMALTRND
 40
0.0
  9
$DIMAZIN
 70
     0
  9
$DIMDSEP
 70
    46
  9
$DIMATFIT
 70
     3
  9
$DIMFRAC
 70
     0
  9
$DIMLDRBLK
  1
OPEN
  9
$DIMLUNIT
 70
     2
  9
$DIMLWD
 70
    -2
  9
$DIMLWE
 70
    -2
  9
$DIMTMOVE
 70
     0
  9
$LUNITS
 70
     2
  9
$LUPREC
 70
     4
  9
$SKETCHINC
 40
1.0
  9
$FILLETRAD
 40
12.3
  9
$AUNITS
 70
     0
  9
$AUPREC
 70
     2
  9
$MENU
  1
.
  9
$ELEVATION
 40
0.0
  9
$PELEVATION
 40
0.0
  9
$THICKNESS
 40
0.0
  9
$LIMCHECK
 70
     0
  9
$CHAMFERA
 40
10.0
  9
$CHAMFERB
 40
10.0
  9
$CHAMFERC
 40
0.0
  9
$CHAMFERD
 40
0.0
  9
$SKPOLY
 70
     0
  9
$TDCREATE
 40
2451302.615440741
  9
$TDUCREATE
 40
2451302.240440741
  9
$TDUPDATE
 40
2457192.687033333
  9
$TDUUPDATE
 40
2457192.312033333
  9
$TDINDWG
 40
0.0000112384
  9
$TDUSRTIMER
 40
0.0000109144
  9
$USRTIMER
 70
     1
  9
$ANGBASE
 50
0.0
  9
$ANGDIR
 70
     0
  9
$PDMODE
 70
     0
  9
$PDSIZE
 40
0.0
  9
$PLINEWID
 40
0.0
  9
$SPLFRAME
 70
     0
  9
$SPLINETYPE
 70
     6
  9
$SPLINESEGS
 70
     8
  9
$HANDSEED
  5
A626
  9
$SURFTAB1
 70
     6
  9
$SURFTAB2
 70
     6
  9
$SURFTYPE
 70
     6
  9
$SURFU
 70
     6
  9
$SURFV
 70
     6
  9
$UCSBASE
  2

  9
$UCSNAME
  2

  9
$UCSORG
 10
0.0
 20
0.0
 30
0.0
  9
$UCSXDIR
 10
1.0
 20
0.0
 30
0.0
  9
$UCSYDIR
 10
0.0
 20
1.0
 30
0.0
  9
$UCSORTHOREF
  2

  9
$UCSORTHOVIEW
 70
     0
  9
$UCSORGTOP
 10
0.0
 20
0.0
 30
0.0
  9
$UCSORGBOTTOM
 10
0.0
 20
0.0
 30
0.0
  9
$UCSORGLEFT
 10
0.0
 20
0.0
 30
0.0
  9
$UCSORGRIGHT
 10
0.0
 20
0.0
 30
0.0
  9
$UCSORGFRONT
 10
0.0
 20
0.0
 30
0.0
  9
$UCSORGBACK
 10
0.0
 20
0.0
 30
0.0
  9
$PUCSBASE
  2

  9
$PUCSNAME
  2

  9
$PUCSORG
 10
0.0
 20
0.0
 30
0.0
  9
$PUCSXDIR
 10
1.0
 20
0.0
 30
0.0
  9
$PUCSYDIR
 10
0.0
 20
1.0
 30
0.0
  9
$PUCSORTHOREF
  2

  9
$PUCSORTHOVIEW
 70
     0
  9
$PUCSORGTOP
 10
0.0
 20
0.0
 30
0.0
  9
$PUCSORGBOTTOM
 10
0.0
 20
0.0
 30
0.0
  9
$PUCSORGLEFT
 10
0.0
 20
0.0
 30
0.0
  9
$PUCSORGRIGHT
 10
0.0
 20
0.0
 30
0.0
  9
$PUCSORGFRONT
 10
0.0
 20
0.0
 30
0.0
  9
$PUCSORGBACK
 10
0.0
 20
0.0
 30
0.0
  9
$USERI1
 70
     0
  9
$USERI2
 70
     0
  9
$USERI3
 70
     0
  9
$USERI4
 70
     0
  9
$USERI5
 70
     0
  9
$USERR1
 40
0.0
  9
$USERR2
 40
0.0
  9
$USERR3
 40
0.0
  9
$USERR4
 40
0.0
  9
$USERR5
 40
0.0
  9
$WORLDVIEW
 70
     1
  9
$SHADEDGE
 70
     3
  9
$SHADEDIF
 70
    70
  9
$TILEMODE
 70
     1
  9
$MAXACTVP
 70
    16
  9
$PINSBASE
 10
0.0
 20
0.0
 30
0.0
  9
$PLIMCHECK
 70
     0
  9
$PEXTMIN
 10
1.000000000000000E+20
 20
1.000000000000000E+20
 30
1.000000000000000E+20
  9
$PEXTMAX
 10
-1.000000000000000E+20
 20
-1.000000000000000E+20
 30
-1.000000000000000E+20
  9
$PLIMMIN
 10
0.0
 20
0.0
  9
$PLIMMAX
 10
420.0
 20
297.0
  9
$UNITMODE
 70
     0
  9
$VISRETAIN
 70
     0
  9
$PLINEGEN
 70
     0
  9
$PSLTSCALE
 70
     0
  9
$TREEDEPTH
 70
  3020
  9
$CMLSTYLE
  2
STANDARD
  9
$CMLJUST
 70
     0
  9
$CMLSCALE
 40
1.0
  9
$PROXYGRAPHICS
 70
     1
  9
$MEASUREMENT
 70
     0
  9
$CELWEIGHT
370
    -1
  9
$ENDCAPS
280
     0
  9
$JOINSTYLE
280
     0
  9
$LWDISPLAY
290
     0
  9
$INSUNITS
 70
     0
  9
$HYPERLINKBASE
  1

  9
$STYLESHEET
  1

  9
$XEDIT
290
     1
  9
$CEPSNTYPE
380
     0
  9
$PSTYLEMODE
290
     1
  9
$FINGERPRINTGUID
  2
{DED44FE2-3461-43A3-A658-6A58D81929FB}
  9
$VERSIONGUID
  2
{4641C0E7-92E7-42FD-88FB-29955B6C5567}
  9
$EXTNAMES
290
     1
  9
$PSVPSCALE
 40
0.0
  9
$OLESTARTUP
290
     0
  0
ENDSEC
  0
SECTION
  2
CLASSES
  0
CLASS
  1
ACDBDICTIONARYWDFLT
  2
AcDbDictionaryWithDefault
  3
ObjectDBX Classes
 90
        0
280
     0
281
     0
  0
CLASS
  1
ACDBPLACEHOLDER
  2
AcDbPlaceHolder
  3
ObjectDBX Classes
 90
        0
280
     0
281
     0
  0
CLASS
  1
LAYOUT
  2
AcDbLayout
  3
ObjectDBX Classes
 90
        0
280
     0
281
     0
  0
CLASS
  1
DICTIONARYVAR
  2
AcDbDictionaryVar
  3
ObjectDBX Classes
 90
        0
280
     0
281
     0
  0
CLASS
  1
MATERIAL
  2
AcDbMaterial
  3
ObjectDBX Classes
 90
     1153
280
     0
281
     0
  0
CLASS
  1
VISUALSTYLE
  2
AcDbVisualStyle
  3
ObjectDBX Classes
 90
     4095
280
     0
281
     0
  0
CLASS
  1
TABLESTYLE
  2
AcDbTableStyle
  3
ObjectDBX Classes
 90
     4095
280
     0
281
     0
  0
CLASS
  1
SCALE
  2
AcDbScale
  3
ObjectDBX Classes
 90
     1153
280
     0
281
     0
  0
CLASS
  1
MLEADERSTYLE
  2
AcDbMLeaderStyle
  3
ACDB_MLEADERSTYLE_CLASS
 90
     4095
280
     0
281
     0
  0
CLASS
  1
ACDBSECTIONVIEWSTYLE
  2
AcDbSectionViewStyle
  3
ObjectDBX Classes
 90
     1025
280
     0
281
     0
  0
CLASS
  1
ACDBDETAILVIEWSTYLE
  2
AcDbDetailViewStyle
  3
ObjectDBX Classes
 90
     1025
280
     0
281
     0
  0
CLASS
  1
CELLSTYLEMAP
  2
AcDbCellStyleMap
  3
ObjectDBX Classes
 90
     1152
280
     0
281
     0
  0
ENDSEC
  0
SECTION
  2
TABLES
  0
TABLE
  2
VPORT
  5
A256
330
0
100
AcDbSymbolTable
 70
     1
  0
VPORT
  5
A56F
330
A256
100
AcDbSymbolTableRecord
100
AcDbViewportTableRecord
  2
*ACTIVE
 70
     0
 10
0.0
 20
0.0
 11
1.0
 21
1.0
 12
332.2171468659061
 22
170.7551773388754
 13
0.0
 23
0.0
 14
10.0
 24
10.0
 15
10.0
 25
10.0
 16
0.0
 26
0.0
 36
1.0
 17
0.0
 27
0.0
 37
0.0
 40
325.0889488114631
 41
2.35006605019815
 42
50.0
 43
0.0
 44
0.0
 50
0.0
 51
0.0
 71
     0
 72
   100
 73
     1
 74
     0
 75
     0
 76
     0
 77
     0
 78
     0
281
     0
 65
     1
110
0.0
120
0.0
130
0.0
111
1.0
121
0.0
131
0.0
112
0.0
122
1.0
132
0.0
 79
     0
146
0.0
1001
ACAD_NAV_VCDISPLAY
1070
     3
  0
ENDTAB
  0
TABLE
  2
LTYPE
  5
A253
330
0
100
AcDbSymbolTable
 70
     4
  0
LTYPE
  5
A261
330
A253
100
AcDbSymbolTableRecord
100
AcDbLinetypeTableRecord
  2
BYBLOCK
 70
     0
  3

 72
    65
 73
     0
 40
0.0
  0
LTYPE
  5
A262
330
A253
100
AcDbSymbolTableRecord
100
AcDbLinetypeTableRecord
  2
BYLAYER
 70
     0
  3

 72
    65
 73
     0
 40
0.0
  0
LTYPE
  5
A263
330
A253
100
AcDbSymbolTableRecord
100
AcDbLinetypeTableRecord
  2
CONTINUOUS
 70
     0
  3
Solid line
 72
    65
 73
     0
 40
0.0
  0
LTYPE
  5
A271
330
A253
100
AcDbSymbolTableRecord
100
AcDbLinetypeTableRecord
  2
DASHED
 70
     0
  3
__ __ __ __ __ __ __ __ __ __ __ __ __ __ __ __
 72
    65
 73
     2
 40
0.75
 49
0.5
 74
     0
 49
-0.25
 74
     0
  0
LTYPE
  5
A272
330
A253
100
AcDbSymbolTableRecord
100
AcDbLinetypeTableRecord
  2
CENTER
 70
     0
  3
____ _ ____ _ ____ _ ____ _ ____ _ ____ _ ____ 
 72
    65
 73
     4
 40
2.0
 49
1.25
 74
     0
 49
-0.25
 74
     0
 49
0.25
 74
     0
 49
-0.25
 74
     0
  0
LTYPE
  5
A273
330
A253
100
AcDbSymbolTableRecord
100
AcDbLinetypeTableRecord
  2
PHANTOM
 70
     0
  3
______  __  __  ______  __  __  ______  __  __ 
 72
    65
 73
     6
 40
2.5
 49
1.25
 74
     0
 49
-0.25
 74
     0
 49
0.25
 74
     0
 49
-0.25
 74
     0
 49
0.25
 74
     0
 49
-0.25
 74
     0
  0
ENDTAB
  0
TABLE
  2
LAYER
  5
A250
330
0
100
AcDbSymbolTable
 70
     8
  0
LAYER
  5
A25E
102
{ACAD_XDICTIONARY
360
A5CA
102
}
330
A250
100
AcDbSymbolTableRecord
100
AcDbLayerTableRecord
  2
0
 70
     0
 62
     7
  6
CONTINUOUS
370
    -3
390
A578
  0
LAYER
  5
A274
102
{ACAD_XDICTIONARY
360
A5CC
102
}
330
A250
100
AcDbSymbolTableRecord
100
AcDbLayerTableRecord
  2
4
 70
     0
 62
     1
  6
CENTER
370
    -3
390
A578
  0
LAYER
  5
A275
102
{ACAD_XDICTIONARY
360
A5CE
102
}
330
A250
100
AcDbSymbolTableRecord
100
AcDbLayerTableRecord
  2
5
 70
     0
 62
     6
  6
PHANTOM
370
    -3
390
A578
  0
LAYER
  5
A276
102
{ACAD_XDICTIONARY
360
A5D0
102
}
330
A250
100
AcDbSymbolTableRecord
100
AcDbLayerTableRecord
  2
1
 70
     0
 62
     7
  6
CONTINUOUS
370
    -3
390
A578
  0
LAYER
  5
A277
102
{ACAD_XDICTIONARY
360
A5D2
102
}
330
A250
100
AcDbSymbolTableRecord
100
AcDbLayerTableRecord
  2
2
 70
     0
 62
     4
  6
CONTINUOUS
370
    -3
390
A578
  0
LAYER
  5
A278
102
{ACAD_XDICTIONARY
360
A5D4
102
}
330
A250
100
AcDbSymbolTableRecord
100
AcDbLayerTableRecord
  2
3
 70
     0
 62
     2
  6
DASHED
370
    -3
390
A578
  0
LAYER
  5
A279
102
{ACAD_XDICTIONARY
360
A5D6
102
}
330
A250
100
AcDbSymbolTableRecord
100
AcDbLayerTableRecord
  2
6
 70
     0
 62
     5
  6
CONTINUOUS
370
    -3
390
A578
  0
LAYER
  5
A27A
102
{ACAD_XDICTIONARY
360
A5D8
102
}
330
A250
100
AcDbSymbolTableRecord
100
AcDbLayerTableRecord
  2
7
 70
     0
 62
     3
  6
CONTINUOUS
370
    -3
390
A578
  0
ENDTAB
  0
TABLE
  2
STYLE
  5
A251
330
0
100
AcDbSymbolTable
 70
     1
  0
STYLE
  5
A25F
330
A251
100
AcDbSymbolTableRecord
100
AcDbTextStyleTableRecord
  2
STANDARD
 70
     0
 40
0.0
 41
1.0
 50
0.0
 71
     0
 42
5.0
  3
txt
  4

  0
ENDTAB
  0
TABLE
  2
VIEW
  5
A254
330
0
100
AcDbSymbolTable
 70
     0
  0
ENDTAB
  0
TABLE
  2
UCS
  5
A255
330
0
100
AcDbSymbolTable
 70
     0
  0
ENDTAB
  0
TABLE
  2
APPID
  5
A257
330
0
100
AcDbSymbolTable
 70
     3
  0
APPID
  5
A260
330
A257
100
AcDbSymbolTableRecord
100
AcDbRegAppTableRecord
  2
ACAD
 70
     0
  0
APPID
  5
A5E4
330
A257
100
AcDbSymbolTableRecord
100
AcDbRegAppTableRecord
  2
ACAD_NAV_VCDISPLAY
 70
     0
  0
APPID
  5
A61D
330
A257
100
AcDbSymbolTableRecord
100
AcDbRegAppTableRecord
  2
ACAD_MLEADERVER
 70
     0
  0
ENDTAB
  0
TABLE
  2
DIMSTYLE
  5
A258
330
0
100
AcDbSymbolTable
 70
     1
100
AcDbDimStyleTable
 71
     0
  0
DIMSTYLE
105
A27C
330
A258
100
AcDbSymbolTableRecord
100
AcDbDimStyleTableRecord
  2
STANDARD
 70
     0
 41
3.0
 42
1.0
 43
10.0
 44
1.0
 73
     0
 74
     0
 77
     3
 78
     8
140
3.2
141
0.0
147
1.0
172
     1
173
     1
284
     8
285
     8
286
     8
340
A25F
  0
ENDTAB
  0
TABLE
  2
BLOCK_RECORD
  5
A24F
330
0
100
AcDbSymbolTable
 70
     1
  0
BLOCK_RECORD
  5
A26C
102
{ACAD_XDICTIONARY
360
A572
102
}
330
A24F
100
AcDbSymbolTableRecord
100
AcDbBlockTableRecord
  2
*MODEL_SPACE
340
A5C6
  0
BLOCK_RECORD
  5
A268
102
{ACAD_XDICTIONARY
360
A570
102
}
330
A24F
100
AcDbSymbolTableRecord
100
AcDbBlockTableRecord
  2
*PAPER_SPACE
340
A5C7
  0
BLOCK_RECORD
  5
A284
330
A24F
100
AcDbSymbolTableRecord
100
AcDbBlockTableRecord
  2
_OPEN
340
0
  0
ENDTAB
  0
ENDSEC
  0
SECTION
  2
BLOCKS
  0
BLOCK
  5
A26D
330
A26C
100
AcDbEntity
  8
0
100
AcDbBlockBegin
  2
*MODEL_SPACE
 70
     0
 10
0.0
 20
0.0
 30
0.0
  3
*MODEL_SPACE
  1

  0
ENDBLK
  5
A26E
330
A26C
100
AcDbEntity
  8
0
100
AcDbBlockEnd
  0
BLOCK
  5
A269
330
A268
100
AcDbEntity
 67
     1
  8
0
100
AcDbBlockBegin
  2
*PAPER_SPACE
 70
     0
 10
0.0
 20
0.0
 30
0.0
  3
*PAPER_SPACE
  1

  0
ENDBLK
  5
A26A
330
A268
100
AcDbEntity
 67
     1
  8
0
100
AcDbBlockEnd
  0
BLOCK
  5
A285
330
A284
100
AcDbEntity
  8
0
100
AcDbBlockBegin
  2
_OPEN
 70
     0
 10
0.0
 20
0.0
 30
0.0
  3
_OPEN
  1

  0
LINE
  5
A286
330
A284
100
AcDbEntity
  8
0
  6
ByBlock
 62
     0
100
AcDbLine
 10
-1.0
 20
0.166667
 30
0.0
 11
0.0
 21
0.0
 31
0.0
  0
LINE
  5
A287
330
A284
100
AcDbEntity
  8
0
  6
ByBlock
 62
     0
100
AcDbLine
 10
0.0
 20
0.0
 30
0.0
 11
-1.0
 21
-0.166667
 31
0.0
  0
LINE
  5
A288
330
A284
100
AcDbEntity
  8
0
  6
ByBlock
 62
     0
100
AcDbLine
 10
0.0
 20
0.0
 30
0.0
 11
-1.0
 21
0.0
 31
0.0
  0
ENDBLK
  5
A289
330
A284
100
AcDbEntity
  8
0
100
AcDbBlockEnd
  0
ENDSEC
  0
SECTION
  2
ENTITIES
  0
TEXT
  5
A28A
330
A26C
100
AcDbEntity
  8
7
  6
Continuous
100
AcDbText
 10
10.0
 20
18.0
 30
0.0
 40
3.0
  1
TYPE No.106
100
AcDbText
  0
TEXT
  5
A28B
330
A26C
100
AcDbEntity
  8
7
  6
Continuous
100
AcDbText
 10
10.0
 20
26.0
 30
0.0
 40
3.0
  1
CODE No.9006
100
AcDbText
  0
TEXT
  5
A28C
330
A26C
100
AcDbEntity
  8
1
  6
Continuous
100
AcDbText
 10
10.0
 20
10.0
 30
0.0
 40
1.399999999999999
  1
LAYER
100
AcDbText
  0
TEXT
  5
A28D
330
A26C
100
AcDbEntity
  8
1
  6
Continuous
100
AcDbText
 10
17.97951099999998
 20
10.04873699999998
 30
0.0
 40
1.399999999999999
  1
1
100
AcDbText
  0
TEXT
  5
A28E
330
A26C
100
AcDbEntity
  8
7
  6
Continuous
100
AcDbText
 10
29.97951099999999
 20
10.04873699999998
 30
0.0
 40
1.399999999999999
  1
7
100
AcDbText
  0
TEXT
  5
A28F
330
A26C
100
AcDbEntity
  8
4
  6
CENTER
100
AcDbText
 10
23.97951099999999
 20
10.04873699999998
 30
0.0
 40
1.399999999999999
  1
4
100
AcDbText
  0
TEXT
  5
A290
330
A26C
100
AcDbEntity
  8
3
  6
DASHED
100
AcDbText
 10
21.979511
 20
10.04873699999998
 30
0.0
 40
1.399999999999999
  1
3
100
AcDbText
  0
TEXT
  5
A291
330
A26C
100
AcDbEntity
  8
2
  6
Continuous
100
AcDbText
 10
19.97951099999999
 20
10.04873699999998
 30
0.0
 40
1.399999999999999
  1
2
100
AcDbText
  0
TEXT
  5
A292
330
A26C
100
AcDbEntity
  8
6
  6
Continuous
100
AcDbText
 10
27.979511
 20
10.04873699999998
 30
0.0
 40
1.399999999999999
  1
6
100
AcDbText
  0
TEXT
  5
A293
330
A26C
100
AcDbEntity
  8
5
  6
PHANTOM
100
AcDbText
 10
25.97951099999999
 20
10.04873699999998
 30
0.0
 40
1.399999999999999
  1
5
100
AcDbText
  0
LINE
  5
A294
330
A26C
100
AcDbEntity
  8
4
  6
CENTER
100
AcDbLine
 10
206.1692469999999
 20
178.7334899999999
 30
0.0
 11
121.169247
 21
178.7334899999999
 31
0.0
  0
LINE
  5
A295
330
A26C
100
AcDbEntity
  8
4
  6
CENTER
100
AcDbLine
 10
163.6692469999998
 20
136.23349
 30
0.0
 11
163.6692469999998
 21
219.23349
 31
0.0
  0
LINE
  5
A296
330
A26C
100
AcDbEntity
  8
1
  6
Continuous
100
AcDbLine
 10
188.45846
 20
226.65849
 30
0.0
 11
190.0834599999998
 21
225.53349
 31
0.0
  0
LINE
  5
A297
330
A26C
100
AcDbEntity
  8
1
  6
Continuous
100
AcDbLine
 10
190.2942469999999
 20
226.65849
 30
0.0
 11
188.6692469999999
 21
225.53349
 31
0.0
  0
LINE
  5
A298
330
A26C
100
AcDbEntity
  8
1
  6
Continuous
100
AcDbLine
 10
211.4614439999999
 20
229.8334899999999
 30
0.0
 11
165.8770499999999
 21
229.8334899999999
 31
0.0
  0
LINE
  5
A299
330
A26C
100
AcDbEntity
  8
1
  6
Continuous
100
AcDbLine
 10
211.719247
 20
228.9584899999999
 30
0.0
 11
165.619247
 21
228.9584899999999
 31
0.0
  0
LINE
  5
A29A
330
A26C
100
AcDbEntity
  8
1
  6
Continuous
100
AcDbLine
 10
211.669247
 20
226.65849
 30
0.0
 11
165.6692469999998
 21
226.65849
 31
0.0
  0
LINE
  5
A29B
330
A26C
100
AcDbEntity
  8
1
  6
Continuous
100
AcDbLine
 10
223.669247
 20
234.2334899999999
 30
0.0
 11
153.669247
 21
234.2334899999999
 31
0.0
  0
LINE
  5
A29C
330
A26C
100
AcDbEntity
  8
1
  6
Continuous
100
AcDbLine
 10
223.669247
 20
231.9334899999998
 30
0.0
 11
153.669247
 21
231.9334899999998
 31
0.0
  0
LINE
  5
A29D
330
A26C
100
AcDbEntity
  8
1
  6
Continuous
100
AcDbLine
 10
211.669247
 20
225.53349
 30
0.0
 11
165.6692469999998
 21
225.53349
 31
0.0
  0
LINE
  5
A29E
330
A26C
100
AcDbEntity
  8
1
  6
Continuous
100
AcDbLine
 10
159.8047719999998
 20
220.9334899999999
 30
0.0
 11
156.6692469999999
 21
220.9334899999999
 31
0.0
  0
LINE
  5
A29F
330
A26C
100
AcDbEntity
  8
1
  6
Continuous
100
AcDbLine
 10
170.6692469999999
 20
223.23349
 30
0.0
 11
156.6692469999999
 21
223.23349
 31
0.0
  0
LINE
  5
A2A0
330
A26C
100
AcDbEntity
  8
1
  6
Continuous
100
AcDbLine
 10
156.6692469999999
 20
223.23349
 30
0.0
 11
156.6692469999999
 21
220.9334899999999
 31
0.0
  0
LINE
  5
A2A1
330
A26C
100
AcDbEntity
  8
1
  6
Continuous
100
AcDbLine
 10
153.669247
 20
234.2334899999999
 30
0.0
 11
153.669247
 21
231.9334899999998
 31
0.0
  0
LINE
  5
A2A2
330
A26C
100
AcDbEntity
  8
4
  6
CENTER
100
AcDbLine
 10
188.6692469999999
 20
239.2334899999999
 30
0.0
 11
188.6692469999999
 21
206.425602
 31
0.0
  0
LINE
  5
A2A3
330
A26C
100
AcDbEntity
  8
1
  6
Continuous
100
AcDbLine
 10
172.9021109999999
 20
226.65849
 30
0.0
 11
174.527111
 21
225.53349
 31
0.0
  0
LINE
  5
A2A4
330
A26C
100
AcDbEntity
  8
1
  6
Continuous
100
AcDbLine
 10
173.323684
 20
226.65849
 30
0.0
 11
171.6986839999999
 21
225.53349
 31
0.0
  0
LINE
  5
A2A5
330
A26C
100
AcDbEntity
  8
1
  6
Continuous
100
AcDbLine
 10
174.7378969999998
 20
226.65849
 30
0.0
 11
173.112897
 21
225.53349
 31
0.0
  0
ARC
  5
A2A6
330
A26C
100
AcDbEntity
  8
1
  6
Continuous
100
AcDbCircle
 10
167.3364369999999
 20
222.53349
 30
0.0
 40
3.0
100
AcDbArc
 50
90.0
 51
166.5066009999998
  0
ARC
  5
A2A7
330
A26C
100
AcDbEntity
  8
1
  6
Continuous
100
AcDbCircle
 10
165.8770499999999
 20
233.33349
 30
0.0
 40
3.5
100
AcDbArc
 50
203.578178
 51
270.0
  0
LINE
  5
A2A8
330
A26C
100
AcDbEntity
  8
1
  6
Continuous
100
AcDbLine
 10
165.1192469999998
 20
228.1584899999999
 30
0.0
 11
165.619247
 21
228.9584899999999
 31
0.0
  0
LINE
  5
A2A9
330
A26C
100
AcDbEntity
  8
1
  6
Continuous
100
AcDbLine
 10
168.65947
 20
226.65849
 30
0.0
 11
170.2844699999999
 21
225.53349
 31
0.0
  0
LINE
  5
A2AA
330
A26C
100
AcDbEntity
  8
1
  6
Continuous
100
AcDbLine
 10
170.495257
 20
226.65849
 30
0.0
 11
168.870257
 21
225.53349
 31
0.0
  0
LINE
  5
A2AB
330
A26C
100
AcDbEntity
  8
1
  6
Continuous
100
AcDbLine
 10
165.831043
 20
226.65849
 30
0.0
 11
167.4560429999999
 21
225.53349
 31
0.0
  0
LINE
  5
A2AC
330
A26C
100
AcDbEntity
  8
1
  6
Continuous
100
AcDbLine
 10
167.245257
 20
226.65849
 30
0.0
 11
168.870257
 21
225.53349
 31
0.0
  0
LINE
  5
A2AD
330
A26C
100
AcDbEntity
  8
1
  6
Continuous
100
AcDbLine
 10
165.6692469999998
 20
226.075121
 30
0.0
 11
166.2526159999998
 21
226.65849
 31
0.0
  0
LINE
  5
A2AE
330
A26C
100
AcDbEntity
  8
1
  6
Continuous
100
AcDbLine
 10
167.66683
 20
226.65849
 30
0.0
 11
166.04183
 21
225.53349
 31
0.0
  0
LINE
  5
A2AF
330
A26C
100
AcDbEntity
  8
1
  6
Continuous
100
AcDbLine
 10
169.0810429999999
 20
226.65849
 30
0.0
 11
167.4560429999999
 21
225.53349
 31
0.0
  0
LINE
  5
A2B0
330
A26C
100
AcDbEntity
  8
1
  6
Continuous
100
AcDbLine
 10
165.6692469999998
 20
226.65849
 30
0.0
 11
165.6692469999998
 21
225.53349
 31
0.0
  0
LINE
  5
A2B1
330
A26C
100
AcDbEntity
  8
1
  6
Continuous
100
AcDbLine
 10
166.019247
 20
226.65849
 30
0.0
 11
165.1192469999998
 21
228.1584899999999
 31
0.0
  0
LINE
  5
A2B2
330
A26C
100
AcDbEntity
  8
1
  6
Continuous
100
AcDbLine
 10
170.0736839999999
 20
226.65849
 30
0.0
 11
171.6986839999999
 21
225.53349
 31
0.0
  0
LINE
  5
A2B3
330
A26C
100
AcDbEntity
  8
1
  6
Continuous
100
AcDbLine
 10
171.487897
 20
226.65849
 30
0.0
 11
173.112897
 21
225.53349
 31
0.0
  0
LINE
  5
A2B4
330
A26C
100
AcDbEntity
  8
1
  6
Continuous
100
AcDbLine
 10
171.90947
 20
226.65849
 30
0.0
 11
170.2844699999999
 21
225.53349
 31
0.0
  0
ARC
  5
A2B5
330
A26C
100
AcDbEntity
  8
1
  6
Continuous
100
AcDbCircle
 10
171.9192469999999
 20
224.4839899999998
 30
0.0
 40
6.974499999999999
100
AcDbArc
 50
129.9139999999999
 51
140.0924019999999
  0
LINE
  5
A2B6
330
A26C
100
AcDbEntity
  8
1
  6
Continuous
100
AcDbLine
 10
179.9731789999999
 20
226.65849
 30
0.0
 11
181.598179
 21
225.53349
 31
0.0
  0
LINE
  5
A2B7
330
A26C
100
AcDbEntity
  8
1
  6
Continuous
100
AcDbLine
 10
181.3873919999998
 20
226.65849
 30
0.0
 11
183.012392
 21
225.53349
 31
0.0
  0
LINE
  5
A2B8
330
A26C
100
AcDbEntity
  8
1
  6
Continuous
100
AcDbLine
 10
181.808965
 20
226.65849
 30
0.0
 11
180.1839649999998
 21
225.53349
 31
0.0
  0
LINE
  5
A2B9
330
A26C
100
AcDbEntity
  8
1
  6
Continuous
100
AcDbLine
 10
177.144752
 20
226.65849
 30
0.0
 11
178.769752
 21
225.53349
 31
0.0
  0
LINE
  5
A2BA
330
A26C
100
AcDbEntity
  8
1
  6
Continuous
100
AcDbLine
 10
177.566325
 20
226.65849
 30
0.0
 11
175.941325
 21
225.53349
 31
0.0
  0
LINE
  5
A2BB
330
A26C
100
AcDbEntity
  8
1
  6
Continuous
100
AcDbLine
 10
178.9805379999999
 20
226.65849
 30
0.0
 11
177.3555379999999
 21
225.53349
 31
0.0
  0
LINE
  5
A2BC
330
A26C
100
AcDbEntity
  8
1
  6
Continuous
100
AcDbLine
 10
174.316325
 20
226.65849
 30
0.0
 11
175.941325
 21
225.53349
 31
0.0
  0
LINE
  5
A2BD
330
A26C
100
AcDbEntity
  8
1
  6
Continuous
100
AcDbLine
 10
175.730538
 20
226.65849
 30
0.0
 11
177.3555379999999
 21
225.53349
 31
0.0
  0
LINE
  5
A2BE
330
A26C
100
AcDbEntity
  8
1
  6
Continuous
100
AcDbLine
 10
176.1521109999999
 20
226.65849
 30
0.0
 11
174.527111
 21
225.53349
 31
0.0
  0
LINE
  5
A2BF
330
A26C
100
AcDbEntity
  8
1
  6
Continuous
100
AcDbLine
 10
178.558965
 20
226.65849
 30
0.0
 11
180.1839649999998
 21
225.53349
 31
0.0
  0
LINE
  5
A2C0
330
A26C
100
AcDbEntity
  8
1
  6
Continuous
100
AcDbLine
 10
180.394752
 20
226.65849
 30
0.0
 11
178.769752
 21
225.53349
 31
0.0
  0
LINE
  5
A2C1
330
A26C
100
AcDbEntity
  8
1
  6
Continuous
100
AcDbLine
 10
184.21582
 20
226.65849
 30
0.0
 11
185.84082
 21
225.53349
 31
0.0
  0
LINE
  5
A2C2
330
A26C
100
AcDbEntity
  8
1
  6
Continuous
100
AcDbLine
 10
186.0516059999999
 20
226.65849
 30
0.0
 11
184.4266059999999
 21
225.53349
 31
0.0
  0
LINE
  5
A2C3
330
A26C
100
AcDbEntity
  8
1
  6
Continuous
100
AcDbLine
 10
182.8016059999999
 20
226.65849
 30
0.0
 11
184.4266059999999
 21
225.53349
 31
0.0
  0
LINE
  5
A2C4
330
A26C
100
AcDbEntity
  8
1
  6
Continuous
100
AcDbLine
 10
183.2231789999999
 20
226.65849
 30
0.0
 11
181.598179
 21
225.53349
 31
0.0
  0
LINE
  5
A2C5
330
A26C
100
AcDbEntity
  8
1
  6
Continuous
100
AcDbLine
 10
184.6373919999998
 20
226.65849
 30
0.0
 11
183.012392
 21
225.53349
 31
0.0
  0
LINE
  5
A2C6
330
A26C
100
AcDbEntity
  8
1
  6
Continuous
100
AcDbLine
 10
185.630033
 20
226.65849
 30
0.0
 11
187.2550329999999
 21
225.53349
 31
0.0
  0
LINE
  5
A2C7
330
A26C
100
AcDbEntity
  8
1
  6
Continuous
100
AcDbLine
 10
187.044247
 20
226.65849
 30
0.0
 11
188.6692469999999
 21
225.53349
 31
0.0
  0
LINE
  5
A2C8
330
A26C
100
AcDbEntity
  8
1
  6
Continuous
100
AcDbLine
 10
187.46582
 20
226.65849
 30
0.0
 11
185.84082
 21
225.53349
 31
0.0
  0
LINE
  5
A2C9
330
A26C
100
AcDbEntity
  8
1
  6
Continuous
100
AcDbLine
 10
188.880033
 20
226.65849
 30
0.0
 11
187.2550329999999
 21
225.53349
 31
0.0
  0
ARC
  5
A2CA
330
A26C
100
AcDbEntity
  8
1
  6
Continuous
100
AcDbCircle
 10
209.9878229999999
 20
222.071827
 30
0.0
 40
3.462340999999999
100
AcDbArc
 50
7.662535
 51
91.134876
  0
LINE
  5
A2CB
330
A26C
100
AcDbEntity
  8
1
  6
Continuous
100
AcDbLine
 10
213.419247
 20
217.9334899999998
 30
0.0
 11
205.563346
 21
217.9334899999998
 31
0.0
  0
LINE
  5
A2CC
330
A26C
100
AcDbEntity
  8
1
  6
Continuous
100
AcDbLine
 10
203.613618
 20
217.7419839999998
 30
0.0
 11
203.5692469999999
 21
217.67099
 31
0.0
  0
LINE
  5
A2CD
330
A26C
100
AcDbEntity
  8
1
  6
Continuous
100
AcDbLine
 10
213.419247
 20
222.53349
 30
0.0
 11
213.419247
 21
217.9334899999998
 31
0.0
  0
LINE
  5
A2CE
330
A26C
100
AcDbEntity
  8
1
  6
Continuous
100
AcDbLine
 10
205.4290229999998
 20
226.65849
 30
0.0
 11
207.054023
 21
225.53349
 31
0.0
  0
LINE
  5
A2CF
330
A26C
100
AcDbEntity
  8
1
  6
Continuous
100
AcDbLine
 10
207.264809
 20
226.65849
 30
0.0
 11
205.639809
 21
225.53349
 31
0.0
  0
LINE
  5
A2D0
330
A26C
100
AcDbEntity
  8
1
  6
Continuous
100
AcDbLine
 10
196.943742
 20
226.65849
 30
0.0
 11
198.5687419999999
 21
225.53349
 31
0.0
  0
LINE
  5
A2D1
330
A26C
100
AcDbEntity
  8
1
  6
Continuous
100
AcDbLine
 10
198.779528
 20
226.65849
 30
0.0
 11
197.1545279999999
 21
225.53349
 31
0.0
  0
LINE
  5
A2D2
330
A26C
100
AcDbEntity
  8
1
  6
Continuous
100
AcDbLine
 10
192.701101
 20
226.65849
 30
0.0
 11
194.326101
 21
225.53349
 31
0.0
  0
LINE
  5
A2D3
330
A26C
100
AcDbEntity
  8
1
  6
Continuous
100
AcDbLine
 10
194.536887
 20
226.65849
 30
0.0
 11
192.911887
 21
225.53349
 31
0.0
  0
LINE
  5
A2D4
330
A26C
100
AcDbEntity
  8
1
  6
Continuous
100
AcDbLine
 10
191.286887
 20
226.65849
 30
0.0
 11
192.911887
 21
225.53349
 31
0.0
  0
LINE
  5
A2D5
330
A26C
100
AcDbEntity
  8
1
  6
Continuous
100
AcDbLine
 10
189.8726739999999
 20
226.65849
 30
0.0
 11
191.4976739999999
 21
225.53349
 31
0.0
  0
LINE
  5
A2D6
330
A26C
100
AcDbEntity
  8
1
  6
Continuous
100
AcDbLine
 10
193.1226739999999
 20
226.65849
 30
0.0
 11
191.4976739999999
 21
225.53349
 31
0.0
  0
LINE
  5
A2D7
330
A26C
100
AcDbEntity
  8
1
  6
Continuous
100
AcDbLine
 10
191.70846
 20
226.65849
 30
0.0
 11
190.0834599999998
 21
225.53349
 31
0.0
  0
LINE
  5
A2D8
330
A26C
100
AcDbEntity
  8
1
  6
Continuous
100
AcDbLine
 10
195.5295279999999
 20
226.65849
 30
0.0
 11
197.1545279999999
 21
225.53349
 31
0.0
  0
LINE
  5
A2D9
330
A26C
100
AcDbEntity
  8
1
  6
Continuous
100
AcDbLine
 10
194.1153139999999
 20
226.65849
 30
0.0
 11
195.7403139999999
 21
225.53349
 31
0.0
  0
LINE
  5
A2DA
330
A26C
100
AcDbEntity
  8
1
  6
Continuous
100
AcDbLine
 10
197.3653139999999
 20
226.65849
 30
0.0
 11
195.7403139999999
 21
225.53349
 31
0.0
  0
LINE
  5
A2DB
330
A26C
100
AcDbEntity
  8
1
  6
Continuous
100
AcDbLine
 10
195.9511009999999
 20
226.65849
 30
0.0
 11
194.326101
 21
225.53349
 31
0.0
  0
LINE
  5
A2DC
330
A26C
100
AcDbEntity
  8
1
  6
Continuous
100
AcDbLine
 10
201.186382
 20
226.65849
 30
0.0
 11
202.811382
 21
225.53349
 31
0.0
  0
LINE
  5
A2DD
330
A26C
100
AcDbEntity
  8
1
  6
Continuous
100
AcDbLine
 10
203.0221689999999
 20
226.65849
 30
0.0
 11
201.3971689999999
 21
225.53349
 31
0.0
  0
LINE
  5
A2DE
330
A26C
100
AcDbEntity
  8
1
  6
Continuous
100
AcDbLine
 10
199.7721689999999
 20
226.65849
 30
0.0
 11
201.3971689999999
 21
225.53349
 31
0.0
  0
LINE
  5
A2DF
330
A26C
100
AcDbEntity
  8
1
  6
Continuous
100
AcDbLine
 10
198.357955
 20
226.65849
 30
0.0
 11
199.982955
 21
225.53349
 31
0.0
  0
LINE
  5
A2E0
330
A26C
100
AcDbEntity
  8
1
  6
Continuous
100
AcDbLine
 10
201.607955
 20
226.65849
 30
0.0
 11
199.982955
 21
225.53349
 31
0.0
  0
LINE
  5
A2E1
330
A26C
100
AcDbEntity
  8
1
  6
Continuous
100
AcDbLine
 10
200.1937419999999
 20
226.65849
 30
0.0
 11
198.5687419999999
 21
225.53349
 31
0.0
  0
LINE
  5
A2E2
330
A26C
100
AcDbEntity
  8
1
  6
Continuous
100
AcDbLine
 10
204.014809
 20
226.65849
 30
0.0
 11
205.639809
 21
225.53349
 31
0.0
  0
LINE
  5
A2E3
330
A26C
100
AcDbEntity
  8
1
  6
Continuous
100
AcDbLine
 10
202.6005959999999
 20
226.65849
 30
0.0
 11
204.2255959999998
 21
225.53349
 31
0.0
  0
LINE
  5
A2E4
330
A26C
100
AcDbEntity
  8
1
  6
Continuous
100
AcDbLine
 10
205.850596
 20
226.65849
 30
0.0
 11
204.2255959999998
 21
225.53349
 31
0.0
  0
LINE
  5
A2E5
330
A26C
100
AcDbEntity
  8
1
  6
Continuous
100
AcDbLine
 10
204.436382
 20
226.65849
 30
0.0
 11
202.811382
 21
225.53349
 31
0.0
  0
ARC
  5
A2E6
330
A26C
100
AcDbEntity
  8
1
  6
Continuous
100
AcDbCircle
 10
211.4614439999999
 20
233.33349
 30
0.0
 40
3.5
100
AcDbArc
 50
270.0
 51
336.421822
  0
LINE
  5
A2E7
330
A26C
100
AcDbEntity
  8
1
  6
Continuous
100
AcDbLine
 10
212.219247
 20
228.1584899999999
 30
0.0
 11
211.719247
 21
228.9584899999999
 31
0.0
  0
LINE
  5
A2E8
330
A26C
100
AcDbEntity
  8
1
  6
Continuous
100
AcDbLine
 10
209.6716639999999
 20
226.65849
 30
0.0
 11
211.2966639999999
 21
225.53349
 31
0.0
  0
LINE
  5
A2E9
330
A26C
100
AcDbEntity
  8
1
  6
Continuous
100
AcDbLine
 10
211.5074499999999
 20
226.65849
 30
0.0
 11
209.88245
 21
225.53349
 31
0.0
  0
LINE
  5
A2EA
330
A26C
100
AcDbEntity
  8
1
  6
Continuous
100
AcDbLine
 10
208.25745
 20
226.65849
 30
0.0
 11
209.88245
 21
225.53349
 31
0.0
  0
LINE
  5
A2EB
330
A26C
100
AcDbEntity
  8
1
  6
Continuous
100
AcDbLine
 10
206.843236
 20
226.65849
 30
0.0
 11
208.4682359999999
 21
225.53349
 31
0.0
  0
LINE
  5
A2EC
330
A26C
100
AcDbEntity
  8
1
  6
Continuous
100
AcDbLine
 10
210.0932359999999
 20
226.65849
 30
0.0
 11
208.4682359999999
 21
225.53349
 31
0.0
  0
LINE
  5
A2ED
330
A26C
100
AcDbEntity
  8
1
  6
Continuous
100
AcDbLine
 10
208.679023
 20
226.65849
 30
0.0
 11
207.054023
 21
225.53349
 31
0.0
  0
LINE
  5
A2EE
330
A26C
100
AcDbEntity
  8
1
  6
Continuous
100
AcDbLine
 10
211.085877
 20
226.65849
 30
0.0
 11
211.669247
 21
226.075121
 31
0.0
  0
LINE
  5
A2EF
330
A26C
100
AcDbEntity
  8
1
  6
Continuous
100
AcDbLine
 10
211.669247
 20
225.4060729999999
 30
0.0
 11
211.2966639999999
 21
225.53349
 31
0.0
  0
LINE
  5
A2F0
330
A26C
100
AcDbEntity
  8
1
  6
Continuous
100
AcDbLine
 10
211.669247
 20
226.65849
 30
0.0
 11
211.669247
 21
225.53349
 31
0.0
  0
LINE
  5
A2F1
330
A26C
100
AcDbEntity
  8
1
  6
Continuous
100
AcDbLine
 10
211.3192469999999
 20
226.65849
 30
0.0
 11
212.219247
 21
228.1584899999999
 31
0.0
  0
ARC
  5
A2F2
330
A26C
100
AcDbEntity
  8
1
  6
Continuous
100
AcDbCircle
 10
205.4192469999999
 20
224.4839899999998
 30
0.0
 40
6.974499999999999
100
AcDbArc
 50
39.907598
 51
50.08600000000002
  0
LINE
  5
A2F3
330
A26C
100
AcDbEntity
  8
1
  6
Continuous
100
AcDbLine
 10
223.669247
 20
234.2334899999999
 30
0.0
 11
223.669247
 21
231.9334899999998
 31
0.0
  0
LINE
  5
A2F4
330
A26C
100
AcDbEntity
  8
4
  6
CENTER
100
AcDbLine
 10
228.9691719999999
 20
299.5054979999999
 30
0.0
 11
121.1692379999998
 21
299.5054979999999
 31
0.0
  0
CIRCLE
  5
A2F5
330
A26C
100
AcDbEntity
  8
1
  6
Continuous
100
AcDbCircle
 10
188.6691719999998
 20
299.5054979999999
 30
0.0
 40
20.89999999999999
  0
CIRCLE
  5
A2F6
330
A26C
100
AcDbEntity
  8
1
  6
Continuous
100
AcDbCircle
 10
188.6691719999998
 20
299.5054979999999
 30
0.0
 40
23.5
  0
CIRCLE
  5
A2F7
330
A26C
100
AcDbEntity
  8
1
  6
Continuous
100
AcDbCircle
 10
188.6691719999998
 20
299.5054979999999
 30
0.0
 40
11.9
  0
LINE
  5
A2F8
330
A26C
100
AcDbEntity
  8
1
  6
Continuous
100
AcDbLine
 10
216.669172
 20
272.5054979999999
 30
0.0
 11
160.669172
 21
272.5054979999999
 31
0.0
  0
LINE
  5
A2F9
330
A26C
100
AcDbEntity
  8
1
  6
Continuous
100
AcDbLine
 10
216.669172
 20
326.5054979999998
 30
0.0
 11
160.669172
 21
326.5054979999998
 31
0.0
  0
LINE
  5
A2FA
330
A26C
100
AcDbEntity
  8
4
  6
CENTER
100
AcDbLine
 10
188.6691719999998
 20
267.505498
 30
0.0
 11
188.6691719999998
 21
331.5054979999998
 31
0.0
  0
LINE
  5
A2FB
330
A26C
100
AcDbEntity
  8
1
  6
Continuous
100
AcDbLine
 10
153.669172
 20
279.5054979999998
 30
0.0
 11
153.669172
 21
319.505498
 31
0.0
  0
LINE
  5
A2FC
330
A26C
100
AcDbEntity
  8
4
  6
CENTER
100
AcDbLine
 10
167.919172
 20
281.5054979999998
 30
0.0
 11
155.419172
 21
281.5054979999998
 31
0.0
  0
ARC
  5
A2FD
330
A26C
100
AcDbEntity
  8
1
  6
Continuous
100
AcDbCircle
 10
160.669172
 20
279.5054979999998
 30
0.0
 40
7.0
100
AcDbArc
 50
180.0
 51
270.0
  0
LINE
  5
A2FE
330
A26C
100
AcDbEntity
  8
4
  6
CENTER
100
AcDbLine
 10
161.669172
 20
275.2554979999998
 30
0.0
 11
161.669172
 21
287.7554979999998
 31
0.0
  0
CIRCLE
  5
A2FF
330
A26C
100
AcDbEntity
  8
1
  6
Continuous
100
AcDbCircle
 10
161.669172
 20
281.5054979999998
 30
0.0
 40
3.25
  0
LINE
  5
A300
330
A26C
100
AcDbEntity
  8
4
  6
CENTER
100
AcDbLine
 10
167.919172
 20
317.505498
 30
0.0
 11
155.419172
 21
317.505498
 31
0.0
  0
ARC
  5
A301
330
A26C
100
AcDbEntity
  8
1
  6
Continuous
100
AcDbCircle
 10
160.669172
 20
319.505498
 30
0.0
 40
7.0
100
AcDbArc
 50
90.0
 51
180.0
  0
LINE
  5
A302
330
A26C
100
AcDbEntity
  8
4
  6
CENTER
100
AcDbLine
 10
161.669172
 20
311.255498
 30
0.0
 11
161.669172
 21
323.755498
 31
0.0
  0
CIRCLE
  5
A303
330
A26C
100
AcDbEntity
  8
1
  6
Continuous
100
AcDbCircle
 10
161.669172
 20
317.505498
 30
0.0
 40
3.25
  0
LINE
  5
A304
330
A26C
100
AcDbEntity
  8
1
  6
Continuous
100
AcDbLine
 10
223.669172
 20
279.5054979999998
 30
0.0
 11
223.669172
 21
319.505498
 31
0.0
  0
ARC
  5
A305
330
A26C
100
AcDbEntity
  8
1
  6
Continuous
100
AcDbCircle
 10
216.669172
 20
279.5054979999998
 30
0.0
 40
7.0
100
AcDbArc
 50
270.0
 51
0.0
  0
LINE
  5
A306
330
A26C
100
AcDbEntity
  8
4
  6
CENTER
100
AcDbLine
 10
215.669172
 20
275.2554979999998
 30
0.0
 11
215.669172
 21
287.7554979999998
 31
0.0
  0
CIRCLE
  5
A307
330
A26C
100
AcDbEntity
  8
1
  6
Continuous
100
AcDbCircle
 10
215.669172
 20
281.5054979999998
 30
0.0
 40
3.25
  0
LINE
  5
A308
330
A26C
100
AcDbEntity
  8
4
  6
CENTER
100
AcDbLine
 10
221.919172
 20
281.5054979999998
 30
0.0
 11
209.4191719999999
 21
281.5054979999998
 31
0.0
  0
ARC
  5
A309
330
A26C
100
AcDbEntity
  8
1
  6
Continuous
100
AcDbCircle
 10
216.669172
 20
319.505498
 30
0.0
 40
7.0
100
AcDbArc
 50
0.0
 51
90.0
  0
LINE
  5
A30A
330
A26C
100
AcDbEntity
  8
4
  6
CENTER
100
AcDbLine
 10
215.669172
 20
311.255498
 30
0.0
 11
215.669172
 21
323.755498
 31
0.0
  0
LINE
  5
A30B
330
A26C
100
AcDbEntity
  8
4
  6
CENTER
100
AcDbLine
 10
221.919172
 20
317.505498
 30
0.0
 11
209.4191719999999
 21
317.505498
 31
0.0
  0
CIRCLE
  5
A30C
330
A26C
100
AcDbEntity
  8
1
  6
Continuous
100
AcDbCircle
 10
215.669172
 20
317.505498
 30
0.0
 40
3.25
  0
LINE
  5
A30D
330
A26C
100
AcDbEntity
  8
4
  6
CENTER
100
AcDbLine
 10
290.4033759999999
 20
239.2334899999999
 30
0.0
 11
290.4033759999999
 21
136.23349
 31
0.0
  0
LINE
  5
A30E
330
A26C
100
AcDbEntity
  8
4
  6
CENTER
100
AcDbLine
 10
262.5666959999999
 20
178.7334899999999
 30
0.0
 11
319.2118759999999
 21
178.7334899999999
 31
0.0
  0
LINE
  5
A30F
330
A26C
100
AcDbEntity
  8
1
  6
Continuous
100
AcDbLine
 10
311.405793
 20
226.65849
 30
0.0
 11
313.030793
 21
225.53349
 31
0.0
  0
LINE
  5
A310
330
A26C
100
AcDbEntity
  8
1
  6
Continuous
100
AcDbLine
 10
313.241579
 20
226.65849
 30
0.0
 11
311.616579
 21
225.53349
 31
0.0
  0
ARC
  5
A311
330
A26C
100
AcDbEntity
  8
1
  6
Continuous
100
AcDbCircle
 10
219.2048479999999
 20
170.77931
 30
0.0
 40
99.466508
100
AcDbArc
 50
17.154698
 51
25.73159999999998
  0
LINE
  5
A312
330
A26C
100
AcDbEntity
  8
1
  6
Continuous
100
AcDbLine
 10
263.4033759999999
 20
231.9334899999998
 30
0.0
 11
317.4033759999999
 21
231.9334899999998
 31
0.0
  0
LINE
  5
A313
330
A26C
100
AcDbEntity
  8
1
  6
Continuous
100
AcDbLine
 10
263.4033759999999
 20
234.2334899999999
 30
0.0
 11
317.4033759999999
 21
234.2334899999999
 31
0.0
  0
LINE
  5
A314
330
A26C
100
AcDbEntity
  8
1
  6
Continuous
100
AcDbLine
 10
313.195573
 20
229.8334899999999
 30
0.0
 11
267.6111789999998
 21
229.8334899999999
 31
0.0
  0
LINE
  5
A315
330
A26C
100
AcDbEntity
  8
1
  6
Continuous
100
AcDbLine
 10
313.453376
 20
228.9584899999999
 30
0.0
 11
267.3533759999999
 21
228.9584899999999
 31
0.0
  0
LINE
  5
A316
330
A26C
100
AcDbEntity
  8
1
  6
Continuous
100
AcDbLine
 10
313.4033759999999
 20
226.65849
 30
0.0
 11
267.4033759999999
 21
226.65849
 31
0.0
  0
LINE
  5
A317
330
A26C
100
AcDbEntity
  8
1
  6
Continuous
100
AcDbLine
 10
313.4033759999999
 20
225.53349
 30
0.0
 11
267.4033759999999
 21
225.53349
 31
0.0
  0
LINE
  5
A318
330
A26C
100
AcDbEntity
  8
1
  6
Continuous
100
AcDbLine
 10
273.8948759999999
 20
212.8298829999998
 30
0.0
 11
273.8948759999999
 21
167.2334899999999
 31
0.0
  0
LINE
  5
A319
330
A26C
100
AcDbEntity
  8
1
  6
Continuous
100
AcDbLine
 10
306.9118759999998
 20
167.2334899999999
 30
0.0
 11
309.2118759999999
 21
167.2334899999999
 31
0.0
  0
LINE
  5
A31A
330
A26C
100
AcDbEntity
  8
1
  6
Continuous
100
AcDbLine
 10
309.2118759999999
 20
167.2334899999999
 30
0.0
 11
309.2118759999999
 21
167.6249589999999
 31
0.0
  0
LINE
  5
A31B
330
A26C
100
AcDbEntity
  8
1
  6
Continuous
100
AcDbLine
 10
278.8788809999999
 20
226.65849
 30
0.0
 11
280.5038809999999
 21
225.53349
 31
0.0
  0
LINE
  5
A31C
330
A26C
100
AcDbEntity
  8
1
  6
Continuous
100
AcDbLine
 10
280.714667
 20
226.65849
 30
0.0
 11
279.089667
 21
225.53349
 31
0.0
  0
LINE
  5
A31D
330
A26C
100
AcDbEntity
  8
1
  6
Continuous
100
AcDbLine
 10
302.0968209999999
 20
217.9334899999998
 30
0.0
 11
278.7778819999999
 21
217.9334899999998
 31
0.0
  0
ARC
  5
A31E
330
A26C
100
AcDbEntity
  8
1
  6
Continuous
100
AcDbCircle
 10
278.7439049999999
 20
210.2186619999999
 30
0.0
 40
7.714902
100
AcDbArc
 50
89.74766999999998
 51
150.9629099999999
  0
LINE
  5
A31F
330
A26C
100
AcDbEntity
  8
1
  6
Continuous
100
AcDbLine
 10
263.4033759999999
 20
234.2334899999999
 30
0.0
 11
263.4033759999999
 21
231.9334899999998
 31
0.0
  0
LINE
  5
A320
330
A26C
100
AcDbEntity
  8
1
  6
Continuous
100
AcDbLine
 10
270.393599
 20
226.65849
 30
0.0
 11
272.018599
 21
225.53349
 31
0.0
  0
LINE
  5
A321
330
A26C
100
AcDbEntity
  8
1
  6
Continuous
100
AcDbLine
 10
272.2293859999999
 20
226.65849
 30
0.0
 11
270.6043859999999
 21
225.53349
 31
0.0
  0
LINE
  5
A322
330
A26C
100
AcDbEntity
  8
1
  6
Continuous
100
AcDbLine
 10
266.8533759999998
 20
228.1584899999999
 30
0.0
 11
267.3533759999999
 21
228.9584899999999
 31
0.0
  0
LINE
  5
A323
330
A26C
100
AcDbEntity
  8
1
  6
Continuous
100
AcDbLine
 10
267.4033759999999
 20
225.9060729999999
 30
0.0
 11
267.7759589999999
 21
225.53349
 31
0.0
  0
LINE
  5
A324
330
A26C
100
AcDbEntity
  8
1
  6
Continuous
100
AcDbLine
 10
267.4033759999999
 20
226.5751209999999
 30
0.0
 11
267.9867449999999
 21
226.65849
 31
0.0
  0
LINE
  5
A325
330
A26C
100
AcDbEntity
  8
1
  6
Continuous
100
AcDbLine
 10
267.753376
 20
226.65849
 30
0.0
 11
266.8533759999998
 21
228.1584899999999
 31
0.0
  0
LINE
  5
A326
330
A26C
100
AcDbEntity
  8
1
  6
Continuous
100
AcDbLine
 10
267.4033759999999
 20
226.65849
 30
0.0
 11
267.4033759999999
 21
225.53349
 31
0.0
  0
LINE
  5
A327
330
A26C
100
AcDbEntity
  8
1
  6
Continuous
100
AcDbLine
 10
267.565172
 20
226.65849
 30
0.0
 11
269.190172
 21
225.53349
 31
0.0
  0
LINE
  5
A328
330
A26C
100
AcDbEntity
  8
1
  6
Continuous
100
AcDbLine
 10
268.9793859999999
 20
226.65849
 30
0.0
 11
270.6043859999999
 21
225.53349
 31
0.0
  0
LINE
  5
A329
330
A26C
100
AcDbEntity
  8
1
  6
Continuous
100
AcDbLine
 10
269.4009589999998
 20
226.65849
 30
0.0
 11
267.7759589999999
 21
225.53349
 31
0.0
  0
LINE
  5
A32A
330
A26C
100
AcDbEntity
  8
1
  6
Continuous
100
AcDbLine
 10
270.815172
 20
226.65849
 30
0.0
 11
269.190172
 21
225.53349
 31
0.0
  0
ARC
  5
A32B
330
A26C
100
AcDbEntity
  8
1
  6
Continuous
100
AcDbCircle
 10
267.6111789999998
 20
233.33349
 30
0.0
 40
3.5
100
AcDbArc
 50
203.578178
 51
270.0
  0
ARC
  5
A32C
330
A26C
100
AcDbEntity
  8
1
  6
Continuous
100
AcDbCircle
 10
273.6533759999999
 20
224.4839899999998
 30
0.0
 40
6.974499999999999
100
AcDbArc
 50
129.9139999999999
 51
140.0924019999999
  0
LINE
  5
A32D
330
A26C
100
AcDbEntity
  8
1
  6
Continuous
100
AcDbLine
 10
274.6362399999998
 20
226.65849
 30
0.0
 11
276.26124
 21
225.53349
 31
0.0
  0
LINE
  5
A32E
330
A26C
100
AcDbEntity
  8
1
  6
Continuous
100
AcDbLine
 10
276.4720259999999
 20
226.65849
 30
0.0
 11
274.8470259999999
 21
225.53349
 31
0.0
  0
LINE
  5
A32F
330
A26C
100
AcDbEntity
  8
1
  6
Continuous
100
AcDbLine
 10
271.807813
 20
226.65849
 30
0.0
 11
273.432813
 21
225.53349
 31
0.0
  0
LINE
  5
A330
330
A26C
100
AcDbEntity
  8
1
  6
Continuous
100
AcDbLine
 10
273.2220259999999
 20
226.65849
 30
0.0
 11
274.8470259999999
 21
225.53349
 31
0.0
  0
LINE
  5
A331
330
A26C
100
AcDbEntity
  8
1
  6
Continuous
100
AcDbLine
 10
273.6435989999999
 20
226.65849
 30
0.0
 11
272.018599
 21
225.53349
 31
0.0
  0
LINE
  5
A332
330
A26C
100
AcDbEntity
  8
1
  6
Continuous
100
AcDbLine
 10
275.057813
 20
226.65849
 30
0.0
 11
273.432813
 21
225.53349
 31
0.0
  0
LINE
  5
A333
330
A26C
100
AcDbEntity
  8
1
  6
Continuous
100
AcDbLine
 10
276.0504539999999
 20
226.65849
 30
0.0
 11
277.675454
 21
225.53349
 31
0.0
  0
LINE
  5
A334
330
A26C
100
AcDbEntity
  8
1
  6
Continuous
100
AcDbLine
 10
277.464667
 20
226.65849
 30
0.0
 11
279.089667
 21
225.53349
 31
0.0
  0
LINE
  5
A335
330
A26C
100
AcDbEntity
  8
1
  6
Continuous
100
AcDbLine
 10
277.8862399999998
 20
226.65849
 30
0.0
 11
276.26124
 21
225.53349
 31
0.0
  0
LINE
  5
A336
330
A26C
100
AcDbEntity
  8
1
  6
Continuous
100
AcDbLine
 10
279.300454
 20
226.65849
 30
0.0
 11
277.675454
 21
225.53349
 31
0.0
  0
ARC
  5
A337
330
A26C
100
AcDbEntity
  8
1
  6
Continuous
100
AcDbCircle
 10
219.2048479999999
 20
170.77931
 30
0.0
 40
97.26650800000001
100
AcDbArc
 50
18.221623
 51
28.73472400000001
  0
ARC
  5
A338
330
A26C
100
AcDbEntity
  8
1
  6
Continuous
100
AcDbCircle
 10
302.0628449999999
 20
210.2186619999999
 30
0.0
 40
7.714902
100
AcDbArc
 50
29.03709
 51
90.25233
  0
LINE
  5
A339
330
A26C
100
AcDbEntity
  8
1
  6
Continuous
100
AcDbLine
 10
295.849443
 20
226.65849
 30
0.0
 11
297.474443
 21
225.53349
 31
0.0
  0
LINE
  5
A33A
330
A26C
100
AcDbEntity
  8
1
  6
Continuous
100
AcDbLine
 10
297.68523
 20
226.65849
 30
0.0
 11
296.06023
 21
225.53349
 31
0.0
  0
LINE
  5
A33B
330
A26C
100
AcDbEntity
  8
1
  6
Continuous
100
AcDbLine
 10
296.2710159999998
 20
226.65849
 30
0.0
 11
294.6460159999999
 21
225.53349
 31
0.0
  0
LINE
  5
A33C
330
A26C
100
AcDbEntity
  8
1
  6
Continuous
100
AcDbLine
 10
287.364162
 20
226.65849
 30
0.0
 11
288.989162
 21
225.53349
 31
0.0
  0
LINE
  5
A33D
330
A26C
100
AcDbEntity
  8
1
  6
Continuous
100
AcDbLine
 10
289.1999489999999
 20
226.65849
 30
0.0
 11
287.574949
 21
225.53349
 31
0.0
  0
LINE
  5
A33E
330
A26C
100
AcDbEntity
  8
1
  6
Continuous
100
AcDbLine
 10
283.1215209999998
 20
226.65849
 30
0.0
 11
284.7465209999999
 21
225.53349
 31
0.0
  0
LINE
  5
A33F
330
A26C
100
AcDbEntity
  8
1
  6
Continuous
100
AcDbLine
 10
284.957308
 20
226.65849
 30
0.0
 11
283.3323079999999
 21
225.53349
 31
0.0
  0
LINE
  5
A340
330
A26C
100
AcDbEntity
  8
1
  6
Continuous
100
AcDbLine
 10
280.2930939999999
 20
226.65849
 30
0.0
 11
281.9180939999998
 21
225.53349
 31
0.0
  0
LINE
  5
A341
330
A26C
100
AcDbEntity
  8
1
  6
Continuous
100
AcDbLine
 10
281.707308
 20
226.65849
 30
0.0
 11
283.3323079999999
 21
225.53349
 31
0.0
  0
LINE
  5
A342
330
A26C
100
AcDbEntity
  8
1
  6
Continuous
100
AcDbLine
 10
282.128881
 20
226.65849
 30
0.0
 11
280.5038809999999
 21
225.53349
 31
0.0
  0
LINE
  5
A343
330
A26C
100
AcDbEntity
  8
1
  6
Continuous
100
AcDbLine
 10
283.543094
 20
226.65849
 30
0.0
 11
281.9180939999998
 21
225.53349
 31
0.0
  0
LINE
  5
A344
330
A26C
100
AcDbEntity
  8
1
  6
Continuous
100
AcDbLine
 10
284.535735
 20
226.65849
 30
0.0
 11
286.1607349999998
 21
225.53349
 31
0.0
  0
LINE
  5
A345
330
A26C
100
AcDbEntity
  8
1
  6
Continuous
100
AcDbLine
 10
285.949949
 20
226.65849
 30
0.0
 11
287.574949
 21
225.53349
 31
0.0
  0
LINE
  5
A346
330
A26C
100
AcDbEntity
  8
1
  6
Continuous
100
AcDbLine
 10
286.3715209999999
 20
226.65849
 30
0.0
 11
284.7465209999999
 21
225.53349
 31
0.0
  0
LINE
  5
A347
330
A26C
100
AcDbEntity
  8
1
  6
Continuous
100
AcDbLine
 10
287.7857349999998
 20
226.65849
 30
0.0
 11
286.1607349999998
 21
225.53349
 31
0.0
  0
LINE
  5
A348
330
A26C
100
AcDbEntity
  8
1
  6
Continuous
100
AcDbLine
 10
291.6068029999999
 20
226.65849
 30
0.0
 11
293.2318029999998
 21
225.53349
 31
0.0
  0
LINE
  5
A349
330
A26C
100
AcDbEntity
  8
1
  6
Continuous
100
AcDbLine
 10
293.4425889999999
 20
226.65849
 30
0.0
 11
291.817589
 21
225.53349
 31
0.0
  0
LINE
  5
A34A
330
A26C
100
AcDbEntity
  8
1
  6
Continuous
100
AcDbLine
 10
290.192589
 20
226.65849
 30
0.0
 11
291.817589
 21
225.53349
 31
0.0
  0
LINE
  5
A34B
330
A26C
100
AcDbEntity
  8
1
  6
Continuous
100
AcDbLine
 10
288.7783759999999
 20
226.65849
 30
0.0
 11
290.4033759999999
 21
225.53349
 31
0.0
  0
LINE
  5
A34C
330
A26C
100
AcDbEntity
  8
1
  6
Continuous
100
AcDbLine
 10
290.614162
 20
226.65849
 30
0.0
 11
288.989162
 21
225.53349
 31
0.0
  0
LINE
  5
A34D
330
A26C
100
AcDbEntity
  8
1
  6
Continuous
100
AcDbLine
 10
292.0283759999999
 20
226.65849
 30
0.0
 11
290.4033759999999
 21
225.53349
 31
0.0
  0
LINE
  5
A34E
330
A26C
100
AcDbEntity
  8
1
  6
Continuous
100
AcDbLine
 10
294.4352299999998
 20
226.65849
 30
0.0
 11
296.06023
 21
225.53349
 31
0.0
  0
LINE
  5
A34F
330
A26C
100
AcDbEntity
  8
1
  6
Continuous
100
AcDbLine
 10
293.0210159999999
 20
226.65849
 30
0.0
 11
294.6460159999999
 21
225.53349
 31
0.0
  0
LINE
  5
A350
330
A26C
100
AcDbEntity
  8
1
  6
Continuous
100
AcDbLine
 10
294.8568029999999
 20
226.65849
 30
0.0
 11
293.2318029999998
 21
225.53349
 31
0.0
  0
LINE
  5
A351
330
A26C
100
AcDbEntity
  8
1
  6
Continuous
100
AcDbLine
 10
304.334725
 20
226.65849
 30
0.0
 11
305.9597249999999
 21
225.53349
 31
0.0
  0
LINE
  5
A352
330
A26C
100
AcDbEntity
  8
1
  6
Continuous
100
AcDbLine
 10
302.9205109999999
 20
226.65849
 30
0.0
 11
304.5455109999999
 21
225.53349
 31
0.0
  0
LINE
  5
A353
330
A26C
100
AcDbEntity
  8
1
  6
Continuous
100
AcDbLine
 10
304.756298
 20
226.65849
 30
0.0
 11
303.131298
 21
225.53349
 31
0.0
  0
LINE
  5
A354
330
A26C
100
AcDbEntity
  8
1
  6
Continuous
100
AcDbLine
 10
300.092084
 20
226.65849
 30
0.0
 11
301.7170839999999
 21
225.53349
 31
0.0
  0
LINE
  5
A355
330
A26C
100
AcDbEntity
  8
1
  6
Continuous
100
AcDbLine
 10
301.927871
 20
226.65849
 30
0.0
 11
300.3028709999999
 21
225.53349
 31
0.0
  0
LINE
  5
A356
330
A26C
100
AcDbEntity
  8
1
  6
Continuous
100
AcDbLine
 10
300.5136569999999
 20
226.65849
 30
0.0
 11
298.8886569999999
 21
225.53349
 31
0.0
  0
LINE
  5
A357
330
A26C
100
AcDbEntity
  8
1
  6
Continuous
100
AcDbLine
 10
298.6778709999999
 20
226.65849
 30
0.0
 11
300.3028709999999
 21
225.53349
 31
0.0
  0
LINE
  5
A358
330
A26C
100
AcDbEntity
  8
1
  6
Continuous
100
AcDbLine
 10
297.2636569999999
 20
226.65849
 30
0.0
 11
298.8886569999999
 21
225.53349
 31
0.0
  0
LINE
  5
A359
330
A26C
100
AcDbEntity
  8
1
  6
Continuous
100
AcDbLine
 10
299.099443
 20
226.65849
 30
0.0
 11
297.474443
 21
225.53349
 31
0.0
  0
LINE
  5
A35A
330
A26C
100
AcDbEntity
  8
1
  6
Continuous
100
AcDbLine
 10
301.506298
 20
226.65849
 30
0.0
 11
303.131298
 21
225.53349
 31
0.0
  0
LINE
  5
A35B
330
A26C
100
AcDbEntity
  8
1
  6
Continuous
100
AcDbLine
 10
303.342084
 20
226.65849
 30
0.0
 11
301.7170839999999
 21
225.53349
 31
0.0
  0
LINE
  5
A35C
330
A26C
100
AcDbEntity
  8
1
  6
Continuous
100
AcDbLine
 10
307.163152
 20
226.65849
 30
0.0
 11
308.788152
 21
225.53349
 31
0.0
  0
LINE
  5
A35D
330
A26C
100
AcDbEntity
  8
1
  6
Continuous
100
AcDbLine
 10
308.998938
 20
226.65849
 30
0.0
 11
307.373938
 21
225.53349
 31
0.0
  0
LINE
  5
A35E
330
A26C
100
AcDbEntity
  8
1
  6
Continuous
100
AcDbLine
 10
305.748938
 20
226.65849
 30
0.0
 11
307.373938
 21
225.53349
 31
0.0
  0
LINE
  5
A35F
330
A26C
100
AcDbEntity
  8
1
  6
Continuous
100
AcDbLine
 10
307.5847249999998
 20
226.65849
 30
0.0
 11
305.9597249999999
 21
225.53349
 31
0.0
  0
LINE
  5
A360
330
A26C
100
AcDbEntity
  8
1
  6
Continuous
100
AcDbLine
 10
306.1705109999999
 20
226.65849
 30
0.0
 11
304.5455109999999
 21
225.53349
 31
0.0
  0
LINE
  5
A361
330
A26C
100
AcDbEntity
  8
1
  6
Continuous
100
AcDbLine
 10
309.991579
 20
226.65849
 30
0.0
 11
311.616579
 21
225.53349
 31
0.0
  0
LINE
  5
A362
330
A26C
100
AcDbEntity
  8
1
  6
Continuous
100
AcDbLine
 10
308.577366
 20
226.65849
 30
0.0
 11
310.2023659999999
 21
225.53349
 31
0.0
  0
LINE
  5
A363
330
A26C
100
AcDbEntity
  8
1
  6
Continuous
100
AcDbLine
 10
311.8273659999999
 20
226.65849
 30
0.0
 11
310.2023659999999
 21
225.53349
 31
0.0
  0
LINE
  5
A364
330
A26C
100
AcDbEntity
  8
1
  6
Continuous
100
AcDbLine
 10
310.4131520000001
 20
226.65849
 30
0.0
 11
308.788152
 21
225.53349
 31
0.0
  0
ARC
  5
A365
330
A26C
100
AcDbEntity
  8
1
  6
Continuous
100
AcDbCircle
 10
307.1533759999999
 20
224.4839899999998
 30
0.0
 40
6.974499999999999
100
AcDbArc
 50
39.907598
 51
50.08600000000002
  0
LINE
  5
A366
330
A26C
100
AcDbEntity
  8
1
  6
Continuous
100
AcDbLine
 10
317.4033759999999
 20
234.2334899999999
 30
0.0
 11
317.4033759999999
 21
231.9334899999998
 31
0.0
  0
LINE
  5
A367
330
A26C
100
AcDbEntity
  8
1
  6
Continuous
100
AcDbLine
 10
313.9533759999999
 20
228.1584899999999
 30
0.0
 11
313.453376
 21
228.9584899999999
 31
0.0
  0
LINE
  5
A368
330
A26C
100
AcDbEntity
  8
1
  6
Continuous
100
AcDbLine
 10
312.8200059999999
 20
226.65849
 30
0.0
 11
313.4033759999999
 21
226.5751209999999
 31
0.0
  0
LINE
  5
A369
330
A26C
100
AcDbEntity
  8
1
  6
Continuous
100
AcDbLine
 10
313.4033759999999
 20
225.9060729999999
 30
0.0
 11
313.030793
 21
225.53349
 31
0.0
  0
LINE
  5
A36A
330
A26C
100
AcDbEntity
  8
1
  6
Continuous
100
AcDbLine
 10
313.4033759999999
 20
226.65849
 30
0.0
 11
313.4033759999999
 21
225.53349
 31
0.0
  0
LINE
  5
A36B
330
A26C
100
AcDbEntity
  8
1
  6
Continuous
100
AcDbLine
 10
313.0533759999999
 20
226.65849
 30
0.0
 11
313.9533759999999
 21
228.1584899999999
 31
0.0
  0
ARC
  5
A36C
330
A26C
100
AcDbEntity
  8
1
  6
Continuous
100
AcDbCircle
 10
313.195573
 20
233.33349
 30
0.0
 40
3.5
100
AcDbArc
 50
270.0
 51
336.421822
  0
LINE
  5
A36D
330
A26C
100
AcDbEntity
  8
4
  6
CENTER
100
AcDbLine
 10
161.6692469999998
 20
239.2334899999999
 30
0.0
 11
161.6692469999998
 21
226.93349
 31
0.0
  0
LINE
  5
A36E
330
A26C
100
AcDbEntity
  8
4
  6
CENTER
100
AcDbLine
 10
215.669247
 20
239.2334899999999
 30
0.0
 11
215.669247
 21
226.93349
 31
0.0
  0
LINE
  5
A36F
330
A26C
100
AcDbEntity
  8
4
  6
CENTER
100
AcDbLine
 10
272.4033759999999
 20
239.2334899999999
 30
0.0
 11
272.4033759999999
 21
226.93349
 31
0.0
  0
LINE
  5
A370
330
A26C
100
AcDbEntity
  8
4
  6
CENTER
100
AcDbLine
 10
308.403376
 20
239.2334899999999
 30
0.0
 11
308.403376
 21
226.93349
 31
0.0
  0
LINE
  5
A371
330
A26C
100
AcDbEntity
  8
1
  6
Continuous
100
AcDbLine
 10
273.8948759999999
 20
167.2334899999999
 30
0.0
 11
271.5948759999998
 21
167.2334899999999
 31
0.0
  0
LINE
  5
A372
330
A26C
100
AcDbEntity
  8
1
  6
Continuous
100
AcDbLine
 10
271.5948759999998
 20
167.2334899999999
 30
0.0
 11
271.5948759999998
 21
167.6249589999999
 31
0.0
  0
LINE
  5
A373
330
A26C
100
AcDbEntity
  8
4
  6
CENTER
100
AcDbLine
 10
59.204661
 20
239.2335349999999
 30
0.0
 11
59.204661
 21
136.2335349999999
 31
0.0
  0
LINE
  5
A374
330
A26C
100
AcDbEntity
  8
1
  6
Continuous
100
AcDbLine
 10
78.01316099999998
 20
218.9335349999999
 30
0.0
 11
78.01316099999998
 21
167.2335349999999
 31
0.0
  0
LINE
  5
A375
330
A26C
100
AcDbEntity
  8
1
  6
Continuous
100
AcDbLine
 10
40.39616099999999
 20
218.9335349999999
 30
0.0
 11
40.39616099999999
 21
167.2335349999999
 31
0.0
  0
LINE
  5
A376
330
A26C
100
AcDbEntity
  8
1
  6
Continuous
100
AcDbLine
 10
75.713161
 20
218.9335349999999
 30
0.0
 11
75.713161
 21
167.2335349999999
 31
0.0
  0
LINE
  5
A377
330
A26C
100
AcDbEntity
  8
1
  6
Continuous
100
AcDbLine
 10
42.69616099999999
 20
218.9335349999999
 30
0.0
 11
42.69616099999999
 21
167.2335349999999
 31
0.0
  0
LINE
  5
A378
330
A26C
100
AcDbEntity
  8
4
  6
CENTER
100
AcDbLine
 10
30.39616099999999
 20
178.733535
 30
0.0
 11
85.51291999999998
 21
178.733535
 31
0.0
  0
LINE
  5
A379
330
A26C
100
AcDbEntity
  8
1
  6
Continuous
100
AcDbLine
 10
40.39616099999999
 20
167.2335349999999
 30
0.0
 11
42.69616099999999
 21
167.2335349999999
 31
0.0
  0
LINE
  5
A37A
330
A26C
100
AcDbEntity
  8
1
  6
Continuous
100
AcDbLine
 10
42.69616099999999
 20
174.7335349999999
 30
0.0
 11
44.704661
 21
174.7335349999999
 31
0.0
  0
ARC
  5
A37B
330
A26C
100
AcDbEntity
  8
1
  6
Continuous
100
AcDbCircle
 10
79.454661
 20
192.4980859999998
 30
0.0
 40
45.0
100
AcDbArc
 50
180.0
 51
198.1290549999999
  0
LINE
  5
A37C
330
A26C
100
AcDbEntity
  8
1
  6
Continuous
100
AcDbLine
 10
42.69616099999999
 20
182.733535
 30
0.0
 11
44.704661
 21
182.733535
 31
0.0
  0
ARC
  5
A37D
330
A26C
100
AcDbEntity
  8
1
  6
Continuous
100
AcDbCircle
 10
38.954661
 20
192.4980859999998
 30
0.0
 40
45.0
100
AcDbArc
 50
330.223206
 51
0.0
  0
LINE
  5
A37E
330
A26C
100
AcDbEntity
  8
1
  6
Continuous
100
AcDbLine
 10
75.713161
 20
167.2335349999999
 30
0.0
 11
78.01316099999998
 21
167.2335349999999
 31
0.0
  0
LINE
  5
A37F
330
A26C
100
AcDbEntity
  8
1
  6
Continuous
100
AcDbLine
 10
73.704661
 20
174.7335349999999
 30
0.0
 11
75.713161
 21
174.7335349999999
 31
0.0
  0
LINE
  5
A380
330
A26C
100
AcDbEntity
  8
1
  6
Continuous
100
AcDbLine
 10
73.704661
 20
182.733535
 30
0.0
 11
75.713161
 21
182.733535
 31
0.0
  0
LINE
  5
A381
330
A26C
100
AcDbEntity
  8
1
  6
Continuous
100
AcDbLine
 10
61.070588
 20
219.471035
 30
0.0
 11
62.243874
 21
220.9334899999999
 31
0.0
  0
LINE
  5
A382
330
A26C
100
AcDbEntity
  8
1
  6
Continuous
100
AcDbLine
 10
62.454661
 20
225.53349
 30
0.0
 11
60.618875
 21
226.658535
 31
0.0
  0
LINE
  5
A383
330
A26C
100
AcDbEntity
  8
1
  6
Continuous
100
AcDbLine
 10
62.033088
 20
225.53349
 30
0.0
 11
63.447302
 21
226.658535
 31
0.0
  0
LINE
  5
A384
330
A26C
100
AcDbEntity
  8
1
  6
Continuous
100
AcDbLine
 10
60.61887399999999
 20
225.53349
 30
0.0
 11
62.033088
 21
226.658535
 31
0.0
  0
LINE
  5
A385
330
A26C
100
AcDbEntity
  8
1
  6
Continuous
100
AcDbLine
 10
42.69616099999999
 20
217.971035
 30
0.0
 11
75.713161
 21
217.971035
 31
0.0
  0
LINE
  5
A386
330
A26C
100
AcDbEntity
  8
1
  6
Continuous
100
AcDbLine
 10
36.41246399999999
 20
229.833535
 30
0.0
 11
81.99685800000002
 21
229.833535
 31
0.0
  0
LINE
  5
A387
330
A26C
100
AcDbEntity
  8
1
  6
Continuous
100
AcDbLine
 10
36.15466099999999
 20
228.958535
 30
0.0
 11
82.254661
 21
228.958535
 31
0.0
  0
LINE
  5
A388
330
A26C
100
AcDbEntity
  8
1
  6
Continuous
100
AcDbLine
 10
36.204661
 20
226.658535
 30
0.0
 11
82.20466100000001
 21
226.658535
 31
0.0
  0
LINE
  5
A389
330
A26C
100
AcDbEntity
  8
1
  6
Continuous
100
AcDbLine
 10
32.204661
 20
234.2335349999999
 30
0.0
 11
86.20466099999999
 21
234.2335349999999
 31
0.0
  0
LINE
  5
A38A
330
A26C
100
AcDbEntity
  8
1
  6
Continuous
100
AcDbLine
 10
32.204661
 20
231.933535
 30
0.0
 11
86.20466099999999
 21
231.933535
 31
0.0
  0
LINE
  5
A38B
330
A26C
100
AcDbEntity
  8
1
  6
Continuous
100
AcDbLine
 10
36.415447
 20
225.53349
 30
0.0
 11
82.415447
 21
225.53349
 31
0.0
  0
LINE
  5
A38C
330
A26C
100
AcDbEntity
  8
1
  6
Continuous
100
AcDbLine
 10
42.924457
 20
219.471035
 30
0.0
 11
75.570701
 21
219.471035
 31
0.0
  0
LINE
  5
A38D
330
A26C
100
AcDbEntity
  8
1
  6
Continuous
100
AcDbLine
 10
45.01544699999999
 20
220.9334899999999
 30
0.0
 11
73.81544699999998
 21
220.9334899999999
 31
0.0
  0
LINE
  5
A38E
330
A26C
100
AcDbEntity
  8
1
  6
Continuous
100
AcDbLine
 10
45.01544699999999
 20
223.23349
 30
0.0
 11
73.81544699999998
 21
223.23349
 31
0.0
  0
ARC
  5
A38F
330
A26C
100
AcDbEntity
  8
1
  6
Continuous
100
AcDbCircle
 10
45.374331
 20
218.21681
 30
0.0
 40
5.029499999999998
100
AcDbArc
 50
94.09185900000002
 51
171.807218
  0
LINE
  5
A390
330
A26C
100
AcDbEntity
  8
1
  6
Continuous
100
AcDbLine
 10
44.790304
 20
220.916498
 30
0.0
 11
45.52502599999999
 21
219.471035
 31
0.0
  0
ARC
  5
A391
330
A26C
100
AcDbEntity
  8
1
  6
Continuous
100
AcDbCircle
 10
48.298161
 20
223.1601569999999
 30
0.0
 40
7.487396
100
AcDbArc
 50
233.119947
 51
265.563802
  0
LINE
  5
A392
330
A26C
100
AcDbEntity
  8
1
  6
Continuous
100
AcDbLine
 10
43.668711
 20
219.9131359999999
 30
0.0
 11
44.110812
 21
219.471035
 31
0.0
  0
LINE
  5
A393
330
A26C
100
AcDbEntity
  8
1
  6
Continuous
100
AcDbLine
 10
44.749558
 20
220.909737
 30
0.0
 11
42.991526
 21
219.471035
 31
0.0
  0
LINE
  5
A394
330
A26C
100
AcDbEntity
  8
1
  6
Continuous
100
AcDbLine
 10
42.69616099999999
 20
217.971035
 30
0.0
 11
43.80466099999998
 21
217.171035
 31
0.0
  0
LINE
  5
A395
330
A26C
100
AcDbEntity
  8
1
  6
Continuous
100
AcDbLine
 10
43.904661
 20
219.471035
 30
0.0
 11
42.69616099999999
 21
217.971035
 31
0.0
  0
ARC
  5
A396
330
A26C
100
AcDbEntity
  8
1
  6
Continuous
100
AcDbCircle
 10
45.45498099999998
 20
218.0789959999999
 30
0.0
 40
2.888134999999998
100
AcDbArc
 50
98.75362899999997
 51
162.789725
  0
LINE
  5
A397
330
A26C
100
AcDbEntity
  8
1
  6
Continuous
100
AcDbLine
 10
54.510307
 20
219.471035
 30
0.0
 11
53.75859300000001
 21
220.9334899999999
 31
0.0
  0
LINE
  5
A398
330
A26C
100
AcDbEntity
  8
1
  6
Continuous
100
AcDbLine
 10
50.267666
 20
219.471035
 30
0.0
 11
49.51595199999999
 21
220.9334899999999
 31
0.0
  0
LINE
  5
A399
330
A26C
100
AcDbEntity
  8
1
  6
Continuous
100
AcDbLine
 10
47.439239
 20
219.471035
 30
0.0
 11
46.687525
 21
220.9334899999999
 31
0.0
  0
LINE
  5
A39A
330
A26C
100
AcDbEntity
  8
1
  6
Continuous
100
AcDbLine
 10
48.853453
 20
219.471035
 30
0.0
 11
48.101739
 21
220.9334899999999
 31
0.0
  0
LINE
  5
A39B
330
A26C
100
AcDbEntity
  8
1
  6
Continuous
100
AcDbLine
 10
45.014239
 20
219.471035
 30
0.0
 11
46.687525
 21
220.9334899999999
 31
0.0
  0
LINE
  5
A39C
330
A26C
100
AcDbEntity
  8
1
  6
Continuous
100
AcDbLine
 10
46.928453
 20
219.471035
 30
0.0
 11
48.101739
 21
220.9334899999999
 31
0.0
  0
LINE
  5
A39D
330
A26C
100
AcDbEntity
  8
1
  6
Continuous
100
AcDbLine
 10
48.34266599999999
 20
219.471035
 30
0.0
 11
49.51595199999999
 21
220.9334899999999
 31
0.0
  0
LINE
  5
A39E
330
A26C
100
AcDbEntity
  8
1
  6
Continuous
100
AcDbLine
 10
51.68188
 20
219.471035
 30
0.0
 11
50.930166
 21
220.9334899999999
 31
0.0
  0
LINE
  5
A39F
330
A26C
100
AcDbEntity
  8
1
  6
Continuous
100
AcDbLine
 10
53.09609399999999
 20
219.471035
 30
0.0
 11
52.34438
 21
220.9334899999999
 31
0.0
  0
LINE
  5
A3A0
330
A26C
100
AcDbEntity
  8
1
  6
Continuous
100
AcDbLine
 10
49.75687999999999
 20
219.471035
 30
0.0
 11
50.930166
 21
220.9334899999999
 31
0.0
  0
LINE
  5
A3A1
330
A26C
100
AcDbEntity
  8
1
  6
Continuous
100
AcDbLine
 10
51.171094
 20
219.471035
 30
0.0
 11
52.34438
 21
220.9334899999999
 31
0.0
  0
LINE
  5
A3A2
330
A26C
100
AcDbEntity
  8
1
  6
Continuous
100
AcDbLine
 10
52.58530699999999
 20
219.471035
 30
0.0
 11
53.75859300000001
 21
220.9334899999999
 31
0.0
  0
LINE
  5
A3A3
330
A26C
100
AcDbEntity
  8
1
  6
Continuous
100
AcDbLine
 10
56.82794799999999
 20
219.471035
 30
0.0
 11
58.001234
 21
220.9334899999999
 31
0.0
  0
LINE
  5
A3A4
330
A26C
100
AcDbEntity
  8
1
  6
Continuous
100
AcDbLine
 10
55.924521
 20
219.471035
 30
0.0
 11
55.17280699999999
 21
220.9334899999999
 31
0.0
  0
LINE
  5
A3A5
330
A26C
100
AcDbEntity
  8
1
  6
Continuous
100
AcDbLine
 10
57.338734
 20
219.471035
 30
0.0
 11
56.58701999999999
 21
220.9334899999999
 31
0.0
  0
LINE
  5
A3A6
330
A26C
100
AcDbEntity
  8
1
  6
Continuous
100
AcDbLine
 10
53.999521
 20
219.471035
 30
0.0
 11
55.17280699999999
 21
220.9334899999999
 31
0.0
  0
LINE
  5
A3A7
330
A26C
100
AcDbEntity
  8
1
  6
Continuous
100
AcDbLine
 10
55.413734
 20
219.471035
 30
0.0
 11
56.58701999999999
 21
220.9334899999999
 31
0.0
  0
LINE
  5
A3A8
330
A26C
100
AcDbEntity
  8
1
  6
Continuous
100
AcDbLine
 10
61.581375
 20
219.471035
 30
0.0
 11
60.829661
 21
220.9334899999999
 31
0.0
  0
LINE
  5
A3A9
330
A26C
100
AcDbEntity
  8
1
  6
Continuous
100
AcDbLine
 10
58.75294799999998
 20
219.471035
 30
0.0
 11
58.001234
 21
220.9334899999999
 31
0.0
  0
LINE
  5
A3AA
330
A26C
100
AcDbEntity
  8
1
  6
Continuous
100
AcDbLine
 10
60.167161
 20
219.471035
 30
0.0
 11
59.415447
 21
220.9334899999999
 31
0.0
  0
LINE
  5
A3AB
330
A26C
100
AcDbEntity
  8
1
  6
Continuous
100
AcDbLine
 10
59.65637499999999
 20
219.471035
 30
0.0
 11
60.829661
 21
220.9334899999999
 31
0.0
  0
LINE
  5
A3AC
330
A26C
100
AcDbEntity
  8
1
  6
Continuous
100
AcDbLine
 10
58.24216100000001
 20
219.471035
 30
0.0
 11
59.415447
 21
220.9334899999999
 31
0.0
  0
LINE
  5
A3AD
330
A26C
100
AcDbEntity
  8
1
  6
Continuous
100
AcDbLine
 10
46.89831199999999
 20
225.53349
 30
0.0
 11
45.06252599999998
 21
226.658535
 31
0.0
  0
LINE
  5
A3AE
330
A26C
100
AcDbEntity
  8
1
  6
Continuous
100
AcDbLine
 10
45.062525
 20
225.53349
 30
0.0
 11
46.476739
 21
226.658535
 31
0.0
  0
LINE
  5
A3AF
330
A26C
100
AcDbEntity
  8
1
  6
Continuous
100
AcDbLine
 10
38.41302999999999
 20
225.53349
 30
0.0
 11
36.577244
 21
226.658535
 31
0.0
  0
LINE
  5
A3B0
330
A26C
100
AcDbEntity
  8
1
  6
Continuous
100
AcDbLine
 10
36.577244
 20
225.53349
 30
0.0
 11
37.991458
 21
226.658535
 31
0.0
  0
ARC
  5
A3B1
330
A26C
100
AcDbEntity
  8
1
  6
Continuous
100
AcDbCircle
 10
42.454661
 20
224.484035
 30
0.0
 40
6.974499999999999
100
AcDbArc
 50
129.9139999999999
 51
140.0924019999999
  0
LINE
  5
A3B2
330
A26C
100
AcDbEntity
  8
1
  6
Continuous
100
AcDbLine
 10
35.654661
 20
228.1585349999998
 30
0.0
 11
36.15466099999999
 21
228.958535
 31
0.0
  0
LINE
  5
A3B3
330
A26C
100
AcDbEntity
  8
1
  6
Continuous
100
AcDbLine
 10
36.415447
 20
226.1168599999999
 30
0.0
 11
36.99881699999997
 21
225.53349
 31
0.0
  0
LINE
  5
A3B4
330
A26C
100
AcDbEntity
  8
1
  6
Continuous
100
AcDbLine
 10
36.263453
 20
226.3447439999999
 30
0.0
 11
36.577244
 21
226.658535
 31
0.0
  0
LINE
  5
A3B5
330
A26C
100
AcDbEntity
  8
1
  6
Continuous
100
AcDbLine
 10
36.204661
 20
226.658535
 30
0.0
 11
36.415447
 21
225.53349
 31
0.0
  0
LINE
  5
A3B6
330
A26C
100
AcDbEntity
  8
1
  6
Continuous
100
AcDbLine
 10
36.55466099999999
 20
226.658535
 30
0.0
 11
35.654661
 21
228.1585349999998
 31
0.0
  0
ARC
  5
A3B7
330
A26C
100
AcDbEntity
  8
1
  6
Continuous
100
AcDbCircle
 10
36.41246399999999
 20
233.333535
 30
0.0
 40
3.5
100
AcDbArc
 50
203.578178
 51
270.0
  0
LINE
  5
A3B8
330
A26C
100
AcDbEntity
  8
1
  6
Continuous
100
AcDbLine
 10
32.204661
 20
234.2335349999999
 30
0.0
 11
32.204661
 21
231.933535
 31
0.0
  0
LINE
  5
A3B9
330
A26C
100
AcDbEntity
  8
1
  6
Continuous
100
AcDbLine
 10
42.65567100000001
 20
225.53349
 30
0.0
 11
40.819885
 21
226.658535
 31
0.0
  0
LINE
  5
A3BA
330
A26C
100
AcDbEntity
  8
1
  6
Continuous
100
AcDbLine
 10
40.819885
 20
225.53349
 30
0.0
 11
42.234099
 21
226.658535
 31
0.0
  0
LINE
  5
A3BB
330
A26C
100
AcDbEntity
  8
1
  6
Continuous
100
AcDbLine
 10
39.827244
 20
225.53349
 30
0.0
 11
37.991458
 21
226.658535
 31
0.0
  0
LINE
  5
A3BC
330
A26C
100
AcDbEntity
  8
1
  6
Continuous
100
AcDbLine
 10
41.24145699999998
 20
225.53349
 30
0.0
 11
39.40567099999999
 21
226.658535
 31
0.0
  0
LINE
  5
A3BD
330
A26C
100
AcDbEntity
  8
1
  6
Continuous
100
AcDbLine
 10
37.99145699999999
 20
225.53349
 30
0.0
 11
39.40567099999999
 21
226.658535
 31
0.0
  0
LINE
  5
A3BE
330
A26C
100
AcDbEntity
  8
1
  6
Continuous
100
AcDbLine
 10
39.40567099999999
 20
225.53349
 30
0.0
 11
40.819885
 21
226.658535
 31
0.0
  0
LINE
  5
A3BF
330
A26C
100
AcDbEntity
  8
1
  6
Continuous
100
AcDbLine
 10
44.06988499999999
 20
225.53349
 30
0.0
 11
42.234099
 21
226.658535
 31
0.0
  0
LINE
  5
A3C0
330
A26C
100
AcDbEntity
  8
1
  6
Continuous
100
AcDbLine
 10
45.48409799999999
 20
225.53349
 30
0.0
 11
43.648312
 21
226.658535
 31
0.0
  0
LINE
  5
A3C1
330
A26C
100
AcDbEntity
  8
1
  6
Continuous
100
AcDbLine
 10
42.23409799999997
 20
225.53349
 30
0.0
 11
43.648312
 21
226.658535
 31
0.0
  0
LINE
  5
A3C2
330
A26C
100
AcDbEntity
  8
1
  6
Continuous
100
AcDbLine
 10
43.648312
 20
225.53349
 30
0.0
 11
45.06252599999998
 21
226.658535
 31
0.0
  0
LINE
  5
A3C3
330
A26C
100
AcDbEntity
  8
1
  6
Continuous
100
AcDbLine
 10
53.96938000000001
 20
225.53349
 30
0.0
 11
52.133594
 21
226.658535
 31
0.0
  0
LINE
  5
A3C4
330
A26C
100
AcDbEntity
  8
1
  6
Continuous
100
AcDbLine
 10
55.38359299999999
 20
225.53349
 30
0.0
 11
53.54780699999999
 21
226.658535
 31
0.0
  0
LINE
  5
A3C5
330
A26C
100
AcDbEntity
  8
1
  6
Continuous
100
AcDbLine
 10
53.54780699999999
 20
225.53349
 30
0.0
 11
54.96202099999999
 21
226.658535
 31
0.0
  0
LINE
  5
A3C6
330
A26C
100
AcDbEntity
  8
1
  6
Continuous
100
AcDbLine
 10
51.140952
 20
225.53349
 30
0.0
 11
49.305166
 21
226.658535
 31
0.0
  0
LINE
  5
A3C7
330
A26C
100
AcDbEntity
  8
1
  6
Continuous
100
AcDbLine
 10
49.305166
 20
225.53349
 30
0.0
 11
50.71938
 21
226.658535
 31
0.0
  0
LINE
  5
A3C8
330
A26C
100
AcDbEntity
  8
1
  6
Continuous
100
AcDbLine
 10
48.312525
 20
225.53349
 30
0.0
 11
46.476739
 21
226.658535
 31
0.0
  0
LINE
  5
A3C9
330
A26C
100
AcDbEntity
  8
1
  6
Continuous
100
AcDbLine
 10
49.726739
 20
225.53349
 30
0.0
 11
47.890953
 21
226.658535
 31
0.0
  0
LINE
  5
A3CA
330
A26C
100
AcDbEntity
  8
1
  6
Continuous
100
AcDbLine
 10
46.476739
 20
225.53349
 30
0.0
 11
47.890953
 21
226.658535
 31
0.0
  0
LINE
  5
A3CB
330
A26C
100
AcDbEntity
  8
1
  6
Continuous
100
AcDbLine
 10
47.890952
 20
225.53349
 30
0.0
 11
49.305166
 21
226.658535
 31
0.0
  0
LINE
  5
A3CC
330
A26C
100
AcDbEntity
  8
1
  6
Continuous
100
AcDbLine
 10
52.55516599999999
 20
225.53349
 30
0.0
 11
50.71938
 21
226.658535
 31
0.0
  0
LINE
  5
A3CD
330
A26C
100
AcDbEntity
  8
1
  6
Continuous
100
AcDbLine
 10
50.71938
 20
225.53349
 30
0.0
 11
52.133594
 21
226.658535
 31
0.0
  0
LINE
  5
A3CE
330
A26C
100
AcDbEntity
  8
1
  6
Continuous
100
AcDbLine
 10
52.133593
 20
225.53349
 30
0.0
 11
53.54780699999999
 21
226.658535
 31
0.0
  0
LINE
  5
A3CF
330
A26C
100
AcDbEntity
  8
1
  6
Continuous
100
AcDbLine
 10
58.21201999999999
 20
225.53349
 30
0.0
 11
56.37623399999998
 21
226.658535
 31
0.0
  0
LINE
  5
A3D0
330
A26C
100
AcDbEntity
  8
1
  6
Continuous
100
AcDbLine
 10
56.37623399999998
 20
225.53349
 30
0.0
 11
57.790448
 21
226.658535
 31
0.0
  0
LINE
  5
A3D1
330
A26C
100
AcDbEntity
  8
1
  6
Continuous
100
AcDbLine
 10
57.790447
 20
225.53349
 30
0.0
 11
59.204661
 21
226.658535
 31
0.0
  0
LINE
  5
A3D2
330
A26C
100
AcDbEntity
  8
1
  6
Continuous
100
AcDbLine
 10
56.79780699999999
 20
225.53349
 30
0.0
 11
54.96202099999999
 21
226.658535
 31
0.0
  0
LINE
  5
A3D3
330
A26C
100
AcDbEntity
  8
1
  6
Continuous
100
AcDbLine
 10
54.96202
 20
225.53349
 30
0.0
 11
56.37623399999998
 21
226.658535
 31
0.0
  0
LINE
  5
A3D4
330
A26C
100
AcDbEntity
  8
1
  6
Continuous
100
AcDbLine
 10
59.626234
 20
225.53349
 30
0.0
 11
57.790448
 21
226.658535
 31
0.0
  0
LINE
  5
A3D5
330
A26C
100
AcDbEntity
  8
1
  6
Continuous
100
AcDbLine
 10
61.040447
 20
225.53349
 30
0.0
 11
59.204661
 21
226.658535
 31
0.0
  0
LINE
  5
A3D6
330
A26C
100
AcDbEntity
  8
1
  6
Continuous
100
AcDbLine
 10
59.204661
 20
225.53349
 30
0.0
 11
60.618875
 21
226.658535
 31
0.0
  0
ARC
  5
A3D7
330
A26C
100
AcDbEntity
  8
1
  6
Continuous
100
AcDbCircle
 10
73.410515
 20
218.6392559999999
 30
0.0
 40
4.612044999999998
100
AcDbArc
 50
3.658345999999998
 51
84.96300599999997
  0
LINE
  5
A3D8
330
A26C
100
AcDbEntity
  8
1
  6
Continuous
100
AcDbLine
 10
69.55587
 20
219.471035
 30
0.0
 11
71.229156
 21
220.9334899999999
 31
0.0
  0
LINE
  5
A3D9
330
A26C
100
AcDbEntity
  8
1
  6
Continuous
100
AcDbLine
 10
65.31322900000001
 20
219.471035
 30
0.0
 11
66.48651499999998
 21
220.9334899999999
 31
0.0
  0
LINE
  5
A3DA
330
A26C
100
AcDbEntity
  8
1
  6
Continuous
100
AcDbLine
 10
65.824016
 20
219.471035
 30
0.0
 11
65.07230200000001
 21
220.9334899999999
 31
0.0
  0
LINE
  5
A3DB
330
A26C
100
AcDbEntity
  8
1
  6
Continuous
100
AcDbLine
 10
64.409802
 20
219.471035
 30
0.0
 11
63.65808799999999
 21
220.9334899999999
 31
0.0
  0
LINE
  5
A3DC
330
A26C
100
AcDbEntity
  8
1
  6
Continuous
100
AcDbLine
 10
62.99558799999999
 20
219.471035
 30
0.0
 11
62.243874
 21
220.9334899999999
 31
0.0
  0
LINE
  5
A3DD
330
A26C
100
AcDbEntity
  8
1
  6
Continuous
100
AcDbLine
 10
63.899016
 20
219.471035
 30
0.0
 11
65.07230200000001
 21
220.9334899999999
 31
0.0
  0
LINE
  5
A3DE
330
A26C
100
AcDbEntity
  8
1
  6
Continuous
100
AcDbLine
 10
62.484802
 20
219.471035
 30
0.0
 11
63.65808799999999
 21
220.9334899999999
 31
0.0
  0
LINE
  5
A3DF
330
A26C
100
AcDbEntity
  8
1
  6
Continuous
100
AcDbLine
 10
70.56665600000002
 20
219.471035
 30
0.0
 11
69.314942
 21
220.9334899999999
 31
0.0
  0
LINE
  5
A3E0
330
A26C
100
AcDbEntity
  8
1
  6
Continuous
100
AcDbLine
 10
68.652443
 20
219.471035
 30
0.0
 11
67.900729
 21
220.9334899999999
 31
0.0
  0
LINE
  5
A3E1
330
A26C
100
AcDbEntity
  8
1
  6
Continuous
100
AcDbLine
 10
67.238229
 20
219.471035
 30
0.0
 11
66.48651499999998
 21
220.9334899999999
 31
0.0
  0
LINE
  5
A3E2
330
A26C
100
AcDbEntity
  8
1
  6
Continuous
100
AcDbLine
 10
68.14165600000001
 20
219.471035
 30
0.0
 11
69.314942
 21
220.9334899999999
 31
0.0
  0
LINE
  5
A3E3
330
A26C
100
AcDbEntity
  8
1
  6
Continuous
100
AcDbLine
 10
66.72744300000001
 20
219.471035
 30
0.0
 11
67.900729
 21
220.9334899999999
 31
0.0
  0
ARC
  5
A3E4
330
A26C
100
AcDbEntity
  8
1
  6
Continuous
100
AcDbCircle
 10
70.601229
 20
223.52157
 30
0.0
 40
7.848514999999999
100
AcDbArc
 50
270.9161379999998
 51
305.988185
  0
LINE
  5
A3E5
330
A26C
100
AcDbEntity
  8
1
  6
Continuous
100
AcDbLine
 10
75.41779699999998
 20
219.471035
 30
0.0
 11
74.14171500000001
 21
220.84474
 31
0.0
  0
LINE
  5
A3E6
330
A26C
100
AcDbEntity
  8
1
  6
Continuous
100
AcDbLine
 10
74.298511
 20
219.471035
 30
0.0
 11
75.34200799999998
 21
219.910147
 31
0.0
  0
LINE
  5
A3E7
330
A26C
100
AcDbEntity
  8
1
  6
Continuous
100
AcDbLine
 10
75.713161
 20
217.971035
 30
0.0
 11
75.21316099999999
 21
217.171035
 31
0.0
  0
LINE
  5
A3E8
330
A26C
100
AcDbEntity
  8
1
  6
Continuous
100
AcDbLine
 10
74.50466099999998
 20
219.471035
 30
0.0
 11
75.713161
 21
217.971035
 31
0.0
  0
ARC
  5
A3E9
330
A26C
100
AcDbEntity
  8
1
  6
Continuous
100
AcDbCircle
 10
73.35485
 20
218.596111
 30
0.0
 40
2.382327999999998
100
AcDbArc
 50
8.142542999999998
 51
78.852283
  0
LINE
  5
A3EA
330
A26C
100
AcDbEntity
  8
1
  6
Continuous
100
AcDbLine
 10
73.395083
 20
219.471035
 30
0.0
 11
72.64336899999998
 21
220.9334899999999
 31
0.0
  0
LINE
  5
A3EB
330
A26C
100
AcDbEntity
  8
1
  6
Continuous
100
AcDbLine
 10
71.98087
 20
219.471035
 30
0.0
 11
71.229156
 21
220.9334899999999
 31
0.0
  0
LINE
  5
A3EC
330
A26C
100
AcDbEntity
  8
1
  6
Continuous
100
AcDbLine
 10
72.884297
 20
219.471035
 30
0.0
 11
74.015416
 21
220.8850279999999
 31
0.0
  0
LINE
  5
A3ED
330
A26C
100
AcDbEntity
  8
1
  6
Continuous
100
AcDbLine
 10
71.470083
 20
219.471035
 30
0.0
 11
72.64336899999998
 21
220.9334899999999
 31
0.0
  0
LINE
  5
A3EE
330
A26C
100
AcDbEntity
  8
1
  6
Continuous
100
AcDbLine
 10
79.425224
 20
225.53349
 30
0.0
 11
77.589438
 21
226.658535
 31
0.0
  0
LINE
  5
A3EF
330
A26C
100
AcDbEntity
  8
1
  6
Continuous
100
AcDbLine
 10
77.589437
 20
225.53349
 30
0.0
 11
79.00365100000001
 21
226.658535
 31
0.0
  0
LINE
  5
A3F0
330
A26C
100
AcDbEntity
  8
1
  6
Continuous
100
AcDbLine
 10
70.939942
 20
225.53349
 30
0.0
 11
69.104156
 21
226.658535
 31
0.0
  0
LINE
  5
A3F1
330
A26C
100
AcDbEntity
  8
1
  6
Continuous
100
AcDbLine
 10
69.104156
 20
225.53349
 30
0.0
 11
70.51836999999998
 21
226.658535
 31
0.0
  0
LINE
  5
A3F2
330
A26C
100
AcDbEntity
  8
1
  6
Continuous
100
AcDbLine
 10
66.697302
 20
225.53349
 30
0.0
 11
64.86151600000001
 21
226.658535
 31
0.0
  0
LINE
  5
A3F3
330
A26C
100
AcDbEntity
  8
1
  6
Continuous
100
AcDbLine
 10
64.861515
 20
225.53349
 30
0.0
 11
66.275729
 21
226.658535
 31
0.0
  0
LINE
  5
A3F4
330
A26C
100
AcDbEntity
  8
1
  6
Continuous
100
AcDbLine
 10
65.28308800000001
 20
225.53349
 30
0.0
 11
63.447302
 21
226.658535
 31
0.0
  0
LINE
  5
A3F5
330
A26C
100
AcDbEntity
  8
1
  6
Continuous
100
AcDbLine
 10
63.86887399999999
 20
225.53349
 30
0.0
 11
62.033088
 21
226.658535
 31
0.0
  0
LINE
  5
A3F6
330
A26C
100
AcDbEntity
  8
1
  6
Continuous
100
AcDbLine
 10
63.447302
 20
225.53349
 30
0.0
 11
64.86151600000001
 21
226.658535
 31
0.0
  0
LINE
  5
A3F7
330
A26C
100
AcDbEntity
  8
1
  6
Continuous
100
AcDbLine
 10
69.52572899999998
 20
225.53349
 30
0.0
 11
67.689943
 21
226.658535
 31
0.0
  0
LINE
  5
A3F8
330
A26C
100
AcDbEntity
  8
1
  6
Continuous
100
AcDbLine
 10
68.111515
 20
225.53349
 30
0.0
 11
66.275729
 21
226.658535
 31
0.0
  0
LINE
  5
A3F9
330
A26C
100
AcDbEntity
  8
1
  6
Continuous
100
AcDbLine
 10
67.689942
 20
225.53349
 30
0.0
 11
69.104156
 21
226.658535
 31
0.0
  0
LINE
  5
A3FA
330
A26C
100
AcDbEntity
  8
1
  6
Continuous
100
AcDbLine
 10
66.275729
 20
225.53349
 30
0.0
 11
67.689943
 21
226.658535
 31
0.0
  0
LINE
  5
A3FB
330
A26C
100
AcDbEntity
  8
1
  6
Continuous
100
AcDbLine
 10
75.18258299999998
 20
225.53349
 30
0.0
 11
73.34679699999998
 21
226.658535
 31
0.0
  0
LINE
  5
A3FC
330
A26C
100
AcDbEntity
  8
1
  6
Continuous
100
AcDbLine
 10
73.34679699999998
 20
225.53349
 30
0.0
 11
74.76101099999998
 21
226.658535
 31
0.0
  0
LINE
  5
A3FD
330
A26C
100
AcDbEntity
  8
1
  6
Continuous
100
AcDbLine
 10
73.76836899999998
 20
225.53349
 30
0.0
 11
71.932583
 21
226.658535
 31
0.0
  0
LINE
  5
A3FE
330
A26C
100
AcDbEntity
  8
1
  6
Continuous
100
AcDbLine
 10
72.354156
 20
225.53349
 30
0.0
 11
70.51836999999998
 21
226.658535
 31
0.0
  0
LINE
  5
A3FF
330
A26C
100
AcDbEntity
  8
1
  6
Continuous
100
AcDbLine
 10
71.932583
 20
225.53349
 30
0.0
 11
73.34679699999998
 21
226.658535
 31
0.0
  0
LINE
  5
A400
330
A26C
100
AcDbEntity
  8
1
  6
Continuous
100
AcDbLine
 10
70.51836899999996
 20
225.53349
 30
0.0
 11
71.932583
 21
226.658535
 31
0.0
  0
LINE
  5
A401
330
A26C
100
AcDbEntity
  8
1
  6
Continuous
100
AcDbLine
 10
78.01101
 20
225.53349
 30
0.0
 11
76.175224
 21
226.658535
 31
0.0
  0
LINE
  5
A402
330
A26C
100
AcDbEntity
  8
1
  6
Continuous
100
AcDbLine
 10
76.59679699999998
 20
225.53349
 30
0.0
 11
74.76101099999998
 21
226.658535
 31
0.0
  0
LINE
  5
A403
330
A26C
100
AcDbEntity
  8
1
  6
Continuous
100
AcDbLine
 10
76.175224
 20
225.53349
 30
0.0
 11
77.589438
 21
226.658535
 31
0.0
  0
LINE
  5
A404
330
A26C
100
AcDbEntity
  8
1
  6
Continuous
100
AcDbLine
 10
74.76100999999998
 20
225.53349
 30
0.0
 11
76.175224
 21
226.658535
 31
0.0
  0
LINE
  5
A405
330
A26C
100
AcDbEntity
  8
1
  6
Continuous
100
AcDbLine
 10
82.754661
 20
228.1585349999998
 30
0.0
 11
82.254661
 21
228.958535
 31
0.0
  0
LINE
  5
A406
330
A26C
100
AcDbEntity
  8
1
  6
Continuous
100
AcDbLine
 10
81.85466099999997
 20
226.658535
 30
0.0
 11
82.754661
 21
228.1585349999998
 31
0.0
  0
LINE
  5
A407
330
A26C
100
AcDbEntity
  8
1
  6
Continuous
100
AcDbLine
 10
82.20466100000001
 20
226.285952
 30
0.0
 11
81.83207800000003
 21
226.658535
 31
0.0
  0
LINE
  5
A408
330
A26C
100
AcDbEntity
  8
1
  6
Continuous
100
AcDbLine
 10
82.25365100000002
 20
225.53349
 30
0.0
 11
80.417865
 21
226.658535
 31
0.0
  0
LINE
  5
A409
330
A26C
100
AcDbEntity
  8
1
  6
Continuous
100
AcDbLine
 10
80.839437
 20
225.53349
 30
0.0
 11
79.00365100000001
 21
226.658535
 31
0.0
  0
LINE
  5
A40A
330
A26C
100
AcDbEntity
  8
1
  6
Continuous
100
AcDbLine
 10
81.83207800000003
 20
225.53349
 30
0.0
 11
82.323395
 21
226.0248069999999
 31
0.0
  0
LINE
  5
A40B
330
A26C
100
AcDbEntity
  8
1
  6
Continuous
100
AcDbLine
 10
80.41786399999997
 20
225.53349
 30
0.0
 11
81.83207800000003
 21
226.658535
 31
0.0
  0
LINE
  5
A40C
330
A26C
100
AcDbEntity
  8
1
  6
Continuous
100
AcDbLine
 10
79.00365100000001
 20
225.53349
 30
0.0
 11
80.417865
 21
226.658535
 31
0.0
  0
LINE
  5
A40D
330
A26C
100
AcDbEntity
  8
1
  6
Continuous
100
AcDbLine
 10
82.20466100000001
 20
226.658535
 30
0.0
 11
82.415447
 21
225.53349
 31
0.0
  0
ARC
  5
A40E
330
A26C
100
AcDbEntity
  8
1
  6
Continuous
100
AcDbCircle
 10
81.99685800000002
 20
233.333535
 30
0.0
 40
3.5
100
AcDbArc
 50
270.0
 51
336.421822
  0
ARC
  5
A40F
330
A26C
100
AcDbEntity
  8
1
  6
Continuous
100
AcDbCircle
 10
75.954661
 20
224.484035
 30
0.0
 40
6.974499999999999
100
AcDbArc
 50
39.907598
 51
50.08600000000002
  0
LINE
  5
A410
330
A26C
100
AcDbEntity
  8
1
  6
Continuous
100
AcDbLine
 10
86.20466099999999
 20
234.2335349999999
 30
0.0
 11
86.20466099999999
 21
231.933535
 31
0.0
  0
LINE
  5
A411
330
A26C
100
AcDbEntity
  8
1
  6
Continuous
100
AcDbLine
 10
265.6533759999999
 20
222.1124899999999
 30
0.0
 11
265.6533759999999
 21
190.8813439999999
 31
0.0
  0
LINE
  5
A412
330
A26C
100
AcDbEntity
  8
1
  6
Continuous
100
AcDbLine
 10
315.1533759999999
 20
222.1124899999999
 30
0.0
 11
315.1533759999999
 21
194.3997019999999
 31
0.0
  0
ARC
  5
A413
330
A26C
100
AcDbEntity
  8
1
  6
Continuous
100
AcDbCircle
 10
311.732376
 20
222.1124899999999
 30
0.0
 40
3.420999999999998
100
AcDbArc
 50
0.0
 51
90.0
  0
ARC
  5
A414
330
A26C
100
AcDbEntity
  8
1
  6
Continuous
100
AcDbCircle
 10
269.0743759999999
 20
222.1124899999999
 30
0.0
 40
3.420999999999998
100
AcDbArc
 50
90.0
 51
180.0
  0
ARC
  5
A415
330
A26C
100
AcDbEntity
  8
1
  6
Continuous
100
AcDbCircle
 10
163.6692469999998
 20
177.7334899999999
 30
0.0
 40
10.5
100
AcDbArc
 50
170.99538
 51
328.8638009999999
  0
ARC
  5
A416
330
A26C
100
AcDbEntity
  8
1
  6
Continuous
100
AcDbCircle
 10
205.563346
 20
207.9334899999998
 30
0.0
 40
10.0
100
AcDbArc
 50
90.0
 51
148.863801
  0
LINE
  5
A417
330
A26C
100
AcDbEntity
  8
4
  6
CENTER
100
AcDbLine
 10
41.204661
 20
239.2335349999999
 30
0.0
 11
41.204661
 21
226.9335349999999
 31
0.0
  0
LINE
  5
A418
330
A26C
100
AcDbEntity
  8
4
  6
CENTER
100
AcDbLine
 10
77.204661
 20
239.2335349999999
 30
0.0
 11
77.204661
 21
226.9335349999999
 31
0.0
  0
CIRCLE
  5
A419
330
A26C
100
AcDbEntity
  8
1
  6
Continuous
100
AcDbCircle
 10
163.6692469999998
 20
178.7334899999999
 30
0.0
 40
5.0
  0
LINE
  5
A41A
330
A26C
100
AcDbEntity
  8
1
  6
Continuous
100
AcDbLine
 10
197.003941
 20
213.104232
 30
0.0
 11
172.6566229999999
 21
172.30421
 31
0.0
  0
LINE
  5
A41B
330
A26C
100
AcDbEntity
  8
1
  6
Continuous
100
AcDbLine
 10
159.9484809999999
 20
223.23349
 30
0.0
 11
153.2169749999999
 21
178.7334899999999
 31
0.0
  0
LINE
  5
A41C
330
A26C
100
AcDbEntity
  8
1
  6
Continuous
100
AcDbLine
 10
83.954661
 20
222.0714899999999
 30
0.0
 11
83.954661
 21
192.4980859999998
 31
0.0
  0
LINE
  5
A41D
330
A26C
100
AcDbEntity
  8
1
  6
Continuous
100
AcDbLine
 10
34.454661
 20
222.0714899999999
 30
0.0
 11
34.454661
 21
192.4980859999998
 31
0.0
  0
ARC
  5
A41E
330
A26C
100
AcDbEntity
  8
1
  6
Continuous
100
AcDbCircle
 10
37.916661
 20
222.0714899999999
 30
0.0
 40
3.461999999999998
100
AcDbArc
 50
90.0
 51
180.0
  0
ARC
  5
A41F
330
A26C
100
AcDbEntity
  8
1
  6
Continuous
100
AcDbCircle
 10
80.492661
 20
222.0714899999999
 30
0.0
 40
3.461999999999998
100
AcDbArc
 50
0.0
 51
90.0
  0
ARC
  5
A420
330
A26C
100
AcDbEntity
  8
1
  6
Continuous
100
AcDbCircle
 10
79.454661
 20
192.4980859999998
 30
0.0
 40
45.0
100
AcDbArc
 50
205.699848
 51
209.776794
  0
LINE
  5
A421
330
A26C
100
AcDbEntity
  8
4
  6
CENTER
100
AcDbLine
 10
188.6691719999998
 20
106.601209
 30
0.0
 11
188.6691719999998
 21
42.60120899999999
 31
0.0
  0
LINE
  5
A422
330
A26C
100
AcDbEntity
  8
1
  6
Continuous
100
AcDbLine
 10
216.669172
 20
47.60120899999999
 30
0.0
 11
160.669172
 21
47.60120899999999
 31
0.0
  0
LINE
  5
A423
330
A26C
100
AcDbEntity
  8
1
  6
Continuous
100
AcDbLine
 10
216.669172
 20
101.601209
 30
0.0
 11
160.669172
 21
101.601209
 31
0.0
  0
LINE
  5
A424
330
A26C
100
AcDbEntity
  8
4
  6
CENTER
100
AcDbLine
 10
167.919172
 20
92.601209
 30
0.0
 11
155.419172
 21
92.601209
 31
0.0
  0
LINE
  5
A425
330
A26C
100
AcDbEntity
  8
4
  6
CENTER
100
AcDbLine
 10
167.919172
 20
56.60120899999999
 30
0.0
 11
155.419172
 21
56.60120899999999
 31
0.0
  0
LINE
  5
A426
330
A26C
100
AcDbEntity
  8
4
  6
CENTER
100
AcDbLine
 10
228.9691719999999
 20
74.60120899999998
 30
0.0
 11
121.1692379999998
 21
74.60120899999998
 31
0.0
  0
LINE
  5
A427
330
A26C
100
AcDbEntity
  8
4
  6
CENTER
100
AcDbLine
 10
161.669172
 20
98.851209
 30
0.0
 11
161.669172
 21
86.35120899999998
 31
0.0
  0
LINE
  5
A428
330
A26C
100
AcDbEntity
  8
1
  6
Continuous
100
AcDbLine
 10
153.669172
 20
94.60120899999997
 30
0.0
 11
153.669172
 21
93.409709
 31
0.0
  0
LINE
  5
A429
330
A26C
100
AcDbEntity
  8
1
  6
Continuous
100
AcDbLine
 10
153.4691719999998
 20
93.409709
 30
0.0
 11
153.4691719999998
 21
91.10970899999999
 31
0.0
  0
ARC
  5
A42A
330
A26C
100
AcDbEntity
  8
1
  6
Continuous
100
AcDbCircle
 10
160.669172
 20
94.60120899999997
 30
0.0
 40
7.0
100
AcDbArc
 50
90.0
 51
180.0
  0
ARC
  5
A42B
330
A26C
100
AcDbEntity
  8
1
  6
Continuous
100
AcDbCircle
 10
161.669172
 20
92.601209
 30
0.0
 40
3.25
100
AcDbArc
 50
57.76495999999998
 51
144.3215129999998
  0
LINE
  5
A42C
330
A26C
100
AcDbEntity
  8
4
  6
CENTER
100
AcDbLine
 10
161.669172
 20
62.85120899999999
 30
0.0
 11
161.669172
 21
50.35120899999999
 31
0.0
  0
LINE
  5
A42D
330
A26C
100
AcDbEntity
  8
1
  6
Continuous
100
AcDbLine
 10
153.4691719999998
 20
58.092709
 30
0.0
 11
153.4691719999998
 21
55.792709
 31
0.0
  0
ARC
  5
A42E
330
A26C
100
AcDbEntity
  8
1
  6
Continuous
100
AcDbCircle
 10
160.669172
 20
54.60120899999999
 30
0.0
 40
7.0
100
AcDbArc
 50
180.0
 51
270.0
  0
ARC
  5
A42F
330
A26C
100
AcDbEntity
  8
1
  6
Continuous
100
AcDbCircle
 10
161.669172
 20
56.60120899999999
 30
0.0
 40
3.25
100
AcDbArc
 50
143.8042269999999
 51
152.6823629999999
  0
LINE
  5
A430
330
A26C
100
AcDbEntity
  8
1
  6
Continuous
100
AcDbLine
 10
223.669172
 20
94.60120899999997
 30
0.0
 11
223.669172
 21
54.60120899999999
 31
0.0
  0
LINE
  5
A431
330
A26C
100
AcDbEntity
  8
4
  6
CENTER
100
AcDbLine
 10
215.669172
 20
98.851209
 30
0.0
 11
215.669172
 21
86.35120899999998
 31
0.0
  0
CIRCLE
  5
A432
330
A26C
100
AcDbEntity
  8
1
  6
Continuous
100
AcDbCircle
 10
215.669172
 20
92.601209
 30
0.0
 40
3.25
  0
LINE
  5
A433
330
A26C
100
AcDbEntity
  8
4
  6
CENTER
100
AcDbLine
 10
221.919172
 20
92.601209
 30
0.0
 11
209.4191719999999
 21
92.601209
 31
0.0
  0
ARC
  5
A434
330
A26C
100
AcDbEntity
  8
1
  6
Continuous
100
AcDbCircle
 10
216.669172
 20
94.60120899999997
 30
0.0
 40
7.0
100
AcDbArc
 50
0.0
 51
90.0
  0
LINE
  5
A435
330
A26C
100
AcDbEntity
  8
4
  6
CENTER
100
AcDbLine
 10
221.919172
 20
56.60120899999999
 30
0.0
 11
209.4191719999999
 21
56.60120899999999
 31
0.0
  0
CIRCLE
  5
A436
330
A26C
100
AcDbEntity
  8
1
  6
Continuous
100
AcDbCircle
 10
215.669172
 20
56.60120899999999
 30
0.0
 40
3.25
  0
LINE
  5
A437
330
A26C
100
AcDbEntity
  8
4
  6
CENTER
100
AcDbLine
 10
215.669172
 20
62.85120899999999
 30
0.0
 11
215.669172
 21
50.35120899999999
 31
0.0
  0
ARC
  5
A438
330
A26C
100
AcDbEntity
  8
1
  6
Continuous
100
AcDbCircle
 10
216.669172
 20
54.60120899999999
 30
0.0
 40
7.0
100
AcDbArc
 50
270.0
 51
0.0
  0
LINE
  5
A439
330
A26C
100
AcDbEntity
  8
1
  6
Continuous
100
AcDbLine
 10
383.80281
 20
213.104232
 30
0.0
 11
408.150128
 21
172.30421
 31
0.0
  0
ARC
  5
A43A
330
A26C
100
AcDbEntity
  8
1
  6
Continuous
100
AcDbCircle
 10
417.137504
 20
177.7334899999999
 30
0.0
 40
10.5
100
AcDbArc
 50
211.136199
 51
9.004619999999997
  0
LINE
  5
A43B
330
A26C
100
AcDbEntity
  8
4
  6
CENTER
100
AcDbLine
 10
417.137504
 20
136.23349
 30
0.0
 11
417.137504
 21
219.23349
 31
0.0
  0
LINE
  5
A43C
330
A26C
100
AcDbEntity
  8
4
  6
CENTER
100
AcDbLine
 10
374.6375039999999
 20
178.7334899999999
 30
0.0
 11
459.6375039999998
 21
178.7334899999999
 31
0.0
  0
LINE
  5
A43D
330
A26C
100
AcDbEntity
  8
1
  6
Continuous
100
AcDbLine
 10
389.5198639999999
 20
226.65849
 30
0.0
 11
387.8948639999999
 21
225.53349
 31
0.0
  0
LINE
  5
A43E
330
A26C
100
AcDbEntity
  8
1
  6
Continuous
100
AcDbLine
 10
390.934077
 20
226.65849
 30
0.0
 11
389.309077
 21
225.53349
 31
0.0
  0
LINE
  5
A43F
330
A26C
100
AcDbEntity
  8
1
  6
Continuous
100
AcDbLine
 10
389.098291
 20
226.65849
 30
0.0
 11
390.723291
 21
225.53349
 31
0.0
  0
LINE
  5
A440
330
A26C
100
AcDbEntity
  8
1
  6
Continuous
100
AcDbLine
 10
369.137504
 20
225.53349
 30
0.0
 11
415.1375039999998
 21
225.53349
 31
0.0
  0
LINE
  5
A441
330
A26C
100
AcDbEntity
  8
1
  6
Continuous
100
AcDbLine
 10
369.137504
 20
226.65849
 30
0.0
 11
415.1375039999998
 21
226.65849
 31
0.0
  0
LINE
  5
A442
330
A26C
100
AcDbEntity
  8
1
  6
Continuous
100
AcDbLine
 10
369.087504
 20
228.9584899999999
 30
0.0
 11
415.187504
 21
228.9584899999999
 31
0.0
  0
LINE
  5
A443
330
A26C
100
AcDbEntity
  8
1
  6
Continuous
100
AcDbLine
 10
369.3453069999998
 20
229.8334899999999
 30
0.0
 11
414.9297009999998
 21
229.8334899999999
 31
0.0
  0
LINE
  5
A444
330
A26C
100
AcDbEntity
  8
1
  6
Continuous
100
AcDbLine
 10
357.1375039999999
 20
231.9334899999998
 30
0.0
 11
427.1375039999998
 21
231.9334899999998
 31
0.0
  0
LINE
  5
A445
330
A26C
100
AcDbEntity
  8
1
  6
Continuous
100
AcDbLine
 10
357.1375039999999
 20
234.2334899999999
 30
0.0
 11
427.1375039999998
 21
234.2334899999999
 31
0.0
  0
LINE
  5
A446
330
A26C
100
AcDbEntity
  8
4
  6
CENTER
100
AcDbLine
 10
392.137504
 20
239.2334899999999
 30
0.0
 11
392.137504
 21
206.425602
 31
0.0
  0
LINE
  5
A447
330
A26C
100
AcDbEntity
  8
1
  6
Continuous
100
AcDbLine
 10
420.85827
 20
223.23349
 30
0.0
 11
427.5897759999998
 21
178.7334899999999
 31
0.0
  0
LINE
  5
A448
330
A26C
100
AcDbEntity
  8
1
  6
Continuous
100
AcDbLine
 10
421.206191
 20
220.9334899999999
 30
0.0
 11
424.1375039999998
 21
220.9334899999999
 31
0.0
  0
LINE
  5
A449
330
A26C
100
AcDbEntity
  8
1
  6
Continuous
100
AcDbLine
 10
410.1375039999998
 20
223.23349
 30
0.0
 11
424.1375039999998
 21
223.23349
 31
0.0
  0
LINE
  5
A44A
330
A26C
100
AcDbEntity
  8
1
  6
Continuous
100
AcDbLine
 10
424.1375039999998
 20
223.23349
 30
0.0
 11
424.1375039999998
 21
220.9334899999999
 31
0.0
  0
LINE
  5
A44B
330
A26C
100
AcDbEntity
  8
1
  6
Continuous
100
AcDbLine
 10
427.1375039999998
 20
234.2334899999999
 30
0.0
 11
427.1375039999998
 21
231.9334899999998
 31
0.0
  0
LINE
  5
A44C
330
A26C
100
AcDbEntity
  8
1
  6
Continuous
100
AcDbLine
 10
406.4904259999998
 20
226.65849
 30
0.0
 11
404.8654259999998
 21
225.53349
 31
0.0
  0
LINE
  5
A44D
330
A26C
100
AcDbEntity
  8
1
  6
Continuous
100
AcDbLine
 10
404.6546399999998
 20
226.65849
 30
0.0
 11
406.2796399999998
 21
225.53349
 31
0.0
  0
LINE
  5
A44E
330
A26C
100
AcDbEntity
  8
1
  6
Continuous
100
AcDbLine
 10
414.9757079999998
 20
226.65849
 30
0.0
 11
413.350708
 21
225.53349
 31
0.0
  0
LINE
  5
A44F
330
A26C
100
AcDbEntity
  8
1
  6
Continuous
100
AcDbLine
 10
413.139921
 20
226.65849
 30
0.0
 11
414.7649209999998
 21
225.53349
 31
0.0
  0
ARC
  5
A450
330
A26C
100
AcDbEntity
  8
1
  6
Continuous
100
AcDbCircle
 10
408.8875039999998
 20
224.4839899999998
 30
0.0
 40
6.974499999999999
100
AcDbArc
 50
39.907598
 51
50.08600000000002
  0
LINE
  5
A451
330
A26C
100
AcDbEntity
  8
1
  6
Continuous
100
AcDbLine
 10
415.1375039999998
 20
226.65849
 30
0.0
 11
415.1375039999998
 21
225.53349
 31
0.0
  0
LINE
  5
A452
330
A26C
100
AcDbEntity
  8
1
  6
Continuous
100
AcDbLine
 10
415.1375039999998
 20
226.075121
 30
0.0
 11
414.554135
 21
226.65849
 31
0.0
  0
LINE
  5
A453
330
A26C
100
AcDbEntity
  8
1
  6
Continuous
100
AcDbLine
 10
407.90464
 20
226.65849
 30
0.0
 11
406.2796399999998
 21
225.53349
 31
0.0
  0
LINE
  5
A454
330
A26C
100
AcDbEntity
  8
1
  6
Continuous
100
AcDbLine
 10
407.4830669999998
 20
226.65849
 30
0.0
 11
409.108067
 21
225.53349
 31
0.0
  0
LINE
  5
A455
330
A26C
100
AcDbEntity
  8
1
  6
Continuous
100
AcDbLine
 10
406.068854
 20
226.65849
 30
0.0
 11
407.6938539999998
 21
225.53349
 31
0.0
  0
LINE
  5
A456
330
A26C
100
AcDbEntity
  8
1
  6
Continuous
100
AcDbLine
 10
412.147281
 20
226.65849
 30
0.0
 11
410.5222809999999
 21
225.53349
 31
0.0
  0
LINE
  5
A457
330
A26C
100
AcDbEntity
  8
1
  6
Continuous
100
AcDbLine
 10
410.311494
 20
226.65849
 30
0.0
 11
411.9364939999998
 21
225.53349
 31
0.0
  0
LINE
  5
A458
330
A26C
100
AcDbEntity
  8
1
  6
Continuous
100
AcDbLine
 10
413.5614939999999
 20
226.65849
 30
0.0
 11
411.9364939999998
 21
225.53349
 31
0.0
  0
LINE
  5
A459
330
A26C
100
AcDbEntity
  8
1
  6
Continuous
100
AcDbLine
 10
411.7257079999998
 20
226.65849
 30
0.0
 11
413.350708
 21
225.53349
 31
0.0
  0
LINE
  5
A45A
330
A26C
100
AcDbEntity
  8
1
  6
Continuous
100
AcDbLine
 10
410.733067
 20
226.65849
 30
0.0
 11
409.108067
 21
225.53349
 31
0.0
  0
LINE
  5
A45B
330
A26C
100
AcDbEntity
  8
1
  6
Continuous
100
AcDbLine
 10
409.3188539999998
 20
226.65849
 30
0.0
 11
407.6938539999998
 21
225.53349
 31
0.0
  0
LINE
  5
A45C
330
A26C
100
AcDbEntity
  8
1
  6
Continuous
100
AcDbLine
 10
408.897281
 20
226.65849
 30
0.0
 11
410.5222809999999
 21
225.53349
 31
0.0
  0
LINE
  5
A45D
330
A26C
100
AcDbEntity
  8
4
  6
CENTER
100
AcDbLine
 10
419.1375039999998
 20
239.2334899999999
 30
0.0
 11
419.1375039999998
 21
226.93349
 31
0.0
  0
ARC
  5
A45E
330
A26C
100
AcDbEntity
  8
1
  6
Continuous
100
AcDbCircle
 10
413.470314
 20
222.53349
 30
0.0
 40
3.0
100
AcDbArc
 50
13.49339899999998
 51
90.0
  0
LINE
  5
A45F
330
A26C
100
AcDbEntity
  8
1
  6
Continuous
100
AcDbLine
 10
414.787504
 20
226.65849
 30
0.0
 11
415.687504
 21
228.1584899999999
 31
0.0
  0
LINE
  5
A460
330
A26C
100
AcDbEntity
  8
1
  6
Continuous
100
AcDbLine
 10
415.687504
 20
228.1584899999999
 30
0.0
 11
415.187504
 21
228.9584899999999
 31
0.0
  0
ARC
  5
A461
330
A26C
100
AcDbEntity
  8
1
  6
Continuous
100
AcDbCircle
 10
414.9297009999998
 20
233.33349
 30
0.0
 40
3.5
100
AcDbArc
 50
270.0
 51
336.421822
  0
LINE
  5
A462
330
A26C
100
AcDbEntity
  8
1
  6
Continuous
100
AcDbLine
 10
399.419359
 20
226.65849
 30
0.0
 11
397.7943589999999
 21
225.53349
 31
0.0
  0
LINE
  5
A463
330
A26C
100
AcDbEntity
  8
1
  6
Continuous
100
AcDbLine
 10
397.583572
 20
226.65849
 30
0.0
 11
399.208572
 21
225.53349
 31
0.0
  0
LINE
  5
A464
330
A26C
100
AcDbEntity
  8
1
  6
Continuous
100
AcDbLine
 10
392.348291
 20
226.65849
 30
0.0
 11
390.723291
 21
225.53349
 31
0.0
  0
LINE
  5
A465
330
A26C
100
AcDbEntity
  8
1
  6
Continuous
100
AcDbLine
 10
390.5125039999999
 20
226.65849
 30
0.0
 11
392.137504
 21
225.53349
 31
0.0
  0
LINE
  5
A466
330
A26C
100
AcDbEntity
  8
1
  6
Continuous
100
AcDbLine
 10
396.590931
 20
226.65849
 30
0.0
 11
394.965931
 21
225.53349
 31
0.0
  0
LINE
  5
A467
330
A26C
100
AcDbEntity
  8
1
  6
Continuous
100
AcDbLine
 10
394.755145
 20
226.65849
 30
0.0
 11
396.380145
 21
225.53349
 31
0.0
  0
LINE
  5
A468
330
A26C
100
AcDbEntity
  8
1
  6
Continuous
100
AcDbLine
 10
398.005145
 20
226.65849
 30
0.0
 11
396.380145
 21
225.53349
 31
0.0
  0
LINE
  5
A469
330
A26C
100
AcDbEntity
  8
1
  6
Continuous
100
AcDbLine
 10
396.1693589999999
 20
226.65849
 30
0.0
 11
397.7943589999999
 21
225.53349
 31
0.0
  0
LINE
  5
A46A
330
A26C
100
AcDbEntity
  8
1
  6
Continuous
100
AcDbLine
 10
395.176718
 20
226.65849
 30
0.0
 11
393.551718
 21
225.53349
 31
0.0
  0
LINE
  5
A46B
330
A26C
100
AcDbEntity
  8
1
  6
Continuous
100
AcDbLine
 10
393.7625039999998
 20
226.65849
 30
0.0
 11
392.137504
 21
225.53349
 31
0.0
  0
LINE
  5
A46C
330
A26C
100
AcDbEntity
  8
1
  6
Continuous
100
AcDbLine
 10
393.340931
 20
226.65849
 30
0.0
 11
394.965931
 21
225.53349
 31
0.0
  0
LINE
  5
A46D
330
A26C
100
AcDbEntity
  8
1
  6
Continuous
100
AcDbLine
 10
391.9267179999998
 20
226.65849
 30
0.0
 11
393.551718
 21
225.53349
 31
0.0
  0
LINE
  5
A46E
330
A26C
100
AcDbEntity
  8
1
  6
Continuous
100
AcDbLine
 10
403.661999
 20
226.65849
 30
0.0
 11
402.0369989999998
 21
225.53349
 31
0.0
  0
LINE
  5
A46F
330
A26C
100
AcDbEntity
  8
1
  6
Continuous
100
AcDbLine
 10
403.2404259999998
 20
226.65849
 30
0.0
 11
404.8654259999998
 21
225.53349
 31
0.0
  0
LINE
  5
A470
330
A26C
100
AcDbEntity
  8
1
  6
Continuous
100
AcDbLine
 10
401.826213
 20
226.65849
 30
0.0
 11
403.451213
 21
225.53349
 31
0.0
  0
LINE
  5
A471
330
A26C
100
AcDbEntity
  8
1
  6
Continuous
100
AcDbLine
 10
405.0762129999998
 20
226.65849
 30
0.0
 11
403.451213
 21
225.53349
 31
0.0
  0
LINE
  5
A472
330
A26C
100
AcDbEntity
  8
1
  6
Continuous
100
AcDbLine
 10
402.2477859999998
 20
226.65849
 30
0.0
 11
400.622786
 21
225.53349
 31
0.0
  0
LINE
  5
A473
330
A26C
100
AcDbEntity
  8
1
  6
Continuous
100
AcDbLine
 10
400.4119989999998
 20
226.65849
 30
0.0
 11
402.0369989999998
 21
225.53349
 31
0.0
  0
LINE
  5
A474
330
A26C
100
AcDbEntity
  8
1
  6
Continuous
100
AcDbLine
 10
400.8335719999998
 20
226.65849
 30
0.0
 11
399.208572
 21
225.53349
 31
0.0
  0
LINE
  5
A475
330
A26C
100
AcDbEntity
  8
1
  6
Continuous
100
AcDbLine
 10
398.9977859999998
 20
226.65849
 30
0.0
 11
400.622786
 21
225.53349
 31
0.0
  0
LINE
  5
A476
330
A26C
100
AcDbEntity
  8
1
  6
Continuous
100
AcDbLine
 10
367.3875039999999
 20
222.53349
 30
0.0
 11
367.3875039999999
 21
217.9334899999998
 31
0.0
  0
LINE
  5
A477
330
A26C
100
AcDbEntity
  8
1
  6
Continuous
100
AcDbLine
 10
367.3875039999999
 20
217.9334899999998
 30
0.0
 11
375.243405
 21
217.9334899999998
 31
0.0
  0
ARC
  5
A478
330
A26C
100
AcDbEntity
  8
1
  6
Continuous
100
AcDbCircle
 10
375.243405
 20
207.9334899999998
 30
0.0
 40
10.0
100
AcDbArc
 50
31.136199
 51
90.0
  0
LINE
  5
A479
330
A26C
100
AcDbEntity
  8
1
  6
Continuous
100
AcDbLine
 10
372.1277279999998
 20
226.65849
 30
0.0
 11
373.752728
 21
225.53349
 31
0.0
  0
LINE
  5
A47A
330
A26C
100
AcDbEntity
  8
1
  6
Continuous
100
AcDbLine
 10
373.9635149999998
 20
226.65849
 30
0.0
 11
372.3385149999999
 21
225.53349
 31
0.0
  0
LINE
  5
A47B
330
A26C
100
AcDbEntity
  8
1
  6
Continuous
100
AcDbLine
 10
382.448796
 20
226.65849
 30
0.0
 11
380.8237959999999
 21
225.53349
 31
0.0
  0
LINE
  5
A47C
330
A26C
100
AcDbEntity
  8
1
  6
Continuous
100
AcDbLine
 10
379.620369
 20
226.65849
 30
0.0
 11
377.9953689999999
 21
225.53349
 31
0.0
  0
LINE
  5
A47D
330
A26C
100
AcDbEntity
  8
1
  6
Continuous
100
AcDbLine
 10
377.784582
 20
226.65849
 30
0.0
 11
379.4095819999999
 21
225.53349
 31
0.0
  0
LINE
  5
A47E
330
A26C
100
AcDbEntity
  8
1
  6
Continuous
100
AcDbLine
 10
381.034582
 20
226.65849
 30
0.0
 11
379.4095819999999
 21
225.53349
 31
0.0
  0
LINE
  5
A47F
330
A26C
100
AcDbEntity
  8
1
  6
Continuous
100
AcDbLine
 10
379.198796
 20
226.65849
 30
0.0
 11
380.8237959999999
 21
225.53349
 31
0.0
  0
LINE
  5
A480
330
A26C
100
AcDbEntity
  8
1
  6
Continuous
100
AcDbLine
 10
380.6130089999999
 20
226.65849
 30
0.0
 11
382.2380089999999
 21
225.53349
 31
0.0
  0
LINE
  5
A481
330
A26C
100
AcDbEntity
  8
1
  6
Continuous
100
AcDbLine
 10
376.791942
 20
226.65849
 30
0.0
 11
375.166942
 21
225.53349
 31
0.0
  0
LINE
  5
A482
330
A26C
100
AcDbEntity
  8
1
  6
Continuous
100
AcDbLine
 10
378.2061549999998
 20
226.65849
 30
0.0
 11
376.5811549999999
 21
225.53349
 31
0.0
  0
LINE
  5
A483
330
A26C
100
AcDbEntity
  8
1
  6
Continuous
100
AcDbLine
 10
374.9561549999999
 20
226.65849
 30
0.0
 11
376.5811549999999
 21
225.53349
 31
0.0
  0
LINE
  5
A484
330
A26C
100
AcDbEntity
  8
1
  6
Continuous
100
AcDbLine
 10
376.3703689999999
 20
226.65849
 30
0.0
 11
377.9953689999999
 21
225.53349
 31
0.0
  0
LINE
  5
A485
330
A26C
100
AcDbEntity
  8
1
  6
Continuous
100
AcDbLine
 10
375.3777279999998
 20
226.65849
 30
0.0
 11
373.752728
 21
225.53349
 31
0.0
  0
LINE
  5
A486
330
A26C
100
AcDbEntity
  8
1
  6
Continuous
100
AcDbLine
 10
373.5419419999999
 20
226.65849
 30
0.0
 11
375.166942
 21
225.53349
 31
0.0
  0
LINE
  5
A487
330
A26C
100
AcDbEntity
  8
1
  6
Continuous
100
AcDbLine
 10
388.10565
 20
226.65849
 30
0.0
 11
386.48065
 21
225.53349
 31
0.0
  0
LINE
  5
A488
330
A26C
100
AcDbEntity
  8
1
  6
Continuous
100
AcDbLine
 10
386.2698639999999
 20
226.65849
 30
0.0
 11
387.8948639999999
 21
225.53349
 31
0.0
  0
LINE
  5
A489
330
A26C
100
AcDbEntity
  8
1
  6
Continuous
100
AcDbLine
 10
387.684077
 20
226.65849
 30
0.0
 11
389.309077
 21
225.53349
 31
0.0
  0
LINE
  5
A48A
330
A26C
100
AcDbEntity
  8
1
  6
Continuous
100
AcDbLine
 10
385.2772229999998
 20
226.65849
 30
0.0
 11
383.6522229999998
 21
225.53349
 31
0.0
  0
LINE
  5
A48B
330
A26C
100
AcDbEntity
  8
1
  6
Continuous
100
AcDbLine
 10
386.691437
 20
226.65849
 30
0.0
 11
385.066437
 21
225.53349
 31
0.0
  0
LINE
  5
A48C
330
A26C
100
AcDbEntity
  8
1
  6
Continuous
100
AcDbLine
 10
384.85565
 20
226.65849
 30
0.0
 11
386.48065
 21
225.53349
 31
0.0
  0
LINE
  5
A48D
330
A26C
100
AcDbEntity
  8
1
  6
Continuous
100
AcDbLine
 10
383.8630089999999
 20
226.65849
 30
0.0
 11
382.2380089999999
 21
225.53349
 31
0.0
  0
LINE
  5
A48E
330
A26C
100
AcDbEntity
  8
1
  6
Continuous
100
AcDbLine
 10
382.027223
 20
226.65849
 30
0.0
 11
383.6522229999998
 21
225.53349
 31
0.0
  0
LINE
  5
A48F
330
A26C
100
AcDbEntity
  8
1
  6
Continuous
100
AcDbLine
 10
383.441437
 20
226.65849
 30
0.0
 11
385.066437
 21
225.53349
 31
0.0
  0
LINE
  5
A490
330
A26C
100
AcDbEntity
  8
4
  6
CENTER
100
AcDbLine
 10
365.137504
 20
239.2334899999999
 30
0.0
 11
365.137504
 21
226.93349
 31
0.0
  0
LINE
  5
A491
330
A26C
100
AcDbEntity
  8
1
  6
Continuous
100
AcDbLine
 10
371.1350869999998
 20
226.65849
 30
0.0
 11
369.510087
 21
225.53349
 31
0.0
  0
LINE
  5
A492
330
A26C
100
AcDbEntity
  8
1
  6
Continuous
100
AcDbLine
 10
369.2993009999999
 20
226.65849
 30
0.0
 11
370.9243009999998
 21
225.53349
 31
0.0
  0
LINE
  5
A493
330
A26C
100
AcDbEntity
  8
1
  6
Continuous
100
AcDbLine
 10
372.5493009999998
 20
226.65849
 30
0.0
 11
370.9243009999998
 21
225.53349
 31
0.0
  0
LINE
  5
A494
330
A26C
100
AcDbEntity
  8
1
  6
Continuous
100
AcDbLine
 10
370.7135149999999
 20
226.65849
 30
0.0
 11
372.3385149999999
 21
225.53349
 31
0.0
  0
LINE
  5
A495
330
A26C
100
AcDbEntity
  8
1
  6
Continuous
100
AcDbLine
 10
369.137504
 20
225.4060729999999
 30
0.0
 11
369.510087
 21
225.53349
 31
0.0
  0
LINE
  5
A496
330
A26C
100
AcDbEntity
  8
1
  6
Continuous
100
AcDbLine
 10
369.137504
 20
226.65849
 30
0.0
 11
369.137504
 21
225.53349
 31
0.0
  0
ARC
  5
A497
330
A26C
100
AcDbEntity
  8
1
  6
Continuous
100
AcDbCircle
 10
375.387504
 20
224.4839899999998
 30
0.0
 40
6.974499999999999
100
AcDbArc
 50
129.9139999999999
 51
140.0924019999999
  0
LINE
  5
A498
330
A26C
100
AcDbEntity
  8
1
  6
Continuous
100
AcDbLine
 10
369.4875039999999
 20
226.65849
 30
0.0
 11
368.587504
 21
228.1584899999999
 31
0.0
  0
LINE
  5
A499
330
A26C
100
AcDbEntity
  8
1
  6
Continuous
100
AcDbLine
 10
369.7208739999999
 20
226.65849
 30
0.0
 11
369.137504
 21
226.075121
 31
0.0
  0
LINE
  5
A49A
330
A26C
100
AcDbEntity
  8
1
  6
Continuous
100
AcDbLine
 10
368.587504
 20
228.1584899999999
 30
0.0
 11
369.087504
 21
228.9584899999999
 31
0.0
  0
ARC
  5
A49B
330
A26C
100
AcDbEntity
  8
1
  6
Continuous
100
AcDbCircle
 10
370.8189279999999
 20
222.071827
 30
0.0
 40
3.462340999999999
100
AcDbArc
 50
88.86512399999999
 51
172.3374649999999
  0
ARC
  5
A49C
330
A26C
100
AcDbEntity
  8
1
  6
Continuous
100
AcDbCircle
 10
369.3453069999998
 20
233.33349
 30
0.0
 40
3.5
100
AcDbArc
 50
203.578178
 51
270.0
  0
LINE
  5
A49D
330
A26C
100
AcDbEntity
  8
1
  6
Continuous
100
AcDbLine
 10
357.1375039999999
 20
234.2334899999999
 30
0.0
 11
357.1375039999999
 21
231.9334899999998
 31
0.0
  0
LINE
  5
A49E
330
A26C
100
AcDbEntity
  8
4
  6
CENTER
100
AcDbLine
 10
163.6692469999998
 20
106.601209
 30
0.0
 11
163.6692469999998
 21
42.60120899999999
 31
0.0
  0
LINE
  5
A49F
330
A26C
100
AcDbEntity
  8
1
  6
Continuous
100
AcDbLine
 10
153.4691719999998
 20
93.409709
 30
0.0
 11
169.8578239999999
 21
93.409709
 31
0.0
  0
LINE
  5
A4A0
330
A26C
100
AcDbEntity
  8
1
  6
Continuous
100
AcDbLine
 10
153.4691719999998
 20
91.10970899999999
 30
0.0
 11
169.8578239999999
 21
91.10970899999999
 31
0.0
  0
LINE
  5
A4A1
330
A26C
100
AcDbEntity
  8
1
  6
Continuous
100
AcDbLine
 10
153.4691719999998
 20
55.792709
 30
0.0
 11
169.8578239999999
 21
55.792709
 31
0.0
  0
LINE
  5
A4A2
330
A26C
100
AcDbEntity
  8
1
  6
Continuous
100
AcDbLine
 10
153.4691719999998
 20
58.092709
 30
0.0
 11
169.8578239999999
 21
58.092709
 31
0.0
  0
ARC
  5
A4A3
330
A26C
100
AcDbEntity
  8
1
  6
Continuous
100
AcDbCircle
 10
161.669172
 20
92.601209
 30
0.0
 40
3.25
100
AcDbArc
 50
207.317637
 51
216.195773
  0
ARC
  5
A4A4
330
A26C
100
AcDbEntity
  8
1
  6
Continuous
100
AcDbCircle
 10
161.669172
 20
92.601209
 30
0.0
 40
3.25
100
AcDbArc
 50
157.376698
 51
165.5953059999999
  0
LINE
  5
A4A5
330
A26C
100
AcDbEntity
  8
1
  6
Continuous
100
AcDbLine
 10
153.669172
 20
60.101209
 30
0.0
 11
153.669172
 21
58.092709
 31
0.0
  0
LINE
  5
A4A6
330
A26C
100
AcDbEntity
  8
1
  6
Continuous
100
AcDbLine
 10
153.669172
 20
91.10970899999999
 30
0.0
 11
153.669172
 21
89.10120899999999
 31
0.0
  0
LINE
  5
A4A7
330
A26C
100
AcDbEntity
  8
1
  6
Continuous
100
AcDbLine
 10
153.669172
 20
55.792709
 30
0.0
 11
153.669172
 21
54.60120899999999
 31
0.0
  0
ARC
  5
A4A8
330
A26C
100
AcDbEntity
  8
1
  6
Continuous
100
AcDbCircle
 10
188.6691719999998
 20
74.60120899999998
 30
0.0
 40
24.75
100
AcDbArc
 50
234.9429129999998
 51
125.057087
  0
ARC
  5
A4A9
330
A26C
100
AcDbEntity
  8
1
  6
Continuous
100
AcDbCircle
 10
188.6691719999998
 20
74.60120899999998
 30
0.0
 40
22.45
100
AcDbArc
 50
234.9429129999998
 51
125.057087
  0
ARC
  5
A4AA
330
A26C
100
AcDbEntity
  8
1
  6
Continuous
100
AcDbCircle
 10
169.8578239999999
 20
101.4097089999999
 30
0.0
 40
8.0
100
AcDbArc
 50
270.0
 51
305.057087
  0
ARC
  5
A4AB
330
A26C
100
AcDbEntity
  8
1
  6
Continuous
100
AcDbCircle
 10
169.8578239999999
 20
101.4097089999999
 30
0.0
 40
10.3
100
AcDbArc
 50
270.0
 51
305.057087
  0
ARC
  5
A4AC
330
A26C
100
AcDbEntity
  8
1
  6
Continuous
100
AcDbCircle
 10
169.8578239999999
 20
47.792709
 30
0.0
 40
10.3
100
AcDbArc
 50
54.942913
 51
90.0
  0
ARC
  5
A4AD
330
A26C
100
AcDbEntity
  8
1
  6
Continuous
100
AcDbCircle
 10
169.8578239999999
 20
47.792709
 30
0.0
 40
8.0
100
AcDbArc
 50
54.942913
 51
90.0
  0
ARC
  5
A4AE
330
A26C
100
AcDbEntity
  8
1
  6
Continuous
100
AcDbCircle
 10
188.6691719999998
 20
74.60120899999998
 30
0.0
 40
26.000075
100
AcDbArc
 50
226.504025
 51
133.4959749999999
  0
ARC
  5
A4AF
330
A26C
100
AcDbEntity
  8
1
  6
Continuous
100
AcDbCircle
 10
188.6691719999998
 20
74.60120899999998
 30
0.0
 40
18.44999999999998
100
AcDbArc
 50
225.64192
 51
134.35808
  0
ARC
  5
A4B0
330
A26C
100
AcDbEntity
  8
1
  6
Continuous
100
AcDbCircle
 10
188.6691719999998
 20
74.60120899999998
 30
0.0
 40
20.44999999999999
100
AcDbArc
 50
225.1573849999998
 51
134.8426149999999
  0
ARC
  5
A4B1
330
A26C
100
AcDbEntity
  8
1
  6
Continuous
100
AcDbCircle
 10
161.669172
 20
281.5054979999998
 30
0.0
 40
3.25
100
AcDbArc
 50
194.4046939999998
 51
202.623302
  0
LINE
  5
A4B2
330
A26C
100
AcDbEntity
  8
1
  6
Continuous
100
AcDbLine
 10
158.521343
 20
280.696998
 30
0.0
 11
164.817001
 21
280.696998
 31
0.0
  0
LINE
  5
A4B3
330
A26C
100
AcDbEntity
  8
1
  6
Continuous
100
AcDbLine
 10
158.7816249999999
 20
282.996998
 30
0.0
 11
159.6200019999998
 21
282.996998
 31
0.0
  0
LINE
  5
A4B4
330
A26C
100
AcDbEntity
  8
1
  6
Continuous
100
AcDbLine
 10
158.521343
 20
318.313998
 30
0.0
 11
164.817001
 21
318.313998
 31
0.0
  0
ARC
  5
A4B5
330
A26C
100
AcDbEntity
  8
1
  6
Continuous
100
AcDbCircle
 10
212.2482479999999
 20
74.60120899999998
 30
0.0
 40
55.579
100
AcDbArc
 50
162.720836
 51
164.877128
  0
ARC
  5
A4B6
330
A26C
100
AcDbEntity
  8
1
  6
Continuous
100
AcDbCircle
 10
212.2482479999999
 20
74.60120899999998
 30
0.0
 40
55.579
100
AcDbArc
 50
195.1228719999998
 51
197.279164
  0
ARC
  5
A4B7
330
A26C
100
AcDbEntity
  8
1
  6
Continuous
100
AcDbCircle
 10
212.2482479999999
 20
300.865771
 30
0.0
 40
55.579
100
AcDbArc
 50
197.892775
 51
201.277466
  0
ARC
  5
A4B8
330
A26C
100
AcDbEntity
  8
1
  6
Continuous
100
AcDbCircle
 10
212.2482479999999
 20
300.865771
 30
0.0
 40
55.579
100
AcDbArc
 50
161.703431
 51
164.172741
  0
ARC
  5
A4B9
330
A26C
100
AcDbEntity
  8
1
  6
Continuous
100
AcDbCircle
 10
267.8533489999999
 20
192.498041
 30
0.0
 40
45.0
100
AcDbArc
 50
333.6771109999999
 51
6.077233000000001
  0
ARC
  5
A4BA
330
A26C
100
AcDbEntity
  8
1
  6
Continuous
100
AcDbCircle
 10
270.190847
 20
192.563659
 30
0.0
 40
45.0
100
AcDbArc
 50
333.035978
 51
3.794623999999998
  0
ARC
  5
A4BB
330
A26C
100
AcDbEntity
  8
1
  6
Continuous
100
AcDbCircle
 10
282.9696049999999
 20
191.7707639999999
 30
0.0
 40
30.135401
100
AcDbArc
 50
10.499302
 51
18.221623
  0
ARC
  5
A4BC
330
A26C
100
AcDbEntity
  8
1
  6
Continuous
100
AcDbCircle
 10
361.6019039999998
 20
170.77931
 30
0.0
 40
97.26650800000001
100
AcDbArc
 50
151.2652759999998
 51
161.778377
  0
ARC
  5
A4BD
330
A26C
100
AcDbEntity
  8
1
  6
Continuous
100
AcDbCircle
 10
297.837146
 20
191.7707639999999
 30
0.0
 40
30.135401
100
AcDbArc
 50
161.778377
 51
169.500698
  0
ARC
  5
A4BE
330
A26C
100
AcDbEntity
  8
1
  6
Continuous
100
AcDbCircle
 10
312.9534019999999
 20
192.498041
 30
0.0
 40
45.0
100
AcDbArc
 50
173.922767
 51
206.322889
  0
ARC
  5
A4BF
330
A26C
100
AcDbEntity
  8
1
  6
Continuous
100
AcDbCircle
 10
279.4968749999998
 20
223.160111
 30
0.0
 40
7.487396
100
AcDbArc
 50
240.6184049999999
 51
265.563802
  0
ARC
  5
A4C0
330
A26C
100
AcDbEntity
  8
1
  6
Continuous
100
AcDbCircle
 10
301.7999429999999
 20
223.521524
 30
0.0
 40
7.848514999999999
100
AcDbArc
 50
270.9161379999998
 51
294.920656
  0
ARC
  5
A4C1
330
A26C
100
AcDbEntity
  8
1
  6
Continuous
100
AcDbCircle
 10
163.6692469999998
 20
178.7334899999999
 30
0.0
 40
12.5
100
AcDbArc
 50
137.167053
 51
357.4122899999999
  0
ARC
  5
A4C2
330
A26C
100
AcDbEntity
  8
1
  6
Continuous
100
AcDbCircle
 10
163.6692469999998
 20
178.7334899999999
 30
0.0
 40
28.0
100
AcDbArc
 50
103.0579949999999
 51
36.01371799999999
  0
ARC
  5
A4C3
330
A26C
100
AcDbEntity
  8
1
  6
Continuous
100
AcDbCircle
 10
163.6692469999998
 20
178.7334899999999
 30
0.0
 40
19.5
100
AcDbArc
 50
113.402507
 51
24.789728
  0
ARC
  5
A4C4
330
A26C
100
AcDbEntity
  8
1
  6
Continuous
100
AcDbCircle
 10
163.6692469999998
 20
178.7334899999999
 30
0.0
 40
37.5
100
AcDbArc
 50
97.39539
 51
42.09619599999999
  0
ARC
  5
A4C5
330
A26C
100
AcDbEntity
  8
1
  6
Continuous
100
AcDbCircle
 10
163.6692469999998
 20
62.58240799999999
 30
0.0
 40
10.5
100
AcDbArc
 50
236.7961769999999
 51
303.2038229999999
  0
LINE
  5
A4C6
330
A26C
100
AcDbEntity
  8
1
  6
Continuous
100
AcDbLine
 10
157.9192469999999
 20
53.79676599999999
 30
0.0
 11
169.4192469999999
 21
53.79676599999999
 31
0.0
  0
ARC
  5
A4C7
330
A26C
100
AcDbEntity
  8
1
  6
Continuous
100
AcDbCircle
 10
141.169247
 20
74.60120899999998
 30
0.0
 40
60.0
100
AcDbArc
 50
351.1501169999998
 51
8.849883
  0
LINE
  5
A4C8
330
A26C
100
AcDbEntity
  8
1
  6
Continuous
100
AcDbLine
 10
176.1692469999999
 20
62.10120899999999
 30
0.0
 11
182.1787469999999
 21
63.57077
 31
0.0
  0
LINE
  5
A4C9
330
A26C
100
AcDbEntity
  8
1
  6
Continuous
100
AcDbLine
 10
198.972794
 20
64.10120899999999
 30
0.0
 11
128.3657009999998
 21
64.10120899999999
 31
0.0
  0
LINE
  5
A4CA
330
A26C
100
AcDbEntity
  8
1
  6
Continuous
100
AcDbLine
 10
182.591897
 20
64.10120899999999
 30
0.0
 11
182.3672929999999
 21
63.71218299999998
 31
0.0
  0
ARC
  5
A4CB
330
A26C
100
AcDbEntity
  8
1
  6
Continuous
100
AcDbCircle
 10
182.107485
 20
63.86218299999999
 30
0.0
 40
0.3
100
AcDbArc
 50
283.741415
 51
330.0
  0
ARC
  5
A4CC
330
A26C
100
AcDbEntity
  8
1
  6
Continuous
100
AcDbCircle
 10
198.972794
 20
65.601209
 30
0.0
 40
1.5
100
AcDbArc
 50
270.0
 51
351.1501169999998
  0
LINE
  5
A4CD
330
A26C
100
AcDbEntity
  8
1
  6
Continuous
100
AcDbLine
 10
176.1692469999999
 20
62.10120899999999
 30
0.0
 11
175.0145469999999
 21
60.101209
 31
0.0
  0
LINE
  5
A4CE
330
A26C
100
AcDbEntity
  8
1
  6
Continuous
100
AcDbLine
 10
152.3239479999998
 20
60.101209
 30
0.0
 11
175.0145469999999
 21
60.101209
 31
0.0
  0
LINE
  5
A4CF
330
A26C
100
AcDbEntity
  8
1
  6
Continuous
100
AcDbLine
 10
151.1692469999998
 20
62.10120899999999
 30
0.0
 11
176.1692469999999
 21
62.10120899999999
 31
0.0
  0
LINE
  5
A4D0
330
A26C
100
AcDbEntity
  8
1
  6
Continuous
100
AcDbLine
 10
169.4192469999999
 20
53.79676599999999
 30
0.0
 11
169.4192469999999
 21
55.792709
 31
0.0
  0
LINE
  5
A4D1
330
A26C
100
AcDbEntity
  8
1
  6
Continuous
100
AcDbLine
 10
159.6692469999998
 20
58.092709
 30
0.0
 11
159.6692469999998
 21
60.101209
 31
0.0
  0
LINE
  5
A4D2
330
A26C
100
AcDbEntity
  8
1
  6
Continuous
100
AcDbLine
 10
167.6692469999998
 20
58.092709
 30
0.0
 11
167.6692469999998
 21
60.101209
 31
0.0
  0
LINE
  5
A4D3
330
A26C
100
AcDbEntity
  8
1
  6
Continuous
100
AcDbLine
 10
176.1692469999999
 20
87.10120899999997
 30
0.0
 11
182.1787469999999
 21
85.631648
 31
0.0
  0
LINE
  5
A4D4
330
A26C
100
AcDbEntity
  8
1
  6
Continuous
100
AcDbLine
 10
198.972794
 20
85.10120899999998
 30
0.0
 11
128.3657009999998
 21
85.10120899999998
 31
0.0
  0
LINE
  5
A4D5
330
A26C
100
AcDbEntity
  8
1
  6
Continuous
100
AcDbLine
 10
182.591897
 20
85.10120899999998
 30
0.0
 11
182.3672929999999
 21
85.490235
 31
0.0
  0
ARC
  5
A4D6
330
A26C
100
AcDbEntity
  8
1
  6
Continuous
100
AcDbCircle
 10
182.107485
 20
85.34023499999998
 30
0.0
 40
0.3
100
AcDbArc
 50
30.0
 51
76.25858499999998
  0
ARC
  5
A4D7
330
A26C
100
AcDbEntity
  8
1
  6
Continuous
100
AcDbCircle
 10
198.972794
 20
83.60120899999998
 30
0.0
 40
1.5
100
AcDbArc
 50
8.849883
 51
90.0
  0
LINE
  5
A4D8
330
A26C
100
AcDbEntity
  8
1
  6
Continuous
100
AcDbLine
 10
158.6692469999999
 20
93.409709
 30
0.0
 11
158.6692469999999
 21
94.35310300000001
 31
0.0
  0
LINE
  5
A4D9
330
A26C
100
AcDbEntity
  8
1
  6
Continuous
100
AcDbLine
 10
168.6692469999998
 20
93.409709
 30
0.0
 11
168.6692469999998
 21
94.35310300000001
 31
0.0
  0
LINE
  5
A4DA
330
A26C
100
AcDbEntity
  8
1
  6
Continuous
100
AcDbLine
 10
158.6692469999999
 20
94.35310300000001
 30
0.0
 11
168.6692469999998
 21
94.35310300000001
 31
0.0
  0
ARC
  5
A4DB
330
A26C
100
AcDbEntity
  8
1
  6
Continuous
100
AcDbCircle
 10
163.6692469999998
 20
82.35300999999997
 30
0.0
 40
13.0
100
AcDbArc
 50
67.380135
 51
112.6198649999998
  0
LINE
  5
A4DC
330
A26C
100
AcDbEntity
  8
1
  6
Continuous
100
AcDbLine
 10
159.6692469999998
 20
89.10120899999999
 30
0.0
 11
159.6692469999998
 21
91.10970899999999
 31
0.0
  0
LINE
  5
A4DD
330
A26C
100
AcDbEntity
  8
1
  6
Continuous
100
AcDbLine
 10
167.6692469999998
 20
89.10120899999999
 30
0.0
 11
167.6692469999998
 21
91.10970899999999
 31
0.0
  0
LINE
  5
A4DE
330
A26C
100
AcDbEntity
  8
1
  6
Continuous
100
AcDbLine
 10
176.1692469999999
 20
87.10120899999997
 30
0.0
 11
175.0145469999999
 21
89.10120899999999
 31
0.0
  0
LINE
  5
A4DF
330
A26C
100
AcDbEntity
  8
1
  6
Continuous
100
AcDbLine
 10
152.3239479999998
 20
89.10120899999999
 30
0.0
 11
175.0145469999999
 21
89.10120899999999
 31
0.0
  0
LINE
  5
A4E0
330
A26C
100
AcDbEntity
  8
1
  6
Continuous
100
AcDbLine
 10
151.1692469999998
 20
87.10120899999997
 30
0.0
 11
176.1692469999999
 21
87.10120899999997
 31
0.0
  0
ARC
  5
A4E1
330
A26C
100
AcDbEntity
  8
1
  6
Continuous
100
AcDbCircle
 10
186.1692469999999
 20
74.60120899999998
 30
0.0
 40
60.0
100
AcDbArc
 50
171.150117
 51
188.8498829999998
  0
LINE
  5
A4E2
330
A26C
100
AcDbEntity
  8
1
  6
Continuous
100
AcDbLine
 10
144.746598
 20
64.10120899999999
 30
0.0
 11
144.9712019999998
 21
63.71218299999998
 31
0.0
  0
ARC
  5
A4E3
330
A26C
100
AcDbEntity
  8
1
  6
Continuous
100
AcDbCircle
 10
145.231009
 20
63.86218299999999
 30
0.0
 40
0.3
100
AcDbArc
 50
210.0
 51
256.258585
  0
LINE
  5
A4E4
330
A26C
100
AcDbEntity
  8
1
  6
Continuous
100
AcDbLine
 10
151.1692469999998
 20
62.10120899999999
 30
0.0
 11
152.3239479999998
 21
60.101209
 31
0.0
  0
LINE
  5
A4E5
330
A26C
100
AcDbEntity
  8
1
  6
Continuous
100
AcDbLine
 10
157.9192469999999
 20
53.79676599999999
 30
0.0
 11
157.9192469999999
 21
55.792709
 31
0.0
  0
LINE
  5
A4E6
330
A26C
100
AcDbEntity
  8
1
  6
Continuous
100
AcDbLine
 10
151.1692469999998
 20
62.10120899999999
 30
0.0
 11
145.159747
 21
63.57077
 31
0.0
  0
ARC
  5
A4E7
330
A26C
100
AcDbEntity
  8
1
  6
Continuous
100
AcDbCircle
 10
128.3657009999998
 20
65.601209
 30
0.0
 40
1.5
100
AcDbArc
 50
188.8498829999998
 51
270.0
  0
LINE
  5
A4E8
330
A26C
100
AcDbEntity
  8
1
  6
Continuous
100
AcDbLine
 10
144.746598
 20
85.10120899999998
 30
0.0
 11
144.9712019999998
 21
85.490235
 31
0.0
  0
ARC
  5
A4E9
330
A26C
100
AcDbEntity
  8
1
  6
Continuous
100
AcDbCircle
 10
145.231009
 20
85.34023499999998
 30
0.0
 40
0.3
100
AcDbArc
 50
103.741415
 51
150.0
  0
LINE
  5
A4EA
330
A26C
100
AcDbEntity
  8
1
  6
Continuous
100
AcDbLine
 10
151.1692469999998
 20
87.10120899999997
 30
0.0
 11
152.3239479999998
 21
89.10120899999999
 31
0.0
  0
LINE
  5
A4EB
330
A26C
100
AcDbEntity
  8
1
  6
Continuous
100
AcDbLine
 10
151.1692469999998
 20
87.10120899999997
 30
0.0
 11
145.159747
 21
85.631648
 31
0.0
  0
ARC
  5
A4EC
330
A26C
100
AcDbEntity
  8
1
  6
Continuous
100
AcDbCircle
 10
128.3657009999998
 20
83.60120899999998
 30
0.0
 40
1.5
100
AcDbArc
 50
90.0
 51
171.150117
  0
ARC
  5
A4ED
330
A26C
100
AcDbEntity
  8
1
  6
Continuous
100
AcDbCircle
 10
417.137504
 20
178.7334899999999
 30
0.0
 40
37.5
100
AcDbArc
 50
137.903804
 51
82.60460999999997
  0
ARC
  5
A4EE
330
A26C
100
AcDbEntity
  8
1
  6
Continuous
100
AcDbCircle
 10
417.137504
 20
178.7334899999999
 30
0.0
 40
28.0
100
AcDbArc
 50
143.9862819999999
 51
76.94200499999998
  0
ARC
  5
A4EF
330
A26C
100
AcDbEntity
  8
1
  6
Continuous
100
AcDbCircle
 10
417.137504
 20
178.7334899999999
 30
0.0
 40
19.5
100
AcDbArc
 50
155.210272
 51
66.597493
  0
ARC
  5
A4F0
330
A26C
100
AcDbEntity
  8
1
  6
Continuous
100
AcDbCircle
 10
417.137504
 20
178.7334899999999
 30
0.0
 40
12.5
100
AcDbArc
 50
182.5877099999999
 51
42.83294699999999
  0
ARC
  5
A4F1
330
A26C
100
AcDbEntity
  8
1
  6
Continuous
100
AcDbCircle
 10
66.956462
 20
178.733535
 30
0.0
 40
13.0
100
AcDbArc
 50
337.3801349999999
 51
22.619865
  0
LINE
  5
A4F2
330
A26C
100
AcDbEntity
  8
1
  6
Continuous
100
AcDbLine
 10
78.95655500000002
 20
183.733535
 30
0.0
 11
78.95655500000002
 21
173.7335349999999
 31
0.0
  0
LINE
  5
A4F3
330
A26C
100
AcDbEntity
  8
1
  6
Continuous
100
AcDbLine
 10
46.704661
 20
191.233535
 30
0.0
 11
46.704661
 21
166.233535
 31
0.0
  0
LINE
  5
A4F4
330
A26C
100
AcDbEntity
  8
1
  6
Continuous
100
AcDbLine
 10
44.704661
 20
190.078834
 30
0.0
 11
44.704661
 21
167.388235
 31
0.0
  0
LINE
  5
A4F5
330
A26C
100
AcDbEntity
  8
1
  6
Continuous
100
AcDbLine
 10
73.704661
 20
190.078834
 30
0.0
 11
73.704661
 21
167.388235
 31
0.0
  0
LINE
  5
A4F6
330
A26C
100
AcDbEntity
  8
1
  6
Continuous
100
AcDbLine
 10
71.704661
 20
191.233535
 30
0.0
 11
71.704661
 21
166.233535
 31
0.0
  0
LINE
  5
A4F7
330
A26C
100
AcDbEntity
  8
1
  6
Continuous
100
AcDbLine
 10
38.400218
 20
184.4835349999999
 30
0.0
 11
38.400218
 21
172.9835349999999
 31
0.0
  0
ARC
  5
A4F8
330
A26C
100
AcDbEntity
  8
1
  6
Continuous
100
AcDbCircle
 10
47.18586
 20
178.733535
 30
0.0
 40
10.5
100
AcDbArc
 50
146.796177
 51
213.203823
  0
LINE
  5
A4F9
330
A26C
100
AcDbEntity
  8
1
  6
Continuous
100
AcDbLine
 10
69.704661
 20
143.4299879999999
 30
0.0
 11
69.704661
 21
214.0370809999998
 31
0.0
  0
LINE
  5
A4FA
330
A26C
100
AcDbEntity
  8
1
  6
Continuous
100
AcDbLine
 10
48.704661
 20
143.4299879999999
 30
0.0
 11
48.704661
 21
214.0370809999998
 31
0.0
  0
ARC
  5
A4FB
330
A26C
100
AcDbEntity
  8
1
  6
Continuous
100
AcDbCircle
 10
59.204661
 20
201.2335349999999
 30
0.0
 40
60.0
100
AcDbArc
 50
261.1501169999999
 51
278.8498829999999
  0
ARC
  5
A4FC
330
A26C
100
AcDbEntity
  8
1
  6
Continuous
100
AcDbCircle
 10
50.204661
 20
143.4299879999999
 30
0.0
 40
1.5
100
AcDbArc
 50
180.0
 51
261.1501169999999
  0
LINE
  5
A4FD
330
A26C
100
AcDbEntity
  8
1
  6
Continuous
100
AcDbLine
 10
38.400218
 20
172.9835349999999
 30
0.0
 11
40.39616099999999
 21
172.9835349999999
 31
0.0
  0
LINE
  5
A4FE
330
A26C
100
AcDbEntity
  8
1
  6
Continuous
100
AcDbLine
 10
46.704661
 20
166.233535
 30
0.0
 11
44.704661
 21
167.388235
 31
0.0
  0
ARC
  5
A4FF
330
A26C
100
AcDbEntity
  8
1
  6
Continuous
100
AcDbCircle
 10
48.465635
 20
160.295297
 30
0.0
 40
0.3
100
AcDbArc
 50
193.741415
 51
239.9999999999999
  0
LINE
  5
A500
330
A26C
100
AcDbEntity
  8
1
  6
Continuous
100
AcDbLine
 10
48.704661
 20
159.810885
 30
0.0
 11
48.315635
 21
160.035489
 31
0.0
  0
LINE
  5
A501
330
A26C
100
AcDbEntity
  8
1
  6
Continuous
100
AcDbLine
 10
46.704661
 20
166.233535
 30
0.0
 11
48.174222
 21
160.2240349999999
 31
0.0
  0
ARC
  5
A502
330
A26C
100
AcDbEntity
  8
1
  6
Continuous
100
AcDbCircle
 10
68.204661
 20
143.4299879999999
 30
0.0
 40
1.5
100
AcDbArc
 50
278.8498829999999
 51
0.0
  0
LINE
  5
A503
330
A26C
100
AcDbEntity
  8
1
  6
Continuous
100
AcDbLine
 10
71.704661
 20
166.233535
 30
0.0
 11
73.704661
 21
167.388235
 31
0.0
  0
ARC
  5
A504
330
A26C
100
AcDbEntity
  8
1
  6
Continuous
100
AcDbCircle
 10
69.94368699999999
 20
160.295297
 30
0.0
 40
0.3
100
AcDbArc
 50
300.0
 51
346.2585849999999
  0
LINE
  5
A505
330
A26C
100
AcDbEntity
  8
1
  6
Continuous
100
AcDbLine
 10
69.704661
 20
159.810885
 30
0.0
 11
70.093687
 21
160.035489
 31
0.0
  0
LINE
  5
A506
330
A26C
100
AcDbEntity
  8
1
  6
Continuous
100
AcDbLine
 10
71.704661
 20
166.233535
 30
0.0
 11
70.2351
 21
160.2240349999999
 31
0.0
  0
LINE
  5
A507
330
A26C
100
AcDbEntity
  8
1
  6
Continuous
100
AcDbLine
 10
78.01316099999998
 20
173.7335349999999
 30
0.0
 11
78.95655500000002
 21
173.7335349999999
 31
0.0
  0
ARC
  5
A508
330
A26C
100
AcDbEntity
  8
1
  6
Continuous
100
AcDbCircle
 10
59.204661
 20
156.2335349999999
 30
0.0
 40
60.0
100
AcDbArc
 50
81.15011700000001
 51
98.84988300000001
  0
LINE
  5
A509
330
A26C
100
AcDbEntity
  8
1
  6
Continuous
100
AcDbLine
 10
38.400218
 20
184.4835349999999
 30
0.0
 11
40.39616099999999
 21
184.4835349999999
 31
0.0
  0
LINE
  5
A50A
330
A26C
100
AcDbEntity
  8
1
  6
Continuous
100
AcDbLine
 10
46.704661
 20
191.233535
 30
0.0
 11
48.174222
 21
197.2430349999999
 31
0.0
  0
LINE
  5
A50B
330
A26C
100
AcDbEntity
  8
1
  6
Continuous
100
AcDbLine
 10
46.704661
 20
191.233535
 30
0.0
 11
44.704661
 21
190.078834
 31
0.0
  0
ARC
  5
A50C
330
A26C
100
AcDbEntity
  8
1
  6
Continuous
100
AcDbCircle
 10
48.465635
 20
197.171773
 30
0.0
 40
0.3
100
AcDbArc
 50
119.9999999999999
 51
166.258585
  0
LINE
  5
A50D
330
A26C
100
AcDbEntity
  8
1
  6
Continuous
100
AcDbLine
 10
48.704661
 20
197.656184
 30
0.0
 11
48.315635
 21
197.43158
 31
0.0
  0
ARC
  5
A50E
330
A26C
100
AcDbEntity
  8
1
  6
Continuous
100
AcDbCircle
 10
50.204661
 20
214.0370809999998
 30
0.0
 40
1.5
100
AcDbArc
 50
98.84988300000001
 51
180.0
  0
LINE
  5
A50F
330
A26C
100
AcDbEntity
  8
1
  6
Continuous
100
AcDbLine
 10
71.704661
 20
191.233535
 30
0.0
 11
70.2351
 21
197.2430349999999
 31
0.0
  0
LINE
  5
A510
330
A26C
100
AcDbEntity
  8
1
  6
Continuous
100
AcDbLine
 10
71.704661
 20
191.233535
 30
0.0
 11
73.704661
 21
190.078834
 31
0.0
  0
ARC
  5
A511
330
A26C
100
AcDbEntity
  8
1
  6
Continuous
100
AcDbCircle
 10
69.94368699999999
 20
197.171773
 30
0.0
 40
0.3
100
AcDbArc
 50
13.741415
 51
60.0
  0
LINE
  5
A512
330
A26C
100
AcDbEntity
  8
1
  6
Continuous
100
AcDbLine
 10
69.704661
 20
197.656184
 30
0.0
 11
70.093687
 21
197.43158
 31
0.0
  0
LINE
  5
A513
330
A26C
100
AcDbEntity
  8
1
  6
Continuous
100
AcDbLine
 10
78.01316099999998
 20
183.733535
 30
0.0
 11
78.95655500000002
 21
183.733535
 31
0.0
  0
ARC
  5
A514
330
A26C
100
AcDbEntity
  8
1
  6
Continuous
100
AcDbCircle
 10
68.204661
 20
214.0370809999998
 30
0.0
 40
1.5
100
AcDbArc
 50
0.0
 51
81.15011700000001
  0
LINE
  5
A515
330
A26C
100
AcDbEntity
  8
1
  6
Continuous
100
AcDbLine
 10
47.719019
 20
215.695192
 30
0.0
 11
51.16181199999999
 21
215.6920299999999
 31
0.0
  0
LINE
  5
A516
330
A26C
100
AcDbEntity
  8
1
  6
Continuous
100
AcDbLine
 10
67.35673299999999
 20
215.6771529999998
 30
0.0
 11
70.72671899999997
 21
215.674058
 31
0.0
  0
LINE
  5
A517
330
A26C
100
AcDbEntity
  8
1
  6
Continuous
100
AcDbLine
 10
279.9033759999999
 20
143.4299429999998
 30
0.0
 11
279.9033759999999
 21
214.0370359999999
 31
0.0
  0
LINE
  5
A518
330
A26C
100
AcDbEntity
  8
1
  6
Continuous
100
AcDbLine
 10
300.9033759999999
 20
143.4299429999998
 30
0.0
 11
300.9033759999999
 21
214.0370359999999
 31
0.0
  0
ARC
  5
A519
330
A26C
100
AcDbEntity
  8
1
  6
Continuous
100
AcDbCircle
 10
290.4033759999999
 20
201.2334899999999
 30
0.0
 40
60.0
100
AcDbArc
 50
261.1501169999999
 51
278.8498829999999
  0
ARC
  5
A51A
330
A26C
100
AcDbEntity
  8
1
  6
Continuous
100
AcDbCircle
 10
281.403376
 20
143.4299429999998
 30
0.0
 40
1.5
100
AcDbArc
 50
180.0
 51
261.1501169999999
  0
ARC
  5
A51B
330
A26C
100
AcDbEntity
  8
1
  6
Continuous
100
AcDbCircle
 10
299.4033759999999
 20
143.4299429999998
 30
0.0
 40
1.5
100
AcDbArc
 50
278.8498829999999
 51
0.0
  0
LINE
  5
A51C
330
A26C
100
AcDbEntity
  8
1
  6
Continuous
100
AcDbLine
 10
275.9033759999999
 20
190.078789
 30
0.0
 11
275.9033759999999
 21
167.3881899999998
 31
0.0
  0
LINE
  5
A51D
330
A26C
100
AcDbEntity
  8
1
  6
Continuous
100
AcDbLine
 10
277.9033759999999
 20
191.2334899999999
 30
0.0
 11
277.9033759999999
 21
166.2334899999999
 31
0.0
  0
LINE
  5
A51E
330
A26C
100
AcDbEntity
  8
1
  6
Continuous
100
AcDbLine
 10
275.9033759999999
 20
174.73349
 30
0.0
 11
273.8948759999999
 21
174.73349
 31
0.0
  0
LINE
  5
A51F
330
A26C
100
AcDbEntity
  8
1
  6
Continuous
100
AcDbLine
 10
277.9033759999999
 20
166.2334899999999
 30
0.0
 11
275.9033759999999
 21
167.3881899999998
 31
0.0
  0
ARC
  5
A520
330
A26C
100
AcDbEntity
  8
1
  6
Continuous
100
AcDbCircle
 10
279.66435
 20
160.295252
 30
0.0
 40
0.3
100
AcDbArc
 50
193.741415
 51
239.9999999999999
  0
LINE
  5
A521
330
A26C
100
AcDbEntity
  8
1
  6
Continuous
100
AcDbLine
 10
279.9033759999999
 20
159.8108399999999
 30
0.0
 11
279.51435
 21
160.0354439999998
 31
0.0
  0
LINE
  5
A522
330
A26C
100
AcDbEntity
  8
1
  6
Continuous
100
AcDbLine
 10
277.9033759999999
 20
166.2334899999999
 30
0.0
 11
279.3729369999999
 21
160.2239899999998
 31
0.0
  0
LINE
  5
A523
330
A26C
100
AcDbEntity
  8
1
  6
Continuous
100
AcDbLine
 10
275.9033759999999
 20
182.7334899999999
 30
0.0
 11
273.8948759999999
 21
182.7334899999999
 31
0.0
  0
LINE
  5
A524
330
A26C
100
AcDbEntity
  8
1
  6
Continuous
100
AcDbLine
 10
277.9033759999999
 20
191.2334899999999
 30
0.0
 11
279.3729369999999
 21
197.24299
 31
0.0
  0
LINE
  5
A525
330
A26C
100
AcDbEntity
  8
1
  6
Continuous
100
AcDbLine
 10
277.9033759999999
 20
191.2334899999999
 30
0.0
 11
275.9033759999999
 21
190.078789
 31
0.0
  0
ARC
  5
A526
330
A26C
100
AcDbEntity
  8
1
  6
Continuous
100
AcDbCircle
 10
279.66435
 20
197.171728
 30
0.0
 40
0.3
100
AcDbArc
 50
119.9999999999999
 51
166.258585
  0
LINE
  5
A527
330
A26C
100
AcDbEntity
  8
1
  6
Continuous
100
AcDbLine
 10
279.9033759999999
 20
197.656139
 30
0.0
 11
279.51435
 21
197.4315349999999
 31
0.0
  0
LINE
  5
A528
330
A26C
100
AcDbEntity
  8
1
  6
Continuous
100
AcDbLine
 10
302.9033759999999
 20
191.2334899999999
 30
0.0
 11
302.9033759999999
 21
166.2334899999999
 31
0.0
  0
LINE
  5
A529
330
A26C
100
AcDbEntity
  8
1
  6
Continuous
100
AcDbLine
 10
304.9033759999999
 20
190.078789
 30
0.0
 11
304.9033759999999
 21
167.3881899999998
 31
0.0
  0
LINE
  5
A52A
330
A26C
100
AcDbEntity
  8
1
  6
Continuous
100
AcDbLine
 10
311.2078189999999
 20
174.053984
 30
0.0
 11
311.2078189999999
 21
172.9834899999999
 31
0.0
  0
ARC
  5
A52B
330
A26C
100
AcDbEntity
  8
1
  6
Continuous
100
AcDbCircle
 10
302.422177
 20
178.7334899999999
 30
0.0
 40
10.5
100
AcDbArc
 50
326.7961769999998
 51
358.4180579999999
  0
LINE
  5
A52C
330
A26C
100
AcDbEntity
  8
1
  6
Continuous
100
AcDbLine
 10
311.2078189999999
 20
172.9834899999999
 30
0.0
 11
310.7077199999999
 21
172.9834899999999
 31
0.0
  0
LINE
  5
A52D
330
A26C
100
AcDbEntity
  8
1
  6
Continuous
100
AcDbLine
 10
306.9118759999998
 20
174.73349
 30
0.0
 11
304.9033759999999
 21
174.73349
 31
0.0
  0
LINE
  5
A52E
330
A26C
100
AcDbEntity
  8
1
  6
Continuous
100
AcDbLine
 10
302.9033759999999
 20
166.2334899999999
 30
0.0
 11
304.9033759999999
 21
167.3881899999998
 31
0.0
  0
ARC
  5
A52F
330
A26C
100
AcDbEntity
  8
1
  6
Continuous
100
AcDbCircle
 10
301.142402
 20
160.295252
 30
0.0
 40
0.3
100
AcDbArc
 50
300.0
 51
346.2585849999999
  0
LINE
  5
A530
330
A26C
100
AcDbEntity
  8
1
  6
Continuous
100
AcDbLine
 10
300.9033759999999
 20
159.8108399999999
 30
0.0
 11
301.2924019999999
 21
160.0354439999998
 31
0.0
  0
LINE
  5
A531
330
A26C
100
AcDbEntity
  8
1
  6
Continuous
100
AcDbLine
 10
302.9033759999999
 20
166.2334899999999
 30
0.0
 11
301.4338149999999
 21
160.2239899999998
 31
0.0
  0
LINE
  5
A532
330
A26C
100
AcDbEntity
  8
1
  6
Continuous
100
AcDbLine
 10
302.9033759999999
 20
191.2334899999999
 30
0.0
 11
301.4338149999999
 21
197.24299
 31
0.0
  0
LINE
  5
A533
330
A26C
100
AcDbEntity
  8
1
  6
Continuous
100
AcDbLine
 10
302.9033759999999
 20
191.2334899999999
 30
0.0
 11
304.9033759999999
 21
190.078789
 31
0.0
  0
ARC
  5
A534
330
A26C
100
AcDbEntity
  8
1
  6
Continuous
100
AcDbCircle
 10
301.142402
 20
197.171728
 30
0.0
 40
0.3
100
AcDbArc
 50
13.741415
 51
60.0
  0
LINE
  5
A535
330
A26C
100
AcDbEntity
  8
1
  6
Continuous
100
AcDbLine
 10
306.9118759999998
 20
182.7334899999999
 30
0.0
 11
304.9033759999999
 21
182.7334899999999
 31
0.0
  0
LINE
  5
A536
330
A26C
100
AcDbEntity
  8
1
  6
Continuous
100
AcDbLine
 10
300.9033759999999
 20
197.656139
 30
0.0
 11
301.2924019999999
 21
197.4315349999999
 31
0.0
  0
ARC
  5
A537
330
A26C
100
AcDbEntity
  8
1
  6
Continuous
100
AcDbCircle
 10
290.4033759999999
 20
156.2334899999999
 30
0.0
 40
60.0
100
AcDbArc
 50
81.15011700000001
 51
82.16004899999999
  0
ARC
  5
A538
330
A26C
100
AcDbEntity
  8
1
  6
Continuous
100
AcDbCircle
 10
281.403376
 20
214.0370359999999
 30
0.0
 40
1.5
100
AcDbArc
 50
98.84988300000001
 51
180.0
  0
ARC
  5
A539
330
A26C
100
AcDbEntity
  8
1
  6
Continuous
100
AcDbCircle
 10
299.4033759999999
 20
214.0370359999999
 30
0.0
 40
1.5
100
AcDbArc
 50
0.0
 51
81.15011700000001
  0
ARC
  5
A53A
330
A26C
100
AcDbEntity
  8
1
  6
Continuous
100
AcDbCircle
 10
295.1360389999999
 20
194.2181659999999
 30
0.0
 40
20.0
100
AcDbArc
 50
3.794623999999998
 51
17.154698
  0
ARC
  5
A53B
330
A26C
100
AcDbEntity
  8
1
  6
Continuous
100
AcDbCircle
 10
361.6019039999998
 20
170.77931
 30
0.0
 40
99.466508
100
AcDbArc
 50
154.2684
 51
162.845302
  0
ARC
  5
A53C
330
A26C
100
AcDbEntity
  8
1
  6
Continuous
100
AcDbCircle
 10
285.6707119999999
 20
194.2181659999999
 30
0.0
 40
20.0
100
AcDbArc
 50
162.845302
 51
176.205376
  0
ARC
  5
A53D
330
A26C
100
AcDbEntity
  8
1
  6
Continuous
100
AcDbCircle
 10
310.615904
 20
192.563659
 30
0.0
 40
45.0
100
AcDbArc
 50
176.205376
 51
206.964022
  0
ARC
  5
A53E
330
A26C
100
AcDbEntity
  8
1
  6
Continuous
100
AcDbCircle
 10
319.2118759999999
 20
167.6249589999999
 30
0.0
 40
10.0
100
AcDbArc
 50
153.0359779999998
 51
180.0
  0
ARC
  5
A53F
330
A26C
100
AcDbEntity
  8
1
  6
Continuous
100
AcDbCircle
 10
319.2118759999999
 20
167.0895419999999
 30
0.0
 40
12.3
100
AcDbArc
 50
153.677111
 51
179.329451
  0
LINE
  5
A540
330
A26C
100
AcDbEntity
  8
1
  6
Continuous
100
AcDbLine
 10
306.9118759999998
 20
212.8298829999998
 30
0.0
 11
306.9118759999998
 21
167.2334899999999
 31
0.0
  0
ARC
  5
A541
330
A26C
100
AcDbEntity
  8
1
  6
Continuous
100
AcDbCircle
 10
261.594876
 20
167.0895419999999
 30
0.0
 40
12.3
100
AcDbArc
 50
0.670549
 51
26.322889
  0
ARC
  5
A542
330
A26C
100
AcDbEntity
  8
1
  6
Continuous
100
AcDbCircle
 10
261.594876
 20
167.6249589999999
 30
0.0
 40
10.0
100
AcDbArc
 50
0.0
 51
26.96402199999999
  0
LINE
  5
A543
330
A26C
100
AcDbEntity
  8
1
  6
Continuous
100
AcDbLine
 10
279.1554759999999
 20
215.664841
 30
0.0
 11
301.9254329999998
 21
215.674012
 31
0.0
  0
ARC
  5
A544
330
A26C
100
AcDbEntity
  8
1
  6
Continuous
100
AcDbCircle
 10
290.4033759999999
 20
156.2334899999999
 30
0.0
 40
60.0
100
AcDbArc
 50
97.88610400000003
 51
98.84988300000001
  0
LINE
  5
A545
330
A26C
100
AcDbEntity
  8
1
  6
Continuous
100
AcDbLine
 10
278.917733
 20
215.695147
 30
0.0
 11
279.1554759999999
 21
215.664841
 31
0.0
  0
ARC
  5
A546
330
A26C
100
AcDbEntity
  8
1
  6
Continuous
100
AcDbCircle
 10
128.3657009999998
 20
308.5054979999998
 30
0.0
 40
1.5
100
AcDbArc
 50
90.0
 51
171.150117
  0
ARC
  5
A547
330
A26C
100
AcDbEntity
  8
1
  6
Continuous
100
AcDbCircle
 10
128.3657009999998
 20
290.505498
 30
0.0
 40
1.5
100
AcDbArc
 50
188.8498829999998
 51
270.0
  0
ARC
  5
A548
330
A26C
100
AcDbEntity
  8
1
  6
Continuous
100
AcDbCircle
 10
186.1692469999999
 20
299.5054979999999
 30
0.0
 40
60.0
100
AcDbArc
 50
171.150117
 51
188.8498829999998
  0
LINE
  5
A549
330
A26C
100
AcDbEntity
  8
1
  6
Continuous
100
AcDbLine
 10
151.1692469999998
 20
312.0054979999999
 30
0.0
 11
152.3239479999998
 21
314.0054979999998
 31
0.0
  0
LINE
  5
A54A
330
A26C
100
AcDbEntity
  8
1
  6
Continuous
100
AcDbLine
 10
153.669172
 20
310.0054979999999
 30
0.0
 11
128.3657009999998
 21
310.0054979999999
 31
0.0
  0
LINE
  5
A54B
330
A26C
100
AcDbEntity
  8
1
  6
Continuous
100
AcDbLine
 10
153.669172
 20
289.005498
 30
0.0
 11
128.3657009999998
 21
289.005498
 31
0.0
  0
LINE
  5
A54C
330
A26C
100
AcDbEntity
  8
1
  6
Continuous
100
AcDbLine
 10
151.1692469999998
 20
312.0054979999999
 30
0.0
 11
153.669172
 21
312.0054979999999
 31
0.0
  0
LINE
  5
A54D
330
A26C
100
AcDbEntity
  8
1
  6
Continuous
100
AcDbLine
 10
160.026735
 20
320.309941
 30
0.0
 11
163.311609
 21
320.309941
 31
0.0
  0
LINE
  5
A54E
330
A26C
100
AcDbEntity
  8
1
  6
Continuous
100
AcDbLine
 10
152.3239479999998
 20
285.0054979999999
 30
0.0
 11
153.669172
 21
285.0054979999999
 31
0.0
  0
LINE
  5
A54F
330
A26C
100
AcDbEntity
  8
1
  6
Continuous
100
AcDbLine
 10
151.1692469999998
 20
287.0054979999998
 30
0.0
 11
153.669172
 21
287.0054979999998
 31
0.0
  0
LINE
  5
A550
330
A26C
100
AcDbEntity
  8
1
  6
Continuous
100
AcDbLine
 10
153.4691719999998
 20
282.996998
 30
0.0
 11
153.669172
 21
282.996998
 31
0.0
  0
LINE
  5
A551
330
A26C
100
AcDbEntity
  8
1
  6
Continuous
100
AcDbLine
 10
153.4691719999998
 20
280.696998
 30
0.0
 11
153.669172
 21
280.696998
 31
0.0
  0
LINE
  5
A552
330
A26C
100
AcDbEntity
  8
1
  6
Continuous
100
AcDbLine
 10
144.746598
 20
289.005498
 30
0.0
 11
144.9712019999998
 21
288.616472
 31
0.0
  0
ARC
  5
A553
330
A26C
100
AcDbEntity
  8
1
  6
Continuous
100
AcDbCircle
 10
145.231009
 20
288.766472
 30
0.0
 40
0.3
100
AcDbArc
 50
210.0
 51
256.258585
  0
LINE
  5
A554
330
A26C
100
AcDbEntity
  8
1
  6
Continuous
100
AcDbLine
 10
151.1692469999998
 20
287.0054979999998
 30
0.0
 11
152.3239479999998
 21
285.0054979999999
 31
0.0
  0
LINE
  5
A555
330
A26C
100
AcDbEntity
  8
1
  6
Continuous
100
AcDbLine
 10
151.1692469999998
 20
287.0054979999998
 30
0.0
 11
145.159747
 21
288.4750589999999
 31
0.0
  0
LINE
  5
A556
330
A26C
100
AcDbEntity
  8
1
  6
Continuous
100
AcDbLine
 10
153.4691719999998
 20
282.996998
 30
0.0
 11
153.4691719999998
 21
280.696998
 31
0.0
  0
LINE
  5
A557
330
A26C
100
AcDbEntity
  8
1
  6
Continuous
100
AcDbLine
 10
144.746598
 20
310.0054979999999
 30
0.0
 11
144.9712019999998
 21
310.3945239999999
 31
0.0
  0
ARC
  5
A558
330
A26C
100
AcDbEntity
  8
1
  6
Continuous
100
AcDbCircle
 10
145.231009
 20
310.244524
 30
0.0
 40
0.3
100
AcDbArc
 50
103.741415
 51
150.0
  0
LINE
  5
A559
330
A26C
100
AcDbEntity
  8
1
  6
Continuous
100
AcDbLine
 10
151.1692469999998
 20
312.0054979999999
 30
0.0
 11
145.159747
 21
310.5359369999998
 31
0.0
  0
LINE
  5
A55A
330
A26C
100
AcDbEntity
  8
1
  6
Continuous
100
AcDbLine
 10
158.9317709999999
 20
279.753604
 30
0.0
 11
164.406574
 21
279.753604
 31
0.0
  0
ARC
  5
A55B
330
A26C
100
AcDbEntity
  8
1
  6
Continuous
100
AcDbCircle
 10
163.6692469999998
 20
291.753697
 30
0.0
 40
13.0
100
AcDbArc
 50
249.0883729999999
 51
268.825153
  0
LINE
  5
A55C
330
A26C
100
AcDbEntity
  8
1
  6
Continuous
100
AcDbLine
 10
152.3239479999998
 20
314.0054979999998
 30
0.0
 11
153.669172
 21
314.0054979999998
 31
0.0
  0
LINE
  5
A55D
330
A26C
100
AcDbEntity
  8
1
  6
Continuous
100
AcDbLine
 10
153.4691719999998
 20
316.013998
 30
0.0
 11
153.669172
 21
316.013998
 31
0.0
  0
LINE
  5
A55E
330
A26C
100
AcDbEntity
  8
1
  6
Continuous
100
AcDbLine
 10
153.4691719999998
 20
318.313998
 30
0.0
 11
153.669172
 21
318.313998
 31
0.0
  0
LINE
  5
A55F
330
A26C
100
AcDbEntity
  8
1
  6
Continuous
100
AcDbLine
 10
158.6692469999999
 20
280.696998
 30
0.0
 11
158.6692469999999
 21
280.2553179999998
 31
0.0
  0
LINE
  5
A560
330
A26C
100
AcDbEntity
  8
1
  6
Continuous
100
AcDbLine
 10
153.4691719999998
 20
318.313998
 30
0.0
 11
153.4691719999998
 21
316.013998
 31
0.0
  0
ARC
  5
A561
330
A26C
100
AcDbEntity
  8
1
  6
Continuous
100
AcDbCircle
 10
200.065815
 20
223.521524
 30
0.0
 40
7.848514999999999
100
AcDbArc
 50
270.9161379999998
 51
314.603254
  0
LINE
  5
A562
330
A26C
100
AcDbEntity
  8
1
  6
Continuous
100
AcDbLine
 10
199.233205
 20
215.674892
 30
0.0
 11
200.191305
 21
215.674012
 31
0.0
  0
LINE
  5
A563
330
A26C
100
AcDbEntity
  8
1
  6
Continuous
100
AcDbLine
 10
380.6518609999998
 20
215.695147
 30
0.0
 11
381.5497099999998
 21
215.694322
 31
0.0
  0
ARC
  5
A564
330
A26C
100
AcDbEntity
  8
1
  6
Continuous
100
AcDbCircle
 10
381.2310029999999
 20
223.160111
 30
0.0
 40
7.487396
100
AcDbArc
 50
233.119947
 51
265.563802
  0
LINE
  5
A565
330
A26C
100
AcDbEntity
  8
1
  6
Continuous
100
AcDbLine
 10
375.695108
 20
217.923283
 30
0.0
 11
376.737504
 21
217.1709899999999
 31
0.0
  0
CIRCLE
  5
A566
330
A26C
100
AcDbEntity
  8
1
  6
Continuous
100
AcDbCircle
 10
417.137504
 20
178.7334899999999
 30
0.0
 40
5.75
  0
LINE
  5
A567
330
A26C
100
AcDbEntity
  8
4
  6
CENTER
100
AcDbLine
 10
163.6691719999998
 20
267.505498
 30
0.0
 11
163.6691719999998
 21
331.5054979999998
 31
0.0
  0
ENDSEC
  0
SECTION
  2
OBJECTS
  0
DICTIONARY
  5
A25A
330
0
100
AcDbDictionary
281
     1
  3
ACAD_CIP_PREVIOUS_PRODUCT_INFO
350
A5C9
  3
ACAD_COLOR
350
A5AB
  3
ACAD_DETAILVIEWSTYLE
350
A5C4
  3
ACAD_GROUP
350
A25B
  3
ACAD_LAYOUT
350
A267
  3
ACAD_MATERIAL
350
A579
  3
ACAD_MLEADERSTYLE
350
A5C0
  3
ACAD_MLINESTYLE
350
A264
  3
ACAD_PLOTSETTINGS
350
A266
  3
ACAD_PLOTSTYLENAME
350
A577
  3
ACAD_SCALELIST
350
A5AE
  3
ACAD_SECTIONVIEWSTYLE
350
A5C2
  3
ACAD_TABLESTYLE
350
A5AC
  3
ACAD_VISUALSTYLE
350
A592
  3
ACDB_RECOMPOSE_DATA
350
A5E7
  3
AcDbVariableDictionary
350
A5DA
  3
DWGPROPS
350
A5E8
  0
DICTIONARY
  5
A5CA
330
A25E
100
AcDbDictionary
280
     1
281
     1
  3
ADSK_XREC_LAYER_RECONCILED
360
A5CB
  0
DICTIONARY
  5
A5CC
330
A274
100
AcDbDictionary
280
     1
281
     1
  3
ADSK_XREC_LAYER_RECONCILED
360
A5CD
  0
DICTIONARY
  5
A5CE
330
A275
100
AcDbDictionary
280
     1
281
     1
  3
ADSK_XREC_LAYER_RECONCILED
360
A5CF
  0
DICTIONARY
  5
A5D0
330
A276
100
AcDbDictionary
280
     1
281
     1
  3
ADSK_XREC_LAYER_RECONCILED
360
A5D1
  0
DICTIONARY
  5
A5D2
330
A277
100
AcDbDictionary
280
     1
281
     1
  3
ADSK_XREC_LAYER_RECONCILED
360
A5D3
  0
DICTIONARY
  5
A5D4
330
A278
100
AcDbDictionary
280
     1
281
     1
  3
ADSK_XREC_LAYER_RECONCILED
360
A5D5
  0
DICTIONARY
  5
A5D6
330
A279
100
AcDbDictionary
280
     1
281
     1
  3
ADSK_XREC_LAYER_RECONCILED
360
A5D7
  0
DICTIONARY
  5
A5D8
330
A27A
100
AcDbDictionary
280
     1
281
     1
  3
ADSK_XREC_LAYER_RECONCILED
360
A5D9
  0
DICTIONARY
  5
A572
330
A26C
100
AcDbDictionary
281
     1
  3
ACAD_LAYOUTSELFREF
350
A573
  0
DICTIONARY
  5
A570
330
A268
100
AcDbDictionary
281
     1
  3
ACAD_LAYOUTSELFREF
350
A571
  0
XRECORD
  5
A5C9
102
{ACAD_REACTORS
330
A25A
102
}
330
A25A
100
AcDbXrecord
280
     1
300
ACDLT
300
2014
300
ACDLT_F_S
  0
DICTIONARY
  5
A5AB
102
{ACAD_REACTORS
330
A25A
102
}
330
A25A
100
AcDbDictionary
281
     1
  0
DICTIONARY
  5
A5C4
102
{ACAD_REACTORS
330
A25A
102
}
330
A25A
100
AcDbDictionary
281
     1
  3
Imperial24
350
A5C5
  0
DICTIONARY
  5
A25B
102
{ACAD_REACTORS
330
A25A
102
}
330
A25A
100
AcDbDictionary
281
     1
  0
DICTIONARY
  5
A267
102
{ACAD_REACTORS
330
A25A
102
}
330
A25A
100
AcDbDictionary
281
     1
  3
Model
350
A5C6
  3
レイアウト1
350
A5C7
  0
DICTIONARY
  5
A579
102
{ACAD_REACTORS
330
A25A
102
}
330
A25A
100
AcDbDictionary
281
     1
  3
ByBlock
350
A582
  3
ByLayer
350
A57A
  3
Global
350
A58A
  0
DICTIONARY
  5
A5C0
102
{ACAD_REACTORS
330
A25A
102
}
330
A25A
100
AcDbDictionary
281
     1
  3
Standard
350
A5C1
  0
DICTIONARY
  5
A264
102
{ACAD_REACTORS
330
A25A
102
}
330
A25A
100
AcDbDictionary
281
     1
  3
STANDARD
350
A265
  0
DICTIONARY
  5
A266
102
{ACAD_REACTORS
330
A25A
102
}
330
A25A
100
AcDbDictionary
281
     1
  0
ACDBDICTIONARYWDFLT
  5
A577
102
{ACAD_REACTORS
330
A25A
102
}
330
A25A
100
AcDbDictionary
281
     1
  3
Normal
350
A578
100
AcDbDictionaryWithDefault
340
A578
  0
DICTIONARY
  5
A5AE
102
{ACAD_REACTORS
330
A25A
102
}
330
A25A
100
AcDbDictionary
281
     1
  3
A0
350
A5AF
  3
A1
350
A5B0
  3
A2
350
A5B1
  3
A3
350
A5B2
  3
A4
350
A5B3
  3
A5
350
A5B4
  3
A6
350
A5B5
  3
A7
350
A5B6
  3
A8
350
A5B7
  3
A9
350
A5B8
  3
B0
350
A5B9
  3
B1
350
A5BA
  3
B2
350
A5BB
  3
B3
350
A5BC
  3
B4
350
A5BD
  3
B5
350
A5BE
  3
B6
350
A5BF
  0
DICTIONARY
  5
A5C2
102
{ACAD_REACTORS
330
A25A
102
}
330
A25A
100
AcDbDictionary
281
     1
  3
Imperial24
350
A5C3
  0
DICTIONARY
  5
A5AC
102
{ACAD_REACTORS
330
A25A
102
}
330
A25A
100
AcDbDictionary
281
     1
  3
Standard
350
A5AD
  0
DICTIONARY
  5
A592
102
{ACAD_REACTORS
330
A25A
102
}
330
A25A
100
AcDbDictionary
281
     1
  3
2dWireframe
350
A598
  3
Basic
350
A597
  3
Brighten
350
A59E
  3
ColorChange
350
A5A2
  3
Conceptual
350
A59B
  3
Dim
350
A59D
  3
EdgeColorOff
350
A5AA
  3
Facepattern
350
A5A1
  3
Flat
350
A593
  3
FlatWithEdges
350
A594
  3
Gouraud
350
A595
  3
GouraudWithEdges
350
A596
  3
Hidden
350
A59A
  3
JitterOff
350
A5A8
  3
Linepattern
350
A5A0
  3
OverhangOff
350
A5A9
  3
Realistic
350
A59C
  3
Shaded
350
A5A7
  3
Shaded with edges
350
A5A6
  3
Shades of Gray
350
A5A3
  3
Sketchy
350
A5A4
  3
Thicken
350
A59F
  3
Wireframe
350
A599
  3
X-Ray
350
A5A5
  0
XRECORD
  5
A5E7
102
{ACAD_REACTORS
330
A25A
102
}
330
A25A
100
AcDbXrecord
280
     1
 90
        1
330
A5AD
  0
DICTIONARY
  5
A5DA
102
{ACAD_REACTORS
330
A25A
102
}
330
A25A
100
AcDbDictionary
281
     1
  3
CANNOSCALE
350
A5DF
  3
CMLEADERSTYLE
350
A5DC
  3
CTABLESTYLE
350
A5DB
  3
CVIEWDETAILSTYLE
350
A5DD
  3
CVIEWSECTIONSTYLE
350
A5DE
  3
DIMASSOC
350
A5E2
  3
INDEXCTL
350
A5E1
  3
SORTENTS
350
A5E0
  3
XCLIPFRAME
350
A5E3
  0
XRECORD
  5
A5E8
102
{ACAD_REACTORS
330
A25A
102
}
330
A25A
100
AcDbXrecord
280
     1
  1
DWGPROPS COOKIE
  2

  3

  4

  6

  7

  8
Yoshitsune
  9

300
=
301
=
302
=
303
=
304
=
305
=
306
=
307
=
308
=
309
=
 40
0.0000105439814815
 41
2451302.615440741
 42
2457192.687033333
  1

 90
        0
  0
XRECORD
  5
A5CB
102
{ACAD_REACTORS
330
A5CA
102
}
330
A5CA
100
AcDbXrecord
280
     1
290
     1
  0
XRECORD
  5
A5CD
102
{ACAD_REACTORS
330
A5CC
102
}
330
A5CC
100
AcDbXrecord
280
     1
290
     1
  0
XRECORD
  5
A5CF
102
{ACAD_REACTORS
330
A5CE
102
}
330
A5CE
100
AcDbXrecord
280
     1
290
     1
  0
XRECORD
  5
A5D1
102
{ACAD_REACTORS
330
A5D0
102
}
330
A5D0
100
AcDbXrecord
280
     1
290
     1
  0
XRECORD
  5
A5D3
102
{ACAD_REACTORS
330
A5D2
102
}
330
A5D2
100
AcDbXrecord
280
     1
290
     1
  0
XRECORD
  5
A5D5
102
{ACAD_REACTORS
330
A5D4
102
}
330
A5D4
100
AcDbXrecord
280
     1
290
     1
  0
XRECORD
  5
A5D7
102
{ACAD_REACTORS
330
A5D6
102
}
330
A5D6
100
AcDbXrecord
280
     1
290
     1
  0
XRECORD
  5
A5D9
102
{ACAD_REACTORS
330
A5D8
102
}
330
A5D8
100
AcDbXrecord
280
     1
290
     1
  0
XRECORD
  5
A573
102
{ACAD_REACTORS
330
A572
102
}
330
A572
100
AcDbXrecord
280
     1
340
A26C
  0
XRECORD
  5
A571
102
{ACAD_REACTORS
330
A570
102
}
330
A570
100
AcDbXrecord
280
     1
340
A268
  0
ACDBDETAILVIEWSTYLE
  5
A5C5
102
{ACAD_XDICTIONARY
360
A620
102
}
102
{ACAD_REACTORS
330
A5C4
102
}
330
A5C4
100
AcDbModelDocViewStyle
 70
     0
  3
Imperial24
290
     0
100
AcDbDetailViewStyle
 70
     0
 71
     0
 90
        3
 71
     1
340
A25F
 40
0.24
340
0
 40
0.24
300

 40
0.36
280
     3
 71
     2
340
A263
 90
       25
 71
     3
340
A25F
 40
0.24
 90
        1
 40
0.75
 90
        1
300
%<\AcVar ViewType \f "%tc1">% %<\AcVar ViewDetailId>%\PSCALE %<\AcVar ViewScale \f "%sn">%
 71
     4
340
A263
 90
       25
340
A263
 90
       25
280
     0
  0
LAYOUT
  5
A5C6
102
{ACAD_XDICTIONARY
360
A622
102
}
102
{ACAD_REACTORS
330
A267
102
}
330
A267
100
AcDbPlotSettings
  1

  2
Canon LBP9100C
  4

  6

 40
0.0
 41
0.0
 42
0.0
 43
0.0
 44
0.0
 45
0.0
 46
0.0
 47
0.0
 48
0.0
 49
0.0
140
0.0
141
0.0
142
1.0
143
1.0
 70
  1712
 72
     0
 73
     0
 74
     0
  7

 75
     0
147
1.0
148
0.0
149
0.0
100
AcDbLayout
  1
Model
 70
     1
 71
     0
 10
0.0
 20
0.0
 11
12.0
 21
9.0
 12
0.0
 22
0.0
 32
0.0
 14
0.0
 24
0.0
 34
0.0
 15
0.0
 25
0.0
 35
0.0
146
0.0
 13
0.0
 23
0.0
 33
0.0
 16
1.0
 26
0.0
 36
0.0
 17
0.0
 27
1.0
 37
0.0
 76
     0
330
A26C
331
A56F
  0
LAYOUT
  5
A5C7
102
{ACAD_XDICTIONARY
360
A624
102
}
102
{ACAD_REACTORS
330
A267
102
}
330
A267
100
AcDbPlotSettings
  1

  2
Canon LBP9100C
  4

  6

 40
0.0
 41
0.0
 42
0.0
 43
0.0
 44
0.0
 45
0.0
 46
0.0
 47
0.0
 48
0.0
 49
0.0
140
0.0
141
0.0
142
1.0
143
1.0
 70
   688
 72
     0
 73
     0
 74
     5
  7

 75
    16
147
1.0
148
0.0
149
0.0
100
AcDbLayout
  1
レイアウト1
 70
     0
 71
     1
 10
0.0
 20
0.0
 11
420.0
 21
297.0
 12
0.0
 22
0.0
 32
0.0
 14
1.000000000000000E+20
 24
1.000000000000000E+20
 34
1.000000000000000E+20
 15
-1.000000000000000E+20
 25
-1.000000000000000E+20
 35
-1.000000000000000E+20
146
0.0
 13
0.0
 23
0.0
 33
0.0
 16
1.0
 26
0.0
 36
0.0
 17
0.0
 27
1.0
 37
0.0
 76
     0
330
A268
  0
MATERIAL
  5
A582
102
{ACAD_XDICTIONARY
360
A583
102
}
102
{ACAD_REACTORS
330
A579
102
}
330
A579
100
AcDbMaterial
  1
ByBlock
 72
     0
 43
0.0208333333333333
 43
0.0
 43
0.0
 43
0.0
 43
0.0
 43
0.0208333333333333
 43
0.0
 43
0.0
 43
0.0
 43
0.0
 43
1.0
 43
0.0
 43
0.0
 43
0.0
 43
0.0
 43
1.0
 77
     0
 47
0.0208333333333333
 47
0.0
 47
0.0
 47
0.0
 47
0.0
 47
0.0208333333333333
 47
0.0
 47
0.0
 47
0.0
 47
0.0
 47
1.0
 47
0.0
 47
0.0
 47
0.0
 47
0.0
 47
1.0
171
     0
 49
0.0208333333333333
 49
0.0
 49
0.0
 49
0.0
 49
0.0
 49
0.0208333333333333
 49
0.0
 49
0.0
 49
0.0
 49
0.0
 49
1.0
 49
0.0
 49
0.0
 49
0.0
 49
0.0
 49
1.0
175
     0
142
0.0208333333333333
142
0.0
142
0.0
142
0.0
142
0.0
142
0.0208333333333333
142
0.0
142
0.0
142
0.0
142
0.0
142
1.0
142
0.0
142
0.0
142
0.0
142
0.0
142
1.0
179
     0
144
0.0208333333333333
144
0.0
144
0.0
144
0.0
144
0.0
144
0.0208333333333333
144
0.0
144
0.0
144
0.0
144
0.0
144
1.0
144
0.0
144
0.0
144
0.0
144
0.0
144
1.0
147
0.0208333333333333
147
0.0
147
0.0
147
0.0
147
0.0
147
0.0208333333333333
147
0.0
147
0.0
147
0.0
147
0.0
147
1.0
147
0.0
147
0.0
147
0.0
147
0.0
147
1.0
  0
MATERIAL
  5
A57A
102
{ACAD_XDICTIONARY
360
A57B
102
}
102
{ACAD_REACTORS
330
A579
102
}
330
A579
100
AcDbMaterial
  1
ByLayer
 72
     0
 43
0.0208333333333333
 43
0.0
 43
0.0
 43
0.0
 43
0.0
 43
0.0208333333333333
 43
0.0
 43
0.0
 43
0.0
 43
0.0
 43
1.0
 43
0.0
 43
0.0
 43
0.0
 43
0.0
 43
1.0
 77
     0
 47
0.0208333333333333
 47
0.0
 47
0.0
 47
0.0
 47
0.0
 47
0.0208333333333333
 47
0.0
 47
0.0
 47
0.0
 47
0.0
 47
1.0
 47
0.0
 47
0.0
 47
0.0
 47
0.0
 47
1.0
171
     0
 49
0.0208333333333333
 49
0.0
 49
0.0
 49
0.0
 49
0.0
 49
0.0208333333333333
 49
0.0
 49
0.0
 49
0.0
 49
0.0
 49
1.0
 49
0.0
 49
0.0
 49
0.0
 49
0.0
 49
1.0
175
     0
142
0.0208333333333333
142
0.0
142
0.0
142
0.0
142
0.0
142
0.0208333333333333
142
0.0
142
0.0
142
0.0
142
0.0
142
1.0
142
0.0
142
0.0
142
0.0
142
0.0
142
1.0
179
     0
144
0.0208333333333333
144
0.0
144
0.0
144
0.0
144
0.0
144
0.0208333333333333
144
0.0
144
0.0
144
0.0
144
0.0
144
1.0
144
0.0
144
0.0
144
0.0
144
0.0
144
1.0
147
0.0208333333333333
147
0.0
147
0.0
147
0.0
147
0.0
147
0.0208333333333333
147
0.0
147
0.0
147
0.0
147
0.0
147
1.0
147
0.0
147
0.0
147
0.0
147
0.0
147
1.0
  0
MATERIAL
  5
A58A
102
{ACAD_XDICTIONARY
360
A58B
102
}
102
{ACAD_REACTORS
330
A579
102
}
330
A579
100
AcDbMaterial
  1
Global
 72
     0
 43
0.0208333333333333
 43
0.0
 43
0.0
 43
0.0
 43
0.0
 43
0.0208333333333333
 43
0.0
 43
0.0
 43
0.0
 43
0.0
 43
1.0
 43
0.0
 43
0.0
 43
0.0
 43
0.0
 43
1.0
 77
     0
 47
0.0208333333333333
 47
0.0
 47
0.0
 47
0.0
 47
0.0
 47
0.0208333333333333
 47
0.0
 47
0.0
 47
0.0
 47
0.0
 47
1.0
 47
0.0
 47
0.0
 47
0.0
 47
0.0
 47
1.0
171
     0
 49
0.0208333333333333
 49
0.0
 49
0.0
 49
0.0
 49
0.0
 49
0.0208333333333333
 49
0.0
 49
0.0
 49
0.0
 49
0.0
 49
1.0
 49
0.0
 49
0.0
 49
0.0
 49
0.0
 49
1.0
175
     0
142
0.0208333333333333
142
0.0
142
0.0
142
0.0
142
0.0
142
0.0208333333333333
142
0.0
142
0.0
142
0.0
142
0.0
142
1.0
142
0.0
142
0.0
142
0.0
142
0.0
142
1.0
179
     0
144
0.0208333333333333
144
0.0
144
0.0
144
0.0
144
0.0
144
0.0208333333333333
144
0.0
144
0.0
144
0.0
144
0.0
144
1.0
144
0.0
144
0.0
144
0.0
144
0.0
144
1.0
147
0.0208333333333333
147
0.0
147
0.0
147
0.0
147
0.0
147
0.0208333333333333
147
0.0
147
0.0
147
0.0
147
0.0
147
1.0
147
0.0
147
0.0
147
0.0
147
0.0
147
1.0
  0
MLEADERSTYLE
  5
A5C1
102
{ACAD_REACTORS
330
A5C0
102
}
330
A5C0
100
AcDbMLeaderStyle
170
     2
171
     1
172
     0
 90
        2
 40
0.0
 41
0.0
173
     1
 91
-1056964608
340
A261
 92
       -2
290
     1
 42
0.09
291
     1
 43
0.36
  3
Standard
 44
0.18
300

342
A25F
174
     1
178
     6
175
     1
176
     0
 93
-1056964608
 45
0.18
292
     0
297
     0
 46
0.18
 94
-1056964608
 47
1.0
 49
1.0
140
1.0
293
     1
141
0.0
294
     1
177
     0
142
1.0
295
     0
296
     0
143
0.125
1001
ACAD_MLEADERVER
1070
     2
  0
MLINESTYLE
  5
A265
102
{ACAD_REACTORS
330
A264
102
}
330
A264
100
AcDbMlineStyle
  2
STANDARD
 70
     0
  3

 62
   256
 51
90.0
 52
90.0
 71
     2
 49
0.5
 62
   256
  6
BYLAYER
 49
-0.5
 62
   256
  6
BYLAYER
  0
ACDBPLACEHOLDER
  5
A578
102
{ACAD_REACTORS
330
A577
102
}
330
A577
  0
SCALE
  5
A5AF
102
{ACAD_REACTORS
330
A5AE
102
}
330
A5AE
100
AcDbScale
 70
     0
300
1:1
140
1.0
141
1.0
290
     1
  0
SCALE
  5
A5B0
102
{ACAD_REACTORS
330
A5AE
102
}
330
A5AE
100
AcDbScale
 70
     0
300
1/128" = 1'-0"
140
0.0078125
141
12.0
290
     0
  0
SCALE
  5
A5B1
102
{ACAD_REACTORS
330
A5AE
102
}
330
A5AE
100
AcDbScale
 70
     0
300
1/64" = 1'-0"
140
0.015625
141
12.0
290
     0
  0
SCALE
  5
A5B2
102
{ACAD_REACTORS
330
A5AE
102
}
330
A5AE
100
AcDbScale
 70
     0
300
1/32" = 1'-0"
140
0.03125
141
12.0
290
     0
  0
SCALE
  5
A5B3
102
{ACAD_REACTORS
330
A5AE
102
}
330
A5AE
100
AcDbScale
 70
     0
300
1/16" = 1'-0"
140
0.0625
141
12.0
290
     0
  0
SCALE
  5
A5B4
102
{ACAD_REACTORS
330
A5AE
102
}
330
A5AE
100
AcDbScale
 70
     0
300
3/32" = 1'-0"
140
0.09375
141
12.0
290
     0
  0
SCALE
  5
A5B5
102
{ACAD_REACTORS
330
A5AE
102
}
330
A5AE
100
AcDbScale
 70
     0
300
1/8" = 1'-0"
140
0.125
141
12.0
290
     0
  0
SCALE
  5
A5B6
102
{ACAD_REACTORS
330
A5AE
102
}
330
A5AE
100
AcDbScale
 70
     0
300
3/16" = 1'-0"
140
0.1875
141
12.0
290
     0
  0
SCALE
  5
A5B7
102
{ACAD_REACTORS
330
A5AE
102
}
330
A5AE
100
AcDbScale
 70
     0
300
1/4" = 1'-0"
140
0.25
141
12.0
290
     0
  0
SCALE
  5
A5B8
102
{ACAD_REACTORS
330
A5AE
102
}
330
A5AE
100
AcDbScale
 70
     0
300
3/8" = 1'-0"
140
0.375
141
12.0
290
     0
  0
SCALE
  5
A5B9
102
{ACAD_REACTORS
330
A5AE
102
}
330
A5AE
100
AcDbScale
 70
     0
300
1/2" = 1'-0"
140
0.5
141
12.0
290
     0
  0
SCALE
  5
A5BA
102
{ACAD_REACTORS
330
A5AE
102
}
330
A5AE
100
AcDbScale
 70
     0
300
3/4" = 1'-0"
140
0.75
141
12.0
290
     0
  0
SCALE
  5
A5BB
102
{ACAD_REACTORS
330
A5AE
102
}
330
A5AE
100
AcDbScale
 70
     0
300
1" = 1'-0"
140
1.0
141
12.0
290
     0
  0
SCALE
  5
A5BC
102
{ACAD_REACTORS
330
A5AE
102
}
330
A5AE
100
AcDbScale
 70
     0
300
1-1/2" = 1'-0"
140
1.5
141
12.0
290
     0
  0
SCALE
  5
A5BD
102
{ACAD_REACTORS
330
A5AE
102
}
330
A5AE
100
AcDbScale
 70
     0
300
3" = 1'-0"
140
3.0
141
12.0
290
     0
  0
SCALE
  5
A5BE
102
{ACAD_REACTORS
330
A5AE
102
}
330
A5AE
100
AcDbScale
 70
     0
300
6" = 1'-0"
140
6.0
141
12.0
290
     0
  0
SCALE
  5
A5BF
102
{ACAD_REACTORS
330
A5AE
102
}
330
A5AE
100
AcDbScale
 70
     0
300
1'-0" = 1'-0"
140
12.0
141
12.0
290
     0
  0
ACDBSECTIONVIEWSTYLE
  5
A5C3
102
{ACAD_XDICTIONARY
360
A61E
102
}
102
{ACAD_REACTORS
330
A5C2
102
}
330
A5C2
100
AcDbModelDocViewStyle
 70
     0
  3
Imperial24
290
     0
100
AcDbSectionViewStyle
 70
     0
 71
     0
 90
       78
 71
     1
340
A25F
 40
0.24
340
0
340
0
 40
0.24
300
I, O, Q, S, X, Z
 40
0.48
 90
        3
 40
0.18
 90
        1
 71
     2
340
A263
 90
       25
340
A263
 90
       50
 40
0.24
 40
0.0
 40
0.24
 71
     3
340
A25F
 40
0.24
 90
        1
 40
0.75
 90
        1
300
%<\AcVar ViewType \f "%tc1">% %<\AcVar ViewSectionStartId>%-%<\AcVar ViewSectionEndId>%\PSCALE %<\AcVar ViewScale \f "%sn">%
 71
     4
300
ANSI31
 40
1.0
 90
        0
290
     0
290
     0
 90
        6
 40
0.0
 40
1.570796326794896
 40
0.2617993877991494
 40
1.308996938995747
 40
-0.2617993877991494
 40
1.832595714594046
  0
TABLESTYLE
  5
A5AD
102
{ACAD_XDICTIONARY
360
A5E5
102
}
102
{ACAD_REACTORS
330
A5AC
102
}
330
A5AC
100
AcDbTableStyle
  3
Standard
 70
     0
 71
     0
 40
0.06
 41
0.06
280
     0
281
     0
  7
STANDARD
140
0.18
170
     2
 62
     0
 63
     7
283
     0
274
    -2
284
     1
 64
     0
275
    -2
285
     1
 65
     0
276
    -2
286
     1
 66
     0
277
    -2
287
     1
 67
     0
278
    -2
288
     1
 68
     0
279
    -2
289
     1
 69
     0
  7
STANDARD
140
0.25
170
     5
 62
     0
 63
     7
283
     0
274
    -2
284
     1
 64
     0
275
    -2
285
     1
 65
     0
276
    -2
286
     1
 66
     0
277
    -2
287
     1
 67
     0
278
    -2
288
     1
 68
     0
279
    -2
289
     1
 69
     0
  7
STANDARD
140
0.18
170
     5
 62
     0
 63
     7
283
     0
274
    -2
284
     1
 64
     0
275
    -2
285
     1
 65
     0
276
    -2
286
     1
 66
     0
277
    -2
287
     1
 67
     0
278
    -2
288
     1
 68
     0
279
    -2
289
     1
 69
     0
  0
VISUALSTYLE
  5
A598
102
{ACAD_XDICTIONARY
360
A5F6
102
}
102
{ACAD_REACTORS
330
A592
102
}
330
A592
100
AcDbVisualStyle
  2
2dWireframe
 70
     4
 71
     0
 72
     2
 73
     0
 90
        0
 40
-0.6
 41
-30.0
 62
     5
 63
     7
 74
     1
 91
        4
 64
     7
 65
   257
 75
     1
175
     1
 42
1.0
 92
        0
 66
   257
 43
1.0
 76
     1
 77
     6
 78
     2
 67
     7
 79
     5
170
     0
171
     0
290
     0
174
     0
 93
        1
 44
0.0
173
     0
291
     0
 45
0.0
1001
ACAD
1000
AcDbSavedByObjectVersion
1070
     0
  0
VISUALSTYLE
  5
A597
102
{ACAD_XDICTIONARY
360
A5F4
102
}
102
{ACAD_REACTORS
330
A592
102
}
330
A592
100
AcDbVisualStyle
  2
Basic
 70
     7
 71
     1
 72
     0
 73
     1
 90
        0
 40
-0.6
 41
-30.0
 62
     5
 63
     7
 74
     0
 91
        4
 64
     7
 65
   257
 75
     1
175
     1
 42
1.0
 92
        8
 66
     7
 43
1.0
 76
     1
 77
     6
 78
     2
 67
     7
 79
     5
170
     0
171
     0
290
     0
174
     0
 93
        1
 44
0.0
173
     0
291
     1
 45
0.0
1001
ACAD
1000
AcDbSavedByObjectVersion
1070
     0
  0
VISUALSTYLE
  5
A59E
102
{ACAD_XDICTIONARY
360
A602
102
}
102
{ACAD_REACTORS
330
A592
102
}
330
A592
100
AcDbVisualStyle
  2
Brighten
 70
    12
 71
     2
 72
     2
 73
     0
 90
        0
 40
-0.6
 41
-30.0
 62
     5
 63
     7
 74
     1
 91
        4
 64
     7
 65
   257
 75
     1
175
     1
 42
1.0
 92
        8
 66
     7
 43
1.0
 76
     1
 77
     6
 78
     2
 67
     7
 79
     5
170
     0
171
     0
290
     0
174
     0
 93
        1
 44
50.0
173
     0
291
     1
 45
0.0
1001
ACAD
1000
AcDbSavedByObjectVersion
1070
     0
  0
VISUALSTYLE
  5
A5A2
102
{ACAD_XDICTIONARY
360
A60A
102
}
102
{ACAD_REACTORS
330
A592
102
}
330
A592
100
AcDbVisualStyle
  2
ColorChange
 70
    16
 71
     2
 72
     2
 73
     3
 90
        0
 40
-0.6
 41
-30.0
 62
     5
 63
     8
 74
     1
 91
        4
 64
     7
 65
   257
 75
     1
175
     1
 42
1.0
 92
        8
 66
     8
 43
1.0
 76
     1
 77
     6
 78
     2
 67
     7
 79
     5
170
     0
171
     0
290
     0
174
     0
 93
        1
 44
0.0
173
     0
291
     1
 45
0.0
1001
ACAD
1000
AcDbSavedByObjectVersion
1070
     0
  0
VISUALSTYLE
  5
A59B
102
{ACAD_XDICTIONARY
360
A5FC
102
}
102
{ACAD_REACTORS
330
A592
102
}
330
A592
100
AcDbVisualStyle
  2
Conceptual
 70
     9
 71
     3
 72
     2
 73
     0
 90
        0
 40
-0.6
 41
-30.0
 62
     5
 63
     7
 74
     2
 91
        2
 64
     7
 65
   257
 75
     1
175
     1
 42
179.0
 92
        8
 66
     7
 43
1.0
 76
     1
 77
     6
 78
     2
 67
     7
 79
     3
170
     0
171
     0
290
     0
174
     0
 93
        1
 44
0.0
173
     0
291
     0
 45
0.0
1001
ACAD
1000
AcDbSavedByObjectVersion
1070
     0
  0
VISUALSTYLE
  5
A59D
102
{ACAD_XDICTIONARY
360
A600
102
}
102
{ACAD_REACTORS
330
A592
102
}
330
A592
100
AcDbVisualStyle
  2
Dim
 70
    11
 71
     2
 72
     2
 73
     0
 90
        0
 40
-0.6
 41
-30.0
 62
     5
 63
     7
 74
     1
 91
        4
 64
     7
 65
   257
 75
     1
175
     1
 42
1.0
 92
        8
 66
     7
 43
1.0
 76
     1
 77
     6
 78
     2
 67
     7
 79
     5
170
     0
171
     0
290
     0
174
     0
 93
        1
 44
-50.0
173
     0
291
     1
 45
0.0
1001
ACAD
1000
AcDbSavedByObjectVersion
1070
     0
  0
VISUALSTYLE
  5
A5AA
102
{ACAD_XDICTIONARY
360
A61A
102
}
102
{ACAD_REACTORS
330
A592
102
}
330
A592
100
AcDbVisualStyle
  2
EdgeColorOff
 70
    22
 71
     2
 72
     2
 73
     0
 90
        0
 40
-0.6
 41
-30.0
 62
     5
 63
     7
 74
     1
 91
        4
 64
     7
 65
   257
 75
     1
175
     1
 42
1.0
 92
        8
 66
     7
 43
1.0
 76
     1
 77
     6
 78
     2
 67
     7
 79
     5
170
     0
171
     0
290
     0
174
     0
 93
        1
 44
0.0
173
     0
291
     1
 45
0.0
1001
ACAD
1000
AcDbSavedByObjectVersion
1070
     0
  0
VISUALSTYLE
  5
A5A1
102
{ACAD_XDICTIONARY
360
A608
102
}
102
{ACAD_REACTORS
330
A592
102
}
330
A592
100
AcDbVisualStyle
  2
Facepattern
 70
    15
 71
     2
 72
     2
 73
     0
 90
        0
 40
-0.6
 41
-30.0
 62
     5
 63
     7
 74
     1
 91
        4
 64
     7
 65
   257
 75
     1
175
     1
 42
1.0
 92
        8
 66
     7
 43
1.0
 76
     1
 77
     6
 78
     2
 67
     7
 79
     5
170
     0
171
     0
290
     0
174
     0
 93
        1
 44
0.0
173
     0
291
     1
 45
0.0
1001
ACAD
1000
AcDbSavedByObjectVersion
1070
     0
  0
VISUALSTYLE
  5
A593
102
{ACAD_XDICTIONARY
360
A5EC
102
}
102
{ACAD_REACTORS
330
A592
102
}
330
A592
100
AcDbVisualStyle
  2
Flat
 70
     0
 71
     2
 72
     1
 73
     1
 90
        2
 40
-0.6
 41
30.0
 62
     5
 63
     7
 74
     0
 91
        0
 64
     7
 65
   257
 75
     1
175
     1
 42
1.0
 92
        8
 66
     7
 43
1.0
 76
     1
 77
     6
 78
     2
 67
     7
 79
     5
170
     0
171
     0
290
     0
174
     0
 93
       13
 44
0.0
173
     0
291
     1
 45
0.0
1001
ACAD
1000
AcDbSavedByObjectVersion
1070
     0
  0
VISUALSTYLE
  5
A594
102
{ACAD_XDICTIONARY
360
A5EE
102
}
102
{ACAD_REACTORS
330
A592
102
}
330
A592
100
AcDbVisualStyle
  2
FlatWithEdges
 70
     1
 71
     2
 72
     1
 73
     1
 90
        2
 40
-0.6
 41
30.0
 62
     5
 63
     7
 74
     1
 91
        0
 64
     7
 65
   257
 75
     1
175
     1
 42
1.0
 92
        0
 66
   257
 43
1.0
 76
     1
 77
     6
 78
     2
 67
     7
 79
     5
170
     0
171
     0
290
     0
174
     0
 93
       13
 44
0.0
173
     0
291
     1
 45
0.0
1001
ACAD
1000
AcDbSavedByObjectVersion
1070
     0
  0
VISUALSTYLE
  5
A595
102
{ACAD_XDICTIONARY
360
A5F0
102
}
102
{ACAD_REACTORS
330
A592
102
}
330
A592
100
AcDbVisualStyle
  2
Gouraud
 70
     2
 71
     2
 72
     2
 73
     1
 90
        2
 40
-0.6
 41
30.0
 62
     5
 63
     7
 74
     0
 91
        0
 64
     7
 65
   257
 75
     1
175
     1
 42
1.0
 92
        0
 66
     7
 43
1.0
 76
     1
 77
     6
 78
     2
 67
     7
 79
     5
170
     0
171
     0
290
     0
174
     0
 93
       13
 44
0.0
173
     0
291
     1
 45
0.0
1001
ACAD
1000
AcDbSavedByObjectVersion
1070
     0
  0
VISUALSTYLE
  5
A596
102
{ACAD_XDICTIONARY
360
A5F2
102
}
102
{ACAD_REACTORS
330
A592
102
}
330
A592
100
AcDbVisualStyle
  2
GouraudWithEdges
 70
     3
 71
     2
 72
     2
 73
     1
 90
        2
 40
-0.6
 41
30.0
 62
     5
 63
     7
 74
     1
 91
        0
 64
     7
 65
   257
 75
     1
175
     1
 42
1.0
 92
        0
 66
   257
 43
1.0
 76
     1
 77
     6
 78
     2
 67
     7
 79
     5
170
     0
171
     0
290
     0
174
     0
 93
       13
 44
0.0
173
     0
291
     1
 45
0.0
1001
ACAD
1000
AcDbSavedByObjectVersion
1070
     0
  0
VISUALSTYLE
  5
A59A
102
{ACAD_XDICTIONARY
360
A5FA
102
}
102
{ACAD_REACTORS
330
A592
102
}
330
A592
100
AcDbVisualStyle
  2
Hidden
 70
     6
 71
     1
 72
     2
 73
     2
 90
        0
 40
-0.6
 41
-30.0
 62
     5
 63
     7
 74
     2
 91
        2
 64
     7
 65
   257
 75
     2
175
     1
 42
40.0
 92
        0
 66
   257
 43
1.0
 76
     1
 77
     6
 78
     2
 67
     7
 79
     3
170
     0
171
     0
290
     0
174
     0
 93
        1
 44
0.0
173
     0
291
     0
 45
0.0
1001
ACAD
1000
AcDbSavedByObjectVersion
1070
     0
  0
VISUALSTYLE
  5
A5A8
102
{ACAD_XDICTIONARY
360
A616
102
}
102
{ACAD_REACTORS
330
A592
102
}
330
A592
100
AcDbVisualStyle
  2
JitterOff
 70
    20
 71
     2
 72
     2
 73
     0
 90
        0
 40
-0.6
 41
-30.0
 62
     5
 63
     7
 74
     1
 91
        4
 64
     7
 65
   257
 75
     1
175
     1
 42
1.0
 92
       10
 66
     7
 43
1.0
 76
     1
 77
     6
 78
     2
 67
     7
 79
     5
170
     0
171
     0
290
     0
174
     0
 93
        1
 44
0.0
173
     0
291
     1
 45
0.0
1001
ACAD
1000
AcDbSavedByObjectVersion
1070
     0
  0
VISUALSTYLE
  5
A5A0
102
{ACAD_XDICTIONARY
360
A606
102
}
102
{ACAD_REACTORS
330
A592
102
}
330
A592
100
AcDbVisualStyle
  2
Linepattern
 70
    14
 71
     2
 72
     2
 73
     0
 90
        0
 40
-0.6
 41
-30.0
 62
     5
 63
     7
 74
     1
 91
        4
 64
     7
 65
   257
 75
     7
175
     7
 42
1.0
 92
        8
 66
     7
 43
1.0
 76
     1
 77
     6
 78
     2
 67
     7
 79
     5
170
     0
171
     0
290
     0
174
     0
 93
        1
 44
0.0
173
     0
291
     1
 45
0.0
1001
ACAD
1000
AcDbSavedByObjectVersion
1070
     0
  0
VISUALSTYLE
  5
A5A9
102
{ACAD_XDICTIONARY
360
A618
102
}
102
{ACAD_REACTORS
330
A592
102
}
330
A592
100
AcDbVisualStyle
  2
OverhangOff
 70
    21
 71
     2
 72
     2
 73
     0
 90
        0
 40
-0.6
 41
-30.0
 62
     5
 63
     7
 74
     1
 91
        4
 64
     7
 65
   257
 75
     1
175
     1
 42
1.0
 92
        9
 66
     7
 43
1.0
 76
     1
 77
     6
 78
     2
 67
     7
 79
     5
170
     0
171
     0
290
     0
174
     0
 93
        1
 44
0.0
173
     0
291
     1
 45
0.0
1001
ACAD
1000
AcDbSavedByObjectVersion
1070
     0
  0
VISUALSTYLE
  5
A59C
102
{ACAD_XDICTIONARY
360
A5FE
102
}
102
{ACAD_REACTORS
330
A592
102
}
330
A592
100
AcDbVisualStyle
  2
Realistic
 70
     8
 71
     2
 72
     3
 73
     0
 90
        2
 40
-0.6
 41
30.0
 62
     5
 63
     7
 74
     0
 91
        0
 64
     7
 65
   257
 75
     1
175
     1
 42
1.0
 92
        8
 66
   257
 43
1.0
 76
     1
 77
     6
 78
     2
 67
     7
 79
     3
170
     0
171
     0
290
     0
174
     0
 93
       13
 44
0.0
173
     0
291
     0
 45
0.0
1001
ACAD
1000
AcDbSavedByObjectVersion
1070
     0
  0
VISUALSTYLE
  5
A5A7
102
{ACAD_XDICTIONARY
360
A614
102
}
102
{ACAD_REACTORS
330
A592
102
}
330
A592
100
AcDbVisualStyle
  2
Shaded
 70
    27
 71
     2
 72
     2
 73
     1
 90
        2
 40
-0.6
 41
30.0
 62
     5
 63
     7
 74
     0
 91
        4
 64
     7
 65
   257
 75
     1
175
     1
 42
1.0
 92
        8
 66
   257
 43
1.0
 76
     1
 77
     6
 78
     2
 67
     8
 79
     3
170
     0
171
     0
290
     0
174
     0
 93
        5
 44
0.0
173
     0
291
     0
 45
0.0
1001
ACAD
1000
AcDbSavedByObjectVersion
1070
     0
  0
VISUALSTYLE
  5
A5A6
102
{ACAD_XDICTIONARY
360
A612
102
}
102
{ACAD_REACTORS
330
A592
102
}
330
A592
100
AcDbVisualStyle
  2
Shaded with edges
 70
    26
 71
     2
 72
     2
 73
     1
 90
        2
 40
-0.6
 41
30.0
 62
     5
 63
     7
 74
     1
 91
       10
 64
     7
 65
   257
 75
     2
175
     1
 42
1.0
 92
        8
 66
   257
 43
1.0
 76
     1
 77
     6
 78
     2
 67
     7
 79
     3
170
     0
171
     0
290
     0
174
     0
 93
        5
 44
0.0
173
     0
291
     0
 45
0.0
1001
ACAD
1000
AcDbSavedByObjectVersion
1070
     0
  0
VISUALSTYLE
  5
A5A3
102
{ACAD_XDICTIONARY
360
A60C
102
}
102
{ACAD_REACTORS
330
A592
102
}
330
A592
100
AcDbVisualStyle
  2
Shades of Gray
 70
    23
 71
     2
 72
     2
 73
     3
 90
        0
 40
-0.6
 41
-30.0
 62
     5
 63
     7
 74
     2
 91
        2
 64
     7
 65
     7
 75
     1
175
     1
 42
40.0
 92
        8
 66
     7
 43
1.0
 76
     1
 77
     6
 78
     2
 67
     7
 79
     3
170
     0
171
     0
290
     0
174
     0
 93
        1
 44
0.0
173
     0
291
     0
 45
0.0
1001
ACAD
1000
AcDbSavedByObjectVersion
1070
     0
  0
VISUALSTYLE
  5
A5A4
102
{ACAD_XDICTIONARY
360
A60E
102
}
102
{ACAD_REACTORS
330
A592
102
}
330
A592
100
AcDbVisualStyle
  2
Sketchy
 70
    24
 71
     1
 72
     2
 73
     2
 90
        0
 40
-0.6
 41
-30.0
 62
     5
 63
     7
 74
     2
 91
        2
 64
     7
 65
     7
 75
     1
175
     1
 42
40.0
 92
       11
 66
     7
 43
1.0
 76
     1
 77
     6
 78
     2
 67
     7
 79
     6
170
     0
171
     0
290
     0
174
     0
 93
        1
 44
0.0
173
     0
291
     0
 45
0.0
1001
ACAD
1000
AcDbSavedByObjectVersion
1070
     0
  0
VISUALSTYLE
  5
A59F
102
{ACAD_XDICTIONARY
360
A604
102
}
102
{ACAD_REACTORS
330
A592
102
}
330
A592
100
AcDbVisualStyle
  2
Thicken
 70
    13
 71
     2
 72
     2
 73
     0
 90
        0
 40
-0.6
 41
-30.0
 62
     5
 63
     7
 74
     1
 91
        4
 64
     7
 65
   257
 75
     1
175
     1
 42
1.0
 92
       12
 66
     7
 43
1.0
 76
     1
 77
     6
 78
     2
 67
     7
 79
     5
170
     0
171
     0
290
     0
174
     0
 93
        1
 44
0.0
173
     0
291
     1
 45
0.0
1001
ACAD
1000
AcDbSavedByObjectVersion
1070
     0
  0
VISUALSTYLE
  5
A599
102
{ACAD_XDICTIONARY
360
A5F8
102
}
102
{ACAD_REACTORS
330
A592
102
}
330
A592
100
AcDbVisualStyle
  2
Wireframe
 70
     5
 71
     0
 72
     2
 73
     0
 90
        0
 40
-0.6
 41
-30.0
 62
     5
 63
     7
 74
     1
 91
        4
 64
     7
 65
   257
 75
     1
175
     1
 42
1.0
 92
        0
 66
   257
 43
1.0
 76
     1
 77
     6
 78
     2
 67
     7
 79
     3
170
     0
171
     0
290
     0
174
     0
 93
        1
 44
0.0
173
     0
291
     0
 45
0.0
1001
ACAD
1000
AcDbSavedByObjectVersion
1070
     0
  0
VISUALSTYLE
  5
A5A5
102
{ACAD_XDICTIONARY
360
A610
102
}
102
{ACAD_REACTORS
330
A592
102
}
330
A592
100
AcDbVisualStyle
  2
X-Ray
 70
    25
 71
     2
 72
     2
 73
     1
 90
        1
 40
0.5
 41
-30.0
 62
     5
 63
     7
 74
     1
 91
        0
 64
     7
 65
   257
 75
     1
175
     1
 42
1.0
 92
        8
 66
     7
 43
1.0
 76
     1
 77
     6
 78
     2
 67
     7
 79
     3
170
     0
171
     0
290
     0
174
     0
 93
       13
 44
0.0
173
     0
291
     0
 45
0.0
1001
ACAD
1000
AcDbSavedByObjectVersion
1070
     0
  0
DICTIONARYVAR
  5
A5DF
102
{ACAD_REACTORS
330
A5DA
102
}
330
A5DA
100
DictionaryVariables
280
     0
  1
1:1
  0
DICTIONARYVAR
  5
A5DC
102
{ACAD_REACTORS
330
A5DA
102
}
330
A5DA
100
DictionaryVariables
280
     0
  1
STANDARD
  0
DICTIONARYVAR
  5
A5DB
102
{ACAD_REACTORS
330
A5DA
102
}
330
A5DA
100
DictionaryVariables
280
     0
  1
STANDARD
  0
DICTIONARYVAR
  5
A5DD
102
{ACAD_REACTORS
330
A5DA
102
}
330
A5DA
100
DictionaryVariables
280
     0
  1
Imperial24
  0
DICTIONARYVAR
  5
A5DE
102
{ACAD_REACTORS
330
A5DA
102
}
330
A5DA
100
DictionaryVariables
280
     0
  1
Imperial24
  0
DICTIONARYVAR
  5
A5E2
102
{ACAD_REACTORS
330
A5DA
102
}
330
A5DA
100
DictionaryVariables
280
     0
  1
1
  0
DICTIONARYVAR
  5
A5E1
102
{ACAD_REACTORS
330
A5DA
102
}
330
A5DA
100
DictionaryVariables
280
     0
  1
0
  0
DICTIONARYVAR
  5
A5E0
102
{ACAD_REACTORS
330
A5DA
102
}
330
A5DA
100
DictionaryVariables
280
     0
  1
127
  0
DICTIONARYVAR
  5
A5E3
102
{ACAD_REACTORS
330
A5DA
102
}
330
A5DA
100
DictionaryVariables
280
     0
  1
2
  0
DICTIONARY
  5
A620
330
A5C5
100
AcDbDictionary
280
     1
281
     1
  3
ACAD_XREC_ROUNDTRIP
360
A621
  0
DICTIONARY
  5
A622
330
A5C6
100
AcDbDictionary
280
     1
281
     1
  3
ACAD_XREC_ROUNDTRIP
360
A623
  0
DICTIONARY
  5
A624
330
A5C7
100
AcDbDictionary
280
     1
281
     1
  3
ACAD_XREC_ROUNDTRIP
360
A625
  0
DICTIONARY
  5
A583
330
A582
100
AcDbDictionary
280
     1
281
     1
  3
ACAD_XREC_ROUNDTRIP
360
A5EA
  3
BUMPTILE
360
A585
  3
DIFFUSETILE
360
A584
  3
OPACITYTILE
360
A588
  3
REFLECTIONTILE
360
A587
  3
REFRACTIONTILE
360
A589
  3
SPECULARTILE
360
A586
  0
DICTIONARY
  5
A57B
330
A57A
100
AcDbDictionary
280
     1
281
     1
  3
ACAD_XREC_ROUNDTRIP
360
A5E9
  3
BUMPTILE
360
A57D
  3
DIFFUSETILE
360
A57C
  3
OPACITYTILE
360
A580
  3
REFLECTIONTILE
360
A57F
  3
REFRACTIONTILE
360
A581
  3
SPECULARTILE
360
A57E
  0
DICTIONARY
  5
A58B
330
A58A
100
AcDbDictionary
280
     1
281
     1
  3
ACAD_XREC_ROUNDTRIP
360
A5EB
  3
BUMPTILE
360
A58D
  3
DIFFUSETILE
360
A58C
  3
OPACITYTILE
360
A590
  3
REFLECTIONTILE
360
A58F
  3
REFRACTIONTILE
360
A591
  3
SPECULARTILE
360
A58E
  0
DICTIONARY
  5
A61E
330
A5C3
100
AcDbDictionary
280
     1
281
     1
  3
ACAD_XREC_ROUNDTRIP
360
A61F
  0
DICTIONARY
  5
A5E5
330
A5AD
100
AcDbDictionary
280
     1
281
     1
  3
ACAD_ROUNDTRIP_2008_TABLESTYLE_CELLSTYLEMAP
360
A5E6
  3
ACAD_XREC_ROUNDTRIP
360
A61C
  0
DICTIONARY
  5
A5F6
330
A598
100
AcDbDictionary
280
     1
281
     1
  3
ACAD_XREC_ROUNDTRIP
360
A5F7
  0
DICTIONARY
  5
A5F4
330
A597
100
AcDbDictionary
280
     1
281
     1
  3
ACAD_XREC_ROUNDTRIP
360
A5F5
  0
DICTIONARY
  5
A602
330
A59E
100
AcDbDictionary
280
     1
281
     1
  3
ACAD_XREC_ROUNDTRIP
360
A603
  0
DICTIONARY
  5
A60A
330
A5A2
100
AcDbDictionary
280
     1
281
     1
  3
ACAD_XREC_ROUNDTRIP
360
A60B
  0
DICTIONARY
  5
A5FC
330
A59B
100
AcDbDictionary
280
     1
281
     1
  3
ACAD_XREC_ROUNDTRIP
360
A5FD
  0
DICTIONARY
  5
A600
330
A59D
100
AcDbDictionary
280
     1
281
     1
  3
ACAD_XREC_ROUNDTRIP
360
A601
  0
DICTIONARY
  5
A61A
330
A5AA
100
AcDbDictionary
280
     1
281
     1
  3
ACAD_XREC_ROUNDTRIP
360
A61B
  0
DICTIONARY
  5
A608
330
A5A1
100
AcDbDictionary
280
     1
281
     1
  3
ACAD_XREC_ROUNDTRIP
360
A609
  0
DICTIONARY
  5
A5EC
330
A593
100
AcDbDictionary
280
     1
281
     1
  3
ACAD_XREC_ROUNDTRIP
360
A5ED
  0
DICTIONARY
  5
A5EE
330
A594
100
AcDbDictionary
280
     1
281
     1
  3
ACAD_XREC_ROUNDTRIP
360
A5EF
  0
DICTIONARY
  5
A5F0
330
A595
100
AcDbDictionary
280
     1
281
     1
  3
ACAD_XREC_ROUNDTRIP
360
A5F1
  0
DICTIONARY
  5
A5F2
330
A596
100
AcDbDictionary
280
     1
281
     1
  3
ACAD_XREC_ROUNDTRIP
360
A5F3
  0
DICTIONARY
  5
A5FA
330
A59A
100
AcDbDictionary
280
     1
281
     1
  3
ACAD_XREC_ROUNDTRIP
360
A5FB
  0
DICTIONARY
  5
A616
330
A5A8
100
AcDbDictionary
280
     1
281
     1
  3
ACAD_XREC_ROUNDTRIP
360
A617
  0
DICTIONARY
  5
A606
330
A5A0
100
AcDbDictionary
280
     1
281
     1
  3
ACAD_XREC_ROUNDTRIP
360
A607
  0
DICTIONARY
  5
A618
330
A5A9
100
AcDbDictionary
280
     1
281
     1
  3
ACAD_XREC_ROUNDTRIP
360
A619
  0
DICTIONARY
  5
A5FE
330
A59C
100
AcDbDictionary
280
     1
281
     1
  3
ACAD_XREC_ROUNDTRIP
360
A5FF
  0
DICTIONARY
  5
A614
330
A5A7
100
AcDbDictionary
280
     1
281
     1
  3
ACAD_XREC_ROUNDTRIP
360
A615
  0
DICTIONARY
  5
A612
330
A5A6
100
AcDbDictionary
280
     1
281
     1
  3
ACAD_XREC_ROUNDTRIP
360
A613
  0
DICTIONARY
  5
A60C
330
A5A3
100
AcDbDictionary
280
     1
281
     1
  3
ACAD_XREC_ROUNDTRIP
360
A60D
  0
DICTIONARY
  5
A60E
330
A5A4
100
AcDbDictionary
280
     1
281
     1
  3
ACAD_XREC_ROUNDTRIP
360
A60F
  0
DICTIONARY
  5
A604
330
A59F
100
AcDbDictionary
280
     1
281
     1
  3
ACAD_XREC_ROUNDTRIP
360
A605
  0
DICTIONARY
  5
A5F8
330
A599
100
AcDbDictionary
280
     1
281
     1
  3
ACAD_XREC_ROUNDTRIP
360
A5F9
  0
DICTIONARY
  5
A610
330
A5A5
100
AcDbDictionary
280
     1
281
     1
  3
ACAD_XREC_ROUNDTRIP
360
A611
  0
XRECORD
  5
A621
102
{ACAD_REACTORS
330
A620
102
}
330
A620
100
AcDbXrecord
280
     1
102
DISPLAYNAME
  1
Imperial24
102
FLAGS
 90
        0
  0
XRECORD
  5
A623
102
{ACAD_REACTORS
330
A622
102
}
330
A622
100
AcDbXrecord
280
     1
102
SHADEPLOT
 70
     0
102
SHADEPLOTRESLEVEL
 70
     2
102
SHADEPLOTCUSTOMDPI
 70
   300
  0
XRECORD
  5
A625
102
{ACAD_REACTORS
330
A624
102
}
330
A624
100
AcDbXrecord
280
     1
102
SHADEPLOT
 70
     0
102
SHADEPLOTRESLEVEL
 70
     2
102
SHADEPLOTCUSTOMDPI
 70
   300
  0
XRECORD
  5
A5EA
102
{ACAD_REACTORS
330
A583
102
}
330
A583
100
AcDbXrecord
280
     1
102
MATERIAL
148
0.0
149
0.0
149
0.0
 93
        0
 94
      127
282
     0
 72
     0
 77
     0
171
     0
175
     0
179
     0
273
     0
  0
XRECORD
  5
A585
102
{ACAD_REACTORS
330
A583
102
}
330
A583
100
AcDbXrecord
280
     1
270
     1
271
     1
  0
XRECORD
  5
A584
102
{ACAD_REACTORS
330
A583
102
}
330
A583
100
AcDbXrecord
280
     1
270
     1
271
     1
  0
XRECORD
  5
A588
102
{ACAD_REACTORS
330
A583
102
}
330
A583
100
AcDbXrecord
280
     1
270
     1
271
     1
  0
XRECORD
  5
A587
102
{ACAD_REACTORS
330
A583
102
}
330
A583
100
AcDbXrecord
280
     1
270
     1
271
     1
  0
XRECORD
  5
A589
102
{ACAD_REACTORS
330
A583
102
}
330
A583
100
AcDbXrecord
280
     1
270
     1
271
     1
  0
XRECORD
  5
A586
102
{ACAD_REACTORS
330
A583
102
}
330
A583
100
AcDbXrecord
280
     1
270
     1
271
     1
  0
XRECORD
  5
A5E9
102
{ACAD_REACTORS
330
A57B
102
}
330
A57B
100
AcDbXrecord
280
     1
102
MATERIAL
148
0.0
149
0.0
149
0.0
 93
        0
 94
      127
282
     0
 72
     0
 77
     0
171
     0
175
     0
179
     0
273
     0
  0
XRECORD
  5
A57D
102
{ACAD_REACTORS
330
A57B
102
}
330
A57B
100
AcDbXrecord
280
     1
270
     1
271
     1
  0
XRECORD
  5
A57C
102
{ACAD_REACTORS
330
A57B
102
}
330
A57B
100
AcDbXrecord
280
     1
270
     1
271
     1
  0
XRECORD
  5
A580
102
{ACAD_REACTORS
330
A57B
102
}
330
A57B
100
AcDbXrecord
280
     1
270
     1
271
     1
  0
XRECORD
  5
A57F
102
{ACAD_REACTORS
330
A57B
102
}
330
A57B
100
AcDbXrecord
280
     1
270
     1
271
     1
  0
XRECORD
  5
A581
102
{ACAD_REACTORS
330
A57B
102
}
330
A57B
100
AcDbXrecord
280
     1
270
     1
271
     1
  0
XRECORD
  5
A57E
102
{ACAD_REACTORS
330
A57B
102
}
330
A57B
100
AcDbXrecord
280
     1
270
     1
271
     1
  0
XRECORD
  5
A5EB
102
{ACAD_REACTORS
330
A58B
102
}
330
A58B
100
AcDbXrecord
280
     1
102
MATERIAL
148
0.0
149
0.0
149
0.0
 93
        0
 94
      127
282
     0
 72
     0
 77
     0
171
     0
175
     0
179
     0
273
     0
  0
XRECORD
  5
A58D
102
{ACAD_REACTORS
330
A58B
102
}
330
A58B
100
AcDbXrecord
280
     1
270
     1
271
     1
  0
XRECORD
  5
A58C
102
{ACAD_REACTORS
330
A58B
102
}
330
A58B
100
AcDbXrecord
280
     1
270
     1
271
     1
  0
XRECORD
  5
A590
102
{ACAD_REACTORS
330
A58B
102
}
330
A58B
100
AcDbXrecord
280
     1
270
     1
271
     1
  0
XRECORD
  5
A58F
102
{ACAD_REACTORS
330
A58B
102
}
330
A58B
100
AcDbXrecord
280
     1
270
     1
271
     1
  0
XRECORD
  5
A591
102
{ACAD_REACTORS
330
A58B
102
}
330
A58B
100
AcDbXrecord
280
     1
270
     1
271
     1
  0
XRECORD
  5
A58E
102
{ACAD_REACTORS
330
A58B
102
}
330
A58B
100
AcDbXrecord
280
     1
270
     1
271
     1
  0
XRECORD
  5
A61F
102
{ACAD_REACTORS
330
A61E
102
}
330
A61E
100
AcDbXrecord
280
     1
102
DISPLAYNAME
  1
Imperial24
102
FLAGS
 90
        0
  0
CELLSTYLEMAP
  5
A5E6
102
{ACAD_REACTORS
330
A5E5
102
}
330
A5E5
100
AcDbCellStyleMap
 90
        3
300
CELLSTYLE
  1
TABLEFORMAT_BEGIN
 90
        5
170
     1
 91
        0
 92
    32768
 62
   257
 93
        1
300
CONTENTFORMAT
  1
CONTENTFORMAT_BEGIN
 90
        0
 91
        0
 92
      512
 93
        0
300

 40
0.0
140
1.0
 94
        5
 62
     0
340
A25F
144
0.25
309
CONTENTFORMAT_END
171
     0
 94
        0
309
TABLEFORMAT_END
  1
CELLSTYLE_BEGIN
 90
        1
 91
        1
300
_TITLE
309
CELLSTYLE_END
300
CELLSTYLE
  1
TABLEFORMAT_BEGIN
 90
        5
170
     1
 91
        0
 92
        0
 62
   257
 93
        1
300
CONTENTFORMAT
  1
CONTENTFORMAT_BEGIN
 90
        0
 91
        0
 92
      512
 93
        0
300

 40
0.0
140
1.0
 94
        5
 62
     0
340
A25F
144
0.18
309
CONTENTFORMAT_END
171
     0
 94
        0
309
TABLEFORMAT_END
  1
CELLSTYLE_BEGIN
 90
        2
 91
        1
300
_HEADER
309
CELLSTYLE_END
300
CELLSTYLE
  1
TABLEFORMAT_BEGIN
 90
        5
170
     1
 91
        0
 92
        0
 62
   257
 93
        1
300
CONTENTFORMAT
  1
CONTENTFORMAT_BEGIN
 90
        0
 91
        0
 92
      512
 93
        0
300

 40
0.0
140
1.0
 94
        2
 62
     0
340
A25F
144
0.18
309
CONTENTFORMAT_END
171
     0
 94
        0
309
TABLEFORMAT_END
  1
CELLSTYLE_BEGIN
 90
        3
 91
        2
300
_DATA
309
CELLSTYLE_END
  0
XRECORD
  5
A61C
102
{ACAD_REACTORS
330
A5E5
102
}
330
A5E5
100
AcDbXrecord
280
     1
102
ACAD_ROUNDTRIP_PRE2007_TABLESTYLE
 90
      512
 91
        0
  1

 92
      512
 93
        0
  2

 94
      512
 95
        0
  3

  0
XRECORD
  5
A5F7
102
{ACAD_REACTORS
330
A5F6
102
}
330
A5F6
100
AcDbXrecord
280
     1
102
RTVSPost2010Prop28
280
     1
102
RTVSPost2010PropOp28
 70
     1
102
RTVSPost2010Prop29
280
     1
102
RTVSPost2010PropOp29
 70
     1
102
RTVSPost2010Prop30
280
     0
102
RTVSPost2010PropOp30
 70
     1
102
RTVSPost2010Prop31
280
     0
102
RTVSPost2010PropOp31
 70
     1
102
RTVSPost2010Prop32
280
     0
102
RTVSPost2010PropOp32
 70
     1
102
RTVSPost2010Prop33
280
     0
102
RTVSPost2010PropOp33
 70
     1
102
RTVSPost2010Prop34
280
     0
102
RTVSPost2010PropOp34
 70
     1
102
RTVSPost2010Prop35
280
     0
102
RTVSPost2010PropOp35
 70
     1
102
RTVSPost2010Prop36
280
     0
102
RTVSPost2010PropOp36
 70
     1
102
RTVSPost2010Prop37
 90
       50
102
RTVSPost2010PropOp37
 70
     1
102
RTVSPost2010Prop38
140
0.0
102
RTVSPost2010PropOp38
 70
     1
102
RTVSPost2010Prop39
140
1.0
102
RTVSPost2010PropOp39
 70
     1
102
RTVSPost2010Prop40
 90
        0
102
RTVSPost2010PropOp40
 70
     1
102
RTVSPost2010Prop41ColorIndex
 90
       18
102
RTVSPost2010Prop41ColorRGB
 90
        0
102
RTVSPost2010PropOp41
 70
     1
102
RTVSPost2010Prop42
 90
       50
102
RTVSPost2010PropOp42
 70
     1
102
RTVSPost2010Prop43
 90
        3
102
RTVSPost2010PropOp43
 70
     1
102
RTVSPost2010Prop44ColorIndex
 90
        5
102
RTVSPost2010Prop44ColorRGB
 90
      255
102
RTVSPost2010PropOp44
 70
     1
102
RTVSPost2010Prop45
280
     0
102
RTVSPost2010PropOp45
 70
     1
102
RTVSPost2010Prop46
 90
       50
102
RTVSPost2010PropOp46
 70
     1
102
RTVSPost2010Prop47
 90
       50
102
RTVSPost2010PropOp47
 70
     1
102
RTVSPost2010Prop48
 90
       50
102
RTVSPost2010PropOp48
 70
     1
102
RTVSPost2010Prop49
280
     0
102
RTVSPost2010PropOp49
 70
     1
102
RTVSPost2010Prop50
 90
       50
102
RTVSPost2010PropOp50
 70
     1
102
RTVSPost2010Prop51ColorIndex
 90
      256
102
RTVSPost2010Prop51ColorRGB
 90
-16777216
102
RTVSPost2010PropOp51
 70
     0
102
RTVSPost2010Prop52
140
1.0
102
RTVSPost2010PropOp52
 70
     0
102
RTVSPost2010Prop53
 90
        2
102
RTVSPost2010PropOp53
 70
     1
102
RTVSPost2010Prop54
  1
strokes_ogs.tif
102
RTVSPost2010PropOp54
 70
     1
102
RTVSPost2010Prop55
280
     0
102
RTVSPost2010PropOp55
 70
     1
102
RTVSPost2010Prop56
140
1.0
102
RTVSPost2010PropOp56
 70
     1
102
RTVSPost2010Prop57
140
1.0
102
RTVSPost2010PropOp57
 70
     1
102
RTVSPropertyOp0
 70
     1
102
RTVSPropertyOp1
 70
     1
102
RTVSPropertyOp2
 70
     1
102
RTVSPropertyOp3
 70
     1
102
RTVSPropertyOp4
 70
     1
102
RTVSPropertyOp5
 70
     1
102
RTVSPropertyOp6
 70
     1
102
RTVSPropertyOp7
 70
     1
102
RTVSPropertyOp8
 70
     1
102
RTVSPropertyOp9
 70
     1
102
RTVSPropertyOp10
 70
     1
102
RTVSPropertyOp11
 70
     1
102
RTVSPropertyOp12
 70
     1
102
RTVSPropertyOp13
 70
     1
102
RTVSPropertyOp14
 70
     1
102
RTVSPropertyOp15
 70
     1
102
RTVSPropertyOp16
 70
     1
102
RTVSPropertyOp17
 70
     1
102
RTVSPropertyOp18
 70
     1
102
RTVSPropertyOp19
 70
     1
102
RTVSPropertyOp20
 70
     1
102
RTVSPropertyOp21
 70
     1
102
RTVSPropertyOp22
 70
     1
102
RTVSPropertyOp23
 70
     1
102
RTVSPropertyOp24
 70
     1
102
RTVSPropertyOp25
 70
     1
102
RTVSPropertyOp26
 70
     1
102
RTVSPropertyOp27
 70
     1
102
RTVSPropertyOp28
 70
     1
102
RTVSPropertyOp29
 70
     1
102
RTVSPropertyOp30
 70
     1
102
RTVSPropertyOp31
 70
     1
102
RTVSPropertyOp32
 70
     1
102
RTVSPropertyOp33
 70
     1
102
RTVSPropertyOp34
 70
     1
102
RTVSPropertyOp35
 70
     1
102
RTVSPropertyOp36
 70
     1
102
RTVSPropertyOp37
 70
     1
102
RTVSPropertyOp38
 70
     1
102
RTVSPropertyOp39
 70
     1
102
RTVSPropertyOp40
 70
     1
102
RTVSPropertyOp41
 70
     1
102
RTVSPropertyOp42
 70
     1
102
RTVSPropertyOp43
 70
     1
102
RTVSPropertyOp44
 70
     1
102
RTVSPropertyOp45
 70
     1
102
RTVSPropertyOp46
 70
     1
102
RTVSPropertyOp47
 70
     1
102
RTVSPropertyOp48
 70
     1
102
RTVSPropertyOp49
 70
     1
102
RTVSPropertyOp50
 70
     1
102
RTVSPropertyOp51
 70
     0
102
RTVSPropertyOp52
 70
     0
102
RTVSPropertyOp53
 70
     1
102
RTVSPropertyOp54
 70
     1
102
RTVSPropertyOp55
 70
     1
102
RTVSPropertyOp56
 70
     1
102
RTVSPropertyOp57
 70
     1
102
RTVSPropertyOp58
 70
     1
102
RTVSPropertyOp59
 70
     1
102
RTVSPropertyOp60
 70
     1
102
RTVSPropertyOp61
 70
     1
102
RTVSPropertyOp62
 70
     1
  0
XRECORD
  5
A5F5
102
{ACAD_REACTORS
330
A5F4
102
}
330
A5F4
100
AcDbXrecord
280
     1
102
RTVSPost2010Prop28
280
     0
102
RTVSPost2010PropOp28
 70
     1
102
RTVSPost2010Prop29
280
     1
102
RTVSPost2010PropOp29
 70
     1
102
RTVSPost2010Prop30
280
     1
102
RTVSPost2010PropOp30
 70
     1
102
RTVSPost2010Prop31
280
     0
102
RTVSPost2010PropOp31
 70
     1
102
RTVSPost2010Prop32
280
     0
102
RTVSPost2010PropOp32
 70
     1
102
RTVSPost2010Prop33
280
     0
102
RTVSPost2010PropOp33
 70
     1
102
RTVSPost2010Prop34
280
     0
102
RTVSPost2010PropOp34
 70
     1
102
RTVSPost2010Prop35
280
     0
102
RTVSPost2010PropOp35
 70
     1
102
RTVSPost2010Prop36
280
     0
102
RTVSPost2010PropOp36
 70
     1
102
RTVSPost2010Prop37
 90
       50
102
RTVSPost2010PropOp37
 70
     1
102
RTVSPost2010Prop38
140
0.0
102
RTVSPost2010PropOp38
 70
     1
102
RTVSPost2010Prop39
140
1.0
102
RTVSPost2010PropOp39
 70
     1
102
RTVSPost2010Prop40
 90
        0
102
RTVSPost2010PropOp40
 70
     1
102
RTVSPost2010Prop41ColorIndex
 90
       18
102
RTVSPost2010Prop41ColorRGB
 90
        0
102
RTVSPost2010PropOp41
 70
     1
102
RTVSPost2010Prop42
 90
       50
102
RTVSPost2010PropOp42
 70
     1
102
RTVSPost2010Prop43
 90
        3
102
RTVSPost2010PropOp43
 70
     1
102
RTVSPost2010Prop44ColorIndex
 90
        5
102
RTVSPost2010Prop44ColorRGB
 90
      255
102
RTVSPost2010PropOp44
 70
     1
102
RTVSPost2010Prop45
280
     0
102
RTVSPost2010PropOp45
 70
     1
102
RTVSPost2010Prop46
 90
       50
102
RTVSPost2010PropOp46
 70
     1
102
RTVSPost2010Prop47
 90
       50
102
RTVSPost2010PropOp47
 70
     1
102
RTVSPost2010Prop48
 90
       50
102
RTVSPost2010PropOp48
 70
     1
102
RTVSPost2010Prop49
280
     0
102
RTVSPost2010PropOp49
 70
     1
102
RTVSPost2010Prop50
 90
       50
102
RTVSPost2010PropOp50
 70
     1
102
RTVSPost2010Prop51ColorIndex
 90
      256
102
RTVSPost2010Prop51ColorRGB
 90
-16777216
102
RTVSPost2010PropOp51
 70
     0
102
RTVSPost2010Prop52
140
1.0
102
RTVSPost2010PropOp52
 70
     0
102
RTVSPost2010Prop53
 90
        2
102
RTVSPost2010PropOp53
 70
     1
102
RTVSPost2010Prop54
  1
strokes_ogs.tif
102
RTVSPost2010PropOp54
 70
     1
102
RTVSPost2010Prop55
280
     0
102
RTVSPost2010PropOp55
 70
     1
102
RTVSPost2010Prop56
140
1.0
102
RTVSPost2010PropOp56
 70
     1
102
RTVSPost2010Prop57
140
1.0
102
RTVSPost2010PropOp57
 70
     1
102
RTVSPropertyOp0
 70
     1
102
RTVSPropertyOp1
 70
     1
102
RTVSPropertyOp2
 70
     1
102
RTVSPropertyOp3
 70
     1
102
RTVSPropertyOp4
 70
     1
102
RTVSPropertyOp5
 70
     1
102
RTVSPropertyOp6
 70
     1
102
RTVSPropertyOp7
 70
     1
102
RTVSPropertyOp8
 70
     1
102
RTVSPropertyOp9
 70
     1
102
RTVSPropertyOp10
 70
     1
102
RTVSPropertyOp11
 70
     1
102
RTVSPropertyOp12
 70
     1
102
RTVSPropertyOp13
 70
     1
102
RTVSPropertyOp14
 70
     1
102
RTVSPropertyOp15
 70
     1
102
RTVSPropertyOp16
 70
     1
102
RTVSPropertyOp17
 70
     1
102
RTVSPropertyOp18
 70
     1
102
RTVSPropertyOp19
 70
     1
102
RTVSPropertyOp20
 70
     1
102
RTVSPropertyOp21
 70
     1
102
RTVSPropertyOp22
 70
     1
102
RTVSPropertyOp23
 70
     1
102
RTVSPropertyOp24
 70
     1
102
RTVSPropertyOp25
 70
     1
102
RTVSPropertyOp26
 70
     1
102
RTVSPropertyOp27
 70
     1
102
RTVSPropertyOp28
 70
     1
102
RTVSPropertyOp29
 70
     1
102
RTVSPropertyOp30
 70
     1
102
RTVSPropertyOp31
 70
     1
102
RTVSPropertyOp32
 70
     1
102
RTVSPropertyOp33
 70
     1
102
RTVSPropertyOp34
 70
     1
102
RTVSPropertyOp35
 70
     1
102
RTVSPropertyOp36
 70
     1
102
RTVSPropertyOp37
 70
     1
102
RTVSPropertyOp38
 70
     1
102
RTVSPropertyOp39
 70
     1
102
RTVSPropertyOp40
 70
     1
102
RTVSPropertyOp41
 70
     1
102
RTVSPropertyOp42
 70
     1
102
RTVSPropertyOp43
 70
     1
102
RTVSPropertyOp44
 70
     1
102
RTVSPropertyOp45
 70
     1
102
RTVSPropertyOp46
 70
     1
102
RTVSPropertyOp47
 70
     1
102
RTVSPropertyOp48
 70
     1
102
RTVSPropertyOp49
 70
     1
102
RTVSPropertyOp50
 70
     1
102
RTVSPropertyOp51
 70
     0
102
RTVSPropertyOp52
 70
     0
102
RTVSPropertyOp53
 70
     1
102
RTVSPropertyOp54
 70
     1
102
RTVSPropertyOp55
 70
     1
102
RTVSPropertyOp56
 70
     1
102
RTVSPropertyOp57
 70
     1
102
RTVSPropertyOp58
 70
     1
102
RTVSPropertyOp59
 70
     1
102
RTVSPropertyOp60
 70
     1
102
RTVSPropertyOp61
 70
     1
102
RTVSPropertyOp62
 70
     1
  0
XRECORD
  5
A603
102
{ACAD_REACTORS
330
A602
102
}
330
A602
100
AcDbXrecord
280
     1
102
RTVSPost2010Prop28
280
     0
102
RTVSPost2010PropOp28
 70
     1
102
RTVSPost2010Prop29
280
     1
102
RTVSPost2010PropOp29
 70
     1
102
RTVSPost2010Prop30
280
     1
102
RTVSPost2010PropOp30
 70
     1
102
RTVSPost2010Prop31
280
     0
102
RTVSPost2010PropOp31
 70
     1
102
RTVSPost2010Prop32
280
     0
102
RTVSPost2010PropOp32
 70
     1
102
RTVSPost2010Prop33
280
     0
102
RTVSPost2010PropOp33
 70
     1
102
RTVSPost2010Prop34
280
     0
102
RTVSPost2010PropOp34
 70
     1
102
RTVSPost2010Prop35
280
     0
102
RTVSPost2010PropOp35
 70
     1
102
RTVSPost2010Prop36
280
     0
102
RTVSPost2010PropOp36
 70
     1
102
RTVSPost2010Prop37
 90
       50
102
RTVSPost2010PropOp37
 70
     1
102
RTVSPost2010Prop38
140
0.0
102
RTVSPost2010PropOp38
 70
     1
102
RTVSPost2010Prop39
140
1.0
102
RTVSPost2010PropOp39
 70
     1
102
RTVSPost2010Prop40
 90
        0
102
RTVSPost2010PropOp40
 70
     1
102
RTVSPost2010Prop41ColorIndex
 90
       18
102
RTVSPost2010Prop41ColorRGB
 90
        0
102
RTVSPost2010PropOp41
 70
     1
102
RTVSPost2010Prop42
 90
       50
102
RTVSPost2010PropOp42
 70
     1
102
RTVSPost2010Prop43
 90
        3
102
RTVSPost2010PropOp43
 70
     1
102
RTVSPost2010Prop44ColorIndex
 90
        5
102
RTVSPost2010Prop44ColorRGB
 90
      255
102
RTVSPost2010PropOp44
 70
     1
102
RTVSPost2010Prop45
280
     0
102
RTVSPost2010PropOp45
 70
     1
102
RTVSPost2010Prop46
 90
       50
102
RTVSPost2010PropOp46
 70
     1
102
RTVSPost2010Prop47
 90
       50
102
RTVSPost2010PropOp47
 70
     1
102
RTVSPost2010Prop48
 90
       50
102
RTVSPost2010PropOp48
 70
     1
102
RTVSPost2010Prop49
280
     0
102
RTVSPost2010PropOp49
 70
     1
102
RTVSPost2010Prop50
 90
       50
102
RTVSPost2010PropOp50
 70
     1
102
RTVSPost2010Prop51ColorIndex
 90
      256
102
RTVSPost2010Prop51ColorRGB
 90
-16777216
102
RTVSPost2010PropOp51
 70
     0
102
RTVSPost2010Prop52
140
1.0
102
RTVSPost2010PropOp52
 70
     0
102
RTVSPost2010Prop53
 90
        2
102
RTVSPost2010PropOp53
 70
     1
102
RTVSPost2010Prop54
  1
strokes_ogs.tif
102
RTVSPost2010PropOp54
 70
     1
102
RTVSPost2010Prop55
280
     0
102
RTVSPost2010PropOp55
 70
     1
102
RTVSPost2010Prop56
140
1.0
102
RTVSPost2010PropOp56
 70
     1
102
RTVSPost2010Prop57
140
1.0
102
RTVSPost2010PropOp57
 70
     1
102
RTVSPropertyOp0
 70
     1
102
RTVSPropertyOp1
 70
     1
102
RTVSPropertyOp2
 70
     1
102
RTVSPropertyOp3
 70
     1
102
RTVSPropertyOp4
 70
     1
102
RTVSPropertyOp5
 70
     1
102
RTVSPropertyOp6
 70
     1
102
RTVSPropertyOp7
 70
     1
102
RTVSPropertyOp8
 70
     1
102
RTVSPropertyOp9
 70
     1
102
RTVSPropertyOp10
 70
     1
102
RTVSPropertyOp11
 70
     1
102
RTVSPropertyOp12
 70
     1
102
RTVSPropertyOp13
 70
     1
102
RTVSPropertyOp14
 70
     1
102
RTVSPropertyOp15
 70
     1
102
RTVSPropertyOp16
 70
     1
102
RTVSPropertyOp17
 70
     1
102
RTVSPropertyOp18
 70
     1
102
RTVSPropertyOp19
 70
     1
102
RTVSPropertyOp20
 70
     1
102
RTVSPropertyOp21
 70
     1
102
RTVSPropertyOp22
 70
     1
102
RTVSPropertyOp23
 70
     1
102
RTVSPropertyOp24
 70
     1
102
RTVSPropertyOp25
 70
     1
102
RTVSPropertyOp26
 70
     1
102
RTVSPropertyOp27
 70
     1
102
RTVSPropertyOp28
 70
     1
102
RTVSPropertyOp29
 70
     1
102
RTVSPropertyOp30
 70
     1
102
RTVSPropertyOp31
 70
     1
102
RTVSPropertyOp32
 70
     1
102
RTVSPropertyOp33
 70
     1
102
RTVSPropertyOp34
 70
     1
102
RTVSPropertyOp35
 70
     1
102
RTVSPropertyOp36
 70
     1
102
RTVSPropertyOp37
 70
     1
102
RTVSPropertyOp38
 70
     1
102
RTVSPropertyOp39
 70
     1
102
RTVSPropertyOp40
 70
     1
102
RTVSPropertyOp41
 70
     1
102
RTVSPropertyOp42
 70
     1
102
RTVSPropertyOp43
 70
     1
102
RTVSPropertyOp44
 70
     1
102
RTVSPropertyOp45
 70
     1
102
RTVSPropertyOp46
 70
     1
102
RTVSPropertyOp47
 70
     1
102
RTVSPropertyOp48
 70
     1
102
RTVSPropertyOp49
 70
     1
102
RTVSPropertyOp50
 70
     1
102
RTVSPropertyOp51
 70
     0
102
RTVSPropertyOp52
 70
     0
102
RTVSPropertyOp53
 70
     1
102
RTVSPropertyOp54
 70
     1
102
RTVSPropertyOp55
 70
     1
102
RTVSPropertyOp56
 70
     1
102
RTVSPropertyOp57
 70
     1
102
RTVSPropertyOp58
 70
     1
102
RTVSPropertyOp59
 70
     1
102
RTVSPropertyOp60
 70
     1
102
RTVSPropertyOp61
 70
     1
102
RTVSPropertyOp62
 70
     1
  0
XRECORD
  5
A60B
102
{ACAD_REACTORS
330
A60A
102
}
330
A60A
100
AcDbXrecord
280
     1
102
RTVSPost2010Prop28
280
     0
102
RTVSPost2010PropOp28
 70
     1
102
RTVSPost2010Prop29
280
     1
102
RTVSPost2010PropOp29
 70
     1
102
RTVSPost2010Prop30
280
     1
102
RTVSPost2010PropOp30
 70
     1
102
RTVSPost2010Prop31
280
     0
102
RTVSPost2010PropOp31
 70
     1
102
RTVSPost2010Prop32
280
     0
102
RTVSPost2010PropOp32
 70
     1
102
RTVSPost2010Prop33
280
     0
102
RTVSPost2010PropOp33
 70
     1
102
RTVSPost2010Prop34
280
     0
102
RTVSPost2010PropOp34
 70
     1
102
RTVSPost2010Prop35
280
     0
102
RTVSPost2010PropOp35
 70
     1
102
RTVSPost2010Prop36
280
     0
102
RTVSPost2010PropOp36
 70
     1
102
RTVSPost2010Prop37
 90
       50
102
RTVSPost2010PropOp37
 70
     1
102
RTVSPost2010Prop38
140
0.0
102
RTVSPost2010PropOp38
 70
     1
102
RTVSPost2010Prop39
140
1.0
102
RTVSPost2010PropOp39
 70
     1
102
RTVSPost2010Prop40
 90
        0
102
RTVSPost2010PropOp40
 70
     1
102
RTVSPost2010Prop41ColorIndex
 90
       18
102
RTVSPost2010Prop41ColorRGB
 90
        0
102
RTVSPost2010PropOp41
 70
     1
102
RTVSPost2010Prop42
 90
       50
102
RTVSPost2010PropOp42
 70
     1
102
RTVSPost2010Prop43
 90
        3
102
RTVSPost2010PropOp43
 70
     1
102
RTVSPost2010Prop44ColorIndex
 90
        5
102
RTVSPost2010Prop44ColorRGB
 90
      255
102
RTVSPost2010PropOp44
 70
     1
102
RTVSPost2010Prop45
280
     0
102
RTVSPost2010PropOp45
 70
     1
102
RTVSPost2010Prop46
 90
       50
102
RTVSPost2010PropOp46
 70
     1
102
RTVSPost2010Prop47
 90
       50
102
RTVSPost2010PropOp47
 70
     1
102
RTVSPost2010Prop48
 90
       50
102
RTVSPost2010PropOp48
 70
     1
102
RTVSPost2010Prop49
280
     0
102
RTVSPost2010PropOp49
 70
     1
102
RTVSPost2010Prop50
 90
       50
102
RTVSPost2010PropOp50
 70
     1
102
RTVSPost2010Prop51ColorIndex
 90
      256
102
RTVSPost2010Prop51ColorRGB
 90
-16777216
102
RTVSPost2010PropOp51
 70
     0
102
RTVSPost2010Prop52
140
1.0
102
RTVSPost2010PropOp52
 70
     0
102
RTVSPost2010Prop53
 90
        2
102
RTVSPost2010PropOp53
 70
     1
102
RTVSPost2010Prop54
  1
strokes_ogs.tif
102
RTVSPost2010PropOp54
 70
     1
102
RTVSPost2010Prop55
280
     0
102
RTVSPost2010PropOp55
 70
     1
102
RTVSPost2010Prop56
140
1.0
102
RTVSPost2010PropOp56
 70
     1
102
RTVSPost2010Prop57
140
1.0
102
RTVSPost2010PropOp57
 70
     1
102
RTVSPropertyOp0
 70
     1
102
RTVSPropertyOp1
 70
     1
102
RTVSPropertyOp2
 70
     1
102
RTVSPropertyOp3
 70
     1
102
RTVSPropertyOp4
 70
     1
102
RTVSPropertyOp5
 70
     1
102
RTVSPropertyOp6
 70
     1
102
RTVSPropertyOp7
 70
     1
102
RTVSPropertyOp8
 70
     1
102
RTVSPropertyOp9
 70
     1
102
RTVSPropertyOp10
 70
     1
102
RTVSPropertyOp11
 70
     1
102
RTVSPropertyOp12
 70
     1
102
RTVSPropertyOp13
 70
     1
102
RTVSPropertyOp14
 70
     1
102
RTVSPropertyOp15
 70
     1
102
RTVSPropertyOp16
 70
     1
102
RTVSPropertyOp17
 70
     1
102
RTVSPropertyOp18
 70
     1
102
RTVSPropertyOp19
 70
     1
102
RTVSPropertyOp20
 70
     1
102
RTVSPropertyOp21
 70
     1
102
RTVSPropertyOp22
 70
     1
102
RTVSPropertyOp23
 70
     1
102
RTVSPropertyOp24
 70
     1
102
RTVSPropertyOp25
 70
     1
102
RTVSPropertyOp26
 70
     1
102
RTVSPropertyOp27
 70
     1
102
RTVSPropertyOp28
 70
     1
102
RTVSPropertyOp29
 70
     1
102
RTVSPropertyOp30
 70
     1
102
RTVSPropertyOp31
 70
     1
102
RTVSPropertyOp32
 70
     1
102
RTVSPropertyOp33
 70
     1
102
RTVSPropertyOp34
 70
     1
102
RTVSPropertyOp35
 70
     1
102
RTVSPropertyOp36
 70
     1
102
RTVSPropertyOp37
 70
     1
102
RTVSPropertyOp38
 70
     1
102
RTVSPropertyOp39
 70
     1
102
RTVSPropertyOp40
 70
     1
102
RTVSPropertyOp41
 70
     1
102
RTVSPropertyOp42
 70
     1
102
RTVSPropertyOp43
 70
     1
102
RTVSPropertyOp44
 70
     1
102
RTVSPropertyOp45
 70
     1
102
RTVSPropertyOp46
 70
     1
102
RTVSPropertyOp47
 70
     1
102
RTVSPropertyOp48
 70
     1
102
RTVSPropertyOp49
 70
     1
102
RTVSPropertyOp50
 70
     1
102
RTVSPropertyOp51
 70
     0
102
RTVSPropertyOp52
 70
     0
102
RTVSPropertyOp53
 70
     1
102
RTVSPropertyOp54
 70
     1
102
RTVSPropertyOp55
 70
     1
102
RTVSPropertyOp56
 70
     1
102
RTVSPropertyOp57
 70
     1
102
RTVSPropertyOp58
 70
     1
102
RTVSPropertyOp59
 70
     1
102
RTVSPropertyOp60
 70
     1
102
RTVSPropertyOp61
 70
     1
102
RTVSPropertyOp62
 70
     1
  0
XRECORD
  5
A5FD
102
{ACAD_REACTORS
330
A5FC
102
}
330
A5FC
100
AcDbXrecord
280
     1
102
RTVSPost2010Prop28
280
     0
102
RTVSPost2010PropOp28
 70
     1
102
RTVSPost2010Prop29
280
     1
102
RTVSPost2010PropOp29
 70
     1
102
RTVSPost2010Prop30
280
     1
102
RTVSPost2010PropOp30
 70
     1
102
RTVSPost2010Prop31
280
     0
102
RTVSPost2010PropOp31
 70
     1
102
RTVSPost2010Prop32
280
     0
102
RTVSPost2010PropOp32
 70
     1
102
RTVSPost2010Prop33
280
     0
102
RTVSPost2010PropOp33
 70
     1
102
RTVSPost2010Prop34
280
     0
102
RTVSPost2010PropOp34
 70
     1
102
RTVSPost2010Prop35
280
     0
102
RTVSPost2010PropOp35
 70
     1
102
RTVSPost2010Prop36
280
     0
102
RTVSPost2010PropOp36
 70
     1
102
RTVSPost2010Prop37
 90
       50
102
RTVSPost2010PropOp37
 70
     1
102
RTVSPost2010Prop38
140
0.0
102
RTVSPost2010PropOp38
 70
     1
102
RTVSPost2010Prop39
140
1.0
102
RTVSPost2010PropOp39
 70
     1
102
RTVSPost2010Prop40
 90
        0
102
RTVSPost2010PropOp40
 70
     1
102
RTVSPost2010Prop41ColorIndex
 90
       18
102
RTVSPost2010Prop41ColorRGB
 90
        0
102
RTVSPost2010PropOp41
 70
     1
102
RTVSPost2010Prop42
 90
       50
102
RTVSPost2010PropOp42
 70
     1
102
RTVSPost2010Prop43
 90
        3
102
RTVSPost2010PropOp43
 70
     1
102
RTVSPost2010Prop44ColorIndex
 90
        5
102
RTVSPost2010Prop44ColorRGB
 90
      255
102
RTVSPost2010PropOp44
 70
     1
102
RTVSPost2010Prop45
280
     0
102
RTVSPost2010PropOp45
 70
     1
102
RTVSPost2010Prop46
 90
       50
102
RTVSPost2010PropOp46
 70
     1
102
RTVSPost2010Prop47
 90
       50
102
RTVSPost2010PropOp47
 70
     1
102
RTVSPost2010Prop48
 90
       50
102
RTVSPost2010PropOp48
 70
     1
102
RTVSPost2010Prop49
280
     0
102
RTVSPost2010PropOp49
 70
     1
102
RTVSPost2010Prop50
 90
       50
102
RTVSPost2010PropOp50
 70
     1
102
RTVSPost2010Prop51ColorIndex
 90
      256
102
RTVSPost2010Prop51ColorRGB
 90
-16777216
102
RTVSPost2010PropOp51
 70
     0
102
RTVSPost2010Prop52
140
1.0
102
RTVSPost2010PropOp52
 70
     0
102
RTVSPost2010Prop53
 90
        2
102
RTVSPost2010PropOp53
 70
     1
102
RTVSPost2010Prop54
  1
strokes_ogs.tif
102
RTVSPost2010PropOp54
 70
     1
102
RTVSPost2010Prop55
280
     0
102
RTVSPost2010PropOp55
 70
     1
102
RTVSPost2010Prop56
140
1.0
102
RTVSPost2010PropOp56
 70
     1
102
RTVSPost2010Prop57
140
1.0
102
RTVSPost2010PropOp57
 70
     1
102
RTVSPropertyOp0
 70
     1
102
RTVSPropertyOp1
 70
     1
102
RTVSPropertyOp2
 70
     1
102
RTVSPropertyOp3
 70
     1
102
RTVSPropertyOp4
 70
     1
102
RTVSPropertyOp5
 70
     1
102
RTVSPropertyOp6
 70
     1
102
RTVSPropertyOp7
 70
     1
102
RTVSPropertyOp8
 70
     1
102
RTVSPropertyOp9
 70
     1
102
RTVSPropertyOp10
 70
     1
102
RTVSPropertyOp11
 70
     1
102
RTVSPropertyOp12
 70
     1
102
RTVSPropertyOp13
 70
     1
102
RTVSPropertyOp14
 70
     1
102
RTVSPropertyOp15
 70
     1
102
RTVSPropertyOp16
 70
     1
102
RTVSPropertyOp17
 70
     1
102
RTVSPropertyOp18
 70
     1
102
RTVSPropertyOp19
 70
     1
102
RTVSPropertyOp20
 70
     1
102
RTVSPropertyOp21
 70
     1
102
RTVSPropertyOp22
 70
     1
102
RTVSPropertyOp23
 70
     1
102
RTVSPropertyOp24
 70
     1
102
RTVSPropertyOp25
 70
     1
102
RTVSPropertyOp26
 70
     1
102
RTVSPropertyOp27
 70
     1
102
RTVSPropertyOp28
 70
     1
102
RTVSPropertyOp29
 70
     1
102
RTVSPropertyOp30
 70
     1
102
RTVSPropertyOp31
 70
     1
102
RTVSPropertyOp32
 70
     1
102
RTVSPropertyOp33
 70
     1
102
RTVSPropertyOp34
 70
     1
102
RTVSPropertyOp35
 70
     1
102
RTVSPropertyOp36
 70
     1
102
RTVSPropertyOp37
 70
     1
102
RTVSPropertyOp38
 70
     1
102
RTVSPropertyOp39
 70
     1
102
RTVSPropertyOp40
 70
     1
102
RTVSPropertyOp41
 70
     1
102
RTVSPropertyOp42
 70
     1
102
RTVSPropertyOp43
 70
     1
102
RTVSPropertyOp44
 70
     1
102
RTVSPropertyOp45
 70
     1
102
RTVSPropertyOp46
 70
     1
102
RTVSPropertyOp47
 70
     1
102
RTVSPropertyOp48
 70
     1
102
RTVSPropertyOp49
 70
     1
102
RTVSPropertyOp50
 70
     1
102
RTVSPropertyOp51
 70
     0
102
RTVSPropertyOp52
 70
     0
102
RTVSPropertyOp53
 70
     1
102
RTVSPropertyOp54
 70
     1
102
RTVSPropertyOp55
 70
     1
102
RTVSPropertyOp56
 70
     1
102
RTVSPropertyOp57
 70
     1
102
RTVSPropertyOp58
 70
     1
102
RTVSPropertyOp59
 70
     1
102
RTVSPropertyOp60
 70
     1
102
RTVSPropertyOp61
 70
     1
102
RTVSPropertyOp62
 70
     1
  0
XRECORD
  5
A601
102
{ACAD_REACTORS
330
A600
102
}
330
A600
100
AcDbXrecord
280
     1
102
RTVSPost2010Prop28
280
     0
102
RTVSPost2010PropOp28
 70
     1
102
RTVSPost2010Prop29
280
     1
102
RTVSPost2010PropOp29
 70
     1
102
RTVSPost2010Prop30
280
     1
102
RTVSPost2010PropOp30
 70
     1
102
RTVSPost2010Prop31
280
     0
102
RTVSPost2010PropOp31
 70
     1
102
RTVSPost2010Prop32
280
     0
102
RTVSPost2010PropOp32
 70
     1
102
RTVSPost2010Prop33
280
     0
102
RTVSPost2010PropOp33
 70
     1
102
RTVSPost2010Prop34
280
     0
102
RTVSPost2010PropOp34
 70
     1
102
RTVSPost2010Prop35
280
     0
102
RTVSPost2010PropOp35
 70
     1
102
RTVSPost2010Prop36
280
     0
102
RTVSPost2010PropOp36
 70
     1
102
RTVSPost2010Prop37
 90
       50
102
RTVSPost2010PropOp37
 70
     1
102
RTVSPost2010Prop38
140
0.0
102
RTVSPost2010PropOp38
 70
     1
102
RTVSPost2010Prop39
140
1.0
102
RTVSPost2010PropOp39
 70
     1
102
RTVSPost2010Prop40
 90
        0
102
RTVSPost2010PropOp40
 70
     1
102
RTVSPost2010Prop41ColorIndex
 90
       18
102
RTVSPost2010Prop41ColorRGB
 90
        0
102
RTVSPost2010PropOp41
 70
     1
102
RTVSPost2010Prop42
 90
       50
102
RTVSPost2010PropOp42
 70
     1
102
RTVSPost2010Prop43
 90
        3
102
RTVSPost2010PropOp43
 70
     1
102
RTVSPost2010Prop44ColorIndex
 90
        5
102
RTVSPost2010Prop44ColorRGB
 90
      255
102
RTVSPost2010PropOp44
 70
     1
102
RTVSPost2010Prop45
280
     0
102
RTVSPost2010PropOp45
 70
     1
102
RTVSPost2010Prop46
 90
       50
102
RTVSPost2010PropOp46
 70
     1
102
RTVSPost2010Prop47
 90
       50
102
RTVSPost2010PropOp47
 70
     1
102
RTVSPost2010Prop48
 90
       50
102
RTVSPost2010PropOp48
 70
     1
102
RTVSPost2010Prop49
280
     0
102
RTVSPost2010PropOp49
 70
     1
102
RTVSPost2010Prop50
 90
       50
102
RTVSPost2010PropOp50
 70
     1
102
RTVSPost2010Prop51ColorIndex
 90
      256
102
RTVSPost2010Prop51ColorRGB
 90
-16777216
102
RTVSPost2010PropOp51
 70
     0
102
RTVSPost2010Prop52
140
1.0
102
RTVSPost2010PropOp52
 70
     0
102
RTVSPost2010Prop53
 90
        2
102
RTVSPost2010PropOp53
 70
     1
102
RTVSPost2010Prop54
  1
strokes_ogs.tif
102
RTVSPost2010PropOp54
 70
     1
102
RTVSPost2010Prop55
280
     0
102
RTVSPost2010PropOp55
 70
     1
102
RTVSPost2010Prop56
140
1.0
102
RTVSPost2010PropOp56
 70
     1
102
RTVSPost2010Prop57
140
1.0
102
RTVSPost2010PropOp57
 70
     1
102
RTVSPropertyOp0
 70
     1
102
RTVSPropertyOp1
 70
     1
102
RTVSPropertyOp2
 70
     1
102
RTVSPropertyOp3
 70
     1
102
RTVSPropertyOp4
 70
     1
102
RTVSPropertyOp5
 70
     1
102
RTVSPropertyOp6
 70
     1
102
RTVSPropertyOp7
 70
     1
102
RTVSPropertyOp8
 70
     1
102
RTVSPropertyOp9
 70
     1
102
RTVSPropertyOp10
 70
     1
102
RTVSPropertyOp11
 70
     1
102
RTVSPropertyOp12
 70
     1
102
RTVSPropertyOp13
 70
     1
102
RTVSPropertyOp14
 70
     1
102
RTVSPropertyOp15
 70
     1
102
RTVSPropertyOp16
 70
     1
102
RTVSPropertyOp17
 70
     1
102
RTVSPropertyOp18
 70
     1
102
RTVSPropertyOp19
 70
     1
102
RTVSPropertyOp20
 70
     1
102
RTVSPropertyOp21
 70
     1
102
RTVSPropertyOp22
 70
     1
102
RTVSPropertyOp23
 70
     1
102
RTVSPropertyOp24
 70
     1
102
RTVSPropertyOp25
 70
     1
102
RTVSPropertyOp26
 70
     1
102
RTVSPropertyOp27
 70
     1
102
RTVSPropertyOp28
 70
     1
102
RTVSPropertyOp29
 70
     1
102
RTVSPropertyOp30
 70
     1
102
RTVSPropertyOp31
 70
     1
102
RTVSPropertyOp32
 70
     1
102
RTVSPropertyOp33
 70
     1
102
RTVSPropertyOp34
 70
     1
102
RTVSPropertyOp35
 70
     1
102
RTVSPropertyOp36
 70
     1
102
RTVSPropertyOp37
 70
     1
102
RTVSPropertyOp38
 70
     1
102
RTVSPropertyOp39
 70
     1
102
RTVSPropertyOp40
 70
     1
102
RTVSPropertyOp41
 70
     1
102
RTVSPropertyOp42
 70
     1
102
RTVSPropertyOp43
 70
     1
102
RTVSPropertyOp44
 70
     1
102
RTVSPropertyOp45
 70
     1
102
RTVSPropertyOp46
 70
     1
102
RTVSPropertyOp47
 70
     1
102
RTVSPropertyOp48
 70
     1
102
RTVSPropertyOp49
 70
     1
102
RTVSPropertyOp50
 70
     1
102
RTVSPropertyOp51
 70
     0
102
RTVSPropertyOp52
 70
     0
102
RTVSPropertyOp53
 70
     1
102
RTVSPropertyOp54
 70
     1
102
RTVSPropertyOp55
 70
     1
102
RTVSPropertyOp56
 70
     1
102
RTVSPropertyOp57
 70
     1
102
RTVSPropertyOp58
 70
     1
102
RTVSPropertyOp59
 70
     1
102
RTVSPropertyOp60
 70
     1
102
RTVSPropertyOp61
 70
     1
102
RTVSPropertyOp62
 70
     1
  0
XRECORD
  5
A61B
102
{ACAD_REACTORS
330
A61A
102
}
330
A61A
100
AcDbXrecord
280
     1
102
RTVSPost2010Prop28
280
     0
102
RTVSPost2010PropOp28
 70
     1
102
RTVSPost2010Prop29
280
     1
102
RTVSPost2010PropOp29
 70
     1
102
RTVSPost2010Prop30
280
     1
102
RTVSPost2010PropOp30
 70
     1
102
RTVSPost2010Prop31
280
     0
102
RTVSPost2010PropOp31
 70
     1
102
RTVSPost2010Prop32
280
     0
102
RTVSPost2010PropOp32
 70
     1
102
RTVSPost2010Prop33
280
     0
102
RTVSPost2010PropOp33
 70
     1
102
RTVSPost2010Prop34
280
     0
102
RTVSPost2010PropOp34
 70
     1
102
RTVSPost2010Prop35
280
     0
102
RTVSPost2010PropOp35
 70
     1
102
RTVSPost2010Prop36
280
     0
102
RTVSPost2010PropOp36
 70
     1
102
RTVSPost2010Prop37
 90
       50
102
RTVSPost2010PropOp37
 70
     0
102
RTVSPost2010Prop38
140
0.0
102
RTVSPost2010PropOp38
 70
     0
102
RTVSPost2010Prop39
140
1.0
102
RTVSPost2010PropOp39
 70
     0
102
RTVSPost2010Prop40
 90
        0
102
RTVSPost2010PropOp40
 70
     0
102
RTVSPost2010Prop41ColorIndex
 90
       18
102
RTVSPost2010Prop41ColorRGB
 90
        0
102
RTVSPost2010PropOp41
 70
     0
102
RTVSPost2010Prop42
 90
       50
102
RTVSPost2010PropOp42
 70
     0
102
RTVSPost2010Prop43
 90
        3
102
RTVSPost2010PropOp43
 70
     0
102
RTVSPost2010Prop44ColorIndex
 90
        5
102
RTVSPost2010Prop44ColorRGB
 90
      255
102
RTVSPost2010PropOp44
 70
     0
102
RTVSPost2010Prop45
280
     0
102
RTVSPost2010PropOp45
 70
     1
102
RTVSPost2010Prop46
 90
       50
102
RTVSPost2010PropOp46
 70
     0
102
RTVSPost2010Prop47
 90
       50
102
RTVSPost2010PropOp47
 70
     0
102
RTVSPost2010Prop48
 90
       50
102
RTVSPost2010PropOp48
 70
     0
102
RTVSPost2010Prop49
280
     0
102
RTVSPost2010PropOp49
 70
     1
102
RTVSPost2010Prop50
 90
       50
102
RTVSPost2010PropOp50
 70
     0
102
RTVSPost2010Prop51ColorIndex
 90
      256
102
RTVSPost2010Prop51ColorRGB
 90
-16777216
102
RTVSPost2010PropOp51
 70
     0
102
RTVSPost2010Prop52
140
1.0
102
RTVSPost2010PropOp52
 70
     0
102
RTVSPost2010Prop53
 90
        2
102
RTVSPost2010PropOp53
 70
     0
102
RTVSPost2010Prop54
  1
strokes_ogs.tif
102
RTVSPost2010PropOp54
 70
     0
102
RTVSPost2010Prop55
280
     0
102
RTVSPost2010PropOp55
 70
     1
102
RTVSPost2010Prop56
140
1.0
102
RTVSPost2010PropOp56
 70
     0
102
RTVSPost2010Prop57
140
1.0
102
RTVSPost2010PropOp57
 70
     0
102
RTVSPropertyOp0
 70
     0
102
RTVSPropertyOp1
 70
     0
102
RTVSPropertyOp2
 70
     0
102
RTVSPropertyOp3
 70
     0
102
RTVSPropertyOp4
 70
     0
102
RTVSPropertyOp5
 70
     0
102
RTVSPropertyOp6
 70
     0
102
RTVSPropertyOp7
 70
     0
102
RTVSPropertyOp8
 70
     0
102
RTVSPropertyOp9
 70
     0
102
RTVSPropertyOp10
 70
     0
102
RTVSPropertyOp11
 70
     0
102
RTVSPropertyOp12
 70
     0
102
RTVSPropertyOp13
 70
     0
102
RTVSPropertyOp14
 70
     2
102
RTVSPropertyOp15
 70
     0
102
RTVSPropertyOp16
 70
     0
102
RTVSPropertyOp17
 70
     0
102
RTVSPropertyOp18
 70
     0
102
RTVSPropertyOp19
 70
     0
102
RTVSPropertyOp20
 70
     0
102
RTVSPropertyOp21
 70
     0
102
RTVSPropertyOp22
 70
     0
102
RTVSPropertyOp23
 70
     0
102
RTVSPropertyOp24
 70
     0
102
RTVSPropertyOp25
 70
     0
102
RTVSPropertyOp26
 70
     0
102
RTVSPropertyOp27
 70
     0
102
RTVSPropertyOp28
 70
     1
102
RTVSPropertyOp29
 70
     1
102
RTVSPropertyOp30
 70
     1
102
RTVSPropertyOp31
 70
     1
102
RTVSPropertyOp32
 70
     1
102
RTVSPropertyOp33
 70
     1
102
RTVSPropertyOp34
 70
     1
102
RTVSPropertyOp35
 70
     1
102
RTVSPropertyOp36
 70
     1
102
RTVSPropertyOp37
 70
     0
102
RTVSPropertyOp38
 70
     0
102
RTVSPropertyOp39
 70
     0
102
RTVSPropertyOp40
 70
     0
102
RTVSPropertyOp41
 70
     0
102
RTVSPropertyOp42
 70
     0
102
RTVSPropertyOp43
 70
     0
102
RTVSPropertyOp44
 70
     0
102
RTVSPropertyOp45
 70
     1
102
RTVSPropertyOp46
 70
     0
102
RTVSPropertyOp47
 70
     0
102
RTVSPropertyOp48
 70
     0
102
RTVSPropertyOp49
 70
     1
102
RTVSPropertyOp50
 70
     0
102
RTVSPropertyOp51
 70
     0
102
RTVSPropertyOp52
 70
     0
102
RTVSPropertyOp53
 70
     0
102
RTVSPropertyOp54
 70
     0
102
RTVSPropertyOp55
 70
     1
102
RTVSPropertyOp56
 70
     0
102
RTVSPropertyOp57
 70
     0
102
RTVSPropertyOp58
 70
     0
102
RTVSPropertyOp59
 70
     0
102
RTVSPropertyOp60
 70
     0
102
RTVSPropertyOp61
 70
     0
102
RTVSPropertyOp62
 70
     0
  0
XRECORD
  5
A609
102
{ACAD_REACTORS
330
A608
102
}
330
A608
100
AcDbXrecord
280
     1
102
RTVSPost2010Prop28
280
     0
102
RTVSPost2010PropOp28
 70
     1
102
RTVSPost2010Prop29
280
     1
102
RTVSPost2010PropOp29
 70
     1
102
RTVSPost2010Prop30
280
     1
102
RTVSPost2010PropOp30
 70
     1
102
RTVSPost2010Prop31
280
     0
102
RTVSPost2010PropOp31
 70
     1
102
RTVSPost2010Prop32
280
     0
102
RTVSPost2010PropOp32
 70
     1
102
RTVSPost2010Prop33
280
     0
102
RTVSPost2010PropOp33
 70
     1
102
RTVSPost2010Prop34
280
     0
102
RTVSPost2010PropOp34
 70
     1
102
RTVSPost2010Prop35
280
     0
102
RTVSPost2010PropOp35
 70
     1
102
RTVSPost2010Prop36
280
     0
102
RTVSPost2010PropOp36
 70
     1
102
RTVSPost2010Prop37
 90
       50
102
RTVSPost2010PropOp37
 70
     1
102
RTVSPost2010Prop38
140
0.0
102
RTVSPost2010PropOp38
 70
     1
102
RTVSPost2010Prop39
140
1.0
102
RTVSPost2010PropOp39
 70
     1
102
RTVSPost2010Prop40
 90
        0
102
RTVSPost2010PropOp40
 70
     1
102
RTVSPost2010Prop41ColorIndex
 90
       18
102
RTVSPost2010Prop41ColorRGB
 90
        0
102
RTVSPost2010PropOp41
 70
     1
102
RTVSPost2010Prop42
 90
       50
102
RTVSPost2010PropOp42
 70
     1
102
RTVSPost2010Prop43
 90
        3
102
RTVSPost2010PropOp43
 70
     1
102
RTVSPost2010Prop44ColorIndex
 90
        5
102
RTVSPost2010Prop44ColorRGB
 90
      255
102
RTVSPost2010PropOp44
 70
     1
102
RTVSPost2010Prop45
280
     0
102
RTVSPost2010PropOp45
 70
     1
102
RTVSPost2010Prop46
 90
       50
102
RTVSPost2010PropOp46
 70
     1
102
RTVSPost2010Prop47
 90
       50
102
RTVSPost2010PropOp47
 70
     1
102
RTVSPost2010Prop48
 90
       50
102
RTVSPost2010PropOp48
 70
     1
102
RTVSPost2010Prop49
280
     0
102
RTVSPost2010PropOp49
 70
     1
102
RTVSPost2010Prop50
 90
       50
102
RTVSPost2010PropOp50
 70
     1
102
RTVSPost2010Prop51ColorIndex
 90
      256
102
RTVSPost2010Prop51ColorRGB
 90
-16777216
102
RTVSPost2010PropOp51
 70
     0
102
RTVSPost2010Prop52
140
1.0
102
RTVSPost2010PropOp52
 70
     0
102
RTVSPost2010Prop53
 90
        2
102
RTVSPost2010PropOp53
 70
     1
102
RTVSPost2010Prop54
  1
strokes_ogs.tif
102
RTVSPost2010PropOp54
 70
     1
102
RTVSPost2010Prop55
280
     0
102
RTVSPost2010PropOp55
 70
     1
102
RTVSPost2010Prop56
140
1.0
102
RTVSPost2010PropOp56
 70
     1
102
RTVSPost2010Prop57
140
1.0
102
RTVSPost2010PropOp57
 70
     1
102
RTVSPropertyOp0
 70
     1
102
RTVSPropertyOp1
 70
     1
102
RTVSPropertyOp2
 70
     1
102
RTVSPropertyOp3
 70
     1
102
RTVSPropertyOp4
 70
     1
102
RTVSPropertyOp5
 70
     1
102
RTVSPropertyOp6
 70
     1
102
RTVSPropertyOp7
 70
     1
102
RTVSPropertyOp8
 70
     1
102
RTVSPropertyOp9
 70
     1
102
RTVSPropertyOp10
 70
     1
102
RTVSPropertyOp11
 70
     1
102
RTVSPropertyOp12
 70
     1
102
RTVSPropertyOp13
 70
     1
102
RTVSPropertyOp14
 70
     1
102
RTVSPropertyOp15
 70
     1
102
RTVSPropertyOp16
 70
     1
102
RTVSPropertyOp17
 70
     1
102
RTVSPropertyOp18
 70
     1
102
RTVSPropertyOp19
 70
     1
102
RTVSPropertyOp20
 70
     1
102
RTVSPropertyOp21
 70
     1
102
RTVSPropertyOp22
 70
     1
102
RTVSPropertyOp23
 70
     1
102
RTVSPropertyOp24
 70
     1
102
RTVSPropertyOp25
 70
     1
102
RTVSPropertyOp26
 70
     1
102
RTVSPropertyOp27
 70
     1
102
RTVSPropertyOp28
 70
     1
102
RTVSPropertyOp29
 70
     1
102
RTVSPropertyOp30
 70
     1
102
RTVSPropertyOp31
 70
     1
102
RTVSPropertyOp32
 70
     1
102
RTVSPropertyOp33
 70
     1
102
RTVSPropertyOp34
 70
     1
102
RTVSPropertyOp35
 70
     1
102
RTVSPropertyOp36
 70
     1
102
RTVSPropertyOp37
 70
     1
102
RTVSPropertyOp38
 70
     1
102
RTVSPropertyOp39
 70
     1
102
RTVSPropertyOp40
 70
     1
102
RTVSPropertyOp41
 70
     1
102
RTVSPropertyOp42
 70
     1
102
RTVSPropertyOp43
 70
     1
102
RTVSPropertyOp44
 70
     1
102
RTVSPropertyOp45
 70
     1
102
RTVSPropertyOp46
 70
     1
102
RTVSPropertyOp47
 70
     1
102
RTVSPropertyOp48
 70
     1
102
RTVSPropertyOp49
 70
     1
102
RTVSPropertyOp50
 70
     1
102
RTVSPropertyOp51
 70
     0
102
RTVSPropertyOp52
 70
     0
102
RTVSPropertyOp53
 70
     1
102
RTVSPropertyOp54
 70
     1
102
RTVSPropertyOp55
 70
     1
102
RTVSPropertyOp56
 70
     1
102
RTVSPropertyOp57
 70
     1
102
RTVSPropertyOp58
 70
     1
102
RTVSPropertyOp59
 70
     1
102
RTVSPropertyOp60
 70
     1
102
RTVSPropertyOp61
 70
     1
102
RTVSPropertyOp62
 70
     1
  0
XRECORD
  5
A5ED
102
{ACAD_REACTORS
330
A5EC
102
}
330
A5EC
100
AcDbXrecord
280
     1
102
RTVSPost2010Prop28
280
     0
102
RTVSPost2010PropOp28
 70
     1
102
RTVSPost2010Prop29
280
     1
102
RTVSPost2010PropOp29
 70
     1
102
RTVSPost2010Prop30
280
     1
102
RTVSPost2010PropOp30
 70
     1
102
RTVSPost2010Prop31
280
     0
102
RTVSPost2010PropOp31
 70
     1
102
RTVSPost2010Prop32
280
     0
102
RTVSPost2010PropOp32
 70
     1
102
RTVSPost2010Prop33
280
     0
102
RTVSPost2010PropOp33
 70
     1
102
RTVSPost2010Prop34
280
     0
102
RTVSPost2010PropOp34
 70
     1
102
RTVSPost2010Prop35
280
     0
102
RTVSPost2010PropOp35
 70
     1
102
RTVSPost2010Prop36
280
     0
102
RTVSPost2010PropOp36
 70
     1
102
RTVSPost2010Prop37
 90
       50
102
RTVSPost2010PropOp37
 70
     1
102
RTVSPost2010Prop38
140
0.0
102
RTVSPost2010PropOp38
 70
     1
102
RTVSPost2010Prop39
140
1.0
102
RTVSPost2010PropOp39
 70
     1
102
RTVSPost2010Prop40
 90
        0
102
RTVSPost2010PropOp40
 70
     1
102
RTVSPost2010Prop41ColorIndex
 90
       18
102
RTVSPost2010Prop41ColorRGB
 90
        0
102
RTVSPost2010PropOp41
 70
     1
102
RTVSPost2010Prop42
 90
       50
102
RTVSPost2010PropOp42
 70
     1
102
RTVSPost2010Prop43
 90
        3
102
RTVSPost2010PropOp43
 70
     1
102
RTVSPost2010Prop44ColorIndex
 90
        5
102
RTVSPost2010Prop44ColorRGB
 90
      255
102
RTVSPost2010PropOp44
 70
     1
102
RTVSPost2010Prop45
280
     0
102
RTVSPost2010PropOp45
 70
     1
102
RTVSPost2010Prop46
 90
       50
102
RTVSPost2010PropOp46
 70
     1
102
RTVSPost2010Prop47
 90
       50
102
RTVSPost2010PropOp47
 70
     1
102
RTVSPost2010Prop48
 90
       50
102
RTVSPost2010PropOp48
 70
     1
102
RTVSPost2010Prop49
280
     0
102
RTVSPost2010PropOp49
 70
     1
102
RTVSPost2010Prop50
 90
       50
102
RTVSPost2010PropOp50
 70
     1
102
RTVSPost2010Prop51ColorIndex
 90
      256
102
RTVSPost2010Prop51ColorRGB
 90
-16777216
102
RTVSPost2010PropOp51
 70
     0
102
RTVSPost2010Prop52
140
1.0
102
RTVSPost2010PropOp52
 70
     0
102
RTVSPost2010Prop53
 90
        2
102
RTVSPost2010PropOp53
 70
     1
102
RTVSPost2010Prop54
  1
strokes_ogs.tif
102
RTVSPost2010PropOp54
 70
     1
102
RTVSPost2010Prop55
280
     0
102
RTVSPost2010PropOp55
 70
     1
102
RTVSPost2010Prop56
140
1.0
102
RTVSPost2010PropOp56
 70
     1
102
RTVSPost2010Prop57
140
1.0
102
RTVSPost2010PropOp57
 70
     1
102
RTVSPropertyOp0
 70
     1
102
RTVSPropertyOp1
 70
     1
102
RTVSPropertyOp2
 70
     1
102
RTVSPropertyOp3
 70
     1
102
RTVSPropertyOp4
 70
     1
102
RTVSPropertyOp5
 70
     1
102
RTVSPropertyOp6
 70
     1
102
RTVSPropertyOp7
 70
     1
102
RTVSPropertyOp8
 70
     1
102
RTVSPropertyOp9
 70
     1
102
RTVSPropertyOp10
 70
     1
102
RTVSPropertyOp11
 70
     1
102
RTVSPropertyOp12
 70
     1
102
RTVSPropertyOp13
 70
     1
102
RTVSPropertyOp14
 70
     1
102
RTVSPropertyOp15
 70
     1
102
RTVSPropertyOp16
 70
     1
102
RTVSPropertyOp17
 70
     1
102
RTVSPropertyOp18
 70
     1
102
RTVSPropertyOp19
 70
     1
102
RTVSPropertyOp20
 70
     1
102
RTVSPropertyOp21
 70
     1
102
RTVSPropertyOp22
 70
     1
102
RTVSPropertyOp23
 70
     1
102
RTVSPropertyOp24
 70
     1
102
RTVSPropertyOp25
 70
     1
102
RTVSPropertyOp26
 70
     1
102
RTVSPropertyOp27
 70
     1
102
RTVSPropertyOp28
 70
     1
102
RTVSPropertyOp29
 70
     1
102
RTVSPropertyOp30
 70
     1
102
RTVSPropertyOp31
 70
     1
102
RTVSPropertyOp32
 70
     1
102
RTVSPropertyOp33
 70
     1
102
RTVSPropertyOp34
 70
     1
102
RTVSPropertyOp35
 70
     1
102
RTVSPropertyOp36
 70
     1
102
RTVSPropertyOp37
 70
     1
102
RTVSPropertyOp38
 70
     1
102
RTVSPropertyOp39
 70
     1
102
RTVSPropertyOp40
 70
     1
102
RTVSPropertyOp41
 70
     1
102
RTVSPropertyOp42
 70
     1
102
RTVSPropertyOp43
 70
     1
102
RTVSPropertyOp44
 70
     1
102
RTVSPropertyOp45
 70
     1
102
RTVSPropertyOp46
 70
     1
102
RTVSPropertyOp47
 70
     1
102
RTVSPropertyOp48
 70
     1
102
RTVSPropertyOp49
 70
     1
102
RTVSPropertyOp50
 70
     1
102
RTVSPropertyOp51
 70
     0
102
RTVSPropertyOp52
 70
     0
102
RTVSPropertyOp53
 70
     1
102
RTVSPropertyOp54
 70
     1
102
RTVSPropertyOp55
 70
     1
102
RTVSPropertyOp56
 70
     1
102
RTVSPropertyOp57
 70
     1
102
RTVSPropertyOp58
 70
     1
102
RTVSPropertyOp59
 70
     1
102
RTVSPropertyOp60
 70
     1
102
RTVSPropertyOp61
 70
     1
102
RTVSPropertyOp62
 70
     1
  0
XRECORD
  5
A5EF
102
{ACAD_REACTORS
330
A5EE
102
}
330
A5EE
100
AcDbXrecord
280
     1
102
RTVSPost2010Prop28
280
     0
102
RTVSPost2010PropOp28
 70
     1
102
RTVSPost2010Prop29
280
     1
102
RTVSPost2010PropOp29
 70
     1
102
RTVSPost2010Prop30
280
     1
102
RTVSPost2010PropOp30
 70
     1
102
RTVSPost2010Prop31
280
     0
102
RTVSPost2010PropOp31
 70
     1
102
RTVSPost2010Prop32
280
     0
102
RTVSPost2010PropOp32
 70
     1
102
RTVSPost2010Prop33
280
     0
102
RTVSPost2010PropOp33
 70
     1
102
RTVSPost2010Prop34
280
     0
102
RTVSPost2010PropOp34
 70
     1
102
RTVSPost2010Prop35
280
     0
102
RTVSPost2010PropOp35
 70
     1
102
RTVSPost2010Prop36
280
     0
102
RTVSPost2010PropOp36
 70
     1
102
RTVSPost2010Prop37
 90
       50
102
RTVSPost2010PropOp37
 70
     1
102
RTVSPost2010Prop38
140
0.0
102
RTVSPost2010PropOp38
 70
     1
102
RTVSPost2010Prop39
140
1.0
102
RTVSPost2010PropOp39
 70
     1
102
RTVSPost2010Prop40
 90
        0
102
RTVSPost2010PropOp40
 70
     1
102
RTVSPost2010Prop41ColorIndex
 90
       18
102
RTVSPost2010Prop41ColorRGB
 90
        0
102
RTVSPost2010PropOp41
 70
     1
102
RTVSPost2010Prop42
 90
       50
102
RTVSPost2010PropOp42
 70
     1
102
RTVSPost2010Prop43
 90
        3
102
RTVSPost2010PropOp43
 70
     1
102
RTVSPost2010Prop44ColorIndex
 90
        5
102
RTVSPost2010Prop44ColorRGB
 90
      255
102
RTVSPost2010PropOp44
 70
     1
102
RTVSPost2010Prop45
280
     0
102
RTVSPost2010PropOp45
 70
     1
102
RTVSPost2010Prop46
 90
       50
102
RTVSPost2010PropOp46
 70
     1
102
RTVSPost2010Prop47
 90
       50
102
RTVSPost2010PropOp47
 70
     1
102
RTVSPost2010Prop48
 90
       50
102
RTVSPost2010PropOp48
 70
     1
102
RTVSPost2010Prop49
280
     0
102
RTVSPost2010PropOp49
 70
     1
102
RTVSPost2010Prop50
 90
       50
102
RTVSPost2010PropOp50
 70
     1
102
RTVSPost2010Prop51ColorIndex
 90
      256
102
RTVSPost2010Prop51ColorRGB
 90
-16777216
102
RTVSPost2010PropOp51
 70
     0
102
RTVSPost2010Prop52
140
1.0
102
RTVSPost2010PropOp52
 70
     0
102
RTVSPost2010Prop53
 90
        2
102
RTVSPost2010PropOp53
 70
     1
102
RTVSPost2010Prop54
  1
strokes_ogs.tif
102
RTVSPost2010PropOp54
 70
     1
102
RTVSPost2010Prop55
280
     0
102
RTVSPost2010PropOp55
 70
     1
102
RTVSPost2010Prop56
140
1.0
102
RTVSPost2010PropOp56
 70
     1
102
RTVSPost2010Prop57
140
1.0
102
RTVSPost2010PropOp57
 70
     1
102
RTVSPropertyOp0
 70
     1
102
RTVSPropertyOp1
 70
     1
102
RTVSPropertyOp2
 70
     1
102
RTVSPropertyOp3
 70
     1
102
RTVSPropertyOp4
 70
     1
102
RTVSPropertyOp5
 70
     1
102
RTVSPropertyOp6
 70
     1
102
RTVSPropertyOp7
 70
     1
102
RTVSPropertyOp8
 70
     1
102
RTVSPropertyOp9
 70
     1
102
RTVSPropertyOp10
 70
     1
102
RTVSPropertyOp11
 70
     1
102
RTVSPropertyOp12
 70
     1
102
RTVSPropertyOp13
 70
     1
102
RTVSPropertyOp14
 70
     1
102
RTVSPropertyOp15
 70
     1
102
RTVSPropertyOp16
 70
     1
102
RTVSPropertyOp17
 70
     1
102
RTVSPropertyOp18
 70
     1
102
RTVSPropertyOp19
 70
     1
102
RTVSPropertyOp20
 70
     1
102
RTVSPropertyOp21
 70
     1
102
RTVSPropertyOp22
 70
     1
102
RTVSPropertyOp23
 70
     1
102
RTVSPropertyOp24
 70
     1
102
RTVSPropertyOp25
 70
     1
102
RTVSPropertyOp26
 70
     1
102
RTVSPropertyOp27
 70
     1
102
RTVSPropertyOp28
 70
     1
102
RTVSPropertyOp29
 70
     1
102
RTVSPropertyOp30
 70
     1
102
RTVSPropertyOp31
 70
     1
102
RTVSPropertyOp32
 70
     1
102
RTVSPropertyOp33
 70
     1
102
RTVSPropertyOp34
 70
     1
102
RTVSPropertyOp35
 70
     1
102
RTVSPropertyOp36
 70
     1
102
RTVSPropertyOp37
 70
     1
102
RTVSPropertyOp38
 70
     1
102
RTVSPropertyOp39
 70
     1
102
RTVSPropertyOp40
 70
     1
102
RTVSPropertyOp41
 70
     1
102
RTVSPropertyOp42
 70
     1
102
RTVSPropertyOp43
 70
     1
102
RTVSPropertyOp44
 70
     1
102
RTVSPropertyOp45
 70
     1
102
RTVSPropertyOp46
 70
     1
102
RTVSPropertyOp47
 70
     1
102
RTVSPropertyOp48
 70
     1
102
RTVSPropertyOp49
 70
     1
102
RTVSPropertyOp50
 70
     1
102
RTVSPropertyOp51
 70
     0
102
RTVSPropertyOp52
 70
     0
102
RTVSPropertyOp53
 70
     1
102
RTVSPropertyOp54
 70
     1
102
RTVSPropertyOp55
 70
     1
102
RTVSPropertyOp56
 70
     1
102
RTVSPropertyOp57
 70
     1
102
RTVSPropertyOp58
 70
     1
102
RTVSPropertyOp59
 70
     1
102
RTVSPropertyOp60
 70
     1
102
RTVSPropertyOp61
 70
     1
102
RTVSPropertyOp62
 70
     1
  0
XRECORD
  5
A5F1
102
{ACAD_REACTORS
330
A5F0
102
}
330
A5F0
100
AcDbXrecord
280
     1
102
RTVSPost2010Prop28
280
     0
102
RTVSPost2010PropOp28
 70
     1
102
RTVSPost2010Prop29
280
     1
102
RTVSPost2010PropOp29
 70
     1
102
RTVSPost2010Prop30
280
     1
102
RTVSPost2010PropOp30
 70
     1
102
RTVSPost2010Prop31
280
     0
102
RTVSPost2010PropOp31
 70
     1
102
RTVSPost2010Prop32
280
     0
102
RTVSPost2010PropOp32
 70
     1
102
RTVSPost2010Prop33
280
     0
102
RTVSPost2010PropOp33
 70
     1
102
RTVSPost2010Prop34
280
     0
102
RTVSPost2010PropOp34
 70
     1
102
RTVSPost2010Prop35
280
     0
102
RTVSPost2010PropOp35
 70
     1
102
RTVSPost2010Prop36
280
     0
102
RTVSPost2010PropOp36
 70
     1
102
RTVSPost2010Prop37
 90
       50
102
RTVSPost2010PropOp37
 70
     1
102
RTVSPost2010Prop38
140
0.0
102
RTVSPost2010PropOp38
 70
     1
102
RTVSPost2010Prop39
140
1.0
102
RTVSPost2010PropOp39
 70
     1
102
RTVSPost2010Prop40
 90
        0
102
RTVSPost2010PropOp40
 70
     1
102
RTVSPost2010Prop41ColorIndex
 90
       18
102
RTVSPost2010Prop41ColorRGB
 90
        0
102
RTVSPost2010PropOp41
 70
     1
102
RTVSPost2010Prop42
 90
       50
102
RTVSPost2010PropOp42
 70
     1
102
RTVSPost2010Prop43
 90
        3
102
RTVSPost2010PropOp43
 70
     1
102
RTVSPost2010Prop44ColorIndex
 90
        5
102
RTVSPost2010Prop44ColorRGB
 90
      255
102
RTVSPost2010PropOp44
 70
     1
102
RTVSPost2010Prop45
280
     0
102
RTVSPost2010PropOp45
 70
     1
102
RTVSPost2010Prop46
 90
       50
102
RTVSPost2010PropOp46
 70
     1
102
RTVSPost2010Prop47
 90
       50
102
RTVSPost2010PropOp47
 70
     1
102
RTVSPost2010Prop48
 90
       50
102
RTVSPost2010PropOp48
 70
     1
102
RTVSPost2010Prop49
280
     0
102
RTVSPost2010PropOp49
 70
     1
102
RTVSPost2010Prop50
 90
       50
102
RTVSPost2010PropOp50
 70
     1
102
RTVSPost2010Prop51ColorIndex
 90
      256
102
RTVSPost2010Prop51ColorRGB
 90
-16777216
102
RTVSPost2010PropOp51
 70
     0
102
RTVSPost2010Prop52
140
1.0
102
RTVSPost2010PropOp52
 70
     0
102
RTVSPost2010Prop53
 90
        2
102
RTVSPost2010PropOp53
 70
     1
102
RTVSPost2010Prop54
  1
strokes_ogs.tif
102
RTVSPost2010PropOp54
 70
     1
102
RTVSPost2010Prop55
280
     0
102
RTVSPost2010PropOp55
 70
     1
102
RTVSPost2010Prop56
140
1.0
102
RTVSPost2010PropOp56
 70
     1
102
RTVSPost2010Prop57
140
1.0
102
RTVSPost2010PropOp57
 70
     1
102
RTVSPropertyOp0
 70
     1
102
RTVSPropertyOp1
 70
     1
102
RTVSPropertyOp2
 70
     1
102
RTVSPropertyOp3
 70
     1
102
RTVSPropertyOp4
 70
     1
102
RTVSPropertyOp5
 70
     1
102
RTVSPropertyOp6
 70
     1
102
RTVSPropertyOp7
 70
     1
102
RTVSPropertyOp8
 70
     1
102
RTVSPropertyOp9
 70
     1
102
RTVSPropertyOp10
 70
     1
102
RTVSPropertyOp11
 70
     1
102
RTVSPropertyOp12
 70
     1
102
RTVSPropertyOp13
 70
     1
102
RTVSPropertyOp14
 70
     1
102
RTVSPropertyOp15
 70
     1
102
RTVSPropertyOp16
 70
     1
102
RTVSPropertyOp17
 70
     1
102
RTVSPropertyOp18
 70
     1
102
RTVSPropertyOp19
 70
     1
102
RTVSPropertyOp20
 70
     1
102
RTVSPropertyOp21
 70
     1
102
RTVSPropertyOp22
 70
     1
102
RTVSPropertyOp23
 70
     1
102
RTVSPropertyOp24
 70
     1
102
RTVSPropertyOp25
 70
     1
102
RTVSPropertyOp26
 70
     1
102
RTVSPropertyOp27
 70
     1
102
RTVSPropertyOp28
 70
     1
102
RTVSPropertyOp29
 70
     1
102
RTVSPropertyOp30
 70
     1
102
RTVSPropertyOp31
 70
     1
102
RTVSPropertyOp32
 70
     1
102
RTVSPropertyOp33
 70
     1
102
RTVSPropertyOp34
 70
     1
102
RTVSPropertyOp35
 70
     1
102
RTVSPropertyOp36
 70
     1
102
RTVSPropertyOp37
 70
     1
102
RTVSPropertyOp38
 70
     1
102
RTVSPropertyOp39
 70
     1
102
RTVSPropertyOp40
 70
     1
102
RTVSPropertyOp41
 70
     1
102
RTVSPropertyOp42
 70
     1
102
RTVSPropertyOp43
 70
     1
102
RTVSPropertyOp44
 70
     1
102
RTVSPropertyOp45
 70
     1
102
RTVSPropertyOp46
 70
     1
102
RTVSPropertyOp47
 70
     1
102
RTVSPropertyOp48
 70
     1
102
RTVSPropertyOp49
 70
     1
102
RTVSPropertyOp50
 70
     1
102
RTVSPropertyOp51
 70
     0
102
RTVSPropertyOp52
 70
     0
102
RTVSPropertyOp53
 70
     1
102
RTVSPropertyOp54
 70
     1
102
RTVSPropertyOp55
 70
     1
102
RTVSPropertyOp56
 70
     1
102
RTVSPropertyOp57
 70
     1
102
RTVSPropertyOp58
 70
     1
102
RTVSPropertyOp59
 70
     1
102
RTVSPropertyOp60
 70
     1
102
RTVSPropertyOp61
 70
     1
102
RTVSPropertyOp62
 70
     1
  0
XRECORD
  5
A5F3
102
{ACAD_REACTORS
330
A5F2
102
}
330
A5F2
100
AcDbXrecord
280
     1
102
RTVSPost2010Prop28
280
     0
102
RTVSPost2010PropOp28
 70
     1
102
RTVSPost2010Prop29
280
     1
102
RTVSPost2010PropOp29
 70
     1
102
RTVSPost2010Prop30
280
     1
102
RTVSPost2010PropOp30
 70
     1
102
RTVSPost2010Prop31
280
     0
102
RTVSPost2010PropOp31
 70
     1
102
RTVSPost2010Prop32
280
     0
102
RTVSPost2010PropOp32
 70
     1
102
RTVSPost2010Prop33
280
     0
102
RTVSPost2010PropOp33
 70
     1
102
RTVSPost2010Prop34
280
     0
102
RTVSPost2010PropOp34
 70
     1
102
RTVSPost2010Prop35
280
     0
102
RTVSPost2010PropOp35
 70
     1
102
RTVSPost2010Prop36
280
     0
102
RTVSPost2010PropOp36
 70
     1
102
RTVSPost2010Prop37
 90
       50
102
RTVSPost2010PropOp37
 70
     1
102
RTVSPost2010Prop38
140
0.0
102
RTVSPost2010PropOp38
 70
     1
102
RTVSPost2010Prop39
140
1.0
102
RTVSPost2010PropOp39
 70
     1
102
RTVSPost2010Prop40
 90
        0
102
RTVSPost2010PropOp40
 70
     1
102
RTVSPost2010Prop41ColorIndex
 90
       18
102
RTVSPost2010Prop41ColorRGB
 90
        0
102
RTVSPost2010PropOp41
 70
     1
102
RTVSPost2010Prop42
 90
       50
102
RTVSPost2010PropOp42
 70
     1
102
RTVSPost2010Prop43
 90
        3
102
RTVSPost2010PropOp43
 70
     1
102
RTVSPost2010Prop44ColorIndex
 90
        5
102
RTVSPost2010Prop44ColorRGB
 90
      255
102
RTVSPost2010PropOp44
 70
     1
102
RTVSPost2010Prop45
280
     0
102
RTVSPost2010PropOp45
 70
     1
102
RTVSPost2010Prop46
 90
       50
102
RTVSPost2010PropOp46
 70
     1
102
RTVSPost2010Prop47
 90
       50
102
RTVSPost2010PropOp47
 70
     1
102
RTVSPost2010Prop48
 90
       50
102
RTVSPost2010PropOp48
 70
     1
102
RTVSPost2010Prop49
280
     0
102
RTVSPost2010PropOp49
 70
     1
102
RTVSPost2010Prop50
 90
       50
102
RTVSPost2010PropOp50
 70
     1
102
RTVSPost2010Prop51ColorIndex
 90
      256
102
RTVSPost2010Prop51ColorRGB
 90
-16777216
102
RTVSPost2010PropOp51
 70
     0
102
RTVSPost2010Prop52
140
1.0
102
RTVSPost2010PropOp52
 70
     0
102
RTVSPost2010Prop53
 90
        2
102
RTVSPost2010PropOp53
 70
     1
102
RTVSPost2010Prop54
  1
strokes_ogs.tif
102
RTVSPost2010PropOp54
 70
     1
102
RTVSPost2010Prop55
280
     0
102
RTVSPost2010PropOp55
 70
     1
102
RTVSPost2010Prop56
140
1.0
102
RTVSPost2010PropOp56
 70
     1
102
RTVSPost2010Prop57
140
1.0
102
RTVSPost2010PropOp57
 70
     1
102
RTVSPropertyOp0
 70
     1
102
RTVSPropertyOp1
 70
     1
102
RTVSPropertyOp2
 70
     1
102
RTVSPropertyOp3
 70
     1
102
RTVSPropertyOp4
 70
     1
102
RTVSPropertyOp5
 70
     1
102
RTVSPropertyOp6
 70
     1
102
RTVSPropertyOp7
 70
     1
102
RTVSPropertyOp8
 70
     1
102
RTVSPropertyOp9
 70
     1
102
RTVSPropertyOp10
 70
     1
102
RTVSPropertyOp11
 70
     1
102
RTVSPropertyOp12
 70
     1
102
RTVSPropertyOp13
 70
     1
102
RTVSPropertyOp14
 70
     1
102
RTVSPropertyOp15
 70
     1
102
RTVSPropertyOp16
 70
     1
102
RTVSPropertyOp17
 70
     1
102
RTVSPropertyOp18
 70
     1
102
RTVSPropertyOp19
 70
     1
102
RTVSPropertyOp20
 70
     1
102
RTVSPropertyOp21
 70
     1
102
RTVSPropertyOp22
 70
     1
102
RTVSPropertyOp23
 70
     1
102
RTVSPropertyOp24
 70
     1
102
RTVSPropertyOp25
 70
     1
102
RTVSPropertyOp26
 70
     1
102
RTVSPropertyOp27
 70
     1
102
RTVSPropertyOp28
 70
     1
102
RTVSPropertyOp29
 70
     1
102
RTVSPropertyOp30
 70
     1
102
RTVSPropertyOp31
 70
     1
102
RTVSPropertyOp32
 70
     1
102
RTVSPropertyOp33
 70
     1
102
RTVSPropertyOp34
 70
     1
102
RTVSPropertyOp35
 70
     1
102
RTVSPropertyOp36
 70
     1
102
RTVSPropertyOp37
 70
     1
102
RTVSPropertyOp38
 70
     1
102
RTVSPropertyOp39
 70
     1
102
RTVSPropertyOp40
 70
     1
102
RTVSPropertyOp41
 70
     1
102
RTVSPropertyOp42
 70
     1
102
RTVSPropertyOp43
 70
     1
102
RTVSPropertyOp44
 70
     1
102
RTVSPropertyOp45
 70
     1
102
RTVSPropertyOp46
 70
     1
102
RTVSPropertyOp47
 70
     1
102
RTVSPropertyOp48
 70
     1
102
RTVSPropertyOp49
 70
     1
102
RTVSPropertyOp50
 70
     1
102
RTVSPropertyOp51
 70
     0
102
RTVSPropertyOp52
 70
     0
102
RTVSPropertyOp53
 70
     1
102
RTVSPropertyOp54
 70
     1
102
RTVSPropertyOp55
 70
     1
102
RTVSPropertyOp56
 70
     1
102
RTVSPropertyOp57
 70
     1
102
RTVSPropertyOp58
 70
     1
102
RTVSPropertyOp59
 70
     1
102
RTVSPropertyOp60
 70
     1
102
RTVSPropertyOp61
 70
     1
102
RTVSPropertyOp62
 70
     1
  0
XRECORD
  5
A5FB
102
{ACAD_REACTORS
330
A5FA
102
}
330
A5FA
100
AcDbXrecord
280
     1
102
RTVSPost2010Prop28
280
     0
102
RTVSPost2010PropOp28
 70
     1
102
RTVSPost2010Prop29
280
     1
102
RTVSPost2010PropOp29
 70
     1
102
RTVSPost2010Prop30
280
     1
102
RTVSPost2010PropOp30
 70
     1
102
RTVSPost2010Prop31
280
     0
102
RTVSPost2010PropOp31
 70
     1
102
RTVSPost2010Prop32
280
     0
102
RTVSPost2010PropOp32
 70
     1
102
RTVSPost2010Prop33
280
     0
102
RTVSPost2010PropOp33
 70
     1
102
RTVSPost2010Prop34
280
     0
102
RTVSPost2010PropOp34
 70
     1
102
RTVSPost2010Prop35
280
     0
102
RTVSPost2010PropOp35
 70
     1
102
RTVSPost2010Prop36
280
     0
102
RTVSPost2010PropOp36
 70
     1
102
RTVSPost2010Prop37
 90
       50
102
RTVSPost2010PropOp37
 70
     1
102
RTVSPost2010Prop38
140
0.0
102
RTVSPost2010PropOp38
 70
     1
102
RTVSPost2010Prop39
140
1.0
102
RTVSPost2010PropOp39
 70
     1
102
RTVSPost2010Prop40
 90
        0
102
RTVSPost2010PropOp40
 70
     1
102
RTVSPost2010Prop41ColorIndex
 90
       18
102
RTVSPost2010Prop41ColorRGB
 90
        0
102
RTVSPost2010PropOp41
 70
     1
102
RTVSPost2010Prop42
 90
       50
102
RTVSPost2010PropOp42
 70
     1
102
RTVSPost2010Prop43
 90
        3
102
RTVSPost2010PropOp43
 70
     1
102
RTVSPost2010Prop44ColorIndex
 90
        5
102
RTVSPost2010Prop44ColorRGB
 90
      255
102
RTVSPost2010PropOp44
 70
     1
102
RTVSPost2010Prop45
280
     0
102
RTVSPost2010PropOp45
 70
     1
102
RTVSPost2010Prop46
 90
       50
102
RTVSPost2010PropOp46
 70
     1
102
RTVSPost2010Prop47
 90
       50
102
RTVSPost2010PropOp47
 70
     1
102
RTVSPost2010Prop48
 90
       50
102
RTVSPost2010PropOp48
 70
     1
102
RTVSPost2010Prop49
280
     0
102
RTVSPost2010PropOp49
 70
     1
102
RTVSPost2010Prop50
 90
       50
102
RTVSPost2010PropOp50
 70
     1
102
RTVSPost2010Prop51ColorIndex
 90
      256
102
RTVSPost2010Prop51ColorRGB
 90
-16777216
102
RTVSPost2010PropOp51
 70
     0
102
RTVSPost2010Prop52
140
1.0
102
RTVSPost2010PropOp52
 70
     0
102
RTVSPost2010Prop53
 90
        2
102
RTVSPost2010PropOp53
 70
     1
102
RTVSPost2010Prop54
  1
strokes_ogs.tif
102
RTVSPost2010PropOp54
 70
     1
102
RTVSPost2010Prop55
280
     0
102
RTVSPost2010PropOp55
 70
     1
102
RTVSPost2010Prop56
140
1.0
102
RTVSPost2010PropOp56
 70
     1
102
RTVSPost2010Prop57
140
1.0
102
RTVSPost2010PropOp57
 70
     1
102
RTVSPropertyOp0
 70
     1
102
RTVSPropertyOp1
 70
     1
102
RTVSPropertyOp2
 70
     1
102
RTVSPropertyOp3
 70
     1
102
RTVSPropertyOp4
 70
     1
102
RTVSPropertyOp5
 70
     1
102
RTVSPropertyOp6
 70
     1
102
RTVSPropertyOp7
 70
     1
102
RTVSPropertyOp8
 70
     1
102
RTVSPropertyOp9
 70
     1
102
RTVSPropertyOp10
 70
     1
102
RTVSPropertyOp11
 70
     1
102
RTVSPropertyOp12
 70
     1
102
RTVSPropertyOp13
 70
     1
102
RTVSPropertyOp14
 70
     1
102
RTVSPropertyOp15
 70
     1
102
RTVSPropertyOp16
 70
     1
102
RTVSPropertyOp17
 70
     1
102
RTVSPropertyOp18
 70
     1
102
RTVSPropertyOp19
 70
     1
102
RTVSPropertyOp20
 70
     1
102
RTVSPropertyOp21
 70
     1
102
RTVSPropertyOp22
 70
     1
102
RTVSPropertyOp23
 70
     1
102
RTVSPropertyOp24
 70
     1
102
RTVSPropertyOp25
 70
     1
102
RTVSPropertyOp26
 70
     1
102
RTVSPropertyOp27
 70
     1
102
RTVSPropertyOp28
 70
     1
102
RTVSPropertyOp29
 70
     1
102
RTVSPropertyOp30
 70
     1
102
RTVSPropertyOp31
 70
     1
102
RTVSPropertyOp32
 70
     1
102
RTVSPropertyOp33
 70
     1
102
RTVSPropertyOp34
 70
     1
102
RTVSPropertyOp35
 70
     1
102
RTVSPropertyOp36
 70
     1
102
RTVSPropertyOp37
 70
     1
102
RTVSPropertyOp38
 70
     1
102
RTVSPropertyOp39
 70
     1
102
RTVSPropertyOp40
 70
     1
102
RTVSPropertyOp41
 70
     1
102
RTVSPropertyOp42
 70
     1
102
RTVSPropertyOp43
 70
     1
102
RTVSPropertyOp44
 70
     1
102
RTVSPropertyOp45
 70
     1
102
RTVSPropertyOp46
 70
     1
102
RTVSPropertyOp47
 70
     1
102
RTVSPropertyOp48
 70
     1
102
RTVSPropertyOp49
 70
     1
102
RTVSPropertyOp50
 70
     1
102
RTVSPropertyOp51
 70
     0
102
RTVSPropertyOp52
 70
     0
102
RTVSPropertyOp53
 70
     1
102
RTVSPropertyOp54
 70
     1
102
RTVSPropertyOp55
 70
     1
102
RTVSPropertyOp56
 70
     1
102
RTVSPropertyOp57
 70
     1
102
RTVSPropertyOp58
 70
     1
102
RTVSPropertyOp59
 70
     1
102
RTVSPropertyOp60
 70
     1
102
RTVSPropertyOp61
 70
     1
102
RTVSPropertyOp62
 70
     1
  0
XRECORD
  5
A617
102
{ACAD_REACTORS
330
A616
102
}
330
A616
100
AcDbXrecord
280
     1
102
RTVSPost2010Prop28
280
     0
102
RTVSPost2010PropOp28
 70
     1
102
RTVSPost2010Prop29
280
     1
102
RTVSPost2010PropOp29
 70
     1
102
RTVSPost2010Prop30
280
     1
102
RTVSPost2010PropOp30
 70
     1
102
RTVSPost2010Prop31
280
     0
102
RTVSPost2010PropOp31
 70
     1
102
RTVSPost2010Prop32
280
     0
102
RTVSPost2010PropOp32
 70
     1
102
RTVSPost2010Prop33
280
     0
102
RTVSPost2010PropOp33
 70
     1
102
RTVSPost2010Prop34
280
     0
102
RTVSPost2010PropOp34
 70
     1
102
RTVSPost2010Prop35
280
     0
102
RTVSPost2010PropOp35
 70
     1
102
RTVSPost2010Prop36
280
     0
102
RTVSPost2010PropOp36
 70
     1
102
RTVSPost2010Prop37
 90
       50
102
RTVSPost2010PropOp37
 70
     0
102
RTVSPost2010Prop38
140
0.0
102
RTVSPost2010PropOp38
 70
     0
102
RTVSPost2010Prop39
140
1.0
102
RTVSPost2010PropOp39
 70
     0
102
RTVSPost2010Prop40
 90
        0
102
RTVSPost2010PropOp40
 70
     0
102
RTVSPost2010Prop41ColorIndex
 90
       18
102
RTVSPost2010Prop41ColorRGB
 90
        0
102
RTVSPost2010PropOp41
 70
     0
102
RTVSPost2010Prop42
 90
       50
102
RTVSPost2010PropOp42
 70
     0
102
RTVSPost2010Prop43
 90
        3
102
RTVSPost2010PropOp43
 70
     0
102
RTVSPost2010Prop44ColorIndex
 90
        5
102
RTVSPost2010Prop44ColorRGB
 90
      255
102
RTVSPost2010PropOp44
 70
     0
102
RTVSPost2010Prop45
280
     0
102
RTVSPost2010PropOp45
 70
     1
102
RTVSPost2010Prop46
 90
       50
102
RTVSPost2010PropOp46
 70
     0
102
RTVSPost2010Prop47
 90
       50
102
RTVSPost2010PropOp47
 70
     0
102
RTVSPost2010Prop48
 90
       50
102
RTVSPost2010PropOp48
 70
     0
102
RTVSPost2010Prop49
280
     0
102
RTVSPost2010PropOp49
 70
     1
102
RTVSPost2010Prop50
 90
       50
102
RTVSPost2010PropOp50
 70
     0
102
RTVSPost2010Prop51ColorIndex
 90
      256
102
RTVSPost2010Prop51ColorRGB
 90
-16777216
102
RTVSPost2010PropOp51
 70
     0
102
RTVSPost2010Prop52
140
1.0
102
RTVSPost2010PropOp52
 70
     0
102
RTVSPost2010Prop53
 90
        2
102
RTVSPost2010PropOp53
 70
     0
102
RTVSPost2010Prop54
  1
strokes_ogs.tif
102
RTVSPost2010PropOp54
 70
     0
102
RTVSPost2010Prop55
280
     0
102
RTVSPost2010PropOp55
 70
     1
102
RTVSPost2010Prop56
140
1.0
102
RTVSPost2010PropOp56
 70
     0
102
RTVSPost2010Prop57
140
1.0
102
RTVSPost2010PropOp57
 70
     0
102
RTVSPropertyOp0
 70
     0
102
RTVSPropertyOp1
 70
     0
102
RTVSPropertyOp2
 70
     0
102
RTVSPropertyOp3
 70
     0
102
RTVSPropertyOp4
 70
     0
102
RTVSPropertyOp5
 70
     0
102
RTVSPropertyOp6
 70
     0
102
RTVSPropertyOp7
 70
     0
102
RTVSPropertyOp8
 70
     0
102
RTVSPropertyOp9
 70
     0
102
RTVSPropertyOp10
 70
     0
102
RTVSPropertyOp11
 70
     0
102
RTVSPropertyOp12
 70
     0
102
RTVSPropertyOp13
 70
     0
102
RTVSPropertyOp14
 70
     2
102
RTVSPropertyOp15
 70
     0
102
RTVSPropertyOp16
 70
     0
102
RTVSPropertyOp17
 70
     0
102
RTVSPropertyOp18
 70
     0
102
RTVSPropertyOp19
 70
     0
102
RTVSPropertyOp20
 70
     0
102
RTVSPropertyOp21
 70
     0
102
RTVSPropertyOp22
 70
     0
102
RTVSPropertyOp23
 70
     0
102
RTVSPropertyOp24
 70
     0
102
RTVSPropertyOp25
 70
     0
102
RTVSPropertyOp26
 70
     0
102
RTVSPropertyOp27
 70
     0
102
RTVSPropertyOp28
 70
     1
102
RTVSPropertyOp29
 70
     1
102
RTVSPropertyOp30
 70
     1
102
RTVSPropertyOp31
 70
     1
102
RTVSPropertyOp32
 70
     1
102
RTVSPropertyOp33
 70
     1
102
RTVSPropertyOp34
 70
     1
102
RTVSPropertyOp35
 70
     1
102
RTVSPropertyOp36
 70
     1
102
RTVSPropertyOp37
 70
     0
102
RTVSPropertyOp38
 70
     0
102
RTVSPropertyOp39
 70
     0
102
RTVSPropertyOp40
 70
     0
102
RTVSPropertyOp41
 70
     0
102
RTVSPropertyOp42
 70
     0
102
RTVSPropertyOp43
 70
     0
102
RTVSPropertyOp44
 70
     0
102
RTVSPropertyOp45
 70
     1
102
RTVSPropertyOp46
 70
     0
102
RTVSPropertyOp47
 70
     0
102
RTVSPropertyOp48
 70
     0
102
RTVSPropertyOp49
 70
     1
102
RTVSPropertyOp50
 70
     0
102
RTVSPropertyOp51
 70
     0
102
RTVSPropertyOp52
 70
     0
102
RTVSPropertyOp53
 70
     0
102
RTVSPropertyOp54
 70
     0
102
RTVSPropertyOp55
 70
     1
102
RTVSPropertyOp56
 70
     0
102
RTVSPropertyOp57
 70
     0
102
RTVSPropertyOp58
 70
     0
102
RTVSPropertyOp59
 70
     0
102
RTVSPropertyOp60
 70
     0
102
RTVSPropertyOp61
 70
     0
102
RTVSPropertyOp62
 70
     0
  0
XRECORD
  5
A607
102
{ACAD_REACTORS
330
A606
102
}
330
A606
100
AcDbXrecord
280
     1
102
RTVSPost2010Prop28
280
     0
102
RTVSPost2010PropOp28
 70
     1
102
RTVSPost2010Prop29
280
     1
102
RTVSPost2010PropOp29
 70
     1
102
RTVSPost2010Prop30
280
     1
102
RTVSPost2010PropOp30
 70
     1
102
RTVSPost2010Prop31
280
     0
102
RTVSPost2010PropOp31
 70
     1
102
RTVSPost2010Prop32
280
     0
102
RTVSPost2010PropOp32
 70
     1
102
RTVSPost2010Prop33
280
     0
102
RTVSPost2010PropOp33
 70
     1
102
RTVSPost2010Prop34
280
     0
102
RTVSPost2010PropOp34
 70
     1
102
RTVSPost2010Prop35
280
     0
102
RTVSPost2010PropOp35
 70
     1
102
RTVSPost2010Prop36
280
     0
102
RTVSPost2010PropOp36
 70
     1
102
RTVSPost2010Prop37
 90
       50
102
RTVSPost2010PropOp37
 70
     1
102
RTVSPost2010Prop38
140
0.0
102
RTVSPost2010PropOp38
 70
     1
102
RTVSPost2010Prop39
140
1.0
102
RTVSPost2010PropOp39
 70
     1
102
RTVSPost2010Prop40
 90
        0
102
RTVSPost2010PropOp40
 70
     1
102
RTVSPost2010Prop41ColorIndex
 90
       18
102
RTVSPost2010Prop41ColorRGB
 90
        0
102
RTVSPost2010PropOp41
 70
     1
102
RTVSPost2010Prop42
 90
       50
102
RTVSPost2010PropOp42
 70
     1
102
RTVSPost2010Prop43
 90
        3
102
RTVSPost2010PropOp43
 70
     1
102
RTVSPost2010Prop44ColorIndex
 90
        5
102
RTVSPost2010Prop44ColorRGB
 90
      255
102
RTVSPost2010PropOp44
 70
     1
102
RTVSPost2010Prop45
280
     0
102
RTVSPost2010PropOp45
 70
     1
102
RTVSPost2010Prop46
 90
       50
102
RTVSPost2010PropOp46
 70
     1
102
RTVSPost2010Prop47
 90
       50
102
RTVSPost2010PropOp47
 70
     1
102
RTVSPost2010Prop48
 90
       50
102
RTVSPost2010PropOp48
 70
     1
102
RTVSPost2010Prop49
280
     0
102
RTVSPost2010PropOp49
 70
     1
102
RTVSPost2010Prop50
 90
       50
102
RTVSPost2010PropOp50
 70
     1
102
RTVSPost2010Prop51ColorIndex
 90
      256
102
RTVSPost2010Prop51ColorRGB
 90
-16777216
102
RTVSPost2010PropOp51
 70
     0
102
RTVSPost2010Prop52
140
1.0
102
RTVSPost2010PropOp52
 70
     0
102
RTVSPost2010Prop53
 90
        2
102
RTVSPost2010PropOp53
 70
     1
102
RTVSPost2010Prop54
  1
strokes_ogs.tif
102
RTVSPost2010PropOp54
 70
     1
102
RTVSPost2010Prop55
280
     0
102
RTVSPost2010PropOp55
 70
     1
102
RTVSPost2010Prop56
140
1.0
102
RTVSPost2010PropOp56
 70
     1
102
RTVSPost2010Prop57
140
1.0
102
RTVSPost2010PropOp57
 70
     1
102
RTVSPropertyOp0
 70
     1
102
RTVSPropertyOp1
 70
     1
102
RTVSPropertyOp2
 70
     1
102
RTVSPropertyOp3
 70
     1
102
RTVSPropertyOp4
 70
     1
102
RTVSPropertyOp5
 70
     1
102
RTVSPropertyOp6
 70
     1
102
RTVSPropertyOp7
 70
     1
102
RTVSPropertyOp8
 70
     1
102
RTVSPropertyOp9
 70
     1
102
RTVSPropertyOp10
 70
     1
102
RTVSPropertyOp11
 70
     1
102
RTVSPropertyOp12
 70
     1
102
RTVSPropertyOp13
 70
     1
102
RTVSPropertyOp14
 70
     1
102
RTVSPropertyOp15
 70
     1
102
RTVSPropertyOp16
 70
     1
102
RTVSPropertyOp17
 70
     1
102
RTVSPropertyOp18
 70
     1
102
RTVSPropertyOp19
 70
     1
102
RTVSPropertyOp20
 70
     1
102
RTVSPropertyOp21
 70
     1
102
RTVSPropertyOp22
 70
     1
102
RTVSPropertyOp23
 70
     1
102
RTVSPropertyOp24
 70
     1
102
RTVSPropertyOp25
 70
     1
102
RTVSPropertyOp26
 70
     1
102
RTVSPropertyOp27
 70
     1
102
RTVSPropertyOp28
 70
     1
102
RTVSPropertyOp29
 70
     1
102
RTVSPropertyOp30
 70
     1
102
RTVSPropertyOp31
 70
     1
102
RTVSPropertyOp32
 70
     1
102
RTVSPropertyOp33
 70
     1
102
RTVSPropertyOp34
 70
     1
102
RTVSPropertyOp35
 70
     1
102
RTVSPropertyOp36
 70
     1
102
RTVSPropertyOp37
 70
     1
102
RTVSPropertyOp38
 70
     1
102
RTVSPropertyOp39
 70
     1
102
RTVSPropertyOp40
 70
     1
102
RTVSPropertyOp41
 70
     1
102
RTVSPropertyOp42
 70
     1
102
RTVSPropertyOp43
 70
     1
102
RTVSPropertyOp44
 70
     1
102
RTVSPropertyOp45
 70
     1
102
RTVSPropertyOp46
 70
     1
102
RTVSPropertyOp47
 70
     1
102
RTVSPropertyOp48
 70
     1
102
RTVSPropertyOp49
 70
     1
102
RTVSPropertyOp50
 70
     1
102
RTVSPropertyOp51
 70
     0
102
RTVSPropertyOp52
 70
     0
102
RTVSPropertyOp53
 70
     1
102
RTVSPropertyOp54
 70
     1
102
RTVSPropertyOp55
 70
     1
102
RTVSPropertyOp56
 70
     1
102
RTVSPropertyOp57
 70
     1
102
RTVSPropertyOp58
 70
     1
102
RTVSPropertyOp59
 70
     1
102
RTVSPropertyOp60
 70
     1
102
RTVSPropertyOp61
 70
     1
102
RTVSPropertyOp62
 70
     1
  0
XRECORD
  5
A619
102
{ACAD_REACTORS
330
A618
102
}
330
A618
100
AcDbXrecord
280
     1
102
RTVSPost2010Prop28
280
     0
102
RTVSPost2010PropOp28
 70
     1
102
RTVSPost2010Prop29
280
     1
102
RTVSPost2010PropOp29
 70
     1
102
RTVSPost2010Prop30
280
     1
102
RTVSPost2010PropOp30
 70
     1
102
RTVSPost2010Prop31
280
     0
102
RTVSPost2010PropOp31
 70
     1
102
RTVSPost2010Prop32
280
     0
102
RTVSPost2010PropOp32
 70
     1
102
RTVSPost2010Prop33
280
     0
102
RTVSPost2010PropOp33
 70
     1
102
RTVSPost2010Prop34
280
     0
102
RTVSPost2010PropOp34
 70
     1
102
RTVSPost2010Prop35
280
     0
102
RTVSPost2010PropOp35
 70
     1
102
RTVSPost2010Prop36
280
     0
102
RTVSPost2010PropOp36
 70
     1
102
RTVSPost2010Prop37
 90
       50
102
RTVSPost2010PropOp37
 70
     0
102
RTVSPost2010Prop38
140
0.0
102
RTVSPost2010PropOp38
 70
     0
102
RTVSPost2010Prop39
140
1.0
102
RTVSPost2010PropOp39
 70
     0
102
RTVSPost2010Prop40
 90
        0
102
RTVSPost2010PropOp40
 70
     0
102
RTVSPost2010Prop41ColorIndex
 90
       18
102
RTVSPost2010Prop41ColorRGB
 90
        0
102
RTVSPost2010PropOp41
 70
     0
102
RTVSPost2010Prop42
 90
       50
102
RTVSPost2010PropOp42
 70
     0
102
RTVSPost2010Prop43
 90
        3
102
RTVSPost2010PropOp43
 70
     0
102
RTVSPost2010Prop44ColorIndex
 90
        5
102
RTVSPost2010Prop44ColorRGB
 90
      255
102
RTVSPost2010PropOp44
 70
     0
102
RTVSPost2010Prop45
280
     0
102
RTVSPost2010PropOp45
 70
     1
102
RTVSPost2010Prop46
 90
       50
102
RTVSPost2010PropOp46
 70
     0
102
RTVSPost2010Prop47
 90
       50
102
RTVSPost2010PropOp47
 70
     0
102
RTVSPost2010Prop48
 90
       50
102
RTVSPost2010PropOp48
 70
     0
102
RTVSPost2010Prop49
280
     0
102
RTVSPost2010PropOp49
 70
     1
102
RTVSPost2010Prop50
 90
       50
102
RTVSPost2010PropOp50
 70
     0
102
RTVSPost2010Prop51ColorIndex
 90
      256
102
RTVSPost2010Prop51ColorRGB
 90
-16777216
102
RTVSPost2010PropOp51
 70
     0
102
RTVSPost2010Prop52
140
1.0
102
RTVSPost2010PropOp52
 70
     0
102
RTVSPost2010Prop53
 90
        2
102
RTVSPost2010PropOp53
 70
     0
102
RTVSPost2010Prop54
  1
strokes_ogs.tif
102
RTVSPost2010PropOp54
 70
     0
102
RTVSPost2010Prop55
280
     0
102
RTVSPost2010PropOp55
 70
     1
102
RTVSPost2010Prop56
140
1.0
102
RTVSPost2010PropOp56
 70
     0
102
RTVSPost2010Prop57
140
1.0
102
RTVSPost2010PropOp57
 70
     0
102
RTVSPropertyOp0
 70
     0
102
RTVSPropertyOp1
 70
     0
102
RTVSPropertyOp2
 70
     0
102
RTVSPropertyOp3
 70
     0
102
RTVSPropertyOp4
 70
     0
102
RTVSPropertyOp5
 70
     0
102
RTVSPropertyOp6
 70
     0
102
RTVSPropertyOp7
 70
     0
102
RTVSPropertyOp8
 70
     0
102
RTVSPropertyOp9
 70
     0
102
RTVSPropertyOp10
 70
     0
102
RTVSPropertyOp11
 70
     0
102
RTVSPropertyOp12
 70
     0
102
RTVSPropertyOp13
 70
     0
102
RTVSPropertyOp14
 70
     2
102
RTVSPropertyOp15
 70
     0
102
RTVSPropertyOp16
 70
     0
102
RTVSPropertyOp17
 70
     0
102
RTVSPropertyOp18
 70
     0
102
RTVSPropertyOp19
 70
     0
102
RTVSPropertyOp20
 70
     0
102
RTVSPropertyOp21
 70
     0
102
RTVSPropertyOp22
 70
     0
102
RTVSPropertyOp23
 70
     0
102
RTVSPropertyOp24
 70
     0
102
RTVSPropertyOp25
 70
     0
102
RTVSPropertyOp26
 70
     0
102
RTVSPropertyOp27
 70
     0
102
RTVSPropertyOp28
 70
     1
102
RTVSPropertyOp29
 70
     1
102
RTVSPropertyOp30
 70
     1
102
RTVSPropertyOp31
 70
     1
102
RTVSPropertyOp32
 70
     1
102
RTVSPropertyOp33
 70
     1
102
RTVSPropertyOp34
 70
     1
102
RTVSPropertyOp35
 70
     1
102
RTVSPropertyOp36
 70
     1
102
RTVSPropertyOp37
 70
     0
102
RTVSPropertyOp38
 70
     0
102
RTVSPropertyOp39
 70
     0
102
RTVSPropertyOp40
 70
     0
102
RTVSPropertyOp41
 70
     0
102
RTVSPropertyOp42
 70
     0
102
RTVSPropertyOp43
 70
     0
102
RTVSPropertyOp44
 70
     0
102
RTVSPropertyOp45
 70
     1
102
RTVSPropertyOp46
 70
     0
102
RTVSPropertyOp47
 70
     0
102
RTVSPropertyOp48
 70
     0
102
RTVSPropertyOp49
 70
     1
102
RTVSPropertyOp50
 70
     0
102
RTVSPropertyOp51
 70
     0
102
RTVSPropertyOp52
 70
     0
102
RTVSPropertyOp53
 70
     0
102
RTVSPropertyOp54
 70
     0
102
RTVSPropertyOp55
 70
     1
102
RTVSPropertyOp56
 70
     0
102
RTVSPropertyOp57
 70
     0
102
RTVSPropertyOp58
 70
     0
102
RTVSPropertyOp59
 70
     0
102
RTVSPropertyOp60
 70
     0
102
RTVSPropertyOp61
 70
     0
102
RTVSPropertyOp62
 70
     0
  0
XRECORD
  5
A5FF
102
{ACAD_REACTORS
330
A5FE
102
}
330
A5FE
100
AcDbXrecord
280
     1
102
RTVSPost2010Prop28
280
     0
102
RTVSPost2010PropOp28
 70
     1
102
RTVSPost2010Prop29
280
     1
102
RTVSPost2010PropOp29
 70
     1
102
RTVSPost2010Prop30
280
     1
102
RTVSPost2010PropOp30
 70
     1
102
RTVSPost2010Prop31
280
     0
102
RTVSPost2010PropOp31
 70
     1
102
RTVSPost2010Prop32
280
     0
102
RTVSPost2010PropOp32
 70
     1
102
RTVSPost2010Prop33
280
     0
102
RTVSPost2010PropOp33
 70
     1
102
RTVSPost2010Prop34
280
     0
102
RTVSPost2010PropOp34
 70
     1
102
RTVSPost2010Prop35
280
     0
102
RTVSPost2010PropOp35
 70
     1
102
RTVSPost2010Prop36
280
     0
102
RTVSPost2010PropOp36
 70
     1
102
RTVSPost2010Prop37
 90
       50
102
RTVSPost2010PropOp37
 70
     1
102
RTVSPost2010Prop38
140
0.0
102
RTVSPost2010PropOp38
 70
     1
102
RTVSPost2010Prop39
140
1.0
102
RTVSPost2010PropOp39
 70
     1
102
RTVSPost2010Prop40
 90
        0
102
RTVSPost2010PropOp40
 70
     1
102
RTVSPost2010Prop41ColorIndex
 90
       18
102
RTVSPost2010Prop41ColorRGB
 90
        0
102
RTVSPost2010PropOp41
 70
     1
102
RTVSPost2010Prop42
 90
       50
102
RTVSPost2010PropOp42
 70
     1
102
RTVSPost2010Prop43
 90
        3
102
RTVSPost2010PropOp43
 70
     1
102
RTVSPost2010Prop44ColorIndex
 90
        5
102
RTVSPost2010Prop44ColorRGB
 90
      255
102
RTVSPost2010PropOp44
 70
     1
102
RTVSPost2010Prop45
280
     0
102
RTVSPost2010PropOp45
 70
     1
102
RTVSPost2010Prop46
 90
       50
102
RTVSPost2010PropOp46
 70
     1
102
RTVSPost2010Prop47
 90
       50
102
RTVSPost2010PropOp47
 70
     1
102
RTVSPost2010Prop48
 90
       50
102
RTVSPost2010PropOp48
 70
     1
102
RTVSPost2010Prop49
280
     0
102
RTVSPost2010PropOp49
 70
     1
102
RTVSPost2010Prop50
 90
       50
102
RTVSPost2010PropOp50
 70
     1
102
RTVSPost2010Prop51ColorIndex
 90
      256
102
RTVSPost2010Prop51ColorRGB
 90
-16777216
102
RTVSPost2010PropOp51
 70
     0
102
RTVSPost2010Prop52
140
1.0
102
RTVSPost2010PropOp52
 70
     0
102
RTVSPost2010Prop53
 90
        2
102
RTVSPost2010PropOp53
 70
     1
102
RTVSPost2010Prop54
  1
strokes_ogs.tif
102
RTVSPost2010PropOp54
 70
     1
102
RTVSPost2010Prop55
280
     0
102
RTVSPost2010PropOp55
 70
     1
102
RTVSPost2010Prop56
140
1.0
102
RTVSPost2010PropOp56
 70
     1
102
RTVSPost2010Prop57
140
1.0
102
RTVSPost2010PropOp57
 70
     1
102
RTVSPropertyOp0
 70
     1
102
RTVSPropertyOp1
 70
     1
102
RTVSPropertyOp2
 70
     1
102
RTVSPropertyOp3
 70
     1
102
RTVSPropertyOp4
 70
     1
102
RTVSPropertyOp5
 70
     1
102
RTVSPropertyOp6
 70
     1
102
RTVSPropertyOp7
 70
     1
102
RTVSPropertyOp8
 70
     1
102
RTVSPropertyOp9
 70
     1
102
RTVSPropertyOp10
 70
     1
102
RTVSPropertyOp11
 70
     1
102
RTVSPropertyOp12
 70
     1
102
RTVSPropertyOp13
 70
     1
102
RTVSPropertyOp14
 70
     1
102
RTVSPropertyOp15
 70
     1
102
RTVSPropertyOp16
 70
     1
102
RTVSPropertyOp17
 70
     1
102
RTVSPropertyOp18
 70
     1
102
RTVSPropertyOp19
 70
     1
102
RTVSPropertyOp20
 70
     1
102
RTVSPropertyOp21
 70
     1
102
RTVSPropertyOp22
 70
     1
102
RTVSPropertyOp23
 70
     1
102
RTVSPropertyOp24
 70
     1
102
RTVSPropertyOp25
 70
     1
102
RTVSPropertyOp26
 70
     1
102
RTVSPropertyOp27
 70
     1
102
RTVSPropertyOp28
 70
     1
102
RTVSPropertyOp29
 70
     1
102
RTVSPropertyOp30
 70
     1
102
RTVSPropertyOp31
 70
     1
102
RTVSPropertyOp32
 70
     1
102
RTVSPropertyOp33
 70
     1
102
RTVSPropertyOp34
 70
     1
102
RTVSPropertyOp35
 70
     1
102
RTVSPropertyOp36
 70
     1
102
RTVSPropertyOp37
 70
     1
102
RTVSPropertyOp38
 70
     1
102
RTVSPropertyOp39
 70
     1
102
RTVSPropertyOp40
 70
     1
102
RTVSPropertyOp41
 70
     1
102
RTVSPropertyOp42
 70
     1
102
RTVSPropertyOp43
 70
     1
102
RTVSPropertyOp44
 70
     1
102
RTVSPropertyOp45
 70
     1
102
RTVSPropertyOp46
 70
     1
102
RTVSPropertyOp47
 70
     1
102
RTVSPropertyOp48
 70
     1
102
RTVSPropertyOp49
 70
     1
102
RTVSPropertyOp50
 70
     1
102
RTVSPropertyOp51
 70
     0
102
RTVSPropertyOp52
 70
     0
102
RTVSPropertyOp53
 70
     1
102
RTVSPropertyOp54
 70
     1
102
RTVSPropertyOp55
 70
     1
102
RTVSPropertyOp56
 70
     1
102
RTVSPropertyOp57
 70
     1
102
RTVSPropertyOp58
 70
     1
102
RTVSPropertyOp59
 70
     1
102
RTVSPropertyOp60
 70
     1
102
RTVSPropertyOp61
 70
     1
102
RTVSPropertyOp62
 70
     1
  0
XRECORD
  5
A615
102
{ACAD_REACTORS
330
A614
102
}
330
A614
100
AcDbXrecord
280
     1
102
RTVSPost2010Prop28
280
     0
102
RTVSPost2010PropOp28
 70
     1
102
RTVSPost2010Prop29
280
     1
102
RTVSPost2010PropOp29
 70
     1
102
RTVSPost2010Prop30
280
     1
102
RTVSPost2010PropOp30
 70
     1
102
RTVSPost2010Prop31
280
     0
102
RTVSPost2010PropOp31
 70
     1
102
RTVSPost2010Prop32
280
     0
102
RTVSPost2010PropOp32
 70
     1
102
RTVSPost2010Prop33
280
     0
102
RTVSPost2010PropOp33
 70
     1
102
RTVSPost2010Prop34
280
     0
102
RTVSPost2010PropOp34
 70
     1
102
RTVSPost2010Prop35
280
     0
102
RTVSPost2010PropOp35
 70
     1
102
RTVSPost2010Prop36
280
     0
102
RTVSPost2010PropOp36
 70
     1
102
RTVSPost2010Prop37
 90
       50
102
RTVSPost2010PropOp37
 70
     1
102
RTVSPost2010Prop38
140
0.0
102
RTVSPost2010PropOp38
 70
     1
102
RTVSPost2010Prop39
140
1.0
102
RTVSPost2010PropOp39
 70
     1
102
RTVSPost2010Prop40
 90
        0
102
RTVSPost2010PropOp40
 70
     1
102
RTVSPost2010Prop41ColorIndex
 90
       18
102
RTVSPost2010Prop41ColorRGB
 90
        0
102
RTVSPost2010PropOp41
 70
     1
102
RTVSPost2010Prop42
 90
       50
102
RTVSPost2010PropOp42
 70
     1
102
RTVSPost2010Prop43
 90
        3
102
RTVSPost2010PropOp43
 70
     1
102
RTVSPost2010Prop44ColorIndex
 90
        5
102
RTVSPost2010Prop44ColorRGB
 90
      255
102
RTVSPost2010PropOp44
 70
     1
102
RTVSPost2010Prop45
280
     0
102
RTVSPost2010PropOp45
 70
     1
102
RTVSPost2010Prop46
 90
       50
102
RTVSPost2010PropOp46
 70
     1
102
RTVSPost2010Prop47
 90
       50
102
RTVSPost2010PropOp47
 70
     1
102
RTVSPost2010Prop48
 90
       50
102
RTVSPost2010PropOp48
 70
     1
102
RTVSPost2010Prop49
280
     0
102
RTVSPost2010PropOp49
 70
     1
102
RTVSPost2010Prop50
 90
       50
102
RTVSPost2010PropOp50
 70
     1
102
RTVSPost2010Prop51ColorIndex
 90
      256
102
RTVSPost2010Prop51ColorRGB
 90
-16777216
102
RTVSPost2010PropOp51
 70
     0
102
RTVSPost2010Prop52
140
1.0
102
RTVSPost2010PropOp52
 70
     0
102
RTVSPost2010Prop53
 90
        2
102
RTVSPost2010PropOp53
 70
     1
102
RTVSPost2010Prop54
  1
strokes_ogs.tif
102
RTVSPost2010PropOp54
 70
     1
102
RTVSPost2010Prop55
280
     0
102
RTVSPost2010PropOp55
 70
     1
102
RTVSPost2010Prop56
140
1.0
102
RTVSPost2010PropOp56
 70
     1
102
RTVSPost2010Prop57
140
1.0
102
RTVSPost2010PropOp57
 70
     1
102
RTVSPropertyOp0
 70
     1
102
RTVSPropertyOp1
 70
     1
102
RTVSPropertyOp2
 70
     1
102
RTVSPropertyOp3
 70
     1
102
RTVSPropertyOp4
 70
     1
102
RTVSPropertyOp5
 70
     1
102
RTVSPropertyOp6
 70
     1
102
RTVSPropertyOp7
 70
     1
102
RTVSPropertyOp8
 70
     1
102
RTVSPropertyOp9
 70
     1
102
RTVSPropertyOp10
 70
     1
102
RTVSPropertyOp11
 70
     1
102
RTVSPropertyOp12
 70
     1
102
RTVSPropertyOp13
 70
     1
102
RTVSPropertyOp14
 70
     1
102
RTVSPropertyOp15
 70
     1
102
RTVSPropertyOp16
 70
     1
102
RTVSPropertyOp17
 70
     1
102
RTVSPropertyOp18
 70
     1
102
RTVSPropertyOp19
 70
     1
102
RTVSPropertyOp20
 70
     1
102
RTVSPropertyOp21
 70
     1
102
RTVSPropertyOp22
 70
     1
102
RTVSPropertyOp23
 70
     1
102
RTVSPropertyOp24
 70
     1
102
RTVSPropertyOp25
 70
     1
102
RTVSPropertyOp26
 70
     1
102
RTVSPropertyOp27
 70
     1
102
RTVSPropertyOp28
 70
     1
102
RTVSPropertyOp29
 70
     1
102
RTVSPropertyOp30
 70
     1
102
RTVSPropertyOp31
 70
     1
102
RTVSPropertyOp32
 70
     1
102
RTVSPropertyOp33
 70
     1
102
RTVSPropertyOp34
 70
     1
102
RTVSPropertyOp35
 70
     1
102
RTVSPropertyOp36
 70
     1
102
RTVSPropertyOp37
 70
     1
102
RTVSPropertyOp38
 70
     1
102
RTVSPropertyOp39
 70
     1
102
RTVSPropertyOp40
 70
     1
102
RTVSPropertyOp41
 70
     1
102
RTVSPropertyOp42
 70
     1
102
RTVSPropertyOp43
 70
     1
102
RTVSPropertyOp44
 70
     1
102
RTVSPropertyOp45
 70
     1
102
RTVSPropertyOp46
 70
     1
102
RTVSPropertyOp47
 70
     1
102
RTVSPropertyOp48
 70
     1
102
RTVSPropertyOp49
 70
     1
102
RTVSPropertyOp50
 70
     1
102
RTVSPropertyOp51
 70
     0
102
RTVSPropertyOp52
 70
     0
102
RTVSPropertyOp53
 70
     1
102
RTVSPropertyOp54
 70
     1
102
RTVSPropertyOp55
 70
     1
102
RTVSPropertyOp56
 70
     1
102
RTVSPropertyOp57
 70
     1
102
RTVSPropertyOp58
 70
     1
102
RTVSPropertyOp59
 70
     1
102
RTVSPropertyOp60
 70
     1
102
RTVSPropertyOp61
 70
     1
102
RTVSPropertyOp62
 70
     1
  0
XRECORD
  5
A613
102
{ACAD_REACTORS
330
A612
102
}
330
A612
100
AcDbXrecord
280
     1
102
RTVSPost2010Prop28
280
     0
102
RTVSPost2010PropOp28
 70
     1
102
RTVSPost2010Prop29
280
     1
102
RTVSPost2010PropOp29
 70
     1
102
RTVSPost2010Prop30
280
     1
102
RTVSPost2010PropOp30
 70
     1
102
RTVSPost2010Prop31
280
     0
102
RTVSPost2010PropOp31
 70
     1
102
RTVSPost2010Prop32
280
     0
102
RTVSPost2010PropOp32
 70
     1
102
RTVSPost2010Prop33
280
     0
102
RTVSPost2010PropOp33
 70
     1
102
RTVSPost2010Prop34
280
     0
102
RTVSPost2010PropOp34
 70
     1
102
RTVSPost2010Prop35
280
     0
102
RTVSPost2010PropOp35
 70
     1
102
RTVSPost2010Prop36
280
     0
102
RTVSPost2010PropOp36
 70
     1
102
RTVSPost2010Prop37
 90
       50
102
RTVSPost2010PropOp37
 70
     1
102
RTVSPost2010Prop38
140
0.0
102
RTVSPost2010PropOp38
 70
     1
102
RTVSPost2010Prop39
140
1.0
102
RTVSPost2010PropOp39
 70
     1
102
RTVSPost2010Prop40
 90
        0
102
RTVSPost2010PropOp40
 70
     1
102
RTVSPost2010Prop41ColorIndex
 90
       18
102
RTVSPost2010Prop41ColorRGB
 90
        0
102
RTVSPost2010PropOp41
 70
     1
102
RTVSPost2010Prop42
 90
       50
102
RTVSPost2010PropOp42
 70
     1
102
RTVSPost2010Prop43
 90
        3
102
RTVSPost2010PropOp43
 70
     1
102
RTVSPost2010Prop44ColorIndex
 90
        5
102
RTVSPost2010Prop44ColorRGB
 90
      255
102
RTVSPost2010PropOp44
 70
     1
102
RTVSPost2010Prop45
280
     0
102
RTVSPost2010PropOp45
 70
     1
102
RTVSPost2010Prop46
 90
       50
102
RTVSPost2010PropOp46
 70
     1
102
RTVSPost2010Prop47
 90
       50
102
RTVSPost2010PropOp47
 70
     1
102
RTVSPost2010Prop48
 90
       50
102
RTVSPost2010PropOp48
 70
     1
102
RTVSPost2010Prop49
280
     0
102
RTVSPost2010PropOp49
 70
     1
102
RTVSPost2010Prop50
 90
       50
102
RTVSPost2010PropOp50
 70
     1
102
RTVSPost2010Prop51ColorIndex
 90
      256
102
RTVSPost2010Prop51ColorRGB
 90
-16777216
102
RTVSPost2010PropOp51
 70
     0
102
RTVSPost2010Prop52
140
1.0
102
RTVSPost2010PropOp52
 70
     0
102
RTVSPost2010Prop53
 90
        2
102
RTVSPost2010PropOp53
 70
     1
102
RTVSPost2010Prop54
  1
strokes_ogs.tif
102
RTVSPost2010PropOp54
 70
     1
102
RTVSPost2010Prop55
280
     0
102
RTVSPost2010PropOp55
 70
     1
102
RTVSPost2010Prop56
140
1.0
102
RTVSPost2010PropOp56
 70
     1
102
RTVSPost2010Prop57
140
1.0
102
RTVSPost2010PropOp57
 70
     1
102
RTVSPropertyOp0
 70
     1
102
RTVSPropertyOp1
 70
     1
102
RTVSPropertyOp2
 70
     1
102
RTVSPropertyOp3
 70
     1
102
RTVSPropertyOp4
 70
     1
102
RTVSPropertyOp5
 70
     1
102
RTVSPropertyOp6
 70
     1
102
RTVSPropertyOp7
 70
     1
102
RTVSPropertyOp8
 70
     1
102
RTVSPropertyOp9
 70
     1
102
RTVSPropertyOp10
 70
     1
102
RTVSPropertyOp11
 70
     1
102
RTVSPropertyOp12
 70
     1
102
RTVSPropertyOp13
 70
     1
102
RTVSPropertyOp14
 70
     1
102
RTVSPropertyOp15
 70
     1
102
RTVSPropertyOp16
 70
     1
102
RTVSPropertyOp17
 70
     1
102
RTVSPropertyOp18
 70
     1
102
RTVSPropertyOp19
 70
     1
102
RTVSPropertyOp20
 70
     1
102
RTVSPropertyOp21
 70
     1
102
RTVSPropertyOp22
 70
     1
102
RTVSPropertyOp23
 70
     1
102
RTVSPropertyOp24
 70
     1
102
RTVSPropertyOp25
 70
     1
102
RTVSPropertyOp26
 70
     1
102
RTVSPropertyOp27
 70
     1
102
RTVSPropertyOp28
 70
     1
102
RTVSPropertyOp29
 70
     1
102
RTVSPropertyOp30
 70
     1
102
RTVSPropertyOp31
 70
     1
102
RTVSPropertyOp32
 70
     1
102
RTVSPropertyOp33
 70
     1
102
RTVSPropertyOp34
 70
     1
102
RTVSPropertyOp35
 70
     1
102
RTVSPropertyOp36
 70
     1
102
RTVSPropertyOp37
 70
     1
102
RTVSPropertyOp38
 70
     1
102
RTVSPropertyOp39
 70
     1
102
RTVSPropertyOp40
 70
     1
102
RTVSPropertyOp41
 70
     1
102
RTVSPropertyOp42
 70
     1
102
RTVSPropertyOp43
 70
     1
102
RTVSPropertyOp44
 70
     1
102
RTVSPropertyOp45
 70
     1
102
RTVSPropertyOp46
 70
     1
102
RTVSPropertyOp47
 70
     1
102
RTVSPropertyOp48
 70
     1
102
RTVSPropertyOp49
 70
     1
102
RTVSPropertyOp50
 70
     1
102
RTVSPropertyOp51
 70
     0
102
RTVSPropertyOp52
 70
     0
102
RTVSPropertyOp53
 70
     1
102
RTVSPropertyOp54
 70
     1
102
RTVSPropertyOp55
 70
     1
102
RTVSPropertyOp56
 70
     1
102
RTVSPropertyOp57
 70
     1
102
RTVSPropertyOp58
 70
     1
102
RTVSPropertyOp59
 70
     1
102
RTVSPropertyOp60
 70
     1
102
RTVSPropertyOp61
 70
     1
102
RTVSPropertyOp62
 70
     1
  0
XRECORD
  5
A60D
102
{ACAD_REACTORS
330
A60C
102
}
330
A60C
100
AcDbXrecord
280
     1
102
RTVSPost2010Prop28
280
     0
102
RTVSPost2010PropOp28
 70
     1
102
RTVSPost2010Prop29
280
     1
102
RTVSPost2010PropOp29
 70
     1
102
RTVSPost2010Prop30
280
     1
102
RTVSPost2010PropOp30
 70
     1
102
RTVSPost2010Prop31
280
     0
102
RTVSPost2010PropOp31
 70
     1
102
RTVSPost2010Prop32
280
     0
102
RTVSPost2010PropOp32
 70
     1
102
RTVSPost2010Prop33
280
     0
102
RTVSPost2010PropOp33
 70
     1
102
RTVSPost2010Prop34
280
     0
102
RTVSPost2010PropOp34
 70
     1
102
RTVSPost2010Prop35
280
     0
102
RTVSPost2010PropOp35
 70
     1
102
RTVSPost2010Prop36
280
     0
102
RTVSPost2010PropOp36
 70
     1
102
RTVSPost2010Prop37
 90
       50
102
RTVSPost2010PropOp37
 70
     1
102
RTVSPost2010Prop38
140
0.0
102
RTVSPost2010PropOp38
 70
     1
102
RTVSPost2010Prop39
140
1.0
102
RTVSPost2010PropOp39
 70
     1
102
RTVSPost2010Prop40
 90
        0
102
RTVSPost2010PropOp40
 70
     1
102
RTVSPost2010Prop41ColorIndex
 90
       18
102
RTVSPost2010Prop41ColorRGB
 90
        0
102
RTVSPost2010PropOp41
 70
     1
102
RTVSPost2010Prop42
 90
       50
102
RTVSPost2010PropOp42
 70
     1
102
RTVSPost2010Prop43
 90
        3
102
RTVSPost2010PropOp43
 70
     1
102
RTVSPost2010Prop44ColorIndex
 90
        5
102
RTVSPost2010Prop44ColorRGB
 90
      255
102
RTVSPost2010PropOp44
 70
     1
102
RTVSPost2010Prop45
280
     0
102
RTVSPost2010PropOp45
 70
     1
102
RTVSPost2010Prop46
 90
       50
102
RTVSPost2010PropOp46
 70
     1
102
RTVSPost2010Prop47
 90
       50
102
RTVSPost2010PropOp47
 70
     1
102
RTVSPost2010Prop48
 90
       50
102
RTVSPost2010PropOp48
 70
     1
102
RTVSPost2010Prop49
280
     0
102
RTVSPost2010PropOp49
 70
     1
102
RTVSPost2010Prop50
 90
       50
102
RTVSPost2010PropOp50
 70
     1
102
RTVSPost2010Prop51ColorIndex
 90
      256
102
RTVSPost2010Prop51ColorRGB
 90
-16777216
102
RTVSPost2010PropOp51
 70
     0
102
RTVSPost2010Prop52
140
1.0
102
RTVSPost2010PropOp52
 70
     0
102
RTVSPost2010Prop53
 90
        2
102
RTVSPost2010PropOp53
 70
     1
102
RTVSPost2010Prop54
  1
strokes_ogs.tif
102
RTVSPost2010PropOp54
 70
     1
102
RTVSPost2010Prop55
280
     0
102
RTVSPost2010PropOp55
 70
     1
102
RTVSPost2010Prop56
140
1.0
102
RTVSPost2010PropOp56
 70
     1
102
RTVSPost2010Prop57
140
1.0
102
RTVSPost2010PropOp57
 70
     1
102
RTVSPropertyOp0
 70
     1
102
RTVSPropertyOp1
 70
     1
102
RTVSPropertyOp2
 70
     1
102
RTVSPropertyOp3
 70
     1
102
RTVSPropertyOp4
 70
     1
102
RTVSPropertyOp5
 70
     1
102
RTVSPropertyOp6
 70
     1
102
RTVSPropertyOp7
 70
     1
102
RTVSPropertyOp8
 70
     1
102
RTVSPropertyOp9
 70
     1
102
RTVSPropertyOp10
 70
     1
102
RTVSPropertyOp11
 70
     1
102
RTVSPropertyOp12
 70
     1
102
RTVSPropertyOp13
 70
     1
102
RTVSPropertyOp14
 70
     1
102
RTVSPropertyOp15
 70
     1
102
RTVSPropertyOp16
 70
     1
102
RTVSPropertyOp17
 70
     1
102
RTVSPropertyOp18
 70
     1
102
RTVSPropertyOp19
 70
     1
102
RTVSPropertyOp20
 70
     1
102
RTVSPropertyOp21
 70
     1
102
RTVSPropertyOp22
 70
     1
102
RTVSPropertyOp23
 70
     1
102
RTVSPropertyOp24
 70
     1
102
RTVSPropertyOp25
 70
     1
102
RTVSPropertyOp26
 70
     1
102
RTVSPropertyOp27
 70
     1
102
RTVSPropertyOp28
 70
     1
102
RTVSPropertyOp29
 70
     1
102
RTVSPropertyOp30
 70
     1
102
RTVSPropertyOp31
 70
     1
102
RTVSPropertyOp32
 70
     1
102
RTVSPropertyOp33
 70
     1
102
RTVSPropertyOp34
 70
     1
102
RTVSPropertyOp35
 70
     1
102
RTVSPropertyOp36
 70
     1
102
RTVSPropertyOp37
 70
     1
102
RTVSPropertyOp38
 70
     1
102
RTVSPropertyOp39
 70
     1
102
RTVSPropertyOp40
 70
     1
102
RTVSPropertyOp41
 70
     1
102
RTVSPropertyOp42
 70
     1
102
RTVSPropertyOp43
 70
     1
102
RTVSPropertyOp44
 70
     1
102
RTVSPropertyOp45
 70
     1
102
RTVSPropertyOp46
 70
     1
102
RTVSPropertyOp47
 70
     1
102
RTVSPropertyOp48
 70
     1
102
RTVSPropertyOp49
 70
     1
102
RTVSPropertyOp50
 70
     1
102
RTVSPropertyOp51
 70
     0
102
RTVSPropertyOp52
 70
     0
102
RTVSPropertyOp53
 70
     1
102
RTVSPropertyOp54
 70
     1
102
RTVSPropertyOp55
 70
     1
102
RTVSPropertyOp56
 70
     1
102
RTVSPropertyOp57
 70
     1
102
RTVSPropertyOp58
 70
     1
102
RTVSPropertyOp59
 70
     1
102
RTVSPropertyOp60
 70
     1
102
RTVSPropertyOp61
 70
     1
102
RTVSPropertyOp62
 70
     1
  0
XRECORD
  5
A60F
102
{ACAD_REACTORS
330
A60E
102
}
330
A60E
100
AcDbXrecord
280
     1
102
RTVSPost2010Prop28
280
     0
102
RTVSPost2010PropOp28
 70
     1
102
RTVSPost2010Prop29
280
     1
102
RTVSPost2010PropOp29
 70
     1
102
RTVSPost2010Prop30
280
     1
102
RTVSPost2010PropOp30
 70
     1
102
RTVSPost2010Prop31
280
     0
102
RTVSPost2010PropOp31
 70
     1
102
RTVSPost2010Prop32
280
     0
102
RTVSPost2010PropOp32
 70
     1
102
RTVSPost2010Prop33
280
     0
102
RTVSPost2010PropOp33
 70
     1
102
RTVSPost2010Prop34
280
     0
102
RTVSPost2010PropOp34
 70
     1
102
RTVSPost2010Prop35
280
     0
102
RTVSPost2010PropOp35
 70
     1
102
RTVSPost2010Prop36
280
     0
102
RTVSPost2010PropOp36
 70
     1
102
RTVSPost2010Prop37
 90
       50
102
RTVSPost2010PropOp37
 70
     1
102
RTVSPost2010Prop38
140
0.0
102
RTVSPost2010PropOp38
 70
     1
102
RTVSPost2010Prop39
140
1.0
102
RTVSPost2010PropOp39
 70
     1
102
RTVSPost2010Prop40
 90
        0
102
RTVSPost2010PropOp40
 70
     1
102
RTVSPost2010Prop41ColorIndex
 90
       18
102
RTVSPost2010Prop41ColorRGB
 90
        0
102
RTVSPost2010PropOp41
 70
     1
102
RTVSPost2010Prop42
 90
       50
102
RTVSPost2010PropOp42
 70
     1
102
RTVSPost2010Prop43
 90
        3
102
RTVSPost2010PropOp43
 70
     1
102
RTVSPost2010Prop44ColorIndex
 90
        5
102
RTVSPost2010Prop44ColorRGB
 90
      255
102
RTVSPost2010PropOp44
 70
     1
102
RTVSPost2010Prop45
280
     0
102
RTVSPost2010PropOp45
 70
     1
102
RTVSPost2010Prop46
 90
       50
102
RTVSPost2010PropOp46
 70
     1
102
RTVSPost2010Prop47
 90
       50
102
RTVSPost2010PropOp47
 70
     1
102
RTVSPost2010Prop48
 90
       50
102
RTVSPost2010PropOp48
 70
     1
102
RTVSPost2010Prop49
280
     0
102
RTVSPost2010PropOp49
 70
     1
102
RTVSPost2010Prop50
 90
       50
102
RTVSPost2010PropOp50
 70
     1
102
RTVSPost2010Prop51ColorIndex
 90
      256
102
RTVSPost2010Prop51ColorRGB
 90
-16777216
102
RTVSPost2010PropOp51
 70
     0
102
RTVSPost2010Prop52
140
1.0
102
RTVSPost2010PropOp52
 70
     0
102
RTVSPost2010Prop53
 90
        2
102
RTVSPost2010PropOp53
 70
     1
102
RTVSPost2010Prop54
  1
strokes_ogs.tif
102
RTVSPost2010PropOp54
 70
     1
102
RTVSPost2010Prop55
280
     0
102
RTVSPost2010PropOp55
 70
     1
102
RTVSPost2010Prop56
140
1.0
102
RTVSPost2010PropOp56
 70
     1
102
RTVSPost2010Prop57
140
1.0
102
RTVSPost2010PropOp57
 70
     1
102
RTVSPropertyOp0
 70
     1
102
RTVSPropertyOp1
 70
     1
102
RTVSPropertyOp2
 70
     1
102
RTVSPropertyOp3
 70
     1
102
RTVSPropertyOp4
 70
     1
102
RTVSPropertyOp5
 70
     1
102
RTVSPropertyOp6
 70
     1
102
RTVSPropertyOp7
 70
     1
102
RTVSPropertyOp8
 70
     1
102
RTVSPropertyOp9
 70
     1
102
RTVSPropertyOp10
 70
     1
102
RTVSPropertyOp11
 70
     1
102
RTVSPropertyOp12
 70
     1
102
RTVSPropertyOp13
 70
     1
102
RTVSPropertyOp14
 70
     1
102
RTVSPropertyOp15
 70
     1
102
RTVSPropertyOp16
 70
     1
102
RTVSPropertyOp17
 70
     1
102
RTVSPropertyOp18
 70
     1
102
RTVSPropertyOp19
 70
     1
102
RTVSPropertyOp20
 70
     1
102
RTVSPropertyOp21
 70
     1
102
RTVSPropertyOp22
 70
     1
102
RTVSPropertyOp23
 70
     1
102
RTVSPropertyOp24
 70
     1
102
RTVSPropertyOp25
 70
     1
102
RTVSPropertyOp26
 70
     1
102
RTVSPropertyOp27
 70
     1
102
RTVSPropertyOp28
 70
     1
102
RTVSPropertyOp29
 70
     1
102
RTVSPropertyOp30
 70
     1
102
RTVSPropertyOp31
 70
     1
102
RTVSPropertyOp32
 70
     1
102
RTVSPropertyOp33
 70
     1
102
RTVSPropertyOp34
 70
     1
102
RTVSPropertyOp35
 70
     1
102
RTVSPropertyOp36
 70
     1
102
RTVSPropertyOp37
 70
     1
102
RTVSPropertyOp38
 70
     1
102
RTVSPropertyOp39
 70
     1
102
RTVSPropertyOp40
 70
     1
102
RTVSPropertyOp41
 70
     1
102
RTVSPropertyOp42
 70
     1
102
RTVSPropertyOp43
 70
     1
102
RTVSPropertyOp44
 70
     1
102
RTVSPropertyOp45
 70
     1
102
RTVSPropertyOp46
 70
     1
102
RTVSPropertyOp47
 70
     1
102
RTVSPropertyOp48
 70
     1
102
RTVSPropertyOp49
 70
     1
102
RTVSPropertyOp50
 70
     1
102
RTVSPropertyOp51
 70
     0
102
RTVSPropertyOp52
 70
     0
102
RTVSPropertyOp53
 70
     1
102
RTVSPropertyOp54
 70
     1
102
RTVSPropertyOp55
 70
     1
102
RTVSPropertyOp56
 70
     1
102
RTVSPropertyOp57
 70
     1
102
RTVSPropertyOp58
 70
     1
102
RTVSPropertyOp59
 70
     1
102
RTVSPropertyOp60
 70
     1
102
RTVSPropertyOp61
 70
     1
102
RTVSPropertyOp62
 70
     1
  0
XRECORD
  5
A605
102
{ACAD_REACTORS
330
A604
102
}
330
A604
100
AcDbXrecord
280
     1
102
RTVSPost2010Prop28
280
     0
102
RTVSPost2010PropOp28
 70
     1
102
RTVSPost2010Prop29
280
     1
102
RTVSPost2010PropOp29
 70
     1
102
RTVSPost2010Prop30
280
     1
102
RTVSPost2010PropOp30
 70
     1
102
RTVSPost2010Prop31
280
     0
102
RTVSPost2010PropOp31
 70
     1
102
RTVSPost2010Prop32
280
     0
102
RTVSPost2010PropOp32
 70
     1
102
RTVSPost2010Prop33
280
     0
102
RTVSPost2010PropOp33
 70
     1
102
RTVSPost2010Prop34
280
     0
102
RTVSPost2010PropOp34
 70
     1
102
RTVSPost2010Prop35
280
     0
102
RTVSPost2010PropOp35
 70
     1
102
RTVSPost2010Prop36
280
     0
102
RTVSPost2010PropOp36
 70
     1
102
RTVSPost2010Prop37
 90
       50
102
RTVSPost2010PropOp37
 70
     1
102
RTVSPost2010Prop38
140
0.0
102
RTVSPost2010PropOp38
 70
     1
102
RTVSPost2010Prop39
140
1.0
102
RTVSPost2010PropOp39
 70
     1
102
RTVSPost2010Prop40
 90
        0
102
RTVSPost2010PropOp40
 70
     1
102
RTVSPost2010Prop41ColorIndex
 90
       18
102
RTVSPost2010Prop41ColorRGB
 90
        0
102
RTVSPost2010PropOp41
 70
     1
102
RTVSPost2010Prop42
 90
       50
102
RTVSPost2010PropOp42
 70
     1
102
RTVSPost2010Prop43
 90
        3
102
RTVSPost2010PropOp43
 70
     1
102
RTVSPost2010Prop44ColorIndex
 90
        5
102
RTVSPost2010Prop44ColorRGB
 90
      255
102
RTVSPost2010PropOp44
 70
     1
102
RTVSPost2010Prop45
280
     0
102
RTVSPost2010PropOp45
 70
     1
102
RTVSPost2010Prop46
 90
       50
102
RTVSPost2010PropOp46
 70
     1
102
RTVSPost2010Prop47
 90
       50
102
RTVSPost2010PropOp47
 70
     1
102
RTVSPost2010Prop48
 90
       50
102
RTVSPost2010PropOp48
 70
     1
102
RTVSPost2010Prop49
280
     0
102
RTVSPost2010PropOp49
 70
     1
102
RTVSPost2010Prop50
 90
       50
102
RTVSPost2010PropOp50
 70
     1
102
RTVSPost2010Prop51ColorIndex
 90
      256
102
RTVSPost2010Prop51ColorRGB
 90
-16777216
102
RTVSPost2010PropOp51
 70
     0
102
RTVSPost2010Prop52
140
1.0
102
RTVSPost2010PropOp52
 70
     0
102
RTVSPost2010Prop53
 90
        2
102
RTVSPost2010PropOp53
 70
     1
102
RTVSPost2010Prop54
  1
strokes_ogs.tif
102
RTVSPost2010PropOp54
 70
     1
102
RTVSPost2010Prop55
280
     0
102
RTVSPost2010PropOp55
 70
     1
102
RTVSPost2010Prop56
140
1.0
102
RTVSPost2010PropOp56
 70
     1
102
RTVSPost2010Prop57
140
1.0
102
RTVSPost2010PropOp57
 70
     1
102
RTVSPropertyOp0
 70
     1
102
RTVSPropertyOp1
 70
     1
102
RTVSPropertyOp2
 70
     1
102
RTVSPropertyOp3
 70
     1
102
RTVSPropertyOp4
 70
     1
102
RTVSPropertyOp5
 70
     1
102
RTVSPropertyOp6
 70
     1
102
RTVSPropertyOp7
 70
     1
102
RTVSPropertyOp8
 70
     1
102
RTVSPropertyOp9
 70
     1
102
RTVSPropertyOp10
 70
     1
102
RTVSPropertyOp11
 70
     1
102
RTVSPropertyOp12
 70
     1
102
RTVSPropertyOp13
 70
     1
102
RTVSPropertyOp14
 70
     1
102
RTVSPropertyOp15
 70
     1
102
RTVSPropertyOp16
 70
     1
102
RTVSPropertyOp17
 70
     1
102
RTVSPropertyOp18
 70
     1
102
RTVSPropertyOp19
 70
     1
102
RTVSPropertyOp20
 70
     1
102
RTVSPropertyOp21
 70
     1
102
RTVSPropertyOp22
 70
     1
102
RTVSPropertyOp23
 70
     1
102
RTVSPropertyOp24
 70
     1
102
RTVSPropertyOp25
 70
     1
102
RTVSPropertyOp26
 70
     1
102
RTVSPropertyOp27
 70
     1
102
RTVSPropertyOp28
 70
     1
102
RTVSPropertyOp29
 70
     1
102
RTVSPropertyOp30
 70
     1
102
RTVSPropertyOp31
 70
     1
102
RTVSPropertyOp32
 70
     1
102
RTVSPropertyOp33
 70
     1
102
RTVSPropertyOp34
 70
     1
102
RTVSPropertyOp35
 70
     1
102
RTVSPropertyOp36
 70
     1
102
RTVSPropertyOp37
 70
     1
102
RTVSPropertyOp38
 70
     1
102
RTVSPropertyOp39
 70
     1
102
RTVSPropertyOp40
 70
     1
102
RTVSPropertyOp41
 70
     1
102
RTVSPropertyOp42
 70
     1
102
RTVSPropertyOp43
 70
     1
102
RTVSPropertyOp44
 70
     1
102
RTVSPropertyOp45
 70
     1
102
RTVSPropertyOp46
 70
     1
102
RTVSPropertyOp47
 70
     1
102
RTVSPropertyOp48
 70
     1
102
RTVSPropertyOp49
 70
     1
102
RTVSPropertyOp50
 70
     1
102
RTVSPropertyOp51
 70
     0
102
RTVSPropertyOp52
 70
     0
102
RTVSPropertyOp53
 70
     1
102
RTVSPropertyOp54
 70
     1
102
RTVSPropertyOp55
 70
     1
102
RTVSPropertyOp56
 70
     1
102
RTVSPropertyOp57
 70
     1
102
RTVSPropertyOp58
 70
     1
102
RTVSPropertyOp59
 70
     1
102
RTVSPropertyOp60
 70
     1
102
RTVSPropertyOp61
 70
     1
102
RTVSPropertyOp62
 70
     1
  0
XRECORD
  5
A5F9
102
{ACAD_REACTORS
330
A5F8
102
}
330
A5F8
100
AcDbXrecord
280
     1
102
RTVSPost2010Prop28
280
     0
102
RTVSPost2010PropOp28
 70
     1
102
RTVSPost2010Prop29
280
     1
102
RTVSPost2010PropOp29
 70
     1
102
RTVSPost2010Prop30
280
     1
102
RTVSPost2010PropOp30
 70
     1
102
RTVSPost2010Prop31
280
     0
102
RTVSPost2010PropOp31
 70
     1
102
RTVSPost2010Prop32
280
     0
102
RTVSPost2010PropOp32
 70
     1
102
RTVSPost2010Prop33
280
     0
102
RTVSPost2010PropOp33
 70
     1
102
RTVSPost2010Prop34
280
     0
102
RTVSPost2010PropOp34
 70
     1
102
RTVSPost2010Prop35
280
     0
102
RTVSPost2010PropOp35
 70
     1
102
RTVSPost2010Prop36
280
     0
102
RTVSPost2010PropOp36
 70
     1
102
RTVSPost2010Prop37
 90
       50
102
RTVSPost2010PropOp37
 70
     1
102
RTVSPost2010Prop38
140
0.0
102
RTVSPost2010PropOp38
 70
     1
102
RTVSPost2010Prop39
140
1.0
102
RTVSPost2010PropOp39
 70
     1
102
RTVSPost2010Prop40
 90
        0
102
RTVSPost2010PropOp40
 70
     1
102
RTVSPost2010Prop41ColorIndex
 90
       18
102
RTVSPost2010Prop41ColorRGB
 90
        0
102
RTVSPost2010PropOp41
 70
     1
102
RTVSPost2010Prop42
 90
       50
102
RTVSPost2010PropOp42
 70
     1
102
RTVSPost2010Prop43
 90
        3
102
RTVSPost2010PropOp43
 70
     1
102
RTVSPost2010Prop44ColorIndex
 90
        5
102
RTVSPost2010Prop44ColorRGB
 90
      255
102
RTVSPost2010PropOp44
 70
     1
102
RTVSPost2010Prop45
280
     0
102
RTVSPost2010PropOp45
 70
     1
102
RTVSPost2010Prop46
 90
       50
102
RTVSPost2010PropOp46
 70
     1
102
RTVSPost2010Prop47
 90
       50
102
RTVSPost2010PropOp47
 70
     1
102
RTVSPost2010Prop48
 90
       50
102
RTVSPost2010PropOp48
 70
     1
102
RTVSPost2010Prop49
280
     0
102
RTVSPost2010PropOp49
 70
     1
102
RTVSPost2010Prop50
 90
       50
102
RTVSPost2010PropOp50
 70
     1
102
RTVSPost2010Prop51ColorIndex
 90
      256
102
RTVSPost2010Prop51ColorRGB
 90
-16777216
102
RTVSPost2010PropOp51
 70
     0
102
RTVSPost2010Prop52
140
1.0
102
RTVSPost2010PropOp52
 70
     0
102
RTVSPost2010Prop53
 90
        2
102
RTVSPost2010PropOp53
 70
     1
102
RTVSPost2010Prop54
  1
strokes_ogs.tif
102
RTVSPost2010PropOp54
 70
     1
102
RTVSPost2010Prop55
280
     0
102
RTVSPost2010PropOp55
 70
     1
102
RTVSPost2010Prop56
140
1.0
102
RTVSPost2010PropOp56
 70
     1
102
RTVSPost2010Prop57
140
1.0
102
RTVSPost2010PropOp57
 70
     1
102
RTVSPropertyOp0
 70
     1
102
RTVSPropertyOp1
 70
     1
102
RTVSPropertyOp2
 70
     1
102
RTVSPropertyOp3
 70
     1
102
RTVSPropertyOp4
 70
     1
102
RTVSPropertyOp5
 70
     1
102
RTVSPropertyOp6
 70
     1
102
RTVSPropertyOp7
 70
     1
102
RTVSPropertyOp8
 70
     1
102
RTVSPropertyOp9
 70
     1
102
RTVSPropertyOp10
 70
     1
102
RTVSPropertyOp11
 70
     1
102
RTVSPropertyOp12
 70
     1
102
RTVSPropertyOp13
 70
     1
102
RTVSPropertyOp14
 70
     1
102
RTVSPropertyOp15
 70
     1
102
RTVSPropertyOp16
 70
     1
102
RTVSPropertyOp17
 70
     1
102
RTVSPropertyOp18
 70
     1
102
RTVSPropertyOp19
 70
     1
102
RTVSPropertyOp20
 70
     1
102
RTVSPropertyOp21
 70
     1
102
RTVSPropertyOp22
 70
     1
102
RTVSPropertyOp23
 70
     1
102
RTVSPropertyOp24
 70
     1
102
RTVSPropertyOp25
 70
     1
102
RTVSPropertyOp26
 70
     1
102
RTVSPropertyOp27
 70
     1
102
RTVSPropertyOp28
 70
     1
102
RTVSPropertyOp29
 70
     1
102
RTVSPropertyOp30
 70
     1
102
RTVSPropertyOp31
 70
     1
102
RTVSPropertyOp32
 70
     1
102
RTVSPropertyOp33
 70
     1
102
RTVSPropertyOp34
 70
     1
102
RTVSPropertyOp35
 70
     1
102
RTVSPropertyOp36
 70
     1
102
RTVSPropertyOp37
 70
     1
102
RTVSPropertyOp38
 70
     1
102
RTVSPropertyOp39
 70
     1
102
RTVSPropertyOp40
 70
     1
102
RTVSPropertyOp41
 70
     1
102
RTVSPropertyOp42
 70
     1
102
RTVSPropertyOp43
 70
     1
102
RTVSPropertyOp44
 70
     1
102
RTVSPropertyOp45
 70
     1
102
RTVSPropertyOp46
 70
     1
102
RTVSPropertyOp47
 70
     1
102
RTVSPropertyOp48
 70
     1
102
RTVSPropertyOp49
 70
     1
102
RTVSPropertyOp50
 70
     1
102
RTVSPropertyOp51
 70
     0
102
RTVSPropertyOp52
 70
     0
102
RTVSPropertyOp53
 70
     1
102
RTVSPropertyOp54
 70
     1
102
RTVSPropertyOp55
 70
     1
102
RTVSPropertyOp56
 70
     1
102
RTVSPropertyOp57
 70
     1
102
RTVSPropertyOp58
 70
     1
102
RTVSPropertyOp59
 70
     1
102
RTVSPropertyOp60
 70
     1
102
RTVSPropertyOp61
 70
     1
102
RTVSPropertyOp62
 70
     1
  0
XRECORD
  5
A611
102
{ACAD_REACTORS
330
A610
102
}
330
A610
100
AcDbXrecord
280
     1
102
RTVSPost2010Prop28
280
     0
102
RTVSPost2010PropOp28
 70
     1
102
RTVSPost2010Prop29
280
     1
102
RTVSPost2010PropOp29
 70
     1
102
RTVSPost2010Prop30
280
     1
102
RTVSPost2010PropOp30
 70
     1
102
RTVSPost2010Prop31
280
     0
102
RTVSPost2010PropOp31
 70
     1
102
RTVSPost2010Prop32
280
     0
102
RTVSPost2010PropOp32
 70
     1
102
RTVSPost2010Prop33
280
     0
102
RTVSPost2010PropOp33
 70
     1
102
RTVSPost2010Prop34
280
     0
102
RTVSPost2010PropOp34
 70
     1
102
RTVSPost2010Prop35
280
     0
102
RTVSPost2010PropOp35
 70
     1
102
RTVSPost2010Prop36
280
     0
102
RTVSPost2010PropOp36
 70
     1
102
RTVSPost2010Prop37
 90
       50
102
RTVSPost2010PropOp37
 70
     1
102
RTVSPost2010Prop38
140
0.0
102
RTVSPost2010PropOp38
 70
     1
102
RTVSPost2010Prop39
140
1.0
102
RTVSPost2010PropOp39
 70
     1
102
RTVSPost2010Prop40
 90
        0
102
RTVSPost2010PropOp40
 70
     1
102
RTVSPost2010Prop41ColorIndex
 90
       18
102
RTVSPost2010Prop41ColorRGB
 90
        0
102
RTVSPost2010PropOp41
 70
     1
102
RTVSPost2010Prop42
 90
       50
102
RTVSPost2010PropOp42
 70
     1
102
RTVSPost2010Prop43
 90
        3
102
RTVSPost2010PropOp43
 70
     1
102
RTVSPost2010Prop44ColorIndex
 90
        5
102
RTVSPost2010Prop44ColorRGB
 90
      255
102
RTVSPost2010PropOp44
 70
     1
102
RTVSPost2010Prop45
280
     0
102
RTVSPost2010PropOp45
 70
     1
102
RTVSPost2010Prop46
 90
       50
102
RTVSPost2010PropOp46
 70
     1
102
RTVSPost2010Prop47
 90
       50
102
RTVSPost2010PropOp47
 70
     1
102
RTVSPost2010Prop48
 90
       50
102
RTVSPost2010PropOp48
 70
     1
102
RTVSPost2010Prop49
280
     0
102
RTVSPost2010PropOp49
 70
     1
102
RTVSPost2010Prop50
 90
       50
102
RTVSPost2010PropOp50
 70
     1
102
RTVSPost2010Prop51ColorIndex
 90
      256
102
RTVSPost2010Prop51ColorRGB
 90
-16777216
102
RTVSPost2010PropOp51
 70
     0
102
RTVSPost2010Prop52
140
1.0
102
RTVSPost2010PropOp52
 70
     0
102
RTVSPost2010Prop53
 90
        2
102
RTVSPost2010PropOp53
 70
     1
102
RTVSPost2010Prop54
  1
strokes_ogs.tif
102
RTVSPost2010PropOp54
 70
     1
102
RTVSPost2010Prop55
280
     0
102
RTVSPost2010PropOp55
 70
     1
102
RTVSPost2010Prop56
140
1.0
102
RTVSPost2010PropOp56
 70
     1
102
RTVSPost2010Prop57
140
1.0
102
RTVSPost2010PropOp57
 70
     1
102
RTVSPropertyOp0
 70
     1
102
RTVSPropertyOp1
 70
     1
102
RTVSPropertyOp2
 70
     1
102
RTVSPropertyOp3
 70
     1
102
RTVSPropertyOp4
 70
     1
102
RTVSPropertyOp5
 70
     1
102
RTVSPropertyOp6
 70
     1
102
RTVSPropertyOp7
 70
     1
102
RTVSPropertyOp8
 70
     1
102
RTVSPropertyOp9
 70
     1
102
RTVSPropertyOp10
 70
     1
102
RTVSPropertyOp11
 70
     1
102
RTVSPropertyOp12
 70
     1
102
RTVSPropertyOp13
 70
     1
102
RTVSPropertyOp14
 70
     1
102
RTVSPropertyOp15
 70
     1
102
RTVSPropertyOp16
 70
     1
102
RTVSPropertyOp17
 70
     1
102
RTVSPropertyOp18
 70
     1
102
RTVSPropertyOp19
 70
     1
102
RTVSPropertyOp20
 70
     1
102
RTVSPropertyOp21
 70
     1
102
RTVSPropertyOp22
 70
     1
102
RTVSPropertyOp23
 70
     1
102
RTVSPropertyOp24
 70
     1
102
RTVSPropertyOp25
 70
     1
102
RTVSPropertyOp26
 70
     1
102
RTVSPropertyOp27
 70
     1
102
RTVSPropertyOp28
 70
     1
102
RTVSPropertyOp29
 70
     1
102
RTVSPropertyOp30
 70
     1
102
RTVSPropertyOp31
 70
     1
102
RTVSPropertyOp32
 70
     1
102
RTVSPropertyOp33
 70
     1
102
RTVSPropertyOp34
 70
     1
102
RTVSPropertyOp35
 70
     1
102
RTVSPropertyOp36
 70
     1
102
RTVSPropertyOp37
 70
     1
102
RTVSPropertyOp38
 70
     1
102
RTVSPropertyOp39
 70
     1
102
RTVSPropertyOp40
 70
     1
102
RTVSPropertyOp41
 70
     1
102
RTVSPropertyOp42
 70
     1
102
RTVSPropertyOp43
 70
     1
102
RTVSPropertyOp44
 70
     1
102
RTVSPropertyOp45
 70
     1
102
RTVSPropertyOp46
 70
     1
102
RTVSPropertyOp47
 70
     1
102
RTVSPropertyOp48
 70
     1
102
RTVSPropertyOp49
 70
     1
102
RTVSPropertyOp50
 70
     1
102
RTVSPropertyOp51
 70
     0
102
RTVSPropertyOp52
 70
     0
102
RTVSPropertyOp53
 70
     1
102
RTVSPropertyOp54
 70
     1
102
RTVSPropertyOp55
 70
     1
102
RTVSPropertyOp56
 70
     1
102
RTVSPropertyOp57
 70
     1
102
RTVSPropertyOp58
 70
     1
102
RTVSPropertyOp59
 70
     1
102
RTVSPropertyOp60
 70
     1
102
RTVSPropertyOp61
 70
     1
102
RTVSPropertyOp62
 70
     1
  0
ENDSEC
  0
EOF
