  0
SECTION
  2
HEADER
  9
$ACADVER
  1
AC1015
  9
$ACADMAINTVER
 70
    20
  9
$DWGCODEPAGE
  3
ANSI_932
  9
$INSBASE
 10
0.0
 20
0.0
 30
0.0
  9
$EXTMIN
 10
10.0
 20
9.999999999999998
 30
0.0
  9
$EXTMAX
 10
555.386328
 20
440.227841
 30
0.0
  9
$LIMMIN
 10
0.0
 20
0.0
  9
$LIMMAX
 10
673.2000000000001
 20
464.1
  9
$ORTHOMODE
 70
     0
  9
$REGENMODE
 70
     1
  9
$FILLMODE
 70
     1
  9
$QTEXTMODE
 70
     0
  9
$MIRRTEXT
 70
     1
  9
$LTSCALE
 40
20.0
  9
$ATTMODE
 70
     1
  9
$TEXTSIZE
 40
5.0
  9
$TRACEWID
 40
1.0
  9
$TEXTSTYLE
  7
STANDARD
  9
$CLAYER
  8
0
  9
$CELTYPE
  6
BYLAYER
  9
$CECOLOR
 62
   256
  9
$CELTSCALE
 40
1.0
  9
$DISPSILH
 70
     0
  9
$DIMSCALE
 40
1.0
  9
$DIMASZ
 40
2.5
  9
$DIMEXO
 40
1.0
  9
$DIMDLI
 40
10.0
  9
$DIMRND
 40
0.0
  9
$DIMDLE
 40
0.0
  9
$DIMEXE
 40
1.0
  9
$DIMTP
 40
0.0
  9
$DIMTM
 40
0.0
  9
$DIMTXT
 40
3.2
  9
$DIMCEN
 40
0.0
  9
$DIMTSZ
 40
0.0
  9
$DIMTOL
 70
     0
  9
$DIMLIM
 70
     0
  9
$DIMTIH
 70
     0
  9
$DIMTOH
 70
     0
  9
$DIMSE1
 70
     0
  9
$DIMSE2
 70
     0
  9
$DIMTAD
 70
     3
  9
$DIMZIN
 70
     8
  9
$DIMBLK
  1

  9
$DIMASO
 70
     1
  9
$DIMSHO
 70
     1
  9
$DIMPOST
  1

  9
$DIMAPOST
  1

  9
$DIMALT
 70
     0
  9
$DIMALTD
 70
     2
  9
$DIMALTF
 40
25.4
  9
$DIMLFAC
 40
1.0
  9
$DIMTOFL
 70
     1
  9
$DIMTVP
 40
0.0
  9
$DIMTIX
 70
     0
  9
$DIMSOXD
 70
     0
  9
$DIMSAH
 70
     1
  9
$DIMBLK1
  1
OPEN
  9
$DIMBLK2
  1
OPEN
  9
$DIMSTYLE
  2
STANDARD
  9
$DIMCLRD
 70
     0
  9
$DIMCLRE
 70
     0
  9
$DIMCLRT
 70
     0
  9
$DIMTFAC
 40
1.0
  9
$DIMGAP
 40
1.0
  9
$DIMJUST
 70
     0
  9
$DIMSD1
 70
     0
  9
$DIMSD2
 70
     0
  9
$DIMTOLJ
 70
     1
  9
$DIMTZIN
 70
     0
  9
$DIMALTZ
 70
     0
  9
$DIMALTTZ
 70
     0
  9
$DIMUPT
 70
     0
  9
$DIMDEC
 70
     4
  9
$DIMTDEC
 70
     4
  9
$DIMALTU
 70
     2
  9
$DIMALTTD
 70
     2
  9
$DIMTXSTY
  7
STANDARD
  9
$DIMAUNIT
 70
     0
  9
$DIMADEC
 70
     0
  9
$DIMALTRND
 40
0.0
  9
$DIMAZIN
 70
     0
  9
$DIMDSEP
 70
    46
  9
$DIMATFIT
 70
     3
  9
$DIMFRAC
 70
     0
  9
$DIMLDRBLK
  1
OPEN
  9
$DIMLUNIT
 70
     2
  9
$DIMLWD
 70
    -2
  9
$DIMLWE
 70
    -2
  9
$DIMTMOVE
 70
     0
  9
$LUNITS
 70
     2
  9
$LUPREC
 70
     4
  9
$SKETCHINC
 40
1.0
  9
$FILLETRAD
 40
1.5
  9
$AUNITS
 70
     0
  9
$AUPREC
 70
     2
  9
$MENU
  1
.
  9
$ELEVATION
 40
0.0
  9
$PELEVATION
 40
0.0
  9
$THICKNESS
 40
0.0
  9
$LIMCHECK
 70
     0
  9
$CHAMFERA
 40
10.0
  9
$CHAMFERB
 40
10.0
  9
$CHAMFERC
 40
0.0
  9
$CHAMFERD
 40
0.0
  9
$SKPOLY
 70
     0
  9
$TDCREATE
 40
2451345.364604167
  9
$TDUCREATE
 40
2451344.989604167
  9
$TDUPDATE
 40
2457618.723460104
  9
$TDUUPDATE
 40
2457618.348460104
  9
$TDINDWG
 40
0.0001481713
  9
$TDUSRTIMER
 40
0.0001476736
  9
$USRTIMER
 70
     1
  9
$ANGBASE
 50
0.0
  9
$ANGDIR
 70
     0
  9
$PDMODE
 70
     0
  9
$PDSIZE
 40
0.0
  9
$PLINEWID
 40
0.0
  9
$SPLFRAME
 70
     0
  9
$SPLINETYPE
 70
     6
  9
$SPLINESEGS
 70
     8
  9
$HANDSEED
  5
A59A
  9
$SURFTAB1
 70
     6
  9
$SURFTAB2
 70
     6
  9
$SURFTYPE
 70
     6
  9
$SURFU
 70
     6
  9
$SURFV
 70
     6
  9
$UCSBASE
  2

  9
$UCSNAME
  2

  9
$UCSORG
 10
0.0
 20
0.0
 30
0.0
  9
$UCSXDIR
 10
1.0
 20
0.0
 30
0.0
  9
$UCSYDIR
 10
0.0
 20
1.0
 30
0.0
  9
$UCSORTHOREF
  2

  9
$UCSORTHOVIEW
 70
     0
  9
$UCSORGTOP
 10
0.0
 20
0.0
 30
0.0
  9
$UCSORGBOTTOM
 10
0.0
 20
0.0
 30
0.0
  9
$UCSORGLEFT
 10
0.0
 20
0.0
 30
0.0
  9
$UCSORGRIGHT
 10
0.0
 20
0.0
 30
0.0
  9
$UCSORGFRONT
 10
0.0
 20
0.0
 30
0.0
  9
$UCSORGBACK
 10
0.0
 20
0.0
 30
0.0
  9
$PUCSBASE
  2

  9
$PUCSNAME
  2

  9
$PUCSORG
 10
0.0
 20
0.0
 30
0.0
  9
$PUCSXDIR
 10
1.0
 20
0.0
 30
0.0
  9
$PUCSYDIR
 10
0.0
 20
1.0
 30
0.0
  9
$PUCSORTHOREF
  2

  9
$PUCSORTHOVIEW
 70
     0
  9
$PUCSORGTOP
 10
0.0
 20
0.0
 30
0.0
  9
$PUCSORGBOTTOM
 10
0.0
 20
0.0
 30
0.0
  9
$PUCSORGLEFT
 10
0.0
 20
0.0
 30
0.0
  9
$PUCSORGRIGHT
 10
0.0
 20
0.0
 30
0.0
  9
$PUCSORGFRONT
 10
0.0
 20
0.0
 30
0.0
  9
$PUCSORGBACK
 10
0.0
 20
0.0
 30
0.0
  9
$USERI1
 70
     0
  9
$USERI2
 70
     0
  9
$USERI3
 70
     0
  9
$USERI4
 70
     0
  9
$USERI5
 70
     0
  9
$USERR1
 40
0.0
  9
$USERR2
 40
0.0
  9
$USERR3
 40
0.0
  9
$USERR4
 40
0.0
  9
$USERR5
 40
0.0
  9
$WORLDVIEW
 70
     1
  9
$SHADEDGE
 70
     3
  9
$SHADEDIF
 70
    70
  9
$TILEMODE
 70
     1
  9
$MAXACTVP
 70
    16
  9
$PINSBASE
 10
0.0
 20
0.0
 30
0.0
  9
$PLIMCHECK
 70
     0
  9
$PEXTMIN
 10
1.000000000000000E+20
 20
1.000000000000000E+20
 30
1.000000000000000E+20
  9
$PEXTMAX
 10
-1.000000000000000E+20
 20
-1.000000000000000E+20
 30
-1.000000000000000E+20
  9
$PLIMMIN
 10
0.0
 20
0.0
  9
$PLIMMAX
 10
420.0
 20
297.0
  9
$UNITMODE
 70
     0
  9
$VISRETAIN
 70
     0
  9
$PLINEGEN
 70
     0
  9
$PSLTSCALE
 70
     0
  9
$TREEDEPTH
 70
  3020
  9
$CMLSTYLE
  2
STANDARD
  9
$CMLJUST
 70
     0
  9
$CMLSCALE
 40
1.0
  9
$PROXYGRAPHICS
 70
     1
  9
$MEASUREMENT
 70
     0
  9
$CELWEIGHT
370
    -1
  9
$ENDCAPS
280
     0
  9
$JOINSTYLE
280
     0
  9
$LWDISPLAY
290
     0
  9
$INSUNITS
 70
     0
  9
$HYPERLINKBASE
  1

  9
$STYLESHEET
  1

  9
$XEDIT
290
     1
  9
$CEPSNTYPE
380
     0
  9
$PSTYLEMODE
290
     1
  9
$FINGERPRINTGUID
  2
{3B6C595C-1DAB-43CA-AB3B-10E18029115D}
  9
$VERSIONGUID
  2
{CA279102-BEFB-4E24-A328-02B790D6FBF3}
  9
$EXTNAMES
290
     1
  9
$PSVPSCALE
 40
0.0
  9
$OLESTARTUP
290
     0
  0
ENDSEC
  0
SECTION
  2
CLASSES
  0
CLASS
  1
ACDBDICTIONARYWDFLT
  2
AcDbDictionaryWithDefault
  3
ObjectDBX Classes
 90
        0
280
     0
281
     0
  0
CLASS
  1
ACDBPLACEHOLDER
  2
AcDbPlaceHolder
  3
ObjectDBX Classes
 90
        0
280
     0
281
     0
  0
CLASS
  1
LAYOUT
  2
AcDbLayout
  3
ObjectDBX Classes
 90
        0
280
     0
281
     0
  0
CLASS
  1
DICTIONARYVAR
  2
AcDbDictionaryVar
  3
ObjectDBX Classes
 90
        0
280
     0
281
     0
  0
CLASS
  1
MATERIAL
  2
AcDbMaterial
  3
ObjectDBX Classes
 90
     1153
280
     0
281
     0
  0
CLASS
  1
VISUALSTYLE
  2
AcDbVisualStyle
  3
ObjectDBX Classes
 90
     4095
280
     0
281
     0
  0
CLASS
  1
TABLESTYLE
  2
AcDbTableStyle
  3
ObjectDBX Classes
 90
     4095
280
     0
281
     0
  0
CLASS
  1
SCALE
  2
AcDbScale
  3
ObjectDBX Classes
 90
     1153
280
     0
281
     0
  0
CLASS
  1
MLEADERSTYLE
  2
AcDbMLeaderStyle
  3
ACDB_MLEADERSTYLE_CLASS
 90
     4095
280
     0
281
     0
  0
CLASS
  1
ACDBSECTIONVIEWSTYLE
  2
AcDbSectionViewStyle
  3
ObjectDBX Classes
 90
     1025
280
     0
281
     0
  0
CLASS
  1
ACDBDETAILVIEWSTYLE
  2
AcDbDetailViewStyle
  3
ObjectDBX Classes
 90
     1025
280
     0
281
     0
  0
CLASS
  1
CELLSTYLEMAP
  2
AcDbCellStyleMap
  3
ObjectDBX Classes
 90
     1152
280
     0
281
     0
  0
ENDSEC
  0
SECTION
  2
TABLES
  0
TABLE
  2
VPORT
  5
A1AE
330
0
100
AcDbSymbolTable
 70
     1
  0
VPORT
  5
A4E3
330
A1AE
100
AcDbSymbolTableRecord
100
AcDbViewportTableRecord
  2
*ACTIVE
 70
     0
 10
0.0
 20
0.0
 11
1.0
 21
1.0
 12
460.3466007652005
 22
225.1100291486596
 13
0.0
 23
0.0
 14
10.0
 24
10.0
 15
10.0
 25
10.0
 16
0.0
 26
0.0
 36
1.0
 17
0.0
 27
0.0
 37
0.0
 40
435.1145199916194
 41
2.567642956764295
 42
50.0
 43
0.0
 44
0.0
 50
0.0
 51
0.0
 71
     0
 72
   100
 73
     1
 74
     0
 75
     0
 76
     0
 77
     0
 78
     0
281
     0
 65
     1
110
0.0
120
0.0
130
0.0
111
1.0
121
0.0
131
0.0
112
0.0
122
1.0
132
0.0
 79
     0
146
0.0
1001
ACAD_NAV_VCDISPLAY
1070
     3
  0
ENDTAB
  0
TABLE
  2
LTYPE
  5
A1AB
330
0
100
AcDbSymbolTable
 70
     4
  0
LTYPE
  5
A1B9
330
A1AB
100
AcDbSymbolTableRecord
100
AcDbLinetypeTableRecord
  2
BYBLOCK
 70
     0
  3

 72
    65
 73
     0
 40
0.0
  0
LTYPE
  5
A1BA
330
A1AB
100
AcDbSymbolTableRecord
100
AcDbLinetypeTableRecord
  2
BYLAYER
 70
     0
  3

 72
    65
 73
     0
 40
0.0
  0
LTYPE
  5
A1BB
330
A1AB
100
AcDbSymbolTableRecord
100
AcDbLinetypeTableRecord
  2
CONTINUOUS
 70
     0
  3
Solid line
 72
    65
 73
     0
 40
0.0
  0
LTYPE
  5
A1C9
330
A1AB
100
AcDbSymbolTableRecord
100
AcDbLinetypeTableRecord
  2
DASHED
 70
     0
  3
__ __ __ __ __ __ __ __ __ __ __ __ __ __ __ __
 72
    65
 73
     2
 40
0.75
 49
0.5
 74
     0
 49
-0.25
 74
     0
  0
LTYPE
  5
A1CA
330
A1AB
100
AcDbSymbolTableRecord
100
AcDbLinetypeTableRecord
  2
CENTER
 70
     0
  3
____ _ ____ _ ____ _ ____ _ ____ _ ____ _ ____ 
 72
    65
 73
     4
 40
2.0
 49
1.25
 74
     0
 49
-0.25
 74
     0
 49
0.25
 74
     0
 49
-0.25
 74
     0
  0
LTYPE
  5
A1CB
330
A1AB
100
AcDbSymbolTableRecord
100
AcDbLinetypeTableRecord
  2
PHANTOM
 70
     0
  3
______  __  __  ______  __  __  ______  __  __ 
 72
    65
 73
     6
 40
2.5
 49
1.25
 74
     0
 49
-0.25
 74
     0
 49
0.25
 74
     0
 49
-0.25
 74
     0
 49
0.25
 74
     0
 49
-0.25
 74
     0
  0
ENDTAB
  0
TABLE
  2
LAYER
  5
A1A8
330
0
100
AcDbSymbolTable
 70
     8
  0
LAYER
  5
A1B6
102
{ACAD_XDICTIONARY
360
A53E
102
}
330
A1A8
100
AcDbSymbolTableRecord
100
AcDbLayerTableRecord
  2
0
 70
     0
 62
     7
  6
CONTINUOUS
370
    -3
390
A4EC
  0
LAYER
  5
A1CC
102
{ACAD_XDICTIONARY
360
A540
102
}
330
A1A8
100
AcDbSymbolTableRecord
100
AcDbLayerTableRecord
  2
4
 70
     0
 62
     1
  6
CENTER
370
    -3
390
A4EC
  0
LAYER
  5
A1CD
102
{ACAD_XDICTIONARY
360
A542
102
}
330
A1A8
100
AcDbSymbolTableRecord
100
AcDbLayerTableRecord
  2
5
 70
     0
 62
     6
  6
PHANTOM
370
    -3
390
A4EC
  0
LAYER
  5
A1CE
102
{ACAD_XDICTIONARY
360
A544
102
}
330
A1A8
100
AcDbSymbolTableRecord
100
AcDbLayerTableRecord
  2
1
 70
     0
 62
     7
  6
CONTINUOUS
370
    -3
390
A4EC
  0
LAYER
  5
A1CF
102
{ACAD_XDICTIONARY
360
A546
102
}
330
A1A8
100
AcDbSymbolTableRecord
100
AcDbLayerTableRecord
  2
2
 70
     0
 62
     4
  6
CONTINUOUS
370
    -3
390
A4EC
  0
LAYER
  5
A1D0
102
{ACAD_XDICTIONARY
360
A548
102
}
330
A1A8
100
AcDbSymbolTableRecord
100
AcDbLayerTableRecord
  2
3
 70
     0
 62
     2
  6
DASHED
370
    -3
390
A4EC
  0
LAYER
  5
A1D1
102
{ACAD_XDICTIONARY
360
A54A
102
}
330
A1A8
100
AcDbSymbolTableRecord
100
AcDbLayerTableRecord
  2
6
 70
     0
 62
     5
  6
CONTINUOUS
370
    -3
390
A4EC
  0
LAYER
  5
A1D2
102
{ACAD_XDICTIONARY
360
A54C
102
}
330
A1A8
100
AcDbSymbolTableRecord
100
AcDbLayerTableRecord
  2
7
 70
     0
 62
     3
  6
CONTINUOUS
370
    -3
390
A4EC
  0
ENDTAB
  0
TABLE
  2
STYLE
  5
A1A9
330
0
100
AcDbSymbolTable
 70
     1
  0
STYLE
  5
A1B7
330
A1A9
100
AcDbSymbolTableRecord
100
AcDbTextStyleTableRecord
  2
STANDARD
 70
     0
 40
0.0
 41
1.0
 50
0.0
 71
     0
 42
5.0
  3
txt
  4

  0
ENDTAB
  0
TABLE
  2
VIEW
  5
A1AC
330
0
100
AcDbSymbolTable
 70
     0
  0
ENDTAB
  0
TABLE
  2
UCS
  5
A1AD
330
0
100
AcDbSymbolTable
 70
     0
  0
ENDTAB
  0
TABLE
  2
APPID
  5
A1AF
330
0
100
AcDbSymbolTable
 70
     3
  0
APPID
  5
A1B8
330
A1AF
100
AcDbSymbolTableRecord
100
AcDbRegAppTableRecord
  2
ACAD
 70
     0
  0
APPID
  5
A558
330
A1AF
100
AcDbSymbolTableRecord
100
AcDbRegAppTableRecord
  2
ACAD_NAV_VCDISPLAY
 70
     0
  0
APPID
  5
A591
330
A1AF
100
AcDbSymbolTableRecord
100
AcDbRegAppTableRecord
  2
ACAD_MLEADERVER
 70
     0
  0
ENDTAB
  0
TABLE
  2
DIMSTYLE
  5
A1B0
330
0
100
AcDbSymbolTable
 70
     1
100
AcDbDimStyleTable
 71
     0
  0
DIMSTYLE
105
A1D4
330
A1B0
100
AcDbSymbolTableRecord
100
AcDbDimStyleTableRecord
  2
STANDARD
 70
     0
 41
2.5
 42
1.0
 43
10.0
 44
1.0
 73
     0
 74
     0
 77
     3
 78
     8
140
3.2
141
0.0
147
1.0
172
     1
173
     1
284
     8
285
     8
286
     8
340
A1B7
  0
ENDTAB
  0
TABLE
  2
BLOCK_RECORD
  5
A1A7
330
0
100
AcDbSymbolTable
 70
     1
  0
BLOCK_RECORD
  5
A1C4
102
{ACAD_XDICTIONARY
360
A4E6
102
}
330
A1A7
100
AcDbSymbolTableRecord
100
AcDbBlockTableRecord
  2
*MODEL_SPACE
340
A53A
  0
BLOCK_RECORD
  5
A1C0
102
{ACAD_XDICTIONARY
360
A4E4
102
}
330
A1A7
100
AcDbSymbolTableRecord
100
AcDbBlockTableRecord
  2
*PAPER_SPACE
340
A53B
  0
BLOCK_RECORD
  5
A1DC
330
A1A7
100
AcDbSymbolTableRecord
100
AcDbBlockTableRecord
  2
_OPEN
340
0
  0
ENDTAB
  0
ENDSEC
  0
SECTION
  2
BLOCKS
  0
BLOCK
  5
A1C5
330
A1C4
100
AcDbEntity
  8
0
100
AcDbBlockBegin
  2
*MODEL_SPACE
 70
     0
 10
0.0
 20
0.0
 30
0.0
  3
*MODEL_SPACE
  1

  0
ENDBLK
  5
A1C6
330
A1C4
100
AcDbEntity
  8
0
100
AcDbBlockEnd
  0
BLOCK
  5
A1C1
330
A1C0
100
AcDbEntity
 67
     1
  8
0
100
AcDbBlockBegin
  2
*PAPER_SPACE
 70
     0
 10
0.0
 20
0.0
 30
0.0
  3
*PAPER_SPACE
  1

  0
ENDBLK
  5
A1C2
330
A1C0
100
AcDbEntity
 67
     1
  8
0
100
AcDbBlockEnd
  0
BLOCK
  5
A1DD
330
A1DC
100
AcDbEntity
  8
0
100
AcDbBlockBegin
  2
_OPEN
 70
     0
 10
0.0
 20
0.0
 30
0.0
  3
_OPEN
  1

  0
LINE
  5
A1DE
330
A1DC
100
AcDbEntity
  8
0
  6
ByBlock
 62
     0
100
AcDbLine
 10
-1.0
 20
0.166667
 30
0.0
 11
0.0
 21
0.0
 31
0.0
  0
LINE
  5
A1DF
330
A1DC
100
AcDbEntity
  8
0
  6
ByBlock
 62
     0
100
AcDbLine
 10
0.0
 20
0.0
 30
0.0
 11
-1.0
 21
-0.166667
 31
0.0
  0
LINE
  5
A1E0
330
A1DC
100
AcDbEntity
  8
0
  6
ByBlock
 62
     0
100
AcDbLine
 10
0.0
 20
0.0
 30
0.0
 11
-1.0
 21
0.0
 31
0.0
  0
ENDBLK
  5
A1E1
330
A1DC
100
AcDbEntity
  8
0
100
AcDbBlockEnd
  0
ENDSEC
  0
SECTION
  2
ENTITIES
  0
TEXT
  5
A1E2
330
A1C4
100
AcDbEntity
  8
7
  6
Continuous
100
AcDbText
 10
10.0
 20
18.0
 30
0.0
 40
3.0
  1
TYPE No.106G-N-L
100
AcDbText
  0
TEXT
  5
A1E3
330
A1C4
100
AcDbEntity
  8
7
  6
Continuous
100
AcDbText
 10
10.0
 20
26.0
 30
0.0
 40
3.0
  1
CODE No.19108
100
AcDbText
  0
TEXT
  5
A1E4
330
A1C4
100
AcDbEntity
  8
1
  6
Continuous
100
AcDbText
 10
10.0
 20
10.0
 30
0.0
 40
1.399999999999999
  1
LAYER
100
AcDbText
  0
TEXT
  5
A1E5
330
A1C4
100
AcDbEntity
  8
1
  6
Continuous
100
AcDbText
 10
17.97951099999998
 20
10.04873699999998
 30
0.0
 40
1.399999999999999
  1
1
100
AcDbText
  0
TEXT
  5
A1E6
330
A1C4
100
AcDbEntity
  8
7
  6
Continuous
100
AcDbText
 10
29.97951099999999
 20
10.04873699999998
 30
0.0
 40
1.399999999999999
  1
7
100
AcDbText
  0
TEXT
  5
A1E7
330
A1C4
100
AcDbEntity
  8
4
  6
CENTER
100
AcDbText
 10
23.97951099999999
 20
10.04873699999998
 30
0.0
 40
1.399999999999999
  1
4
100
AcDbText
  0
TEXT
  5
A1E8
330
A1C4
100
AcDbEntity
  8
3
  6
DASHED
100
AcDbText
 10
21.979511
 20
10.04873699999998
 30
0.0
 40
1.399999999999999
  1
3
100
AcDbText
  0
TEXT
  5
A1E9
330
A1C4
100
AcDbEntity
  8
2
  6
Continuous
100
AcDbText
 10
19.97951099999999
 20
10.04873699999998
 30
0.0
 40
1.399999999999999
  1
2
100
AcDbText
  0
TEXT
  5
A1EA
330
A1C4
100
AcDbEntity
  8
6
  6
Continuous
100
AcDbText
 10
27.979511
 20
10.04873699999998
 30
0.0
 40
1.399999999999999
  1
6
100
AcDbText
  0
TEXT
  5
A1EB
330
A1C4
100
AcDbEntity
  8
5
  6
PHANTOM
100
AcDbText
 10
25.97951099999999
 20
10.04873699999998
 30
0.0
 40
1.399999999999999
  1
5
100
AcDbText
  0
LINE
  5
A1EC
330
A1C4
100
AcDbEntity
  8
1
  6
Continuous
100
AcDbLine
 10
50.319
 20
196.01193
 30
0.0
 11
50.319
 21
232.497583
 31
0.0
  0
ARC
  5
A1ED
330
A1C4
100
AcDbEntity
  8
1
  6
Continuous
100
AcDbCircle
 10
61.81899999999998
 20
208.310304
 30
0.0
 40
17.0
100
AcDbArc
 50
228.1896849999998
 51
311.8113539999999
  0
ARC
  5
A1EE
330
A1C4
100
AcDbEntity
  8
1
  6
Continuous
100
AcDbCircle
 10
50.819
 20
196.01193
 30
0.0
 40
0.5
100
AcDbArc
 50
180.0
 51
228.1896849999998
  0
LINE
  5
A1EF
330
A1C4
100
AcDbEntity
  8
1
  6
Continuous
100
AcDbLine
 10
46.31899999999999
 20
220.7266349999999
 30
0.0
 11
46.31899999999999
 21
236.4421849999999
 31
0.0
  0
LINE
  5
A1F0
330
A1C4
100
AcDbEntity
  8
1
  6
Continuous
100
AcDbLine
 10
47.231845
 20
219.7304399999999
 30
0.0
 11
50.319
 21
219.4603489999999
 31
0.0
  0
ARC
  5
A1F1
330
A1C4
100
AcDbEntity
  8
1
  6
Continuous
100
AcDbCircle
 10
47.31899999999998
 20
220.7266349999999
 30
0.0
 40
1.0
100
AcDbArc
 50
180.0
 51
265.0
  0
LINE
  5
A1F2
330
A1C4
100
AcDbEntity
  8
1
  6
Continuous
100
AcDbLine
 10
45.819
 20
232.810304
 30
0.0
 11
46.31899999999999
 21
232.810304
 31
0.0
  0
LINE
  5
A1F3
330
A1C4
100
AcDbEntity
  8
1
  6
Continuous
100
AcDbLine
 10
45.819
 20
224.810304
 30
0.0
 11
46.31899999999999
 21
224.810304
 31
0.0
  0
LINE
  5
A1F4
330
A1C4
100
AcDbEntity
  8
1
  6
Continuous
100
AcDbLine
 10
77.819
 20
232.810304
 30
0.0
 11
77.319
 21
232.810304
 31
0.0
  0
LINE
  5
A1F5
330
A1C4
100
AcDbEntity
  8
1
  6
Continuous
100
AcDbLine
 10
77.819
 20
224.810304
 30
0.0
 11
77.319
 21
224.810304
 31
0.0
  0
LINE
  5
A1F6
330
A1C4
100
AcDbEntity
  8
1
  6
Continuous
100
AcDbLine
 10
73.319
 20
196.01193
 30
0.0
 11
73.319
 21
232.497583
 31
0.0
  0
ARC
  5
A1F7
330
A1C4
100
AcDbEntity
  8
1
  6
Continuous
100
AcDbCircle
 10
72.819
 20
196.01193
 30
0.0
 40
0.5
100
AcDbArc
 50
311.810315
 51
0.0
  0
LINE
  5
A1F8
330
A1C4
100
AcDbEntity
  8
1
  6
Continuous
100
AcDbLine
 10
77.319
 20
220.7266349999999
 30
0.0
 11
77.319
 21
236.4421849999999
 31
0.0
  0
LINE
  5
A1F9
330
A1C4
100
AcDbEntity
  8
1
  6
Continuous
100
AcDbLine
 10
76.40615600000002
 20
219.7304399999999
 30
0.0
 11
73.319
 21
219.4603489999999
 31
0.0
  0
ARC
  5
A1FA
330
A1C4
100
AcDbEntity
  8
1
  6
Continuous
100
AcDbCircle
 10
76.319
 20
220.7266349999999
 30
0.0
 40
1.0
100
AcDbArc
 50
275.0
 51
0.0
  0
ARC
  5
A1FB
330
A1C4
100
AcDbEntity
  8
1
  6
Continuous
100
AcDbCircle
 10
250.079127
 20
279.357433
 30
0.0
 40
0.9569799999999998
100
AcDbArc
 50
24.04026499999999
 51
73.98808699999998
  0
LINE
  5
A1FC
330
A1C4
100
AcDbEntity
  8
1
  6
Continuous
100
AcDbLine
 10
249.528097
 20
280.277286
 30
0.0
 11
249.358097
 21
280.6372859999999
 31
0.0
  0
ARC
  5
A1FD
330
A1C4
100
AcDbEntity
  8
1
  6
Continuous
100
AcDbCircle
 10
246.741615
 20
281.8275129999999
 30
0.0
 40
4.697225
100
AcDbArc
 50
317.4697509999999
 51
333.713305
  0
LINE
  5
A1FE
330
A1C4
100
AcDbEntity
  8
1
  6
Continuous
100
AcDbLine
 10
250.203097
 20
278.652286
 30
0.0
 11
250.0730969999999
 21
278.2922859999998
 31
0.0
  0
ARC
  5
A1FF
330
A1C4
100
AcDbEntity
  8
1
  6
Continuous
100
AcDbCircle
 10
244.5395159999999
 20
276.726314
 30
0.0
 40
6.206
100
AcDbArc
 50
39.064301
 51
50.46037999999999
  0
ARC
  5
A200
330
A1C4
100
AcDbEntity
  8
1
  6
Continuous
100
AcDbCircle
 10
246.5162639999999
 20
291.424877
 30
0.0
 40
10.63951799999999
100
AcDbArc
 50
296.2885769999999
 51
310.0709029999998
  0
LINE
  5
A201
330
A1C4
100
AcDbEntity
  8
1
  6
Continuous
100
AcDbLine
 10
253.365295
 20
283.283003
 30
0.0
 11
253.404799
 21
283.7103149999999
 31
0.0
  0
LINE
  5
A202
330
A1C4
100
AcDbEntity
  8
1
  6
Continuous
100
AcDbLine
 10
186.1069459999999
 20
286.310289
 30
0.0
 11
260.589846
 21
286.310316
 31
0.0
  0
LINE
  5
A203
330
A1C4
100
AcDbEntity
  8
1
  6
Continuous
100
AcDbLine
 10
260.589846
 20
283.710336
 30
0.0
 11
260.589846
 21
286.310304
 31
0.0
  0
ARC
  5
A204
330
A1C4
100
AcDbEntity
  8
1
  6
Continuous
100
AcDbCircle
 10
249.62914
 20
285.1232889999998
 30
0.0
 40
3.611003999999998
100
AcDbArc
 50
270.0
 51
296.2885769999999
  0
LINE
  5
A205
330
A1C4
100
AcDbEntity
  8
1
  6
Continuous
100
AcDbLine
 10
186.1069459999999
 20
283.710518
 30
0.0
 11
260.589846
 21
283.7103149999999
 31
0.0
  0
LINE
  5
A206
330
A1C4
100
AcDbEntity
  8
1
  6
Continuous
100
AcDbLine
 10
197.1240129999999
 20
283.710333
 30
0.0
 11
194.1240459999999
 21
283.710336
 31
0.0
  0
LINE
  5
A207
330
A1C4
100
AcDbEntity
  8
1
  6
Continuous
100
AcDbLine
 10
250.356946
 20
276.86375
 30
0.0
 11
250.356946
 21
278.2922859999998
 31
0.0
  0
ARC
  5
A208
330
A1C4
100
AcDbEntity
  8
1
  6
Continuous
100
AcDbCircle
 10
204.6347659999999
 20
279.357433
 30
0.0
 40
0.9569799999999998
100
AcDbArc
 50
106.011913
 51
155.9597349999999
  0
LINE
  5
A209
330
A1C4
100
AcDbEntity
  8
1
  6
Continuous
100
AcDbLine
 10
204.3707959999999
 20
280.277286
 30
0.0
 11
250.343097
 21
280.277286
 31
0.0
  0
LINE
  5
A20A
330
A1C4
100
AcDbEntity
  8
1
  6
Continuous
100
AcDbLine
 10
205.1857959999999
 20
280.277286
 30
0.0
 11
205.355796
 21
280.6372859999999
 31
0.0
  0
ARC
  5
A20B
330
A1C4
100
AcDbEntity
  8
1
  6
Continuous
100
AcDbCircle
 10
207.972277
 20
281.8275129999999
 30
0.0
 40
4.697225
100
AcDbArc
 50
206.286695
 51
222.530249
  0
LINE
  5
A20C
330
A1C4
100
AcDbEntity
  8
1
  6
Continuous
100
AcDbLine
 10
204.510796
 20
278.652286
 30
0.0
 11
204.6407959999999
 21
278.2922859999998
 31
0.0
  0
ARC
  5
A20D
330
A1C4
100
AcDbEntity
  8
1
  6
Continuous
100
AcDbCircle
 10
210.174377
 20
276.726314
 30
0.0
 40
6.206
100
AcDbArc
 50
129.5396199999998
 51
140.935699
  0
ARC
  5
A20E
330
A1C4
100
AcDbEntity
  8
1
  6
Continuous
100
AcDbCircle
 10
208.197629
 20
291.424877
 30
0.0
 40
10.63951799999999
100
AcDbArc
 50
229.929097
 51
243.711423
  0
LINE
  5
A20F
330
A1C4
100
AcDbEntity
  8
1
  6
Continuous
100
AcDbLine
 10
201.348598
 20
283.283003
 30
0.0
 11
201.309094
 21
283.7103149999999
 31
0.0
  0
LINE
  5
A210
330
A1C4
100
AcDbEntity
  8
1
  6
Continuous
100
AcDbLine
 10
186.1069459999999
 20
283.710336
 30
0.0
 11
186.1069459999999
 21
286.310289
 31
0.0
  0
ARC
  5
A211
330
A1C4
100
AcDbEntity
  8
1
  6
Continuous
100
AcDbCircle
 10
205.0847529999999
 20
285.1232889999998
 30
0.0
 40
3.611003999999998
100
AcDbArc
 50
243.711423
 51
270.0
  0
LINE
  5
A212
330
A1C4
100
AcDbEntity
  8
1
  6
Continuous
100
AcDbLine
 10
204.356946
 20
276.7270049999999
 30
0.0
 11
204.356946
 21
278.2922859999998
 31
0.0
  0
LINE
  5
A213
330
A1C4
100
AcDbEntity
  8
1
  6
Continuous
100
AcDbLine
 10
204.356946
 20
278.2922859999998
 30
0.0
 11
250.356946
 21
278.2922859999998
 31
0.0
  0
LINE
  5
A214
330
A1C4
100
AcDbEntity
  8
1
  6
Continuous
100
AcDbLine
 10
201.348598
 20
283.283003
 30
0.0
 11
253.365295
 21
283.283003
 31
0.0
  0
LINE
  5
A215
330
A1C4
100
AcDbEntity
  8
1
  6
Continuous
100
AcDbLine
 10
249.62914
 20
281.512285
 30
0.0
 11
205.0847529999999
 21
281.512285
 31
0.0
  0
ARC
  5
A216
330
A1C4
100
AcDbEntity
  8
1
  6
Continuous
100
AcDbCircle
 10
39.09682
 20
279.357433
 30
0.0
 40
0.9569799999999998
100
AcDbArc
 50
106.011913
 51
155.9597349999999
  0
LINE
  5
A217
330
A1C4
100
AcDbEntity
  8
1
  6
Continuous
100
AcDbLine
 10
39.64785
 20
280.277286
 30
0.0
 11
39.81785
 21
280.6372859999999
 31
0.0
  0
ARC
  5
A218
330
A1C4
100
AcDbEntity
  8
1
  6
Continuous
100
AcDbCircle
 10
42.43433099999999
 20
281.8275129999999
 30
0.0
 40
4.697225
100
AcDbArc
 50
206.286695
 51
222.530249
  0
LINE
  5
A219
330
A1C4
100
AcDbEntity
  8
1
  6
Continuous
100
AcDbLine
 10
38.97285
 20
278.652286
 30
0.0
 11
39.10285
 21
278.2922859999998
 31
0.0
  0
ARC
  5
A21A
330
A1C4
100
AcDbEntity
  8
1
  6
Continuous
100
AcDbCircle
 10
44.636431
 20
276.726314
 30
0.0
 40
6.206
100
AcDbArc
 50
129.5396199999998
 51
140.935699
  0
ARC
  5
A21B
330
A1C4
100
AcDbEntity
  8
1
  6
Continuous
100
AcDbCircle
 10
42.65968299999999
 20
291.424877
 30
0.0
 40
10.63951799999999
100
AcDbArc
 50
229.929097
 51
243.711423
  0
LINE
  5
A21C
330
A1C4
100
AcDbEntity
  8
1
  6
Continuous
100
AcDbLine
 10
35.81065199999999
 20
283.283003
 30
0.0
 11
35.77114799999999
 21
283.7103149999999
 31
0.0
  0
LINE
  5
A21D
330
A1C4
100
AcDbEntity
  8
1
  6
Continuous
100
AcDbLine
 10
25.000023
 20
286.310291
 30
0.0
 11
98.63797700000001
 21
286.310317
 31
0.0
  0
ARC
  5
A21E
330
A1C4
100
AcDbEntity
  8
1
  6
Continuous
100
AcDbCircle
 10
39.546807
 20
285.1232889999998
 30
0.0
 40
3.611003999999998
100
AcDbArc
 50
243.711423
 51
270.0
  0
LINE
  5
A21F
330
A1C4
100
AcDbEntity
  8
1
  6
Continuous
100
AcDbLine
 10
25.000023
 20
283.710506
 30
0.0
 11
98.63797700000001
 21
283.7103049999999
 31
0.0
  0
LINE
  5
A220
330
A1C4
100
AcDbEntity
  8
1
  6
Continuous
100
AcDbLine
 10
31.586068
 20
283.710333
 30
0.0
 11
28.5861
 21
283.710336
 31
0.0
  0
LINE
  5
A221
330
A1C4
100
AcDbEntity
  8
1
  6
Continuous
100
AcDbLine
 10
38.819
 20
276.858746
 30
0.0
 11
38.819
 21
278.2922859999998
 31
0.0
  0
ARC
  5
A222
330
A1C4
100
AcDbEntity
  8
1
  6
Continuous
100
AcDbCircle
 10
84.54118099999998
 20
279.357433
 30
0.0
 40
0.9569799999999998
100
AcDbArc
 50
24.04026499999999
 51
73.98808699999998
  0
LINE
  5
A223
330
A1C4
100
AcDbEntity
  8
1
  6
Continuous
100
AcDbLine
 10
84.80515099999998
 20
280.277286
 30
0.0
 11
38.83285
 21
280.277286
 31
0.0
  0
LINE
  5
A224
330
A1C4
100
AcDbEntity
  8
1
  6
Continuous
100
AcDbLine
 10
83.99015099999997
 20
280.277286
 30
0.0
 11
83.82015099999998
 21
280.6372859999999
 31
0.0
  0
ARC
  5
A225
330
A1C4
100
AcDbEntity
  8
1
  6
Continuous
100
AcDbCircle
 10
81.20366999999998
 20
281.8275129999999
 30
0.0
 40
4.697225
100
AcDbArc
 50
317.4697509999999
 51
333.713305
  0
LINE
  5
A226
330
A1C4
100
AcDbEntity
  8
1
  6
Continuous
100
AcDbLine
 10
84.66515099999998
 20
278.652286
 30
0.0
 11
84.535151
 21
278.2922859999998
 31
0.0
  0
ARC
  5
A227
330
A1C4
100
AcDbEntity
  8
1
  6
Continuous
100
AcDbCircle
 10
79.00157
 20
276.726314
 30
0.0
 40
6.206
100
AcDbArc
 50
39.064301
 51
50.46037999999999
  0
ARC
  5
A228
330
A1C4
100
AcDbEntity
  8
1
  6
Continuous
100
AcDbCircle
 10
80.97831799999999
 20
291.424877
 30
0.0
 40
10.63951799999999
100
AcDbArc
 50
296.2885769999999
 51
310.0709029999998
  0
LINE
  5
A229
330
A1C4
100
AcDbEntity
  8
1
  6
Continuous
100
AcDbLine
 10
87.82734899999999
 20
283.283003
 30
0.0
 11
87.866853
 21
283.7103149999999
 31
0.0
  0
ARC
  5
A22A
330
A1C4
100
AcDbEntity
  8
1
  6
Continuous
100
AcDbCircle
 10
84.09119399999999
 20
285.1232889999998
 30
0.0
 40
3.611003999999998
100
AcDbArc
 50
270.0
 51
296.2885769999999
  0
LINE
  5
A22B
330
A1C4
100
AcDbEntity
  8
1
  6
Continuous
100
AcDbLine
 10
84.81900000000001
 20
276.858746
 30
0.0
 11
84.81900000000001
 21
278.2922859999998
 31
0.0
  0
LINE
  5
A22C
330
A1C4
100
AcDbEntity
  8
1
  6
Continuous
100
AcDbLine
 10
84.81900000000001
 20
278.2922859999998
 30
0.0
 11
38.819
 21
278.2922859999998
 31
0.0
  0
LINE
  5
A22D
330
A1C4
100
AcDbEntity
  8
1
  6
Continuous
100
AcDbLine
 10
87.82734899999999
 20
283.283003
 30
0.0
 11
35.81065199999999
 21
283.283003
 31
0.0
  0
LINE
  5
A22E
330
A1C4
100
AcDbEntity
  8
1
  6
Continuous
100
AcDbLine
 10
39.546807
 20
281.512285
 30
0.0
 11
84.09119399999999
 21
281.512285
 31
0.0
  0
CIRCLE
  5
A22F
330
A1C4
100
AcDbEntity
  8
1
  6
Continuous
100
AcDbCircle
 10
227.356946
 20
399.801631
 30
0.0
 40
11.72806699999999
  0
CIRCLE
  5
A230
330
A1C4
100
AcDbEntity
  8
1
  6
Continuous
100
AcDbCircle
 10
227.356946
 20
399.801631
 30
0.0
 40
11.98217499999998
  0
ARC
  5
A231
330
A1C4
100
AcDbEntity
  8
1
  6
Continuous
100
AcDbCircle
 10
244.3569459999999
 20
370.3567679999999
 30
0.0
 40
7.25
100
AcDbArc
 50
273.9311629999999
 51
326.068837
  0
ARC
  5
A232
330
A1C4
100
AcDbEntity
  8
1
  6
Continuous
100
AcDbCircle
 10
244.3569459999999
 20
429.246495
 30
0.0
 40
7.25
100
AcDbArc
 50
33.93116299999999
 51
86.06883700000002
  0
ARC
  5
A233
330
A1C4
100
AcDbEntity
  8
1
  6
Continuous
100
AcDbCircle
 10
193.356946
 20
399.801631
 30
0.0
 40
7.25
100
AcDbArc
 50
153.931163
 51
206.068837
  0
ARC
  5
A234
330
A1C4
100
AcDbEntity
  8
1
  6
Continuous
100
AcDbCircle
 10
240.7405149999999
 20
376.6206079999999
 30
0.0
 40
60.0
100
AcDbArc
 50
86.06883700000002
 51
153.931163
  0
ARC
  5
A235
330
A1C4
100
AcDbEntity
  8
1
  6
Continuous
100
AcDbCircle
 10
240.7405149999999
 20
422.982654
 30
0.0
 40
60.0
100
AcDbArc
 50
206.068837
 51
273.9311629999999
  0
ARC
  5
A236
330
A1C4
100
AcDbEntity
  8
1
  6
Continuous
100
AcDbCircle
 10
200.589806
 20
399.801631
 30
0.0
 40
60.0
100
AcDbArc
 50
326.068837
 51
33.93116299999999
  0
CIRCLE
  5
A237
330
A1C4
100
AcDbEntity
  8
1
  6
Continuous
100
AcDbCircle
 10
193.356946
 20
399.801631
 30
0.0
 40
3.5
  0
CIRCLE
  5
A238
330
A1C4
100
AcDbEntity
  8
1
  6
Continuous
100
AcDbCircle
 10
244.3569459999999
 20
370.3567679999999
 30
0.0
 40
3.5
  0
CIRCLE
  5
A239
330
A1C4
100
AcDbEntity
  8
1
  6
Continuous
100
AcDbCircle
 10
244.3569459999999
 20
429.246495
 30
0.0
 40
3.5
  0
CIRCLE
  5
A23A
330
A1C4
100
AcDbEntity
  8
1
  6
Continuous
100
AcDbCircle
 10
227.356946
 20
399.801631
 30
0.0
 40
23.524845
  0
CIRCLE
  5
A23B
330
A1C4
100
AcDbEntity
  8
1
  6
Continuous
100
AcDbCircle
 10
227.356946
 20
399.801631
 30
0.0
 40
21.29342799999999
  0
LINE
  5
A23C
330
A1C4
100
AcDbEntity
  8
1
  6
Continuous
100
AcDbLine
 10
197.3893359999999
 20
418.101631
 30
0.0
 11
176.1447159999999
 21
418.101631
 31
0.0
  0
LINE
  5
A23D
330
A1C4
100
AcDbEntity
  8
1
  6
Continuous
100
AcDbLine
 10
197.3893359999999
 20
381.5016309999998
 30
0.0
 11
176.1447159999999
 21
381.5016309999998
 31
0.0
  0
LINE
  5
A23E
330
A1C4
100
AcDbEntity
  8
1
  6
Continuous
100
AcDbLine
 10
41.23335899999999
 20
234.5603039999998
 30
0.0
 11
43.51899999999999
 21
234.5603039999998
 31
0.0
  0
LINE
  5
A23F
330
A1C4
100
AcDbEntity
  8
1
  6
Continuous
100
AcDbLine
 10
41.23335899999999
 20
223.060304
 30
0.0
 11
43.51899999999999
 21
223.060304
 31
0.0
  0
ARC
  5
A240
330
A1C4
100
AcDbEntity
  8
1
  6
Continuous
100
AcDbCircle
 10
50.019
 20
228.810304
 30
0.0
 40
10.5
100
AcDbArc
 50
146.796177
 51
213.203823
  0
LINE
  5
A241
330
A1C4
100
AcDbEntity
  8
1
  6
Continuous
100
AcDbLine
 10
41.23335899999999
 20
234.5603039999998
 30
0.0
 11
41.23335899999999
 21
223.060304
 31
0.0
  0
ARC
  5
A242
330
A1C4
100
AcDbEntity
  8
1
  6
Continuous
100
AcDbCircle
 10
73.018108
 20
228.810304
 30
0.0
 40
9.100892999999999
100
AcDbArc
 50
327.7973949999998
 51
32.202605
  0
LINE
  5
A243
330
A1C4
100
AcDbEntity
  8
1
  6
Continuous
100
AcDbLine
 10
80.119
 20
233.310304
 30
0.0
 11
80.71899999999997
 21
233.6603039999999
 31
0.0
  0
LINE
  5
A244
330
A1C4
100
AcDbEntity
  8
1
  6
Continuous
100
AcDbLine
 10
80.119
 20
224.310304
 30
0.0
 11
80.71899999999997
 21
223.9603039999999
 31
0.0
  0
LINE
  5
A245
330
A1C4
100
AcDbEntity
  8
1
  6
Continuous
100
AcDbLine
 10
80.71899999999997
 20
223.9603039999999
 30
0.0
 11
80.71899999999997
 21
233.6603039999999
 31
0.0
  0
ARC
  5
A246
330
A1C4
100
AcDbEntity
  8
1
  6
Continuous
100
AcDbCircle
 10
202.356946
 20
228.810304
 30
0.0
 40
37.5
100
AcDbArc
 50
174.3594929999999
 51
55.62094899999999
  0
ARC
  5
A247
330
A1C4
100
AcDbEntity
  8
1
  6
Continuous
100
AcDbCircle
 10
248.6708399999999
 20
273.6487589999999
 30
0.0
 40
3.209964999999998
100
AcDbArc
 50
75.97145299999998
 51
90.17032399999999
  0
ARC
  5
A248
330
A1C4
100
AcDbEntity
  8
1
  6
Continuous
100
AcDbCircle
 10
249.0218159999999
 20
275.053465
 30
0.0
 40
1.762075
100
AcDbArc
 50
60.68578600000001
 51
75.97145299999998
  0
ARC
  5
A249
330
A1C4
100
AcDbEntity
  8
1
  6
Continuous
100
AcDbCircle
 10
248.1227619999999
 20
273.4523009999999
 30
0.0
 40
3.598383
100
AcDbArc
 50
26.3149
 51
60.68578600000001
  0
ARC
  5
A24A
330
A1C4
100
AcDbEntity
  8
1
  6
Continuous
100
AcDbCircle
 10
245.7604169999999
 20
272.283993
 30
0.0
 40
6.233837
100
AcDbArc
 50
356.6725079999998
 51
26.3149
  0
ARC
  5
A24B
330
A1C4
100
AcDbEntity
  8
1
  6
Continuous
100
AcDbCircle
 10
280.2630019999999
 20
270.277975
 30
0.0
 40
28.32701399999999
100
AcDbArc
 50
176.672508
 51
182.090684
  0
ARC
  5
A24C
330
A1C4
100
AcDbEntity
  8
1
  6
Continuous
100
AcDbCircle
 10
250.3146829999999
 20
264.2016889999998
 30
0.0
 40
0.13822
100
AcDbArc
 50
275.4960839999998
 51
323.338345
  0
ARC
  5
A24D
330
A1C4
100
AcDbEntity
  8
1
  6
Continuous
100
AcDbCircle
 10
250.0888709999999
 20
266.548517
 30
0.0
 40
2.495886999999997
100
AcDbArc
 50
264.3720839999999
 51
275.4960839999998
  0
ARC
  5
A24E
330
A1C4
100
AcDbEntity
  8
1
  6
Continuous
100
AcDbCircle
 10
251.817092
 20
268.467208
 30
0.0
 40
4.424412
100
AcDbArc
 50
259.402577
 51
264.869254
  0
LINE
  5
A24F
330
A1C4
100
AcDbEntity
  8
1
  6
Continuous
100
AcDbLine
 10
251.0034109999998
 20
264.11826
 30
0.0
 11
250.42556
 21
264.1191589999999
 31
0.0
  0
ARC
  5
A250
330
A1C4
100
AcDbEntity
  8
1
  6
Continuous
100
AcDbCircle
 10
251.898554
 20
264.2992149999999
 30
0.0
 40
0.178084
100
AcDbArc
 50
273.354322
 51
336.1323069999999
  0
ARC
  5
A251
330
A1C4
100
AcDbEntity
  8
1
  6
Continuous
100
AcDbCircle
 10
252.1277599999999
 20
260.3885669999999
 30
0.0
 40
3.739275
100
AcDbArc
 50
93.35432199999999
 51
100.88842
  0
ARC
  5
A252
330
A1C4
100
AcDbEntity
  8
1
  6
Continuous
100
AcDbCircle
 10
250.819012
 20
264.776874
 30
0.0
 40
1.358578999999999
100
AcDbArc
 50
336.1323069999999
 51
0.068286
  0
ARC
  5
A253
330
A1C4
100
AcDbEntity
  8
1
  6
Continuous
100
AcDbCircle
 10
228.1815089999998
 20
264.7498939999999
 30
0.0
 40
23.99609799999999
100
AcDbArc
 50
0.068286
 51
4.449511
  0
ARC
  5
A254
330
A1C4
100
AcDbEntity
  8
1
  6
Continuous
100
AcDbCircle
 10
315.97755
 20
271.5817529999998
 30
0.0
 40
64.065353
100
AcDbArc
 50
182.090684
 51
184.449511
  0
ARC
  5
A255
330
A1C4
100
AcDbEntity
  8
1
  6
Continuous
100
AcDbCircle
 10
206.3055569999999
 20
273.889244
 30
0.0
 40
2.843541
100
AcDbArc
 50
90.17032399999999
 51
114.226532
  0
ARC
  5
A256
330
A1C4
100
AcDbEntity
  8
1
  6
Continuous
100
AcDbCircle
 10
211.0038879999999
 20
269.5331429999999
 30
0.0
 40
9.331523999999998
100
AcDbArc
 50
140.709509
 51
154.3548279999999
  0
ARC
  5
A257
330
A1C4
100
AcDbEntity
  8
1
  6
Continuous
100
AcDbCircle
 10
206.6700969999998
 20
273.0791089999998
 30
0.0
 40
3.731914999999998
100
AcDbArc
 50
114.226532
 51
140.709509
  0
ARC
  5
A258
330
A1C4
100
AcDbEntity
  8
1
  6
Continuous
100
AcDbCircle
 10
198.940911
 20
287.8179589999998
 30
0.0
 40
15.24998899999999
100
AcDbArc
 50
276.4743549999999
 51
281.122839
  0
ARC
  5
A259
330
A1C4
100
AcDbEntity
  8
1
  6
Continuous
100
AcDbCircle
 10
201.7098799999998
 20
273.734123
 30
0.0
 40
0.896536
100
AcDbArc
 50
281.122839
 51
349.5683899999999
  0
ARC
  5
A25A
330
A1C4
100
AcDbEntity
  8
1
  6
Continuous
100
AcDbCircle
 10
207.430335
 20
213.009554
 30
0.0
 40
60.038574
100
AcDbArc
 50
96.474355
 51
102.7171849999999
  0
ARC
  5
A25B
330
A1C4
100
AcDbEntity
  8
1
  6
Continuous
100
AcDbCircle
 10
206.546863
 20
216.9243509999998
 30
0.0
 40
56.02532599999999
100
AcDbArc
 50
102.7171849999999
 51
115.058367
  0
ARC
  5
A25C
330
A1C4
100
AcDbEntity
  8
1
  6
Continuous
100
AcDbCircle
 10
207.205501
 20
215.515646
 30
0.0
 40
57.5804
100
AcDbArc
 50
115.058367
 51
125.4232989999999
  0
ARC
  5
A25D
330
A1C4
100
AcDbEntity
  8
1
  6
Continuous
100
AcDbCircle
 10
205.5412429999999
 20
217.8554689999999
 30
0.0
 40
54.709072
100
AcDbArc
 50
125.4232989999999
 51
140.7781899999999
  0
ARC
  5
A25E
330
A1C4
100
AcDbEntity
  8
1
  6
Continuous
100
AcDbCircle
 10
174.831285
 20
242.9213719999999
 30
0.0
 40
15.068171
100
AcDbArc
 50
140.7781899999999
 51
157.998479
  0
ARC
  5
A25F
330
A1C4
100
AcDbEntity
  8
1
  6
Continuous
100
AcDbCircle
 10
196.57496
 20
234.1356849999999
 30
0.0
 40
38.519731
100
AcDbArc
 50
157.998479
 51
164.191755
  0
LINE
  5
A260
330
A1C4
100
AcDbEntity
  8
1
  6
Continuous
100
AcDbLine
 10
192.606107
 20
225.815323
 30
0.0
 11
184.287294
 21
231.8554029999999
 31
0.0
  0
ARC
  5
A261
330
A1C4
100
AcDbEntity
  8
1
  6
Continuous
100
AcDbCircle
 10
203.112547
 20
229.0038779999999
 30
0.0
 40
10.979625
100
AcDbArc
 50
196.8822929999998
 51
303.094017
  0
ARC
  5
A262
330
A1C4
100
AcDbEntity
  8
1
  6
Continuous
100
AcDbCircle
 10
218.7976949999999
 20
232.1140859999999
 30
0.0
 40
5.020965
100
AcDbArc
 50
303.094017
 51
44.07882999999999
  0
LINE
  5
A263
330
A1C4
100
AcDbEntity
  8
1
  6
Continuous
100
AcDbLine
 10
221.539214
 20
227.907644
 30
0.0
 11
209.1075819999999
 21
219.8054139999999
 31
0.0
  0
LINE
  5
A264
330
A1C4
100
AcDbEntity
  8
1
  6
Continuous
100
AcDbLine
 10
159.4892439999999
 20
228.7768269999999
 30
0.0
 11
159.881226
 21
228.7466709999999
 31
0.0
  0
ARC
  5
A265
330
A1C4
100
AcDbEntity
  8
1
  6
Continuous
100
AcDbCircle
 10
159.956632
 20
228.8980049999999
 30
0.0
 40
0.169079
100
AcDbArc
 50
243.5140989999999
 51
303.078709
  0
ARC
  5
A266
330
A1C4
100
AcDbEntity
  8
1
  6
Continuous
100
AcDbCircle
 10
159.358453
 20
227.0767429999999
 30
0.0
 40
1.705108
100
AcDbArc
 50
85.60076200000002
 51
104.0411809999999
  0
ARC
  5
A267
330
A1C4
100
AcDbEntity
  8
1
  6
Continuous
100
AcDbCircle
 10
150.7583929999999
 20
229.8113999999999
 30
0.0
 40
7.121210999999997
100
AcDbArc
 50
355.060109
 51
359.4156909999999
  0
ARC
  5
A268
330
A1C4
100
AcDbEntity
  8
1
  6
Continuous
100
AcDbCircle
 10
160.1159089999999
 20
229.002614
 30
0.0
 40
2.271192999999998
100
AcDbArc
 50
175.060109
 51
182.592632
  0
ARC
  5
A269
330
A1C4
100
AcDbEntity
  8
1
  6
Continuous
100
AcDbCircle
 10
162.363052
 20
229.69305
 30
0.0
 40
4.484051999999998
100
AcDbArc
 50
170.1575349999998
 51
179.4156909999999
  0
ARC
  5
A26A
330
A1C4
100
AcDbEntity
  8
1
  6
Continuous
100
AcDbCircle
 10
112.4198709999999
 20
238.3578599999999
 30
0.0
 40
46.20519999999999
100
AcDbArc
 50
350.1575349999998
 51
353.850769
  0
ARC
  5
A26B
330
A1C4
100
AcDbEntity
  8
1
  6
Continuous
100
AcDbCircle
 10
184.5336659999999
 20
237.5449
 30
0.0
 40
26.00512
100
AcDbArc
 50
164.191755
 51
180.8728549999999
  0
ARC
  5
A26C
330
A1C4
100
AcDbEntity
  8
1
  6
Continuous
100
AcDbCircle
 10
127.9649929999998
 20
236.6830549999999
 30
0.0
 40
30.570118
100
AcDbArc
 50
353.850769
 51
0.8728549999999996
  0
ARC
  5
A26D
330
A1C4
100
AcDbEntity
  8
1
  6
Continuous
100
AcDbCircle
 10
158.5099429999999
 20
226.3631859999999
 30
0.0
 40
2.407313999999999
100
AcDbArc
 50
79.59391700000002
 51
89.77983599999998
  0
ARC
  5
A26E
330
A1C4
100
AcDbEntity
  8
1
  6
Continuous
100
AcDbCircle
 10
158.284997
 20
229.9609059999999
 30
0.0
 40
1.213241999999999
100
AcDbArc
 50
252.55061
 51
281.129862
  0
ARC
  5
A26F
330
A1C4
100
AcDbEntity
  8
1
  6
Continuous
100
AcDbCircle
 10
157.9529949999999
 20
228.9046759999999
 30
0.0
 40
0.106062
100
AcDbArc
 50
182.592632
 51
252.55061
  0
ARC
  5
A270
330
A1C4
100
AcDbEntity
  8
1
  6
Continuous
100
AcDbCircle
 10
157.0025349999999
 20
234.586167
 30
0.0
 40
6.577622999999999
100
AcDbArc
 50
297.5901499999998
 51
306.3729729999999
  0
LINE
  5
A271
330
A1C4
100
AcDbEntity
  8
1
  6
Continuous
100
AcDbLine
 10
176.133172
 20
236.41809
 30
0.0
 11
178.9026039999999
 21
235.2737529999999
 31
0.0
  0
ARC
  5
A272
330
A1C4
100
AcDbEntity
  8
1
  6
Continuous
100
AcDbCircle
 10
154.229794
 20
190.4581489999999
 30
0.0
 40
51.158439
100
AcDbArc
 50
54.01754700000001
 51
61.16543100000001
  0
ARC
  5
A273
330
A1C4
100
AcDbEntity
  8
1
  6
Continuous
100
AcDbCircle
 10
172.407862
 20
227.4023939999999
 30
0.0
 40
9.755034999999999
100
AcDbArc
 50
67.549451
 51
93.21474100000001
  0
ARC
  5
A274
330
A1C4
100
AcDbEntity
  8
1
  6
Continuous
100
AcDbCircle
 10
172.045959
 20
233.8457479999999
 30
0.0
 40
3.301526
100
AcDbArc
 50
93.21474100000001
 51
147.940395
  0
ARC
  5
A275
330
A1C4
100
AcDbEntity
  8
1
  6
Continuous
100
AcDbCircle
 10
137.709111
 20
273.9872009999999
 30
0.0
 40
49.683118
100
AcDbArc
 50
302.466846
 51
309.4051129999999
  0
ARC
  5
A276
330
A1C4
100
AcDbEntity
  8
1
  6
Continuous
100
AcDbCircle
 10
127.59475
 20
274.5133339999998
 30
0.0
 40
56.16589199999999
100
AcDbArc
 50
306.3729729999999
 51
310.9144799999999
  0
LINE
  5
A277
330
A1C4
100
AcDbEntity
  8
1
  6
Continuous
100
AcDbLine
 10
222.4046729999999
 20
235.606908
 30
0.0
 11
214.177438
 21
244.1030339999998
 31
0.0
  0
ARC
  5
A278
330
A1C4
100
AcDbEntity
  8
1
  6
Continuous
100
AcDbCircle
 10
221.77796
 20
251.4630079999998
 30
0.0
 40
10.580035
100
AcDbArc
 50
181.7575219999999
 51
224.07883
  0
ARC
  5
A279
330
A1C4
100
AcDbEntity
  8
1
  6
Continuous
100
AcDbCircle
 10
212.640822
 20
255.246191
 30
0.0
 40
0.799962
100
AcDbArc
 50
265.547389
 51
309.3967989999999
  0
ARC
  5
A27A
330
A1C4
100
AcDbEntity
  8
1
  6
Continuous
100
AcDbCircle
 10
215.551729
 20
251.2719609999999
 30
0.0
 40
4.350874
100
AcDbArc
 50
133.103119
 51
181.7575219999999
  0
LINE
  5
A27B
330
A1C4
100
AcDbEntity
  8
1
  6
Continuous
100
AcDbLine
 10
217.291589
 20
257.785602
 30
0.0
 11
223.538396
 21
259.761861
 31
0.0
  0
ARC
  5
A27C
330
A1C4
100
AcDbEntity
  8
1
  6
Continuous
100
AcDbCircle
 10
214.6939769999999
 20
257.534403
 30
0.0
 40
0.8723139999999999
100
AcDbArc
 50
271.515072
 51
302.214221
  0
ARC
  5
A27D
330
A1C4
100
AcDbEntity
  8
1
  6
Continuous
100
AcDbCircle
 10
218.137979
 20
253.303241
 30
0.0
 40
4.794446999999999
100
AcDbArc
 50
135.5221149999999
 51
152.053524
  0
ARC
  5
A27E
330
A1C4
100
AcDbEntity
  8
1
  6
Continuous
100
AcDbCircle
 10
211.224098
 20
256.9711369999998
 30
0.0
 40
3.032124
100
AcDbArc
 50
309.3967989999999
 51
332.0535239999998
  0
ARC
  5
A27F
330
A1C4
100
AcDbEntity
  8
1
  6
Continuous
100
AcDbCircle
 10
220.070718
 20
249.000981
 30
0.0
 40
9.213746999999999
100
AcDbArc
 50
107.5554429999999
 51
122.214221
  0
ARC
  5
A280
330
A1C4
100
AcDbEntity
  8
1
  6
Continuous
100
AcDbCircle
 10
246.081806
 20
188.5038099999999
 30
0.0
 40
74.73898100000003
100
AcDbArc
 50
103.9155969999999
 51
107.5554429999999
  0
LINE
  5
A281
330
A1C4
100
AcDbEntity
  8
1
  6
Continuous
100
AcDbLine
 10
231.555452
 20
261.3205929999999
 30
0.0
 11
234.87469
 21
261.8009349999999
 31
0.0
  0
ARC
  5
A282
330
A1C4
100
AcDbEntity
  8
1
  6
Continuous
100
AcDbCircle
 10
227.7534699999999
 20
287.592869
 30
0.0
 40
26.54595200000001
100
AcDbArc
 50
270.764491
 51
278.234372
  0
ARC
  5
A283
330
A1C4
100
AcDbEntity
  8
1
  6
Continuous
100
AcDbCircle
 10
251.418395
 20
201.4412049999999
 30
0.0
 40
62.58587099999999
100
AcDbArc
 50
99.124207
 51
105.3275079999999
  0
ARC
  5
A284
330
A1C4
100
AcDbEntity
  8
1
  6
Continuous
100
AcDbCircle
 10
249.0459899999999
 20
262.0566339999999
 30
0.0
 40
1.948857
100
AcDbArc
 50
84.28776899999999
 51
117.5085079999999
  0
ARC
  5
A285
330
A1C4
100
AcDbEntity
  8
1
  6
Continuous
100
AcDbCircle
 10
249.3830009999999
 20
265.4257739999999
 30
0.0
 40
1.437096999999999
100
AcDbArc
 50
264.2877689999999
 51
288.714809
  0
ARC
  5
A286
330
A1C4
100
AcDbEntity
  8
1
  6
Continuous
100
AcDbCircle
 10
248.395526
 20
220.2626819999999
 30
0.0
 40
43.523192
100
AcDbArc
 50
90.32868499999999
 51
99.124207
  0
LINE
  5
A287
330
A1C4
100
AcDbEntity
  8
1
  6
Continuous
100
AcDbLine
 10
250.356946
 20
276.86375
 30
0.0
 11
204.356946
 21
276.7270049999999
 31
0.0
  0
ARC
  5
A288
330
A1C4
100
AcDbEntity
  8
1
  6
Continuous
100
AcDbCircle
 10
40.11899999999999
 20
273.858746
 30
0.0
 40
3.0
100
AcDbArc
 50
90.0
 51
180.0
  0
LINE
  5
A289
330
A1C4
100
AcDbEntity
  8
1
  6
Continuous
100
AcDbLine
 10
84.81900000000001
 20
276.858746
 30
0.0
 11
38.819
 21
276.858746
 31
0.0
  0
LINE
  5
A28A
330
A1C4
100
AcDbEntity
  8
1
  6
Continuous
100
AcDbLine
 10
43.51899999999999
 20
218.024318
 30
0.0
 11
43.51899999999999
 21
268.3114419999999
 31
0.0
  0
LINE
  5
A28B
330
A1C4
100
AcDbEntity
  8
1
  6
Continuous
100
AcDbLine
 10
45.819
 20
218.024318
 30
0.0
 11
45.819
 21
236.933533
 31
0.0
  0
LINE
  5
A28C
330
A1C4
100
AcDbEntity
  8
1
  6
Continuous
100
AcDbLine
 10
45.819
 20
218.024318
 30
0.0
 11
43.51899999999999
 21
218.024318
 31
0.0
  0
ARC
  5
A28D
330
A1C4
100
AcDbEntity
  8
1
  6
Continuous
100
AcDbCircle
 10
45.51899999999998
 20
268.3114419999999
 30
0.0
 40
2.0
100
AcDbArc
 50
108.368528
 51
180.0
  0
ARC
  5
A28E
330
A1C4
100
AcDbEntity
  8
1
  6
Continuous
100
AcDbCircle
 10
61.81899999999998
 20
219.221822
 30
0.0
 40
53.72505
100
AcDbArc
 50
71.631472
 51
108.368528
  0
ARC
  5
A28F
330
A1C4
100
AcDbEntity
  8
1
  6
Continuous
100
AcDbCircle
 10
45.027993
 20
235.6484779999999
 30
0.0
 40
1.508993
100
AcDbArc
 50
36.689844
 51
180.0
  0
ARC
  5
A290
330
A1C4
100
AcDbEntity
  8
1
  6
Continuous
100
AcDbCircle
 10
61.81899999999998
 20
248.1594789999999
 30
0.0
 40
19.43051699999999
100
AcDbArc
 50
216.689844
 51
323.3132959999999
  0
LINE
  5
A291
330
A1C4
100
AcDbEntity
  8
1
  6
Continuous
100
AcDbLine
 10
43.51899999999999
 20
225.8153599999999
 30
0.0
 11
45.819
 21
225.8153599999999
 31
0.0
  0
ARC
  5
A292
330
A1C4
100
AcDbEntity
  8
1
  6
Continuous
100
AcDbCircle
 10
83.51899999999998
 20
273.858746
 30
0.0
 40
3.0
100
AcDbArc
 50
0.0
 51
90.0
  0
LINE
  5
A293
330
A1C4
100
AcDbEntity
  8
1
  6
Continuous
100
AcDbLine
 10
80.119
 20
218.024318
 30
0.0
 11
80.119
 21
268.3114419999999
 31
0.0
  0
LINE
  5
A294
330
A1C4
100
AcDbEntity
  8
1
  6
Continuous
100
AcDbLine
 10
77.819
 20
218.024318
 30
0.0
 11
77.819
 21
236.933533
 31
0.0
  0
LINE
  5
A295
330
A1C4
100
AcDbEntity
  8
1
  6
Continuous
100
AcDbLine
 10
77.819
 20
218.024318
 30
0.0
 11
80.119
 21
218.024318
 31
0.0
  0
ARC
  5
A296
330
A1C4
100
AcDbEntity
  8
1
  6
Continuous
100
AcDbCircle
 10
78.61000699999998
 20
235.6484779999999
 30
0.0
 40
1.508993
100
AcDbArc
 50
0.0
 51
143.310156
  0
LINE
  5
A297
330
A1C4
100
AcDbEntity
  8
1
  6
Continuous
100
AcDbLine
 10
80.119
 20
225.8153599999999
 30
0.0
 11
77.819
 21
225.8153599999999
 31
0.0
  0
ARC
  5
A298
330
A1C4
100
AcDbEntity
  8
1
  6
Continuous
100
AcDbCircle
 10
181.055469
 20
206.072026
 30
0.0
 40
32.5
100
AcDbArc
 50
107.972529
 51
135.5207519999999
  0
ARC
  5
A299
330
A1C4
100
AcDbEntity
  8
1
  6
Continuous
100
AcDbCircle
 10
176.1447159999999
 20
399.801631
 30
0.0
 40
18.3
100
AcDbArc
 50
90.0
 51
270.0
  0
LINE
  5
A29A
330
A1C4
100
AcDbEntity
  8
1
  6
Continuous
100
AcDbLine
 10
210.478697
 20
274.538772
 30
0.0
 11
210.478697
 21
257.366866
 31
0.0
  0
ARC
  5
A29B
330
A1C4
100
AcDbEntity
  8
1
  6
Continuous
100
AcDbCircle
 10
197.2442429999999
 20
254.0764299999999
 30
0.0
 40
20.0
100
AcDbArc
 50
48.568609
 51
74.706439
  0
LINE
  5
A29C
330
A1C4
100
AcDbEntity
  8
1
  6
Continuous
100
AcDbLine
 10
43.91899999999998
 20
269.5114419999999
 30
0.0
 11
43.91899999999998
 21
271.858746
 31
0.0
  0
ARC
  5
A29D
330
A1C4
100
AcDbEntity
  8
1
  6
Continuous
100
AcDbCircle
 10
45.91899999999998
 20
271.858746
 30
0.0
 40
2.0
100
AcDbArc
 50
88.603097
 51
180.0
  0
LINE
  5
A29E
330
A1C4
100
AcDbEntity
  8
1
  6
Continuous
100
AcDbLine
 10
79.71899999999997
 20
269.5114419999999
 30
0.0
 11
79.71899999999997
 21
271.858746
 31
0.0
  0
ARC
  5
A29F
330
A1C4
100
AcDbEntity
  8
1
  6
Continuous
100
AcDbCircle
 10
77.71899999999998
 20
271.858746
 30
0.0
 40
2.0
100
AcDbArc
 50
0.0
 51
91.39690300000003
  0
LINE
  5
A2A0
330
A1C4
100
AcDbEntity
  8
1
  6
Continuous
100
AcDbLine
 10
228.8494179999999
 20
276.799814
 30
0.0
 11
227.356946
 21
278.2922859999998
 31
0.0
  0
LINE
  5
A2A1
330
A1C4
100
AcDbEntity
  8
1
  6
Continuous
100
AcDbLine
 10
227.4393959999999
 20
276.7956229999999
 30
0.0
 11
225.942733
 21
278.2922859999998
 31
0.0
  0
LINE
  5
A2A2
330
A1C4
100
AcDbEntity
  8
1
  6
Continuous
100
AcDbLine
 10
226.0293739999999
 20
276.791431
 30
0.0
 11
224.528519
 21
278.2922859999998
 31
0.0
  0
LINE
  5
A2A3
330
A1C4
100
AcDbEntity
  8
1
  6
Continuous
100
AcDbLine
 10
224.6193519999999
 20
276.7872389999999
 30
0.0
 11
223.1143059999999
 21
278.2922859999998
 31
0.0
  0
LINE
  5
A2A4
330
A1C4
100
AcDbEntity
  8
1
  6
Continuous
100
AcDbLine
 10
223.2093299999999
 20
276.783048
 30
0.0
 11
221.7000919999999
 21
278.2922859999998
 31
0.0
  0
LINE
  5
A2A5
330
A1C4
100
AcDbEntity
  8
1
  6
Continuous
100
AcDbLine
 10
221.7993089999999
 20
276.778856
 30
0.0
 11
220.285879
 21
278.2922859999998
 31
0.0
  0
LINE
  5
A2A6
330
A1C4
100
AcDbEntity
  8
1
  6
Continuous
100
AcDbLine
 10
220.389287
 20
276.7746649999998
 30
0.0
 11
218.8716649999999
 21
278.2922859999998
 31
0.0
  0
LINE
  5
A2A7
330
A1C4
100
AcDbEntity
  8
1
  6
Continuous
100
AcDbLine
 10
218.979265
 20
276.7704729999999
 30
0.0
 11
217.4574509999999
 21
278.2922859999998
 31
0.0
  0
LINE
  5
A2A8
330
A1C4
100
AcDbEntity
  8
1
  6
Continuous
100
AcDbLine
 10
217.569243
 20
276.766281
 30
0.0
 11
216.043238
 21
278.2922859999998
 31
0.0
  0
LINE
  5
A2A9
330
A1C4
100
AcDbEntity
  8
1
  6
Continuous
100
AcDbLine
 10
216.159221
 20
276.76209
 30
0.0
 11
214.6290239999999
 21
278.2922859999998
 31
0.0
  0
LINE
  5
A2AA
330
A1C4
100
AcDbEntity
  8
1
  6
Continuous
100
AcDbLine
 10
214.749199
 20
276.757898
 30
0.0
 11
213.214811
 21
278.2922859999998
 31
0.0
  0
LINE
  5
A2AB
330
A1C4
100
AcDbEntity
  8
1
  6
Continuous
100
AcDbLine
 10
213.339177
 20
276.753706
 30
0.0
 11
211.800597
 21
278.2922859999998
 31
0.0
  0
LINE
  5
A2AC
330
A1C4
100
AcDbEntity
  8
1
  6
Continuous
100
AcDbLine
 10
211.9291549999998
 20
276.7495149999999
 30
0.0
 11
210.3863839999999
 21
278.2922859999998
 31
0.0
  0
LINE
  5
A2AD
330
A1C4
100
AcDbEntity
  8
1
  6
Continuous
100
AcDbLine
 10
210.519133
 20
276.745323
 30
0.0
 11
208.97217
 21
278.2922859999998
 31
0.0
  0
LINE
  5
A2AE
330
A1C4
100
AcDbEntity
  8
1
  6
Continuous
100
AcDbLine
 10
209.109111
 20
276.7411319999999
 30
0.0
 11
207.5579569999999
 21
278.2922859999998
 31
0.0
  0
LINE
  5
A2AF
330
A1C4
100
AcDbEntity
  8
1
  6
Continuous
100
AcDbLine
 10
207.6990889999999
 20
276.73694
 30
0.0
 11
206.143743
 21
278.2922859999998
 31
0.0
  0
LINE
  5
A2B0
330
A1C4
100
AcDbEntity
  8
1
  6
Continuous
100
AcDbLine
 10
206.2890669999999
 20
276.732748
 30
0.0
 11
204.729529
 21
278.2922859999998
 31
0.0
  0
LINE
  5
A2B1
330
A1C4
100
AcDbEntity
  8
1
  6
Continuous
100
AcDbLine
 10
204.356946
 20
277.250655
 30
0.0
 11
204.8790449999999
 21
276.7285569999998
 31
0.0
  0
LINE
  5
A2B2
330
A1C4
100
AcDbEntity
  8
1
  6
Continuous
100
AcDbLine
 10
230.2594399999999
 20
276.804006
 30
0.0
 11
228.77116
 21
278.2922859999998
 31
0.0
  0
LINE
  5
A2B3
330
A1C4
100
AcDbEntity
  8
1
  6
Continuous
100
AcDbLine
 10
231.669462
 20
276.808197
 30
0.0
 11
230.185374
 21
278.2922859999998
 31
0.0
  0
LINE
  5
A2B4
330
A1C4
100
AcDbEntity
  8
1
  6
Continuous
100
AcDbLine
 10
233.0794839999998
 20
276.812389
 30
0.0
 11
231.599587
 21
278.2922859999998
 31
0.0
  0
LINE
  5
A2B5
330
A1C4
100
AcDbEntity
  8
1
  6
Continuous
100
AcDbLine
 10
234.489506
 20
276.8165809999999
 30
0.0
 11
233.0138009999998
 21
278.2922859999998
 31
0.0
  0
LINE
  5
A2B6
330
A1C4
100
AcDbEntity
  8
1
  6
Continuous
100
AcDbLine
 10
235.8995279999998
 20
276.8207719999999
 30
0.0
 11
234.4280139999999
 21
278.2922859999998
 31
0.0
  0
LINE
  5
A2B7
330
A1C4
100
AcDbEntity
  8
1
  6
Continuous
100
AcDbLine
 10
237.30955
 20
276.824964
 30
0.0
 11
235.8422279999998
 21
278.2922859999998
 31
0.0
  0
LINE
  5
A2B8
330
A1C4
100
AcDbEntity
  8
1
  6
Continuous
100
AcDbLine
 10
238.719572
 20
276.8291549999998
 30
0.0
 11
237.256441
 21
278.2922859999998
 31
0.0
  0
LINE
  5
A2B9
330
A1C4
100
AcDbEntity
  8
1
  6
Continuous
100
AcDbLine
 10
240.129594
 20
276.8333469999999
 30
0.0
 11
238.6706549999999
 21
278.2922859999998
 31
0.0
  0
LINE
  5
A2BA
330
A1C4
100
AcDbEntity
  8
1
  6
Continuous
100
AcDbLine
 10
241.539616
 20
276.837539
 30
0.0
 11
240.084868
 21
278.2922859999998
 31
0.0
  0
LINE
  5
A2BB
330
A1C4
100
AcDbEntity
  8
1
  6
Continuous
100
AcDbLine
 10
242.9496379999999
 20
276.8417299999999
 30
0.0
 11
241.4990819999999
 21
278.2922859999998
 31
0.0
  0
LINE
  5
A2BC
330
A1C4
100
AcDbEntity
  8
1
  6
Continuous
100
AcDbLine
 10
244.3596599999999
 20
276.8459219999999
 30
0.0
 11
242.913296
 21
278.2922859999998
 31
0.0
  0
LINE
  5
A2BD
330
A1C4
100
AcDbEntity
  8
1
  6
Continuous
100
AcDbLine
 10
245.7696819999999
 20
276.8501129999999
 30
0.0
 11
244.3275089999999
 21
278.2922859999998
 31
0.0
  0
LINE
  5
A2BE
330
A1C4
100
AcDbEntity
  8
1
  6
Continuous
100
AcDbLine
 10
247.1797039999999
 20
276.8543049999999
 30
0.0
 11
245.741723
 21
278.2922859999998
 31
0.0
  0
LINE
  5
A2BF
330
A1C4
100
AcDbEntity
  8
1
  6
Continuous
100
AcDbLine
 10
248.5897259999999
 20
276.858497
 30
0.0
 11
247.155936
 21
278.2922859999998
 31
0.0
  0
LINE
  5
A2C0
330
A1C4
100
AcDbEntity
  8
1
  6
Continuous
100
AcDbLine
 10
249.999748
 20
276.8626879999998
 30
0.0
 11
248.57015
 21
278.2922859999998
 31
0.0
  0
LINE
  5
A2C1
330
A1C4
100
AcDbEntity
  8
1
  6
Continuous
100
AcDbLine
 10
250.356946
 20
277.9197029999999
 30
0.0
 11
249.9843629999999
 21
278.2922859999998
 31
0.0
  0
LINE
  5
A2C2
330
A1C4
100
AcDbEntity
  8
1
  6
Continuous
100
AcDbLine
 10
225.8555749999999
 20
276.7909139999998
 30
0.0
 11
227.356946
 21
278.2922859999998
 31
0.0
  0
LINE
  5
A2C3
330
A1C4
100
AcDbEntity
  8
1
  6
Continuous
100
AcDbLine
 10
227.2740049999999
 20
276.795131
 30
0.0
 11
228.77116
 21
278.2922859999998
 31
0.0
  0
LINE
  5
A2C4
330
A1C4
100
AcDbEntity
  8
1
  6
Continuous
100
AcDbLine
 10
228.692435
 20
276.799348
 30
0.0
 11
230.185374
 21
278.2922859999998
 31
0.0
  0
LINE
  5
A2C5
330
A1C4
100
AcDbEntity
  8
1
  6
Continuous
100
AcDbLine
 10
230.1108649999999
 20
276.8035639999999
 30
0.0
 11
231.599587
 21
278.2922859999998
 31
0.0
  0
LINE
  5
A2C6
330
A1C4
100
AcDbEntity
  8
1
  6
Continuous
100
AcDbLine
 10
231.5292949999999
 20
276.8077809999999
 30
0.0
 11
233.0138009999998
 21
278.2922859999998
 31
0.0
  0
LINE
  5
A2C7
330
A1C4
100
AcDbEntity
  8
1
  6
Continuous
100
AcDbLine
 10
232.947725
 20
276.811997
 30
0.0
 11
234.4280139999999
 21
278.2922859999998
 31
0.0
  0
LINE
  5
A2C8
330
A1C4
100
AcDbEntity
  8
1
  6
Continuous
100
AcDbLine
 10
234.366156
 20
276.816214
 30
0.0
 11
235.8422279999998
 21
278.2922859999998
 31
0.0
  0
LINE
  5
A2C9
330
A1C4
100
AcDbEntity
  8
1
  6
Continuous
100
AcDbLine
 10
235.7845859999999
 20
276.8204309999999
 30
0.0
 11
237.256441
 21
278.2922859999998
 31
0.0
  0
LINE
  5
A2CA
330
A1C4
100
AcDbEntity
  8
1
  6
Continuous
100
AcDbLine
 10
237.2030159999999
 20
276.824647
 30
0.0
 11
238.6706549999999
 21
278.2922859999998
 31
0.0
  0
LINE
  5
A2CB
330
A1C4
100
AcDbEntity
  8
1
  6
Continuous
100
AcDbLine
 10
238.621446
 20
276.828864
 30
0.0
 11
240.084868
 21
278.2922859999998
 31
0.0
  0
LINE
  5
A2CC
330
A1C4
100
AcDbEntity
  8
1
  6
Continuous
100
AcDbLine
 10
240.0398759999999
 20
276.83308
 30
0.0
 11
241.4990819999999
 21
278.2922859999998
 31
0.0
  0
LINE
  5
A2CD
330
A1C4
100
AcDbEntity
  8
1
  6
Continuous
100
AcDbLine
 10
241.458306
 20
276.8372969999999
 30
0.0
 11
242.913296
 21
278.2922859999998
 31
0.0
  0
LINE
  5
A2CE
330
A1C4
100
AcDbEntity
  8
1
  6
Continuous
100
AcDbLine
 10
242.876737
 20
276.841514
 30
0.0
 11
244.3275089999999
 21
278.2922859999998
 31
0.0
  0
LINE
  5
A2CF
330
A1C4
100
AcDbEntity
  8
1
  6
Continuous
100
AcDbLine
 10
244.2951669999999
 20
276.84573
 30
0.0
 11
245.741723
 21
278.2922859999998
 31
0.0
  0
LINE
  5
A2D0
330
A1C4
100
AcDbEntity
  8
1
  6
Continuous
100
AcDbLine
 10
245.7135969999999
 20
276.849947
 30
0.0
 11
247.155936
 21
278.2922859999998
 31
0.0
  0
LINE
  5
A2D1
330
A1C4
100
AcDbEntity
  8
1
  6
Continuous
100
AcDbLine
 10
247.132027
 20
276.8541629999999
 30
0.0
 11
248.57015
 21
278.2922859999998
 31
0.0
  0
LINE
  5
A2D2
330
A1C4
100
AcDbEntity
  8
1
  6
Continuous
100
AcDbLine
 10
248.5504569999999
 20
276.8583799999999
 30
0.0
 11
249.9843629999999
 21
278.2922859999998
 31
0.0
  0
LINE
  5
A2D3
330
A1C4
100
AcDbEntity
  8
1
  6
Continuous
100
AcDbLine
 10
249.968887
 20
276.8625969999998
 30
0.0
 11
250.356946
 21
277.250655
 31
0.0
  0
LINE
  5
A2D4
330
A1C4
100
AcDbEntity
  8
1
  6
Continuous
100
AcDbLine
 10
224.437144
 20
276.7866979999999
 30
0.0
 11
225.942733
 21
278.2922859999998
 31
0.0
  0
LINE
  5
A2D5
330
A1C4
100
AcDbEntity
  8
1
  6
Continuous
100
AcDbLine
 10
223.0187139999999
 20
276.782481
 30
0.0
 11
224.528519
 21
278.2922859999998
 31
0.0
  0
LINE
  5
A2D6
330
A1C4
100
AcDbEntity
  8
1
  6
Continuous
100
AcDbLine
 10
221.6002839999999
 20
276.7782639999999
 30
0.0
 11
223.1143059999999
 21
278.2922859999998
 31
0.0
  0
LINE
  5
A2D7
330
A1C4
100
AcDbEntity
  8
1
  6
Continuous
100
AcDbLine
 10
220.181854
 20
276.774048
 30
0.0
 11
221.7000919999999
 21
278.2922859999998
 31
0.0
  0
LINE
  5
A2D8
330
A1C4
100
AcDbEntity
  8
1
  6
Continuous
100
AcDbLine
 10
218.7634239999999
 20
276.769831
 30
0.0
 11
220.285879
 21
278.2922859999998
 31
0.0
  0
LINE
  5
A2D9
330
A1C4
100
AcDbEntity
  8
1
  6
Continuous
100
AcDbLine
 10
217.3449939999999
 20
276.7656149999999
 30
0.0
 11
218.8716649999999
 21
278.2922859999998
 31
0.0
  0
LINE
  5
A2DA
330
A1C4
100
AcDbEntity
  8
1
  6
Continuous
100
AcDbLine
 10
215.9265629999999
 20
276.7613979999998
 30
0.0
 11
217.4574509999999
 21
278.2922859999998
 31
0.0
  0
LINE
  5
A2DB
330
A1C4
100
AcDbEntity
  8
1
  6
Continuous
100
AcDbLine
 10
214.508133
 20
276.757181
 30
0.0
 11
216.043238
 21
278.2922859999998
 31
0.0
  0
LINE
  5
A2DC
330
A1C4
100
AcDbEntity
  8
1
  6
Continuous
100
AcDbLine
 10
213.0897029999999
 20
276.752965
 30
0.0
 11
214.6290239999999
 21
278.2922859999998
 31
0.0
  0
LINE
  5
A2DD
330
A1C4
100
AcDbEntity
  8
1
  6
Continuous
100
AcDbLine
 10
211.6712729999999
 20
276.7487479999999
 30
0.0
 11
213.214811
 21
278.2922859999998
 31
0.0
  0
LINE
  5
A2DE
330
A1C4
100
AcDbEntity
  8
1
  6
Continuous
100
AcDbLine
 10
210.252843
 20
276.7445319999998
 30
0.0
 11
211.800597
 21
278.2922859999998
 31
0.0
  0
LINE
  5
A2DF
330
A1C4
100
AcDbEntity
  8
1
  6
Continuous
100
AcDbLine
 10
208.8344129999999
 20
276.740315
 30
0.0
 11
210.3863839999999
 21
278.2922859999998
 31
0.0
  0
LINE
  5
A2E0
330
A1C4
100
AcDbEntity
  8
1
  6
Continuous
100
AcDbLine
 10
207.415982
 20
276.7360979999998
 30
0.0
 11
208.97217
 21
278.2922859999998
 31
0.0
  0
LINE
  5
A2E1
330
A1C4
100
AcDbEntity
  8
1
  6
Continuous
100
AcDbLine
 10
205.997552
 20
276.7318819999999
 30
0.0
 11
207.5579569999999
 21
278.2922859999998
 31
0.0
  0
LINE
  5
A2E2
330
A1C4
100
AcDbEntity
  8
1
  6
Continuous
100
AcDbLine
 10
204.5791219999999
 20
276.7276649999999
 30
0.0
 11
206.143743
 21
278.2922859999998
 31
0.0
  0
LINE
  5
A2E3
330
A1C4
100
AcDbEntity
  8
1
  6
Continuous
100
AcDbLine
 10
204.356946
 20
277.9197029999999
 30
0.0
 11
204.729529
 21
278.2922859999998
 31
0.0
  0
LINE
  5
A2E4
330
A1C4
100
AcDbEntity
  8
1
  6
Continuous
100
AcDbLine
 10
60.385461
 20
276.858746
 30
0.0
 11
61.81899999999998
 21
278.2922859999998
 31
0.0
  0
LINE
  5
A2E5
330
A1C4
100
AcDbEntity
  8
1
  6
Continuous
100
AcDbLine
 10
61.79967399999998
 20
276.858746
 30
0.0
 11
63.23321400000001
 21
278.2922859999998
 31
0.0
  0
LINE
  5
A2E6
330
A1C4
100
AcDbEntity
  8
1
  6
Continuous
100
AcDbLine
 10
63.213888
 20
276.858746
 30
0.0
 11
64.647428
 21
278.2922859999998
 31
0.0
  0
LINE
  5
A2E7
330
A1C4
100
AcDbEntity
  8
1
  6
Continuous
100
AcDbLine
 10
64.62810199999998
 20
276.858746
 30
0.0
 11
66.06164099999999
 21
278.2922859999998
 31
0.0
  0
LINE
  5
A2E8
330
A1C4
100
AcDbEntity
  8
1
  6
Continuous
100
AcDbLine
 10
66.042315
 20
276.858746
 30
0.0
 11
67.47585500000001
 21
278.2922859999998
 31
0.0
  0
LINE
  5
A2E9
330
A1C4
100
AcDbEntity
  8
1
  6
Continuous
100
AcDbLine
 10
67.456529
 20
276.858746
 30
0.0
 11
68.890068
 21
278.2922859999998
 31
0.0
  0
LINE
  5
A2EA
330
A1C4
100
AcDbEntity
  8
1
  6
Continuous
100
AcDbLine
 10
68.870742
 20
276.858746
 30
0.0
 11
70.304282
 21
278.2922859999998
 31
0.0
  0
LINE
  5
A2EB
330
A1C4
100
AcDbEntity
  8
1
  6
Continuous
100
AcDbLine
 10
70.28495600000001
 20
276.858746
 30
0.0
 11
71.71849499999997
 21
278.2922859999998
 31
0.0
  0
LINE
  5
A2EC
330
A1C4
100
AcDbEntity
  8
1
  6
Continuous
100
AcDbLine
 10
71.699169
 20
276.858746
 30
0.0
 11
73.13270899999998
 21
278.2922859999998
 31
0.0
  0
LINE
  5
A2ED
330
A1C4
100
AcDbEntity
  8
1
  6
Continuous
100
AcDbLine
 10
73.113383
 20
276.858746
 30
0.0
 11
74.54692299999997
 21
278.2922859999998
 31
0.0
  0
LINE
  5
A2EE
330
A1C4
100
AcDbEntity
  8
1
  6
Continuous
100
AcDbLine
 10
74.527596
 20
276.858746
 30
0.0
 11
75.96113599999998
 21
278.2922859999998
 31
0.0
  0
LINE
  5
A2EF
330
A1C4
100
AcDbEntity
  8
1
  6
Continuous
100
AcDbLine
 10
75.94181
 20
276.858746
 30
0.0
 11
77.37534999999998
 21
278.2922859999998
 31
0.0
  0
LINE
  5
A2F0
330
A1C4
100
AcDbEntity
  8
1
  6
Continuous
100
AcDbLine
 10
77.35602400000002
 20
276.858746
 30
0.0
 11
78.789563
 21
278.2922859999998
 31
0.0
  0
LINE
  5
A2F1
330
A1C4
100
AcDbEntity
  8
1
  6
Continuous
100
AcDbLine
 10
78.77023699999998
 20
276.858746
 30
0.0
 11
80.203777
 21
278.2922859999998
 31
0.0
  0
LINE
  5
A2F2
330
A1C4
100
AcDbEntity
  8
1
  6
Continuous
100
AcDbLine
 10
80.18445099999999
 20
276.858746
 30
0.0
 11
81.61799
 21
278.2922859999998
 31
0.0
  0
LINE
  5
A2F3
330
A1C4
100
AcDbEntity
  8
1
  6
Continuous
100
AcDbLine
 10
81.598664
 20
276.858746
 30
0.0
 11
83.03220399999998
 21
278.2922859999998
 31
0.0
  0
LINE
  5
A2F4
330
A1C4
100
AcDbEntity
  8
1
  6
Continuous
100
AcDbLine
 10
83.012878
 20
276.858746
 30
0.0
 11
84.44641700000003
 21
278.2922859999998
 31
0.0
  0
LINE
  5
A2F5
330
A1C4
100
AcDbEntity
  8
1
  6
Continuous
100
AcDbLine
 10
84.427091
 20
276.858746
 30
0.0
 11
84.81900000000001
 21
277.250655
 31
0.0
  0
LINE
  5
A2F6
330
A1C4
100
AcDbEntity
  8
1
  6
Continuous
100
AcDbLine
 10
58.97124699999999
 20
276.858746
 30
0.0
 11
60.404787
 21
278.2922859999998
 31
0.0
  0
LINE
  5
A2F7
330
A1C4
100
AcDbEntity
  8
1
  6
Continuous
100
AcDbLine
 10
57.55703399999998
 20
276.858746
 30
0.0
 11
58.99057299999999
 21
278.2922859999998
 31
0.0
  0
LINE
  5
A2F8
330
A1C4
100
AcDbEntity
  8
1
  6
Continuous
100
AcDbLine
 10
56.14281999999999
 20
276.858746
 30
0.0
 11
57.57636
 21
278.2922859999998
 31
0.0
  0
LINE
  5
A2F9
330
A1C4
100
AcDbEntity
  8
1
  6
Continuous
100
AcDbLine
 10
54.728607
 20
276.858746
 30
0.0
 11
56.16214599999999
 21
278.2922859999998
 31
0.0
  0
LINE
  5
A2FA
330
A1C4
100
AcDbEntity
  8
1
  6
Continuous
100
AcDbLine
 10
53.314393
 20
276.858746
 30
0.0
 11
54.74793299999999
 21
278.2922859999998
 31
0.0
  0
LINE
  5
A2FB
330
A1C4
100
AcDbEntity
  8
1
  6
Continuous
100
AcDbLine
 10
51.900179
 20
276.858746
 30
0.0
 11
53.33371899999999
 21
278.2922859999998
 31
0.0
  0
LINE
  5
A2FC
330
A1C4
100
AcDbEntity
  8
1
  6
Continuous
100
AcDbLine
 10
50.48596599999999
 20
276.858746
 30
0.0
 11
51.919506
 21
278.2922859999998
 31
0.0
  0
LINE
  5
A2FD
330
A1C4
100
AcDbEntity
  8
1
  6
Continuous
100
AcDbLine
 10
49.07175200000001
 20
276.858746
 30
0.0
 11
50.50529199999999
 21
278.2922859999998
 31
0.0
  0
LINE
  5
A2FE
330
A1C4
100
AcDbEntity
  8
1
  6
Continuous
100
AcDbLine
 10
47.65753899999999
 20
276.858746
 30
0.0
 11
49.09107800000001
 21
278.2922859999998
 31
0.0
  0
LINE
  5
A2FF
330
A1C4
100
AcDbEntity
  8
1
  6
Continuous
100
AcDbLine
 10
46.243325
 20
276.858746
 30
0.0
 11
47.67686499999999
 21
278.2922859999998
 31
0.0
  0
LINE
  5
A300
330
A1C4
100
AcDbEntity
  8
1
  6
Continuous
100
AcDbLine
 10
44.829112
 20
276.858746
 30
0.0
 11
46.262651
 21
278.2922859999998
 31
0.0
  0
LINE
  5
A301
330
A1C4
100
AcDbEntity
  8
1
  6
Continuous
100
AcDbLine
 10
43.414898
 20
276.858746
 30
0.0
 11
44.848438
 21
278.2922859999998
 31
0.0
  0
LINE
  5
A302
330
A1C4
100
AcDbEntity
  8
1
  6
Continuous
100
AcDbLine
 10
42.00068499999999
 20
276.858746
 30
0.0
 11
43.434224
 21
278.2922859999998
 31
0.0
  0
LINE
  5
A303
330
A1C4
100
AcDbEntity
  8
1
  6
Continuous
100
AcDbLine
 10
40.586471
 20
276.858746
 30
0.0
 11
42.02001099999999
 21
278.2922859999998
 31
0.0
  0
LINE
  5
A304
330
A1C4
100
AcDbEntity
  8
1
  6
Continuous
100
AcDbLine
 10
39.172257
 20
276.858746
 30
0.0
 11
40.60579699999999
 21
278.2922859999998
 31
0.0
  0
LINE
  5
A305
330
A1C4
100
AcDbEntity
  8
1
  6
Continuous
100
AcDbLine
 10
38.819
 20
277.9197029999999
 30
0.0
 11
39.191583
 21
278.2922859999998
 31
0.0
  0
LINE
  5
A306
330
A1C4
100
AcDbEntity
  8
1
  6
Continuous
100
AcDbLine
 10
63.25254000000001
 20
276.858746
 30
0.0
 11
61.81899999999998
 21
278.2922859999998
 31
0.0
  0
LINE
  5
A307
330
A1C4
100
AcDbEntity
  8
1
  6
Continuous
100
AcDbLine
 10
61.838326
 20
276.858746
 30
0.0
 11
60.404787
 21
278.2922859999998
 31
0.0
  0
LINE
  5
A308
330
A1C4
100
AcDbEntity
  8
1
  6
Continuous
100
AcDbLine
 10
60.424113
 20
276.858746
 30
0.0
 11
58.99057299999999
 21
278.2922859999998
 31
0.0
  0
LINE
  5
A309
330
A1C4
100
AcDbEntity
  8
1
  6
Continuous
100
AcDbLine
 10
59.00989899999999
 20
276.858746
 30
0.0
 11
57.57636
 21
278.2922859999998
 31
0.0
  0
LINE
  5
A30A
330
A1C4
100
AcDbEntity
  8
1
  6
Continuous
100
AcDbLine
 10
57.595686
 20
276.858746
 30
0.0
 11
56.16214599999999
 21
278.2922859999998
 31
0.0
  0
LINE
  5
A30B
330
A1C4
100
AcDbEntity
  8
1
  6
Continuous
100
AcDbLine
 10
56.181472
 20
276.858746
 30
0.0
 11
54.74793299999999
 21
278.2922859999998
 31
0.0
  0
LINE
  5
A30C
330
A1C4
100
AcDbEntity
  8
1
  6
Continuous
100
AcDbLine
 10
54.76725899999999
 20
276.858746
 30
0.0
 11
53.33371899999999
 21
278.2922859999998
 31
0.0
  0
LINE
  5
A30D
330
A1C4
100
AcDbEntity
  8
1
  6
Continuous
100
AcDbLine
 10
53.35304499999999
 20
276.858746
 30
0.0
 11
51.919506
 21
278.2922859999998
 31
0.0
  0
LINE
  5
A30E
330
A1C4
100
AcDbEntity
  8
1
  6
Continuous
100
AcDbLine
 10
51.938832
 20
276.858746
 30
0.0
 11
50.50529199999999
 21
278.2922859999998
 31
0.0
  0
LINE
  5
A30F
330
A1C4
100
AcDbEntity
  8
1
  6
Continuous
100
AcDbLine
 10
50.52461799999999
 20
276.858746
 30
0.0
 11
49.09107800000001
 21
278.2922859999998
 31
0.0
  0
LINE
  5
A310
330
A1C4
100
AcDbEntity
  8
1
  6
Continuous
100
AcDbLine
 10
49.110404
 20
276.858746
 30
0.0
 11
47.67686499999999
 21
278.2922859999998
 31
0.0
  0
LINE
  5
A311
330
A1C4
100
AcDbEntity
  8
1
  6
Continuous
100
AcDbLine
 10
47.69619099999999
 20
276.858746
 30
0.0
 11
46.262651
 21
278.2922859999998
 31
0.0
  0
LINE
  5
A312
330
A1C4
100
AcDbEntity
  8
1
  6
Continuous
100
AcDbLine
 10
46.281977
 20
276.858746
 30
0.0
 11
44.848438
 21
278.2922859999998
 31
0.0
  0
LINE
  5
A313
330
A1C4
100
AcDbEntity
  8
1
  6
Continuous
100
AcDbLine
 10
44.867764
 20
276.858746
 30
0.0
 11
43.434224
 21
278.2922859999998
 31
0.0
  0
LINE
  5
A314
330
A1C4
100
AcDbEntity
  8
1
  6
Continuous
100
AcDbLine
 10
43.45355
 20
276.858746
 30
0.0
 11
42.02001099999999
 21
278.2922859999998
 31
0.0
  0
LINE
  5
A315
330
A1C4
100
AcDbEntity
  8
1
  6
Continuous
100
AcDbLine
 10
42.03933699999999
 20
276.858746
 30
0.0
 11
40.60579699999999
 21
278.2922859999998
 31
0.0
  0
LINE
  5
A316
330
A1C4
100
AcDbEntity
  8
1
  6
Continuous
100
AcDbLine
 10
40.62512299999997
 20
276.858746
 30
0.0
 11
39.191583
 21
278.2922859999998
 31
0.0
  0
LINE
  5
A317
330
A1C4
100
AcDbEntity
  8
1
  6
Continuous
100
AcDbLine
 10
38.819
 20
277.250655
 30
0.0
 11
39.210909
 21
276.858746
 31
0.0
  0
LINE
  5
A318
330
A1C4
100
AcDbEntity
  8
1
  6
Continuous
100
AcDbLine
 10
64.66675399999998
 20
276.858746
 30
0.0
 11
63.23321400000001
 21
278.2922859999998
 31
0.0
  0
LINE
  5
A319
330
A1C4
100
AcDbEntity
  8
1
  6
Continuous
100
AcDbLine
 10
66.080967
 20
276.858746
 30
0.0
 11
64.647428
 21
278.2922859999998
 31
0.0
  0
LINE
  5
A31A
330
A1C4
100
AcDbEntity
  8
1
  6
Continuous
100
AcDbLine
 10
67.495181
 20
276.858746
 30
0.0
 11
66.06164099999999
 21
278.2922859999998
 31
0.0
  0
LINE
  5
A31B
330
A1C4
100
AcDbEntity
  8
1
  6
Continuous
100
AcDbLine
 10
68.90939399999999
 20
276.858746
 30
0.0
 11
67.47585500000001
 21
278.2922859999998
 31
0.0
  0
LINE
  5
A31C
330
A1C4
100
AcDbEntity
  8
1
  6
Continuous
100
AcDbLine
 10
70.32360799999999
 20
276.858746
 30
0.0
 11
68.890068
 21
278.2922859999998
 31
0.0
  0
LINE
  5
A31D
330
A1C4
100
AcDbEntity
  8
1
  6
Continuous
100
AcDbLine
 10
71.737821
 20
276.858746
 30
0.0
 11
70.304282
 21
278.2922859999998
 31
0.0
  0
LINE
  5
A31E
330
A1C4
100
AcDbEntity
  8
1
  6
Continuous
100
AcDbLine
 10
73.15203499999999
 20
276.858746
 30
0.0
 11
71.71849499999997
 21
278.2922859999998
 31
0.0
  0
LINE
  5
A31F
330
A1C4
100
AcDbEntity
  8
1
  6
Continuous
100
AcDbLine
 10
74.566249
 20
276.858746
 30
0.0
 11
73.13270899999998
 21
278.2922859999998
 31
0.0
  0
LINE
  5
A320
330
A1C4
100
AcDbEntity
  8
1
  6
Continuous
100
AcDbLine
 10
75.980462
 20
276.858746
 30
0.0
 11
74.54692299999997
 21
278.2922859999998
 31
0.0
  0
LINE
  5
A321
330
A1C4
100
AcDbEntity
  8
1
  6
Continuous
100
AcDbLine
 10
77.39467600000002
 20
276.858746
 30
0.0
 11
75.96113599999998
 21
278.2922859999998
 31
0.0
  0
LINE
  5
A322
330
A1C4
100
AcDbEntity
  8
1
  6
Continuous
100
AcDbLine
 10
78.80888899999998
 20
276.858746
 30
0.0
 11
77.37534999999998
 21
278.2922859999998
 31
0.0
  0
LINE
  5
A323
330
A1C4
100
AcDbEntity
  8
1
  6
Continuous
100
AcDbLine
 10
80.22310299999999
 20
276.858746
 30
0.0
 11
78.789563
 21
278.2922859999998
 31
0.0
  0
LINE
  5
A324
330
A1C4
100
AcDbEntity
  8
1
  6
Continuous
100
AcDbLine
 10
81.637316
 20
276.858746
 30
0.0
 11
80.203777
 21
278.2922859999998
 31
0.0
  0
LINE
  5
A325
330
A1C4
100
AcDbEntity
  8
1
  6
Continuous
100
AcDbLine
 10
83.05153
 20
276.858746
 30
0.0
 11
81.61799
 21
278.2922859999998
 31
0.0
  0
LINE
  5
A326
330
A1C4
100
AcDbEntity
  8
1
  6
Continuous
100
AcDbLine
 10
84.46574299999998
 20
276.858746
 30
0.0
 11
83.03220399999998
 21
278.2922859999998
 31
0.0
  0
LINE
  5
A327
330
A1C4
100
AcDbEntity
  8
1
  6
Continuous
100
AcDbLine
 10
84.81900000000001
 20
277.9197029999999
 30
0.0
 11
84.44641700000003
 21
278.2922859999998
 31
0.0
  0
ARC
  5
A328
330
A1C4
100
AcDbEntity
  8
1
  6
Continuous
100
AcDbCircle
 10
202.356946
 20
228.810304
 30
0.0
 40
19.91305699999999
100
AcDbArc
 50
168.2787749999999
 51
359.063423
  0
ARC
  5
A329
330
A1C4
100
AcDbEntity
  8
1
  6
Continuous
100
AcDbCircle
 10
202.356946
 20
228.810304
 30
0.0
 40
19.91305699999999
100
AcDbArc
 50
27.957499
 51
58.013713
  0
ARC
  5
A32A
330
A1C4
100
AcDbEntity
  8
1
  6
Continuous
100
AcDbCircle
 10
202.356946
 20
228.810304
 30
0.0
 40
21.49999999999999
100
AcDbArc
 50
166.633878
 51
6.282995999999998
  0
ARC
  5
A32B
330
A1C4
100
AcDbEntity
  8
1
  6
Continuous
100
AcDbCircle
 10
202.356946
 20
228.810304
 30
0.0
 40
21.49999999999999
100
AcDbArc
 50
16.441619
 51
64.164941
  0
ARC
  5
A32C
330
A1C4
100
AcDbEntity
  8
1
  6
Continuous
100
AcDbCircle
 10
202.356946
 20
228.810304
 30
0.0
 40
33.02
100
AcDbArc
 50
166.295161
 51
61.99964
  0
ARC
  5
A32D
330
A1C4
100
AcDbEntity
  8
1
  6
Continuous
100
AcDbCircle
 10
202.356946
 20
228.810304
 30
0.0
 40
11.29225099999999
100
AcDbArc
 50
190.2337879999999
 51
309.111844
  0
LINE
  5
A32E
330
A1C4
100
AcDbEntity
  8
4
  6
CENTER
100
AcDbLine
 10
61.81899999999998
 20
186.310304
 30
0.0
 11
61.81899999999998
 21
291.3103039999999
 31
0.0
  0
LINE
  5
A32F
330
A1C4
100
AcDbEntity
  8
4
  6
CENTER
100
AcDbLine
 10
36.51899999999999
 20
228.810304
 30
0.0
 11
85.11900099999998
 21
228.810304
 31
0.0
  0
LINE
  5
A330
330
A1C4
100
AcDbEntity
  8
4
  6
CENTER
100
AcDbLine
 10
244.8569459999999
 20
228.810304
 30
0.0
 11
159.856946
 21
228.810304
 31
0.0
  0
LINE
  5
A331
330
A1C4
100
AcDbEntity
  8
4
  6
CENTER
100
AcDbLine
 10
202.356946
 20
186.310304
 30
0.0
 11
202.356946
 21
269.310304
 31
0.0
  0
LINE
  5
A332
330
A1C4
100
AcDbEntity
  8
4
  6
CENTER
100
AcDbLine
 10
227.356946
 20
291.3103039999999
 30
0.0
 11
227.356946
 21
256.5806309999999
 31
0.0
  0
CIRCLE
  5
A333
330
A1C4
100
AcDbEntity
  8
4
  6
CENTER
100
AcDbCircle
 10
227.356946
 20
399.801631
 30
0.0
 40
34.0
  0
LINE
  5
A334
330
A1C4
100
AcDbEntity
  8
4
  6
CENTER
100
AcDbLine
 10
241.1069459999999
 20
423.6173299999999
 30
0.0
 11
247.606946
 21
434.8756599999998
 31
0.0
  0
LINE
  5
A335
330
A1C4
100
AcDbEntity
  8
4
  6
CENTER
100
AcDbLine
 10
247.606946
 20
364.727602
 30
0.0
 11
241.1069459999999
 21
375.9859329999999
 31
0.0
  0
LINE
  5
A336
330
A1C4
100
AcDbEntity
  8
4
  6
CENTER
100
AcDbLine
 10
265.589806
 20
399.801631
 30
0.0
 11
152.8447159999998
 21
399.801631
 31
0.0
  0
LINE
  5
A337
330
A1C4
100
AcDbEntity
  8
4
  6
CENTER
100
AcDbLine
 10
227.356946
 20
359.375421
 30
0.0
 11
227.356946
 21
440.227841
 31
0.0
  0
LINE
  5
A338
330
A1C4
100
AcDbEntity
  8
4
  6
CENTER
100
AcDbLine
 10
193.356946
 20
289.3102909999999
 30
0.0
 11
193.356946
 21
280.7104979999999
 31
0.0
  0
LINE
  5
A339
330
A1C4
100
AcDbEntity
  8
4
  6
CENTER
100
AcDbLine
 10
244.3569459999999
 20
289.31031
 30
0.0
 11
244.3569459999999
 21
280.710359
 31
0.0
  0
LINE
  5
A33A
330
A1C4
100
AcDbEntity
  8
4
  6
CENTER
100
AcDbLine
 10
91.264
 20
280.710325
 30
0.0
 11
91.264
 21
289.3103149999999
 31
0.0
  0
LINE
  5
A33B
330
A1C4
100
AcDbEntity
  8
4
  6
CENTER
100
AcDbLine
 10
32.374
 20
280.7104859999999
 30
0.0
 11
32.374
 21
289.3102929999999
 31
0.0
  0
ARC
  5
A33C
330
A1C4
100
AcDbEntity
  8
1
  6
Continuous
100
AcDbCircle
 10
61.81899999999998
 20
923.8886370000001
 30
0.0
 40
650.2237260000002
100
AcDbArc
 50
268.603097
 51
271.3969029999999
  0
ARC
  5
A33D
330
A1C4
100
AcDbEntity
  8
1
  6
Continuous
100
AcDbCircle
 10
78.119
 20
268.3114419999999
 30
0.0
 40
2.0
100
AcDbArc
 50
0.0
 51
71.631472
  0
CIRCLE
  5
A33E
330
A1C4
100
AcDbEntity
  8
1
  6
Continuous
100
AcDbCircle
 10
202.356946
 20
228.810304
 30
0.0
 40
4.849999999999997
  0
LINE
  5
A33F
330
A1C4
100
AcDbEntity
  8
4
  6
CENTER
100
AcDbLine
 10
202.356946
 20
369.8016309999999
 30
0.0
 11
202.356946
 21
429.801631
 31
0.0
  0
LINE
  5
A340
330
A1C4
100
AcDbEntity
  8
4
  6
CENTER
100
AcDbLine
 10
356.615522
 20
186.310304
 30
0.0
 11
356.615522
 21
291.3103039999999
 31
0.0
  0
ARC
  5
A341
330
A1C4
100
AcDbEntity
  8
1
  6
Continuous
100
AcDbCircle
 10
342.115522
 20
220.7266349999999
 30
0.0
 40
1.0
100
AcDbArc
 50
180.0
 51
265.0
  0
LINE
  5
A342
330
A1C4
100
AcDbEntity
  8
1
  6
Continuous
100
AcDbLine
 10
345.1155219999998
 20
196.01193
 30
0.0
 11
345.1155219999998
 21
261.6086779999998
 31
0.0
  0
ARC
  5
A343
330
A1C4
100
AcDbEntity
  8
1
  6
Continuous
100
AcDbCircle
 10
371.115522
 20
220.7266349999999
 30
0.0
 40
1.0
100
AcDbArc
 50
275.0
 51
0.0
  0
LINE
  5
A344
330
A1C4
100
AcDbEntity
  8
1
  6
Continuous
100
AcDbLine
 10
368.1155219999998
 20
196.01193
 30
0.0
 11
368.1155219999998
 21
261.6086779999998
 31
0.0
  0
ARC
  5
A345
330
A1C4
100
AcDbEntity
  8
1
  6
Continuous
100
AcDbCircle
 10
356.615522
 20
208.310304
 30
0.0
 40
17.0
100
AcDbArc
 50
228.188646
 51
311.810315
  0
ARC
  5
A346
330
A1C4
100
AcDbEntity
  8
1
  6
Continuous
100
AcDbCircle
 10
367.615522
 20
196.01193
 30
0.0
 40
0.5
100
AcDbArc
 50
311.810315
 51
0.0
  0
LINE
  5
A347
330
A1C4
100
AcDbEntity
  8
1
  6
Continuous
100
AcDbLine
 10
371.202677
 20
219.7304399999999
 30
0.0
 11
368.1155219999998
 21
219.4603489999999
 31
0.0
  0
LINE
  5
A348
330
A1C4
100
AcDbEntity
  8
1
  6
Continuous
100
AcDbLine
 10
372.6155219999998
 20
218.024318
 30
0.0
 11
374.915522
 21
218.024318
 31
0.0
  0
ARC
  5
A349
330
A1C4
100
AcDbEntity
  8
1
  6
Continuous
100
AcDbCircle
 10
345.6155219999998
 20
196.01193
 30
0.0
 40
0.5
100
AcDbArc
 50
180.0
 51
228.1896849999998
  0
LINE
  5
A34A
330
A1C4
100
AcDbEntity
  8
1
  6
Continuous
100
AcDbLine
 10
340.615522
 20
218.024318
 30
0.0
 11
338.3155219999999
 21
218.024318
 31
0.0
  0
LINE
  5
A34B
330
A1C4
100
AcDbEntity
  8
1
  6
Continuous
100
AcDbLine
 10
342.0283659999999
 20
219.7304399999999
 30
0.0
 11
345.1155219999998
 21
219.4603489999999
 31
0.0
  0
LINE
  5
A34C
330
A1C4
100
AcDbEntity
  8
4
  6
CENTER
100
AcDbLine
 10
381.915522
 20
228.810304
 30
0.0
 11
333.315521
 21
228.810304
 31
0.0
  0
ARC
  5
A34D
330
A1C4
100
AcDbEntity
  8
1
  6
Continuous
100
AcDbCircle
 10
356.615522
 20
248.1594789999999
 30
0.0
 40
19.43051699999999
100
AcDbArc
 50
216.689844
 51
217.0876209999999
  0
ARC
  5
A34E
330
A1C4
100
AcDbEntity
  8
1
  6
Continuous
100
AcDbCircle
 10
356.615522
 20
248.1594789999999
 30
0.0
 40
19.43051699999999
100
AcDbArc
 50
322.912379
 51
323.310156
  0
ARC
  5
A34F
330
A1C4
100
AcDbEntity
  8
1
  6
Continuous
100
AcDbCircle
 10
373.4065289999999
 20
235.6484779999999
 30
0.0
 40
1.508993
100
AcDbArc
 50
121.614085
 51
143.310156
  0
LINE
  5
A350
330
A1C4
100
AcDbEntity
  8
1
  6
Continuous
100
AcDbLine
 10
377.201163
 20
234.5603039999998
 30
0.0
 11
377.201163
 21
223.060304
 31
0.0
  0
ARC
  5
A351
330
A1C4
100
AcDbEntity
  8
1
  6
Continuous
100
AcDbCircle
 10
368.415522
 20
228.810304
 30
0.0
 40
10.5
100
AcDbArc
 50
326.7961769999998
 51
33.203823
  0
LINE
  5
A352
330
A1C4
100
AcDbEntity
  8
1
  6
Continuous
100
AcDbLine
 10
377.201163
 20
223.060304
 30
0.0
 11
374.915522
 21
223.060304
 31
0.0
  0
LINE
  5
A353
330
A1C4
100
AcDbEntity
  8
1
  6
Continuous
100
AcDbLine
 10
377.201163
 20
234.5603039999998
 30
0.0
 11
374.915522
 21
234.5603039999998
 31
0.0
  0
LINE
  5
A354
330
A1C4
100
AcDbEntity
  8
1
  6
Continuous
100
AcDbLine
 10
372.6155219999998
 20
224.810304
 30
0.0
 11
372.1155219999998
 21
224.810304
 31
0.0
  0
LINE
  5
A355
330
A1C4
100
AcDbEntity
  8
1
  6
Continuous
100
AcDbLine
 10
372.6155219999998
 20
232.810304
 30
0.0
 11
372.1155219999998
 21
232.810304
 31
0.0
  0
LINE
  5
A356
330
A1C4
100
AcDbEntity
  8
1
  6
Continuous
100
AcDbLine
 10
372.1155219999998
 20
220.7266349999999
 30
0.0
 11
372.1155219999998
 21
236.893973
 31
0.0
  0
ARC
  5
A357
330
A1C4
100
AcDbEntity
  8
1
  6
Continuous
100
AcDbCircle
 10
345.4164139999999
 20
228.810304
 30
0.0
 40
9.100892999999999
100
AcDbArc
 50
147.7973949999999
 51
212.2026049999998
  0
ARC
  5
A358
330
A1C4
100
AcDbEntity
  8
1
  6
Continuous
100
AcDbCircle
 10
339.8245149999999
 20
235.6484779999999
 30
0.0
 40
1.508993
100
AcDbArc
 50
36.689844
 51
58.38591499999998
  0
LINE
  5
A359
330
A1C4
100
AcDbEntity
  8
1
  6
Continuous
100
AcDbLine
 10
337.715522
 20
223.9603039999999
 30
0.0
 11
337.715522
 21
233.6603039999999
 31
0.0
  0
LINE
  5
A35A
330
A1C4
100
AcDbEntity
  8
1
  6
Continuous
100
AcDbLine
 10
338.3155219999999
 20
224.310304
 30
0.0
 11
337.715522
 21
223.9603039999999
 31
0.0
  0
LINE
  5
A35B
330
A1C4
100
AcDbEntity
  8
1
  6
Continuous
100
AcDbLine
 10
338.3155219999999
 20
233.310304
 30
0.0
 11
337.715522
 21
233.6603039999999
 31
0.0
  0
LINE
  5
A35C
330
A1C4
100
AcDbEntity
  8
1
  6
Continuous
100
AcDbLine
 10
341.1155219999999
 20
220.7266349999999
 30
0.0
 11
341.1155219999999
 21
236.893973
 31
0.0
  0
LINE
  5
A35D
330
A1C4
100
AcDbEntity
  8
1
  6
Continuous
100
AcDbLine
 10
340.615522
 20
224.810304
 30
0.0
 11
341.1155219999999
 21
224.810304
 31
0.0
  0
LINE
  5
A35E
330
A1C4
100
AcDbEntity
  8
1
  6
Continuous
100
AcDbLine
 10
340.615522
 20
232.810304
 30
0.0
 11
341.1155219999999
 21
232.810304
 31
0.0
  0
LINE
  5
A35F
330
A1C4
100
AcDbEntity
  8
1
  6
Continuous
100
AcDbLine
 10
393.4344989999999
 20
283.710506
 30
0.0
 11
319.7965449999998
 21
283.7103049999999
 31
0.0
  0
LINE
  5
A360
330
A1C4
100
AcDbEntity
  8
1
  6
Continuous
100
AcDbLine
 10
393.4344989999999
 20
286.310291
 30
0.0
 11
319.7965449999998
 21
286.310317
 31
0.0
  0
LINE
  5
A361
330
A1C4
100
AcDbEntity
  8
4
  6
CENTER
100
AcDbLine
 10
386.060522
 20
280.7104859999999
 30
0.0
 11
386.060522
 21
289.3102929999999
 31
0.0
  0
LINE
  5
A362
330
A1C4
100
AcDbEntity
  8
1
  6
Continuous
100
AcDbLine
 10
386.848454
 20
283.710333
 30
0.0
 11
389.848422
 21
283.710336
 31
0.0
  0
LINE
  5
A363
330
A1C4
100
AcDbEntity
  8
1
  6
Continuous
100
AcDbLine
 10
352.3535549999999
 20
276.858746
 30
0.0
 11
353.7870939999999
 21
278.2922859999998
 31
0.0
  0
LINE
  5
A364
330
A1C4
100
AcDbEntity
  8
1
  6
Continuous
100
AcDbLine
 10
353.8064199999998
 20
276.858746
 30
0.0
 11
352.372881
 21
278.2922859999998
 31
0.0
  0
LINE
  5
A365
330
A1C4
100
AcDbEntity
  8
1
  6
Continuous
100
AcDbLine
 10
333.615522
 20
276.858746
 30
0.0
 11
379.615522
 21
276.858746
 31
0.0
  0
LINE
  5
A366
330
A1C4
100
AcDbEntity
  8
1
  6
Continuous
100
AcDbLine
 10
378.887715
 20
281.512285
 30
0.0
 11
334.3433279999998
 21
281.512285
 31
0.0
  0
LINE
  5
A367
330
A1C4
100
AcDbEntity
  8
1
  6
Continuous
100
AcDbLine
 10
330.6071729999998
 20
283.283003
 30
0.0
 11
382.62387
 21
283.283003
 31
0.0
  0
LINE
  5
A368
330
A1C4
100
AcDbEntity
  8
1
  6
Continuous
100
AcDbLine
 10
333.615522
 20
278.2922859999998
 30
0.0
 11
379.615522
 21
278.2922859999998
 31
0.0
  0
LINE
  5
A369
330
A1C4
100
AcDbEntity
  8
1
  6
Continuous
100
AcDbLine
 10
333.629371
 20
280.277286
 30
0.0
 11
379.601672
 21
280.277286
 31
0.0
  0
LINE
  5
A36A
330
A1C4
100
AcDbEntity
  8
1
  6
Continuous
100
AcDbLine
 10
367.909904
 20
276.858746
 30
0.0
 11
369.3434439999998
 21
278.2922859999998
 31
0.0
  0
LINE
  5
A36B
330
A1C4
100
AcDbEntity
  8
1
  6
Continuous
100
AcDbLine
 10
369.36277
 20
276.858746
 30
0.0
 11
367.9292299999998
 21
278.2922859999998
 31
0.0
  0
LINE
  5
A36C
330
A1C4
100
AcDbEntity
  8
1
  6
Continuous
100
AcDbLine
 10
379.615522
 20
277.250655
 30
0.0
 11
379.223613
 21
276.858746
 31
0.0
  0
LINE
  5
A36D
330
A1C4
100
AcDbEntity
  8
1
  6
Continuous
100
AcDbLine
 10
377.8093989999999
 20
276.858746
 30
0.0
 11
379.2429389999999
 21
278.2922859999998
 31
0.0
  0
LINE
  5
A36E
330
A1C4
100
AcDbEntity
  8
1
  6
Continuous
100
AcDbLine
 10
376.395185
 20
276.858746
 30
0.0
 11
377.828725
 21
278.2922859999998
 31
0.0
  0
LINE
  5
A36F
330
A1C4
100
AcDbEntity
  8
1
  6
Continuous
100
AcDbLine
 10
374.980972
 20
276.858746
 30
0.0
 11
376.414511
 21
278.2922859999998
 31
0.0
  0
LINE
  5
A370
330
A1C4
100
AcDbEntity
  8
1
  6
Continuous
100
AcDbLine
 10
373.5667579999998
 20
276.858746
 30
0.0
 11
375.000298
 21
278.2922859999998
 31
0.0
  0
LINE
  5
A371
330
A1C4
100
AcDbEntity
  8
1
  6
Continuous
100
AcDbLine
 10
372.1525449999999
 20
276.858746
 30
0.0
 11
373.5860839999999
 21
278.2922859999998
 31
0.0
  0
LINE
  5
A372
330
A1C4
100
AcDbEntity
  8
1
  6
Continuous
100
AcDbLine
 10
370.738331
 20
276.858746
 30
0.0
 11
372.171871
 21
278.2922859999998
 31
0.0
  0
LINE
  5
A373
330
A1C4
100
AcDbEntity
  8
1
  6
Continuous
100
AcDbLine
 10
369.324118
 20
276.858746
 30
0.0
 11
370.757657
 21
278.2922859999998
 31
0.0
  0
LINE
  5
A374
330
A1C4
100
AcDbEntity
  8
1
  6
Continuous
100
AcDbLine
 10
379.615522
 20
277.9197029999999
 30
0.0
 11
379.2429389999999
 21
278.2922859999998
 31
0.0
  0
LINE
  5
A375
330
A1C4
100
AcDbEntity
  8
1
  6
Continuous
100
AcDbLine
 10
379.262265
 20
276.858746
 30
0.0
 11
377.828725
 21
278.2922859999998
 31
0.0
  0
LINE
  5
A376
330
A1C4
100
AcDbEntity
  8
1
  6
Continuous
100
AcDbLine
 10
377.848051
 20
276.858746
 30
0.0
 11
376.414511
 21
278.2922859999998
 31
0.0
  0
LINE
  5
A377
330
A1C4
100
AcDbEntity
  8
1
  6
Continuous
100
AcDbLine
 10
376.4338369999999
 20
276.858746
 30
0.0
 11
375.000298
 21
278.2922859999998
 31
0.0
  0
LINE
  5
A378
330
A1C4
100
AcDbEntity
  8
1
  6
Continuous
100
AcDbLine
 10
375.019624
 20
276.858746
 30
0.0
 11
373.5860839999999
 21
278.2922859999998
 31
0.0
  0
LINE
  5
A379
330
A1C4
100
AcDbEntity
  8
1
  6
Continuous
100
AcDbLine
 10
373.60541
 20
276.858746
 30
0.0
 11
372.171871
 21
278.2922859999998
 31
0.0
  0
LINE
  5
A37A
330
A1C4
100
AcDbEntity
  8
1
  6
Continuous
100
AcDbLine
 10
372.1911969999999
 20
276.858746
 30
0.0
 11
370.757657
 21
278.2922859999998
 31
0.0
  0
LINE
  5
A37B
330
A1C4
100
AcDbEntity
  8
1
  6
Continuous
100
AcDbLine
 10
370.7769829999999
 20
276.858746
 30
0.0
 11
369.3434439999998
 21
278.2922859999998
 31
0.0
  0
ARC
  5
A37C
330
A1C4
100
AcDbEntity
  8
1
  6
Continuous
100
AcDbCircle
 10
378.3155219999999
 20
273.858746
 30
0.0
 40
3.0
100
AcDbArc
 50
0.0
 51
90.0
  0
LINE
  5
A37D
330
A1C4
100
AcDbEntity
  8
1
  6
Continuous
100
AcDbLine
 10
379.615522
 20
276.858746
 30
0.0
 11
379.615522
 21
278.2922859999998
 31
0.0
  0
ARC
  5
A37E
330
A1C4
100
AcDbEntity
  8
1
  6
Continuous
100
AcDbCircle
 10
378.887715
 20
285.1232889999998
 30
0.0
 40
3.611003999999998
100
AcDbArc
 50
270.0
 51
296.2885769999999
  0
LINE
  5
A37F
330
A1C4
100
AcDbEntity
  8
1
  6
Continuous
100
AcDbLine
 10
382.62387
 20
283.283003
 30
0.0
 11
382.6633739999999
 21
283.7103149999999
 31
0.0
  0
ARC
  5
A380
330
A1C4
100
AcDbEntity
  8
1
  6
Continuous
100
AcDbCircle
 10
375.7748389999999
 20
291.424877
 30
0.0
 40
10.63951799999999
100
AcDbArc
 50
296.2885769999999
 51
310.0709029999998
  0
ARC
  5
A381
330
A1C4
100
AcDbEntity
  8
1
  6
Continuous
100
AcDbCircle
 10
373.798091
 20
276.726314
 30
0.0
 40
6.206
100
AcDbArc
 50
39.064301
 51
50.46037999999999
  0
LINE
  5
A382
330
A1C4
100
AcDbEntity
  8
1
  6
Continuous
100
AcDbLine
 10
379.461672
 20
278.652286
 30
0.0
 11
379.331672
 21
278.2922859999998
 31
0.0
  0
ARC
  5
A383
330
A1C4
100
AcDbEntity
  8
1
  6
Continuous
100
AcDbCircle
 10
376.0001909999999
 20
281.8275129999999
 30
0.0
 40
4.697225
100
AcDbArc
 50
317.4697509999999
 51
333.713305
  0
LINE
  5
A384
330
A1C4
100
AcDbEntity
  8
1
  6
Continuous
100
AcDbLine
 10
378.786672
 20
280.277286
 30
0.0
 11
378.616672
 21
280.6372859999999
 31
0.0
  0
ARC
  5
A385
330
A1C4
100
AcDbEntity
  8
1
  6
Continuous
100
AcDbCircle
 10
379.3377019999998
 20
279.357433
 30
0.0
 40
0.9569799999999998
100
AcDbArc
 50
24.04026499999999
 51
73.98808699999998
  0
LINE
  5
A386
330
A1C4
100
AcDbEntity
  8
1
  6
Continuous
100
AcDbLine
 10
353.7677679999998
 20
276.858746
 30
0.0
 11
355.201308
 21
278.2922859999998
 31
0.0
  0
LINE
  5
A387
330
A1C4
100
AcDbEntity
  8
1
  6
Continuous
100
AcDbLine
 10
366.4956899999999
 20
276.858746
 30
0.0
 11
367.9292299999998
 21
278.2922859999998
 31
0.0
  0
LINE
  5
A388
330
A1C4
100
AcDbEntity
  8
1
  6
Continuous
100
AcDbLine
 10
365.081477
 20
276.858746
 30
0.0
 11
366.515016
 21
278.2922859999998
 31
0.0
  0
LINE
  5
A389
330
A1C4
100
AcDbEntity
  8
1
  6
Continuous
100
AcDbLine
 10
363.667263
 20
276.858746
 30
0.0
 11
365.1008029999999
 21
278.2922859999998
 31
0.0
  0
LINE
  5
A38A
330
A1C4
100
AcDbEntity
  8
1
  6
Continuous
100
AcDbLine
 10
362.2530499999998
 20
276.858746
 30
0.0
 11
363.686589
 21
278.2922859999998
 31
0.0
  0
LINE
  5
A38B
330
A1C4
100
AcDbEntity
  8
1
  6
Continuous
100
AcDbLine
 10
360.838836
 20
276.858746
 30
0.0
 11
362.2723759999999
 21
278.2922859999998
 31
0.0
  0
LINE
  5
A38C
330
A1C4
100
AcDbEntity
  8
1
  6
Continuous
100
AcDbLine
 10
359.4246229999998
 20
276.858746
 30
0.0
 11
360.8581619999998
 21
278.2922859999998
 31
0.0
  0
LINE
  5
A38D
330
A1C4
100
AcDbEntity
  8
1
  6
Continuous
100
AcDbLine
 10
358.0104089999999
 20
276.858746
 30
0.0
 11
359.4439489999999
 21
278.2922859999998
 31
0.0
  0
LINE
  5
A38E
330
A1C4
100
AcDbEntity
  8
1
  6
Continuous
100
AcDbLine
 10
356.596196
 20
276.858746
 30
0.0
 11
358.029735
 21
278.2922859999998
 31
0.0
  0
LINE
  5
A38F
330
A1C4
100
AcDbEntity
  8
1
  6
Continuous
100
AcDbLine
 10
355.1819819999999
 20
276.858746
 30
0.0
 11
356.615522
 21
278.2922859999998
 31
0.0
  0
LINE
  5
A390
330
A1C4
100
AcDbEntity
  8
1
  6
Continuous
100
AcDbLine
 10
367.9485559999998
 20
276.858746
 30
0.0
 11
366.515016
 21
278.2922859999998
 31
0.0
  0
LINE
  5
A391
330
A1C4
100
AcDbEntity
  8
1
  6
Continuous
100
AcDbLine
 10
366.534343
 20
276.858746
 30
0.0
 11
365.1008029999999
 21
278.2922859999998
 31
0.0
  0
LINE
  5
A392
330
A1C4
100
AcDbEntity
  8
1
  6
Continuous
100
AcDbLine
 10
365.120129
 20
276.858746
 30
0.0
 11
363.686589
 21
278.2922859999998
 31
0.0
  0
LINE
  5
A393
330
A1C4
100
AcDbEntity
  8
1
  6
Continuous
100
AcDbLine
 10
363.705915
 20
276.858746
 30
0.0
 11
362.2723759999999
 21
278.2922859999998
 31
0.0
  0
LINE
  5
A394
330
A1C4
100
AcDbEntity
  8
1
  6
Continuous
100
AcDbLine
 10
362.291702
 20
276.858746
 30
0.0
 11
360.8581619999998
 21
278.2922859999998
 31
0.0
  0
LINE
  5
A395
330
A1C4
100
AcDbEntity
  8
1
  6
Continuous
100
AcDbLine
 10
360.8774879999999
 20
276.858746
 30
0.0
 11
359.4439489999999
 21
278.2922859999998
 31
0.0
  0
LINE
  5
A396
330
A1C4
100
AcDbEntity
  8
1
  6
Continuous
100
AcDbLine
 10
359.463275
 20
276.858746
 30
0.0
 11
358.029735
 21
278.2922859999998
 31
0.0
  0
LINE
  5
A397
330
A1C4
100
AcDbEntity
  8
1
  6
Continuous
100
AcDbLine
 10
355.2206339999998
 20
276.858746
 30
0.0
 11
353.7870939999999
 21
278.2922859999998
 31
0.0
  0
LINE
  5
A398
330
A1C4
100
AcDbEntity
  8
1
  6
Continuous
100
AcDbLine
 10
356.6348479999998
 20
276.858746
 30
0.0
 11
355.201308
 21
278.2922859999998
 31
0.0
  0
LINE
  5
A399
330
A1C4
100
AcDbEntity
  8
1
  6
Continuous
100
AcDbLine
 10
358.049061
 20
276.858746
 30
0.0
 11
356.615522
 21
278.2922859999998
 31
0.0
  0
LINE
  5
A39A
330
A1C4
100
AcDbEntity
  8
4
  6
CENTER
100
AcDbLine
 10
327.170522
 20
280.710325
 30
0.0
 11
327.170522
 21
289.3103149999999
 31
0.0
  0
LINE
  5
A39B
330
A1C4
100
AcDbEntity
  8
1
  6
Continuous
100
AcDbLine
 10
336.797206
 20
276.858746
 30
0.0
 11
338.230745
 21
278.2922859999998
 31
0.0
  0
LINE
  5
A39C
330
A1C4
100
AcDbEntity
  8
1
  6
Continuous
100
AcDbLine
 10
338.2500709999998
 20
276.858746
 30
0.0
 11
336.816532
 21
278.2922859999998
 31
0.0
  0
LINE
  5
A39D
330
A1C4
100
AcDbEntity
  8
1
  6
Continuous
100
AcDbLine
 10
338.2114189999999
 20
276.858746
 30
0.0
 11
339.6449589999999
 21
278.2922859999998
 31
0.0
  0
LINE
  5
A39E
330
A1C4
100
AcDbEntity
  8
1
  6
Continuous
100
AcDbLine
 10
339.6256329999999
 20
276.858746
 30
0.0
 11
341.0591719999999
 21
278.2922859999998
 31
0.0
  0
LINE
  5
A39F
330
A1C4
100
AcDbEntity
  8
1
  6
Continuous
100
AcDbLine
 10
341.039846
 20
276.858746
 30
0.0
 11
342.4733859999999
 21
278.2922859999998
 31
0.0
  0
LINE
  5
A3A0
330
A1C4
100
AcDbEntity
  8
1
  6
Continuous
100
AcDbLine
 10
342.45406
 20
276.858746
 30
0.0
 11
343.887599
 21
278.2922859999998
 31
0.0
  0
LINE
  5
A3A1
330
A1C4
100
AcDbEntity
  8
1
  6
Continuous
100
AcDbLine
 10
343.868273
 20
276.858746
 30
0.0
 11
345.3018129999999
 21
278.2922859999998
 31
0.0
  0
LINE
  5
A3A2
330
A1C4
100
AcDbEntity
  8
1
  6
Continuous
100
AcDbLine
 10
345.282487
 20
276.858746
 30
0.0
 11
346.7160269999998
 21
278.2922859999998
 31
0.0
  0
LINE
  5
A3A3
330
A1C4
100
AcDbEntity
  8
1
  6
Continuous
100
AcDbLine
 10
346.6967009999998
 20
276.858746
 30
0.0
 11
348.13024
 21
278.2922859999998
 31
0.0
  0
LINE
  5
A3A4
330
A1C4
100
AcDbEntity
  8
1
  6
Continuous
100
AcDbLine
 10
348.110914
 20
276.858746
 30
0.0
 11
349.5444539999998
 21
278.2922859999998
 31
0.0
  0
LINE
  5
A3A5
330
A1C4
100
AcDbEntity
  8
1
  6
Continuous
100
AcDbLine
 10
349.525128
 20
276.858746
 30
0.0
 11
350.958667
 21
278.2922859999998
 31
0.0
  0
LINE
  5
A3A6
330
A1C4
100
AcDbEntity
  8
1
  6
Continuous
100
AcDbLine
 10
350.939341
 20
276.858746
 30
0.0
 11
352.372881
 21
278.2922859999998
 31
0.0
  0
LINE
  5
A3A7
330
A1C4
100
AcDbEntity
  8
1
  6
Continuous
100
AcDbLine
 10
339.664285
 20
276.858746
 30
0.0
 11
338.230745
 21
278.2922859999998
 31
0.0
  0
LINE
  5
A3A8
330
A1C4
100
AcDbEntity
  8
1
  6
Continuous
100
AcDbLine
 10
341.078498
 20
276.858746
 30
0.0
 11
339.6449589999999
 21
278.2922859999998
 31
0.0
  0
LINE
  5
A3A9
330
A1C4
100
AcDbEntity
  8
1
  6
Continuous
100
AcDbLine
 10
342.4927119999999
 20
276.858746
 30
0.0
 11
341.0591719999999
 21
278.2922859999998
 31
0.0
  0
LINE
  5
A3AA
330
A1C4
100
AcDbEntity
  8
1
  6
Continuous
100
AcDbLine
 10
343.906926
 20
276.858746
 30
0.0
 11
342.4733859999999
 21
278.2922859999998
 31
0.0
  0
LINE
  5
A3AB
330
A1C4
100
AcDbEntity
  8
1
  6
Continuous
100
AcDbLine
 10
345.321139
 20
276.858746
 30
0.0
 11
343.887599
 21
278.2922859999998
 31
0.0
  0
LINE
  5
A3AC
330
A1C4
100
AcDbEntity
  8
1
  6
Continuous
100
AcDbLine
 10
346.735353
 20
276.858746
 30
0.0
 11
345.3018129999999
 21
278.2922859999998
 31
0.0
  0
LINE
  5
A3AD
330
A1C4
100
AcDbEntity
  8
1
  6
Continuous
100
AcDbLine
 10
348.149566
 20
276.858746
 30
0.0
 11
346.7160269999998
 21
278.2922859999998
 31
0.0
  0
LINE
  5
A3AE
330
A1C4
100
AcDbEntity
  8
1
  6
Continuous
100
AcDbLine
 10
349.56378
 20
276.858746
 30
0.0
 11
348.13024
 21
278.2922859999998
 31
0.0
  0
LINE
  5
A3AF
330
A1C4
100
AcDbEntity
  8
1
  6
Continuous
100
AcDbLine
 10
350.977993
 20
276.858746
 30
0.0
 11
349.5444539999998
 21
278.2922859999998
 31
0.0
  0
LINE
  5
A3B0
330
A1C4
100
AcDbEntity
  8
1
  6
Continuous
100
AcDbLine
 10
352.3922069999999
 20
276.858746
 30
0.0
 11
350.958667
 21
278.2922859999998
 31
0.0
  0
LINE
  5
A3B1
330
A1C4
100
AcDbEntity
  8
1
  6
Continuous
100
AcDbLine
 10
333.615522
 20
277.9197029999999
 30
0.0
 11
333.9881049999998
 21
278.2922859999998
 31
0.0
  0
LINE
  5
A3B2
330
A1C4
100
AcDbEntity
  8
1
  6
Continuous
100
AcDbLine
 10
333.9687789999999
 20
276.858746
 30
0.0
 11
335.4023179999999
 21
278.2922859999998
 31
0.0
  0
LINE
  5
A3B3
330
A1C4
100
AcDbEntity
  8
1
  6
Continuous
100
AcDbLine
 10
335.3829919999999
 20
276.858746
 30
0.0
 11
336.816532
 21
278.2922859999998
 31
0.0
  0
LINE
  5
A3B4
330
A1C4
100
AcDbEntity
  8
1
  6
Continuous
100
AcDbLine
 10
334.0074309999998
 20
276.858746
 30
0.0
 11
333.615522
 21
277.250655
 31
0.0
  0
LINE
  5
A3B5
330
A1C4
100
AcDbEntity
  8
1
  6
Continuous
100
AcDbLine
 10
335.421644
 20
276.858746
 30
0.0
 11
333.9881049999998
 21
278.2922859999998
 31
0.0
  0
LINE
  5
A3B6
330
A1C4
100
AcDbEntity
  8
1
  6
Continuous
100
AcDbLine
 10
336.8358579999999
 20
276.858746
 30
0.0
 11
335.4023179999999
 21
278.2922859999998
 31
0.0
  0
ARC
  5
A3B7
330
A1C4
100
AcDbEntity
  8
1
  6
Continuous
100
AcDbCircle
 10
334.915522
 20
273.858746
 30
0.0
 40
3.0
100
AcDbArc
 50
90.0
 51
180.0
  0
LINE
  5
A3B8
330
A1C4
100
AcDbEntity
  8
1
  6
Continuous
100
AcDbLine
 10
333.615522
 20
276.858746
 30
0.0
 11
333.615522
 21
278.2922859999998
 31
0.0
  0
ARC
  5
A3B9
330
A1C4
100
AcDbEntity
  8
1
  6
Continuous
100
AcDbCircle
 10
334.3433279999998
 20
285.1232889999998
 30
0.0
 40
3.611003999999998
100
AcDbArc
 50
243.711423
 51
270.0
  0
LINE
  5
A3BA
330
A1C4
100
AcDbEntity
  8
1
  6
Continuous
100
AcDbLine
 10
330.6071729999998
 20
283.283003
 30
0.0
 11
330.5676689999998
 21
283.7103149999999
 31
0.0
  0
ARC
  5
A3BB
330
A1C4
100
AcDbEntity
  8
1
  6
Continuous
100
AcDbCircle
 10
337.456204
 20
291.424877
 30
0.0
 40
10.63951799999999
100
AcDbArc
 50
229.929097
 51
243.711423
  0
ARC
  5
A3BC
330
A1C4
100
AcDbEntity
  8
1
  6
Continuous
100
AcDbCircle
 10
339.4329519999998
 20
276.726314
 30
0.0
 40
6.206
100
AcDbArc
 50
129.5396199999998
 51
140.935699
  0
LINE
  5
A3BD
330
A1C4
100
AcDbEntity
  8
1
  6
Continuous
100
AcDbLine
 10
333.7693709999999
 20
278.652286
 30
0.0
 11
333.899371
 21
278.2922859999998
 31
0.0
  0
ARC
  5
A3BE
330
A1C4
100
AcDbEntity
  8
1
  6
Continuous
100
AcDbCircle
 10
337.230852
 20
281.8275129999999
 30
0.0
 40
4.697225
100
AcDbArc
 50
206.286695
 51
222.530249
  0
LINE
  5
A3BF
330
A1C4
100
AcDbEntity
  8
1
  6
Continuous
100
AcDbLine
 10
334.444371
 20
280.277286
 30
0.0
 11
334.614371
 21
280.6372859999999
 31
0.0
  0
ARC
  5
A3C0
330
A1C4
100
AcDbEntity
  8
1
  6
Continuous
100
AcDbCircle
 10
333.893341
 20
279.357433
 30
0.0
 40
0.9569799999999998
100
AcDbArc
 50
106.011913
 51
155.9597349999999
  0
LINE
  5
A3C1
330
A1C4
100
AcDbEntity
  8
4
  6
CENTER
100
AcDbLine
 10
485.874098
 20
291.3103039999999
 30
0.0
 11
485.874098
 21
256.5806309999999
 31
0.0
  0
LINE
  5
A3C2
330
A1C4
100
AcDbEntity
  8
4
  6
CENTER
100
AcDbLine
 10
510.874098
 20
186.310304
 30
0.0
 11
510.874098
 21
269.310304
 31
0.0
  0
LINE
  5
A3C3
330
A1C4
100
AcDbEntity
  8
1
  6
Continuous
100
AcDbLine
 10
502.752347
 20
274.538772
 30
0.0
 11
502.752347
 21
257.366866
 31
0.0
  0
ARC
  5
A3C4
330
A1C4
100
AcDbEntity
  8
1
  6
Continuous
100
AcDbCircle
 10
506.0255429999998
 20
215.515646
 30
0.0
 40
57.5804
100
AcDbArc
 50
54.57670100000001
 51
64.941633
  0
ARC
  5
A3C5
330
A1C4
100
AcDbEntity
  8
1
  6
Continuous
100
AcDbCircle
 10
462.412032
 20
264.776874
 30
0.0
 40
1.358578999999999
100
AcDbArc
 50
179.931714
 51
203.8676929999998
  0
ARC
  5
A3C6
330
A1C4
100
AcDbEntity
  8
1
  6
Continuous
100
AcDbCircle
 10
510.874098
 20
228.810304
 30
0.0
 40
37.5
100
AcDbArc
 50
124.379051
 51
5.640507000000001
  0
LINE
  5
A3C7
330
A1C4
100
AcDbEntity
  8
4
  6
CENTER
100
AcDbLine
 10
468.374098
 20
228.810304
 30
0.0
 11
553.374098
 21
228.810304
 31
0.0
  0
ARC
  5
A3C8
330
A1C4
100
AcDbEntity
  8
1
  6
Continuous
100
AcDbCircle
 10
510.874098
 20
228.810304
 30
0.0
 40
33.02
100
AcDbArc
 50
118.00036
 51
13.704839
  0
ARC
  5
A3C9
330
A1C4
100
AcDbEntity
  8
1
  6
Continuous
100
AcDbCircle
 10
485.477574
 20
287.592869
 30
0.0
 40
26.54595200000001
100
AcDbArc
 50
261.7656279999998
 51
269.2355089999999
  0
ARC
  5
A3CA
330
A1C4
100
AcDbEntity
  8
1
  6
Continuous
100
AcDbCircle
 10
532.175575
 20
206.072026
 30
0.0
 40
32.5
100
AcDbArc
 50
44.479248
 51
72.02747099999998
  0
ARC
  5
A3CB
330
A1C4
100
AcDbEntity
  8
1
  6
Continuous
100
AcDbCircle
 10
575.521933
 20
273.9872009999999
 30
0.0
 40
49.683118
100
AcDbArc
 50
230.594887
 51
237.5331539999999
  0
ARC
  5
A3CC
330
A1C4
100
AcDbEntity
  8
1
  6
Continuous
100
AcDbCircle
 10
507.6898009999998
 20
217.8554689999999
 30
0.0
 40
54.709072
100
AcDbArc
 50
39.22181
 51
54.57670100000001
  0
ARC
  5
A3CD
330
A1C4
100
AcDbEntity
  8
1
  6
Continuous
100
AcDbCircle
 10
528.6973780000002
 20
237.5449
 30
0.0
 40
26.00512
100
AcDbArc
 50
359.1271449999999
 51
15.808245
  0
ARC
  5
A3CE
330
A1C4
100
AcDbEntity
  8
1
  6
Continuous
100
AcDbCircle
 10
585.636294
 20
274.5133339999998
 30
0.0
 40
56.16589199999999
100
AcDbArc
 50
229.08552
 51
233.6270269999999
  0
ARC
  5
A3CF
330
A1C4
100
AcDbEntity
  8
1
  6
Continuous
100
AcDbCircle
 10
556.228509
 20
234.586167
 30
0.0
 40
6.577622999999999
100
AcDbArc
 50
233.6270269999999
 51
242.4098499999999
  0
ARC
  5
A3D0
330
A1C4
100
AcDbEntity
  8
1
  6
Continuous
100
AcDbCircle
 10
555.2780489999999
 20
228.9046759999999
 30
0.0
 40
0.106062
100
AcDbArc
 50
287.44939
 51
357.407368
  0
ARC
  5
A3D1
330
A1C4
100
AcDbEntity
  8
1
  6
Continuous
100
AcDbCircle
 10
554.946047
 20
229.9609059999999
 30
0.0
 40
1.213241999999999
100
AcDbArc
 50
258.8701379999998
 51
287.44939
  0
ARC
  5
A3D2
330
A1C4
100
AcDbEntity
  8
1
  6
Continuous
100
AcDbCircle
 10
554.7211009999998
 20
226.3631859999999
 30
0.0
 40
2.407313999999999
100
AcDbArc
 50
90.220164
 51
100.406083
  0
ARC
  5
A3D3
330
A1C4
100
AcDbEntity
  8
1
  6
Continuous
100
AcDbCircle
 10
585.2660509999998
 20
236.6830549999999
 30
0.0
 40
30.570118
100
AcDbArc
 50
179.1271449999999
 51
186.149231
  0
ARC
  5
A3D4
330
A1C4
100
AcDbEntity
  8
1
  6
Continuous
100
AcDbCircle
 10
600.8111730000003
 20
238.3578599999999
 30
0.0
 40
46.20519999999999
100
AcDbArc
 50
186.149231
 51
189.842465
  0
ARC
  5
A3D5
330
A1C4
100
AcDbEntity
  8
1
  6
Continuous
100
AcDbCircle
 10
550.8679919999998
 20
229.69305
 30
0.0
 40
4.484051999999998
100
AcDbArc
 50
0.5843090000000001
 51
9.842464999999997
  0
ARC
  5
A3D6
330
A1C4
100
AcDbEntity
  8
1
  6
Continuous
100
AcDbCircle
 10
553.115135
 20
229.002614
 30
0.0
 40
2.271192999999998
100
AcDbArc
 50
357.407368
 51
4.939891
  0
ARC
  5
A3D7
330
A1C4
100
AcDbEntity
  8
1
  6
Continuous
100
AcDbCircle
 10
562.4726509999998
 20
229.8113999999999
 30
0.0
 40
7.121210999999997
100
AcDbArc
 50
180.5843089999999
 51
184.9398909999999
  0
ARC
  5
A3D8
330
A1C4
100
AcDbEntity
  8
1
  6
Continuous
100
AcDbCircle
 10
553.8725910000001
 20
227.0767429999999
 30
0.0
 40
1.705108
100
AcDbArc
 50
75.95881899999998
 51
94.399238
  0
ARC
  5
A3D9
330
A1C4
100
AcDbEntity
  8
1
  6
Continuous
100
AcDbCircle
 10
553.274412
 20
228.8980049999999
 30
0.0
 40
0.169079
100
AcDbArc
 50
236.921291
 51
296.4859009999999
  0
LINE
  5
A3DA
330
A1C4
100
AcDbEntity
  8
1
  6
Continuous
100
AcDbLine
 10
553.7418
 20
228.7768269999999
 30
0.0
 11
553.3498179999997
 21
228.7466709999999
 31
0.0
  0
ARC
  5
A3DB
330
A1C4
100
AcDbEntity
  8
1
  6
Continuous
100
AcDbCircle
 10
516.6560839999998
 20
234.1356849999999
 30
0.0
 40
38.519731
100
AcDbArc
 50
15.808245
 51
22.00152099999999
  0
ARC
  5
A3DC
330
A1C4
100
AcDbEntity
  8
1
  6
Continuous
100
AcDbCircle
 10
538.3997589999999
 20
242.9213719999999
 30
0.0
 40
15.068171
100
AcDbArc
 50
22.00152099999999
 51
39.22181
  0
ARC
  5
A3DD
330
A1C4
100
AcDbEntity
  8
1
  6
Continuous
100
AcDbCircle
 10
510.874098
 20
228.810304
 30
0.0
 40
11.29225099999999
100
AcDbArc
 50
230.888156
 51
349.766212
  0
ARC
  5
A3DE
330
A1C4
100
AcDbEntity
  8
1
  6
Continuous
100
AcDbCircle
 10
510.874098
 20
228.810304
 30
0.0
 40
21.49999999999999
100
AcDbArc
 50
173.717004
 51
13.366122
  0
ARC
  5
A3DF
330
A1C4
100
AcDbEntity
  8
1
  6
Continuous
100
AcDbCircle
 10
510.874098
 20
228.810304
 30
0.0
 40
19.91305699999999
100
AcDbArc
 50
180.936577
 51
11.72122499999999
  0
LINE
  5
A3E0
330
A1C4
100
AcDbEntity
  8
1
  6
Continuous
100
AcDbLine
 10
491.6918299999998
 20
227.907644
 30
0.0
 11
504.1234619999998
 21
219.8054139999999
 31
0.0
  0
ARC
  5
A3E1
330
A1C4
100
AcDbEntity
  8
1
  6
Continuous
100
AcDbCircle
 10
510.118497
 20
229.0038779999999
 30
0.0
 40
10.979625
100
AcDbArc
 50
236.9059829999999
 51
343.1177069999999
  0
ARC
  5
A3E2
330
A1C4
100
AcDbEntity
  8
1
  6
Continuous
100
AcDbCircle
 10
559.00125
 20
190.4581489999999
 30
0.0
 40
51.158439
100
AcDbArc
 50
118.834569
 51
125.982453
  0
ARC
  5
A3E3
330
A1C4
100
AcDbEntity
  8
1
  6
Continuous
100
AcDbCircle
 10
541.1850849999998
 20
233.8457479999999
 30
0.0
 40
3.301526
100
AcDbArc
 50
32.05960499999999
 51
86.785259
  0
ARC
  5
A3E4
330
A1C4
100
AcDbEntity
  8
1
  6
Continuous
100
AcDbCircle
 10
540.823182
 20
227.4023939999999
 30
0.0
 40
9.755034999999999
100
AcDbArc
 50
86.785259
 51
112.4505489999999
  0
LINE
  5
A3E5
330
A1C4
100
AcDbEntity
  8
1
  6
Continuous
100
AcDbLine
 10
537.0978719999999
 20
236.41809
 30
0.0
 11
534.3284399999999
 21
235.2737529999999
 31
0.0
  0
LINE
  5
A3E6
330
A1C4
100
AcDbEntity
  8
1
  6
Continuous
100
AcDbLine
 10
520.624937
 20
225.815323
 30
0.0
 11
528.94375
 21
231.8554029999999
 31
0.0
  0
ARC
  5
A3E7
330
A1C4
100
AcDbEntity
  8
1
  6
Continuous
100
AcDbCircle
 10
510.874098
 20
228.810304
 30
0.0
 40
21.49999999999999
100
AcDbArc
 50
115.835059
 51
163.5583809999999
  0
ARC
  5
A3E8
330
A1C4
100
AcDbEntity
  8
1
  6
Continuous
100
AcDbCircle
 10
510.874098
 20
228.810304
 30
0.0
 40
19.91305699999999
100
AcDbArc
 50
121.9862869999999
 51
152.0425009999998
  0
LINE
  5
A3E9
330
A1C4
100
AcDbEntity
  8
1
  6
Continuous
100
AcDbLine
 10
490.8263709999998
 20
235.606908
 30
0.0
 11
499.0536059999998
 21
244.1030339999998
 31
0.0
  0
ARC
  5
A3EA
330
A1C4
100
AcDbEntity
  8
1
  6
Continuous
100
AcDbCircle
 10
494.4333489999998
 20
232.1140859999999
 30
0.0
 40
5.020965
100
AcDbArc
 50
135.9211699999999
 51
236.9059829999999
  0
ARC
  5
A3EB
330
A1C4
100
AcDbEntity
  8
1
  6
Continuous
100
AcDbCircle
 10
502.006946
 20
256.9711369999998
 30
0.0
 40
3.032124
100
AcDbArc
 50
207.946476
 51
230.6032009999999
  0
ARC
  5
A3EC
330
A1C4
100
AcDbEntity
  8
1
  6
Continuous
100
AcDbCircle
 10
495.093065
 20
253.303241
 30
0.0
 40
4.794446999999999
100
AcDbArc
 50
27.946476
 51
44.477885
  0
ARC
  5
A3ED
330
A1C4
100
AcDbEntity
  8
1
  6
Continuous
100
AcDbCircle
 10
491.453084
 20
251.4630079999998
 30
0.0
 40
10.580035
100
AcDbArc
 50
315.92117
 51
358.242478
  0
ARC
  5
A3EE
330
A1C4
100
AcDbEntity
  8
1
  6
Continuous
100
AcDbCircle
 10
497.6793149999998
 20
251.2719609999999
 30
0.0
 40
4.350874
100
AcDbArc
 50
358.242478
 51
46.896881
  0
ARC
  5
A3EF
330
A1C4
100
AcDbEntity
  8
1
  6
Continuous
100
AcDbCircle
 10
500.590222
 20
255.246191
 30
0.0
 40
0.799962
100
AcDbArc
 50
230.6032009999999
 51
274.4526109999998
  0
ARC
  5
A3F0
330
A1C4
100
AcDbEntity
  8
1
  6
Continuous
100
AcDbCircle
 10
467.149238
 20
188.5038099999999
 30
0.0
 40
74.73898100000003
100
AcDbArc
 50
72.44455699999999
 51
76.08440300000002
  0
ARC
  5
A3F1
330
A1C4
100
AcDbEntity
  8
1
  6
Continuous
100
AcDbCircle
 10
493.160326
 20
249.000981
 30
0.0
 40
9.213746999999999
100
AcDbArc
 50
57.78577900000001
 51
72.44455699999999
  0
ARC
  5
A3F2
330
A1C4
100
AcDbEntity
  8
1
  6
Continuous
100
AcDbCircle
 10
498.537067
 20
257.534403
 30
0.0
 40
0.8723139999999999
100
AcDbArc
 50
237.7857789999999
 51
268.4849279999999
  0
LINE
  5
A3F3
330
A1C4
100
AcDbEntity
  8
1
  6
Continuous
100
AcDbLine
 10
495.9394549999998
 20
257.785602
 30
0.0
 11
489.692648
 21
259.761861
 31
0.0
  0
ARC
  5
A3F4
330
A1C4
100
AcDbEntity
  8
1
  6
Continuous
100
AcDbCircle
 10
464.835518
 20
220.2626819999999
 30
0.0
 40
43.523192
100
AcDbArc
 50
80.87579299999999
 51
89.671315
  0
ARC
  5
A3F5
330
A1C4
100
AcDbEntity
  8
1
  6
Continuous
100
AcDbCircle
 10
461.812649
 20
201.4412049999999
 30
0.0
 40
62.58587099999999
100
AcDbArc
 50
74.67249200000002
 51
80.87579299999999
  0
LINE
  5
A3F6
330
A1C4
100
AcDbEntity
  8
1
  6
Continuous
100
AcDbLine
 10
481.675592
 20
261.3205929999999
 30
0.0
 11
478.356354
 21
261.8009349999999
 31
0.0
  0
ARC
  5
A3F7
330
A1C4
100
AcDbEntity
  8
1
  6
Continuous
100
AcDbCircle
 10
463.8480429999998
 20
265.4257739999999
 30
0.0
 40
1.437096999999999
100
AcDbArc
 50
251.285191
 51
275.7122309999999
  0
ARC
  5
A3F8
330
A1C4
100
AcDbEntity
  8
1
  6
Continuous
100
AcDbCircle
 10
464.185054
 20
262.0566339999999
 30
0.0
 40
1.948857
100
AcDbArc
 50
62.491492
 51
95.712231
  0
ARC
  5
A3F9
330
A1C4
100
AcDbEntity
  8
1
  6
Continuous
100
AcDbCircle
 10
461.103284
 20
260.3885669999999
 30
0.0
 40
3.739275
100
AcDbArc
 50
79.11158
 51
86.645678
  0
ARC
  5
A3FA
330
A1C4
100
AcDbEntity
  8
1
  6
Continuous
100
AcDbCircle
 10
461.3324900000002
 20
264.2992149999999
 30
0.0
 40
0.178084
100
AcDbArc
 50
203.8676929999998
 51
266.6456779999999
  0
LINE
  5
A3FB
330
A1C4
100
AcDbEntity
  8
1
  6
Continuous
100
AcDbLine
 10
462.227633
 20
264.11826
 30
0.0
 11
462.8054839999999
 21
264.1191589999999
 31
0.0
  0
ARC
  5
A3FC
330
A1C4
100
AcDbEntity
  8
1
  6
Continuous
100
AcDbCircle
 10
461.4139519999998
 20
268.467208
 30
0.0
 40
4.424412
100
AcDbArc
 50
275.130746
 51
280.5974229999998
  0
ARC
  5
A3FD
330
A1C4
100
AcDbEntity
  8
1
  6
Continuous
100
AcDbCircle
 10
463.142173
 20
266.548517
 30
0.0
 40
2.495886999999997
100
AcDbArc
 50
264.503916
 51
275.627916
  0
ARC
  5
A3FE
330
A1C4
100
AcDbEntity
  8
1
  6
Continuous
100
AcDbCircle
 10
462.9163609999998
 20
264.2016889999998
 30
0.0
 40
0.13822
100
AcDbArc
 50
216.6616549999999
 51
264.503916
  0
LINE
  5
A3FF
330
A1C4
100
AcDbEntity
  8
1
  6
Continuous
100
AcDbLine
 10
484.5386089999998
 20
276.799348
 30
0.0
 11
483.04567
 21
278.2922859999998
 31
0.0
  0
LINE
  5
A400
330
A1C4
100
AcDbEntity
  8
1
  6
Continuous
100
AcDbLine
 10
482.971604
 20
276.804006
 30
0.0
 11
484.4598839999998
 21
278.2922859999998
 31
0.0
  0
LINE
  5
A401
330
A1C4
100
AcDbEntity
  8
1
  6
Continuous
100
AcDbLine
 10
462.874098
 20
276.86375
 30
0.0
 11
508.874098
 21
276.7270049999999
 31
0.0
  0
LINE
  5
A402
330
A1C4
100
AcDbEntity
  8
1
  6
Continuous
100
AcDbLine
 10
463.6019039999998
 20
281.512285
 30
0.0
 11
508.1462909999998
 21
281.512285
 31
0.0
  0
LINE
  5
A403
330
A1C4
100
AcDbEntity
  8
1
  6
Continuous
100
AcDbLine
 10
511.8824459999998
 20
283.283003
 30
0.0
 11
459.8657489999998
 21
283.283003
 31
0.0
  0
LINE
  5
A404
330
A1C4
100
AcDbEntity
  8
1
  6
Continuous
100
AcDbLine
 10
508.874098
 20
278.2922859999998
 30
0.0
 11
462.874098
 21
278.2922859999998
 31
0.0
  0
LINE
  5
A405
330
A1C4
100
AcDbEntity
  8
1
  6
Continuous
100
AcDbLine
 10
508.860248
 20
280.277286
 30
0.0
 11
462.887947
 21
280.277286
 31
0.0
  0
LINE
  5
A406
330
A1C4
100
AcDbEntity
  8
1
  6
Continuous
100
AcDbLine
 10
527.1240979999999
 20
283.710518
 30
0.0
 11
452.6411979999998
 21
283.7103149999999
 31
0.0
  0
LINE
  5
A407
330
A1C4
100
AcDbEntity
  8
1
  6
Continuous
100
AcDbLine
 10
527.1240979999999
 20
286.310289
 30
0.0
 11
452.6411979999998
 21
286.310316
 31
0.0
  0
ARC
  5
A408
330
A1C4
100
AcDbEntity
  8
1
  6
Continuous
100
AcDbCircle
 10
505.800709
 20
213.009554
 30
0.0
 40
60.038574
100
AcDbArc
 50
77.282815
 51
83.52564499999997
  0
LINE
  5
A409
330
A1C4
100
AcDbEntity
  8
4
  6
CENTER
100
AcDbLine
 10
519.874098
 20
289.3102909999999
 30
0.0
 11
519.874098
 21
280.7104979999999
 31
0.0
  0
ARC
  5
A40A
330
A1C4
100
AcDbEntity
  8
1
  6
Continuous
100
AcDbCircle
 10
506.6841809999998
 20
216.9243509999998
 30
0.0
 40
56.02532599999999
100
AcDbArc
 50
64.941633
 51
77.282815
  0
LINE
  5
A40B
330
A1C4
100
AcDbEntity
  8
1
  6
Continuous
100
AcDbLine
 10
527.1240979999999
 20
283.710336
 30
0.0
 11
527.1240979999999
 21
286.310289
 31
0.0
  0
LINE
  5
A40C
330
A1C4
100
AcDbEntity
  8
1
  6
Continuous
100
AcDbLine
 10
516.107031
 20
283.710333
 30
0.0
 11
519.1069979999999
 21
283.710336
 31
0.0
  0
LINE
  5
A40D
330
A1C4
100
AcDbEntity
  8
1
  6
Continuous
100
AcDbLine
 10
500.141341
 20
276.752965
 30
0.0
 11
498.6020199999998
 21
278.2922859999998
 31
0.0
  0
LINE
  5
A40E
330
A1C4
100
AcDbEntity
  8
1
  6
Continuous
100
AcDbLine
 10
498.481845
 20
276.757898
 30
0.0
 11
500.016233
 21
278.2922859999998
 31
0.0
  0
LINE
  5
A40F
330
A1C4
100
AcDbEntity
  8
1
  6
Continuous
100
AcDbLine
 10
508.874098
 20
277.9197029999999
 30
0.0
 11
508.501515
 21
278.2922859999998
 31
0.0
  0
LINE
  5
A410
330
A1C4
100
AcDbEntity
  8
1
  6
Continuous
100
AcDbLine
 10
508.6519219999998
 20
276.7276649999999
 30
0.0
 11
507.0873009999998
 21
278.2922859999998
 31
0.0
  0
LINE
  5
A411
330
A1C4
100
AcDbEntity
  8
1
  6
Continuous
100
AcDbLine
 10
507.233492
 20
276.7318819999999
 30
0.0
 11
505.6730869999998
 21
278.2922859999998
 31
0.0
  0
LINE
  5
A412
330
A1C4
100
AcDbEntity
  8
1
  6
Continuous
100
AcDbLine
 10
505.815062
 20
276.7360979999998
 30
0.0
 11
504.258874
 21
278.2922859999998
 31
0.0
  0
LINE
  5
A413
330
A1C4
100
AcDbEntity
  8
1
  6
Continuous
100
AcDbLine
 10
504.396631
 20
276.740315
 30
0.0
 11
502.8446599999998
 21
278.2922859999998
 31
0.0
  0
LINE
  5
A414
330
A1C4
100
AcDbEntity
  8
1
  6
Continuous
100
AcDbLine
 10
502.9782009999998
 20
276.7445319999998
 30
0.0
 11
501.4304469999998
 21
278.2922859999998
 31
0.0
  0
LINE
  5
A415
330
A1C4
100
AcDbEntity
  8
1
  6
Continuous
100
AcDbLine
 10
501.559771
 20
276.7487479999999
 30
0.0
 11
500.016233
 21
278.2922859999998
 31
0.0
  0
LINE
  5
A416
330
A1C4
100
AcDbEntity
  8
1
  6
Continuous
100
AcDbLine
 10
508.874098
 20
277.250655
 30
0.0
 11
508.351999
 21
276.7285569999998
 31
0.0
  0
LINE
  5
A417
330
A1C4
100
AcDbEntity
  8
1
  6
Continuous
100
AcDbLine
 10
506.9419769999998
 20
276.732748
 30
0.0
 11
508.501515
 21
278.2922859999998
 31
0.0
  0
LINE
  5
A418
330
A1C4
100
AcDbEntity
  8
1
  6
Continuous
100
AcDbLine
 10
505.531955
 20
276.73694
 30
0.0
 11
507.0873009999998
 21
278.2922859999998
 31
0.0
  0
LINE
  5
A419
330
A1C4
100
AcDbEntity
  8
1
  6
Continuous
100
AcDbLine
 10
504.121933
 20
276.7411319999999
 30
0.0
 11
505.6730869999998
 21
278.2922859999998
 31
0.0
  0
LINE
  5
A41A
330
A1C4
100
AcDbEntity
  8
1
  6
Continuous
100
AcDbLine
 10
502.711911
 20
276.745323
 30
0.0
 11
504.258874
 21
278.2922859999998
 31
0.0
  0
LINE
  5
A41B
330
A1C4
100
AcDbEntity
  8
1
  6
Continuous
100
AcDbLine
 10
501.3018889999998
 20
276.7495149999999
 30
0.0
 11
502.8446599999998
 21
278.2922859999998
 31
0.0
  0
LINE
  5
A41C
330
A1C4
100
AcDbEntity
  8
1
  6
Continuous
100
AcDbLine
 10
499.891867
 20
276.753706
 30
0.0
 11
501.4304469999998
 21
278.2922859999998
 31
0.0
  0
ARC
  5
A41D
330
A1C4
100
AcDbEntity
  8
1
  6
Continuous
100
AcDbCircle
 10
515.986801
 20
254.0764299999999
 30
0.0
 40
20.0
100
AcDbArc
 50
105.293561
 51
131.4313909999999
  0
ARC
  5
A41E
330
A1C4
100
AcDbEntity
  8
1
  6
Continuous
100
AcDbCircle
 10
511.5211639999998
 20
273.734123
 30
0.0
 40
0.896536
100
AcDbArc
 50
190.43161
 51
258.877161
  0
ARC
  5
A41F
330
A1C4
100
AcDbEntity
  8
1
  6
Continuous
100
AcDbCircle
 10
514.2901329999999
 20
287.8179589999998
 30
0.0
 40
15.24998899999999
100
AcDbArc
 50
258.877161
 51
263.5256449999999
  0
ARC
  5
A420
330
A1C4
100
AcDbEntity
  8
1
  6
Continuous
100
AcDbCircle
 10
506.560947
 20
273.0791089999998
 30
0.0
 40
3.731914999999998
100
AcDbArc
 50
39.29049099999998
 51
65.77346799999999
  0
ARC
  5
A421
330
A1C4
100
AcDbEntity
  8
1
  6
Continuous
100
AcDbCircle
 10
502.227156
 20
269.5331429999999
 30
0.0
 40
9.331523999999998
100
AcDbArc
 50
25.645172
 51
39.29049099999998
  0
ARC
  5
A422
330
A1C4
100
AcDbEntity
  8
1
  6
Continuous
100
AcDbCircle
 10
506.9254869999999
 20
273.889244
 30
0.0
 40
2.843541
100
AcDbArc
 50
65.77346799999999
 51
89.82967600000002
  0
LINE
  5
A423
330
A1C4
100
AcDbEntity
  8
1
  6
Continuous
100
AcDbLine
 10
508.874098
 20
276.7270049999999
 30
0.0
 11
508.874098
 21
278.2922859999998
 31
0.0
  0
ARC
  5
A424
330
A1C4
100
AcDbEntity
  8
1
  6
Continuous
100
AcDbCircle
 10
508.1462909999998
 20
285.1232889999998
 30
0.0
 40
3.611003999999998
100
AcDbArc
 50
270.0
 51
296.2885769999999
  0
LINE
  5
A425
330
A1C4
100
AcDbEntity
  8
1
  6
Continuous
100
AcDbLine
 10
511.8824459999998
 20
283.283003
 30
0.0
 11
511.9219499999998
 21
283.7103149999999
 31
0.0
  0
ARC
  5
A426
330
A1C4
100
AcDbEntity
  8
1
  6
Continuous
100
AcDbCircle
 10
505.033415
 20
291.424877
 30
0.0
 40
10.63951799999999
100
AcDbArc
 50
296.2885769999999
 51
310.0709029999998
  0
ARC
  5
A427
330
A1C4
100
AcDbEntity
  8
1
  6
Continuous
100
AcDbCircle
 10
503.0566669999998
 20
276.726314
 30
0.0
 40
6.206
100
AcDbArc
 50
39.064301
 51
50.46037999999999
  0
LINE
  5
A428
330
A1C4
100
AcDbEntity
  8
1
  6
Continuous
100
AcDbLine
 10
508.720248
 20
278.652286
 30
0.0
 11
508.5902479999998
 21
278.2922859999998
 31
0.0
  0
ARC
  5
A429
330
A1C4
100
AcDbEntity
  8
1
  6
Continuous
100
AcDbCircle
 10
505.258767
 20
281.8275129999999
 30
0.0
 40
4.697225
100
AcDbArc
 50
317.4697509999999
 51
333.713305
  0
LINE
  5
A42A
330
A1C4
100
AcDbEntity
  8
1
  6
Continuous
100
AcDbLine
 10
508.0452479999998
 20
280.277286
 30
0.0
 11
507.875248
 21
280.6372859999999
 31
0.0
  0
ARC
  5
A42B
330
A1C4
100
AcDbEntity
  8
1
  6
Continuous
100
AcDbCircle
 10
508.596278
 20
279.357433
 30
0.0
 40
0.9569799999999998
100
AcDbArc
 50
24.04026499999999
 51
73.98808699999998
  0
LINE
  5
A42C
330
A1C4
100
AcDbEntity
  8
1
  6
Continuous
100
AcDbLine
 10
498.722911
 20
276.757181
 30
0.0
 11
497.1878059999998
 21
278.2922859999998
 31
0.0
  0
LINE
  5
A42D
330
A1C4
100
AcDbEntity
  8
1
  6
Continuous
100
AcDbLine
 10
497.3044809999998
 20
276.7613979999998
 30
0.0
 11
495.7735929999998
 21
278.2922859999998
 31
0.0
  0
LINE
  5
A42E
330
A1C4
100
AcDbEntity
  8
1
  6
Continuous
100
AcDbLine
 10
495.88605
 20
276.7656149999999
 30
0.0
 11
494.359379
 21
278.2922859999998
 31
0.0
  0
LINE
  5
A42F
330
A1C4
100
AcDbEntity
  8
1
  6
Continuous
100
AcDbLine
 10
494.4676199999998
 20
276.769831
 30
0.0
 11
492.9451649999998
 21
278.2922859999998
 31
0.0
  0
LINE
  5
A430
330
A1C4
100
AcDbEntity
  8
1
  6
Continuous
100
AcDbLine
 10
493.0491899999998
 20
276.774048
 30
0.0
 11
491.530952
 21
278.2922859999998
 31
0.0
  0
LINE
  5
A431
330
A1C4
100
AcDbEntity
  8
1
  6
Continuous
100
AcDbLine
 10
491.6307599999998
 20
276.7782639999999
 30
0.0
 11
490.116738
 21
278.2922859999998
 31
0.0
  0
LINE
  5
A432
330
A1C4
100
AcDbEntity
  8
1
  6
Continuous
100
AcDbLine
 10
490.21233
 20
276.782481
 30
0.0
 11
488.7025249999998
 21
278.2922859999998
 31
0.0
  0
LINE
  5
A433
330
A1C4
100
AcDbEntity
  8
1
  6
Continuous
100
AcDbLine
 10
488.7939
 20
276.7866979999999
 30
0.0
 11
487.288311
 21
278.2922859999998
 31
0.0
  0
LINE
  5
A434
330
A1C4
100
AcDbEntity
  8
1
  6
Continuous
100
AcDbLine
 10
485.957039
 20
276.795131
 30
0.0
 11
484.4598839999998
 21
278.2922859999998
 31
0.0
  0
LINE
  5
A435
330
A1C4
100
AcDbEntity
  8
1
  6
Continuous
100
AcDbLine
 10
487.3754690000001
 20
276.7909139999998
 30
0.0
 11
485.874098
 21
278.2922859999998
 31
0.0
  0
LINE
  5
A436
330
A1C4
100
AcDbEntity
  8
1
  6
Continuous
100
AcDbLine
 10
497.0718230000001
 20
276.76209
 30
0.0
 11
498.6020199999998
 21
278.2922859999998
 31
0.0
  0
LINE
  5
A437
330
A1C4
100
AcDbEntity
  8
1
  6
Continuous
100
AcDbLine
 10
495.6618009999998
 20
276.766281
 30
0.0
 11
497.1878059999998
 21
278.2922859999998
 31
0.0
  0
LINE
  5
A438
330
A1C4
100
AcDbEntity
  8
1
  6
Continuous
100
AcDbLine
 10
494.251779
 20
276.7704729999999
 30
0.0
 11
495.7735929999998
 21
278.2922859999998
 31
0.0
  0
LINE
  5
A439
330
A1C4
100
AcDbEntity
  8
1
  6
Continuous
100
AcDbLine
 10
492.8417569999998
 20
276.7746649999998
 30
0.0
 11
494.359379
 21
278.2922859999998
 31
0.0
  0
LINE
  5
A43A
330
A1C4
100
AcDbEntity
  8
1
  6
Continuous
100
AcDbLine
 10
491.4317349999998
 20
276.778856
 30
0.0
 11
492.9451649999998
 21
278.2922859999998
 31
0.0
  0
LINE
  5
A43B
330
A1C4
100
AcDbEntity
  8
1
  6
Continuous
100
AcDbLine
 10
490.0217139999998
 20
276.783048
 30
0.0
 11
491.530952
 21
278.2922859999998
 31
0.0
  0
LINE
  5
A43C
330
A1C4
100
AcDbEntity
  8
1
  6
Continuous
100
AcDbLine
 10
488.611692
 20
276.7872389999999
 30
0.0
 11
490.116738
 21
278.2922859999998
 31
0.0
  0
LINE
  5
A43D
330
A1C4
100
AcDbEntity
  8
1
  6
Continuous
100
AcDbLine
 10
487.2016699999998
 20
276.791431
 30
0.0
 11
488.7025249999998
 21
278.2922859999998
 31
0.0
  0
LINE
  5
A43E
330
A1C4
100
AcDbEntity
  8
1
  6
Continuous
100
AcDbLine
 10
485.791648
 20
276.7956229999999
 30
0.0
 11
487.288311
 21
278.2922859999998
 31
0.0
  0
LINE
  5
A43F
330
A1C4
100
AcDbEntity
  8
1
  6
Continuous
100
AcDbLine
 10
484.3816259999998
 20
276.799814
 30
0.0
 11
485.874098
 21
278.2922859999998
 31
0.0
  0
LINE
  5
A440
330
A1C4
100
AcDbEntity
  8
4
  6
CENTER
100
AcDbLine
 10
468.874098
 20
289.31031
 30
0.0
 11
468.874098
 21
280.710359
 31
0.0
  0
LINE
  5
A441
330
A1C4
100
AcDbEntity
  8
1
  6
Continuous
100
AcDbLine
 10
467.5174469999998
 20
276.849947
 30
0.0
 11
466.0751079999998
 21
278.2922859999998
 31
0.0
  0
LINE
  5
A442
330
A1C4
100
AcDbEntity
  8
1
  6
Continuous
100
AcDbLine
 10
466.05134
 20
276.8543049999999
 30
0.0
 11
467.489321
 21
278.2922859999998
 31
0.0
  0
LINE
  5
A443
330
A1C4
100
AcDbEntity
  8
1
  6
Continuous
100
AcDbLine
 10
468.9358769999998
 20
276.84573
 30
0.0
 11
467.489321
 21
278.2922859999998
 31
0.0
  0
LINE
  5
A444
330
A1C4
100
AcDbEntity
  8
1
  6
Continuous
100
AcDbLine
 10
470.354307
 20
276.841514
 30
0.0
 11
468.903535
 21
278.2922859999998
 31
0.0
  0
LINE
  5
A445
330
A1C4
100
AcDbEntity
  8
1
  6
Continuous
100
AcDbLine
 10
471.772738
 20
276.8372969999999
 30
0.0
 11
470.3177479999998
 21
278.2922859999998
 31
0.0
  0
LINE
  5
A446
330
A1C4
100
AcDbEntity
  8
1
  6
Continuous
100
AcDbLine
 10
473.1911679999998
 20
276.83308
 30
0.0
 11
471.731962
 21
278.2922859999998
 31
0.0
  0
LINE
  5
A447
330
A1C4
100
AcDbEntity
  8
1
  6
Continuous
100
AcDbLine
 10
474.6095979999998
 20
276.828864
 30
0.0
 11
473.146176
 21
278.2922859999998
 31
0.0
  0
LINE
  5
A448
330
A1C4
100
AcDbEntity
  8
1
  6
Continuous
100
AcDbLine
 10
476.0280279999998
 20
276.824647
 30
0.0
 11
474.5603889999999
 21
278.2922859999998
 31
0.0
  0
LINE
  5
A449
330
A1C4
100
AcDbEntity
  8
1
  6
Continuous
100
AcDbLine
 10
477.446458
 20
276.8204309999999
 30
0.0
 11
475.974603
 21
278.2922859999998
 31
0.0
  0
LINE
  5
A44A
330
A1C4
100
AcDbEntity
  8
1
  6
Continuous
100
AcDbLine
 10
478.864888
 20
276.816214
 30
0.0
 11
477.388816
 21
278.2922859999998
 31
0.0
  0
LINE
  5
A44B
330
A1C4
100
AcDbEntity
  8
1
  6
Continuous
100
AcDbLine
 10
480.283319
 20
276.811997
 30
0.0
 11
478.8030299999999
 21
278.2922859999998
 31
0.0
  0
LINE
  5
A44C
330
A1C4
100
AcDbEntity
  8
1
  6
Continuous
100
AcDbLine
 10
481.701749
 20
276.8077809999999
 30
0.0
 11
480.2172429999997
 21
278.2922859999998
 31
0.0
  0
LINE
  5
A44D
330
A1C4
100
AcDbEntity
  8
1
  6
Continuous
100
AcDbLine
 10
483.120179
 20
276.8035639999999
 30
0.0
 11
481.631457
 21
278.2922859999998
 31
0.0
  0
LINE
  5
A44E
330
A1C4
100
AcDbEntity
  8
1
  6
Continuous
100
AcDbLine
 10
467.461362
 20
276.8501129999999
 30
0.0
 11
468.903535
 21
278.2922859999998
 31
0.0
  0
LINE
  5
A44F
330
A1C4
100
AcDbEntity
  8
1
  6
Continuous
100
AcDbLine
 10
468.871384
 20
276.8459219999999
 30
0.0
 11
470.3177479999998
 21
278.2922859999998
 31
0.0
  0
LINE
  5
A450
330
A1C4
100
AcDbEntity
  8
1
  6
Continuous
100
AcDbLine
 10
470.2814059999998
 20
276.8417299999999
 30
0.0
 11
471.731962
 21
278.2922859999998
 31
0.0
  0
LINE
  5
A451
330
A1C4
100
AcDbEntity
  8
1
  6
Continuous
100
AcDbLine
 10
471.691428
 20
276.837539
 30
0.0
 11
473.146176
 21
278.2922859999998
 31
0.0
  0
LINE
  5
A452
330
A1C4
100
AcDbEntity
  8
1
  6
Continuous
100
AcDbLine
 10
473.1014499999998
 20
276.8333469999999
 30
0.0
 11
474.5603889999999
 21
278.2922859999998
 31
0.0
  0
LINE
  5
A453
330
A1C4
100
AcDbEntity
  8
1
  6
Continuous
100
AcDbLine
 10
474.511472
 20
276.8291549999998
 30
0.0
 11
475.974603
 21
278.2922859999998
 31
0.0
  0
LINE
  5
A454
330
A1C4
100
AcDbEntity
  8
1
  6
Continuous
100
AcDbLine
 10
475.921494
 20
276.824964
 30
0.0
 11
477.388816
 21
278.2922859999998
 31
0.0
  0
LINE
  5
A455
330
A1C4
100
AcDbEntity
  8
1
  6
Continuous
100
AcDbLine
 10
477.331516
 20
276.8207719999999
 30
0.0
 11
478.8030299999999
 21
278.2922859999998
 31
0.0
  0
LINE
  5
A456
330
A1C4
100
AcDbEntity
  8
1
  6
Continuous
100
AcDbLine
 10
478.7415379999997
 20
276.8165809999999
 30
0.0
 11
480.2172429999997
 21
278.2922859999998
 31
0.0
  0
LINE
  5
A457
330
A1C4
100
AcDbEntity
  8
1
  6
Continuous
100
AcDbLine
 10
480.15156
 20
276.812389
 30
0.0
 11
481.631457
 21
278.2922859999998
 31
0.0
  0
LINE
  5
A458
330
A1C4
100
AcDbEntity
  8
1
  6
Continuous
100
AcDbLine
 10
481.5615819999998
 20
276.808197
 30
0.0
 11
483.04567
 21
278.2922859999998
 31
0.0
  0
LINE
  5
A459
330
A1C4
100
AcDbEntity
  8
1
  6
Continuous
100
AcDbLine
 10
463.262157
 20
276.8625969999998
 30
0.0
 11
462.874098
 21
277.250655
 31
0.0
  0
LINE
  5
A45A
330
A1C4
100
AcDbEntity
  8
1
  6
Continuous
100
AcDbLine
 10
464.680587
 20
276.8583799999999
 30
0.0
 11
463.2466809999998
 21
278.2922859999998
 31
0.0
  0
LINE
  5
A45B
330
A1C4
100
AcDbEntity
  8
1
  6
Continuous
100
AcDbLine
 10
466.0990169999998
 20
276.8541629999999
 30
0.0
 11
464.660894
 21
278.2922859999998
 31
0.0
  0
LINE
  5
A45C
330
A1C4
100
AcDbEntity
  8
1
  6
Continuous
100
AcDbLine
 10
462.874098
 20
277.9197029999999
 30
0.0
 11
463.2466809999998
 21
278.2922859999998
 31
0.0
  0
LINE
  5
A45D
330
A1C4
100
AcDbEntity
  8
1
  6
Continuous
100
AcDbLine
 10
463.231296
 20
276.8626879999998
 30
0.0
 11
464.660894
 21
278.2922859999998
 31
0.0
  0
LINE
  5
A45E
330
A1C4
100
AcDbEntity
  8
1
  6
Continuous
100
AcDbLine
 10
464.6413179999998
 20
276.858497
 30
0.0
 11
466.0751079999998
 21
278.2922859999998
 31
0.0
  0
ARC
  5
A45F
330
A1C4
100
AcDbEntity
  8
1
  6
Continuous
100
AcDbCircle
 10
397.253494
 20
271.5817529999998
 30
0.0
 40
64.065353
100
AcDbArc
 50
355.550489
 51
357.909316
  0
ARC
  5
A460
330
A1C4
100
AcDbEntity
  8
1
  6
Continuous
100
AcDbCircle
 10
485.0495349999998
 20
264.7498939999999
 30
0.0
 40
23.99609799999999
100
AcDbArc
 50
175.550489
 51
179.931714
  0
ARC
  5
A461
330
A1C4
100
AcDbEntity
  8
1
  6
Continuous
100
AcDbCircle
 10
432.9680419999998
 20
270.277975
 30
0.0
 40
28.32701399999999
100
AcDbArc
 50
357.909316
 51
3.327491999999999
  0
ARC
  5
A462
330
A1C4
100
AcDbEntity
  8
1
  6
Continuous
100
AcDbCircle
 10
467.4706269999998
 20
272.283993
 30
0.0
 40
6.233837
100
AcDbArc
 50
153.6851
 51
183.327492
  0
ARC
  5
A463
330
A1C4
100
AcDbEntity
  8
1
  6
Continuous
100
AcDbCircle
 10
465.108282
 20
273.4523009999999
 30
0.0
 40
3.598383
100
AcDbArc
 50
119.314214
 51
153.6851
  0
ARC
  5
A464
330
A1C4
100
AcDbEntity
  8
1
  6
Continuous
100
AcDbCircle
 10
464.209228
 20
275.053465
 30
0.0
 40
1.762075
100
AcDbArc
 50
104.028547
 51
119.314214
  0
ARC
  5
A465
330
A1C4
100
AcDbEntity
  8
1
  6
Continuous
100
AcDbCircle
 10
464.5602039999998
 20
273.6487589999999
 30
0.0
 40
3.209964999999998
100
AcDbArc
 50
89.82967600000002
 51
104.028547
  0
LINE
  5
A466
330
A1C4
100
AcDbEntity
  8
1
  6
Continuous
100
AcDbLine
 10
462.874098
 20
276.86375
 30
0.0
 11
462.874098
 21
278.2922859999998
 31
0.0
  0
ARC
  5
A467
330
A1C4
100
AcDbEntity
  8
1
  6
Continuous
100
AcDbCircle
 10
463.6019039999998
 20
285.1232889999998
 30
0.0
 40
3.611003999999998
100
AcDbArc
 50
243.711423
 51
270.0
  0
LINE
  5
A468
330
A1C4
100
AcDbEntity
  8
1
  6
Continuous
100
AcDbLine
 10
452.6411979999998
 20
283.710336
 30
0.0
 11
452.6411979999998
 21
286.310304
 31
0.0
  0
LINE
  5
A469
330
A1C4
100
AcDbEntity
  8
1
  6
Continuous
100
AcDbLine
 10
459.8657489999998
 20
283.283003
 30
0.0
 11
459.826245
 21
283.7103149999999
 31
0.0
  0
ARC
  5
A46A
330
A1C4
100
AcDbEntity
  8
1
  6
Continuous
100
AcDbCircle
 10
466.7147799999998
 20
291.424877
 30
0.0
 40
10.63951799999999
100
AcDbArc
 50
229.929097
 51
243.711423
  0
ARC
  5
A46B
330
A1C4
100
AcDbEntity
  8
1
  6
Continuous
100
AcDbCircle
 10
468.691528
 20
276.726314
 30
0.0
 40
6.206
100
AcDbArc
 50
129.5396199999998
 51
140.935699
  0
LINE
  5
A46C
330
A1C4
100
AcDbEntity
  8
1
  6
Continuous
100
AcDbLine
 10
463.0279469999998
 20
278.652286
 30
0.0
 11
463.157947
 21
278.2922859999998
 31
0.0
  0
ARC
  5
A46D
330
A1C4
100
AcDbEntity
  8
1
  6
Continuous
100
AcDbCircle
 10
466.4894289999998
 20
281.8275129999999
 30
0.0
 40
4.697225
100
AcDbArc
 50
206.286695
 51
222.530249
  0
LINE
  5
A46E
330
A1C4
100
AcDbEntity
  8
1
  6
Continuous
100
AcDbLine
 10
463.7029469999998
 20
280.277286
 30
0.0
 11
463.8729469999998
 21
280.6372859999999
 31
0.0
  0
ARC
  5
A46F
330
A1C4
100
AcDbEntity
  8
1
  6
Continuous
100
AcDbCircle
 10
463.1519169999998
 20
279.357433
 30
0.0
 40
0.9569799999999998
100
AcDbArc
 50
106.011913
 51
155.9597349999999
  0
LINE
  5
A470
330
A1C4
100
AcDbEntity
  8
4
  6
CENTER
100
AcDbLine
 10
265.589806
 20
77.818977
 30
0.0
 11
152.8447159999998
 21
77.818977
 31
0.0
  0
CIRCLE
  5
A471
330
A1C4
100
AcDbEntity
  8
4
  6
CENTER
100
AcDbCircle
 10
227.356946
 20
77.818977
 30
0.0
 40
34.0
  0
ARC
  5
A472
330
A1C4
100
AcDbEntity
  8
1
  6
Continuous
100
AcDbCircle
 10
240.7405149999999
 20
54.637954
 30
0.0
 40
60.0
100
AcDbArc
 50
86.06883700000002
 51
134.719173
  0
ARC
  5
A473
330
A1C4
100
AcDbEntity
  8
1
  6
Continuous
100
AcDbCircle
 10
240.7405149999999
 20
101.0
 30
0.0
 40
60.0
100
AcDbArc
 50
229.246735
 51
273.9311629999999
  0
ARC
  5
A474
330
A1C4
100
AcDbEntity
  8
1
  6
Continuous
100
AcDbCircle
 10
176.1447159999999
 20
77.818977
 30
0.0
 40
18.3
100
AcDbArc
 50
90.0
 51
270.0
  0
LINE
  5
A475
330
A1C4
100
AcDbEntity
  8
4
  6
CENTER
100
AcDbLine
 10
202.356946
 20
107.818977
 30
0.0
 11
202.356946
 21
47.818977
 31
0.0
  0
LINE
  5
A476
330
A1C4
100
AcDbEntity
  8
4
  6
CENTER
100
AcDbLine
 10
227.356946
 20
118.245187
 30
0.0
 11
227.356946
 21
37.392767
 31
0.0
  0
LINE
  5
A477
330
A1C4
100
AcDbEntity
  8
1
  6
Continuous
100
AcDbLine
 10
223.81866
 20
96.118977
 30
0.0
 11
176.1447159999999
 21
96.118977
 31
0.0
  0
LINE
  5
A478
330
A1C4
100
AcDbEntity
  8
1
  6
Continuous
100
AcDbLine
 10
223.81866
 20
59.51897699999999
 30
0.0
 11
176.1447159999999
 21
59.51897699999999
 31
0.0
  0
ARC
  5
A479
330
A1C4
100
AcDbEntity
  8
1
  6
Continuous
100
AcDbCircle
 10
200.589806
 20
77.818977
 30
0.0
 40
60.0
100
AcDbArc
 50
326.068837
 51
33.93116299999999
  0
LINE
  5
A47A
330
A1C4
100
AcDbEntity
  8
4
  6
CENTER
100
AcDbLine
 10
247.606946
 20
112.893006
 30
0.0
 11
241.1069459999999
 21
101.634675
 31
0.0
  0
CIRCLE
  5
A47B
330
A1C4
100
AcDbEntity
  8
1
  6
Continuous
100
AcDbCircle
 10
244.3569459999999
 20
107.2638399999999
 30
0.0
 40
3.5
  0
ARC
  5
A47C
330
A1C4
100
AcDbEntity
  8
1
  6
Continuous
100
AcDbCircle
 10
244.3569459999999
 20
107.2638399999999
 30
0.0
 40
7.25
100
AcDbArc
 50
33.93116299999999
 51
86.06883700000002
  0
LINE
  5
A47D
330
A1C4
100
AcDbEntity
  8
4
  6
CENTER
100
AcDbLine
 10
241.1069459999999
 20
54.003278
 30
0.0
 11
247.606946
 21
42.744948
 31
0.0
  0
CIRCLE
  5
A47E
330
A1C4
100
AcDbEntity
  8
1
  6
Continuous
100
AcDbCircle
 10
244.3569459999999
 20
48.374113
 30
0.0
 40
3.5
  0
ARC
  5
A47F
330
A1C4
100
AcDbEntity
  8
1
  6
Continuous
100
AcDbCircle
 10
244.3569459999999
 20
48.374113
 30
0.0
 40
7.25
100
AcDbArc
 50
273.9311629999999
 51
326.068837
  0
CIRCLE
  5
A480
330
A1C4
100
AcDbEntity
  8
1
  6
Continuous
100
AcDbCircle
 10
510.874098
 20
228.810304
 30
0.0
 40
5.75
  0
LINE
  5
A481
330
A1C4
100
AcDbEntity
  8
1
  6
Continuous
100
AcDbLine
 10
235.15532
 20
89.318977
 30
0.0
 11
169.5585719999999
 21
89.318977
 31
0.0
  0
LINE
  5
A482
330
A1C4
100
AcDbEntity
  8
1
  6
Continuous
100
AcDbLine
 10
235.15532
 20
66.318977
 30
0.0
 11
169.5585719999999
 21
66.318977
 31
0.0
  0
ARC
  5
A483
330
A1C4
100
AcDbEntity
  8
1
  6
Continuous
100
AcDbCircle
 10
222.856946
 20
77.818977
 30
0.0
 40
17.0
100
AcDbArc
 50
318.189685
 51
41.81135399999997
  0
ARC
  5
A484
330
A1C4
100
AcDbEntity
  8
1
  6
Continuous
100
AcDbCircle
 10
235.15532
 20
66.818977
 30
0.0
 40
0.5
100
AcDbArc
 50
270.0
 51
318.189685
  0
ARC
  5
A485
330
A1C4
100
AcDbEntity
  8
1
  6
Continuous
100
AcDbCircle
 10
235.15532
 20
88.81897700000001
 30
0.0
 40
0.5
100
AcDbArc
 50
41.810315
 51
90.0
  0
LINE
  5
A486
330
A1C4
100
AcDbEntity
  8
1
  6
Continuous
100
AcDbLine
 10
196.6069459999999
 20
57.233336
 30
0.0
 11
208.106946
 21
57.233336
 31
0.0
  0
ARC
  5
A487
330
A1C4
100
AcDbEntity
  8
1
  6
Continuous
100
AcDbCircle
 10
202.356946
 20
66.01897700000001
 30
0.0
 40
10.5
100
AcDbArc
 50
236.7961769999999
 51
303.2038229999999
  0
LINE
  5
A488
330
A1C4
100
AcDbEntity
  8
1
  6
Continuous
100
AcDbLine
 10
208.106946
 20
57.233336
 30
0.0
 11
208.106946
 21
59.51897699999999
 31
0.0
  0
LINE
  5
A489
330
A1C4
100
AcDbEntity
  8
1
  6
Continuous
100
AcDbLine
 10
196.6069459999999
 20
57.233336
 30
0.0
 11
196.6069459999999
 21
59.51897699999999
 31
0.0
  0
LINE
  5
A48A
330
A1C4
100
AcDbEntity
  8
1
  6
Continuous
100
AcDbLine
 10
206.356946
 20
61.818977
 30
0.0
 11
206.356946
 21
62.31897700000001
 31
0.0
  0
LINE
  5
A48B
330
A1C4
100
AcDbEntity
  8
1
  6
Continuous
100
AcDbLine
 10
198.356946
 20
61.818977
 30
0.0
 11
198.356946
 21
62.31897700000001
 31
0.0
  0
LINE
  5
A48C
330
A1C4
100
AcDbEntity
  8
1
  6
Continuous
100
AcDbLine
 10
210.4406149999999
 20
62.31897700000001
 30
0.0
 11
194.273277
 21
62.31897700000001
 31
0.0
  0
LINE
  5
A48D
330
A1C4
100
AcDbEntity
  8
1
  6
Continuous
100
AcDbLine
 10
211.43681
 20
63.23182199999999
 30
0.0
 11
211.7069009999999
 21
66.318977
 31
0.0
  0
LINE
  5
A48E
330
A1C4
100
AcDbEntity
  8
1
  6
Continuous
100
AcDbLine
 10
223.81866
 20
61.818977
 30
0.0
 11
176.1447159999999
 21
61.818977
 31
0.0
  0
ARC
  5
A48F
330
A1C4
100
AcDbEntity
  8
1
  6
Continuous
100
AcDbCircle
 10
210.4406149999999
 20
63.31897699999998
 30
0.0
 40
1.0
100
AcDbArc
 50
270.0
 51
355.0
  0
ARC
  5
A490
330
A1C4
100
AcDbEntity
  8
1
  6
Continuous
100
AcDbCircle
 10
202.356946
 20
89.01808499999999
 30
0.0
 40
9.100892999999999
100
AcDbArc
 50
57.79739499999998
 51
122.2026049999999
  0
LINE
  5
A491
330
A1C4
100
AcDbEntity
  8
1
  6
Continuous
100
AcDbLine
 10
207.2069459999999
 20
96.718977
 30
0.0
 11
197.506946
 21
96.718977
 31
0.0
  0
LINE
  5
A492
330
A1C4
100
AcDbEntity
  8
1
  6
Continuous
100
AcDbLine
 10
206.8569459999999
 20
96.118977
 30
0.0
 11
207.2069459999999
 21
96.718977
 31
0.0
  0
LINE
  5
A493
330
A1C4
100
AcDbEntity
  8
1
  6
Continuous
100
AcDbLine
 10
197.8569459999999
 20
96.118977
 30
0.0
 11
197.506946
 21
96.718977
 31
0.0
  0
LINE
  5
A494
330
A1C4
100
AcDbEntity
  8
1
  6
Continuous
100
AcDbLine
 10
210.4406149999999
 20
93.318977
 30
0.0
 11
194.273277
 21
93.318977
 31
0.0
  0
LINE
  5
A495
330
A1C4
100
AcDbEntity
  8
1
  6
Continuous
100
AcDbLine
 10
206.356946
 20
93.81897700000001
 30
0.0
 11
206.356946
 21
93.318977
 31
0.0
  0
LINE
  5
A496
330
A1C4
100
AcDbEntity
  8
1
  6
Continuous
100
AcDbLine
 10
198.356946
 20
93.81897700000001
 30
0.0
 11
198.356946
 21
93.318977
 31
0.0
  0
LINE
  5
A497
330
A1C4
100
AcDbEntity
  8
1
  6
Continuous
100
AcDbLine
 10
211.43681
 20
92.40613299999999
 30
0.0
 11
211.7069009999999
 21
89.318977
 31
0.0
  0
LINE
  5
A498
330
A1C4
100
AcDbEntity
  8
1
  6
Continuous
100
AcDbLine
 10
223.81866
 20
93.81897700000001
 30
0.0
 11
176.1447159999999
 21
93.81897700000001
 31
0.0
  0
ARC
  5
A499
330
A1C4
100
AcDbEntity
  8
1
  6
Continuous
100
AcDbCircle
 10
210.4406149999999
 20
92.31897700000001
 30
0.0
 40
1.0
100
AcDbArc
 50
5.0
 51
90.0
  0
ARC
  5
A49A
330
A1C4
100
AcDbEntity
  8
1
  6
Continuous
100
AcDbCircle
 10
181.8569459999999
 20
77.818977
 30
0.0
 40
17.0
100
AcDbArc
 50
138.188646
 51
221.810315
  0
ARC
  5
A49B
330
A1C4
100
AcDbEntity
  8
1
  6
Continuous
100
AcDbCircle
 10
169.5585719999999
 20
66.818977
 30
0.0
 40
0.5
100
AcDbArc
 50
221.810315
 51
270.0
  0
ARC
  5
A49C
330
A1C4
100
AcDbEntity
  8
1
  6
Continuous
100
AcDbCircle
 10
169.5585719999999
 20
88.81897700000001
 30
0.0
 40
0.5
100
AcDbArc
 50
90.0
 51
138.1896849999999
  0
LINE
  5
A49D
330
A1C4
100
AcDbEntity
  8
1
  6
Continuous
100
AcDbLine
 10
193.277082
 20
63.23182199999999
 30
0.0
 11
193.006991
 21
66.318977
 31
0.0
  0
ARC
  5
A49E
330
A1C4
100
AcDbEntity
  8
1
  6
Continuous
100
AcDbCircle
 10
194.273277
 20
63.31897699999998
 30
0.0
 40
1.0
100
AcDbArc
 50
185.0
 51
270.0
  0
ARC
  5
A49F
330
A1C4
100
AcDbEntity
  8
1
  6
Continuous
100
AcDbCircle
 10
194.273277
 20
92.31897700000001
 30
0.0
 40
1.0
100
AcDbArc
 50
90.0
 51
175.0
  0
LINE
  5
A4A0
330
A1C4
100
AcDbEntity
  8
1
  6
Continuous
100
AcDbLine
 10
193.277082
 20
92.40613299999999
 30
0.0
 11
193.006991
 21
89.318977
 31
0.0
  0
ARC
  5
A4A1
330
A1C4
100
AcDbEntity
  8
1
  6
Continuous
100
AcDbCircle
 10
176.1447159999999
 20
77.818977
 30
0.0
 40
16.0
100
AcDbArc
 50
90.0
 51
270.0
  0
ARC
  5
A4A2
330
A1C4
100
AcDbEntity
  8
1
  6
Continuous
100
AcDbCircle
 10
227.356946
 20
77.818977
 30
0.0
 40
24.7
100
AcDbArc
 50
227.807344
 51
132.192656
  0
ARC
  5
A4A3
330
A1C4
100
AcDbEntity
  8
1
  6
Continuous
100
AcDbCircle
 10
227.356946
 20
77.818977
 30
0.0
 40
22.39999999999999
100
AcDbArc
 50
234.7820519999999
 51
125.217948
  0
LINE
  5
A4A4
330
A1C4
100
AcDbEntity
  8
1
  6
Continuous
100
AcDbLine
 10
223.81866
 20
96.118977
 30
0.0
 11
223.81866
 21
93.81897700000001
 31
0.0
  0
LINE
  5
A4A5
330
A1C4
100
AcDbEntity
  8
1
  6
Continuous
100
AcDbLine
 10
223.81866
 20
59.51897699999999
 30
0.0
 11
223.81866
 21
61.818977
 31
0.0
  0
LINE
  5
A4A6
330
A1C4
100
AcDbEntity
  8
1
  6
Continuous
100
AcDbLine
 10
192.606107
 20
96.118977
 30
0.0
 11
192.606107
 21
93.81897700000001
 31
0.0
  0
LINE
  5
A4A7
330
A1C4
100
AcDbEntity
  8
1
  6
Continuous
100
AcDbLine
 10
192.606107
 20
61.818977
 30
0.0
 11
192.606107
 21
59.51897699999999
 31
0.0
  0
ARC
  5
A4A8
330
A1C4
100
AcDbEntity
  8
1
  6
Continuous
100
AcDbCircle
 10
227.356946
 20
77.818977
 30
0.0
 40
26.047853
100
AcDbArc
 50
224.632201
 51
135.3677989999999
  0
ARC
  5
A4A9
330
A1C4
100
AcDbEntity
  8
1
  6
Continuous
100
AcDbCircle
 10
371.115522
 20
236.893973
 30
0.0
 40
1.0
100
AcDbArc
 50
0.0
 51
85.0
  0
LINE
  5
A4AA
330
A1C4
100
AcDbEntity
  8
1
  6
Continuous
100
AcDbLine
 10
371.202677
 20
237.8901679999999
 30
0.0
 11
368.1155219999998
 21
238.1602589999999
 31
0.0
  0
LINE
  5
A4AB
330
A1C4
100
AcDbEntity
  8
1
  6
Continuous
100
AcDbLine
 10
342.0283659999999
 20
237.8901679999999
 30
0.0
 11
345.1155219999998
 21
238.1602589999999
 31
0.0
  0
ARC
  5
A4AC
330
A1C4
100
AcDbEntity
  8
1
  6
Continuous
100
AcDbCircle
 10
342.115522
 20
236.893973
 30
0.0
 40
1.0
100
AcDbArc
 50
95.0
 51
180.0
  0
ARC
  5
A4AD
330
A1C4
100
AcDbEntity
  8
1
  6
Continuous
100
AcDbCircle
 10
356.615522
 20
249.310304
 30
0.0
 40
17.0
100
AcDbArc
 50
48.189685
 51
58.435857
  0
ARC
  5
A4AE
330
A1C4
100
AcDbEntity
  8
1
  6
Continuous
100
AcDbCircle
 10
345.6155219999998
 20
261.6086779999998
 30
0.0
 40
0.5
100
AcDbArc
 50
131.810315
 51
180.0
  0
ARC
  5
A4AF
330
A1C4
100
AcDbEntity
  8
1
  6
Continuous
100
AcDbCircle
 10
367.615522
 20
261.6086779999998
 30
0.0
 40
0.5
100
AcDbArc
 50
0.0
 51
48.189685
  0
ARC
  5
A4B0
330
A1C4
100
AcDbEntity
  8
1
  6
Continuous
100
AcDbCircle
 10
356.615522
 20
249.310304
 30
0.0
 40
17.0
100
AcDbArc
 50
121.5641429999999
 51
131.8113539999999
  0
LINE
  5
A4B1
330
A1C4
100
AcDbEntity
  8
1
  6
Continuous
100
AcDbLine
 10
98.63797700000001
 20
286.310317
 30
0.0
 11
98.63797700000001
 21
283.7103049999999
 31
0.0
  0
LINE
  5
A4B2
330
A1C4
100
AcDbEntity
  8
1
  6
Continuous
100
AcDbLine
 10
25.000023
 20
286.310291
 30
0.0
 11
25.000023
 21
283.710506
 31
0.0
  0
LINE
  5
A4B3
330
A1C4
100
AcDbEntity
  8
1
  6
Continuous
100
AcDbLine
 10
319.7965449999998
 20
286.310317
 30
0.0
 11
319.7965449999998
 21
283.7103049999999
 31
0.0
  0
LINE
  5
A4B4
330
A1C4
100
AcDbEntity
  8
1
  6
Continuous
100
AcDbLine
 10
393.4344989999999
 20
286.310291
 30
0.0
 11
393.4344989999999
 21
283.710506
 31
0.0
  0
LINE
  5
A4B5
330
A1C4
100
AcDbEntity
  8
1
  6
Continuous
100
AcDbLine
 10
331.915522
 20
260.859148
 30
0.0
 11
331.915522
 21
273.858746
 31
0.0
  0
LINE
  5
A4B6
330
A1C4
100
AcDbEntity
  8
1
  6
Continuous
100
AcDbLine
 10
381.315522
 20
260.859148
 30
0.0
 11
381.315522
 21
273.858746
 31
0.0
  0
LINE
  5
A4B7
330
A1C4
100
AcDbEntity
  8
1
  6
Continuous
100
AcDbLine
 10
374.915522
 20
218.024318
 30
0.0
 11
374.915522
 21
254.699425
 31
0.0
  0
LINE
  5
A4B8
330
A1C4
100
AcDbEntity
  8
1
  6
Continuous
100
AcDbLine
 10
340.615522
 20
218.024318
 30
0.0
 11
340.615522
 21
263.053273
 31
0.0
  0
LINE
  5
A4B9
330
A1C4
100
AcDbEntity
  8
1
  6
Continuous
100
AcDbLine
 10
372.6155219999998
 20
218.024318
 30
0.0
 11
372.6155219999998
 21
263.053273
 31
0.0
  0
LINE
  5
A4BA
330
A1C4
100
AcDbEntity
  8
1
  6
Continuous
100
AcDbLine
 10
338.3155219999999
 20
218.024318
 30
0.0
 11
338.3155219999999
 21
254.699425
 31
0.0
  0
LINE
  5
A4BB
330
A1C4
100
AcDbEntity
  8
1
  6
Continuous
100
AcDbLine
 10
227.356946
 20
260.859148
 30
0.0
 11
202.656946
 21
253.3167839999999
 31
0.0
  0
ARC
  5
A4BC
330
A1C4
100
AcDbEntity
  8
1
  6
Continuous
100
AcDbCircle
 10
378.8155220000001
 20
260.859148
 30
0.0
 40
2.5
100
AcDbArc
 50
314.965394
 51
0.0
  0
ARC
  5
A4BD
330
A1C4
100
AcDbEntity
  8
1
  6
Continuous
100
AcDbCircle
 10
380.8155219999999
 20
260.859148
 30
0.0
 40
0.5
100
AcDbArc
 50
0.0
 51
54.42512699999999
  0
ARC
  5
A4BE
330
A1C4
100
AcDbEntity
  8
1
  6
Continuous
100
AcDbCircle
 10
371.4989239999999
 20
268.184589
 30
0.0
 40
12.853486
100
AcDbArc
 50
290.0315049999999
 51
314.965394
  0
ARC
  5
A4BF
330
A1C4
100
AcDbEntity
  8
1
  6
Continuous
100
AcDbCircle
 10
356.615521
 20
107.5019469999999
 30
0.0
 40
156.6240889999999
100
AcDbArc
 50
83.29022
 51
96.70977999999999
  0
ARC
  5
A4C0
330
A1C4
100
AcDbEntity
  8
1
  6
Continuous
100
AcDbCircle
 10
372.1964869999998
 20
239.941289
 30
0.0
 40
23.27137699999999
100
AcDbArc
 50
70.825766
 51
83.29021800000003
  0
ARC
  5
A4C1
330
A1C4
100
AcDbEntity
  8
1
  6
Continuous
100
AcDbCircle
 10
378.1975729999999
 20
257.199046
 30
0.0
 40
5.0
100
AcDbArc
 50
54.42512699999999
 51
70.825766
  0
ARC
  5
A4C2
330
A1C4
100
AcDbEntity
  8
1
  6
Continuous
100
AcDbCircle
 10
378.515522
 20
260.859148
 30
0.0
 40
0.5
100
AcDbArc
 50
0.0
 51
54.425123
  0
ARC
  5
A4C3
330
A1C4
100
AcDbEntity
  8
1
  6
Continuous
100
AcDbCircle
 10
376.515522
 20
260.859148
 30
0.0
 40
2.5
100
AcDbArc
 50
320.687041
 51
0.0
  0
ARC
  5
A4C4
330
A1C4
100
AcDbEntity
  8
1
  6
Continuous
100
AcDbCircle
 10
370.712795
 20
265.6108169999999
 30
0.0
 40
10.0
100
AcDbArc
 50
280.968699
 51
320.687041
  0
ARC
  5
A4C5
330
A1C4
100
AcDbEntity
  8
1
  6
Continuous
100
AcDbCircle
 10
356.615522
 20
144.2715109999998
 30
0.0
 40
119.854525
100
AcDbArc
 50
82.32838800000001
 51
97.671612
  0
ARC
  5
A4C6
330
A1C4
100
AcDbEntity
  8
1
  6
Continuous
100
AcDbCircle
 10
369.8964869999999
 20
239.941289
 30
0.0
 40
23.27137699999999
100
AcDbArc
 50
70.825766
 51
83.29021800000003
  0
ARC
  5
A4C7
330
A1C4
100
AcDbEntity
  8
1
  6
Continuous
100
AcDbCircle
 10
375.897573
 20
257.199046
 30
0.0
 40
5.0
100
AcDbArc
 50
54.425123
 51
70.825767
  0
ARC
  5
A4C8
330
A1C4
100
AcDbEntity
  8
1
  6
Continuous
100
AcDbCircle
 10
337.33347
 20
257.199046
 30
0.0
 40
5.0
100
AcDbArc
 50
109.174233
 51
125.574877
  0
ARC
  5
A4C9
330
A1C4
100
AcDbEntity
  8
1
  6
Continuous
100
AcDbCircle
 10
342.518249
 20
265.6108169999999
 30
0.0
 40
10.0
100
AcDbArc
 50
219.3129589999998
 51
259.031301
  0
ARC
  5
A4CA
330
A1C4
100
AcDbEntity
  8
1
  6
Continuous
100
AcDbCircle
 10
341.732119
 20
268.184589
 30
0.0
 40
12.853486
100
AcDbArc
 50
225.034606
 51
249.968495
  0
ARC
  5
A4CB
330
A1C4
100
AcDbEntity
  8
1
  6
Continuous
100
AcDbCircle
 10
341.034556
 20
239.941289
 30
0.0
 40
23.27137699999999
100
AcDbArc
 50
96.709782
 51
109.174234
  0
ARC
  5
A4CC
330
A1C4
100
AcDbEntity
  8
1
  6
Continuous
100
AcDbCircle
 10
343.334556
 20
239.941289
 30
0.0
 40
23.27137699999999
100
AcDbArc
 50
96.709782
 51
109.174234
  0
ARC
  5
A4CD
330
A1C4
100
AcDbEntity
  8
1
  6
Continuous
100
AcDbCircle
 10
334.715522
 20
260.859148
 30
0.0
 40
0.5
100
AcDbArc
 50
125.574877
 51
180.0
  0
ARC
  5
A4CE
330
A1C4
100
AcDbEntity
  8
1
  6
Continuous
100
AcDbCircle
 10
336.715522
 20
260.859148
 30
0.0
 40
2.5
100
AcDbArc
 50
180.0
 51
219.3129589999998
  0
ARC
  5
A4CF
330
A1C4
100
AcDbEntity
  8
1
  6
Continuous
100
AcDbCircle
 10
332.415522
 20
260.859148
 30
0.0
 40
0.5
100
AcDbArc
 50
125.574873
 51
180.0
  0
ARC
  5
A4D0
330
A1C4
100
AcDbEntity
  8
1
  6
Continuous
100
AcDbCircle
 10
335.03347
 20
257.199046
 30
0.0
 40
5.0
100
AcDbArc
 50
109.174234
 51
125.574873
  0
ARC
  5
A4D1
330
A1C4
100
AcDbEntity
  8
1
  6
Continuous
100
AcDbCircle
 10
334.415522
 20
260.859148
 30
0.0
 40
2.5
100
AcDbArc
 50
180.0
 51
225.034606
  0
ARC
  5
A4D2
330
A1C4
100
AcDbEntity
  8
1
  6
Continuous
100
AcDbCircle
 10
336.8155219999999
 20
254.699425
 30
0.0
 40
1.5
100
AcDbArc
 50
0.0
 51
69.96849499999999
  0
ARC
  5
A4D3
330
A1C4
100
AcDbEntity
  8
1
  6
Continuous
100
AcDbCircle
 10
376.415522
 20
254.699425
 30
0.0
 40
1.5
100
AcDbArc
 50
110.031505
 51
180.0
  0
ARC
  5
A4D4
330
A1C4
100
AcDbEntity
  8
1
  6
Continuous
100
AcDbCircle
 10
76.702403
 20
268.184589
 30
0.0
 40
12.853486
100
AcDbArc
 50
290.0315049999999
 51
314.965394
  0
LINE
  5
A4D5
330
A1C4
100
AcDbEntity
  8
1
  6
Continuous
100
AcDbLine
 10
86.51899999999995
 20
260.859148
 30
0.0
 11
86.51899999999995
 21
273.858746
 31
0.0
  0
ARC
  5
A4D6
330
A1C4
100
AcDbEntity
  8
1
  6
Continuous
100
AcDbCircle
 10
84.01899999999997
 20
260.859148
 30
0.0
 40
2.5
100
AcDbArc
 50
314.965394
 51
0.0
  0
ARC
  5
A4D7
330
A1C4
100
AcDbEntity
  8
1
  6
Continuous
100
AcDbCircle
 10
81.61900000000001
 20
254.699425
 30
0.0
 40
1.5
100
AcDbArc
 50
110.031505
 51
180.0
  0
ARC
  5
A4D8
330
A1C4
100
AcDbEntity
  8
1
  6
Continuous
100
AcDbCircle
 10
42.019
 20
254.699425
 30
0.0
 40
1.5
100
AcDbArc
 50
0.0
 51
69.96849499999999
  0
ARC
  5
A4D9
330
A1C4
100
AcDbEntity
  8
1
  6
Continuous
100
AcDbCircle
 10
39.61899999999999
 20
260.859148
 30
0.0
 40
2.5
100
AcDbArc
 50
180.0
 51
225.034606
  0
ARC
  5
A4DA
330
A1C4
100
AcDbEntity
  8
1
  6
Continuous
100
AcDbCircle
 10
46.93559699999998
 20
268.184589
 30
0.0
 40
12.853486
100
AcDbArc
 50
225.034606
 51
249.968495
  0
LINE
  5
A4DB
330
A1C4
100
AcDbEntity
  8
1
  6
Continuous
100
AcDbLine
 10
37.11899999999999
 20
260.859148
 30
0.0
 11
37.11899999999999
 21
273.858746
 31
0.0
  0
ENDSEC
  0
SECTION
  2
OBJECTS
  0
DICTIONARY
  5
A1B2
330
0
100
AcDbDictionary
281
     1
  3
ACAD_CIP_PREVIOUS_PRODUCT_INFO
350
A53D
  3
ACAD_COLOR
350
A51F
  3
ACAD_DETAILVIEWSTYLE
350
A538
  3
ACAD_GROUP
350
A1B3
  3
ACAD_LAYOUT
350
A1BF
  3
ACAD_MATERIAL
350
A4ED
  3
ACAD_MLEADERSTYLE
350
A534
  3
ACAD_MLINESTYLE
350
A1BC
  3
ACAD_PLOTSETTINGS
350
A1BE
  3
ACAD_PLOTSTYLENAME
350
A4EB
  3
ACAD_SCALELIST
350
A522
  3
ACAD_SECTIONVIEWSTYLE
350
A536
  3
ACAD_TABLESTYLE
350
A520
  3
ACAD_VISUALSTYLE
350
A506
  3
ACDB_RECOMPOSE_DATA
350
A55B
  3
AcDbVariableDictionary
350
A54E
  3
DWGPROPS
350
A55C
  0
DICTIONARY
  5
A53E
330
A1B6
100
AcDbDictionary
280
     1
281
     1
  3
ADSK_XREC_LAYER_RECONCILED
360
A53F
  0
DICTIONARY
  5
A540
330
A1CC
100
AcDbDictionary
280
     1
281
     1
  3
ADSK_XREC_LAYER_RECONCILED
360
A541
  0
DICTIONARY
  5
A542
330
A1CD
100
AcDbDictionary
280
     1
281
     1
  3
ADSK_XREC_LAYER_RECONCILED
360
A543
  0
DICTIONARY
  5
A544
330
A1CE
100
AcDbDictionary
280
     1
281
     1
  3
ADSK_XREC_LAYER_RECONCILED
360
A545
  0
DICTIONARY
  5
A546
330
A1CF
100
AcDbDictionary
280
     1
281
     1
  3
ADSK_XREC_LAYER_RECONCILED
360
A547
  0
DICTIONARY
  5
A548
330
A1D0
100
AcDbDictionary
280
     1
281
     1
  3
ADSK_XREC_LAYER_RECONCILED
360
A549
  0
DICTIONARY
  5
A54A
330
A1D1
100
AcDbDictionary
280
     1
281
     1
  3
ADSK_XREC_LAYER_RECONCILED
360
A54B
  0
DICTIONARY
  5
A54C
330
A1D2
100
AcDbDictionary
280
     1
281
     1
  3
ADSK_XREC_LAYER_RECONCILED
360
A54D
  0
DICTIONARY
  5
A4E6
330
A1C4
100
AcDbDictionary
281
     1
  3
ACAD_LAYOUTSELFREF
350
A4E7
  0
DICTIONARY
  5
A4E4
330
A1C0
100
AcDbDictionary
281
     1
  3
ACAD_LAYOUTSELFREF
350
A4E5
  0
XRECORD
  5
A53D
102
{ACAD_REACTORS
330
A1B2
102
}
330
A1B2
100
AcDbXrecord
280
     1
300
ACDLT
300
2014
300
ACDLT_F_S
  0
DICTIONARY
  5
A51F
102
{ACAD_REACTORS
330
A1B2
102
}
330
A1B2
100
AcDbDictionary
281
     1
  0
DICTIONARY
  5
A538
102
{ACAD_REACTORS
330
A1B2
102
}
330
A1B2
100
AcDbDictionary
281
     1
  3
Imperial24
350
A539
  0
DICTIONARY
  5
A1B3
102
{ACAD_REACTORS
330
A1B2
102
}
330
A1B2
100
AcDbDictionary
281
     1
  0
DICTIONARY
  5
A1BF
102
{ACAD_REACTORS
330
A1B2
102
}
330
A1B2
100
AcDbDictionary
281
     1
  3
Model
350
A53A
  3
レイアウト1
350
A53B
  0
DICTIONARY
  5
A4ED
102
{ACAD_REACTORS
330
A1B2
102
}
330
A1B2
100
AcDbDictionary
281
     1
  3
ByBlock
350
A4F6
  3
ByLayer
350
A4EE
  3
Global
350
A4FE
  0
DICTIONARY
  5
A534
102
{ACAD_REACTORS
330
A1B2
102
}
330
A1B2
100
AcDbDictionary
281
     1
  3
Standard
350
A535
  0
DICTIONARY
  5
A1BC
102
{ACAD_REACTORS
330
A1B2
102
}
330
A1B2
100
AcDbDictionary
281
     1
  3
STANDARD
350
A1BD
  0
DICTIONARY
  5
A1BE
102
{ACAD_REACTORS
330
A1B2
102
}
330
A1B2
100
AcDbDictionary
281
     1
  0
ACDBDICTIONARYWDFLT
  5
A4EB
102
{ACAD_REACTORS
330
A1B2
102
}
330
A1B2
100
AcDbDictionary
281
     1
  3
Normal
350
A4EC
100
AcDbDictionaryWithDefault
340
A4EC
  0
DICTIONARY
  5
A522
102
{ACAD_REACTORS
330
A1B2
102
}
330
A1B2
100
AcDbDictionary
281
     1
  3
A0
350
A523
  3
A1
350
A524
  3
A2
350
A525
  3
A3
350
A526
  3
A4
350
A527
  3
A5
350
A528
  3
A6
350
A529
  3
A7
350
A52A
  3
A8
350
A52B
  3
A9
350
A52C
  3
B0
350
A52D
  3
B1
350
A52E
  3
B2
350
A52F
  3
B3
350
A530
  3
B4
350
A531
  3
B5
350
A532
  3
B6
350
A533
  0
DICTIONARY
  5
A536
102
{ACAD_REACTORS
330
A1B2
102
}
330
A1B2
100
AcDbDictionary
281
     1
  3
Imperial24
350
A537
  0
DICTIONARY
  5
A520
102
{ACAD_REACTORS
330
A1B2
102
}
330
A1B2
100
AcDbDictionary
281
     1
  3
Standard
350
A521
  0
DICTIONARY
  5
A506
102
{ACAD_REACTORS
330
A1B2
102
}
330
A1B2
100
AcDbDictionary
281
     1
  3
2dWireframe
350
A50C
  3
Basic
350
A50B
  3
Brighten
350
A512
  3
ColorChange
350
A516
  3
Conceptual
350
A50F
  3
Dim
350
A511
  3
EdgeColorOff
350
A51E
  3
Facepattern
350
A515
  3
Flat
350
A507
  3
FlatWithEdges
350
A508
  3
Gouraud
350
A509
  3
GouraudWithEdges
350
A50A
  3
Hidden
350
A50E
  3
JitterOff
350
A51C
  3
Linepattern
350
A514
  3
OverhangOff
350
A51D
  3
Realistic
350
A510
  3
Shaded
350
A51B
  3
Shaded with edges
350
A51A
  3
Shades of Gray
350
A517
  3
Sketchy
350
A518
  3
Thicken
350
A513
  3
Wireframe
350
A50D
  3
X-Ray
350
A519
  0
XRECORD
  5
A55B
102
{ACAD_REACTORS
330
A1B2
102
}
330
A1B2
100
AcDbXrecord
280
     1
 90
        1
330
A521
  0
DICTIONARY
  5
A54E
102
{ACAD_REACTORS
330
A1B2
102
}
330
A1B2
100
AcDbDictionary
281
     1
  3
CANNOSCALE
350
A553
  3
CMLEADERSTYLE
350
A550
  3
CTABLESTYLE
350
A54F
  3
CVIEWDETAILSTYLE
350
A551
  3
CVIEWSECTIONSTYLE
350
A552
  3
DIMASSOC
350
A556
  3
INDEXCTL
350
A555
  3
SORTENTS
350
A554
  3
XCLIPFRAME
350
A557
  0
XRECORD
  5
A55C
102
{ACAD_REACTORS
330
A1B2
102
}
330
A1B2
100
AcDbXrecord
280
     1
  1
DWGPROPS COOKIE
  2

  3

  4

  6

  7

  8
Yoshitsune
  9

300
=
301
=
302
=
303
=
304
=
305
=
306
=
307
=
308
=
309
=
 40
0.0001473611111111
 41
2451345.364604167
 42
2457618.723460104
  1

 90
        0
  0
XRECORD
  5
A53F
102
{ACAD_REACTORS
330
A53E
102
}
330
A53E
100
AcDbXrecord
280
     1
290
     1
  0
XRECORD
  5
A541
102
{ACAD_REACTORS
330
A540
102
}
330
A540
100
AcDbXrecord
280
     1
290
     1
  0
XRECORD
  5
A543
102
{ACAD_REACTORS
330
A542
102
}
330
A542
100
AcDbXrecord
280
     1
290
     1
  0
XRECORD
  5
A545
102
{ACAD_REACTORS
330
A544
102
}
330
A544
100
AcDbXrecord
280
     1
290
     1
  0
XRECORD
  5
A547
102
{ACAD_REACTORS
330
A546
102
}
330
A546
100
AcDbXrecord
280
     1
290
     1
  0
XRECORD
  5
A549
102
{ACAD_REACTORS
330
A548
102
}
330
A548
100
AcDbXrecord
280
     1
290
     1
  0
XRECORD
  5
A54B
102
{ACAD_REACTORS
330
A54A
102
}
330
A54A
100
AcDbXrecord
280
     1
290
     1
  0
XRECORD
  5
A54D
102
{ACAD_REACTORS
330
A54C
102
}
330
A54C
100
AcDbXrecord
280
     1
290
     1
  0
XRECORD
  5
A4E7
102
{ACAD_REACTORS
330
A4E6
102
}
330
A4E6
100
AcDbXrecord
280
     1
340
A1C4
  0
XRECORD
  5
A4E5
102
{ACAD_REACTORS
330
A4E4
102
}
330
A4E4
100
AcDbXrecord
280
     1
340
A1C0
  0
ACDBDETAILVIEWSTYLE
  5
A539
102
{ACAD_XDICTIONARY
360
A594
102
}
102
{ACAD_REACTORS
330
A538
102
}
330
A538
100
AcDbModelDocViewStyle
 70
     0
  3
Imperial24
290
     0
100
AcDbDetailViewStyle
 70
     0
 71
     0
 90
        3
 71
     1
340
A1B7
 40
0.24
340
0
 40
0.24
300

 40
0.36
280
     3
 71
     2
340
A1BB
 90
       25
 71
     3
340
A1B7
 40
0.24
 90
        1
 40
0.75
 90
        1
300
%<\AcVar ViewType \f "%tc1">% %<\AcVar ViewDetailId>%\PSCALE %<\AcVar ViewScale \f "%sn">%
 71
     4
340
A1BB
 90
       25
340
A1BB
 90
       25
280
     0
  0
LAYOUT
  5
A53A
102
{ACAD_XDICTIONARY
360
A596
102
}
102
{ACAD_REACTORS
330
A1BF
102
}
330
A1BF
100
AcDbPlotSettings
  1

  2
Canon LBP9100C
  4

  6

 40
0.0
 41
0.0
 42
0.0
 43
0.0
 44
0.0
 45
0.0
 46
0.0
 47
0.0
 48
0.0
 49
0.0
140
0.0
141
0.0
142
1.0
143
1.0
 70
  1712
 72
     0
 73
     0
 74
     0
  7

 75
     0
147
1.0
148
0.0
149
0.0
100
AcDbLayout
  1
Model
 70
     1
 71
     0
 10
0.0
 20
0.0
 11
12.0
 21
9.0
 12
0.0
 22
0.0
 32
0.0
 14
0.0
 24
0.0
 34
0.0
 15
0.0
 25
0.0
 35
0.0
146
0.0
 13
0.0
 23
0.0
 33
0.0
 16
1.0
 26
0.0
 36
0.0
 17
0.0
 27
1.0
 37
0.0
 76
     0
330
A1C4
331
A4E3
  0
LAYOUT
  5
A53B
102
{ACAD_XDICTIONARY
360
A598
102
}
102
{ACAD_REACTORS
330
A1BF
102
}
330
A1BF
100
AcDbPlotSettings
  1

  2
Canon LBP9100C
  4

  6

 40
0.0
 41
0.0
 42
0.0
 43
0.0
 44
0.0
 45
0.0
 46
0.0
 47
0.0
 48
0.0
 49
0.0
140
0.0
141
0.0
142
1.0
143
1.0
 70
   688
 72
     0
 73
     0
 74
     5
  7

 75
    16
147
1.0
148
0.0
149
0.0
100
AcDbLayout
  1
レイアウト1
 70
     0
 71
     1
 10
0.0
 20
0.0
 11
420.0
 21
297.0
 12
0.0
 22
0.0
 32
0.0
 14
1.000000000000000E+20
 24
1.000000000000000E+20
 34
1.000000000000000E+20
 15
-1.000000000000000E+20
 25
-1.000000000000000E+20
 35
-1.000000000000000E+20
146
0.0
 13
0.0
 23
0.0
 33
0.0
 16
1.0
 26
0.0
 36
0.0
 17
0.0
 27
1.0
 37
0.0
 76
     0
330
A1C0
  0
MATERIAL
  5
A4F6
102
{ACAD_XDICTIONARY
360
A4F7
102
}
102
{ACAD_REACTORS
330
A4ED
102
}
330
A4ED
100
AcDbMaterial
  1
ByBlock
 72
     0
 43
0.0208333333333333
 43
0.0
 43
0.0
 43
0.0
 43
0.0
 43
0.0208333333333333
 43
0.0
 43
0.0
 43
0.0
 43
0.0
 43
1.0
 43
0.0
 43
0.0
 43
0.0
 43
0.0
 43
1.0
 77
     0
 47
0.0208333333333333
 47
0.0
 47
0.0
 47
0.0
 47
0.0
 47
0.0208333333333333
 47
0.0
 47
0.0
 47
0.0
 47
0.0
 47
1.0
 47
0.0
 47
0.0
 47
0.0
 47
0.0
 47
1.0
171
     0
 49
0.0208333333333333
 49
0.0
 49
0.0
 49
0.0
 49
0.0
 49
0.0208333333333333
 49
0.0
 49
0.0
 49
0.0
 49
0.0
 49
1.0
 49
0.0
 49
0.0
 49
0.0
 49
0.0
 49
1.0
175
     0
142
0.0208333333333333
142
0.0
142
0.0
142
0.0
142
0.0
142
0.0208333333333333
142
0.0
142
0.0
142
0.0
142
0.0
142
1.0
142
0.0
142
0.0
142
0.0
142
0.0
142
1.0
179
     0
144
0.0208333333333333
144
0.0
144
0.0
144
0.0
144
0.0
144
0.0208333333333333
144
0.0
144
0.0
144
0.0
144
0.0
144
1.0
144
0.0
144
0.0
144
0.0
144
0.0
144
1.0
147
0.0208333333333333
147
0.0
147
0.0
147
0.0
147
0.0
147
0.0208333333333333
147
0.0
147
0.0
147
0.0
147
0.0
147
1.0
147
0.0
147
0.0
147
0.0
147
0.0
147
1.0
  0
MATERIAL
  5
A4EE
102
{ACAD_XDICTIONARY
360
A4EF
102
}
102
{ACAD_REACTORS
330
A4ED
102
}
330
A4ED
100
AcDbMaterial
  1
ByLayer
 72
     0
 43
0.0208333333333333
 43
0.0
 43
0.0
 43
0.0
 43
0.0
 43
0.0208333333333333
 43
0.0
 43
0.0
 43
0.0
 43
0.0
 43
1.0
 43
0.0
 43
0.0
 43
0.0
 43
0.0
 43
1.0
 77
     0
 47
0.0208333333333333
 47
0.0
 47
0.0
 47
0.0
 47
0.0
 47
0.0208333333333333
 47
0.0
 47
0.0
 47
0.0
 47
0.0
 47
1.0
 47
0.0
 47
0.0
 47
0.0
 47
0.0
 47
1.0
171
     0
 49
0.0208333333333333
 49
0.0
 49
0.0
 49
0.0
 49
0.0
 49
0.0208333333333333
 49
0.0
 49
0.0
 49
0.0
 49
0.0
 49
1.0
 49
0.0
 49
0.0
 49
0.0
 49
0.0
 49
1.0
175
     0
142
0.0208333333333333
142
0.0
142
0.0
142
0.0
142
0.0
142
0.0208333333333333
142
0.0
142
0.0
142
0.0
142
0.0
142
1.0
142
0.0
142
0.0
142
0.0
142
0.0
142
1.0
179
     0
144
0.0208333333333333
144
0.0
144
0.0
144
0.0
144
0.0
144
0.0208333333333333
144
0.0
144
0.0
144
0.0
144
0.0
144
1.0
144
0.0
144
0.0
144
0.0
144
0.0
144
1.0
147
0.0208333333333333
147
0.0
147
0.0
147
0.0
147
0.0
147
0.0208333333333333
147
0.0
147
0.0
147
0.0
147
0.0
147
1.0
147
0.0
147
0.0
147
0.0
147
0.0
147
1.0
  0
MATERIAL
  5
A4FE
102
{ACAD_XDICTIONARY
360
A4FF
102
}
102
{ACAD_REACTORS
330
A4ED
102
}
330
A4ED
100
AcDbMaterial
  1
Global
 72
     0
 43
0.0208333333333333
 43
0.0
 43
0.0
 43
0.0
 43
0.0
 43
0.0208333333333333
 43
0.0
 43
0.0
 43
0.0
 43
0.0
 43
1.0
 43
0.0
 43
0.0
 43
0.0
 43
0.0
 43
1.0
 77
     0
 47
0.0208333333333333
 47
0.0
 47
0.0
 47
0.0
 47
0.0
 47
0.0208333333333333
 47
0.0
 47
0.0
 47
0.0
 47
0.0
 47
1.0
 47
0.0
 47
0.0
 47
0.0
 47
0.0
 47
1.0
171
     0
 49
0.0208333333333333
 49
0.0
 49
0.0
 49
0.0
 49
0.0
 49
0.0208333333333333
 49
0.0
 49
0.0
 49
0.0
 49
0.0
 49
1.0
 49
0.0
 49
0.0
 49
0.0
 49
0.0
 49
1.0
175
     0
142
0.0208333333333333
142
0.0
142
0.0
142
0.0
142
0.0
142
0.0208333333333333
142
0.0
142
0.0
142
0.0
142
0.0
142
1.0
142
0.0
142
0.0
142
0.0
142
0.0
142
1.0
179
     0
144
0.0208333333333333
144
0.0
144
0.0
144
0.0
144
0.0
144
0.0208333333333333
144
0.0
144
0.0
144
0.0
144
0.0
144
1.0
144
0.0
144
0.0
144
0.0
144
0.0
144
1.0
147
0.0208333333333333
147
0.0
147
0.0
147
0.0
147
0.0
147
0.0208333333333333
147
0.0
147
0.0
147
0.0
147
0.0
147
1.0
147
0.0
147
0.0
147
0.0
147
0.0
147
1.0
  0
MLEADERSTYLE
  5
A535
102
{ACAD_REACTORS
330
A534
102
}
330
A534
100
AcDbMLeaderStyle
170
     2
171
     1
172
     0
 90
        2
 40
0.0
 41
0.0
173
     1
 91
-1056964608
340
A1B9
 92
       -2
290
     1
 42
0.09
291
     1
 43
0.36
  3
Standard
 44
0.18
300

342
A1B7
174
     1
178
     6
175
     1
176
     0
 93
-1056964608
 45
0.18
292
     0
297
     0
 46
0.18
 94
-1056964608
 47
1.0
 49
1.0
140
1.0
293
     1
141
0.0
294
     1
177
     0
142
1.0
295
     0
296
     0
143
0.125
1001
ACAD_MLEADERVER
1070
     2
  0
MLINESTYLE
  5
A1BD
102
{ACAD_REACTORS
330
A1BC
102
}
330
A1BC
100
AcDbMlineStyle
  2
STANDARD
 70
     0
  3

 62
   256
 51
90.0
 52
90.0
 71
     2
 49
0.5
 62
   256
  6
BYLAYER
 49
-0.5
 62
   256
  6
BYLAYER
  0
ACDBPLACEHOLDER
  5
A4EC
102
{ACAD_REACTORS
330
A4EB
102
}
330
A4EB
  0
SCALE
  5
A523
102
{ACAD_REACTORS
330
A522
102
}
330
A522
100
AcDbScale
 70
     0
300
1:1
140
1.0
141
1.0
290
     1
  0
SCALE
  5
A524
102
{ACAD_REACTORS
330
A522
102
}
330
A522
100
AcDbScale
 70
     0
300
1/128" = 1'-0"
140
0.0078125
141
12.0
290
     0
  0
SCALE
  5
A525
102
{ACAD_REACTORS
330
A522
102
}
330
A522
100
AcDbScale
 70
     0
300
1/64" = 1'-0"
140
0.015625
141
12.0
290
     0
  0
SCALE
  5
A526
102
{ACAD_REACTORS
330
A522
102
}
330
A522
100
AcDbScale
 70
     0
300
1/32" = 1'-0"
140
0.03125
141
12.0
290
     0
  0
SCALE
  5
A527
102
{ACAD_REACTORS
330
A522
102
}
330
A522
100
AcDbScale
 70
     0
300
1/16" = 1'-0"
140
0.0625
141
12.0
290
     0
  0
SCALE
  5
A528
102
{ACAD_REACTORS
330
A522
102
}
330
A522
100
AcDbScale
 70
     0
300
3/32" = 1'-0"
140
0.09375
141
12.0
290
     0
  0
SCALE
  5
A529
102
{ACAD_REACTORS
330
A522
102
}
330
A522
100
AcDbScale
 70
     0
300
1/8" = 1'-0"
140
0.125
141
12.0
290
     0
  0
SCALE
  5
A52A
102
{ACAD_REACTORS
330
A522
102
}
330
A522
100
AcDbScale
 70
     0
300
3/16" = 1'-0"
140
0.1875
141
12.0
290
     0
  0
SCALE
  5
A52B
102
{ACAD_REACTORS
330
A522
102
}
330
A522
100
AcDbScale
 70
     0
300
1/4" = 1'-0"
140
0.25
141
12.0
290
     0
  0
SCALE
  5
A52C
102
{ACAD_REACTORS
330
A522
102
}
330
A522
100
AcDbScale
 70
     0
300
3/8" = 1'-0"
140
0.375
141
12.0
290
     0
  0
SCALE
  5
A52D
102
{ACAD_REACTORS
330
A522
102
}
330
A522
100
AcDbScale
 70
     0
300
1/2" = 1'-0"
140
0.5
141
12.0
290
     0
  0
SCALE
  5
A52E
102
{ACAD_REACTORS
330
A522
102
}
330
A522
100
AcDbScale
 70
     0
300
3/4" = 1'-0"
140
0.75
141
12.0
290
     0
  0
SCALE
  5
A52F
102
{ACAD_REACTORS
330
A522
102
}
330
A522
100
AcDbScale
 70
     0
300
1" = 1'-0"
140
1.0
141
12.0
290
     0
  0
SCALE
  5
A530
102
{ACAD_REACTORS
330
A522
102
}
330
A522
100
AcDbScale
 70
     0
300
1-1/2" = 1'-0"
140
1.5
141
12.0
290
     0
  0
SCALE
  5
A531
102
{ACAD_REACTORS
330
A522
102
}
330
A522
100
AcDbScale
 70
     0
300
3" = 1'-0"
140
3.0
141
12.0
290
     0
  0
SCALE
  5
A532
102
{ACAD_REACTORS
330
A522
102
}
330
A522
100
AcDbScale
 70
     0
300
6" = 1'-0"
140
6.0
141
12.0
290
     0
  0
SCALE
  5
A533
102
{ACAD_REACTORS
330
A522
102
}
330
A522
100
AcDbScale
 70
     0
300
1'-0" = 1'-0"
140
12.0
141
12.0
290
     0
  0
ACDBSECTIONVIEWSTYLE
  5
A537
102
{ACAD_XDICTIONARY
360
A592
102
}
102
{ACAD_REACTORS
330
A536
102
}
330
A536
100
AcDbModelDocViewStyle
 70
     0
  3
Imperial24
290
     0
100
AcDbSectionViewStyle
 70
     0
 71
     0
 90
       78
 71
     1
340
A1B7
 40
0.24
340
0
340
0
 40
0.24
300
I, O, Q, S, X, Z
 40
0.48
 90
        3
 40
0.18
 90
        1
 71
     2
340
A1BB
 90
       25
340
A1BB
 90
       50
 40
0.24
 40
0.0
 40
0.24
 71
     3
340
A1B7
 40
0.24
 90
        1
 40
0.75
 90
        1
300
%<\AcVar ViewType \f "%tc1">% %<\AcVar ViewSectionStartId>%-%<\AcVar ViewSectionEndId>%\PSCALE %<\AcVar ViewScale \f "%sn">%
 71
     4
300
ANSI31
 40
1.0
 90
        0
290
     0
290
     0
 90
        6
 40
0.0
 40
1.570796326794896
 40
0.2617993877991494
 40
1.308996938995747
 40
-0.2617993877991494
 40
1.832595714594046
  0
TABLESTYLE
  5
A521
102
{ACAD_XDICTIONARY
360
A559
102
}
102
{ACAD_REACTORS
330
A520
102
}
330
A520
100
AcDbTableStyle
  3
Standard
 70
     0
 71
     0
 40
0.06
 41
0.06
280
     0
281
     0
  7
STANDARD
140
0.18
170
     2
 62
     0
 63
     7
283
     0
274
    -2
284
     1
 64
     0
275
    -2
285
     1
 65
     0
276
    -2
286
     1
 66
     0
277
    -2
287
     1
 67
     0
278
    -2
288
     1
 68
     0
279
    -2
289
     1
 69
     0
  7
STANDARD
140
0.25
170
     5
 62
     0
 63
     7
283
     0
274
    -2
284
     1
 64
     0
275
    -2
285
     1
 65
     0
276
    -2
286
     1
 66
     0
277
    -2
287
     1
 67
     0
278
    -2
288
     1
 68
     0
279
    -2
289
     1
 69
     0
  7
STANDARD
140
0.18
170
     5
 62
     0
 63
     7
283
     0
274
    -2
284
     1
 64
     0
275
    -2
285
     1
 65
     0
276
    -2
286
     1
 66
     0
277
    -2
287
     1
 67
     0
278
    -2
288
     1
 68
     0
279
    -2
289
     1
 69
     0
  0
VISUALSTYLE
  5
A50C
102
{ACAD_XDICTIONARY
360
A56A
102
}
102
{ACAD_REACTORS
330
A506
102
}
330
A506
100
AcDbVisualStyle
  2
2dWireframe
 70
     4
 71
     0
 72
     2
 73
     0
 90
        0
 40
-0.6
 41
-30.0
 62
     5
 63
     7
 74
     1
 91
        4
 64
     7
 65
   257
 75
     1
175
     1
 42
1.0
 92
        0
 66
   257
 43
1.0
 76
     1
 77
     6
 78
     2
 67
     7
 79
     5
170
     0
171
     0
290
     0
174
     0
 93
        1
 44
0.0
173
     0
291
     0
 45
0.0
1001
ACAD
1000
AcDbSavedByObjectVersion
1070
     0
  0
VISUALSTYLE
  5
A50B
102
{ACAD_XDICTIONARY
360
A568
102
}
102
{ACAD_REACTORS
330
A506
102
}
330
A506
100
AcDbVisualStyle
  2
Basic
 70
     7
 71
     1
 72
     0
 73
     1
 90
        0
 40
-0.6
 41
-30.0
 62
     5
 63
     7
 74
     0
 91
        4
 64
     7
 65
   257
 75
     1
175
     1
 42
1.0
 92
        8
 66
     7
 43
1.0
 76
     1
 77
     6
 78
     2
 67
     7
 79
     5
170
     0
171
     0
290
     0
174
     0
 93
        1
 44
0.0
173
     0
291
     1
 45
0.0
1001
ACAD
1000
AcDbSavedByObjectVersion
1070
     0
  0
VISUALSTYLE
  5
A512
102
{ACAD_XDICTIONARY
360
A576
102
}
102
{ACAD_REACTORS
330
A506
102
}
330
A506
100
AcDbVisualStyle
  2
Brighten
 70
    12
 71
     2
 72
     2
 73
     0
 90
        0
 40
-0.6
 41
-30.0
 62
     5
 63
     7
 74
     1
 91
        4
 64
     7
 65
   257
 75
     1
175
     1
 42
1.0
 92
        8
 66
     7
 43
1.0
 76
     1
 77
     6
 78
     2
 67
     7
 79
     5
170
     0
171
     0
290
     0
174
     0
 93
        1
 44
50.0
173
     0
291
     1
 45
0.0
1001
ACAD
1000
AcDbSavedByObjectVersion
1070
     0
  0
VISUALSTYLE
  5
A516
102
{ACAD_XDICTIONARY
360
A57E
102
}
102
{ACAD_REACTORS
330
A506
102
}
330
A506
100
AcDbVisualStyle
  2
ColorChange
 70
    16
 71
     2
 72
     2
 73
     3
 90
        0
 40
-0.6
 41
-30.0
 62
     5
 63
     8
 74
     1
 91
        4
 64
     7
 65
   257
 75
     1
175
     1
 42
1.0
 92
        8
 66
     8
 43
1.0
 76
     1
 77
     6
 78
     2
 67
     7
 79
     5
170
     0
171
     0
290
     0
174
     0
 93
        1
 44
0.0
173
     0
291
     1
 45
0.0
1001
ACAD
1000
AcDbSavedByObjectVersion
1070
     0
  0
VISUALSTYLE
  5
A50F
102
{ACAD_XDICTIONARY
360
A570
102
}
102
{ACAD_REACTORS
330
A506
102
}
330
A506
100
AcDbVisualStyle
  2
Conceptual
 70
     9
 71
     3
 72
     2
 73
     0
 90
        0
 40
-0.6
 41
-30.0
 62
     5
 63
     7
 74
     2
 91
        2
 64
     7
 65
   257
 75
     1
175
     1
 42
179.0
 92
        8
 66
     7
 43
1.0
 76
     1
 77
     6
 78
     2
 67
     7
 79
     3
170
     0
171
     0
290
     0
174
     0
 93
        1
 44
0.0
173
     0
291
     0
 45
0.0
1001
ACAD
1000
AcDbSavedByObjectVersion
1070
     0
  0
VISUALSTYLE
  5
A511
102
{ACAD_XDICTIONARY
360
A574
102
}
102
{ACAD_REACTORS
330
A506
102
}
330
A506
100
AcDbVisualStyle
  2
Dim
 70
    11
 71
     2
 72
     2
 73
     0
 90
        0
 40
-0.6
 41
-30.0
 62
     5
 63
     7
 74
     1
 91
        4
 64
     7
 65
   257
 75
     1
175
     1
 42
1.0
 92
        8
 66
     7
 43
1.0
 76
     1
 77
     6
 78
     2
 67
     7
 79
     5
170
     0
171
     0
290
     0
174
     0
 93
        1
 44
-50.0
173
     0
291
     1
 45
0.0
1001
ACAD
1000
AcDbSavedByObjectVersion
1070
     0
  0
VISUALSTYLE
  5
A51E
102
{ACAD_XDICTIONARY
360
A58E
102
}
102
{ACAD_REACTORS
330
A506
102
}
330
A506
100
AcDbVisualStyle
  2
EdgeColorOff
 70
    22
 71
     2
 72
     2
 73
     0
 90
        0
 40
-0.6
 41
-30.0
 62
     5
 63
     7
 74
     1
 91
        4
 64
     7
 65
   257
 75
     1
175
     1
 42
1.0
 92
        8
 66
     7
 43
1.0
 76
     1
 77
     6
 78
     2
 67
     7
 79
     5
170
     0
171
     0
290
     0
174
     0
 93
        1
 44
0.0
173
     0
291
     1
 45
0.0
1001
ACAD
1000
AcDbSavedByObjectVersion
1070
     0
  0
VISUALSTYLE
  5
A515
102
{ACAD_XDICTIONARY
360
A57C
102
}
102
{ACAD_REACTORS
330
A506
102
}
330
A506
100
AcDbVisualStyle
  2
Facepattern
 70
    15
 71
     2
 72
     2
 73
     0
 90
        0
 40
-0.6
 41
-30.0
 62
     5
 63
     7
 74
     1
 91
        4
 64
     7
 65
   257
 75
     1
175
     1
 42
1.0
 92
        8
 66
     7
 43
1.0
 76
     1
 77
     6
 78
     2
 67
     7
 79
     5
170
     0
171
     0
290
     0
174
     0
 93
        1
 44
0.0
173
     0
291
     1
 45
0.0
1001
ACAD
1000
AcDbSavedByObjectVersion
1070
     0
  0
VISUALSTYLE
  5
A507
102
{ACAD_XDICTIONARY
360
A560
102
}
102
{ACAD_REACTORS
330
A506
102
}
330
A506
100
AcDbVisualStyle
  2
Flat
 70
     0
 71
     2
 72
     1
 73
     1
 90
        2
 40
-0.6
 41
30.0
 62
     5
 63
     7
 74
     0
 91
        0
 64
     7
 65
   257
 75
     1
175
     1
 42
1.0
 92
        8
 66
     7
 43
1.0
 76
     1
 77
     6
 78
     2
 67
     7
 79
     5
170
     0
171
     0
290
     0
174
     0
 93
       13
 44
0.0
173
     0
291
     1
 45
0.0
1001
ACAD
1000
AcDbSavedByObjectVersion
1070
     0
  0
VISUALSTYLE
  5
A508
102
{ACAD_XDICTIONARY
360
A562
102
}
102
{ACAD_REACTORS
330
A506
102
}
330
A506
100
AcDbVisualStyle
  2
FlatWithEdges
 70
     1
 71
     2
 72
     1
 73
     1
 90
        2
 40
-0.6
 41
30.0
 62
     5
 63
     7
 74
     1
 91
        0
 64
     7
 65
   257
 75
     1
175
     1
 42
1.0
 92
        0
 66
   257
 43
1.0
 76
     1
 77
     6
 78
     2
 67
     7
 79
     5
170
     0
171
     0
290
     0
174
     0
 93
       13
 44
0.0
173
     0
291
     1
 45
0.0
1001
ACAD
1000
AcDbSavedByObjectVersion
1070
     0
  0
VISUALSTYLE
  5
A509
102
{ACAD_XDICTIONARY
360
A564
102
}
102
{ACAD_REACTORS
330
A506
102
}
330
A506
100
AcDbVisualStyle
  2
Gouraud
 70
     2
 71
     2
 72
     2
 73
     1
 90
        2
 40
-0.6
 41
30.0
 62
     5
 63
     7
 74
     0
 91
        0
 64
     7
 65
   257
 75
     1
175
     1
 42
1.0
 92
        0
 66
     7
 43
1.0
 76
     1
 77
     6
 78
     2
 67
     7
 79
     5
170
     0
171
     0
290
     0
174
     0
 93
       13
 44
0.0
173
     0
291
     1
 45
0.0
1001
ACAD
1000
AcDbSavedByObjectVersion
1070
     0
  0
VISUALSTYLE
  5
A50A
102
{ACAD_XDICTIONARY
360
A566
102
}
102
{ACAD_REACTORS
330
A506
102
}
330
A506
100
AcDbVisualStyle
  2
GouraudWithEdges
 70
     3
 71
     2
 72
     2
 73
     1
 90
        2
 40
-0.6
 41
30.0
 62
     5
 63
     7
 74
     1
 91
        0
 64
     7
 65
   257
 75
     1
175
     1
 42
1.0
 92
        0
 66
   257
 43
1.0
 76
     1
 77
     6
 78
     2
 67
     7
 79
     5
170
     0
171
     0
290
     0
174
     0
 93
       13
 44
0.0
173
     0
291
     1
 45
0.0
1001
ACAD
1000
AcDbSavedByObjectVersion
1070
     0
  0
VISUALSTYLE
  5
A50E
102
{ACAD_XDICTIONARY
360
A56E
102
}
102
{ACAD_REACTORS
330
A506
102
}
330
A506
100
AcDbVisualStyle
  2
Hidden
 70
     6
 71
     1
 72
     2
 73
     2
 90
        0
 40
-0.6
 41
-30.0
 62
     5
 63
     7
 74
     2
 91
        2
 64
     7
 65
   257
 75
     2
175
     1
 42
40.0
 92
        0
 66
   257
 43
1.0
 76
     1
 77
     6
 78
     2
 67
     7
 79
     3
170
     0
171
     0
290
     0
174
     0
 93
        1
 44
0.0
173
     0
291
     0
 45
0.0
1001
ACAD
1000
AcDbSavedByObjectVersion
1070
     0
  0
VISUALSTYLE
  5
A51C
102
{ACAD_XDICTIONARY
360
A58A
102
}
102
{ACAD_REACTORS
330
A506
102
}
330
A506
100
AcDbVisualStyle
  2
JitterOff
 70
    20
 71
     2
 72
     2
 73
     0
 90
        0
 40
-0.6
 41
-30.0
 62
     5
 63
     7
 74
     1
 91
        4
 64
     7
 65
   257
 75
     1
175
     1
 42
1.0
 92
       10
 66
     7
 43
1.0
 76
     1
 77
     6
 78
     2
 67
     7
 79
     5
170
     0
171
     0
290
     0
174
     0
 93
        1
 44
0.0
173
     0
291
     1
 45
0.0
1001
ACAD
1000
AcDbSavedByObjectVersion
1070
     0
  0
VISUALSTYLE
  5
A514
102
{ACAD_XDICTIONARY
360
A57A
102
}
102
{ACAD_REACTORS
330
A506
102
}
330
A506
100
AcDbVisualStyle
  2
Linepattern
 70
    14
 71
     2
 72
     2
 73
     0
 90
        0
 40
-0.6
 41
-30.0
 62
     5
 63
     7
 74
     1
 91
        4
 64
     7
 65
   257
 75
     7
175
     7
 42
1.0
 92
        8
 66
     7
 43
1.0
 76
     1
 77
     6
 78
     2
 67
     7
 79
     5
170
     0
171
     0
290
     0
174
     0
 93
        1
 44
0.0
173
     0
291
     1
 45
0.0
1001
ACAD
1000
AcDbSavedByObjectVersion
1070
     0
  0
VISUALSTYLE
  5
A51D
102
{ACAD_XDICTIONARY
360
A58C
102
}
102
{ACAD_REACTORS
330
A506
102
}
330
A506
100
AcDbVisualStyle
  2
OverhangOff
 70
    21
 71
     2
 72
     2
 73
     0
 90
        0
 40
-0.6
 41
-30.0
 62
     5
 63
     7
 74
     1
 91
        4
 64
     7
 65
   257
 75
     1
175
     1
 42
1.0
 92
        9
 66
     7
 43
1.0
 76
     1
 77
     6
 78
     2
 67
     7
 79
     5
170
     0
171
     0
290
     0
174
     0
 93
        1
 44
0.0
173
     0
291
     1
 45
0.0
1001
ACAD
1000
AcDbSavedByObjectVersion
1070
     0
  0
VISUALSTYLE
  5
A510
102
{ACAD_XDICTIONARY
360
A572
102
}
102
{ACAD_REACTORS
330
A506
102
}
330
A506
100
AcDbVisualStyle
  2
Realistic
 70
     8
 71
     2
 72
     3
 73
     0
 90
        2
 40
-0.6
 41
30.0
 62
     5
 63
     7
 74
     0
 91
        0
 64
     7
 65
   257
 75
     1
175
     1
 42
1.0
 92
        8
 66
   257
 43
1.0
 76
     1
 77
     6
 78
     2
 67
     7
 79
     3
170
     0
171
     0
290
     0
174
     0
 93
       13
 44
0.0
173
     0
291
     0
 45
0.0
1001
ACAD
1000
AcDbSavedByObjectVersion
1070
     0
  0
VISUALSTYLE
  5
A51B
102
{ACAD_XDICTIONARY
360
A588
102
}
102
{ACAD_REACTORS
330
A506
102
}
330
A506
100
AcDbVisualStyle
  2
Shaded
 70
    27
 71
     2
 72
     2
 73
     1
 90
        2
 40
-0.6
 41
30.0
 62
     5
 63
     7
 74
     0
 91
        4
 64
     7
 65
   257
 75
     1
175
     1
 42
1.0
 92
        8
 66
   257
 43
1.0
 76
     1
 77
     6
 78
     2
 67
     8
 79
     3
170
     0
171
     0
290
     0
174
     0
 93
        5
 44
0.0
173
     0
291
     0
 45
0.0
1001
ACAD
1000
AcDbSavedByObjectVersion
1070
     0
  0
VISUALSTYLE
  5
A51A
102
{ACAD_XDICTIONARY
360
A586
102
}
102
{ACAD_REACTORS
330
A506
102
}
330
A506
100
AcDbVisualStyle
  2
Shaded with edges
 70
    26
 71
     2
 72
     2
 73
     1
 90
        2
 40
-0.6
 41
30.0
 62
     5
 63
     7
 74
     1
 91
       10
 64
     7
 65
   257
 75
     2
175
     1
 42
1.0
 92
        8
 66
   257
 43
1.0
 76
     1
 77
     6
 78
     2
 67
     7
 79
     3
170
     0
171
     0
290
     0
174
     0
 93
        5
 44
0.0
173
     0
291
     0
 45
0.0
1001
ACAD
1000
AcDbSavedByObjectVersion
1070
     0
  0
VISUALSTYLE
  5
A517
102
{ACAD_XDICTIONARY
360
A580
102
}
102
{ACAD_REACTORS
330
A506
102
}
330
A506
100
AcDbVisualStyle
  2
Shades of Gray
 70
    23
 71
     2
 72
     2
 73
     3
 90
        0
 40
-0.6
 41
-30.0
 62
     5
 63
     7
 74
     2
 91
        2
 64
     7
 65
     7
 75
     1
175
     1
 42
40.0
 92
        8
 66
     7
 43
1.0
 76
     1
 77
     6
 78
     2
 67
     7
 79
     3
170
     0
171
     0
290
     0
174
     0
 93
        1
 44
0.0
173
     0
291
     0
 45
0.0
1001
ACAD
1000
AcDbSavedByObjectVersion
1070
     0
  0
VISUALSTYLE
  5
A518
102
{ACAD_XDICTIONARY
360
A582
102
}
102
{ACAD_REACTORS
330
A506
102
}
330
A506
100
AcDbVisualStyle
  2
Sketchy
 70
    24
 71
     1
 72
     2
 73
     2
 90
        0
 40
-0.6
 41
-30.0
 62
     5
 63
     7
 74
     2
 91
        2
 64
     7
 65
     7
 75
     1
175
     1
 42
40.0
 92
       11
 66
     7
 43
1.0
 76
     1
 77
     6
 78
     2
 67
     7
 79
     6
170
     0
171
     0
290
     0
174
     0
 93
        1
 44
0.0
173
     0
291
     0
 45
0.0
1001
ACAD
1000
AcDbSavedByObjectVersion
1070
     0
  0
VISUALSTYLE
  5
A513
102
{ACAD_XDICTIONARY
360
A578
102
}
102
{ACAD_REACTORS
330
A506
102
}
330
A506
100
AcDbVisualStyle
  2
Thicken
 70
    13
 71
     2
 72
     2
 73
     0
 90
        0
 40
-0.6
 41
-30.0
 62
     5
 63
     7
 74
     1
 91
        4
 64
     7
 65
   257
 75
     1
175
     1
 42
1.0
 92
       12
 66
     7
 43
1.0
 76
     1
 77
     6
 78
     2
 67
     7
 79
     5
170
     0
171
     0
290
     0
174
     0
 93
        1
 44
0.0
173
     0
291
     1
 45
0.0
1001
ACAD
1000
AcDbSavedByObjectVersion
1070
     0
  0
VISUALSTYLE
  5
A50D
102
{ACAD_XDICTIONARY
360
A56C
102
}
102
{ACAD_REACTORS
330
A506
102
}
330
A506
100
AcDbVisualStyle
  2
Wireframe
 70
     5
 71
     0
 72
     2
 73
     0
 90
        0
 40
-0.6
 41
-30.0
 62
     5
 63
     7
 74
     1
 91
        4
 64
     7
 65
   257
 75
     1
175
     1
 42
1.0
 92
        0
 66
   257
 43
1.0
 76
     1
 77
     6
 78
     2
 67
     7
 79
     3
170
     0
171
     0
290
     0
174
     0
 93
        1
 44
0.0
173
     0
291
     0
 45
0.0
1001
ACAD
1000
AcDbSavedByObjectVersion
1070
     0
  0
VISUALSTYLE
  5
A519
102
{ACAD_XDICTIONARY
360
A584
102
}
102
{ACAD_REACTORS
330
A506
102
}
330
A506
100
AcDbVisualStyle
  2
X-Ray
 70
    25
 71
     2
 72
     2
 73
     1
 90
        1
 40
0.5
 41
-30.0
 62
     5
 63
     7
 74
     1
 91
        0
 64
     7
 65
   257
 75
     1
175
     1
 42
1.0
 92
        8
 66
     7
 43
1.0
 76
     1
 77
     6
 78
     2
 67
     7
 79
     3
170
     0
171
     0
290
     0
174
     0
 93
       13
 44
0.0
173
     0
291
     0
 45
0.0
1001
ACAD
1000
AcDbSavedByObjectVersion
1070
     0
  0
DICTIONARYVAR
  5
A553
102
{ACAD_REACTORS
330
A54E
102
}
330
A54E
100
DictionaryVariables
280
     0
  1
1:1
  0
DICTIONARYVAR
  5
A550
102
{ACAD_REACTORS
330
A54E
102
}
330
A54E
100
DictionaryVariables
280
     0
  1
STANDARD
  0
DICTIONARYVAR
  5
A54F
102
{ACAD_REACTORS
330
A54E
102
}
330
A54E
100
DictionaryVariables
280
     0
  1
STANDARD
  0
DICTIONARYVAR
  5
A551
102
{ACAD_REACTORS
330
A54E
102
}
330
A54E
100
DictionaryVariables
280
     0
  1
Imperial24
  0
DICTIONARYVAR
  5
A552
102
{ACAD_REACTORS
330
A54E
102
}
330
A54E
100
DictionaryVariables
280
     0
  1
Imperial24
  0
DICTIONARYVAR
  5
A556
102
{ACAD_REACTORS
330
A54E
102
}
330
A54E
100
DictionaryVariables
280
     0
  1
1
  0
DICTIONARYVAR
  5
A555
102
{ACAD_REACTORS
330
A54E
102
}
330
A54E
100
DictionaryVariables
280
     0
  1
0
  0
DICTIONARYVAR
  5
A554
102
{ACAD_REACTORS
330
A54E
102
}
330
A54E
100
DictionaryVariables
280
     0
  1
127
  0
DICTIONARYVAR
  5
A557
102
{ACAD_REACTORS
330
A54E
102
}
330
A54E
100
DictionaryVariables
280
     0
  1
2
  0
DICTIONARY
  5
A594
330
A539
100
AcDbDictionary
280
     1
281
     1
  3
ACAD_XREC_ROUNDTRIP
360
A595
  0
DICTIONARY
  5
A596
330
A53A
100
AcDbDictionary
280
     1
281
     1
  3
ACAD_XREC_ROUNDTRIP
360
A597
  0
DICTIONARY
  5
A598
330
A53B
100
AcDbDictionary
280
     1
281
     1
  3
ACAD_XREC_ROUNDTRIP
360
A599
  0
DICTIONARY
  5
A4F7
330
A4F6
100
AcDbDictionary
280
     1
281
     1
  3
ACAD_XREC_ROUNDTRIP
360
A55E
  3
BUMPTILE
360
A4F9
  3
DIFFUSETILE
360
A4F8
  3
OPACITYTILE
360
A4FC
  3
REFLECTIONTILE
360
A4FB
  3
REFRACTIONTILE
360
A4FD
  3
SPECULARTILE
360
A4FA
  0
DICTIONARY
  5
A4EF
330
A4EE
100
AcDbDictionary
280
     1
281
     1
  3
ACAD_XREC_ROUNDTRIP
360
A55D
  3
BUMPTILE
360
A4F1
  3
DIFFUSETILE
360
A4F0
  3
OPACITYTILE
360
A4F4
  3
REFLECTIONTILE
360
A4F3
  3
REFRACTIONTILE
360
A4F5
  3
SPECULARTILE
360
A4F2
  0
DICTIONARY
  5
A4FF
330
A4FE
100
AcDbDictionary
280
     1
281
     1
  3
ACAD_XREC_ROUNDTRIP
360
A55F
  3
BUMPTILE
360
A501
  3
DIFFUSETILE
360
A500
  3
OPACITYTILE
360
A504
  3
REFLECTIONTILE
360
A503
  3
REFRACTIONTILE
360
A505
  3
SPECULARTILE
360
A502
  0
DICTIONARY
  5
A592
330
A537
100
AcDbDictionary
280
     1
281
     1
  3
ACAD_XREC_ROUNDTRIP
360
A593
  0
DICTIONARY
  5
A559
330
A521
100
AcDbDictionary
280
     1
281
     1
  3
ACAD_ROUNDTRIP_2008_TABLESTYLE_CELLSTYLEMAP
360
A55A
  3
ACAD_XREC_ROUNDTRIP
360
A590
  0
DICTIONARY
  5
A56A
330
A50C
100
AcDbDictionary
280
     1
281
     1
  3
ACAD_XREC_ROUNDTRIP
360
A56B
  0
DICTIONARY
  5
A568
330
A50B
100
AcDbDictionary
280
     1
281
     1
  3
ACAD_XREC_ROUNDTRIP
360
A569
  0
DICTIONARY
  5
A576
330
A512
100
AcDbDictionary
280
     1
281
     1
  3
ACAD_XREC_ROUNDTRIP
360
A577
  0
DICTIONARY
  5
A57E
330
A516
100
AcDbDictionary
280
     1
281
     1
  3
ACAD_XREC_ROUNDTRIP
360
A57F
  0
DICTIONARY
  5
A570
330
A50F
100
AcDbDictionary
280
     1
281
     1
  3
ACAD_XREC_ROUNDTRIP
360
A571
  0
DICTIONARY
  5
A574
330
A511
100
AcDbDictionary
280
     1
281
     1
  3
ACAD_XREC_ROUNDTRIP
360
A575
  0
DICTIONARY
  5
A58E
330
A51E
100
AcDbDictionary
280
     1
281
     1
  3
ACAD_XREC_ROUNDTRIP
360
A58F
  0
DICTIONARY
  5
A57C
330
A515
100
AcDbDictionary
280
     1
281
     1
  3
ACAD_XREC_ROUNDTRIP
360
A57D
  0
DICTIONARY
  5
A560
330
A507
100
AcDbDictionary
280
     1
281
     1
  3
ACAD_XREC_ROUNDTRIP
360
A561
  0
DICTIONARY
  5
A562
330
A508
100
AcDbDictionary
280
     1
281
     1
  3
ACAD_XREC_ROUNDTRIP
360
A563
  0
DICTIONARY
  5
A564
330
A509
100
AcDbDictionary
280
     1
281
     1
  3
ACAD_XREC_ROUNDTRIP
360
A565
  0
DICTIONARY
  5
A566
330
A50A
100
AcDbDictionary
280
     1
281
     1
  3
ACAD_XREC_ROUNDTRIP
360
A567
  0
DICTIONARY
  5
A56E
330
A50E
100
AcDbDictionary
280
     1
281
     1
  3
ACAD_XREC_ROUNDTRIP
360
A56F
  0
DICTIONARY
  5
A58A
330
A51C
100
AcDbDictionary
280
     1
281
     1
  3
ACAD_XREC_ROUNDTRIP
360
A58B
  0
DICTIONARY
  5
A57A
330
A514
100
AcDbDictionary
280
     1
281
     1
  3
ACAD_XREC_ROUNDTRIP
360
A57B
  0
DICTIONARY
  5
A58C
330
A51D
100
AcDbDictionary
280
     1
281
     1
  3
ACAD_XREC_ROUNDTRIP
360
A58D
  0
DICTIONARY
  5
A572
330
A510
100
AcDbDictionary
280
     1
281
     1
  3
ACAD_XREC_ROUNDTRIP
360
A573
  0
DICTIONARY
  5
A588
330
A51B
100
AcDbDictionary
280
     1
281
     1
  3
ACAD_XREC_ROUNDTRIP
360
A589
  0
DICTIONARY
  5
A586
330
A51A
100
AcDbDictionary
280
     1
281
     1
  3
ACAD_XREC_ROUNDTRIP
360
A587
  0
DICTIONARY
  5
A580
330
A517
100
AcDbDictionary
280
     1
281
     1
  3
ACAD_XREC_ROUNDTRIP
360
A581
  0
DICTIONARY
  5
A582
330
A518
100
AcDbDictionary
280
     1
281
     1
  3
ACAD_XREC_ROUNDTRIP
360
A583
  0
DICTIONARY
  5
A578
330
A513
100
AcDbDictionary
280
     1
281
     1
  3
ACAD_XREC_ROUNDTRIP
360
A579
  0
DICTIONARY
  5
A56C
330
A50D
100
AcDbDictionary
280
     1
281
     1
  3
ACAD_XREC_ROUNDTRIP
360
A56D
  0
DICTIONARY
  5
A584
330
A519
100
AcDbDictionary
280
     1
281
     1
  3
ACAD_XREC_ROUNDTRIP
360
A585
  0
XRECORD
  5
A595
102
{ACAD_REACTORS
330
A594
102
}
330
A594
100
AcDbXrecord
280
     1
102
DISPLAYNAME
  1
Imperial24
102
FLAGS
 90
        0
  0
XRECORD
  5
A597
102
{ACAD_REACTORS
330
A596
102
}
330
A596
100
AcDbXrecord
280
     1
102
SHADEPLOT
 70
     0
102
SHADEPLOTRESLEVEL
 70
     2
102
SHADEPLOTCUSTOMDPI
 70
   300
  0
XRECORD
  5
A599
102
{ACAD_REACTORS
330
A598
102
}
330
A598
100
AcDbXrecord
280
     1
102
SHADEPLOT
 70
     0
102
SHADEPLOTRESLEVEL
 70
     2
102
SHADEPLOTCUSTOMDPI
 70
   300
  0
XRECORD
  5
A55E
102
{ACAD_REACTORS
330
A4F7
102
}
330
A4F7
100
AcDbXrecord
280
     1
102
MATERIAL
148
0.0
149
0.0
149
0.0
 93
        0
 94
      127
282
     0
 72
     0
 77
     0
171
     0
175
     0
179
     0
273
     0
  0
XRECORD
  5
A4F9
102
{ACAD_REACTORS
330
A4F7
102
}
330
A4F7
100
AcDbXrecord
280
     1
270
     1
271
     1
  0
XRECORD
  5
A4F8
102
{ACAD_REACTORS
330
A4F7
102
}
330
A4F7
100
AcDbXrecord
280
     1
270
     1
271
     1
  0
XRECORD
  5
A4FC
102
{ACAD_REACTORS
330
A4F7
102
}
330
A4F7
100
AcDbXrecord
280
     1
270
     1
271
     1
  0
XRECORD
  5
A4FB
102
{ACAD_REACTORS
330
A4F7
102
}
330
A4F7
100
AcDbXrecord
280
     1
270
     1
271
     1
  0
XRECORD
  5
A4FD
102
{ACAD_REACTORS
330
A4F7
102
}
330
A4F7
100
AcDbXrecord
280
     1
270
     1
271
     1
  0
XRECORD
  5
A4FA
102
{ACAD_REACTORS
330
A4F7
102
}
330
A4F7
100
AcDbXrecord
280
     1
270
     1
271
     1
  0
XRECORD
  5
A55D
102
{ACAD_REACTORS
330
A4EF
102
}
330
A4EF
100
AcDbXrecord
280
     1
102
MATERIAL
148
0.0
149
0.0
149
0.0
 93
        0
 94
      127
282
     0
 72
     0
 77
     0
171
     0
175
     0
179
     0
273
     0
  0
XRECORD
  5
A4F1
102
{ACAD_REACTORS
330
A4EF
102
}
330
A4EF
100
AcDbXrecord
280
     1
270
     1
271
     1
  0
XRECORD
  5
A4F0
102
{ACAD_REACTORS
330
A4EF
102
}
330
A4EF
100
AcDbXrecord
280
     1
270
     1
271
     1
  0
XRECORD
  5
A4F4
102
{ACAD_REACTORS
330
A4EF
102
}
330
A4EF
100
AcDbXrecord
280
     1
270
     1
271
     1
  0
XRECORD
  5
A4F3
102
{ACAD_REACTORS
330
A4EF
102
}
330
A4EF
100
AcDbXrecord
280
     1
270
     1
271
     1
  0
XRECORD
  5
A4F5
102
{ACAD_REACTORS
330
A4EF
102
}
330
A4EF
100
AcDbXrecord
280
     1
270
     1
271
     1
  0
XRECORD
  5
A4F2
102
{ACAD_REACTORS
330
A4EF
102
}
330
A4EF
100
AcDbXrecord
280
     1
270
     1
271
     1
  0
XRECORD
  5
A55F
102
{ACAD_REACTORS
330
A4FF
102
}
330
A4FF
100
AcDbXrecord
280
     1
102
MATERIAL
148
0.0
149
0.0
149
0.0
 93
        0
 94
      127
282
     0
 72
     0
 77
     0
171
     0
175
     0
179
     0
273
     0
  0
XRECORD
  5
A501
102
{ACAD_REACTORS
330
A4FF
102
}
330
A4FF
100
AcDbXrecord
280
     1
270
     1
271
     1
  0
XRECORD
  5
A500
102
{ACAD_REACTORS
330
A4FF
102
}
330
A4FF
100
AcDbXrecord
280
     1
270
     1
271
     1
  0
XRECORD
  5
A504
102
{ACAD_REACTORS
330
A4FF
102
}
330
A4FF
100
AcDbXrecord
280
     1
270
     1
271
     1
  0
XRECORD
  5
A503
102
{ACAD_REACTORS
330
A4FF
102
}
330
A4FF
100
AcDbXrecord
280
     1
270
     1
271
     1
  0
XRECORD
  5
A505
102
{ACAD_REACTORS
330
A4FF
102
}
330
A4FF
100
AcDbXrecord
280
     1
270
     1
271
     1
  0
XRECORD
  5
A502
102
{ACAD_REACTORS
330
A4FF
102
}
330
A4FF
100
AcDbXrecord
280
     1
270
     1
271
     1
  0
XRECORD
  5
A593
102
{ACAD_REACTORS
330
A592
102
}
330
A592
100
AcDbXrecord
280
     1
102
DISPLAYNAME
  1
Imperial24
102
FLAGS
 90
        0
  0
CELLSTYLEMAP
  5
A55A
102
{ACAD_REACTORS
330
A559
102
}
330
A559
100
AcDbCellStyleMap
 90
        3
300
CELLSTYLE
  1
TABLEFORMAT_BEGIN
 90
        5
170
     1
 91
        0
 92
    32768
 62
   257
 93
        1
300
CONTENTFORMAT
  1
CONTENTFORMAT_BEGIN
 90
        0
 91
        0
 92
      512
 93
        0
300

 40
0.0
140
1.0
 94
        5
 62
     0
340
A1B7
144
0.25
309
CONTENTFORMAT_END
171
     0
 94
        0
309
TABLEFORMAT_END
  1
CELLSTYLE_BEGIN
 90
        1
 91
        1
300
_TITLE
309
CELLSTYLE_END
300
CELLSTYLE
  1
TABLEFORMAT_BEGIN
 90
        5
170
     1
 91
        0
 92
        0
 62
   257
 93
        1
300
CONTENTFORMAT
  1
CONTENTFORMAT_BEGIN
 90
        0
 91
        0
 92
      512
 93
        0
300

 40
0.0
140
1.0
 94
        5
 62
     0
340
A1B7
144
0.18
309
CONTENTFORMAT_END
171
     0
 94
        0
309
TABLEFORMAT_END
  1
CELLSTYLE_BEGIN
 90
        2
 91
        1
300
_HEADER
309
CELLSTYLE_END
300
CELLSTYLE
  1
TABLEFORMAT_BEGIN
 90
        5
170
     1
 91
        0
 92
        0
 62
   257
 93
        1
300
CONTENTFORMAT
  1
CONTENTFORMAT_BEGIN
 90
        0
 91
        0
 92
      512
 93
        0
300

 40
0.0
140
1.0
 94
        2
 62
     0
340
A1B7
144
0.18
309
CONTENTFORMAT_END
171
     0
 94
        0
309
TABLEFORMAT_END
  1
CELLSTYLE_BEGIN
 90
        3
 91
        2
300
_DATA
309
CELLSTYLE_END
  0
XRECORD
  5
A590
102
{ACAD_REACTORS
330
A559
102
}
330
A559
100
AcDbXrecord
280
     1
102
ACAD_ROUNDTRIP_PRE2007_TABLESTYLE
 90
      512
 91
        0
  1

 92
      512
 93
        0
  2

 94
      512
 95
        0
  3

  0
XRECORD
  5
A56B
102
{ACAD_REACTORS
330
A56A
102
}
330
A56A
100
AcDbXrecord
280
     1
102
RTVSPost2010Prop28
280
     1
102
RTVSPost2010PropOp28
 70
     1
102
RTVSPost2010Prop29
280
     1
102
RTVSPost2010PropOp29
 70
     1
102
RTVSPost2010Prop30
280
     0
102
RTVSPost2010PropOp30
 70
     1
102
RTVSPost2010Prop31
280
     0
102
RTVSPost2010PropOp31
 70
     1
102
RTVSPost2010Prop32
280
     0
102
RTVSPost2010PropOp32
 70
     1
102
RTVSPost2010Prop33
280
     0
102
RTVSPost2010PropOp33
 70
     1
102
RTVSPost2010Prop34
280
     0
102
RTVSPost2010PropOp34
 70
     1
102
RTVSPost2010Prop35
280
     0
102
RTVSPost2010PropOp35
 70
     1
102
RTVSPost2010Prop36
280
     0
102
RTVSPost2010PropOp36
 70
     1
102
RTVSPost2010Prop37
 90
       50
102
RTVSPost2010PropOp37
 70
     1
102
RTVSPost2010Prop38
140
0.0
102
RTVSPost2010PropOp38
 70
     1
102
RTVSPost2010Prop39
140
1.0
102
RTVSPost2010PropOp39
 70
     1
102
RTVSPost2010Prop40
 90
        0
102
RTVSPost2010PropOp40
 70
     1
102
RTVSPost2010Prop41ColorIndex
 90
       18
102
RTVSPost2010Prop41ColorRGB
 90
        0
102
RTVSPost2010PropOp41
 70
     1
102
RTVSPost2010Prop42
 90
       50
102
RTVSPost2010PropOp42
 70
     1
102
RTVSPost2010Prop43
 90
        3
102
RTVSPost2010PropOp43
 70
     1
102
RTVSPost2010Prop44ColorIndex
 90
        5
102
RTVSPost2010Prop44ColorRGB
 90
      255
102
RTVSPost2010PropOp44
 70
     1
102
RTVSPost2010Prop45
280
     0
102
RTVSPost2010PropOp45
 70
     1
102
RTVSPost2010Prop46
 90
       50
102
RTVSPost2010PropOp46
 70
     1
102
RTVSPost2010Prop47
 90
       50
102
RTVSPost2010PropOp47
 70
     1
102
RTVSPost2010Prop48
 90
       50
102
RTVSPost2010PropOp48
 70
     1
102
RTVSPost2010Prop49
280
     0
102
RTVSPost2010PropOp49
 70
     1
102
RTVSPost2010Prop50
 90
       50
102
RTVSPost2010PropOp50
 70
     1
102
RTVSPost2010Prop51ColorIndex
 90
      256
102
RTVSPost2010Prop51ColorRGB
 90
-16777216
102
RTVSPost2010PropOp51
 70
     0
102
RTVSPost2010Prop52
140
1.0
102
RTVSPost2010PropOp52
 70
     0
102
RTVSPost2010Prop53
 90
        2
102
RTVSPost2010PropOp53
 70
     1
102
RTVSPost2010Prop54
  1
strokes_ogs.tif
102
RTVSPost2010PropOp54
 70
     1
102
RTVSPost2010Prop55
280
     0
102
RTVSPost2010PropOp55
 70
     1
102
RTVSPost2010Prop56
140
1.0
102
RTVSPost2010PropOp56
 70
     1
102
RTVSPost2010Prop57
140
1.0
102
RTVSPost2010PropOp57
 70
     1
102
RTVSPropertyOp0
 70
     1
102
RTVSPropertyOp1
 70
     1
102
RTVSPropertyOp2
 70
     1
102
RTVSPropertyOp3
 70
     1
102
RTVSPropertyOp4
 70
     1
102
RTVSPropertyOp5
 70
     1
102
RTVSPropertyOp6
 70
     1
102
RTVSPropertyOp7
 70
     1
102
RTVSPropertyOp8
 70
     1
102
RTVSPropertyOp9
 70
     1
102
RTVSPropertyOp10
 70
     1
102
RTVSPropertyOp11
 70
     1
102
RTVSPropertyOp12
 70
     1
102
RTVSPropertyOp13
 70
     1
102
RTVSPropertyOp14
 70
     1
102
RTVSPropertyOp15
 70
     1
102
RTVSPropertyOp16
 70
     1
102
RTVSPropertyOp17
 70
     1
102
RTVSPropertyOp18
 70
     1
102
RTVSPropertyOp19
 70
     1
102
RTVSPropertyOp20
 70
     1
102
RTVSPropertyOp21
 70
     1
102
RTVSPropertyOp22
 70
     1
102
RTVSPropertyOp23
 70
     1
102
RTVSPropertyOp24
 70
     1
102
RTVSPropertyOp25
 70
     1
102
RTVSPropertyOp26
 70
     1
102
RTVSPropertyOp27
 70
     1
102
RTVSPropertyOp28
 70
     1
102
RTVSPropertyOp29
 70
     1
102
RTVSPropertyOp30
 70
     1
102
RTVSPropertyOp31
 70
     1
102
RTVSPropertyOp32
 70
     1
102
RTVSPropertyOp33
 70
     1
102
RTVSPropertyOp34
 70
     1
102
RTVSPropertyOp35
 70
     1
102
RTVSPropertyOp36
 70
     1
102
RTVSPropertyOp37
 70
     1
102
RTVSPropertyOp38
 70
     1
102
RTVSPropertyOp39
 70
     1
102
RTVSPropertyOp40
 70
     1
102
RTVSPropertyOp41
 70
     1
102
RTVSPropertyOp42
 70
     1
102
RTVSPropertyOp43
 70
     1
102
RTVSPropertyOp44
 70
     1
102
RTVSPropertyOp45
 70
     1
102
RTVSPropertyOp46
 70
     1
102
RTVSPropertyOp47
 70
     1
102
RTVSPropertyOp48
 70
     1
102
RTVSPropertyOp49
 70
     1
102
RTVSPropertyOp50
 70
     1
102
RTVSPropertyOp51
 70
     0
102
RTVSPropertyOp52
 70
     0
102
RTVSPropertyOp53
 70
     1
102
RTVSPropertyOp54
 70
     1
102
RTVSPropertyOp55
 70
     1
102
RTVSPropertyOp56
 70
     1
102
RTVSPropertyOp57
 70
     1
102
RTVSPropertyOp58
 70
     1
102
RTVSPropertyOp59
 70
     1
102
RTVSPropertyOp60
 70
     1
102
RTVSPropertyOp61
 70
     1
102
RTVSPropertyOp62
 70
     1
  0
XRECORD
  5
A569
102
{ACAD_REACTORS
330
A568
102
}
330
A568
100
AcDbXrecord
280
     1
102
RTVSPost2010Prop28
280
     0
102
RTVSPost2010PropOp28
 70
     1
102
RTVSPost2010Prop29
280
     1
102
RTVSPost2010PropOp29
 70
     1
102
RTVSPost2010Prop30
280
     1
102
RTVSPost2010PropOp30
 70
     1
102
RTVSPost2010Prop31
280
     0
102
RTVSPost2010PropOp31
 70
     1
102
RTVSPost2010Prop32
280
     0
102
RTVSPost2010PropOp32
 70
     1
102
RTVSPost2010Prop33
280
     0
102
RTVSPost2010PropOp33
 70
     1
102
RTVSPost2010Prop34
280
     0
102
RTVSPost2010PropOp34
 70
     1
102
RTVSPost2010Prop35
280
     0
102
RTVSPost2010PropOp35
 70
     1
102
RTVSPost2010Prop36
280
     0
102
RTVSPost2010PropOp36
 70
     1
102
RTVSPost2010Prop37
 90
       50
102
RTVSPost2010PropOp37
 70
     1
102
RTVSPost2010Prop38
140
0.0
102
RTVSPost2010PropOp38
 70
     1
102
RTVSPost2010Prop39
140
1.0
102
RTVSPost2010PropOp39
 70
     1
102
RTVSPost2010Prop40
 90
        0
102
RTVSPost2010PropOp40
 70
     1
102
RTVSPost2010Prop41ColorIndex
 90
       18
102
RTVSPost2010Prop41ColorRGB
 90
        0
102
RTVSPost2010PropOp41
 70
     1
102
RTVSPost2010Prop42
 90
       50
102
RTVSPost2010PropOp42
 70
     1
102
RTVSPost2010Prop43
 90
        3
102
RTVSPost2010PropOp43
 70
     1
102
RTVSPost2010Prop44ColorIndex
 90
        5
102
RTVSPost2010Prop44ColorRGB
 90
      255
102
RTVSPost2010PropOp44
 70
     1
102
RTVSPost2010Prop45
280
     0
102
RTVSPost2010PropOp45
 70
     1
102
RTVSPost2010Prop46
 90
       50
102
RTVSPost2010PropOp46
 70
     1
102
RTVSPost2010Prop47
 90
       50
102
RTVSPost2010PropOp47
 70
     1
102
RTVSPost2010Prop48
 90
       50
102
RTVSPost2010PropOp48
 70
     1
102
RTVSPost2010Prop49
280
     0
102
RTVSPost2010PropOp49
 70
     1
102
RTVSPost2010Prop50
 90
       50
102
RTVSPost2010PropOp50
 70
     1
102
RTVSPost2010Prop51ColorIndex
 90
      256
102
RTVSPost2010Prop51ColorRGB
 90
-16777216
102
RTVSPost2010PropOp51
 70
     0
102
RTVSPost2010Prop52
140
1.0
102
RTVSPost2010PropOp52
 70
     0
102
RTVSPost2010Prop53
 90
        2
102
RTVSPost2010PropOp53
 70
     1
102
RTVSPost2010Prop54
  1
strokes_ogs.tif
102
RTVSPost2010PropOp54
 70
     1
102
RTVSPost2010Prop55
280
     0
102
RTVSPost2010PropOp55
 70
     1
102
RTVSPost2010Prop56
140
1.0
102
RTVSPost2010PropOp56
 70
     1
102
RTVSPost2010Prop57
140
1.0
102
RTVSPost2010PropOp57
 70
     1
102
RTVSPropertyOp0
 70
     1
102
RTVSPropertyOp1
 70
     1
102
RTVSPropertyOp2
 70
     1
102
RTVSPropertyOp3
 70
     1
102
RTVSPropertyOp4
 70
     1
102
RTVSPropertyOp5
 70
     1
102
RTVSPropertyOp6
 70
     1
102
RTVSPropertyOp7
 70
     1
102
RTVSPropertyOp8
 70
     1
102
RTVSPropertyOp9
 70
     1
102
RTVSPropertyOp10
 70
     1
102
RTVSPropertyOp11
 70
     1
102
RTVSPropertyOp12
 70
     1
102
RTVSPropertyOp13
 70
     1
102
RTVSPropertyOp14
 70
     1
102
RTVSPropertyOp15
 70
     1
102
RTVSPropertyOp16
 70
     1
102
RTVSPropertyOp17
 70
     1
102
RTVSPropertyOp18
 70
     1
102
RTVSPropertyOp19
 70
     1
102
RTVSPropertyOp20
 70
     1
102
RTVSPropertyOp21
 70
     1
102
RTVSPropertyOp22
 70
     1
102
RTVSPropertyOp23
 70
     1
102
RTVSPropertyOp24
 70
     1
102
RTVSPropertyOp25
 70
     1
102
RTVSPropertyOp26
 70
     1
102
RTVSPropertyOp27
 70
     1
102
RTVSPropertyOp28
 70
     1
102
RTVSPropertyOp29
 70
     1
102
RTVSPropertyOp30
 70
     1
102
RTVSPropertyOp31
 70
     1
102
RTVSPropertyOp32
 70
     1
102
RTVSPropertyOp33
 70
     1
102
RTVSPropertyOp34
 70
     1
102
RTVSPropertyOp35
 70
     1
102
RTVSPropertyOp36
 70
     1
102
RTVSPropertyOp37
 70
     1
102
RTVSPropertyOp38
 70
     1
102
RTVSPropertyOp39
 70
     1
102
RTVSPropertyOp40
 70
     1
102
RTVSPropertyOp41
 70
     1
102
RTVSPropertyOp42
 70
     1
102
RTVSPropertyOp43
 70
     1
102
RTVSPropertyOp44
 70
     1
102
RTVSPropertyOp45
 70
     1
102
RTVSPropertyOp46
 70
     1
102
RTVSPropertyOp47
 70
     1
102
RTVSPropertyOp48
 70
     1
102
RTVSPropertyOp49
 70
     1
102
RTVSPropertyOp50
 70
     1
102
RTVSPropertyOp51
 70
     0
102
RTVSPropertyOp52
 70
     0
102
RTVSPropertyOp53
 70
     1
102
RTVSPropertyOp54
 70
     1
102
RTVSPropertyOp55
 70
     1
102
RTVSPropertyOp56
 70
     1
102
RTVSPropertyOp57
 70
     1
102
RTVSPropertyOp58
 70
     1
102
RTVSPropertyOp59
 70
     1
102
RTVSPropertyOp60
 70
     1
102
RTVSPropertyOp61
 70
     1
102
RTVSPropertyOp62
 70
     1
  0
XRECORD
  5
A577
102
{ACAD_REACTORS
330
A576
102
}
330
A576
100
AcDbXrecord
280
     1
102
RTVSPost2010Prop28
280
     0
102
RTVSPost2010PropOp28
 70
     1
102
RTVSPost2010Prop29
280
     1
102
RTVSPost2010PropOp29
 70
     1
102
RTVSPost2010Prop30
280
     1
102
RTVSPost2010PropOp30
 70
     1
102
RTVSPost2010Prop31
280
     0
102
RTVSPost2010PropOp31
 70
     1
102
RTVSPost2010Prop32
280
     0
102
RTVSPost2010PropOp32
 70
     1
102
RTVSPost2010Prop33
280
     0
102
RTVSPost2010PropOp33
 70
     1
102
RTVSPost2010Prop34
280
     0
102
RTVSPost2010PropOp34
 70
     1
102
RTVSPost2010Prop35
280
     0
102
RTVSPost2010PropOp35
 70
     1
102
RTVSPost2010Prop36
280
     0
102
RTVSPost2010PropOp36
 70
     1
102
RTVSPost2010Prop37
 90
       50
102
RTVSPost2010PropOp37
 70
     1
102
RTVSPost2010Prop38
140
0.0
102
RTVSPost2010PropOp38
 70
     1
102
RTVSPost2010Prop39
140
1.0
102
RTVSPost2010PropOp39
 70
     1
102
RTVSPost2010Prop40
 90
        0
102
RTVSPost2010PropOp40
 70
     1
102
RTVSPost2010Prop41ColorIndex
 90
       18
102
RTVSPost2010Prop41ColorRGB
 90
        0
102
RTVSPost2010PropOp41
 70
     1
102
RTVSPost2010Prop42
 90
       50
102
RTVSPost2010PropOp42
 70
     1
102
RTVSPost2010Prop43
 90
        3
102
RTVSPost2010PropOp43
 70
     1
102
RTVSPost2010Prop44ColorIndex
 90
        5
102
RTVSPost2010Prop44ColorRGB
 90
      255
102
RTVSPost2010PropOp44
 70
     1
102
RTVSPost2010Prop45
280
     0
102
RTVSPost2010PropOp45
 70
     1
102
RTVSPost2010Prop46
 90
       50
102
RTVSPost2010PropOp46
 70
     1
102
RTVSPost2010Prop47
 90
       50
102
RTVSPost2010PropOp47
 70
     1
102
RTVSPost2010Prop48
 90
       50
102
RTVSPost2010PropOp48
 70
     1
102
RTVSPost2010Prop49
280
     0
102
RTVSPost2010PropOp49
 70
     1
102
RTVSPost2010Prop50
 90
       50
102
RTVSPost2010PropOp50
 70
     1
102
RTVSPost2010Prop51ColorIndex
 90
      256
102
RTVSPost2010Prop51ColorRGB
 90
-16777216
102
RTVSPost2010PropOp51
 70
     0
102
RTVSPost2010Prop52
140
1.0
102
RTVSPost2010PropOp52
 70
     0
102
RTVSPost2010Prop53
 90
        2
102
RTVSPost2010PropOp53
 70
     1
102
RTVSPost2010Prop54
  1
strokes_ogs.tif
102
RTVSPost2010PropOp54
 70
     1
102
RTVSPost2010Prop55
280
     0
102
RTVSPost2010PropOp55
 70
     1
102
RTVSPost2010Prop56
140
1.0
102
RTVSPost2010PropOp56
 70
     1
102
RTVSPost2010Prop57
140
1.0
102
RTVSPost2010PropOp57
 70
     1
102
RTVSPropertyOp0
 70
     1
102
RTVSPropertyOp1
 70
     1
102
RTVSPropertyOp2
 70
     1
102
RTVSPropertyOp3
 70
     1
102
RTVSPropertyOp4
 70
     1
102
RTVSPropertyOp5
 70
     1
102
RTVSPropertyOp6
 70
     1
102
RTVSPropertyOp7
 70
     1
102
RTVSPropertyOp8
 70
     1
102
RTVSPropertyOp9
 70
     1
102
RTVSPropertyOp10
 70
     1
102
RTVSPropertyOp11
 70
     1
102
RTVSPropertyOp12
 70
     1
102
RTVSPropertyOp13
 70
     1
102
RTVSPropertyOp14
 70
     1
102
RTVSPropertyOp15
 70
     1
102
RTVSPropertyOp16
 70
     1
102
RTVSPropertyOp17
 70
     1
102
RTVSPropertyOp18
 70
     1
102
RTVSPropertyOp19
 70
     1
102
RTVSPropertyOp20
 70
     1
102
RTVSPropertyOp21
 70
     1
102
RTVSPropertyOp22
 70
     1
102
RTVSPropertyOp23
 70
     1
102
RTVSPropertyOp24
 70
     1
102
RTVSPropertyOp25
 70
     1
102
RTVSPropertyOp26
 70
     1
102
RTVSPropertyOp27
 70
     1
102
RTVSPropertyOp28
 70
     1
102
RTVSPropertyOp29
 70
     1
102
RTVSPropertyOp30
 70
     1
102
RTVSPropertyOp31
 70
     1
102
RTVSPropertyOp32
 70
     1
102
RTVSPropertyOp33
 70
     1
102
RTVSPropertyOp34
 70
     1
102
RTVSPropertyOp35
 70
     1
102
RTVSPropertyOp36
 70
     1
102
RTVSPropertyOp37
 70
     1
102
RTVSPropertyOp38
 70
     1
102
RTVSPropertyOp39
 70
     1
102
RTVSPropertyOp40
 70
     1
102
RTVSPropertyOp41
 70
     1
102
RTVSPropertyOp42
 70
     1
102
RTVSPropertyOp43
 70
     1
102
RTVSPropertyOp44
 70
     1
102
RTVSPropertyOp45
 70
     1
102
RTVSPropertyOp46
 70
     1
102
RTVSPropertyOp47
 70
     1
102
RTVSPropertyOp48
 70
     1
102
RTVSPropertyOp49
 70
     1
102
RTVSPropertyOp50
 70
     1
102
RTVSPropertyOp51
 70
     0
102
RTVSPropertyOp52
 70
     0
102
RTVSPropertyOp53
 70
     1
102
RTVSPropertyOp54
 70
     1
102
RTVSPropertyOp55
 70
     1
102
RTVSPropertyOp56
 70
     1
102
RTVSPropertyOp57
 70
     1
102
RTVSPropertyOp58
 70
     1
102
RTVSPropertyOp59
 70
     1
102
RTVSPropertyOp60
 70
     1
102
RTVSPropertyOp61
 70
     1
102
RTVSPropertyOp62
 70
     1
  0
XRECORD
  5
A57F
102
{ACAD_REACTORS
330
A57E
102
}
330
A57E
100
AcDbXrecord
280
     1
102
RTVSPost2010Prop28
280
     0
102
RTVSPost2010PropOp28
 70
     1
102
RTVSPost2010Prop29
280
     1
102
RTVSPost2010PropOp29
 70
     1
102
RTVSPost2010Prop30
280
     1
102
RTVSPost2010PropOp30
 70
     1
102
RTVSPost2010Prop31
280
     0
102
RTVSPost2010PropOp31
 70
     1
102
RTVSPost2010Prop32
280
     0
102
RTVSPost2010PropOp32
 70
     1
102
RTVSPost2010Prop33
280
     0
102
RTVSPost2010PropOp33
 70
     1
102
RTVSPost2010Prop34
280
     0
102
RTVSPost2010PropOp34
 70
     1
102
RTVSPost2010Prop35
280
     0
102
RTVSPost2010PropOp35
 70
     1
102
RTVSPost2010Prop36
280
     0
102
RTVSPost2010PropOp36
 70
     1
102
RTVSPost2010Prop37
 90
       50
102
RTVSPost2010PropOp37
 70
     1
102
RTVSPost2010Prop38
140
0.0
102
RTVSPost2010PropOp38
 70
     1
102
RTVSPost2010Prop39
140
1.0
102
RTVSPost2010PropOp39
 70
     1
102
RTVSPost2010Prop40
 90
        0
102
RTVSPost2010PropOp40
 70
     1
102
RTVSPost2010Prop41ColorIndex
 90
       18
102
RTVSPost2010Prop41ColorRGB
 90
        0
102
RTVSPost2010PropOp41
 70
     1
102
RTVSPost2010Prop42
 90
       50
102
RTVSPost2010PropOp42
 70
     1
102
RTVSPost2010Prop43
 90
        3
102
RTVSPost2010PropOp43
 70
     1
102
RTVSPost2010Prop44ColorIndex
 90
        5
102
RTVSPost2010Prop44ColorRGB
 90
      255
102
RTVSPost2010PropOp44
 70
     1
102
RTVSPost2010Prop45
280
     0
102
RTVSPost2010PropOp45
 70
     1
102
RTVSPost2010Prop46
 90
       50
102
RTVSPost2010PropOp46
 70
     1
102
RTVSPost2010Prop47
 90
       50
102
RTVSPost2010PropOp47
 70
     1
102
RTVSPost2010Prop48
 90
       50
102
RTVSPost2010PropOp48
 70
     1
102
RTVSPost2010Prop49
280
     0
102
RTVSPost2010PropOp49
 70
     1
102
RTVSPost2010Prop50
 90
       50
102
RTVSPost2010PropOp50
 70
     1
102
RTVSPost2010Prop51ColorIndex
 90
      256
102
RTVSPost2010Prop51ColorRGB
 90
-16777216
102
RTVSPost2010PropOp51
 70
     0
102
RTVSPost2010Prop52
140
1.0
102
RTVSPost2010PropOp52
 70
     0
102
RTVSPost2010Prop53
 90
        2
102
RTVSPost2010PropOp53
 70
     1
102
RTVSPost2010Prop54
  1
strokes_ogs.tif
102
RTVSPost2010PropOp54
 70
     1
102
RTVSPost2010Prop55
280
     0
102
RTVSPost2010PropOp55
 70
     1
102
RTVSPost2010Prop56
140
1.0
102
RTVSPost2010PropOp56
 70
     1
102
RTVSPost2010Prop57
140
1.0
102
RTVSPost2010PropOp57
 70
     1
102
RTVSPropertyOp0
 70
     1
102
RTVSPropertyOp1
 70
     1
102
RTVSPropertyOp2
 70
     1
102
RTVSPropertyOp3
 70
     1
102
RTVSPropertyOp4
 70
     1
102
RTVSPropertyOp5
 70
     1
102
RTVSPropertyOp6
 70
     1
102
RTVSPropertyOp7
 70
     1
102
RTVSPropertyOp8
 70
     1
102
RTVSPropertyOp9
 70
     1
102
RTVSPropertyOp10
 70
     1
102
RTVSPropertyOp11
 70
     1
102
RTVSPropertyOp12
 70
     1
102
RTVSPropertyOp13
 70
     1
102
RTVSPropertyOp14
 70
     1
102
RTVSPropertyOp15
 70
     1
102
RTVSPropertyOp16
 70
     1
102
RTVSPropertyOp17
 70
     1
102
RTVSPropertyOp18
 70
     1
102
RTVSPropertyOp19
 70
     1
102
RTVSPropertyOp20
 70
     1
102
RTVSPropertyOp21
 70
     1
102
RTVSPropertyOp22
 70
     1
102
RTVSPropertyOp23
 70
     1
102
RTVSPropertyOp24
 70
     1
102
RTVSPropertyOp25
 70
     1
102
RTVSPropertyOp26
 70
     1
102
RTVSPropertyOp27
 70
     1
102
RTVSPropertyOp28
 70
     1
102
RTVSPropertyOp29
 70
     1
102
RTVSPropertyOp30
 70
     1
102
RTVSPropertyOp31
 70
     1
102
RTVSPropertyOp32
 70
     1
102
RTVSPropertyOp33
 70
     1
102
RTVSPropertyOp34
 70
     1
102
RTVSPropertyOp35
 70
     1
102
RTVSPropertyOp36
 70
     1
102
RTVSPropertyOp37
 70
     1
102
RTVSPropertyOp38
 70
     1
102
RTVSPropertyOp39
 70
     1
102
RTVSPropertyOp40
 70
     1
102
RTVSPropertyOp41
 70
     1
102
RTVSPropertyOp42
 70
     1
102
RTVSPropertyOp43
 70
     1
102
RTVSPropertyOp44
 70
     1
102
RTVSPropertyOp45
 70
     1
102
RTVSPropertyOp46
 70
     1
102
RTVSPropertyOp47
 70
     1
102
RTVSPropertyOp48
 70
     1
102
RTVSPropertyOp49
 70
     1
102
RTVSPropertyOp50
 70
     1
102
RTVSPropertyOp51
 70
     0
102
RTVSPropertyOp52
 70
     0
102
RTVSPropertyOp53
 70
     1
102
RTVSPropertyOp54
 70
     1
102
RTVSPropertyOp55
 70
     1
102
RTVSPropertyOp56
 70
     1
102
RTVSPropertyOp57
 70
     1
102
RTVSPropertyOp58
 70
     1
102
RTVSPropertyOp59
 70
     1
102
RTVSPropertyOp60
 70
     1
102
RTVSPropertyOp61
 70
     1
102
RTVSPropertyOp62
 70
     1
  0
XRECORD
  5
A571
102
{ACAD_REACTORS
330
A570
102
}
330
A570
100
AcDbXrecord
280
     1
102
RTVSPost2010Prop28
280
     0
102
RTVSPost2010PropOp28
 70
     1
102
RTVSPost2010Prop29
280
     1
102
RTVSPost2010PropOp29
 70
     1
102
RTVSPost2010Prop30
280
     1
102
RTVSPost2010PropOp30
 70
     1
102
RTVSPost2010Prop31
280
     0
102
RTVSPost2010PropOp31
 70
     1
102
RTVSPost2010Prop32
280
     0
102
RTVSPost2010PropOp32
 70
     1
102
RTVSPost2010Prop33
280
     0
102
RTVSPost2010PropOp33
 70
     1
102
RTVSPost2010Prop34
280
     0
102
RTVSPost2010PropOp34
 70
     1
102
RTVSPost2010Prop35
280
     0
102
RTVSPost2010PropOp35
 70
     1
102
RTVSPost2010Prop36
280
     0
102
RTVSPost2010PropOp36
 70
     1
102
RTVSPost2010Prop37
 90
       50
102
RTVSPost2010PropOp37
 70
     1
102
RTVSPost2010Prop38
140
0.0
102
RTVSPost2010PropOp38
 70
     1
102
RTVSPost2010Prop39
140
1.0
102
RTVSPost2010PropOp39
 70
     1
102
RTVSPost2010Prop40
 90
        0
102
RTVSPost2010PropOp40
 70
     1
102
RTVSPost2010Prop41ColorIndex
 90
       18
102
RTVSPost2010Prop41ColorRGB
 90
        0
102
RTVSPost2010PropOp41
 70
     1
102
RTVSPost2010Prop42
 90
       50
102
RTVSPost2010PropOp42
 70
     1
102
RTVSPost2010Prop43
 90
        3
102
RTVSPost2010PropOp43
 70
     1
102
RTVSPost2010Prop44ColorIndex
 90
        5
102
RTVSPost2010Prop44ColorRGB
 90
      255
102
RTVSPost2010PropOp44
 70
     1
102
RTVSPost2010Prop45
280
     0
102
RTVSPost2010PropOp45
 70
     1
102
RTVSPost2010Prop46
 90
       50
102
RTVSPost2010PropOp46
 70
     1
102
RTVSPost2010Prop47
 90
       50
102
RTVSPost2010PropOp47
 70
     1
102
RTVSPost2010Prop48
 90
       50
102
RTVSPost2010PropOp48
 70
     1
102
RTVSPost2010Prop49
280
     0
102
RTVSPost2010PropOp49
 70
     1
102
RTVSPost2010Prop50
 90
       50
102
RTVSPost2010PropOp50
 70
     1
102
RTVSPost2010Prop51ColorIndex
 90
      256
102
RTVSPost2010Prop51ColorRGB
 90
-16777216
102
RTVSPost2010PropOp51
 70
     0
102
RTVSPost2010Prop52
140
1.0
102
RTVSPost2010PropOp52
 70
     0
102
RTVSPost2010Prop53
 90
        2
102
RTVSPost2010PropOp53
 70
     1
102
RTVSPost2010Prop54
  1
strokes_ogs.tif
102
RTVSPost2010PropOp54
 70
     1
102
RTVSPost2010Prop55
280
     0
102
RTVSPost2010PropOp55
 70
     1
102
RTVSPost2010Prop56
140
1.0
102
RTVSPost2010PropOp56
 70
     1
102
RTVSPost2010Prop57
140
1.0
102
RTVSPost2010PropOp57
 70
     1
102
RTVSPropertyOp0
 70
     1
102
RTVSPropertyOp1
 70
     1
102
RTVSPropertyOp2
 70
     1
102
RTVSPropertyOp3
 70
     1
102
RTVSPropertyOp4
 70
     1
102
RTVSPropertyOp5
 70
     1
102
RTVSPropertyOp6
 70
     1
102
RTVSPropertyOp7
 70
     1
102
RTVSPropertyOp8
 70
     1
102
RTVSPropertyOp9
 70
     1
102
RTVSPropertyOp10
 70
     1
102
RTVSPropertyOp11
 70
     1
102
RTVSPropertyOp12
 70
     1
102
RTVSPropertyOp13
 70
     1
102
RTVSPropertyOp14
 70
     1
102
RTVSPropertyOp15
 70
     1
102
RTVSPropertyOp16
 70
     1
102
RTVSPropertyOp17
 70
     1
102
RTVSPropertyOp18
 70
     1
102
RTVSPropertyOp19
 70
     1
102
RTVSPropertyOp20
 70
     1
102
RTVSPropertyOp21
 70
     1
102
RTVSPropertyOp22
 70
     1
102
RTVSPropertyOp23
 70
     1
102
RTVSPropertyOp24
 70
     1
102
RTVSPropertyOp25
 70
     1
102
RTVSPropertyOp26
 70
     1
102
RTVSPropertyOp27
 70
     1
102
RTVSPropertyOp28
 70
     1
102
RTVSPropertyOp29
 70
     1
102
RTVSPropertyOp30
 70
     1
102
RTVSPropertyOp31
 70
     1
102
RTVSPropertyOp32
 70
     1
102
RTVSPropertyOp33
 70
     1
102
RTVSPropertyOp34
 70
     1
102
RTVSPropertyOp35
 70
     1
102
RTVSPropertyOp36
 70
     1
102
RTVSPropertyOp37
 70
     1
102
RTVSPropertyOp38
 70
     1
102
RTVSPropertyOp39
 70
     1
102
RTVSPropertyOp40
 70
     1
102
RTVSPropertyOp41
 70
     1
102
RTVSPropertyOp42
 70
     1
102
RTVSPropertyOp43
 70
     1
102
RTVSPropertyOp44
 70
     1
102
RTVSPropertyOp45
 70
     1
102
RTVSPropertyOp46
 70
     1
102
RTVSPropertyOp47
 70
     1
102
RTVSPropertyOp48
 70
     1
102
RTVSPropertyOp49
 70
     1
102
RTVSPropertyOp50
 70
     1
102
RTVSPropertyOp51
 70
     0
102
RTVSPropertyOp52
 70
     0
102
RTVSPropertyOp53
 70
     1
102
RTVSPropertyOp54
 70
     1
102
RTVSPropertyOp55
 70
     1
102
RTVSPropertyOp56
 70
     1
102
RTVSPropertyOp57
 70
     1
102
RTVSPropertyOp58
 70
     1
102
RTVSPropertyOp59
 70
     1
102
RTVSPropertyOp60
 70
     1
102
RTVSPropertyOp61
 70
     1
102
RTVSPropertyOp62
 70
     1
  0
XRECORD
  5
A575
102
{ACAD_REACTORS
330
A574
102
}
330
A574
100
AcDbXrecord
280
     1
102
RTVSPost2010Prop28
280
     0
102
RTVSPost2010PropOp28
 70
     1
102
RTVSPost2010Prop29
280
     1
102
RTVSPost2010PropOp29
 70
     1
102
RTVSPost2010Prop30
280
     1
102
RTVSPost2010PropOp30
 70
     1
102
RTVSPost2010Prop31
280
     0
102
RTVSPost2010PropOp31
 70
     1
102
RTVSPost2010Prop32
280
     0
102
RTVSPost2010PropOp32
 70
     1
102
RTVSPost2010Prop33
280
     0
102
RTVSPost2010PropOp33
 70
     1
102
RTVSPost2010Prop34
280
     0
102
RTVSPost2010PropOp34
 70
     1
102
RTVSPost2010Prop35
280
     0
102
RTVSPost2010PropOp35
 70
     1
102
RTVSPost2010Prop36
280
     0
102
RTVSPost2010PropOp36
 70
     1
102
RTVSPost2010Prop37
 90
       50
102
RTVSPost2010PropOp37
 70
     1
102
RTVSPost2010Prop38
140
0.0
102
RTVSPost2010PropOp38
 70
     1
102
RTVSPost2010Prop39
140
1.0
102
RTVSPost2010PropOp39
 70
     1
102
RTVSPost2010Prop40
 90
        0
102
RTVSPost2010PropOp40
 70
     1
102
RTVSPost2010Prop41ColorIndex
 90
       18
102
RTVSPost2010Prop41ColorRGB
 90
        0
102
RTVSPost2010PropOp41
 70
     1
102
RTVSPost2010Prop42
 90
       50
102
RTVSPost2010PropOp42
 70
     1
102
RTVSPost2010Prop43
 90
        3
102
RTVSPost2010PropOp43
 70
     1
102
RTVSPost2010Prop44ColorIndex
 90
        5
102
RTVSPost2010Prop44ColorRGB
 90
      255
102
RTVSPost2010PropOp44
 70
     1
102
RTVSPost2010Prop45
280
     0
102
RTVSPost2010PropOp45
 70
     1
102
RTVSPost2010Prop46
 90
       50
102
RTVSPost2010PropOp46
 70
     1
102
RTVSPost2010Prop47
 90
       50
102
RTVSPost2010PropOp47
 70
     1
102
RTVSPost2010Prop48
 90
       50
102
RTVSPost2010PropOp48
 70
     1
102
RTVSPost2010Prop49
280
     0
102
RTVSPost2010PropOp49
 70
     1
102
RTVSPost2010Prop50
 90
       50
102
RTVSPost2010PropOp50
 70
     1
102
RTVSPost2010Prop51ColorIndex
 90
      256
102
RTVSPost2010Prop51ColorRGB
 90
-16777216
102
RTVSPost2010PropOp51
 70
     0
102
RTVSPost2010Prop52
140
1.0
102
RTVSPost2010PropOp52
 70
     0
102
RTVSPost2010Prop53
 90
        2
102
RTVSPost2010PropOp53
 70
     1
102
RTVSPost2010Prop54
  1
strokes_ogs.tif
102
RTVSPost2010PropOp54
 70
     1
102
RTVSPost2010Prop55
280
     0
102
RTVSPost2010PropOp55
 70
     1
102
RTVSPost2010Prop56
140
1.0
102
RTVSPost2010PropOp56
 70
     1
102
RTVSPost2010Prop57
140
1.0
102
RTVSPost2010PropOp57
 70
     1
102
RTVSPropertyOp0
 70
     1
102
RTVSPropertyOp1
 70
     1
102
RTVSPropertyOp2
 70
     1
102
RTVSPropertyOp3
 70
     1
102
RTVSPropertyOp4
 70
     1
102
RTVSPropertyOp5
 70
     1
102
RTVSPropertyOp6
 70
     1
102
RTVSPropertyOp7
 70
     1
102
RTVSPropertyOp8
 70
     1
102
RTVSPropertyOp9
 70
     1
102
RTVSPropertyOp10
 70
     1
102
RTVSPropertyOp11
 70
     1
102
RTVSPropertyOp12
 70
     1
102
RTVSPropertyOp13
 70
     1
102
RTVSPropertyOp14
 70
     1
102
RTVSPropertyOp15
 70
     1
102
RTVSPropertyOp16
 70
     1
102
RTVSPropertyOp17
 70
     1
102
RTVSPropertyOp18
 70
     1
102
RTVSPropertyOp19
 70
     1
102
RTVSPropertyOp20
 70
     1
102
RTVSPropertyOp21
 70
     1
102
RTVSPropertyOp22
 70
     1
102
RTVSPropertyOp23
 70
     1
102
RTVSPropertyOp24
 70
     1
102
RTVSPropertyOp25
 70
     1
102
RTVSPropertyOp26
 70
     1
102
RTVSPropertyOp27
 70
     1
102
RTVSPropertyOp28
 70
     1
102
RTVSPropertyOp29
 70
     1
102
RTVSPropertyOp30
 70
     1
102
RTVSPropertyOp31
 70
     1
102
RTVSPropertyOp32
 70
     1
102
RTVSPropertyOp33
 70
     1
102
RTVSPropertyOp34
 70
     1
102
RTVSPropertyOp35
 70
     1
102
RTVSPropertyOp36
 70
     1
102
RTVSPropertyOp37
 70
     1
102
RTVSPropertyOp38
 70
     1
102
RTVSPropertyOp39
 70
     1
102
RTVSPropertyOp40
 70
     1
102
RTVSPropertyOp41
 70
     1
102
RTVSPropertyOp42
 70
     1
102
RTVSPropertyOp43
 70
     1
102
RTVSPropertyOp44
 70
     1
102
RTVSPropertyOp45
 70
     1
102
RTVSPropertyOp46
 70
     1
102
RTVSPropertyOp47
 70
     1
102
RTVSPropertyOp48
 70
     1
102
RTVSPropertyOp49
 70
     1
102
RTVSPropertyOp50
 70
     1
102
RTVSPropertyOp51
 70
     0
102
RTVSPropertyOp52
 70
     0
102
RTVSPropertyOp53
 70
     1
102
RTVSPropertyOp54
 70
     1
102
RTVSPropertyOp55
 70
     1
102
RTVSPropertyOp56
 70
     1
102
RTVSPropertyOp57
 70
     1
102
RTVSPropertyOp58
 70
     1
102
RTVSPropertyOp59
 70
     1
102
RTVSPropertyOp60
 70
     1
102
RTVSPropertyOp61
 70
     1
102
RTVSPropertyOp62
 70
     1
  0
XRECORD
  5
A58F
102
{ACAD_REACTORS
330
A58E
102
}
330
A58E
100
AcDbXrecord
280
     1
102
RTVSPost2010Prop28
280
     0
102
RTVSPost2010PropOp28
 70
     1
102
RTVSPost2010Prop29
280
     1
102
RTVSPost2010PropOp29
 70
     1
102
RTVSPost2010Prop30
280
     1
102
RTVSPost2010PropOp30
 70
     1
102
RTVSPost2010Prop31
280
     0
102
RTVSPost2010PropOp31
 70
     1
102
RTVSPost2010Prop32
280
     0
102
RTVSPost2010PropOp32
 70
     1
102
RTVSPost2010Prop33
280
     0
102
RTVSPost2010PropOp33
 70
     1
102
RTVSPost2010Prop34
280
     0
102
RTVSPost2010PropOp34
 70
     1
102
RTVSPost2010Prop35
280
     0
102
RTVSPost2010PropOp35
 70
     1
102
RTVSPost2010Prop36
280
     0
102
RTVSPost2010PropOp36
 70
     1
102
RTVSPost2010Prop37
 90
       50
102
RTVSPost2010PropOp37
 70
     0
102
RTVSPost2010Prop38
140
0.0
102
RTVSPost2010PropOp38
 70
     0
102
RTVSPost2010Prop39
140
1.0
102
RTVSPost2010PropOp39
 70
     0
102
RTVSPost2010Prop40
 90
        0
102
RTVSPost2010PropOp40
 70
     0
102
RTVSPost2010Prop41ColorIndex
 90
       18
102
RTVSPost2010Prop41ColorRGB
 90
        0
102
RTVSPost2010PropOp41
 70
     0
102
RTVSPost2010Prop42
 90
       50
102
RTVSPost2010PropOp42
 70
     0
102
RTVSPost2010Prop43
 90
        3
102
RTVSPost2010PropOp43
 70
     0
102
RTVSPost2010Prop44ColorIndex
 90
        5
102
RTVSPost2010Prop44ColorRGB
 90
      255
102
RTVSPost2010PropOp44
 70
     0
102
RTVSPost2010Prop45
280
     0
102
RTVSPost2010PropOp45
 70
     1
102
RTVSPost2010Prop46
 90
       50
102
RTVSPost2010PropOp46
 70
     0
102
RTVSPost2010Prop47
 90
       50
102
RTVSPost2010PropOp47
 70
     0
102
RTVSPost2010Prop48
 90
       50
102
RTVSPost2010PropOp48
 70
     0
102
RTVSPost2010Prop49
280
     0
102
RTVSPost2010PropOp49
 70
     1
102
RTVSPost2010Prop50
 90
       50
102
RTVSPost2010PropOp50
 70
     0
102
RTVSPost2010Prop51ColorIndex
 90
      256
102
RTVSPost2010Prop51ColorRGB
 90
-16777216
102
RTVSPost2010PropOp51
 70
     0
102
RTVSPost2010Prop52
140
1.0
102
RTVSPost2010PropOp52
 70
     0
102
RTVSPost2010Prop53
 90
        2
102
RTVSPost2010PropOp53
 70
     0
102
RTVSPost2010Prop54
  1
strokes_ogs.tif
102
RTVSPost2010PropOp54
 70
     0
102
RTVSPost2010Prop55
280
     0
102
RTVSPost2010PropOp55
 70
     1
102
RTVSPost2010Prop56
140
1.0
102
RTVSPost2010PropOp56
 70
     0
102
RTVSPost2010Prop57
140
1.0
102
RTVSPost2010PropOp57
 70
     0
102
RTVSPropertyOp0
 70
     0
102
RTVSPropertyOp1
 70
     0
102
RTVSPropertyOp2
 70
     0
102
RTVSPropertyOp3
 70
     0
102
RTVSPropertyOp4
 70
     0
102
RTVSPropertyOp5
 70
     0
102
RTVSPropertyOp6
 70
     0
102
RTVSPropertyOp7
 70
     0
102
RTVSPropertyOp8
 70
     0
102
RTVSPropertyOp9
 70
     0
102
RTVSPropertyOp10
 70
     0
102
RTVSPropertyOp11
 70
     0
102
RTVSPropertyOp12
 70
     0
102
RTVSPropertyOp13
 70
     0
102
RTVSPropertyOp14
 70
     2
102
RTVSPropertyOp15
 70
     0
102
RTVSPropertyOp16
 70
     0
102
RTVSPropertyOp17
 70
     0
102
RTVSPropertyOp18
 70
     0
102
RTVSPropertyOp19
 70
     0
102
RTVSPropertyOp20
 70
     0
102
RTVSPropertyOp21
 70
     0
102
RTVSPropertyOp22
 70
     0
102
RTVSPropertyOp23
 70
     0
102
RTVSPropertyOp24
 70
     0
102
RTVSPropertyOp25
 70
     0
102
RTVSPropertyOp26
 70
     0
102
RTVSPropertyOp27
 70
     0
102
RTVSPropertyOp28
 70
     1
102
RTVSPropertyOp29
 70
     1
102
RTVSPropertyOp30
 70
     1
102
RTVSPropertyOp31
 70
     1
102
RTVSPropertyOp32
 70
     1
102
RTVSPropertyOp33
 70
     1
102
RTVSPropertyOp34
 70
     1
102
RTVSPropertyOp35
 70
     1
102
RTVSPropertyOp36
 70
     1
102
RTVSPropertyOp37
 70
     0
102
RTVSPropertyOp38
 70
     0
102
RTVSPropertyOp39
 70
     0
102
RTVSPropertyOp40
 70
     0
102
RTVSPropertyOp41
 70
     0
102
RTVSPropertyOp42
 70
     0
102
RTVSPropertyOp43
 70
     0
102
RTVSPropertyOp44
 70
     0
102
RTVSPropertyOp45
 70
     1
102
RTVSPropertyOp46
 70
     0
102
RTVSPropertyOp47
 70
     0
102
RTVSPropertyOp48
 70
     0
102
RTVSPropertyOp49
 70
     1
102
RTVSPropertyOp50
 70
     0
102
RTVSPropertyOp51
 70
     0
102
RTVSPropertyOp52
 70
     0
102
RTVSPropertyOp53
 70
     0
102
RTVSPropertyOp54
 70
     0
102
RTVSPropertyOp55
 70
     1
102
RTVSPropertyOp56
 70
     0
102
RTVSPropertyOp57
 70
     0
102
RTVSPropertyOp58
 70
     0
102
RTVSPropertyOp59
 70
     0
102
RTVSPropertyOp60
 70
     0
102
RTVSPropertyOp61
 70
     0
102
RTVSPropertyOp62
 70
     0
  0
XRECORD
  5
A57D
102
{ACAD_REACTORS
330
A57C
102
}
330
A57C
100
AcDbXrecord
280
     1
102
RTVSPost2010Prop28
280
     0
102
RTVSPost2010PropOp28
 70
     1
102
RTVSPost2010Prop29
280
     1
102
RTVSPost2010PropOp29
 70
     1
102
RTVSPost2010Prop30
280
     1
102
RTVSPost2010PropOp30
 70
     1
102
RTVSPost2010Prop31
280
     0
102
RTVSPost2010PropOp31
 70
     1
102
RTVSPost2010Prop32
280
     0
102
RTVSPost2010PropOp32
 70
     1
102
RTVSPost2010Prop33
280
     0
102
RTVSPost2010PropOp33
 70
     1
102
RTVSPost2010Prop34
280
     0
102
RTVSPost2010PropOp34
 70
     1
102
RTVSPost2010Prop35
280
     0
102
RTVSPost2010PropOp35
 70
     1
102
RTVSPost2010Prop36
280
     0
102
RTVSPost2010PropOp36
 70
     1
102
RTVSPost2010Prop37
 90
       50
102
RTVSPost2010PropOp37
 70
     1
102
RTVSPost2010Prop38
140
0.0
102
RTVSPost2010PropOp38
 70
     1
102
RTVSPost2010Prop39
140
1.0
102
RTVSPost2010PropOp39
 70
     1
102
RTVSPost2010Prop40
 90
        0
102
RTVSPost2010PropOp40
 70
     1
102
RTVSPost2010Prop41ColorIndex
 90
       18
102
RTVSPost2010Prop41ColorRGB
 90
        0
102
RTVSPost2010PropOp41
 70
     1
102
RTVSPost2010Prop42
 90
       50
102
RTVSPost2010PropOp42
 70
     1
102
RTVSPost2010Prop43
 90
        3
102
RTVSPost2010PropOp43
 70
     1
102
RTVSPost2010Prop44ColorIndex
 90
        5
102
RTVSPost2010Prop44ColorRGB
 90
      255
102
RTVSPost2010PropOp44
 70
     1
102
RTVSPost2010Prop45
280
     0
102
RTVSPost2010PropOp45
 70
     1
102
RTVSPost2010Prop46
 90
       50
102
RTVSPost2010PropOp46
 70
     1
102
RTVSPost2010Prop47
 90
       50
102
RTVSPost2010PropOp47
 70
     1
102
RTVSPost2010Prop48
 90
       50
102
RTVSPost2010PropOp48
 70
     1
102
RTVSPost2010Prop49
280
     0
102
RTVSPost2010PropOp49
 70
     1
102
RTVSPost2010Prop50
 90
       50
102
RTVSPost2010PropOp50
 70
     1
102
RTVSPost2010Prop51ColorIndex
 90
      256
102
RTVSPost2010Prop51ColorRGB
 90
-16777216
102
RTVSPost2010PropOp51
 70
     0
102
RTVSPost2010Prop52
140
1.0
102
RTVSPost2010PropOp52
 70
     0
102
RTVSPost2010Prop53
 90
        2
102
RTVSPost2010PropOp53
 70
     1
102
RTVSPost2010Prop54
  1
strokes_ogs.tif
102
RTVSPost2010PropOp54
 70
     1
102
RTVSPost2010Prop55
280
     0
102
RTVSPost2010PropOp55
 70
     1
102
RTVSPost2010Prop56
140
1.0
102
RTVSPost2010PropOp56
 70
     1
102
RTVSPost2010Prop57
140
1.0
102
RTVSPost2010PropOp57
 70
     1
102
RTVSPropertyOp0
 70
     1
102
RTVSPropertyOp1
 70
     1
102
RTVSPropertyOp2
 70
     1
102
RTVSPropertyOp3
 70
     1
102
RTVSPropertyOp4
 70
     1
102
RTVSPropertyOp5
 70
     1
102
RTVSPropertyOp6
 70
     1
102
RTVSPropertyOp7
 70
     1
102
RTVSPropertyOp8
 70
     1
102
RTVSPropertyOp9
 70
     1
102
RTVSPropertyOp10
 70
     1
102
RTVSPropertyOp11
 70
     1
102
RTVSPropertyOp12
 70
     1
102
RTVSPropertyOp13
 70
     1
102
RTVSPropertyOp14
 70
     1
102
RTVSPropertyOp15
 70
     1
102
RTVSPropertyOp16
 70
     1
102
RTVSPropertyOp17
 70
     1
102
RTVSPropertyOp18
 70
     1
102
RTVSPropertyOp19
 70
     1
102
RTVSPropertyOp20
 70
     1
102
RTVSPropertyOp21
 70
     1
102
RTVSPropertyOp22
 70
     1
102
RTVSPropertyOp23
 70
     1
102
RTVSPropertyOp24
 70
     1
102
RTVSPropertyOp25
 70
     1
102
RTVSPropertyOp26
 70
     1
102
RTVSPropertyOp27
 70
     1
102
RTVSPropertyOp28
 70
     1
102
RTVSPropertyOp29
 70
     1
102
RTVSPropertyOp30
 70
     1
102
RTVSPropertyOp31
 70
     1
102
RTVSPropertyOp32
 70
     1
102
RTVSPropertyOp33
 70
     1
102
RTVSPropertyOp34
 70
     1
102
RTVSPropertyOp35
 70
     1
102
RTVSPropertyOp36
 70
     1
102
RTVSPropertyOp37
 70
     1
102
RTVSPropertyOp38
 70
     1
102
RTVSPropertyOp39
 70
     1
102
RTVSPropertyOp40
 70
     1
102
RTVSPropertyOp41
 70
     1
102
RTVSPropertyOp42
 70
     1
102
RTVSPropertyOp43
 70
     1
102
RTVSPropertyOp44
 70
     1
102
RTVSPropertyOp45
 70
     1
102
RTVSPropertyOp46
 70
     1
102
RTVSPropertyOp47
 70
     1
102
RTVSPropertyOp48
 70
     1
102
RTVSPropertyOp49
 70
     1
102
RTVSPropertyOp50
 70
     1
102
RTVSPropertyOp51
 70
     0
102
RTVSPropertyOp52
 70
     0
102
RTVSPropertyOp53
 70
     1
102
RTVSPropertyOp54
 70
     1
102
RTVSPropertyOp55
 70
     1
102
RTVSPropertyOp56
 70
     1
102
RTVSPropertyOp57
 70
     1
102
RTVSPropertyOp58
 70
     1
102
RTVSPropertyOp59
 70
     1
102
RTVSPropertyOp60
 70
     1
102
RTVSPropertyOp61
 70
     1
102
RTVSPropertyOp62
 70
     1
  0
XRECORD
  5
A561
102
{ACAD_REACTORS
330
A560
102
}
330
A560
100
AcDbXrecord
280
     1
102
RTVSPost2010Prop28
280
     0
102
RTVSPost2010PropOp28
 70
     1
102
RTVSPost2010Prop29
280
     1
102
RTVSPost2010PropOp29
 70
     1
102
RTVSPost2010Prop30
280
     1
102
RTVSPost2010PropOp30
 70
     1
102
RTVSPost2010Prop31
280
     0
102
RTVSPost2010PropOp31
 70
     1
102
RTVSPost2010Prop32
280
     0
102
RTVSPost2010PropOp32
 70
     1
102
RTVSPost2010Prop33
280
     0
102
RTVSPost2010PropOp33
 70
     1
102
RTVSPost2010Prop34
280
     0
102
RTVSPost2010PropOp34
 70
     1
102
RTVSPost2010Prop35
280
     0
102
RTVSPost2010PropOp35
 70
     1
102
RTVSPost2010Prop36
280
     0
102
RTVSPost2010PropOp36
 70
     1
102
RTVSPost2010Prop37
 90
       50
102
RTVSPost2010PropOp37
 70
     1
102
RTVSPost2010Prop38
140
0.0
102
RTVSPost2010PropOp38
 70
     1
102
RTVSPost2010Prop39
140
1.0
102
RTVSPost2010PropOp39
 70
     1
102
RTVSPost2010Prop40
 90
        0
102
RTVSPost2010PropOp40
 70
     1
102
RTVSPost2010Prop41ColorIndex
 90
       18
102
RTVSPost2010Prop41ColorRGB
 90
        0
102
RTVSPost2010PropOp41
 70
     1
102
RTVSPost2010Prop42
 90
       50
102
RTVSPost2010PropOp42
 70
     1
102
RTVSPost2010Prop43
 90
        3
102
RTVSPost2010PropOp43
 70
     1
102
RTVSPost2010Prop44ColorIndex
 90
        5
102
RTVSPost2010Prop44ColorRGB
 90
      255
102
RTVSPost2010PropOp44
 70
     1
102
RTVSPost2010Prop45
280
     0
102
RTVSPost2010PropOp45
 70
     1
102
RTVSPost2010Prop46
 90
       50
102
RTVSPost2010PropOp46
 70
     1
102
RTVSPost2010Prop47
 90
       50
102
RTVSPost2010PropOp47
 70
     1
102
RTVSPost2010Prop48
 90
       50
102
RTVSPost2010PropOp48
 70
     1
102
RTVSPost2010Prop49
280
     0
102
RTVSPost2010PropOp49
 70
     1
102
RTVSPost2010Prop50
 90
       50
102
RTVSPost2010PropOp50
 70
     1
102
RTVSPost2010Prop51ColorIndex
 90
      256
102
RTVSPost2010Prop51ColorRGB
 90
-16777216
102
RTVSPost2010PropOp51
 70
     0
102
RTVSPost2010Prop52
140
1.0
102
RTVSPost2010PropOp52
 70
     0
102
RTVSPost2010Prop53
 90
        2
102
RTVSPost2010PropOp53
 70
     1
102
RTVSPost2010Prop54
  1
strokes_ogs.tif
102
RTVSPost2010PropOp54
 70
     1
102
RTVSPost2010Prop55
280
     0
102
RTVSPost2010PropOp55
 70
     1
102
RTVSPost2010Prop56
140
1.0
102
RTVSPost2010PropOp56
 70
     1
102
RTVSPost2010Prop57
140
1.0
102
RTVSPost2010PropOp57
 70
     1
102
RTVSPropertyOp0
 70
     1
102
RTVSPropertyOp1
 70
     1
102
RTVSPropertyOp2
 70
     1
102
RTVSPropertyOp3
 70
     1
102
RTVSPropertyOp4
 70
     1
102
RTVSPropertyOp5
 70
     1
102
RTVSPropertyOp6
 70
     1
102
RTVSPropertyOp7
 70
     1
102
RTVSPropertyOp8
 70
     1
102
RTVSPropertyOp9
 70
     1
102
RTVSPropertyOp10
 70
     1
102
RTVSPropertyOp11
 70
     1
102
RTVSPropertyOp12
 70
     1
102
RTVSPropertyOp13
 70
     1
102
RTVSPropertyOp14
 70
     1
102
RTVSPropertyOp15
 70
     1
102
RTVSPropertyOp16
 70
     1
102
RTVSPropertyOp17
 70
     1
102
RTVSPropertyOp18
 70
     1
102
RTVSPropertyOp19
 70
     1
102
RTVSPropertyOp20
 70
     1
102
RTVSPropertyOp21
 70
     1
102
RTVSPropertyOp22
 70
     1
102
RTVSPropertyOp23
 70
     1
102
RTVSPropertyOp24
 70
     1
102
RTVSPropertyOp25
 70
     1
102
RTVSPropertyOp26
 70
     1
102
RTVSPropertyOp27
 70
     1
102
RTVSPropertyOp28
 70
     1
102
RTVSPropertyOp29
 70
     1
102
RTVSPropertyOp30
 70
     1
102
RTVSPropertyOp31
 70
     1
102
RTVSPropertyOp32
 70
     1
102
RTVSPropertyOp33
 70
     1
102
RTVSPropertyOp34
 70
     1
102
RTVSPropertyOp35
 70
     1
102
RTVSPropertyOp36
 70
     1
102
RTVSPropertyOp37
 70
     1
102
RTVSPropertyOp38
 70
     1
102
RTVSPropertyOp39
 70
     1
102
RTVSPropertyOp40
 70
     1
102
RTVSPropertyOp41
 70
     1
102
RTVSPropertyOp42
 70
     1
102
RTVSPropertyOp43
 70
     1
102
RTVSPropertyOp44
 70
     1
102
RTVSPropertyOp45
 70
     1
102
RTVSPropertyOp46
 70
     1
102
RTVSPropertyOp47
 70
     1
102
RTVSPropertyOp48
 70
     1
102
RTVSPropertyOp49
 70
     1
102
RTVSPropertyOp50
 70
     1
102
RTVSPropertyOp51
 70
     0
102
RTVSPropertyOp52
 70
     0
102
RTVSPropertyOp53
 70
     1
102
RTVSPropertyOp54
 70
     1
102
RTVSPropertyOp55
 70
     1
102
RTVSPropertyOp56
 70
     1
102
RTVSPropertyOp57
 70
     1
102
RTVSPropertyOp58
 70
     1
102
RTVSPropertyOp59
 70
     1
102
RTVSPropertyOp60
 70
     1
102
RTVSPropertyOp61
 70
     1
102
RTVSPropertyOp62
 70
     1
  0
XRECORD
  5
A563
102
{ACAD_REACTORS
330
A562
102
}
330
A562
100
AcDbXrecord
280
     1
102
RTVSPost2010Prop28
280
     0
102
RTVSPost2010PropOp28
 70
     1
102
RTVSPost2010Prop29
280
     1
102
RTVSPost2010PropOp29
 70
     1
102
RTVSPost2010Prop30
280
     1
102
RTVSPost2010PropOp30
 70
     1
102
RTVSPost2010Prop31
280
     0
102
RTVSPost2010PropOp31
 70
     1
102
RTVSPost2010Prop32
280
     0
102
RTVSPost2010PropOp32
 70
     1
102
RTVSPost2010Prop33
280
     0
102
RTVSPost2010PropOp33
 70
     1
102
RTVSPost2010Prop34
280
     0
102
RTVSPost2010PropOp34
 70
     1
102
RTVSPost2010Prop35
280
     0
102
RTVSPost2010PropOp35
 70
     1
102
RTVSPost2010Prop36
280
     0
102
RTVSPost2010PropOp36
 70
     1
102
RTVSPost2010Prop37
 90
       50
102
RTVSPost2010PropOp37
 70
     1
102
RTVSPost2010Prop38
140
0.0
102
RTVSPost2010PropOp38
 70
     1
102
RTVSPost2010Prop39
140
1.0
102
RTVSPost2010PropOp39
 70
     1
102
RTVSPost2010Prop40
 90
        0
102
RTVSPost2010PropOp40
 70
     1
102
RTVSPost2010Prop41ColorIndex
 90
       18
102
RTVSPost2010Prop41ColorRGB
 90
        0
102
RTVSPost2010PropOp41
 70
     1
102
RTVSPost2010Prop42
 90
       50
102
RTVSPost2010PropOp42
 70
     1
102
RTVSPost2010Prop43
 90
        3
102
RTVSPost2010PropOp43
 70
     1
102
RTVSPost2010Prop44ColorIndex
 90
        5
102
RTVSPost2010Prop44ColorRGB
 90
      255
102
RTVSPost2010PropOp44
 70
     1
102
RTVSPost2010Prop45
280
     0
102
RTVSPost2010PropOp45
 70
     1
102
RTVSPost2010Prop46
 90
       50
102
RTVSPost2010PropOp46
 70
     1
102
RTVSPost2010Prop47
 90
       50
102
RTVSPost2010PropOp47
 70
     1
102
RTVSPost2010Prop48
 90
       50
102
RTVSPost2010PropOp48
 70
     1
102
RTVSPost2010Prop49
280
     0
102
RTVSPost2010PropOp49
 70
     1
102
RTVSPost2010Prop50
 90
       50
102
RTVSPost2010PropOp50
 70
     1
102
RTVSPost2010Prop51ColorIndex
 90
      256
102
RTVSPost2010Prop51ColorRGB
 90
-16777216
102
RTVSPost2010PropOp51
 70
     0
102
RTVSPost2010Prop52
140
1.0
102
RTVSPost2010PropOp52
 70
     0
102
RTVSPost2010Prop53
 90
        2
102
RTVSPost2010PropOp53
 70
     1
102
RTVSPost2010Prop54
  1
strokes_ogs.tif
102
RTVSPost2010PropOp54
 70
     1
102
RTVSPost2010Prop55
280
     0
102
RTVSPost2010PropOp55
 70
     1
102
RTVSPost2010Prop56
140
1.0
102
RTVSPost2010PropOp56
 70
     1
102
RTVSPost2010Prop57
140
1.0
102
RTVSPost2010PropOp57
 70
     1
102
RTVSPropertyOp0
 70
     1
102
RTVSPropertyOp1
 70
     1
102
RTVSPropertyOp2
 70
     1
102
RTVSPropertyOp3
 70
     1
102
RTVSPropertyOp4
 70
     1
102
RTVSPropertyOp5
 70
     1
102
RTVSPropertyOp6
 70
     1
102
RTVSPropertyOp7
 70
     1
102
RTVSPropertyOp8
 70
     1
102
RTVSPropertyOp9
 70
     1
102
RTVSPropertyOp10
 70
     1
102
RTVSPropertyOp11
 70
     1
102
RTVSPropertyOp12
 70
     1
102
RTVSPropertyOp13
 70
     1
102
RTVSPropertyOp14
 70
     1
102
RTVSPropertyOp15
 70
     1
102
RTVSPropertyOp16
 70
     1
102
RTVSPropertyOp17
 70
     1
102
RTVSPropertyOp18
 70
     1
102
RTVSPropertyOp19
 70
     1
102
RTVSPropertyOp20
 70
     1
102
RTVSPropertyOp21
 70
     1
102
RTVSPropertyOp22
 70
     1
102
RTVSPropertyOp23
 70
     1
102
RTVSPropertyOp24
 70
     1
102
RTVSPropertyOp25
 70
     1
102
RTVSPropertyOp26
 70
     1
102
RTVSPropertyOp27
 70
     1
102
RTVSPropertyOp28
 70
     1
102
RTVSPropertyOp29
 70
     1
102
RTVSPropertyOp30
 70
     1
102
RTVSPropertyOp31
 70
     1
102
RTVSPropertyOp32
 70
     1
102
RTVSPropertyOp33
 70
     1
102
RTVSPropertyOp34
 70
     1
102
RTVSPropertyOp35
 70
     1
102
RTVSPropertyOp36
 70
     1
102
RTVSPropertyOp37
 70
     1
102
RTVSPropertyOp38
 70
     1
102
RTVSPropertyOp39
 70
     1
102
RTVSPropertyOp40
 70
     1
102
RTVSPropertyOp41
 70
     1
102
RTVSPropertyOp42
 70
     1
102
RTVSPropertyOp43
 70
     1
102
RTVSPropertyOp44
 70
     1
102
RTVSPropertyOp45
 70
     1
102
RTVSPropertyOp46
 70
     1
102
RTVSPropertyOp47
 70
     1
102
RTVSPropertyOp48
 70
     1
102
RTVSPropertyOp49
 70
     1
102
RTVSPropertyOp50
 70
     1
102
RTVSPropertyOp51
 70
     0
102
RTVSPropertyOp52
 70
     0
102
RTVSPropertyOp53
 70
     1
102
RTVSPropertyOp54
 70
     1
102
RTVSPropertyOp55
 70
     1
102
RTVSPropertyOp56
 70
     1
102
RTVSPropertyOp57
 70
     1
102
RTVSPropertyOp58
 70
     1
102
RTVSPropertyOp59
 70
     1
102
RTVSPropertyOp60
 70
     1
102
RTVSPropertyOp61
 70
     1
102
RTVSPropertyOp62
 70
     1
  0
XRECORD
  5
A565
102
{ACAD_REACTORS
330
A564
102
}
330
A564
100
AcDbXrecord
280
     1
102
RTVSPost2010Prop28
280
     0
102
RTVSPost2010PropOp28
 70
     1
102
RTVSPost2010Prop29
280
     1
102
RTVSPost2010PropOp29
 70
     1
102
RTVSPost2010Prop30
280
     1
102
RTVSPost2010PropOp30
 70
     1
102
RTVSPost2010Prop31
280
     0
102
RTVSPost2010PropOp31
 70
     1
102
RTVSPost2010Prop32
280
     0
102
RTVSPost2010PropOp32
 70
     1
102
RTVSPost2010Prop33
280
     0
102
RTVSPost2010PropOp33
 70
     1
102
RTVSPost2010Prop34
280
     0
102
RTVSPost2010PropOp34
 70
     1
102
RTVSPost2010Prop35
280
     0
102
RTVSPost2010PropOp35
 70
     1
102
RTVSPost2010Prop36
280
     0
102
RTVSPost2010PropOp36
 70
     1
102
RTVSPost2010Prop37
 90
       50
102
RTVSPost2010PropOp37
 70
     1
102
RTVSPost2010Prop38
140
0.0
102
RTVSPost2010PropOp38
 70
     1
102
RTVSPost2010Prop39
140
1.0
102
RTVSPost2010PropOp39
 70
     1
102
RTVSPost2010Prop40
 90
        0
102
RTVSPost2010PropOp40
 70
     1
102
RTVSPost2010Prop41ColorIndex
 90
       18
102
RTVSPost2010Prop41ColorRGB
 90
        0
102
RTVSPost2010PropOp41
 70
     1
102
RTVSPost2010Prop42
 90
       50
102
RTVSPost2010PropOp42
 70
     1
102
RTVSPost2010Prop43
 90
        3
102
RTVSPost2010PropOp43
 70
     1
102
RTVSPost2010Prop44ColorIndex
 90
        5
102
RTVSPost2010Prop44ColorRGB
 90
      255
102
RTVSPost2010PropOp44
 70
     1
102
RTVSPost2010Prop45
280
     0
102
RTVSPost2010PropOp45
 70
     1
102
RTVSPost2010Prop46
 90
       50
102
RTVSPost2010PropOp46
 70
     1
102
RTVSPost2010Prop47
 90
       50
102
RTVSPost2010PropOp47
 70
     1
102
RTVSPost2010Prop48
 90
       50
102
RTVSPost2010PropOp48
 70
     1
102
RTVSPost2010Prop49
280
     0
102
RTVSPost2010PropOp49
 70
     1
102
RTVSPost2010Prop50
 90
       50
102
RTVSPost2010PropOp50
 70
     1
102
RTVSPost2010Prop51ColorIndex
 90
      256
102
RTVSPost2010Prop51ColorRGB
 90
-16777216
102
RTVSPost2010PropOp51
 70
     0
102
RTVSPost2010Prop52
140
1.0
102
RTVSPost2010PropOp52
 70
     0
102
RTVSPost2010Prop53
 90
        2
102
RTVSPost2010PropOp53
 70
     1
102
RTVSPost2010Prop54
  1
strokes_ogs.tif
102
RTVSPost2010PropOp54
 70
     1
102
RTVSPost2010Prop55
280
     0
102
RTVSPost2010PropOp55
 70
     1
102
RTVSPost2010Prop56
140
1.0
102
RTVSPost2010PropOp56
 70
     1
102
RTVSPost2010Prop57
140
1.0
102
RTVSPost2010PropOp57
 70
     1
102
RTVSPropertyOp0
 70
     1
102
RTVSPropertyOp1
 70
     1
102
RTVSPropertyOp2
 70
     1
102
RTVSPropertyOp3
 70
     1
102
RTVSPropertyOp4
 70
     1
102
RTVSPropertyOp5
 70
     1
102
RTVSPropertyOp6
 70
     1
102
RTVSPropertyOp7
 70
     1
102
RTVSPropertyOp8
 70
     1
102
RTVSPropertyOp9
 70
     1
102
RTVSPropertyOp10
 70
     1
102
RTVSPropertyOp11
 70
     1
102
RTVSPropertyOp12
 70
     1
102
RTVSPropertyOp13
 70
     1
102
RTVSPropertyOp14
 70
     1
102
RTVSPropertyOp15
 70
     1
102
RTVSPropertyOp16
 70
     1
102
RTVSPropertyOp17
 70
     1
102
RTVSPropertyOp18
 70
     1
102
RTVSPropertyOp19
 70
     1
102
RTVSPropertyOp20
 70
     1
102
RTVSPropertyOp21
 70
     1
102
RTVSPropertyOp22
 70
     1
102
RTVSPropertyOp23
 70
     1
102
RTVSPropertyOp24
 70
     1
102
RTVSPropertyOp25
 70
     1
102
RTVSPropertyOp26
 70
     1
102
RTVSPropertyOp27
 70
     1
102
RTVSPropertyOp28
 70
     1
102
RTVSPropertyOp29
 70
     1
102
RTVSPropertyOp30
 70
     1
102
RTVSPropertyOp31
 70
     1
102
RTVSPropertyOp32
 70
     1
102
RTVSPropertyOp33
 70
     1
102
RTVSPropertyOp34
 70
     1
102
RTVSPropertyOp35
 70
     1
102
RTVSPropertyOp36
 70
     1
102
RTVSPropertyOp37
 70
     1
102
RTVSPropertyOp38
 70
     1
102
RTVSPropertyOp39
 70
     1
102
RTVSPropertyOp40
 70
     1
102
RTVSPropertyOp41
 70
     1
102
RTVSPropertyOp42
 70
     1
102
RTVSPropertyOp43
 70
     1
102
RTVSPropertyOp44
 70
     1
102
RTVSPropertyOp45
 70
     1
102
RTVSPropertyOp46
 70
     1
102
RTVSPropertyOp47
 70
     1
102
RTVSPropertyOp48
 70
     1
102
RTVSPropertyOp49
 70
     1
102
RTVSPropertyOp50
 70
     1
102
RTVSPropertyOp51
 70
     0
102
RTVSPropertyOp52
 70
     0
102
RTVSPropertyOp53
 70
     1
102
RTVSPropertyOp54
 70
     1
102
RTVSPropertyOp55
 70
     1
102
RTVSPropertyOp56
 70
     1
102
RTVSPropertyOp57
 70
     1
102
RTVSPropertyOp58
 70
     1
102
RTVSPropertyOp59
 70
     1
102
RTVSPropertyOp60
 70
     1
102
RTVSPropertyOp61
 70
     1
102
RTVSPropertyOp62
 70
     1
  0
XRECORD
  5
A567
102
{ACAD_REACTORS
330
A566
102
}
330
A566
100
AcDbXrecord
280
     1
102
RTVSPost2010Prop28
280
     0
102
RTVSPost2010PropOp28
 70
     1
102
RTVSPost2010Prop29
280
     1
102
RTVSPost2010PropOp29
 70
     1
102
RTVSPost2010Prop30
280
     1
102
RTVSPost2010PropOp30
 70
     1
102
RTVSPost2010Prop31
280
     0
102
RTVSPost2010PropOp31
 70
     1
102
RTVSPost2010Prop32
280
     0
102
RTVSPost2010PropOp32
 70
     1
102
RTVSPost2010Prop33
280
     0
102
RTVSPost2010PropOp33
 70
     1
102
RTVSPost2010Prop34
280
     0
102
RTVSPost2010PropOp34
 70
     1
102
RTVSPost2010Prop35
280
     0
102
RTVSPost2010PropOp35
 70
     1
102
RTVSPost2010Prop36
280
     0
102
RTVSPost2010PropOp36
 70
     1
102
RTVSPost2010Prop37
 90
       50
102
RTVSPost2010PropOp37
 70
     1
102
RTVSPost2010Prop38
140
0.0
102
RTVSPost2010PropOp38
 70
     1
102
RTVSPost2010Prop39
140
1.0
102
RTVSPost2010PropOp39
 70
     1
102
RTVSPost2010Prop40
 90
        0
102
RTVSPost2010PropOp40
 70
     1
102
RTVSPost2010Prop41ColorIndex
 90
       18
102
RTVSPost2010Prop41ColorRGB
 90
        0
102
RTVSPost2010PropOp41
 70
     1
102
RTVSPost2010Prop42
 90
       50
102
RTVSPost2010PropOp42
 70
     1
102
RTVSPost2010Prop43
 90
        3
102
RTVSPost2010PropOp43
 70
     1
102
RTVSPost2010Prop44ColorIndex
 90
        5
102
RTVSPost2010Prop44ColorRGB
 90
      255
102
RTVSPost2010PropOp44
 70
     1
102
RTVSPost2010Prop45
280
     0
102
RTVSPost2010PropOp45
 70
     1
102
RTVSPost2010Prop46
 90
       50
102
RTVSPost2010PropOp46
 70
     1
102
RTVSPost2010Prop47
 90
       50
102
RTVSPost2010PropOp47
 70
     1
102
RTVSPost2010Prop48
 90
       50
102
RTVSPost2010PropOp48
 70
     1
102
RTVSPost2010Prop49
280
     0
102
RTVSPost2010PropOp49
 70
     1
102
RTVSPost2010Prop50
 90
       50
102
RTVSPost2010PropOp50
 70
     1
102
RTVSPost2010Prop51ColorIndex
 90
      256
102
RTVSPost2010Prop51ColorRGB
 90
-16777216
102
RTVSPost2010PropOp51
 70
     0
102
RTVSPost2010Prop52
140
1.0
102
RTVSPost2010PropOp52
 70
     0
102
RTVSPost2010Prop53
 90
        2
102
RTVSPost2010PropOp53
 70
     1
102
RTVSPost2010Prop54
  1
strokes_ogs.tif
102
RTVSPost2010PropOp54
 70
     1
102
RTVSPost2010Prop55
280
     0
102
RTVSPost2010PropOp55
 70
     1
102
RTVSPost2010Prop56
140
1.0
102
RTVSPost2010PropOp56
 70
     1
102
RTVSPost2010Prop57
140
1.0
102
RTVSPost2010PropOp57
 70
     1
102
RTVSPropertyOp0
 70
     1
102
RTVSPropertyOp1
 70
     1
102
RTVSPropertyOp2
 70
     1
102
RTVSPropertyOp3
 70
     1
102
RTVSPropertyOp4
 70
     1
102
RTVSPropertyOp5
 70
     1
102
RTVSPropertyOp6
 70
     1
102
RTVSPropertyOp7
 70
     1
102
RTVSPropertyOp8
 70
     1
102
RTVSPropertyOp9
 70
     1
102
RTVSPropertyOp10
 70
     1
102
RTVSPropertyOp11
 70
     1
102
RTVSPropertyOp12
 70
     1
102
RTVSPropertyOp13
 70
     1
102
RTVSPropertyOp14
 70
     1
102
RTVSPropertyOp15
 70
     1
102
RTVSPropertyOp16
 70
     1
102
RTVSPropertyOp17
 70
     1
102
RTVSPropertyOp18
 70
     1
102
RTVSPropertyOp19
 70
     1
102
RTVSPropertyOp20
 70
     1
102
RTVSPropertyOp21
 70
     1
102
RTVSPropertyOp22
 70
     1
102
RTVSPropertyOp23
 70
     1
102
RTVSPropertyOp24
 70
     1
102
RTVSPropertyOp25
 70
     1
102
RTVSPropertyOp26
 70
     1
102
RTVSPropertyOp27
 70
     1
102
RTVSPropertyOp28
 70
     1
102
RTVSPropertyOp29
 70
     1
102
RTVSPropertyOp30
 70
     1
102
RTVSPropertyOp31
 70
     1
102
RTVSPropertyOp32
 70
     1
102
RTVSPropertyOp33
 70
     1
102
RTVSPropertyOp34
 70
     1
102
RTVSPropertyOp35
 70
     1
102
RTVSPropertyOp36
 70
     1
102
RTVSPropertyOp37
 70
     1
102
RTVSPropertyOp38
 70
     1
102
RTVSPropertyOp39
 70
     1
102
RTVSPropertyOp40
 70
     1
102
RTVSPropertyOp41
 70
     1
102
RTVSPropertyOp42
 70
     1
102
RTVSPropertyOp43
 70
     1
102
RTVSPropertyOp44
 70
     1
102
RTVSPropertyOp45
 70
     1
102
RTVSPropertyOp46
 70
     1
102
RTVSPropertyOp47
 70
     1
102
RTVSPropertyOp48
 70
     1
102
RTVSPropertyOp49
 70
     1
102
RTVSPropertyOp50
 70
     1
102
RTVSPropertyOp51
 70
     0
102
RTVSPropertyOp52
 70
     0
102
RTVSPropertyOp53
 70
     1
102
RTVSPropertyOp54
 70
     1
102
RTVSPropertyOp55
 70
     1
102
RTVSPropertyOp56
 70
     1
102
RTVSPropertyOp57
 70
     1
102
RTVSPropertyOp58
 70
     1
102
RTVSPropertyOp59
 70
     1
102
RTVSPropertyOp60
 70
     1
102
RTVSPropertyOp61
 70
     1
102
RTVSPropertyOp62
 70
     1
  0
XRECORD
  5
A56F
102
{ACAD_REACTORS
330
A56E
102
}
330
A56E
100
AcDbXrecord
280
     1
102
RTVSPost2010Prop28
280
     0
102
RTVSPost2010PropOp28
 70
     1
102
RTVSPost2010Prop29
280
     1
102
RTVSPost2010PropOp29
 70
     1
102
RTVSPost2010Prop30
280
     1
102
RTVSPost2010PropOp30
 70
     1
102
RTVSPost2010Prop31
280
     0
102
RTVSPost2010PropOp31
 70
     1
102
RTVSPost2010Prop32
280
     0
102
RTVSPost2010PropOp32
 70
     1
102
RTVSPost2010Prop33
280
     0
102
RTVSPost2010PropOp33
 70
     1
102
RTVSPost2010Prop34
280
     0
102
RTVSPost2010PropOp34
 70
     1
102
RTVSPost2010Prop35
280
     0
102
RTVSPost2010PropOp35
 70
     1
102
RTVSPost2010Prop36
280
     0
102
RTVSPost2010PropOp36
 70
     1
102
RTVSPost2010Prop37
 90
       50
102
RTVSPost2010PropOp37
 70
     1
102
RTVSPost2010Prop38
140
0.0
102
RTVSPost2010PropOp38
 70
     1
102
RTVSPost2010Prop39
140
1.0
102
RTVSPost2010PropOp39
 70
     1
102
RTVSPost2010Prop40
 90
        0
102
RTVSPost2010PropOp40
 70
     1
102
RTVSPost2010Prop41ColorIndex
 90
       18
102
RTVSPost2010Prop41ColorRGB
 90
        0
102
RTVSPost2010PropOp41
 70
     1
102
RTVSPost2010Prop42
 90
       50
102
RTVSPost2010PropOp42
 70
     1
102
RTVSPost2010Prop43
 90
        3
102
RTVSPost2010PropOp43
 70
     1
102
RTVSPost2010Prop44ColorIndex
 90
        5
102
RTVSPost2010Prop44ColorRGB
 90
      255
102
RTVSPost2010PropOp44
 70
     1
102
RTVSPost2010Prop45
280
     0
102
RTVSPost2010PropOp45
 70
     1
102
RTVSPost2010Prop46
 90
       50
102
RTVSPost2010PropOp46
 70
     1
102
RTVSPost2010Prop47
 90
       50
102
RTVSPost2010PropOp47
 70
     1
102
RTVSPost2010Prop48
 90
       50
102
RTVSPost2010PropOp48
 70
     1
102
RTVSPost2010Prop49
280
     0
102
RTVSPost2010PropOp49
 70
     1
102
RTVSPost2010Prop50
 90
       50
102
RTVSPost2010PropOp50
 70
     1
102
RTVSPost2010Prop51ColorIndex
 90
      256
102
RTVSPost2010Prop51ColorRGB
 90
-16777216
102
RTVSPost2010PropOp51
 70
     0
102
RTVSPost2010Prop52
140
1.0
102
RTVSPost2010PropOp52
 70
     0
102
RTVSPost2010Prop53
 90
        2
102
RTVSPost2010PropOp53
 70
     1
102
RTVSPost2010Prop54
  1
strokes_ogs.tif
102
RTVSPost2010PropOp54
 70
     1
102
RTVSPost2010Prop55
280
     0
102
RTVSPost2010PropOp55
 70
     1
102
RTVSPost2010Prop56
140
1.0
102
RTVSPost2010PropOp56
 70
     1
102
RTVSPost2010Prop57
140
1.0
102
RTVSPost2010PropOp57
 70
     1
102
RTVSPropertyOp0
 70
     1
102
RTVSPropertyOp1
 70
     1
102
RTVSPropertyOp2
 70
     1
102
RTVSPropertyOp3
 70
     1
102
RTVSPropertyOp4
 70
     1
102
RTVSPropertyOp5
 70
     1
102
RTVSPropertyOp6
 70
     1
102
RTVSPropertyOp7
 70
     1
102
RTVSPropertyOp8
 70
     1
102
RTVSPropertyOp9
 70
     1
102
RTVSPropertyOp10
 70
     1
102
RTVSPropertyOp11
 70
     1
102
RTVSPropertyOp12
 70
     1
102
RTVSPropertyOp13
 70
     1
102
RTVSPropertyOp14
 70
     1
102
RTVSPropertyOp15
 70
     1
102
RTVSPropertyOp16
 70
     1
102
RTVSPropertyOp17
 70
     1
102
RTVSPropertyOp18
 70
     1
102
RTVSPropertyOp19
 70
     1
102
RTVSPropertyOp20
 70
     1
102
RTVSPropertyOp21
 70
     1
102
RTVSPropertyOp22
 70
     1
102
RTVSPropertyOp23
 70
     1
102
RTVSPropertyOp24
 70
     1
102
RTVSPropertyOp25
 70
     1
102
RTVSPropertyOp26
 70
     1
102
RTVSPropertyOp27
 70
     1
102
RTVSPropertyOp28
 70
     1
102
RTVSPropertyOp29
 70
     1
102
RTVSPropertyOp30
 70
     1
102
RTVSPropertyOp31
 70
     1
102
RTVSPropertyOp32
 70
     1
102
RTVSPropertyOp33
 70
     1
102
RTVSPropertyOp34
 70
     1
102
RTVSPropertyOp35
 70
     1
102
RTVSPropertyOp36
 70
     1
102
RTVSPropertyOp37
 70
     1
102
RTVSPropertyOp38
 70
     1
102
RTVSPropertyOp39
 70
     1
102
RTVSPropertyOp40
 70
     1
102
RTVSPropertyOp41
 70
     1
102
RTVSPropertyOp42
 70
     1
102
RTVSPropertyOp43
 70
     1
102
RTVSPropertyOp44
 70
     1
102
RTVSPropertyOp45
 70
     1
102
RTVSPropertyOp46
 70
     1
102
RTVSPropertyOp47
 70
     1
102
RTVSPropertyOp48
 70
     1
102
RTVSPropertyOp49
 70
     1
102
RTVSPropertyOp50
 70
     1
102
RTVSPropertyOp51
 70
     0
102
RTVSPropertyOp52
 70
     0
102
RTVSPropertyOp53
 70
     1
102
RTVSPropertyOp54
 70
     1
102
RTVSPropertyOp55
 70
     1
102
RTVSPropertyOp56
 70
     1
102
RTVSPropertyOp57
 70
     1
102
RTVSPropertyOp58
 70
     1
102
RTVSPropertyOp59
 70
     1
102
RTVSPropertyOp60
 70
     1
102
RTVSPropertyOp61
 70
     1
102
RTVSPropertyOp62
 70
     1
  0
XRECORD
  5
A58B
102
{ACAD_REACTORS
330
A58A
102
}
330
A58A
100
AcDbXrecord
280
     1
102
RTVSPost2010Prop28
280
     0
102
RTVSPost2010PropOp28
 70
     1
102
RTVSPost2010Prop29
280
     1
102
RTVSPost2010PropOp29
 70
     1
102
RTVSPost2010Prop30
280
     1
102
RTVSPost2010PropOp30
 70
     1
102
RTVSPost2010Prop31
280
     0
102
RTVSPost2010PropOp31
 70
     1
102
RTVSPost2010Prop32
280
     0
102
RTVSPost2010PropOp32
 70
     1
102
RTVSPost2010Prop33
280
     0
102
RTVSPost2010PropOp33
 70
     1
102
RTVSPost2010Prop34
280
     0
102
RTVSPost2010PropOp34
 70
     1
102
RTVSPost2010Prop35
280
     0
102
RTVSPost2010PropOp35
 70
     1
102
RTVSPost2010Prop36
280
     0
102
RTVSPost2010PropOp36
 70
     1
102
RTVSPost2010Prop37
 90
       50
102
RTVSPost2010PropOp37
 70
     0
102
RTVSPost2010Prop38
140
0.0
102
RTVSPost2010PropOp38
 70
     0
102
RTVSPost2010Prop39
140
1.0
102
RTVSPost2010PropOp39
 70
     0
102
RTVSPost2010Prop40
 90
        0
102
RTVSPost2010PropOp40
 70
     0
102
RTVSPost2010Prop41ColorIndex
 90
       18
102
RTVSPost2010Prop41ColorRGB
 90
        0
102
RTVSPost2010PropOp41
 70
     0
102
RTVSPost2010Prop42
 90
       50
102
RTVSPost2010PropOp42
 70
     0
102
RTVSPost2010Prop43
 90
        3
102
RTVSPost2010PropOp43
 70
     0
102
RTVSPost2010Prop44ColorIndex
 90
        5
102
RTVSPost2010Prop44ColorRGB
 90
      255
102
RTVSPost2010PropOp44
 70
     0
102
RTVSPost2010Prop45
280
     0
102
RTVSPost2010PropOp45
 70
     1
102
RTVSPost2010Prop46
 90
       50
102
RTVSPost2010PropOp46
 70
     0
102
RTVSPost2010Prop47
 90
       50
102
RTVSPost2010PropOp47
 70
     0
102
RTVSPost2010Prop48
 90
       50
102
RTVSPost2010PropOp48
 70
     0
102
RTVSPost2010Prop49
280
     0
102
RTVSPost2010PropOp49
 70
     1
102
RTVSPost2010Prop50
 90
       50
102
RTVSPost2010PropOp50
 70
     0
102
RTVSPost2010Prop51ColorIndex
 90
      256
102
RTVSPost2010Prop51ColorRGB
 90
-16777216
102
RTVSPost2010PropOp51
 70
     0
102
RTVSPost2010Prop52
140
1.0
102
RTVSPost2010PropOp52
 70
     0
102
RTVSPost2010Prop53
 90
        2
102
RTVSPost2010PropOp53
 70
     0
102
RTVSPost2010Prop54
  1
strokes_ogs.tif
102
RTVSPost2010PropOp54
 70
     0
102
RTVSPost2010Prop55
280
     0
102
RTVSPost2010PropOp55
 70
     1
102
RTVSPost2010Prop56
140
1.0
102
RTVSPost2010PropOp56
 70
     0
102
RTVSPost2010Prop57
140
1.0
102
RTVSPost2010PropOp57
 70
     0
102
RTVSPropertyOp0
 70
     0
102
RTVSPropertyOp1
 70
     0
102
RTVSPropertyOp2
 70
     0
102
RTVSPropertyOp3
 70
     0
102
RTVSPropertyOp4
 70
     0
102
RTVSPropertyOp5
 70
     0
102
RTVSPropertyOp6
 70
     0
102
RTVSPropertyOp7
 70
     0
102
RTVSPropertyOp8
 70
     0
102
RTVSPropertyOp9
 70
     0
102
RTVSPropertyOp10
 70
     0
102
RTVSPropertyOp11
 70
     0
102
RTVSPropertyOp12
 70
     0
102
RTVSPropertyOp13
 70
     0
102
RTVSPropertyOp14
 70
     2
102
RTVSPropertyOp15
 70
     0
102
RTVSPropertyOp16
 70
     0
102
RTVSPropertyOp17
 70
     0
102
RTVSPropertyOp18
 70
     0
102
RTVSPropertyOp19
 70
     0
102
RTVSPropertyOp20
 70
     0
102
RTVSPropertyOp21
 70
     0
102
RTVSPropertyOp22
 70
     0
102
RTVSPropertyOp23
 70
     0
102
RTVSPropertyOp24
 70
     0
102
RTVSPropertyOp25
 70
     0
102
RTVSPropertyOp26
 70
     0
102
RTVSPropertyOp27
 70
     0
102
RTVSPropertyOp28
 70
     1
102
RTVSPropertyOp29
 70
     1
102
RTVSPropertyOp30
 70
     1
102
RTVSPropertyOp31
 70
     1
102
RTVSPropertyOp32
 70
     1
102
RTVSPropertyOp33
 70
     1
102
RTVSPropertyOp34
 70
     1
102
RTVSPropertyOp35
 70
     1
102
RTVSPropertyOp36
 70
     1
102
RTVSPropertyOp37
 70
     0
102
RTVSPropertyOp38
 70
     0
102
RTVSPropertyOp39
 70
     0
102
RTVSPropertyOp40
 70
     0
102
RTVSPropertyOp41
 70
     0
102
RTVSPropertyOp42
 70
     0
102
RTVSPropertyOp43
 70
     0
102
RTVSPropertyOp44
 70
     0
102
RTVSPropertyOp45
 70
     1
102
RTVSPropertyOp46
 70
     0
102
RTVSPropertyOp47
 70
     0
102
RTVSPropertyOp48
 70
     0
102
RTVSPropertyOp49
 70
     1
102
RTVSPropertyOp50
 70
     0
102
RTVSPropertyOp51
 70
     0
102
RTVSPropertyOp52
 70
     0
102
RTVSPropertyOp53
 70
     0
102
RTVSPropertyOp54
 70
     0
102
RTVSPropertyOp55
 70
     1
102
RTVSPropertyOp56
 70
     0
102
RTVSPropertyOp57
 70
     0
102
RTVSPropertyOp58
 70
     0
102
RTVSPropertyOp59
 70
     0
102
RTVSPropertyOp60
 70
     0
102
RTVSPropertyOp61
 70
     0
102
RTVSPropertyOp62
 70
     0
  0
XRECORD
  5
A57B
102
{ACAD_REACTORS
330
A57A
102
}
330
A57A
100
AcDbXrecord
280
     1
102
RTVSPost2010Prop28
280
     0
102
RTVSPost2010PropOp28
 70
     1
102
RTVSPost2010Prop29
280
     1
102
RTVSPost2010PropOp29
 70
     1
102
RTVSPost2010Prop30
280
     1
102
RTVSPost2010PropOp30
 70
     1
102
RTVSPost2010Prop31
280
     0
102
RTVSPost2010PropOp31
 70
     1
102
RTVSPost2010Prop32
280
     0
102
RTVSPost2010PropOp32
 70
     1
102
RTVSPost2010Prop33
280
     0
102
RTVSPost2010PropOp33
 70
     1
102
RTVSPost2010Prop34
280
     0
102
RTVSPost2010PropOp34
 70
     1
102
RTVSPost2010Prop35
280
     0
102
RTVSPost2010PropOp35
 70
     1
102
RTVSPost2010Prop36
280
     0
102
RTVSPost2010PropOp36
 70
     1
102
RTVSPost2010Prop37
 90
       50
102
RTVSPost2010PropOp37
 70
     1
102
RTVSPost2010Prop38
140
0.0
102
RTVSPost2010PropOp38
 70
     1
102
RTVSPost2010Prop39
140
1.0
102
RTVSPost2010PropOp39
 70
     1
102
RTVSPost2010Prop40
 90
        0
102
RTVSPost2010PropOp40
 70
     1
102
RTVSPost2010Prop41ColorIndex
 90
       18
102
RTVSPost2010Prop41ColorRGB
 90
        0
102
RTVSPost2010PropOp41
 70
     1
102
RTVSPost2010Prop42
 90
       50
102
RTVSPost2010PropOp42
 70
     1
102
RTVSPost2010Prop43
 90
        3
102
RTVSPost2010PropOp43
 70
     1
102
RTVSPost2010Prop44ColorIndex
 90
        5
102
RTVSPost2010Prop44ColorRGB
 90
      255
102
RTVSPost2010PropOp44
 70
     1
102
RTVSPost2010Prop45
280
     0
102
RTVSPost2010PropOp45
 70
     1
102
RTVSPost2010Prop46
 90
       50
102
RTVSPost2010PropOp46
 70
     1
102
RTVSPost2010Prop47
 90
       50
102
RTVSPost2010PropOp47
 70
     1
102
RTVSPost2010Prop48
 90
       50
102
RTVSPost2010PropOp48
 70
     1
102
RTVSPost2010Prop49
280
     0
102
RTVSPost2010PropOp49
 70
     1
102
RTVSPost2010Prop50
 90
       50
102
RTVSPost2010PropOp50
 70
     1
102
RTVSPost2010Prop51ColorIndex
 90
      256
102
RTVSPost2010Prop51ColorRGB
 90
-16777216
102
RTVSPost2010PropOp51
 70
     0
102
RTVSPost2010Prop52
140
1.0
102
RTVSPost2010PropOp52
 70
     0
102
RTVSPost2010Prop53
 90
        2
102
RTVSPost2010PropOp53
 70
     1
102
RTVSPost2010Prop54
  1
strokes_ogs.tif
102
RTVSPost2010PropOp54
 70
     1
102
RTVSPost2010Prop55
280
     0
102
RTVSPost2010PropOp55
 70
     1
102
RTVSPost2010Prop56
140
1.0
102
RTVSPost2010PropOp56
 70
     1
102
RTVSPost2010Prop57
140
1.0
102
RTVSPost2010PropOp57
 70
     1
102
RTVSPropertyOp0
 70
     1
102
RTVSPropertyOp1
 70
     1
102
RTVSPropertyOp2
 70
     1
102
RTVSPropertyOp3
 70
     1
102
RTVSPropertyOp4
 70
     1
102
RTVSPropertyOp5
 70
     1
102
RTVSPropertyOp6
 70
     1
102
RTVSPropertyOp7
 70
     1
102
RTVSPropertyOp8
 70
     1
102
RTVSPropertyOp9
 70
     1
102
RTVSPropertyOp10
 70
     1
102
RTVSPropertyOp11
 70
     1
102
RTVSPropertyOp12
 70
     1
102
RTVSPropertyOp13
 70
     1
102
RTVSPropertyOp14
 70
     1
102
RTVSPropertyOp15
 70
     1
102
RTVSPropertyOp16
 70
     1
102
RTVSPropertyOp17
 70
     1
102
RTVSPropertyOp18
 70
     1
102
RTVSPropertyOp19
 70
     1
102
RTVSPropertyOp20
 70
     1
102
RTVSPropertyOp21
 70
     1
102
RTVSPropertyOp22
 70
     1
102
RTVSPropertyOp23
 70
     1
102
RTVSPropertyOp24
 70
     1
102
RTVSPropertyOp25
 70
     1
102
RTVSPropertyOp26
 70
     1
102
RTVSPropertyOp27
 70
     1
102
RTVSPropertyOp28
 70
     1
102
RTVSPropertyOp29
 70
     1
102
RTVSPropertyOp30
 70
     1
102
RTVSPropertyOp31
 70
     1
102
RTVSPropertyOp32
 70
     1
102
RTVSPropertyOp33
 70
     1
102
RTVSPropertyOp34
 70
     1
102
RTVSPropertyOp35
 70
     1
102
RTVSPropertyOp36
 70
     1
102
RTVSPropertyOp37
 70
     1
102
RTVSPropertyOp38
 70
     1
102
RTVSPropertyOp39
 70
     1
102
RTVSPropertyOp40
 70
     1
102
RTVSPropertyOp41
 70
     1
102
RTVSPropertyOp42
 70
     1
102
RTVSPropertyOp43
 70
     1
102
RTVSPropertyOp44
 70
     1
102
RTVSPropertyOp45
 70
     1
102
RTVSPropertyOp46
 70
     1
102
RTVSPropertyOp47
 70
     1
102
RTVSPropertyOp48
 70
     1
102
RTVSPropertyOp49
 70
     1
102
RTVSPropertyOp50
 70
     1
102
RTVSPropertyOp51
 70
     0
102
RTVSPropertyOp52
 70
     0
102
RTVSPropertyOp53
 70
     1
102
RTVSPropertyOp54
 70
     1
102
RTVSPropertyOp55
 70
     1
102
RTVSPropertyOp56
 70
     1
102
RTVSPropertyOp57
 70
     1
102
RTVSPropertyOp58
 70
     1
102
RTVSPropertyOp59
 70
     1
102
RTVSPropertyOp60
 70
     1
102
RTVSPropertyOp61
 70
     1
102
RTVSPropertyOp62
 70
     1
  0
XRECORD
  5
A58D
102
{ACAD_REACTORS
330
A58C
102
}
330
A58C
100
AcDbXrecord
280
     1
102
RTVSPost2010Prop28
280
     0
102
RTVSPost2010PropOp28
 70
     1
102
RTVSPost2010Prop29
280
     1
102
RTVSPost2010PropOp29
 70
     1
102
RTVSPost2010Prop30
280
     1
102
RTVSPost2010PropOp30
 70
     1
102
RTVSPost2010Prop31
280
     0
102
RTVSPost2010PropOp31
 70
     1
102
RTVSPost2010Prop32
280
     0
102
RTVSPost2010PropOp32
 70
     1
102
RTVSPost2010Prop33
280
     0
102
RTVSPost2010PropOp33
 70
     1
102
RTVSPost2010Prop34
280
     0
102
RTVSPost2010PropOp34
 70
     1
102
RTVSPost2010Prop35
280
     0
102
RTVSPost2010PropOp35
 70
     1
102
RTVSPost2010Prop36
280
     0
102
RTVSPost2010PropOp36
 70
     1
102
RTVSPost2010Prop37
 90
       50
102
RTVSPost2010PropOp37
 70
     0
102
RTVSPost2010Prop38
140
0.0
102
RTVSPost2010PropOp38
 70
     0
102
RTVSPost2010Prop39
140
1.0
102
RTVSPost2010PropOp39
 70
     0
102
RTVSPost2010Prop40
 90
        0
102
RTVSPost2010PropOp40
 70
     0
102
RTVSPost2010Prop41ColorIndex
 90
       18
102
RTVSPost2010Prop41ColorRGB
 90
        0
102
RTVSPost2010PropOp41
 70
     0
102
RTVSPost2010Prop42
 90
       50
102
RTVSPost2010PropOp42
 70
     0
102
RTVSPost2010Prop43
 90
        3
102
RTVSPost2010PropOp43
 70
     0
102
RTVSPost2010Prop44ColorIndex
 90
        5
102
RTVSPost2010Prop44ColorRGB
 90
      255
102
RTVSPost2010PropOp44
 70
     0
102
RTVSPost2010Prop45
280
     0
102
RTVSPost2010PropOp45
 70
     1
102
RTVSPost2010Prop46
 90
       50
102
RTVSPost2010PropOp46
 70
     0
102
RTVSPost2010Prop47
 90
       50
102
RTVSPost2010PropOp47
 70
     0
102
RTVSPost2010Prop48
 90
       50
102
RTVSPost2010PropOp48
 70
     0
102
RTVSPost2010Prop49
280
     0
102
RTVSPost2010PropOp49
 70
     1
102
RTVSPost2010Prop50
 90
       50
102
RTVSPost2010PropOp50
 70
     0
102
RTVSPost2010Prop51ColorIndex
 90
      256
102
RTVSPost2010Prop51ColorRGB
 90
-16777216
102
RTVSPost2010PropOp51
 70
     0
102
RTVSPost2010Prop52
140
1.0
102
RTVSPost2010PropOp52
 70
     0
102
RTVSPost2010Prop53
 90
        2
102
RTVSPost2010PropOp53
 70
     0
102
RTVSPost2010Prop54
  1
strokes_ogs.tif
102
RTVSPost2010PropOp54
 70
     0
102
RTVSPost2010Prop55
280
     0
102
RTVSPost2010PropOp55
 70
     1
102
RTVSPost2010Prop56
140
1.0
102
RTVSPost2010PropOp56
 70
     0
102
RTVSPost2010Prop57
140
1.0
102
RTVSPost2010PropOp57
 70
     0
102
RTVSPropertyOp0
 70
     0
102
RTVSPropertyOp1
 70
     0
102
RTVSPropertyOp2
 70
     0
102
RTVSPropertyOp3
 70
     0
102
RTVSPropertyOp4
 70
     0
102
RTVSPropertyOp5
 70
     0
102
RTVSPropertyOp6
 70
     0
102
RTVSPropertyOp7
 70
     0
102
RTVSPropertyOp8
 70
     0
102
RTVSPropertyOp9
 70
     0
102
RTVSPropertyOp10
 70
     0
102
RTVSPropertyOp11
 70
     0
102
RTVSPropertyOp12
 70
     0
102
RTVSPropertyOp13
 70
     0
102
RTVSPropertyOp14
 70
     2
102
RTVSPropertyOp15
 70
     0
102
RTVSPropertyOp16
 70
     0
102
RTVSPropertyOp17
 70
     0
102
RTVSPropertyOp18
 70
     0
102
RTVSPropertyOp19
 70
     0
102
RTVSPropertyOp20
 70
     0
102
RTVSPropertyOp21
 70
     0
102
RTVSPropertyOp22
 70
     0
102
RTVSPropertyOp23
 70
     0
102
RTVSPropertyOp24
 70
     0
102
RTVSPropertyOp25
 70
     0
102
RTVSPropertyOp26
 70
     0
102
RTVSPropertyOp27
 70
     0
102
RTVSPropertyOp28
 70
     1
102
RTVSPropertyOp29
 70
     1
102
RTVSPropertyOp30
 70
     1
102
RTVSPropertyOp31
 70
     1
102
RTVSPropertyOp32
 70
     1
102
RTVSPropertyOp33
 70
     1
102
RTVSPropertyOp34
 70
     1
102
RTVSPropertyOp35
 70
     1
102
RTVSPropertyOp36
 70
     1
102
RTVSPropertyOp37
 70
     0
102
RTVSPropertyOp38
 70
     0
102
RTVSPropertyOp39
 70
     0
102
RTVSPropertyOp40
 70
     0
102
RTVSPropertyOp41
 70
     0
102
RTVSPropertyOp42
 70
     0
102
RTVSPropertyOp43
 70
     0
102
RTVSPropertyOp44
 70
     0
102
RTVSPropertyOp45
 70
     1
102
RTVSPropertyOp46
 70
     0
102
RTVSPropertyOp47
 70
     0
102
RTVSPropertyOp48
 70
     0
102
RTVSPropertyOp49
 70
     1
102
RTVSPropertyOp50
 70
     0
102
RTVSPropertyOp51
 70
     0
102
RTVSPropertyOp52
 70
     0
102
RTVSPropertyOp53
 70
     0
102
RTVSPropertyOp54
 70
     0
102
RTVSPropertyOp55
 70
     1
102
RTVSPropertyOp56
 70
     0
102
RTVSPropertyOp57
 70
     0
102
RTVSPropertyOp58
 70
     0
102
RTVSPropertyOp59
 70
     0
102
RTVSPropertyOp60
 70
     0
102
RTVSPropertyOp61
 70
     0
102
RTVSPropertyOp62
 70
     0
  0
XRECORD
  5
A573
102
{ACAD_REACTORS
330
A572
102
}
330
A572
100
AcDbXrecord
280
     1
102
RTVSPost2010Prop28
280
     0
102
RTVSPost2010PropOp28
 70
     1
102
RTVSPost2010Prop29
280
     1
102
RTVSPost2010PropOp29
 70
     1
102
RTVSPost2010Prop30
280
     1
102
RTVSPost2010PropOp30
 70
     1
102
RTVSPost2010Prop31
280
     0
102
RTVSPost2010PropOp31
 70
     1
102
RTVSPost2010Prop32
280
     0
102
RTVSPost2010PropOp32
 70
     1
102
RTVSPost2010Prop33
280
     0
102
RTVSPost2010PropOp33
 70
     1
102
RTVSPost2010Prop34
280
     0
102
RTVSPost2010PropOp34
 70
     1
102
RTVSPost2010Prop35
280
     0
102
RTVSPost2010PropOp35
 70
     1
102
RTVSPost2010Prop36
280
     0
102
RTVSPost2010PropOp36
 70
     1
102
RTVSPost2010Prop37
 90
       50
102
RTVSPost2010PropOp37
 70
     1
102
RTVSPost2010Prop38
140
0.0
102
RTVSPost2010PropOp38
 70
     1
102
RTVSPost2010Prop39
140
1.0
102
RTVSPost2010PropOp39
 70
     1
102
RTVSPost2010Prop40
 90
        0
102
RTVSPost2010PropOp40
 70
     1
102
RTVSPost2010Prop41ColorIndex
 90
       18
102
RTVSPost2010Prop41ColorRGB
 90
        0
102
RTVSPost2010PropOp41
 70
     1
102
RTVSPost2010Prop42
 90
       50
102
RTVSPost2010PropOp42
 70
     1
102
RTVSPost2010Prop43
 90
        3
102
RTVSPost2010PropOp43
 70
     1
102
RTVSPost2010Prop44ColorIndex
 90
        5
102
RTVSPost2010Prop44ColorRGB
 90
      255
102
RTVSPost2010PropOp44
 70
     1
102
RTVSPost2010Prop45
280
     0
102
RTVSPost2010PropOp45
 70
     1
102
RTVSPost2010Prop46
 90
       50
102
RTVSPost2010PropOp46
 70
     1
102
RTVSPost2010Prop47
 90
       50
102
RTVSPost2010PropOp47
 70
     1
102
RTVSPost2010Prop48
 90
       50
102
RTVSPost2010PropOp48
 70
     1
102
RTVSPost2010Prop49
280
     0
102
RTVSPost2010PropOp49
 70
     1
102
RTVSPost2010Prop50
 90
       50
102
RTVSPost2010PropOp50
 70
     1
102
RTVSPost2010Prop51ColorIndex
 90
      256
102
RTVSPost2010Prop51ColorRGB
 90
-16777216
102
RTVSPost2010PropOp51
 70
     0
102
RTVSPost2010Prop52
140
1.0
102
RTVSPost2010PropOp52
 70
     0
102
RTVSPost2010Prop53
 90
        2
102
RTVSPost2010PropOp53
 70
     1
102
RTVSPost2010Prop54
  1
strokes_ogs.tif
102
RTVSPost2010PropOp54
 70
     1
102
RTVSPost2010Prop55
280
     0
102
RTVSPost2010PropOp55
 70
     1
102
RTVSPost2010Prop56
140
1.0
102
RTVSPost2010PropOp56
 70
     1
102
RTVSPost2010Prop57
140
1.0
102
RTVSPost2010PropOp57
 70
     1
102
RTVSPropertyOp0
 70
     1
102
RTVSPropertyOp1
 70
     1
102
RTVSPropertyOp2
 70
     1
102
RTVSPropertyOp3
 70
     1
102
RTVSPropertyOp4
 70
     1
102
RTVSPropertyOp5
 70
     1
102
RTVSPropertyOp6
 70
     1
102
RTVSPropertyOp7
 70
     1
102
RTVSPropertyOp8
 70
     1
102
RTVSPropertyOp9
 70
     1
102
RTVSPropertyOp10
 70
     1
102
RTVSPropertyOp11
 70
     1
102
RTVSPropertyOp12
 70
     1
102
RTVSPropertyOp13
 70
     1
102
RTVSPropertyOp14
 70
     1
102
RTVSPropertyOp15
 70
     1
102
RTVSPropertyOp16
 70
     1
102
RTVSPropertyOp17
 70
     1
102
RTVSPropertyOp18
 70
     1
102
RTVSPropertyOp19
 70
     1
102
RTVSPropertyOp20
 70
     1
102
RTVSPropertyOp21
 70
     1
102
RTVSPropertyOp22
 70
     1
102
RTVSPropertyOp23
 70
     1
102
RTVSPropertyOp24
 70
     1
102
RTVSPropertyOp25
 70
     1
102
RTVSPropertyOp26
 70
     1
102
RTVSPropertyOp27
 70
     1
102
RTVSPropertyOp28
 70
     1
102
RTVSPropertyOp29
 70
     1
102
RTVSPropertyOp30
 70
     1
102
RTVSPropertyOp31
 70
     1
102
RTVSPropertyOp32
 70
     1
102
RTVSPropertyOp33
 70
     1
102
RTVSPropertyOp34
 70
     1
102
RTVSPropertyOp35
 70
     1
102
RTVSPropertyOp36
 70
     1
102
RTVSPropertyOp37
 70
     1
102
RTVSPropertyOp38
 70
     1
102
RTVSPropertyOp39
 70
     1
102
RTVSPropertyOp40
 70
     1
102
RTVSPropertyOp41
 70
     1
102
RTVSPropertyOp42
 70
     1
102
RTVSPropertyOp43
 70
     1
102
RTVSPropertyOp44
 70
     1
102
RTVSPropertyOp45
 70
     1
102
RTVSPropertyOp46
 70
     1
102
RTVSPropertyOp47
 70
     1
102
RTVSPropertyOp48
 70
     1
102
RTVSPropertyOp49
 70
     1
102
RTVSPropertyOp50
 70
     1
102
RTVSPropertyOp51
 70
     0
102
RTVSPropertyOp52
 70
     0
102
RTVSPropertyOp53
 70
     1
102
RTVSPropertyOp54
 70
     1
102
RTVSPropertyOp55
 70
     1
102
RTVSPropertyOp56
 70
     1
102
RTVSPropertyOp57
 70
     1
102
RTVSPropertyOp58
 70
     1
102
RTVSPropertyOp59
 70
     1
102
RTVSPropertyOp60
 70
     1
102
RTVSPropertyOp61
 70
     1
102
RTVSPropertyOp62
 70
     1
  0
XRECORD
  5
A589
102
{ACAD_REACTORS
330
A588
102
}
330
A588
100
AcDbXrecord
280
     1
102
RTVSPost2010Prop28
280
     0
102
RTVSPost2010PropOp28
 70
     1
102
RTVSPost2010Prop29
280
     1
102
RTVSPost2010PropOp29
 70
     1
102
RTVSPost2010Prop30
280
     1
102
RTVSPost2010PropOp30
 70
     1
102
RTVSPost2010Prop31
280
     0
102
RTVSPost2010PropOp31
 70
     1
102
RTVSPost2010Prop32
280
     0
102
RTVSPost2010PropOp32
 70
     1
102
RTVSPost2010Prop33
280
     0
102
RTVSPost2010PropOp33
 70
     1
102
RTVSPost2010Prop34
280
     0
102
RTVSPost2010PropOp34
 70
     1
102
RTVSPost2010Prop35
280
     0
102
RTVSPost2010PropOp35
 70
     1
102
RTVSPost2010Prop36
280
     0
102
RTVSPost2010PropOp36
 70
     1
102
RTVSPost2010Prop37
 90
       50
102
RTVSPost2010PropOp37
 70
     1
102
RTVSPost2010Prop38
140
0.0
102
RTVSPost2010PropOp38
 70
     1
102
RTVSPost2010Prop39
140
1.0
102
RTVSPost2010PropOp39
 70
     1
102
RTVSPost2010Prop40
 90
        0
102
RTVSPost2010PropOp40
 70
     1
102
RTVSPost2010Prop41ColorIndex
 90
       18
102
RTVSPost2010Prop41ColorRGB
 90
        0
102
RTVSPost2010PropOp41
 70
     1
102
RTVSPost2010Prop42
 90
       50
102
RTVSPost2010PropOp42
 70
     1
102
RTVSPost2010Prop43
 90
        3
102
RTVSPost2010PropOp43
 70
     1
102
RTVSPost2010Prop44ColorIndex
 90
        5
102
RTVSPost2010Prop44ColorRGB
 90
      255
102
RTVSPost2010PropOp44
 70
     1
102
RTVSPost2010Prop45
280
     0
102
RTVSPost2010PropOp45
 70
     1
102
RTVSPost2010Prop46
 90
       50
102
RTVSPost2010PropOp46
 70
     1
102
RTVSPost2010Prop47
 90
       50
102
RTVSPost2010PropOp47
 70
     1
102
RTVSPost2010Prop48
 90
       50
102
RTVSPost2010PropOp48
 70
     1
102
RTVSPost2010Prop49
280
     0
102
RTVSPost2010PropOp49
 70
     1
102
RTVSPost2010Prop50
 90
       50
102
RTVSPost2010PropOp50
 70
     1
102
RTVSPost2010Prop51ColorIndex
 90
      256
102
RTVSPost2010Prop51ColorRGB
 90
-16777216
102
RTVSPost2010PropOp51
 70
     0
102
RTVSPost2010Prop52
140
1.0
102
RTVSPost2010PropOp52
 70
     0
102
RTVSPost2010Prop53
 90
        2
102
RTVSPost2010PropOp53
 70
     1
102
RTVSPost2010Prop54
  1
strokes_ogs.tif
102
RTVSPost2010PropOp54
 70
     1
102
RTVSPost2010Prop55
280
     0
102
RTVSPost2010PropOp55
 70
     1
102
RTVSPost2010Prop56
140
1.0
102
RTVSPost2010PropOp56
 70
     1
102
RTVSPost2010Prop57
140
1.0
102
RTVSPost2010PropOp57
 70
     1
102
RTVSPropertyOp0
 70
     1
102
RTVSPropertyOp1
 70
     1
102
RTVSPropertyOp2
 70
     1
102
RTVSPropertyOp3
 70
     1
102
RTVSPropertyOp4
 70
     1
102
RTVSPropertyOp5
 70
     1
102
RTVSPropertyOp6
 70
     1
102
RTVSPropertyOp7
 70
     1
102
RTVSPropertyOp8
 70
     1
102
RTVSPropertyOp9
 70
     1
102
RTVSPropertyOp10
 70
     1
102
RTVSPropertyOp11
 70
     1
102
RTVSPropertyOp12
 70
     1
102
RTVSPropertyOp13
 70
     1
102
RTVSPropertyOp14
 70
     1
102
RTVSPropertyOp15
 70
     1
102
RTVSPropertyOp16
 70
     1
102
RTVSPropertyOp17
 70
     1
102
RTVSPropertyOp18
 70
     1
102
RTVSPropertyOp19
 70
     1
102
RTVSPropertyOp20
 70
     1
102
RTVSPropertyOp21
 70
     1
102
RTVSPropertyOp22
 70
     1
102
RTVSPropertyOp23
 70
     1
102
RTVSPropertyOp24
 70
     1
102
RTVSPropertyOp25
 70
     1
102
RTVSPropertyOp26
 70
     1
102
RTVSPropertyOp27
 70
     1
102
RTVSPropertyOp28
 70
     1
102
RTVSPropertyOp29
 70
     1
102
RTVSPropertyOp30
 70
     1
102
RTVSPropertyOp31
 70
     1
102
RTVSPropertyOp32
 70
     1
102
RTVSPropertyOp33
 70
     1
102
RTVSPropertyOp34
 70
     1
102
RTVSPropertyOp35
 70
     1
102
RTVSPropertyOp36
 70
     1
102
RTVSPropertyOp37
 70
     1
102
RTVSPropertyOp38
 70
     1
102
RTVSPropertyOp39
 70
     1
102
RTVSPropertyOp40
 70
     1
102
RTVSPropertyOp41
 70
     1
102
RTVSPropertyOp42
 70
     1
102
RTVSPropertyOp43
 70
     1
102
RTVSPropertyOp44
 70
     1
102
RTVSPropertyOp45
 70
     1
102
RTVSPropertyOp46
 70
     1
102
RTVSPropertyOp47
 70
     1
102
RTVSPropertyOp48
 70
     1
102
RTVSPropertyOp49
 70
     1
102
RTVSPropertyOp50
 70
     1
102
RTVSPropertyOp51
 70
     0
102
RTVSPropertyOp52
 70
     0
102
RTVSPropertyOp53
 70
     1
102
RTVSPropertyOp54
 70
     1
102
RTVSPropertyOp55
 70
     1
102
RTVSPropertyOp56
 70
     1
102
RTVSPropertyOp57
 70
     1
102
RTVSPropertyOp58
 70
     1
102
RTVSPropertyOp59
 70
     1
102
RTVSPropertyOp60
 70
     1
102
RTVSPropertyOp61
 70
     1
102
RTVSPropertyOp62
 70
     1
  0
XRECORD
  5
A587
102
{ACAD_REACTORS
330
A586
102
}
330
A586
100
AcDbXrecord
280
     1
102
RTVSPost2010Prop28
280
     0
102
RTVSPost2010PropOp28
 70
     1
102
RTVSPost2010Prop29
280
     1
102
RTVSPost2010PropOp29
 70
     1
102
RTVSPost2010Prop30
280
     1
102
RTVSPost2010PropOp30
 70
     1
102
RTVSPost2010Prop31
280
     0
102
RTVSPost2010PropOp31
 70
     1
102
RTVSPost2010Prop32
280
     0
102
RTVSPost2010PropOp32
 70
     1
102
RTVSPost2010Prop33
280
     0
102
RTVSPost2010PropOp33
 70
     1
102
RTVSPost2010Prop34
280
     0
102
RTVSPost2010PropOp34
 70
     1
102
RTVSPost2010Prop35
280
     0
102
RTVSPost2010PropOp35
 70
     1
102
RTVSPost2010Prop36
280
     0
102
RTVSPost2010PropOp36
 70
     1
102
RTVSPost2010Prop37
 90
       50
102
RTVSPost2010PropOp37
 70
     1
102
RTVSPost2010Prop38
140
0.0
102
RTVSPost2010PropOp38
 70
     1
102
RTVSPost2010Prop39
140
1.0
102
RTVSPost2010PropOp39
 70
     1
102
RTVSPost2010Prop40
 90
        0
102
RTVSPost2010PropOp40
 70
     1
102
RTVSPost2010Prop41ColorIndex
 90
       18
102
RTVSPost2010Prop41ColorRGB
 90
        0
102
RTVSPost2010PropOp41
 70
     1
102
RTVSPost2010Prop42
 90
       50
102
RTVSPost2010PropOp42
 70
     1
102
RTVSPost2010Prop43
 90
        3
102
RTVSPost2010PropOp43
 70
     1
102
RTVSPost2010Prop44ColorIndex
 90
        5
102
RTVSPost2010Prop44ColorRGB
 90
      255
102
RTVSPost2010PropOp44
 70
     1
102
RTVSPost2010Prop45
280
     0
102
RTVSPost2010PropOp45
 70
     1
102
RTVSPost2010Prop46
 90
       50
102
RTVSPost2010PropOp46
 70
     1
102
RTVSPost2010Prop47
 90
       50
102
RTVSPost2010PropOp47
 70
     1
102
RTVSPost2010Prop48
 90
       50
102
RTVSPost2010PropOp48
 70
     1
102
RTVSPost2010Prop49
280
     0
102
RTVSPost2010PropOp49
 70
     1
102
RTVSPost2010Prop50
 90
       50
102
RTVSPost2010PropOp50
 70
     1
102
RTVSPost2010Prop51ColorIndex
 90
      256
102
RTVSPost2010Prop51ColorRGB
 90
-16777216
102
RTVSPost2010PropOp51
 70
     0
102
RTVSPost2010Prop52
140
1.0
102
RTVSPost2010PropOp52
 70
     0
102
RTVSPost2010Prop53
 90
        2
102
RTVSPost2010PropOp53
 70
     1
102
RTVSPost2010Prop54
  1
strokes_ogs.tif
102
RTVSPost2010PropOp54
 70
     1
102
RTVSPost2010Prop55
280
     0
102
RTVSPost2010PropOp55
 70
     1
102
RTVSPost2010Prop56
140
1.0
102
RTVSPost2010PropOp56
 70
     1
102
RTVSPost2010Prop57
140
1.0
102
RTVSPost2010PropOp57
 70
     1
102
RTVSPropertyOp0
 70
     1
102
RTVSPropertyOp1
 70
     1
102
RTVSPropertyOp2
 70
     1
102
RTVSPropertyOp3
 70
     1
102
RTVSPropertyOp4
 70
     1
102
RTVSPropertyOp5
 70
     1
102
RTVSPropertyOp6
 70
     1
102
RTVSPropertyOp7
 70
     1
102
RTVSPropertyOp8
 70
     1
102
RTVSPropertyOp9
 70
     1
102
RTVSPropertyOp10
 70
     1
102
RTVSPropertyOp11
 70
     1
102
RTVSPropertyOp12
 70
     1
102
RTVSPropertyOp13
 70
     1
102
RTVSPropertyOp14
 70
     1
102
RTVSPropertyOp15
 70
     1
102
RTVSPropertyOp16
 70
     1
102
RTVSPropertyOp17
 70
     1
102
RTVSPropertyOp18
 70
     1
102
RTVSPropertyOp19
 70
     1
102
RTVSPropertyOp20
 70
     1
102
RTVSPropertyOp21
 70
     1
102
RTVSPropertyOp22
 70
     1
102
RTVSPropertyOp23
 70
     1
102
RTVSPropertyOp24
 70
     1
102
RTVSPropertyOp25
 70
     1
102
RTVSPropertyOp26
 70
     1
102
RTVSPropertyOp27
 70
     1
102
RTVSPropertyOp28
 70
     1
102
RTVSPropertyOp29
 70
     1
102
RTVSPropertyOp30
 70
     1
102
RTVSPropertyOp31
 70
     1
102
RTVSPropertyOp32
 70
     1
102
RTVSPropertyOp33
 70
     1
102
RTVSPropertyOp34
 70
     1
102
RTVSPropertyOp35
 70
     1
102
RTVSPropertyOp36
 70
     1
102
RTVSPropertyOp37
 70
     1
102
RTVSPropertyOp38
 70
     1
102
RTVSPropertyOp39
 70
     1
102
RTVSPropertyOp40
 70
     1
102
RTVSPropertyOp41
 70
     1
102
RTVSPropertyOp42
 70
     1
102
RTVSPropertyOp43
 70
     1
102
RTVSPropertyOp44
 70
     1
102
RTVSPropertyOp45
 70
     1
102
RTVSPropertyOp46
 70
     1
102
RTVSPropertyOp47
 70
     1
102
RTVSPropertyOp48
 70
     1
102
RTVSPropertyOp49
 70
     1
102
RTVSPropertyOp50
 70
     1
102
RTVSPropertyOp51
 70
     0
102
RTVSPropertyOp52
 70
     0
102
RTVSPropertyOp53
 70
     1
102
RTVSPropertyOp54
 70
     1
102
RTVSPropertyOp55
 70
     1
102
RTVSPropertyOp56
 70
     1
102
RTVSPropertyOp57
 70
     1
102
RTVSPropertyOp58
 70
     1
102
RTVSPropertyOp59
 70
     1
102
RTVSPropertyOp60
 70
     1
102
RTVSPropertyOp61
 70
     1
102
RTVSPropertyOp62
 70
     1
  0
XRECORD
  5
A581
102
{ACAD_REACTORS
330
A580
102
}
330
A580
100
AcDbXrecord
280
     1
102
RTVSPost2010Prop28
280
     0
102
RTVSPost2010PropOp28
 70
     1
102
RTVSPost2010Prop29
280
     1
102
RTVSPost2010PropOp29
 70
     1
102
RTVSPost2010Prop30
280
     1
102
RTVSPost2010PropOp30
 70
     1
102
RTVSPost2010Prop31
280
     0
102
RTVSPost2010PropOp31
 70
     1
102
RTVSPost2010Prop32
280
     0
102
RTVSPost2010PropOp32
 70
     1
102
RTVSPost2010Prop33
280
     0
102
RTVSPost2010PropOp33
 70
     1
102
RTVSPost2010Prop34
280
     0
102
RTVSPost2010PropOp34
 70
     1
102
RTVSPost2010Prop35
280
     0
102
RTVSPost2010PropOp35
 70
     1
102
RTVSPost2010Prop36
280
     0
102
RTVSPost2010PropOp36
 70
     1
102
RTVSPost2010Prop37
 90
       50
102
RTVSPost2010PropOp37
 70
     1
102
RTVSPost2010Prop38
140
0.0
102
RTVSPost2010PropOp38
 70
     1
102
RTVSPost2010Prop39
140
1.0
102
RTVSPost2010PropOp39
 70
     1
102
RTVSPost2010Prop40
 90
        0
102
RTVSPost2010PropOp40
 70
     1
102
RTVSPost2010Prop41ColorIndex
 90
       18
102
RTVSPost2010Prop41ColorRGB
 90
        0
102
RTVSPost2010PropOp41
 70
     1
102
RTVSPost2010Prop42
 90
       50
102
RTVSPost2010PropOp42
 70
     1
102
RTVSPost2010Prop43
 90
        3
102
RTVSPost2010PropOp43
 70
     1
102
RTVSPost2010Prop44ColorIndex
 90
        5
102
RTVSPost2010Prop44ColorRGB
 90
      255
102
RTVSPost2010PropOp44
 70
     1
102
RTVSPost2010Prop45
280
     0
102
RTVSPost2010PropOp45
 70
     1
102
RTVSPost2010Prop46
 90
       50
102
RTVSPost2010PropOp46
 70
     1
102
RTVSPost2010Prop47
 90
       50
102
RTVSPost2010PropOp47
 70
     1
102
RTVSPost2010Prop48
 90
       50
102
RTVSPost2010PropOp48
 70
     1
102
RTVSPost2010Prop49
280
     0
102
RTVSPost2010PropOp49
 70
     1
102
RTVSPost2010Prop50
 90
       50
102
RTVSPost2010PropOp50
 70
     1
102
RTVSPost2010Prop51ColorIndex
 90
      256
102
RTVSPost2010Prop51ColorRGB
 90
-16777216
102
RTVSPost2010PropOp51
 70
     0
102
RTVSPost2010Prop52
140
1.0
102
RTVSPost2010PropOp52
 70
     0
102
RTVSPost2010Prop53
 90
        2
102
RTVSPost2010PropOp53
 70
     1
102
RTVSPost2010Prop54
  1
strokes_ogs.tif
102
RTVSPost2010PropOp54
 70
     1
102
RTVSPost2010Prop55
280
     0
102
RTVSPost2010PropOp55
 70
     1
102
RTVSPost2010Prop56
140
1.0
102
RTVSPost2010PropOp56
 70
     1
102
RTVSPost2010Prop57
140
1.0
102
RTVSPost2010PropOp57
 70
     1
102
RTVSPropertyOp0
 70
     1
102
RTVSPropertyOp1
 70
     1
102
RTVSPropertyOp2
 70
     1
102
RTVSPropertyOp3
 70
     1
102
RTVSPropertyOp4
 70
     1
102
RTVSPropertyOp5
 70
     1
102
RTVSPropertyOp6
 70
     1
102
RTVSPropertyOp7
 70
     1
102
RTVSPropertyOp8
 70
     1
102
RTVSPropertyOp9
 70
     1
102
RTVSPropertyOp10
 70
     1
102
RTVSPropertyOp11
 70
     1
102
RTVSPropertyOp12
 70
     1
102
RTVSPropertyOp13
 70
     1
102
RTVSPropertyOp14
 70
     1
102
RTVSPropertyOp15
 70
     1
102
RTVSPropertyOp16
 70
     1
102
RTVSPropertyOp17
 70
     1
102
RTVSPropertyOp18
 70
     1
102
RTVSPropertyOp19
 70
     1
102
RTVSPropertyOp20
 70
     1
102
RTVSPropertyOp21
 70
     1
102
RTVSPropertyOp22
 70
     1
102
RTVSPropertyOp23
 70
     1
102
RTVSPropertyOp24
 70
     1
102
RTVSPropertyOp25
 70
     1
102
RTVSPropertyOp26
 70
     1
102
RTVSPropertyOp27
 70
     1
102
RTVSPropertyOp28
 70
     1
102
RTVSPropertyOp29
 70
     1
102
RTVSPropertyOp30
 70
     1
102
RTVSPropertyOp31
 70
     1
102
RTVSPropertyOp32
 70
     1
102
RTVSPropertyOp33
 70
     1
102
RTVSPropertyOp34
 70
     1
102
RTVSPropertyOp35
 70
     1
102
RTVSPropertyOp36
 70
     1
102
RTVSPropertyOp37
 70
     1
102
RTVSPropertyOp38
 70
     1
102
RTVSPropertyOp39
 70
     1
102
RTVSPropertyOp40
 70
     1
102
RTVSPropertyOp41
 70
     1
102
RTVSPropertyOp42
 70
     1
102
RTVSPropertyOp43
 70
     1
102
RTVSPropertyOp44
 70
     1
102
RTVSPropertyOp45
 70
     1
102
RTVSPropertyOp46
 70
     1
102
RTVSPropertyOp47
 70
     1
102
RTVSPropertyOp48
 70
     1
102
RTVSPropertyOp49
 70
     1
102
RTVSPropertyOp50
 70
     1
102
RTVSPropertyOp51
 70
     0
102
RTVSPropertyOp52
 70
     0
102
RTVSPropertyOp53
 70
     1
102
RTVSPropertyOp54
 70
     1
102
RTVSPropertyOp55
 70
     1
102
RTVSPropertyOp56
 70
     1
102
RTVSPropertyOp57
 70
     1
102
RTVSPropertyOp58
 70
     1
102
RTVSPropertyOp59
 70
     1
102
RTVSPropertyOp60
 70
     1
102
RTVSPropertyOp61
 70
     1
102
RTVSPropertyOp62
 70
     1
  0
XRECORD
  5
A583
102
{ACAD_REACTORS
330
A582
102
}
330
A582
100
AcDbXrecord
280
     1
102
RTVSPost2010Prop28
280
     0
102
RTVSPost2010PropOp28
 70
     1
102
RTVSPost2010Prop29
280
     1
102
RTVSPost2010PropOp29
 70
     1
102
RTVSPost2010Prop30
280
     1
102
RTVSPost2010PropOp30
 70
     1
102
RTVSPost2010Prop31
280
     0
102
RTVSPost2010PropOp31
 70
     1
102
RTVSPost2010Prop32
280
     0
102
RTVSPost2010PropOp32
 70
     1
102
RTVSPost2010Prop33
280
     0
102
RTVSPost2010PropOp33
 70
     1
102
RTVSPost2010Prop34
280
     0
102
RTVSPost2010PropOp34
 70
     1
102
RTVSPost2010Prop35
280
     0
102
RTVSPost2010PropOp35
 70
     1
102
RTVSPost2010Prop36
280
     0
102
RTVSPost2010PropOp36
 70
     1
102
RTVSPost2010Prop37
 90
       50
102
RTVSPost2010PropOp37
 70
     1
102
RTVSPost2010Prop38
140
0.0
102
RTVSPost2010PropOp38
 70
     1
102
RTVSPost2010Prop39
140
1.0
102
RTVSPost2010PropOp39
 70
     1
102
RTVSPost2010Prop40
 90
        0
102
RTVSPost2010PropOp40
 70
     1
102
RTVSPost2010Prop41ColorIndex
 90
       18
102
RTVSPost2010Prop41ColorRGB
 90
        0
102
RTVSPost2010PropOp41
 70
     1
102
RTVSPost2010Prop42
 90
       50
102
RTVSPost2010PropOp42
 70
     1
102
RTVSPost2010Prop43
 90
        3
102
RTVSPost2010PropOp43
 70
     1
102
RTVSPost2010Prop44ColorIndex
 90
        5
102
RTVSPost2010Prop44ColorRGB
 90
      255
102
RTVSPost2010PropOp44
 70
     1
102
RTVSPost2010Prop45
280
     0
102
RTVSPost2010PropOp45
 70
     1
102
RTVSPost2010Prop46
 90
       50
102
RTVSPost2010PropOp46
 70
     1
102
RTVSPost2010Prop47
 90
       50
102
RTVSPost2010PropOp47
 70
     1
102
RTVSPost2010Prop48
 90
       50
102
RTVSPost2010PropOp48
 70
     1
102
RTVSPost2010Prop49
280
     0
102
RTVSPost2010PropOp49
 70
     1
102
RTVSPost2010Prop50
 90
       50
102
RTVSPost2010PropOp50
 70
     1
102
RTVSPost2010Prop51ColorIndex
 90
      256
102
RTVSPost2010Prop51ColorRGB
 90
-16777216
102
RTVSPost2010PropOp51
 70
     0
102
RTVSPost2010Prop52
140
1.0
102
RTVSPost2010PropOp52
 70
     0
102
RTVSPost2010Prop53
 90
        2
102
RTVSPost2010PropOp53
 70
     1
102
RTVSPost2010Prop54
  1
strokes_ogs.tif
102
RTVSPost2010PropOp54
 70
     1
102
RTVSPost2010Prop55
280
     0
102
RTVSPost2010PropOp55
 70
     1
102
RTVSPost2010Prop56
140
1.0
102
RTVSPost2010PropOp56
 70
     1
102
RTVSPost2010Prop57
140
1.0
102
RTVSPost2010PropOp57
 70
     1
102
RTVSPropertyOp0
 70
     1
102
RTVSPropertyOp1
 70
     1
102
RTVSPropertyOp2
 70
     1
102
RTVSPropertyOp3
 70
     1
102
RTVSPropertyOp4
 70
     1
102
RTVSPropertyOp5
 70
     1
102
RTVSPropertyOp6
 70
     1
102
RTVSPropertyOp7
 70
     1
102
RTVSPropertyOp8
 70
     1
102
RTVSPropertyOp9
 70
     1
102
RTVSPropertyOp10
 70
     1
102
RTVSPropertyOp11
 70
     1
102
RTVSPropertyOp12
 70
     1
102
RTVSPropertyOp13
 70
     1
102
RTVSPropertyOp14
 70
     1
102
RTVSPropertyOp15
 70
     1
102
RTVSPropertyOp16
 70
     1
102
RTVSPropertyOp17
 70
     1
102
RTVSPropertyOp18
 70
     1
102
RTVSPropertyOp19
 70
     1
102
RTVSPropertyOp20
 70
     1
102
RTVSPropertyOp21
 70
     1
102
RTVSPropertyOp22
 70
     1
102
RTVSPropertyOp23
 70
     1
102
RTVSPropertyOp24
 70
     1
102
RTVSPropertyOp25
 70
     1
102
RTVSPropertyOp26
 70
     1
102
RTVSPropertyOp27
 70
     1
102
RTVSPropertyOp28
 70
     1
102
RTVSPropertyOp29
 70
     1
102
RTVSPropertyOp30
 70
     1
102
RTVSPropertyOp31
 70
     1
102
RTVSPropertyOp32
 70
     1
102
RTVSPropertyOp33
 70
     1
102
RTVSPropertyOp34
 70
     1
102
RTVSPropertyOp35
 70
     1
102
RTVSPropertyOp36
 70
     1
102
RTVSPropertyOp37
 70
     1
102
RTVSPropertyOp38
 70
     1
102
RTVSPropertyOp39
 70
     1
102
RTVSPropertyOp40
 70
     1
102
RTVSPropertyOp41
 70
     1
102
RTVSPropertyOp42
 70
     1
102
RTVSPropertyOp43
 70
     1
102
RTVSPropertyOp44
 70
     1
102
RTVSPropertyOp45
 70
     1
102
RTVSPropertyOp46
 70
     1
102
RTVSPropertyOp47
 70
     1
102
RTVSPropertyOp48
 70
     1
102
RTVSPropertyOp49
 70
     1
102
RTVSPropertyOp50
 70
     1
102
RTVSPropertyOp51
 70
     0
102
RTVSPropertyOp52
 70
     0
102
RTVSPropertyOp53
 70
     1
102
RTVSPropertyOp54
 70
     1
102
RTVSPropertyOp55
 70
     1
102
RTVSPropertyOp56
 70
     1
102
RTVSPropertyOp57
 70
     1
102
RTVSPropertyOp58
 70
     1
102
RTVSPropertyOp59
 70
     1
102
RTVSPropertyOp60
 70
     1
102
RTVSPropertyOp61
 70
     1
102
RTVSPropertyOp62
 70
     1
  0
XRECORD
  5
A579
102
{ACAD_REACTORS
330
A578
102
}
330
A578
100
AcDbXrecord
280
     1
102
RTVSPost2010Prop28
280
     0
102
RTVSPost2010PropOp28
 70
     1
102
RTVSPost2010Prop29
280
     1
102
RTVSPost2010PropOp29
 70
     1
102
RTVSPost2010Prop30
280
     1
102
RTVSPost2010PropOp30
 70
     1
102
RTVSPost2010Prop31
280
     0
102
RTVSPost2010PropOp31
 70
     1
102
RTVSPost2010Prop32
280
     0
102
RTVSPost2010PropOp32
 70
     1
102
RTVSPost2010Prop33
280
     0
102
RTVSPost2010PropOp33
 70
     1
102
RTVSPost2010Prop34
280
     0
102
RTVSPost2010PropOp34
 70
     1
102
RTVSPost2010Prop35
280
     0
102
RTVSPost2010PropOp35
 70
     1
102
RTVSPost2010Prop36
280
     0
102
RTVSPost2010PropOp36
 70
     1
102
RTVSPost2010Prop37
 90
       50
102
RTVSPost2010PropOp37
 70
     1
102
RTVSPost2010Prop38
140
0.0
102
RTVSPost2010PropOp38
 70
     1
102
RTVSPost2010Prop39
140
1.0
102
RTVSPost2010PropOp39
 70
     1
102
RTVSPost2010Prop40
 90
        0
102
RTVSPost2010PropOp40
 70
     1
102
RTVSPost2010Prop41ColorIndex
 90
       18
102
RTVSPost2010Prop41ColorRGB
 90
        0
102
RTVSPost2010PropOp41
 70
     1
102
RTVSPost2010Prop42
 90
       50
102
RTVSPost2010PropOp42
 70
     1
102
RTVSPost2010Prop43
 90
        3
102
RTVSPost2010PropOp43
 70
     1
102
RTVSPost2010Prop44ColorIndex
 90
        5
102
RTVSPost2010Prop44ColorRGB
 90
      255
102
RTVSPost2010PropOp44
 70
     1
102
RTVSPost2010Prop45
280
     0
102
RTVSPost2010PropOp45
 70
     1
102
RTVSPost2010Prop46
 90
       50
102
RTVSPost2010PropOp46
 70
     1
102
RTVSPost2010Prop47
 90
       50
102
RTVSPost2010PropOp47
 70
     1
102
RTVSPost2010Prop48
 90
       50
102
RTVSPost2010PropOp48
 70
     1
102
RTVSPost2010Prop49
280
     0
102
RTVSPost2010PropOp49
 70
     1
102
RTVSPost2010Prop50
 90
       50
102
RTVSPost2010PropOp50
 70
     1
102
RTVSPost2010Prop51ColorIndex
 90
      256
102
RTVSPost2010Prop51ColorRGB
 90
-16777216
102
RTVSPost2010PropOp51
 70
     0
102
RTVSPost2010Prop52
140
1.0
102
RTVSPost2010PropOp52
 70
     0
102
RTVSPost2010Prop53
 90
        2
102
RTVSPost2010PropOp53
 70
     1
102
RTVSPost2010Prop54
  1
strokes_ogs.tif
102
RTVSPost2010PropOp54
 70
     1
102
RTVSPost2010Prop55
280
     0
102
RTVSPost2010PropOp55
 70
     1
102
RTVSPost2010Prop56
140
1.0
102
RTVSPost2010PropOp56
 70
     1
102
RTVSPost2010Prop57
140
1.0
102
RTVSPost2010PropOp57
 70
     1
102
RTVSPropertyOp0
 70
     1
102
RTVSPropertyOp1
 70
     1
102
RTVSPropertyOp2
 70
     1
102
RTVSPropertyOp3
 70
     1
102
RTVSPropertyOp4
 70
     1
102
RTVSPropertyOp5
 70
     1
102
RTVSPropertyOp6
 70
     1
102
RTVSPropertyOp7
 70
     1
102
RTVSPropertyOp8
 70
     1
102
RTVSPropertyOp9
 70
     1
102
RTVSPropertyOp10
 70
     1
102
RTVSPropertyOp11
 70
     1
102
RTVSPropertyOp12
 70
     1
102
RTVSPropertyOp13
 70
     1
102
RTVSPropertyOp14
 70
     1
102
RTVSPropertyOp15
 70
     1
102
RTVSPropertyOp16
 70
     1
102
RTVSPropertyOp17
 70
     1
102
RTVSPropertyOp18
 70
     1
102
RTVSPropertyOp19
 70
     1
102
RTVSPropertyOp20
 70
     1
102
RTVSPropertyOp21
 70
     1
102
RTVSPropertyOp22
 70
     1
102
RTVSPropertyOp23
 70
     1
102
RTVSPropertyOp24
 70
     1
102
RTVSPropertyOp25
 70
     1
102
RTVSPropertyOp26
 70
     1
102
RTVSPropertyOp27
 70
     1
102
RTVSPropertyOp28
 70
     1
102
RTVSPropertyOp29
 70
     1
102
RTVSPropertyOp30
 70
     1
102
RTVSPropertyOp31
 70
     1
102
RTVSPropertyOp32
 70
     1
102
RTVSPropertyOp33
 70
     1
102
RTVSPropertyOp34
 70
     1
102
RTVSPropertyOp35
 70
     1
102
RTVSPropertyOp36
 70
     1
102
RTVSPropertyOp37
 70
     1
102
RTVSPropertyOp38
 70
     1
102
RTVSPropertyOp39
 70
     1
102
RTVSPropertyOp40
 70
     1
102
RTVSPropertyOp41
 70
     1
102
RTVSPropertyOp42
 70
     1
102
RTVSPropertyOp43
 70
     1
102
RTVSPropertyOp44
 70
     1
102
RTVSPropertyOp45
 70
     1
102
RTVSPropertyOp46
 70
     1
102
RTVSPropertyOp47
 70
     1
102
RTVSPropertyOp48
 70
     1
102
RTVSPropertyOp49
 70
     1
102
RTVSPropertyOp50
 70
     1
102
RTVSPropertyOp51
 70
     0
102
RTVSPropertyOp52
 70
     0
102
RTVSPropertyOp53
 70
     1
102
RTVSPropertyOp54
 70
     1
102
RTVSPropertyOp55
 70
     1
102
RTVSPropertyOp56
 70
     1
102
RTVSPropertyOp57
 70
     1
102
RTVSPropertyOp58
 70
     1
102
RTVSPropertyOp59
 70
     1
102
RTVSPropertyOp60
 70
     1
102
RTVSPropertyOp61
 70
     1
102
RTVSPropertyOp62
 70
     1
  0
XRECORD
  5
A56D
102
{ACAD_REACTORS
330
A56C
102
}
330
A56C
100
AcDbXrecord
280
     1
102
RTVSPost2010Prop28
280
     0
102
RTVSPost2010PropOp28
 70
     1
102
RTVSPost2010Prop29
280
     1
102
RTVSPost2010PropOp29
 70
     1
102
RTVSPost2010Prop30
280
     1
102
RTVSPost2010PropOp30
 70
     1
102
RTVSPost2010Prop31
280
     0
102
RTVSPost2010PropOp31
 70
     1
102
RTVSPost2010Prop32
280
     0
102
RTVSPost2010PropOp32
 70
     1
102
RTVSPost2010Prop33
280
     0
102
RTVSPost2010PropOp33
 70
     1
102
RTVSPost2010Prop34
280
     0
102
RTVSPost2010PropOp34
 70
     1
102
RTVSPost2010Prop35
280
     0
102
RTVSPost2010PropOp35
 70
     1
102
RTVSPost2010Prop36
280
     0
102
RTVSPost2010PropOp36
 70
     1
102
RTVSPost2010Prop37
 90
       50
102
RTVSPost2010PropOp37
 70
     1
102
RTVSPost2010Prop38
140
0.0
102
RTVSPost2010PropOp38
 70
     1
102
RTVSPost2010Prop39
140
1.0
102
RTVSPost2010PropOp39
 70
     1
102
RTVSPost2010Prop40
 90
        0
102
RTVSPost2010PropOp40
 70
     1
102
RTVSPost2010Prop41ColorIndex
 90
       18
102
RTVSPost2010Prop41ColorRGB
 90
        0
102
RTVSPost2010PropOp41
 70
     1
102
RTVSPost2010Prop42
 90
       50
102
RTVSPost2010PropOp42
 70
     1
102
RTVSPost2010Prop43
 90
        3
102
RTVSPost2010PropOp43
 70
     1
102
RTVSPost2010Prop44ColorIndex
 90
        5
102
RTVSPost2010Prop44ColorRGB
 90
      255
102
RTVSPost2010PropOp44
 70
     1
102
RTVSPost2010Prop45
280
     0
102
RTVSPost2010PropOp45
 70
     1
102
RTVSPost2010Prop46
 90
       50
102
RTVSPost2010PropOp46
 70
     1
102
RTVSPost2010Prop47
 90
       50
102
RTVSPost2010PropOp47
 70
     1
102
RTVSPost2010Prop48
 90
       50
102
RTVSPost2010PropOp48
 70
     1
102
RTVSPost2010Prop49
280
     0
102
RTVSPost2010PropOp49
 70
     1
102
RTVSPost2010Prop50
 90
       50
102
RTVSPost2010PropOp50
 70
     1
102
RTVSPost2010Prop51ColorIndex
 90
      256
102
RTVSPost2010Prop51ColorRGB
 90
-16777216
102
RTVSPost2010PropOp51
 70
     0
102
RTVSPost2010Prop52
140
1.0
102
RTVSPost2010PropOp52
 70
     0
102
RTVSPost2010Prop53
 90
        2
102
RTVSPost2010PropOp53
 70
     1
102
RTVSPost2010Prop54
  1
strokes_ogs.tif
102
RTVSPost2010PropOp54
 70
     1
102
RTVSPost2010Prop55
280
     0
102
RTVSPost2010PropOp55
 70
     1
102
RTVSPost2010Prop56
140
1.0
102
RTVSPost2010PropOp56
 70
     1
102
RTVSPost2010Prop57
140
1.0
102
RTVSPost2010PropOp57
 70
     1
102
RTVSPropertyOp0
 70
     1
102
RTVSPropertyOp1
 70
     1
102
RTVSPropertyOp2
 70
     1
102
RTVSPropertyOp3
 70
     1
102
RTVSPropertyOp4
 70
     1
102
RTVSPropertyOp5
 70
     1
102
RTVSPropertyOp6
 70
     1
102
RTVSPropertyOp7
 70
     1
102
RTVSPropertyOp8
 70
     1
102
RTVSPropertyOp9
 70
     1
102
RTVSPropertyOp10
 70
     1
102
RTVSPropertyOp11
 70
     1
102
RTVSPropertyOp12
 70
     1
102
RTVSPropertyOp13
 70
     1
102
RTVSPropertyOp14
 70
     1
102
RTVSPropertyOp15
 70
     1
102
RTVSPropertyOp16
 70
     1
102
RTVSPropertyOp17
 70
     1
102
RTVSPropertyOp18
 70
     1
102
RTVSPropertyOp19
 70
     1
102
RTVSPropertyOp20
 70
     1
102
RTVSPropertyOp21
 70
     1
102
RTVSPropertyOp22
 70
     1
102
RTVSPropertyOp23
 70
     1
102
RTVSPropertyOp24
 70
     1
102
RTVSPropertyOp25
 70
     1
102
RTVSPropertyOp26
 70
     1
102
RTVSPropertyOp27
 70
     1
102
RTVSPropertyOp28
 70
     1
102
RTVSPropertyOp29
 70
     1
102
RTVSPropertyOp30
 70
     1
102
RTVSPropertyOp31
 70
     1
102
RTVSPropertyOp32
 70
     1
102
RTVSPropertyOp33
 70
     1
102
RTVSPropertyOp34
 70
     1
102
RTVSPropertyOp35
 70
     1
102
RTVSPropertyOp36
 70
     1
102
RTVSPropertyOp37
 70
     1
102
RTVSPropertyOp38
 70
     1
102
RTVSPropertyOp39
 70
     1
102
RTVSPropertyOp40
 70
     1
102
RTVSPropertyOp41
 70
     1
102
RTVSPropertyOp42
 70
     1
102
RTVSPropertyOp43
 70
     1
102
RTVSPropertyOp44
 70
     1
102
RTVSPropertyOp45
 70
     1
102
RTVSPropertyOp46
 70
     1
102
RTVSPropertyOp47
 70
     1
102
RTVSPropertyOp48
 70
     1
102
RTVSPropertyOp49
 70
     1
102
RTVSPropertyOp50
 70
     1
102
RTVSPropertyOp51
 70
     0
102
RTVSPropertyOp52
 70
     0
102
RTVSPropertyOp53
 70
     1
102
RTVSPropertyOp54
 70
     1
102
RTVSPropertyOp55
 70
     1
102
RTVSPropertyOp56
 70
     1
102
RTVSPropertyOp57
 70
     1
102
RTVSPropertyOp58
 70
     1
102
RTVSPropertyOp59
 70
     1
102
RTVSPropertyOp60
 70
     1
102
RTVSPropertyOp61
 70
     1
102
RTVSPropertyOp62
 70
     1
  0
XRECORD
  5
A585
102
{ACAD_REACTORS
330
A584
102
}
330
A584
100
AcDbXrecord
280
     1
102
RTVSPost2010Prop28
280
     0
102
RTVSPost2010PropOp28
 70
     1
102
RTVSPost2010Prop29
280
     1
102
RTVSPost2010PropOp29
 70
     1
102
RTVSPost2010Prop30
280
     1
102
RTVSPost2010PropOp30
 70
     1
102
RTVSPost2010Prop31
280
     0
102
RTVSPost2010PropOp31
 70
     1
102
RTVSPost2010Prop32
280
     0
102
RTVSPost2010PropOp32
 70
     1
102
RTVSPost2010Prop33
280
     0
102
RTVSPost2010PropOp33
 70
     1
102
RTVSPost2010Prop34
280
     0
102
RTVSPost2010PropOp34
 70
     1
102
RTVSPost2010Prop35
280
     0
102
RTVSPost2010PropOp35
 70
     1
102
RTVSPost2010Prop36
280
     0
102
RTVSPost2010PropOp36
 70
     1
102
RTVSPost2010Prop37
 90
       50
102
RTVSPost2010PropOp37
 70
     1
102
RTVSPost2010Prop38
140
0.0
102
RTVSPost2010PropOp38
 70
     1
102
RTVSPost2010Prop39
140
1.0
102
RTVSPost2010PropOp39
 70
     1
102
RTVSPost2010Prop40
 90
        0
102
RTVSPost2010PropOp40
 70
     1
102
RTVSPost2010Prop41ColorIndex
 90
       18
102
RTVSPost2010Prop41ColorRGB
 90
        0
102
RTVSPost2010PropOp41
 70
     1
102
RTVSPost2010Prop42
 90
       50
102
RTVSPost2010PropOp42
 70
     1
102
RTVSPost2010Prop43
 90
        3
102
RTVSPost2010PropOp43
 70
     1
102
RTVSPost2010Prop44ColorIndex
 90
        5
102
RTVSPost2010Prop44ColorRGB
 90
      255
102
RTVSPost2010PropOp44
 70
     1
102
RTVSPost2010Prop45
280
     0
102
RTVSPost2010PropOp45
 70
     1
102
RTVSPost2010Prop46
 90
       50
102
RTVSPost2010PropOp46
 70
     1
102
RTVSPost2010Prop47
 90
       50
102
RTVSPost2010PropOp47
 70
     1
102
RTVSPost2010Prop48
 90
       50
102
RTVSPost2010PropOp48
 70
     1
102
RTVSPost2010Prop49
280
     0
102
RTVSPost2010PropOp49
 70
     1
102
RTVSPost2010Prop50
 90
       50
102
RTVSPost2010PropOp50
 70
     1
102
RTVSPost2010Prop51ColorIndex
 90
      256
102
RTVSPost2010Prop51ColorRGB
 90
-16777216
102
RTVSPost2010PropOp51
 70
     0
102
RTVSPost2010Prop52
140
1.0
102
RTVSPost2010PropOp52
 70
     0
102
RTVSPost2010Prop53
 90
        2
102
RTVSPost2010PropOp53
 70
     1
102
RTVSPost2010Prop54
  1
strokes_ogs.tif
102
RTVSPost2010PropOp54
 70
     1
102
RTVSPost2010Prop55
280
     0
102
RTVSPost2010PropOp55
 70
     1
102
RTVSPost2010Prop56
140
1.0
102
RTVSPost2010PropOp56
 70
     1
102
RTVSPost2010Prop57
140
1.0
102
RTVSPost2010PropOp57
 70
     1
102
RTVSPropertyOp0
 70
     1
102
RTVSPropertyOp1
 70
     1
102
RTVSPropertyOp2
 70
     1
102
RTVSPropertyOp3
 70
     1
102
RTVSPropertyOp4
 70
     1
102
RTVSPropertyOp5
 70
     1
102
RTVSPropertyOp6
 70
     1
102
RTVSPropertyOp7
 70
     1
102
RTVSPropertyOp8
 70
     1
102
RTVSPropertyOp9
 70
     1
102
RTVSPropertyOp10
 70
     1
102
RTVSPropertyOp11
 70
     1
102
RTVSPropertyOp12
 70
     1
102
RTVSPropertyOp13
 70
     1
102
RTVSPropertyOp14
 70
     1
102
RTVSPropertyOp15
 70
     1
102
RTVSPropertyOp16
 70
     1
102
RTVSPropertyOp17
 70
     1
102
RTVSPropertyOp18
 70
     1
102
RTVSPropertyOp19
 70
     1
102
RTVSPropertyOp20
 70
     1
102
RTVSPropertyOp21
 70
     1
102
RTVSPropertyOp22
 70
     1
102
RTVSPropertyOp23
 70
     1
102
RTVSPropertyOp24
 70
     1
102
RTVSPropertyOp25
 70
     1
102
RTVSPropertyOp26
 70
     1
102
RTVSPropertyOp27
 70
     1
102
RTVSPropertyOp28
 70
     1
102
RTVSPropertyOp29
 70
     1
102
RTVSPropertyOp30
 70
     1
102
RTVSPropertyOp31
 70
     1
102
RTVSPropertyOp32
 70
     1
102
RTVSPropertyOp33
 70
     1
102
RTVSPropertyOp34
 70
     1
102
RTVSPropertyOp35
 70
     1
102
RTVSPropertyOp36
 70
     1
102
RTVSPropertyOp37
 70
     1
102
RTVSPropertyOp38
 70
     1
102
RTVSPropertyOp39
 70
     1
102
RTVSPropertyOp40
 70
     1
102
RTVSPropertyOp41
 70
     1
102
RTVSPropertyOp42
 70
     1
102
RTVSPropertyOp43
 70
     1
102
RTVSPropertyOp44
 70
     1
102
RTVSPropertyOp45
 70
     1
102
RTVSPropertyOp46
 70
     1
102
RTVSPropertyOp47
 70
     1
102
RTVSPropertyOp48
 70
     1
102
RTVSPropertyOp49
 70
     1
102
RTVSPropertyOp50
 70
     1
102
RTVSPropertyOp51
 70
     0
102
RTVSPropertyOp52
 70
     0
102
RTVSPropertyOp53
 70
     1
102
RTVSPropertyOp54
 70
     1
102
RTVSPropertyOp55
 70
     1
102
RTVSPropertyOp56
 70
     1
102
RTVSPropertyOp57
 70
     1
102
RTVSPropertyOp58
 70
     1
102
RTVSPropertyOp59
 70
     1
102
RTVSPropertyOp60
 70
     1
102
RTVSPropertyOp61
 70
     1
102
RTVSPropertyOp62
 70
     1
  0
ENDSEC
  0
EOF
