  0
SECTION
  2
HEADER
  9
$ACADVER
  1
AC1015
  9
$ACADMAINTVER
 70
    20
  9
$DWGCODEPAGE
  3
ANSI_932
  9
$INSBASE
 10
0.0
 20
0.0
 30
0.0
  9
$EXTMIN
 10
9.99995
 20
9.999999999999998
 30
0.0
  9
$EXTMAX
 10
599.0
 20
411.999992
 30
0.0
  9
$LIMMIN
 10
0.0
 20
0.0
  9
$LIMMAX
 10
633.6
 20
436.8
  9
$ORTHOMODE
 70
     1
  9
$REGENMODE
 70
     1
  9
$FILLMODE
 70
     1
  9
$QTEXTMODE
 70
     0
  9
$MIRRTEXT
 70
     1
  9
$LTSCALE
 40
20.0
  9
$ATTMODE
 70
     1
  9
$TEXTSIZE
 40
5.0
  9
$TRACEWID
 40
1.0
  9
$TEXTSTYLE
  7
STANDARD
  9
$CLAYER
  8
0
  9
$CELTYPE
  6
BYLAYER
  9
$CECOLOR
 62
   256
  9
$CELTSCALE
 40
1.0
  9
$DISPSILH
 70
     0
  9
$DIMSCALE
 40
1.0
  9
$DIMASZ
 40
3.0
  9
$DIMEXO
 40
1.0
  9
$DIMDLI
 40
10.0
  9
$DIMRND
 40
0.0
  9
$DIMDLE
 40
0.0
  9
$DIMEXE
 40
1.0
  9
$DIMTP
 40
0.0
  9
$DIMTM
 40
0.0
  9
$DIMTXT
 40
3.2
  9
$DIMCEN
 40
0.0
  9
$DIMTSZ
 40
0.0
  9
$DIMTOL
 70
     0
  9
$DIMLIM
 70
     0
  9
$DIMTIH
 70
     0
  9
$DIMTOH
 70
     0
  9
$DIMSE1
 70
     0
  9
$DIMSE2
 70
     0
  9
$DIMTAD
 70
     3
  9
$DIMZIN
 70
     8
  9
$DIMBLK
  1

  9
$DIMASO
 70
     1
  9
$DIMSHO
 70
     1
  9
$DIMPOST
  1

  9
$DIMAPOST
  1

  9
$DIMALT
 70
     0
  9
$DIMALTD
 70
     2
  9
$DIMALTF
 40
25.4
  9
$DIMLFAC
 40
1.0
  9
$DIMTOFL
 70
     1
  9
$DIMTVP
 40
0.0
  9
$DIMTIX
 70
     0
  9
$DIMSOXD
 70
     0
  9
$DIMSAH
 70
     1
  9
$DIMBLK1
  1
OPEN
  9
$DIMBLK2
  1
OPEN
  9
$DIMSTYLE
  2
STANDARD
  9
$DIMCLRD
 70
     0
  9
$DIMCLRE
 70
     0
  9
$DIMCLRT
 70
     0
  9
$DIMTFAC
 40
1.0
  9
$DIMGAP
 40
1.0
  9
$DIMJUST
 70
     0
  9
$DIMSD1
 70
     0
  9
$DIMSD2
 70
     0
  9
$DIMTOLJ
 70
     1
  9
$DIMTZIN
 70
     0
  9
$DIMALTZ
 70
     0
  9
$DIMALTTZ
 70
     0
  9
$DIMUPT
 70
     0
  9
$DIMDEC
 70
     4
  9
$DIMTDEC
 70
     4
  9
$DIMALTU
 70
     2
  9
$DIMALTTD
 70
     2
  9
$DIMTXSTY
  7
STANDARD
  9
$DIMAUNIT
 70
     0
  9
$DIMADEC
 70
     0
  9
$DIMALTRND
 40
0.0
  9
$DIMAZIN
 70
     0
  9
$DIMDSEP
 70
    46
  9
$DIMATFIT
 70
     3
  9
$DIMFRAC
 70
     0
  9
$DIMLDRBLK
  1
OPEN
  9
$DIMLUNIT
 70
     2
  9
$DIMLWD
 70
    -2
  9
$DIMLWE
 70
    -2
  9
$DIMTMOVE
 70
     0
  9
$LUNITS
 70
     2
  9
$LUPREC
 70
     4
  9
$SKETCHINC
 40
1.0
  9
$FILLETRAD
 40
1.5
  9
$AUNITS
 70
     0
  9
$AUPREC
 70
     2
  9
$MENU
  1
.
  9
$ELEVATION
 40
0.0
  9
$PELEVATION
 40
0.0
  9
$THICKNESS
 40
0.0
  9
$LIMCHECK
 70
     0
  9
$CHAMFERA
 40
10.0
  9
$CHAMFERB
 40
10.0
  9
$CHAMFERC
 40
0.0
  9
$CHAMFERD
 40
0.0
  9
$SKPOLY
 70
     0
  9
$TDCREATE
 40
2451302.610219676
  9
$TDUCREATE
 40
2451302.235219676
  9
$TDUPDATE
 40
2457192.687079619
  9
$TDUUPDATE
 40
2457192.312079618
  9
$TDINDWG
 40
0.0000100231
  9
$TDUSRTIMER
 40
0.0000097222
  9
$USRTIMER
 70
     1
  9
$ANGBASE
 50
0.0
  9
$ANGDIR
 70
     0
  9
$PDMODE
 70
    34
  9
$PDSIZE
 40
0.0
  9
$PLINEWID
 40
0.0
  9
$SPLFRAME
 70
     0
  9
$SPLINETYPE
 70
     6
  9
$SPLINESEGS
 70
     8
  9
$HANDSEED
  5
1ABE8
  9
$SURFTAB1
 70
     6
  9
$SURFTAB2
 70
     6
  9
$SURFTYPE
 70
     6
  9
$SURFU
 70
     6
  9
$SURFV
 70
     6
  9
$UCSBASE
  2

  9
$UCSNAME
  2

  9
$UCSORG
 10
0.0
 20
0.0
 30
0.0
  9
$UCSXDIR
 10
1.0
 20
0.0
 30
0.0
  9
$UCSYDIR
 10
0.0
 20
1.0
 30
0.0
  9
$UCSORTHOREF
  2

  9
$UCSORTHOVIEW
 70
     0
  9
$UCSORGTOP
 10
0.0
 20
0.0
 30
0.0
  9
$UCSORGBOTTOM
 10
0.0
 20
0.0
 30
0.0
  9
$UCSORGLEFT
 10
0.0
 20
0.0
 30
0.0
  9
$UCSORGRIGHT
 10
0.0
 20
0.0
 30
0.0
  9
$UCSORGFRONT
 10
0.0
 20
0.0
 30
0.0
  9
$UCSORGBACK
 10
0.0
 20
0.0
 30
0.0
  9
$PUCSBASE
  2

  9
$PUCSNAME
  2

  9
$PUCSORG
 10
0.0
 20
0.0
 30
0.0
  9
$PUCSXDIR
 10
1.0
 20
0.0
 30
0.0
  9
$PUCSYDIR
 10
0.0
 20
1.0
 30
0.0
  9
$PUCSORTHOREF
  2

  9
$PUCSORTHOVIEW
 70
     0
  9
$PUCSORGTOP
 10
0.0
 20
0.0
 30
0.0
  9
$PUCSORGBOTTOM
 10
0.0
 20
0.0
 30
0.0
  9
$PUCSORGLEFT
 10
0.0
 20
0.0
 30
0.0
  9
$PUCSORGRIGHT
 10
0.0
 20
0.0
 30
0.0
  9
$PUCSORGFRONT
 10
0.0
 20
0.0
 30
0.0
  9
$PUCSORGBACK
 10
0.0
 20
0.0
 30
0.0
  9
$USERI1
 70
     0
  9
$USERI2
 70
     0
  9
$USERI3
 70
     0
  9
$USERI4
 70
     0
  9
$USERI5
 70
     0
  9
$USERR1
 40
0.0
  9
$USERR2
 40
0.0
  9
$USERR3
 40
0.0
  9
$USERR4
 40
0.0
  9
$USERR5
 40
0.0
  9
$WORLDVIEW
 70
     1
  9
$SHADEDGE
 70
     3
  9
$SHADEDIF
 70
    70
  9
$TILEMODE
 70
     1
  9
$MAXACTVP
 70
    16
  9
$PINSBASE
 10
0.0
 20
0.0
 30
0.0
  9
$PLIMCHECK
 70
     0
  9
$PEXTMIN
 10
1.000000000000000E+20
 20
1.000000000000000E+20
 30
1.000000000000000E+20
  9
$PEXTMAX
 10
-1.000000000000000E+20
 20
-1.000000000000000E+20
 30
-1.000000000000000E+20
  9
$PLIMMIN
 10
0.0
 20
0.0
  9
$PLIMMAX
 10
420.0
 20
297.0
  9
$UNITMODE
 70
     0
  9
$VISRETAIN
 70
     0
  9
$PLINEGEN
 70
     0
  9
$PSLTSCALE
 70
     0
  9
$TREEDEPTH
 70
  3020
  9
$CMLSTYLE
  2
STANDARD
  9
$CMLJUST
 70
     0
  9
$CMLSCALE
 40
1.0
  9
$PROXYGRAPHICS
 70
     1
  9
$MEASUREMENT
 70
     0
  9
$CELWEIGHT
370
    -1
  9
$ENDCAPS
280
     0
  9
$JOINSTYLE
280
     0
  9
$LWDISPLAY
290
     0
  9
$INSUNITS
 70
     0
  9
$HYPERLINKBASE
  1

  9
$STYLESHEET
  1

  9
$XEDIT
290
     1
  9
$CEPSNTYPE
380
     0
  9
$PSTYLEMODE
290
     1
  9
$FINGERPRINTGUID
  2
{3888DC03-AFC5-4850-995B-802AAE9BE19E}
  9
$VERSIONGUID
  2
{9241B81B-A003-4696-BBFD-6F0FD400EFDB}
  9
$EXTNAMES
290
     1
  9
$PSVPSCALE
 40
0.0
  9
$OLESTARTUP
290
     0
  0
ENDSEC
  0
SECTION
  2
CLASSES
  0
CLASS
  1
ACDBDICTIONARYWDFLT
  2
AcDbDictionaryWithDefault
  3
ObjectDBX Classes
 90
        0
280
     0
281
     0
  0
CLASS
  1
ACDBPLACEHOLDER
  2
AcDbPlaceHolder
  3
ObjectDBX Classes
 90
        0
280
     0
281
     0
  0
CLASS
  1
LAYOUT
  2
AcDbLayout
  3
ObjectDBX Classes
 90
        0
280
     0
281
     0
  0
CLASS
  1
DICTIONARYVAR
  2
AcDbDictionaryVar
  3
ObjectDBX Classes
 90
        0
280
     0
281
     0
  0
CLASS
  1
MATERIAL
  2
AcDbMaterial
  3
ObjectDBX Classes
 90
     1153
280
     0
281
     0
  0
CLASS
  1
VISUALSTYLE
  2
AcDbVisualStyle
  3
ObjectDBX Classes
 90
     4095
280
     0
281
     0
  0
CLASS
  1
TABLESTYLE
  2
AcDbTableStyle
  3
ObjectDBX Classes
 90
     4095
280
     0
281
     0
  0
CLASS
  1
SCALE
  2
AcDbScale
  3
ObjectDBX Classes
 90
     1153
280
     0
281
     0
  0
CLASS
  1
MLEADERSTYLE
  2
AcDbMLeaderStyle
  3
ACDB_MLEADERSTYLE_CLASS
 90
     4095
280
     0
281
     0
  0
CLASS
  1
ACDBSECTIONVIEWSTYLE
  2
AcDbSectionViewStyle
  3
ObjectDBX Classes
 90
     1025
280
     0
281
     0
  0
CLASS
  1
ACDBDETAILVIEWSTYLE
  2
AcDbDetailViewStyle
  3
ObjectDBX Classes
 90
     1025
280
     0
281
     0
  0
CLASS
  1
CELLSTYLEMAP
  2
AcDbCellStyleMap
  3
ObjectDBX Classes
 90
     1152
280
     0
281
     0
  0
ENDSEC
  0
SECTION
  2
TABLES
  0
TABLE
  2
VPORT
  5
1A95A
330
0
100
AcDbSymbolTable
 70
     1
  0
VPORT
  5
1AB31
330
1A95A
100
AcDbSymbolTableRecord
100
AcDbViewportTableRecord
  2
*ACTIVE
 70
     0
 10
0.0
 20
0.0
 11
1.0
 21
1.0
 12
426.2667056379191
 22
211.0018076490167
 13
0.0
 23
0.0
 14
10.0
 24
10.0
 15
10.0
 25
10.0
 16
0.0
 26
0.0
 36
1.0
 17
0.0
 27
0.0
 37
0.0
 40
406.4775336262083
 41
2.35006605019815
 42
50.0
 43
0.0
 44
0.0
 50
0.0
 51
0.0
 71
     0
 72
   100
 73
     1
 74
     0
 75
     0
 76
     0
 77
     0
 78
     0
281
     0
 65
     1
110
0.0
120
0.0
130
0.0
111
1.0
121
0.0
131
0.0
112
0.0
122
1.0
132
0.0
 79
     0
146
0.0
1001
ACAD_NAV_VCDISPLAY
1070
     3
  0
ENDTAB
  0
TABLE
  2
LTYPE
  5
1A957
330
0
100
AcDbSymbolTable
 70
     4
  0
LTYPE
  5
1A965
330
1A957
100
AcDbSymbolTableRecord
100
AcDbLinetypeTableRecord
  2
BYBLOCK
 70
     0
  3

 72
    65
 73
     0
 40
0.0
  0
LTYPE
  5
1A966
330
1A957
100
AcDbSymbolTableRecord
100
AcDbLinetypeTableRecord
  2
BYLAYER
 70
     0
  3

 72
    65
 73
     0
 40
0.0
  0
LTYPE
  5
1A967
330
1A957
100
AcDbSymbolTableRecord
100
AcDbLinetypeTableRecord
  2
CONTINUOUS
 70
     0
  3
Solid line
 72
    65
 73
     0
 40
0.0
  0
LTYPE
  5
1A975
330
1A957
100
AcDbSymbolTableRecord
100
AcDbLinetypeTableRecord
  2
DASHED
 70
     0
  3
__ __ __ __ __ __ __ __ __ __ __ __ __ __ __ __
 72
    65
 73
     2
 40
0.75
 49
0.5
 74
     0
 49
-0.25
 74
     0
  0
LTYPE
  5
1A976
330
1A957
100
AcDbSymbolTableRecord
100
AcDbLinetypeTableRecord
  2
CENTER
 70
     0
  3
____ _ ____ _ ____ _ ____ _ ____ _ ____ _ ____ 
 72
    65
 73
     4
 40
2.0
 49
1.25
 74
     0
 49
-0.25
 74
     0
 49
0.25
 74
     0
 49
-0.25
 74
     0
  0
LTYPE
  5
1A977
330
1A957
100
AcDbSymbolTableRecord
100
AcDbLinetypeTableRecord
  2
PHANTOM
 70
     0
  3
______  __  __  ______  __  __  ______  __  __ 
 72
    65
 73
     6
 40
2.5
 49
1.25
 74
     0
 49
-0.25
 74
     0
 49
0.25
 74
     0
 49
-0.25
 74
     0
 49
0.25
 74
     0
 49
-0.25
 74
     0
  0
ENDTAB
  0
TABLE
  2
LAYER
  5
1A954
330
0
100
AcDbSymbolTable
 70
     8
  0
LAYER
  5
1A962
102
{ACAD_XDICTIONARY
360
1AB8C
102
}
330
1A954
100
AcDbSymbolTableRecord
100
AcDbLayerTableRecord
  2
0
 70
     0
 62
     7
  6
CONTINUOUS
370
    -3
390
1AB3A
  0
LAYER
  5
1A978
102
{ACAD_XDICTIONARY
360
1AB8E
102
}
330
1A954
100
AcDbSymbolTableRecord
100
AcDbLayerTableRecord
  2
4
 70
     0
 62
     1
  6
CENTER
370
    -3
390
1AB3A
  0
LAYER
  5
1A979
102
{ACAD_XDICTIONARY
360
1AB90
102
}
330
1A954
100
AcDbSymbolTableRecord
100
AcDbLayerTableRecord
  2
5
 70
     0
 62
     6
  6
PHANTOM
370
    -3
390
1AB3A
  0
LAYER
  5
1A97A
102
{ACAD_XDICTIONARY
360
1AB92
102
}
330
1A954
100
AcDbSymbolTableRecord
100
AcDbLayerTableRecord
  2
1
 70
     0
 62
     7
  6
CONTINUOUS
370
    -3
390
1AB3A
  0
LAYER
  5
1A97B
102
{ACAD_XDICTIONARY
360
1AB94
102
}
330
1A954
100
AcDbSymbolTableRecord
100
AcDbLayerTableRecord
  2
2
 70
     0
 62
     4
  6
CONTINUOUS
370
    -3
390
1AB3A
  0
LAYER
  5
1A97C
102
{ACAD_XDICTIONARY
360
1AB96
102
}
330
1A954
100
AcDbSymbolTableRecord
100
AcDbLayerTableRecord
  2
3
 70
     0
 62
     2
  6
DASHED
370
    -3
390
1AB3A
  0
LAYER
  5
1A97D
102
{ACAD_XDICTIONARY
360
1AB98
102
}
330
1A954
100
AcDbSymbolTableRecord
100
AcDbLayerTableRecord
  2
6
 70
     0
 62
     5
  6
CONTINUOUS
370
    -3
390
1AB3A
  0
LAYER
  5
1A97E
102
{ACAD_XDICTIONARY
360
1AB9A
102
}
330
1A954
100
AcDbSymbolTableRecord
100
AcDbLayerTableRecord
  2
7
 70
     0
 62
     3
  6
CONTINUOUS
370
    -3
390
1AB3A
  0
ENDTAB
  0
TABLE
  2
STYLE
  5
1A955
330
0
100
AcDbSymbolTable
 70
     1
  0
STYLE
  5
1A963
330
1A955
100
AcDbSymbolTableRecord
100
AcDbTextStyleTableRecord
  2
STANDARD
 70
     0
 40
0.0
 41
1.0
 50
0.0
 71
     0
 42
5.0
  3
txt
  4

  0
ENDTAB
  0
TABLE
  2
VIEW
  5
1A958
330
0
100
AcDbSymbolTable
 70
     2
  0
VIEW
  5
1A97F
330
1A958
100
AcDbSymbolTableRecord
100
AcDbViewTableRecord
  2
7
 70
     0
 40
436.081878
 10
420.0675719999998
 20
218.040939
 41
840.1351429999998
 11
0.0
 21
0.0
 31
1.0
 12
0.0
 22
0.0
 32
0.0
 42
50.0
 43
0.0
 44
0.0
 50
0.0
 71
     0
281
     0
 72
     0
  0
VIEW
  5
1A980
330
1A958
100
AcDbSymbolTableRecord
100
AcDbViewTableRecord
  2
6
 70
     0
 40
267.146964
 10
253.9720659999999
 20
125.781695
 41
526.35887
 11
0.0
 21
0.0
 31
1.0
 12
0.0
 22
0.0
 32
0.0
 42
50.0
 43
0.0
 44
0.0
 50
0.0
 71
     0
281
     0
 72
     0
  0
ENDTAB
  0
TABLE
  2
UCS
  5
1A959
330
0
100
AcDbSymbolTable
 70
     0
  0
ENDTAB
  0
TABLE
  2
APPID
  5
1A95B
330
0
100
AcDbSymbolTable
 70
     3
  0
APPID
  5
1A964
330
1A95B
100
AcDbSymbolTableRecord
100
AcDbRegAppTableRecord
  2
ACAD
 70
     0
  0
APPID
  5
1ABA6
330
1A95B
100
AcDbSymbolTableRecord
100
AcDbRegAppTableRecord
  2
ACAD_NAV_VCDISPLAY
 70
     0
  0
APPID
  5
1ABDF
330
1A95B
100
AcDbSymbolTableRecord
100
AcDbRegAppTableRecord
  2
ACAD_MLEADERVER
 70
     0
  0
ENDTAB
  0
TABLE
  2
DIMSTYLE
  5
1A95C
330
0
100
AcDbSymbolTable
 70
     1
100
AcDbDimStyleTable
 71
     0
  0
DIMSTYLE
105
1A982
330
1A95C
100
AcDbSymbolTableRecord
100
AcDbDimStyleTableRecord
  2
STANDARD
 70
     0
 41
3.0
 42
1.0
 43
10.0
 44
1.0
 73
     0
 74
     0
 77
     3
 78
     8
140
3.2
141
0.0
147
1.0
172
     1
173
     1
284
     8
285
     8
286
     8
340
1A963
  0
ENDTAB
  0
TABLE
  2
BLOCK_RECORD
  5
1A953
330
0
100
AcDbSymbolTable
 70
     1
  0
BLOCK_RECORD
  5
1A970
102
{ACAD_XDICTIONARY
360
1AB34
102
}
330
1A953
100
AcDbSymbolTableRecord
100
AcDbBlockTableRecord
  2
*MODEL_SPACE
340
1AB88
  0
BLOCK_RECORD
  5
1A96C
102
{ACAD_XDICTIONARY
360
1AB32
102
}
330
1A953
100
AcDbSymbolTableRecord
100
AcDbBlockTableRecord
  2
*PAPER_SPACE
340
1AB89
  0
BLOCK_RECORD
  5
1A98A
330
1A953
100
AcDbSymbolTableRecord
100
AcDbBlockTableRecord
  2
_OPEN
340
0
  0
ENDTAB
  0
ENDSEC
  0
SECTION
  2
BLOCKS
  0
BLOCK
  5
1A971
330
1A970
100
AcDbEntity
  8
0
100
AcDbBlockBegin
  2
*MODEL_SPACE
 70
     0
 10
0.0
 20
0.0
 30
0.0
  3
*MODEL_SPACE
  1

  0
ENDBLK
  5
1A972
330
1A970
100
AcDbEntity
  8
0
100
AcDbBlockEnd
  0
BLOCK
  5
1A96D
330
1A96C
100
AcDbEntity
 67
     1
  8
0
100
AcDbBlockBegin
  2
*PAPER_SPACE
 70
     0
 10
0.0
 20
0.0
 30
0.0
  3
*PAPER_SPACE
  1

  0
ENDBLK
  5
1A96E
330
1A96C
100
AcDbEntity
 67
     1
  8
0
100
AcDbBlockEnd
  0
BLOCK
  5
1A98B
330
1A98A
100
AcDbEntity
  8
0
100
AcDbBlockBegin
  2
_OPEN
 70
     0
 10
0.0
 20
0.0
 30
0.0
  3
_OPEN
  1

  0
LINE
  5
1A98C
330
1A98A
100
AcDbEntity
  8
0
  6
ByBlock
 62
     0
100
AcDbLine
 10
-1.0
 20
0.166667
 30
0.0
 11
0.0
 21
0.0
 31
0.0
  0
LINE
  5
1A98D
330
1A98A
100
AcDbEntity
  8
0
  6
ByBlock
 62
     0
100
AcDbLine
 10
0.0
 20
0.0
 30
0.0
 11
-1.0
 21
-0.166667
 31
0.0
  0
LINE
  5
1A98E
330
1A98A
100
AcDbEntity
  8
0
  6
ByBlock
 62
     0
100
AcDbLine
 10
0.0
 20
0.0
 30
0.0
 11
-1.0
 21
0.0
 31
0.0
  0
ENDBLK
  5
1A98F
330
1A98A
100
AcDbEntity
  8
0
100
AcDbBlockEnd
  0
ENDSEC
  0
SECTION
  2
ENTITIES
  0
TEXT
  5
1A990
330
1A970
100
AcDbEntity
  8
6
  6
Continuous
100
AcDbText
 10
27.97945
 20
10.0487
 30
0.0
 40
1.399999999999999
  1
6
 41
1.069393
100
AcDbText
  0
TEXT
  5
1A991
330
1A970
100
AcDbEntity
  8
1
  6
Continuous
100
AcDbText
 10
17.97945
 20
10.0487
 30
0.0
 40
1.399999999999999
  1
1
 41
1.069393
100
AcDbText
  0
TEXT
  5
1A992
330
1A970
100
AcDbEntity
  8
1
  6
Continuous
100
AcDbText
 10
9.99995
 20
10.0
 30
0.0
 40
1.399999999999999
  1
LAYER
 41
1.009912999999997
100
AcDbText
  0
TEXT
  5
1A993
330
1A970
100
AcDbEntity
  8
2
  6
Continuous
100
AcDbText
 10
19.97944999999998
 20
10.0487
 30
0.0
 40
1.399999999999999
  1
2
 41
1.069393
100
AcDbText
  0
TEXT
  5
1A994
330
1A970
100
AcDbEntity
  8
3
  6
DASHED
100
AcDbText
 10
21.97945
 20
10.0487
 30
0.0
 40
1.399999999999999
  1
3
 41
1.069393
100
AcDbText
  0
TEXT
  5
1A995
330
1A970
100
AcDbEntity
  8
4
  6
CENTER
100
AcDbText
 10
23.97944999999999
 20
10.0487
 30
0.0
 40
1.399999999999999
  1
4
 41
1.069393
100
AcDbText
  0
TEXT
  5
1A996
330
1A970
100
AcDbEntity
  8
5
  6
PHANTOM
100
AcDbText
 10
25.97945
 20
10.0487
 30
0.0
 40
1.399999999999999
  1
5
 41
1.069393
100
AcDbText
  0
TEXT
  5
1A997
330
1A970
100
AcDbEntity
  8
7
  6
Continuous
100
AcDbText
 10
10.00005
 20
26.0
 30
0.0
 40
3.0
  1
CODE No.19083
 41
1.003962999999999
100
AcDbText
  0
TEXT
  5
1A998
330
1A970
100
AcDbEntity
  8
7
  6
Continuous
100
AcDbText
 10
10.00005
 20
18.0
 30
0.0
 40
3.0
  1
TYPE No.106HB2-EP
 41
1.002350999999998
100
AcDbText
  0
TEXT
  5
1A999
330
1A970
100
AcDbEntity
  8
7
  6
Continuous
100
AcDbText
 10
29.97944999999999
 20
10.0487
 30
0.0
 40
1.399999999999999
  1
7
 41
1.069393
100
AcDbText
  0
LINE
  5
1A99A
330
1A970
100
AcDbEntity
  8
1
  6
Continuous
100
AcDbLine
 10
579.4999999999999
 20
273.7999919999999
 30
0.0
 11
489.5
 21
273.7999919999999
 31
0.0
  0
LINE
  5
1A99B
330
1A970
100
AcDbEntity
  8
1
  6
Continuous
100
AcDbLine
 10
579.4999999999999
 20
276.999992
 30
0.0
 11
489.5
 21
276.999992
 31
0.0
  0
LINE
  5
1A99C
330
1A970
100
AcDbEntity
  8
1
  6
Continuous
100
AcDbLine
 10
501.472136
 20
268.7999919999999
 30
0.0
 11
567.527864
 21
268.7999919999999
 31
0.0
  0
LINE
  5
1A99D
330
1A970
100
AcDbEntity
  8
1
  6
Continuous
100
AcDbLine
 10
504.4999999999998
 20
262.7999919999999
 30
0.0
 11
564.5
 21
262.7999919999999
 31
0.0
  0
ARC
  5
1A99E
330
1A970
100
AcDbEntity
  8
1
  6
Continuous
100
AcDbCircle
 10
570.430008
 20
256.61154
 30
0.0
 40
67.050972
100
AcDbArc
 50
189.3126209999999
 51
245.905047
  0
LINE
  5
1A99F
330
1A970
100
AcDbEntity
  8
1
  6
Continuous
100
AcDbLine
 10
279.4999999999999
 20
326.999992
 30
0.0
 11
279.4999999999999
 21
396.999992
 31
0.0
  0
CIRCLE
  5
1A9A0
330
1A970
100
AcDbEntity
  8
1
  6
Continuous
100
AcDbCircle
 10
234.5
 20
361.999992
 30
0.0
 40
15.75
  0
CIRCLE
  5
1A9A1
330
1A970
100
AcDbEntity
  8
1
  6
Continuous
100
AcDbCircle
 10
234.5
 20
361.999992
 30
0.0
 40
33.5
  0
CIRCLE
  5
1A9A2
330
1A970
100
AcDbEntity
  8
1
  6
Continuous
100
AcDbCircle
 10
234.5
 20
361.999992
 30
0.0
 40
31.0
  0
LINE
  5
1A9A3
330
1A970
100
AcDbEntity
  8
4
  6
CENTER
100
AcDbLine
 10
234.5
 20
411.999992
 30
0.0
 11
234.5
 21
311.999992
 31
0.0
  0
LINE
  5
1A9A4
330
1A970
100
AcDbEntity
  8
1
  6
Continuous
100
AcDbLine
 10
189.4999999999998
 20
326.999992
 30
0.0
 11
189.4999999999998
 21
396.999992
 31
0.0
  0
ARC
  5
1A9A5
330
1A970
100
AcDbEntity
  8
1
  6
Continuous
100
AcDbCircle
 10
198.5699919999999
 20
256.61154
 30
0.0
 40
67.050972
100
AcDbArc
 50
294.0949529999999
 51
350.687379
  0
LINE
  5
1A9A6
330
1A970
100
AcDbEntity
  8
1
  6
Continuous
100
AcDbLine
 10
269.4999999999998
 20
316.999992
 30
0.0
 11
199.5
 21
316.999992
 31
0.0
  0
LINE
  5
1A9A7
330
1A970
100
AcDbEntity
  8
1
  6
Continuous
100
AcDbLine
 10
264.5
 20
262.7999919999999
 30
0.0
 11
204.4999999999999
 21
262.7999919999999
 31
0.0
  0
LINE
  5
1A9A8
330
1A970
100
AcDbEntity
  8
1
  6
Continuous
100
AcDbLine
 10
267.527864
 20
268.7999919999999
 30
0.0
 11
201.472136
 21
268.7999919999999
 31
0.0
  0
LINE
  5
1A9A9
330
1A970
100
AcDbEntity
  8
1
  6
Continuous
100
AcDbLine
 10
189.4999999999998
 20
276.999992
 30
0.0
 11
279.4999999999999
 21
276.999992
 31
0.0
  0
LINE
  5
1A9AA
330
1A970
100
AcDbEntity
  8
1
  6
Continuous
100
AcDbLine
 10
189.4999999999998
 20
273.7999919999999
 30
0.0
 11
279.4999999999999
 21
273.7999919999999
 31
0.0
  0
ARC
  5
1A9AB
330
1A970
100
AcDbEntity
  8
1
  6
Continuous
100
AcDbCircle
 10
212.5
 20
208.499992
 30
0.0
 40
37.5
100
AcDbArc
 50
86.53393800000001
 51
7.253226999999998
  0
LINE
  5
1A9AC
330
1A970
100
AcDbEntity
  8
4
  6
CENTER
100
AcDbLine
 10
212.5
 20
165.9999919999999
 30
0.0
 11
212.5
 21
250.9999919999999
 31
0.0
  0
LINE
  5
1A9AD
330
1A970
100
AcDbEntity
  8
1
  6
Continuous
100
AcDbLine
 10
204.4999999999999
 20
265.7999919999999
 30
0.0
 11
204.4999999999999
 21
262.7999919999999
 31
0.0
  0
LINE
  5
1A9AE
330
1A970
100
AcDbEntity
  8
4
  6
CENTER
100
AcDbLine
 10
234.5
 20
281.999992
 30
0.0
 11
234.5
 21
194.1585409999999
 31
0.0
  0
ARC
  5
1A9AF
330
1A970
100
AcDbEntity
  8
1
  6
Continuous
100
AcDbCircle
 10
210.0
 20
208.499992
 30
0.0
 40
16.5
100
AcDbArc
 50
127.391345
 51
270.0
  0
LINE
  5
1A9B0
330
1A970
100
AcDbEntity
  8
4
  6
CENTER
100
AcDbLine
 10
170.0
 20
208.499992
 30
0.0
 11
255.0
 21
208.499992
 31
0.0
  0
LINE
  5
1A9B1
330
1A970
100
AcDbEntity
  8
1
  6
Continuous
100
AcDbLine
 10
216.5
 20
250.4999919999999
 30
0.0
 11
228.0
 21
200.9999919999999
 31
0.0
  0
ARC
  5
1A9B2
330
1A970
100
AcDbEntity
  8
1
  6
Continuous
100
AcDbCircle
 10
210.0
 20
231.0533969999999
 30
0.0
 40
39.05340499999999
100
AcDbArc
 50
270.0
 51
294.0949529999999
  0
LINE
  5
1A9B3
330
1A970
100
AcDbEntity
  8
1
  6
Continuous
100
AcDbLine
 10
212.5
 20
218.314947
 30
0.0
 11
204.0
 21
213.4074689999999
 31
0.0
  0
LINE
  5
1A9B4
330
1A970
100
AcDbEntity
  8
1
  6
Continuous
100
AcDbLine
 10
204.0
 20
203.5925149999999
 30
0.0
 11
212.5
 21
198.6850379999999
 31
0.0
  0
CIRCLE
  5
1A9B5
330
1A970
100
AcDbEntity
  8
1
  6
Continuous
100
AcDbCircle
 10
212.5
 20
208.499992
 30
0.0
 40
8.5
  0
CIRCLE
  5
1A9B6
330
1A970
100
AcDbEntity
  8
1
  6
Continuous
100
AcDbCircle
 10
212.5
 20
208.499992
 30
0.0
 40
10.5
  0
CIRCLE
  5
1A9B7
330
1A970
100
AcDbEntity
  8
1
  6
Continuous
100
AcDbCircle
 10
212.5
 20
208.499992
 30
0.0
 40
6.0
  0
LINE
  5
1A9B8
330
1A970
100
AcDbEntity
  8
1
  6
Continuous
100
AcDbLine
 10
204.0
 20
203.5925149999999
 30
0.0
 11
204.0
 21
213.4074689999999
 31
0.0
  0
LINE
  5
1A9B9
330
1A970
100
AcDbEntity
  8
1
  6
Continuous
100
AcDbLine
 10
221.0
 20
203.5925149999999
 30
0.0
 11
221.0
 21
213.4074689999999
 31
0.0
  0
LINE
  5
1A9BA
330
1A970
100
AcDbEntity
  8
1
  6
Continuous
100
AcDbLine
 10
212.5
 20
218.314947
 30
0.0
 11
221.0
 21
213.4074689999999
 31
0.0
  0
LINE
  5
1A9BB
330
1A970
100
AcDbEntity
  8
1
  6
Continuous
100
AcDbLine
 10
221.0
 20
203.5925149999999
 30
0.0
 11
212.5
 21
198.6850379999999
 31
0.0
  0
CIRCLE
  5
1A9BC
330
1A970
100
AcDbEntity
  8
2
  6
Continuous
100
AcDbCircle
 10
212.5
 20
208.499992
 30
0.0
 40
5.052999999999999
  0
ARC
  5
1A9BD
330
1A970
100
AcDbEntity
  8
1
  6
Continuous
100
AcDbCircle
 10
200.55608
 20
240.929089
 30
0.0
 40
15.0
100
AcDbArc
 50
307.391345
 51
14.03624299999999
  0
LINE
  5
1A9BE
330
1A970
100
AcDbEntity
  8
1
  6
Continuous
100
AcDbLine
 10
199.980279
 20
221.609347
 30
0.0
 11
209.664917
 21
229.011494
 31
0.0
  0
LINE
  5
1A9BF
330
1A970
100
AcDbEntity
  8
1
  6
Continuous
100
AcDbLine
 10
204.4999999999999
 20
250.9999919999999
 30
0.0
 11
210.376894
 21
250.9999919999999
 31
0.0
  0
ARC
  5
1A9C0
330
1A970
100
AcDbEntity
  8
1
  6
Continuous
100
AcDbCircle
 10
205.7021839999999
 20
259.7999919999999
 30
0.0
 40
3.0
100
AcDbArc
 50
90.0
 51
191.962051
  0
LINE
  5
1A9C1
330
1A970
100
AcDbEntity
  8
1
  6
Continuous
100
AcDbLine
 10
202.767329
 20
259.178201
 30
0.0
 11
204.4999999999999
 21
250.9999919999999
 31
0.0
  0
ARC
  5
1A9C2
330
1A970
100
AcDbEntity
  8
1
  6
Continuous
100
AcDbCircle
 10
210.376894
 20
246.9999919999999
 30
0.0
 40
4.0
100
AcDbArc
 50
14.03624299999999
 51
90.0
  0
LINE
  5
1A9C3
330
1A970
100
AcDbEntity
  8
1
  6
Continuous
100
AcDbLine
 10
214.257464
 20
247.9701339999998
 30
0.0
 11
215.108217
 21
244.567124
 31
0.0
  0
ARC
  5
1A9C4
330
1A970
100
AcDbEntity
  8
1
  6
Continuous
100
AcDbCircle
 10
199.5
 20
326.999992
 30
0.0
 40
10.0
100
AcDbArc
 50
180.0
 51
270.0
  0
LINE
  5
1A9C5
330
1A970
100
AcDbEntity
  8
4
  6
CENTER
100
AcDbLine
 10
188.75
 20
326.499992
 30
0.0
 11
209.25
 21
326.499992
 31
0.0
  0
LINE
  5
1A9C6
330
1A970
100
AcDbEntity
  8
1
  6
Continuous
100
AcDbLine
 10
189.4999999999998
 20
276.999992
 30
0.0
 11
189.4999999999998
 21
273.7999919999999
 31
0.0
  0
ARC
  5
1A9C7
330
1A970
100
AcDbEntity
  8
1
  6
Continuous
100
AcDbCircle
 10
207.5
 20
265.7999919999999
 30
0.0
 40
3.0
100
AcDbArc
 50
90.0
 51
180.0
  0
LINE
  5
1A9C8
330
1A970
100
AcDbEntity
  8
4
  6
CENTER
100
AcDbLine
 10
199.0
 20
280.199992
 30
0.0
 11
199.0
 21
270.599992
 31
0.0
  0
LINE
  5
1A9C9
330
1A970
100
AcDbEntity
  8
1
  6
Continuous
100
AcDbLine
 10
196.5
 20
273.7999919999999
 30
0.0
 11
197.894427
 21
271.011138
 31
0.0
  0
ARC
  5
1A9CA
330
1A970
100
AcDbEntity
  8
1
  6
Continuous
100
AcDbCircle
 10
201.472136
 20
272.7999919999999
 30
0.0
 40
4.0
100
AcDbArc
 50
206.565051
 51
270.0
  0
CIRCLE
  5
1A9CB
330
1A970
100
AcDbEntity
  8
1
  6
Continuous
100
AcDbCircle
 10
199.0
 20
326.499992
 30
0.0
 40
5.25
  0
LINE
  5
1A9CC
330
1A970
100
AcDbEntity
  8
4
  6
CENTER
100
AcDbLine
 10
199.0
 20
316.249992
 30
0.0
 11
199.0
 21
336.749992
 31
0.0
  0
LINE
  5
1A9CD
330
1A970
100
AcDbEntity
  8
4
  6
CENTER
100
AcDbLine
 10
384.5
 20
165.9999919999999
 30
0.0
 11
384.5
 21
281.999992
 31
0.0
  0
LINE
  5
1A9CE
330
1A970
100
AcDbEntity
  8
1
  6
Continuous
100
AcDbLine
 10
429.4999999999998
 20
276.999992
 30
0.0
 11
339.5
 21
276.999992
 31
0.0
  0
LINE
  5
1A9CF
330
1A970
100
AcDbEntity
  8
1
  6
Continuous
100
AcDbLine
 10
429.4999999999998
 20
273.7999919999999
 30
0.0
 11
339.5
 21
273.7999919999999
 31
0.0
  0
LINE
  5
1A9D0
330
1A970
100
AcDbEntity
  8
1
  6
Continuous
100
AcDbLine
 10
354.4999999999998
 20
262.7999919999999
 30
0.0
 11
414.5
 21
262.7999919999999
 31
0.0
  0
LINE
  5
1A9D1
330
1A970
100
AcDbEntity
  8
1
  6
Continuous
100
AcDbLine
 10
351.4721359999999
 20
268.7999919999999
 30
0.0
 11
417.527864
 21
268.7999919999999
 31
0.0
  0
ARC
  5
1A9D2
330
1A970
100
AcDbEntity
  8
1
  6
Continuous
100
AcDbCircle
 10
384.5
 20
224.3422970000001
 30
0.0
 40
25.157695
100
AcDbArc
 50
35.055648
 51
144.944352
  0
LINE
  5
1A9D3
330
1A970
100
AcDbEntity
  8
4
  6
CENTER
100
AcDbLine
 10
343.9979999999998
 20
208.499992
 30
0.0
 11
421.1999999999998
 21
208.499992
 31
0.0
  0
LINE
  5
1A9D4
330
1A970
100
AcDbEntity
  8
1
  6
Continuous
100
AcDbLine
 10
354.4999999999998
 20
265.7999919999999
 30
0.0
 11
354.4999999999998
 21
262.7999919999999
 31
0.0
  0
LINE
  5
1A9D5
330
1A970
100
AcDbEntity
  8
1
  6
Continuous
100
AcDbLine
 10
264.5
 20
265.7999919999999
 30
0.0
 11
264.5
 21
262.7999919999999
 31
0.0
  0
ARC
  5
1A9D6
330
1A970
100
AcDbEntity
  8
1
  6
Continuous
100
AcDbCircle
 10
262.115118
 20
259.7999919999999
 30
0.0
 40
3.0
100
AcDbArc
 50
13.033356
 51
90.0
  0
ARC
  5
1A9D7
330
1A970
100
AcDbEntity
  8
1
  6
Continuous
100
AcDbCircle
 10
282.5
 20
242.848489
 30
0.0
 40
18.0
100
AcDbArc
 50
149.4415679999999
 51
170.6873789999999
  0
LINE
  5
1A9D8
330
1A970
100
AcDbEntity
  8
1
  6
Continuous
100
AcDbLine
 10
265.0378349999999
 20
260.4765469999999
 30
0.0
 11
267.0
 21
251.999992
 31
0.0
  0
LINE
  5
1A9D9
330
1A970
100
AcDbEntity
  8
1
  6
Continuous
100
AcDbLine
 10
353.1499999999998
 20
212.354199
 30
0.0
 11
353.1499999999998
 21
259.7999919999999
 31
0.0
  0
LINE
  5
1A9DA
330
1A970
100
AcDbEntity
  8
1
  6
Continuous
100
AcDbLine
 10
363.7
 20
234.9658339999999
 30
0.0
 11
363.7
 21
191.999992
 31
0.0
  0
ARC
  5
1A9DB
330
1A970
100
AcDbEntity
  8
1
  6
Continuous
100
AcDbCircle
 10
377.3028889999998
 20
212.354199
 30
0.0
 40
24.152889
100
AcDbArc
 50
160.533568
 51
224.174519
  0
ARC
  5
1A9DC
330
1A970
100
AcDbEntity
  8
1
  6
Continuous
100
AcDbCircle
 10
377.9343319999999
 20
212.539295
 30
0.0
 40
22.0
100
AcDbArc
 50
158.6762
 51
225.329091
  0
LINE
  5
1A9DD
330
1A970
100
AcDbEntity
  8
1
  6
Continuous
100
AcDbLine
 10
351.559189
 20
218.314947
 30
0.0
 11
350.8
 21
216.9999919999999
 31
0.0
  0
ARC
  5
1A9DE
330
1A970
100
AcDbEntity
  8
1
  6
Continuous
100
AcDbCircle
 10
355.144899
 20
215.861208
 30
0.0
 40
4.344898999999998
100
AcDbArc
 50
154.3842469999999
 51
214.384247
  0
LINE
  5
1A9DF
330
1A970
100
AcDbEntity
  8
1
  6
Continuous
100
AcDbLine
 10
351.559189
 20
198.6850379999999
 30
0.0
 11
350.8
 21
199.999992
 31
0.0
  0
ARC
  5
1A9E0
330
1A970
100
AcDbEntity
  8
1
  6
Continuous
100
AcDbCircle
 10
355.144899
 20
201.138776
 30
0.0
 40
4.344898999999998
100
AcDbArc
 50
145.615753
 51
205.615753
  0
ARC
  5
1A9E1
330
1A970
100
AcDbEntity
  8
1
  6
Continuous
100
AcDbCircle
 10
367.0408109999999
 20
208.499992
 30
0.0
 40
16.24081099999999
100
AcDbArc
 50
162.412046
 51
197.5879539999999
  0
LINE
  5
1A9E2
330
1A970
100
AcDbEntity
  8
1
  6
Continuous
100
AcDbLine
 10
350.8
 20
199.999992
 30
0.0
 11
350.8
 21
216.9999919999999
 31
0.0
  0
ARC
  5
1A9E3
330
1A970
100
AcDbEntity
  8
1
  6
Continuous
100
AcDbCircle
 10
357.8999999999999
 20
193.5024959999998
 30
0.0
 40
2.9
100
AcDbArc
 50
0.0
 51
44.174519
  0
LINE
  5
1A9E4
330
1A970
100
AcDbEntity
  8
1
  6
Continuous
100
AcDbLine
 10
360.8
 20
191.999992
 30
0.0
 11
363.7
 21
191.999992
 31
0.0
  0
ARC
  5
1A9E5
330
1A970
100
AcDbEntity
  8
1
  6
Continuous
100
AcDbCircle
 10
359.55
 20
193.942552
 30
0.0
 40
4.15
100
AcDbArc
 50
0.0
 51
45.329091
  0
LINE
  5
1A9E6
330
1A970
100
AcDbEntity
  8
1
  6
Continuous
100
AcDbLine
 10
360.8
 20
193.5024959999998
 30
0.0
 11
360.8
 21
191.999992
 31
0.0
  0
LINE
  5
1A9E7
330
1A970
100
AcDbEntity
  8
1
  6
Continuous
100
AcDbLine
 10
351.559189
 20
218.314947
 30
0.0
 11
353.1499999999998
 21
218.314947
 31
0.0
  0
LINE
  5
1A9E8
330
1A970
100
AcDbEntity
  8
1
  6
Continuous
100
AcDbLine
 10
351.559189
 20
213.4074689999999
 30
0.0
 11
353.1499999999998
 21
213.4074689999999
 31
0.0
  0
LINE
  5
1A9E9
330
1A970
100
AcDbEntity
  8
1
  6
Continuous
100
AcDbLine
 10
351.559189
 20
203.5925149999999
 30
0.0
 11
354.795225
 21
203.5925149999999
 31
0.0
  0
LINE
  5
1A9EA
330
1A970
100
AcDbEntity
  8
1
  6
Continuous
100
AcDbLine
 10
357.0408109999998
 20
198.6850379999999
 30
0.0
 11
357.2017119999999
 21
198.963727
 31
0.0
  0
LINE
  5
1A9EB
330
1A970
100
AcDbEntity
  8
1
  6
Continuous
100
AcDbLine
 10
351.559189
 20
198.6850379999999
 30
0.0
 11
357.0408109999998
 21
198.6850379999999
 31
0.0
  0
ARC
  5
1A9EC
330
1A970
100
AcDbEntity
  8
1
  6
Continuous
100
AcDbCircle
 10
387.971044
 20
225.996752
 30
0.0
 40
25.748926
100
AcDbArc
 50
128.585103
 51
153.6738049999999
  0
ARC
  5
1A9ED
330
1A970
100
AcDbEntity
  8
1
  6
Continuous
100
AcDbCircle
 10
447.264934
 20
184.7080789999999
 30
0.0
 40
99.366959
100
AcDbArc
 50
147.024085
 51
158.9473399999999
  0
ARC
  5
1A9EE
330
1A970
100
AcDbEntity
  8
1
  6
Continuous
100
AcDbCircle
 10
554.342483
 20
143.6762019999999
 30
0.0
 40
211.3725459999999
100
AcDbArc
 50
153.6738049999999
 51
158.6773479999999
  0
ARC
  5
1A9EF
330
1A970
100
AcDbEntity
  8
1
  6
Continuous
100
AcDbCircle
 10
356.1499999999999
 20
259.7999919999999
 30
0.0
 40
3.0
100
AcDbArc
 50
90.0
 51
180.0
  0
LINE
  5
1A9F0
330
1A970
100
AcDbEntity
  8
1
  6
Continuous
100
AcDbLine
 10
272.5
 20
273.7999919999999
 30
0.0
 11
271.1055729999998
 21
271.011138
 31
0.0
  0
ARC
  5
1A9F1
330
1A970
100
AcDbEntity
  8
1
  6
Continuous
100
AcDbCircle
 10
267.527864
 20
272.7999919999999
 30
0.0
 40
4.0
100
AcDbArc
 50
270.0
 51
333.434949
  0
LINE
  5
1A9F2
330
1A970
100
AcDbEntity
  8
4
  6
CENTER
100
AcDbLine
 10
270.0
 20
280.199992
 30
0.0
 11
270.0
 21
270.599992
 31
0.0
  0
ARC
  5
1A9F3
330
1A970
100
AcDbEntity
  8
1
  6
Continuous
100
AcDbCircle
 10
261.5
 20
265.7999919999999
 30
0.0
 40
3.0
100
AcDbArc
 50
0.0
 51
90.0
  0
LINE
  5
1A9F4
330
1A970
100
AcDbEntity
  8
1
  6
Continuous
100
AcDbLine
 10
279.4999999999999
 20
276.999992
 30
0.0
 11
279.4999999999999
 21
273.7999919999999
 31
0.0
  0
CIRCLE
  5
1A9F5
330
1A970
100
AcDbEntity
  8
1
  6
Continuous
100
AcDbCircle
 10
270.0
 20
326.499992
 30
0.0
 40
5.25
  0
LINE
  5
1A9F6
330
1A970
100
AcDbEntity
  8
4
  6
CENTER
100
AcDbLine
 10
270.0
 20
316.249992
 30
0.0
 11
270.0
 21
336.749992
 31
0.0
  0
ARC
  5
1A9F7
330
1A970
100
AcDbEntity
  8
1
  6
Continuous
100
AcDbCircle
 10
269.4999999999998
 20
326.999992
 30
0.0
 40
10.0
100
AcDbArc
 50
270.0
 51
0.0
  0
LINE
  5
1A9F8
330
1A970
100
AcDbEntity
  8
4
  6
CENTER
100
AcDbLine
 10
259.75
 20
326.499992
 30
0.0
 11
280.25
 21
326.499992
 31
0.0
  0
ARC
  5
1A9F9
330
1A970
100
AcDbEntity
  8
1
  6
Continuous
100
AcDbCircle
 10
351.4721359999999
 20
272.7999919999999
 30
0.0
 40
4.0
100
AcDbArc
 50
206.565051
 51
270.0
  0
LINE
  5
1A9FA
330
1A970
100
AcDbEntity
  8
4
  6
CENTER
100
AcDbLine
 10
349.0
 20
270.599992
 30
0.0
 11
349.0
 21
280.199992
 31
0.0
  0
LINE
  5
1A9FB
330
1A970
100
AcDbEntity
  8
1
  6
Continuous
100
AcDbLine
 10
346.4999999999998
 20
273.7999919999999
 30
0.0
 11
347.8944269999999
 21
271.011138
 31
0.0
  0
LINE
  5
1A9FC
330
1A970
100
AcDbEntity
  8
1
  6
Continuous
100
AcDbLine
 10
339.5
 20
276.999992
 30
0.0
 11
339.5
 21
273.7999919999999
 31
0.0
  0
ARC
  5
1A9FD
330
1A970
100
AcDbEntity
  8
1
  6
Continuous
100
AcDbCircle
 10
357.5
 20
265.7999919999999
 30
0.0
 40
3.0
100
AcDbArc
 50
90.0
 51
180.0
  0
LINE
  5
1A9FE
330
1A970
100
AcDbEntity
  8
1
  6
Continuous
100
AcDbLine
 10
504.4999999999998
 20
265.7999919999999
 30
0.0
 11
504.4999999999998
 21
262.7999919999999
 31
0.0
  0
LINE
  5
1A9FF
330
1A970
100
AcDbEntity
  8
1
  6
Continuous
100
AcDbLine
 10
414.5
 20
265.7999919999999
 30
0.0
 11
414.5
 21
262.7999919999999
 31
0.0
  0
LINE
  5
1AA00
330
1A970
100
AcDbEntity
  8
1
  6
Continuous
100
AcDbLine
 10
415.85
 20
212.354199
 30
0.0
 11
415.85
 21
259.7999919999999
 31
0.0
  0
ARC
  5
1AA01
330
1A970
100
AcDbEntity
  8
1
  6
Continuous
100
AcDbCircle
 10
391.697111
 20
212.354199
 30
0.0
 40
24.152889
100
AcDbArc
 50
315.825481
 51
19.466432
  0
ARC
  5
1AA02
330
1A970
100
AcDbEntity
  8
1
  6
Continuous
100
AcDbCircle
 10
391.065668
 20
212.539295
 30
0.0
 40
22.0
100
AcDbArc
 50
314.6709089999998
 51
21.3238
  0
LINE
  5
1AA03
330
1A970
100
AcDbEntity
  8
1
  6
Continuous
100
AcDbLine
 10
405.2999999999998
 20
234.9658339999999
 30
0.0
 11
405.2999999999998
 21
191.999992
 31
0.0
  0
LINE
  5
1AA04
330
1A970
100
AcDbEntity
  8
1
  6
Continuous
100
AcDbLine
 10
415.440811
 20
203.5925149999999
 30
0.0
 11
414.2047749999998
 21
203.5925149999999
 31
0.0
  0
LINE
  5
1AA05
330
1A970
100
AcDbEntity
  8
1
  6
Continuous
100
AcDbLine
 10
415.440811
 20
198.6850379999999
 30
0.0
 11
411.609822
 21
198.6850379999999
 31
0.0
  0
ARC
  5
1AA06
330
1A970
100
AcDbEntity
  8
1
  6
Continuous
100
AcDbCircle
 10
411.1
 20
193.5024959999998
 30
0.0
 40
2.9
100
AcDbArc
 50
135.825481
 51
180.0
  0
LINE
  5
1AA07
330
1A970
100
AcDbEntity
  8
1
  6
Continuous
100
AcDbLine
 10
408.1999999999998
 20
193.5024959999998
 30
0.0
 11
408.1999999999998
 21
191.999992
 31
0.0
  0
ARC
  5
1AA08
330
1A970
100
AcDbEntity
  8
1
  6
Continuous
100
AcDbCircle
 10
409.45
 20
193.942552
 30
0.0
 40
4.15
100
AcDbArc
 50
134.670909
 51
180.0
  0
LINE
  5
1AA09
330
1A970
100
AcDbEntity
  8
1
  6
Continuous
100
AcDbLine
 10
408.1999999999998
 20
191.999992
 30
0.0
 11
405.2999999999998
 21
191.999992
 31
0.0
  0
LINE
  5
1AA0A
330
1A970
100
AcDbEntity
  8
1
  6
Continuous
100
AcDbLine
 10
415.440811
 20
198.6850379999999
 30
0.0
 11
416.1999999999999
 21
199.999992
 31
0.0
  0
ARC
  5
1AA0B
330
1A970
100
AcDbEntity
  8
1
  6
Continuous
100
AcDbCircle
 10
411.855101
 20
201.138776
 30
0.0
 40
4.344898999999998
100
AcDbArc
 50
334.384247
 51
34.38424699999998
  0
LINE
  5
1AA0C
330
1A970
100
AcDbEntity
  8
1
  6
Continuous
100
AcDbLine
 10
415.85
 20
217.60621
 30
0.0
 11
416.1999999999999
 21
216.9999919999999
 31
0.0
  0
ARC
  5
1AA0D
330
1A970
100
AcDbEntity
  8
1
  6
Continuous
100
AcDbCircle
 10
411.855101
 20
215.861208
 30
0.0
 40
4.344898999999998
100
AcDbArc
 50
336.84519
 51
23.15481
  0
ARC
  5
1AA0E
330
1A970
100
AcDbEntity
  8
1
  6
Continuous
100
AcDbCircle
 10
399.9591889999999
 20
208.499992
 30
0.0
 40
16.24081099999999
100
AcDbArc
 50
342.4120459999999
 51
11.99721899999999
  0
LINE
  5
1AA0F
330
1A970
100
AcDbEntity
  8
1
  6
Continuous
100
AcDbLine
 10
416.1999999999999
 20
216.9999919999999
 30
0.0
 11
416.1999999999999
 21
199.999992
 31
0.0
  0
ARC
  5
1AA10
330
1A970
100
AcDbEntity
  8
1
  6
Continuous
100
AcDbCircle
 10
321.735066
 20
184.7080789999999
 30
0.0
 40
99.366959
100
AcDbArc
 50
21.05265999999998
 51
32.975915
  0
ARC
  5
1AA11
330
1A970
100
AcDbEntity
  8
1
  6
Continuous
100
AcDbCircle
 10
412.85
 20
259.7999919999999
 30
0.0
 40
3.0
100
AcDbArc
 50
0.0
 51
90.0
  0
ARC
  5
1AA12
330
1A970
100
AcDbEntity
  8
1
  6
Continuous
100
AcDbCircle
 10
381.028956
 20
225.996752
 30
0.0
 40
25.748926
100
AcDbArc
 50
26.32619499999999
 51
51.41489699999999
  0
ARC
  5
1AA13
330
1A970
100
AcDbEntity
  8
1
  6
Continuous
100
AcDbCircle
 10
214.6575169999999
 20
143.6762019999999
 30
0.0
 40
211.3725459999999
100
AcDbArc
 50
21.3238
 51
26.32619499999999
  0
LINE
  5
1AA14
330
1A970
100
AcDbEntity
  8
1
  6
Continuous
100
AcDbLine
 10
503.9621649999999
 20
260.4765469999999
 30
0.0
 11
502.0
 21
251.999992
 31
0.0
  0
ARC
  5
1AA15
330
1A970
100
AcDbEntity
  8
1
  6
Continuous
100
AcDbCircle
 10
486.5
 20
242.848489
 30
0.0
 40
18.0
100
AcDbArc
 50
9.312621
 51
30.558432
  0
ARC
  5
1AA16
330
1A970
100
AcDbEntity
  8
1
  6
Continuous
100
AcDbCircle
 10
506.884882
 20
259.7999919999999
 30
0.0
 40
3.0
100
AcDbArc
 50
90.0
 51
166.966644
  0
ARC
  5
1AA17
330
1A970
100
AcDbEntity
  8
1
  6
Continuous
100
AcDbCircle
 10
411.5
 20
265.7999919999999
 30
0.0
 40
3.0
100
AcDbArc
 50
0.0
 51
90.0
  0
LINE
  5
1AA18
330
1A970
100
AcDbEntity
  8
4
  6
CENTER
100
AcDbLine
 10
420.0
 20
270.599992
 30
0.0
 11
420.0
 21
280.199992
 31
0.0
  0
LINE
  5
1AA19
330
1A970
100
AcDbEntity
  8
1
  6
Continuous
100
AcDbLine
 10
429.4999999999998
 20
276.999992
 30
0.0
 11
429.4999999999998
 21
273.7999919999999
 31
0.0
  0
LINE
  5
1AA1A
330
1A970
100
AcDbEntity
  8
1
  6
Continuous
100
AcDbLine
 10
422.4999999999998
 20
273.7999919999999
 30
0.0
 11
421.1055729999998
 21
271.011138
 31
0.0
  0
ARC
  5
1AA1B
330
1A970
100
AcDbEntity
  8
1
  6
Continuous
100
AcDbCircle
 10
417.527864
 20
272.7999919999999
 30
0.0
 40
4.0
100
AcDbArc
 50
270.0
 51
333.434949
  0
LINE
  5
1AA1C
330
1A970
100
AcDbEntity
  8
1
  6
Continuous
100
AcDbLine
 10
489.5
 20
276.999992
 30
0.0
 11
489.5
 21
273.7999919999999
 31
0.0
  0
ARC
  5
1AA1D
330
1A970
100
AcDbEntity
  8
1
  6
Continuous
100
AcDbCircle
 10
507.5
 20
265.7999919999999
 30
0.0
 40
3.0
100
AcDbArc
 50
90.0
 51
180.0
  0
LINE
  5
1AA1E
330
1A970
100
AcDbEntity
  8
4
  6
CENTER
100
AcDbLine
 10
499.0
 20
280.199992
 30
0.0
 11
499.0
 21
270.599992
 31
0.0
  0
ARC
  5
1AA1F
330
1A970
100
AcDbEntity
  8
1
  6
Continuous
100
AcDbCircle
 10
501.472136
 20
272.7999919999999
 30
0.0
 40
4.0
100
AcDbArc
 50
206.565051
 51
270.0
  0
LINE
  5
1AA20
330
1A970
100
AcDbEntity
  8
1
  6
Continuous
100
AcDbLine
 10
496.4999999999998
 20
273.7999919999999
 30
0.0
 11
497.8944269999998
 21
271.011138
 31
0.0
  0
LINE
  5
1AA21
330
1A970
100
AcDbEntity
  8
1
  6
Continuous
100
AcDbLine
 10
269.4999999999998
 20
406.9999919999998
 30
0.0
 11
199.5
 21
406.9999919999998
 31
0.0
  0
LINE
  5
1AA22
330
1A970
100
AcDbEntity
  8
4
  6
CENTER
100
AcDbLine
 10
284.5
 20
361.999992
 30
0.0
 11
169.9961049999998
 21
361.999992
 31
0.0
  0
ARC
  5
1AA23
330
1A970
100
AcDbEntity
  8
1
  6
Continuous
100
AcDbCircle
 10
199.5
 20
396.999992
 30
0.0
 40
10.0
100
AcDbArc
 50
90.0
 51
180.0
  0
LINE
  5
1AA24
330
1A970
100
AcDbEntity
  8
4
  6
CENTER
100
AcDbLine
 10
188.75
 20
397.499992
 30
0.0
 11
209.25
 21
397.499992
 31
0.0
  0
CIRCLE
  5
1AA25
330
1A970
100
AcDbEntity
  8
1
  6
Continuous
100
AcDbCircle
 10
199.0
 20
397.499992
 30
0.0
 40
5.25
  0
LINE
  5
1AA26
330
1A970
100
AcDbEntity
  8
4
  6
CENTER
100
AcDbLine
 10
199.0
 20
387.249992
 30
0.0
 11
199.0
 21
407.749992
 31
0.0
  0
CIRCLE
  5
1AA27
330
1A970
100
AcDbEntity
  8
1
  6
Continuous
100
AcDbCircle
 10
270.0
 20
397.499992
 30
0.0
 40
5.25
  0
LINE
  5
1AA28
330
1A970
100
AcDbEntity
  8
4
  6
CENTER
100
AcDbLine
 10
270.0
 20
387.249992
 30
0.0
 11
270.0
 21
407.749992
 31
0.0
  0
LINE
  5
1AA29
330
1A970
100
AcDbEntity
  8
4
  6
CENTER
100
AcDbLine
 10
259.75
 20
397.499992
 30
0.0
 11
280.25
 21
397.499992
 31
0.0
  0
ARC
  5
1AA2A
330
1A970
100
AcDbEntity
  8
1
  6
Continuous
100
AcDbCircle
 10
269.4999999999998
 20
396.999992
 30
0.0
 40
10.0
100
AcDbArc
 50
0.0
 51
90.0
  0
LINE
  5
1AA2B
330
1A970
100
AcDbEntity
  8
4
  6
CENTER
100
AcDbLine
 10
556.5
 20
165.9999919999999
 30
0.0
 11
556.5
 21
250.9999919999999
 31
0.0
  0
ARC
  5
1AA2C
330
1A970
100
AcDbEntity
  8
1
  6
Continuous
100
AcDbCircle
 10
556.5
 20
208.499992
 30
0.0
 40
37.5
100
AcDbArc
 50
172.746773
 51
93.466062
  0
LINE
  5
1AA2D
330
1A970
100
AcDbEntity
  8
4
  6
CENTER
100
AcDbLine
 10
534.4999999999998
 20
281.999992
 30
0.0
 11
534.4999999999998
 21
194.1585409999999
 31
0.0
  0
LINE
  5
1AA2E
330
1A970
100
AcDbEntity
  8
1
  6
Continuous
100
AcDbLine
 10
564.5
 20
265.7999919999999
 30
0.0
 11
564.5
 21
262.7999919999999
 31
0.0
  0
LINE
  5
1AA2F
330
1A970
100
AcDbEntity
  8
4
  6
CENTER
100
AcDbLine
 10
599.0
 20
208.499992
 30
0.0
 11
514.0
 21
208.499992
 31
0.0
  0
ARC
  5
1AA30
330
1A970
100
AcDbEntity
  8
1
  6
Continuous
100
AcDbCircle
 10
559.0
 20
208.499992
 30
0.0
 40
16.5
100
AcDbArc
 50
270.0
 51
52.60865500000002
  0
LINE
  5
1AA31
330
1A970
100
AcDbEntity
  8
1
  6
Continuous
100
AcDbLine
 10
552.5
 20
250.4999919999999
 30
0.0
 11
541.0
 21
200.9999919999999
 31
0.0
  0
ARC
  5
1AA32
330
1A970
100
AcDbEntity
  8
1
  6
Continuous
100
AcDbCircle
 10
559.0
 20
231.0533969999999
 30
0.0
 40
39.05340499999999
100
AcDbArc
 50
245.905047
 51
270.0
  0
LINE
  5
1AA33
330
1A970
100
AcDbEntity
  8
1
  6
Continuous
100
AcDbLine
 10
556.5
 20
218.314947
 30
0.0
 11
565.0
 21
213.4074689999999
 31
0.0
  0
LINE
  5
1AA34
330
1A970
100
AcDbEntity
  8
1
  6
Continuous
100
AcDbLine
 10
565.0
 20
203.5925149999999
 30
0.0
 11
556.5
 21
198.6850379999999
 31
0.0
  0
CIRCLE
  5
1AA35
330
1A970
100
AcDbEntity
  8
1
  6
Continuous
100
AcDbCircle
 10
556.5
 20
208.499992
 30
0.0
 40
8.5
  0
LINE
  5
1AA36
330
1A970
100
AcDbEntity
  8
1
  6
Continuous
100
AcDbLine
 10
548.0
 20
203.5925149999999
 30
0.0
 11
548.0
 21
213.4074689999999
 31
0.0
  0
LINE
  5
1AA37
330
1A970
100
AcDbEntity
  8
1
  6
Continuous
100
AcDbLine
 10
556.5
 20
218.314947
 30
0.0
 11
548.0
 21
213.4074689999999
 31
0.0
  0
LINE
  5
1AA38
330
1A970
100
AcDbEntity
  8
1
  6
Continuous
100
AcDbLine
 10
548.0
 20
203.5925149999999
 30
0.0
 11
556.5
 21
198.6850379999999
 31
0.0
  0
LINE
  5
1AA39
330
1A970
100
AcDbEntity
  8
1
  6
Continuous
100
AcDbLine
 10
565.0
 20
203.5925149999999
 30
0.0
 11
565.0
 21
213.4074689999999
 31
0.0
  0
ARC
  5
1AA3A
330
1A970
100
AcDbEntity
  8
1
  6
Continuous
100
AcDbCircle
 10
568.4439200000001
 20
240.929089
 30
0.0
 40
15.0
100
AcDbArc
 50
165.9637569999999
 51
232.6086549999999
  0
LINE
  5
1AA3B
330
1A970
100
AcDbEntity
  8
1
  6
Continuous
100
AcDbLine
 10
569.019721
 20
221.609347
 30
0.0
 11
559.335083
 21
229.011494
 31
0.0
  0
ARC
  5
1AA3C
330
1A970
100
AcDbEntity
  8
1
  6
Continuous
100
AcDbCircle
 10
558.623106
 20
246.9999919999999
 30
0.0
 40
4.0
100
AcDbArc
 50
90.0
 51
165.9637569999999
  0
LINE
  5
1AA3D
330
1A970
100
AcDbEntity
  8
1
  6
Continuous
100
AcDbLine
 10
554.742536
 20
247.9701339999998
 30
0.0
 11
553.891783
 21
244.567124
 31
0.0
  0
LINE
  5
1AA3E
330
1A970
100
AcDbEntity
  8
1
  6
Continuous
100
AcDbLine
 10
566.232671
 20
259.178201
 30
0.0
 11
564.5
 21
250.9999919999999
 31
0.0
  0
ARC
  5
1AA3F
330
1A970
100
AcDbEntity
  8
1
  6
Continuous
100
AcDbCircle
 10
563.297816
 20
259.7999919999999
 30
0.0
 40
3.0
100
AcDbArc
 50
348.037949
 51
90.0
  0
LINE
  5
1AA40
330
1A970
100
AcDbEntity
  8
1
  6
Continuous
100
AcDbLine
 10
564.5
 20
250.9999919999999
 30
0.0
 11
558.623106
 21
250.9999919999999
 31
0.0
  0
ARC
  5
1AA41
330
1A970
100
AcDbEntity
  8
1
  6
Continuous
100
AcDbCircle
 10
567.527864
 20
272.7999919999999
 30
0.0
 40
4.0
100
AcDbArc
 50
270.0
 51
333.434949
  0
LINE
  5
1AA42
330
1A970
100
AcDbEntity
  8
1
  6
Continuous
100
AcDbLine
 10
572.5
 20
273.7999919999999
 30
0.0
 11
571.1055730000001
 21
271.011138
 31
0.0
  0
LINE
  5
1AA43
330
1A970
100
AcDbEntity
  8
4
  6
CENTER
100
AcDbLine
 10
570.0
 20
280.199992
 30
0.0
 11
570.0
 21
270.599992
 31
0.0
  0
ARC
  5
1AA44
330
1A970
100
AcDbEntity
  8
1
  6
Continuous
100
AcDbCircle
 10
561.5
 20
265.7999919999999
 30
0.0
 40
3.0
100
AcDbArc
 50
0.0
 51
90.0
  0
LINE
  5
1AA45
330
1A970
100
AcDbEntity
  8
1
  6
Continuous
100
AcDbLine
 10
579.4999999999999
 20
276.999992
 30
0.0
 11
579.4999999999999
 21
273.7999919999999
 31
0.0
  0
ARC
  5
1AA46
330
1A970
100
AcDbEntity
  8
1
  6
Continuous
100
AcDbCircle
 10
234.5
 20
86.0
 30
0.0
 40
38.0
100
AcDbArc
 50
236.533722
 51
115.9957939999998
  0
ARC
  5
1AA47
330
1A970
100
AcDbEntity
  8
1
  6
Continuous
100
AcDbCircle
 10
234.5
 20
86.0
 30
0.0
 40
26.65
100
AcDbArc
 50
277.880193
 51
82.11980699999998
  0
ARC
  5
1AA48
330
1A970
100
AcDbEntity
  8
1
  6
Continuous
100
AcDbCircle
 10
225.4280669999999
 20
86.0
 30
0.0
 40
37.521933
100
AcDbArc
 50
319.9732319999998
 51
40.02676799999997
  0
ARC
  5
1AA49
330
1A970
100
AcDbEntity
  8
1
  6
Continuous
100
AcDbCircle
 10
244.8947609999999
 20
102.3499999999998
 30
0.0
 40
15.0
100
AcDbArc
 50
40.02676799999997
 51
123.805738
  0
LINE
  5
1AA4A
330
1A970
100
AcDbEntity
  8
1
  6
Continuous
100
AcDbLine
 10
269.4999999999998
 20
131.0
 30
0.0
 11
199.5
 21
131.0
 31
0.0
  0
LINE
  5
1AA4B
330
1A970
100
AcDbEntity
  8
4
  6
CENTER
100
AcDbLine
 10
70.0
 20
165.99998
 30
0.0
 11
70.0
 21
281.999992
 31
0.0
  0
LINE
  5
1AA4C
330
1A970
100
AcDbEntity
  8
4
  6
CENTER
100
AcDbLine
 10
212.5
 20
49.29999999999999
 30
0.0
 11
212.5
 21
126.5
 31
0.0
  0
ARC
  5
1AA4D
330
1A970
100
AcDbEntity
  8
1
  6
Continuous
100
AcDbCircle
 10
234.5
 20
86.0
 30
0.0
 40
18.5
100
AcDbArc
 50
325.3987519999999
 51
34.601248
  0
LINE
  5
1AA4E
330
1A970
100
AcDbEntity
  8
4
  6
CENTER
100
AcDbLine
 10
234.5
 20
36.0
 30
0.0
 11
234.5
 21
136.0
 31
0.0
  0
LINE
  5
1AA4F
330
1A970
100
AcDbEntity
  8
1
  6
Continuous
100
AcDbLine
 10
245.227408
 20
105.0
 30
0.0
 11
179.7725919999998
 21
105.0
 31
0.0
  0
ARC
  5
1AA50
330
1A970
100
AcDbEntity
  8
1
  6
Continuous
100
AcDbCircle
 10
199.5
 20
121.0
 30
0.0
 40
10.0
100
AcDbArc
 50
90.0
 51
180.0
  0
LINE
  5
1AA51
330
1A970
100
AcDbEntity
  8
4
  6
CENTER
100
AcDbLine
 10
188.75
 20
121.5
 30
0.0
 11
209.5
 21
121.5
 31
0.0
  0
LINE
  5
1AA52
330
1A970
100
AcDbEntity
  8
1
  6
Continuous
100
AcDbLine
 10
189.4999999999998
 20
121.0
 30
0.0
 11
189.4999999999998
 21
105.46792
 31
0.0
  0
ARC
  5
1AA53
330
1A970
100
AcDbEntity
  8
1
  6
Continuous
100
AcDbCircle
 10
234.5
 20
86.0
 30
0.0
 40
31.35
100
AcDbArc
 50
90.0
 51
115.5070409999998
  0
LINE
  5
1AA54
330
1A970
100
AcDbEntity
  8
1
  6
Continuous
100
AcDbLine
 10
193.5
 20
106.8
 30
0.0
 11
228.0
 21
106.8
 31
0.0
  0
LINE
  5
1AA55
330
1A970
100
AcDbEntity
  8
1
  6
Continuous
100
AcDbLine
 10
193.5
 20
109.6999999999999
 30
0.0
 11
228.0
 21
109.6999999999999
 31
0.0
  0
LINE
  5
1AA56
330
1A970
100
AcDbEntity
  8
1
  6
Continuous
100
AcDbLine
 10
212.5
 20
109.6999999999999
 30
0.0
 11
209.5
 21
112.7
 31
0.0
  0
LINE
  5
1AA57
330
1A970
100
AcDbEntity
  8
1
  6
Continuous
100
AcDbLine
 10
212.5
 20
112.7
 30
0.0
 11
215.5
 21
109.6999999999999
 31
0.0
  0
LINE
  5
1AA58
330
1A970
100
AcDbEntity
  8
1
  6
Continuous
100
AcDbLine
 10
223.0
 20
109.6999999999999
 30
0.0
 11
223.0
 21
112.7
 31
0.0
  0
LINE
  5
1AA59
330
1A970
100
AcDbEntity
  8
1
  6
Continuous
100
AcDbLine
 10
202.0
 20
109.6999999999999
 30
0.0
 11
202.0
 21
112.7
 31
0.0
  0
LINE
  5
1AA5A
330
1A970
100
AcDbEntity
  8
1
  6
Continuous
100
AcDbLine
 10
193.5
 20
106.8
 30
0.0
 11
193.5
 21
109.6999999999999
 31
0.0
  0
ARC
  5
1AA5B
330
1A970
100
AcDbEntity
  8
1
  6
Continuous
100
AcDbCircle
 10
208.25
 20
124.9755069999999
 30
0.0
 40
12.275507
100
AcDbArc
 50
249.7438419999999
 51
290.256158
  0
ARC
  5
1AA5C
330
1A970
100
AcDbEntity
  8
1
  6
Continuous
100
AcDbCircle
 10
208.25
 20
107.424493
 30
0.0
 40
12.275507
100
AcDbArc
 50
69.743842
 51
110.256158
  0
LINE
  5
1AA5D
330
1A970
100
AcDbEntity
  8
1
  6
Continuous
100
AcDbLine
 10
221.0
 20
119.7
 30
0.0
 11
204.0
 21
119.7
 31
0.0
  0
LINE
  5
1AA5E
330
1A970
100
AcDbEntity
  8
1
  6
Continuous
100
AcDbLine
 10
223.0
 20
112.7
 30
0.0
 11
202.0
 21
112.7
 31
0.0
  0
CIRCLE
  5
1AA5F
330
1A970
100
AcDbEntity
  8
1
  6
Continuous
100
AcDbCircle
 10
199.0
 20
121.5
 30
0.0
 40
5.25
  0
LINE
  5
1AA60
330
1A970
100
AcDbEntity
  8
1
  6
Continuous
100
AcDbLine
 10
204.0
 20
112.7
 30
0.0
 11
204.0
 21
119.7
 31
0.0
  0
LINE
  5
1AA61
330
1A970
100
AcDbEntity
  8
4
  6
CENTER
100
AcDbLine
 10
199.0
 20
131.75
 30
0.0
 11
199.0
 21
111.25
 31
0.0
  0
LINE
  5
1AA62
330
1A970
100
AcDbEntity
  8
1
  6
Continuous
100
AcDbLine
 10
212.5
 20
113.459189
 30
0.0
 11
212.5
 21
118.940811
 31
0.0
  0
LINE
  5
1AA63
330
1A970
100
AcDbEntity
  8
1
  6
Continuous
100
AcDbLine
 10
221.0
 20
112.7
 30
0.0
 11
221.0
 21
119.7
 31
0.0
  0
ARC
  5
1AA64
330
1A970
100
AcDbEntity
  8
1
  6
Continuous
100
AcDbCircle
 10
216.7499999999999
 20
124.9755069999999
 30
0.0
 40
12.275507
100
AcDbArc
 50
249.7438419999999
 51
290.256158
  0
ARC
  5
1AA65
330
1A970
100
AcDbEntity
  8
1
  6
Continuous
100
AcDbCircle
 10
216.7499999999999
 20
107.424493
 30
0.0
 40
12.275507
100
AcDbArc
 50
69.743842
 51
110.256158
  0
LINE
  5
1AA66
330
1A970
100
AcDbEntity
  8
1
  6
Continuous
100
AcDbLine
 10
238.1625769999998
 20
112.4042379999999
 30
0.0
 11
231.2826349999999
 21
107.79752
 31
0.0
  0
ARC
  5
1AA67
330
1A970
100
AcDbEntity
  8
1
  6
Continuous
100
AcDbCircle
 10
228.0
 20
112.7
 30
0.0
 40
3.0
100
AcDbArc
 50
270.0
 51
303.8057379999999
  0
ARC
  5
1AA68
330
1A970
100
AcDbEntity
  8
1
  6
Continuous
100
AcDbCircle
 10
228.0
 20
112.7
 30
0.0
 40
5.9
100
AcDbArc
 50
270.0
 51
303.8057379999999
  0
LINE
  5
1AA69
330
1A970
100
AcDbEntity
  8
1
  6
Continuous
100
AcDbLine
 10
244.8947609999999
 20
117.3499999999998
 30
0.0
 11
234.5
 21
117.3499999999998
 31
0.0
  0
ARC
  5
1AA6A
330
1A970
100
AcDbEntity
  8
1
  6
Continuous
100
AcDbCircle
 10
244.8947609999999
 20
102.3499999999998
 30
0.0
 40
12.09999999999999
100
AcDbArc
 50
40.02676799999997
 51
123.805738
  0
LINE
  5
1AA6B
330
1A970
100
AcDbEntity
  8
1
  6
Continuous
100
AcDbLine
 10
236.5490789999999
 20
114.813931
 30
0.0
 11
229.669136
 21
110.2072139999998
 31
0.0
  0
LINE
  5
1AA6C
330
1A970
100
AcDbEntity
  8
1
  6
Continuous
100
AcDbLine
 10
100.0
 20
265.7999919999999
 30
0.0
 11
100.0
 21
262.7999919999999
 31
0.0
  0
LINE
  5
1AA6D
330
1A970
100
AcDbEntity
  8
1
  6
Continuous
100
AcDbLine
 10
40.0
 20
265.7999919999999
 30
0.0
 11
40.0
 21
262.7999919999999
 31
0.0
  0
LINE
  5
1AA6E
330
1A970
100
AcDbEntity
  8
1
  6
Continuous
100
AcDbLine
 10
40.0
 20
262.7999919999999
 30
0.0
 11
100.0
 21
262.7999919999999
 31
0.0
  0
LINE
  5
1AA6F
330
1A970
100
AcDbEntity
  8
1
  6
Continuous
100
AcDbLine
 10
52.3
 20
250.9999919999999
 30
0.0
 11
87.70000000000001
 21
250.9999919999999
 31
0.0
  0
LINE
  5
1AA70
330
1A970
100
AcDbEntity
  8
4
  6
CENTER
100
AcDbLine
 10
33.3
 20
208.499992
 30
0.0
 11
110.4997999999998
 21
208.499992
 31
0.0
  0
LINE
  5
1AA71
330
1A970
100
AcDbEntity
  8
1
  6
Continuous
100
AcDbLine
 10
38.65
 20
217.60621
 30
0.0
 11
38.65
 21
259.7999919999999
 31
0.0
  0
LINE
  5
1AA72
330
1A970
100
AcDbEntity
  8
1
  6
Continuous
100
AcDbLine
 10
49.2
 20
245.999992
 30
0.0
 11
49.2
 21
191.999992
 31
0.0
  0
LINE
  5
1AA73
330
1A970
100
AcDbEntity
  8
1
  6
Continuous
100
AcDbLine
 10
46.29999999999999
 20
244.9999919999999
 30
0.0
 11
46.29999999999999
 21
191.999992
 31
0.0
  0
ARC
  5
1AA74
330
1A970
100
AcDbEntity
  8
1
  6
Continuous
100
AcDbCircle
 10
62.802889
 20
212.354199
 30
0.0
 40
24.152889
100
AcDbArc
 50
214.467811
 51
224.174519
  0
LINE
  5
1AA75
330
1A970
100
AcDbEntity
  8
1
  6
Continuous
100
AcDbLine
 10
46.29999999999999
 20
191.999992
 30
0.0
 11
49.2
 21
191.999992
 31
0.0
  0
ARC
  5
1AA76
330
1A970
100
AcDbEntity
  8
1
  6
Continuous
100
AcDbCircle
 10
43.39999999999998
 20
193.5024959999998
 30
0.0
 40
2.9
100
AcDbArc
 50
0.0
 51
44.174519
  0
LINE
  5
1AA77
330
1A970
100
AcDbEntity
  8
1
  6
Continuous
100
AcDbLine
 10
39.05918900000001
 20
218.314947
 30
0.0
 11
38.3
 21
216.9999919999999
 31
0.0
  0
ARC
  5
1AA78
330
1A970
100
AcDbEntity
  8
1
  6
Continuous
100
AcDbCircle
 10
42.644899
 20
215.861208
 30
0.0
 40
4.344898999999998
100
AcDbArc
 50
154.3842469999999
 51
214.384247
  0
LINE
  5
1AA79
330
1A970
100
AcDbEntity
  8
1
  6
Continuous
100
AcDbLine
 10
39.05918900000001
 20
213.4074689999999
 30
0.0
 11
46.29999999999999
 21
213.4074689999999
 31
0.0
  0
LINE
  5
1AA7A
330
1A970
100
AcDbEntity
  8
1
  6
Continuous
100
AcDbLine
 10
39.05918900000001
 20
218.314947
 30
0.0
 11
46.29999999999999
 21
218.314947
 31
0.0
  0
LINE
  5
1AA7B
330
1A970
100
AcDbEntity
  8
1
  6
Continuous
100
AcDbLine
 10
39.05918900000001
 20
198.6850379999999
 30
0.0
 11
38.3
 21
199.999992
 31
0.0
  0
ARC
  5
1AA7C
330
1A970
100
AcDbEntity
  8
1
  6
Continuous
100
AcDbCircle
 10
42.644899
 20
201.138776
 30
0.0
 40
4.344898999999998
100
AcDbArc
 50
145.615753
 51
205.615753
  0
LINE
  5
1AA7D
330
1A970
100
AcDbEntity
  8
1
  6
Continuous
100
AcDbLine
 10
39.05918900000001
 20
198.6850379999999
 30
0.0
 11
46.29999999999999
 21
198.6850379999999
 31
0.0
  0
LINE
  5
1AA7E
330
1A970
100
AcDbEntity
  8
1
  6
Continuous
100
AcDbLine
 10
39.05918900000001
 20
203.5925149999999
 30
0.0
 11
46.29999999999999
 21
203.5925149999999
 31
0.0
  0
ARC
  5
1AA7F
330
1A970
100
AcDbEntity
  8
1
  6
Continuous
100
AcDbCircle
 10
54.54081099999999
 20
208.499992
 30
0.0
 40
16.24081099999999
100
AcDbArc
 50
162.412046
 51
197.5879539999999
  0
LINE
  5
1AA80
330
1A970
100
AcDbEntity
  8
1
  6
Continuous
100
AcDbLine
 10
38.3
 20
199.999992
 30
0.0
 11
38.3
 21
216.9999919999999
 31
0.0
  0
ARC
  5
1AA81
330
1A970
100
AcDbEntity
  8
1
  6
Continuous
100
AcDbCircle
 10
52.3
 20
244.9999919999999
 30
0.0
 40
6.0
100
AcDbArc
 50
90.0
 51
180.0
  0
ARC
  5
1AA82
330
1A970
100
AcDbEntity
  8
1
  6
Continuous
100
AcDbCircle
 10
41.65
 20
259.7999919999999
 30
0.0
 40
3.0
100
AcDbArc
 50
90.0
 51
180.0
  0
ARC
  5
1AA83
330
1A970
100
AcDbEntity
  8
1
  6
Continuous
100
AcDbCircle
 10
54.2
 20
245.999992
 30
0.0
 40
5.0
100
AcDbArc
 50
90.0
 51
180.0
  0
LINE
  5
1AA84
330
1A970
100
AcDbEntity
  8
1
  6
Continuous
100
AcDbLine
 10
93.7
 20
191.999992
 30
0.0
 11
93.7
 21
244.9999919999999
 31
0.0
  0
LINE
  5
1AA85
330
1A970
100
AcDbEntity
  8
1
  6
Continuous
100
AcDbLine
 10
101.35
 20
218.319647
 30
0.0
 11
101.35
 21
259.7999919999999
 31
0.0
  0
LINE
  5
1AA86
330
1A970
100
AcDbEntity
  8
1
  6
Continuous
100
AcDbLine
 10
90.8
 20
245.999992
 30
0.0
 11
90.8
 21
191.999992
 31
0.0
  0
ARC
  5
1AA87
330
1A970
100
AcDbEntity
  8
1
  6
Continuous
100
AcDbCircle
 10
77.19711099999997
 20
212.354199
 30
0.0
 40
24.152889
100
AcDbArc
 50
315.825481
 51
323.536825
  0
LINE
  5
1AA88
330
1A970
100
AcDbEntity
  8
1
  6
Continuous
100
AcDbLine
 10
93.7
 20
218.9999919999999
 30
0.0
 11
96.70000000000001
 21
218.9999919999999
 31
0.0
  0
LINE
  5
1AA89
330
1A970
100
AcDbEntity
  8
1
  6
Continuous
100
AcDbLine
 10
93.7
 20
197.999992
 30
0.0
 11
96.70000000000001
 21
197.999992
 31
0.0
  0
LINE
  5
1AA8A
330
1A970
100
AcDbEntity
  8
1
  6
Continuous
100
AcDbLine
 10
96.70000000000001
 20
208.499992
 30
0.0
 11
93.7
 21
205.4999919999999
 31
0.0
  0
LINE
  5
1AA8B
330
1A970
100
AcDbEntity
  8
1
  6
Continuous
100
AcDbLine
 10
93.7
 20
208.499992
 30
0.0
 11
96.70000000000001
 21
211.4999919999999
 31
0.0
  0
ARC
  5
1AA8C
330
1A970
100
AcDbEntity
  8
1
  6
Continuous
100
AcDbCircle
 10
96.6
 20
193.5024959999998
 30
0.0
 40
2.9
100
AcDbArc
 50
135.825481
 51
180.0
  0
LINE
  5
1AA8D
330
1A970
100
AcDbEntity
  8
1
  6
Continuous
100
AcDbLine
 10
90.8
 20
191.999992
 30
0.0
 11
93.7
 21
191.999992
 31
0.0
  0
ARC
  5
1AA8E
330
1A970
100
AcDbEntity
  8
1
  6
Continuous
100
AcDbCircle
 10
77.19711099999997
 20
212.354199
 30
0.0
 40
24.152889
100
AcDbArc
 50
323.850101
 51
326.330288
  0
LINE
  5
1AA8F
330
1A970
100
AcDbEntity
  8
1
  6
Continuous
100
AcDbLine
 10
96.70000000000001
 20
197.999992
 30
0.0
 11
96.70000000000001
 21
218.9999919999999
 31
0.0
  0
ARC
  5
1AA90
330
1A970
100
AcDbEntity
  8
1
  6
Continuous
100
AcDbCircle
 10
85.79999999999998
 20
245.999992
 30
0.0
 40
5.0
100
AcDbArc
 50
0.0
 51
90.0
  0
ARC
  5
1AA91
330
1A970
100
AcDbEntity
  8
1
  6
Continuous
100
AcDbCircle
 10
87.70000000000001
 20
244.9999919999999
 30
0.0
 40
6.0
100
AcDbArc
 50
0.0
 51
90.0
  0
ARC
  5
1AA92
330
1A970
100
AcDbEntity
  8
1
  6
Continuous
100
AcDbCircle
 10
98.35
 20
259.7999919999999
 30
0.0
 40
3.0
100
AcDbArc
 50
0.0
 51
90.0
  0
LINE
  5
1AA93
330
1A970
100
AcDbEntity
  8
1
  6
Continuous
100
AcDbLine
 10
115.0
 20
276.999992
 30
0.0
 11
25.0
 21
276.999992
 31
0.0
  0
LINE
  5
1AA94
330
1A970
100
AcDbEntity
  8
1
  6
Continuous
100
AcDbLine
 10
115.0
 20
273.7999919999999
 30
0.0
 11
25.0
 21
273.7999919999999
 31
0.0
  0
LINE
  5
1AA95
330
1A970
100
AcDbEntity
  8
1
  6
Continuous
100
AcDbLine
 10
36.97213599999999
 20
268.7999919999999
 30
0.0
 11
103.0278639999999
 21
268.7999919999999
 31
0.0
  0
LINE
  5
1AA96
330
1A970
100
AcDbEntity
  8
1
  6
Continuous
100
AcDbLine
 10
25.0
 20
276.999992
 30
0.0
 11
25.0
 21
273.7999919999999
 31
0.0
  0
ARC
  5
1AA97
330
1A970
100
AcDbEntity
  8
1
  6
Continuous
100
AcDbCircle
 10
36.97213599999999
 20
272.7999919999999
 30
0.0
 40
4.0
100
AcDbArc
 50
206.565051
 51
270.0
  0
LINE
  5
1AA98
330
1A970
100
AcDbEntity
  8
1
  6
Continuous
100
AcDbLine
 10
32.0
 20
273.7999919999999
 30
0.0
 11
33.394427
 21
271.011138
 31
0.0
  0
LINE
  5
1AA99
330
1A970
100
AcDbEntity
  8
4
  6
CENTER
100
AcDbLine
 10
34.5
 20
280.199992
 30
0.0
 11
34.5
 21
270.599992
 31
0.0
  0
ARC
  5
1AA9A
330
1A970
100
AcDbEntity
  8
1
  6
Continuous
100
AcDbCircle
 10
43.0
 20
265.7999919999999
 30
0.0
 40
3.0
100
AcDbArc
 50
90.0
 51
180.0
  0
LINE
  5
1AA9B
330
1A970
100
AcDbEntity
  8
1
  6
Continuous
100
AcDbLine
 10
108.0
 20
273.7999919999999
 30
0.0
 11
106.6055729999998
 21
271.011138
 31
0.0
  0
LINE
  5
1AA9C
330
1A970
100
AcDbEntity
  8
4
  6
CENTER
100
AcDbLine
 10
105.4999999999999
 20
280.199992
 30
0.0
 11
105.4999999999999
 21
270.599992
 31
0.0
  0
ARC
  5
1AA9D
330
1A970
100
AcDbEntity
  8
1
  6
Continuous
100
AcDbCircle
 10
103.0278639999999
 20
272.7999919999999
 30
0.0
 40
4.0
100
AcDbArc
 50
270.0
 51
333.434949
  0
ARC
  5
1AA9E
330
1A970
100
AcDbEntity
  8
1
  6
Continuous
100
AcDbCircle
 10
97.0
 20
265.7999919999999
 30
0.0
 40
3.0
100
AcDbArc
 50
0.0
 51
90.0
  0
LINE
  5
1AA9F
330
1A970
100
AcDbEntity
  8
1
  6
Continuous
100
AcDbLine
 10
115.0
 20
276.999992
 30
0.0
 11
115.0
 21
273.7999919999999
 31
0.0
  0
ARC
  5
1AAA0
330
1A970
100
AcDbEntity
  8
1
  6
Continuous
100
AcDbCircle
 10
225.4280669999999
 20
86.0
 30
0.0
 40
40.421933
100
AcDbArc
 50
319.9732319999998
 51
40.02676799999997
  0
LINE
  5
1AAA1
330
1A970
100
AcDbEntity
  8
1
  6
Continuous
100
AcDbLine
 10
279.4999999999999
 20
121.0
 30
0.0
 11
279.4999999999999
 21
51.0
 31
0.0
  0
ARC
  5
1AAA2
330
1A970
100
AcDbEntity
  8
1
  6
Continuous
100
AcDbCircle
 10
269.4999999999998
 20
121.0
 30
0.0
 40
10.0
100
AcDbArc
 50
0.0
 51
90.0
  0
LINE
  5
1AAA3
330
1A970
100
AcDbEntity
  8
4
  6
CENTER
100
AcDbLine
 10
259.75
 20
121.5
 30
0.0
 11
280.25
 21
121.5
 31
0.0
  0
CIRCLE
  5
1AAA4
330
1A970
100
AcDbEntity
  8
1
  6
Continuous
100
AcDbCircle
 10
270.0
 20
121.5
 30
0.0
 40
5.25
  0
LINE
  5
1AAA5
330
1A970
100
AcDbEntity
  8
4
  6
CENTER
100
AcDbLine
 10
270.0
 20
131.75
 30
0.0
 11
270.0
 21
111.25
 31
0.0
  0
ARC
  5
1AAA6
330
1A970
100
AcDbEntity
  8
1
  6
Continuous
100
AcDbCircle
 10
244.8947609999999
 20
69.65
 30
0.0
 40
15.0
100
AcDbArc
 50
236.194262
 51
319.9732319999998
  0
LINE
  5
1AAA7
330
1A970
100
AcDbEntity
  8
1
  6
Continuous
100
AcDbLine
 10
269.4999999999998
 20
41.0
 30
0.0
 11
199.5
 21
41.0
 31
0.0
  0
LINE
  5
1AAA8
330
1A970
100
AcDbEntity
  8
4
  6
CENTER
100
AcDbLine
 10
284.5
 20
86.0
 30
0.0
 11
169.9961049999998
 21
86.0
 31
0.0
  0
LINE
  5
1AAA9
330
1A970
100
AcDbEntity
  8
1
  6
Continuous
100
AcDbLine
 10
245.227408
 20
67.0
 30
0.0
 11
179.7725919999998
 21
67.0
 31
0.0
  0
ARC
  5
1AAAA
330
1A970
100
AcDbEntity
  8
1
  6
Continuous
100
AcDbCircle
 10
199.5
 20
51.0
 30
0.0
 40
10.0
100
AcDbArc
 50
180.0
 51
270.0
  0
LINE
  5
1AAAB
330
1A970
100
AcDbEntity
  8
4
  6
CENTER
100
AcDbLine
 10
188.75
 20
50.5
 30
0.0
 11
209.25
 21
50.5
 31
0.0
  0
LINE
  5
1AAAC
330
1A970
100
AcDbEntity
  8
1
  6
Continuous
100
AcDbLine
 10
189.4999999999998
 20
66.53208000000001
 30
0.0
 11
189.4999999999998
 21
51.0
 31
0.0
  0
LINE
  5
1AAAD
330
1A970
100
AcDbEntity
  8
4
  6
CENTER
100
AcDbLine
 10
199.0
 20
60.75
 30
0.0
 11
199.0
 21
40.25
 31
0.0
  0
ARC
  5
1AAAE
330
1A970
100
AcDbEntity
  8
1
  6
Continuous
100
AcDbCircle
 10
234.5
 20
86.0
 30
0.0
 40
31.35
100
AcDbArc
 50
244.492959
 51
270.0
  0
LINE
  5
1AAAF
330
1A970
100
AcDbEntity
  8
1
  6
Continuous
100
AcDbLine
 10
193.5
 20
65.2
 30
0.0
 11
228.0
 21
65.2
 31
0.0
  0
LINE
  5
1AAB0
330
1A970
100
AcDbEntity
  8
1
  6
Continuous
100
AcDbLine
 10
193.5
 20
62.3
 30
0.0
 11
228.0
 21
62.3
 31
0.0
  0
ARC
  5
1AAB1
330
1A970
100
AcDbEntity
  8
1
  6
Continuous
100
AcDbCircle
 10
208.25
 20
66.575507
 30
0.0
 40
12.275507
100
AcDbArc
 50
249.7438419999999
 51
290.256158
  0
LINE
  5
1AAB2
330
1A970
100
AcDbEntity
  8
1
  6
Continuous
100
AcDbLine
 10
221.0
 20
54.29999999999999
 30
0.0
 11
204.0
 21
54.29999999999999
 31
0.0
  0
LINE
  5
1AAB3
330
1A970
100
AcDbEntity
  8
1
  6
Continuous
100
AcDbLine
 10
204.0
 20
54.29999999999999
 30
0.0
 11
204.0
 21
62.3
 31
0.0
  0
LINE
  5
1AAB4
330
1A970
100
AcDbEntity
  8
1
  6
Continuous
100
AcDbLine
 10
193.5
 20
62.3
 30
0.0
 11
193.5
 21
65.2
 31
0.0
  0
CIRCLE
  5
1AAB5
330
1A970
100
AcDbEntity
  8
1
  6
Continuous
100
AcDbCircle
 10
199.0
 20
50.5
 30
0.0
 40
5.25
  0
LINE
  5
1AAB6
330
1A970
100
AcDbEntity
  8
1
  6
Continuous
100
AcDbLine
 10
212.5
 20
55.05918900000001
 30
0.0
 11
212.5
 21
62.3
 31
0.0
  0
LINE
  5
1AAB7
330
1A970
100
AcDbEntity
  8
1
  6
Continuous
100
AcDbLine
 10
221.0
 20
54.29999999999999
 30
0.0
 11
221.0
 21
62.3
 31
0.0
  0
ARC
  5
1AAB8
330
1A970
100
AcDbEntity
  8
1
  6
Continuous
100
AcDbCircle
 10
216.7499999999999
 20
66.575507
 30
0.0
 40
12.275507
100
AcDbArc
 50
249.7438419999999
 51
290.256158
  0
LINE
  5
1AAB9
330
1A970
100
AcDbEntity
  8
1
  6
Continuous
100
AcDbLine
 10
244.8947609999999
 20
54.64999999999999
 30
0.0
 11
234.5
 21
54.64999999999999
 31
0.0
  0
ARC
  5
1AABA
330
1A970
100
AcDbEntity
  8
1
  6
Continuous
100
AcDbCircle
 10
244.8947609999999
 20
69.65
 30
0.0
 40
12.09999999999999
100
AcDbArc
 50
236.194262
 51
319.9732319999998
  0
LINE
  5
1AABB
330
1A970
100
AcDbEntity
  8
1
  6
Continuous
100
AcDbLine
 10
238.1625769999998
 20
59.595762
 30
0.0
 11
231.2826349999999
 21
64.20247999999999
 31
0.0
  0
LINE
  5
1AABC
330
1A970
100
AcDbEntity
  8
1
  6
Continuous
100
AcDbLine
 10
236.5490789999999
 20
57.18606900000001
 30
0.0
 11
229.669136
 21
61.79278599999999
 31
0.0
  0
ARC
  5
1AABD
330
1A970
100
AcDbEntity
  8
1
  6
Continuous
100
AcDbCircle
 10
228.0
 20
59.29999999999999
 30
0.0
 40
5.9
100
AcDbArc
 50
56.194262
 51
90.0
  0
ARC
  5
1AABE
330
1A970
100
AcDbEntity
  8
1
  6
Continuous
100
AcDbCircle
 10
228.0
 20
59.29999999999999
 30
0.0
 40
3.0
100
AcDbArc
 50
56.194262
 51
90.0
  0
ARC
  5
1AABF
330
1A970
100
AcDbEntity
  8
1
  6
Continuous
100
AcDbCircle
 10
269.4999999999998
 20
51.0
 30
0.0
 40
10.0
100
AcDbArc
 50
270.0
 51
0.0
  0
LINE
  5
1AAC0
330
1A970
100
AcDbEntity
  8
4
  6
CENTER
100
AcDbLine
 10
270.0
 20
61.0
 30
0.0
 11
270.0
 21
40.0
 31
0.0
  0
LINE
  5
1AAC1
330
1A970
100
AcDbEntity
  8
4
  6
CENTER
100
AcDbLine
 10
259.5
 20
50.5
 30
0.0
 11
280.5
 21
50.5
 31
0.0
  0
CIRCLE
  5
1AAC2
330
1A970
100
AcDbEntity
  8
1
  6
Continuous
100
AcDbCircle
 10
270.0
 20
50.5
 30
0.0
 40
5.25
  0
LINE
  5
1AAC3
330
1A970
100
AcDbEntity
  8
1
  6
Continuous
100
AcDbLine
 10
88.99995500000001
 20
175.77258
 30
0.0
 11
88.99995500000001
 21
241.227421
 31
0.0
  0
LINE
  5
1AAC4
330
1A970
100
AcDbEntity
  8
1
  6
Continuous
100
AcDbLine
 10
51.000045
 20
175.77258
 30
0.0
 11
51.000045
 21
241.2274119999999
 31
0.0
  0
ARC
  5
1AAC5
330
1A970
100
AcDbEntity
  8
1
  6
Continuous
100
AcDbCircle
 10
55.00004499999999
 20
175.7725629999999
 30
0.0
 40
4.0
100
AcDbArc
 50
180.0
 51
264.1030769999999
  0
ARC
  5
1AAC6
330
1A970
100
AcDbEntity
  8
1
  6
Continuous
100
AcDbCircle
 10
84.999955
 20
175.7725629999999
 30
0.0
 40
4.0
100
AcDbArc
 50
275.896923
 51
0.0
  0
ARC
  5
1AAC7
330
1A970
100
AcDbEntity
  8
1
  6
Continuous
100
AcDbCircle
 10
70.000045
 20
320.9999799999998
 30
0.0
 40
150.0
100
AcDbArc
 50
264.103042
 51
275.896923
  0
ARC
  5
1AAC8
330
1A970
100
AcDbEntity
  8
1
  6
Continuous
100
AcDbCircle
 10
55.00004499999999
 20
241.2274119999999
 30
0.0
 40
4.0
100
AcDbArc
 50
95.89695799999999
 51
180.0
  0
ARC
  5
1AAC9
330
1A970
100
AcDbEntity
  8
1
  6
Continuous
100
AcDbCircle
 10
87.89995500000001
 20
185.0197959999999
 30
0.0
 40
1.5
100
AcDbArc
 50
317.166572
 51
352.952608
  0
LINE
  5
1AACA
330
1A970
100
AcDbEntity
  8
1
  6
Continuous
100
AcDbLine
 10
89.99224599999998
 20
194.2986429999999
 30
0.0
 11
89.99224599999998
 21
221.9966599999999
 31
0.0
  0
ARC
  5
1AACB
330
1A970
100
AcDbEntity
  8
1
  6
Continuous
100
AcDbCircle
 10
84.999955
 20
241.227421
 30
0.0
 40
4.0
100
AcDbArc
 50
0.0
 51
84.103077
  0
ARC
  5
1AACC
330
1A970
100
AcDbEntity
  8
1
  6
Continuous
100
AcDbCircle
 10
70.000045
 20
96.000004
 30
0.0
 40
150.0
100
AcDbArc
 50
84.103077
 51
95.89695799999999
  0
LINE
  5
1AACD
330
1A970
100
AcDbEntity
  8
1
  6
Continuous
100
AcDbLine
 10
50.007754
 20
221.998863
 30
0.0
 11
49.2
 21
220.999992
 31
0.0
  0
LINE
  5
1AACE
330
1A970
100
AcDbEntity
  8
1
  6
Continuous
100
AcDbLine
 10
49.2
 20
195.9999919999999
 30
0.0
 11
50.007754
 21
195.001122
 31
0.0
  0
LINE
  5
1AACF
330
1A970
100
AcDbEntity
  8
1
  6
Continuous
100
AcDbLine
 10
89.99224599999998
 20
221.998863
 30
0.0
 11
90.8
 21
220.999992
 31
0.0
  0
LINE
  5
1AAD0
330
1A970
100
AcDbEntity
  8
1
  6
Continuous
100
AcDbLine
 10
90.8
 20
195.9999919999999
 30
0.0
 11
89.99224599999998
 21
195.001122
 31
0.0
  0
ARC
  5
1AAD1
330
1A970
100
AcDbEntity
  8
1
  6
Continuous
100
AcDbCircle
 10
399.499955
 20
175.7725629999999
 30
0.0
 40
4.0
100
AcDbArc
 50
275.896923
 51
0.0
  0
ARC
  5
1AAD2
330
1A970
100
AcDbEntity
  8
1
  6
Continuous
100
AcDbCircle
 10
369.500045
 20
175.7725629999999
 30
0.0
 40
4.0
100
AcDbArc
 50
180.0
 51
264.1030769999999
  0
ARC
  5
1AAD3
330
1A970
100
AcDbEntity
  8
1
  6
Continuous
100
AcDbCircle
 10
384.499955
 20
320.9999799999998
 30
0.0
 40
150.0
100
AcDbArc
 50
264.1030769999999
 51
275.896958
  0
LINE
  5
1AAD4
330
1A970
100
AcDbEntity
  8
1
  6
Continuous
100
AcDbLine
 10
403.499955
 20
175.77258
 30
0.0
 11
403.499955
 21
238.5689989999999
 31
0.0
  0
LINE
  5
1AAD5
330
1A970
100
AcDbEntity
  8
1
  6
Continuous
100
AcDbLine
 10
365.500045
 20
175.77258
 30
0.0
 11
365.500045
 21
238.5689989999999
 31
0.0
  0
ARC
  5
1AAD6
330
1A970
100
AcDbEntity
  8
1
  6
Continuous
100
AcDbCircle
 10
384.499955
 20
96.000004
 30
0.0
 40
150.0
100
AcDbArc
 50
84.85096099999998
 51
95.149
  0
LINE
  5
1AAD7
330
1A970
100
AcDbEntity
  8
1
  6
Continuous
100
AcDbLine
 10
405.2999999999998
 20
195.9999919999999
 30
0.0
 11
404.492246
 21
195.001122
 31
0.0
  0
LINE
  5
1AAD8
330
1A970
100
AcDbEntity
  8
1
  6
Continuous
100
AcDbLine
 10
404.492246
 20
221.998863
 30
0.0
 11
405.2999999999998
 21
220.999992
 31
0.0
  0
LINE
  5
1AAD9
330
1A970
100
AcDbEntity
  8
1
  6
Continuous
100
AcDbLine
 10
364.5077539999999
 20
221.998863
 30
0.0
 11
363.7
 21
220.999992
 31
0.0
  0
LINE
  5
1AADA
330
1A970
100
AcDbEntity
  8
1
  6
Continuous
100
AcDbLine
 10
363.7
 20
195.9999919999999
 30
0.0
 11
364.5077539999999
 21
195.001122
 31
0.0
  0
LINE
  5
1AADB
330
1A970
100
AcDbEntity
  8
1
  6
Continuous
100
AcDbLine
 10
225.0
 20
65.2
 30
0.0
 11
225.99887
 21
66.007754
 31
0.0
  0
LINE
  5
1AADC
330
1A970
100
AcDbEntity
  8
1
  6
Continuous
100
AcDbLine
 10
199.0011299999999
 20
66.007754
 30
0.0
 11
200.0
 21
65.2
 31
0.0
  0
LINE
  5
1AADD
330
1A970
100
AcDbEntity
  8
1
  6
Continuous
100
AcDbLine
 10
225.0
 20
106.8
 30
0.0
 11
225.99887
 21
105.9922459999998
 31
0.0
  0
LINE
  5
1AADE
330
1A970
100
AcDbEntity
  8
1
  6
Continuous
100
AcDbLine
 10
199.0011299999999
 20
105.9922459999998
 30
0.0
 11
200.0
 21
106.8
 31
0.0
  0
ARC
  5
1AADF
330
1A970
100
AcDbEntity
  8
1
  6
Continuous
100
AcDbCircle
 10
179.7725919999998
 20
376.999992
 30
0.0
 40
4.0
100
AcDbArc
 50
90.0
 51
174.103042
  0
ARC
  5
1AAE0
330
1A970
100
AcDbEntity
  8
1
  6
Continuous
100
AcDbCircle
 10
325.0
 20
361.999992
 30
0.0
 40
150.0
100
AcDbArc
 50
174.1026659999999
 51
185.896958
  0
ARC
  5
1AAE1
330
1A970
100
AcDbEntity
  8
1
  6
Continuous
100
AcDbCircle
 10
179.7725919999998
 20
346.999992
 30
0.0
 40
4.0
100
AcDbArc
 50
185.896958
 51
270.0
  0
LINE
  5
1AAE2
330
1A970
100
AcDbEntity
  8
1
  6
Continuous
100
AcDbLine
 10
179.7725919999998
 20
342.999992
 30
0.0
 11
189.4999999999998
 21
342.999992
 31
0.0
  0
LINE
  5
1AAE3
330
1A970
100
AcDbEntity
  8
1
  6
Continuous
100
AcDbLine
 10
179.7725919999998
 20
380.999992
 30
0.0
 11
189.4999999999998
 21
380.999992
 31
0.0
  0
ARC
  5
1AAE4
330
1A970
100
AcDbEntity
  8
1
  6
Continuous
100
AcDbCircle
 10
325.0
 20
86.0
 30
0.0
 40
150.0
100
AcDbArc
 50
174.1026659999999
 51
185.896958
  0
ARC
  5
1AAE5
330
1A970
100
AcDbEntity
  8
1
  6
Continuous
100
AcDbCircle
 10
179.7725919999998
 20
71.0
 30
0.0
 40
4.0
100
AcDbArc
 50
185.896958
 51
270.0
  0
ARC
  5
1AAE6
330
1A970
100
AcDbEntity
  8
1
  6
Continuous
100
AcDbCircle
 10
179.7725919999998
 20
101.0
 30
0.0
 40
4.0
100
AcDbArc
 50
90.0
 51
174.103042
  0
ARC
  5
1AAE7
330
1A970
100
AcDbEntity
  8
1
  6
Continuous
100
AcDbCircle
 10
100.0
 20
86.0
 30
0.0
 40
150.0
100
AcDbArc
 50
354.103042
 51
5.897333999999999
  0
ARC
  5
1AAE8
330
1A970
100
AcDbEntity
  8
1
  6
Continuous
100
AcDbCircle
 10
245.227408
 20
71.0
 30
0.0
 40
4.0
100
AcDbArc
 50
270.0
 51
354.103042
  0
ARC
  5
1AAE9
330
1A970
100
AcDbEntity
  8
1
  6
Continuous
100
AcDbCircle
 10
245.227408
 20
101.0
 30
0.0
 40
4.0
100
AcDbArc
 50
5.896957999999998
 51
90.0
  0
CIRCLE
  5
1AAEA
330
1A970
100
AcDbEntity
  8
1
  6
Continuous
100
AcDbCircle
 10
556.5
 20
208.499992
 30
0.0
 40
3.5
  0
LINE
  5
1AAEB
330
1A970
100
AcDbEntity
  8
1
  6
Continuous
100
AcDbLine
 10
105.4997999999998
 20
204.4999919999999
 30
0.0
 11
105.4997999999998
 21
212.499992
 31
0.0
  0
LINE
  5
1AAEC
330
1A970
100
AcDbEntity
  8
1
  6
Continuous
100
AcDbLine
 10
103.7
 20
214.299792
 30
0.0
 11
105.4997999999998
 21
212.499992
 31
0.0
  0
LINE
  5
1AAED
330
1A970
100
AcDbEntity
  8
2
  6
Continuous
100
AcDbLine
 10
103.7
 20
213.5529919999999
 30
0.0
 11
104.4467999999999
 21
213.5529919999999
 31
0.0
  0
LINE
  5
1AAEE
330
1A970
100
AcDbEntity
  8
1
  6
Continuous
100
AcDbLine
 10
96.70000000000001
 20
216.9999919999999
 30
0.0
 11
96.70000000000001
 21
199.999992
 31
0.0
  0
ARC
  5
1AAEF
330
1A970
100
AcDbEntity
  8
1
  6
Continuous
100
AcDbCircle
 10
112.940811
 20
208.499992
 30
0.0
 40
16.24081099999999
100
AcDbArc
 50
162.412046
 51
197.5879539999999
  0
ARC
  5
1AAF0
330
1A970
100
AcDbEntity
  8
1
  6
Continuous
100
AcDbCircle
 10
87.45918899999997
 20
208.499992
 30
0.0
 40
16.24081099999999
100
AcDbArc
 50
342.4120459999999
 51
17.587954
  0
LINE
  5
1AAF1
330
1A970
100
AcDbEntity
  8
1
  6
Continuous
100
AcDbLine
 10
103.7
 20
216.9999919999999
 30
0.0
 11
103.7
 21
199.999992
 31
0.0
  0
ARC
  5
1AAF2
330
1A970
100
AcDbEntity
  8
1
  6
Continuous
100
AcDbCircle
 10
101.0448989999999
 20
215.861208
 30
0.0
 40
4.344898999999998
100
AcDbArc
 50
154.3842469999999
 51
214.384247
  0
ARC
  5
1AAF3
330
1A970
100
AcDbEntity
  8
1
  6
Continuous
100
AcDbCircle
 10
99.35510100000001
 20
215.861208
 30
0.0
 40
4.344898999999998
100
AcDbArc
 50
325.6157529999999
 51
25.615753
  0
LINE
  5
1AAF4
330
1A970
100
AcDbEntity
  8
1
  6
Continuous
100
AcDbLine
 10
102.9408109999999
 20
218.314947
 30
0.0
 11
97.45918899999999
 21
218.314947
 31
0.0
  0
LINE
  5
1AAF5
330
1A970
100
AcDbEntity
  8
1
  6
Continuous
100
AcDbLine
 10
102.9408109999999
 20
218.314947
 30
0.0
 11
103.7
 21
216.9999919999999
 31
0.0
  0
LINE
  5
1AAF6
330
1A970
100
AcDbEntity
  8
1
  6
Continuous
100
AcDbLine
 10
97.45918899999999
 20
218.314947
 30
0.0
 11
96.70000000000001
 21
216.9999919999999
 31
0.0
  0
LINE
  5
1AAF7
330
1A970
100
AcDbEntity
  8
1
  6
Continuous
100
AcDbLine
 10
102.9408109999999
 20
213.4074689999999
 30
0.0
 11
97.45918899999999
 21
213.4074689999999
 31
0.0
  0
ARC
  5
1AAF8
330
1A970
100
AcDbEntity
  8
1
  6
Continuous
100
AcDbCircle
 10
101.0448989999999
 20
201.138776
 30
0.0
 40
4.344898999999998
100
AcDbArc
 50
145.615753
 51
205.615753
  0
ARC
  5
1AAF9
330
1A970
100
AcDbEntity
  8
1
  6
Continuous
100
AcDbCircle
 10
99.35510100000001
 20
201.138776
 30
0.0
 40
4.344898999999998
100
AcDbArc
 50
334.384247
 51
34.38424699999998
  0
LINE
  5
1AAFA
330
1A970
100
AcDbEntity
  8
1
  6
Continuous
100
AcDbLine
 10
102.9408109999999
 20
203.5925149999999
 30
0.0
 11
97.45918899999999
 21
203.5925149999999
 31
0.0
  0
LINE
  5
1AAFB
330
1A970
100
AcDbEntity
  8
1
  6
Continuous
100
AcDbLine
 10
102.9408109999999
 20
198.6850379999999
 30
0.0
 11
97.45918899999999
 21
198.6850379999999
 31
0.0
  0
LINE
  5
1AAFC
330
1A970
100
AcDbEntity
  8
1
  6
Continuous
100
AcDbLine
 10
102.9408109999999
 20
198.6850379999999
 30
0.0
 11
103.7
 21
199.999992
 31
0.0
  0
LINE
  5
1AAFD
330
1A970
100
AcDbEntity
  8
1
  6
Continuous
100
AcDbLine
 10
97.45918899999999
 20
198.6850379999999
 30
0.0
 11
96.70000000000001
 21
199.999992
 31
0.0
  0
ARC
  5
1AAFE
330
1A970
100
AcDbEntity
  8
1
  6
Continuous
100
AcDbCircle
 10
212.5
 20
208.499992
 30
0.0
 40
24.5
100
AcDbArc
 50
88.17249999999999
 51
341.741308
  0
ARC
  5
1AAFF
330
1A970
100
AcDbEntity
  8
1
  6
Continuous
100
AcDbCircle
 10
87.89995500000001
 20
231.9801879999999
 30
0.0
 40
1.5
100
AcDbArc
 50
7.589166999999997
 51
42.83342799999998
  0
ARC
  5
1AB00
330
1A970
100
AcDbEntity
  8
1
  6
Continuous
100
AcDbCircle
 10
9.993021999999999
 20
194.650984
 30
0.0
 40
80.0
100
AcDbArc
 50
352.952608
 51
359.747654
  0
ARC
  5
1AB01
330
1A970
100
AcDbEntity
  8
1
  6
Continuous
100
AcDbCircle
 10
9.993021999999999
 20
222.3490009999999
 30
0.0
 40
80.0
100
AcDbArc
 50
359.747654
 51
7.047391999999999
  0
ARC
  5
1AB02
330
1A970
100
AcDbEntity
  8
1
  6
Continuous
100
AcDbCircle
 10
402.399955
 20
231.9801879999999
 30
0.0
 40
1.5
100
AcDbArc
 50
7.589166999999997
 51
42.83342799999998
  0
ARC
  5
1AB03
330
1A970
100
AcDbEntity
  8
1
  6
Continuous
100
AcDbCircle
 10
324.493022
 20
222.3490009999999
 30
0.0
 40
80.0
100
AcDbArc
 50
359.747654
 51
7.047391999999999
  0
LINE
  5
1AB04
330
1A970
100
AcDbEntity
  8
1
  6
Continuous
100
AcDbLine
 10
404.492246
 20
194.2986429999999
 30
0.0
 11
404.492246
 21
222.701341
 31
0.0
  0
ARC
  5
1AB05
330
1A970
100
AcDbEntity
  8
1
  6
Continuous
100
AcDbCircle
 10
324.493022
 20
194.650984
 30
0.0
 40
80.0
100
AcDbArc
 50
352.952608
 51
0.250769
  0
ARC
  5
1AB06
330
1A970
100
AcDbEntity
  8
1
  6
Continuous
100
AcDbCircle
 10
402.399955
 20
185.0197959999999
 30
0.0
 40
1.5
100
AcDbArc
 50
317.166572
 51
352.952608
  0
ARC
  5
1AB07
330
1A970
100
AcDbEntity
  8
1
  6
Continuous
100
AcDbCircle
 10
366.600045
 20
231.9801879999999
 30
0.0
 40
1.5
100
AcDbArc
 50
137.1665719999998
 51
172.4108329999999
  0
ARC
  5
1AB08
330
1A970
100
AcDbEntity
  8
1
  6
Continuous
100
AcDbCircle
 10
444.5069779999998
 20
222.3490009999999
 30
0.0
 40
80.0
100
AcDbArc
 50
172.952608
 51
180.2523459999999
  0
LINE
  5
1AB09
330
1A970
100
AcDbEntity
  8
1
  6
Continuous
100
AcDbLine
 10
364.5077539999999
 20
195.0011209999999
 30
0.0
 11
364.5077539999999
 21
221.9988659999999
 31
0.0
  0
ARC
  5
1AB0A
330
1A970
100
AcDbEntity
  8
1
  6
Continuous
100
AcDbCircle
 10
444.5069779999998
 20
194.650984
 30
0.0
 40
80.0
100
AcDbArc
 50
179.749231
 51
187.047392
  0
ARC
  5
1AB0B
330
1A970
100
AcDbEntity
  8
1
  6
Continuous
100
AcDbCircle
 10
366.600045
 20
185.0197959999999
 30
0.0
 40
1.5
100
AcDbArc
 50
187.047392
 51
222.8334279999999
  0
ARC
  5
1AB0C
330
1A970
100
AcDbEntity
  8
1
  6
Continuous
100
AcDbCircle
 10
556.5
 20
208.499992
 30
0.0
 40
24.5
100
AcDbArc
 50
198.2586919999999
 51
91.8275
  0
ARC
  5
1AB0D
330
1A970
100
AcDbEntity
  8
1
  6
Continuous
100
AcDbCircle
 10
189.0198039999999
 20
103.8999549999999
 30
0.0
 40
1.5
100
AcDbArc
 50
97.589167
 51
132.8334279999999
  0
ARC
  5
1AB0E
330
1A970
100
AcDbEntity
  8
1
  6
Continuous
100
AcDbCircle
 10
198.6509919999998
 20
25.993022
 30
0.0
 40
80.0
100
AcDbArc
 50
89.74765399999999
 51
97.047392
  0
LINE
  5
1AB0F
330
1A970
100
AcDbEntity
  8
1
  6
Continuous
100
AcDbLine
 10
225.99887
 20
105.9922459999998
 30
0.0
 11
199.003332
 21
105.9922459999998
 31
0.0
  0
ARC
  5
1AB10
330
1A970
100
AcDbEntity
  8
1
  6
Continuous
100
AcDbCircle
 10
226.349225
 20
25.995386
 30
0.0
 40
79.99762699999998
100
AcDbArc
 50
82.952554
 51
90.25093099999999
  0
ARC
  5
1AB11
330
1A970
100
AcDbEntity
  8
1
  6
Continuous
100
AcDbCircle
 10
235.9801959999999
 20
103.8999549999999
 30
0.0
 40
1.5
100
AcDbArc
 50
47.16657199999999
 51
82.95260799999999
  0
ARC
  5
1AB12
330
1A970
100
AcDbEntity
  8
1
  6
Continuous
100
AcDbCircle
 10
130.006978
 20
222.3490009999999
 30
0.0
 40
80.0
100
AcDbArc
 50
172.952608
 51
180.2523459999999
  0
ARC
  5
1AB13
330
1A970
100
AcDbEntity
  8
1
  6
Continuous
100
AcDbCircle
 10
52.100045
 20
231.9801879999999
 30
0.0
 40
1.5
100
AcDbArc
 50
137.1665719999998
 51
172.4108329999999
  0
LINE
  5
1AB14
330
1A970
100
AcDbEntity
  8
1
  6
Continuous
100
AcDbLine
 10
50.007754
 20
194.2986429999999
 30
0.0
 11
50.007754
 21
221.9966599999999
 31
0.0
  0
ARC
  5
1AB15
330
1A970
100
AcDbEntity
  8
1
  6
Continuous
100
AcDbCircle
 10
130.006978
 20
194.650984
 30
0.0
 40
80.0
100
AcDbArc
 50
180.2523459999999
 51
187.047392
  0
ARC
  5
1AB16
330
1A970
100
AcDbEntity
  8
1
  6
Continuous
100
AcDbCircle
 10
52.100045
 20
185.0197959999999
 30
0.0
 40
1.5
100
AcDbArc
 50
187.047392
 51
222.8334279999999
  0
ARC
  5
1AB17
330
1A970
100
AcDbEntity
  8
1
  6
Continuous
100
AcDbCircle
 10
226.349225
 20
146.004614
 30
0.0
 40
79.99762699999998
100
AcDbArc
 50
269.749069
 51
277.0474459999999
  0
ARC
  5
1AB18
330
1A970
100
AcDbEntity
  8
1
  6
Continuous
100
AcDbCircle
 10
235.9801959999999
 20
68.10004499999999
 30
0.0
 40
1.5
100
AcDbArc
 50
277.047392
 51
312.833428
  0
LINE
  5
1AB19
330
1A970
100
AcDbEntity
  8
1
  6
Continuous
100
AcDbLine
 10
225.99887
 20
66.007754
 30
0.0
 11
199.003332
 21
66.007754
 31
0.0
  0
ARC
  5
1AB1A
330
1A970
100
AcDbEntity
  8
1
  6
Continuous
100
AcDbCircle
 10
198.6509919999998
 20
146.0069779999998
 30
0.0
 40
80.0
100
AcDbArc
 50
262.952608
 51
270.252346
  0
ARC
  5
1AB1B
330
1A970
100
AcDbEntity
  8
1
  6
Continuous
100
AcDbCircle
 10
189.0198039999999
 20
68.10004499999999
 30
0.0
 40
1.5
100
AcDbArc
 50
227.166572
 51
262.410833
  0
LINE
  5
1AB1C
330
1A970
100
AcDbEntity
  8
1
  6
Continuous
100
AcDbLine
 10
103.7
 20
202.700192
 30
0.0
 11
105.4997999999998
 21
204.4999919999999
 31
0.0
  0
LINE
  5
1AB1D
330
1A970
100
AcDbEntity
  8
2
  6
Continuous
100
AcDbLine
 10
103.7
 20
203.4469919999999
 30
0.0
 11
104.4467999999999
 21
203.4469919999999
 31
0.0
  0
CIRCLE
  5
1AB1E
330
1A970
100
AcDbEntity
  8
1
  6
Continuous
100
AcDbCircle
 10
212.5
 20
208.499992
 30
0.0
 40
4.0
  0
LINE
  5
1AB1F
330
1A970
100
AcDbEntity
  8
1
  6
Continuous
100
AcDbLine
 10
349.0002
 20
204.4999919999999
 30
0.0
 11
349.0002
 21
212.499992
 31
0.0
  0
LINE
  5
1AB20
330
1A970
100
AcDbEntity
  8
1
  6
Continuous
100
AcDbLine
 10
350.8
 20
214.299792
 30
0.0
 11
349.0002
 21
212.499992
 31
0.0
  0
LINE
  5
1AB21
330
1A970
100
AcDbEntity
  8
2
  6
Continuous
100
AcDbLine
 10
350.8
 20
213.5529919999999
 30
0.0
 11
350.0532
 21
213.5529919999999
 31
0.0
  0
LINE
  5
1AB22
330
1A970
100
AcDbEntity
  8
2
  6
Continuous
100
AcDbLine
 10
350.8
 20
203.4469919999999
 30
0.0
 11
350.0532
 21
203.4469919999999
 31
0.0
  0
LINE
  5
1AB23
330
1A970
100
AcDbEntity
  8
1
  6
Continuous
100
AcDbLine
 10
350.8
 20
202.700192
 30
0.0
 11
349.0002
 21
204.4999919999999
 31
0.0
  0
LINE
  5
1AB24
330
1A970
100
AcDbEntity
  8
1
  6
Continuous
100
AcDbLine
 10
216.5
 20
121.4998
 30
0.0
 11
208.4999999999999
 21
121.4998
 31
0.0
  0
LINE
  5
1AB25
330
1A970
100
AcDbEntity
  8
2
  6
Continuous
100
AcDbLine
 10
217.553
 20
119.7
 30
0.0
 11
217.553
 21
120.4468
 31
0.0
  0
LINE
  5
1AB26
330
1A970
100
AcDbEntity
  8
1
  6
Continuous
100
AcDbLine
 10
218.2997999999999
 20
119.7
 30
0.0
 11
216.5
 21
121.4998
 31
0.0
  0
LINE
  5
1AB27
330
1A970
100
AcDbEntity
  8
1
  6
Continuous
100
AcDbLine
 10
206.7002
 20
119.7
 30
0.0
 11
208.4999999999999
 21
121.4998
 31
0.0
  0
LINE
  5
1AB28
330
1A970
100
AcDbEntity
  8
2
  6
Continuous
100
AcDbLine
 10
207.447
 20
119.7
 30
0.0
 11
207.447
 21
120.4468
 31
0.0
  0
LINE
  5
1AB29
330
1A970
100
AcDbEntity
  8
4
  6
CENTER
100
AcDbLine
 10
212.5
 20
325.2999919999999
 30
0.0
 11
212.5
 21
402.4999919999998
 31
0.0
  0
ENDSEC
  0
SECTION
  2
OBJECTS
  0
DICTIONARY
  5
1A95E
330
0
100
AcDbDictionary
281
     1
  3
ACAD_CIP_PREVIOUS_PRODUCT_INFO
350
1AB8B
  3
ACAD_COLOR
350
1AB6D
  3
ACAD_DETAILVIEWSTYLE
350
1AB86
  3
ACAD_GROUP
350
1A95F
  3
ACAD_LAYOUT
350
1A96B
  3
ACAD_MATERIAL
350
1AB3B
  3
ACAD_MLEADERSTYLE
350
1AB82
  3
ACAD_MLINESTYLE
350
1A968
  3
ACAD_PLOTSETTINGS
350
1A96A
  3
ACAD_PLOTSTYLENAME
350
1AB39
  3
ACAD_SCALELIST
350
1AB70
  3
ACAD_SECTIONVIEWSTYLE
350
1AB84
  3
ACAD_TABLESTYLE
350
1AB6E
  3
ACAD_VISUALSTYLE
350
1AB54
  3
ACDB_RECOMPOSE_DATA
350
1ABA9
  3
AcDbVariableDictionary
350
1AB9C
  3
DWGPROPS
350
1ABAA
  0
DICTIONARY
  5
1AB8C
330
1A962
100
AcDbDictionary
280
     1
281
     1
  3
ADSK_XREC_LAYER_RECONCILED
360
1AB8D
  0
DICTIONARY
  5
1AB8E
330
1A978
100
AcDbDictionary
280
     1
281
     1
  3
ADSK_XREC_LAYER_RECONCILED
360
1AB8F
  0
DICTIONARY
  5
1AB90
330
1A979
100
AcDbDictionary
280
     1
281
     1
  3
ADSK_XREC_LAYER_RECONCILED
360
1AB91
  0
DICTIONARY
  5
1AB92
330
1A97A
100
AcDbDictionary
280
     1
281
     1
  3
ADSK_XREC_LAYER_RECONCILED
360
1AB93
  0
DICTIONARY
  5
1AB94
330
1A97B
100
AcDbDictionary
280
     1
281
     1
  3
ADSK_XREC_LAYER_RECONCILED
360
1AB95
  0
DICTIONARY
  5
1AB96
330
1A97C
100
AcDbDictionary
280
     1
281
     1
  3
ADSK_XREC_LAYER_RECONCILED
360
1AB97
  0
DICTIONARY
  5
1AB98
330
1A97D
100
AcDbDictionary
280
     1
281
     1
  3
ADSK_XREC_LAYER_RECONCILED
360
1AB99
  0
DICTIONARY
  5
1AB9A
330
1A97E
100
AcDbDictionary
280
     1
281
     1
  3
ADSK_XREC_LAYER_RECONCILED
360
1AB9B
  0
DICTIONARY
  5
1AB34
330
1A970
100
AcDbDictionary
281
     1
  3
ACAD_LAYOUTSELFREF
350
1AB35
  0
DICTIONARY
  5
1AB32
330
1A96C
100
AcDbDictionary
281
     1
  3
ACAD_LAYOUTSELFREF
350
1AB33
  0
XRECORD
  5
1AB8B
102
{ACAD_REACTORS
330
1A95E
102
}
330
1A95E
100
AcDbXrecord
280
     1
300
ACDLT
300
2014
300
ACDLT_F_S
  0
DICTIONARY
  5
1AB6D
102
{ACAD_REACTORS
330
1A95E
102
}
330
1A95E
100
AcDbDictionary
281
     1
  0
DICTIONARY
  5
1AB86
102
{ACAD_REACTORS
330
1A95E
102
}
330
1A95E
100
AcDbDictionary
281
     1
  3
Imperial24
350
1AB87
  0
DICTIONARY
  5
1A95F
102
{ACAD_REACTORS
330
1A95E
102
}
330
1A95E
100
AcDbDictionary
281
     1
  0
DICTIONARY
  5
1A96B
102
{ACAD_REACTORS
330
1A95E
102
}
330
1A95E
100
AcDbDictionary
281
     1
  3
Model
350
1AB88
  3
レイアウト1
350
1AB89
  0
DICTIONARY
  5
1AB3B
102
{ACAD_REACTORS
330
1A95E
102
}
330
1A95E
100
AcDbDictionary
281
     1
  3
ByBlock
350
1AB44
  3
ByLayer
350
1AB3C
  3
Global
350
1AB4C
  0
DICTIONARY
  5
1AB82
102
{ACAD_REACTORS
330
1A95E
102
}
330
1A95E
100
AcDbDictionary
281
     1
  3
Standard
350
1AB83
  0
DICTIONARY
  5
1A968
102
{ACAD_REACTORS
330
1A95E
102
}
330
1A95E
100
AcDbDictionary
281
     1
  3
STANDARD
350
1A969
  0
DICTIONARY
  5
1A96A
102
{ACAD_REACTORS
330
1A95E
102
}
330
1A95E
100
AcDbDictionary
281
     1
  0
ACDBDICTIONARYWDFLT
  5
1AB39
102
{ACAD_REACTORS
330
1A95E
102
}
330
1A95E
100
AcDbDictionary
281
     1
  3
Normal
350
1AB3A
100
AcDbDictionaryWithDefault
340
1AB3A
  0
DICTIONARY
  5
1AB70
102
{ACAD_REACTORS
330
1A95E
102
}
330
1A95E
100
AcDbDictionary
281
     1
  3
A0
350
1AB71
  3
A1
350
1AB72
  3
A2
350
1AB73
  3
A3
350
1AB74
  3
A4
350
1AB75
  3
A5
350
1AB76
  3
A6
350
1AB77
  3
A7
350
1AB78
  3
A8
350
1AB79
  3
A9
350
1AB7A
  3
B0
350
1AB7B
  3
B1
350
1AB7C
  3
B2
350
1AB7D
  3
B3
350
1AB7E
  3
B4
350
1AB7F
  3
B5
350
1AB80
  3
B6
350
1AB81
  0
DICTIONARY
  5
1AB84
102
{ACAD_REACTORS
330
1A95E
102
}
330
1A95E
100
AcDbDictionary
281
     1
  3
Imperial24
350
1AB85
  0
DICTIONARY
  5
1AB6E
102
{ACAD_REACTORS
330
1A95E
102
}
330
1A95E
100
AcDbDictionary
281
     1
  3
Standard
350
1AB6F
  0
DICTIONARY
  5
1AB54
102
{ACAD_REACTORS
330
1A95E
102
}
330
1A95E
100
AcDbDictionary
281
     1
  3
2dWireframe
350
1AB5A
  3
Basic
350
1AB59
  3
Brighten
350
1AB60
  3
ColorChange
350
1AB64
  3
Conceptual
350
1AB5D
  3
Dim
350
1AB5F
  3
EdgeColorOff
350
1AB6C
  3
Facepattern
350
1AB63
  3
Flat
350
1AB55
  3
FlatWithEdges
350
1AB56
  3
Gouraud
350
1AB57
  3
GouraudWithEdges
350
1AB58
  3
Hidden
350
1AB5C
  3
JitterOff
350
1AB6A
  3
Linepattern
350
1AB62
  3
OverhangOff
350
1AB6B
  3
Realistic
350
1AB5E
  3
Shaded
350
1AB69
  3
Shaded with edges
350
1AB68
  3
Shades of Gray
350
1AB65
  3
Sketchy
350
1AB66
  3
Thicken
350
1AB61
  3
Wireframe
350
1AB5B
  3
X-Ray
350
1AB67
  0
XRECORD
  5
1ABA9
102
{ACAD_REACTORS
330
1A95E
102
}
330
1A95E
100
AcDbXrecord
280
     1
 90
        1
330
1AB6F
  0
DICTIONARY
  5
1AB9C
102
{ACAD_REACTORS
330
1A95E
102
}
330
1A95E
100
AcDbDictionary
281
     1
  3
CANNOSCALE
350
1ABA1
  3
CMLEADERSTYLE
350
1AB9E
  3
CTABLESTYLE
350
1AB9D
  3
CVIEWDETAILSTYLE
350
1AB9F
  3
CVIEWSECTIONSTYLE
350
1ABA0
  3
DIMASSOC
350
1ABA4
  3
INDEXCTL
350
1ABA3
  3
SORTENTS
350
1ABA2
  3
XCLIPFRAME
350
1ABA5
  0
XRECORD
  5
1ABAA
102
{ACAD_REACTORS
330
1A95E
102
}
330
1A95E
100
AcDbXrecord
280
     1
  1
DWGPROPS COOKIE
  2

  3

  4

  6

  7

  8
Yoshitsune
  9

300
=
301
=
302
=
303
=
304
=
305
=
306
=
307
=
308
=
309
=
 40
0.0000093287037037
 41
2451302.610219676
 42
2457192.687079619
  1

 90
        0
  0
XRECORD
  5
1AB8D
102
{ACAD_REACTORS
330
1AB8C
102
}
330
1AB8C
100
AcDbXrecord
280
     1
290
     1
  0
XRECORD
  5
1AB8F
102
{ACAD_REACTORS
330
1AB8E
102
}
330
1AB8E
100
AcDbXrecord
280
     1
290
     1
  0
XRECORD
  5
1AB91
102
{ACAD_REACTORS
330
1AB90
102
}
330
1AB90
100
AcDbXrecord
280
     1
290
     1
  0
XRECORD
  5
1AB93
102
{ACAD_REACTORS
330
1AB92
102
}
330
1AB92
100
AcDbXrecord
280
     1
290
     1
  0
XRECORD
  5
1AB95
102
{ACAD_REACTORS
330
1AB94
102
}
330
1AB94
100
AcDbXrecord
280
     1
290
     1
  0
XRECORD
  5
1AB97
102
{ACAD_REACTORS
330
1AB96
102
}
330
1AB96
100
AcDbXrecord
280
     1
290
     1
  0
XRECORD
  5
1AB99
102
{ACAD_REACTORS
330
1AB98
102
}
330
1AB98
100
AcDbXrecord
280
     1
290
     1
  0
XRECORD
  5
1AB9B
102
{ACAD_REACTORS
330
1AB9A
102
}
330
1AB9A
100
AcDbXrecord
280
     1
290
     1
  0
XRECORD
  5
1AB35
102
{ACAD_REACTORS
330
1AB34
102
}
330
1AB34
100
AcDbXrecord
280
     1
340
1A970
  0
XRECORD
  5
1AB33
102
{ACAD_REACTORS
330
1AB32
102
}
330
1AB32
100
AcDbXrecord
280
     1
340
1A96C
  0
ACDBDETAILVIEWSTYLE
  5
1AB87
102
{ACAD_XDICTIONARY
360
1ABE2
102
}
102
{ACAD_REACTORS
330
1AB86
102
}
330
1AB86
100
AcDbModelDocViewStyle
 70
     0
  3
Imperial24
290
     0
100
AcDbDetailViewStyle
 70
     0
 71
     0
 90
        3
 71
     1
340
1A963
 40
0.24
340
0
 40
0.24
300

 40
0.36
280
     3
 71
     2
340
1A967
 90
       25
 71
     3
340
1A963
 40
0.24
 90
        1
 40
0.75
 90
        1
300
%<\AcVar ViewType \f "%tc1">% %<\AcVar ViewDetailId>%\PSCALE %<\AcVar ViewScale \f "%sn">%
 71
     4
340
1A967
 90
       25
340
1A967
 90
       25
280
     0
  0
LAYOUT
  5
1AB88
102
{ACAD_XDICTIONARY
360
1ABE4
102
}
102
{ACAD_REACTORS
330
1A96B
102
}
330
1A96B
100
AcDbPlotSettings
  1

  2
Canon LBP9100C
  4

  6

 40
0.0
 41
0.0
 42
0.0
 43
0.0
 44
0.0
 45
0.0
 46
0.0
 47
0.0
 48
0.0
 49
0.0
140
0.0
141
0.0
142
1.0
143
1.0
 70
  1712
 72
     0
 73
     0
 74
     0
  7

 75
     0
147
1.0
148
0.0
149
0.0
100
AcDbLayout
  1
Model
 70
     1
 71
     0
 10
0.0
 20
0.0
 11
12.0
 21
9.0
 12
0.0
 22
0.0
 32
0.0
 14
0.0
 24
0.0
 34
0.0
 15
0.0
 25
0.0
 35
0.0
146
0.0
 13
0.0
 23
0.0
 33
0.0
 16
1.0
 26
0.0
 36
0.0
 17
0.0
 27
1.0
 37
0.0
 76
     0
330
1A970
331
1AB31
  0
LAYOUT
  5
1AB89
102
{ACAD_XDICTIONARY
360
1ABE6
102
}
102
{ACAD_REACTORS
330
1A96B
102
}
330
1A96B
100
AcDbPlotSettings
  1

  2
Canon LBP9100C
  4

  6

 40
0.0
 41
0.0
 42
0.0
 43
0.0
 44
0.0
 45
0.0
 46
0.0
 47
0.0
 48
0.0
 49
0.0
140
0.0
141
0.0
142
1.0
143
1.0
 70
   688
 72
     0
 73
     0
 74
     5
  7

 75
    16
147
1.0
148
0.0
149
0.0
100
AcDbLayout
  1
レイアウト1
 70
     0
 71
     1
 10
0.0
 20
0.0
 11
420.0
 21
297.0
 12
0.0
 22
0.0
 32
0.0
 14
1.000000000000000E+20
 24
1.000000000000000E+20
 34
1.000000000000000E+20
 15
-1.000000000000000E+20
 25
-1.000000000000000E+20
 35
-1.000000000000000E+20
146
0.0
 13
0.0
 23
0.0
 33
0.0
 16
1.0
 26
0.0
 36
0.0
 17
0.0
 27
1.0
 37
0.0
 76
     0
330
1A96C
  0
MATERIAL
  5
1AB44
102
{ACAD_XDICTIONARY
360
1AB45
102
}
102
{ACAD_REACTORS
330
1AB3B
102
}
330
1AB3B
100
AcDbMaterial
  1
ByBlock
 72
     0
 43
0.0208333333333333
 43
0.0
 43
0.0
 43
0.0
 43
0.0
 43
0.0208333333333333
 43
0.0
 43
0.0
 43
0.0
 43
0.0
 43
1.0
 43
0.0
 43
0.0
 43
0.0
 43
0.0
 43
1.0
 77
     0
 47
0.0208333333333333
 47
0.0
 47
0.0
 47
0.0
 47
0.0
 47
0.0208333333333333
 47
0.0
 47
0.0
 47
0.0
 47
0.0
 47
1.0
 47
0.0
 47
0.0
 47
0.0
 47
0.0
 47
1.0
171
     0
 49
0.0208333333333333
 49
0.0
 49
0.0
 49
0.0
 49
0.0
 49
0.0208333333333333
 49
0.0
 49
0.0
 49
0.0
 49
0.0
 49
1.0
 49
0.0
 49
0.0
 49
0.0
 49
0.0
 49
1.0
175
     0
142
0.0208333333333333
142
0.0
142
0.0
142
0.0
142
0.0
142
0.0208333333333333
142
0.0
142
0.0
142
0.0
142
0.0
142
1.0
142
0.0
142
0.0
142
0.0
142
0.0
142
1.0
179
     0
144
0.0208333333333333
144
0.0
144
0.0
144
0.0
144
0.0
144
0.0208333333333333
144
0.0
144
0.0
144
0.0
144
0.0
144
1.0
144
0.0
144
0.0
144
0.0
144
0.0
144
1.0
147
0.0208333333333333
147
0.0
147
0.0
147
0.0
147
0.0
147
0.0208333333333333
147
0.0
147
0.0
147
0.0
147
0.0
147
1.0
147
0.0
147
0.0
147
0.0
147
0.0
147
1.0
  0
MATERIAL
  5
1AB3C
102
{ACAD_XDICTIONARY
360
1AB3D
102
}
102
{ACAD_REACTORS
330
1AB3B
102
}
330
1AB3B
100
AcDbMaterial
  1
ByLayer
 72
     0
 43
0.0208333333333333
 43
0.0
 43
0.0
 43
0.0
 43
0.0
 43
0.0208333333333333
 43
0.0
 43
0.0
 43
0.0
 43
0.0
 43
1.0
 43
0.0
 43
0.0
 43
0.0
 43
0.0
 43
1.0
 77
     0
 47
0.0208333333333333
 47
0.0
 47
0.0
 47
0.0
 47
0.0
 47
0.0208333333333333
 47
0.0
 47
0.0
 47
0.0
 47
0.0
 47
1.0
 47
0.0
 47
0.0
 47
0.0
 47
0.0
 47
1.0
171
     0
 49
0.0208333333333333
 49
0.0
 49
0.0
 49
0.0
 49
0.0
 49
0.0208333333333333
 49
0.0
 49
0.0
 49
0.0
 49
0.0
 49
1.0
 49
0.0
 49
0.0
 49
0.0
 49
0.0
 49
1.0
175
     0
142
0.0208333333333333
142
0.0
142
0.0
142
0.0
142
0.0
142
0.0208333333333333
142
0.0
142
0.0
142
0.0
142
0.0
142
1.0
142
0.0
142
0.0
142
0.0
142
0.0
142
1.0
179
     0
144
0.0208333333333333
144
0.0
144
0.0
144
0.0
144
0.0
144
0.0208333333333333
144
0.0
144
0.0
144
0.0
144
0.0
144
1.0
144
0.0
144
0.0
144
0.0
144
0.0
144
1.0
147
0.0208333333333333
147
0.0
147
0.0
147
0.0
147
0.0
147
0.0208333333333333
147
0.0
147
0.0
147
0.0
147
0.0
147
1.0
147
0.0
147
0.0
147
0.0
147
0.0
147
1.0
  0
MATERIAL
  5
1AB4C
102
{ACAD_XDICTIONARY
360
1AB4D
102
}
102
{ACAD_REACTORS
330
1AB3B
102
}
330
1AB3B
100
AcDbMaterial
  1
Global
 72
     0
 43
0.0208333333333333
 43
0.0
 43
0.0
 43
0.0
 43
0.0
 43
0.0208333333333333
 43
0.0
 43
0.0
 43
0.0
 43
0.0
 43
1.0
 43
0.0
 43
0.0
 43
0.0
 43
0.0
 43
1.0
 77
     0
 47
0.0208333333333333
 47
0.0
 47
0.0
 47
0.0
 47
0.0
 47
0.0208333333333333
 47
0.0
 47
0.0
 47
0.0
 47
0.0
 47
1.0
 47
0.0
 47
0.0
 47
0.0
 47
0.0
 47
1.0
171
     0
 49
0.0208333333333333
 49
0.0
 49
0.0
 49
0.0
 49
0.0
 49
0.0208333333333333
 49
0.0
 49
0.0
 49
0.0
 49
0.0
 49
1.0
 49
0.0
 49
0.0
 49
0.0
 49
0.0
 49
1.0
175
     0
142
0.0208333333333333
142
0.0
142
0.0
142
0.0
142
0.0
142
0.0208333333333333
142
0.0
142
0.0
142
0.0
142
0.0
142
1.0
142
0.0
142
0.0
142
0.0
142
0.0
142
1.0
179
     0
144
0.0208333333333333
144
0.0
144
0.0
144
0.0
144
0.0
144
0.0208333333333333
144
0.0
144
0.0
144
0.0
144
0.0
144
1.0
144
0.0
144
0.0
144
0.0
144
0.0
144
1.0
147
0.0208333333333333
147
0.0
147
0.0
147
0.0
147
0.0
147
0.0208333333333333
147
0.0
147
0.0
147
0.0
147
0.0
147
1.0
147
0.0
147
0.0
147
0.0
147
0.0
147
1.0
  0
MLEADERSTYLE
  5
1AB83
102
{ACAD_REACTORS
330
1AB82
102
}
330
1AB82
100
AcDbMLeaderStyle
170
     2
171
     1
172
     0
 90
        2
 40
0.0
 41
0.0
173
     1
 91
-1056964608
340
1A965
 92
       -2
290
     1
 42
0.09
291
     1
 43
0.36
  3
Standard
 44
0.18
300

342
1A963
174
     1
178
     6
175
     1
176
     0
 93
-1056964608
 45
0.18
292
     0
297
     0
 46
0.18
 94
-1056964608
 47
1.0
 49
1.0
140
1.0
293
     1
141
0.0
294
     1
177
     0
142
1.0
295
     0
296
     0
143
0.125
1001
ACAD_MLEADERVER
1070
     2
  0
MLINESTYLE
  5
1A969
102
{ACAD_REACTORS
330
1A968
102
}
330
1A968
100
AcDbMlineStyle
  2
STANDARD
 70
     0
  3

 62
   256
 51
90.0
 52
90.0
 71
     2
 49
0.5
 62
   256
  6
BYLAYER
 49
-0.5
 62
   256
  6
BYLAYER
  0
ACDBPLACEHOLDER
  5
1AB3A
102
{ACAD_REACTORS
330
1AB39
102
}
330
1AB39
  0
SCALE
  5
1AB71
102
{ACAD_REACTORS
330
1AB70
102
}
330
1AB70
100
AcDbScale
 70
     0
300
1:1
140
1.0
141
1.0
290
     1
  0
SCALE
  5
1AB72
102
{ACAD_REACTORS
330
1AB70
102
}
330
1AB70
100
AcDbScale
 70
     0
300
1/128" = 1'-0"
140
0.0078125
141
12.0
290
     0
  0
SCALE
  5
1AB73
102
{ACAD_REACTORS
330
1AB70
102
}
330
1AB70
100
AcDbScale
 70
     0
300
1/64" = 1'-0"
140
0.015625
141
12.0
290
     0
  0
SCALE
  5
1AB74
102
{ACAD_REACTORS
330
1AB70
102
}
330
1AB70
100
AcDbScale
 70
     0
300
1/32" = 1'-0"
140
0.03125
141
12.0
290
     0
  0
SCALE
  5
1AB75
102
{ACAD_REACTORS
330
1AB70
102
}
330
1AB70
100
AcDbScale
 70
     0
300
1/16" = 1'-0"
140
0.0625
141
12.0
290
     0
  0
SCALE
  5
1AB76
102
{ACAD_REACTORS
330
1AB70
102
}
330
1AB70
100
AcDbScale
 70
     0
300
3/32" = 1'-0"
140
0.09375
141
12.0
290
     0
  0
SCALE
  5
1AB77
102
{ACAD_REACTORS
330
1AB70
102
}
330
1AB70
100
AcDbScale
 70
     0
300
1/8" = 1'-0"
140
0.125
141
12.0
290
     0
  0
SCALE
  5
1AB78
102
{ACAD_REACTORS
330
1AB70
102
}
330
1AB70
100
AcDbScale
 70
     0
300
3/16" = 1'-0"
140
0.1875
141
12.0
290
     0
  0
SCALE
  5
1AB79
102
{ACAD_REACTORS
330
1AB70
102
}
330
1AB70
100
AcDbScale
 70
     0
300
1/4" = 1'-0"
140
0.25
141
12.0
290
     0
  0
SCALE
  5
1AB7A
102
{ACAD_REACTORS
330
1AB70
102
}
330
1AB70
100
AcDbScale
 70
     0
300
3/8" = 1'-0"
140
0.375
141
12.0
290
     0
  0
SCALE
  5
1AB7B
102
{ACAD_REACTORS
330
1AB70
102
}
330
1AB70
100
AcDbScale
 70
     0
300
1/2" = 1'-0"
140
0.5
141
12.0
290
     0
  0
SCALE
  5
1AB7C
102
{ACAD_REACTORS
330
1AB70
102
}
330
1AB70
100
AcDbScale
 70
     0
300
3/4" = 1'-0"
140
0.75
141
12.0
290
     0
  0
SCALE
  5
1AB7D
102
{ACAD_REACTORS
330
1AB70
102
}
330
1AB70
100
AcDbScale
 70
     0
300
1" = 1'-0"
140
1.0
141
12.0
290
     0
  0
SCALE
  5
1AB7E
102
{ACAD_REACTORS
330
1AB70
102
}
330
1AB70
100
AcDbScale
 70
     0
300
1-1/2" = 1'-0"
140
1.5
141
12.0
290
     0
  0
SCALE
  5
1AB7F
102
{ACAD_REACTORS
330
1AB70
102
}
330
1AB70
100
AcDbScale
 70
     0
300
3" = 1'-0"
140
3.0
141
12.0
290
     0
  0
SCALE
  5
1AB80
102
{ACAD_REACTORS
330
1AB70
102
}
330
1AB70
100
AcDbScale
 70
     0
300
6" = 1'-0"
140
6.0
141
12.0
290
     0
  0
SCALE
  5
1AB81
102
{ACAD_REACTORS
330
1AB70
102
}
330
1AB70
100
AcDbScale
 70
     0
300
1'-0" = 1'-0"
140
12.0
141
12.0
290
     0
  0
ACDBSECTIONVIEWSTYLE
  5
1AB85
102
{ACAD_XDICTIONARY
360
1ABE0
102
}
102
{ACAD_REACTORS
330
1AB84
102
}
330
1AB84
100
AcDbModelDocViewStyle
 70
     0
  3
Imperial24
290
     0
100
AcDbSectionViewStyle
 70
     0
 71
     0
 90
       78
 71
     1
340
1A963
 40
0.24
340
0
340
0
 40
0.24
300
I, O, Q, S, X, Z
 40
0.48
 90
        3
 40
0.18
 90
        1
 71
     2
340
1A967
 90
       25
340
1A967
 90
       50
 40
0.24
 40
0.0
 40
0.24
 71
     3
340
1A963
 40
0.24
 90
        1
 40
0.75
 90
        1
300
%<\AcVar ViewType \f "%tc1">% %<\AcVar ViewSectionStartId>%-%<\AcVar ViewSectionEndId>%\PSCALE %<\AcVar ViewScale \f "%sn">%
 71
     4
300
ANSI31
 40
1.0
 90
        0
290
     0
290
     0
 90
        6
 40
0.0
 40
1.570796326794896
 40
0.2617993877991494
 40
1.308996938995747
 40
-0.2617993877991494
 40
1.832595714594046
  0
TABLESTYLE
  5
1AB6F
102
{ACAD_XDICTIONARY
360
1ABA7
102
}
102
{ACAD_REACTORS
330
1AB6E
102
}
330
1AB6E
100
AcDbTableStyle
  3
Standard
 70
     0
 71
     0
 40
0.06
 41
0.06
280
     0
281
     0
  7
STANDARD
140
0.18
170
     2
 62
     0
 63
     7
283
     0
274
    -2
284
     1
 64
     0
275
    -2
285
     1
 65
     0
276
    -2
286
     1
 66
     0
277
    -2
287
     1
 67
     0
278
    -2
288
     1
 68
     0
279
    -2
289
     1
 69
     0
  7
STANDARD
140
0.25
170
     5
 62
     0
 63
     7
283
     0
274
    -2
284
     1
 64
     0
275
    -2
285
     1
 65
     0
276
    -2
286
     1
 66
     0
277
    -2
287
     1
 67
     0
278
    -2
288
     1
 68
     0
279
    -2
289
     1
 69
     0
  7
STANDARD
140
0.18
170
     5
 62
     0
 63
     7
283
     0
274
    -2
284
     1
 64
     0
275
    -2
285
     1
 65
     0
276
    -2
286
     1
 66
     0
277
    -2
287
     1
 67
     0
278
    -2
288
     1
 68
     0
279
    -2
289
     1
 69
     0
  0
VISUALSTYLE
  5
1AB5A
102
{ACAD_XDICTIONARY
360
1ABB8
102
}
102
{ACAD_REACTORS
330
1AB54
102
}
330
1AB54
100
AcDbVisualStyle
  2
2dWireframe
 70
     4
 71
     0
 72
     2
 73
     0
 90
        0
 40
-0.6
 41
-30.0
 62
     5
 63
     7
 74
     1
 91
        4
 64
     7
 65
   257
 75
     1
175
     1
 42
1.0
 92
        0
 66
   257
 43
1.0
 76
     1
 77
     6
 78
     2
 67
     7
 79
     5
170
     0
171
     0
290
     0
174
     0
 93
        1
 44
0.0
173
     0
291
     0
 45
0.0
1001
ACAD
1000
AcDbSavedByObjectVersion
1070
     0
  0
VISUALSTYLE
  5
1AB59
102
{ACAD_XDICTIONARY
360
1ABB6
102
}
102
{ACAD_REACTORS
330
1AB54
102
}
330
1AB54
100
AcDbVisualStyle
  2
Basic
 70
     7
 71
     1
 72
     0
 73
     1
 90
        0
 40
-0.6
 41
-30.0
 62
     5
 63
     7
 74
     0
 91
        4
 64
     7
 65
   257
 75
     1
175
     1
 42
1.0
 92
        8
 66
     7
 43
1.0
 76
     1
 77
     6
 78
     2
 67
     7
 79
     5
170
     0
171
     0
290
     0
174
     0
 93
        1
 44
0.0
173
     0
291
     1
 45
0.0
1001
ACAD
1000
AcDbSavedByObjectVersion
1070
     0
  0
VISUALSTYLE
  5
1AB60
102
{ACAD_XDICTIONARY
360
1ABC4
102
}
102
{ACAD_REACTORS
330
1AB54
102
}
330
1AB54
100
AcDbVisualStyle
  2
Brighten
 70
    12
 71
     2
 72
     2
 73
     0
 90
        0
 40
-0.6
 41
-30.0
 62
     5
 63
     7
 74
     1
 91
        4
 64
     7
 65
   257
 75
     1
175
     1
 42
1.0
 92
        8
 66
     7
 43
1.0
 76
     1
 77
     6
 78
     2
 67
     7
 79
     5
170
     0
171
     0
290
     0
174
     0
 93
        1
 44
50.0
173
     0
291
     1
 45
0.0
1001
ACAD
1000
AcDbSavedByObjectVersion
1070
     0
  0
VISUALSTYLE
  5
1AB64
102
{ACAD_XDICTIONARY
360
1ABCC
102
}
102
{ACAD_REACTORS
330
1AB54
102
}
330
1AB54
100
AcDbVisualStyle
  2
ColorChange
 70
    16
 71
     2
 72
     2
 73
     3
 90
        0
 40
-0.6
 41
-30.0
 62
     5
 63
     8
 74
     1
 91
        4
 64
     7
 65
   257
 75
     1
175
     1
 42
1.0
 92
        8
 66
     8
 43
1.0
 76
     1
 77
     6
 78
     2
 67
     7
 79
     5
170
     0
171
     0
290
     0
174
     0
 93
        1
 44
0.0
173
     0
291
     1
 45
0.0
1001
ACAD
1000
AcDbSavedByObjectVersion
1070
     0
  0
VISUALSTYLE
  5
1AB5D
102
{ACAD_XDICTIONARY
360
1ABBE
102
}
102
{ACAD_REACTORS
330
1AB54
102
}
330
1AB54
100
AcDbVisualStyle
  2
Conceptual
 70
     9
 71
     3
 72
     2
 73
     0
 90
        0
 40
-0.6
 41
-30.0
 62
     5
 63
     7
 74
     2
 91
        2
 64
     7
 65
   257
 75
     1
175
     1
 42
179.0
 92
        8
 66
     7
 43
1.0
 76
     1
 77
     6
 78
     2
 67
     7
 79
     3
170
     0
171
     0
290
     0
174
     0
 93
        1
 44
0.0
173
     0
291
     0
 45
0.0
1001
ACAD
1000
AcDbSavedByObjectVersion
1070
     0
  0
VISUALSTYLE
  5
1AB5F
102
{ACAD_XDICTIONARY
360
1ABC2
102
}
102
{ACAD_REACTORS
330
1AB54
102
}
330
1AB54
100
AcDbVisualStyle
  2
Dim
 70
    11
 71
     2
 72
     2
 73
     0
 90
        0
 40
-0.6
 41
-30.0
 62
     5
 63
     7
 74
     1
 91
        4
 64
     7
 65
   257
 75
     1
175
     1
 42
1.0
 92
        8
 66
     7
 43
1.0
 76
     1
 77
     6
 78
     2
 67
     7
 79
     5
170
     0
171
     0
290
     0
174
     0
 93
        1
 44
-50.0
173
     0
291
     1
 45
0.0
1001
ACAD
1000
AcDbSavedByObjectVersion
1070
     0
  0
VISUALSTYLE
  5
1AB6C
102
{ACAD_XDICTIONARY
360
1ABDC
102
}
102
{ACAD_REACTORS
330
1AB54
102
}
330
1AB54
100
AcDbVisualStyle
  2
EdgeColorOff
 70
    22
 71
     2
 72
     2
 73
     0
 90
        0
 40
-0.6
 41
-30.0
 62
     5
 63
     7
 74
     1
 91
        4
 64
     7
 65
   257
 75
     1
175
     1
 42
1.0
 92
        8
 66
     7
 43
1.0
 76
     1
 77
     6
 78
     2
 67
     7
 79
     5
170
     0
171
     0
290
     0
174
     0
 93
        1
 44
0.0
173
     0
291
     1
 45
0.0
1001
ACAD
1000
AcDbSavedByObjectVersion
1070
     0
  0
VISUALSTYLE
  5
1AB63
102
{ACAD_XDICTIONARY
360
1ABCA
102
}
102
{ACAD_REACTORS
330
1AB54
102
}
330
1AB54
100
AcDbVisualStyle
  2
Facepattern
 70
    15
 71
     2
 72
     2
 73
     0
 90
        0
 40
-0.6
 41
-30.0
 62
     5
 63
     7
 74
     1
 91
        4
 64
     7
 65
   257
 75
     1
175
     1
 42
1.0
 92
        8
 66
     7
 43
1.0
 76
     1
 77
     6
 78
     2
 67
     7
 79
     5
170
     0
171
     0
290
     0
174
     0
 93
        1
 44
0.0
173
     0
291
     1
 45
0.0
1001
ACAD
1000
AcDbSavedByObjectVersion
1070
     0
  0
VISUALSTYLE
  5
1AB55
102
{ACAD_XDICTIONARY
360
1ABAE
102
}
102
{ACAD_REACTORS
330
1AB54
102
}
330
1AB54
100
AcDbVisualStyle
  2
Flat
 70
     0
 71
     2
 72
     1
 73
     1
 90
        2
 40
-0.6
 41
30.0
 62
     5
 63
     7
 74
     0
 91
        0
 64
     7
 65
   257
 75
     1
175
     1
 42
1.0
 92
        8
 66
     7
 43
1.0
 76
     1
 77
     6
 78
     2
 67
     7
 79
     5
170
     0
171
     0
290
     0
174
     0
 93
       13
 44
0.0
173
     0
291
     1
 45
0.0
1001
ACAD
1000
AcDbSavedByObjectVersion
1070
     0
  0
VISUALSTYLE
  5
1AB56
102
{ACAD_XDICTIONARY
360
1ABB0
102
}
102
{ACAD_REACTORS
330
1AB54
102
}
330
1AB54
100
AcDbVisualStyle
  2
FlatWithEdges
 70
     1
 71
     2
 72
     1
 73
     1
 90
        2
 40
-0.6
 41
30.0
 62
     5
 63
     7
 74
     1
 91
        0
 64
     7
 65
   257
 75
     1
175
     1
 42
1.0
 92
        0
 66
   257
 43
1.0
 76
     1
 77
     6
 78
     2
 67
     7
 79
     5
170
     0
171
     0
290
     0
174
     0
 93
       13
 44
0.0
173
     0
291
     1
 45
0.0
1001
ACAD
1000
AcDbSavedByObjectVersion
1070
     0
  0
VISUALSTYLE
  5
1AB57
102
{ACAD_XDICTIONARY
360
1ABB2
102
}
102
{ACAD_REACTORS
330
1AB54
102
}
330
1AB54
100
AcDbVisualStyle
  2
Gouraud
 70
     2
 71
     2
 72
     2
 73
     1
 90
        2
 40
-0.6
 41
30.0
 62
     5
 63
     7
 74
     0
 91
        0
 64
     7
 65
   257
 75
     1
175
     1
 42
1.0
 92
        0
 66
     7
 43
1.0
 76
     1
 77
     6
 78
     2
 67
     7
 79
     5
170
     0
171
     0
290
     0
174
     0
 93
       13
 44
0.0
173
     0
291
     1
 45
0.0
1001
ACAD
1000
AcDbSavedByObjectVersion
1070
     0
  0
VISUALSTYLE
  5
1AB58
102
{ACAD_XDICTIONARY
360
1ABB4
102
}
102
{ACAD_REACTORS
330
1AB54
102
}
330
1AB54
100
AcDbVisualStyle
  2
GouraudWithEdges
 70
     3
 71
     2
 72
     2
 73
     1
 90
        2
 40
-0.6
 41
30.0
 62
     5
 63
     7
 74
     1
 91
        0
 64
     7
 65
   257
 75
     1
175
     1
 42
1.0
 92
        0
 66
   257
 43
1.0
 76
     1
 77
     6
 78
     2
 67
     7
 79
     5
170
     0
171
     0
290
     0
174
     0
 93
       13
 44
0.0
173
     0
291
     1
 45
0.0
1001
ACAD
1000
AcDbSavedByObjectVersion
1070
     0
  0
VISUALSTYLE
  5
1AB5C
102
{ACAD_XDICTIONARY
360
1ABBC
102
}
102
{ACAD_REACTORS
330
1AB54
102
}
330
1AB54
100
AcDbVisualStyle
  2
Hidden
 70
     6
 71
     1
 72
     2
 73
     2
 90
        0
 40
-0.6
 41
-30.0
 62
     5
 63
     7
 74
     2
 91
        2
 64
     7
 65
   257
 75
     2
175
     1
 42
40.0
 92
        0
 66
   257
 43
1.0
 76
     1
 77
     6
 78
     2
 67
     7
 79
     3
170
     0
171
     0
290
     0
174
     0
 93
        1
 44
0.0
173
     0
291
     0
 45
0.0
1001
ACAD
1000
AcDbSavedByObjectVersion
1070
     0
  0
VISUALSTYLE
  5
1AB6A
102
{ACAD_XDICTIONARY
360
1ABD8
102
}
102
{ACAD_REACTORS
330
1AB54
102
}
330
1AB54
100
AcDbVisualStyle
  2
JitterOff
 70
    20
 71
     2
 72
     2
 73
     0
 90
        0
 40
-0.6
 41
-30.0
 62
     5
 63
     7
 74
     1
 91
        4
 64
     7
 65
   257
 75
     1
175
     1
 42
1.0
 92
       10
 66
     7
 43
1.0
 76
     1
 77
     6
 78
     2
 67
     7
 79
     5
170
     0
171
     0
290
     0
174
     0
 93
        1
 44
0.0
173
     0
291
     1
 45
0.0
1001
ACAD
1000
AcDbSavedByObjectVersion
1070
     0
  0
VISUALSTYLE
  5
1AB62
102
{ACAD_XDICTIONARY
360
1ABC8
102
}
102
{ACAD_REACTORS
330
1AB54
102
}
330
1AB54
100
AcDbVisualStyle
  2
Linepattern
 70
    14
 71
     2
 72
     2
 73
     0
 90
        0
 40
-0.6
 41
-30.0
 62
     5
 63
     7
 74
     1
 91
        4
 64
     7
 65
   257
 75
     7
175
     7
 42
1.0
 92
        8
 66
     7
 43
1.0
 76
     1
 77
     6
 78
     2
 67
     7
 79
     5
170
     0
171
     0
290
     0
174
     0
 93
        1
 44
0.0
173
     0
291
     1
 45
0.0
1001
ACAD
1000
AcDbSavedByObjectVersion
1070
     0
  0
VISUALSTYLE
  5
1AB6B
102
{ACAD_XDICTIONARY
360
1ABDA
102
}
102
{ACAD_REACTORS
330
1AB54
102
}
330
1AB54
100
AcDbVisualStyle
  2
OverhangOff
 70
    21
 71
     2
 72
     2
 73
     0
 90
        0
 40
-0.6
 41
-30.0
 62
     5
 63
     7
 74
     1
 91
        4
 64
     7
 65
   257
 75
     1
175
     1
 42
1.0
 92
        9
 66
     7
 43
1.0
 76
     1
 77
     6
 78
     2
 67
     7
 79
     5
170
     0
171
     0
290
     0
174
     0
 93
        1
 44
0.0
173
     0
291
     1
 45
0.0
1001
ACAD
1000
AcDbSavedByObjectVersion
1070
     0
  0
VISUALSTYLE
  5
1AB5E
102
{ACAD_XDICTIONARY
360
1ABC0
102
}
102
{ACAD_REACTORS
330
1AB54
102
}
330
1AB54
100
AcDbVisualStyle
  2
Realistic
 70
     8
 71
     2
 72
     3
 73
     0
 90
        2
 40
-0.6
 41
30.0
 62
     5
 63
     7
 74
     0
 91
        0
 64
     7
 65
   257
 75
     1
175
     1
 42
1.0
 92
        8
 66
   257
 43
1.0
 76
     1
 77
     6
 78
     2
 67
     7
 79
     3
170
     0
171
     0
290
     0
174
     0
 93
       13
 44
0.0
173
     0
291
     0
 45
0.0
1001
ACAD
1000
AcDbSavedByObjectVersion
1070
     0
  0
VISUALSTYLE
  5
1AB69
102
{ACAD_XDICTIONARY
360
1ABD6
102
}
102
{ACAD_REACTORS
330
1AB54
102
}
330
1AB54
100
AcDbVisualStyle
  2
Shaded
 70
    27
 71
     2
 72
     2
 73
     1
 90
        2
 40
-0.6
 41
30.0
 62
     5
 63
     7
 74
     0
 91
        4
 64
     7
 65
   257
 75
     1
175
     1
 42
1.0
 92
        8
 66
   257
 43
1.0
 76
     1
 77
     6
 78
     2
 67
     8
 79
     3
170
     0
171
     0
290
     0
174
     0
 93
        5
 44
0.0
173
     0
291
     0
 45
0.0
1001
ACAD
1000
AcDbSavedByObjectVersion
1070
     0
  0
VISUALSTYLE
  5
1AB68
102
{ACAD_XDICTIONARY
360
1ABD4
102
}
102
{ACAD_REACTORS
330
1AB54
102
}
330
1AB54
100
AcDbVisualStyle
  2
Shaded with edges
 70
    26
 71
     2
 72
     2
 73
     1
 90
        2
 40
-0.6
 41
30.0
 62
     5
 63
     7
 74
     1
 91
       10
 64
     7
 65
   257
 75
     2
175
     1
 42
1.0
 92
        8
 66
   257
 43
1.0
 76
     1
 77
     6
 78
     2
 67
     7
 79
     3
170
     0
171
     0
290
     0
174
     0
 93
        5
 44
0.0
173
     0
291
     0
 45
0.0
1001
ACAD
1000
AcDbSavedByObjectVersion
1070
     0
  0
VISUALSTYLE
  5
1AB65
102
{ACAD_XDICTIONARY
360
1ABCE
102
}
102
{ACAD_REACTORS
330
1AB54
102
}
330
1AB54
100
AcDbVisualStyle
  2
Shades of Gray
 70
    23
 71
     2
 72
     2
 73
     3
 90
        0
 40
-0.6
 41
-30.0
 62
     5
 63
     7
 74
     2
 91
        2
 64
     7
 65
     7
 75
     1
175
     1
 42
40.0
 92
        8
 66
     7
 43
1.0
 76
     1
 77
     6
 78
     2
 67
     7
 79
     3
170
     0
171
     0
290
     0
174
     0
 93
        1
 44
0.0
173
     0
291
     0
 45
0.0
1001
ACAD
1000
AcDbSavedByObjectVersion
1070
     0
  0
VISUALSTYLE
  5
1AB66
102
{ACAD_XDICTIONARY
360
1ABD0
102
}
102
{ACAD_REACTORS
330
1AB54
102
}
330
1AB54
100
AcDbVisualStyle
  2
Sketchy
 70
    24
 71
     1
 72
     2
 73
     2
 90
        0
 40
-0.6
 41
-30.0
 62
     5
 63
     7
 74
     2
 91
        2
 64
     7
 65
     7
 75
     1
175
     1
 42
40.0
 92
       11
 66
     7
 43
1.0
 76
     1
 77
     6
 78
     2
 67
     7
 79
     6
170
     0
171
     0
290
     0
174
     0
 93
        1
 44
0.0
173
     0
291
     0
 45
0.0
1001
ACAD
1000
AcDbSavedByObjectVersion
1070
     0
  0
VISUALSTYLE
  5
1AB61
102
{ACAD_XDICTIONARY
360
1ABC6
102
}
102
{ACAD_REACTORS
330
1AB54
102
}
330
1AB54
100
AcDbVisualStyle
  2
Thicken
 70
    13
 71
     2
 72
     2
 73
     0
 90
        0
 40
-0.6
 41
-30.0
 62
     5
 63
     7
 74
     1
 91
        4
 64
     7
 65
   257
 75
     1
175
     1
 42
1.0
 92
       12
 66
     7
 43
1.0
 76
     1
 77
     6
 78
     2
 67
     7
 79
     5
170
     0
171
     0
290
     0
174
     0
 93
        1
 44
0.0
173
     0
291
     1
 45
0.0
1001
ACAD
1000
AcDbSavedByObjectVersion
1070
     0
  0
VISUALSTYLE
  5
1AB5B
102
{ACAD_XDICTIONARY
360
1ABBA
102
}
102
{ACAD_REACTORS
330
1AB54
102
}
330
1AB54
100
AcDbVisualStyle
  2
Wireframe
 70
     5
 71
     0
 72
     2
 73
     0
 90
        0
 40
-0.6
 41
-30.0
 62
     5
 63
     7
 74
     1
 91
        4
 64
     7
 65
   257
 75
     1
175
     1
 42
1.0
 92
        0
 66
   257
 43
1.0
 76
     1
 77
     6
 78
     2
 67
     7
 79
     3
170
     0
171
     0
290
     0
174
     0
 93
        1
 44
0.0
173
     0
291
     0
 45
0.0
1001
ACAD
1000
AcDbSavedByObjectVersion
1070
     0
  0
VISUALSTYLE
  5
1AB67
102
{ACAD_XDICTIONARY
360
1ABD2
102
}
102
{ACAD_REACTORS
330
1AB54
102
}
330
1AB54
100
AcDbVisualStyle
  2
X-Ray
 70
    25
 71
     2
 72
     2
 73
     1
 90
        1
 40
0.5
 41
-30.0
 62
     5
 63
     7
 74
     1
 91
        0
 64
     7
 65
   257
 75
     1
175
     1
 42
1.0
 92
        8
 66
     7
 43
1.0
 76
     1
 77
     6
 78
     2
 67
     7
 79
     3
170
     0
171
     0
290
     0
174
     0
 93
       13
 44
0.0
173
     0
291
     0
 45
0.0
1001
ACAD
1000
AcDbSavedByObjectVersion
1070
     0
  0
DICTIONARYVAR
  5
1ABA1
102
{ACAD_REACTORS
330
1AB9C
102
}
330
1AB9C
100
DictionaryVariables
280
     0
  1
1:1
  0
DICTIONARYVAR
  5
1AB9E
102
{ACAD_REACTORS
330
1AB9C
102
}
330
1AB9C
100
DictionaryVariables
280
     0
  1
STANDARD
  0
DICTIONARYVAR
  5
1AB9D
102
{ACAD_REACTORS
330
1AB9C
102
}
330
1AB9C
100
DictionaryVariables
280
     0
  1
STANDARD
  0
DICTIONARYVAR
  5
1AB9F
102
{ACAD_REACTORS
330
1AB9C
102
}
330
1AB9C
100
DictionaryVariables
280
     0
  1
Imperial24
  0
DICTIONARYVAR
  5
1ABA0
102
{ACAD_REACTORS
330
1AB9C
102
}
330
1AB9C
100
DictionaryVariables
280
     0
  1
Imperial24
  0
DICTIONARYVAR
  5
1ABA4
102
{ACAD_REACTORS
330
1AB9C
102
}
330
1AB9C
100
DictionaryVariables
280
     0
  1
1
  0
DICTIONARYVAR
  5
1ABA3
102
{ACAD_REACTORS
330
1AB9C
102
}
330
1AB9C
100
DictionaryVariables
280
     0
  1
0
  0
DICTIONARYVAR
  5
1ABA2
102
{ACAD_REACTORS
330
1AB9C
102
}
330
1AB9C
100
DictionaryVariables
280
     0
  1
127
  0
DICTIONARYVAR
  5
1ABA5
102
{ACAD_REACTORS
330
1AB9C
102
}
330
1AB9C
100
DictionaryVariables
280
     0
  1
2
  0
DICTIONARY
  5
1ABE2
330
1AB87
100
AcDbDictionary
280
     1
281
     1
  3
ACAD_XREC_ROUNDTRIP
360
1ABE3
  0
DICTIONARY
  5
1ABE4
330
1AB88
100
AcDbDictionary
280
     1
281
     1
  3
ACAD_XREC_ROUNDTRIP
360
1ABE5
  0
DICTIONARY
  5
1ABE6
330
1AB89
100
AcDbDictionary
280
     1
281
     1
  3
ACAD_XREC_ROUNDTRIP
360
1ABE7
  0
DICTIONARY
  5
1AB45
330
1AB44
100
AcDbDictionary
280
     1
281
     1
  3
ACAD_XREC_ROUNDTRIP
360
1ABAC
  3
BUMPTILE
360
1AB47
  3
DIFFUSETILE
360
1AB46
  3
OPACITYTILE
360
1AB4A
  3
REFLECTIONTILE
360
1AB49
  3
REFRACTIONTILE
360
1AB4B
  3
SPECULARTILE
360
1AB48
  0
DICTIONARY
  5
1AB3D
330
1AB3C
100
AcDbDictionary
280
     1
281
     1
  3
ACAD_XREC_ROUNDTRIP
360
1ABAB
  3
BUMPTILE
360
1AB3F
  3
DIFFUSETILE
360
1AB3E
  3
OPACITYTILE
360
1AB42
  3
REFLECTIONTILE
360
1AB41
  3
REFRACTIONTILE
360
1AB43
  3
SPECULARTILE
360
1AB40
  0
DICTIONARY
  5
1AB4D
330
1AB4C
100
AcDbDictionary
280
     1
281
     1
  3
ACAD_XREC_ROUNDTRIP
360
1ABAD
  3
BUMPTILE
360
1AB4F
  3
DIFFUSETILE
360
1AB4E
  3
OPACITYTILE
360
1AB52
  3
REFLECTIONTILE
360
1AB51
  3
REFRACTIONTILE
360
1AB53
  3
SPECULARTILE
360
1AB50
  0
DICTIONARY
  5
1ABE0
330
1AB85
100
AcDbDictionary
280
     1
281
     1
  3
ACAD_XREC_ROUNDTRIP
360
1ABE1
  0
DICTIONARY
  5
1ABA7
330
1AB6F
100
AcDbDictionary
280
     1
281
     1
  3
ACAD_ROUNDTRIP_2008_TABLESTYLE_CELLSTYLEMAP
360
1ABA8
  3
ACAD_XREC_ROUNDTRIP
360
1ABDE
  0
DICTIONARY
  5
1ABB8
330
1AB5A
100
AcDbDictionary
280
     1
281
     1
  3
ACAD_XREC_ROUNDTRIP
360
1ABB9
  0
DICTIONARY
  5
1ABB6
330
1AB59
100
AcDbDictionary
280
     1
281
     1
  3
ACAD_XREC_ROUNDTRIP
360
1ABB7
  0
DICTIONARY
  5
1ABC4
330
1AB60
100
AcDbDictionary
280
     1
281
     1
  3
ACAD_XREC_ROUNDTRIP
360
1ABC5
  0
DICTIONARY
  5
1ABCC
330
1AB64
100
AcDbDictionary
280
     1
281
     1
  3
ACAD_XREC_ROUNDTRIP
360
1ABCD
  0
DICTIONARY
  5
1ABBE
330
1AB5D
100
AcDbDictionary
280
     1
281
     1
  3
ACAD_XREC_ROUNDTRIP
360
1ABBF
  0
DICTIONARY
  5
1ABC2
330
1AB5F
100
AcDbDictionary
280
     1
281
     1
  3
ACAD_XREC_ROUNDTRIP
360
1ABC3
  0
DICTIONARY
  5
1ABDC
330
1AB6C
100
AcDbDictionary
280
     1
281
     1
  3
ACAD_XREC_ROUNDTRIP
360
1ABDD
  0
DICTIONARY
  5
1ABCA
330
1AB63
100
AcDbDictionary
280
     1
281
     1
  3
ACAD_XREC_ROUNDTRIP
360
1ABCB
  0
DICTIONARY
  5
1ABAE
330
1AB55
100
AcDbDictionary
280
     1
281
     1
  3
ACAD_XREC_ROUNDTRIP
360
1ABAF
  0
DICTIONARY
  5
1ABB0
330
1AB56
100
AcDbDictionary
280
     1
281
     1
  3
ACAD_XREC_ROUNDTRIP
360
1ABB1
  0
DICTIONARY
  5
1ABB2
330
1AB57
100
AcDbDictionary
280
     1
281
     1
  3
ACAD_XREC_ROUNDTRIP
360
1ABB3
  0
DICTIONARY
  5
1ABB4
330
1AB58
100
AcDbDictionary
280
     1
281
     1
  3
ACAD_XREC_ROUNDTRIP
360
1ABB5
  0
DICTIONARY
  5
1ABBC
330
1AB5C
100
AcDbDictionary
280
     1
281
     1
  3
ACAD_XREC_ROUNDTRIP
360
1ABBD
  0
DICTIONARY
  5
1ABD8
330
1AB6A
100
AcDbDictionary
280
     1
281
     1
  3
ACAD_XREC_ROUNDTRIP
360
1ABD9
  0
DICTIONARY
  5
1ABC8
330
1AB62
100
AcDbDictionary
280
     1
281
     1
  3
ACAD_XREC_ROUNDTRIP
360
1ABC9
  0
DICTIONARY
  5
1ABDA
330
1AB6B
100
AcDbDictionary
280
     1
281
     1
  3
ACAD_XREC_ROUNDTRIP
360
1ABDB
  0
DICTIONARY
  5
1ABC0
330
1AB5E
100
AcDbDictionary
280
     1
281
     1
  3
ACAD_XREC_ROUNDTRIP
360
1ABC1
  0
DICTIONARY
  5
1ABD6
330
1AB69
100
AcDbDictionary
280
     1
281
     1
  3
ACAD_XREC_ROUNDTRIP
360
1ABD7
  0
DICTIONARY
  5
1ABD4
330
1AB68
100
AcDbDictionary
280
     1
281
     1
  3
ACAD_XREC_ROUNDTRIP
360
1ABD5
  0
DICTIONARY
  5
1ABCE
330
1AB65
100
AcDbDictionary
280
     1
281
     1
  3
ACAD_XREC_ROUNDTRIP
360
1ABCF
  0
DICTIONARY
  5
1ABD0
330
1AB66
100
AcDbDictionary
280
     1
281
     1
  3
ACAD_XREC_ROUNDTRIP
360
1ABD1
  0
DICTIONARY
  5
1ABC6
330
1AB61
100
AcDbDictionary
280
     1
281
     1
  3
ACAD_XREC_ROUNDTRIP
360
1ABC7
  0
DICTIONARY
  5
1ABBA
330
1AB5B
100
AcDbDictionary
280
     1
281
     1
  3
ACAD_XREC_ROUNDTRIP
360
1ABBB
  0
DICTIONARY
  5
1ABD2
330
1AB67
100
AcDbDictionary
280
     1
281
     1
  3
ACAD_XREC_ROUNDTRIP
360
1ABD3
  0
XRECORD
  5
1ABE3
102
{ACAD_REACTORS
330
1ABE2
102
}
330
1ABE2
100
AcDbXrecord
280
     1
102
DISPLAYNAME
  1
Imperial24
102
FLAGS
 90
        0
  0
XRECORD
  5
1ABE5
102
{ACAD_REACTORS
330
1ABE4
102
}
330
1ABE4
100
AcDbXrecord
280
     1
102
SHADEPLOT
 70
     0
102
SHADEPLOTRESLEVEL
 70
     2
102
SHADEPLOTCUSTOMDPI
 70
   300
  0
XRECORD
  5
1ABE7
102
{ACAD_REACTORS
330
1ABE6
102
}
330
1ABE6
100
AcDbXrecord
280
     1
102
SHADEPLOT
 70
     0
102
SHADEPLOTRESLEVEL
 70
     2
102
SHADEPLOTCUSTOMDPI
 70
   300
  0
XRECORD
  5
1ABAC
102
{ACAD_REACTORS
330
1AB45
102
}
330
1AB45
100
AcDbXrecord
280
     1
102
MATERIAL
148
0.0
149
0.0
149
0.0
 93
        0
 94
      127
282
     0
 72
     0
 77
     0
171
     0
175
     0
179
     0
273
     0
  0
XRECORD
  5
1AB47
102
{ACAD_REACTORS
330
1AB45
102
}
330
1AB45
100
AcDbXrecord
280
     1
270
     1
271
     1
  0
XRECORD
  5
1AB46
102
{ACAD_REACTORS
330
1AB45
102
}
330
1AB45
100
AcDbXrecord
280
     1
270
     1
271
     1
  0
XRECORD
  5
1AB4A
102
{ACAD_REACTORS
330
1AB45
102
}
330
1AB45
100
AcDbXrecord
280
     1
270
     1
271
     1
  0
XRECORD
  5
1AB49
102
{ACAD_REACTORS
330
1AB45
102
}
330
1AB45
100
AcDbXrecord
280
     1
270
     1
271
     1
  0
XRECORD
  5
1AB4B
102
{ACAD_REACTORS
330
1AB45
102
}
330
1AB45
100
AcDbXrecord
280
     1
270
     1
271
     1
  0
XRECORD
  5
1AB48
102
{ACAD_REACTORS
330
1AB45
102
}
330
1AB45
100
AcDbXrecord
280
     1
270
     1
271
     1
  0
XRECORD
  5
1ABAB
102
{ACAD_REACTORS
330
1AB3D
102
}
330
1AB3D
100
AcDbXrecord
280
     1
102
MATERIAL
148
0.0
149
0.0
149
0.0
 93
        0
 94
      127
282
     0
 72
     0
 77
     0
171
     0
175
     0
179
     0
273
     0
  0
XRECORD
  5
1AB3F
102
{ACAD_REACTORS
330
1AB3D
102
}
330
1AB3D
100
AcDbXrecord
280
     1
270
     1
271
     1
  0
XRECORD
  5
1AB3E
102
{ACAD_REACTORS
330
1AB3D
102
}
330
1AB3D
100
AcDbXrecord
280
     1
270
     1
271
     1
  0
XRECORD
  5
1AB42
102
{ACAD_REACTORS
330
1AB3D
102
}
330
1AB3D
100
AcDbXrecord
280
     1
270
     1
271
     1
  0
XRECORD
  5
1AB41
102
{ACAD_REACTORS
330
1AB3D
102
}
330
1AB3D
100
AcDbXrecord
280
     1
270
     1
271
     1
  0
XRECORD
  5
1AB43
102
{ACAD_REACTORS
330
1AB3D
102
}
330
1AB3D
100
AcDbXrecord
280
     1
270
     1
271
     1
  0
XRECORD
  5
1AB40
102
{ACAD_REACTORS
330
1AB3D
102
}
330
1AB3D
100
AcDbXrecord
280
     1
270
     1
271
     1
  0
XRECORD
  5
1ABAD
102
{ACAD_REACTORS
330
1AB4D
102
}
330
1AB4D
100
AcDbXrecord
280
     1
102
MATERIAL
148
0.0
149
0.0
149
0.0
 93
        0
 94
      127
282
     0
 72
     0
 77
     0
171
     0
175
     0
179
     0
273
     0
  0
XRECORD
  5
1AB4F
102
{ACAD_REACTORS
330
1AB4D
102
}
330
1AB4D
100
AcDbXrecord
280
     1
270
     1
271
     1
  0
XRECORD
  5
1AB4E
102
{ACAD_REACTORS
330
1AB4D
102
}
330
1AB4D
100
AcDbXrecord
280
     1
270
     1
271
     1
  0
XRECORD
  5
1AB52
102
{ACAD_REACTORS
330
1AB4D
102
}
330
1AB4D
100
AcDbXrecord
280
     1
270
     1
271
     1
  0
XRECORD
  5
1AB51
102
{ACAD_REACTORS
330
1AB4D
102
}
330
1AB4D
100
AcDbXrecord
280
     1
270
     1
271
     1
  0
XRECORD
  5
1AB53
102
{ACAD_REACTORS
330
1AB4D
102
}
330
1AB4D
100
AcDbXrecord
280
     1
270
     1
271
     1
  0
XRECORD
  5
1AB50
102
{ACAD_REACTORS
330
1AB4D
102
}
330
1AB4D
100
AcDbXrecord
280
     1
270
     1
271
     1
  0
XRECORD
  5
1ABE1
102
{ACAD_REACTORS
330
1ABE0
102
}
330
1ABE0
100
AcDbXrecord
280
     1
102
DISPLAYNAME
  1
Imperial24
102
FLAGS
 90
        0
  0
CELLSTYLEMAP
  5
1ABA8
102
{ACAD_REACTORS
330
1ABA7
102
}
330
1ABA7
100
AcDbCellStyleMap
 90
        3
300
CELLSTYLE
  1
TABLEFORMAT_BEGIN
 90
        5
170
     1
 91
        0
 92
    32768
 62
   257
 93
        1
300
CONTENTFORMAT
  1
CONTENTFORMAT_BEGIN
 90
        0
 91
        0
 92
      512
 93
        0
300

 40
0.0
140
1.0
 94
        5
 62
     0
340
1A963
144
0.25
309
CONTENTFORMAT_END
171
     0
 94
        0
309
TABLEFORMAT_END
  1
CELLSTYLE_BEGIN
 90
        1
 91
        1
300
_TITLE
309
CELLSTYLE_END
300
CELLSTYLE
  1
TABLEFORMAT_BEGIN
 90
        5
170
     1
 91
        0
 92
        0
 62
   257
 93
        1
300
CONTENTFORMAT
  1
CONTENTFORMAT_BEGIN
 90
        0
 91
        0
 92
      512
 93
        0
300

 40
0.0
140
1.0
 94
        5
 62
     0
340
1A963
144
0.18
309
CONTENTFORMAT_END
171
     0
 94
        0
309
TABLEFORMAT_END
  1
CELLSTYLE_BEGIN
 90
        2
 91
        1
300
_HEADER
309
CELLSTYLE_END
300
CELLSTYLE
  1
TABLEFORMAT_BEGIN
 90
        5
170
     1
 91
        0
 92
        0
 62
   257
 93
        1
300
CONTENTFORMAT
  1
CONTENTFORMAT_BEGIN
 90
        0
 91
        0
 92
      512
 93
        0
300

 40
0.0
140
1.0
 94
        2
 62
     0
340
1A963
144
0.18
309
CONTENTFORMAT_END
171
     0
 94
        0
309
TABLEFORMAT_END
  1
CELLSTYLE_BEGIN
 90
        3
 91
        2
300
_DATA
309
CELLSTYLE_END
  0
XRECORD
  5
1ABDE
102
{ACAD_REACTORS
330
1ABA7
102
}
330
1ABA7
100
AcDbXrecord
280
     1
102
ACAD_ROUNDTRIP_PRE2007_TABLESTYLE
 90
      512
 91
        0
  1

 92
      512
 93
        0
  2

 94
      512
 95
        0
  3

  0
XRECORD
  5
1ABB9
102
{ACAD_REACTORS
330
1ABB8
102
}
330
1ABB8
100
AcDbXrecord
280
     1
102
RTVSPost2010Prop28
280
     1
102
RTVSPost2010PropOp28
 70
     1
102
RTVSPost2010Prop29
280
     1
102
RTVSPost2010PropOp29
 70
     1
102
RTVSPost2010Prop30
280
     0
102
RTVSPost2010PropOp30
 70
     1
102
RTVSPost2010Prop31
280
     0
102
RTVSPost2010PropOp31
 70
     1
102
RTVSPost2010Prop32
280
     0
102
RTVSPost2010PropOp32
 70
     1
102
RTVSPost2010Prop33
280
     0
102
RTVSPost2010PropOp33
 70
     1
102
RTVSPost2010Prop34
280
     0
102
RTVSPost2010PropOp34
 70
     1
102
RTVSPost2010Prop35
280
     0
102
RTVSPost2010PropOp35
 70
     1
102
RTVSPost2010Prop36
280
     0
102
RTVSPost2010PropOp36
 70
     1
102
RTVSPost2010Prop37
 90
       50
102
RTVSPost2010PropOp37
 70
     1
102
RTVSPost2010Prop38
140
0.0
102
RTVSPost2010PropOp38
 70
     1
102
RTVSPost2010Prop39
140
1.0
102
RTVSPost2010PropOp39
 70
     1
102
RTVSPost2010Prop40
 90
        0
102
RTVSPost2010PropOp40
 70
     1
102
RTVSPost2010Prop41ColorIndex
 90
       18
102
RTVSPost2010Prop41ColorRGB
 90
        0
102
RTVSPost2010PropOp41
 70
     1
102
RTVSPost2010Prop42
 90
       50
102
RTVSPost2010PropOp42
 70
     1
102
RTVSPost2010Prop43
 90
        3
102
RTVSPost2010PropOp43
 70
     1
102
RTVSPost2010Prop44ColorIndex
 90
        5
102
RTVSPost2010Prop44ColorRGB
 90
      255
102
RTVSPost2010PropOp44
 70
     1
102
RTVSPost2010Prop45
280
     0
102
RTVSPost2010PropOp45
 70
     1
102
RTVSPost2010Prop46
 90
       50
102
RTVSPost2010PropOp46
 70
     1
102
RTVSPost2010Prop47
 90
       50
102
RTVSPost2010PropOp47
 70
     1
102
RTVSPost2010Prop48
 90
       50
102
RTVSPost2010PropOp48
 70
     1
102
RTVSPost2010Prop49
280
     0
102
RTVSPost2010PropOp49
 70
     1
102
RTVSPost2010Prop50
 90
       50
102
RTVSPost2010PropOp50
 70
     1
102
RTVSPost2010Prop51ColorIndex
 90
      256
102
RTVSPost2010Prop51ColorRGB
 90
-16777216
102
RTVSPost2010PropOp51
 70
     0
102
RTVSPost2010Prop52
140
1.0
102
RTVSPost2010PropOp52
 70
     0
102
RTVSPost2010Prop53
 90
        2
102
RTVSPost2010PropOp53
 70
     1
102
RTVSPost2010Prop54
  1
strokes_ogs.tif
102
RTVSPost2010PropOp54
 70
     1
102
RTVSPost2010Prop55
280
     0
102
RTVSPost2010PropOp55
 70
     1
102
RTVSPost2010Prop56
140
1.0
102
RTVSPost2010PropOp56
 70
     1
102
RTVSPost2010Prop57
140
1.0
102
RTVSPost2010PropOp57
 70
     1
102
RTVSPropertyOp0
 70
     1
102
RTVSPropertyOp1
 70
     1
102
RTVSPropertyOp2
 70
     1
102
RTVSPropertyOp3
 70
     1
102
RTVSPropertyOp4
 70
     1
102
RTVSPropertyOp5
 70
     1
102
RTVSPropertyOp6
 70
     1
102
RTVSPropertyOp7
 70
     1
102
RTVSPropertyOp8
 70
     1
102
RTVSPropertyOp9
 70
     1
102
RTVSPropertyOp10
 70
     1
102
RTVSPropertyOp11
 70
     1
102
RTVSPropertyOp12
 70
     1
102
RTVSPropertyOp13
 70
     1
102
RTVSPropertyOp14
 70
     1
102
RTVSPropertyOp15
 70
     1
102
RTVSPropertyOp16
 70
     1
102
RTVSPropertyOp17
 70
     1
102
RTVSPropertyOp18
 70
     1
102
RTVSPropertyOp19
 70
     1
102
RTVSPropertyOp20
 70
     1
102
RTVSPropertyOp21
 70
     1
102
RTVSPropertyOp22
 70
     1
102
RTVSPropertyOp23
 70
     1
102
RTVSPropertyOp24
 70
     1
102
RTVSPropertyOp25
 70
     1
102
RTVSPropertyOp26
 70
     1
102
RTVSPropertyOp27
 70
     1
102
RTVSPropertyOp28
 70
     1
102
RTVSPropertyOp29
 70
     1
102
RTVSPropertyOp30
 70
     1
102
RTVSPropertyOp31
 70
     1
102
RTVSPropertyOp32
 70
     1
102
RTVSPropertyOp33
 70
     1
102
RTVSPropertyOp34
 70
     1
102
RTVSPropertyOp35
 70
     1
102
RTVSPropertyOp36
 70
     1
102
RTVSPropertyOp37
 70
     1
102
RTVSPropertyOp38
 70
     1
102
RTVSPropertyOp39
 70
     1
102
RTVSPropertyOp40
 70
     1
102
RTVSPropertyOp41
 70
     1
102
RTVSPropertyOp42
 70
     1
102
RTVSPropertyOp43
 70
     1
102
RTVSPropertyOp44
 70
     1
102
RTVSPropertyOp45
 70
     1
102
RTVSPropertyOp46
 70
     1
102
RTVSPropertyOp47
 70
     1
102
RTVSPropertyOp48
 70
     1
102
RTVSPropertyOp49
 70
     1
102
RTVSPropertyOp50
 70
     1
102
RTVSPropertyOp51
 70
     0
102
RTVSPropertyOp52
 70
     0
102
RTVSPropertyOp53
 70
     1
102
RTVSPropertyOp54
 70
     1
102
RTVSPropertyOp55
 70
     1
102
RTVSPropertyOp56
 70
     1
102
RTVSPropertyOp57
 70
     1
102
RTVSPropertyOp58
 70
     1
102
RTVSPropertyOp59
 70
     1
102
RTVSPropertyOp60
 70
     1
102
RTVSPropertyOp61
 70
     1
102
RTVSPropertyOp62
 70
     1
  0
XRECORD
  5
1ABB7
102
{ACAD_REACTORS
330
1ABB6
102
}
330
1ABB6
100
AcDbXrecord
280
     1
102
RTVSPost2010Prop28
280
     0
102
RTVSPost2010PropOp28
 70
     1
102
RTVSPost2010Prop29
280
     1
102
RTVSPost2010PropOp29
 70
     1
102
RTVSPost2010Prop30
280
     1
102
RTVSPost2010PropOp30
 70
     1
102
RTVSPost2010Prop31
280
     0
102
RTVSPost2010PropOp31
 70
     1
102
RTVSPost2010Prop32
280
     0
102
RTVSPost2010PropOp32
 70
     1
102
RTVSPost2010Prop33
280
     0
102
RTVSPost2010PropOp33
 70
     1
102
RTVSPost2010Prop34
280
     0
102
RTVSPost2010PropOp34
 70
     1
102
RTVSPost2010Prop35
280
     0
102
RTVSPost2010PropOp35
 70
     1
102
RTVSPost2010Prop36
280
     0
102
RTVSPost2010PropOp36
 70
     1
102
RTVSPost2010Prop37
 90
       50
102
RTVSPost2010PropOp37
 70
     1
102
RTVSPost2010Prop38
140
0.0
102
RTVSPost2010PropOp38
 70
     1
102
RTVSPost2010Prop39
140
1.0
102
RTVSPost2010PropOp39
 70
     1
102
RTVSPost2010Prop40
 90
        0
102
RTVSPost2010PropOp40
 70
     1
102
RTVSPost2010Prop41ColorIndex
 90
       18
102
RTVSPost2010Prop41ColorRGB
 90
        0
102
RTVSPost2010PropOp41
 70
     1
102
RTVSPost2010Prop42
 90
       50
102
RTVSPost2010PropOp42
 70
     1
102
RTVSPost2010Prop43
 90
        3
102
RTVSPost2010PropOp43
 70
     1
102
RTVSPost2010Prop44ColorIndex
 90
        5
102
RTVSPost2010Prop44ColorRGB
 90
      255
102
RTVSPost2010PropOp44
 70
     1
102
RTVSPost2010Prop45
280
     0
102
RTVSPost2010PropOp45
 70
     1
102
RTVSPost2010Prop46
 90
       50
102
RTVSPost2010PropOp46
 70
     1
102
RTVSPost2010Prop47
 90
       50
102
RTVSPost2010PropOp47
 70
     1
102
RTVSPost2010Prop48
 90
       50
102
RTVSPost2010PropOp48
 70
     1
102
RTVSPost2010Prop49
280
     0
102
RTVSPost2010PropOp49
 70
     1
102
RTVSPost2010Prop50
 90
       50
102
RTVSPost2010PropOp50
 70
     1
102
RTVSPost2010Prop51ColorIndex
 90
      256
102
RTVSPost2010Prop51ColorRGB
 90
-16777216
102
RTVSPost2010PropOp51
 70
     0
102
RTVSPost2010Prop52
140
1.0
102
RTVSPost2010PropOp52
 70
     0
102
RTVSPost2010Prop53
 90
        2
102
RTVSPost2010PropOp53
 70
     1
102
RTVSPost2010Prop54
  1
strokes_ogs.tif
102
RTVSPost2010PropOp54
 70
     1
102
RTVSPost2010Prop55
280
     0
102
RTVSPost2010PropOp55
 70
     1
102
RTVSPost2010Prop56
140
1.0
102
RTVSPost2010PropOp56
 70
     1
102
RTVSPost2010Prop57
140
1.0
102
RTVSPost2010PropOp57
 70
     1
102
RTVSPropertyOp0
 70
     1
102
RTVSPropertyOp1
 70
     1
102
RTVSPropertyOp2
 70
     1
102
RTVSPropertyOp3
 70
     1
102
RTVSPropertyOp4
 70
     1
102
RTVSPropertyOp5
 70
     1
102
RTVSPropertyOp6
 70
     1
102
RTVSPropertyOp7
 70
     1
102
RTVSPropertyOp8
 70
     1
102
RTVSPropertyOp9
 70
     1
102
RTVSPropertyOp10
 70
     1
102
RTVSPropertyOp11
 70
     1
102
RTVSPropertyOp12
 70
     1
102
RTVSPropertyOp13
 70
     1
102
RTVSPropertyOp14
 70
     1
102
RTVSPropertyOp15
 70
     1
102
RTVSPropertyOp16
 70
     1
102
RTVSPropertyOp17
 70
     1
102
RTVSPropertyOp18
 70
     1
102
RTVSPropertyOp19
 70
     1
102
RTVSPropertyOp20
 70
     1
102
RTVSPropertyOp21
 70
     1
102
RTVSPropertyOp22
 70
     1
102
RTVSPropertyOp23
 70
     1
102
RTVSPropertyOp24
 70
     1
102
RTVSPropertyOp25
 70
     1
102
RTVSPropertyOp26
 70
     1
102
RTVSPropertyOp27
 70
     1
102
RTVSPropertyOp28
 70
     1
102
RTVSPropertyOp29
 70
     1
102
RTVSPropertyOp30
 70
     1
102
RTVSPropertyOp31
 70
     1
102
RTVSPropertyOp32
 70
     1
102
RTVSPropertyOp33
 70
     1
102
RTVSPropertyOp34
 70
     1
102
RTVSPropertyOp35
 70
     1
102
RTVSPropertyOp36
 70
     1
102
RTVSPropertyOp37
 70
     1
102
RTVSPropertyOp38
 70
     1
102
RTVSPropertyOp39
 70
     1
102
RTVSPropertyOp40
 70
     1
102
RTVSPropertyOp41
 70
     1
102
RTVSPropertyOp42
 70
     1
102
RTVSPropertyOp43
 70
     1
102
RTVSPropertyOp44
 70
     1
102
RTVSPropertyOp45
 70
     1
102
RTVSPropertyOp46
 70
     1
102
RTVSPropertyOp47
 70
     1
102
RTVSPropertyOp48
 70
     1
102
RTVSPropertyOp49
 70
     1
102
RTVSPropertyOp50
 70
     1
102
RTVSPropertyOp51
 70
     0
102
RTVSPropertyOp52
 70
     0
102
RTVSPropertyOp53
 70
     1
102
RTVSPropertyOp54
 70
     1
102
RTVSPropertyOp55
 70
     1
102
RTVSPropertyOp56
 70
     1
102
RTVSPropertyOp57
 70
     1
102
RTVSPropertyOp58
 70
     1
102
RTVSPropertyOp59
 70
     1
102
RTVSPropertyOp60
 70
     1
102
RTVSPropertyOp61
 70
     1
102
RTVSPropertyOp62
 70
     1
  0
XRECORD
  5
1ABC5
102
{ACAD_REACTORS
330
1ABC4
102
}
330
1ABC4
100
AcDbXrecord
280
     1
102
RTVSPost2010Prop28
280
     0
102
RTVSPost2010PropOp28
 70
     1
102
RTVSPost2010Prop29
280
     1
102
RTVSPost2010PropOp29
 70
     1
102
RTVSPost2010Prop30
280
     1
102
RTVSPost2010PropOp30
 70
     1
102
RTVSPost2010Prop31
280
     0
102
RTVSPost2010PropOp31
 70
     1
102
RTVSPost2010Prop32
280
     0
102
RTVSPost2010PropOp32
 70
     1
102
RTVSPost2010Prop33
280
     0
102
RTVSPost2010PropOp33
 70
     1
102
RTVSPost2010Prop34
280
     0
102
RTVSPost2010PropOp34
 70
     1
102
RTVSPost2010Prop35
280
     0
102
RTVSPost2010PropOp35
 70
     1
102
RTVSPost2010Prop36
280
     0
102
RTVSPost2010PropOp36
 70
     1
102
RTVSPost2010Prop37
 90
       50
102
RTVSPost2010PropOp37
 70
     1
102
RTVSPost2010Prop38
140
0.0
102
RTVSPost2010PropOp38
 70
     1
102
RTVSPost2010Prop39
140
1.0
102
RTVSPost2010PropOp39
 70
     1
102
RTVSPost2010Prop40
 90
        0
102
RTVSPost2010PropOp40
 70
     1
102
RTVSPost2010Prop41ColorIndex
 90
       18
102
RTVSPost2010Prop41ColorRGB
 90
        0
102
RTVSPost2010PropOp41
 70
     1
102
RTVSPost2010Prop42
 90
       50
102
RTVSPost2010PropOp42
 70
     1
102
RTVSPost2010Prop43
 90
        3
102
RTVSPost2010PropOp43
 70
     1
102
RTVSPost2010Prop44ColorIndex
 90
        5
102
RTVSPost2010Prop44ColorRGB
 90
      255
102
RTVSPost2010PropOp44
 70
     1
102
RTVSPost2010Prop45
280
     0
102
RTVSPost2010PropOp45
 70
     1
102
RTVSPost2010Prop46
 90
       50
102
RTVSPost2010PropOp46
 70
     1
102
RTVSPost2010Prop47
 90
       50
102
RTVSPost2010PropOp47
 70
     1
102
RTVSPost2010Prop48
 90
       50
102
RTVSPost2010PropOp48
 70
     1
102
RTVSPost2010Prop49
280
     0
102
RTVSPost2010PropOp49
 70
     1
102
RTVSPost2010Prop50
 90
       50
102
RTVSPost2010PropOp50
 70
     1
102
RTVSPost2010Prop51ColorIndex
 90
      256
102
RTVSPost2010Prop51ColorRGB
 90
-16777216
102
RTVSPost2010PropOp51
 70
     0
102
RTVSPost2010Prop52
140
1.0
102
RTVSPost2010PropOp52
 70
     0
102
RTVSPost2010Prop53
 90
        2
102
RTVSPost2010PropOp53
 70
     1
102
RTVSPost2010Prop54
  1
strokes_ogs.tif
102
RTVSPost2010PropOp54
 70
     1
102
RTVSPost2010Prop55
280
     0
102
RTVSPost2010PropOp55
 70
     1
102
RTVSPost2010Prop56
140
1.0
102
RTVSPost2010PropOp56
 70
     1
102
RTVSPost2010Prop57
140
1.0
102
RTVSPost2010PropOp57
 70
     1
102
RTVSPropertyOp0
 70
     1
102
RTVSPropertyOp1
 70
     1
102
RTVSPropertyOp2
 70
     1
102
RTVSPropertyOp3
 70
     1
102
RTVSPropertyOp4
 70
     1
102
RTVSPropertyOp5
 70
     1
102
RTVSPropertyOp6
 70
     1
102
RTVSPropertyOp7
 70
     1
102
RTVSPropertyOp8
 70
     1
102
RTVSPropertyOp9
 70
     1
102
RTVSPropertyOp10
 70
     1
102
RTVSPropertyOp11
 70
     1
102
RTVSPropertyOp12
 70
     1
102
RTVSPropertyOp13
 70
     1
102
RTVSPropertyOp14
 70
     1
102
RTVSPropertyOp15
 70
     1
102
RTVSPropertyOp16
 70
     1
102
RTVSPropertyOp17
 70
     1
102
RTVSPropertyOp18
 70
     1
102
RTVSPropertyOp19
 70
     1
102
RTVSPropertyOp20
 70
     1
102
RTVSPropertyOp21
 70
     1
102
RTVSPropertyOp22
 70
     1
102
RTVSPropertyOp23
 70
     1
102
RTVSPropertyOp24
 70
     1
102
RTVSPropertyOp25
 70
     1
102
RTVSPropertyOp26
 70
     1
102
RTVSPropertyOp27
 70
     1
102
RTVSPropertyOp28
 70
     1
102
RTVSPropertyOp29
 70
     1
102
RTVSPropertyOp30
 70
     1
102
RTVSPropertyOp31
 70
     1
102
RTVSPropertyOp32
 70
     1
102
RTVSPropertyOp33
 70
     1
102
RTVSPropertyOp34
 70
     1
102
RTVSPropertyOp35
 70
     1
102
RTVSPropertyOp36
 70
     1
102
RTVSPropertyOp37
 70
     1
102
RTVSPropertyOp38
 70
     1
102
RTVSPropertyOp39
 70
     1
102
RTVSPropertyOp40
 70
     1
102
RTVSPropertyOp41
 70
     1
102
RTVSPropertyOp42
 70
     1
102
RTVSPropertyOp43
 70
     1
102
RTVSPropertyOp44
 70
     1
102
RTVSPropertyOp45
 70
     1
102
RTVSPropertyOp46
 70
     1
102
RTVSPropertyOp47
 70
     1
102
RTVSPropertyOp48
 70
     1
102
RTVSPropertyOp49
 70
     1
102
RTVSPropertyOp50
 70
     1
102
RTVSPropertyOp51
 70
     0
102
RTVSPropertyOp52
 70
     0
102
RTVSPropertyOp53
 70
     1
102
RTVSPropertyOp54
 70
     1
102
RTVSPropertyOp55
 70
     1
102
RTVSPropertyOp56
 70
     1
102
RTVSPropertyOp57
 70
     1
102
RTVSPropertyOp58
 70
     1
102
RTVSPropertyOp59
 70
     1
102
RTVSPropertyOp60
 70
     1
102
RTVSPropertyOp61
 70
     1
102
RTVSPropertyOp62
 70
     1
  0
XRECORD
  5
1ABCD
102
{ACAD_REACTORS
330
1ABCC
102
}
330
1ABCC
100
AcDbXrecord
280
     1
102
RTVSPost2010Prop28
280
     0
102
RTVSPost2010PropOp28
 70
     1
102
RTVSPost2010Prop29
280
     1
102
RTVSPost2010PropOp29
 70
     1
102
RTVSPost2010Prop30
280
     1
102
RTVSPost2010PropOp30
 70
     1
102
RTVSPost2010Prop31
280
     0
102
RTVSPost2010PropOp31
 70
     1
102
RTVSPost2010Prop32
280
     0
102
RTVSPost2010PropOp32
 70
     1
102
RTVSPost2010Prop33
280
     0
102
RTVSPost2010PropOp33
 70
     1
102
RTVSPost2010Prop34
280
     0
102
RTVSPost2010PropOp34
 70
     1
102
RTVSPost2010Prop35
280
     0
102
RTVSPost2010PropOp35
 70
     1
102
RTVSPost2010Prop36
280
     0
102
RTVSPost2010PropOp36
 70
     1
102
RTVSPost2010Prop37
 90
       50
102
RTVSPost2010PropOp37
 70
     1
102
RTVSPost2010Prop38
140
0.0
102
RTVSPost2010PropOp38
 70
     1
102
RTVSPost2010Prop39
140
1.0
102
RTVSPost2010PropOp39
 70
     1
102
RTVSPost2010Prop40
 90
        0
102
RTVSPost2010PropOp40
 70
     1
102
RTVSPost2010Prop41ColorIndex
 90
       18
102
RTVSPost2010Prop41ColorRGB
 90
        0
102
RTVSPost2010PropOp41
 70
     1
102
RTVSPost2010Prop42
 90
       50
102
RTVSPost2010PropOp42
 70
     1
102
RTVSPost2010Prop43
 90
        3
102
RTVSPost2010PropOp43
 70
     1
102
RTVSPost2010Prop44ColorIndex
 90
        5
102
RTVSPost2010Prop44ColorRGB
 90
      255
102
RTVSPost2010PropOp44
 70
     1
102
RTVSPost2010Prop45
280
     0
102
RTVSPost2010PropOp45
 70
     1
102
RTVSPost2010Prop46
 90
       50
102
RTVSPost2010PropOp46
 70
     1
102
RTVSPost2010Prop47
 90
       50
102
RTVSPost2010PropOp47
 70
     1
102
RTVSPost2010Prop48
 90
       50
102
RTVSPost2010PropOp48
 70
     1
102
RTVSPost2010Prop49
280
     0
102
RTVSPost2010PropOp49
 70
     1
102
RTVSPost2010Prop50
 90
       50
102
RTVSPost2010PropOp50
 70
     1
102
RTVSPost2010Prop51ColorIndex
 90
      256
102
RTVSPost2010Prop51ColorRGB
 90
-16777216
102
RTVSPost2010PropOp51
 70
     0
102
RTVSPost2010Prop52
140
1.0
102
RTVSPost2010PropOp52
 70
     0
102
RTVSPost2010Prop53
 90
        2
102
RTVSPost2010PropOp53
 70
     1
102
RTVSPost2010Prop54
  1
strokes_ogs.tif
102
RTVSPost2010PropOp54
 70
     1
102
RTVSPost2010Prop55
280
     0
102
RTVSPost2010PropOp55
 70
     1
102
RTVSPost2010Prop56
140
1.0
102
RTVSPost2010PropOp56
 70
     1
102
RTVSPost2010Prop57
140
1.0
102
RTVSPost2010PropOp57
 70
     1
102
RTVSPropertyOp0
 70
     1
102
RTVSPropertyOp1
 70
     1
102
RTVSPropertyOp2
 70
     1
102
RTVSPropertyOp3
 70
     1
102
RTVSPropertyOp4
 70
     1
102
RTVSPropertyOp5
 70
     1
102
RTVSPropertyOp6
 70
     1
102
RTVSPropertyOp7
 70
     1
102
RTVSPropertyOp8
 70
     1
102
RTVSPropertyOp9
 70
     1
102
RTVSPropertyOp10
 70
     1
102
RTVSPropertyOp11
 70
     1
102
RTVSPropertyOp12
 70
     1
102
RTVSPropertyOp13
 70
     1
102
RTVSPropertyOp14
 70
     1
102
RTVSPropertyOp15
 70
     1
102
RTVSPropertyOp16
 70
     1
102
RTVSPropertyOp17
 70
     1
102
RTVSPropertyOp18
 70
     1
102
RTVSPropertyOp19
 70
     1
102
RTVSPropertyOp20
 70
     1
102
RTVSPropertyOp21
 70
     1
102
RTVSPropertyOp22
 70
     1
102
RTVSPropertyOp23
 70
     1
102
RTVSPropertyOp24
 70
     1
102
RTVSPropertyOp25
 70
     1
102
RTVSPropertyOp26
 70
     1
102
RTVSPropertyOp27
 70
     1
102
RTVSPropertyOp28
 70
     1
102
RTVSPropertyOp29
 70
     1
102
RTVSPropertyOp30
 70
     1
102
RTVSPropertyOp31
 70
     1
102
RTVSPropertyOp32
 70
     1
102
RTVSPropertyOp33
 70
     1
102
RTVSPropertyOp34
 70
     1
102
RTVSPropertyOp35
 70
     1
102
RTVSPropertyOp36
 70
     1
102
RTVSPropertyOp37
 70
     1
102
RTVSPropertyOp38
 70
     1
102
RTVSPropertyOp39
 70
     1
102
RTVSPropertyOp40
 70
     1
102
RTVSPropertyOp41
 70
     1
102
RTVSPropertyOp42
 70
     1
102
RTVSPropertyOp43
 70
     1
102
RTVSPropertyOp44
 70
     1
102
RTVSPropertyOp45
 70
     1
102
RTVSPropertyOp46
 70
     1
102
RTVSPropertyOp47
 70
     1
102
RTVSPropertyOp48
 70
     1
102
RTVSPropertyOp49
 70
     1
102
RTVSPropertyOp50
 70
     1
102
RTVSPropertyOp51
 70
     0
102
RTVSPropertyOp52
 70
     0
102
RTVSPropertyOp53
 70
     1
102
RTVSPropertyOp54
 70
     1
102
RTVSPropertyOp55
 70
     1
102
RTVSPropertyOp56
 70
     1
102
RTVSPropertyOp57
 70
     1
102
RTVSPropertyOp58
 70
     1
102
RTVSPropertyOp59
 70
     1
102
RTVSPropertyOp60
 70
     1
102
RTVSPropertyOp61
 70
     1
102
RTVSPropertyOp62
 70
     1
  0
XRECORD
  5
1ABBF
102
{ACAD_REACTORS
330
1ABBE
102
}
330
1ABBE
100
AcDbXrecord
280
     1
102
RTVSPost2010Prop28
280
     0
102
RTVSPost2010PropOp28
 70
     1
102
RTVSPost2010Prop29
280
     1
102
RTVSPost2010PropOp29
 70
     1
102
RTVSPost2010Prop30
280
     1
102
RTVSPost2010PropOp30
 70
     1
102
RTVSPost2010Prop31
280
     0
102
RTVSPost2010PropOp31
 70
     1
102
RTVSPost2010Prop32
280
     0
102
RTVSPost2010PropOp32
 70
     1
102
RTVSPost2010Prop33
280
     0
102
RTVSPost2010PropOp33
 70
     1
102
RTVSPost2010Prop34
280
     0
102
RTVSPost2010PropOp34
 70
     1
102
RTVSPost2010Prop35
280
     0
102
RTVSPost2010PropOp35
 70
     1
102
RTVSPost2010Prop36
280
     0
102
RTVSPost2010PropOp36
 70
     1
102
RTVSPost2010Prop37
 90
       50
102
RTVSPost2010PropOp37
 70
     1
102
RTVSPost2010Prop38
140
0.0
102
RTVSPost2010PropOp38
 70
     1
102
RTVSPost2010Prop39
140
1.0
102
RTVSPost2010PropOp39
 70
     1
102
RTVSPost2010Prop40
 90
        0
102
RTVSPost2010PropOp40
 70
     1
102
RTVSPost2010Prop41ColorIndex
 90
       18
102
RTVSPost2010Prop41ColorRGB
 90
        0
102
RTVSPost2010PropOp41
 70
     1
102
RTVSPost2010Prop42
 90
       50
102
RTVSPost2010PropOp42
 70
     1
102
RTVSPost2010Prop43
 90
        3
102
RTVSPost2010PropOp43
 70
     1
102
RTVSPost2010Prop44ColorIndex
 90
        5
102
RTVSPost2010Prop44ColorRGB
 90
      255
102
RTVSPost2010PropOp44
 70
     1
102
RTVSPost2010Prop45
280
     0
102
RTVSPost2010PropOp45
 70
     1
102
RTVSPost2010Prop46
 90
       50
102
RTVSPost2010PropOp46
 70
     1
102
RTVSPost2010Prop47
 90
       50
102
RTVSPost2010PropOp47
 70
     1
102
RTVSPost2010Prop48
 90
       50
102
RTVSPost2010PropOp48
 70
     1
102
RTVSPost2010Prop49
280
     0
102
RTVSPost2010PropOp49
 70
     1
102
RTVSPost2010Prop50
 90
       50
102
RTVSPost2010PropOp50
 70
     1
102
RTVSPost2010Prop51ColorIndex
 90
      256
102
RTVSPost2010Prop51ColorRGB
 90
-16777216
102
RTVSPost2010PropOp51
 70
     0
102
RTVSPost2010Prop52
140
1.0
102
RTVSPost2010PropOp52
 70
     0
102
RTVSPost2010Prop53
 90
        2
102
RTVSPost2010PropOp53
 70
     1
102
RTVSPost2010Prop54
  1
strokes_ogs.tif
102
RTVSPost2010PropOp54
 70
     1
102
RTVSPost2010Prop55
280
     0
102
RTVSPost2010PropOp55
 70
     1
102
RTVSPost2010Prop56
140
1.0
102
RTVSPost2010PropOp56
 70
     1
102
RTVSPost2010Prop57
140
1.0
102
RTVSPost2010PropOp57
 70
     1
102
RTVSPropertyOp0
 70
     1
102
RTVSPropertyOp1
 70
     1
102
RTVSPropertyOp2
 70
     1
102
RTVSPropertyOp3
 70
     1
102
RTVSPropertyOp4
 70
     1
102
RTVSPropertyOp5
 70
     1
102
RTVSPropertyOp6
 70
     1
102
RTVSPropertyOp7
 70
     1
102
RTVSPropertyOp8
 70
     1
102
RTVSPropertyOp9
 70
     1
102
RTVSPropertyOp10
 70
     1
102
RTVSPropertyOp11
 70
     1
102
RTVSPropertyOp12
 70
     1
102
RTVSPropertyOp13
 70
     1
102
RTVSPropertyOp14
 70
     1
102
RTVSPropertyOp15
 70
     1
102
RTVSPropertyOp16
 70
     1
102
RTVSPropertyOp17
 70
     1
102
RTVSPropertyOp18
 70
     1
102
RTVSPropertyOp19
 70
     1
102
RTVSPropertyOp20
 70
     1
102
RTVSPropertyOp21
 70
     1
102
RTVSPropertyOp22
 70
     1
102
RTVSPropertyOp23
 70
     1
102
RTVSPropertyOp24
 70
     1
102
RTVSPropertyOp25
 70
     1
102
RTVSPropertyOp26
 70
     1
102
RTVSPropertyOp27
 70
     1
102
RTVSPropertyOp28
 70
     1
102
RTVSPropertyOp29
 70
     1
102
RTVSPropertyOp30
 70
     1
102
RTVSPropertyOp31
 70
     1
102
RTVSPropertyOp32
 70
     1
102
RTVSPropertyOp33
 70
     1
102
RTVSPropertyOp34
 70
     1
102
RTVSPropertyOp35
 70
     1
102
RTVSPropertyOp36
 70
     1
102
RTVSPropertyOp37
 70
     1
102
RTVSPropertyOp38
 70
     1
102
RTVSPropertyOp39
 70
     1
102
RTVSPropertyOp40
 70
     1
102
RTVSPropertyOp41
 70
     1
102
RTVSPropertyOp42
 70
     1
102
RTVSPropertyOp43
 70
     1
102
RTVSPropertyOp44
 70
     1
102
RTVSPropertyOp45
 70
     1
102
RTVSPropertyOp46
 70
     1
102
RTVSPropertyOp47
 70
     1
102
RTVSPropertyOp48
 70
     1
102
RTVSPropertyOp49
 70
     1
102
RTVSPropertyOp50
 70
     1
102
RTVSPropertyOp51
 70
     0
102
RTVSPropertyOp52
 70
     0
102
RTVSPropertyOp53
 70
     1
102
RTVSPropertyOp54
 70
     1
102
RTVSPropertyOp55
 70
     1
102
RTVSPropertyOp56
 70
     1
102
RTVSPropertyOp57
 70
     1
102
RTVSPropertyOp58
 70
     1
102
RTVSPropertyOp59
 70
     1
102
RTVSPropertyOp60
 70
     1
102
RTVSPropertyOp61
 70
     1
102
RTVSPropertyOp62
 70
     1
  0
XRECORD
  5
1ABC3
102
{ACAD_REACTORS
330
1ABC2
102
}
330
1ABC2
100
AcDbXrecord
280
     1
102
RTVSPost2010Prop28
280
     0
102
RTVSPost2010PropOp28
 70
     1
102
RTVSPost2010Prop29
280
     1
102
RTVSPost2010PropOp29
 70
     1
102
RTVSPost2010Prop30
280
     1
102
RTVSPost2010PropOp30
 70
     1
102
RTVSPost2010Prop31
280
     0
102
RTVSPost2010PropOp31
 70
     1
102
RTVSPost2010Prop32
280
     0
102
RTVSPost2010PropOp32
 70
     1
102
RTVSPost2010Prop33
280
     0
102
RTVSPost2010PropOp33
 70
     1
102
RTVSPost2010Prop34
280
     0
102
RTVSPost2010PropOp34
 70
     1
102
RTVSPost2010Prop35
280
     0
102
RTVSPost2010PropOp35
 70
     1
102
RTVSPost2010Prop36
280
     0
102
RTVSPost2010PropOp36
 70
     1
102
RTVSPost2010Prop37
 90
       50
102
RTVSPost2010PropOp37
 70
     1
102
RTVSPost2010Prop38
140
0.0
102
RTVSPost2010PropOp38
 70
     1
102
RTVSPost2010Prop39
140
1.0
102
RTVSPost2010PropOp39
 70
     1
102
RTVSPost2010Prop40
 90
        0
102
RTVSPost2010PropOp40
 70
     1
102
RTVSPost2010Prop41ColorIndex
 90
       18
102
RTVSPost2010Prop41ColorRGB
 90
        0
102
RTVSPost2010PropOp41
 70
     1
102
RTVSPost2010Prop42
 90
       50
102
RTVSPost2010PropOp42
 70
     1
102
RTVSPost2010Prop43
 90
        3
102
RTVSPost2010PropOp43
 70
     1
102
RTVSPost2010Prop44ColorIndex
 90
        5
102
RTVSPost2010Prop44ColorRGB
 90
      255
102
RTVSPost2010PropOp44
 70
     1
102
RTVSPost2010Prop45
280
     0
102
RTVSPost2010PropOp45
 70
     1
102
RTVSPost2010Prop46
 90
       50
102
RTVSPost2010PropOp46
 70
     1
102
RTVSPost2010Prop47
 90
       50
102
RTVSPost2010PropOp47
 70
     1
102
RTVSPost2010Prop48
 90
       50
102
RTVSPost2010PropOp48
 70
     1
102
RTVSPost2010Prop49
280
     0
102
RTVSPost2010PropOp49
 70
     1
102
RTVSPost2010Prop50
 90
       50
102
RTVSPost2010PropOp50
 70
     1
102
RTVSPost2010Prop51ColorIndex
 90
      256
102
RTVSPost2010Prop51ColorRGB
 90
-16777216
102
RTVSPost2010PropOp51
 70
     0
102
RTVSPost2010Prop52
140
1.0
102
RTVSPost2010PropOp52
 70
     0
102
RTVSPost2010Prop53
 90
        2
102
RTVSPost2010PropOp53
 70
     1
102
RTVSPost2010Prop54
  1
strokes_ogs.tif
102
RTVSPost2010PropOp54
 70
     1
102
RTVSPost2010Prop55
280
     0
102
RTVSPost2010PropOp55
 70
     1
102
RTVSPost2010Prop56
140
1.0
102
RTVSPost2010PropOp56
 70
     1
102
RTVSPost2010Prop57
140
1.0
102
RTVSPost2010PropOp57
 70
     1
102
RTVSPropertyOp0
 70
     1
102
RTVSPropertyOp1
 70
     1
102
RTVSPropertyOp2
 70
     1
102
RTVSPropertyOp3
 70
     1
102
RTVSPropertyOp4
 70
     1
102
RTVSPropertyOp5
 70
     1
102
RTVSPropertyOp6
 70
     1
102
RTVSPropertyOp7
 70
     1
102
RTVSPropertyOp8
 70
     1
102
RTVSPropertyOp9
 70
     1
102
RTVSPropertyOp10
 70
     1
102
RTVSPropertyOp11
 70
     1
102
RTVSPropertyOp12
 70
     1
102
RTVSPropertyOp13
 70
     1
102
RTVSPropertyOp14
 70
     1
102
RTVSPropertyOp15
 70
     1
102
RTVSPropertyOp16
 70
     1
102
RTVSPropertyOp17
 70
     1
102
RTVSPropertyOp18
 70
     1
102
RTVSPropertyOp19
 70
     1
102
RTVSPropertyOp20
 70
     1
102
RTVSPropertyOp21
 70
     1
102
RTVSPropertyOp22
 70
     1
102
RTVSPropertyOp23
 70
     1
102
RTVSPropertyOp24
 70
     1
102
RTVSPropertyOp25
 70
     1
102
RTVSPropertyOp26
 70
     1
102
RTVSPropertyOp27
 70
     1
102
RTVSPropertyOp28
 70
     1
102
RTVSPropertyOp29
 70
     1
102
RTVSPropertyOp30
 70
     1
102
RTVSPropertyOp31
 70
     1
102
RTVSPropertyOp32
 70
     1
102
RTVSPropertyOp33
 70
     1
102
RTVSPropertyOp34
 70
     1
102
RTVSPropertyOp35
 70
     1
102
RTVSPropertyOp36
 70
     1
102
RTVSPropertyOp37
 70
     1
102
RTVSPropertyOp38
 70
     1
102
RTVSPropertyOp39
 70
     1
102
RTVSPropertyOp40
 70
     1
102
RTVSPropertyOp41
 70
     1
102
RTVSPropertyOp42
 70
     1
102
RTVSPropertyOp43
 70
     1
102
RTVSPropertyOp44
 70
     1
102
RTVSPropertyOp45
 70
     1
102
RTVSPropertyOp46
 70
     1
102
RTVSPropertyOp47
 70
     1
102
RTVSPropertyOp48
 70
     1
102
RTVSPropertyOp49
 70
     1
102
RTVSPropertyOp50
 70
     1
102
RTVSPropertyOp51
 70
     0
102
RTVSPropertyOp52
 70
     0
102
RTVSPropertyOp53
 70
     1
102
RTVSPropertyOp54
 70
     1
102
RTVSPropertyOp55
 70
     1
102
RTVSPropertyOp56
 70
     1
102
RTVSPropertyOp57
 70
     1
102
RTVSPropertyOp58
 70
     1
102
RTVSPropertyOp59
 70
     1
102
RTVSPropertyOp60
 70
     1
102
RTVSPropertyOp61
 70
     1
102
RTVSPropertyOp62
 70
     1
  0
XRECORD
  5
1ABDD
102
{ACAD_REACTORS
330
1ABDC
102
}
330
1ABDC
100
AcDbXrecord
280
     1
102
RTVSPost2010Prop28
280
     0
102
RTVSPost2010PropOp28
 70
     1
102
RTVSPost2010Prop29
280
     1
102
RTVSPost2010PropOp29
 70
     1
102
RTVSPost2010Prop30
280
     1
102
RTVSPost2010PropOp30
 70
     1
102
RTVSPost2010Prop31
280
     0
102
RTVSPost2010PropOp31
 70
     1
102
RTVSPost2010Prop32
280
     0
102
RTVSPost2010PropOp32
 70
     1
102
RTVSPost2010Prop33
280
     0
102
RTVSPost2010PropOp33
 70
     1
102
RTVSPost2010Prop34
280
     0
102
RTVSPost2010PropOp34
 70
     1
102
RTVSPost2010Prop35
280
     0
102
RTVSPost2010PropOp35
 70
     1
102
RTVSPost2010Prop36
280
     0
102
RTVSPost2010PropOp36
 70
     1
102
RTVSPost2010Prop37
 90
       50
102
RTVSPost2010PropOp37
 70
     0
102
RTVSPost2010Prop38
140
0.0
102
RTVSPost2010PropOp38
 70
     0
102
RTVSPost2010Prop39
140
1.0
102
RTVSPost2010PropOp39
 70
     0
102
RTVSPost2010Prop40
 90
        0
102
RTVSPost2010PropOp40
 70
     0
102
RTVSPost2010Prop41ColorIndex
 90
       18
102
RTVSPost2010Prop41ColorRGB
 90
        0
102
RTVSPost2010PropOp41
 70
     0
102
RTVSPost2010Prop42
 90
       50
102
RTVSPost2010PropOp42
 70
     0
102
RTVSPost2010Prop43
 90
        3
102
RTVSPost2010PropOp43
 70
     0
102
RTVSPost2010Prop44ColorIndex
 90
        5
102
RTVSPost2010Prop44ColorRGB
 90
      255
102
RTVSPost2010PropOp44
 70
     0
102
RTVSPost2010Prop45
280
     0
102
RTVSPost2010PropOp45
 70
     1
102
RTVSPost2010Prop46
 90
       50
102
RTVSPost2010PropOp46
 70
     0
102
RTVSPost2010Prop47
 90
       50
102
RTVSPost2010PropOp47
 70
     0
102
RTVSPost2010Prop48
 90
       50
102
RTVSPost2010PropOp48
 70
     0
102
RTVSPost2010Prop49
280
     0
102
RTVSPost2010PropOp49
 70
     1
102
RTVSPost2010Prop50
 90
       50
102
RTVSPost2010PropOp50
 70
     0
102
RTVSPost2010Prop51ColorIndex
 90
      256
102
RTVSPost2010Prop51ColorRGB
 90
-16777216
102
RTVSPost2010PropOp51
 70
     0
102
RTVSPost2010Prop52
140
1.0
102
RTVSPost2010PropOp52
 70
     0
102
RTVSPost2010Prop53
 90
        2
102
RTVSPost2010PropOp53
 70
     0
102
RTVSPost2010Prop54
  1
strokes_ogs.tif
102
RTVSPost2010PropOp54
 70
     0
102
RTVSPost2010Prop55
280
     0
102
RTVSPost2010PropOp55
 70
     1
102
RTVSPost2010Prop56
140
1.0
102
RTVSPost2010PropOp56
 70
     0
102
RTVSPost2010Prop57
140
1.0
102
RTVSPost2010PropOp57
 70
     0
102
RTVSPropertyOp0
 70
     0
102
RTVSPropertyOp1
 70
     0
102
RTVSPropertyOp2
 70
     0
102
RTVSPropertyOp3
 70
     0
102
RTVSPropertyOp4
 70
     0
102
RTVSPropertyOp5
 70
     0
102
RTVSPropertyOp6
 70
     0
102
RTVSPropertyOp7
 70
     0
102
RTVSPropertyOp8
 70
     0
102
RTVSPropertyOp9
 70
     0
102
RTVSPropertyOp10
 70
     0
102
RTVSPropertyOp11
 70
     0
102
RTVSPropertyOp12
 70
     0
102
RTVSPropertyOp13
 70
     0
102
RTVSPropertyOp14
 70
     2
102
RTVSPropertyOp15
 70
     0
102
RTVSPropertyOp16
 70
     0
102
RTVSPropertyOp17
 70
     0
102
RTVSPropertyOp18
 70
     0
102
RTVSPropertyOp19
 70
     0
102
RTVSPropertyOp20
 70
     0
102
RTVSPropertyOp21
 70
     0
102
RTVSPropertyOp22
 70
     0
102
RTVSPropertyOp23
 70
     0
102
RTVSPropertyOp24
 70
     0
102
RTVSPropertyOp25
 70
     0
102
RTVSPropertyOp26
 70
     0
102
RTVSPropertyOp27
 70
     0
102
RTVSPropertyOp28
 70
     1
102
RTVSPropertyOp29
 70
     1
102
RTVSPropertyOp30
 70
     1
102
RTVSPropertyOp31
 70
     1
102
RTVSPropertyOp32
 70
     1
102
RTVSPropertyOp33
 70
     1
102
RTVSPropertyOp34
 70
     1
102
RTVSPropertyOp35
 70
     1
102
RTVSPropertyOp36
 70
     1
102
RTVSPropertyOp37
 70
     0
102
RTVSPropertyOp38
 70
     0
102
RTVSPropertyOp39
 70
     0
102
RTVSPropertyOp40
 70
     0
102
RTVSPropertyOp41
 70
     0
102
RTVSPropertyOp42
 70
     0
102
RTVSPropertyOp43
 70
     0
102
RTVSPropertyOp44
 70
     0
102
RTVSPropertyOp45
 70
     1
102
RTVSPropertyOp46
 70
     0
102
RTVSPropertyOp47
 70
     0
102
RTVSPropertyOp48
 70
     0
102
RTVSPropertyOp49
 70
     1
102
RTVSPropertyOp50
 70
     0
102
RTVSPropertyOp51
 70
     0
102
RTVSPropertyOp52
 70
     0
102
RTVSPropertyOp53
 70
     0
102
RTVSPropertyOp54
 70
     0
102
RTVSPropertyOp55
 70
     1
102
RTVSPropertyOp56
 70
     0
102
RTVSPropertyOp57
 70
     0
102
RTVSPropertyOp58
 70
     0
102
RTVSPropertyOp59
 70
     0
102
RTVSPropertyOp60
 70
     0
102
RTVSPropertyOp61
 70
     0
102
RTVSPropertyOp62
 70
     0
  0
XRECORD
  5
1ABCB
102
{ACAD_REACTORS
330
1ABCA
102
}
330
1ABCA
100
AcDbXrecord
280
     1
102
RTVSPost2010Prop28
280
     0
102
RTVSPost2010PropOp28
 70
     1
102
RTVSPost2010Prop29
280
     1
102
RTVSPost2010PropOp29
 70
     1
102
RTVSPost2010Prop30
280
     1
102
RTVSPost2010PropOp30
 70
     1
102
RTVSPost2010Prop31
280
     0
102
RTVSPost2010PropOp31
 70
     1
102
RTVSPost2010Prop32
280
     0
102
RTVSPost2010PropOp32
 70
     1
102
RTVSPost2010Prop33
280
     0
102
RTVSPost2010PropOp33
 70
     1
102
RTVSPost2010Prop34
280
     0
102
RTVSPost2010PropOp34
 70
     1
102
RTVSPost2010Prop35
280
     0
102
RTVSPost2010PropOp35
 70
     1
102
RTVSPost2010Prop36
280
     0
102
RTVSPost2010PropOp36
 70
     1
102
RTVSPost2010Prop37
 90
       50
102
RTVSPost2010PropOp37
 70
     1
102
RTVSPost2010Prop38
140
0.0
102
RTVSPost2010PropOp38
 70
     1
102
RTVSPost2010Prop39
140
1.0
102
RTVSPost2010PropOp39
 70
     1
102
RTVSPost2010Prop40
 90
        0
102
RTVSPost2010PropOp40
 70
     1
102
RTVSPost2010Prop41ColorIndex
 90
       18
102
RTVSPost2010Prop41ColorRGB
 90
        0
102
RTVSPost2010PropOp41
 70
     1
102
RTVSPost2010Prop42
 90
       50
102
RTVSPost2010PropOp42
 70
     1
102
RTVSPost2010Prop43
 90
        3
102
RTVSPost2010PropOp43
 70
     1
102
RTVSPost2010Prop44ColorIndex
 90
        5
102
RTVSPost2010Prop44ColorRGB
 90
      255
102
RTVSPost2010PropOp44
 70
     1
102
RTVSPost2010Prop45
280
     0
102
RTVSPost2010PropOp45
 70
     1
102
RTVSPost2010Prop46
 90
       50
102
RTVSPost2010PropOp46
 70
     1
102
RTVSPost2010Prop47
 90
       50
102
RTVSPost2010PropOp47
 70
     1
102
RTVSPost2010Prop48
 90
       50
102
RTVSPost2010PropOp48
 70
     1
102
RTVSPost2010Prop49
280
     0
102
RTVSPost2010PropOp49
 70
     1
102
RTVSPost2010Prop50
 90
       50
102
RTVSPost2010PropOp50
 70
     1
102
RTVSPost2010Prop51ColorIndex
 90
      256
102
RTVSPost2010Prop51ColorRGB
 90
-16777216
102
RTVSPost2010PropOp51
 70
     0
102
RTVSPost2010Prop52
140
1.0
102
RTVSPost2010PropOp52
 70
     0
102
RTVSPost2010Prop53
 90
        2
102
RTVSPost2010PropOp53
 70
     1
102
RTVSPost2010Prop54
  1
strokes_ogs.tif
102
RTVSPost2010PropOp54
 70
     1
102
RTVSPost2010Prop55
280
     0
102
RTVSPost2010PropOp55
 70
     1
102
RTVSPost2010Prop56
140
1.0
102
RTVSPost2010PropOp56
 70
     1
102
RTVSPost2010Prop57
140
1.0
102
RTVSPost2010PropOp57
 70
     1
102
RTVSPropertyOp0
 70
     1
102
RTVSPropertyOp1
 70
     1
102
RTVSPropertyOp2
 70
     1
102
RTVSPropertyOp3
 70
     1
102
RTVSPropertyOp4
 70
     1
102
RTVSPropertyOp5
 70
     1
102
RTVSPropertyOp6
 70
     1
102
RTVSPropertyOp7
 70
     1
102
RTVSPropertyOp8
 70
     1
102
RTVSPropertyOp9
 70
     1
102
RTVSPropertyOp10
 70
     1
102
RTVSPropertyOp11
 70
     1
102
RTVSPropertyOp12
 70
     1
102
RTVSPropertyOp13
 70
     1
102
RTVSPropertyOp14
 70
     1
102
RTVSPropertyOp15
 70
     1
102
RTVSPropertyOp16
 70
     1
102
RTVSPropertyOp17
 70
     1
102
RTVSPropertyOp18
 70
     1
102
RTVSPropertyOp19
 70
     1
102
RTVSPropertyOp20
 70
     1
102
RTVSPropertyOp21
 70
     1
102
RTVSPropertyOp22
 70
     1
102
RTVSPropertyOp23
 70
     1
102
RTVSPropertyOp24
 70
     1
102
RTVSPropertyOp25
 70
     1
102
RTVSPropertyOp26
 70
     1
102
RTVSPropertyOp27
 70
     1
102
RTVSPropertyOp28
 70
     1
102
RTVSPropertyOp29
 70
     1
102
RTVSPropertyOp30
 70
     1
102
RTVSPropertyOp31
 70
     1
102
RTVSPropertyOp32
 70
     1
102
RTVSPropertyOp33
 70
     1
102
RTVSPropertyOp34
 70
     1
102
RTVSPropertyOp35
 70
     1
102
RTVSPropertyOp36
 70
     1
102
RTVSPropertyOp37
 70
     1
102
RTVSPropertyOp38
 70
     1
102
RTVSPropertyOp39
 70
     1
102
RTVSPropertyOp40
 70
     1
102
RTVSPropertyOp41
 70
     1
102
RTVSPropertyOp42
 70
     1
102
RTVSPropertyOp43
 70
     1
102
RTVSPropertyOp44
 70
     1
102
RTVSPropertyOp45
 70
     1
102
RTVSPropertyOp46
 70
     1
102
RTVSPropertyOp47
 70
     1
102
RTVSPropertyOp48
 70
     1
102
RTVSPropertyOp49
 70
     1
102
RTVSPropertyOp50
 70
     1
102
RTVSPropertyOp51
 70
     0
102
RTVSPropertyOp52
 70
     0
102
RTVSPropertyOp53
 70
     1
102
RTVSPropertyOp54
 70
     1
102
RTVSPropertyOp55
 70
     1
102
RTVSPropertyOp56
 70
     1
102
RTVSPropertyOp57
 70
     1
102
RTVSPropertyOp58
 70
     1
102
RTVSPropertyOp59
 70
     1
102
RTVSPropertyOp60
 70
     1
102
RTVSPropertyOp61
 70
     1
102
RTVSPropertyOp62
 70
     1
  0
XRECORD
  5
1ABAF
102
{ACAD_REACTORS
330
1ABAE
102
}
330
1ABAE
100
AcDbXrecord
280
     1
102
RTVSPost2010Prop28
280
     0
102
RTVSPost2010PropOp28
 70
     1
102
RTVSPost2010Prop29
280
     1
102
RTVSPost2010PropOp29
 70
     1
102
RTVSPost2010Prop30
280
     1
102
RTVSPost2010PropOp30
 70
     1
102
RTVSPost2010Prop31
280
     0
102
RTVSPost2010PropOp31
 70
     1
102
RTVSPost2010Prop32
280
     0
102
RTVSPost2010PropOp32
 70
     1
102
RTVSPost2010Prop33
280
     0
102
RTVSPost2010PropOp33
 70
     1
102
RTVSPost2010Prop34
280
     0
102
RTVSPost2010PropOp34
 70
     1
102
RTVSPost2010Prop35
280
     0
102
RTVSPost2010PropOp35
 70
     1
102
RTVSPost2010Prop36
280
     0
102
RTVSPost2010PropOp36
 70
     1
102
RTVSPost2010Prop37
 90
       50
102
RTVSPost2010PropOp37
 70
     1
102
RTVSPost2010Prop38
140
0.0
102
RTVSPost2010PropOp38
 70
     1
102
RTVSPost2010Prop39
140
1.0
102
RTVSPost2010PropOp39
 70
     1
102
RTVSPost2010Prop40
 90
        0
102
RTVSPost2010PropOp40
 70
     1
102
RTVSPost2010Prop41ColorIndex
 90
       18
102
RTVSPost2010Prop41ColorRGB
 90
        0
102
RTVSPost2010PropOp41
 70
     1
102
RTVSPost2010Prop42
 90
       50
102
RTVSPost2010PropOp42
 70
     1
102
RTVSPost2010Prop43
 90
        3
102
RTVSPost2010PropOp43
 70
     1
102
RTVSPost2010Prop44ColorIndex
 90
        5
102
RTVSPost2010Prop44ColorRGB
 90
      255
102
RTVSPost2010PropOp44
 70
     1
102
RTVSPost2010Prop45
280
     0
102
RTVSPost2010PropOp45
 70
     1
102
RTVSPost2010Prop46
 90
       50
102
RTVSPost2010PropOp46
 70
     1
102
RTVSPost2010Prop47
 90
       50
102
RTVSPost2010PropOp47
 70
     1
102
RTVSPost2010Prop48
 90
       50
102
RTVSPost2010PropOp48
 70
     1
102
RTVSPost2010Prop49
280
     0
102
RTVSPost2010PropOp49
 70
     1
102
RTVSPost2010Prop50
 90
       50
102
RTVSPost2010PropOp50
 70
     1
102
RTVSPost2010Prop51ColorIndex
 90
      256
102
RTVSPost2010Prop51ColorRGB
 90
-16777216
102
RTVSPost2010PropOp51
 70
     0
102
RTVSPost2010Prop52
140
1.0
102
RTVSPost2010PropOp52
 70
     0
102
RTVSPost2010Prop53
 90
        2
102
RTVSPost2010PropOp53
 70
     1
102
RTVSPost2010Prop54
  1
strokes_ogs.tif
102
RTVSPost2010PropOp54
 70
     1
102
RTVSPost2010Prop55
280
     0
102
RTVSPost2010PropOp55
 70
     1
102
RTVSPost2010Prop56
140
1.0
102
RTVSPost2010PropOp56
 70
     1
102
RTVSPost2010Prop57
140
1.0
102
RTVSPost2010PropOp57
 70
     1
102
RTVSPropertyOp0
 70
     1
102
RTVSPropertyOp1
 70
     1
102
RTVSPropertyOp2
 70
     1
102
RTVSPropertyOp3
 70
     1
102
RTVSPropertyOp4
 70
     1
102
RTVSPropertyOp5
 70
     1
102
RTVSPropertyOp6
 70
     1
102
RTVSPropertyOp7
 70
     1
102
RTVSPropertyOp8
 70
     1
102
RTVSPropertyOp9
 70
     1
102
RTVSPropertyOp10
 70
     1
102
RTVSPropertyOp11
 70
     1
102
RTVSPropertyOp12
 70
     1
102
RTVSPropertyOp13
 70
     1
102
RTVSPropertyOp14
 70
     1
102
RTVSPropertyOp15
 70
     1
102
RTVSPropertyOp16
 70
     1
102
RTVSPropertyOp17
 70
     1
102
RTVSPropertyOp18
 70
     1
102
RTVSPropertyOp19
 70
     1
102
RTVSPropertyOp20
 70
     1
102
RTVSPropertyOp21
 70
     1
102
RTVSPropertyOp22
 70
     1
102
RTVSPropertyOp23
 70
     1
102
RTVSPropertyOp24
 70
     1
102
RTVSPropertyOp25
 70
     1
102
RTVSPropertyOp26
 70
     1
102
RTVSPropertyOp27
 70
     1
102
RTVSPropertyOp28
 70
     1
102
RTVSPropertyOp29
 70
     1
102
RTVSPropertyOp30
 70
     1
102
RTVSPropertyOp31
 70
     1
102
RTVSPropertyOp32
 70
     1
102
RTVSPropertyOp33
 70
     1
102
RTVSPropertyOp34
 70
     1
102
RTVSPropertyOp35
 70
     1
102
RTVSPropertyOp36
 70
     1
102
RTVSPropertyOp37
 70
     1
102
RTVSPropertyOp38
 70
     1
102
RTVSPropertyOp39
 70
     1
102
RTVSPropertyOp40
 70
     1
102
RTVSPropertyOp41
 70
     1
102
RTVSPropertyOp42
 70
     1
102
RTVSPropertyOp43
 70
     1
102
RTVSPropertyOp44
 70
     1
102
RTVSPropertyOp45
 70
     1
102
RTVSPropertyOp46
 70
     1
102
RTVSPropertyOp47
 70
     1
102
RTVSPropertyOp48
 70
     1
102
RTVSPropertyOp49
 70
     1
102
RTVSPropertyOp50
 70
     1
102
RTVSPropertyOp51
 70
     0
102
RTVSPropertyOp52
 70
     0
102
RTVSPropertyOp53
 70
     1
102
RTVSPropertyOp54
 70
     1
102
RTVSPropertyOp55
 70
     1
102
RTVSPropertyOp56
 70
     1
102
RTVSPropertyOp57
 70
     1
102
RTVSPropertyOp58
 70
     1
102
RTVSPropertyOp59
 70
     1
102
RTVSPropertyOp60
 70
     1
102
RTVSPropertyOp61
 70
     1
102
RTVSPropertyOp62
 70
     1
  0
XRECORD
  5
1ABB1
102
{ACAD_REACTORS
330
1ABB0
102
}
330
1ABB0
100
AcDbXrecord
280
     1
102
RTVSPost2010Prop28
280
     0
102
RTVSPost2010PropOp28
 70
     1
102
RTVSPost2010Prop29
280
     1
102
RTVSPost2010PropOp29
 70
     1
102
RTVSPost2010Prop30
280
     1
102
RTVSPost2010PropOp30
 70
     1
102
RTVSPost2010Prop31
280
     0
102
RTVSPost2010PropOp31
 70
     1
102
RTVSPost2010Prop32
280
     0
102
RTVSPost2010PropOp32
 70
     1
102
RTVSPost2010Prop33
280
     0
102
RTVSPost2010PropOp33
 70
     1
102
RTVSPost2010Prop34
280
     0
102
RTVSPost2010PropOp34
 70
     1
102
RTVSPost2010Prop35
280
     0
102
RTVSPost2010PropOp35
 70
     1
102
RTVSPost2010Prop36
280
     0
102
RTVSPost2010PropOp36
 70
     1
102
RTVSPost2010Prop37
 90
       50
102
RTVSPost2010PropOp37
 70
     1
102
RTVSPost2010Prop38
140
0.0
102
RTVSPost2010PropOp38
 70
     1
102
RTVSPost2010Prop39
140
1.0
102
RTVSPost2010PropOp39
 70
     1
102
RTVSPost2010Prop40
 90
        0
102
RTVSPost2010PropOp40
 70
     1
102
RTVSPost2010Prop41ColorIndex
 90
       18
102
RTVSPost2010Prop41ColorRGB
 90
        0
102
RTVSPost2010PropOp41
 70
     1
102
RTVSPost2010Prop42
 90
       50
102
RTVSPost2010PropOp42
 70
     1
102
RTVSPost2010Prop43
 90
        3
102
RTVSPost2010PropOp43
 70
     1
102
RTVSPost2010Prop44ColorIndex
 90
        5
102
RTVSPost2010Prop44ColorRGB
 90
      255
102
RTVSPost2010PropOp44
 70
     1
102
RTVSPost2010Prop45
280
     0
102
RTVSPost2010PropOp45
 70
     1
102
RTVSPost2010Prop46
 90
       50
102
RTVSPost2010PropOp46
 70
     1
102
RTVSPost2010Prop47
 90
       50
102
RTVSPost2010PropOp47
 70
     1
102
RTVSPost2010Prop48
 90
       50
102
RTVSPost2010PropOp48
 70
     1
102
RTVSPost2010Prop49
280
     0
102
RTVSPost2010PropOp49
 70
     1
102
RTVSPost2010Prop50
 90
       50
102
RTVSPost2010PropOp50
 70
     1
102
RTVSPost2010Prop51ColorIndex
 90
      256
102
RTVSPost2010Prop51ColorRGB
 90
-16777216
102
RTVSPost2010PropOp51
 70
     0
102
RTVSPost2010Prop52
140
1.0
102
RTVSPost2010PropOp52
 70
     0
102
RTVSPost2010Prop53
 90
        2
102
RTVSPost2010PropOp53
 70
     1
102
RTVSPost2010Prop54
  1
strokes_ogs.tif
102
RTVSPost2010PropOp54
 70
     1
102
RTVSPost2010Prop55
280
     0
102
RTVSPost2010PropOp55
 70
     1
102
RTVSPost2010Prop56
140
1.0
102
RTVSPost2010PropOp56
 70
     1
102
RTVSPost2010Prop57
140
1.0
102
RTVSPost2010PropOp57
 70
     1
102
RTVSPropertyOp0
 70
     1
102
RTVSPropertyOp1
 70
     1
102
RTVSPropertyOp2
 70
     1
102
RTVSPropertyOp3
 70
     1
102
RTVSPropertyOp4
 70
     1
102
RTVSPropertyOp5
 70
     1
102
RTVSPropertyOp6
 70
     1
102
RTVSPropertyOp7
 70
     1
102
RTVSPropertyOp8
 70
     1
102
RTVSPropertyOp9
 70
     1
102
RTVSPropertyOp10
 70
     1
102
RTVSPropertyOp11
 70
     1
102
RTVSPropertyOp12
 70
     1
102
RTVSPropertyOp13
 70
     1
102
RTVSPropertyOp14
 70
     1
102
RTVSPropertyOp15
 70
     1
102
RTVSPropertyOp16
 70
     1
102
RTVSPropertyOp17
 70
     1
102
RTVSPropertyOp18
 70
     1
102
RTVSPropertyOp19
 70
     1
102
RTVSPropertyOp20
 70
     1
102
RTVSPropertyOp21
 70
     1
102
RTVSPropertyOp22
 70
     1
102
RTVSPropertyOp23
 70
     1
102
RTVSPropertyOp24
 70
     1
102
RTVSPropertyOp25
 70
     1
102
RTVSPropertyOp26
 70
     1
102
RTVSPropertyOp27
 70
     1
102
RTVSPropertyOp28
 70
     1
102
RTVSPropertyOp29
 70
     1
102
RTVSPropertyOp30
 70
     1
102
RTVSPropertyOp31
 70
     1
102
RTVSPropertyOp32
 70
     1
102
RTVSPropertyOp33
 70
     1
102
RTVSPropertyOp34
 70
     1
102
RTVSPropertyOp35
 70
     1
102
RTVSPropertyOp36
 70
     1
102
RTVSPropertyOp37
 70
     1
102
RTVSPropertyOp38
 70
     1
102
RTVSPropertyOp39
 70
     1
102
RTVSPropertyOp40
 70
     1
102
RTVSPropertyOp41
 70
     1
102
RTVSPropertyOp42
 70
     1
102
RTVSPropertyOp43
 70
     1
102
RTVSPropertyOp44
 70
     1
102
RTVSPropertyOp45
 70
     1
102
RTVSPropertyOp46
 70
     1
102
RTVSPropertyOp47
 70
     1
102
RTVSPropertyOp48
 70
     1
102
RTVSPropertyOp49
 70
     1
102
RTVSPropertyOp50
 70
     1
102
RTVSPropertyOp51
 70
     0
102
RTVSPropertyOp52
 70
     0
102
RTVSPropertyOp53
 70
     1
102
RTVSPropertyOp54
 70
     1
102
RTVSPropertyOp55
 70
     1
102
RTVSPropertyOp56
 70
     1
102
RTVSPropertyOp57
 70
     1
102
RTVSPropertyOp58
 70
     1
102
RTVSPropertyOp59
 70
     1
102
RTVSPropertyOp60
 70
     1
102
RTVSPropertyOp61
 70
     1
102
RTVSPropertyOp62
 70
     1
  0
XRECORD
  5
1ABB3
102
{ACAD_REACTORS
330
1ABB2
102
}
330
1ABB2
100
AcDbXrecord
280
     1
102
RTVSPost2010Prop28
280
     0
102
RTVSPost2010PropOp28
 70
     1
102
RTVSPost2010Prop29
280
     1
102
RTVSPost2010PropOp29
 70
     1
102
RTVSPost2010Prop30
280
     1
102
RTVSPost2010PropOp30
 70
     1
102
RTVSPost2010Prop31
280
     0
102
RTVSPost2010PropOp31
 70
     1
102
RTVSPost2010Prop32
280
     0
102
RTVSPost2010PropOp32
 70
     1
102
RTVSPost2010Prop33
280
     0
102
RTVSPost2010PropOp33
 70
     1
102
RTVSPost2010Prop34
280
     0
102
RTVSPost2010PropOp34
 70
     1
102
RTVSPost2010Prop35
280
     0
102
RTVSPost2010PropOp35
 70
     1
102
RTVSPost2010Prop36
280
     0
102
RTVSPost2010PropOp36
 70
     1
102
RTVSPost2010Prop37
 90
       50
102
RTVSPost2010PropOp37
 70
     1
102
RTVSPost2010Prop38
140
0.0
102
RTVSPost2010PropOp38
 70
     1
102
RTVSPost2010Prop39
140
1.0
102
RTVSPost2010PropOp39
 70
     1
102
RTVSPost2010Prop40
 90
        0
102
RTVSPost2010PropOp40
 70
     1
102
RTVSPost2010Prop41ColorIndex
 90
       18
102
RTVSPost2010Prop41ColorRGB
 90
        0
102
RTVSPost2010PropOp41
 70
     1
102
RTVSPost2010Prop42
 90
       50
102
RTVSPost2010PropOp42
 70
     1
102
RTVSPost2010Prop43
 90
        3
102
RTVSPost2010PropOp43
 70
     1
102
RTVSPost2010Prop44ColorIndex
 90
        5
102
RTVSPost2010Prop44ColorRGB
 90
      255
102
RTVSPost2010PropOp44
 70
     1
102
RTVSPost2010Prop45
280
     0
102
RTVSPost2010PropOp45
 70
     1
102
RTVSPost2010Prop46
 90
       50
102
RTVSPost2010PropOp46
 70
     1
102
RTVSPost2010Prop47
 90
       50
102
RTVSPost2010PropOp47
 70
     1
102
RTVSPost2010Prop48
 90
       50
102
RTVSPost2010PropOp48
 70
     1
102
RTVSPost2010Prop49
280
     0
102
RTVSPost2010PropOp49
 70
     1
102
RTVSPost2010Prop50
 90
       50
102
RTVSPost2010PropOp50
 70
     1
102
RTVSPost2010Prop51ColorIndex
 90
      256
102
RTVSPost2010Prop51ColorRGB
 90
-16777216
102
RTVSPost2010PropOp51
 70
     0
102
RTVSPost2010Prop52
140
1.0
102
RTVSPost2010PropOp52
 70
     0
102
RTVSPost2010Prop53
 90
        2
102
RTVSPost2010PropOp53
 70
     1
102
RTVSPost2010Prop54
  1
strokes_ogs.tif
102
RTVSPost2010PropOp54
 70
     1
102
RTVSPost2010Prop55
280
     0
102
RTVSPost2010PropOp55
 70
     1
102
RTVSPost2010Prop56
140
1.0
102
RTVSPost2010PropOp56
 70
     1
102
RTVSPost2010Prop57
140
1.0
102
RTVSPost2010PropOp57
 70
     1
102
RTVSPropertyOp0
 70
     1
102
RTVSPropertyOp1
 70
     1
102
RTVSPropertyOp2
 70
     1
102
RTVSPropertyOp3
 70
     1
102
RTVSPropertyOp4
 70
     1
102
RTVSPropertyOp5
 70
     1
102
RTVSPropertyOp6
 70
     1
102
RTVSPropertyOp7
 70
     1
102
RTVSPropertyOp8
 70
     1
102
RTVSPropertyOp9
 70
     1
102
RTVSPropertyOp10
 70
     1
102
RTVSPropertyOp11
 70
     1
102
RTVSPropertyOp12
 70
     1
102
RTVSPropertyOp13
 70
     1
102
RTVSPropertyOp14
 70
     1
102
RTVSPropertyOp15
 70
     1
102
RTVSPropertyOp16
 70
     1
102
RTVSPropertyOp17
 70
     1
102
RTVSPropertyOp18
 70
     1
102
RTVSPropertyOp19
 70
     1
102
RTVSPropertyOp20
 70
     1
102
RTVSPropertyOp21
 70
     1
102
RTVSPropertyOp22
 70
     1
102
RTVSPropertyOp23
 70
     1
102
RTVSPropertyOp24
 70
     1
102
RTVSPropertyOp25
 70
     1
102
RTVSPropertyOp26
 70
     1
102
RTVSPropertyOp27
 70
     1
102
RTVSPropertyOp28
 70
     1
102
RTVSPropertyOp29
 70
     1
102
RTVSPropertyOp30
 70
     1
102
RTVSPropertyOp31
 70
     1
102
RTVSPropertyOp32
 70
     1
102
RTVSPropertyOp33
 70
     1
102
RTVSPropertyOp34
 70
     1
102
RTVSPropertyOp35
 70
     1
102
RTVSPropertyOp36
 70
     1
102
RTVSPropertyOp37
 70
     1
102
RTVSPropertyOp38
 70
     1
102
RTVSPropertyOp39
 70
     1
102
RTVSPropertyOp40
 70
     1
102
RTVSPropertyOp41
 70
     1
102
RTVSPropertyOp42
 70
     1
102
RTVSPropertyOp43
 70
     1
102
RTVSPropertyOp44
 70
     1
102
RTVSPropertyOp45
 70
     1
102
RTVSPropertyOp46
 70
     1
102
RTVSPropertyOp47
 70
     1
102
RTVSPropertyOp48
 70
     1
102
RTVSPropertyOp49
 70
     1
102
RTVSPropertyOp50
 70
     1
102
RTVSPropertyOp51
 70
     0
102
RTVSPropertyOp52
 70
     0
102
RTVSPropertyOp53
 70
     1
102
RTVSPropertyOp54
 70
     1
102
RTVSPropertyOp55
 70
     1
102
RTVSPropertyOp56
 70
     1
102
RTVSPropertyOp57
 70
     1
102
RTVSPropertyOp58
 70
     1
102
RTVSPropertyOp59
 70
     1
102
RTVSPropertyOp60
 70
     1
102
RTVSPropertyOp61
 70
     1
102
RTVSPropertyOp62
 70
     1
  0
XRECORD
  5
1ABB5
102
{ACAD_REACTORS
330
1ABB4
102
}
330
1ABB4
100
AcDbXrecord
280
     1
102
RTVSPost2010Prop28
280
     0
102
RTVSPost2010PropOp28
 70
     1
102
RTVSPost2010Prop29
280
     1
102
RTVSPost2010PropOp29
 70
     1
102
RTVSPost2010Prop30
280
     1
102
RTVSPost2010PropOp30
 70
     1
102
RTVSPost2010Prop31
280
     0
102
RTVSPost2010PropOp31
 70
     1
102
RTVSPost2010Prop32
280
     0
102
RTVSPost2010PropOp32
 70
     1
102
RTVSPost2010Prop33
280
     0
102
RTVSPost2010PropOp33
 70
     1
102
RTVSPost2010Prop34
280
     0
102
RTVSPost2010PropOp34
 70
     1
102
RTVSPost2010Prop35
280
     0
102
RTVSPost2010PropOp35
 70
     1
102
RTVSPost2010Prop36
280
     0
102
RTVSPost2010PropOp36
 70
     1
102
RTVSPost2010Prop37
 90
       50
102
RTVSPost2010PropOp37
 70
     1
102
RTVSPost2010Prop38
140
0.0
102
RTVSPost2010PropOp38
 70
     1
102
RTVSPost2010Prop39
140
1.0
102
RTVSPost2010PropOp39
 70
     1
102
RTVSPost2010Prop40
 90
        0
102
RTVSPost2010PropOp40
 70
     1
102
RTVSPost2010Prop41ColorIndex
 90
       18
102
RTVSPost2010Prop41ColorRGB
 90
        0
102
RTVSPost2010PropOp41
 70
     1
102
RTVSPost2010Prop42
 90
       50
102
RTVSPost2010PropOp42
 70
     1
102
RTVSPost2010Prop43
 90
        3
102
RTVSPost2010PropOp43
 70
     1
102
RTVSPost2010Prop44ColorIndex
 90
        5
102
RTVSPost2010Prop44ColorRGB
 90
      255
102
RTVSPost2010PropOp44
 70
     1
102
RTVSPost2010Prop45
280
     0
102
RTVSPost2010PropOp45
 70
     1
102
RTVSPost2010Prop46
 90
       50
102
RTVSPost2010PropOp46
 70
     1
102
RTVSPost2010Prop47
 90
       50
102
RTVSPost2010PropOp47
 70
     1
102
RTVSPost2010Prop48
 90
       50
102
RTVSPost2010PropOp48
 70
     1
102
RTVSPost2010Prop49
280
     0
102
RTVSPost2010PropOp49
 70
     1
102
RTVSPost2010Prop50
 90
       50
102
RTVSPost2010PropOp50
 70
     1
102
RTVSPost2010Prop51ColorIndex
 90
      256
102
RTVSPost2010Prop51ColorRGB
 90
-16777216
102
RTVSPost2010PropOp51
 70
     0
102
RTVSPost2010Prop52
140
1.0
102
RTVSPost2010PropOp52
 70
     0
102
RTVSPost2010Prop53
 90
        2
102
RTVSPost2010PropOp53
 70
     1
102
RTVSPost2010Prop54
  1
strokes_ogs.tif
102
RTVSPost2010PropOp54
 70
     1
102
RTVSPost2010Prop55
280
     0
102
RTVSPost2010PropOp55
 70
     1
102
RTVSPost2010Prop56
140
1.0
102
RTVSPost2010PropOp56
 70
     1
102
RTVSPost2010Prop57
140
1.0
102
RTVSPost2010PropOp57
 70
     1
102
RTVSPropertyOp0
 70
     1
102
RTVSPropertyOp1
 70
     1
102
RTVSPropertyOp2
 70
     1
102
RTVSPropertyOp3
 70
     1
102
RTVSPropertyOp4
 70
     1
102
RTVSPropertyOp5
 70
     1
102
RTVSPropertyOp6
 70
     1
102
RTVSPropertyOp7
 70
     1
102
RTVSPropertyOp8
 70
     1
102
RTVSPropertyOp9
 70
     1
102
RTVSPropertyOp10
 70
     1
102
RTVSPropertyOp11
 70
     1
102
RTVSPropertyOp12
 70
     1
102
RTVSPropertyOp13
 70
     1
102
RTVSPropertyOp14
 70
     1
102
RTVSPropertyOp15
 70
     1
102
RTVSPropertyOp16
 70
     1
102
RTVSPropertyOp17
 70
     1
102
RTVSPropertyOp18
 70
     1
102
RTVSPropertyOp19
 70
     1
102
RTVSPropertyOp20
 70
     1
102
RTVSPropertyOp21
 70
     1
102
RTVSPropertyOp22
 70
     1
102
RTVSPropertyOp23
 70
     1
102
RTVSPropertyOp24
 70
     1
102
RTVSPropertyOp25
 70
     1
102
RTVSPropertyOp26
 70
     1
102
RTVSPropertyOp27
 70
     1
102
RTVSPropertyOp28
 70
     1
102
RTVSPropertyOp29
 70
     1
102
RTVSPropertyOp30
 70
     1
102
RTVSPropertyOp31
 70
     1
102
RTVSPropertyOp32
 70
     1
102
RTVSPropertyOp33
 70
     1
102
RTVSPropertyOp34
 70
     1
102
RTVSPropertyOp35
 70
     1
102
RTVSPropertyOp36
 70
     1
102
RTVSPropertyOp37
 70
     1
102
RTVSPropertyOp38
 70
     1
102
RTVSPropertyOp39
 70
     1
102
RTVSPropertyOp40
 70
     1
102
RTVSPropertyOp41
 70
     1
102
RTVSPropertyOp42
 70
     1
102
RTVSPropertyOp43
 70
     1
102
RTVSPropertyOp44
 70
     1
102
RTVSPropertyOp45
 70
     1
102
RTVSPropertyOp46
 70
     1
102
RTVSPropertyOp47
 70
     1
102
RTVSPropertyOp48
 70
     1
102
RTVSPropertyOp49
 70
     1
102
RTVSPropertyOp50
 70
     1
102
RTVSPropertyOp51
 70
     0
102
RTVSPropertyOp52
 70
     0
102
RTVSPropertyOp53
 70
     1
102
RTVSPropertyOp54
 70
     1
102
RTVSPropertyOp55
 70
     1
102
RTVSPropertyOp56
 70
     1
102
RTVSPropertyOp57
 70
     1
102
RTVSPropertyOp58
 70
     1
102
RTVSPropertyOp59
 70
     1
102
RTVSPropertyOp60
 70
     1
102
RTVSPropertyOp61
 70
     1
102
RTVSPropertyOp62
 70
     1
  0
XRECORD
  5
1ABBD
102
{ACAD_REACTORS
330
1ABBC
102
}
330
1ABBC
100
AcDbXrecord
280
     1
102
RTVSPost2010Prop28
280
     0
102
RTVSPost2010PropOp28
 70
     1
102
RTVSPost2010Prop29
280
     1
102
RTVSPost2010PropOp29
 70
     1
102
RTVSPost2010Prop30
280
     1
102
RTVSPost2010PropOp30
 70
     1
102
RTVSPost2010Prop31
280
     0
102
RTVSPost2010PropOp31
 70
     1
102
RTVSPost2010Prop32
280
     0
102
RTVSPost2010PropOp32
 70
     1
102
RTVSPost2010Prop33
280
     0
102
RTVSPost2010PropOp33
 70
     1
102
RTVSPost2010Prop34
280
     0
102
RTVSPost2010PropOp34
 70
     1
102
RTVSPost2010Prop35
280
     0
102
RTVSPost2010PropOp35
 70
     1
102
RTVSPost2010Prop36
280
     0
102
RTVSPost2010PropOp36
 70
     1
102
RTVSPost2010Prop37
 90
       50
102
RTVSPost2010PropOp37
 70
     1
102
RTVSPost2010Prop38
140
0.0
102
RTVSPost2010PropOp38
 70
     1
102
RTVSPost2010Prop39
140
1.0
102
RTVSPost2010PropOp39
 70
     1
102
RTVSPost2010Prop40
 90
        0
102
RTVSPost2010PropOp40
 70
     1
102
RTVSPost2010Prop41ColorIndex
 90
       18
102
RTVSPost2010Prop41ColorRGB
 90
        0
102
RTVSPost2010PropOp41
 70
     1
102
RTVSPost2010Prop42
 90
       50
102
RTVSPost2010PropOp42
 70
     1
102
RTVSPost2010Prop43
 90
        3
102
RTVSPost2010PropOp43
 70
     1
102
RTVSPost2010Prop44ColorIndex
 90
        5
102
RTVSPost2010Prop44ColorRGB
 90
      255
102
RTVSPost2010PropOp44
 70
     1
102
RTVSPost2010Prop45
280
     0
102
RTVSPost2010PropOp45
 70
     1
102
RTVSPost2010Prop46
 90
       50
102
RTVSPost2010PropOp46
 70
     1
102
RTVSPost2010Prop47
 90
       50
102
RTVSPost2010PropOp47
 70
     1
102
RTVSPost2010Prop48
 90
       50
102
RTVSPost2010PropOp48
 70
     1
102
RTVSPost2010Prop49
280
     0
102
RTVSPost2010PropOp49
 70
     1
102
RTVSPost2010Prop50
 90
       50
102
RTVSPost2010PropOp50
 70
     1
102
RTVSPost2010Prop51ColorIndex
 90
      256
102
RTVSPost2010Prop51ColorRGB
 90
-16777216
102
RTVSPost2010PropOp51
 70
     0
102
RTVSPost2010Prop52
140
1.0
102
RTVSPost2010PropOp52
 70
     0
102
RTVSPost2010Prop53
 90
        2
102
RTVSPost2010PropOp53
 70
     1
102
RTVSPost2010Prop54
  1
strokes_ogs.tif
102
RTVSPost2010PropOp54
 70
     1
102
RTVSPost2010Prop55
280
     0
102
RTVSPost2010PropOp55
 70
     1
102
RTVSPost2010Prop56
140
1.0
102
RTVSPost2010PropOp56
 70
     1
102
RTVSPost2010Prop57
140
1.0
102
RTVSPost2010PropOp57
 70
     1
102
RTVSPropertyOp0
 70
     1
102
RTVSPropertyOp1
 70
     1
102
RTVSPropertyOp2
 70
     1
102
RTVSPropertyOp3
 70
     1
102
RTVSPropertyOp4
 70
     1
102
RTVSPropertyOp5
 70
     1
102
RTVSPropertyOp6
 70
     1
102
RTVSPropertyOp7
 70
     1
102
RTVSPropertyOp8
 70
     1
102
RTVSPropertyOp9
 70
     1
102
RTVSPropertyOp10
 70
     1
102
RTVSPropertyOp11
 70
     1
102
RTVSPropertyOp12
 70
     1
102
RTVSPropertyOp13
 70
     1
102
RTVSPropertyOp14
 70
     1
102
RTVSPropertyOp15
 70
     1
102
RTVSPropertyOp16
 70
     1
102
RTVSPropertyOp17
 70
     1
102
RTVSPropertyOp18
 70
     1
102
RTVSPropertyOp19
 70
     1
102
RTVSPropertyOp20
 70
     1
102
RTVSPropertyOp21
 70
     1
102
RTVSPropertyOp22
 70
     1
102
RTVSPropertyOp23
 70
     1
102
RTVSPropertyOp24
 70
     1
102
RTVSPropertyOp25
 70
     1
102
RTVSPropertyOp26
 70
     1
102
RTVSPropertyOp27
 70
     1
102
RTVSPropertyOp28
 70
     1
102
RTVSPropertyOp29
 70
     1
102
RTVSPropertyOp30
 70
     1
102
RTVSPropertyOp31
 70
     1
102
RTVSPropertyOp32
 70
     1
102
RTVSPropertyOp33
 70
     1
102
RTVSPropertyOp34
 70
     1
102
RTVSPropertyOp35
 70
     1
102
RTVSPropertyOp36
 70
     1
102
RTVSPropertyOp37
 70
     1
102
RTVSPropertyOp38
 70
     1
102
RTVSPropertyOp39
 70
     1
102
RTVSPropertyOp40
 70
     1
102
RTVSPropertyOp41
 70
     1
102
RTVSPropertyOp42
 70
     1
102
RTVSPropertyOp43
 70
     1
102
RTVSPropertyOp44
 70
     1
102
RTVSPropertyOp45
 70
     1
102
RTVSPropertyOp46
 70
     1
102
RTVSPropertyOp47
 70
     1
102
RTVSPropertyOp48
 70
     1
102
RTVSPropertyOp49
 70
     1
102
RTVSPropertyOp50
 70
     1
102
RTVSPropertyOp51
 70
     0
102
RTVSPropertyOp52
 70
     0
102
RTVSPropertyOp53
 70
     1
102
RTVSPropertyOp54
 70
     1
102
RTVSPropertyOp55
 70
     1
102
RTVSPropertyOp56
 70
     1
102
RTVSPropertyOp57
 70
     1
102
RTVSPropertyOp58
 70
     1
102
RTVSPropertyOp59
 70
     1
102
RTVSPropertyOp60
 70
     1
102
RTVSPropertyOp61
 70
     1
102
RTVSPropertyOp62
 70
     1
  0
XRECORD
  5
1ABD9
102
{ACAD_REACTORS
330
1ABD8
102
}
330
1ABD8
100
AcDbXrecord
280
     1
102
RTVSPost2010Prop28
280
     0
102
RTVSPost2010PropOp28
 70
     1
102
RTVSPost2010Prop29
280
     1
102
RTVSPost2010PropOp29
 70
     1
102
RTVSPost2010Prop30
280
     1
102
RTVSPost2010PropOp30
 70
     1
102
RTVSPost2010Prop31
280
     0
102
RTVSPost2010PropOp31
 70
     1
102
RTVSPost2010Prop32
280
     0
102
RTVSPost2010PropOp32
 70
     1
102
RTVSPost2010Prop33
280
     0
102
RTVSPost2010PropOp33
 70
     1
102
RTVSPost2010Prop34
280
     0
102
RTVSPost2010PropOp34
 70
     1
102
RTVSPost2010Prop35
280
     0
102
RTVSPost2010PropOp35
 70
     1
102
RTVSPost2010Prop36
280
     0
102
RTVSPost2010PropOp36
 70
     1
102
RTVSPost2010Prop37
 90
       50
102
RTVSPost2010PropOp37
 70
     0
102
RTVSPost2010Prop38
140
0.0
102
RTVSPost2010PropOp38
 70
     0
102
RTVSPost2010Prop39
140
1.0
102
RTVSPost2010PropOp39
 70
     0
102
RTVSPost2010Prop40
 90
        0
102
RTVSPost2010PropOp40
 70
     0
102
RTVSPost2010Prop41ColorIndex
 90
       18
102
RTVSPost2010Prop41ColorRGB
 90
        0
102
RTVSPost2010PropOp41
 70
     0
102
RTVSPost2010Prop42
 90
       50
102
RTVSPost2010PropOp42
 70
     0
102
RTVSPost2010Prop43
 90
        3
102
RTVSPost2010PropOp43
 70
     0
102
RTVSPost2010Prop44ColorIndex
 90
        5
102
RTVSPost2010Prop44ColorRGB
 90
      255
102
RTVSPost2010PropOp44
 70
     0
102
RTVSPost2010Prop45
280
     0
102
RTVSPost2010PropOp45
 70
     1
102
RTVSPost2010Prop46
 90
       50
102
RTVSPost2010PropOp46
 70
     0
102
RTVSPost2010Prop47
 90
       50
102
RTVSPost2010PropOp47
 70
     0
102
RTVSPost2010Prop48
 90
       50
102
RTVSPost2010PropOp48
 70
     0
102
RTVSPost2010Prop49
280
     0
102
RTVSPost2010PropOp49
 70
     1
102
RTVSPost2010Prop50
 90
       50
102
RTVSPost2010PropOp50
 70
     0
102
RTVSPost2010Prop51ColorIndex
 90
      256
102
RTVSPost2010Prop51ColorRGB
 90
-16777216
102
RTVSPost2010PropOp51
 70
     0
102
RTVSPost2010Prop52
140
1.0
102
RTVSPost2010PropOp52
 70
     0
102
RTVSPost2010Prop53
 90
        2
102
RTVSPost2010PropOp53
 70
     0
102
RTVSPost2010Prop54
  1
strokes_ogs.tif
102
RTVSPost2010PropOp54
 70
     0
102
RTVSPost2010Prop55
280
     0
102
RTVSPost2010PropOp55
 70
     1
102
RTVSPost2010Prop56
140
1.0
102
RTVSPost2010PropOp56
 70
     0
102
RTVSPost2010Prop57
140
1.0
102
RTVSPost2010PropOp57
 70
     0
102
RTVSPropertyOp0
 70
     0
102
RTVSPropertyOp1
 70
     0
102
RTVSPropertyOp2
 70
     0
102
RTVSPropertyOp3
 70
     0
102
RTVSPropertyOp4
 70
     0
102
RTVSPropertyOp5
 70
     0
102
RTVSPropertyOp6
 70
     0
102
RTVSPropertyOp7
 70
     0
102
RTVSPropertyOp8
 70
     0
102
RTVSPropertyOp9
 70
     0
102
RTVSPropertyOp10
 70
     0
102
RTVSPropertyOp11
 70
     0
102
RTVSPropertyOp12
 70
     0
102
RTVSPropertyOp13
 70
     0
102
RTVSPropertyOp14
 70
     2
102
RTVSPropertyOp15
 70
     0
102
RTVSPropertyOp16
 70
     0
102
RTVSPropertyOp17
 70
     0
102
RTVSPropertyOp18
 70
     0
102
RTVSPropertyOp19
 70
     0
102
RTVSPropertyOp20
 70
     0
102
RTVSPropertyOp21
 70
     0
102
RTVSPropertyOp22
 70
     0
102
RTVSPropertyOp23
 70
     0
102
RTVSPropertyOp24
 70
     0
102
RTVSPropertyOp25
 70
     0
102
RTVSPropertyOp26
 70
     0
102
RTVSPropertyOp27
 70
     0
102
RTVSPropertyOp28
 70
     1
102
RTVSPropertyOp29
 70
     1
102
RTVSPropertyOp30
 70
     1
102
RTVSPropertyOp31
 70
     1
102
RTVSPropertyOp32
 70
     1
102
RTVSPropertyOp33
 70
     1
102
RTVSPropertyOp34
 70
     1
102
RTVSPropertyOp35
 70
     1
102
RTVSPropertyOp36
 70
     1
102
RTVSPropertyOp37
 70
     0
102
RTVSPropertyOp38
 70
     0
102
RTVSPropertyOp39
 70
     0
102
RTVSPropertyOp40
 70
     0
102
RTVSPropertyOp41
 70
     0
102
RTVSPropertyOp42
 70
     0
102
RTVSPropertyOp43
 70
     0
102
RTVSPropertyOp44
 70
     0
102
RTVSPropertyOp45
 70
     1
102
RTVSPropertyOp46
 70
     0
102
RTVSPropertyOp47
 70
     0
102
RTVSPropertyOp48
 70
     0
102
RTVSPropertyOp49
 70
     1
102
RTVSPropertyOp50
 70
     0
102
RTVSPropertyOp51
 70
     0
102
RTVSPropertyOp52
 70
     0
102
RTVSPropertyOp53
 70
     0
102
RTVSPropertyOp54
 70
     0
102
RTVSPropertyOp55
 70
     1
102
RTVSPropertyOp56
 70
     0
102
RTVSPropertyOp57
 70
     0
102
RTVSPropertyOp58
 70
     0
102
RTVSPropertyOp59
 70
     0
102
RTVSPropertyOp60
 70
     0
102
RTVSPropertyOp61
 70
     0
102
RTVSPropertyOp62
 70
     0
  0
XRECORD
  5
1ABC9
102
{ACAD_REACTORS
330
1ABC8
102
}
330
1ABC8
100
AcDbXrecord
280
     1
102
RTVSPost2010Prop28
280
     0
102
RTVSPost2010PropOp28
 70
     1
102
RTVSPost2010Prop29
280
     1
102
RTVSPost2010PropOp29
 70
     1
102
RTVSPost2010Prop30
280
     1
102
RTVSPost2010PropOp30
 70
     1
102
RTVSPost2010Prop31
280
     0
102
RTVSPost2010PropOp31
 70
     1
102
RTVSPost2010Prop32
280
     0
102
RTVSPost2010PropOp32
 70
     1
102
RTVSPost2010Prop33
280
     0
102
RTVSPost2010PropOp33
 70
     1
102
RTVSPost2010Prop34
280
     0
102
RTVSPost2010PropOp34
 70
     1
102
RTVSPost2010Prop35
280
     0
102
RTVSPost2010PropOp35
 70
     1
102
RTVSPost2010Prop36
280
     0
102
RTVSPost2010PropOp36
 70
     1
102
RTVSPost2010Prop37
 90
       50
102
RTVSPost2010PropOp37
 70
     1
102
RTVSPost2010Prop38
140
0.0
102
RTVSPost2010PropOp38
 70
     1
102
RTVSPost2010Prop39
140
1.0
102
RTVSPost2010PropOp39
 70
     1
102
RTVSPost2010Prop40
 90
        0
102
RTVSPost2010PropOp40
 70
     1
102
RTVSPost2010Prop41ColorIndex
 90
       18
102
RTVSPost2010Prop41ColorRGB
 90
        0
102
RTVSPost2010PropOp41
 70
     1
102
RTVSPost2010Prop42
 90
       50
102
RTVSPost2010PropOp42
 70
     1
102
RTVSPost2010Prop43
 90
        3
102
RTVSPost2010PropOp43
 70
     1
102
RTVSPost2010Prop44ColorIndex
 90
        5
102
RTVSPost2010Prop44ColorRGB
 90
      255
102
RTVSPost2010PropOp44
 70
     1
102
RTVSPost2010Prop45
280
     0
102
RTVSPost2010PropOp45
 70
     1
102
RTVSPost2010Prop46
 90
       50
102
RTVSPost2010PropOp46
 70
     1
102
RTVSPost2010Prop47
 90
       50
102
RTVSPost2010PropOp47
 70
     1
102
RTVSPost2010Prop48
 90
       50
102
RTVSPost2010PropOp48
 70
     1
102
RTVSPost2010Prop49
280
     0
102
RTVSPost2010PropOp49
 70
     1
102
RTVSPost2010Prop50
 90
       50
102
RTVSPost2010PropOp50
 70
     1
102
RTVSPost2010Prop51ColorIndex
 90
      256
102
RTVSPost2010Prop51ColorRGB
 90
-16777216
102
RTVSPost2010PropOp51
 70
     0
102
RTVSPost2010Prop52
140
1.0
102
RTVSPost2010PropOp52
 70
     0
102
RTVSPost2010Prop53
 90
        2
102
RTVSPost2010PropOp53
 70
     1
102
RTVSPost2010Prop54
  1
strokes_ogs.tif
102
RTVSPost2010PropOp54
 70
     1
102
RTVSPost2010Prop55
280
     0
102
RTVSPost2010PropOp55
 70
     1
102
RTVSPost2010Prop56
140
1.0
102
RTVSPost2010PropOp56
 70
     1
102
RTVSPost2010Prop57
140
1.0
102
RTVSPost2010PropOp57
 70
     1
102
RTVSPropertyOp0
 70
     1
102
RTVSPropertyOp1
 70
     1
102
RTVSPropertyOp2
 70
     1
102
RTVSPropertyOp3
 70
     1
102
RTVSPropertyOp4
 70
     1
102
RTVSPropertyOp5
 70
     1
102
RTVSPropertyOp6
 70
     1
102
RTVSPropertyOp7
 70
     1
102
RTVSPropertyOp8
 70
     1
102
RTVSPropertyOp9
 70
     1
102
RTVSPropertyOp10
 70
     1
102
RTVSPropertyOp11
 70
     1
102
RTVSPropertyOp12
 70
     1
102
RTVSPropertyOp13
 70
     1
102
RTVSPropertyOp14
 70
     1
102
RTVSPropertyOp15
 70
     1
102
RTVSPropertyOp16
 70
     1
102
RTVSPropertyOp17
 70
     1
102
RTVSPropertyOp18
 70
     1
102
RTVSPropertyOp19
 70
     1
102
RTVSPropertyOp20
 70
     1
102
RTVSPropertyOp21
 70
     1
102
RTVSPropertyOp22
 70
     1
102
RTVSPropertyOp23
 70
     1
102
RTVSPropertyOp24
 70
     1
102
RTVSPropertyOp25
 70
     1
102
RTVSPropertyOp26
 70
     1
102
RTVSPropertyOp27
 70
     1
102
RTVSPropertyOp28
 70
     1
102
RTVSPropertyOp29
 70
     1
102
RTVSPropertyOp30
 70
     1
102
RTVSPropertyOp31
 70
     1
102
RTVSPropertyOp32
 70
     1
102
RTVSPropertyOp33
 70
     1
102
RTVSPropertyOp34
 70
     1
102
RTVSPropertyOp35
 70
     1
102
RTVSPropertyOp36
 70
     1
102
RTVSPropertyOp37
 70
     1
102
RTVSPropertyOp38
 70
     1
102
RTVSPropertyOp39
 70
     1
102
RTVSPropertyOp40
 70
     1
102
RTVSPropertyOp41
 70
     1
102
RTVSPropertyOp42
 70
     1
102
RTVSPropertyOp43
 70
     1
102
RTVSPropertyOp44
 70
     1
102
RTVSPropertyOp45
 70
     1
102
RTVSPropertyOp46
 70
     1
102
RTVSPropertyOp47
 70
     1
102
RTVSPropertyOp48
 70
     1
102
RTVSPropertyOp49
 70
     1
102
RTVSPropertyOp50
 70
     1
102
RTVSPropertyOp51
 70
     0
102
RTVSPropertyOp52
 70
     0
102
RTVSPropertyOp53
 70
     1
102
RTVSPropertyOp54
 70
     1
102
RTVSPropertyOp55
 70
     1
102
RTVSPropertyOp56
 70
     1
102
RTVSPropertyOp57
 70
     1
102
RTVSPropertyOp58
 70
     1
102
RTVSPropertyOp59
 70
     1
102
RTVSPropertyOp60
 70
     1
102
RTVSPropertyOp61
 70
     1
102
RTVSPropertyOp62
 70
     1
  0
XRECORD
  5
1ABDB
102
{ACAD_REACTORS
330
1ABDA
102
}
330
1ABDA
100
AcDbXrecord
280
     1
102
RTVSPost2010Prop28
280
     0
102
RTVSPost2010PropOp28
 70
     1
102
RTVSPost2010Prop29
280
     1
102
RTVSPost2010PropOp29
 70
     1
102
RTVSPost2010Prop30
280
     1
102
RTVSPost2010PropOp30
 70
     1
102
RTVSPost2010Prop31
280
     0
102
RTVSPost2010PropOp31
 70
     1
102
RTVSPost2010Prop32
280
     0
102
RTVSPost2010PropOp32
 70
     1
102
RTVSPost2010Prop33
280
     0
102
RTVSPost2010PropOp33
 70
     1
102
RTVSPost2010Prop34
280
     0
102
RTVSPost2010PropOp34
 70
     1
102
RTVSPost2010Prop35
280
     0
102
RTVSPost2010PropOp35
 70
     1
102
RTVSPost2010Prop36
280
     0
102
RTVSPost2010PropOp36
 70
     1
102
RTVSPost2010Prop37
 90
       50
102
RTVSPost2010PropOp37
 70
     0
102
RTVSPost2010Prop38
140
0.0
102
RTVSPost2010PropOp38
 70
     0
102
RTVSPost2010Prop39
140
1.0
102
RTVSPost2010PropOp39
 70
     0
102
RTVSPost2010Prop40
 90
        0
102
RTVSPost2010PropOp40
 70
     0
102
RTVSPost2010Prop41ColorIndex
 90
       18
102
RTVSPost2010Prop41ColorRGB
 90
        0
102
RTVSPost2010PropOp41
 70
     0
102
RTVSPost2010Prop42
 90
       50
102
RTVSPost2010PropOp42
 70
     0
102
RTVSPost2010Prop43
 90
        3
102
RTVSPost2010PropOp43
 70
     0
102
RTVSPost2010Prop44ColorIndex
 90
        5
102
RTVSPost2010Prop44ColorRGB
 90
      255
102
RTVSPost2010PropOp44
 70
     0
102
RTVSPost2010Prop45
280
     0
102
RTVSPost2010PropOp45
 70
     1
102
RTVSPost2010Prop46
 90
       50
102
RTVSPost2010PropOp46
 70
     0
102
RTVSPost2010Prop47
 90
       50
102
RTVSPost2010PropOp47
 70
     0
102
RTVSPost2010Prop48
 90
       50
102
RTVSPost2010PropOp48
 70
     0
102
RTVSPost2010Prop49
280
     0
102
RTVSPost2010PropOp49
 70
     1
102
RTVSPost2010Prop50
 90
       50
102
RTVSPost2010PropOp50
 70
     0
102
RTVSPost2010Prop51ColorIndex
 90
      256
102
RTVSPost2010Prop51ColorRGB
 90
-16777216
102
RTVSPost2010PropOp51
 70
     0
102
RTVSPost2010Prop52
140
1.0
102
RTVSPost2010PropOp52
 70
     0
102
RTVSPost2010Prop53
 90
        2
102
RTVSPost2010PropOp53
 70
     0
102
RTVSPost2010Prop54
  1
strokes_ogs.tif
102
RTVSPost2010PropOp54
 70
     0
102
RTVSPost2010Prop55
280
     0
102
RTVSPost2010PropOp55
 70
     1
102
RTVSPost2010Prop56
140
1.0
102
RTVSPost2010PropOp56
 70
     0
102
RTVSPost2010Prop57
140
1.0
102
RTVSPost2010PropOp57
 70
     0
102
RTVSPropertyOp0
 70
     0
102
RTVSPropertyOp1
 70
     0
102
RTVSPropertyOp2
 70
     0
102
RTVSPropertyOp3
 70
     0
102
RTVSPropertyOp4
 70
     0
102
RTVSPropertyOp5
 70
     0
102
RTVSPropertyOp6
 70
     0
102
RTVSPropertyOp7
 70
     0
102
RTVSPropertyOp8
 70
     0
102
RTVSPropertyOp9
 70
     0
102
RTVSPropertyOp10
 70
     0
102
RTVSPropertyOp11
 70
     0
102
RTVSPropertyOp12
 70
     0
102
RTVSPropertyOp13
 70
     0
102
RTVSPropertyOp14
 70
     2
102
RTVSPropertyOp15
 70
     0
102
RTVSPropertyOp16
 70
     0
102
RTVSPropertyOp17
 70
     0
102
RTVSPropertyOp18
 70
     0
102
RTVSPropertyOp19
 70
     0
102
RTVSPropertyOp20
 70
     0
102
RTVSPropertyOp21
 70
     0
102
RTVSPropertyOp22
 70
     0
102
RTVSPropertyOp23
 70
     0
102
RTVSPropertyOp24
 70
     0
102
RTVSPropertyOp25
 70
     0
102
RTVSPropertyOp26
 70
     0
102
RTVSPropertyOp27
 70
     0
102
RTVSPropertyOp28
 70
     1
102
RTVSPropertyOp29
 70
     1
102
RTVSPropertyOp30
 70
     1
102
RTVSPropertyOp31
 70
     1
102
RTVSPropertyOp32
 70
     1
102
RTVSPropertyOp33
 70
     1
102
RTVSPropertyOp34
 70
     1
102
RTVSPropertyOp35
 70
     1
102
RTVSPropertyOp36
 70
     1
102
RTVSPropertyOp37
 70
     0
102
RTVSPropertyOp38
 70
     0
102
RTVSPropertyOp39
 70
     0
102
RTVSPropertyOp40
 70
     0
102
RTVSPropertyOp41
 70
     0
102
RTVSPropertyOp42
 70
     0
102
RTVSPropertyOp43
 70
     0
102
RTVSPropertyOp44
 70
     0
102
RTVSPropertyOp45
 70
     1
102
RTVSPropertyOp46
 70
     0
102
RTVSPropertyOp47
 70
     0
102
RTVSPropertyOp48
 70
     0
102
RTVSPropertyOp49
 70
     1
102
RTVSPropertyOp50
 70
     0
102
RTVSPropertyOp51
 70
     0
102
RTVSPropertyOp52
 70
     0
102
RTVSPropertyOp53
 70
     0
102
RTVSPropertyOp54
 70
     0
102
RTVSPropertyOp55
 70
     1
102
RTVSPropertyOp56
 70
     0
102
RTVSPropertyOp57
 70
     0
102
RTVSPropertyOp58
 70
     0
102
RTVSPropertyOp59
 70
     0
102
RTVSPropertyOp60
 70
     0
102
RTVSPropertyOp61
 70
     0
102
RTVSPropertyOp62
 70
     0
  0
XRECORD
  5
1ABC1
102
{ACAD_REACTORS
330
1ABC0
102
}
330
1ABC0
100
AcDbXrecord
280
     1
102
RTVSPost2010Prop28
280
     0
102
RTVSPost2010PropOp28
 70
     1
102
RTVSPost2010Prop29
280
     1
102
RTVSPost2010PropOp29
 70
     1
102
RTVSPost2010Prop30
280
     1
102
RTVSPost2010PropOp30
 70
     1
102
RTVSPost2010Prop31
280
     0
102
RTVSPost2010PropOp31
 70
     1
102
RTVSPost2010Prop32
280
     0
102
RTVSPost2010PropOp32
 70
     1
102
RTVSPost2010Prop33
280
     0
102
RTVSPost2010PropOp33
 70
     1
102
RTVSPost2010Prop34
280
     0
102
RTVSPost2010PropOp34
 70
     1
102
RTVSPost2010Prop35
280
     0
102
RTVSPost2010PropOp35
 70
     1
102
RTVSPost2010Prop36
280
     0
102
RTVSPost2010PropOp36
 70
     1
102
RTVSPost2010Prop37
 90
       50
102
RTVSPost2010PropOp37
 70
     1
102
RTVSPost2010Prop38
140
0.0
102
RTVSPost2010PropOp38
 70
     1
102
RTVSPost2010Prop39
140
1.0
102
RTVSPost2010PropOp39
 70
     1
102
RTVSPost2010Prop40
 90
        0
102
RTVSPost2010PropOp40
 70
     1
102
RTVSPost2010Prop41ColorIndex
 90
       18
102
RTVSPost2010Prop41ColorRGB
 90
        0
102
RTVSPost2010PropOp41
 70
     1
102
RTVSPost2010Prop42
 90
       50
102
RTVSPost2010PropOp42
 70
     1
102
RTVSPost2010Prop43
 90
        3
102
RTVSPost2010PropOp43
 70
     1
102
RTVSPost2010Prop44ColorIndex
 90
        5
102
RTVSPost2010Prop44ColorRGB
 90
      255
102
RTVSPost2010PropOp44
 70
     1
102
RTVSPost2010Prop45
280
     0
102
RTVSPost2010PropOp45
 70
     1
102
RTVSPost2010Prop46
 90
       50
102
RTVSPost2010PropOp46
 70
     1
102
RTVSPost2010Prop47
 90
       50
102
RTVSPost2010PropOp47
 70
     1
102
RTVSPost2010Prop48
 90
       50
102
RTVSPost2010PropOp48
 70
     1
102
RTVSPost2010Prop49
280
     0
102
RTVSPost2010PropOp49
 70
     1
102
RTVSPost2010Prop50
 90
       50
102
RTVSPost2010PropOp50
 70
     1
102
RTVSPost2010Prop51ColorIndex
 90
      256
102
RTVSPost2010Prop51ColorRGB
 90
-16777216
102
RTVSPost2010PropOp51
 70
     0
102
RTVSPost2010Prop52
140
1.0
102
RTVSPost2010PropOp52
 70
     0
102
RTVSPost2010Prop53
 90
        2
102
RTVSPost2010PropOp53
 70
     1
102
RTVSPost2010Prop54
  1
strokes_ogs.tif
102
RTVSPost2010PropOp54
 70
     1
102
RTVSPost2010Prop55
280
     0
102
RTVSPost2010PropOp55
 70
     1
102
RTVSPost2010Prop56
140
1.0
102
RTVSPost2010PropOp56
 70
     1
102
RTVSPost2010Prop57
140
1.0
102
RTVSPost2010PropOp57
 70
     1
102
RTVSPropertyOp0
 70
     1
102
RTVSPropertyOp1
 70
     1
102
RTVSPropertyOp2
 70
     1
102
RTVSPropertyOp3
 70
     1
102
RTVSPropertyOp4
 70
     1
102
RTVSPropertyOp5
 70
     1
102
RTVSPropertyOp6
 70
     1
102
RTVSPropertyOp7
 70
     1
102
RTVSPropertyOp8
 70
     1
102
RTVSPropertyOp9
 70
     1
102
RTVSPropertyOp10
 70
     1
102
RTVSPropertyOp11
 70
     1
102
RTVSPropertyOp12
 70
     1
102
RTVSPropertyOp13
 70
     1
102
RTVSPropertyOp14
 70
     1
102
RTVSPropertyOp15
 70
     1
102
RTVSPropertyOp16
 70
     1
102
RTVSPropertyOp17
 70
     1
102
RTVSPropertyOp18
 70
     1
102
RTVSPropertyOp19
 70
     1
102
RTVSPropertyOp20
 70
     1
102
RTVSPropertyOp21
 70
     1
102
RTVSPropertyOp22
 70
     1
102
RTVSPropertyOp23
 70
     1
102
RTVSPropertyOp24
 70
     1
102
RTVSPropertyOp25
 70
     1
102
RTVSPropertyOp26
 70
     1
102
RTVSPropertyOp27
 70
     1
102
RTVSPropertyOp28
 70
     1
102
RTVSPropertyOp29
 70
     1
102
RTVSPropertyOp30
 70
     1
102
RTVSPropertyOp31
 70
     1
102
RTVSPropertyOp32
 70
     1
102
RTVSPropertyOp33
 70
     1
102
RTVSPropertyOp34
 70
     1
102
RTVSPropertyOp35
 70
     1
102
RTVSPropertyOp36
 70
     1
102
RTVSPropertyOp37
 70
     1
102
RTVSPropertyOp38
 70
     1
102
RTVSPropertyOp39
 70
     1
102
RTVSPropertyOp40
 70
     1
102
RTVSPropertyOp41
 70
     1
102
RTVSPropertyOp42
 70
     1
102
RTVSPropertyOp43
 70
     1
102
RTVSPropertyOp44
 70
     1
102
RTVSPropertyOp45
 70
     1
102
RTVSPropertyOp46
 70
     1
102
RTVSPropertyOp47
 70
     1
102
RTVSPropertyOp48
 70
     1
102
RTVSPropertyOp49
 70
     1
102
RTVSPropertyOp50
 70
     1
102
RTVSPropertyOp51
 70
     0
102
RTVSPropertyOp52
 70
     0
102
RTVSPropertyOp53
 70
     1
102
RTVSPropertyOp54
 70
     1
102
RTVSPropertyOp55
 70
     1
102
RTVSPropertyOp56
 70
     1
102
RTVSPropertyOp57
 70
     1
102
RTVSPropertyOp58
 70
     1
102
RTVSPropertyOp59
 70
     1
102
RTVSPropertyOp60
 70
     1
102
RTVSPropertyOp61
 70
     1
102
RTVSPropertyOp62
 70
     1
  0
XRECORD
  5
1ABD7
102
{ACAD_REACTORS
330
1ABD6
102
}
330
1ABD6
100
AcDbXrecord
280
     1
102
RTVSPost2010Prop28
280
     0
102
RTVSPost2010PropOp28
 70
     1
102
RTVSPost2010Prop29
280
     1
102
RTVSPost2010PropOp29
 70
     1
102
RTVSPost2010Prop30
280
     1
102
RTVSPost2010PropOp30
 70
     1
102
RTVSPost2010Prop31
280
     0
102
RTVSPost2010PropOp31
 70
     1
102
RTVSPost2010Prop32
280
     0
102
RTVSPost2010PropOp32
 70
     1
102
RTVSPost2010Prop33
280
     0
102
RTVSPost2010PropOp33
 70
     1
102
RTVSPost2010Prop34
280
     0
102
RTVSPost2010PropOp34
 70
     1
102
RTVSPost2010Prop35
280
     0
102
RTVSPost2010PropOp35
 70
     1
102
RTVSPost2010Prop36
280
     0
102
RTVSPost2010PropOp36
 70
     1
102
RTVSPost2010Prop37
 90
       50
102
RTVSPost2010PropOp37
 70
     1
102
RTVSPost2010Prop38
140
0.0
102
RTVSPost2010PropOp38
 70
     1
102
RTVSPost2010Prop39
140
1.0
102
RTVSPost2010PropOp39
 70
     1
102
RTVSPost2010Prop40
 90
        0
102
RTVSPost2010PropOp40
 70
     1
102
RTVSPost2010Prop41ColorIndex
 90
       18
102
RTVSPost2010Prop41ColorRGB
 90
        0
102
RTVSPost2010PropOp41
 70
     1
102
RTVSPost2010Prop42
 90
       50
102
RTVSPost2010PropOp42
 70
     1
102
RTVSPost2010Prop43
 90
        3
102
RTVSPost2010PropOp43
 70
     1
102
RTVSPost2010Prop44ColorIndex
 90
        5
102
RTVSPost2010Prop44ColorRGB
 90
      255
102
RTVSPost2010PropOp44
 70
     1
102
RTVSPost2010Prop45
280
     0
102
RTVSPost2010PropOp45
 70
     1
102
RTVSPost2010Prop46
 90
       50
102
RTVSPost2010PropOp46
 70
     1
102
RTVSPost2010Prop47
 90
       50
102
RTVSPost2010PropOp47
 70
     1
102
RTVSPost2010Prop48
 90
       50
102
RTVSPost2010PropOp48
 70
     1
102
RTVSPost2010Prop49
280
     0
102
RTVSPost2010PropOp49
 70
     1
102
RTVSPost2010Prop50
 90
       50
102
RTVSPost2010PropOp50
 70
     1
102
RTVSPost2010Prop51ColorIndex
 90
      256
102
RTVSPost2010Prop51ColorRGB
 90
-16777216
102
RTVSPost2010PropOp51
 70
     0
102
RTVSPost2010Prop52
140
1.0
102
RTVSPost2010PropOp52
 70
     0
102
RTVSPost2010Prop53
 90
        2
102
RTVSPost2010PropOp53
 70
     1
102
RTVSPost2010Prop54
  1
strokes_ogs.tif
102
RTVSPost2010PropOp54
 70
     1
102
RTVSPost2010Prop55
280
     0
102
RTVSPost2010PropOp55
 70
     1
102
RTVSPost2010Prop56
140
1.0
102
RTVSPost2010PropOp56
 70
     1
102
RTVSPost2010Prop57
140
1.0
102
RTVSPost2010PropOp57
 70
     1
102
RTVSPropertyOp0
 70
     1
102
RTVSPropertyOp1
 70
     1
102
RTVSPropertyOp2
 70
     1
102
RTVSPropertyOp3
 70
     1
102
RTVSPropertyOp4
 70
     1
102
RTVSPropertyOp5
 70
     1
102
RTVSPropertyOp6
 70
     1
102
RTVSPropertyOp7
 70
     1
102
RTVSPropertyOp8
 70
     1
102
RTVSPropertyOp9
 70
     1
102
RTVSPropertyOp10
 70
     1
102
RTVSPropertyOp11
 70
     1
102
RTVSPropertyOp12
 70
     1
102
RTVSPropertyOp13
 70
     1
102
RTVSPropertyOp14
 70
     1
102
RTVSPropertyOp15
 70
     1
102
RTVSPropertyOp16
 70
     1
102
RTVSPropertyOp17
 70
     1
102
RTVSPropertyOp18
 70
     1
102
RTVSPropertyOp19
 70
     1
102
RTVSPropertyOp20
 70
     1
102
RTVSPropertyOp21
 70
     1
102
RTVSPropertyOp22
 70
     1
102
RTVSPropertyOp23
 70
     1
102
RTVSPropertyOp24
 70
     1
102
RTVSPropertyOp25
 70
     1
102
RTVSPropertyOp26
 70
     1
102
RTVSPropertyOp27
 70
     1
102
RTVSPropertyOp28
 70
     1
102
RTVSPropertyOp29
 70
     1
102
RTVSPropertyOp30
 70
     1
102
RTVSPropertyOp31
 70
     1
102
RTVSPropertyOp32
 70
     1
102
RTVSPropertyOp33
 70
     1
102
RTVSPropertyOp34
 70
     1
102
RTVSPropertyOp35
 70
     1
102
RTVSPropertyOp36
 70
     1
102
RTVSPropertyOp37
 70
     1
102
RTVSPropertyOp38
 70
     1
102
RTVSPropertyOp39
 70
     1
102
RTVSPropertyOp40
 70
     1
102
RTVSPropertyOp41
 70
     1
102
RTVSPropertyOp42
 70
     1
102
RTVSPropertyOp43
 70
     1
102
RTVSPropertyOp44
 70
     1
102
RTVSPropertyOp45
 70
     1
102
RTVSPropertyOp46
 70
     1
102
RTVSPropertyOp47
 70
     1
102
RTVSPropertyOp48
 70
     1
102
RTVSPropertyOp49
 70
     1
102
RTVSPropertyOp50
 70
     1
102
RTVSPropertyOp51
 70
     0
102
RTVSPropertyOp52
 70
     0
102
RTVSPropertyOp53
 70
     1
102
RTVSPropertyOp54
 70
     1
102
RTVSPropertyOp55
 70
     1
102
RTVSPropertyOp56
 70
     1
102
RTVSPropertyOp57
 70
     1
102
RTVSPropertyOp58
 70
     1
102
RTVSPropertyOp59
 70
     1
102
RTVSPropertyOp60
 70
     1
102
RTVSPropertyOp61
 70
     1
102
RTVSPropertyOp62
 70
     1
  0
XRECORD
  5
1ABD5
102
{ACAD_REACTORS
330
1ABD4
102
}
330
1ABD4
100
AcDbXrecord
280
     1
102
RTVSPost2010Prop28
280
     0
102
RTVSPost2010PropOp28
 70
     1
102
RTVSPost2010Prop29
280
     1
102
RTVSPost2010PropOp29
 70
     1
102
RTVSPost2010Prop30
280
     1
102
RTVSPost2010PropOp30
 70
     1
102
RTVSPost2010Prop31
280
     0
102
RTVSPost2010PropOp31
 70
     1
102
RTVSPost2010Prop32
280
     0
102
RTVSPost2010PropOp32
 70
     1
102
RTVSPost2010Prop33
280
     0
102
RTVSPost2010PropOp33
 70
     1
102
RTVSPost2010Prop34
280
     0
102
RTVSPost2010PropOp34
 70
     1
102
RTVSPost2010Prop35
280
     0
102
RTVSPost2010PropOp35
 70
     1
102
RTVSPost2010Prop36
280
     0
102
RTVSPost2010PropOp36
 70
     1
102
RTVSPost2010Prop37
 90
       50
102
RTVSPost2010PropOp37
 70
     1
102
RTVSPost2010Prop38
140
0.0
102
RTVSPost2010PropOp38
 70
     1
102
RTVSPost2010Prop39
140
1.0
102
RTVSPost2010PropOp39
 70
     1
102
RTVSPost2010Prop40
 90
        0
102
RTVSPost2010PropOp40
 70
     1
102
RTVSPost2010Prop41ColorIndex
 90
       18
102
RTVSPost2010Prop41ColorRGB
 90
        0
102
RTVSPost2010PropOp41
 70
     1
102
RTVSPost2010Prop42
 90
       50
102
RTVSPost2010PropOp42
 70
     1
102
RTVSPost2010Prop43
 90
        3
102
RTVSPost2010PropOp43
 70
     1
102
RTVSPost2010Prop44ColorIndex
 90
        5
102
RTVSPost2010Prop44ColorRGB
 90
      255
102
RTVSPost2010PropOp44
 70
     1
102
RTVSPost2010Prop45
280
     0
102
RTVSPost2010PropOp45
 70
     1
102
RTVSPost2010Prop46
 90
       50
102
RTVSPost2010PropOp46
 70
     1
102
RTVSPost2010Prop47
 90
       50
102
RTVSPost2010PropOp47
 70
     1
102
RTVSPost2010Prop48
 90
       50
102
RTVSPost2010PropOp48
 70
     1
102
RTVSPost2010Prop49
280
     0
102
RTVSPost2010PropOp49
 70
     1
102
RTVSPost2010Prop50
 90
       50
102
RTVSPost2010PropOp50
 70
     1
102
RTVSPost2010Prop51ColorIndex
 90
      256
102
RTVSPost2010Prop51ColorRGB
 90
-16777216
102
RTVSPost2010PropOp51
 70
     0
102
RTVSPost2010Prop52
140
1.0
102
RTVSPost2010PropOp52
 70
     0
102
RTVSPost2010Prop53
 90
        2
102
RTVSPost2010PropOp53
 70
     1
102
RTVSPost2010Prop54
  1
strokes_ogs.tif
102
RTVSPost2010PropOp54
 70
     1
102
RTVSPost2010Prop55
280
     0
102
RTVSPost2010PropOp55
 70
     1
102
RTVSPost2010Prop56
140
1.0
102
RTVSPost2010PropOp56
 70
     1
102
RTVSPost2010Prop57
140
1.0
102
RTVSPost2010PropOp57
 70
     1
102
RTVSPropertyOp0
 70
     1
102
RTVSPropertyOp1
 70
     1
102
RTVSPropertyOp2
 70
     1
102
RTVSPropertyOp3
 70
     1
102
RTVSPropertyOp4
 70
     1
102
RTVSPropertyOp5
 70
     1
102
RTVSPropertyOp6
 70
     1
102
RTVSPropertyOp7
 70
     1
102
RTVSPropertyOp8
 70
     1
102
RTVSPropertyOp9
 70
     1
102
RTVSPropertyOp10
 70
     1
102
RTVSPropertyOp11
 70
     1
102
RTVSPropertyOp12
 70
     1
102
RTVSPropertyOp13
 70
     1
102
RTVSPropertyOp14
 70
     1
102
RTVSPropertyOp15
 70
     1
102
RTVSPropertyOp16
 70
     1
102
RTVSPropertyOp17
 70
     1
102
RTVSPropertyOp18
 70
     1
102
RTVSPropertyOp19
 70
     1
102
RTVSPropertyOp20
 70
     1
102
RTVSPropertyOp21
 70
     1
102
RTVSPropertyOp22
 70
     1
102
RTVSPropertyOp23
 70
     1
102
RTVSPropertyOp24
 70
     1
102
RTVSPropertyOp25
 70
     1
102
RTVSPropertyOp26
 70
     1
102
RTVSPropertyOp27
 70
     1
102
RTVSPropertyOp28
 70
     1
102
RTVSPropertyOp29
 70
     1
102
RTVSPropertyOp30
 70
     1
102
RTVSPropertyOp31
 70
     1
102
RTVSPropertyOp32
 70
     1
102
RTVSPropertyOp33
 70
     1
102
RTVSPropertyOp34
 70
     1
102
RTVSPropertyOp35
 70
     1
102
RTVSPropertyOp36
 70
     1
102
RTVSPropertyOp37
 70
     1
102
RTVSPropertyOp38
 70
     1
102
RTVSPropertyOp39
 70
     1
102
RTVSPropertyOp40
 70
     1
102
RTVSPropertyOp41
 70
     1
102
RTVSPropertyOp42
 70
     1
102
RTVSPropertyOp43
 70
     1
102
RTVSPropertyOp44
 70
     1
102
RTVSPropertyOp45
 70
     1
102
RTVSPropertyOp46
 70
     1
102
RTVSPropertyOp47
 70
     1
102
RTVSPropertyOp48
 70
     1
102
RTVSPropertyOp49
 70
     1
102
RTVSPropertyOp50
 70
     1
102
RTVSPropertyOp51
 70
     0
102
RTVSPropertyOp52
 70
     0
102
RTVSPropertyOp53
 70
     1
102
RTVSPropertyOp54
 70
     1
102
RTVSPropertyOp55
 70
     1
102
RTVSPropertyOp56
 70
     1
102
RTVSPropertyOp57
 70
     1
102
RTVSPropertyOp58
 70
     1
102
RTVSPropertyOp59
 70
     1
102
RTVSPropertyOp60
 70
     1
102
RTVSPropertyOp61
 70
     1
102
RTVSPropertyOp62
 70
     1
  0
XRECORD
  5
1ABCF
102
{ACAD_REACTORS
330
1ABCE
102
}
330
1ABCE
100
AcDbXrecord
280
     1
102
RTVSPost2010Prop28
280
     0
102
RTVSPost2010PropOp28
 70
     1
102
RTVSPost2010Prop29
280
     1
102
RTVSPost2010PropOp29
 70
     1
102
RTVSPost2010Prop30
280
     1
102
RTVSPost2010PropOp30
 70
     1
102
RTVSPost2010Prop31
280
     0
102
RTVSPost2010PropOp31
 70
     1
102
RTVSPost2010Prop32
280
     0
102
RTVSPost2010PropOp32
 70
     1
102
RTVSPost2010Prop33
280
     0
102
RTVSPost2010PropOp33
 70
     1
102
RTVSPost2010Prop34
280
     0
102
RTVSPost2010PropOp34
 70
     1
102
RTVSPost2010Prop35
280
     0
102
RTVSPost2010PropOp35
 70
     1
102
RTVSPost2010Prop36
280
     0
102
RTVSPost2010PropOp36
 70
     1
102
RTVSPost2010Prop37
 90
       50
102
RTVSPost2010PropOp37
 70
     1
102
RTVSPost2010Prop38
140
0.0
102
RTVSPost2010PropOp38
 70
     1
102
RTVSPost2010Prop39
140
1.0
102
RTVSPost2010PropOp39
 70
     1
102
RTVSPost2010Prop40
 90
        0
102
RTVSPost2010PropOp40
 70
     1
102
RTVSPost2010Prop41ColorIndex
 90
       18
102
RTVSPost2010Prop41ColorRGB
 90
        0
102
RTVSPost2010PropOp41
 70
     1
102
RTVSPost2010Prop42
 90
       50
102
RTVSPost2010PropOp42
 70
     1
102
RTVSPost2010Prop43
 90
        3
102
RTVSPost2010PropOp43
 70
     1
102
RTVSPost2010Prop44ColorIndex
 90
        5
102
RTVSPost2010Prop44ColorRGB
 90
      255
102
RTVSPost2010PropOp44
 70
     1
102
RTVSPost2010Prop45
280
     0
102
RTVSPost2010PropOp45
 70
     1
102
RTVSPost2010Prop46
 90
       50
102
RTVSPost2010PropOp46
 70
     1
102
RTVSPost2010Prop47
 90
       50
102
RTVSPost2010PropOp47
 70
     1
102
RTVSPost2010Prop48
 90
       50
102
RTVSPost2010PropOp48
 70
     1
102
RTVSPost2010Prop49
280
     0
102
RTVSPost2010PropOp49
 70
     1
102
RTVSPost2010Prop50
 90
       50
102
RTVSPost2010PropOp50
 70
     1
102
RTVSPost2010Prop51ColorIndex
 90
      256
102
RTVSPost2010Prop51ColorRGB
 90
-16777216
102
RTVSPost2010PropOp51
 70
     0
102
RTVSPost2010Prop52
140
1.0
102
RTVSPost2010PropOp52
 70
     0
102
RTVSPost2010Prop53
 90
        2
102
RTVSPost2010PropOp53
 70
     1
102
RTVSPost2010Prop54
  1
strokes_ogs.tif
102
RTVSPost2010PropOp54
 70
     1
102
RTVSPost2010Prop55
280
     0
102
RTVSPost2010PropOp55
 70
     1
102
RTVSPost2010Prop56
140
1.0
102
RTVSPost2010PropOp56
 70
     1
102
RTVSPost2010Prop57
140
1.0
102
RTVSPost2010PropOp57
 70
     1
102
RTVSPropertyOp0
 70
     1
102
RTVSPropertyOp1
 70
     1
102
RTVSPropertyOp2
 70
     1
102
RTVSPropertyOp3
 70
     1
102
RTVSPropertyOp4
 70
     1
102
RTVSPropertyOp5
 70
     1
102
RTVSPropertyOp6
 70
     1
102
RTVSPropertyOp7
 70
     1
102
RTVSPropertyOp8
 70
     1
102
RTVSPropertyOp9
 70
     1
102
RTVSPropertyOp10
 70
     1
102
RTVSPropertyOp11
 70
     1
102
RTVSPropertyOp12
 70
     1
102
RTVSPropertyOp13
 70
     1
102
RTVSPropertyOp14
 70
     1
102
RTVSPropertyOp15
 70
     1
102
RTVSPropertyOp16
 70
     1
102
RTVSPropertyOp17
 70
     1
102
RTVSPropertyOp18
 70
     1
102
RTVSPropertyOp19
 70
     1
102
RTVSPropertyOp20
 70
     1
102
RTVSPropertyOp21
 70
     1
102
RTVSPropertyOp22
 70
     1
102
RTVSPropertyOp23
 70
     1
102
RTVSPropertyOp24
 70
     1
102
RTVSPropertyOp25
 70
     1
102
RTVSPropertyOp26
 70
     1
102
RTVSPropertyOp27
 70
     1
102
RTVSPropertyOp28
 70
     1
102
RTVSPropertyOp29
 70
     1
102
RTVSPropertyOp30
 70
     1
102
RTVSPropertyOp31
 70
     1
102
RTVSPropertyOp32
 70
     1
102
RTVSPropertyOp33
 70
     1
102
RTVSPropertyOp34
 70
     1
102
RTVSPropertyOp35
 70
     1
102
RTVSPropertyOp36
 70
     1
102
RTVSPropertyOp37
 70
     1
102
RTVSPropertyOp38
 70
     1
102
RTVSPropertyOp39
 70
     1
102
RTVSPropertyOp40
 70
     1
102
RTVSPropertyOp41
 70
     1
102
RTVSPropertyOp42
 70
     1
102
RTVSPropertyOp43
 70
     1
102
RTVSPropertyOp44
 70
     1
102
RTVSPropertyOp45
 70
     1
102
RTVSPropertyOp46
 70
     1
102
RTVSPropertyOp47
 70
     1
102
RTVSPropertyOp48
 70
     1
102
RTVSPropertyOp49
 70
     1
102
RTVSPropertyOp50
 70
     1
102
RTVSPropertyOp51
 70
     0
102
RTVSPropertyOp52
 70
     0
102
RTVSPropertyOp53
 70
     1
102
RTVSPropertyOp54
 70
     1
102
RTVSPropertyOp55
 70
     1
102
RTVSPropertyOp56
 70
     1
102
RTVSPropertyOp57
 70
     1
102
RTVSPropertyOp58
 70
     1
102
RTVSPropertyOp59
 70
     1
102
RTVSPropertyOp60
 70
     1
102
RTVSPropertyOp61
 70
     1
102
RTVSPropertyOp62
 70
     1
  0
XRECORD
  5
1ABD1
102
{ACAD_REACTORS
330
1ABD0
102
}
330
1ABD0
100
AcDbXrecord
280
     1
102
RTVSPost2010Prop28
280
     0
102
RTVSPost2010PropOp28
 70
     1
102
RTVSPost2010Prop29
280
     1
102
RTVSPost2010PropOp29
 70
     1
102
RTVSPost2010Prop30
280
     1
102
RTVSPost2010PropOp30
 70
     1
102
RTVSPost2010Prop31
280
     0
102
RTVSPost2010PropOp31
 70
     1
102
RTVSPost2010Prop32
280
     0
102
RTVSPost2010PropOp32
 70
     1
102
RTVSPost2010Prop33
280
     0
102
RTVSPost2010PropOp33
 70
     1
102
RTVSPost2010Prop34
280
     0
102
RTVSPost2010PropOp34
 70
     1
102
RTVSPost2010Prop35
280
     0
102
RTVSPost2010PropOp35
 70
     1
102
RTVSPost2010Prop36
280
     0
102
RTVSPost2010PropOp36
 70
     1
102
RTVSPost2010Prop37
 90
       50
102
RTVSPost2010PropOp37
 70
     1
102
RTVSPost2010Prop38
140
0.0
102
RTVSPost2010PropOp38
 70
     1
102
RTVSPost2010Prop39
140
1.0
102
RTVSPost2010PropOp39
 70
     1
102
RTVSPost2010Prop40
 90
        0
102
RTVSPost2010PropOp40
 70
     1
102
RTVSPost2010Prop41ColorIndex
 90
       18
102
RTVSPost2010Prop41ColorRGB
 90
        0
102
RTVSPost2010PropOp41
 70
     1
102
RTVSPost2010Prop42
 90
       50
102
RTVSPost2010PropOp42
 70
     1
102
RTVSPost2010Prop43
 90
        3
102
RTVSPost2010PropOp43
 70
     1
102
RTVSPost2010Prop44ColorIndex
 90
        5
102
RTVSPost2010Prop44ColorRGB
 90
      255
102
RTVSPost2010PropOp44
 70
     1
102
RTVSPost2010Prop45
280
     0
102
RTVSPost2010PropOp45
 70
     1
102
RTVSPost2010Prop46
 90
       50
102
RTVSPost2010PropOp46
 70
     1
102
RTVSPost2010Prop47
 90
       50
102
RTVSPost2010PropOp47
 70
     1
102
RTVSPost2010Prop48
 90
       50
102
RTVSPost2010PropOp48
 70
     1
102
RTVSPost2010Prop49
280
     0
102
RTVSPost2010PropOp49
 70
     1
102
RTVSPost2010Prop50
 90
       50
102
RTVSPost2010PropOp50
 70
     1
102
RTVSPost2010Prop51ColorIndex
 90
      256
102
RTVSPost2010Prop51ColorRGB
 90
-16777216
102
RTVSPost2010PropOp51
 70
     0
102
RTVSPost2010Prop52
140
1.0
102
RTVSPost2010PropOp52
 70
     0
102
RTVSPost2010Prop53
 90
        2
102
RTVSPost2010PropOp53
 70
     1
102
RTVSPost2010Prop54
  1
strokes_ogs.tif
102
RTVSPost2010PropOp54
 70
     1
102
RTVSPost2010Prop55
280
     0
102
RTVSPost2010PropOp55
 70
     1
102
RTVSPost2010Prop56
140
1.0
102
RTVSPost2010PropOp56
 70
     1
102
RTVSPost2010Prop57
140
1.0
102
RTVSPost2010PropOp57
 70
     1
102
RTVSPropertyOp0
 70
     1
102
RTVSPropertyOp1
 70
     1
102
RTVSPropertyOp2
 70
     1
102
RTVSPropertyOp3
 70
     1
102
RTVSPropertyOp4
 70
     1
102
RTVSPropertyOp5
 70
     1
102
RTVSPropertyOp6
 70
     1
102
RTVSPropertyOp7
 70
     1
102
RTVSPropertyOp8
 70
     1
102
RTVSPropertyOp9
 70
     1
102
RTVSPropertyOp10
 70
     1
102
RTVSPropertyOp11
 70
     1
102
RTVSPropertyOp12
 70
     1
102
RTVSPropertyOp13
 70
     1
102
RTVSPropertyOp14
 70
     1
102
RTVSPropertyOp15
 70
     1
102
RTVSPropertyOp16
 70
     1
102
RTVSPropertyOp17
 70
     1
102
RTVSPropertyOp18
 70
     1
102
RTVSPropertyOp19
 70
     1
102
RTVSPropertyOp20
 70
     1
102
RTVSPropertyOp21
 70
     1
102
RTVSPropertyOp22
 70
     1
102
RTVSPropertyOp23
 70
     1
102
RTVSPropertyOp24
 70
     1
102
RTVSPropertyOp25
 70
     1
102
RTVSPropertyOp26
 70
     1
102
RTVSPropertyOp27
 70
     1
102
RTVSPropertyOp28
 70
     1
102
RTVSPropertyOp29
 70
     1
102
RTVSPropertyOp30
 70
     1
102
RTVSPropertyOp31
 70
     1
102
RTVSPropertyOp32
 70
     1
102
RTVSPropertyOp33
 70
     1
102
RTVSPropertyOp34
 70
     1
102
RTVSPropertyOp35
 70
     1
102
RTVSPropertyOp36
 70
     1
102
RTVSPropertyOp37
 70
     1
102
RTVSPropertyOp38
 70
     1
102
RTVSPropertyOp39
 70
     1
102
RTVSPropertyOp40
 70
     1
102
RTVSPropertyOp41
 70
     1
102
RTVSPropertyOp42
 70
     1
102
RTVSPropertyOp43
 70
     1
102
RTVSPropertyOp44
 70
     1
102
RTVSPropertyOp45
 70
     1
102
RTVSPropertyOp46
 70
     1
102
RTVSPropertyOp47
 70
     1
102
RTVSPropertyOp48
 70
     1
102
RTVSPropertyOp49
 70
     1
102
RTVSPropertyOp50
 70
     1
102
RTVSPropertyOp51
 70
     0
102
RTVSPropertyOp52
 70
     0
102
RTVSPropertyOp53
 70
     1
102
RTVSPropertyOp54
 70
     1
102
RTVSPropertyOp55
 70
     1
102
RTVSPropertyOp56
 70
     1
102
RTVSPropertyOp57
 70
     1
102
RTVSPropertyOp58
 70
     1
102
RTVSPropertyOp59
 70
     1
102
RTVSPropertyOp60
 70
     1
102
RTVSPropertyOp61
 70
     1
102
RTVSPropertyOp62
 70
     1
  0
XRECORD
  5
1ABC7
102
{ACAD_REACTORS
330
1ABC6
102
}
330
1ABC6
100
AcDbXrecord
280
     1
102
RTVSPost2010Prop28
280
     0
102
RTVSPost2010PropOp28
 70
     1
102
RTVSPost2010Prop29
280
     1
102
RTVSPost2010PropOp29
 70
     1
102
RTVSPost2010Prop30
280
     1
102
RTVSPost2010PropOp30
 70
     1
102
RTVSPost2010Prop31
280
     0
102
RTVSPost2010PropOp31
 70
     1
102
RTVSPost2010Prop32
280
     0
102
RTVSPost2010PropOp32
 70
     1
102
RTVSPost2010Prop33
280
     0
102
RTVSPost2010PropOp33
 70
     1
102
RTVSPost2010Prop34
280
     0
102
RTVSPost2010PropOp34
 70
     1
102
RTVSPost2010Prop35
280
     0
102
RTVSPost2010PropOp35
 70
     1
102
RTVSPost2010Prop36
280
     0
102
RTVSPost2010PropOp36
 70
     1
102
RTVSPost2010Prop37
 90
       50
102
RTVSPost2010PropOp37
 70
     1
102
RTVSPost2010Prop38
140
0.0
102
RTVSPost2010PropOp38
 70
     1
102
RTVSPost2010Prop39
140
1.0
102
RTVSPost2010PropOp39
 70
     1
102
RTVSPost2010Prop40
 90
        0
102
RTVSPost2010PropOp40
 70
     1
102
RTVSPost2010Prop41ColorIndex
 90
       18
102
RTVSPost2010Prop41ColorRGB
 90
        0
102
RTVSPost2010PropOp41
 70
     1
102
RTVSPost2010Prop42
 90
       50
102
RTVSPost2010PropOp42
 70
     1
102
RTVSPost2010Prop43
 90
        3
102
RTVSPost2010PropOp43
 70
     1
102
RTVSPost2010Prop44ColorIndex
 90
        5
102
RTVSPost2010Prop44ColorRGB
 90
      255
102
RTVSPost2010PropOp44
 70
     1
102
RTVSPost2010Prop45
280
     0
102
RTVSPost2010PropOp45
 70
     1
102
RTVSPost2010Prop46
 90
       50
102
RTVSPost2010PropOp46
 70
     1
102
RTVSPost2010Prop47
 90
       50
102
RTVSPost2010PropOp47
 70
     1
102
RTVSPost2010Prop48
 90
       50
102
RTVSPost2010PropOp48
 70
     1
102
RTVSPost2010Prop49
280
     0
102
RTVSPost2010PropOp49
 70
     1
102
RTVSPost2010Prop50
 90
       50
102
RTVSPost2010PropOp50
 70
     1
102
RTVSPost2010Prop51ColorIndex
 90
      256
102
RTVSPost2010Prop51ColorRGB
 90
-16777216
102
RTVSPost2010PropOp51
 70
     0
102
RTVSPost2010Prop52
140
1.0
102
RTVSPost2010PropOp52
 70
     0
102
RTVSPost2010Prop53
 90
        2
102
RTVSPost2010PropOp53
 70
     1
102
RTVSPost2010Prop54
  1
strokes_ogs.tif
102
RTVSPost2010PropOp54
 70
     1
102
RTVSPost2010Prop55
280
     0
102
RTVSPost2010PropOp55
 70
     1
102
RTVSPost2010Prop56
140
1.0
102
RTVSPost2010PropOp56
 70
     1
102
RTVSPost2010Prop57
140
1.0
102
RTVSPost2010PropOp57
 70
     1
102
RTVSPropertyOp0
 70
     1
102
RTVSPropertyOp1
 70
     1
102
RTVSPropertyOp2
 70
     1
102
RTVSPropertyOp3
 70
     1
102
RTVSPropertyOp4
 70
     1
102
RTVSPropertyOp5
 70
     1
102
RTVSPropertyOp6
 70
     1
102
RTVSPropertyOp7
 70
     1
102
RTVSPropertyOp8
 70
     1
102
RTVSPropertyOp9
 70
     1
102
RTVSPropertyOp10
 70
     1
102
RTVSPropertyOp11
 70
     1
102
RTVSPropertyOp12
 70
     1
102
RTVSPropertyOp13
 70
     1
102
RTVSPropertyOp14
 70
     1
102
RTVSPropertyOp15
 70
     1
102
RTVSPropertyOp16
 70
     1
102
RTVSPropertyOp17
 70
     1
102
RTVSPropertyOp18
 70
     1
102
RTVSPropertyOp19
 70
     1
102
RTVSPropertyOp20
 70
     1
102
RTVSPropertyOp21
 70
     1
102
RTVSPropertyOp22
 70
     1
102
RTVSPropertyOp23
 70
     1
102
RTVSPropertyOp24
 70
     1
102
RTVSPropertyOp25
 70
     1
102
RTVSPropertyOp26
 70
     1
102
RTVSPropertyOp27
 70
     1
102
RTVSPropertyOp28
 70
     1
102
RTVSPropertyOp29
 70
     1
102
RTVSPropertyOp30
 70
     1
102
RTVSPropertyOp31
 70
     1
102
RTVSPropertyOp32
 70
     1
102
RTVSPropertyOp33
 70
     1
102
RTVSPropertyOp34
 70
     1
102
RTVSPropertyOp35
 70
     1
102
RTVSPropertyOp36
 70
     1
102
RTVSPropertyOp37
 70
     1
102
RTVSPropertyOp38
 70
     1
102
RTVSPropertyOp39
 70
     1
102
RTVSPropertyOp40
 70
     1
102
RTVSPropertyOp41
 70
     1
102
RTVSPropertyOp42
 70
     1
102
RTVSPropertyOp43
 70
     1
102
RTVSPropertyOp44
 70
     1
102
RTVSPropertyOp45
 70
     1
102
RTVSPropertyOp46
 70
     1
102
RTVSPropertyOp47
 70
     1
102
RTVSPropertyOp48
 70
     1
102
RTVSPropertyOp49
 70
     1
102
RTVSPropertyOp50
 70
     1
102
RTVSPropertyOp51
 70
     0
102
RTVSPropertyOp52
 70
     0
102
RTVSPropertyOp53
 70
     1
102
RTVSPropertyOp54
 70
     1
102
RTVSPropertyOp55
 70
     1
102
RTVSPropertyOp56
 70
     1
102
RTVSPropertyOp57
 70
     1
102
RTVSPropertyOp58
 70
     1
102
RTVSPropertyOp59
 70
     1
102
RTVSPropertyOp60
 70
     1
102
RTVSPropertyOp61
 70
     1
102
RTVSPropertyOp62
 70
     1
  0
XRECORD
  5
1ABBB
102
{ACAD_REACTORS
330
1ABBA
102
}
330
1ABBA
100
AcDbXrecord
280
     1
102
RTVSPost2010Prop28
280
     0
102
RTVSPost2010PropOp28
 70
     1
102
RTVSPost2010Prop29
280
     1
102
RTVSPost2010PropOp29
 70
     1
102
RTVSPost2010Prop30
280
     1
102
RTVSPost2010PropOp30
 70
     1
102
RTVSPost2010Prop31
280
     0
102
RTVSPost2010PropOp31
 70
     1
102
RTVSPost2010Prop32
280
     0
102
RTVSPost2010PropOp32
 70
     1
102
RTVSPost2010Prop33
280
     0
102
RTVSPost2010PropOp33
 70
     1
102
RTVSPost2010Prop34
280
     0
102
RTVSPost2010PropOp34
 70
     1
102
RTVSPost2010Prop35
280
     0
102
RTVSPost2010PropOp35
 70
     1
102
RTVSPost2010Prop36
280
     0
102
RTVSPost2010PropOp36
 70
     1
102
RTVSPost2010Prop37
 90
       50
102
RTVSPost2010PropOp37
 70
     1
102
RTVSPost2010Prop38
140
0.0
102
RTVSPost2010PropOp38
 70
     1
102
RTVSPost2010Prop39
140
1.0
102
RTVSPost2010PropOp39
 70
     1
102
RTVSPost2010Prop40
 90
        0
102
RTVSPost2010PropOp40
 70
     1
102
RTVSPost2010Prop41ColorIndex
 90
       18
102
RTVSPost2010Prop41ColorRGB
 90
        0
102
RTVSPost2010PropOp41
 70
     1
102
RTVSPost2010Prop42
 90
       50
102
RTVSPost2010PropOp42
 70
     1
102
RTVSPost2010Prop43
 90
        3
102
RTVSPost2010PropOp43
 70
     1
102
RTVSPost2010Prop44ColorIndex
 90
        5
102
RTVSPost2010Prop44ColorRGB
 90
      255
102
RTVSPost2010PropOp44
 70
     1
102
RTVSPost2010Prop45
280
     0
102
RTVSPost2010PropOp45
 70
     1
102
RTVSPost2010Prop46
 90
       50
102
RTVSPost2010PropOp46
 70
     1
102
RTVSPost2010Prop47
 90
       50
102
RTVSPost2010PropOp47
 70
     1
102
RTVSPost2010Prop48
 90
       50
102
RTVSPost2010PropOp48
 70
     1
102
RTVSPost2010Prop49
280
     0
102
RTVSPost2010PropOp49
 70
     1
102
RTVSPost2010Prop50
 90
       50
102
RTVSPost2010PropOp50
 70
     1
102
RTVSPost2010Prop51ColorIndex
 90
      256
102
RTVSPost2010Prop51ColorRGB
 90
-16777216
102
RTVSPost2010PropOp51
 70
     0
102
RTVSPost2010Prop52
140
1.0
102
RTVSPost2010PropOp52
 70
     0
102
RTVSPost2010Prop53
 90
        2
102
RTVSPost2010PropOp53
 70
     1
102
RTVSPost2010Prop54
  1
strokes_ogs.tif
102
RTVSPost2010PropOp54
 70
     1
102
RTVSPost2010Prop55
280
     0
102
RTVSPost2010PropOp55
 70
     1
102
RTVSPost2010Prop56
140
1.0
102
RTVSPost2010PropOp56
 70
     1
102
RTVSPost2010Prop57
140
1.0
102
RTVSPost2010PropOp57
 70
     1
102
RTVSPropertyOp0
 70
     1
102
RTVSPropertyOp1
 70
     1
102
RTVSPropertyOp2
 70
     1
102
RTVSPropertyOp3
 70
     1
102
RTVSPropertyOp4
 70
     1
102
RTVSPropertyOp5
 70
     1
102
RTVSPropertyOp6
 70
     1
102
RTVSPropertyOp7
 70
     1
102
RTVSPropertyOp8
 70
     1
102
RTVSPropertyOp9
 70
     1
102
RTVSPropertyOp10
 70
     1
102
RTVSPropertyOp11
 70
     1
102
RTVSPropertyOp12
 70
     1
102
RTVSPropertyOp13
 70
     1
102
RTVSPropertyOp14
 70
     1
102
RTVSPropertyOp15
 70
     1
102
RTVSPropertyOp16
 70
     1
102
RTVSPropertyOp17
 70
     1
102
RTVSPropertyOp18
 70
     1
102
RTVSPropertyOp19
 70
     1
102
RTVSPropertyOp20
 70
     1
102
RTVSPropertyOp21
 70
     1
102
RTVSPropertyOp22
 70
     1
102
RTVSPropertyOp23
 70
     1
102
RTVSPropertyOp24
 70
     1
102
RTVSPropertyOp25
 70
     1
102
RTVSPropertyOp26
 70
     1
102
RTVSPropertyOp27
 70
     1
102
RTVSPropertyOp28
 70
     1
102
RTVSPropertyOp29
 70
     1
102
RTVSPropertyOp30
 70
     1
102
RTVSPropertyOp31
 70
     1
102
RTVSPropertyOp32
 70
     1
102
RTVSPropertyOp33
 70
     1
102
RTVSPropertyOp34
 70
     1
102
RTVSPropertyOp35
 70
     1
102
RTVSPropertyOp36
 70
     1
102
RTVSPropertyOp37
 70
     1
102
RTVSPropertyOp38
 70
     1
102
RTVSPropertyOp39
 70
     1
102
RTVSPropertyOp40
 70
     1
102
RTVSPropertyOp41
 70
     1
102
RTVSPropertyOp42
 70
     1
102
RTVSPropertyOp43
 70
     1
102
RTVSPropertyOp44
 70
     1
102
RTVSPropertyOp45
 70
     1
102
RTVSPropertyOp46
 70
     1
102
RTVSPropertyOp47
 70
     1
102
RTVSPropertyOp48
 70
     1
102
RTVSPropertyOp49
 70
     1
102
RTVSPropertyOp50
 70
     1
102
RTVSPropertyOp51
 70
     0
102
RTVSPropertyOp52
 70
     0
102
RTVSPropertyOp53
 70
     1
102
RTVSPropertyOp54
 70
     1
102
RTVSPropertyOp55
 70
     1
102
RTVSPropertyOp56
 70
     1
102
RTVSPropertyOp57
 70
     1
102
RTVSPropertyOp58
 70
     1
102
RTVSPropertyOp59
 70
     1
102
RTVSPropertyOp60
 70
     1
102
RTVSPropertyOp61
 70
     1
102
RTVSPropertyOp62
 70
     1
  0
XRECORD
  5
1ABD3
102
{ACAD_REACTORS
330
1ABD2
102
}
330
1ABD2
100
AcDbXrecord
280
     1
102
RTVSPost2010Prop28
280
     0
102
RTVSPost2010PropOp28
 70
     1
102
RTVSPost2010Prop29
280
     1
102
RTVSPost2010PropOp29
 70
     1
102
RTVSPost2010Prop30
280
     1
102
RTVSPost2010PropOp30
 70
     1
102
RTVSPost2010Prop31
280
     0
102
RTVSPost2010PropOp31
 70
     1
102
RTVSPost2010Prop32
280
     0
102
RTVSPost2010PropOp32
 70
     1
102
RTVSPost2010Prop33
280
     0
102
RTVSPost2010PropOp33
 70
     1
102
RTVSPost2010Prop34
280
     0
102
RTVSPost2010PropOp34
 70
     1
102
RTVSPost2010Prop35
280
     0
102
RTVSPost2010PropOp35
 70
     1
102
RTVSPost2010Prop36
280
     0
102
RTVSPost2010PropOp36
 70
     1
102
RTVSPost2010Prop37
 90
       50
102
RTVSPost2010PropOp37
 70
     1
102
RTVSPost2010Prop38
140
0.0
102
RTVSPost2010PropOp38
 70
     1
102
RTVSPost2010Prop39
140
1.0
102
RTVSPost2010PropOp39
 70
     1
102
RTVSPost2010Prop40
 90
        0
102
RTVSPost2010PropOp40
 70
     1
102
RTVSPost2010Prop41ColorIndex
 90
       18
102
RTVSPost2010Prop41ColorRGB
 90
        0
102
RTVSPost2010PropOp41
 70
     1
102
RTVSPost2010Prop42
 90
       50
102
RTVSPost2010PropOp42
 70
     1
102
RTVSPost2010Prop43
 90
        3
102
RTVSPost2010PropOp43
 70
     1
102
RTVSPost2010Prop44ColorIndex
 90
        5
102
RTVSPost2010Prop44ColorRGB
 90
      255
102
RTVSPost2010PropOp44
 70
     1
102
RTVSPost2010Prop45
280
     0
102
RTVSPost2010PropOp45
 70
     1
102
RTVSPost2010Prop46
 90
       50
102
RTVSPost2010PropOp46
 70
     1
102
RTVSPost2010Prop47
 90
       50
102
RTVSPost2010PropOp47
 70
     1
102
RTVSPost2010Prop48
 90
       50
102
RTVSPost2010PropOp48
 70
     1
102
RTVSPost2010Prop49
280
     0
102
RTVSPost2010PropOp49
 70
     1
102
RTVSPost2010Prop50
 90
       50
102
RTVSPost2010PropOp50
 70
     1
102
RTVSPost2010Prop51ColorIndex
 90
      256
102
RTVSPost2010Prop51ColorRGB
 90
-16777216
102
RTVSPost2010PropOp51
 70
     0
102
RTVSPost2010Prop52
140
1.0
102
RTVSPost2010PropOp52
 70
     0
102
RTVSPost2010Prop53
 90
        2
102
RTVSPost2010PropOp53
 70
     1
102
RTVSPost2010Prop54
  1
strokes_ogs.tif
102
RTVSPost2010PropOp54
 70
     1
102
RTVSPost2010Prop55
280
     0
102
RTVSPost2010PropOp55
 70
     1
102
RTVSPost2010Prop56
140
1.0
102
RTVSPost2010PropOp56
 70
     1
102
RTVSPost2010Prop57
140
1.0
102
RTVSPost2010PropOp57
 70
     1
102
RTVSPropertyOp0
 70
     1
102
RTVSPropertyOp1
 70
     1
102
RTVSPropertyOp2
 70
     1
102
RTVSPropertyOp3
 70
     1
102
RTVSPropertyOp4
 70
     1
102
RTVSPropertyOp5
 70
     1
102
RTVSPropertyOp6
 70
     1
102
RTVSPropertyOp7
 70
     1
102
RTVSPropertyOp8
 70
     1
102
RTVSPropertyOp9
 70
     1
102
RTVSPropertyOp10
 70
     1
102
RTVSPropertyOp11
 70
     1
102
RTVSPropertyOp12
 70
     1
102
RTVSPropertyOp13
 70
     1
102
RTVSPropertyOp14
 70
     1
102
RTVSPropertyOp15
 70
     1
102
RTVSPropertyOp16
 70
     1
102
RTVSPropertyOp17
 70
     1
102
RTVSPropertyOp18
 70
     1
102
RTVSPropertyOp19
 70
     1
102
RTVSPropertyOp20
 70
     1
102
RTVSPropertyOp21
 70
     1
102
RTVSPropertyOp22
 70
     1
102
RTVSPropertyOp23
 70
     1
102
RTVSPropertyOp24
 70
     1
102
RTVSPropertyOp25
 70
     1
102
RTVSPropertyOp26
 70
     1
102
RTVSPropertyOp27
 70
     1
102
RTVSPropertyOp28
 70
     1
102
RTVSPropertyOp29
 70
     1
102
RTVSPropertyOp30
 70
     1
102
RTVSPropertyOp31
 70
     1
102
RTVSPropertyOp32
 70
     1
102
RTVSPropertyOp33
 70
     1
102
RTVSPropertyOp34
 70
     1
102
RTVSPropertyOp35
 70
     1
102
RTVSPropertyOp36
 70
     1
102
RTVSPropertyOp37
 70
     1
102
RTVSPropertyOp38
 70
     1
102
RTVSPropertyOp39
 70
     1
102
RTVSPropertyOp40
 70
     1
102
RTVSPropertyOp41
 70
     1
102
RTVSPropertyOp42
 70
     1
102
RTVSPropertyOp43
 70
     1
102
RTVSPropertyOp44
 70
     1
102
RTVSPropertyOp45
 70
     1
102
RTVSPropertyOp46
 70
     1
102
RTVSPropertyOp47
 70
     1
102
RTVSPropertyOp48
 70
     1
102
RTVSPropertyOp49
 70
     1
102
RTVSPropertyOp50
 70
     1
102
RTVSPropertyOp51
 70
     0
102
RTVSPropertyOp52
 70
     0
102
RTVSPropertyOp53
 70
     1
102
RTVSPropertyOp54
 70
     1
102
RTVSPropertyOp55
 70
     1
102
RTVSPropertyOp56
 70
     1
102
RTVSPropertyOp57
 70
     1
102
RTVSPropertyOp58
 70
     1
102
RTVSPropertyOp59
 70
     1
102
RTVSPropertyOp60
 70
     1
102
RTVSPropertyOp61
 70
     1
102
RTVSPropertyOp62
 70
     1
  0
ENDSEC
  0
EOF
