  0
SECTION
  2
HEADER
  9
$ACADVER
  1
AC1015
  9
$ACADMAINTVER
 70
    20
  9
$DWGCODEPAGE
  3
ANSI_932
  9
$INSBASE
 10
0.0
 20
0.0
 30
0.0
  9
$EXTMIN
 10
9.99995
 20
9.999999999999998
 30
0.0
  9
$EXTMAX
 10
573.5504589999997
 20
379.9247119999998
 30
0.0
  9
$LIMMIN
 10
0.0
 20
0.0
  9
$LIMMAX
 10
594.0
 20
409.4999999999997
  9
$ORTHOMODE
 70
     0
  9
$REGENMODE
 70
     1
  9
$FILLMODE
 70
     1
  9
$QTEXTMODE
 70
     0
  9
$MIRRTEXT
 70
     1
  9
$LTSCALE
 40
20.0
  9
$ATTMODE
 70
     1
  9
$TEXTSIZE
 40
5.0
  9
$TRACEWID
 40
1.0
  9
$TEXTSTYLE
  7
STANDARD
  9
$CLAYER
  8
0
  9
$CELTYPE
  6
BYLAYER
  9
$CECOLOR
 62
   256
  9
$CELTSCALE
 40
1.0
  9
$DISPSILH
 70
     0
  9
$DIMSCALE
 40
1.0
  9
$DIMASZ
 40
3.0
  9
$DIMEXO
 40
1.0
  9
$DIMDLI
 40
10.0
  9
$DIMRND
 40
0.0
  9
$DIMDLE
 40
0.0
  9
$DIMEXE
 40
1.0
  9
$DIMTP
 40
0.0
  9
$DIMTM
 40
0.0
  9
$DIMTXT
 40
3.2
  9
$DIMCEN
 40
0.0
  9
$DIMTSZ
 40
0.0
  9
$DIMTOL
 70
     0
  9
$DIMLIM
 70
     0
  9
$DIMTIH
 70
     0
  9
$DIMTOH
 70
     0
  9
$DIMSE1
 70
     0
  9
$DIMSE2
 70
     0
  9
$DIMTAD
 70
     3
  9
$DIMZIN
 70
     8
  9
$DIMBLK
  1

  9
$DIMASO
 70
     1
  9
$DIMSHO
 70
     1
  9
$DIMPOST
  1

  9
$DIMAPOST
  1

  9
$DIMALT
 70
     0
  9
$DIMALTD
 70
     2
  9
$DIMALTF
 40
25.4
  9
$DIMLFAC
 40
1.0
  9
$DIMTOFL
 70
     1
  9
$DIMTVP
 40
0.0
  9
$DIMTIX
 70
     0
  9
$DIMSOXD
 70
     0
  9
$DIMSAH
 70
     1
  9
$DIMBLK1
  1
OPEN
  9
$DIMBLK2
  1
OPEN
  9
$DIMSTYLE
  2
STANDARD
  9
$DIMCLRD
 70
     0
  9
$DIMCLRE
 70
     0
  9
$DIMCLRT
 70
     0
  9
$DIMTFAC
 40
1.0
  9
$DIMGAP
 40
1.0
  9
$DIMJUST
 70
     0
  9
$DIMSD1
 70
     0
  9
$DIMSD2
 70
     0
  9
$DIMTOLJ
 70
     1
  9
$DIMTZIN
 70
     0
  9
$DIMALTZ
 70
     0
  9
$DIMALTTZ
 70
     0
  9
$DIMUPT
 70
     0
  9
$DIMDEC
 70
     4
  9
$DIMTDEC
 70
     4
  9
$DIMALTU
 70
     2
  9
$DIMALTTD
 70
     2
  9
$DIMTXSTY
  7
STANDARD
  9
$DIMAUNIT
 70
     0
  9
$DIMADEC
 70
     0
  9
$DIMALTRND
 40
0.0
  9
$DIMAZIN
 70
     0
  9
$DIMDSEP
 70
    46
  9
$DIMATFIT
 70
     3
  9
$DIMFRAC
 70
     0
  9
$DIMLDRBLK
  1
OPEN
  9
$DIMLUNIT
 70
     2
  9
$DIMLWD
 70
    -2
  9
$DIMLWE
 70
    -2
  9
$DIMTMOVE
 70
     0
  9
$LUNITS
 70
     2
  9
$LUPREC
 70
     4
  9
$SKETCHINC
 40
1.0
  9
$FILLETRAD
 40
2.0
  9
$AUNITS
 70
     0
  9
$AUPREC
 70
     2
  9
$MENU
  1
.
  9
$ELEVATION
 40
0.0
  9
$PELEVATION
 40
0.0
  9
$THICKNESS
 40
0.0
  9
$LIMCHECK
 70
     0
  9
$CHAMFERA
 40
10.0
  9
$CHAMFERB
 40
10.0
  9
$CHAMFERC
 40
0.0
  9
$CHAMFERD
 40
0.0
  9
$SKPOLY
 70
     0
  9
$TDCREATE
 40
2451303.377433449
  9
$TDUCREATE
 40
2451303.002433449
  9
$TDUPDATE
 40
2457192.687182072
  9
$TDUUPDATE
 40
2457192.312182072
  9
$TDINDWG
 40
0.0003129282
  9
$TDUSRTIMER
 40
0.0003126157
  9
$USRTIMER
 70
     1
  9
$ANGBASE
 50
0.0
  9
$ANGDIR
 70
     0
  9
$PDMODE
 70
    35
  9
$PDSIZE
 40
0.0
  9
$PLINEWID
 40
0.0
  9
$SPLFRAME
 70
     0
  9
$SPLINETYPE
 70
     6
  9
$SPLINESEGS
 70
     8
  9
$HANDSEED
  5
1B9E9
  9
$SURFTAB1
 70
     6
  9
$SURFTAB2
 70
     6
  9
$SURFTYPE
 70
     6
  9
$SURFU
 70
     6
  9
$SURFV
 70
     6
  9
$UCSBASE
  2

  9
$UCSNAME
  2

  9
$UCSORG
 10
0.0
 20
0.0
 30
0.0
  9
$UCSXDIR
 10
1.0
 20
0.0
 30
0.0
  9
$UCSYDIR
 10
0.0
 20
1.0
 30
0.0
  9
$UCSORTHOREF
  2

  9
$UCSORTHOVIEW
 70
     0
  9
$UCSORGTOP
 10
0.0
 20
0.0
 30
0.0
  9
$UCSORGBOTTOM
 10
0.0
 20
0.0
 30
0.0
  9
$UCSORGLEFT
 10
0.0
 20
0.0
 30
0.0
  9
$UCSORGRIGHT
 10
0.0
 20
0.0
 30
0.0
  9
$UCSORGFRONT
 10
0.0
 20
0.0
 30
0.0
  9
$UCSORGBACK
 10
0.0
 20
0.0
 30
0.0
  9
$PUCSBASE
  2

  9
$PUCSNAME
  2

  9
$PUCSORG
 10
0.0
 20
0.0
 30
0.0
  9
$PUCSXDIR
 10
1.0
 20
0.0
 30
0.0
  9
$PUCSYDIR
 10
0.0
 20
1.0
 30
0.0
  9
$PUCSORTHOREF
  2

  9
$PUCSORTHOVIEW
 70
     0
  9
$PUCSORGTOP
 10
0.0
 20
0.0
 30
0.0
  9
$PUCSORGBOTTOM
 10
0.0
 20
0.0
 30
0.0
  9
$PUCSORGLEFT
 10
0.0
 20
0.0
 30
0.0
  9
$PUCSORGRIGHT
 10
0.0
 20
0.0
 30
0.0
  9
$PUCSORGFRONT
 10
0.0
 20
0.0
 30
0.0
  9
$PUCSORGBACK
 10
0.0
 20
0.0
 30
0.0
  9
$USERI1
 70
     0
  9
$USERI2
 70
     0
  9
$USERI3
 70
     0
  9
$USERI4
 70
     0
  9
$USERI5
 70
     0
  9
$USERR1
 40
0.0
  9
$USERR2
 40
0.0
  9
$USERR3
 40
0.0
  9
$USERR4
 40
0.0
  9
$USERR5
 40
0.0
  9
$WORLDVIEW
 70
     1
  9
$SHADEDGE
 70
     3
  9
$SHADEDIF
 70
    70
  9
$TILEMODE
 70
     1
  9
$MAXACTVP
 70
    16
  9
$PINSBASE
 10
0.0
 20
0.0
 30
0.0
  9
$PLIMCHECK
 70
     0
  9
$PEXTMIN
 10
1.000000000000000E+20
 20
1.000000000000000E+20
 30
1.000000000000000E+20
  9
$PEXTMAX
 10
-1.000000000000000E+20
 20
-1.000000000000000E+20
 30
-1.000000000000000E+20
  9
$PLIMMIN
 10
0.0
 20
0.0
  9
$PLIMMAX
 10
420.0
 20
297.0
  9
$UNITMODE
 70
     0
  9
$VISRETAIN
 70
     0
  9
$PLINEGEN
 70
     0
  9
$PSLTSCALE
 70
     0
  9
$TREEDEPTH
 70
  3020
  9
$CMLSTYLE
  2
STANDARD
  9
$CMLJUST
 70
     0
  9
$CMLSCALE
 40
1.0
  9
$PROXYGRAPHICS
 70
     1
  9
$MEASUREMENT
 70
     0
  9
$CELWEIGHT
370
    -1
  9
$ENDCAPS
280
     0
  9
$JOINSTYLE
280
     0
  9
$LWDISPLAY
290
     0
  9
$INSUNITS
 70
     0
  9
$HYPERLINKBASE
  1

  9
$STYLESHEET
  1

  9
$XEDIT
290
     1
  9
$CEPSNTYPE
380
     0
  9
$PSTYLEMODE
290
     1
  9
$FINGERPRINTGUID
  2
{39E95107-5B66-477B-933F-D5FF29869EC7}
  9
$VERSIONGUID
  2
{56C440C4-C5DA-4B22-8964-AB6612307BB7}
  9
$EXTNAMES
290
     1
  9
$PSVPSCALE
 40
0.0
  9
$OLESTARTUP
290
     0
  0
ENDSEC
  0
SECTION
  2
CLASSES
  0
CLASS
  1
ACDBDICTIONARYWDFLT
  2
AcDbDictionaryWithDefault
  3
ObjectDBX Classes
 90
        0
280
     0
281
     0
  0
CLASS
  1
ACDBPLACEHOLDER
  2
AcDbPlaceHolder
  3
ObjectDBX Classes
 90
        0
280
     0
281
     0
  0
CLASS
  1
LAYOUT
  2
AcDbLayout
  3
ObjectDBX Classes
 90
        0
280
     0
281
     0
  0
CLASS
  1
DICTIONARYVAR
  2
AcDbDictionaryVar
  3
ObjectDBX Classes
 90
        0
280
     0
281
     0
  0
CLASS
  1
MATERIAL
  2
AcDbMaterial
  3
ObjectDBX Classes
 90
     1153
280
     0
281
     0
  0
CLASS
  1
VISUALSTYLE
  2
AcDbVisualStyle
  3
ObjectDBX Classes
 90
     4095
280
     0
281
     0
  0
CLASS
  1
TABLESTYLE
  2
AcDbTableStyle
  3
ObjectDBX Classes
 90
     4095
280
     0
281
     0
  0
CLASS
  1
SCALE
  2
AcDbScale
  3
ObjectDBX Classes
 90
     1153
280
     0
281
     0
  0
CLASS
  1
MLEADERSTYLE
  2
AcDbMLeaderStyle
  3
ACDB_MLEADERSTYLE_CLASS
 90
     4095
280
     0
281
     0
  0
CLASS
  1
ACDBSECTIONVIEWSTYLE
  2
AcDbSectionViewStyle
  3
ObjectDBX Classes
 90
     1025
280
     0
281
     0
  0
CLASS
  1
ACDBDETAILVIEWSTYLE
  2
AcDbDetailViewStyle
  3
ObjectDBX Classes
 90
     1025
280
     0
281
     0
  0
CLASS
  1
CELLSTYLEMAP
  2
AcDbCellStyleMap
  3
ObjectDBX Classes
 90
     1152
280
     0
281
     0
  0
ENDSEC
  0
SECTION
  2
TABLES
  0
TABLE
  2
VPORT
  5
1B505
330
0
100
AcDbSymbolTable
 70
     1
  0
VPORT
  5
1B932
330
1B505
100
AcDbSymbolTableRecord
100
AcDbViewportTableRecord
  2
*ACTIVE
 70
     0
 10
0.0
 20
0.0
 11
1.0
 21
1.0
 12
403.8367884111541
 22
194.9555177572248
 13
0.0
 23
0.0
 14
10.0
 24
10.0
 15
10.0
 25
10.0
 16
0.0
 26
0.0
 36
1.0
 17
0.0
 27
0.0
 37
0.0
 40
374.0286551584219
 41
2.35006605019815
 42
50.0
 43
0.0
 44
0.0
 50
0.0
 51
0.0
 71
     0
 72
   100
 73
     1
 74
     0
 75
     0
 76
     0
 77
     0
 78
     0
281
     0
 65
     1
110
0.0
120
0.0
130
0.0
111
1.0
121
0.0
131
0.0
112
0.0
122
1.0
132
0.0
 79
     0
146
0.0
1001
ACAD_NAV_VCDISPLAY
1070
     3
  0
ENDTAB
  0
TABLE
  2
LTYPE
  5
1B502
330
0
100
AcDbSymbolTable
 70
     4
  0
LTYPE
  5
1B510
330
1B502
100
AcDbSymbolTableRecord
100
AcDbLinetypeTableRecord
  2
BYBLOCK
 70
     0
  3

 72
    65
 73
     0
 40
0.0
  0
LTYPE
  5
1B511
330
1B502
100
AcDbSymbolTableRecord
100
AcDbLinetypeTableRecord
  2
BYLAYER
 70
     0
  3

 72
    65
 73
     0
 40
0.0
  0
LTYPE
  5
1B512
330
1B502
100
AcDbSymbolTableRecord
100
AcDbLinetypeTableRecord
  2
CONTINUOUS
 70
     0
  3
Solid line
 72
    65
 73
     0
 40
0.0
  0
LTYPE
  5
1B520
330
1B502
100
AcDbSymbolTableRecord
100
AcDbLinetypeTableRecord
  2
DASHED
 70
     0
  3
__ __ __ __ __ __ __ __ __ __ __ __ __ __ __ __
 72
    65
 73
     2
 40
0.75
 49
0.5
 74
     0
 49
-0.25
 74
     0
  0
LTYPE
  5
1B521
330
1B502
100
AcDbSymbolTableRecord
100
AcDbLinetypeTableRecord
  2
CENTER
 70
     0
  3
____ _ ____ _ ____ _ ____ _ ____ _ ____ _ ____ 
 72
    65
 73
     4
 40
2.0
 49
1.25
 74
     0
 49
-0.25
 74
     0
 49
0.25
 74
     0
 49
-0.25
 74
     0
  0
LTYPE
  5
1B522
330
1B502
100
AcDbSymbolTableRecord
100
AcDbLinetypeTableRecord
  2
PHANTOM
 70
     0
  3
______  __  __  ______  __  __  ______  __  __ 
 72
    65
 73
     6
 40
2.5
 49
1.25
 74
     0
 49
-0.25
 74
     0
 49
0.25
 74
     0
 49
-0.25
 74
     0
 49
0.25
 74
     0
 49
-0.25
 74
     0
  0
ENDTAB
  0
TABLE
  2
LAYER
  5
1B4FF
330
0
100
AcDbSymbolTable
 70
     8
  0
LAYER
  5
1B50D
102
{ACAD_XDICTIONARY
360
1B98D
102
}
330
1B4FF
100
AcDbSymbolTableRecord
100
AcDbLayerTableRecord
  2
0
 70
     0
 62
     7
  6
CONTINUOUS
370
    -3
390
1B93B
  0
LAYER
  5
1B523
102
{ACAD_XDICTIONARY
360
1B98F
102
}
330
1B4FF
100
AcDbSymbolTableRecord
100
AcDbLayerTableRecord
  2
4
 70
     0
 62
     1
  6
CENTER
370
    -3
390
1B93B
  0
LAYER
  5
1B524
102
{ACAD_XDICTIONARY
360
1B991
102
}
330
1B4FF
100
AcDbSymbolTableRecord
100
AcDbLayerTableRecord
  2
5
 70
     0
 62
     6
  6
PHANTOM
370
    -3
390
1B93B
  0
LAYER
  5
1B525
102
{ACAD_XDICTIONARY
360
1B993
102
}
330
1B4FF
100
AcDbSymbolTableRecord
100
AcDbLayerTableRecord
  2
1
 70
     0
 62
     7
  6
CONTINUOUS
370
    -3
390
1B93B
  0
LAYER
  5
1B526
102
{ACAD_XDICTIONARY
360
1B995
102
}
330
1B4FF
100
AcDbSymbolTableRecord
100
AcDbLayerTableRecord
  2
2
 70
     0
 62
     4
  6
CONTINUOUS
370
    -3
390
1B93B
  0
LAYER
  5
1B527
102
{ACAD_XDICTIONARY
360
1B997
102
}
330
1B4FF
100
AcDbSymbolTableRecord
100
AcDbLayerTableRecord
  2
3
 70
     0
 62
     2
  6
DASHED
370
    -3
390
1B93B
  0
LAYER
  5
1B528
102
{ACAD_XDICTIONARY
360
1B999
102
}
330
1B4FF
100
AcDbSymbolTableRecord
100
AcDbLayerTableRecord
  2
6
 70
     0
 62
     5
  6
CONTINUOUS
370
    -3
390
1B93B
  0
LAYER
  5
1B529
102
{ACAD_XDICTIONARY
360
1B99B
102
}
330
1B4FF
100
AcDbSymbolTableRecord
100
AcDbLayerTableRecord
  2
7
 70
     0
 62
     3
  6
CONTINUOUS
370
    -3
390
1B93B
  0
ENDTAB
  0
TABLE
  2
STYLE
  5
1B500
330
0
100
AcDbSymbolTable
 70
     1
  0
STYLE
  5
1B50E
330
1B500
100
AcDbSymbolTableRecord
100
AcDbTextStyleTableRecord
  2
STANDARD
 70
     0
 40
0.0
 41
1.0
 50
0.0
 71
     0
 42
5.0
  3
txt
  4

  0
ENDTAB
  0
TABLE
  2
VIEW
  5
1B503
330
0
100
AcDbSymbolTable
 70
     1
  0
VIEW
  5
1B52A
330
1B503
100
AcDbSymbolTableRecord
100
AcDbViewTableRecord
  2
7
 70
     0
 40
553.209199
 10
532.893607
 20
276.6046
 41
1065.787215
 11
0.0
 21
0.0
 31
1.0
 12
0.0
 22
0.0
 32
0.0
 42
50.0
 43
0.0
 44
0.0
 50
0.0
 71
     0
281
     0
 72
     0
  0
ENDTAB
  0
TABLE
  2
UCS
  5
1B504
330
0
100
AcDbSymbolTable
 70
     0
  0
ENDTAB
  0
TABLE
  2
APPID
  5
1B506
330
0
100
AcDbSymbolTable
 70
     3
  0
APPID
  5
1B50F
330
1B506
100
AcDbSymbolTableRecord
100
AcDbRegAppTableRecord
  2
ACAD
 70
     0
  0
APPID
  5
1B9A7
330
1B506
100
AcDbSymbolTableRecord
100
AcDbRegAppTableRecord
  2
ACAD_NAV_VCDISPLAY
 70
     0
  0
APPID
  5
1B9E0
330
1B506
100
AcDbSymbolTableRecord
100
AcDbRegAppTableRecord
  2
ACAD_MLEADERVER
 70
     0
  0
ENDTAB
  0
TABLE
  2
DIMSTYLE
  5
1B507
330
0
100
AcDbSymbolTable
 70
     1
100
AcDbDimStyleTable
 71
     0
  0
DIMSTYLE
105
1B52C
330
1B507
100
AcDbSymbolTableRecord
100
AcDbDimStyleTableRecord
  2
STANDARD
 70
     0
 41
3.0
 42
1.0
 43
10.0
 44
1.0
 73
     0
 74
     0
 77
     3
 78
     8
140
3.2
141
0.0
147
1.0
172
     1
173
     1
284
     8
285
     8
286
     8
340
1B50E
  0
ENDTAB
  0
TABLE
  2
BLOCK_RECORD
  5
1B4FE
330
0
100
AcDbSymbolTable
 70
     1
  0
BLOCK_RECORD
  5
1B51B
102
{ACAD_XDICTIONARY
360
1B935
102
}
330
1B4FE
100
AcDbSymbolTableRecord
100
AcDbBlockTableRecord
  2
*MODEL_SPACE
340
1B989
  0
BLOCK_RECORD
  5
1B517
102
{ACAD_XDICTIONARY
360
1B933
102
}
330
1B4FE
100
AcDbSymbolTableRecord
100
AcDbBlockTableRecord
  2
*PAPER_SPACE
340
1B98A
  0
BLOCK_RECORD
  5
1B534
330
1B4FE
100
AcDbSymbolTableRecord
100
AcDbBlockTableRecord
  2
_OPEN
340
0
  0
ENDTAB
  0
ENDSEC
  0
SECTION
  2
BLOCKS
  0
BLOCK
  5
1B51C
330
1B51B
100
AcDbEntity
  8
0
100
AcDbBlockBegin
  2
*MODEL_SPACE
 70
     0
 10
0.0
 20
0.0
 30
0.0
  3
*MODEL_SPACE
  1

  0
ENDBLK
  5
1B51D
330
1B51B
100
AcDbEntity
  8
0
100
AcDbBlockEnd
  0
BLOCK
  5
1B518
330
1B517
100
AcDbEntity
 67
     1
  8
0
100
AcDbBlockBegin
  2
*PAPER_SPACE
 70
     0
 10
0.0
 20
0.0
 30
0.0
  3
*PAPER_SPACE
  1

  0
ENDBLK
  5
1B519
330
1B517
100
AcDbEntity
 67
     1
  8
0
100
AcDbBlockEnd
  0
BLOCK
  5
1B535
330
1B534
100
AcDbEntity
  8
0
100
AcDbBlockBegin
  2
_OPEN
 70
     0
 10
0.0
 20
0.0
 30
0.0
  3
_OPEN
  1

  0
LINE
  5
1B536
330
1B534
100
AcDbEntity
  8
0
  6
ByBlock
 62
     0
100
AcDbLine
 10
-1.0
 20
0.166667
 30
0.0
 11
0.0
 21
0.0
 31
0.0
  0
LINE
  5
1B537
330
1B534
100
AcDbEntity
  8
0
  6
ByBlock
 62
     0
100
AcDbLine
 10
0.0
 20
0.0
 30
0.0
 11
-1.0
 21
-0.166667
 31
0.0
  0
LINE
  5
1B538
330
1B534
100
AcDbEntity
  8
0
  6
ByBlock
 62
     0
100
AcDbLine
 10
0.0
 20
0.0
 30
0.0
 11
-1.0
 21
0.0
 31
0.0
  0
ENDBLK
  5
1B539
330
1B534
100
AcDbEntity
  8
0
100
AcDbBlockEnd
  0
ENDSEC
  0
SECTION
  2
ENTITIES
  0
TEXT
  5
1B544
330
1B51B
100
AcDbEntity
  8
6
  6
Continuous
100
AcDbText
 10
27.97945
 20
10.0487
 30
0.0
 40
1.399999999999999
  1
6
 41
1.069393
100
AcDbText
  0
TEXT
  5
1B545
330
1B51B
100
AcDbEntity
  8
1
  6
Continuous
100
AcDbText
 10
17.97945
 20
10.0487
 30
0.0
 40
1.399999999999999
  1
1
 41
1.069393
100
AcDbText
  0
TEXT
  5
1B546
330
1B51B
100
AcDbEntity
  8
1
  6
Continuous
100
AcDbText
 10
9.99995
 20
10.0
 30
0.0
 40
1.399999999999999
  1
LAYER
 41
1.009912999999997
100
AcDbText
  0
TEXT
  5
1B547
330
1B51B
100
AcDbEntity
  8
2
  6
Continuous
100
AcDbText
 10
19.97944999999998
 20
10.0487
 30
0.0
 40
1.399999999999999
  1
2
 41
1.069393
100
AcDbText
  0
TEXT
  5
1B548
330
1B51B
100
AcDbEntity
  8
3
  6
DASHED
100
AcDbText
 10
21.97945
 20
10.0487
 30
0.0
 40
1.399999999999999
  1
3
 41
1.069393
100
AcDbText
  0
TEXT
  5
1B549
330
1B51B
100
AcDbEntity
  8
4
  6
CENTER
100
AcDbText
 10
23.97944999999999
 20
10.0487
 30
0.0
 40
1.399999999999999
  1
4
 41
1.069393
100
AcDbText
  0
TEXT
  5
1B54A
330
1B51B
100
AcDbEntity
  8
5
  6
PHANTOM
100
AcDbText
 10
25.97945
 20
10.0487
 30
0.0
 40
1.399999999999999
  1
5
 41
1.069393
100
AcDbText
  0
TEXT
  5
1B54B
330
1B51B
100
AcDbEntity
  8
7
  6
Continuous
100
AcDbText
 10
10.00005
 20
26.0
 30
0.0
 40
3.0
  1
CODE No.9109
 41
1.003962999999999
100
AcDbText
  0
TEXT
  5
1B54C
330
1B51B
100
AcDbEntity
  8
7
  6
Continuous
100
AcDbText
 10
10.00005
 20
18.0
 30
0.0
 40
3.0
  1
TYPE No.106JH-PS
 41
1.002350999999998
100
AcDbText
  0
TEXT
  5
1B54D
330
1B51B
100
AcDbEntity
  8
7
  6
Continuous
100
AcDbText
 10
29.97944999999999
 20
10.0487
 30
0.0
 40
1.399999999999999
  1
7
 41
1.069393
100
AcDbText
  0
LINE
  5
1B54E
330
1B51B
100
AcDbEntity
  8
1
  6
Continuous
100
AcDbLine
 10
357.3281989999999
 20
235.334021
 30
0.0
 11
373.672343
 21
235.334021
 31
0.0
  0
ARC
  5
1B54F
330
1B51B
100
AcDbEntity
  8
1
  6
Continuous
100
AcDbCircle
 10
365.500306
 20
206.9397659999999
 30
0.0
 40
30.0
100
AcDbArc
 50
77.16041199999998
 51
102.839588
  0
ARC
  5
1B550
330
1B51B
100
AcDbEntity
  8
1
  6
Continuous
100
AcDbCircle
 10
359.500306
 20
233.2646599999999
 30
0.0
 40
3.0
100
AcDbArc
 50
102.839588
 51
136.726634
  0
ARC
  5
1B551
330
1B51B
100
AcDbEntity
  8
1
  6
Continuous
100
AcDbCircle
 10
371.500306
 20
233.2646599999999
 30
0.0
 40
3.0
100
AcDbArc
 50
43.27336599999997
 51
77.16041199999998
  0
LINE
  5
1B552
330
1B51B
100
AcDbEntity
  8
4
  6
CENTER
100
AcDbLine
 10
99.95815
 20
196.497003
 30
0.0
 11
34.01794000000001
 21
196.497003
 31
0.0
  0
LINE
  5
1B553
330
1B51B
100
AcDbEntity
  8
1
  6
Continuous
100
AcDbLine
 10
103.000153
 20
256.9967679999999
 30
0.0
 11
25.0
 21
256.9967679999999
 31
0.0
  0
LINE
  5
1B554
330
1B51B
100
AcDbEntity
  8
1
  6
Continuous
100
AcDbLine
 10
266.5001559999998
 20
256.9967679999999
 30
0.0
 11
188.5000039999999
 21
256.9967679999999
 31
0.0
  0
LINE
  5
1B555
330
1B51B
100
AcDbEntity
  8
1
  6
Continuous
100
AcDbLine
 10
266.5001559999998
 20
254.096768
 30
0.0
 11
266.5001559999998
 21
256.9967679999999
 31
0.0
  0
LINE
  5
1B556
330
1B51B
100
AcDbEntity
  8
4
  6
CENTER
100
AcDbLine
 10
200.500153
 20
153.997003
 30
0.0
 11
200.500153
 21
238.9970029999998
 31
0.0
  0
ARC
  5
1B557
330
1B51B
100
AcDbEntity
  8
1
  6
Continuous
100
AcDbCircle
 10
200.500153
 20
196.497003
 30
0.0
 40
27.5
100
AcDbArc
 50
93.185772
 51
117.036801
  0
ARC
  5
1B558
330
1B51B
100
AcDbEntity
  8
1
  6
Continuous
100
AcDbCircle
 10
200.500153
 20
196.497003
 30
0.0
 40
37.5
100
AcDbArc
 50
92.05856999999999
 51
143.958287
  0
LINE
  5
1B559
330
1B51B
100
AcDbEntity
  8
4
  6
CENTER
100
AcDbLine
 10
242.4501529999998
 20
196.497003
 30
0.0
 11
157.450153
 21
196.497003
 31
0.0
  0
LINE
  5
1B55A
330
1B51B
100
AcDbEntity
  8
1
  6
Continuous
100
AcDbLine
 10
206.352665
 20
241.86797
 30
0.0
 11
209.272491
 21
206.8301679999999
 31
0.0
  0
ARC
  5
1B55B
330
1B51B
100
AcDbEntity
  8
1
  6
Continuous
100
AcDbCircle
 10
158.3684309999999
 20
229.704989
 30
0.0
 40
41.00863499999999
100
AcDbArc
 50
343.5637849999999
 51
5.60118
  0
LINE
  5
1B55C
330
1B51B
100
AcDbEntity
  8
4
  6
CENTER
100
AcDbLine
 10
227.5003209999999
 20
261.9967679999999
 30
0.0
 11
227.5003209999999
 21
183.2259469999999
 31
0.0
  0
ARC
  5
1B55D
330
1B51B
100
AcDbEntity
  8
1
  6
Continuous
100
AcDbCircle
 10
182.574026
 20
232.0788709999999
 30
0.0
 40
16.686913
100
AcDbArc
 50
5.60118
 51
35.48483
  0
ARC
  5
1B55E
330
1B51B
100
AcDbEntity
  8
1
  6
Continuous
100
AcDbCircle
 10
199.5667899999999
 20
244.1929049999999
 30
0.0
 40
4.181815
100
AcDbArc
 50
186.876414
 51
215.4848299999999
  0
LINE
  5
1B55F
330
1B51B
100
AcDbEntity
  8
1
  6
Continuous
100
AcDbLine
 10
188.5000039999999
 20
254.096768
 30
0.0
 11
188.5000039999999
 21
256.9967679999999
 31
0.0
  0
LINE
  5
1B560
330
1B51B
100
AcDbEntity
  8
1
  6
Continuous
100
AcDbLine
 10
103.000153
 20
254.096768
 30
0.0
 11
103.000153
 21
256.9967679999999
 31
0.0
  0
LINE
  5
1B561
330
1B51B
100
AcDbEntity
  8
4
  6
CENTER
100
AcDbLine
 10
267.0006789999998
 20
304.9952699999999
 30
0.0
 11
250.000679
 21
304.9952699999999
 31
0.0
  0
LINE
  5
1B562
330
1B51B
100
AcDbEntity
  8
4
  6
CENTER
100
AcDbLine
 10
267.0006789999998
 20
366.99527
 30
0.0
 11
250.000679
 21
366.99527
 31
0.0
  0
LINE
  5
1B563
330
1B51B
100
AcDbEntity
  8
4
  6
CENTER
100
AcDbLine
 10
271.2006789999999
 20
335.99527
 30
0.0
 11
157.450097
 21
335.99527
 31
0.0
  0
ARC
  5
1B564
330
1B51B
100
AcDbEntity
  8
1
  6
Continuous
100
AcDbCircle
 10
227.5006789999999
 20
-1296.521397
 30
0.0
 40
1593.816667
100
AcDbArc
 50
88.89108399999996
 51
91.10891600000002
  0
ARC
  5
1B565
330
1B51B
100
AcDbEntity
  8
1
  6
Continuous
100
AcDbCircle
 10
227.5006789999999
 20
1968.511937
 30
0.0
 40
1593.816667
100
AcDbArc
 50
268.8910839999999
 51
271.108916
  0
ARC
  5
1B566
330
1B51B
100
AcDbEntity
  8
1
  6
Continuous
100
AcDbCircle
 10
1860.017346
 20
335.99527
 30
0.0
 40
1593.816667
100
AcDbArc
 50
178.8910839999998
 51
181.1089159999999
  0
LINE
  5
1B567
330
1B51B
100
AcDbEntity
  8
4
  6
CENTER
100
AcDbLine
 10
258.5006789999998
 20
296.4952699999999
 30
0.0
 11
258.5006789999998
 21
313.4952699999999
 31
0.0
  0
CIRCLE
  5
1B568
330
1B51B
100
AcDbEntity
  8
1
  6
Continuous
100
AcDbCircle
 10
258.5006789999998
 20
304.9952699999999
 30
0.0
 40
4.25
  0
ARC
  5
1B569
330
1B51B
100
AcDbEntity
  8
1
  6
Continuous
100
AcDbCircle
 10
258.5006789999998
 20
304.9952699999999
 30
0.0
 40
8.0
100
AcDbArc
 50
268.8910839999999
 51
1.108916
  0
ARC
  5
1B56A
330
1B51B
100
AcDbEntity
  8
1
  6
Continuous
100
AcDbCircle
 10
258.5006789999998
 20
366.99527
 30
0.0
 40
8.0
100
AcDbArc
 50
358.891084
 51
91.10891600000002
  0
LINE
  5
1B56B
330
1B51B
100
AcDbEntity
  8
4
  6
CENTER
100
AcDbLine
 10
258.5006789999998
 20
358.49527
 30
0.0
 11
258.5006789999998
 21
375.49527
 31
0.0
  0
CIRCLE
  5
1B56C
330
1B51B
100
AcDbEntity
  8
1
  6
Continuous
100
AcDbCircle
 10
258.5006789999998
 20
366.99527
 30
0.0
 40
4.25
  0
LINE
  5
1B56D
330
1B51B
100
AcDbEntity
  8
4
  6
CENTER
100
AcDbLine
 10
227.5006789999999
 20
292.29527
 30
0.0
 11
227.5006789999999
 21
379.6952699999998
 31
0.0
  0
LINE
  5
1B56E
330
1B51B
100
AcDbEntity
  8
1
  6
Continuous
100
AcDbLine
 10
188.7435039999998
 20
349.4953729999999
 30
0.0
 11
166.2801189999998
 21
349.4953729999999
 31
0.0
  0
LINE
  5
1B56F
330
1B51B
100
AcDbEntity
  8
1
  6
Continuous
100
AcDbLine
 10
188.7435059999999
 20
322.4953729999999
 30
0.0
 11
166.2801189999998
 21
322.4953729999999
 31
0.0
  0
CIRCLE
  5
1B570
330
1B51B
100
AcDbEntity
  8
1
  6
Continuous
100
AcDbCircle
 10
227.5006789999999
 20
335.99527
 30
0.0
 40
13.34999999999999
  0
ARC
  5
1B571
330
1B51B
100
AcDbEntity
  8
1
  6
Continuous
100
AcDbCircle
 10
-1405.015987
 20
335.99527
 30
0.0
 40
1593.816667
100
AcDbArc
 50
358.891084
 51
1.108916
  0
LINE
  5
1B572
330
1B51B
100
AcDbEntity
  8
4
  6
CENTER
100
AcDbLine
 10
196.5006789999999
 20
296.4952699999999
 30
0.0
 11
196.5006789999999
 21
313.4952699999999
 31
0.0
  0
CIRCLE
  5
1B573
330
1B51B
100
AcDbEntity
  8
1
  6
Continuous
100
AcDbCircle
 10
196.5006789999999
 20
304.9952699999999
 30
0.0
 40
4.25
  0
LINE
  5
1B574
330
1B51B
100
AcDbEntity
  8
4
  6
CENTER
100
AcDbLine
 10
205.0006789999999
 20
304.9952699999999
 30
0.0
 11
188.0006789999999
 21
304.9952699999999
 31
0.0
  0
ARC
  5
1B575
330
1B51B
100
AcDbEntity
  8
1
  6
Continuous
100
AcDbCircle
 10
196.5006789999999
 20
304.9952699999999
 30
0.0
 40
8.0
100
AcDbArc
 50
178.8910839999998
 51
271.108916
  0
LINE
  5
1B576
330
1B51B
100
AcDbEntity
  8
4
  6
CENTER
100
AcDbLine
 10
205.0006789999999
 20
366.99527
 30
0.0
 11
188.0006789999999
 21
366.99527
 31
0.0
  0
LINE
  5
1B577
330
1B51B
100
AcDbEntity
  8
4
  6
CENTER
100
AcDbLine
 10
196.5006789999999
 20
358.49527
 30
0.0
 11
196.5006789999999
 21
375.49527
 31
0.0
  0
CIRCLE
  5
1B578
330
1B51B
100
AcDbEntity
  8
1
  6
Continuous
100
AcDbCircle
 10
196.5006789999999
 20
366.99527
 30
0.0
 40
4.25
  0
ARC
  5
1B579
330
1B51B
100
AcDbEntity
  8
1
  6
Continuous
100
AcDbCircle
 10
196.5006789999999
 20
366.99527
 30
0.0
 40
8.0
100
AcDbArc
 50
88.89108399999996
 51
181.1089159999999
  0
ARC
  5
1B57A
330
1B51B
100
AcDbEntity
  8
1
  6
Continuous
100
AcDbCircle
 10
363.0000969999999
 20
335.9953729999999
 30
0.0
 40
200.0
100
AcDbArc
 50
176.944716
 51
183.055284
  0
ARC
  5
1B57B
330
1B51B
100
AcDbEntity
  8
1
  6
Continuous
100
AcDbCircle
 10
166.2801189999998
 20
325.4953729999999
 30
0.0
 40
3.0
100
AcDbArc
 50
183.055284
 51
270.0
  0
ARC
  5
1B57C
330
1B51B
100
AcDbEntity
  8
1
  6
Continuous
100
AcDbCircle
 10
166.2801189999998
 20
346.4953729999999
 30
0.0
 40
3.0
100
AcDbArc
 50
90.0
 51
176.944716
  0
LINE
  5
1B57D
330
1B51B
100
AcDbEntity
  8
4
  6
CENTER
100
AcDbLine
 10
64.00015
 20
261.9967679999999
 30
0.0
 11
64.00015
 21
153.997003
 31
0.0
  0
LINE
  5
1B57E
330
1B51B
100
AcDbEntity
  8
1
  6
Continuous
100
AcDbLine
 10
50.50015
 20
230.7169819999999
 30
0.0
 11
50.50015
 21
162.277024
 31
0.0
  0
LINE
  5
1B57F
330
1B51B
100
AcDbEntity
  8
1
  6
Continuous
100
AcDbLine
 10
77.50015000000002
 20
230.7169819999999
 30
0.0
 11
77.50015000000002
 21
162.277024
 31
0.0
  0
ARC
  5
1B580
330
1B51B
100
AcDbEntity
  8
1
  6
Continuous
100
AcDbCircle
 10
64.00015
 20
358.9970029999999
 30
0.0
 40
200.0
100
AcDbArc
 50
266.944716
 51
273.0552839999999
  0
ARC
  5
1B581
330
1B51B
100
AcDbEntity
  8
1
  6
Continuous
100
AcDbCircle
 10
74.50015
 20
162.277024
 30
0.0
 40
3.0
100
AcDbArc
 50
273.0552839999999
 51
0.0
  0
ARC
  5
1B582
330
1B51B
100
AcDbEntity
  8
1
  6
Continuous
100
AcDbCircle
 10
53.50014999999999
 20
162.277024
 30
0.0
 40
3.0
100
AcDbArc
 50
180.0
 51
266.944716
  0
LINE
  5
1B583
330
1B51B
100
AcDbEntity
  8
1
  6
Continuous
100
AcDbLine
 10
79.25015000000001
 20
204.9970029999998
 30
0.0
 11
79.25015000000001
 21
187.997003
 31
0.0
  0
LINE
  5
1B584
330
1B51B
100
AcDbEntity
  8
1
  6
Continuous
100
AcDbLine
 10
79.50015
 20
201.997003
 30
0.0
 11
79.50015
 21
190.997003
 31
0.0
  0
ARC
  5
1B585
330
1B51B
100
AcDbEntity
  8
1
  6
Continuous
100
AcDbCircle
 10
76.71254300000002
 20
188.009321
 30
0.0
 40
2.537636999999997
100
AcDbArc
 50
288.08155
 51
359.721882
  0
LINE
  5
1B586
330
1B51B
100
AcDbEntity
  8
1
  6
Continuous
100
AcDbLine
 10
82.706315
 20
184.3861499999999
 30
0.0
 11
81.41038299999998
 21
184.3861499999999
 31
0.0
  0
LINE
  5
1B587
330
1B51B
100
AcDbEntity
  8
1
  6
Continuous
100
AcDbLine
 10
79.50015
 20
190.997003
 30
0.0
 11
79.25015000000001
 21
190.997003
 31
0.0
  0
LINE
  5
1B588
330
1B51B
100
AcDbEntity
  8
1
  6
Continuous
100
AcDbLine
 10
79.70014999999998
 20
192.497003
 30
0.0
 11
79.50015
 21
192.497003
 31
0.0
  0
LINE
  5
1B589
330
1B51B
100
AcDbEntity
  8
1
  6
Continuous
100
AcDbLine
 10
79.70014999999998
 20
200.4970029999999
 30
0.0
 11
79.50015
 21
200.4970029999999
 31
0.0
  0
LINE
  5
1B58A
330
1B51B
100
AcDbEntity
  8
1
  6
Continuous
100
AcDbLine
 10
79.50015
 20
201.997003
 30
0.0
 11
79.25015000000001
 21
201.997003
 31
0.0
  0
ARC
  5
1B58B
330
1B51B
100
AcDbEntity
  8
1
  6
Continuous
100
AcDbCircle
 10
76.71254300000002
 20
204.984686
 30
0.0
 40
2.537636999999997
100
AcDbArc
 50
0.278118
 51
71.91845000000002
  0
LINE
  5
1B58C
330
1B51B
100
AcDbEntity
  8
1
  6
Continuous
100
AcDbLine
 10
48.75015
 20
204.9970029999998
 30
0.0
 11
48.75015
 21
187.997003
 31
0.0
  0
LINE
  5
1B58D
330
1B51B
100
AcDbEntity
  8
1
  6
Continuous
100
AcDbLine
 10
48.50014999999999
 20
201.997003
 30
0.0
 11
48.50014999999999
 21
190.997003
 31
0.0
  0
ARC
  5
1B58E
330
1B51B
100
AcDbEntity
  8
1
  6
Continuous
100
AcDbCircle
 10
51.287757
 20
188.009321
 30
0.0
 40
2.537636999999997
100
AcDbArc
 50
180.278118
 51
251.91845
  0
LINE
  5
1B58F
330
1B51B
100
AcDbEntity
  8
1
  6
Continuous
100
AcDbLine
 10
48.30015
 20
184.3861499999999
 30
0.0
 11
45.70015
 21
184.3861499999999
 31
0.0
  0
LINE
  5
1B590
330
1B51B
100
AcDbEntity
  8
1
  6
Continuous
100
AcDbLine
 10
48.75015
 20
190.997003
 30
0.0
 11
48.50014999999999
 21
190.997003
 31
0.0
  0
LINE
  5
1B591
330
1B51B
100
AcDbEntity
  8
1
  6
Continuous
100
AcDbLine
 10
48.50014999999999
 20
192.497003
 30
0.0
 11
48.329821
 21
192.497003
 31
0.0
  0
LINE
  5
1B592
330
1B51B
100
AcDbEntity
  8
1
  6
Continuous
100
AcDbLine
 10
48.50014999999999
 20
200.4970029999999
 30
0.0
 11
48.329821
 21
200.4970029999999
 31
0.0
  0
LINE
  5
1B593
330
1B51B
100
AcDbEntity
  8
1
  6
Continuous
100
AcDbLine
 10
48.50014999999999
 20
200.4970029999999
 30
0.0
 11
48.329821
 21
200.4970029999999
 31
0.0
  0
LINE
  5
1B594
330
1B51B
100
AcDbEntity
  8
1
  6
Continuous
100
AcDbLine
 10
48.75015
 20
201.997003
 30
0.0
 11
48.50014999999999
 21
201.997003
 31
0.0
  0
ARC
  5
1B595
330
1B51B
100
AcDbEntity
  8
1
  6
Continuous
100
AcDbCircle
 10
51.287757
 20
204.984686
 30
0.0
 40
2.537636999999997
100
AcDbArc
 50
108.0815499999998
 51
179.7218819999999
  0
LINE
  5
1B596
330
1B51B
100
AcDbEntity
  8
1
  6
Continuous
100
AcDbLine
 10
52.80135
 20
240.0881249999999
 30
0.0
 11
53.805448
 21
241.092224
 31
0.0
  0
ARC
  5
1B597
330
1B51B
100
AcDbEntity
  8
1
  6
Continuous
100
AcDbCircle
 10
64.00015
 20
33.997003
 30
0.0
 40
200.0
100
AcDbArc
 50
86.94471599999998
 51
93.055284
  0
LINE
  5
1B598
330
1B51B
100
AcDbEntity
  8
1
  6
Continuous
100
AcDbLine
 10
78.04987
 20
235.334021
 30
0.0
 11
49.95076599999999
 21
235.334021
 31
0.0
  0
LINE
  5
1B599
330
1B51B
100
AcDbEntity
  8
1
  6
Continuous
100
AcDbLine
 10
49.70015
 20
243.692224
 30
0.0
 11
78.30015
 21
243.692224
 31
0.0
  0
LINE
  5
1B59A
330
1B51B
100
AcDbEntity
  8
1
  6
Continuous
100
AcDbLine
 10
69.771912
 20
240.0881249999999
 30
0.0
 11
70.77601099999998
 21
241.092224
 31
0.0
  0
LINE
  5
1B59B
330
1B51B
100
AcDbEntity
  8
1
  6
Continuous
100
AcDbLine
 10
70.63040699999998
 20
240.0881249999999
 30
0.0
 11
69.62630899999999
 21
241.092224
 31
0.0
  0
LINE
  5
1B59C
330
1B51B
100
AcDbEntity
  8
1
  6
Continuous
100
AcDbLine
 10
79.43983
 20
240.0881249999999
 30
0.0
 11
48.560499
 21
240.0881249999999
 31
0.0
  0
LINE
  5
1B59D
330
1B51B
100
AcDbEntity
  8
1
  6
Continuous
100
AcDbLine
 10
79.69981
 20
239.129125
 30
0.0
 11
48.30015
 21
239.129125
 31
0.0
  0
LINE
  5
1B59E
330
1B51B
100
AcDbEntity
  8
1
  6
Continuous
100
AcDbLine
 10
79.53234899999998
 20
239.894125
 30
0.0
 11
48.471149
 21
239.894125
 31
0.0
  0
ARC
  5
1B59F
330
1B51B
100
AcDbEntity
  8
1
  6
Continuous
100
AcDbCircle
 10
78.04987
 20
241.3860179999999
 30
0.0
 40
6.051997
100
AcDbArc
 50
270.0
 51
285.8240159999999
  0
ARC
  5
1B5A0
330
1B51B
100
AcDbEntity
  8
1
  6
Continuous
100
AcDbCircle
 10
74.50015
 20
230.7169819999999
 30
0.0
 40
3.0
100
AcDbArc
 50
0.0
 51
86.94471599999998
  0
LINE
  5
1B5A1
330
1B51B
100
AcDbEntity
  8
1
  6
Continuous
100
AcDbLine
 10
78.257194
 20
240.0881249999999
 30
0.0
 11
78.877808
 21
240.7087399999999
 31
0.0
  0
LINE
  5
1B5A2
330
1B51B
100
AcDbEntity
  8
1
  6
Continuous
100
AcDbLine
 10
79.115689
 20
240.0881249999999
 30
0.0
 11
78.16679
 21
241.037024
 31
0.0
  0
LINE
  5
1B5A3
330
1B51B
100
AcDbEntity
  8
1
  6
Continuous
100
AcDbLine
 10
74.01455300000002
 20
240.0881249999999
 30
0.0
 11
75.01865200000001
 21
241.092224
 31
0.0
  0
LINE
  5
1B5A4
330
1B51B
100
AcDbEntity
  8
1
  6
Continuous
100
AcDbLine
 10
74.87304799999998
 20
240.0881249999999
 30
0.0
 11
73.868949
 21
241.092224
 31
0.0
  0
LINE
  5
1B5A5
330
1B51B
100
AcDbEntity
  8
1
  6
Continuous
100
AcDbLine
 10
75.42876699999998
 20
240.0881249999999
 30
0.0
 11
76.43286500000002
 21
241.092224
 31
0.0
  0
LINE
  5
1B5A6
330
1B51B
100
AcDbEntity
  8
1
  6
Continuous
100
AcDbLine
 10
76.84298000000002
 20
240.0881249999999
 30
0.0
 11
77.842039
 21
241.0871849999999
 31
0.0
  0
LINE
  5
1B5A7
330
1B51B
100
AcDbEntity
  8
1
  6
Continuous
100
AcDbLine
 10
76.287262
 20
240.0881249999999
 30
0.0
 11
75.283163
 21
241.092224
 31
0.0
  0
LINE
  5
1B5A8
330
1B51B
100
AcDbEntity
  8
1
  6
Continuous
100
AcDbLine
 10
77.701475
 20
240.0881249999999
 30
0.0
 11
76.69737600000002
 21
241.092224
 31
0.0
  0
LINE
  5
1B5A9
330
1B51B
100
AcDbEntity
  8
1
  6
Continuous
100
AcDbLine
 10
71.186126
 20
240.0881249999999
 30
0.0
 11
72.190225
 21
241.092224
 31
0.0
  0
LINE
  5
1B5AA
330
1B51B
100
AcDbEntity
  8
1
  6
Continuous
100
AcDbLine
 10
72.60034
 20
240.0881249999999
 30
0.0
 11
73.604438
 21
241.092224
 31
0.0
  0
LINE
  5
1B5AB
330
1B51B
100
AcDbEntity
  8
1
  6
Continuous
100
AcDbLine
 10
72.04462099999997
 20
240.0881249999999
 30
0.0
 11
71.04052199999998
 21
241.092224
 31
0.0
  0
LINE
  5
1B5AC
330
1B51B
100
AcDbEntity
  8
1
  6
Continuous
100
AcDbLine
 10
73.45883499999998
 20
240.0881249999999
 30
0.0
 11
72.45473599999998
 21
241.092224
 31
0.0
  0
LINE
  5
1B5AD
330
1B51B
100
AcDbEntity
  8
1
  6
Continuous
100
AcDbLine
 10
61.286631
 20
240.0881249999999
 30
0.0
 11
62.29073
 21
241.092224
 31
0.0
  0
LINE
  5
1B5AE
330
1B51B
100
AcDbEntity
  8
1
  6
Continuous
100
AcDbLine
 10
62.14512599999999
 20
240.0881249999999
 30
0.0
 11
61.141027
 21
241.092224
 31
0.0
  0
LINE
  5
1B5AF
330
1B51B
100
AcDbEntity
  8
1
  6
Continuous
100
AcDbLine
 10
65.52927199999999
 20
240.0881249999999
 30
0.0
 11
66.533371
 21
241.092224
 31
0.0
  0
LINE
  5
1B5B0
330
1B51B
100
AcDbEntity
  8
1
  6
Continuous
100
AcDbLine
 10
66.38776700000001
 20
240.0881249999999
 30
0.0
 11
65.383668
 21
241.092224
 31
0.0
  0
LINE
  5
1B5B1
330
1B51B
100
AcDbEntity
  8
1
  6
Continuous
100
AcDbLine
 10
66.943485
 20
240.0881249999999
 30
0.0
 11
67.94758399999999
 21
241.092224
 31
0.0
  0
LINE
  5
1B5B2
330
1B51B
100
AcDbEntity
  8
1
  6
Continuous
100
AcDbLine
 10
68.35769899999999
 20
240.0881249999999
 30
0.0
 11
69.36179799999999
 21
241.092224
 31
0.0
  0
LINE
  5
1B5B3
330
1B51B
100
AcDbEntity
  8
1
  6
Continuous
100
AcDbLine
 10
67.80198
 20
240.0881249999999
 30
0.0
 11
66.797881
 21
241.092224
 31
0.0
  0
LINE
  5
1B5B4
330
1B51B
100
AcDbEntity
  8
1
  6
Continuous
100
AcDbLine
 10
69.21619399999999
 20
240.0881249999999
 30
0.0
 11
68.21209499999999
 21
241.092224
 31
0.0
  0
LINE
  5
1B5B5
330
1B51B
100
AcDbEntity
  8
1
  6
Continuous
100
AcDbLine
 10
62.70084499999999
 20
240.0881249999999
 30
0.0
 11
63.704943
 21
241.092224
 31
0.0
  0
LINE
  5
1B5B6
330
1B51B
100
AcDbEntity
  8
1
  6
Continuous
100
AcDbLine
 10
64.11505799999999
 20
240.0881249999999
 30
0.0
 11
65.119157
 21
241.092224
 31
0.0
  0
LINE
  5
1B5B7
330
1B51B
100
AcDbEntity
  8
1
  6
Continuous
100
AcDbLine
 10
63.55934
 20
240.0881249999999
 30
0.0
 11
62.555241
 21
241.092224
 31
0.0
  0
LINE
  5
1B5B8
330
1B51B
100
AcDbEntity
  8
1
  6
Continuous
100
AcDbLine
 10
64.97355300000001
 20
240.0881249999999
 30
0.0
 11
63.96945399999999
 21
241.092224
 31
0.0
  0
LINE
  5
1B5B9
330
1B51B
100
AcDbEntity
  8
1
  6
Continuous
100
AcDbLine
 10
57.04399
 20
240.0881249999999
 30
0.0
 11
58.04808900000001
 21
241.092224
 31
0.0
  0
LINE
  5
1B5BA
330
1B51B
100
AcDbEntity
  8
1
  6
Continuous
100
AcDbLine
 10
58.458204
 20
240.0881249999999
 30
0.0
 11
59.46230299999999
 21
241.092224
 31
0.0
  0
LINE
  5
1B5BB
330
1B51B
100
AcDbEntity
  8
1
  6
Continuous
100
AcDbLine
 10
59.87241700000001
 20
240.0881249999999
 30
0.0
 11
60.876516
 21
241.092224
 31
0.0
  0
LINE
  5
1B5BC
330
1B51B
100
AcDbEntity
  8
1
  6
Continuous
100
AcDbLine
 10
59.316699
 20
240.0881249999999
 30
0.0
 11
58.3126
 21
241.092224
 31
0.0
  0
LINE
  5
1B5BD
330
1B51B
100
AcDbEntity
  8
1
  6
Continuous
100
AcDbLine
 10
60.730913
 20
240.0881249999999
 30
0.0
 11
59.72681399999999
 21
241.092224
 31
0.0
  0
LINE
  5
1B5BE
330
1B51B
100
AcDbEntity
  8
1
  6
Continuous
100
AcDbLine
 10
54.215563
 20
240.0881249999999
 30
0.0
 11
55.219662
 21
241.092224
 31
0.0
  0
LINE
  5
1B5BF
330
1B51B
100
AcDbEntity
  8
1
  6
Continuous
100
AcDbLine
 10
55.62977700000001
 20
240.0881249999999
 30
0.0
 11
56.633876
 21
241.092224
 31
0.0
  0
LINE
  5
1B5C0
330
1B51B
100
AcDbEntity
  8
1
  6
Continuous
100
AcDbLine
 10
55.07405799999999
 20
240.0881249999999
 30
0.0
 11
54.069959
 21
241.092224
 31
0.0
  0
LINE
  5
1B5C1
330
1B51B
100
AcDbEntity
  8
1
  6
Continuous
100
AcDbLine
 10
56.48827199999999
 20
240.0881249999999
 30
0.0
 11
55.484173
 21
241.092224
 31
0.0
  0
LINE
  5
1B5C2
330
1B51B
100
AcDbEntity
  8
1
  6
Continuous
100
AcDbLine
 10
57.902485
 20
240.0881249999999
 30
0.0
 11
56.898387
 21
241.092224
 31
0.0
  0
ARC
  5
1B5C3
330
1B51B
100
AcDbEntity
  8
1
  6
Continuous
100
AcDbCircle
 10
53.50014999999999
 20
230.7169819999999
 30
0.0
 40
3.0
100
AcDbArc
 50
93.055284
 51
180.0
  0
ARC
  5
1B5C4
330
1B51B
100
AcDbEntity
  8
1
  6
Continuous
100
AcDbCircle
 10
49.95076599999999
 20
241.3860179999999
 30
0.0
 40
6.051997
100
AcDbArc
 50
254.1726779999998
 51
270.0
  0
LINE
  5
1B5C5
330
1B51B
100
AcDbEntity
  8
1
  6
Continuous
100
AcDbLine
 10
49.972923
 20
240.0881249999999
 30
0.0
 11
50.977021
 21
241.092224
 31
0.0
  0
LINE
  5
1B5C6
330
1B51B
100
AcDbEntity
  8
1
  6
Continuous
100
AcDbLine
 10
51.38713599999999
 20
240.0881249999999
 30
0.0
 11
52.39123499999998
 21
241.092224
 31
0.0
  0
LINE
  5
1B5C7
330
1B51B
100
AcDbEntity
  8
1
  6
Continuous
100
AcDbLine
 10
50.83141799999999
 20
240.0881249999999
 30
0.0
 11
49.873381
 21
241.046161
 31
0.0
  0
LINE
  5
1B5C8
330
1B51B
100
AcDbEntity
  8
1
  6
Continuous
100
AcDbLine
 10
52.24563100000001
 20
240.0881249999999
 30
0.0
 11
51.241532
 21
241.092224
 31
0.0
  0
LINE
  5
1B5C9
330
1B51B
100
AcDbEntity
  8
1
  6
Continuous
100
AcDbLine
 10
53.65984499999999
 20
240.0881249999999
 30
0.0
 11
52.65574599999999
 21
241.092224
 31
0.0
  0
LINE
  5
1B5CA
330
1B51B
100
AcDbEntity
  8
1
  6
Continuous
100
AcDbLine
 10
48.558709
 20
240.0881249999999
 30
0.0
 11
49.28748399999999
 21
240.8169009999999
 31
0.0
  0
LINE
  5
1B5CB
330
1B51B
100
AcDbEntity
  8
1
  6
Continuous
100
AcDbLine
 10
49.417204
 20
240.0881249999999
 30
0.0
 11
48.943542
 21
240.5617869999999
 31
0.0
  0
LINE
  5
1B5CC
330
1B51B
100
AcDbEntity
  8
1
  6
Continuous
100
AcDbLine
 10
25.0
 20
254.096768
 30
0.0
 11
25.0
 21
256.9967679999999
 31
0.0
  0
LINE
  5
1B5CD
330
1B51B
100
AcDbEntity
  8
1
  6
Continuous
100
AcDbLine
 10
255.978771
 20
250.639767
 30
0.0
 11
199.0213889999999
 21
250.639767
 31
0.0
  0
LINE
  5
1B5CE
330
1B51B
100
AcDbEntity
  8
1
  6
Continuous
100
AcDbLine
 10
201.623153
 20
250.639767
 30
0.0
 11
202.52791
 21
248.658394
 31
0.0
  0
LINE
  5
1B5CF
330
1B51B
100
AcDbEntity
  8
1
  6
Continuous
100
AcDbLine
 10
253.377007
 20
250.639767
 30
0.0
 11
252.47225
 21
248.658394
 31
0.0
  0
ARC
  5
1B5D0
330
1B51B
100
AcDbEntity
  8
1
  6
Continuous
100
AcDbCircle
 10
203.0801349999999
 20
243.4558589999999
 30
0.0
 40
2.86247
100
AcDbArc
 50
88.60936599999998
 51
167.3499699999998
  0
LINE
  5
1B5D1
330
1B51B
100
AcDbEntity
  8
1
  6
Continuous
100
AcDbLine
 10
191.4301529999999
 20
243.692224
 30
0.0
 11
201.1496029999999
 21
243.692224
 31
0.0
  0
LINE
  5
1B5D2
330
1B51B
100
AcDbEntity
  8
1
  6
Continuous
100
AcDbLine
 10
191.4301529999999
 20
241.092224
 30
0.0
 11
191.4301529999999
 21
243.692224
 31
0.0
  0
ARC
  5
1B5D3
330
1B51B
100
AcDbEntity
  8
1
  6
Continuous
100
AcDbCircle
 10
199.7992849999999
 20
244.192224
 30
0.0
 40
0.5
100
AcDbArc
 50
270.0
 51
347.34997
  0
ARC
  5
1B5D4
330
1B51B
100
AcDbEntity
  8
1
  6
Continuous
100
AcDbCircle
 10
255.506659
 20
258.660031
 30
0.0
 40
8.034175999999996
100
AcDbArc
 50
273.3722549999999
 51
325.3904129999999
  0
LINE
  5
1B5D5
330
1B51B
100
AcDbEntity
  8
1
  6
Continuous
100
AcDbLine
 10
103.000153
 20
254.096768
 30
0.0
 11
25.0
 21
254.096768
 31
0.0
  0
LINE
  5
1B5D6
330
1B51B
100
AcDbEntity
  8
1
  6
Continuous
100
AcDbLine
 10
266.5001559999998
 20
254.096768
 30
0.0
 11
188.5000039999999
 21
254.096768
 31
0.0
  0
LINE
  5
1B5D7
330
1B51B
100
AcDbEntity
  8
1
  6
Continuous
100
AcDbLine
 10
92.47860000000001
 20
250.639767
 30
0.0
 11
35.521218
 21
250.639767
 31
0.0
  0
LINE
  5
1B5D8
330
1B51B
100
AcDbEntity
  8
1
  6
Continuous
100
AcDbLine
 10
89.87683599999998
 20
250.639767
 30
0.0
 11
88.97207899999997
 21
248.658394
 31
0.0
  0
LINE
  5
1B5D9
330
1B51B
100
AcDbEntity
  8
1
  6
Continuous
100
AcDbLine
 10
38.122982
 20
250.639767
 30
0.0
 11
39.02773899999999
 21
248.658394
 31
0.0
  0
LINE
  5
1B5DA
330
1B51B
100
AcDbEntity
  8
4
  6
CENTER
100
AcDbLine
 10
258.5003209999998
 20
259.896768
 30
0.0
 11
258.5003209999998
 21
251.196768
 31
0.0
  0
LINE
  5
1B5DB
330
1B51B
100
AcDbEntity
  8
4
  6
CENTER
100
AcDbLine
 10
196.5003209999999
 20
259.896768
 30
0.0
 11
196.5003209999999
 21
251.196768
 31
0.0
  0
LINE
  5
1B5DC
330
1B51B
100
AcDbEntity
  8
4
  6
CENTER
100
AcDbLine
 10
95.00015000000001
 20
259.896768
 30
0.0
 11
95.00015000000001
 21
251.196768
 31
0.0
  0
LINE
  5
1B5DD
330
1B51B
100
AcDbEntity
  8
4
  6
CENTER
100
AcDbLine
 10
33.00015
 20
259.896768
 30
0.0
 11
33.00015
 21
251.196768
 31
0.0
  0
LINE
  5
1B5DE
330
1B51B
100
AcDbEntity
  8
1
  6
Continuous
100
AcDbLine
 10
207.4727719999999
 20
246.3174859999998
 30
0.0
 11
209.8136799999998
 21
248.658394
 31
0.0
  0
LINE
  5
1B5DF
330
1B51B
100
AcDbEntity
  8
1
  6
Continuous
100
AcDbLine
 10
210.033269
 20
246.3174859999998
 30
0.0
 11
207.69236
 21
248.658394
 31
0.0
  0
LINE
  5
1B5E0
330
1B51B
100
AcDbEntity
  8
1
  6
Continuous
100
AcDbLine
 10
254.388321
 20
248.658394
 30
0.0
 11
200.612321
 21
248.658394
 31
0.0
  0
LINE
  5
1B5E1
330
1B51B
100
AcDbEntity
  8
1
  6
Continuous
100
AcDbLine
 10
254.388321
 20
246.3174859999998
 30
0.0
 11
200.612321
 21
246.3174859999998
 31
0.0
  0
LINE
  5
1B5E2
330
1B51B
100
AcDbEntity
  8
1
  6
Continuous
100
AcDbLine
 10
207.911948
 20
246.3174859999998
 30
0.0
 11
205.5710399999999
 21
248.658394
 31
0.0
  0
LINE
  5
1B5E3
330
1B51B
100
AcDbEntity
  8
1
  6
Continuous
100
AcDbLine
 10
200.612321
 20
247.942317
 30
0.0
 11
201.328399
 21
248.658394
 31
0.0
  0
LINE
  5
1B5E4
330
1B51B
100
AcDbEntity
  8
1
  6
Continuous
100
AcDbLine
 10
200.612321
 20
248.658394
 30
0.0
 11
200.612321
 21
246.3174859999998
 31
0.0
  0
LINE
  5
1B5E5
330
1B51B
100
AcDbEntity
  8
1
  6
Continuous
100
AcDbLine
 10
201.108811
 20
246.3174859999998
 30
0.0
 11
203.4497189999999
 21
248.658394
 31
0.0
  0
LINE
  5
1B5E6
330
1B51B
100
AcDbEntity
  8
1
  6
Continuous
100
AcDbLine
 10
203.669308
 20
246.3174859999998
 30
0.0
 11
201.328399
 21
248.658394
 31
0.0
  0
LINE
  5
1B5E7
330
1B51B
100
AcDbEntity
  8
1
  6
Continuous
100
AcDbLine
 10
203.230131
 20
246.3174859999998
 30
0.0
 11
205.5710399999999
 21
248.658394
 31
0.0
  0
LINE
  5
1B5E8
330
1B51B
100
AcDbEntity
  8
1
  6
Continuous
100
AcDbLine
 10
205.790628
 20
246.3174859999998
 30
0.0
 11
203.4497189999999
 21
248.658394
 31
0.0
  0
LINE
  5
1B5E9
330
1B51B
100
AcDbEntity
  8
1
  6
Continuous
100
AcDbLine
 10
205.3514509999998
 20
246.3174859999998
 30
0.0
 11
207.69236
 21
248.658394
 31
0.0
  0
LINE
  5
1B5EA
330
1B51B
100
AcDbEntity
  8
1
  6
Continuous
100
AcDbLine
 10
241.4138969999999
 20
246.3174859999998
 30
0.0
 11
243.754806
 21
248.658394
 31
0.0
  0
LINE
  5
1B5EB
330
1B51B
100
AcDbEntity
  8
1
  6
Continuous
100
AcDbLine
 10
243.974394
 20
246.3174859999998
 30
0.0
 11
241.633485
 21
248.658394
 31
0.0
  0
LINE
  5
1B5EC
330
1B51B
100
AcDbEntity
  8
1
  6
Continuous
100
AcDbLine
 10
224.443334
 20
246.3174859999998
 30
0.0
 11
226.7842429999999
 21
248.658394
 31
0.0
  0
LINE
  5
1B5ED
330
1B51B
100
AcDbEntity
  8
1
  6
Continuous
100
AcDbLine
 10
227.0038309999999
 20
246.3174859999998
 30
0.0
 11
224.6629229999999
 21
248.658394
 31
0.0
  0
LINE
  5
1B5EE
330
1B51B
100
AcDbEntity
  8
1
  6
Continuous
100
AcDbLine
 10
215.9580529999999
 20
246.3174859999998
 30
0.0
 11
218.2989619999999
 21
248.658394
 31
0.0
  0
LINE
  5
1B5EF
330
1B51B
100
AcDbEntity
  8
1
  6
Continuous
100
AcDbLine
 10
218.51855
 20
246.3174859999998
 30
0.0
 11
216.1776409999999
 21
248.658394
 31
0.0
  0
LINE
  5
1B5F0
330
1B51B
100
AcDbEntity
  8
1
  6
Continuous
100
AcDbLine
 10
218.0793729999999
 20
246.3174859999998
 30
0.0
 11
220.4202819999999
 21
248.658394
 31
0.0
  0
LINE
  5
1B5F1
330
1B51B
100
AcDbEntity
  8
1
  6
Continuous
100
AcDbLine
 10
220.63987
 20
246.3174859999998
 30
0.0
 11
218.2989619999999
 21
248.658394
 31
0.0
  0
LINE
  5
1B5F2
330
1B51B
100
AcDbEntity
  8
1
  6
Continuous
100
AcDbLine
 10
220.2006939999999
 20
246.3174859999998
 30
0.0
 11
222.541602
 21
248.658394
 31
0.0
  0
LINE
  5
1B5F3
330
1B51B
100
AcDbEntity
  8
1
  6
Continuous
100
AcDbLine
 10
222.761191
 20
246.3174859999998
 30
0.0
 11
220.4202819999999
 21
248.658394
 31
0.0
  0
LINE
  5
1B5F4
330
1B51B
100
AcDbEntity
  8
1
  6
Continuous
100
AcDbLine
 10
222.322014
 20
246.3174859999998
 30
0.0
 11
224.6629229999999
 21
248.658394
 31
0.0
  0
LINE
  5
1B5F5
330
1B51B
100
AcDbEntity
  8
1
  6
Continuous
100
AcDbLine
 10
224.8825109999999
 20
246.3174859999998
 30
0.0
 11
222.541602
 21
248.658394
 31
0.0
  0
LINE
  5
1B5F6
330
1B51B
100
AcDbEntity
  8
1
  6
Continuous
100
AcDbLine
 10
209.5940919999999
 20
246.3174859999998
 30
0.0
 11
211.9350009999998
 21
248.658394
 31
0.0
  0
LINE
  5
1B5F7
330
1B51B
100
AcDbEntity
  8
1
  6
Continuous
100
AcDbLine
 10
212.1545889999999
 20
246.3174859999998
 30
0.0
 11
209.8136799999998
 21
248.658394
 31
0.0
  0
LINE
  5
1B5F8
330
1B51B
100
AcDbEntity
  8
1
  6
Continuous
100
AcDbLine
 10
211.7154119999999
 20
246.3174859999998
 30
0.0
 11
214.0563209999999
 21
248.658394
 31
0.0
  0
LINE
  5
1B5F9
330
1B51B
100
AcDbEntity
  8
1
  6
Continuous
100
AcDbLine
 10
214.2759089999999
 20
246.3174859999998
 30
0.0
 11
211.9350009999998
 21
248.658394
 31
0.0
  0
LINE
  5
1B5FA
330
1B51B
100
AcDbEntity
  8
1
  6
Continuous
100
AcDbLine
 10
213.836733
 20
246.3174859999998
 30
0.0
 11
216.1776409999999
 21
248.658394
 31
0.0
  0
LINE
  5
1B5FB
330
1B51B
100
AcDbEntity
  8
1
  6
Continuous
100
AcDbLine
 10
216.3972299999998
 20
246.3174859999998
 30
0.0
 11
214.0563209999999
 21
248.658394
 31
0.0
  0
LINE
  5
1B5FC
330
1B51B
100
AcDbEntity
  8
1
  6
Continuous
100
AcDbLine
 10
235.0499359999998
 20
246.3174859999998
 30
0.0
 11
237.390845
 21
248.658394
 31
0.0
  0
LINE
  5
1B5FD
330
1B51B
100
AcDbEntity
  8
1
  6
Continuous
100
AcDbLine
 10
237.6104329999999
 20
246.3174859999998
 30
0.0
 11
235.269524
 21
248.658394
 31
0.0
  0
LINE
  5
1B5FE
330
1B51B
100
AcDbEntity
  8
1
  6
Continuous
100
AcDbLine
 10
237.171256
 20
246.3174859999998
 30
0.0
 11
239.5121649999999
 21
248.658394
 31
0.0
  0
LINE
  5
1B5FF
330
1B51B
100
AcDbEntity
  8
1
  6
Continuous
100
AcDbLine
 10
239.7317529999999
 20
246.3174859999998
 30
0.0
 11
237.390845
 21
248.658394
 31
0.0
  0
LINE
  5
1B600
330
1B51B
100
AcDbEntity
  8
1
  6
Continuous
100
AcDbLine
 10
239.292577
 20
246.3174859999998
 30
0.0
 11
241.633485
 21
248.658394
 31
0.0
  0
LINE
  5
1B601
330
1B51B
100
AcDbEntity
  8
1
  6
Continuous
100
AcDbLine
 10
241.853074
 20
246.3174859999998
 30
0.0
 11
239.5121649999999
 21
248.658394
 31
0.0
  0
LINE
  5
1B602
330
1B51B
100
AcDbEntity
  8
1
  6
Continuous
100
AcDbLine
 10
226.564655
 20
246.3174859999998
 30
0.0
 11
228.905563
 21
248.658394
 31
0.0
  0
LINE
  5
1B603
330
1B51B
100
AcDbEntity
  8
1
  6
Continuous
100
AcDbLine
 10
229.125152
 20
246.3174859999998
 30
0.0
 11
226.7842429999999
 21
248.658394
 31
0.0
  0
LINE
  5
1B604
330
1B51B
100
AcDbEntity
  8
1
  6
Continuous
100
AcDbLine
 10
228.685975
 20
246.3174859999998
 30
0.0
 11
231.0268839999999
 21
248.658394
 31
0.0
  0
LINE
  5
1B605
330
1B51B
100
AcDbEntity
  8
1
  6
Continuous
100
AcDbLine
 10
231.246472
 20
246.3174859999998
 30
0.0
 11
228.905563
 21
248.658394
 31
0.0
  0
LINE
  5
1B606
330
1B51B
100
AcDbEntity
  8
1
  6
Continuous
100
AcDbLine
 10
230.807295
 20
246.3174859999998
 30
0.0
 11
233.148204
 21
248.658394
 31
0.0
  0
LINE
  5
1B607
330
1B51B
100
AcDbEntity
  8
1
  6
Continuous
100
AcDbLine
 10
233.3677919999999
 20
246.3174859999998
 30
0.0
 11
231.0268839999999
 21
248.658394
 31
0.0
  0
LINE
  5
1B608
330
1B51B
100
AcDbEntity
  8
1
  6
Continuous
100
AcDbLine
 10
232.928616
 20
246.3174859999998
 30
0.0
 11
235.269524
 21
248.658394
 31
0.0
  0
LINE
  5
1B609
330
1B51B
100
AcDbEntity
  8
1
  6
Continuous
100
AcDbLine
 10
235.4891129999999
 20
246.3174859999998
 30
0.0
 11
233.148204
 21
248.658394
 31
0.0
  0
LINE
  5
1B60A
330
1B51B
100
AcDbEntity
  8
1
  6
Continuous
100
AcDbLine
 10
254.388321
 20
248.631481
 30
0.0
 11
254.3614069999999
 21
248.658394
 31
0.0
  0
LINE
  5
1B60B
330
1B51B
100
AcDbEntity
  8
1
  6
Continuous
100
AcDbLine
 10
243.5352169999999
 20
246.3174859999998
 30
0.0
 11
245.8761259999999
 21
248.658394
 31
0.0
  0
LINE
  5
1B60C
330
1B51B
100
AcDbEntity
  8
1
  6
Continuous
100
AcDbLine
 10
246.095714
 20
246.3174859999998
 30
0.0
 11
243.754806
 21
248.658394
 31
0.0
  0
LINE
  5
1B60D
330
1B51B
100
AcDbEntity
  8
1
  6
Continuous
100
AcDbLine
 10
245.6565379999999
 20
246.3174859999998
 30
0.0
 11
247.997446
 21
248.658394
 31
0.0
  0
LINE
  5
1B60E
330
1B51B
100
AcDbEntity
  8
1
  6
Continuous
100
AcDbLine
 10
248.217035
 20
246.3174859999998
 30
0.0
 11
245.8761259999999
 21
248.658394
 31
0.0
  0
LINE
  5
1B60F
330
1B51B
100
AcDbEntity
  8
1
  6
Continuous
100
AcDbLine
 10
247.777858
 20
246.3174859999998
 30
0.0
 11
250.1187669999999
 21
248.658394
 31
0.0
  0
LINE
  5
1B610
330
1B51B
100
AcDbEntity
  8
1
  6
Continuous
100
AcDbLine
 10
254.388321
 20
248.658394
 30
0.0
 11
254.388321
 21
246.3174859999998
 31
0.0
  0
LINE
  5
1B611
330
1B51B
100
AcDbEntity
  8
1
  6
Continuous
100
AcDbLine
 10
249.8991779999998
 20
246.3174859999998
 30
0.0
 11
252.2400869999999
 21
248.658394
 31
0.0
  0
LINE
  5
1B612
330
1B51B
100
AcDbEntity
  8
1
  6
Continuous
100
AcDbLine
 10
250.3383549999998
 20
246.3174859999998
 30
0.0
 11
247.997446
 21
248.658394
 31
0.0
  0
LINE
  5
1B613
330
1B51B
100
AcDbEntity
  8
1
  6
Continuous
100
AcDbLine
 10
252.459675
 20
246.3174859999998
 30
0.0
 11
250.1187669999999
 21
248.658394
 31
0.0
  0
LINE
  5
1B614
330
1B51B
100
AcDbEntity
  8
1
  6
Continuous
100
AcDbLine
 10
252.020499
 20
246.3174859999998
 30
0.0
 11
254.3614069999999
 21
248.658394
 31
0.0
  0
LINE
  5
1B615
330
1B51B
100
AcDbEntity
  8
1
  6
Continuous
100
AcDbLine
 10
254.388321
 20
246.5101619999999
 30
0.0
 11
252.2400869999999
 21
248.658394
 31
0.0
  0
LINE
  5
1B616
330
1B51B
100
AcDbEntity
  8
1
  6
Continuous
100
AcDbLine
 10
50.77573799999999
 20
246.3174859999998
 30
0.0
 11
48.43482999999999
 21
248.658394
 31
0.0
  0
LINE
  5
1B617
330
1B51B
100
AcDbEntity
  8
1
  6
Continuous
100
AcDbLine
 10
48.215241
 20
246.3174859999998
 30
0.0
 11
50.55615
 21
248.658394
 31
0.0
  0
LINE
  5
1B618
330
1B51B
100
AcDbEntity
  8
1
  6
Continuous
100
AcDbLine
 10
90.88815
 20
246.3174859999998
 30
0.0
 11
37.11215
 21
246.3174859999998
 31
0.0
  0
LINE
  5
1B619
330
1B51B
100
AcDbEntity
  8
1
  6
Continuous
100
AcDbLine
 10
90.88815
 20
248.658394
 30
0.0
 11
37.11215
 21
248.658394
 31
0.0
  0
LINE
  5
1B61A
330
1B51B
100
AcDbEntity
  8
1
  6
Continuous
100
AcDbLine
 10
48.654418
 20
246.3174859999998
 30
0.0
 11
46.313509
 21
248.658394
 31
0.0
  0
LINE
  5
1B61B
330
1B51B
100
AcDbEntity
  8
1
  6
Continuous
100
AcDbLine
 10
46.09392099999999
 20
246.3174859999998
 30
0.0
 11
48.43482999999999
 21
248.658394
 31
0.0
  0
LINE
  5
1B61C
330
1B51B
100
AcDbEntity
  8
1
  6
Continuous
100
AcDbLine
 10
41.85127999999997
 20
246.3174859999998
 30
0.0
 11
44.19218899999999
 21
248.658394
 31
0.0
  0
LINE
  5
1B61D
330
1B51B
100
AcDbEntity
  8
1
  6
Continuous
100
AcDbLine
 10
42.290457
 20
246.3174859999998
 30
0.0
 11
39.949548
 21
248.658394
 31
0.0
  0
LINE
  5
1B61E
330
1B51B
100
AcDbEntity
  8
1
  6
Continuous
100
AcDbLine
 10
39.72996
 20
246.3174859999998
 30
0.0
 11
42.070869
 21
248.658394
 31
0.0
  0
LINE
  5
1B61F
330
1B51B
100
AcDbEntity
  8
1
  6
Continuous
100
AcDbLine
 10
40.16913699999999
 20
246.3174859999998
 30
0.0
 11
37.828228
 21
248.658394
 31
0.0
  0
LINE
  5
1B620
330
1B51B
100
AcDbEntity
  8
1
  6
Continuous
100
AcDbLine
 10
37.60864
 20
246.3174859999998
 30
0.0
 11
39.949548
 21
248.658394
 31
0.0
  0
LINE
  5
1B621
330
1B51B
100
AcDbEntity
  8
1
  6
Continuous
100
AcDbLine
 10
37.11215
 20
248.658394
 30
0.0
 11
37.11215
 21
246.3174859999998
 31
0.0
  0
LINE
  5
1B622
330
1B51B
100
AcDbEntity
  8
1
  6
Continuous
100
AcDbLine
 10
37.11215
 20
247.942317
 30
0.0
 11
37.828228
 21
248.658394
 31
0.0
  0
LINE
  5
1B623
330
1B51B
100
AcDbEntity
  8
1
  6
Continuous
100
AcDbLine
 10
44.41177699999999
 20
246.3174859999998
 30
0.0
 11
42.070869
 21
248.658394
 31
0.0
  0
LINE
  5
1B624
330
1B51B
100
AcDbEntity
  8
1
  6
Continuous
100
AcDbLine
 10
46.53309799999997
 20
246.3174859999998
 30
0.0
 11
44.19218899999999
 21
248.658394
 31
0.0
  0
LINE
  5
1B625
330
1B51B
100
AcDbEntity
  8
1
  6
Continuous
100
AcDbLine
 10
43.97260099999999
 20
246.3174859999998
 30
0.0
 11
46.313509
 21
248.658394
 31
0.0
  0
LINE
  5
1B626
330
1B51B
100
AcDbEntity
  8
1
  6
Continuous
100
AcDbLine
 10
84.71686400000001
 20
246.3174859999998
 30
0.0
 11
82.37595500000002
 21
248.658394
 31
0.0
  0
LINE
  5
1B627
330
1B51B
100
AcDbEntity
  8
1
  6
Continuous
100
AcDbLine
 10
82.15636700000002
 20
246.3174859999998
 30
0.0
 11
84.49727499999999
 21
248.658394
 31
0.0
  0
LINE
  5
1B628
330
1B51B
100
AcDbEntity
  8
1
  6
Continuous
100
AcDbLine
 10
67.746301
 20
246.3174859999998
 30
0.0
 11
65.40539200000001
 21
248.658394
 31
0.0
  0
LINE
  5
1B629
330
1B51B
100
AcDbEntity
  8
1
  6
Continuous
100
AcDbLine
 10
65.18580400000001
 20
246.3174859999998
 30
0.0
 11
67.526713
 21
248.658394
 31
0.0
  0
LINE
  5
1B62A
330
1B51B
100
AcDbEntity
  8
1
  6
Continuous
100
AcDbLine
 10
65.624981
 20
246.3174859999998
 30
0.0
 11
63.284072
 21
248.658394
 31
0.0
  0
LINE
  5
1B62B
330
1B51B
100
AcDbEntity
  8
1
  6
Continuous
100
AcDbLine
 10
63.064484
 20
246.3174859999998
 30
0.0
 11
65.40539200000001
 21
248.658394
 31
0.0
  0
LINE
  5
1B62C
330
1B51B
100
AcDbEntity
  8
1
  6
Continuous
100
AcDbLine
 10
52.897059
 20
246.3174859999998
 30
0.0
 11
50.55615
 21
248.658394
 31
0.0
  0
LINE
  5
1B62D
330
1B51B
100
AcDbEntity
  8
1
  6
Continuous
100
AcDbLine
 10
50.336562
 20
246.3174859999998
 30
0.0
 11
52.67746999999999
 21
248.658394
 31
0.0
  0
LINE
  5
1B62E
330
1B51B
100
AcDbEntity
  8
1
  6
Continuous
100
AcDbLine
 10
61.38234
 20
246.3174859999998
 30
0.0
 11
59.041431
 21
248.658394
 31
0.0
  0
LINE
  5
1B62F
330
1B51B
100
AcDbEntity
  8
1
  6
Continuous
100
AcDbLine
 10
58.82184300000001
 20
246.3174859999998
 30
0.0
 11
61.162752
 21
248.658394
 31
0.0
  0
LINE
  5
1B630
330
1B51B
100
AcDbEntity
  8
1
  6
Continuous
100
AcDbLine
 10
59.26102
 20
246.3174859999998
 30
0.0
 11
56.920111
 21
248.658394
 31
0.0
  0
LINE
  5
1B631
330
1B51B
100
AcDbEntity
  8
1
  6
Continuous
100
AcDbLine
 10
56.700523
 20
246.3174859999998
 30
0.0
 11
59.041431
 21
248.658394
 31
0.0
  0
LINE
  5
1B632
330
1B51B
100
AcDbEntity
  8
1
  6
Continuous
100
AcDbLine
 10
57.139699
 20
246.3174859999998
 30
0.0
 11
54.798791
 21
248.658394
 31
0.0
  0
LINE
  5
1B633
330
1B51B
100
AcDbEntity
  8
1
  6
Continuous
100
AcDbLine
 10
54.579202
 20
246.3174859999998
 30
0.0
 11
56.920111
 21
248.658394
 31
0.0
  0
LINE
  5
1B634
330
1B51B
100
AcDbEntity
  8
1
  6
Continuous
100
AcDbLine
 10
55.018379
 20
246.3174859999998
 30
0.0
 11
52.67746999999999
 21
248.658394
 31
0.0
  0
LINE
  5
1B635
330
1B51B
100
AcDbEntity
  8
1
  6
Continuous
100
AcDbLine
 10
52.45788199999999
 20
246.3174859999998
 30
0.0
 11
54.798791
 21
248.658394
 31
0.0
  0
LINE
  5
1B636
330
1B51B
100
AcDbEntity
  8
1
  6
Continuous
100
AcDbLine
 10
63.50366000000001
 20
246.3174859999998
 30
0.0
 11
61.162752
 21
248.658394
 31
0.0
  0
LINE
  5
1B637
330
1B51B
100
AcDbEntity
  8
1
  6
Continuous
100
AcDbLine
 10
60.943163
 20
246.3174859999998
 30
0.0
 11
63.284072
 21
248.658394
 31
0.0
  0
LINE
  5
1B638
330
1B51B
100
AcDbEntity
  8
1
  6
Continuous
100
AcDbLine
 10
82.59554300000003
 20
246.3174859999998
 30
0.0
 11
80.25463499999998
 21
248.658394
 31
0.0
  0
LINE
  5
1B639
330
1B51B
100
AcDbEntity
  8
1
  6
Continuous
100
AcDbLine
 10
80.03504599999997
 20
246.3174859999998
 30
0.0
 11
82.37595500000002
 21
248.658394
 31
0.0
  0
LINE
  5
1B63A
330
1B51B
100
AcDbEntity
  8
1
  6
Continuous
100
AcDbLine
 10
71.98894200000002
 20
246.3174859999998
 30
0.0
 11
69.64803299999998
 21
248.658394
 31
0.0
  0
LINE
  5
1B63B
330
1B51B
100
AcDbEntity
  8
1
  6
Continuous
100
AcDbLine
 10
69.42844499999999
 20
246.3174859999998
 30
0.0
 11
71.76935300000002
 21
248.658394
 31
0.0
  0
LINE
  5
1B63C
330
1B51B
100
AcDbEntity
  8
1
  6
Continuous
100
AcDbLine
 10
69.86762099999999
 20
246.3174859999998
 30
0.0
 11
67.526713
 21
248.658394
 31
0.0
  0
LINE
  5
1B63D
330
1B51B
100
AcDbEntity
  8
1
  6
Continuous
100
AcDbLine
 10
67.307124
 20
246.3174859999998
 30
0.0
 11
69.64803299999998
 21
248.658394
 31
0.0
  0
LINE
  5
1B63E
330
1B51B
100
AcDbEntity
  8
1
  6
Continuous
100
AcDbLine
 10
78.352903
 20
246.3174859999998
 30
0.0
 11
76.011994
 21
248.658394
 31
0.0
  0
LINE
  5
1B63F
330
1B51B
100
AcDbEntity
  8
1
  6
Continuous
100
AcDbLine
 10
75.792406
 20
246.3174859999998
 30
0.0
 11
78.133314
 21
248.658394
 31
0.0
  0
LINE
  5
1B640
330
1B51B
100
AcDbEntity
  8
1
  6
Continuous
100
AcDbLine
 10
76.23158199999997
 20
246.3174859999998
 30
0.0
 11
73.890674
 21
248.658394
 31
0.0
  0
LINE
  5
1B641
330
1B51B
100
AcDbEntity
  8
1
  6
Continuous
100
AcDbLine
 10
73.67108499999997
 20
246.3174859999998
 30
0.0
 11
76.011994
 21
248.658394
 31
0.0
  0
LINE
  5
1B642
330
1B51B
100
AcDbEntity
  8
1
  6
Continuous
100
AcDbLine
 10
74.11026200000002
 20
246.3174859999998
 30
0.0
 11
71.76935300000002
 21
248.658394
 31
0.0
  0
LINE
  5
1B643
330
1B51B
100
AcDbEntity
  8
1
  6
Continuous
100
AcDbLine
 10
71.549765
 20
246.3174859999998
 30
0.0
 11
73.890674
 21
248.658394
 31
0.0
  0
LINE
  5
1B644
330
1B51B
100
AcDbEntity
  8
1
  6
Continuous
100
AcDbLine
 10
80.47422299999999
 20
246.3174859999998
 30
0.0
 11
78.133314
 21
248.658394
 31
0.0
  0
LINE
  5
1B645
330
1B51B
100
AcDbEntity
  8
1
  6
Continuous
100
AcDbLine
 10
77.91372599999998
 20
246.3174859999998
 30
0.0
 11
80.25463499999998
 21
248.658394
 31
0.0
  0
LINE
  5
1B646
330
1B51B
100
AcDbEntity
  8
1
  6
Continuous
100
AcDbLine
 10
90.88815
 20
246.5101619999999
 30
0.0
 11
88.73991600000001
 21
248.658394
 31
0.0
  0
LINE
  5
1B647
330
1B51B
100
AcDbEntity
  8
1
  6
Continuous
100
AcDbLine
 10
88.52032800000001
 20
246.3174859999998
 30
0.0
 11
90.861236
 21
248.658394
 31
0.0
  0
LINE
  5
1B648
330
1B51B
100
AcDbEntity
  8
1
  6
Continuous
100
AcDbLine
 10
88.95950400000002
 20
246.3174859999998
 30
0.0
 11
86.61859599999997
 21
248.658394
 31
0.0
  0
LINE
  5
1B649
330
1B51B
100
AcDbEntity
  8
1
  6
Continuous
100
AcDbLine
 10
86.83818399999998
 20
246.3174859999998
 30
0.0
 11
84.49727499999999
 21
248.658394
 31
0.0
  0
LINE
  5
1B64A
330
1B51B
100
AcDbEntity
  8
1
  6
Continuous
100
AcDbLine
 10
86.39900699999998
 20
246.3174859999998
 30
0.0
 11
88.73991600000001
 21
248.658394
 31
0.0
  0
LINE
  5
1B64B
330
1B51B
100
AcDbEntity
  8
1
  6
Continuous
100
AcDbLine
 10
90.88815
 20
248.658394
 30
0.0
 11
90.88815
 21
246.3174859999998
 31
0.0
  0
LINE
  5
1B64C
330
1B51B
100
AcDbEntity
  8
1
  6
Continuous
100
AcDbLine
 10
84.27768699999999
 20
246.3174859999998
 30
0.0
 11
86.61859599999997
 21
248.658394
 31
0.0
  0
LINE
  5
1B64D
330
1B51B
100
AcDbEntity
  8
1
  6
Continuous
100
AcDbLine
 10
90.88815
 20
248.631481
 30
0.0
 11
90.861236
 21
248.658394
 31
0.0
  0
LINE
  5
1B64E
330
1B51B
100
AcDbEntity
  8
4
  6
CENTER
100
AcDbLine
 10
365.500306
 20
261.9967679999999
 30
0.0
 11
365.500306
 21
153.997003
 31
0.0
  0
LINE
  5
1B64F
330
1B51B
100
AcDbEntity
  8
1
  6
Continuous
100
AcDbLine
 10
341.230116
 20
246.3174859999998
 30
0.0
 11
343.571025
 21
248.658394
 31
0.0
  0
LINE
  5
1B650
330
1B51B
100
AcDbEntity
  8
1
  6
Continuous
100
AcDbLine
 10
343.790613
 20
246.3174859999998
 30
0.0
 11
341.449704
 21
248.658394
 31
0.0
  0
LINE
  5
1B651
330
1B51B
100
AcDbEntity
  8
1
  6
Continuous
100
AcDbLine
 10
343.3514359999999
 20
246.3174859999998
 30
0.0
 11
345.6923450000001
 21
248.658394
 31
0.0
  0
LINE
  5
1B652
330
1B51B
100
AcDbEntity
  8
1
  6
Continuous
100
AcDbLine
 10
392.388306
 20
248.658394
 30
0.0
 11
338.612306
 21
248.658394
 31
0.0
  0
LINE
  5
1B653
330
1B51B
100
AcDbEntity
  8
1
  6
Continuous
100
AcDbLine
 10
392.388306
 20
246.3174859999998
 30
0.0
 11
338.612306
 21
246.3174859999998
 31
0.0
  0
LINE
  5
1B654
330
1B51B
100
AcDbEntity
  8
1
  6
Continuous
100
AcDbLine
 10
393.9787559999999
 20
250.639767
 30
0.0
 11
337.021374
 21
250.639767
 31
0.0
  0
LINE
  5
1B655
330
1B51B
100
AcDbEntity
  8
1
  6
Continuous
100
AcDbLine
 10
404.5003089999998
 20
254.096768
 30
0.0
 11
326.5001559999999
 21
254.096768
 31
0.0
  0
LINE
  5
1B656
330
1B51B
100
AcDbEntity
  8
1
  6
Continuous
100
AcDbLine
 10
404.5003089999998
 20
256.9967679999999
 30
0.0
 11
326.5001559999999
 21
256.9967679999999
 31
0.0
  0
LINE
  5
1B657
330
1B51B
100
AcDbEntity
  8
4
  6
CENTER
100
AcDbLine
 10
334.500306
 20
259.896768
 30
0.0
 11
334.500306
 21
251.196768
 31
0.0
  0
LINE
  5
1B658
330
1B51B
100
AcDbEntity
  8
1
  6
Continuous
100
AcDbLine
 10
326.5001559999999
 20
254.096768
 30
0.0
 11
326.5001559999999
 21
256.9967679999999
 31
0.0
  0
LINE
  5
1B659
330
1B51B
100
AcDbEntity
  8
1
  6
Continuous
100
AcDbLine
 10
338.612306
 20
247.942317
 30
0.0
 11
339.3283839999999
 21
248.658394
 31
0.0
  0
LINE
  5
1B65A
330
1B51B
100
AcDbEntity
  8
1
  6
Continuous
100
AcDbLine
 10
338.612306
 20
248.658394
 30
0.0
 11
338.612306
 21
246.3174859999998
 31
0.0
  0
LINE
  5
1B65B
330
1B51B
100
AcDbEntity
  8
1
  6
Continuous
100
AcDbLine
 10
339.108796
 20
246.3174859999998
 30
0.0
 11
341.449704
 21
248.658394
 31
0.0
  0
LINE
  5
1B65C
330
1B51B
100
AcDbEntity
  8
1
  6
Continuous
100
AcDbLine
 10
341.6692929999999
 20
246.3174859999998
 30
0.0
 11
339.3283839999999
 21
248.658394
 31
0.0
  0
LINE
  5
1B65D
330
1B51B
100
AcDbEntity
  8
1
  6
Continuous
100
AcDbLine
 10
339.6231379999999
 20
250.639767
 30
0.0
 11
340.527895
 21
248.658394
 31
0.0
  0
LINE
  5
1B65E
330
1B51B
100
AcDbEntity
  8
4
  6
CENTER
100
AcDbLine
 10
396.500306
 20
259.896768
 30
0.0
 11
396.500306
 21
251.196768
 31
0.0
  0
LINE
  5
1B65F
330
1B51B
100
AcDbEntity
  8
1
  6
Continuous
100
AcDbLine
 10
404.5003089999998
 20
254.096768
 30
0.0
 11
404.5003089999998
 21
256.9967679999999
 31
0.0
  0
LINE
  5
1B660
330
1B51B
100
AcDbEntity
  8
1
  6
Continuous
100
AcDbLine
 10
377.2925619999999
 20
246.3174859999998
 30
0.0
 11
379.63347
 21
248.658394
 31
0.0
  0
LINE
  5
1B661
330
1B51B
100
AcDbEntity
  8
1
  6
Continuous
100
AcDbLine
 10
379.8530589999999
 20
246.3174859999998
 30
0.0
 11
377.51215
 21
248.658394
 31
0.0
  0
LINE
  5
1B662
330
1B51B
100
AcDbEntity
  8
1
  6
Continuous
100
AcDbLine
 10
360.7611759999999
 20
246.3174859999998
 30
0.0
 11
358.4202669999998
 21
248.658394
 31
0.0
  0
LINE
  5
1B663
330
1B51B
100
AcDbEntity
  8
1
  6
Continuous
100
AcDbLine
 10
360.3219989999999
 20
246.3174859999998
 30
0.0
 11
362.662908
 21
248.658394
 31
0.0
  0
LINE
  5
1B664
330
1B51B
100
AcDbEntity
  8
1
  6
Continuous
100
AcDbLine
 10
362.882496
 20
246.3174859999998
 30
0.0
 11
360.5415869999998
 21
248.658394
 31
0.0
  0
LINE
  5
1B665
330
1B51B
100
AcDbEntity
  8
1
  6
Continuous
100
AcDbLine
 10
353.9580379999999
 20
246.3174859999998
 30
0.0
 11
356.298947
 21
248.658394
 31
0.0
  0
LINE
  5
1B666
330
1B51B
100
AcDbEntity
  8
1
  6
Continuous
100
AcDbLine
 10
356.518535
 20
246.3174859999998
 30
0.0
 11
354.1776259999999
 21
248.658394
 31
0.0
  0
LINE
  5
1B667
330
1B51B
100
AcDbEntity
  8
1
  6
Continuous
100
AcDbLine
 10
356.079358
 20
246.3174859999998
 30
0.0
 11
358.4202669999998
 21
248.658394
 31
0.0
  0
LINE
  5
1B668
330
1B51B
100
AcDbEntity
  8
1
  6
Continuous
100
AcDbLine
 10
358.6398549999998
 20
246.3174859999998
 30
0.0
 11
356.298947
 21
248.658394
 31
0.0
  0
LINE
  5
1B669
330
1B51B
100
AcDbEntity
  8
1
  6
Continuous
100
AcDbLine
 10
358.2006789999998
 20
246.3174859999998
 30
0.0
 11
360.5415869999998
 21
248.658394
 31
0.0
  0
LINE
  5
1B66A
330
1B51B
100
AcDbEntity
  8
1
  6
Continuous
100
AcDbLine
 10
351.836718
 20
246.3174859999998
 30
0.0
 11
354.1776259999999
 21
248.658394
 31
0.0
  0
LINE
  5
1B66B
330
1B51B
100
AcDbEntity
  8
1
  6
Continuous
100
AcDbLine
 10
354.397215
 20
246.3174859999998
 30
0.0
 11
352.056306
 21
248.658394
 31
0.0
  0
LINE
  5
1B66C
330
1B51B
100
AcDbEntity
  8
1
  6
Continuous
100
AcDbLine
 10
345.472757
 20
246.3174859999998
 30
0.0
 11
347.813665
 21
248.658394
 31
0.0
  0
LINE
  5
1B66D
330
1B51B
100
AcDbEntity
  8
1
  6
Continuous
100
AcDbLine
 10
348.033254
 20
246.3174859999998
 30
0.0
 11
345.6923450000001
 21
248.658394
 31
0.0
  0
LINE
  5
1B66E
330
1B51B
100
AcDbEntity
  8
1
  6
Continuous
100
AcDbLine
 10
345.911933
 20
246.3174859999998
 30
0.0
 11
343.571025
 21
248.658394
 31
0.0
  0
LINE
  5
1B66F
330
1B51B
100
AcDbEntity
  8
1
  6
Continuous
100
AcDbLine
 10
347.5940770000002
 20
246.3174859999998
 30
0.0
 11
349.9349859999999
 21
248.658394
 31
0.0
  0
LINE
  5
1B670
330
1B51B
100
AcDbEntity
  8
1
  6
Continuous
100
AcDbLine
 10
350.154574
 20
246.3174859999998
 30
0.0
 11
347.813665
 21
248.658394
 31
0.0
  0
LINE
  5
1B671
330
1B51B
100
AcDbEntity
  8
1
  6
Continuous
100
AcDbLine
 10
349.7153969999998
 20
246.3174859999998
 30
0.0
 11
352.056306
 21
248.658394
 31
0.0
  0
LINE
  5
1B672
330
1B51B
100
AcDbEntity
  8
1
  6
Continuous
100
AcDbLine
 10
352.275894
 20
246.3174859999998
 30
0.0
 11
349.9349859999999
 21
248.658394
 31
0.0
  0
LINE
  5
1B673
330
1B51B
100
AcDbEntity
  8
1
  6
Continuous
100
AcDbLine
 10
373.049921
 20
246.3174859999998
 30
0.0
 11
375.3908299999998
 21
248.658394
 31
0.0
  0
LINE
  5
1B674
330
1B51B
100
AcDbEntity
  8
1
  6
Continuous
100
AcDbLine
 10
375.6104179999999
 20
246.3174859999998
 30
0.0
 11
373.2695089999999
 21
248.658394
 31
0.0
  0
LINE
  5
1B675
330
1B51B
100
AcDbEntity
  8
1
  6
Continuous
100
AcDbLine
 10
375.171241
 20
246.3174859999998
 30
0.0
 11
377.51215
 21
248.658394
 31
0.0
  0
LINE
  5
1B676
330
1B51B
100
AcDbEntity
  8
1
  6
Continuous
100
AcDbLine
 10
377.7317379999999
 20
246.3174859999998
 30
0.0
 11
375.3908299999998
 21
248.658394
 31
0.0
  0
LINE
  5
1B677
330
1B51B
100
AcDbEntity
  8
1
  6
Continuous
100
AcDbLine
 10
368.80728
 20
246.3174859999998
 30
0.0
 11
371.1481889999998
 21
248.658394
 31
0.0
  0
LINE
  5
1B678
330
1B51B
100
AcDbEntity
  8
1
  6
Continuous
100
AcDbLine
 10
371.3677769999998
 20
246.3174859999998
 30
0.0
 11
369.0268689999999
 21
248.658394
 31
0.0
  0
LINE
  5
1B679
330
1B51B
100
AcDbEntity
  8
1
  6
Continuous
100
AcDbLine
 10
370.9286009999999
 20
246.3174859999998
 30
0.0
 11
373.2695089999999
 21
248.658394
 31
0.0
  0
LINE
  5
1B67A
330
1B51B
100
AcDbEntity
  8
1
  6
Continuous
100
AcDbLine
 10
373.489098
 20
246.3174859999998
 30
0.0
 11
371.1481889999998
 21
248.658394
 31
0.0
  0
LINE
  5
1B67B
330
1B51B
100
AcDbEntity
  8
1
  6
Continuous
100
AcDbLine
 10
362.4433189999999
 20
246.3174859999998
 30
0.0
 11
364.7842279999999
 21
248.658394
 31
0.0
  0
LINE
  5
1B67C
330
1B51B
100
AcDbEntity
  8
1
  6
Continuous
100
AcDbLine
 10
365.0038159999998
 20
246.3174859999998
 30
0.0
 11
362.662908
 21
248.658394
 31
0.0
  0
LINE
  5
1B67D
330
1B51B
100
AcDbEntity
  8
1
  6
Continuous
100
AcDbLine
 10
364.5646399999998
 20
246.3174859999998
 30
0.0
 11
366.905548
 21
248.658394
 31
0.0
  0
LINE
  5
1B67E
330
1B51B
100
AcDbEntity
  8
1
  6
Continuous
100
AcDbLine
 10
367.125137
 20
246.3174859999998
 30
0.0
 11
364.7842279999999
 21
248.658394
 31
0.0
  0
LINE
  5
1B67F
330
1B51B
100
AcDbEntity
  8
1
  6
Continuous
100
AcDbLine
 10
366.68596
 20
246.3174859999998
 30
0.0
 11
369.0268689999999
 21
248.658394
 31
0.0
  0
LINE
  5
1B680
330
1B51B
100
AcDbEntity
  8
1
  6
Continuous
100
AcDbLine
 10
369.2464569999998
 20
246.3174859999998
 30
0.0
 11
366.905548
 21
248.658394
 31
0.0
  0
LINE
  5
1B681
330
1B51B
100
AcDbEntity
  8
1
  6
Continuous
100
AcDbLine
 10
392.388306
 20
248.631481
 30
0.0
 11
392.3613919999998
 21
248.658394
 31
0.0
  0
LINE
  5
1B682
330
1B51B
100
AcDbEntity
  8
1
  6
Continuous
100
AcDbLine
 10
385.777843
 20
246.3174859999998
 30
0.0
 11
388.1187519999999
 21
248.658394
 31
0.0
  0
LINE
  5
1B683
330
1B51B
100
AcDbEntity
  8
1
  6
Continuous
100
AcDbLine
 10
392.388306
 20
248.658394
 30
0.0
 11
392.388306
 21
246.3174859999998
 31
0.0
  0
LINE
  5
1B684
330
1B51B
100
AcDbEntity
  8
1
  6
Continuous
100
AcDbLine
 10
387.8991629999999
 20
246.3174859999998
 30
0.0
 11
390.240072
 21
248.658394
 31
0.0
  0
LINE
  5
1B685
330
1B51B
100
AcDbEntity
  8
1
  6
Continuous
100
AcDbLine
 10
388.3383399999999
 20
246.3174859999998
 30
0.0
 11
385.997431
 21
248.658394
 31
0.0
  0
LINE
  5
1B686
330
1B51B
100
AcDbEntity
  8
1
  6
Continuous
100
AcDbLine
 10
390.4596599999999
 20
246.3174859999998
 30
0.0
 11
388.1187519999999
 21
248.658394
 31
0.0
  0
LINE
  5
1B687
330
1B51B
100
AcDbEntity
  8
1
  6
Continuous
100
AcDbLine
 10
390.020484
 20
246.3174859999998
 30
0.0
 11
392.3613919999998
 21
248.658394
 31
0.0
  0
LINE
  5
1B688
330
1B51B
100
AcDbEntity
  8
1
  6
Continuous
100
AcDbLine
 10
392.388306
 20
246.5101619999999
 30
0.0
 11
390.240072
 21
248.658394
 31
0.0
  0
LINE
  5
1B689
330
1B51B
100
AcDbEntity
  8
1
  6
Continuous
100
AcDbLine
 10
379.413882
 20
246.3174859999998
 30
0.0
 11
381.754791
 21
248.658394
 31
0.0
  0
LINE
  5
1B68A
330
1B51B
100
AcDbEntity
  8
1
  6
Continuous
100
AcDbLine
 10
381.974379
 20
246.3174859999998
 30
0.0
 11
379.63347
 21
248.658394
 31
0.0
  0
LINE
  5
1B68B
330
1B51B
100
AcDbEntity
  8
1
  6
Continuous
100
AcDbLine
 10
381.535202
 20
246.3174859999998
 30
0.0
 11
383.876111
 21
248.658394
 31
0.0
  0
LINE
  5
1B68C
330
1B51B
100
AcDbEntity
  8
1
  6
Continuous
100
AcDbLine
 10
384.095699
 20
246.3174859999998
 30
0.0
 11
381.754791
 21
248.658394
 31
0.0
  0
LINE
  5
1B68D
330
1B51B
100
AcDbEntity
  8
1
  6
Continuous
100
AcDbLine
 10
383.656523
 20
246.3174859999998
 30
0.0
 11
385.997431
 21
248.658394
 31
0.0
  0
LINE
  5
1B68E
330
1B51B
100
AcDbEntity
  8
1
  6
Continuous
100
AcDbLine
 10
386.2170199999998
 20
246.3174859999998
 30
0.0
 11
383.876111
 21
248.658394
 31
0.0
  0
LINE
  5
1B68F
330
1B51B
100
AcDbEntity
  8
1
  6
Continuous
100
AcDbLine
 10
391.376992
 20
250.639767
 30
0.0
 11
390.472235
 21
248.658394
 31
0.0
  0
LINE
  5
1B690
330
1B51B
100
AcDbEntity
  8
1
  6
Continuous
100
AcDbLine
 10
379.000306
 20
224.4868499999999
 30
0.0
 11
379.000306
 21
162.277024
 31
0.0
  0
LINE
  5
1B691
330
1B51B
100
AcDbEntity
  8
1
  6
Continuous
100
AcDbLine
 10
352.000306
 20
224.4868499999999
 30
0.0
 11
352.000306
 21
162.277024
 31
0.0
  0
LINE
  5
1B692
330
1B51B
100
AcDbEntity
  8
4
  6
CENTER
100
AcDbLine
 10
397.961003
 20
196.497003
 30
0.0
 11
333.039641
 21
196.497003
 31
0.0
  0
ARC
  5
1B693
330
1B51B
100
AcDbEntity
  8
1
  6
Continuous
100
AcDbCircle
 10
376.000306
 20
162.277024
 30
0.0
 40
3.0
100
AcDbArc
 50
273.0552839999999
 51
0.0
  0
ARC
  5
1B694
330
1B51B
100
AcDbEntity
  8
1
  6
Continuous
100
AcDbCircle
 10
365.500306
 20
358.9970029999999
 30
0.0
 40
200.0
100
AcDbArc
 50
266.944716
 51
273.0552839999999
  0
ARC
  5
1B695
330
1B51B
100
AcDbEntity
  8
1
  6
Continuous
100
AcDbCircle
 10
355.000306
 20
162.277024
 30
0.0
 40
3.0
100
AcDbArc
 50
180.0
 51
266.944716
  0
LINE
  5
1B696
330
1B51B
100
AcDbEntity
  8
1
  6
Continuous
100
AcDbLine
 10
350.250306
 20
204.9970029999998
 30
0.0
 11
350.250306
 21
187.997003
 31
0.0
  0
ARC
  5
1B697
330
1B51B
100
AcDbEntity
  8
1
  6
Continuous
100
AcDbCircle
 10
352.787913
 20
188.009321
 30
0.0
 40
2.537636999999997
100
AcDbArc
 50
180.278118
 51
251.91845
  0
ARC
  5
1B698
330
1B51B
100
AcDbEntity
  8
1
  6
Continuous
100
AcDbCircle
 10
352.787913
 20
204.984686
 30
0.0
 40
2.537636999999997
100
AcDbArc
 50
108.0815499999998
 51
179.7218819999999
  0
LINE
  5
1B699
330
1B51B
100
AcDbEntity
  8
1
  6
Continuous
100
AcDbLine
 10
350.250306
 20
201.997003
 30
0.0
 11
350.000306
 21
201.997003
 31
0.0
  0
LINE
  5
1B69A
330
1B51B
100
AcDbEntity
  8
1
  6
Continuous
100
AcDbLine
 10
350.000306
 20
200.4970029999999
 30
0.0
 11
349.829977
 21
200.4970029999999
 31
0.0
  0
LINE
  5
1B69B
330
1B51B
100
AcDbEntity
  8
1
  6
Continuous
100
AcDbLine
 10
350.000306
 20
200.4970029999999
 30
0.0
 11
349.829977
 21
200.4970029999999
 31
0.0
  0
LINE
  5
1B69C
330
1B51B
100
AcDbEntity
  8
1
  6
Continuous
100
AcDbLine
 10
350.000306
 20
192.497003
 30
0.0
 11
349.829977
 21
192.497003
 31
0.0
  0
LINE
  5
1B69D
330
1B51B
100
AcDbEntity
  8
1
  6
Continuous
100
AcDbLine
 10
350.250306
 20
190.997003
 30
0.0
 11
350.000306
 21
190.997003
 31
0.0
  0
LINE
  5
1B69E
330
1B51B
100
AcDbEntity
  8
1
  6
Continuous
100
AcDbLine
 10
350.000306
 20
201.997003
 30
0.0
 11
350.000306
 21
190.997003
 31
0.0
  0
ARC
  5
1B69F
330
1B51B
100
AcDbEntity
  8
1
  6
Continuous
100
AcDbCircle
 10
380.500306
 20
199.7847219999999
 30
0.0
 40
12.5
100
AcDbArc
 50
296.8207729999999
 51
21.436941
  0
ARC
  5
1B6A0
330
1B51B
100
AcDbEntity
  8
1
  6
Continuous
100
AcDbCircle
 10
388.8936089999999
 20
184.3442489999999
 30
0.0
 40
5.093474999999997
100
AcDbArc
 50
122.721231
 51
179.528657
  0
LINE
  5
1B6A1
330
1B51B
100
AcDbEntity
  8
1
  6
Continuous
100
AcDbLine
 10
380.750306
 20
204.9970029999998
 30
0.0
 11
380.750306
 21
187.997003
 31
0.0
  0
LINE
  5
1B6A2
330
1B51B
100
AcDbEntity
  8
1
  6
Continuous
100
AcDbLine
 10
383.8003059999999
 20
184.3861499999999
 30
0.0
 11
381.200306
 21
184.3861499999999
 31
0.0
  0
ARC
  5
1B6A3
330
1B51B
100
AcDbEntity
  8
1
  6
Continuous
100
AcDbCircle
 10
378.212699
 20
188.009321
 30
0.0
 40
2.537636999999997
100
AcDbArc
 50
288.08155
 51
359.721882
  0
ARC
  5
1B6A4
330
1B51B
100
AcDbEntity
  8
1
  6
Continuous
100
AcDbCircle
 10
378.212699
 20
204.984686
 30
0.0
 40
2.537636999999997
100
AcDbArc
 50
0.278118
 51
71.91845000000002
  0
LINE
  5
1B6A5
330
1B51B
100
AcDbEntity
  8
1
  6
Continuous
100
AcDbLine
 10
381.000306
 20
201.997003
 30
0.0
 11
380.750306
 21
201.997003
 31
0.0
  0
LINE
  5
1B6A6
330
1B51B
100
AcDbEntity
  8
1
  6
Continuous
100
AcDbLine
 10
381.170664
 20
200.4970029999999
 30
0.0
 11
381.000306
 21
200.4970029999999
 31
0.0
  0
LINE
  5
1B6A7
330
1B51B
100
AcDbEntity
  8
1
  6
Continuous
100
AcDbLine
 10
381.170664
 20
192.497003
 30
0.0
 11
381.000306
 21
192.497003
 31
0.0
  0
LINE
  5
1B6A8
330
1B51B
100
AcDbEntity
  8
1
  6
Continuous
100
AcDbLine
 10
381.000306
 20
190.997003
 30
0.0
 11
380.750306
 21
190.997003
 31
0.0
  0
LINE
  5
1B6A9
330
1B51B
100
AcDbEntity
  8
1
  6
Continuous
100
AcDbLine
 10
381.000306
 20
201.997003
 30
0.0
 11
381.000306
 21
190.997003
 31
0.0
  0
ARC
  5
1B6AA
330
1B51B
100
AcDbEntity
  8
1
  6
Continuous
100
AcDbCircle
 10
365.500306
 20
33.997003
 30
0.0
 40
200.0
100
AcDbArc
 50
87.35495500000004
 51
92.64504499999999
  0
ARC
  5
1B6AB
330
1B51B
100
AcDbEntity
  8
1
  6
Continuous
100
AcDbCircle
 10
308.382447
 20
175.432872
 30
0.0
 40
88.60569099999997
100
AcDbArc
 50
19.050015
 51
42.52376499999999
  0
LINE
  5
1B6AC
330
1B51B
100
AcDbEntity
  8
1
  6
Continuous
100
AcDbLine
 10
79.70014999999998
 20
239.092224
 30
0.0
 11
79.70014999999998
 21
221.1255819999998
 31
0.0
  0
LINE
  5
1B6AD
330
1B51B
100
AcDbEntity
  8
1
  6
Continuous
100
AcDbLine
 10
48.30015
 20
239.092224
 30
0.0
 11
48.30015
 21
184.3861499999999
 31
0.0
  0
LINE
  5
1B6AE
330
1B51B
100
AcDbEntity
  8
1
  6
Continuous
100
AcDbLine
 10
45.70015
 20
239.692224
 30
0.0
 11
45.70015
 21
184.3861499999999
 31
0.0
  0
ARC
  5
1B6AF
330
1B51B
100
AcDbEntity
  8
1
  6
Continuous
100
AcDbCircle
 10
49.70015
 20
239.692224
 30
0.0
 40
4.0
100
AcDbArc
 50
90.0
 51
180.0
  0
LINE
  5
1B6B0
330
1B51B
100
AcDbEntity
  8
1
  6
Continuous
100
AcDbLine
 10
50.30015
 20
241.092224
 30
0.0
 11
77.70014999999998
 21
241.092224
 31
0.0
  0
ARC
  5
1B6B1
330
1B51B
100
AcDbEntity
  8
1
  6
Continuous
100
AcDbCircle
 10
50.30015
 20
239.092224
 30
0.0
 40
2.0
100
AcDbArc
 50
90.0
 51
180.0
  0
LINE
  5
1B6B2
330
1B51B
100
AcDbEntity
  8
1
  6
Continuous
100
AcDbLine
 10
82.30014999999999
 20
239.692224
 30
0.0
 11
82.30014999999999
 21
218.0758839999998
 31
0.0
  0
ARC
  5
1B6B3
330
1B51B
100
AcDbEntity
  8
1
  6
Continuous
100
AcDbCircle
 10
77.70014999999998
 20
239.092224
 30
0.0
 40
2.0
100
AcDbArc
 50
0.0
 51
90.0
  0
ARC
  5
1B6B4
330
1B51B
100
AcDbEntity
  8
1
  6
Continuous
100
AcDbCircle
 10
78.30015
 20
239.692224
 30
0.0
 40
4.0
100
AcDbArc
 50
0.0
 51
90.0
  0
LINE
  5
1B6B5
330
1B51B
100
AcDbEntity
  8
1
  6
Continuous
100
AcDbLine
 10
349.8003059999998
 20
221.182229
 30
0.0
 11
349.8003059999998
 21
184.3861499999999
 31
0.0
  0
ARC
  5
1B6B6
330
1B51B
100
AcDbEntity
  8
1
  6
Continuous
100
AcDbCircle
 10
380.4846299999999
 20
199.7983859999999
 30
0.0
 40
9.919269999999999
100
AcDbArc
 50
296.865972
 51
20.08549899999999
  0
ARC
  5
1B6B7
330
1B51B
100
AcDbEntity
  8
1
  6
Continuous
100
AcDbCircle
 10
312.605317
 20
177.4107859999998
 30
0.0
 40
81.39072699999998
100
AcDbArc
 50
18.47657299999999
 51
35.33779899999998
  0
LINE
  5
1B6B8
330
1B51B
100
AcDbEntity
  8
1
  6
Continuous
100
AcDbLine
 10
381.200306
 20
221.182229
 30
0.0
 11
381.200306
 21
184.3861499999999
 31
0.0
  0
ARC
  5
1B6B9
330
1B51B
100
AcDbEntity
  8
1
  6
Continuous
100
AcDbCircle
 10
388.860545
 20
184.353258
 30
0.0
 40
7.659749999999998
100
AcDbArc
 50
120.549768
 51
179.753957
  0
ARC
  5
1B6BA
330
1B51B
100
AcDbEntity
  8
1
  6
Continuous
100
AcDbCircle
 10
427.5512899999998
 20
252.416548
 30
0.0
 40
56.011304
100
AcDbArc
 50
198.778904
 51
209.910325
  0
ARC
  5
1B6BB
330
1B51B
100
AcDbEntity
  8
1
  6
Continuous
100
AcDbCircle
 10
303.4493219999998
 20
252.416548
 30
0.0
 40
56.011304
100
AcDbArc
 50
330.089675
 51
341.2210959999999
  0
LINE
  5
1B6BC
330
1B51B
100
AcDbEntity
  8
1
  6
Continuous
100
AcDbLine
 10
43.20015
 20
189.4970029999998
 30
0.0
 11
43.20015
 21
203.497003
 31
0.0
  0
ARC
  5
1B6BD
330
1B51B
100
AcDbEntity
  8
1
  6
Continuous
100
AcDbCircle
 10
52.20015
 20
196.497003
 30
0.0
 40
11.40175399999999
100
AcDbArc
 50
142.1250159999999
 51
164.744881
  0
LINE
  5
1B6BE
330
1B51B
100
AcDbEntity
  8
1
  6
Continuous
100
AcDbLine
 10
43.20015
 20
189.4970029999998
 30
0.0
 11
45.70015
 21
189.4970029999998
 31
0.0
  0
ARC
  5
1B6BF
330
1B51B
100
AcDbEntity
  8
1
  6
Continuous
100
AcDbCircle
 10
52.20015
 20
196.497003
 30
0.0
 40
11.40175399999999
100
AcDbArc
 50
195.255119
 51
217.874984
  0
LINE
  5
1B6C0
330
1B51B
100
AcDbEntity
  8
1
  6
Continuous
100
AcDbLine
 10
41.20015
 20
193.497003
 30
0.0
 11
41.20015
 21
199.497003
 31
0.0
  0
LINE
  5
1B6C1
330
1B51B
100
AcDbEntity
  8
1
  6
Continuous
100
AcDbLine
 10
43.20015
 20
203.497003
 30
0.0
 11
45.70015
 21
203.497003
 31
0.0
  0
LINE
  5
1B6C2
330
1B51B
100
AcDbEntity
  8
1
  6
Continuous
100
AcDbLine
 10
92.472252
 20
203.4252069999999
 30
0.0
 11
93.00815
 21
202.4970029999999
 31
0.0
  0
ARC
  5
1B6C3
330
1B51B
100
AcDbEntity
  8
1
  6
Continuous
100
AcDbCircle
 10
89.94116299999998
 20
201.6931559999999
 30
0.0
 40
3.066986999999998
100
AcDbArc
 50
325.6157529999999
 51
25.615753
  0
LINE
  5
1B6C4
330
1B51B
100
AcDbEntity
  8
1
  6
Continuous
100
AcDbLine
 10
88.00815
 20
192.444309
 30
0.0
 11
88.00815
 21
189.4970029999998
 31
0.0
  0
ARC
  5
1B6C5
330
1B51B
100
AcDbEntity
  8
1
  6
Continuous
100
AcDbCircle
 10
91.075137
 20
191.300851
 30
0.0
 40
3.066986999999998
100
AcDbArc
 50
148.895474
 51
205.615753
  0
LINE
  5
1B6C6
330
1B51B
100
AcDbEntity
  8
1
  6
Continuous
100
AcDbLine
 10
88.54404800000002
 20
189.5687999999999
 30
0.0
 11
88.00815
 21
190.497003
 31
0.0
  0
LINE
  5
1B6C7
330
1B51B
100
AcDbEntity
  8
1
  6
Continuous
100
AcDbLine
 10
94.90815000000001
 20
199.297003
 30
0.0
 11
93.70815
 21
200.4970029999999
 31
0.0
  0
LINE
  5
1B6C8
330
1B51B
100
AcDbEntity
  8
2
  6
Continuous
100
AcDbLine
 10
94.38464999999998
 20
193.173503
 30
0.0
 11
93.00815
 21
193.173503
 31
0.0
  0
LINE
  5
1B6C9
330
1B51B
100
AcDbEntity
  8
2
  6
Continuous
100
AcDbLine
 10
94.38464999999998
 20
199.820503
 30
0.0
 11
93.00815
 21
199.820503
 31
0.0
  0
LINE
  5
1B6CA
330
1B51B
100
AcDbEntity
  8
1
  6
Continuous
100
AcDbLine
 10
93.00815
 20
200.4970029999999
 30
0.0
 11
93.70815
 21
200.4970029999999
 31
0.0
  0
LINE
  5
1B6CB
330
1B51B
100
AcDbEntity
  8
1
  6
Continuous
100
AcDbLine
 10
94.90815000000001
 20
199.297003
 30
0.0
 11
94.90815000000001
 21
193.6970029999999
 31
0.0
  0
LINE
  5
1B6CC
330
1B51B
100
AcDbEntity
  8
1
  6
Continuous
100
AcDbLine
 10
93.00815
 20
192.497003
 30
0.0
 11
93.70815
 21
192.497003
 31
0.0
  0
LINE
  5
1B6CD
330
1B51B
100
AcDbEntity
  8
1
  6
Continuous
100
AcDbLine
 10
94.90815000000001
 20
193.6970029999999
 30
0.0
 11
93.70815
 21
192.497003
 31
0.0
  0
LINE
  5
1B6CE
330
1B51B
100
AcDbEntity
  8
1
  6
Continuous
100
AcDbLine
 10
93.70815
 20
200.4970029999999
 30
0.0
 11
93.70815
 21
192.497003
 31
0.0
  0
LINE
  5
1B6CF
330
1B51B
100
AcDbEntity
  8
1
  6
Continuous
100
AcDbLine
 10
92.472252
 20
199.961105
 30
0.0
 11
89.83883399999998
 21
199.961105
 31
0.0
  0
ARC
  5
1B6D0
330
1B51B
100
AcDbEntity
  8
1
  6
Continuous
100
AcDbCircle
 10
89.94116299999998
 20
191.300851
 30
0.0
 40
3.066986999999998
100
AcDbArc
 50
334.384247
 51
34.38424699999998
  0
LINE
  5
1B6D1
330
1B51B
100
AcDbEntity
  8
1
  6
Continuous
100
AcDbLine
 10
92.472252
 20
193.032902
 30
0.0
 11
88.596745
 21
193.032902
 31
0.0
  0
LINE
  5
1B6D2
330
1B51B
100
AcDbEntity
  8
1
  6
Continuous
100
AcDbLine
 10
92.472252
 20
189.5687999999999
 30
0.0
 11
88.54404800000002
 21
189.5687999999999
 31
0.0
  0
LINE
  5
1B6D3
330
1B51B
100
AcDbEntity
  8
1
  6
Continuous
100
AcDbLine
 10
92.472252
 20
189.5687999999999
 30
0.0
 11
93.00815
 21
190.497003
 31
0.0
  0
ARC
  5
1B6D4
330
1B51B
100
AcDbEntity
  8
1
  6
Continuous
100
AcDbCircle
 10
81.544048
 20
196.497003
 30
0.0
 40
11.464102
100
AcDbArc
 50
342.4120459999999
 51
17.587954
  0
LINE
  5
1B6D5
330
1B51B
100
AcDbEntity
  8
1
  6
Continuous
100
AcDbLine
 10
93.00815
 20
202.4970029999999
 30
0.0
 11
93.00815
 21
190.497003
 31
0.0
  0
LINE
  5
1B6D6
330
1B51B
100
AcDbEntity
  8
1
  6
Continuous
100
AcDbLine
 10
92.472252
 20
203.4252069999999
 30
0.0
 11
89.05505299999999
 21
203.4252069999999
 31
0.0
  0
LINE
  5
1B6D7
330
1B51B
100
AcDbEntity
  8
1
  6
Continuous
100
AcDbLine
 10
336.4923059999999
 20
201.87704
 30
0.0
 11
336.4923059999999
 21
202.4970029999999
 31
0.0
  0
LINE
  5
1B6D8
330
1B51B
100
AcDbEntity
  8
1
  6
Continuous
100
AcDbLine
 10
337.028204
 20
203.4252069999999
 30
0.0
 11
336.4923059999999
 21
202.4970029999999
 31
0.0
  0
LINE
  5
1B6D9
330
1B51B
100
AcDbEntity
  8
1
  6
Continuous
100
AcDbLine
 10
337.028204
 20
203.4252069999999
 30
0.0
 11
338.000306
 21
203.4252069999999
 31
0.0
  0
ARC
  5
1B6DA
330
1B51B
100
AcDbEntity
  8
1
  6
Continuous
100
AcDbCircle
 10
339.559293
 20
201.6931559999999
 30
0.0
 40
3.066986999999998
100
AcDbArc
 50
154.3842469999999
 51
176.486197
  0
CIRCLE
  5
1B6DC
330
1B51B
100
AcDbEntity
  8
2
  6
Continuous
100
AcDbCircle
 10
200.500153
 20
196.497003
 30
0.0
 40
3.3235
  0
CIRCLE
  5
1B6DD
330
1B51B
100
AcDbEntity
  8
1
  6
Continuous
100
AcDbCircle
 10
200.500153
 20
196.497003
 30
0.0
 40
4.0
  0
CIRCLE
  5
1B6DE
330
1B51B
100
AcDbEntity
  8
1
  6
Continuous
100
AcDbCircle
 10
200.500153
 20
196.497003
 30
0.0
 40
2.799999999999998
  0
LINE
  5
1B6DF
330
1B51B
100
AcDbEntity
  8
1
  6
Continuous
100
AcDbLine
 10
196.6172639999999
 20
241.092224
 30
0.0
 11
191.4301529999999
 21
241.092224
 31
0.0
  0
ARC
  5
1B6E0
330
1B51B
100
AcDbEntity
  8
1
  6
Continuous
100
AcDbCircle
 10
227.5003209999999
 20
79.998502
 30
0.0
 40
34.618797
100
AcDbArc
 50
221.193321
 51
63.185579
  0
ARC
  5
1B6E1
330
1B51B
100
AcDbEntity
  8
1
  6
Continuous
100
AcDbCircle
 10
258.5003209999998
 20
48.998502
 30
0.0
 40
8.0
100
AcDbArc
 50
268.8910839999999
 51
1.108916
  0
LINE
  5
1B6E2
330
1B51B
100
AcDbEntity
  8
4
  6
CENTER
100
AcDbLine
 10
267.0003209999998
 20
48.998502
 30
0.0
 11
250.000321
 21
48.998502
 31
0.0
  0
CIRCLE
  5
1B6E3
330
1B51B
100
AcDbEntity
  8
1
  6
Continuous
100
AcDbCircle
 10
258.5003209999998
 20
48.998502
 30
0.0
 40
4.25
  0
ARC
  5
1B6E4
330
1B51B
100
AcDbEntity
  8
1
  6
Continuous
100
AcDbCircle
 10
258.5003209999998
 20
110.998502
 30
0.0
 40
8.0
100
AcDbArc
 50
358.891084
 51
91.10891600000002
  0
LINE
  5
1B6E5
330
1B51B
100
AcDbEntity
  8
4
  6
CENTER
100
AcDbLine
 10
267.0003209999998
 20
110.998502
 30
0.0
 11
250.000321
 21
110.998502
 31
0.0
  0
CIRCLE
  5
1B6E6
330
1B51B
100
AcDbEntity
  8
1
  6
Continuous
100
AcDbCircle
 10
258.5003209999998
 20
110.998502
 30
0.0
 40
4.25
  0
LINE
  5
1B6E7
330
1B51B
100
AcDbEntity
  8
4
  6
CENTER
100
AcDbLine
 10
271.2003209999999
 20
79.998502
 30
0.0
 11
162.4497389999999
 21
79.998502
 31
0.0
  0
ARC
  5
1B6E8
330
1B51B
100
AcDbEntity
  8
1
  6
Continuous
100
AcDbCircle
 10
227.5003209999999
 20
79.998502
 30
0.0
 40
27.49995999999999
100
AcDbArc
 50
223.3410389999999
 51
55.397635
  0
LINE
  5
1B6E9
330
1B51B
100
AcDbEntity
  8
4
  6
CENTER
100
AcDbLine
 10
200.500113
 20
52.24875
 30
0.0
 11
200.500113
 21
115.906525
 31
0.0
  0
LINE
  5
1B6EA
330
1B51B
100
AcDbEntity
  8
4
  6
CENTER
100
AcDbLine
 10
227.5003209999999
 20
123.698502
 30
0.0
 11
227.5003209999999
 21
36.29850199999999
 31
0.0
  0
LINE
  5
1B6EB
330
1B51B
100
AcDbEntity
  8
1
  6
Continuous
100
AcDbLine
 10
195.000113
 20
64.49839899999999
 30
0.0
 11
206.0001129999998
 21
64.49839899999999
 31
0.0
  0
ARC
  5
1B6EC
330
1B51B
100
AcDbEntity
  8
1
  6
Continuous
100
AcDbCircle
 10
200.500113
 20
68.19850200000001
 30
0.0
 40
11.40175399999999
100
AcDbArc
 50
232.1250159999999
 51
254.744881
  0
LINE
  5
1B6ED
330
1B51B
100
AcDbEntity
  8
1
  6
Continuous
100
AcDbLine
 10
192.0001129999999
 20
64.74839899999999
 30
0.0
 11
209.000113
 21
64.74839899999999
 31
0.0
  0
LINE
  5
1B6EE
330
1B51B
100
AcDbEntity
  8
1
  6
Continuous
100
AcDbLine
 10
207.5001129999999
 20
59.19850199999999
 30
0.0
 11
193.500113
 21
59.19850199999999
 31
0.0
  0
LINE
  5
1B6EF
330
1B51B
100
AcDbEntity
  8
1
  6
Continuous
100
AcDbLine
 10
206.885658
 20
61.69850199999999
 30
0.0
 11
188.21773
 21
61.69850199999999
 31
0.0
  0
LINE
  5
1B6F0
330
1B51B
100
AcDbEntity
  8
1
  6
Continuous
100
AcDbLine
 10
206.885658
 20
64.298502
 30
0.0
 11
188.21773
 21
64.298502
 31
0.0
  0
LINE
  5
1B6F1
330
1B51B
100
AcDbEntity
  8
4
  6
CENTER
100
AcDbLine
 10
205.0003209999999
 20
48.998502
 30
0.0
 11
188.0003209999999
 21
48.998502
 31
0.0
  0
CIRCLE
  5
1B6F2
330
1B51B
100
AcDbEntity
  8
1
  6
Continuous
100
AcDbCircle
 10
196.5003209999999
 20
48.998502
 30
0.0
 40
4.25
  0
ARC
  5
1B6F3
330
1B51B
100
AcDbEntity
  8
1
  6
Continuous
100
AcDbCircle
 10
196.5003209999999
 20
48.998502
 30
0.0
 40
8.0
100
AcDbArc
 50
178.8910839999998
 51
271.108916
  0
ARC
  5
1B6F4
330
1B51B
100
AcDbEntity
  8
1
  6
Continuous
100
AcDbCircle
 10
-1405.016344999999
 20
79.998502
 30
0.0
 40
1593.816667
100
AcDbArc
 50
359.4355949999999
 51
359.514682
  0
ARC
  5
1B6F5
330
1B51B
100
AcDbEntity
  8
1
  6
Continuous
100
AcDbCircle
 10
192.012431
 20
67.286006
 30
0.0
 40
2.537636999999997
100
AcDbArc
 50
198.08155
 51
269.7218819999998
  0
LINE
  5
1B6F6
330
1B51B
100
AcDbEntity
  8
1
  6
Continuous
100
AcDbLine
 10
195.000113
 20
64.74839899999999
 30
0.0
 11
195.000113
 21
64.49839899999999
 31
0.0
  0
LINE
  5
1B6F7
330
1B51B
100
AcDbEntity
  8
1
  6
Continuous
100
AcDbLine
 10
193.500113
 20
59.19850199999999
 30
0.0
 11
193.500113
 21
61.69850199999999
 31
0.0
  0
LINE
  5
1B6F8
330
1B51B
100
AcDbEntity
  8
1
  6
Continuous
100
AcDbLine
 10
188.21773
 20
61.69850199999999
 30
0.0
 11
188.21773
 21
64.298502
 31
0.0
  0
ARC
  5
1B6F9
330
1B51B
100
AcDbEntity
  8
1
  6
Continuous
100
AcDbCircle
 10
-1405.016344999999
 20
79.998502
 30
0.0
 40
1593.816667
100
AcDbArc
 50
358.891084
 51
359.342123
  0
LINE
  5
1B6FA
330
1B51B
100
AcDbEntity
  8
4
  6
CENTER
100
AcDbLine
 10
258.5003209999998
 20
57.498502
 30
0.0
 11
258.5003209999998
 21
40.498502
 31
0.0
  0
LINE
  5
1B6FB
330
1B51B
100
AcDbEntity
  8
4
  6
CENTER
100
AcDbLine
 10
196.5003209999999
 20
57.498502
 30
0.0
 11
196.5003209999999
 21
40.498502
 31
0.0
  0
ARC
  5
1B6FC
330
1B51B
100
AcDbEntity
  8
1
  6
Continuous
100
AcDbCircle
 10
227.5003209999999
 20
-1552.518165
 30
0.0
 40
1593.816667
100
AcDbArc
 50
88.89108399999996
 51
91.10891600000002
  0
ARC
  5
1B6FD
330
1B51B
100
AcDbEntity
  8
1
  6
Continuous
100
AcDbCircle
 10
208.9877949999999
 20
67.286006
 30
0.0
 40
2.537636999999997
100
AcDbArc
 50
270.278118
 51
341.91845
  0
ARC
  5
1B6FE
330
1B51B
100
AcDbEntity
  8
1
  6
Continuous
100
AcDbCircle
 10
239.2095639999999
 20
92.280052
 30
0.0
 40
43.12437599999999
100
AcDbArc
 50
226.835039
 51
243.2068799999999
  0
ARC
  5
1B6FF
330
1B51B
100
AcDbEntity
  8
1
  6
Continuous
100
AcDbCircle
 10
238.8044059999999
 20
92.100439
 30
0.0
 40
40.147421
100
AcDbArc
 50
226.513902
 51
243.894495
  0
ARC
  5
1B700
330
1B51B
100
AcDbEntity
  8
1
  6
Continuous
100
AcDbCircle
 10
206.885658
 20
56.69850199999999
 30
0.0
 40
5.0
100
AcDbArc
 50
55.632842
 51
90.0
  0
ARC
  5
1B701
330
1B51B
100
AcDbEntity
  8
1
  6
Continuous
100
AcDbCircle
 10
206.885658
 20
56.69850199999999
 30
0.0
 40
7.599999999999998
100
AcDbArc
 50
55.632842
 51
90.0
  0
LINE
  5
1B702
330
1B51B
100
AcDbEntity
  8
1
  6
Continuous
100
AcDbLine
 10
204.500113
 20
64.49839899999999
 30
0.0
 11
204.500113
 21
64.29839900000001
 31
0.0
  0
LINE
  5
1B703
330
1B51B
100
AcDbEntity
  8
1
  6
Continuous
100
AcDbLine
 10
206.0001129999998
 20
64.74839899999999
 30
0.0
 11
206.0001129999998
 21
64.49839899999999
 31
0.0
  0
LINE
  5
1B704
330
1B51B
100
AcDbEntity
  8
1
  6
Continuous
100
AcDbLine
 10
196.500113
 20
64.49839899999999
 30
0.0
 11
196.500113
 21
64.29839900000001
 31
0.0
  0
LINE
  5
1B705
330
1B51B
100
AcDbEntity
  8
1
  6
Continuous
100
AcDbLine
 10
203.5001129999999
 20
57.19850199999999
 30
0.0
 11
197.500113
 21
57.19850199999999
 31
0.0
  0
LINE
  5
1B706
330
1B51B
100
AcDbEntity
  8
1
  6
Continuous
100
AcDbLine
 10
207.5001129999999
 20
59.19850199999999
 30
0.0
 11
207.5001129999999
 21
61.610355
 31
0.0
  0
ARC
  5
1B707
330
1B51B
100
AcDbEntity
  8
1
  6
Continuous
100
AcDbCircle
 10
200.500113
 20
68.19850200000001
 30
0.0
 40
11.40175399999999
100
AcDbArc
 50
285.2551189999999
 51
307.8749839999999
  0
ARC
  5
1B708
330
1B51B
100
AcDbEntity
  8
1
  6
Continuous
100
AcDbCircle
 10
197.500113
 20
112.6715879999999
 30
0.0
 40
8.665063999999999
100
AcDbArc
 50
249.7438419999999
 51
290.256158
  0
ARC
  5
1B709
330
1B51B
100
AcDbEntity
  8
1
  6
Continuous
100
AcDbCircle
 10
197.500113
 20
100.3414609999999
 30
0.0
 40
8.665063999999999
100
AcDbArc
 50
69.743842
 51
110.256158
  0
LINE
  5
1B70A
330
1B51B
100
AcDbEntity
  8
1
  6
Continuous
100
AcDbLine
 10
194.5001129999999
 20
109.006525
 30
0.0
 11
206.500113
 21
109.006525
 31
0.0
  0
LINE
  5
1B70B
330
1B51B
100
AcDbEntity
  8
1
  6
Continuous
100
AcDbLine
 10
193.500113
 20
104.006525
 30
0.0
 11
205.8074249999999
 21
104.006525
 31
0.0
  0
LINE
  5
1B70C
330
1B51B
100
AcDbEntity
  8
4
  6
CENTER
100
AcDbLine
 10
205.0003209999999
 20
110.998502
 30
0.0
 11
188.0003209999999
 21
110.998502
 31
0.0
  0
ARC
  5
1B70D
330
1B51B
100
AcDbEntity
  8
1
  6
Continuous
100
AcDbCircle
 10
196.5003209999999
 20
110.998502
 30
0.0
 40
4.25
100
AcDbArc
 50
358.7599319999998
 51
241.9243369999998
  0
ARC
  5
1B70E
330
1B51B
100
AcDbEntity
  8
1
  6
Continuous
100
AcDbCircle
 10
196.5003209999999
 20
110.998502
 30
0.0
 40
8.0
100
AcDbArc
 50
88.89108399999996
 51
181.1089159999999
  0
ARC
  5
1B70F
330
1B51B
100
AcDbEntity
  8
1
  6
Continuous
100
AcDbCircle
 10
-1405.016344999999
 20
79.998502
 30
0.0
 40
1593.816667
100
AcDbArc
 50
0.6758520000000001
 51
0.7264730000000002
  0
LINE
  5
1B710
330
1B51B
100
AcDbEntity
  8
1
  6
Continuous
100
AcDbLine
 10
194.5001129999999
 20
109.006525
 30
0.0
 11
194.5001129999999
 21
104.006525
 31
0.0
  0
ARC
  5
1B711
330
1B51B
100
AcDbEntity
  8
1
  6
Continuous
100
AcDbCircle
 10
192.012431
 20
92.71079099999999
 30
0.0
 40
2.537636999999997
100
AcDbArc
 50
98.18256400000002
 51
161.91845
  0
ARC
  5
1B712
330
1B51B
100
AcDbEntity
  8
1
  6
Continuous
100
AcDbCircle
 10
-1405.016344999999
 20
79.998502
 30
0.0
 40
1593.816667
100
AcDbArc
 50
0.485311
 51
0.549784
  0
ARC
  5
1B713
330
1B51B
100
AcDbEntity
  8
1
  6
Continuous
100
AcDbCircle
 10
227.5003209999999
 20
1712.515169
 30
0.0
 40
1593.816667
100
AcDbArc
 50
268.8910839999999
 51
269.905068
  0
LINE
  5
1B714
330
1B51B
100
AcDbEntity
  8
4
  6
CENTER
100
AcDbLine
 10
196.5003209999999
 20
119.498502
 30
0.0
 11
196.5003209999999
 21
102.498502
 31
0.0
  0
ARC
  5
1B715
330
1B51B
100
AcDbEntity
  8
1
  6
Continuous
100
AcDbCircle
 10
239.8608589999998
 20
66.58743100000001
 30
0.0
 40
41.82449499999999
100
AcDbArc
 50
116.8946429999998
 51
121.5111899999999
  0
ARC
  5
1B716
330
1B51B
100
AcDbEntity
  8
1
  6
Continuous
100
AcDbCircle
 10
239.2095639999999
 20
67.71695099999999
 30
0.0
 40
43.12437599999999
100
AcDbArc
 50
116.7931199999999
 51
121.327602
  0
LINE
  5
1B717
330
1B51B
100
AcDbEntity
  8
1
  6
Continuous
100
AcDbLine
 10
200.500113
 20
104.542423
 30
0.0
 11
200.500113
 21
108.4706269999999
 31
0.0
  0
LINE
  5
1B718
330
1B51B
100
AcDbEntity
  8
1
  6
Continuous
100
AcDbLine
 10
206.500113
 20
109.006525
 30
0.0
 11
206.500113
 21
104.4770619999999
 31
0.0
  0
ARC
  5
1B719
330
1B51B
100
AcDbEntity
  8
1
  6
Continuous
100
AcDbCircle
 10
203.5001129999999
 20
112.6715879999999
 30
0.0
 40
8.665063999999999
100
AcDbArc
 50
249.7438419999999
 51
290.256158
  0
ARC
  5
1B71A
330
1B51B
100
AcDbEntity
  8
1
  6
Continuous
100
AcDbCircle
 10
203.5001129999999
 20
100.3414609999999
 30
0.0
 40
8.665063999999999
100
AcDbArc
 50
69.743842
 51
110.256158
  0
LINE
  5
1B71B
330
1B51B
100
AcDbEntity
  8
1
  6
Continuous
100
AcDbLine
 10
196.500113
 20
109.006525
 30
0.0
 11
196.500113
 21
109.7065249999999
 31
0.0
  0
LINE
  5
1B71C
330
1B51B
100
AcDbEntity
  8
2
  6
Continuous
100
AcDbLine
 10
197.1766129999998
 20
110.383025
 30
0.0
 11
197.1766129999998
 21
109.006525
 31
0.0
  0
LINE
  5
1B71D
330
1B51B
100
AcDbEntity
  8
1
  6
Continuous
100
AcDbLine
 10
196.500113
 20
109.7065249999999
 30
0.0
 11
204.500113
 21
109.7065249999999
 31
0.0
  0
LINE
  5
1B71E
330
1B51B
100
AcDbEntity
  8
1
  6
Continuous
100
AcDbLine
 10
197.7001129999999
 20
110.906525
 30
0.0
 11
196.500113
 21
109.7065249999999
 31
0.0
  0
LINE
  5
1B71F
330
1B51B
100
AcDbEntity
  8
1
  6
Continuous
100
AcDbLine
 10
197.7001129999999
 20
110.906525
 30
0.0
 11
203.3001129999999
 21
110.906525
 31
0.0
  0
LINE
  5
1B720
330
1B51B
100
AcDbEntity
  8
2
  6
Continuous
100
AcDbLine
 10
203.823613
 20
110.383025
 30
0.0
 11
203.823613
 21
109.006525
 31
0.0
  0
LINE
  5
1B721
330
1B51B
100
AcDbEntity
  8
1
  6
Continuous
100
AcDbLine
 10
203.3001129999999
 20
110.906525
 30
0.0
 11
204.500113
 21
109.7065249999999
 31
0.0
  0
LINE
  5
1B722
330
1B51B
100
AcDbEntity
  8
1
  6
Continuous
100
AcDbLine
 10
204.500113
 20
109.006525
 30
0.0
 11
204.500113
 21
109.7065249999999
 31
0.0
  0
ARC
  5
1B723
330
1B51B
100
AcDbEntity
  8
1
  6
Continuous
100
AcDbCircle
 10
208.9877949999999
 20
92.71079099999999
 30
0.0
 40
2.537636999999997
100
AcDbArc
 50
18.08155
 51
54.52672299999999
  0
LINE
  5
1B724
330
1B51B
100
AcDbEntity
  8
4
  6
CENTER
100
AcDbLine
 10
258.5003209999998
 20
119.498502
 30
0.0
 11
258.5003209999998
 21
102.498502
 31
0.0
  0
ARC
  5
1B725
330
1B51B
100
AcDbEntity
  8
1
  6
Continuous
100
AcDbCircle
 10
1860.016987999999
 20
79.998502
 30
0.0
 40
1593.816667
100
AcDbArc
 50
178.8910839999998
 51
181.1089159999999
  0
ARC
  5
1B726
330
1B51B
100
AcDbEntity
  8
1
  6
Continuous
100
AcDbCircle
 10
362.9997389999999
 20
79.998605
 30
0.0
 40
200.0
100
AcDbArc
 50
176.944716
 51
183.055284
  0
ARC
  5
1B727
330
1B51B
100
AcDbEntity
  8
1
  6
Continuous
100
AcDbCircle
 10
166.279761
 20
69.49860499999998
 30
0.0
 40
3.0
100
AcDbArc
 50
183.055284
 51
270.0
  0
ARC
  5
1B728
330
1B51B
100
AcDbEntity
  8
1
  6
Continuous
100
AcDbCircle
 10
166.279761
 20
90.49860499999999
 30
0.0
 40
3.0
100
AcDbArc
 50
90.0
 51
176.944716
  0
LINE
  5
1B729
330
1B51B
100
AcDbEntity
  8
1
  6
Continuous
100
AcDbLine
 10
234.720465
 20
93.498605
 30
0.0
 11
166.279761
 21
93.498605
 31
0.0
  0
LINE
  5
1B72A
330
1B51B
100
AcDbEntity
  8
1
  6
Continuous
100
AcDbLine
 10
234.720465
 20
66.49860499999999
 30
0.0
 11
166.279761
 21
66.49860499999999
 31
0.0
  0
ARC
  5
1B72B
330
1B51B
100
AcDbEntity
  8
1
  6
Continuous
100
AcDbCircle
 10
234.720465
 20
90.49860499999999
 30
0.0
 40
3.0
100
AcDbArc
 50
3.055283999999999
 51
90.0
  0
ARC
  5
1B72C
330
1B51B
100
AcDbEntity
  8
1
  6
Continuous
100
AcDbCircle
 10
38.00048699999999
 20
79.998605
 30
0.0
 40
200.0
100
AcDbArc
 50
356.9447160000001
 51
3.055283999999999
  0
ARC
  5
1B72D
330
1B51B
100
AcDbEntity
  8
1
  6
Continuous
100
AcDbCircle
 10
234.720465
 20
69.49860499999998
 30
0.0
 40
3.0
100
AcDbArc
 50
270.0
 51
356.9447160000001
  0
ARC
  5
1B72E
330
1B51B
100
AcDbEntity
  8
1
  6
Continuous
100
AcDbCircle
 10
223.1962289999999
 20
99.427429
 30
0.0
 40
7.599999999999998
100
AcDbArc
 50
102.4910129999999
 51
116.7931199999999
  0
ARC
  5
1B72F
330
1B51B
100
AcDbEntity
  8
1
  6
Continuous
100
AcDbCircle
 10
223.1962289999999
 20
60.569575
 30
0.0
 40
7.599999999999998
100
AcDbArc
 50
243.2068799999999
 51
257.5089869999998
  0
CIRCLE
  5
1B730
330
1B51B
100
AcDbEntity
  8
1
  6
Continuous
100
AcDbCircle
 10
227.5006789999999
 20
335.99527
 30
0.0
 40
28.35
  0
LINE
  5
1B731
330
1B51B
100
AcDbEntity
  8
1
  6
Continuous
100
AcDbLine
 10
188.21773
 20
351.69527
 30
0.0
 11
188.21773
 21
354.29527
 31
0.0
  0
LINE
  5
1B732
330
1B51B
100
AcDbEntity
  8
1
  6
Continuous
100
AcDbLine
 10
188.6956169999999
 20
354.29527
 30
0.0
 11
188.21773
 21
354.29527
 31
0.0
  0
LINE
  5
1B733
330
1B51B
100
AcDbEntity
  8
1
  6
Continuous
100
AcDbLine
 10
188.723351
 20
351.69527
 30
0.0
 11
188.21773
 21
351.69527
 31
0.0
  0
LINE
  5
1B734
330
1B51B
100
AcDbEntity
  8
4
  6
CENTER
100
AcDbLine
 10
200.500153
 20
292.065829
 30
0.0
 11
200.500153
 21
379.9247119999998
 31
0.0
  0
ARC
  5
1B735
330
1B51B
100
AcDbEntity
  8
1
  6
Continuous
100
AcDbCircle
 10
530.500459
 20
196.497003
 30
0.0
 40
37.5
100
AcDbArc
 50
182.0719399999999
 51
87.94143000000003
  0
ARC
  5
1B736
330
1B51B
100
AcDbEntity
  8
1
  6
Continuous
100
AcDbCircle
 10
530.500459
 20
196.497003
 30
0.0
 40
27.5
100
AcDbArc
 50
197.27077
 51
86.81422800000001
  0
LINE
  5
1B737
330
1B51B
100
AcDbEntity
  8
4
  6
CENTER
100
AcDbLine
 10
530.500459
 20
153.997003
 30
0.0
 11
530.500459
 21
238.9970029999998
 31
0.0
  0
LINE
  5
1B738
330
1B51B
100
AcDbEntity
  8
1
  6
Continuous
100
AcDbLine
 10
501.87546
 20
246.3174859999998
 30
0.0
 11
504.2163689999998
 21
248.658394
 31
0.0
  0
LINE
  5
1B739
330
1B51B
100
AcDbEntity
  8
1
  6
Continuous
100
AcDbLine
 10
504.435957
 20
246.3174859999998
 30
0.0
 11
502.095049
 21
248.658394
 31
0.0
  0
LINE
  5
1B73A
330
1B51B
100
AcDbEntity
  8
1
  6
Continuous
100
AcDbLine
 10
476.6122909999999
 20
246.3174859999998
 30
0.0
 11
530.3882909999998
 21
246.3174859999998
 31
0.0
  0
LINE
  5
1B73B
330
1B51B
100
AcDbEntity
  8
1
  6
Continuous
100
AcDbLine
 10
476.6122909999999
 20
248.658394
 30
0.0
 11
530.3882909999998
 21
248.658394
 31
0.0
  0
LINE
  5
1B73C
330
1B51B
100
AcDbEntity
  8
1
  6
Continuous
100
AcDbLine
 10
464.500456
 20
254.096768
 30
0.0
 11
542.5006080000001
 21
254.096768
 31
0.0
  0
LINE
  5
1B73D
330
1B51B
100
AcDbEntity
  8
1
  6
Continuous
100
AcDbLine
 10
475.021841
 20
250.639767
 30
0.0
 11
531.979223
 21
250.639767
 31
0.0
  0
LINE
  5
1B73E
330
1B51B
100
AcDbEntity
  8
4
  6
CENTER
100
AcDbLine
 10
488.550459
 20
196.497003
 30
0.0
 11
573.5504589999997
 21
196.497003
 31
0.0
  0
LINE
  5
1B73F
330
1B51B
100
AcDbEntity
  8
1
  6
Continuous
100
AcDbLine
 10
464.500456
 20
256.9967679999999
 30
0.0
 11
542.5006080000001
 21
256.9967679999999
 31
0.0
  0
LINE
  5
1B740
330
1B51B
100
AcDbEntity
  8
4
  6
CENTER
100
AcDbLine
 10
503.500291
 20
261.9967679999999
 30
0.0
 11
503.500291
 21
183.2259469999999
 31
0.0
  0
ARC
  5
1B741
330
1B51B
100
AcDbEntity
  8
1
  6
Continuous
100
AcDbCircle
 10
572.6321809999998
 20
229.704989
 30
0.0
 40
41.00863499999999
100
AcDbArc
 50
174.3988199999998
 51
217.8939259999999
  0
LINE
  5
1B742
330
1B51B
100
AcDbEntity
  8
1
  6
Continuous
100
AcDbLine
 10
524.6479469999997
 20
241.86797
 30
0.0
 11
520.241004
 21
188.984825
 31
0.0
  0
ARC
  5
1B743
330
1B51B
100
AcDbEntity
  8
1
  6
Continuous
100
AcDbCircle
 10
530.8004589999998
 20
197.147003
 30
0.0
 40
12.0
100
AcDbArc
 50
281.728046
 51
37.893926
  0
LINE
  5
1B744
330
1B51B
100
AcDbEntity
  8
1
  6
Continuous
100
AcDbLine
 10
542.5006080000001
 20
254.096768
 30
0.0
 11
542.5006080000001
 21
256.9967679999999
 31
0.0
  0
LINE
  5
1B745
330
1B51B
100
AcDbEntity
  8
1
  6
Continuous
100
AcDbLine
 10
539.570459
 20
241.092224
 30
0.0
 11
539.570459
 21
243.692224
 31
0.0
  0
ARC
  5
1B746
330
1B51B
100
AcDbEntity
  8
1
  6
Continuous
100
AcDbCircle
 10
531.4338219999998
 20
244.1929049999999
 30
0.0
 40
4.181815
100
AcDbArc
 50
324.51517
 51
353.1235859999999
  0
LINE
  5
1B747
330
1B51B
100
AcDbEntity
  8
1
  6
Continuous
100
AcDbLine
 10
534.3833479999998
 20
241.092224
 30
0.0
 11
539.570459
 21
241.092224
 31
0.0
  0
ARC
  5
1B748
330
1B51B
100
AcDbEntity
  8
1
  6
Continuous
100
AcDbCircle
 10
548.426586
 20
232.0788709999999
 30
0.0
 40
16.686913
100
AcDbArc
 50
144.5151699999998
 51
174.3988199999998
  0
LINE
  5
1B749
330
1B51B
100
AcDbEntity
  8
1
  6
Continuous
100
AcDbLine
 10
520.9673429999997
 20
246.3174859999998
 30
0.0
 11
523.3082519999998
 21
248.658394
 31
0.0
  0
LINE
  5
1B74A
330
1B51B
100
AcDbEntity
  8
1
  6
Continuous
100
AcDbLine
 10
523.5278400000002
 20
246.3174859999998
 30
0.0
 11
521.1869319999998
 21
248.658394
 31
0.0
  0
LINE
  5
1B74B
330
1B51B
100
AcDbEntity
  8
1
  6
Continuous
100
AcDbLine
 10
525.649161
 20
246.3174859999998
 30
0.0
 11
523.3082519999998
 21
248.658394
 31
0.0
  0
LINE
  5
1B74C
330
1B51B
100
AcDbEntity
  8
1
  6
Continuous
100
AcDbLine
 10
525.2099839999998
 20
246.3174859999998
 30
0.0
 11
527.5508929999999
 21
248.658394
 31
0.0
  0
LINE
  5
1B74D
330
1B51B
100
AcDbEntity
  8
1
  6
Continuous
100
AcDbLine
 10
527.7704809999996
 20
246.3174859999998
 30
0.0
 11
525.429572
 21
248.658394
 31
0.0
  0
LINE
  5
1B74E
330
1B51B
100
AcDbEntity
  8
1
  6
Continuous
100
AcDbLine
 10
527.331304
 20
246.3174859999998
 30
0.0
 11
529.6722129999999
 21
248.658394
 31
0.0
  0
LINE
  5
1B74F
330
1B51B
100
AcDbEntity
  8
1
  6
Continuous
100
AcDbLine
 10
529.891801
 20
246.3174859999998
 30
0.0
 11
527.5508929999999
 21
248.658394
 31
0.0
  0
LINE
  5
1B750
330
1B51B
100
AcDbEntity
  8
1
  6
Continuous
100
AcDbLine
 10
530.3882909999998
 20
248.658394
 30
0.0
 11
530.3882909999998
 21
246.3174859999998
 31
0.0
  0
LINE
  5
1B751
330
1B51B
100
AcDbEntity
  8
1
  6
Continuous
100
AcDbLine
 10
530.3882909999998
 20
247.942317
 30
0.0
 11
529.6722129999999
 21
248.658394
 31
0.0
  0
LINE
  5
1B752
330
1B51B
100
AcDbEntity
  8
1
  6
Continuous
100
AcDbLine
 10
523.088664
 20
246.3174859999998
 30
0.0
 11
525.429572
 21
248.658394
 31
0.0
  0
LINE
  5
1B753
330
1B51B
100
AcDbEntity
  8
4
  6
CENTER
100
AcDbLine
 10
534.5002909999998
 20
259.896768
 30
0.0
 11
534.5002909999998
 21
251.196768
 31
0.0
  0
ARC
  5
1B754
330
1B51B
100
AcDbEntity
  8
1
  6
Continuous
100
AcDbCircle
 10
531.201327
 20
244.192224
 30
0.0
 40
0.5
100
AcDbArc
 50
192.6500299999999
 51
270.0
  0
LINE
  5
1B755
330
1B51B
100
AcDbEntity
  8
1
  6
Continuous
100
AcDbLine
 10
539.570459
 20
243.692224
 30
0.0
 11
531.201327
 21
243.692224
 31
0.0
  0
ARC
  5
1B756
330
1B51B
100
AcDbEntity
  8
1
  6
Continuous
100
AcDbCircle
 10
527.9204769999998
 20
243.4558589999999
 30
0.0
 40
2.86247
100
AcDbArc
 50
12.65003
 51
91.39063400000003
  0
LINE
  5
1B757
330
1B51B
100
AcDbEntity
  8
1
  6
Continuous
100
AcDbLine
 10
529.3774589999998
 20
250.639767
 30
0.0
 11
528.4727019999998
 21
248.658394
 31
0.0
  0
LINE
  5
1B758
330
1B51B
100
AcDbEntity
  8
1
  6
Continuous
100
AcDbLine
 10
514.603382
 20
246.3174859999998
 30
0.0
 11
516.9442909999998
 21
248.658394
 31
0.0
  0
LINE
  5
1B759
330
1B51B
100
AcDbEntity
  8
1
  6
Continuous
100
AcDbLine
 10
517.1638789999998
 20
246.3174859999998
 30
0.0
 11
514.822971
 21
248.658394
 31
0.0
  0
LINE
  5
1B75A
330
1B51B
100
AcDbEntity
  8
1
  6
Continuous
100
AcDbLine
 10
516.7247029999998
 20
246.3174859999998
 30
0.0
 11
519.0656109999999
 21
248.658394
 31
0.0
  0
LINE
  5
1B75B
330
1B51B
100
AcDbEntity
  8
1
  6
Continuous
100
AcDbLine
 10
519.2852
 20
246.3174859999998
 30
0.0
 11
516.9442909999998
 21
248.658394
 31
0.0
  0
LINE
  5
1B75C
330
1B51B
100
AcDbEntity
  8
1
  6
Continuous
100
AcDbLine
 10
518.8460229999998
 20
246.3174859999998
 30
0.0
 11
521.1869319999998
 21
248.658394
 31
0.0
  0
LINE
  5
1B75D
330
1B51B
100
AcDbEntity
  8
1
  6
Continuous
100
AcDbLine
 10
521.40652
 20
246.3174859999998
 30
0.0
 11
519.0656109999999
 21
248.658394
 31
0.0
  0
LINE
  5
1B75E
330
1B51B
100
AcDbEntity
  8
1
  6
Continuous
100
AcDbLine
 10
506.1181009999998
 20
246.3174859999998
 30
0.0
 11
508.4590099999998
 21
248.658394
 31
0.0
  0
LINE
  5
1B75F
330
1B51B
100
AcDbEntity
  8
1
  6
Continuous
100
AcDbLine
 10
508.678598
 20
246.3174859999998
 30
0.0
 11
506.3376889999998
 21
248.658394
 31
0.0
  0
LINE
  5
1B760
330
1B51B
100
AcDbEntity
  8
1
  6
Continuous
100
AcDbLine
 10
508.239421
 20
246.3174859999998
 30
0.0
 11
510.5803299999998
 21
248.658394
 31
0.0
  0
LINE
  5
1B761
330
1B51B
100
AcDbEntity
  8
1
  6
Continuous
100
AcDbLine
 10
510.799918
 20
246.3174859999998
 30
0.0
 11
508.4590099999998
 21
248.658394
 31
0.0
  0
LINE
  5
1B762
330
1B51B
100
AcDbEntity
  8
1
  6
Continuous
100
AcDbLine
 10
510.360742
 20
246.3174859999998
 30
0.0
 11
512.7016499999998
 21
248.658394
 31
0.0
  0
LINE
  5
1B763
330
1B51B
100
AcDbEntity
  8
1
  6
Continuous
100
AcDbLine
 10
512.921239
 20
246.3174859999998
 30
0.0
 11
510.5803299999998
 21
248.658394
 31
0.0
  0
LINE
  5
1B764
330
1B51B
100
AcDbEntity
  8
1
  6
Continuous
100
AcDbLine
 10
512.482062
 20
246.3174859999998
 30
0.0
 11
514.822971
 21
248.658394
 31
0.0
  0
LINE
  5
1B765
330
1B51B
100
AcDbEntity
  8
1
  6
Continuous
100
AcDbLine
 10
515.042559
 20
246.3174859999998
 30
0.0
 11
512.7016499999998
 21
248.658394
 31
0.0
  0
LINE
  5
1B766
330
1B51B
100
AcDbEntity
  8
1
  6
Continuous
100
AcDbLine
 10
503.9967809999998
 20
246.3174859999998
 30
0.0
 11
506.3376889999998
 21
248.658394
 31
0.0
  0
LINE
  5
1B767
330
1B51B
100
AcDbEntity
  8
1
  6
Continuous
100
AcDbLine
 10
506.557278
 20
246.3174859999998
 30
0.0
 11
504.2163689999998
 21
248.658394
 31
0.0
  0
LINE
  5
1B768
330
1B51B
100
AcDbEntity
  8
1
  6
Continuous
100
AcDbLine
 10
482.783577
 20
246.3174859999998
 30
0.0
 11
485.124486
 21
248.658394
 31
0.0
  0
LINE
  5
1B769
330
1B51B
100
AcDbEntity
  8
1
  6
Continuous
100
AcDbLine
 10
485.3440739999999
 20
246.3174859999998
 30
0.0
 11
483.003166
 21
248.658394
 31
0.0
  0
LINE
  5
1B76A
330
1B51B
100
AcDbEntity
  8
1
  6
Continuous
100
AcDbLine
 10
484.904898
 20
246.3174859999998
 30
0.0
 11
487.2458059999998
 21
248.658394
 31
0.0
  0
LINE
  5
1B76B
330
1B51B
100
AcDbEntity
  8
1
  6
Continuous
100
AcDbLine
 10
487.4653949999998
 20
246.3174859999998
 30
0.0
 11
485.124486
 21
248.658394
 31
0.0
  0
LINE
  5
1B76C
330
1B51B
100
AcDbEntity
  8
1
  6
Continuous
100
AcDbLine
 10
495.511499
 20
246.3174859999998
 30
0.0
 11
497.852408
 21
248.658394
 31
0.0
  0
LINE
  5
1B76D
330
1B51B
100
AcDbEntity
  8
1
  6
Continuous
100
AcDbLine
 10
498.071996
 20
246.3174859999998
 30
0.0
 11
495.731088
 21
248.658394
 31
0.0
  0
LINE
  5
1B76E
330
1B51B
100
AcDbEntity
  8
1
  6
Continuous
100
AcDbLine
 10
497.63282
 20
246.3174859999998
 30
0.0
 11
499.9737279999997
 21
248.658394
 31
0.0
  0
LINE
  5
1B76F
330
1B51B
100
AcDbEntity
  8
1
  6
Continuous
100
AcDbLine
 10
500.193317
 20
246.3174859999998
 30
0.0
 11
497.852408
 21
248.658394
 31
0.0
  0
LINE
  5
1B770
330
1B51B
100
AcDbEntity
  8
1
  6
Continuous
100
AcDbLine
 10
499.7541400000002
 20
246.3174859999998
 30
0.0
 11
502.095049
 21
248.658394
 31
0.0
  0
LINE
  5
1B771
330
1B51B
100
AcDbEntity
  8
1
  6
Continuous
100
AcDbLine
 10
502.314637
 20
246.3174859999998
 30
0.0
 11
499.9737279999997
 21
248.658394
 31
0.0
  0
LINE
  5
1B772
330
1B51B
100
AcDbEntity
  8
1
  6
Continuous
100
AcDbLine
 10
489.147538
 20
246.3174859999998
 30
0.0
 11
491.4884469999998
 21
248.658394
 31
0.0
  0
LINE
  5
1B773
330
1B51B
100
AcDbEntity
  8
1
  6
Continuous
100
AcDbLine
 10
491.7080349999998
 20
246.3174859999998
 30
0.0
 11
489.3671269999998
 21
248.658394
 31
0.0
  0
LINE
  5
1B774
330
1B51B
100
AcDbEntity
  8
1
  6
Continuous
100
AcDbLine
 10
491.268859
 20
246.3174859999998
 30
0.0
 11
493.6097669999998
 21
248.658394
 31
0.0
  0
LINE
  5
1B775
330
1B51B
100
AcDbEntity
  8
1
  6
Continuous
100
AcDbLine
 10
493.8293559999998
 20
246.3174859999998
 30
0.0
 11
491.4884469999998
 21
248.658394
 31
0.0
  0
LINE
  5
1B776
330
1B51B
100
AcDbEntity
  8
1
  6
Continuous
100
AcDbLine
 10
493.390179
 20
246.3174859999998
 30
0.0
 11
495.731088
 21
248.658394
 31
0.0
  0
LINE
  5
1B777
330
1B51B
100
AcDbEntity
  8
1
  6
Continuous
100
AcDbLine
 10
495.950676
 20
246.3174859999998
 30
0.0
 11
493.6097669999998
 21
248.658394
 31
0.0
  0
LINE
  5
1B778
330
1B51B
100
AcDbEntity
  8
1
  6
Continuous
100
AcDbLine
 10
487.026218
 20
246.3174859999998
 30
0.0
 11
489.3671269999998
 21
248.658394
 31
0.0
  0
LINE
  5
1B779
330
1B51B
100
AcDbEntity
  8
1
  6
Continuous
100
AcDbLine
 10
489.5867149999999
 20
246.3174859999998
 30
0.0
 11
487.2458059999998
 21
248.658394
 31
0.0
  0
LINE
  5
1B77A
330
1B51B
100
AcDbEntity
  8
1
  6
Continuous
100
AcDbLine
 10
476.6122909999999
 20
246.5101619999999
 30
0.0
 11
478.7605249999998
 21
248.658394
 31
0.0
  0
LINE
  5
1B77B
330
1B51B
100
AcDbEntity
  8
1
  6
Continuous
100
AcDbLine
 10
478.9801129999998
 20
246.3174859999998
 30
0.0
 11
476.639205
 21
248.658394
 31
0.0
  0
LINE
  5
1B77C
330
1B51B
100
AcDbEntity
  8
1
  6
Continuous
100
AcDbLine
 10
478.5409369999999
 20
246.3174859999998
 30
0.0
 11
480.881845
 21
248.658394
 31
0.0
  0
LINE
  5
1B77D
330
1B51B
100
AcDbEntity
  8
1
  6
Continuous
100
AcDbLine
 10
480.662257
 20
246.3174859999998
 30
0.0
 11
483.003166
 21
248.658394
 31
0.0
  0
LINE
  5
1B77E
330
1B51B
100
AcDbEntity
  8
1
  6
Continuous
100
AcDbLine
 10
481.1014339999998
 20
246.3174859999998
 30
0.0
 11
478.7605249999998
 21
248.658394
 31
0.0
  0
LINE
  5
1B77F
330
1B51B
100
AcDbEntity
  8
1
  6
Continuous
100
AcDbLine
 10
476.6122909999999
 20
248.658394
 30
0.0
 11
476.6122909999999
 21
246.3174859999998
 31
0.0
  0
LINE
  5
1B780
330
1B51B
100
AcDbEntity
  8
1
  6
Continuous
100
AcDbLine
 10
483.2227539999998
 20
246.3174859999998
 30
0.0
 11
480.881845
 21
248.658394
 31
0.0
  0
LINE
  5
1B781
330
1B51B
100
AcDbEntity
  8
1
  6
Continuous
100
AcDbLine
 10
476.6122909999999
 20
248.631481
 30
0.0
 11
476.639205
 21
248.658394
 31
0.0
  0
LINE
  5
1B782
330
1B51B
100
AcDbEntity
  8
4
  6
CENTER
100
AcDbLine
 10
472.5002909999998
 20
259.896768
 30
0.0
 11
472.5002909999998
 21
251.196768
 31
0.0
  0
LINE
  5
1B783
330
1B51B
100
AcDbEntity
  8
1
  6
Continuous
100
AcDbLine
 10
477.623605
 20
250.639767
 30
0.0
 11
478.528362
 21
248.658394
 31
0.0
  0
LINE
  5
1B784
330
1B51B
100
AcDbEntity
  8
1
  6
Continuous
100
AcDbLine
 10
464.500456
 20
254.096768
 30
0.0
 11
464.500456
 21
256.9967679999999
 31
0.0
  0
CIRCLE
  5
1B785
330
1B51B
100
AcDbEntity
  8
1
  6
Continuous
100
AcDbCircle
 10
530.500459
 20
196.497003
 30
0.0
 40
7.0
  0
LINE
  5
1B786
330
1B51B
100
AcDbEntity
  8
1
  6
Continuous
100
AcDbLine
 10
393.000306
 20
241.3174859999998
 30
0.0
 11
393.000306
 21
199.7847219999999
 31
0.0
  0
LINE
  5
1B787
330
1B51B
100
AcDbEntity
  8
1
  6
Continuous
100
AcDbLine
 10
338.000306
 20
241.3174859999998
 30
0.0
 11
338.000306
 21
220.272783
 31
0.0
  0
ARC
  5
1B788
330
1B51B
100
AcDbEntity
  8
1
  6
Continuous
100
AcDbCircle
 10
388.000306
 20
241.3174859999998
 30
0.0
 40
5.0
100
AcDbArc
 50
0.0
 51
90.0
  0
ARC
  5
1B789
330
1B51B
100
AcDbEntity
  8
1
  6
Continuous
100
AcDbCircle
 10
343.000306
 20
241.3174859999998
 30
0.0
 40
5.0
100
AcDbArc
 50
90.0
 51
180.0
  0
ARC
  5
1B78A
330
1B51B
100
AcDbEntity
  8
1
  6
Continuous
100
AcDbCircle
 10
422.618165
 20
175.432872
 30
0.0
 40
88.60569099999997
100
AcDbArc
 50
137.476235
 51
160.9499849999999
  0
ARC
  5
1B78B
330
1B51B
100
AcDbEntity
  8
1
  6
Continuous
100
AcDbCircle
 10
418.395295
 20
177.4107859999998
 30
0.0
 40
81.39072699999998
100
AcDbArc
 50
144.662201
 51
161.523427
  0
ARC
  5
1B78C
330
1B51B
100
AcDbEntity
  8
1
  6
Continuous
100
AcDbCircle
 10
350.515982
 20
199.7983859999999
 30
0.0
 40
9.919269999999999
100
AcDbArc
 50
159.9145009999998
 51
235.191207
  0
ARC
  5
1B78D
330
1B51B
100
AcDbEntity
  8
1
  6
Continuous
100
AcDbCircle
 10
350.500306
 20
199.7847219999999
 30
0.0
 40
12.5
100
AcDbArc
 50
158.563059
 51
243.1792269999998
  0
ARC
  5
1B78E
330
1B51B
100
AcDbEntity
  8
1
  6
Continuous
100
AcDbCircle
 10
342.1070029999999
 20
184.3442489999999
 30
0.0
 40
5.093474999999997
100
AcDbArc
 50
43.689208
 51
57.278769
  0
LINE
  5
1B78F
330
1B51B
100
AcDbEntity
  8
1
  6
Continuous
100
AcDbLine
 10
91.50015000000001
 20
241.3174859999998
 30
0.0
 11
91.50015000000001
 21
220.272783
 31
0.0
  0
LINE
  5
1B790
330
1B51B
100
AcDbEntity
  8
1
  6
Continuous
100
AcDbLine
 10
36.50014999999999
 20
241.3174859999998
 30
0.0
 11
36.50014999999999
 21
199.7847219999999
 31
0.0
  0
ARC
  5
1B791
330
1B51B
100
AcDbEntity
  8
1
  6
Continuous
100
AcDbCircle
 10
86.50015000000001
 20
241.3174859999998
 30
0.0
 40
5.0
100
AcDbArc
 50
0.0
 51
90.0
  0
ARC
  5
1B792
330
1B51B
100
AcDbEntity
  8
1
  6
Continuous
100
AcDbCircle
 10
41.50014999999998
 20
241.3174859999998
 30
0.0
 40
5.0
100
AcDbArc
 50
90.0
 51
180.0
  0
ARC
  5
1B793
330
1B51B
100
AcDbEntity
  8
1
  6
Continuous
100
AcDbCircle
 10
49.00014999999999
 20
199.7847219999999
 30
0.0
 40
12.5
100
AcDbArc
 50
180.0
 51
243.1792269999998
  0
ARC
  5
1B794
330
1B51B
100
AcDbEntity
  8
1
  6
Continuous
100
AcDbCircle
 10
40.60684699999997
 20
184.3442489999999
 30
0.0
 40
5.093474999999997
100
AcDbArc
 50
0.471343
 51
57.278769
  0
LINE
  5
1B795
330
1B51B
100
AcDbEntity
  8
1
  6
Continuous
100
AcDbLine
 10
255.000281
 20
241.3174859999998
 30
0.0
 11
255.000281
 21
236.939766
 31
0.0
  0
ARC
  5
1B796
330
1B51B
100
AcDbEntity
  8
1
  6
Continuous
100
AcDbCircle
 10
199.4939829999999
 20
258.660031
 30
0.0
 40
8.034175999999996
100
AcDbArc
 50
214.6095869999999
 51
266.6277449999999
  0
ARC
  5
1B797
330
1B51B
100
AcDbEntity
  8
1
  6
Continuous
100
AcDbCircle
 10
35.99381199999999
 20
258.660031
 30
0.0
 40
8.034175999999996
100
AcDbArc
 50
214.6095869999999
 51
266.6277449999999
  0
ARC
  5
1B798
330
1B51B
100
AcDbEntity
  8
1
  6
Continuous
100
AcDbCircle
 10
92.00648800000001
 20
258.660031
 30
0.0
 40
8.034175999999996
100
AcDbArc
 50
273.3722549999999
 51
325.3904129999999
  0
ARC
  5
1B799
330
1B51B
100
AcDbEntity
  8
1
  6
Continuous
100
AcDbCircle
 10
337.493968
 20
258.660031
 30
0.0
 40
8.034175999999996
100
AcDbArc
 50
214.6095869999999
 51
266.6277449999999
  0
ARC
  5
1B79A
330
1B51B
100
AcDbEntity
  8
1
  6
Continuous
100
AcDbCircle
 10
393.5066439999998
 20
258.660031
 30
0.0
 40
8.034175999999996
100
AcDbArc
 50
273.3722549999999
 51
325.3904129999999
  0
ARC
  5
1B79B
330
1B51B
100
AcDbEntity
  8
1
  6
Continuous
100
AcDbCircle
 10
250.000281
 20
241.3174859999998
 30
0.0
 40
5.0
100
AcDbArc
 50
0.0
 51
90.0
  0
ARC
  5
1B79C
330
1B51B
100
AcDbEntity
  8
1
  6
Continuous
100
AcDbCircle
 10
181.8654439999999
 20
240.270624
 30
0.0
 40
73.21064799999998
100
AcDbArc
 50
332.867044
 51
357.3923189999999
  0
ARC
  5
1B79D
330
1B51B
100
AcDbEntity
  8
1
  6
Continuous
100
AcDbCircle
 10
219.477172
 20
218.774875
 30
0.0
 40
30.0
100
AcDbArc
 50
311.8789229999998
 51
336.6457049999999
  0
ARC
  5
1B79E
330
1B51B
100
AcDbEntity
  8
1
  6
Continuous
100
AcDbCircle
 10
481.0003309999998
 20
241.3174859999998
 30
0.0
 40
5.0
100
AcDbArc
 50
90.0
 51
180.0
  0
ARC
  5
1B79F
330
1B51B
100
AcDbEntity
  8
1
  6
Continuous
100
AcDbCircle
 10
549.135168
 20
240.270624
 30
0.0
 40
73.21064799999998
100
AcDbArc
 50
182.607681
 51
207.132956
  0
LINE
  5
1B7A0
330
1B51B
100
AcDbEntity
  8
1
  6
Continuous
100
AcDbLine
 10
476.000331
 20
241.3174859999998
 30
0.0
 11
476.000331
 21
236.939766
 31
0.0
  0
ARC
  5
1B7A1
330
1B51B
100
AcDbEntity
  8
1
  6
Continuous
100
AcDbCircle
 10
511.52344
 20
218.774875
 30
0.0
 40
30.0
100
AcDbArc
 50
203.354295
 51
229.268773
  0
ARC
  5
1B7A2
330
1B51B
100
AcDbEntity
  8
1
  6
Continuous
100
AcDbCircle
 10
523.3732809999998
 20
232.5364079999999
 30
0.0
 40
48.160356
100
AcDbArc
 50
229.268773
 51
281.821604
  0
ARC
  5
1B7A3
330
1B51B
100
AcDbEntity
  8
1
  6
Continuous
100
AcDbCircle
 10
475.4939529999998
 20
258.660031
 30
0.0
 40
8.034175999999996
100
AcDbArc
 50
214.6095869999999
 51
266.6277449999999
  0
ARC
  5
1B7A4
330
1B51B
100
AcDbEntity
  8
1
  6
Continuous
100
AcDbCircle
 10
531.5066289999998
 20
258.660031
 30
0.0
 40
8.034175999999996
100
AcDbArc
 50
273.3722549999999
 51
325.3904129999999
  0
ARC
  5
1B7A5
330
1B51B
100
AcDbEntity
  8
1
  6
Continuous
100
AcDbCircle
 10
227.5003209999999
 20
79.998502
 30
0.0
 40
24.89996
100
AcDbArc
 50
257.9286389999999
 51
51.15804799999999
  0
ARC
  5
1B7A6
330
1B51B
100
AcDbEntity
  8
1
  6
Continuous
100
AcDbCircle
 10
223.203249
 20
99.42898300000001
 30
0.0
 40
5.0
100
AcDbArc
 50
102.4703099999999
 51
116.8946429999998
  0
ARC
  5
1B7A7
330
1B51B
100
AcDbEntity
  8
1
  6
Continuous
100
AcDbCircle
 10
223.3386459999999
 20
60.53857199999999
 30
0.0
 40
5.0
100
AcDbArc
 50
243.894495
 51
257.9286389999999
  0
ARC
  5
1B7A8
330
1B51B
100
AcDbEntity
  8
1
  6
Continuous
100
AcDbCircle
 10
121.118009
 20
175.432872
 30
0.0
 40
88.60569099999997
100
AcDbArc
 50
137.476235
 51
138.2779659999999
  0
ARC
  5
1B7A9
330
1B51B
100
AcDbEntity
  8
1
  6
Continuous
100
AcDbCircle
 10
1.949165999999999
 20
252.416548
 30
0.0
 40
56.011304
100
AcDbArc
 50
340.569797
 51
341.238333
  0
LINE
  5
1B7AA
330
1B51B
100
AcDbEntity
  8
1
  6
Continuous
100
AcDbLine
 10
55.82804300000001
 20
235.334021
 30
0.0
 11
72.17218699999998
 21
235.334021
 31
0.0
  0
ARC
  5
1B7AB
330
1B51B
100
AcDbEntity
  8
1
  6
Continuous
100
AcDbCircle
 10
121.118009
 20
175.432872
 30
0.0
 40
86.00569099999999
100
AcDbArc
 50
145.1934089999998
 51
147.850581
  0
ARC
  5
1B7AC
330
1B51B
100
AcDbEntity
  8
1
  6
Continuous
100
AcDbCircle
 10
6.882291
 20
175.432872
 30
0.0
 40
88.60569099999997
100
AcDbArc
 50
41.72203399999999
 51
42.52376499999999
  0
ARC
  5
1B7AD
330
1B51B
100
AcDbEntity
  8
1
  6
Continuous
100
AcDbCircle
 10
126.051134
 20
252.416548
 30
0.0
 40
56.011304
100
AcDbArc
 50
198.761667
 51
199.430203
  0
ARC
  5
1B7AE
330
1B51B
100
AcDbEntity
  8
1
  6
Continuous
100
AcDbCircle
 10
6.882291
 20
175.432872
 30
0.0
 40
86.00569099999999
100
AcDbArc
 50
32.149419
 51
34.806591
  0
ARC
  5
1B7AF
330
1B51B
100
AcDbEntity
  8
1
  6
Continuous
100
AcDbCircle
 10
201.1496029999999
 20
245.692224
 30
0.0
 40
2.0
100
AcDbArc
 50
270.0
 51
0.0
  0
LINE
  5
1B7B0
330
1B51B
100
AcDbEntity
  8
1
  6
Continuous
100
AcDbLine
 10
86.50817600000001
 20
190.1158999999999
 30
0.0
 11
86.50817600000001
 21
182.9296659999999
 31
0.0
  0
LINE
  5
1B7B1
330
1B51B
100
AcDbEntity
  8
1
  6
Continuous
100
AcDbLine
 10
97.38332900000001
 20
172.913034
 30
0.0
 11
97.38332900000001
 21
197.6249939999999
 31
0.0
  0
LINE
  5
1B7B2
330
1B51B
100
AcDbEntity
  8
1
  6
Continuous
100
AcDbLine
 10
84.20817300000001
 20
188.6911409999999
 30
0.0
 11
84.20817300000001
 21
183.3791369999999
 31
0.0
  0
LINE
  5
1B7B3
330
1B51B
100
AcDbEntity
  8
1
  6
Continuous
100
AcDbLine
 10
83.71036999999999
 20
178.2848449999999
 30
0.0
 11
83.71036999999999
 21
185.462695
 31
0.0
  0
ARC
  5
1B7B4
330
1B51B
100
AcDbEntity
  8
1
  6
Continuous
100
AcDbCircle
 10
221.1670049999999
 20
218.338869
 30
0.0
 40
141.472
100
AcDbArc
 50
178.8713219999999
 51
193.659283
  0
ARC
  5
1B7B5
330
1B51B
100
AcDbEntity
  8
1
  6
Continuous
100
AcDbCircle
 10
221.1670049999999
 20
218.338869
 30
0.0
 40
141.972
100
AcDbArc
 50
178.8752839999999
 51
193.659283
  0
ARC
  5
1B7B6
330
1B51B
100
AcDbEntity
  8
1
  6
Continuous
100
AcDbCircle
 10
84.41038299999998
 20
177.9848419999999
 30
0.0
 40
3.0
100
AcDbArc
 50
179.999997
 51
269.9999969999999
  0
ARC
  5
1B7B7
330
1B51B
100
AcDbEntity
  8
1
  6
Continuous
100
AcDbCircle
 10
84.41038299999998
 20
172.913034
 30
0.0
 40
3.0
100
AcDbArc
 50
179.999997
 51
270.0
  0
LINE
  5
1B7B8
330
1B51B
100
AcDbEntity
  8
1
  6
Continuous
100
AcDbLine
 10
80.91038299999999
 20
170.8869339999999
 30
0.0
 11
81.41038299999998
 21
170.8869339999999
 31
0.0
  0
LINE
  5
1B7B9
330
1B51B
100
AcDbEntity
  8
1
  6
Continuous
100
AcDbLine
 10
80.91038299999999
 20
170.8869339999999
 30
0.0
 11
80.91038299999999
 21
196.3359439999999
 31
0.0
  0
LINE
  5
1B7BA
330
1B51B
100
AcDbEntity
  8
1
  6
Continuous
100
AcDbLine
 10
81.41038299999998
 20
170.8869339999999
 30
0.0
 11
81.41038299999998
 21
193.356168
 31
0.0
  0
ARC
  5
1B7BB
330
1B51B
100
AcDbEntity
  8
1
  6
Continuous
100
AcDbCircle
 10
94.383329
 20
172.913034
 30
0.0
 40
3.0
100
AcDbArc
 50
269.9999969999999
 51
0.000003
  0
ARC
  5
1B7BC
330
1B51B
100
AcDbEntity
  8
1
  6
Continuous
100
AcDbCircle
 10
94.383329
 20
177.9848419999999
 30
0.0
 40
3.0
100
AcDbArc
 50
269.9999969999999
 51
0.000003
  0
ARC
  5
1B7BD
330
1B51B
100
AcDbEntity
  8
1
  6
Continuous
100
AcDbCircle
 10
93.18089
 20
177.751505
 30
0.0
 40
2.700562999999998
100
AcDbArc
 50
45.21416799999999
 51
79.45248499999998
  0
LINE
  5
1B7BE
330
1B51B
100
AcDbEntity
  8
1
  6
Continuous
100
AcDbLine
 10
95.08332600000001
 20
178.2848449999999
 30
0.0
 11
95.08332600000001
 21
179.668215
 31
0.0
  0
ARC
  5
1B7BF
330
1B51B
100
AcDbEntity
  8
1
  6
Continuous
100
AcDbCircle
 10
95.383329
 20
178.559458
 30
0.0
 40
2.0
100
AcDbArc
 50
0.000003
 51
78.968935
  0
ARC
  5
1B7C0
330
1B51B
100
AcDbEntity
  8
1
  6
Continuous
100
AcDbCircle
 10
87.248563
 20
185.993921
 30
0.0
 40
4.316663
100
AcDbArc
 50
232.0341509999999
 51
258.9689409999999
  0
ARC
  5
1B7C1
330
1B51B
100
AcDbEntity
  8
1
  6
Continuous
100
AcDbCircle
 10
88.98002400000001
 20
185.4209309999999
 30
0.0
 40
3.509481999999997
100
AcDbArc
 50
225.224029
 51
258.9689409999999
  0
LINE
  5
1B7C2
330
1B51B
100
AcDbEntity
  8
1
  6
Continuous
100
AcDbLine
 10
84.71037
 20
177.2848449999999
 30
0.0
 11
94.08332599999999
 21
177.2848449999999
 31
0.0
  0
LINE
  5
1B7C3
330
1B51B
100
AcDbEntity
  8
1
  6
Continuous
100
AcDbLine
 10
93.675241
 20
180.406443
 30
0.0
 11
86.45839399999998
 21
181.7502
 31
0.0
  0
LINE
  5
1B7C4
330
1B51B
100
AcDbEntity
  8
1
  6
Continuous
100
AcDbLine
 10
95.766015
 20
180.5225079999999
 30
0.0
 11
88.30852799999998
 21
181.9762899999998
 31
0.0
  0
LINE
  5
1B7C5
330
1B51B
100
AcDbEntity
  8
1
  6
Continuous
100
AcDbLine
 10
84.41038299999998
 20
169.913034
 30
0.0
 11
94.383329
 21
169.913034
 31
0.0
  0
LINE
  5
1B7C6
330
1B51B
100
AcDbEntity
  8
1
  6
Continuous
100
AcDbLine
 10
84.41038299999998
 20
174.984842
 30
0.0
 11
94.383329
 21
174.984842
 31
0.0
  0
ARC
  5
1B7C7
330
1B51B
100
AcDbEntity
  8
1
  6
Continuous
100
AcDbCircle
 10
94.08332599999999
 20
178.2848449999999
 30
0.0
 40
1.0
100
AcDbArc
 50
269.9999969999999
 51
0.000003
  0
LINE
  5
1B7C8
330
1B51B
100
AcDbEntity
  8
1
  6
Continuous
100
AcDbLine
 10
83.21037399999999
 20
184.812487
 30
0.0
 11
83.69623299999998
 21
184.9305589999999
 31
0.0
  0
ARC
  5
1B7C9
330
1B51B
100
AcDbEntity
  8
1
  6
Continuous
100
AcDbCircle
 10
84.71037
 20
178.2848449999999
 30
0.0
 40
1.0
100
AcDbArc
 50
179.999997
 51
269.9999969999999
  0
ARC
  5
1B7CA
330
1B51B
100
AcDbEntity
  8
1
  6
Continuous
100
AcDbCircle
 10
85.208173
 20
183.3791369999999
 30
0.0
 40
1.0
100
AcDbArc
 50
179.999997
 51
232.034158
  0
ARC
  5
1B7CB
330
1B51B
100
AcDbEntity
  8
1
  6
Continuous
100
AcDbCircle
 10
104.7081729999999
 20
161.7147459999999
 30
0.0
 40
36.91024399999999
100
AcDbArc
 50
75.39465600000003
 51
90.00000500000002
  0
ARC
  5
1B7CC
330
1B51B
100
AcDbEntity
  8
1
  6
Continuous
100
AcDbCircle
 10
104.7081729999999
 20
163.905886
 30
0.0
 40
36.91024399999999
100
AcDbArc
 50
75.39465600000003
 51
90.00000500000002
  0
ARC
  5
1B7CD
330
1B51B
100
AcDbEntity
  8
1
  6
Continuous
100
AcDbCircle
 10
104.7081729999999
 20
230.0630659999999
 30
0.0
 40
36.91024399999999
100
AcDbArc
 50
269.9999969999999
 51
284.60534
  0
LINE
  5
1B7CE
330
1B51B
100
AcDbEntity
  8
1
  6
Continuous
100
AcDbLine
 10
80.696927
 20
218.0758839999998
 30
0.0
 11
82.79998499999997
 21
218.0758839999998
 31
0.0
  0
LINE
  5
1B7CF
330
1B51B
100
AcDbEntity
  8
1
  6
Continuous
100
AcDbLine
 10
80.508176
 20
217.962984
 30
0.0
 11
83.508176
 21
217.962984
 31
0.0
  0
LINE
  5
1B7D0
330
1B51B
100
AcDbEntity
  8
1
  6
Continuous
100
AcDbLine
 10
80.508176
 20
215.9191759999999
 30
0.0
 11
83.20817299999999
 21
215.9191759999999
 31
0.0
  0
LINE
  5
1B7D1
330
1B51B
100
AcDbEntity
  8
1
  6
Continuous
100
AcDbLine
 10
81.84723199999998
 20
200.2198659999999
 30
0.0
 11
82.367284
 21
200.274529
 31
0.0
  0
ARC
  5
1B7D2
330
1B51B
100
AcDbEntity
  8
1
  6
Continuous
100
AcDbCircle
 10
81.74270400000002
 20
201.2143879999999
 30
0.0
 40
1.0
100
AcDbArc
 50
187.002157
 51
275.9999979999999
  0
LINE
  5
1B7D3
330
1B51B
100
AcDbEntity
  8
1
  6
Continuous
100
AcDbLine
 10
79.22234799999998
 20
221.1255819999998
 30
0.0
 11
79.72245500000003
 21
221.1255819999998
 31
0.0
  0
ARC
  5
1B7D4
330
1B51B
100
AcDbEntity
  8
1
  6
Continuous
100
AcDbCircle
 10
80.696927
 20
219.0758839999999
 30
0.0
 40
1.0
100
AcDbArc
 50
179.967289
 51
270.0
  0
LINE
  5
1B7D5
330
1B51B
100
AcDbEntity
  8
1
  6
Continuous
100
AcDbLine
 10
80.508176
 20
215.9191759999999
 30
0.0
 11
80.508176
 21
217.962984
 31
0.0
  0
ARC
  5
1B7D6
330
1B51B
100
AcDbEntity
  8
1
  6
Continuous
100
AcDbCircle
 10
91.50817600000001
 20
208.188722
 30
0.0
 40
5.0
100
AcDbArc
 50
179.999997
 51
228.1691379999999
  0
LWPOLYLINE
  5
1B7D7
330
1B51B
100
AcDbEntity
  8
1
  6
Continuous
100
AcDbPolyline
 90
       17
 70
     0
 43
0.0
 10
86.50817600000001
 20
208.464449
 42
0.019419
 10
86.51819000000001
 20
208.206886
 42
0.019238
 10
86.548102
 20
207.950648
 42
0.018872
 10
86.597492
 20
207.697207
 42
0.018348
 10
86.665662
 20
207.4479199999999
 42
0.017698
 10
86.751689
 20
207.203982
 42
0.016956
 10
86.85448599999999
 20
206.966404
 42
0.01616
 10
86.972863
 20
206.735994
 42
0.015295
 10
87.10517499999998
 20
206.51401
 42
0.014453
 10
87.25022699999998
 20
206.300614
 42
0.013677
 10
87.40728199999997
 20
206.0954029999999
 42
0.012931
 10
87.57523399999998
 20
205.8985929999999
 42
0.012223
 10
87.75304
 20
205.7102919999999
 42
0.01156
 10
87.93973699999998
 20
205.5305209999999
 42
0.010943
 10
88.13444
 20
205.3592319999999
 42
0.010341
 10
88.33566600000002
 20
205.196855
 42
0.009804
 10
88.542935
 20
205.0429579999998
  0
LINE
  5
1B7EA
330
1B51B
100
AcDbEntity
  8
1
  6
Continuous
100
AcDbLine
 10
84.20817300000001
 20
217.2727829999999
 30
0.0
 11
84.20817300000001
 21
199.4585439999999
 31
0.0
  0
LINE
  5
1B7EB
330
1B51B
100
AcDbEntity
  8
1
  6
Continuous
100
AcDbLine
 10
82.79998499999997
 20
215.9191759999999
 30
0.0
 11
82.79998499999997
 21
200.272943
 31
0.0
  0
ARC
  5
1B7EC
330
1B51B
100
AcDbEntity
  8
1
  6
Continuous
100
AcDbCircle
 10
89.20817300000001
 20
208.605776
 30
0.0
 40
5.0
100
AcDbArc
 50
179.999997
 51
240.955935
  0
ARC
  5
1B7ED
330
1B51B
100
AcDbEntity
  8
1
  6
Continuous
100
AcDbCircle
 10
98.38332900000001
 20
197.6249939999999
 30
0.0
 40
1.0
100
AcDbArc
 50
90.00000500000002
 51
180.0000009999999
  0
ARC
  5
1B7EE
330
1B51B
100
AcDbEntity
  8
1
  6
Continuous
100
AcDbCircle
 10
98.38332900000001
 20
192.152819
 30
0.0
 40
1.0
100
AcDbArc
 50
90.00000500000002
 51
180.0000009999999
  0
LINE
  5
1B7EF
330
1B51B
100
AcDbEntity
  8
1
  6
Continuous
100
AcDbLine
 10
97.083326
 20
200.816133
 30
0.0
 11
104.7081729999999
 21
200.816133
 31
0.0
  0
ARC
  5
1B7F0
330
1B51B
100
AcDbEntity
  8
1
  6
Continuous
100
AcDbCircle
 10
92.38332900000001
 20
196.1908129999999
 30
0.0
 40
5.0
100
AcDbArc
 50
0.000003
 51
54.662888
  0
ARC
  5
1B7F1
330
1B51B
100
AcDbEntity
  8
1
  6
Continuous
100
AcDbCircle
 10
97.083326
 20
198.816133
 30
0.0
 40
2.0
100
AcDbArc
 50
90.00000500000002
 51
140.9445969999999
  0
LINE
  5
1B7F2
330
1B51B
100
AcDbEntity
  8
1
  6
Continuous
100
AcDbLine
 10
88.838834
 20
200.737551
 30
0.0
 11
88.838834
 21
196.910356
 31
0.0
  0
LINE
  5
1B7F3
330
1B51B
100
AcDbEntity
  8
1
  6
Continuous
100
AcDbLine
 10
89.83883399999998
 20
200.737551
 30
0.0
 11
89.83883399999998
 21
195.517633
 31
0.0
  0
ARC
  5
1B7F4
330
1B51B
100
AcDbEntity
  8
1
  6
Continuous
100
AcDbCircle
 10
86.83883399999997
 20
195.517633
 30
0.0
 40
3.0
100
AcDbArc
 50
314.999998
 51
0.000003
  0
LINE
  5
1B7F5
330
1B51B
100
AcDbEntity
  8
1
  6
Continuous
100
AcDbLine
 10
86.37995999999999
 20
195.709024
 30
0.0
 11
84.307016
 21
199.2879049999999
 31
0.0
  0
ARC
  5
1B7F6
330
1B51B
100
AcDbEntity
  8
1
  6
Continuous
100
AcDbCircle
 10
85.83883399999997
 20
196.910356
 30
0.0
 40
3.0
100
AcDbArc
 50
291.4483839999999
 51
0.000003
  0
ARC
  5
1B7F7
330
1B51B
100
AcDbEntity
  8
1
  6
Continuous
100
AcDbCircle
 10
84.83883399999998
 20
200.737551
 30
0.0
 40
4.0
100
AcDbArc
 50
0.000003
 51
60.95593700000002
  0
ARC
  5
1B7F8
330
1B51B
100
AcDbEntity
  8
1
  6
Continuous
100
AcDbCircle
 10
84.83883399999998
 20
200.737551
 30
0.0
 40
5.0
100
AcDbArc
 50
0.000003
 51
48.16914
  0
LINE
  5
1B7F9
330
1B51B
100
AcDbEntity
  8
1
  6
Continuous
100
AcDbLine
 10
88.47881800000001
 20
205.0883959999999
 30
0.0
 11
90.82460199999998
 21
203.4252069999999
 31
0.0
  0
ARC
  5
1B7FA
330
1B51B
100
AcDbEntity
  8
1
  6
Continuous
100
AcDbCircle
 10
88.508176
 20
190.1158999999999
 30
0.0
 40
2.0
100
AcDbArc
 50
135.0
 51
179.999997
  0
LINE
  5
1B7FB
330
1B51B
100
AcDbEntity
  8
1
  6
Continuous
100
AcDbLine
 10
88.960155
 20
193.396311
 30
0.0
 11
87.093953
 21
191.5301149999999
 31
0.0
  0
ARC
  5
1B7FC
330
1B51B
100
AcDbEntity
  8
1
  6
Continuous
100
AcDbCircle
 10
84.252391
 20
187.4601509999999
 30
0.0
 40
1.150387999999998
100
AcDbArc
 50
113.02068
 51
179.1314749999999
  0
ARC
  5
1B7FD
330
1B51B
100
AcDbEntity
  8
1
  6
Continuous
100
AcDbCircle
 10
82.05332699999997
 20
193.202974
 30
0.0
 40
5.0
100
AcDbArc
 50
290.4775129999998
 51
30.080067
  0
ARC
  5
1B7FE
330
1B51B
100
AcDbEntity
  8
1
  6
Continuous
100
AcDbCircle
 10
82.57635200000001
 20
198.2854859999999
 30
0.0
 40
2.0
100
AcDbArc
 50
28.929521
 51
96.000344
  0
LINE
  5
1B7FF
330
1B51B
100
AcDbEntity
  8
1
  6
Continuous
100
AcDbLine
 10
98.38332900000001
 20
193.152819
 30
0.0
 11
104.7081729999999
 21
193.152819
 31
0.0
  0
LINE
  5
1B800
330
1B51B
100
AcDbEntity
  8
1
  6
Continuous
100
AcDbLine
 10
98.38332900000001
 20
198.624994
 30
0.0
 11
104.7081729999999
 21
198.624994
 31
0.0
  0
ARC
  5
1B801
330
1B51B
100
AcDbEntity
  8
1
  6
Continuous
100
AcDbCircle
 10
94.708173
 20
183.3625429999999
 30
0.0
 40
36.91024399999999
100
AcDbArc
 50
75.39465600000003
 51
90.00000500000002
  0
ARC
  5
1B802
330
1B51B
100
AcDbEntity
  8
1
  6
Continuous
100
AcDbCircle
 10
94.708173
 20
181.171404
 30
0.0
 40
36.91024399999999
100
AcDbArc
 50
75.39465600000003
 51
90.00000500000002
  0
ARC
  5
1B803
330
1B51B
100
AcDbEntity
  8
1
  6
Continuous
100
AcDbCircle
 10
94.708173
 20
249.519716
 30
0.0
 40
36.91024399999999
100
AcDbArc
 50
269.9999969999999
 51
284.60534
  0
ARC
  5
1B804
330
1B51B
100
AcDbEntity
  8
1
  6
Continuous
100
AcDbCircle
 10
87.50817600000003
 20
217.0816519999999
 30
0.0
 40
1.0
100
AcDbArc
 50
90.00000500000002
 51
180.0000009999999
  0
ARC
  5
1B805
330
1B51B
100
AcDbEntity
  8
1
  6
Continuous
100
AcDbCircle
 10
87.50817600000003
 20
211.6094679999999
 30
0.0
 40
1.0
100
AcDbArc
 50
90.00000500000002
 51
180.0000009999999
  0
LINE
  5
1B806
330
1B51B
100
AcDbEntity
  8
1
  6
Continuous
100
AcDbLine
 10
87.50817600000003
 20
218.081652
 30
0.0
 11
94.708173
 21
218.081652
 31
0.0
  0
LINE
  5
1B807
330
1B51B
100
AcDbEntity
  8
1
  6
Continuous
100
AcDbLine
 10
87.50817600000003
 20
212.609468
 30
0.0
 11
94.708173
 21
212.609468
 31
0.0
  0
LINE
  5
1B808
330
1B51B
100
AcDbEntity
  8
1
  6
Continuous
100
AcDbLine
 10
87.208173
 20
220.272783
 30
0.0
 11
94.708173
 21
220.272783
 31
0.0
  0
LINE
  5
1B809
330
1B51B
100
AcDbEntity
  8
1
  6
Continuous
100
AcDbLine
 10
86.50817600000001
 20
217.0816519999999
 30
0.0
 11
86.50817600000001
 21
208.188722
 31
0.0
  0
ARC
  5
1B80A
330
1B51B
100
AcDbEntity
  8
1
  6
Continuous
100
AcDbCircle
 10
83.508176
 20
214.9629839999998
 30
0.0
 40
3.0
100
AcDbArc
 50
75.342843
 51
90.00000500000002
  0
LINE
  5
1B80B
330
1B51B
100
AcDbEntity
  8
1
  6
Continuous
100
AcDbLine
 10
82.79998499999997
 20
218.0758839999998
 30
0.0
 11
82.79998499999997
 21
217.962984
 31
0.0
  0
ARC
  5
1B80C
330
1B51B
100
AcDbEntity
  8
1
  6
Continuous
100
AcDbCircle
 10
87.208173
 20
217.2727829999999
 30
0.0
 40
3.0
100
AcDbArc
 50
90.00000500000002
 51
180.0000009999999
  0
ARC
  5
1B80D
330
1B51B
100
AcDbEntity
  8
1
  6
Continuous
100
AcDbCircle
 10
83.20817299999999
 20
214.9191759999999
 30
0.0
 40
1.0
100
AcDbArc
 50
0.000003
 51
90.00000500000002
  0
ARC
  5
1B80E
330
1B51B
100
AcDbEntity
  8
1
  6
Continuous
100
AcDbCircle
 10
103.613279
 20
217.536699
 30
0.0
 40
1.594897999999997
100
AcDbArc
 50
0.000003
 51
75.39465600000003
  0
LINE
  5
1B80F
330
1B51B
100
AcDbEntity
  8
1
  6
Continuous
100
AcDbLine
 10
105.208173
 20
217.536699
 30
0.0
 11
105.208173
 21
215.3455679999999
 31
0.0
  0
ARC
  5
1B810
330
1B51B
100
AcDbEntity
  8
1
  6
Continuous
100
AcDbCircle
 10
103.613279
 20
215.3455679999999
 30
0.0
 40
1.594897999999997
100
AcDbArc
 50
284.60534
 51
75.39465600000003
  0
ARC
  5
1B811
330
1B51B
100
AcDbEntity
  8
1
  6
Continuous
100
AcDbCircle
 10
113.613279
 20
198.0800419999999
 30
0.0
 40
1.594897999999997
100
AcDbArc
 50
0.000003
 51
75.39465600000003
  0
ARC
  5
1B812
330
1B51B
100
AcDbEntity
  8
1
  6
Continuous
100
AcDbCircle
 10
113.613279
 20
195.888903
 30
0.0
 40
1.594897999999997
100
AcDbArc
 50
284.60534
 51
75.39465600000003
  0
LINE
  5
1B813
330
1B51B
100
AcDbEntity
  8
1
  6
Continuous
100
AcDbLine
 10
115.208173
 20
198.0800419999999
 30
0.0
 11
115.208173
 21
195.888903
 31
0.0
  0
LINE
  5
1B814
330
1B51B
100
AcDbEntity
  8
1
  6
Continuous
100
AcDbLine
 10
243.116935
 20
113.3816799999999
 30
0.0
 11
243.116935
 21
97.40873399999999
 31
0.0
  0
LINE
  5
1B815
330
1B51B
100
AcDbEntity
  8
1
  6
Continuous
100
AcDbLine
 10
224.2899299999999
 20
97.40873399999999
 30
0.0
 11
224.2899299999999
 21
111.38168
 31
0.0
  0
ARC
  5
1B816
330
1B51B
100
AcDbEntity
  8
1
  6
Continuous
100
AcDbCircle
 10
200.5396029999999
 20
112.506528
 30
0.0
 40
12.3
100
AcDbArc
 50
269.9999969999999
 51
309.3270449999999
  0
ARC
  5
1B817
330
1B51B
100
AcDbEntity
  8
1
  6
Continuous
100
AcDbCircle
 10
203.7194879999999
 20
113.7984899999999
 30
0.0
 40
15.0
100
AcDbArc
 50
269.9999969999999
 51
312.780344
  0
ARC
  5
1B818
330
1B51B
100
AcDbEntity
  8
1
  6
Continuous
100
AcDbCircle
 10
207.199553
 20
110.206525
 30
0.0
 40
10.0
100
AcDbArc
 50
269.9999969999999
 51
312.780344
  0
ARC
  5
1B819
330
1B51B
100
AcDbEntity
  8
1
  6
Continuous
100
AcDbCircle
 10
200.5396029999999
 20
112.506528
 30
0.0
 40
10.0
100
AcDbArc
 50
269.9999969999999
 51
309.3270449999999
  0
ARC
  5
1B81A
330
1B51B
100
AcDbEntity
  8
1
  6
Continuous
100
AcDbCircle
 10
239.2095719999999
 20
67.71693899999999
 30
0.0
 40
43.12437399999999
100
AcDbArc
 50
116.7931199999999
 51
121.327589
  0
ARC
  5
1B81B
330
1B51B
100
AcDbEntity
  8
1
  6
Continuous
100
AcDbCircle
 10
239.860862
 20
66.587422
 30
0.0
 40
41.824493
100
AcDbArc
 50
116.894644
 51
121.5111899999999
  0
LINE
  5
1B81C
330
1B51B
100
AcDbEntity
  8
1
  6
Continuous
100
AcDbLine
 10
217.25129
 20
104.049703
 30
0.0
 11
220.0062959999999
 21
97.41262500000001
 31
0.0
  0
LINE
  5
1B81D
330
1B51B
100
AcDbEntity
  8
1
  6
Continuous
100
AcDbLine
 10
178.6558239999999
 20
103.2626159999999
 30
0.0
 11
180.055994
 21
101.114438
 31
0.0
  0
LINE
  5
1B81E
330
1B51B
100
AcDbEntity
  8
1
  6
Continuous
100
AcDbLine
 10
160.012459
 20
100.206525
 30
0.0
 11
160.012459
 21
102.1276059999999
 31
0.0
  0
ARC
  5
1B81F
330
1B51B
100
AcDbEntity
  8
1
  6
Continuous
100
AcDbCircle
 10
163.012459
 20
100.528302
 30
0.0
 40
3.0
100
AcDbArc
 50
99.88296500000002
 51
180.000005
  0
ARC
  5
1B820
330
1B51B
100
AcDbEntity
  8
1
  6
Continuous
100
AcDbCircle
 10
168.5288459999999
 20
94.76818599999999
 30
0.0
 40
7.284322999999998
100
AcDbArc
 50
26.11428099999999
 51
142.169349
  0
LINE
  5
1B821
330
1B51B
100
AcDbEntity
  8
1
  6
Continuous
100
AcDbLine
 10
159.7812689999998
 20
95.976911
 30
0.0
 11
218.9067549999998
 21
94.57749599999999
 31
0.0
  0
LINE
  5
1B822
330
1B51B
100
AcDbEntity
  8
1
  6
Continuous
100
AcDbLine
 10
177.034435
 20
96.068692
 30
0.0
 11
215.6395049999999
 21
95.15496500000001
 31
0.0
  0
ARC
  5
1B823
330
1B51B
100
AcDbEntity
  8
1
  6
Continuous
100
AcDbCircle
 10
181.731512
 20
102.206525
 30
0.0
 40
2.0
100
AcDbArc
 50
213.0960179999999
 51
269.9999969999999
  0
LINE
  5
1B824
330
1B51B
100
AcDbEntity
  8
1
  6
Continuous
100
AcDbLine
 10
173.375067
 20
100.206525
 30
0.0
 11
207.199553
 21
100.206525
 31
0.0
  0
ARC
  5
1B825
330
1B51B
100
AcDbEntity
  8
1
  6
Continuous
100
AcDbCircle
 10
165.567711
 20
65.907842
 30
0.0
 40
33.444794
100
AcDbArc
 50
71.06281800000002
 51
97.753913
  0
LINE
  5
1B826
330
1B51B
100
AcDbEntity
  8
1
  6
Continuous
100
AcDbLine
 10
160.012459
 20
100.206525
 30
0.0
 11
163.6826399999999
 21
100.206525
 31
0.0
  0
ARC
  5
1B827
330
1B51B
100
AcDbEntity
  8
1
  6
Continuous
100
AcDbCircle
 10
161.315071
 20
97.139707
 30
0.0
 40
1.924738999999999
100
AcDbArc
 50
97.753913
 51
217.165919
  0
ARC
  5
1B828
330
1B51B
100
AcDbEntity
  8
1
  6
Continuous
100
AcDbCircle
 10
176.2795539999999
 20
96.61912200000001
 30
0.0
 40
0.9342389999999999
100
AcDbArc
 50
323.9023199999999
 51
81.27597299999996
  0
LINE
  5
1B829
330
1B51B
100
AcDbEntity
  8
1
  6
Continuous
100
AcDbLine
 10
203.7194879999999
 20
98.79849
 30
0.0
 11
187.449958
 21
98.79849
 31
0.0
  0
ARC
  5
1B82A
330
1B51B
100
AcDbEntity
  8
1
  6
Continuous
100
AcDbCircle
 10
187.449958
 20
97.79849
 30
0.0
 40
1.0
100
AcDbArc
 50
90.00000300000001
 51
163.009172
  0
LINE
  5
1B82B
330
1B51B
100
AcDbEntity
  8
1
  6
Continuous
100
AcDbLine
 10
186.4936079999999
 20
98.09071799999999
 30
0.0
 11
186.2556129999999
 21
97.31183299999999
 31
0.0
  0
ARC
  5
1B82C
330
1B51B
100
AcDbEntity
  8
1
  6
Continuous
100
AcDbCircle
 10
184.3429089999999
 20
97.896283
 30
0.0
 40
2.0
100
AcDbArc
 50
268.6441429999999
 51
343.009177
  0
ARC
  5
1B82D
330
1B51B
100
AcDbEntity
  8
1
  6
Continuous
100
AcDbCircle
 10
236.835216
 20
-15.967814
 30
0.0
 40
113.1261749999999
100
AcDbArc
 50
88.70075699999999
 51
100.798955
  0
ARC
  5
1B82E
330
1B51B
100
AcDbEntity
  8
1
  6
Continuous
100
AcDbCircle
 10
220.568777
 20
164.797921
 30
0.0
 40
70.24009699999999
100
AcDbArc
 50
268.6441429999999
 51
285.551327
  0
LINE
  5
1B82F
330
1B51B
100
AcDbEntity
  8
1
  6
Continuous
100
AcDbLine
 10
224.2899299999999
 20
97.40873399999999
 30
0.0
 11
243.116935
 21
97.40873399999999
 31
0.0
  0
ARC
  5
1B830
330
1B51B
100
AcDbEntity
  8
1
  6
Continuous
100
AcDbCircle
 10
221.8534749999999
 20
98.179379
 30
0.0
 40
2.0
100
AcDbArc
 50
202.543021
 51
277.4772919999999
  0
LINE
  5
1B831
330
1B51B
100
AcDbEntity
  8
1
  6
Continuous
100
AcDbLine
 10
214.622873
 20
111.1170929999999
 30
0.0
 11
206.8770629999999
 21
104.771115
 31
0.0
  0
LINE
  5
1B832
330
1B51B
100
AcDbEntity
  8
1
  6
Continuous
100
AcDbLine
 10
216.0804909999999
 20
109.337949
 30
0.0
 11
208.33468
 21
102.9919629999999
 31
0.0
  0
ARC
  5
1B833
330
1B51B
100
AcDbEntity
  8
1
  6
Continuous
100
AcDbCircle
 10
168.7963639999999
 20
110.706525
 30
0.0
 40
12.111257
100
AcDbArc
 50
0.0
 51
39.60208899999999
  0
ARC
  5
1B834
330
1B51B
100
AcDbEntity
  8
1
  6
Continuous
100
AcDbCircle
 10
181.58946
 20
104.5065279999999
 30
0.0
 40
2.0
100
AcDbArc
 50
219.573797
 51
269.9999969999999
  0
ARC
  5
1B835
330
1B51B
100
AcDbEntity
  8
1
  6
Continuous
100
AcDbCircle
 10
169.495582
 20
110.706525
 30
0.0
 40
12.111257
100
AcDbArc
 50
0.0
 51
39.60208899999999
  0
ARC
  5
1B836
330
1B51B
100
AcDbEntity
  8
1
  6
Continuous
100
AcDbCircle
 10
175.6448719999999
 20
110.706525
 30
0.0
 40
12.111257
100
AcDbArc
 50
140.3979129999999
 51
180.000005
  0
ARC
  5
1B837
330
1B51B
100
AcDbEntity
  8
1
  6
Continuous
100
AcDbCircle
 10
172.503088
 20
46.053822
 30
0.0
 40
58.295025
100
AcDbArc
 50
85.43835799999998
 51
99.88296500000002
  0
ARC
  5
1B838
330
1B51B
100
AcDbEntity
  8
1
  6
Continuous
100
AcDbCircle
 10
170.455223
 20
63.44896399999999
 30
0.0
 40
42.388218
100
AcDbArc
 50
80.013733
 51
100.892044
  0
LINE
  5
1B839
330
1B51B
100
AcDbEntity
  8
1
  6
Continuous
100
AcDbLine
 10
163.533638
 20
105.268247
 30
0.0
 11
163.533638
 21
110.706525
 31
0.0
  0
ARC
  5
1B83A
330
1B51B
100
AcDbEntity
  8
1
  6
Continuous
100
AcDbCircle
 10
163.012459
 20
102.1276059999999
 30
0.0
 40
3.0
100
AcDbArc
 50
100.892044
 51
180.000005
  0
ARC
  5
1B83B
330
1B51B
100
AcDbEntity
  8
1
  6
Continuous
100
AcDbCircle
 10
176.980322
 20
102.170529
 30
0.0
 40
2.0
100
AcDbArc
 50
33.096013
 51
85.43835799999998
  0
ARC
  5
1B83C
330
1B51B
100
AcDbEntity
  8
1
  6
Continuous
100
AcDbCircle
 10
177.4590279999999
 20
103.225278
 30
0.0
 40
2.0
100
AcDbArc
 50
39.573798
 51
80.013733
  0
LINE
  5
1B83D
330
1B51B
100
AcDbEntity
  8
1
  6
Continuous
100
AcDbLine
 10
179.0006389999998
 20
104.499425
 30
0.0
 11
180.0478509999998
 21
103.232381
 31
0.0
  0
LINE
  5
1B83E
330
1B51B
100
AcDbEntity
  8
1
  6
Continuous
100
AcDbLine
 10
180.907598
 20
102.626355
 30
0.0
 11
180.907598
 21
110.706525
 31
0.0
  0
ARC
  5
1B83F
330
1B51B
100
AcDbEntity
  8
1
  6
Continuous
100
AcDbCircle
 10
172.2206169999998
 20
113.539533
 30
0.0
 40
7.666997999999997
100
AcDbArc
 50
39.60208899999999
 51
140.3979129999999
  0
ARC
  5
1B840
330
1B51B
100
AcDbEntity
  8
1
  6
Continuous
100
AcDbCircle
 10
172.9198429999999
 20
113.539533
 30
0.0
 40
7.666997999999997
100
AcDbArc
 50
39.60208899999999
 51
92.61357399999999
  0
LINE
  5
1B841
330
1B51B
100
AcDbEntity
  8
1
  6
Continuous
100
AcDbLine
 10
181.58946
 20
102.5065279999999
 30
0.0
 11
200.5396029999999
 21
102.5065279999999
 31
0.0
  0
LINE
  5
1B842
330
1B51B
100
AcDbEntity
  8
1
  6
Continuous
100
AcDbLine
 10
181.6068249999999
 20
102.5065279999999
 30
0.0
 11
181.6068249999999
 21
110.706525
 31
0.0
  0
ARC
  5
1B843
330
1B51B
100
AcDbEntity
  8
1
  6
Continuous
100
AcDbCircle
 10
230.1223049999999
 20
120.706525
 30
0.0
 40
12.111257
100
AcDbArc
 50
0.0
 51
39.60208899999999
  0
ARC
  5
1B844
330
1B51B
100
AcDbEntity
  8
1
  6
Continuous
100
AcDbCircle
 10
230.821523
 20
120.706525
 30
0.0
 40
12.111257
100
AcDbArc
 50
0.0
 51
39.60208899999999
  0
ARC
  5
1B845
330
1B51B
100
AcDbEntity
  8
1
  6
Continuous
100
AcDbCircle
 10
236.9708139999999
 20
120.706525
 30
0.0
 40
12.111257
100
AcDbArc
 50
140.3979129999999
 51
180.000005
  0
LINE
  5
1B846
330
1B51B
100
AcDbEntity
  8
1
  6
Continuous
100
AcDbLine
 10
220.9603329999999
 20
113.3816799999999
 30
0.0
 11
243.116935
 21
113.3816799999999
 31
0.0
  0
ARC
  5
1B847
330
1B51B
100
AcDbEntity
  8
1
  6
Continuous
100
AcDbCircle
 10
222.2899299999999
 20
111.38168
 30
0.0
 40
2.0
100
AcDbArc
 50
0.0
 51
90.00000300000001
  0
LINE
  5
1B848
330
1B51B
100
AcDbEntity
  8
1
  6
Continuous
100
AcDbLine
 10
220.9603329999999
 20
111.081677
 30
0.0
 11
224.2899299999999
 21
111.081677
 31
0.0
  0
ARC
  5
1B849
330
1B51B
100
AcDbEntity
  8
1
  6
Continuous
100
AcDbCircle
 10
224.827207
 20
106.0816769999999
 30
0.0
 40
5.0
100
AcDbArc
 50
96.16866100000001
 51
132.7803389999999
  0
ARC
  5
1B84A
330
1B51B
100
AcDbEntity
  8
1
  6
Continuous
100
AcDbCircle
 10
216.327697
 20
103.6663329999999
 30
0.0
 40
1.0
100
AcDbArc
 50
22.54301499999999
 51
132.7803389999999
  0
ARC
  5
1B84B
330
1B51B
100
AcDbEntity
  8
1
  6
Continuous
100
AcDbCircle
 10
220.9603329999999
 20
103.38168
 30
0.0
 40
10.0
100
AcDbArc
 50
90.00000300000001
 51
129.32705
  0
ARC
  5
1B84C
330
1B51B
100
AcDbEntity
  8
1
  6
Continuous
100
AcDbCircle
 10
220.9603329999999
 20
103.38168
 30
0.0
 40
7.7
100
AcDbArc
 50
90.00000300000001
 51
129.32705
  0
LINE
  5
1B84D
330
1B51B
100
AcDbEntity
  8
1
  6
Continuous
100
AcDbLine
 10
213.907327
 20
102.7890519999999
 30
0.0
 11
221.4312529999999
 21
109.751492
 31
0.0
  0
LINE
  5
1B84E
330
1B51B
100
AcDbEntity
  8
1
  6
Continuous
100
AcDbLine
 10
224.8595789999999
 20
113.3816799999999
 30
0.0
 11
224.8595789999999
 21
120.706525
 31
0.0
  0
LINE
  5
1B84F
330
1B51B
100
AcDbEntity
  8
1
  6
Continuous
100
AcDbLine
 10
242.233543
 20
113.3816799999999
 30
0.0
 11
242.233543
 21
120.706525
 31
0.0
  0
LINE
  5
1B850
330
1B51B
100
AcDbEntity
  8
1
  6
Continuous
100
AcDbLine
 10
242.9327699999999
 20
113.3816799999999
 30
0.0
 11
242.9327699999999
 21
120.706525
 31
0.0
  0
ARC
  5
1B851
330
1B51B
100
AcDbEntity
  8
1
  6
Continuous
100
AcDbCircle
 10
233.54656
 20
123.539533
 30
0.0
 40
7.666997999999997
100
AcDbArc
 50
39.60208899999999
 51
140.3979129999999
  0
ARC
  5
1B852
330
1B51B
100
AcDbEntity
  8
1
  6
Continuous
100
AcDbCircle
 10
234.245779
 20
123.539533
 30
0.0
 40
7.666997999999997
100
AcDbArc
 50
39.60208899999999
 51
92.61357399999999
  0
LINE
  5
1B853
330
1B51B
100
AcDbEntity
  8
1
  6
Continuous
100
AcDbLine
 10
334.4171279999998
 20
173.21303
 30
0.0
 11
334.4171279999998
 21
198.816133
 31
0.0
  0
LINE
  5
1B854
330
1B51B
100
AcDbEntity
  8
1
  6
Continuous
100
AcDbLine
 10
345.7900809999999
 20
173.21303
 30
0.0
 11
345.7900809999999
 21
189.440439
 31
0.0
  0
LINE
  5
1B855
330
1B51B
100
AcDbEntity
  8
1
  6
Continuous
100
AcDbLine
 10
348.09008
 20
170.8869339999999
 30
0.0
 11
348.09008
 21
188.8928469999999
 31
0.0
  0
LINE
  5
1B856
330
1B51B
100
AcDbEntity
  8
1
  6
Continuous
100
AcDbLine
 10
332.1171279999999
 20
172.913034
 30
0.0
 11
332.1171279999999
 21
192.152819
 31
0.0
  0
LINE
  5
1B857
330
1B51B
100
AcDbEntity
  8
1
  6
Continuous
100
AcDbLine
 10
348.09008
 20
170.8869339999999
 30
0.0
 11
348.09008
 21
207.343958
 31
0.0
  0
LINE
  5
1B858
330
1B51B
100
AcDbEntity
  8
1
  6
Continuous
100
AcDbLine
 10
348.59008
 20
170.8869339999999
 30
0.0
 11
348.59008
 21
207.343958
 31
0.0
  0
ARC
  5
1B859
330
1B51B
100
AcDbEntity
  8
1
  6
Continuous
100
AcDbCircle
 10
335.1171279999999
 20
172.913034
 30
0.0
 40
3.0
100
AcDbArc
 50
180.0000029999999
 51
269.999991
  0
LINE
  5
1B85A
330
1B51B
100
AcDbEntity
  8
1
  6
Continuous
100
AcDbLine
 10
348.59008
 20
170.8869339999999
 30
0.0
 11
348.09008
 21
170.8869339999999
 31
0.0
  0
ARC
  5
1B85B
330
1B51B
100
AcDbEntity
  8
1
  6
Continuous
100
AcDbCircle
 10
344.790081
 20
173.21303
 30
0.0
 40
1.0
100
AcDbArc
 50
269.999991
 51
0.000001
  0
ARC
  5
1B85C
330
1B51B
100
AcDbEntity
  8
1
  6
Continuous
100
AcDbCircle
 10
335.417128
 20
173.21303
 30
0.0
 40
1.0
100
AcDbArc
 50
180.0000029999999
 51
269.999991
  0
LINE
  5
1B85D
330
1B51B
100
AcDbEntity
  8
1
  6
Continuous
100
AcDbLine
 10
344.790081
 20
172.21303
 30
0.0
 11
335.417128
 21
172.21303
 31
0.0
  0
LINE
  5
1B85E
330
1B51B
100
AcDbEntity
  8
1
  6
Continuous
100
AcDbLine
 10
345.7900809999999
 20
177.2848449999999
 30
0.0
 11
334.4171279999998
 21
177.2848449999999
 31
0.0
  0
LINE
  5
1B85F
330
1B51B
100
AcDbEntity
  8
1
  6
Continuous
100
AcDbLine
 10
345.0900799999998
 20
169.913034
 30
0.0
 11
335.1171279999999
 21
169.913034
 31
0.0
  0
ARC
  5
1B860
330
1B51B
100
AcDbEntity
  8
1
  6
Continuous
100
AcDbCircle
 10
345.0900799999998
 20
172.913034
 30
0.0
 40
3.0
100
AcDbArc
 50
269.999991
 51
0.000001
  0
ARC
  5
1B861
330
1B51B
100
AcDbEntity
  8
1
  6
Continuous
100
AcDbCircle
 10
324.7922799999999
 20
163.905886
 30
0.0
 40
36.91024399999999
100
AcDbArc
 50
90.00000300000001
 51
104.605337
  0
ARC
  5
1B862
330
1B51B
100
AcDbEntity
  8
1
  6
Continuous
100
AcDbCircle
 10
324.7922799999999
 20
230.0630659999999
 30
0.0
 40
36.91024399999999
100
AcDbArc
 50
255.3946559999999
 51
269.999991
  0
ARC
  5
1B863
330
1B51B
100
AcDbEntity
  8
1
  6
Continuous
100
AcDbCircle
 10
324.7922799999999
 20
232.254198
 30
0.0
 40
36.91024399999999
100
AcDbArc
 50
255.3946559999999
 51
269.999991
  0
LINE
  5
1B864
330
1B51B
100
AcDbEntity
  8
1
  6
Continuous
100
AcDbLine
 10
314.29228
 20
195.88891
 30
0.0
 11
314.29228
 21
198.0800419999999
 31
0.0
  0
ARC
  5
1B865
330
1B51B
100
AcDbEntity
  8
1
  6
Continuous
100
AcDbCircle
 10
315.887179
 20
195.88891
 30
0.0
 40
1.594897999999997
100
AcDbArc
 50
180.0000029999999
 51
255.3946559999999
  0
ARC
  5
1B866
330
1B51B
100
AcDbEntity
  8
1
  6
Continuous
100
AcDbCircle
 10
315.887179
 20
198.0800419999999
 30
0.0
 40
1.594899
100
AcDbArc
 50
104.6053479999998
 51
255.394645
  0
ARC
  5
1B867
330
1B51B
100
AcDbEntity
  8
1
  6
Continuous
100
AcDbCircle
 10
332.4171279999998
 20
198.816133
 30
0.0
 40
2.0
100
AcDbArc
 50
359.999997
 51
90.00000300000001
  0
LINE
  5
1B868
330
1B51B
100
AcDbEntity
  8
1
  6
Continuous
100
AcDbLine
 10
338.000306
 20
200.724412
 30
0.0
 11
335.260359
 21
198.781755
 31
0.0
  0
LINE
  5
1B869
330
1B51B
100
AcDbEntity
  8
1
  6
Continuous
100
AcDbLine
 10
338.000306
 20
202.9462319999999
 30
0.0
 11
333.9637169999999
 21
200.0842379999999
 31
0.0
  0
ARC
  5
1B86A
330
1B51B
100
AcDbEntity
  8
1
  6
Continuous
100
AcDbCircle
 10
348.59008
 20
201.34395
 30
0.0
 40
5.0
100
AcDbArc
 50
104.47751
 51
204.0800669999999
  0
ARC
  5
1B86B
330
1B51B
100
AcDbEntity
  8
1
  6
Continuous
100
AcDbCircle
 10
331.417128
 20
192.34395
 30
0.0
 40
3.0
100
AcDbArc
 50
359.999997
 51
90.00000300000001
  0
LINE
  5
1B86C
330
1B51B
100
AcDbEntity
  8
1
  6
Continuous
100
AcDbLine
 10
332.4171279999998
 20
200.816133
 30
0.0
 11
324.7922799999999
 21
200.816133
 31
0.0
  0
LINE
  5
1B86D
330
1B51B
100
AcDbEntity
  8
1
  6
Continuous
100
AcDbLine
 10
331.417128
 20
195.34395
 30
0.0
 11
324.7922799999999
 21
195.34395
 31
0.0
  0
ARC
  5
1B86E
330
1B51B
100
AcDbEntity
  8
1
  6
Continuous
100
AcDbCircle
 10
331.1171279999999
 20
192.152819
 30
0.0
 40
1.0
100
AcDbArc
 50
359.999997
 51
90.00000300000001
  0
LINE
  5
1B86F
330
1B51B
100
AcDbEntity
  8
1
  6
Continuous
100
AcDbLine
 10
331.1171279999999
 20
193.152819
 30
0.0
 11
324.7922799999999
 21
193.152819
 31
0.0
  0
LINE
  5
1B870
330
1B51B
100
AcDbEntity
  8
1
  6
Continuous
100
AcDbLine
 10
344.0252
 20
199.3038959999999
 30
0.0
 11
345.712692
 21
195.5279329999999
 31
0.0
  0
ARC
  5
1B871
330
1B51B
100
AcDbEntity
  8
1
  6
Continuous
100
AcDbCircle
 10
343.0900799999998
 20
188.8928469999999
 30
0.0
 40
5.0
100
AcDbArc
 50
359.999997
 51
22.929523
  0
LINE
  5
1B872
330
1B51B
100
AcDbEntity
  8
1
  6
Continuous
100
AcDbLine
 10
348.09008
 20
194.34395
 30
0.0
 11
347.5386449999998
 21
194.34395
 31
0.0
  0
LINE
  5
1B873
330
1B51B
100
AcDbEntity
  8
1
  6
Continuous
100
AcDbLine
 10
343.6718159999998
 20
194.447878
 30
0.0
 11
345.7900829999999
 21
189.440439
 31
0.0
  0
LINE
  5
1B874
330
1B51B
100
AcDbEntity
  8
1
  6
Continuous
100
AcDbLine
 10
345.7900809999999
 20
195.3439579999999
 30
0.0
 11
347.695007
 21
190.8408449999998
 31
0.0
  0
ARC
  5
1B875
330
1B51B
100
AcDbEntity
  8
1
  6
Continuous
100
AcDbCircle
 10
347.5386449999998
 20
196.3439499999998
 30
0.0
 40
2.0
100
AcDbArc
 50
202.9295209999999
 51
269.999991
  0
LINE
  5
1B876
330
1B51B
100
AcDbEntity
  8
1
  6
Continuous
100
AcDbLine
 10
345.7900809999999
 20
195.3439579999999
 30
0.0
 11
343.6718159999998
 21
194.447878
 31
0.0
  0
ARC
  5
1B877
330
1B51B
100
AcDbEntity
  8
1
  6
Continuous
100
AcDbCircle
 10
336.4171279999998
 20
197.150225
 30
0.0
 40
2.0
100
AcDbArc
 50
125.3371139999998
 51
180.0000029999999
  0
ARC
  5
1B878
330
1B51B
100
AcDbEntity
  8
1
  6
Continuous
100
AcDbCircle
 10
344.292282
 20
183.3791369999999
 30
0.0
 40
1.0
100
AcDbArc
 50
307.965847
 51
359.999997
  0
ARC
  5
1B879
330
1B51B
100
AcDbEntity
  8
1
  6
Continuous
100
AcDbCircle
 10
342.2518999999998
 20
185.993921
 30
0.0
 40
4.316663
100
AcDbArc
 50
281.031065
 51
307.965847
  0
ARC
  5
1B87A
330
1B51B
100
AcDbEntity
  8
1
  6
Continuous
100
AcDbCircle
 10
336.319563
 20
177.751505
 30
0.0
 40
2.700562999999998
100
AcDbArc
 50
100.547515
 51
134.7858339999999
  0
LINE
  5
1B87B
330
1B51B
100
AcDbEntity
  8
1
  6
Continuous
100
AcDbLine
 10
335.825224
 20
180.406443
 30
0.0
 11
343.0420689999999
 21
181.7501929999998
 31
0.0
  0
LINE
  5
1B87C
330
1B51B
100
AcDbEntity
  8
1
  6
Continuous
100
AcDbLine
 10
345.2922819999998
 20
188.318855
 30
0.0
 11
345.2922819999998
 21
183.3791369999999
 31
0.0
  0
ARC
  5
1B87D
330
1B51B
100
AcDbEntity
  8
1
  6
Continuous
100
AcDbCircle
 10
334.7922839999998
 20
249.519716
 30
0.0
 40
36.91024399999999
100
AcDbArc
 50
255.3946559999999
 51
269.999991
  0
ARC
  5
1B87E
330
1B51B
100
AcDbEntity
  8
1
  6
Continuous
100
AcDbCircle
 10
334.7922839999998
 20
251.710863
 30
0.0
 40
36.91024399999999
100
AcDbArc
 50
255.3946559999999
 51
269.999991
  0
ARC
  5
1B87F
330
1B51B
100
AcDbEntity
  8
1
  6
Continuous
100
AcDbCircle
 10
334.7922839999998
 20
183.3625429999999
 30
0.0
 40
36.91024399999999
100
AcDbArc
 50
90.00000300000001
 51
104.605337
  0
LINE
  5
1B880
330
1B51B
100
AcDbEntity
  8
1
  6
Continuous
100
AcDbLine
 10
324.29228
 20
215.3455679999999
 30
0.0
 11
324.29228
 21
217.536699
 31
0.0
  0
ARC
  5
1B881
330
1B51B
100
AcDbEntity
  8
1
  6
Continuous
100
AcDbCircle
 10
325.8871819999999
 20
215.3455679999999
 30
0.0
 40
1.594897999999997
100
AcDbArc
 50
180.0000029999999
 51
255.3946559999999
  0
ARC
  5
1B882
330
1B51B
100
AcDbEntity
  8
1
  6
Continuous
100
AcDbCircle
 10
325.8871819999999
 20
217.536699
 30
0.0
 40
1.594897999999997
100
AcDbArc
 50
104.605337
 51
255.3946559999999
  0
LINE
  5
1B883
330
1B51B
100
AcDbEntity
  8
1
  6
Continuous
100
AcDbLine
 10
342.292282
 20
220.272783
 30
0.0
 11
334.7922839999998
 21
220.272783
 31
0.0
  0
ARC
  5
1B884
330
1B51B
100
AcDbEntity
  8
1
  6
Continuous
100
AcDbCircle
 10
342.292282
 20
211.800608
 30
0.0
 40
3.0
100
AcDbArc
 50
72.928717
 51
90.00000300000001
  0
LINE
  5
1B885
330
1B51B
100
AcDbEntity
  8
1
  6
Continuous
100
AcDbLine
 10
348.59008
 20
207.343958
 30
0.0
 11
348.09008
 21
207.343958
 31
0.0
  0
LINE
  5
1B886
330
1B51B
100
AcDbEntity
  8
1
  6
Continuous
100
AcDbLine
 10
348.59008
 20
206.3439579999999
 30
0.0
 11
348.59008
 21
206.3439579999999
 31
0.0
  0
ARC
  5
1B887
330
1B51B
100
AcDbEntity
  8
1
  6
Continuous
100
AcDbCircle
 10
347.0900799999999
 20
207.1534289999999
 30
0.0
 40
1.0
100
AcDbArc
 50
284.47751
 51
359.999997
  0
LINE
  5
1B888
330
1B51B
100
AcDbEntity
  8
1
  6
Continuous
100
AcDbLine
 10
341.9922829999998
 20
212.609468
 30
0.0
 11
334.7922839999998
 21
212.609468
 31
0.0
  0
ARC
  5
1B889
330
1B51B
100
AcDbEntity
  8
1
  6
Continuous
100
AcDbCircle
 10
341.9922829999998
 20
211.6094679999999
 30
0.0
 40
1.0
100
AcDbArc
 50
79.144532
 51
90.00000300000001
  0
LINE
  5
1B88A
330
1B51B
100
AcDbEntity
  8
1
  6
Continuous
100
AcDbLine
 10
342.292282
 20
214.800608
 30
0.0
 11
334.7922839999998
 21
214.800608
 31
0.0
  0
ARC
  5
1B88B
330
1B51B
100
AcDbEntity
  8
1
  6
Continuous
100
AcDbCircle
 10
342.292282
 20
217.2727829999999
 30
0.0
 40
3.0
100
AcDbArc
 50
20.87637099999998
 51
90.00000300000001
  0
ARC
  5
1B88C
330
1B51B
100
AcDbEntity
  8
1
  6
Continuous
100
AcDbCircle
 10
193.721123
 20
200.1695799999999
 30
0.0
 40
29.20827899999999
100
AcDbArc
 50
317.754146
 51
356.085004
  0
LINE
  5
1B88D
330
1B51B
100
AcDbEntity
  8
1
  6
Continuous
100
AcDbLine
 10
242.9328069999999
 20
195.343957
 30
0.0
 11
234.8174339999999
 21
169.91303
 31
0.0
  0
LINE
  5
1B88E
330
1B51B
100
AcDbEntity
  8
5
  6
PHANTOM
100
AcDbLine
 10
178.3206329999999
 20
200.8329569999999
 30
0.0
 11
183.1892169999999
 21
184.952123
 31
0.0
  0
ARC
  5
1B88F
330
1B51B
100
AcDbEntity
  8
1
  6
Continuous
100
AcDbCircle
 10
203.31881
 20
219.6934979999999
 30
0.0
 40
36.742039
100
AcDbArc
 50
231.485742
 51
260.9257769999999
  0
LINE
  5
1B890
330
1B51B
100
AcDbEntity
  8
5
  6
PHANTOM
100
AcDbLine
 10
157.6498869999998
 20
198.1239629999999
 30
0.0
 11
161.175927
 21
183.768897
 31
0.0
  0
ARC
  5
1B891
330
1B51B
100
AcDbEntity
  8
1
  6
Continuous
100
AcDbCircle
 10
170.311691
 20
193.581682
 30
0.0
 40
7.0
100
AcDbArc
 50
144.898884
 51
345.04318
  0
ARC
  5
1B892
330
1B51B
100
AcDbEntity
  8
1
  6
Continuous
100
AcDbCircle
 10
170.311691
 20
193.581682
 30
0.0
 40
8.769199
100
AcDbArc
 50
195.095382
 51
345.0421349999999
  0
ARC
  5
1B893
330
1B51B
100
AcDbEntity
  8
5
  6
PHANTOM
100
AcDbCircle
 10
188.8434249999999
 20
194.7962589999999
 30
0.0
 40
21.359447
100
AcDbArc
 50
333.14825
 51
45.703385
  0
ARC
  5
1B894
330
1B51B
100
AcDbEntity
  8
1
  6
Continuous
100
AcDbCircle
 10
189.672441
 20
201.137316
 30
0.0
 40
21.359447
100
AcDbArc
 50
301.64925
 51
14.204385
  0
LINE
  5
1B895
330
1B51B
100
AcDbEntity
  8
5
  6
PHANTOM
100
AcDbLine
 10
204.7996799999999
 20
183.784534
 30
0.0
 11
221.9551069999999
 21
190.8641689999998
 31
0.0
  0
LINE
  5
1B896
330
1B51B
100
AcDbEntity
  8
1
  6
Continuous
100
AcDbLine
 10
218.9240349999999
 20
174.984842
 30
0.0
 11
234.8174339999999
 21
169.91303
 31
0.0
  0
ARC
  5
1B897
330
1B51B
100
AcDbEntity
  8
1
  6
Continuous
100
AcDbCircle
 10
218.5185469999999
 20
202.6120389999999
 30
0.0
 40
31.725105
100
AcDbArc
 50
247.878948
 51
286.639042
  0
ARC
  5
1B898
330
1B51B
100
AcDbEntity
  8
5
  6
PHANTOM
100
AcDbCircle
 10
190.7836889999999
 20
217.7481809999999
 30
0.0
 40
36.742039
100
AcDbArc
 50
262.9847419999999
 51
292.424777
  0
ARC
  5
1B899
330
1B51B
100
AcDbEntity
  8
1
  6
Continuous
100
AcDbCircle
 10
208.662553
 20
197.3468949999999
 30
0.0
 40
23.136105
100
AcDbArc
 50
209.0967919999999
 51
247.878948
  0
ARC
  5
1B89A
330
1B51B
100
AcDbEntity
  8
5
  6
PHANTOM
100
AcDbCircle
 10
176.782994
 20
132.9936449999999
 30
0.0
 40
52.454384
100
AcDbArc
 50
91.204067
 51
107.090609
  0
ARC
  5
1B89B
330
1B51B
100
AcDbEntity
  8
5
  6
PHANTOM
100
AcDbCircle
 10
171.200459
 20
223.0573009999999
 30
0.0
 40
44.42003299999998
100
AcDbArc
 50
264.382062
 51
289.8675
  0
ARC
  5
1B89C
330
1B51B
100
AcDbEntity
  8
5
  6
PHANTOM
100
AcDbCircle
 10
167.4882889999999
 20
185.319402
 30
0.0
 40
6.5
100
AcDbArc
 50
193.800373
 51
264.3820589999999
  0
ARC
  5
1B89D
330
1B51B
100
AcDbEntity
  8
5
  6
PHANTOM
100
AcDbCircle
 10
180.621408
 20
179.627901
 30
0.0
 40
5.911087
100
AcDbArc
 50
16.241307
 51
91.204067
  0
LINE
  5
1B89E
330
1B51B
100
AcDbEntity
  8
5
  6
PHANTOM
100
AcDbLine
 10
175.6807549999998
 20
185.4364549999999
 30
0.0
 11
180.497199
 21
185.537689
 31
0.0
  0
LINE
  5
1B89F
330
1B51B
100
AcDbEntity
  8
1
  6
Continuous
100
AcDbLine
 10
199.950311
 20
175.913824
 30
0.0
 11
206.5719929999999
 21
173.222204
 31
0.0
  0
LINE
  5
1B8A0
330
1B51B
100
AcDbEntity
  8
1
  6
Continuous
100
AcDbLine
 10
197.5240839999999
 20
183.411293
 30
0.0
 11
215.8506399999999
 21
180.4843079999999
 31
0.0
  0
LINE
  5
1B8A1
330
1B51B
100
AcDbEntity
  8
1
  6
Continuous
100
AcDbLine
 10
219.030455
 20
175.318325
 30
0.0
 11
218.9240349999999
 21
174.984842
 31
0.0
  0
ARC
  5
1B8A2
330
1B51B
100
AcDbEntity
  8
1
  6
Continuous
100
AcDbCircle
 10
215.219781
 20
176.5343719999999
 30
0.0
 40
4.0
100
AcDbArc
 50
342.3013749999999
 51
80.925775
  0
LINE
  5
1B8A3
330
1B51B
100
AcDbEntity
  8
5
  6
PHANTOM
100
AcDbLine
 10
220.3510279999999
 20
211.156904
 30
0.0
 11
237.831414
 21
215.4506199999999
 31
0.0
  0
LINE
  5
1B8A4
330
1B51B
100
AcDbEntity
  8
5
  6
PHANTOM
100
AcDbLine
 10
219.8023849999999
 20
213.390513
 30
0.0
 11
237.282773
 21
217.6842289999999
 31
0.0
  0
LINE
  5
1B8A5
330
1B51B
100
AcDbEntity
  8
1
  6
Continuous
100
AcDbLine
 10
210.378856
 20
206.37853
 30
0.0
 11
222.9339669999998
 21
198.141107
 31
0.0
  0
ARC
  5
1B8A6
330
1B51B
100
AcDbEntity
  8
5
  6
PHANTOM
100
AcDbCircle
 10
192.8011569999999
 20
196.0864909999999
 30
0.0
 40
29.20827899999999
100
AcDbArc
 50
349.253146
 51
27.58400399999999
  0
ARC
  5
1B8A7
330
1B51B
100
AcDbEntity
  8
5
  6
PHANTOM
100
AcDbCircle
 10
218.81564
 20
211.1194339999999
 30
0.0
 40
1.5
100
AcDbArc
 50
268.230068
 51
13.800375
  0
ARC
  5
1B8A8
330
1B51B
100
AcDbEntity
  8
1
  6
Continuous
100
AcDbCircle
 10
178.840127
 20
223.7825829999999
 30
0.0
 40
13.901426
100
AcDbArc
 50
302.980925
 51
335.2516479999998
  0
ARC
  5
1B8A9
330
1B51B
100
AcDbEntity
  8
5
  6
PHANTOM
100
AcDbCircle
 10
194.5641809999999
 20
213.7091649999999
 30
0.0
 40
8.131586
100
AcDbArc
 50
196.8184699999999
 51
227.79809
  0
ARC
  5
1B8AA
330
1B51B
100
AcDbEntity
  8
1
  6
Continuous
100
AcDbCircle
 10
185.321023
 20
194.2704489999999
 30
0.0
 40
26.85513499999998
100
AcDbArc
 50
28.154219
 51
118.649975
  0
ARC
  5
1B8AB
330
1B51B
100
AcDbEntity
  8
5
  6
PHANTOM
100
AcDbCircle
 10
167.7754779999999
 20
208.4450229999999
 30
0.0
 40
13.901426
100
AcDbArc
 50
334.4799249999999
 51
6.750647999999999
  0
LINE
  5
1B8AC
330
1B51B
100
AcDbEntity
  8
1
  6
Continuous
100
AcDbLine
 10
183.854267
 20
211.782489
 30
0.0
 11
179.707984
 21
195.697951
 31
0.0
  0
LINE
  5
1B8AD
330
1B51B
100
AcDbEntity
  8
1
  6
Continuous
100
AcDbLine
 10
164.813964
 20
220.272795
 30
0.0
 11
160.320152
 21
206.1906589999999
 31
0.0
  0
LINE
  5
1B8AE
330
1B51B
100
AcDbEntity
  8
5
  6
PHANTOM
100
AcDbLine
 10
157.6498869999998
 20
198.1239629999999
 30
0.0
 11
175.130276
 21
202.4176809999999
 31
0.0
  0
LINE
  5
1B8AF
330
1B51B
100
AcDbEntity
  8
5
  6
PHANTOM
100
AcDbLine
 10
158.1985259999999
 20
195.8903559999999
 30
0.0
 11
178.328921
 21
200.834994
 31
0.0
  0
ARC
  5
1B8B0
330
1B51B
100
AcDbEntity
  8
1
  6
Continuous
100
AcDbCircle
 10
147.0982659999999
 20
154.742739
 30
0.0
 40
52.454384
100
AcDbArc
 50
59.70506700000001
 51
75.59160899999998
  0
ARC
  5
1B8B1
330
1B51B
100
AcDbEntity
  8
1
  6
Continuous
100
AcDbCircle
 10
189.395112
 20
234.4522339999998
 30
0.0
 40
44.42003299999998
100
AcDbArc
 50
232.883062
 51
258.3685
  0
ARC
  5
1B8B2
330
1B51B
100
AcDbEntity
  8
1
  6
Continuous
100
AcDbCircle
 10
166.5124959999999
 20
204.2145899999999
 30
0.0
 40
6.5
100
AcDbArc
 50
162.301373
 51
232.8830589999999
  0
ARC
  5
1B8B3
330
1B51B
100
AcDbEntity
  8
1
  6
Continuous
100
AcDbCircle
 10
197.778161
 20
192.548586
 30
0.0
 40
35.954819
100
AcDbArc
 50
169.416175
 51
181.992781
  0
LINE
  5
1B8B4
330
1B51B
100
AcDbEntity
  8
1
  6
Continuous
100
AcDbLine
 10
173.558956
 20
200.0339649999999
 30
0.0
 11
177.7185849999999
 21
197.603769
 31
0.0
  0
LINE
  5
1B8B5
330
1B51B
100
AcDbEntity
  8
5
  6
PHANTOM
100
AcDbLine
 10
175.130276
 20
202.4176809999999
 30
0.0
 11
175.678919
 21
200.184073
 31
0.0
  0
ARC
  5
1B8B6
330
1B51B
100
AcDbEntity
  8
5
  6
PHANTOM
100
AcDbCircle
 10
177.613305
 20
203.748392
 30
0.0
 40
3.0
100
AcDbArc
 50
283.8003719999999
 51
334.4799249999999
  0
ARC
  5
1B8B7
330
1B51B
100
AcDbEntity
  8
1
  6
Continuous
100
AcDbCircle
 10
174.736724
 20
192.499895
 30
0.0
 40
5.911087
100
AcDbArc
 50
344.7423069999999
 51
59.70506700000001
  0
LINE
  5
1B8B8
330
1B51B
100
AcDbEntity
  8
1
  6
Continuous
100
AcDbLine
 10
164.1147379999999
 20
218.0816549999999
 30
0.0
 11
183.8623979999999
 21
211.779895
 31
0.0
  0
LINE
  5
1B8B9
330
1B51B
100
AcDbEntity
  8
1
  6
Continuous
100
AcDbLine
 10
164.813964
 20
220.272795
 30
0.0
 11
181.962003
 21
214.8006109999998
 31
0.0
  0
LINE
  5
1B8BA
330
1B51B
100
AcDbEntity
  8
1
  6
Continuous
100
AcDbLine
 10
181.962003
 20
214.8006109999998
 30
0.0
 11
181.262779
 21
212.6094699999999
 31
0.0
  0
ARC
  5
1B8BB
330
1B51B
100
AcDbEntity
  8
1
  6
Continuous
100
AcDbCircle
 10
184.7744309999999
 20
214.637899
 30
0.0
 40
3.0
100
AcDbArc
 50
252.301372
 51
302.980925
  0
LINE
  5
1B8BC
330
1B51B
100
AcDbEntity
  8
5
  6
PHANTOM
100
AcDbLine
 10
181.580527
 20
210.079114
 30
0.0
 11
186.7804199999999
 21
211.356366
 31
0.0
  0
LINE
  5
1B8BD
330
1B51B
100
AcDbEntity
  8
5
  6
PHANTOM
100
AcDbLine
 10
189.101827
 20
207.685427
 30
0.0
 11
203.760287
 21
210.0839399999999
 31
0.0
  0
LINE
  5
1B8BE
330
1B51B
100
AcDbEntity
  8
1
  6
Continuous
100
AcDbLine
 10
196.627147
 20
211.992245
 30
0.0
 11
210.3788569999999
 21
206.3785279999999
 31
0.0
  0
LINE
  5
1B8BF
330
1B51B
100
AcDbEntity
  8
5
  6
PHANTOM
100
AcDbLine
 10
203.760286
 20
210.0839419999998
 30
0.0
 11
218.769311
 21
209.6201489999999
 31
0.0
  0
ARC
  5
1B8C0
330
1B51B
100
AcDbEntity
  8
1
  6
Continuous
100
AcDbCircle
 10
204.431924
 20
214.274389
 30
0.0
 40
8.131586
100
AcDbArc
 50
165.31947
 51
196.29909
  0
LINE
  5
1B8C1
330
1B51B
100
AcDbEntity
  8
1
  6
Continuous
100
AcDbLine
 10
191.4647779999999
 20
217.9629759999999
 30
0.0
 11
196.565807
 21
216.335165
 31
0.0
  0
LINE
  5
1B8C2
330
1B51B
100
AcDbEntity
  8
1
  6
Continuous
100
AcDbLine
 10
197.7508219999999
 20
218.075878
 30
0.0
 11
196.565804
 21
216.3351669999999
 31
0.0
  0
LINE
  5
1B8C3
330
1B51B
100
AcDbEntity
  8
5
  6
PHANTOM
100
AcDbLine
 10
219.8023849999999
 20
213.390513
 30
0.0
 11
220.272341
 21
211.477246
 31
0.0
  0
LINE
  5
1B8C4
330
1B51B
100
AcDbEntity
  8
5
  6
PHANTOM
100
AcDbLine
 10
237.282773
 20
217.6842289999999
 30
0.0
 11
243.65045
 21
191.7604169999999
 31
0.0
  0
LINE
  5
1B8C5
330
1B51B
100
AcDbEntity
  8
1
  6
Continuous
100
AcDbLine
 10
225.0855459999999
 20
198.624999
 30
0.0
 11
242.2335809999999
 21
193.152816
 31
0.0
  0
LINE
  5
1B8C6
330
1B51B
100
AcDbEntity
  8
1
  6
Continuous
100
AcDbLine
 10
225.78477
 20
200.816141
 30
0.0
 11
242.9328069999999
 21
195.343957
 31
0.0
  0
LINE
  5
1B8C7
330
1B51B
100
AcDbEntity
  8
5
  6
PHANTOM
100
AcDbLine
 10
227.449016
 20
187.780853
 30
0.0
 11
243.65045
 21
191.7604169999999
 31
0.0
  0
LINE
  5
1B8C8
330
1B51B
100
AcDbEntity
  8
1
  6
Continuous
100
AcDbLine
 10
225.78477
 20
200.816141
 30
0.0
 11
225.1858279999999
 21
198.939251
 31
0.0
  0
LINE
  5
1B8C9
330
1B51B
100
AcDbEntity
  8
5
  6
PHANTOM
100
AcDbLine
 10
227.365516
 20
188.120799
 30
0.0
 11
227.449016
 21
187.780853
 31
0.0
  0
ARC
  5
1B8CA
330
1B51B
100
AcDbEntity
  8
5
  6
PHANTOM
100
AcDbCircle
 10
223.4809819999999
 20
187.1666459999999
 30
0.0
 40
4.0
100
AcDbArc
 50
13.800375
 51
112.424775
  0
ARC
  5
1B8CB
330
1B51B
100
AcDbEntity
  8
1
  6
Continuous
100
AcDbCircle
 10
223.756821
 20
199.3952649999999
 30
0.0
 40
1.5
100
AcDbArc
 50
236.731068
 51
342.3013749999999
  0
LINE
  5
1B8CC
330
1B51B
100
AcDbEntity
  8
1
  6
Continuous
100
AcDbLine
 10
193.500113
 20
102.5065279999999
 30
0.0
 11
193.500113
 21
104.006525
 31
0.0
  0
LINE
  5
1B8CD
330
1B51B
100
AcDbEntity
  8
1
  6
Continuous
100
AcDbLine
 10
86.50817600000001
 20
189.4970029999998
 30
0.0
 11
88.00815
 21
189.4970029999998
 31
0.0
  0
CIRCLE
  5
1B8CE
330
1B51B
100
AcDbEntity
  8
1
  6
Continuous
100
AcDbCircle
 10
200.500153
 20
196.497003
 30
0.0
 40
7.0
  0
LINE
  5
1B8CF
330
1B51B
100
AcDbEntity
  8
1
  6
Continuous
100
AcDbLine
 10
197.7004709999999
 20
305.137247
 30
0.0
 11
196.500471
 21
306.337247
 31
0.0
  0
LINE
  5
1B8D0
330
1B51B
100
AcDbEntity
  8
2
  6
Continuous
100
AcDbLine
 10
197.176971
 20
305.660747
 30
0.0
 11
197.176971
 21
307.0372469999999
 31
0.0
  0
LINE
  5
1B8D1
330
1B51B
100
AcDbEntity
  8
1
  6
Continuous
100
AcDbLine
 10
196.500471
 20
306.337247
 30
0.0
 11
200.5495429999998
 21
306.337247
 31
0.0
  0
ARC
  5
1B8D2
330
1B51B
100
AcDbEntity
  8
1
  6
Continuous
100
AcDbCircle
 10
197.500471
 20
315.7023099999999
 30
0.0
 40
8.665063999999999
100
AcDbArc
 50
249.7438419999999
 51
286.772058
  0
LINE
  5
1B8D3
330
1B51B
100
AcDbEntity
  8
1
  6
Continuous
100
AcDbLine
 10
194.500471
 20
306.987247
 30
0.0
 11
200.2549469999999
 21
306.987247
 31
0.0
  0
LINE
  5
1B8D4
330
1B51B
100
AcDbEntity
  8
1
  6
Continuous
100
AcDbLine
 10
196.500471
 20
307.0372469999999
 30
0.0
 11
196.500471
 21
306.337247
 31
0.0
  0
LINE
  5
1B8D5
330
1B51B
100
AcDbEntity
  8
1
  6
Continuous
100
AcDbLine
 10
197.7004709999999
 20
305.137247
 30
0.0
 11
200.7496839999999
 21
305.137247
 31
0.0
  0
LINE
  5
1B8D6
330
1B51B
100
AcDbEntity
  8
1
  6
Continuous
100
AcDbLine
 10
194.500471
 20
307.0372469999999
 30
0.0
 11
194.500471
 21
308.745159
 31
0.0
  0
LINE
  5
1B8D7
330
1B51B
100
AcDbEntity
  8
1
  6
Continuous
100
AcDbLine
 10
93.05815
 20
201.8415939999999
 30
0.0
 11
95.27526599999999
 21
200.269632
 31
0.0
  0
ARC
  5
1B8D8
330
1B51B
100
AcDbEntity
  8
1
  6
Continuous
100
AcDbCircle
 10
257.63065
 20
185.845381
 30
0.0
 40
92.181206
100
AcDbArc
 50
350.661193
 51
9.338843999999998
  0
ARC
  5
1B8D9
330
1B51B
100
AcDbEntity
  8
1
  6
Continuous
100
AcDbCircle
 10
171.869806
 20
185.845381
 30
0.0
 40
92.181206
100
AcDbArc
 50
172.049854
 51
189.338807
  0
LINE
  5
1B8DA
330
1B51B
100
AcDbEntity
  8
1
  6
Continuous
100
AcDbLine
 10
91.50015000000001
 20
212.609468
 30
0.0
 11
91.50015000000001
 21
203.4252069999999
 31
0.0
  0
LINE
  5
1B8DB
330
1B51B
100
AcDbEntity
  8
1
  6
Continuous
100
AcDbLine
 10
79.70014999999998
 20
206.3731769999999
 30
0.0
 11
79.70014999999998
 21
184.3861499999999
 31
0.0
  0
ARC
  5
1B8DC
330
1B51B
100
AcDbEntity
  8
1
  6
Continuous
100
AcDbCircle
 10
95.24127900000001
 20
184.924423
 30
0.0
 40
11.54346499999999
100
AcDbArc
 50
162.899028
 51
177.890453
  0
ARC
  5
1B8DD
330
1B51B
100
AcDbEntity
  8
1
  6
Continuous
100
AcDbCircle
 10
82.706315
 20
185.3861499999999
 30
0.0
 40
1.0
100
AcDbArc
 50
270.0
 51
331.090675
  0
ARC
  5
1B8DE
330
1B51B
100
AcDbEntity
  8
1
  6
Continuous
100
AcDbCircle
 10
83.20817299999999
 20
188.4660159999999
 30
0.0
 40
1.0
100
AcDbArc
 50
343.5997469999999
 51
12.363973
  0
ARC
  5
1B8DF
330
1B51B
100
AcDbEntity
  8
1
  6
Continuous
100
AcDbCircle
 10
82.706315
 20
185.3861499999999
 30
0.0
 40
1.0
100
AcDbArc
 50
342.3556549999998
 51
357.8904529999999
  0
LINE
  5
1B8E0
330
1B51B
100
AcDbEntity
  8
1
  6
Continuous
100
AcDbLine
 10
338.000306
 20
212.609468
 30
0.0
 11
338.000306
 21
199.7847219999999
 31
0.0
  0
ARC
  5
1B8E1
330
1B51B
100
AcDbEntity
  8
1
  6
Continuous
100
AcDbCircle
 10
227.5003209999999
 20
1712.515169
 30
0.0
 40
1593.816667
100
AcDbArc
 50
270.5547869999999
 51
271.108916
  0
ARC
  5
1B8E2
330
1B51B
100
AcDbEntity
  8
1
  6
Continuous
100
AcDbCircle
 10
-1405.016344999999
 20
79.998502
 30
0.0
 40
1593.816667
100
AcDbArc
 50
0.8091629999999998
 51
1.108916
  0
ARC
  5
1B8E3
330
1B51B
100
AcDbEntity
  8
1
  6
Continuous
100
AcDbCircle
 10
227.5003209999999
 20
79.998502
 30
0.0
 40
27.49995999999999
100
AcDbArc
 50
132.1823729999999
 51
135.161696
  0
ARC
  5
1B8E4
330
1B51B
100
AcDbEntity
  8
1
  6
Continuous
100
AcDbCircle
 10
227.5003209999999
 20
79.998502
 30
0.0
 40
27.49995999999999
100
AcDbArc
 50
96.704091
 51
113.512834
  0
ARC
  5
1B8E5
330
1B51B
100
AcDbEntity
  8
1
  6
Continuous
100
AcDbCircle
 10
227.5003209999999
 20
79.998502
 30
0.0
 40
24.89996
100
AcDbArc
 50
97.40785600000002
 51
102.4703099999999
  0
ARC
  5
1B8E6
330
1B51B
100
AcDbEntity
  8
1
  6
Continuous
100
AcDbCircle
 10
227.5003209999999
 20
79.998502
 30
0.0
 40
34.618797
100
AcDbArc
 50
94.37480499999999
 51
127.3449929999999
  0
LINE
  5
1B8E7
330
1B51B
100
AcDbEntity
  8
1
  6
Continuous
100
AcDbLine
 10
196.500113
 20
98.79849
 30
0.0
 11
196.500113
 21
100.206525
 31
0.0
  0
LINE
  5
1B8E8
330
1B51B
100
AcDbEntity
  8
1
  6
Continuous
100
AcDbLine
 10
204.500113
 20
100.206525
 30
0.0
 11
204.500113
 21
98.81881599999999
 31
0.0
  0
ARC
  5
1B8E9
330
1B51B
100
AcDbEntity
  8
1
  6
Continuous
100
AcDbCircle
 10
200.500153
 20
196.497003
 30
0.0
 40
27.5
100
AcDbArc
 50
202.040618
 51
294.879949
  0
ARC
  5
1B8EA
330
1B51B
100
AcDbEntity
  8
1
  6
Continuous
100
AcDbCircle
 10
200.500153
 20
196.497003
 30
0.0
 40
37.5
100
AcDbArc
 50
194.0989139999998
 51
318.901589
  0
ARC
  5
1B8EB
330
1B51B
100
AcDbEntity
  8
5
  6
PHANTOM
100
AcDbCircle
 10
563.512323
 20
185.319402
 30
0.0
 40
6.5
100
AcDbArc
 50
275.6179409999999
 51
346.199627
  0
ARC
  5
1B8EC
330
1B51B
100
AcDbEntity
  8
5
  6
PHANTOM
100
AcDbCircle
 10
559.800153
 20
223.0573009999999
 30
0.0
 40
44.42003299999998
100
AcDbArc
 50
274.8558109999998
 51
275.6179379999999
  0
LINE
  5
1B8ED
330
1B51B
100
AcDbEntity
  8
1
  6
Continuous
100
AcDbLine
 10
488.0678049999998
 20
195.343957
 30
0.0
 11
496.1831779999998
 21
169.91303
 31
0.0
  0
LINE
  5
1B8EE
330
1B51B
100
AcDbEntity
  8
1
  6
Continuous
100
AcDbLine
 10
502.241148
 20
171.846216
 30
0.0
 11
496.1831779999998
 21
169.91303
 31
0.0
  0
ARC
  5
1B8EF
330
1B51B
100
AcDbEntity
  8
1
  6
Continuous
100
AcDbCircle
 10
564.4881159999997
 20
204.2145899999999
 30
0.0
 40
6.5
100
AcDbArc
 50
307.1169409999999
 51
17.698627
  0
LINE
  5
1B8F0
330
1B51B
100
AcDbEntity
  8
5
  6
PHANTOM
100
AcDbLine
 10
573.350725
 20
198.1239629999999
 30
0.0
 11
567.882655
 21
199.4670879999999
 31
0.0
  0
LINE
  5
1B8F1
330
1B51B
100
AcDbEntity
  8
5
  6
PHANTOM
100
AcDbLine
 10
573.350725
 20
198.1239629999999
 30
0.0
 11
569.8246849999998
 21
183.768897
 31
0.0
  0
ARC
  5
1B8F2
330
1B51B
100
AcDbEntity
  8
1
  6
Continuous
100
AcDbCircle
 10
560.688921
 20
193.581682
 30
0.0
 40
8.769199
100
AcDbArc
 50
314.8260979999998
 51
344.9046180000002
  0
ARC
  5
1B8F3
330
1B51B
100
AcDbEntity
  8
1
  6
Continuous
100
AcDbCircle
 10
533.2224509999998
 20
192.548586
 30
0.0
 40
35.954819
100
AcDbArc
 50
358.007219
 51
19.367634
  0
LINE
  5
1B8F4
330
1B51B
100
AcDbEntity
  8
1
  6
Continuous
100
AcDbLine
 10
566.1866479999997
 20
220.272795
 30
0.0
 11
560.822541
 21
218.5610319999999
 31
0.0
  0
LINE
  5
1B8F5
330
1B51B
100
AcDbEntity
  8
1
  6
Continuous
100
AcDbLine
 10
566.1866479999997
 20
220.272795
 30
0.0
 11
570.6804599999998
 21
206.1906589999999
 31
0.0
  0
LINE
  5
1B8F6
330
1B51B
100
AcDbEntity
  8
5
  6
PHANTOM
100
AcDbLine
 10
489.0924919999998
 20
198.8537159999999
 30
0.0
 11
487.3501619999998
 21
191.7604169999999
 31
0.0
  0
LINE
  5
1B8F7
330
1B51B
100
AcDbEntity
  8
5
  6
PHANTOM
100
AcDbLine
 10
493.5255429999998
 20
190.243556
 30
0.0
 11
487.3501619999998
 21
191.7604169999999
 31
0.0
  0
LINE
  5
1B8F8
330
1B51B
100
AcDbEntity
  8
1
  6
Continuous
100
AcDbLine
 10
491.4966779999998
 20
196.43816
 30
0.0
 11
488.0678049999998
 21
195.343957
 31
0.0
  0
ARC
  5
1B8F9
330
1B51B
100
AcDbEntity
  8
1
  6
Continuous
100
AcDbCircle
 10
490.581163
 20
194.04664
 30
0.0
 40
2.0
100
AcDbArc
 50
107.698625
 51
197.6986289999999
  0
LINE
  5
1B8FA
330
1B51B
100
AcDbEntity
  8
1
  6
Continuous
100
AcDbLine
 10
181.606799
 20
313.487252
 30
0.0
 11
188.6417419999999
 21
313.487252
 31
0.0
  0
ARC
  5
1B8FB
330
1B51B
100
AcDbEntity
  8
1
  6
Continuous
100
AcDbCircle
 10
176.3440709999999
 20
305.287247
 30
0.0
 40
12.111257
100
AcDbArc
 50
179.9999909999999
 51
219.602084
  0
ARC
  5
1B8FC
330
1B51B
100
AcDbEntity
  8
1
  6
Continuous
100
AcDbCircle
 10
175.644845
 20
305.287247
 30
0.0
 40
12.111257
100
AcDbArc
 50
179.9999909999999
 51
219.602084
  0
LINE
  5
1B8FD
330
1B51B
100
AcDbEntity
  8
1
  6
Continuous
100
AcDbLine
 10
159.5056559999999
 20
319.510193
 30
0.0
 11
188.722427
 21
320.2017119999998
 31
0.0
  0
LINE
  5
1B8FE
330
1B51B
100
AcDbEntity
  8
1
  6
Continuous
100
AcDbLine
 10
159.7813139999999
 20
320.016854
 30
0.0
 11
188.727306
 21
320.701969
 31
0.0
  0
LINE
  5
1B8FF
330
1B51B
100
AcDbEntity
  8
1
  6
Continuous
100
AcDbLine
 10
160.012496
 20
315.787247
 30
0.0
 11
188.6725659999999
 21
315.787247
 31
0.0
  0
LINE
  5
1B900
330
1B51B
100
AcDbEntity
  8
1
  6
Continuous
100
AcDbLine
 10
163.533616
 20
312.487252
 30
0.0
 11
163.533616
 21
305.287247
 31
0.0
  0
ARC
  5
1B901
330
1B51B
100
AcDbEntity
  8
1
  6
Continuous
100
AcDbCircle
 10
168.528884
 20
321.2255859999999
 30
0.0
 40
7.284322999999998
100
AcDbArc
 50
193.250614
 51
228.295101
  0
ARC
  5
1B902
330
1B51B
100
AcDbEntity
  8
1
  6
Continuous
100
AcDbCircle
 10
165.567748
 20
350.0859299999998
 30
0.0
 40
33.444794
100
AcDbArc
 50
262.2460869999998
 51
265.2109559999999
  0
ARC
  5
1B903
330
1B51B
100
AcDbEntity
  8
1
  6
Continuous
100
AcDbCircle
 10
162.5336159999999
 20
312.487252
 30
0.0
 40
1.0
100
AcDbArc
 50
0.0
 51
90.00000300000001
  0
ARC
  5
1B904
330
1B51B
100
AcDbEntity
  8
1
  6
Continuous
100
AcDbCircle
 10
170.45526
 20
352.5448079999999
 30
0.0
 40
42.388218
100
AcDbArc
 50
259.107956
 51
259.6427049999999
  0
ARC
  5
1B905
330
1B51B
100
AcDbEntity
  8
1
  6
Continuous
100
AcDbCircle
 10
162.232835
 20
313.787247
 30
0.0
 40
2.0
100
AcDbArc
 50
0.0
 51
90.00000300000001
  0
LINE
  5
1B906
330
1B51B
100
AcDbEntity
  8
1
  6
Continuous
100
AcDbLine
 10
160.012496
 20
315.787247
 30
0.0
 11
160.012496
 21
313.866166
 31
0.0
  0
ARC
  5
1B907
330
1B51B
100
AcDbEntity
  8
1
  6
Continuous
100
AcDbCircle
 10
161.315108
 20
318.8540729999999
 30
0.0
 40
1.924738999999999
100
AcDbArc
 50
142.834077
 51
262.246097
  0
ARC
  5
1B908
330
1B51B
100
AcDbEntity
  8
1
  6
Continuous
100
AcDbCircle
 10
163.012496
 20
313.866166
 30
0.0
 40
3.0
100
AcDbArc
 50
179.9999909999999
 51
259.1079529999999
  0
LINE
  5
1B909
330
1B51B
100
AcDbEntity
  8
1
  6
Continuous
100
AcDbLine
 10
160.012496
 20
313.487252
 30
0.0
 11
162.5336159999999
 21
313.487252
 31
0.0
  0
LINE
  5
1B90A
330
1B51B
100
AcDbEntity
  8
1
  6
Continuous
100
AcDbLine
 10
181.606799
 20
313.787247
 30
0.0
 11
181.606799
 21
305.287247
 31
0.0
  0
ARC
  5
1B90B
330
1B51B
100
AcDbEntity
  8
1
  6
Continuous
100
AcDbCircle
 10
169.49556
 20
305.287247
 30
0.0
 40
12.111257
100
AcDbArc
 50
320.3979109999999
 51
0.0
  0
ARC
  5
1B90C
330
1B51B
100
AcDbEntity
  8
1
  6
Continuous
100
AcDbCircle
 10
172.9198159999999
 20
302.454247
 30
0.0
 40
7.666997999999997
100
AcDbArc
 50
219.602087
 51
320.3979109999999
  0
ARC
  5
1B90D
330
1B51B
100
AcDbEntity
  8
1
  6
Continuous
100
AcDbCircle
 10
172.220597
 20
302.454247
 30
0.0
 40
7.666997999999997
100
AcDbArc
 50
219.602087
 51
272.613569
  0
ARC
  5
1B90E
330
1B51B
100
AcDbEntity
  8
1
  6
Continuous
100
AcDbCircle
 10
165.567748
 20
350.0859299999998
 30
0.0
 40
33.444794
100
AcDbArc
 50
286.505409
 51
288.937182
  0
ARC
  5
1B90F
330
1B51B
100
AcDbEntity
  8
1
  6
Continuous
100
AcDbCircle
 10
176.279593
 20
319.3746569999999
 30
0.0
 40
0.9342389999999999
100
AcDbArc
 50
278.7240269999999
 51
36.09767999999998
  0
ARC
  5
1B910
330
1B51B
100
AcDbEntity
  8
1
  6
Continuous
100
AcDbCircle
 10
168.528884
 20
321.2255859999999
 30
0.0
 40
7.284322999999998
100
AcDbArc
 50
311.7048939999999
 51
349.4610799999999
  0
LINE
  5
1B911
330
1B51B
100
AcDbEntity
  8
1
  6
Continuous
100
AcDbLine
 10
188.689798
 20
317.1952749999999
 30
0.0
 11
187.4499979999999
 21
317.1952749999999
 31
0.0
  0
ARC
  5
1B912
330
1B51B
100
AcDbEntity
  8
1
  6
Continuous
100
AcDbCircle
 10
184.34295
 20
318.0974959999999
 30
0.0
 40
2.0
100
AcDbArc
 50
16.99082299999999
 51
91.35585699999998
  0
LINE
  5
1B913
330
1B51B
100
AcDbEntity
  8
1
  6
Continuous
100
AcDbLine
 10
186.493649
 20
317.9030609999998
 30
0.0
 11
186.2556599999998
 21
318.681931
 31
0.0
  0
ARC
  5
1B914
330
1B51B
100
AcDbEntity
  8
1
  6
Continuous
100
AcDbCircle
 10
183.606799
 20
313.787247
 30
0.0
 40
2.0
100
AcDbArc
 50
90.00000300000001
 51
180.000005
  0
ARC
  5
1B915
330
1B51B
100
AcDbEntity
  8
1
  6
Continuous
100
AcDbCircle
 10
187.4499979999999
 20
318.1952749999999
 30
0.0
 40
1.0
100
AcDbArc
 50
196.990828
 51
269.9999969999999
  0
ARC
  5
1B916
330
1B51B
100
AcDbEntity
  8
1
  6
Continuous
100
AcDbCircle
 10
234.245787
 20
292.454247
 30
0.0
 40
7.666997999999997
100
AcDbArc
 50
219.602087
 51
320.3979109999999
  0
ARC
  5
1B917
330
1B51B
100
AcDbEntity
  8
1
  6
Continuous
100
AcDbCircle
 10
233.5465609999999
 20
292.454247
 30
0.0
 40
7.666997999999997
100
AcDbArc
 50
219.602087
 51
272.613569
  0
LINE
  5
1B918
330
1B51B
100
AcDbEntity
  8
1
  6
Continuous
100
AcDbLine
 10
224.8595789999999
 20
297.2930819999999
 30
0.0
 11
224.8595789999999
 21
295.2872469999999
 31
0.0
  0
LINE
  5
1B919
330
1B51B
100
AcDbEntity
  8
1
  6
Continuous
100
AcDbLine
 10
225.5588049999999
 20
297.294087
 30
0.0
 11
225.5588049999999
 21
295.2872469999999
 31
0.0
  0
ARC
  5
1B91A
330
1B51B
100
AcDbEntity
  8
1
  6
Continuous
100
AcDbCircle
 10
236.970816
 20
295.2872469999999
 30
0.0
 40
12.111257
100
AcDbArc
 50
179.9999909999999
 51
219.602084
  0
ARC
  5
1B91B
330
1B51B
100
AcDbEntity
  8
1
  6
Continuous
100
AcDbCircle
 10
237.670043
 20
295.2872469999999
 30
0.0
 40
12.111257
100
AcDbArc
 50
179.9999909999999
 51
219.602084
  0
LINE
  5
1B91C
330
1B51B
100
AcDbEntity
  8
1
  6
Continuous
100
AcDbLine
 10
242.9327699999999
 20
297.2205579999999
 30
0.0
 11
242.9327699999999
 21
295.2872469999999
 31
0.0
  0
ARC
  5
1B91D
330
1B51B
100
AcDbEntity
  8
1
  6
Continuous
100
AcDbCircle
 10
230.8215319999999
 20
295.2872469999999
 30
0.0
 40
12.111257
100
AcDbArc
 50
320.3979109999999
 51
0.0
  0
LINE
  5
1B91E
330
1B51B
100
AcDbEntity
  8
1
  6
Continuous
100
AcDbLine
 10
163.533616
 20
310.847274
 30
0.0
 11
162.8344529999999
 21
310.847274
 31
0.0
  0
LINE
  5
1B91F
330
1B51B
100
AcDbEntity
  8
1
  6
Continuous
100
AcDbLine
 10
164.2328149999999
 20
305.287247
 30
0.0
 11
164.2328149999999
 21
313.796197
 31
0.0
  0
CIRCLE
  5
1B925
330
1B51B
100
AcDbEntity
  8
1
  6
Continuous
100
AcDbCircle
 10
200.5001529999999
 20
196.4970029999999
 30
0.0
 40
6.0
  0
LINE
  5
1B926
330
1B51B
100
AcDbEntity
  8
1
  6
Continuous
100
AcDbLine
 10
206.5001529999999
 20
199.9611049999998
 30
0.0
 11
206.5001529999999
 21
193.0329009999999
 31
0.0
  0
LINE
  5
1B927
330
1B51B
100
AcDbEntity
  8
1
  6
Continuous
100
AcDbLine
 10
194.5001529999999
 20
199.9611049999998
 30
0.0
 11
194.5001529999999
 21
193.0329009999999
 31
0.0
  0
LINE
  5
1B928
330
1B51B
100
AcDbEntity
  8
1
  6
Continuous
100
AcDbLine
 10
200.5001529999999
 20
189.5687999999998
 30
0.0
 11
206.5001529999999
 21
193.0329009999999
 31
0.0
  0
LINE
  5
1B929
330
1B51B
100
AcDbEntity
  8
1
  6
Continuous
100
AcDbLine
 10
200.5001529999999
 20
189.5687999999998
 30
0.0
 11
194.5001529999999
 21
193.0329009999999
 31
0.0
  0
LINE
  5
1B92A
330
1B51B
100
AcDbEntity
  8
1
  6
Continuous
100
AcDbLine
 10
206.5001529999999
 20
199.9611049999998
 30
0.0
 11
200.5001529999999
 21
203.4252059999999
 31
0.0
  0
LINE
  5
1B92B
330
1B51B
100
AcDbEntity
  8
1
  6
Continuous
100
AcDbLine
 10
194.5001529999999
 20
199.9611049999998
 30
0.0
 11
200.5001529999999
 21
203.4252059999999
 31
0.0
  0
ENDSEC
  0
SECTION
  2
OBJECTS
  0
DICTIONARY
  5
1B509
330
0
100
AcDbDictionary
281
     1
  3
ACAD_CIP_PREVIOUS_PRODUCT_INFO
350
1B98C
  3
ACAD_COLOR
350
1B96E
  3
ACAD_DETAILVIEWSTYLE
350
1B987
  3
ACAD_GROUP
350
1B50A
  3
ACAD_LAYOUT
350
1B516
  3
ACAD_MATERIAL
350
1B93C
  3
ACAD_MLEADERSTYLE
350
1B983
  3
ACAD_MLINESTYLE
350
1B513
  3
ACAD_PLOTSETTINGS
350
1B515
  3
ACAD_PLOTSTYLENAME
350
1B93A
  3
ACAD_SCALELIST
350
1B971
  3
ACAD_SECTIONVIEWSTYLE
350
1B985
  3
ACAD_TABLESTYLE
350
1B96F
  3
ACAD_VISUALSTYLE
350
1B955
  3
ACDB_RECOMPOSE_DATA
350
1B9AA
  3
AcDbVariableDictionary
350
1B99D
  3
DWGPROPS
350
1B9AB
  0
DICTIONARY
  5
1B98D
330
1B50D
100
AcDbDictionary
280
     1
281
     1
  3
ADSK_XREC_LAYER_RECONCILED
360
1B98E
  0
DICTIONARY
  5
1B98F
330
1B523
100
AcDbDictionary
280
     1
281
     1
  3
ADSK_XREC_LAYER_RECONCILED
360
1B990
  0
DICTIONARY
  5
1B991
330
1B524
100
AcDbDictionary
280
     1
281
     1
  3
ADSK_XREC_LAYER_RECONCILED
360
1B992
  0
DICTIONARY
  5
1B993
330
1B525
100
AcDbDictionary
280
     1
281
     1
  3
ADSK_XREC_LAYER_RECONCILED
360
1B994
  0
DICTIONARY
  5
1B995
330
1B526
100
AcDbDictionary
280
     1
281
     1
  3
ADSK_XREC_LAYER_RECONCILED
360
1B996
  0
DICTIONARY
  5
1B997
330
1B527
100
AcDbDictionary
280
     1
281
     1
  3
ADSK_XREC_LAYER_RECONCILED
360
1B998
  0
DICTIONARY
  5
1B999
330
1B528
100
AcDbDictionary
280
     1
281
     1
  3
ADSK_XREC_LAYER_RECONCILED
360
1B99A
  0
DICTIONARY
  5
1B99B
330
1B529
100
AcDbDictionary
280
     1
281
     1
  3
ADSK_XREC_LAYER_RECONCILED
360
1B99C
  0
DICTIONARY
  5
1B935
330
1B51B
100
AcDbDictionary
281
     1
  3
ACAD_LAYOUTSELFREF
350
1B936
  0
DICTIONARY
  5
1B933
330
1B517
100
AcDbDictionary
281
     1
  3
ACAD_LAYOUTSELFREF
350
1B934
  0
XRECORD
  5
1B98C
102
{ACAD_REACTORS
330
1B509
102
}
330
1B509
100
AcDbXrecord
280
     1
300
ACDLT
300
2014
300
ACDLT_F_S
  0
DICTIONARY
  5
1B96E
102
{ACAD_REACTORS
330
1B509
102
}
330
1B509
100
AcDbDictionary
281
     1
  0
DICTIONARY
  5
1B987
102
{ACAD_REACTORS
330
1B509
102
}
330
1B509
100
AcDbDictionary
281
     1
  3
Imperial24
350
1B988
  0
DICTIONARY
  5
1B50A
102
{ACAD_REACTORS
330
1B509
102
}
330
1B509
100
AcDbDictionary
281
     1
  0
DICTIONARY
  5
1B516
102
{ACAD_REACTORS
330
1B509
102
}
330
1B509
100
AcDbDictionary
281
     1
  3
Model
350
1B989
  3
レイアウト1
350
1B98A
  0
DICTIONARY
  5
1B93C
102
{ACAD_REACTORS
330
1B509
102
}
330
1B509
100
AcDbDictionary
281
     1
  3
ByBlock
350
1B945
  3
ByLayer
350
1B93D
  3
Global
350
1B94D
  0
DICTIONARY
  5
1B983
102
{ACAD_REACTORS
330
1B509
102
}
330
1B509
100
AcDbDictionary
281
     1
  3
Standard
350
1B984
  0
DICTIONARY
  5
1B513
102
{ACAD_REACTORS
330
1B509
102
}
330
1B509
100
AcDbDictionary
281
     1
  3
STANDARD
350
1B514
  0
DICTIONARY
  5
1B515
102
{ACAD_REACTORS
330
1B509
102
}
330
1B509
100
AcDbDictionary
281
     1
  0
ACDBDICTIONARYWDFLT
  5
1B93A
102
{ACAD_REACTORS
330
1B509
102
}
330
1B509
100
AcDbDictionary
281
     1
  3
Normal
350
1B93B
100
AcDbDictionaryWithDefault
340
1B93B
  0
DICTIONARY
  5
1B971
102
{ACAD_REACTORS
330
1B509
102
}
330
1B509
100
AcDbDictionary
281
     1
  3
A0
350
1B972
  3
A1
350
1B973
  3
A2
350
1B974
  3
A3
350
1B975
  3
A4
350
1B976
  3
A5
350
1B977
  3
A6
350
1B978
  3
A7
350
1B979
  3
A8
350
1B97A
  3
A9
350
1B97B
  3
B0
350
1B97C
  3
B1
350
1B97D
  3
B2
350
1B97E
  3
B3
350
1B97F
  3
B4
350
1B980
  3
B5
350
1B981
  3
B6
350
1B982
  0
DICTIONARY
  5
1B985
102
{ACAD_REACTORS
330
1B509
102
}
330
1B509
100
AcDbDictionary
281
     1
  3
Imperial24
350
1B986
  0
DICTIONARY
  5
1B96F
102
{ACAD_REACTORS
330
1B509
102
}
330
1B509
100
AcDbDictionary
281
     1
  3
Standard
350
1B970
  0
DICTIONARY
  5
1B955
102
{ACAD_REACTORS
330
1B509
102
}
330
1B509
100
AcDbDictionary
281
     1
  3
2dWireframe
350
1B95B
  3
Basic
350
1B95A
  3
Brighten
350
1B961
  3
ColorChange
350
1B965
  3
Conceptual
350
1B95E
  3
Dim
350
1B960
  3
EdgeColorOff
350
1B96D
  3
Facepattern
350
1B964
  3
Flat
350
1B956
  3
FlatWithEdges
350
1B957
  3
Gouraud
350
1B958
  3
GouraudWithEdges
350
1B959
  3
Hidden
350
1B95D
  3
JitterOff
350
1B96B
  3
Linepattern
350
1B963
  3
OverhangOff
350
1B96C
  3
Realistic
350
1B95F
  3
Shaded
350
1B96A
  3
Shaded with edges
350
1B969
  3
Shades of Gray
350
1B966
  3
Sketchy
350
1B967
  3
Thicken
350
1B962
  3
Wireframe
350
1B95C
  3
X-Ray
350
1B968
  0
XRECORD
  5
1B9AA
102
{ACAD_REACTORS
330
1B509
102
}
330
1B509
100
AcDbXrecord
280
     1
 90
        1
330
1B970
  0
DICTIONARY
  5
1B99D
102
{ACAD_REACTORS
330
1B509
102
}
330
1B509
100
AcDbDictionary
281
     1
  3
CANNOSCALE
350
1B9A2
  3
CMLEADERSTYLE
350
1B99F
  3
CTABLESTYLE
350
1B99E
  3
CVIEWDETAILSTYLE
350
1B9A0
  3
CVIEWSECTIONSTYLE
350
1B9A1
  3
DIMASSOC
350
1B9A5
  3
INDEXCTL
350
1B9A4
  3
SORTENTS
350
1B9A3
  3
XCLIPFRAME
350
1B9A6
  0
XRECORD
  5
1B9AB
102
{ACAD_REACTORS
330
1B509
102
}
330
1B509
100
AcDbXrecord
280
     1
  1
DWGPROPS COOKIE
  2

  3

  4

  6

  7

  8
Yoshitsune
  9

300
=
301
=
302
=
303
=
304
=
305
=
306
=
307
=
308
=
309
=
 40
0.0003122453703704
 41
2451303.377433449
 42
2457192.687182072
  1

 90
        0
  0
XRECORD
  5
1B98E
102
{ACAD_REACTORS
330
1B98D
102
}
330
1B98D
100
AcDbXrecord
280
     1
290
     1
  0
XRECORD
  5
1B990
102
{ACAD_REACTORS
330
1B98F
102
}
330
1B98F
100
AcDbXrecord
280
     1
290
     1
  0
XRECORD
  5
1B992
102
{ACAD_REACTORS
330
1B991
102
}
330
1B991
100
AcDbXrecord
280
     1
290
     1
  0
XRECORD
  5
1B994
102
{ACAD_REACTORS
330
1B993
102
}
330
1B993
100
AcDbXrecord
280
     1
290
     1
  0
XRECORD
  5
1B996
102
{ACAD_REACTORS
330
1B995
102
}
330
1B995
100
AcDbXrecord
280
     1
290
     1
  0
XRECORD
  5
1B998
102
{ACAD_REACTORS
330
1B997
102
}
330
1B997
100
AcDbXrecord
280
     1
290
     1
  0
XRECORD
  5
1B99A
102
{ACAD_REACTORS
330
1B999
102
}
330
1B999
100
AcDbXrecord
280
     1
290
     1
  0
XRECORD
  5
1B99C
102
{ACAD_REACTORS
330
1B99B
102
}
330
1B99B
100
AcDbXrecord
280
     1
290
     1
  0
XRECORD
  5
1B936
102
{ACAD_REACTORS
330
1B935
102
}
330
1B935
100
AcDbXrecord
280
     1
340
1B51B
  0
XRECORD
  5
1B934
102
{ACAD_REACTORS
330
1B933
102
}
330
1B933
100
AcDbXrecord
280
     1
340
1B517
  0
ACDBDETAILVIEWSTYLE
  5
1B988
102
{ACAD_XDICTIONARY
360
1B9E3
102
}
102
{ACAD_REACTORS
330
1B987
102
}
330
1B987
100
AcDbModelDocViewStyle
 70
     0
  3
Imperial24
290
     0
100
AcDbDetailViewStyle
 70
     0
 71
     0
 90
        3
 71
     1
340
1B50E
 40
0.24
340
0
 40
0.24
300

 40
0.36
280
     3
 71
     2
340
1B512
 90
       25
 71
     3
340
1B50E
 40
0.24
 90
        1
 40
0.75
 90
        1
300
%<\AcVar ViewType \f "%tc1">% %<\AcVar ViewDetailId>%\PSCALE %<\AcVar ViewScale \f "%sn">%
 71
     4
340
1B512
 90
       25
340
1B512
 90
       25
280
     0
  0
LAYOUT
  5
1B989
102
{ACAD_XDICTIONARY
360
1B9E5
102
}
102
{ACAD_REACTORS
330
1B516
102
}
330
1B516
100
AcDbPlotSettings
  1

  2
Canon LBP9100C
  4

  6

 40
0.0
 41
0.0
 42
0.0
 43
0.0
 44
0.0
 45
0.0
 46
0.0
 47
0.0
 48
0.0
 49
0.0
140
0.0
141
0.0
142
1.0
143
1.0
 70
  1712
 72
     0
 73
     0
 74
     0
  7

 75
     0
147
1.0
148
0.0
149
0.0
100
AcDbLayout
  1
Model
 70
     1
 71
     0
 10
0.0
 20
0.0
 11
12.0
 21
9.0
 12
0.0
 22
0.0
 32
0.0
 14
0.0
 24
0.0
 34
0.0
 15
0.0
 25
0.0
 35
0.0
146
0.0
 13
0.0
 23
0.0
 33
0.0
 16
1.0
 26
0.0
 36
0.0
 17
0.0
 27
1.0
 37
0.0
 76
     0
330
1B51B
331
1B932
  0
LAYOUT
  5
1B98A
102
{ACAD_XDICTIONARY
360
1B9E7
102
}
102
{ACAD_REACTORS
330
1B516
102
}
330
1B516
100
AcDbPlotSettings
  1

  2
Canon LBP9100C
  4

  6

 40
0.0
 41
0.0
 42
0.0
 43
0.0
 44
0.0
 45
0.0
 46
0.0
 47
0.0
 48
0.0
 49
0.0
140
0.0
141
0.0
142
1.0
143
1.0
 70
   688
 72
     0
 73
     0
 74
     5
  7

 75
    16
147
1.0
148
0.0
149
0.0
100
AcDbLayout
  1
レイアウト1
 70
     0
 71
     1
 10
0.0
 20
0.0
 11
420.0
 21
297.0
 12
0.0
 22
0.0
 32
0.0
 14
1.000000000000000E+20
 24
1.000000000000000E+20
 34
1.000000000000000E+20
 15
-1.000000000000000E+20
 25
-1.000000000000000E+20
 35
-1.000000000000000E+20
146
0.0
 13
0.0
 23
0.0
 33
0.0
 16
1.0
 26
0.0
 36
0.0
 17
0.0
 27
1.0
 37
0.0
 76
     0
330
1B517
  0
MATERIAL
  5
1B945
102
{ACAD_XDICTIONARY
360
1B946
102
}
102
{ACAD_REACTORS
330
1B93C
102
}
330
1B93C
100
AcDbMaterial
  1
ByBlock
 72
     0
 43
0.0208333333333333
 43
0.0
 43
0.0
 43
0.0
 43
0.0
 43
0.0208333333333333
 43
0.0
 43
0.0
 43
0.0
 43
0.0
 43
1.0
 43
0.0
 43
0.0
 43
0.0
 43
0.0
 43
1.0
 77
     0
 47
0.0208333333333333
 47
0.0
 47
0.0
 47
0.0
 47
0.0
 47
0.0208333333333333
 47
0.0
 47
0.0
 47
0.0
 47
0.0
 47
1.0
 47
0.0
 47
0.0
 47
0.0
 47
0.0
 47
1.0
171
     0
 49
0.0208333333333333
 49
0.0
 49
0.0
 49
0.0
 49
0.0
 49
0.0208333333333333
 49
0.0
 49
0.0
 49
0.0
 49
0.0
 49
1.0
 49
0.0
 49
0.0
 49
0.0
 49
0.0
 49
1.0
175
     0
142
0.0208333333333333
142
0.0
142
0.0
142
0.0
142
0.0
142
0.0208333333333333
142
0.0
142
0.0
142
0.0
142
0.0
142
1.0
142
0.0
142
0.0
142
0.0
142
0.0
142
1.0
179
     0
144
0.0208333333333333
144
0.0
144
0.0
144
0.0
144
0.0
144
0.0208333333333333
144
0.0
144
0.0
144
0.0
144
0.0
144
1.0
144
0.0
144
0.0
144
0.0
144
0.0
144
1.0
147
0.0208333333333333
147
0.0
147
0.0
147
0.0
147
0.0
147
0.0208333333333333
147
0.0
147
0.0
147
0.0
147
0.0
147
1.0
147
0.0
147
0.0
147
0.0
147
0.0
147
1.0
  0
MATERIAL
  5
1B93D
102
{ACAD_XDICTIONARY
360
1B93E
102
}
102
{ACAD_REACTORS
330
1B93C
102
}
330
1B93C
100
AcDbMaterial
  1
ByLayer
 72
     0
 43
0.0208333333333333
 43
0.0
 43
0.0
 43
0.0
 43
0.0
 43
0.0208333333333333
 43
0.0
 43
0.0
 43
0.0
 43
0.0
 43
1.0
 43
0.0
 43
0.0
 43
0.0
 43
0.0
 43
1.0
 77
     0
 47
0.0208333333333333
 47
0.0
 47
0.0
 47
0.0
 47
0.0
 47
0.0208333333333333
 47
0.0
 47
0.0
 47
0.0
 47
0.0
 47
1.0
 47
0.0
 47
0.0
 47
0.0
 47
0.0
 47
1.0
171
     0
 49
0.0208333333333333
 49
0.0
 49
0.0
 49
0.0
 49
0.0
 49
0.0208333333333333
 49
0.0
 49
0.0
 49
0.0
 49
0.0
 49
1.0
 49
0.0
 49
0.0
 49
0.0
 49
0.0
 49
1.0
175
     0
142
0.0208333333333333
142
0.0
142
0.0
142
0.0
142
0.0
142
0.0208333333333333
142
0.0
142
0.0
142
0.0
142
0.0
142
1.0
142
0.0
142
0.0
142
0.0
142
0.0
142
1.0
179
     0
144
0.0208333333333333
144
0.0
144
0.0
144
0.0
144
0.0
144
0.0208333333333333
144
0.0
144
0.0
144
0.0
144
0.0
144
1.0
144
0.0
144
0.0
144
0.0
144
0.0
144
1.0
147
0.0208333333333333
147
0.0
147
0.0
147
0.0
147
0.0
147
0.0208333333333333
147
0.0
147
0.0
147
0.0
147
0.0
147
1.0
147
0.0
147
0.0
147
0.0
147
0.0
147
1.0
  0
MATERIAL
  5
1B94D
102
{ACAD_XDICTIONARY
360
1B94E
102
}
102
{ACAD_REACTORS
330
1B93C
102
}
330
1B93C
100
AcDbMaterial
  1
Global
 72
     0
 43
0.0208333333333333
 43
0.0
 43
0.0
 43
0.0
 43
0.0
 43
0.0208333333333333
 43
0.0
 43
0.0
 43
0.0
 43
0.0
 43
1.0
 43
0.0
 43
0.0
 43
0.0
 43
0.0
 43
1.0
 77
     0
 47
0.0208333333333333
 47
0.0
 47
0.0
 47
0.0
 47
0.0
 47
0.0208333333333333
 47
0.0
 47
0.0
 47
0.0
 47
0.0
 47
1.0
 47
0.0
 47
0.0
 47
0.0
 47
0.0
 47
1.0
171
     0
 49
0.0208333333333333
 49
0.0
 49
0.0
 49
0.0
 49
0.0
 49
0.0208333333333333
 49
0.0
 49
0.0
 49
0.0
 49
0.0
 49
1.0
 49
0.0
 49
0.0
 49
0.0
 49
0.0
 49
1.0
175
     0
142
0.0208333333333333
142
0.0
142
0.0
142
0.0
142
0.0
142
0.0208333333333333
142
0.0
142
0.0
142
0.0
142
0.0
142
1.0
142
0.0
142
0.0
142
0.0
142
0.0
142
1.0
179
     0
144
0.0208333333333333
144
0.0
144
0.0
144
0.0
144
0.0
144
0.0208333333333333
144
0.0
144
0.0
144
0.0
144
0.0
144
1.0
144
0.0
144
0.0
144
0.0
144
0.0
144
1.0
147
0.0208333333333333
147
0.0
147
0.0
147
0.0
147
0.0
147
0.0208333333333333
147
0.0
147
0.0
147
0.0
147
0.0
147
1.0
147
0.0
147
0.0
147
0.0
147
0.0
147
1.0
  0
MLEADERSTYLE
  5
1B984
102
{ACAD_REACTORS
330
1B983
102
}
330
1B983
100
AcDbMLeaderStyle
170
     2
171
     1
172
     0
 90
        2
 40
0.0
 41
0.0
173
     1
 91
-1056964608
340
1B510
 92
       -2
290
     1
 42
0.09
291
     1
 43
0.36
  3
Standard
 44
0.18
300

342
1B50E
174
     1
178
     6
175
     1
176
     0
 93
-1056964608
 45
0.18
292
     0
297
     0
 46
0.18
 94
-1056964608
 47
1.0
 49
1.0
140
1.0
293
     1
141
0.0
294
     1
177
     0
142
1.0
295
     0
296
     0
143
0.125
1001
ACAD_MLEADERVER
1070
     2
  0
MLINESTYLE
  5
1B514
102
{ACAD_REACTORS
330
1B513
102
}
330
1B513
100
AcDbMlineStyle
  2
STANDARD
 70
     0
  3

 62
   256
 51
90.0
 52
90.0
 71
     2
 49
0.5
 62
   256
  6
BYLAYER
 49
-0.5
 62
   256
  6
BYLAYER
  0
ACDBPLACEHOLDER
  5
1B93B
102
{ACAD_REACTORS
330
1B93A
102
}
330
1B93A
  0
SCALE
  5
1B972
102
{ACAD_REACTORS
330
1B971
102
}
330
1B971
100
AcDbScale
 70
     0
300
1:1
140
1.0
141
1.0
290
     1
  0
SCALE
  5
1B973
102
{ACAD_REACTORS
330
1B971
102
}
330
1B971
100
AcDbScale
 70
     0
300
1/128" = 1'-0"
140
0.0078125
141
12.0
290
     0
  0
SCALE
  5
1B974
102
{ACAD_REACTORS
330
1B971
102
}
330
1B971
100
AcDbScale
 70
     0
300
1/64" = 1'-0"
140
0.015625
141
12.0
290
     0
  0
SCALE
  5
1B975
102
{ACAD_REACTORS
330
1B971
102
}
330
1B971
100
AcDbScale
 70
     0
300
1/32" = 1'-0"
140
0.03125
141
12.0
290
     0
  0
SCALE
  5
1B976
102
{ACAD_REACTORS
330
1B971
102
}
330
1B971
100
AcDbScale
 70
     0
300
1/16" = 1'-0"
140
0.0625
141
12.0
290
     0
  0
SCALE
  5
1B977
102
{ACAD_REACTORS
330
1B971
102
}
330
1B971
100
AcDbScale
 70
     0
300
3/32" = 1'-0"
140
0.09375
141
12.0
290
     0
  0
SCALE
  5
1B978
102
{ACAD_REACTORS
330
1B971
102
}
330
1B971
100
AcDbScale
 70
     0
300
1/8" = 1'-0"
140
0.125
141
12.0
290
     0
  0
SCALE
  5
1B979
102
{ACAD_REACTORS
330
1B971
102
}
330
1B971
100
AcDbScale
 70
     0
300
3/16" = 1'-0"
140
0.1875
141
12.0
290
     0
  0
SCALE
  5
1B97A
102
{ACAD_REACTORS
330
1B971
102
}
330
1B971
100
AcDbScale
 70
     0
300
1/4" = 1'-0"
140
0.25
141
12.0
290
     0
  0
SCALE
  5
1B97B
102
{ACAD_REACTORS
330
1B971
102
}
330
1B971
100
AcDbScale
 70
     0
300
3/8" = 1'-0"
140
0.375
141
12.0
290
     0
  0
SCALE
  5
1B97C
102
{ACAD_REACTORS
330
1B971
102
}
330
1B971
100
AcDbScale
 70
     0
300
1/2" = 1'-0"
140
0.5
141
12.0
290
     0
  0
SCALE
  5
1B97D
102
{ACAD_REACTORS
330
1B971
102
}
330
1B971
100
AcDbScale
 70
     0
300
3/4" = 1'-0"
140
0.75
141
12.0
290
     0
  0
SCALE
  5
1B97E
102
{ACAD_REACTORS
330
1B971
102
}
330
1B971
100
AcDbScale
 70
     0
300
1" = 1'-0"
140
1.0
141
12.0
290
     0
  0
SCALE
  5
1B97F
102
{ACAD_REACTORS
330
1B971
102
}
330
1B971
100
AcDbScale
 70
     0
300
1-1/2" = 1'-0"
140
1.5
141
12.0
290
     0
  0
SCALE
  5
1B980
102
{ACAD_REACTORS
330
1B971
102
}
330
1B971
100
AcDbScale
 70
     0
300
3" = 1'-0"
140
3.0
141
12.0
290
     0
  0
SCALE
  5
1B981
102
{ACAD_REACTORS
330
1B971
102
}
330
1B971
100
AcDbScale
 70
     0
300
6" = 1'-0"
140
6.0
141
12.0
290
     0
  0
SCALE
  5
1B982
102
{ACAD_REACTORS
330
1B971
102
}
330
1B971
100
AcDbScale
 70
     0
300
1'-0" = 1'-0"
140
12.0
141
12.0
290
     0
  0
ACDBSECTIONVIEWSTYLE
  5
1B986
102
{ACAD_XDICTIONARY
360
1B9E1
102
}
102
{ACAD_REACTORS
330
1B985
102
}
330
1B985
100
AcDbModelDocViewStyle
 70
     0
  3
Imperial24
290
     0
100
AcDbSectionViewStyle
 70
     0
 71
     0
 90
       78
 71
     1
340
1B50E
 40
0.24
340
0
340
0
 40
0.24
300
I, O, Q, S, X, Z
 40
0.48
 90
        3
 40
0.18
 90
        1
 71
     2
340
1B512
 90
       25
340
1B512
 90
       50
 40
0.24
 40
0.0
 40
0.24
 71
     3
340
1B50E
 40
0.24
 90
        1
 40
0.75
 90
        1
300
%<\AcVar ViewType \f "%tc1">% %<\AcVar ViewSectionStartId>%-%<\AcVar ViewSectionEndId>%\PSCALE %<\AcVar ViewScale \f "%sn">%
 71
     4
300
ANSI31
 40
1.0
 90
        0
290
     0
290
     0
 90
        6
 40
0.0
 40
1.570796326794896
 40
0.2617993877991494
 40
1.308996938995747
 40
-0.2617993877991494
 40
1.832595714594046
  0
TABLESTYLE
  5
1B970
102
{ACAD_XDICTIONARY
360
1B9A8
102
}
102
{ACAD_REACTORS
330
1B96F
102
}
330
1B96F
100
AcDbTableStyle
  3
Standard
 70
     0
 71
     0
 40
0.06
 41
0.06
280
     0
281
     0
  7
STANDARD
140
0.18
170
     2
 62
     0
 63
     7
283
     0
274
    -2
284
     1
 64
     0
275
    -2
285
     1
 65
     0
276
    -2
286
     1
 66
     0
277
    -2
287
     1
 67
     0
278
    -2
288
     1
 68
     0
279
    -2
289
     1
 69
     0
  7
STANDARD
140
0.25
170
     5
 62
     0
 63
     7
283
     0
274
    -2
284
     1
 64
     0
275
    -2
285
     1
 65
     0
276
    -2
286
     1
 66
     0
277
    -2
287
     1
 67
     0
278
    -2
288
     1
 68
     0
279
    -2
289
     1
 69
     0
  7
STANDARD
140
0.18
170
     5
 62
     0
 63
     7
283
     0
274
    -2
284
     1
 64
     0
275
    -2
285
     1
 65
     0
276
    -2
286
     1
 66
     0
277
    -2
287
     1
 67
     0
278
    -2
288
     1
 68
     0
279
    -2
289
     1
 69
     0
  0
VISUALSTYLE
  5
1B95B
102
{ACAD_XDICTIONARY
360
1B9B9
102
}
102
{ACAD_REACTORS
330
1B955
102
}
330
1B955
100
AcDbVisualStyle
  2
2dWireframe
 70
     4
 71
     0
 72
     2
 73
     0
 90
        0
 40
-0.6
 41
-30.0
 62
     5
 63
     7
 74
     1
 91
        4
 64
     7
 65
   257
 75
     1
175
     1
 42
1.0
 92
        0
 66
   257
 43
1.0
 76
     1
 77
     6
 78
     2
 67
     7
 79
     5
170
     0
171
     0
290
     0
174
     0
 93
        1
 44
0.0
173
     0
291
     0
 45
0.0
1001
ACAD
1000
AcDbSavedByObjectVersion
1070
     0
  0
VISUALSTYLE
  5
1B95A
102
{ACAD_XDICTIONARY
360
1B9B7
102
}
102
{ACAD_REACTORS
330
1B955
102
}
330
1B955
100
AcDbVisualStyle
  2
Basic
 70
     7
 71
     1
 72
     0
 73
     1
 90
        0
 40
-0.6
 41
-30.0
 62
     5
 63
     7
 74
     0
 91
        4
 64
     7
 65
   257
 75
     1
175
     1
 42
1.0
 92
        8
 66
     7
 43
1.0
 76
     1
 77
     6
 78
     2
 67
     7
 79
     5
170
     0
171
     0
290
     0
174
     0
 93
        1
 44
0.0
173
     0
291
     1
 45
0.0
1001
ACAD
1000
AcDbSavedByObjectVersion
1070
     0
  0
VISUALSTYLE
  5
1B961
102
{ACAD_XDICTIONARY
360
1B9C5
102
}
102
{ACAD_REACTORS
330
1B955
102
}
330
1B955
100
AcDbVisualStyle
  2
Brighten
 70
    12
 71
     2
 72
     2
 73
     0
 90
        0
 40
-0.6
 41
-30.0
 62
     5
 63
     7
 74
     1
 91
        4
 64
     7
 65
   257
 75
     1
175
     1
 42
1.0
 92
        8
 66
     7
 43
1.0
 76
     1
 77
     6
 78
     2
 67
     7
 79
     5
170
     0
171
     0
290
     0
174
     0
 93
        1
 44
50.0
173
     0
291
     1
 45
0.0
1001
ACAD
1000
AcDbSavedByObjectVersion
1070
     0
  0
VISUALSTYLE
  5
1B965
102
{ACAD_XDICTIONARY
360
1B9CD
102
}
102
{ACAD_REACTORS
330
1B955
102
}
330
1B955
100
AcDbVisualStyle
  2
ColorChange
 70
    16
 71
     2
 72
     2
 73
     3
 90
        0
 40
-0.6
 41
-30.0
 62
     5
 63
     8
 74
     1
 91
        4
 64
     7
 65
   257
 75
     1
175
     1
 42
1.0
 92
        8
 66
     8
 43
1.0
 76
     1
 77
     6
 78
     2
 67
     7
 79
     5
170
     0
171
     0
290
     0
174
     0
 93
        1
 44
0.0
173
     0
291
     1
 45
0.0
1001
ACAD
1000
AcDbSavedByObjectVersion
1070
     0
  0
VISUALSTYLE
  5
1B95E
102
{ACAD_XDICTIONARY
360
1B9BF
102
}
102
{ACAD_REACTORS
330
1B955
102
}
330
1B955
100
AcDbVisualStyle
  2
Conceptual
 70
     9
 71
     3
 72
     2
 73
     0
 90
        0
 40
-0.6
 41
-30.0
 62
     5
 63
     7
 74
     2
 91
        2
 64
     7
 65
   257
 75
     1
175
     1
 42
179.0
 92
        8
 66
     7
 43
1.0
 76
     1
 77
     6
 78
     2
 67
     7
 79
     3
170
     0
171
     0
290
     0
174
     0
 93
        1
 44
0.0
173
     0
291
     0
 45
0.0
1001
ACAD
1000
AcDbSavedByObjectVersion
1070
     0
  0
VISUALSTYLE
  5
1B960
102
{ACAD_XDICTIONARY
360
1B9C3
102
}
102
{ACAD_REACTORS
330
1B955
102
}
330
1B955
100
AcDbVisualStyle
  2
Dim
 70
    11
 71
     2
 72
     2
 73
     0
 90
        0
 40
-0.6
 41
-30.0
 62
     5
 63
     7
 74
     1
 91
        4
 64
     7
 65
   257
 75
     1
175
     1
 42
1.0
 92
        8
 66
     7
 43
1.0
 76
     1
 77
     6
 78
     2
 67
     7
 79
     5
170
     0
171
     0
290
     0
174
     0
 93
        1
 44
-50.0
173
     0
291
     1
 45
0.0
1001
ACAD
1000
AcDbSavedByObjectVersion
1070
     0
  0
VISUALSTYLE
  5
1B96D
102
{ACAD_XDICTIONARY
360
1B9DD
102
}
102
{ACAD_REACTORS
330
1B955
102
}
330
1B955
100
AcDbVisualStyle
  2
EdgeColorOff
 70
    22
 71
     2
 72
     2
 73
     0
 90
        0
 40
-0.6
 41
-30.0
 62
     5
 63
     7
 74
     1
 91
        4
 64
     7
 65
   257
 75
     1
175
     1
 42
1.0
 92
        8
 66
     7
 43
1.0
 76
     1
 77
     6
 78
     2
 67
     7
 79
     5
170
     0
171
     0
290
     0
174
     0
 93
        1
 44
0.0
173
     0
291
     1
 45
0.0
1001
ACAD
1000
AcDbSavedByObjectVersion
1070
     0
  0
VISUALSTYLE
  5
1B964
102
{ACAD_XDICTIONARY
360
1B9CB
102
}
102
{ACAD_REACTORS
330
1B955
102
}
330
1B955
100
AcDbVisualStyle
  2
Facepattern
 70
    15
 71
     2
 72
     2
 73
     0
 90
        0
 40
-0.6
 41
-30.0
 62
     5
 63
     7
 74
     1
 91
        4
 64
     7
 65
   257
 75
     1
175
     1
 42
1.0
 92
        8
 66
     7
 43
1.0
 76
     1
 77
     6
 78
     2
 67
     7
 79
     5
170
     0
171
     0
290
     0
174
     0
 93
        1
 44
0.0
173
     0
291
     1
 45
0.0
1001
ACAD
1000
AcDbSavedByObjectVersion
1070
     0
  0
VISUALSTYLE
  5
1B956
102
{ACAD_XDICTIONARY
360
1B9AF
102
}
102
{ACAD_REACTORS
330
1B955
102
}
330
1B955
100
AcDbVisualStyle
  2
Flat
 70
     0
 71
     2
 72
     1
 73
     1
 90
        2
 40
-0.6
 41
30.0
 62
     5
 63
     7
 74
     0
 91
        0
 64
     7
 65
   257
 75
     1
175
     1
 42
1.0
 92
        8
 66
     7
 43
1.0
 76
     1
 77
     6
 78
     2
 67
     7
 79
     5
170
     0
171
     0
290
     0
174
     0
 93
       13
 44
0.0
173
     0
291
     1
 45
0.0
1001
ACAD
1000
AcDbSavedByObjectVersion
1070
     0
  0
VISUALSTYLE
  5
1B957
102
{ACAD_XDICTIONARY
360
1B9B1
102
}
102
{ACAD_REACTORS
330
1B955
102
}
330
1B955
100
AcDbVisualStyle
  2
FlatWithEdges
 70
     1
 71
     2
 72
     1
 73
     1
 90
        2
 40
-0.6
 41
30.0
 62
     5
 63
     7
 74
     1
 91
        0
 64
     7
 65
   257
 75
     1
175
     1
 42
1.0
 92
        0
 66
   257
 43
1.0
 76
     1
 77
     6
 78
     2
 67
     7
 79
     5
170
     0
171
     0
290
     0
174
     0
 93
       13
 44
0.0
173
     0
291
     1
 45
0.0
1001
ACAD
1000
AcDbSavedByObjectVersion
1070
     0
  0
VISUALSTYLE
  5
1B958
102
{ACAD_XDICTIONARY
360
1B9B3
102
}
102
{ACAD_REACTORS
330
1B955
102
}
330
1B955
100
AcDbVisualStyle
  2
Gouraud
 70
     2
 71
     2
 72
     2
 73
     1
 90
        2
 40
-0.6
 41
30.0
 62
     5
 63
     7
 74
     0
 91
        0
 64
     7
 65
   257
 75
     1
175
     1
 42
1.0
 92
        0
 66
     7
 43
1.0
 76
     1
 77
     6
 78
     2
 67
     7
 79
     5
170
     0
171
     0
290
     0
174
     0
 93
       13
 44
0.0
173
     0
291
     1
 45
0.0
1001
ACAD
1000
AcDbSavedByObjectVersion
1070
     0
  0
VISUALSTYLE
  5
1B959
102
{ACAD_XDICTIONARY
360
1B9B5
102
}
102
{ACAD_REACTORS
330
1B955
102
}
330
1B955
100
AcDbVisualStyle
  2
GouraudWithEdges
 70
     3
 71
     2
 72
     2
 73
     1
 90
        2
 40
-0.6
 41
30.0
 62
     5
 63
     7
 74
     1
 91
        0
 64
     7
 65
   257
 75
     1
175
     1
 42
1.0
 92
        0
 66
   257
 43
1.0
 76
     1
 77
     6
 78
     2
 67
     7
 79
     5
170
     0
171
     0
290
     0
174
     0
 93
       13
 44
0.0
173
     0
291
     1
 45
0.0
1001
ACAD
1000
AcDbSavedByObjectVersion
1070
     0
  0
VISUALSTYLE
  5
1B95D
102
{ACAD_XDICTIONARY
360
1B9BD
102
}
102
{ACAD_REACTORS
330
1B955
102
}
330
1B955
100
AcDbVisualStyle
  2
Hidden
 70
     6
 71
     1
 72
     2
 73
     2
 90
        0
 40
-0.6
 41
-30.0
 62
     5
 63
     7
 74
     2
 91
        2
 64
     7
 65
   257
 75
     2
175
     1
 42
40.0
 92
        0
 66
   257
 43
1.0
 76
     1
 77
     6
 78
     2
 67
     7
 79
     3
170
     0
171
     0
290
     0
174
     0
 93
        1
 44
0.0
173
     0
291
     0
 45
0.0
1001
ACAD
1000
AcDbSavedByObjectVersion
1070
     0
  0
VISUALSTYLE
  5
1B96B
102
{ACAD_XDICTIONARY
360
1B9D9
102
}
102
{ACAD_REACTORS
330
1B955
102
}
330
1B955
100
AcDbVisualStyle
  2
JitterOff
 70
    20
 71
     2
 72
     2
 73
     0
 90
        0
 40
-0.6
 41
-30.0
 62
     5
 63
     7
 74
     1
 91
        4
 64
     7
 65
   257
 75
     1
175
     1
 42
1.0
 92
       10
 66
     7
 43
1.0
 76
     1
 77
     6
 78
     2
 67
     7
 79
     5
170
     0
171
     0
290
     0
174
     0
 93
        1
 44
0.0
173
     0
291
     1
 45
0.0
1001
ACAD
1000
AcDbSavedByObjectVersion
1070
     0
  0
VISUALSTYLE
  5
1B963
102
{ACAD_XDICTIONARY
360
1B9C9
102
}
102
{ACAD_REACTORS
330
1B955
102
}
330
1B955
100
AcDbVisualStyle
  2
Linepattern
 70
    14
 71
     2
 72
     2
 73
     0
 90
        0
 40
-0.6
 41
-30.0
 62
     5
 63
     7
 74
     1
 91
        4
 64
     7
 65
   257
 75
     7
175
     7
 42
1.0
 92
        8
 66
     7
 43
1.0
 76
     1
 77
     6
 78
     2
 67
     7
 79
     5
170
     0
171
     0
290
     0
174
     0
 93
        1
 44
0.0
173
     0
291
     1
 45
0.0
1001
ACAD
1000
AcDbSavedByObjectVersion
1070
     0
  0
VISUALSTYLE
  5
1B96C
102
{ACAD_XDICTIONARY
360
1B9DB
102
}
102
{ACAD_REACTORS
330
1B955
102
}
330
1B955
100
AcDbVisualStyle
  2
OverhangOff
 70
    21
 71
     2
 72
     2
 73
     0
 90
        0
 40
-0.6
 41
-30.0
 62
     5
 63
     7
 74
     1
 91
        4
 64
     7
 65
   257
 75
     1
175
     1
 42
1.0
 92
        9
 66
     7
 43
1.0
 76
     1
 77
     6
 78
     2
 67
     7
 79
     5
170
     0
171
     0
290
     0
174
     0
 93
        1
 44
0.0
173
     0
291
     1
 45
0.0
1001
ACAD
1000
AcDbSavedByObjectVersion
1070
     0
  0
VISUALSTYLE
  5
1B95F
102
{ACAD_XDICTIONARY
360
1B9C1
102
}
102
{ACAD_REACTORS
330
1B955
102
}
330
1B955
100
AcDbVisualStyle
  2
Realistic
 70
     8
 71
     2
 72
     3
 73
     0
 90
        2
 40
-0.6
 41
30.0
 62
     5
 63
     7
 74
     0
 91
        0
 64
     7
 65
   257
 75
     1
175
     1
 42
1.0
 92
        8
 66
   257
 43
1.0
 76
     1
 77
     6
 78
     2
 67
     7
 79
     3
170
     0
171
     0
290
     0
174
     0
 93
       13
 44
0.0
173
     0
291
     0
 45
0.0
1001
ACAD
1000
AcDbSavedByObjectVersion
1070
     0
  0
VISUALSTYLE
  5
1B96A
102
{ACAD_XDICTIONARY
360
1B9D7
102
}
102
{ACAD_REACTORS
330
1B955
102
}
330
1B955
100
AcDbVisualStyle
  2
Shaded
 70
    27
 71
     2
 72
     2
 73
     1
 90
        2
 40
-0.6
 41
30.0
 62
     5
 63
     7
 74
     0
 91
        4
 64
     7
 65
   257
 75
     1
175
     1
 42
1.0
 92
        8
 66
   257
 43
1.0
 76
     1
 77
     6
 78
     2
 67
     8
 79
     3
170
     0
171
     0
290
     0
174
     0
 93
        5
 44
0.0
173
     0
291
     0
 45
0.0
1001
ACAD
1000
AcDbSavedByObjectVersion
1070
     0
  0
VISUALSTYLE
  5
1B969
102
{ACAD_XDICTIONARY
360
1B9D5
102
}
102
{ACAD_REACTORS
330
1B955
102
}
330
1B955
100
AcDbVisualStyle
  2
Shaded with edges
 70
    26
 71
     2
 72
     2
 73
     1
 90
        2
 40
-0.6
 41
30.0
 62
     5
 63
     7
 74
     1
 91
       10
 64
     7
 65
   257
 75
     2
175
     1
 42
1.0
 92
        8
 66
   257
 43
1.0
 76
     1
 77
     6
 78
     2
 67
     7
 79
     3
170
     0
171
     0
290
     0
174
     0
 93
        5
 44
0.0
173
     0
291
     0
 45
0.0
1001
ACAD
1000
AcDbSavedByObjectVersion
1070
     0
  0
VISUALSTYLE
  5
1B966
102
{ACAD_XDICTIONARY
360
1B9CF
102
}
102
{ACAD_REACTORS
330
1B955
102
}
330
1B955
100
AcDbVisualStyle
  2
Shades of Gray
 70
    23
 71
     2
 72
     2
 73
     3
 90
        0
 40
-0.6
 41
-30.0
 62
     5
 63
     7
 74
     2
 91
        2
 64
     7
 65
     7
 75
     1
175
     1
 42
40.0
 92
        8
 66
     7
 43
1.0
 76
     1
 77
     6
 78
     2
 67
     7
 79
     3
170
     0
171
     0
290
     0
174
     0
 93
        1
 44
0.0
173
     0
291
     0
 45
0.0
1001
ACAD
1000
AcDbSavedByObjectVersion
1070
     0
  0
VISUALSTYLE
  5
1B967
102
{ACAD_XDICTIONARY
360
1B9D1
102
}
102
{ACAD_REACTORS
330
1B955
102
}
330
1B955
100
AcDbVisualStyle
  2
Sketchy
 70
    24
 71
     1
 72
     2
 73
     2
 90
        0
 40
-0.6
 41
-30.0
 62
     5
 63
     7
 74
     2
 91
        2
 64
     7
 65
     7
 75
     1
175
     1
 42
40.0
 92
       11
 66
     7
 43
1.0
 76
     1
 77
     6
 78
     2
 67
     7
 79
     6
170
     0
171
     0
290
     0
174
     0
 93
        1
 44
0.0
173
     0
291
     0
 45
0.0
1001
ACAD
1000
AcDbSavedByObjectVersion
1070
     0
  0
VISUALSTYLE
  5
1B962
102
{ACAD_XDICTIONARY
360
1B9C7
102
}
102
{ACAD_REACTORS
330
1B955
102
}
330
1B955
100
AcDbVisualStyle
  2
Thicken
 70
    13
 71
     2
 72
     2
 73
     0
 90
        0
 40
-0.6
 41
-30.0
 62
     5
 63
     7
 74
     1
 91
        4
 64
     7
 65
   257
 75
     1
175
     1
 42
1.0
 92
       12
 66
     7
 43
1.0
 76
     1
 77
     6
 78
     2
 67
     7
 79
     5
170
     0
171
     0
290
     0
174
     0
 93
        1
 44
0.0
173
     0
291
     1
 45
0.0
1001
ACAD
1000
AcDbSavedByObjectVersion
1070
     0
  0
VISUALSTYLE
  5
1B95C
102
{ACAD_XDICTIONARY
360
1B9BB
102
}
102
{ACAD_REACTORS
330
1B955
102
}
330
1B955
100
AcDbVisualStyle
  2
Wireframe
 70
     5
 71
     0
 72
     2
 73
     0
 90
        0
 40
-0.6
 41
-30.0
 62
     5
 63
     7
 74
     1
 91
        4
 64
     7
 65
   257
 75
     1
175
     1
 42
1.0
 92
        0
 66
   257
 43
1.0
 76
     1
 77
     6
 78
     2
 67
     7
 79
     3
170
     0
171
     0
290
     0
174
     0
 93
        1
 44
0.0
173
     0
291
     0
 45
0.0
1001
ACAD
1000
AcDbSavedByObjectVersion
1070
     0
  0
VISUALSTYLE
  5
1B968
102
{ACAD_XDICTIONARY
360
1B9D3
102
}
102
{ACAD_REACTORS
330
1B955
102
}
330
1B955
100
AcDbVisualStyle
  2
X-Ray
 70
    25
 71
     2
 72
     2
 73
     1
 90
        1
 40
0.5
 41
-30.0
 62
     5
 63
     7
 74
     1
 91
        0
 64
     7
 65
   257
 75
     1
175
     1
 42
1.0
 92
        8
 66
     7
 43
1.0
 76
     1
 77
     6
 78
     2
 67
     7
 79
     3
170
     0
171
     0
290
     0
174
     0
 93
       13
 44
0.0
173
     0
291
     0
 45
0.0
1001
ACAD
1000
AcDbSavedByObjectVersion
1070
     0
  0
DICTIONARYVAR
  5
1B9A2
102
{ACAD_REACTORS
330
1B99D
102
}
330
1B99D
100
DictionaryVariables
280
     0
  1
1:1
  0
DICTIONARYVAR
  5
1B99F
102
{ACAD_REACTORS
330
1B99D
102
}
330
1B99D
100
DictionaryVariables
280
     0
  1
STANDARD
  0
DICTIONARYVAR
  5
1B99E
102
{ACAD_REACTORS
330
1B99D
102
}
330
1B99D
100
DictionaryVariables
280
     0
  1
STANDARD
  0
DICTIONARYVAR
  5
1B9A0
102
{ACAD_REACTORS
330
1B99D
102
}
330
1B99D
100
DictionaryVariables
280
     0
  1
Imperial24
  0
DICTIONARYVAR
  5
1B9A1
102
{ACAD_REACTORS
330
1B99D
102
}
330
1B99D
100
DictionaryVariables
280
     0
  1
Imperial24
  0
DICTIONARYVAR
  5
1B9A5
102
{ACAD_REACTORS
330
1B99D
102
}
330
1B99D
100
DictionaryVariables
280
     0
  1
1
  0
DICTIONARYVAR
  5
1B9A4
102
{ACAD_REACTORS
330
1B99D
102
}
330
1B99D
100
DictionaryVariables
280
     0
  1
0
  0
DICTIONARYVAR
  5
1B9A3
102
{ACAD_REACTORS
330
1B99D
102
}
330
1B99D
100
DictionaryVariables
280
     0
  1
127
  0
DICTIONARYVAR
  5
1B9A6
102
{ACAD_REACTORS
330
1B99D
102
}
330
1B99D
100
DictionaryVariables
280
     0
  1
2
  0
DICTIONARY
  5
1B9E3
330
1B988
100
AcDbDictionary
280
     1
281
     1
  3
ACAD_XREC_ROUNDTRIP
360
1B9E4
  0
DICTIONARY
  5
1B9E5
330
1B989
100
AcDbDictionary
280
     1
281
     1
  3
ACAD_XREC_ROUNDTRIP
360
1B9E6
  0
DICTIONARY
  5
1B9E7
330
1B98A
100
AcDbDictionary
280
     1
281
     1
  3
ACAD_XREC_ROUNDTRIP
360
1B9E8
  0
DICTIONARY
  5
1B946
330
1B945
100
AcDbDictionary
280
     1
281
     1
  3
ACAD_XREC_ROUNDTRIP
360
1B9AD
  3
BUMPTILE
360
1B948
  3
DIFFUSETILE
360
1B947
  3
OPACITYTILE
360
1B94B
  3
REFLECTIONTILE
360
1B94A
  3
REFRACTIONTILE
360
1B94C
  3
SPECULARTILE
360
1B949
  0
DICTIONARY
  5
1B93E
330
1B93D
100
AcDbDictionary
280
     1
281
     1
  3
ACAD_XREC_ROUNDTRIP
360
1B9AC
  3
BUMPTILE
360
1B940
  3
DIFFUSETILE
360
1B93F
  3
OPACITYTILE
360
1B943
  3
REFLECTIONTILE
360
1B942
  3
REFRACTIONTILE
360
1B944
  3
SPECULARTILE
360
1B941
  0
DICTIONARY
  5
1B94E
330
1B94D
100
AcDbDictionary
280
     1
281
     1
  3
ACAD_XREC_ROUNDTRIP
360
1B9AE
  3
BUMPTILE
360
1B950
  3
DIFFUSETILE
360
1B94F
  3
OPACITYTILE
360
1B953
  3
REFLECTIONTILE
360
1B952
  3
REFRACTIONTILE
360
1B954
  3
SPECULARTILE
360
1B951
  0
DICTIONARY
  5
1B9E1
330
1B986
100
AcDbDictionary
280
     1
281
     1
  3
ACAD_XREC_ROUNDTRIP
360
1B9E2
  0
DICTIONARY
  5
1B9A8
330
1B970
100
AcDbDictionary
280
     1
281
     1
  3
ACAD_ROUNDTRIP_2008_TABLESTYLE_CELLSTYLEMAP
360
1B9A9
  3
ACAD_XREC_ROUNDTRIP
360
1B9DF
  0
DICTIONARY
  5
1B9B9
330
1B95B
100
AcDbDictionary
280
     1
281
     1
  3
ACAD_XREC_ROUNDTRIP
360
1B9BA
  0
DICTIONARY
  5
1B9B7
330
1B95A
100
AcDbDictionary
280
     1
281
     1
  3
ACAD_XREC_ROUNDTRIP
360
1B9B8
  0
DICTIONARY
  5
1B9C5
330
1B961
100
AcDbDictionary
280
     1
281
     1
  3
ACAD_XREC_ROUNDTRIP
360
1B9C6
  0
DICTIONARY
  5
1B9CD
330
1B965
100
AcDbDictionary
280
     1
281
     1
  3
ACAD_XREC_ROUNDTRIP
360
1B9CE
  0
DICTIONARY
  5
1B9BF
330
1B95E
100
AcDbDictionary
280
     1
281
     1
  3
ACAD_XREC_ROUNDTRIP
360
1B9C0
  0
DICTIONARY
  5
1B9C3
330
1B960
100
AcDbDictionary
280
     1
281
     1
  3
ACAD_XREC_ROUNDTRIP
360
1B9C4
  0
DICTIONARY
  5
1B9DD
330
1B96D
100
AcDbDictionary
280
     1
281
     1
  3
ACAD_XREC_ROUNDTRIP
360
1B9DE
  0
DICTIONARY
  5
1B9CB
330
1B964
100
AcDbDictionary
280
     1
281
     1
  3
ACAD_XREC_ROUNDTRIP
360
1B9CC
  0
DICTIONARY
  5
1B9AF
330
1B956
100
AcDbDictionary
280
     1
281
     1
  3
ACAD_XREC_ROUNDTRIP
360
1B9B0
  0
DICTIONARY
  5
1B9B1
330
1B957
100
AcDbDictionary
280
     1
281
     1
  3
ACAD_XREC_ROUNDTRIP
360
1B9B2
  0
DICTIONARY
  5
1B9B3
330
1B958
100
AcDbDictionary
280
     1
281
     1
  3
ACAD_XREC_ROUNDTRIP
360
1B9B4
  0
DICTIONARY
  5
1B9B5
330
1B959
100
AcDbDictionary
280
     1
281
     1
  3
ACAD_XREC_ROUNDTRIP
360
1B9B6
  0
DICTIONARY
  5
1B9BD
330
1B95D
100
AcDbDictionary
280
     1
281
     1
  3
ACAD_XREC_ROUNDTRIP
360
1B9BE
  0
DICTIONARY
  5
1B9D9
330
1B96B
100
AcDbDictionary
280
     1
281
     1
  3
ACAD_XREC_ROUNDTRIP
360
1B9DA
  0
DICTIONARY
  5
1B9C9
330
1B963
100
AcDbDictionary
280
     1
281
     1
  3
ACAD_XREC_ROUNDTRIP
360
1B9CA
  0
DICTIONARY
  5
1B9DB
330
1B96C
100
AcDbDictionary
280
     1
281
     1
  3
ACAD_XREC_ROUNDTRIP
360
1B9DC
  0
DICTIONARY
  5
1B9C1
330
1B95F
100
AcDbDictionary
280
     1
281
     1
  3
ACAD_XREC_ROUNDTRIP
360
1B9C2
  0
DICTIONARY
  5
1B9D7
330
1B96A
100
AcDbDictionary
280
     1
281
     1
  3
ACAD_XREC_ROUNDTRIP
360
1B9D8
  0
DICTIONARY
  5
1B9D5
330
1B969
100
AcDbDictionary
280
     1
281
     1
  3
ACAD_XREC_ROUNDTRIP
360
1B9D6
  0
DICTIONARY
  5
1B9CF
330
1B966
100
AcDbDictionary
280
     1
281
     1
  3
ACAD_XREC_ROUNDTRIP
360
1B9D0
  0
DICTIONARY
  5
1B9D1
330
1B967
100
AcDbDictionary
280
     1
281
     1
  3
ACAD_XREC_ROUNDTRIP
360
1B9D2
  0
DICTIONARY
  5
1B9C7
330
1B962
100
AcDbDictionary
280
     1
281
     1
  3
ACAD_XREC_ROUNDTRIP
360
1B9C8
  0
DICTIONARY
  5
1B9BB
330
1B95C
100
AcDbDictionary
280
     1
281
     1
  3
ACAD_XREC_ROUNDTRIP
360
1B9BC
  0
DICTIONARY
  5
1B9D3
330
1B968
100
AcDbDictionary
280
     1
281
     1
  3
ACAD_XREC_ROUNDTRIP
360
1B9D4
  0
XRECORD
  5
1B9E4
102
{ACAD_REACTORS
330
1B9E3
102
}
330
1B9E3
100
AcDbXrecord
280
     1
102
DISPLAYNAME
  1
Imperial24
102
FLAGS
 90
        0
  0
XRECORD
  5
1B9E6
102
{ACAD_REACTORS
330
1B9E5
102
}
330
1B9E5
100
AcDbXrecord
280
     1
102
SHADEPLOT
 70
     0
102
SHADEPLOTRESLEVEL
 70
     2
102
SHADEPLOTCUSTOMDPI
 70
   300
  0
XRECORD
  5
1B9E8
102
{ACAD_REACTORS
330
1B9E7
102
}
330
1B9E7
100
AcDbXrecord
280
     1
102
SHADEPLOT
 70
     0
102
SHADEPLOTRESLEVEL
 70
     2
102
SHADEPLOTCUSTOMDPI
 70
   300
  0
XRECORD
  5
1B9AD
102
{ACAD_REACTORS
330
1B946
102
}
330
1B946
100
AcDbXrecord
280
     1
102
MATERIAL
148
0.0
149
0.0
149
0.0
 93
        0
 94
      127
282
     0
 72
     0
 77
     0
171
     0
175
     0
179
     0
273
     0
  0
XRECORD
  5
1B948
102
{ACAD_REACTORS
330
1B946
102
}
330
1B946
100
AcDbXrecord
280
     1
270
     1
271
     1
  0
XRECORD
  5
1B947
102
{ACAD_REACTORS
330
1B946
102
}
330
1B946
100
AcDbXrecord
280
     1
270
     1
271
     1
  0
XRECORD
  5
1B94B
102
{ACAD_REACTORS
330
1B946
102
}
330
1B946
100
AcDbXrecord
280
     1
270
     1
271
     1
  0
XRECORD
  5
1B94A
102
{ACAD_REACTORS
330
1B946
102
}
330
1B946
100
AcDbXrecord
280
     1
270
     1
271
     1
  0
XRECORD
  5
1B94C
102
{ACAD_REACTORS
330
1B946
102
}
330
1B946
100
AcDbXrecord
280
     1
270
     1
271
     1
  0
XRECORD
  5
1B949
102
{ACAD_REACTORS
330
1B946
102
}
330
1B946
100
AcDbXrecord
280
     1
270
     1
271
     1
  0
XRECORD
  5
1B9AC
102
{ACAD_REACTORS
330
1B93E
102
}
330
1B93E
100
AcDbXrecord
280
     1
102
MATERIAL
148
0.0
149
0.0
149
0.0
 93
        0
 94
      127
282
     0
 72
     0
 77
     0
171
     0
175
     0
179
     0
273
     0
  0
XRECORD
  5
1B940
102
{ACAD_REACTORS
330
1B93E
102
}
330
1B93E
100
AcDbXrecord
280
     1
270
     1
271
     1
  0
XRECORD
  5
1B93F
102
{ACAD_REACTORS
330
1B93E
102
}
330
1B93E
100
AcDbXrecord
280
     1
270
     1
271
     1
  0
XRECORD
  5
1B943
102
{ACAD_REACTORS
330
1B93E
102
}
330
1B93E
100
AcDbXrecord
280
     1
270
     1
271
     1
  0
XRECORD
  5
1B942
102
{ACAD_REACTORS
330
1B93E
102
}
330
1B93E
100
AcDbXrecord
280
     1
270
     1
271
     1
  0
XRECORD
  5
1B944
102
{ACAD_REACTORS
330
1B93E
102
}
330
1B93E
100
AcDbXrecord
280
     1
270
     1
271
     1
  0
XRECORD
  5
1B941
102
{ACAD_REACTORS
330
1B93E
102
}
330
1B93E
100
AcDbXrecord
280
     1
270
     1
271
     1
  0
XRECORD
  5
1B9AE
102
{ACAD_REACTORS
330
1B94E
102
}
330
1B94E
100
AcDbXrecord
280
     1
102
MATERIAL
148
0.0
149
0.0
149
0.0
 93
        0
 94
      127
282
     0
 72
     0
 77
     0
171
     0
175
     0
179
     0
273
     0
  0
XRECORD
  5
1B950
102
{ACAD_REACTORS
330
1B94E
102
}
330
1B94E
100
AcDbXrecord
280
     1
270
     1
271
     1
  0
XRECORD
  5
1B94F
102
{ACAD_REACTORS
330
1B94E
102
}
330
1B94E
100
AcDbXrecord
280
     1
270
     1
271
     1
  0
XRECORD
  5
1B953
102
{ACAD_REACTORS
330
1B94E
102
}
330
1B94E
100
AcDbXrecord
280
     1
270
     1
271
     1
  0
XRECORD
  5
1B952
102
{ACAD_REACTORS
330
1B94E
102
}
330
1B94E
100
AcDbXrecord
280
     1
270
     1
271
     1
  0
XRECORD
  5
1B954
102
{ACAD_REACTORS
330
1B94E
102
}
330
1B94E
100
AcDbXrecord
280
     1
270
     1
271
     1
  0
XRECORD
  5
1B951
102
{ACAD_REACTORS
330
1B94E
102
}
330
1B94E
100
AcDbXrecord
280
     1
270
     1
271
     1
  0
XRECORD
  5
1B9E2
102
{ACAD_REACTORS
330
1B9E1
102
}
330
1B9E1
100
AcDbXrecord
280
     1
102
DISPLAYNAME
  1
Imperial24
102
FLAGS
 90
        0
  0
CELLSTYLEMAP
  5
1B9A9
102
{ACAD_REACTORS
330
1B9A8
102
}
330
1B9A8
100
AcDbCellStyleMap
 90
        3
300
CELLSTYLE
  1
TABLEFORMAT_BEGIN
 90
        5
170
     1
 91
        0
 92
    32768
 62
   257
 93
        1
300
CONTENTFORMAT
  1
CONTENTFORMAT_BEGIN
 90
        0
 91
        0
 92
      512
 93
        0
300

 40
0.0
140
1.0
 94
        5
 62
     0
340
1B50E
144
0.25
309
CONTENTFORMAT_END
171
     0
 94
        0
309
TABLEFORMAT_END
  1
CELLSTYLE_BEGIN
 90
        1
 91
        1
300
_TITLE
309
CELLSTYLE_END
300
CELLSTYLE
  1
TABLEFORMAT_BEGIN
 90
        5
170
     1
 91
        0
 92
        0
 62
   257
 93
        1
300
CONTENTFORMAT
  1
CONTENTFORMAT_BEGIN
 90
        0
 91
        0
 92
      512
 93
        0
300

 40
0.0
140
1.0
 94
        5
 62
     0
340
1B50E
144
0.18
309
CONTENTFORMAT_END
171
     0
 94
        0
309
TABLEFORMAT_END
  1
CELLSTYLE_BEGIN
 90
        2
 91
        1
300
_HEADER
309
CELLSTYLE_END
300
CELLSTYLE
  1
TABLEFORMAT_BEGIN
 90
        5
170
     1
 91
        0
 92
        0
 62
   257
 93
        1
300
CONTENTFORMAT
  1
CONTENTFORMAT_BEGIN
 90
        0
 91
        0
 92
      512
 93
        0
300

 40
0.0
140
1.0
 94
        2
 62
     0
340
1B50E
144
0.18
309
CONTENTFORMAT_END
171
     0
 94
        0
309
TABLEFORMAT_END
  1
CELLSTYLE_BEGIN
 90
        3
 91
        2
300
_DATA
309
CELLSTYLE_END
  0
XRECORD
  5
1B9DF
102
{ACAD_REACTORS
330
1B9A8
102
}
330
1B9A8
100
AcDbXrecord
280
     1
102
ACAD_ROUNDTRIP_PRE2007_TABLESTYLE
 90
      512
 91
        0
  1

 92
      512
 93
        0
  2

 94
      512
 95
        0
  3

  0
XRECORD
  5
1B9BA
102
{ACAD_REACTORS
330
1B9B9
102
}
330
1B9B9
100
AcDbXrecord
280
     1
102
RTVSPost2010Prop28
280
     1
102
RTVSPost2010PropOp28
 70
     1
102
RTVSPost2010Prop29
280
     1
102
RTVSPost2010PropOp29
 70
     1
102
RTVSPost2010Prop30
280
     0
102
RTVSPost2010PropOp30
 70
     1
102
RTVSPost2010Prop31
280
     0
102
RTVSPost2010PropOp31
 70
     1
102
RTVSPost2010Prop32
280
     0
102
RTVSPost2010PropOp32
 70
     1
102
RTVSPost2010Prop33
280
     0
102
RTVSPost2010PropOp33
 70
     1
102
RTVSPost2010Prop34
280
     0
102
RTVSPost2010PropOp34
 70
     1
102
RTVSPost2010Prop35
280
     0
102
RTVSPost2010PropOp35
 70
     1
102
RTVSPost2010Prop36
280
     0
102
RTVSPost2010PropOp36
 70
     1
102
RTVSPost2010Prop37
 90
       50
102
RTVSPost2010PropOp37
 70
     1
102
RTVSPost2010Prop38
140
0.0
102
RTVSPost2010PropOp38
 70
     1
102
RTVSPost2010Prop39
140
1.0
102
RTVSPost2010PropOp39
 70
     1
102
RTVSPost2010Prop40
 90
        0
102
RTVSPost2010PropOp40
 70
     1
102
RTVSPost2010Prop41ColorIndex
 90
       18
102
RTVSPost2010Prop41ColorRGB
 90
        0
102
RTVSPost2010PropOp41
 70
     1
102
RTVSPost2010Prop42
 90
       50
102
RTVSPost2010PropOp42
 70
     1
102
RTVSPost2010Prop43
 90
        3
102
RTVSPost2010PropOp43
 70
     1
102
RTVSPost2010Prop44ColorIndex
 90
        5
102
RTVSPost2010Prop44ColorRGB
 90
      255
102
RTVSPost2010PropOp44
 70
     1
102
RTVSPost2010Prop45
280
     0
102
RTVSPost2010PropOp45
 70
     1
102
RTVSPost2010Prop46
 90
       50
102
RTVSPost2010PropOp46
 70
     1
102
RTVSPost2010Prop47
 90
       50
102
RTVSPost2010PropOp47
 70
     1
102
RTVSPost2010Prop48
 90
       50
102
RTVSPost2010PropOp48
 70
     1
102
RTVSPost2010Prop49
280
     0
102
RTVSPost2010PropOp49
 70
     1
102
RTVSPost2010Prop50
 90
       50
102
RTVSPost2010PropOp50
 70
     1
102
RTVSPost2010Prop51ColorIndex
 90
      256
102
RTVSPost2010Prop51ColorRGB
 90
-16777216
102
RTVSPost2010PropOp51
 70
     0
102
RTVSPost2010Prop52
140
1.0
102
RTVSPost2010PropOp52
 70
     0
102
RTVSPost2010Prop53
 90
        2
102
RTVSPost2010PropOp53
 70
     1
102
RTVSPost2010Prop54
  1
strokes_ogs.tif
102
RTVSPost2010PropOp54
 70
     1
102
RTVSPost2010Prop55
280
     0
102
RTVSPost2010PropOp55
 70
     1
102
RTVSPost2010Prop56
140
1.0
102
RTVSPost2010PropOp56
 70
     1
102
RTVSPost2010Prop57
140
1.0
102
RTVSPost2010PropOp57
 70
     1
102
RTVSPropertyOp0
 70
     1
102
RTVSPropertyOp1
 70
     1
102
RTVSPropertyOp2
 70
     1
102
RTVSPropertyOp3
 70
     1
102
RTVSPropertyOp4
 70
     1
102
RTVSPropertyOp5
 70
     1
102
RTVSPropertyOp6
 70
     1
102
RTVSPropertyOp7
 70
     1
102
RTVSPropertyOp8
 70
     1
102
RTVSPropertyOp9
 70
     1
102
RTVSPropertyOp10
 70
     1
102
RTVSPropertyOp11
 70
     1
102
RTVSPropertyOp12
 70
     1
102
RTVSPropertyOp13
 70
     1
102
RTVSPropertyOp14
 70
     1
102
RTVSPropertyOp15
 70
     1
102
RTVSPropertyOp16
 70
     1
102
RTVSPropertyOp17
 70
     1
102
RTVSPropertyOp18
 70
     1
102
RTVSPropertyOp19
 70
     1
102
RTVSPropertyOp20
 70
     1
102
RTVSPropertyOp21
 70
     1
102
RTVSPropertyOp22
 70
     1
102
RTVSPropertyOp23
 70
     1
102
RTVSPropertyOp24
 70
     1
102
RTVSPropertyOp25
 70
     1
102
RTVSPropertyOp26
 70
     1
102
RTVSPropertyOp27
 70
     1
102
RTVSPropertyOp28
 70
     1
102
RTVSPropertyOp29
 70
     1
102
RTVSPropertyOp30
 70
     1
102
RTVSPropertyOp31
 70
     1
102
RTVSPropertyOp32
 70
     1
102
RTVSPropertyOp33
 70
     1
102
RTVSPropertyOp34
 70
     1
102
RTVSPropertyOp35
 70
     1
102
RTVSPropertyOp36
 70
     1
102
RTVSPropertyOp37
 70
     1
102
RTVSPropertyOp38
 70
     1
102
RTVSPropertyOp39
 70
     1
102
RTVSPropertyOp40
 70
     1
102
RTVSPropertyOp41
 70
     1
102
RTVSPropertyOp42
 70
     1
102
RTVSPropertyOp43
 70
     1
102
RTVSPropertyOp44
 70
     1
102
RTVSPropertyOp45
 70
     1
102
RTVSPropertyOp46
 70
     1
102
RTVSPropertyOp47
 70
     1
102
RTVSPropertyOp48
 70
     1
102
RTVSPropertyOp49
 70
     1
102
RTVSPropertyOp50
 70
     1
102
RTVSPropertyOp51
 70
     0
102
RTVSPropertyOp52
 70
     0
102
RTVSPropertyOp53
 70
     1
102
RTVSPropertyOp54
 70
     1
102
RTVSPropertyOp55
 70
     1
102
RTVSPropertyOp56
 70
     1
102
RTVSPropertyOp57
 70
     1
102
RTVSPropertyOp58
 70
     1
102
RTVSPropertyOp59
 70
     1
102
RTVSPropertyOp60
 70
     1
102
RTVSPropertyOp61
 70
     1
102
RTVSPropertyOp62
 70
     1
  0
XRECORD
  5
1B9B8
102
{ACAD_REACTORS
330
1B9B7
102
}
330
1B9B7
100
AcDbXrecord
280
     1
102
RTVSPost2010Prop28
280
     0
102
RTVSPost2010PropOp28
 70
     1
102
RTVSPost2010Prop29
280
     1
102
RTVSPost2010PropOp29
 70
     1
102
RTVSPost2010Prop30
280
     1
102
RTVSPost2010PropOp30
 70
     1
102
RTVSPost2010Prop31
280
     0
102
RTVSPost2010PropOp31
 70
     1
102
RTVSPost2010Prop32
280
     0
102
RTVSPost2010PropOp32
 70
     1
102
RTVSPost2010Prop33
280
     0
102
RTVSPost2010PropOp33
 70
     1
102
RTVSPost2010Prop34
280
     0
102
RTVSPost2010PropOp34
 70
     1
102
RTVSPost2010Prop35
280
     0
102
RTVSPost2010PropOp35
 70
     1
102
RTVSPost2010Prop36
280
     0
102
RTVSPost2010PropOp36
 70
     1
102
RTVSPost2010Prop37
 90
       50
102
RTVSPost2010PropOp37
 70
     1
102
RTVSPost2010Prop38
140
0.0
102
RTVSPost2010PropOp38
 70
     1
102
RTVSPost2010Prop39
140
1.0
102
RTVSPost2010PropOp39
 70
     1
102
RTVSPost2010Prop40
 90
        0
102
RTVSPost2010PropOp40
 70
     1
102
RTVSPost2010Prop41ColorIndex
 90
       18
102
RTVSPost2010Prop41ColorRGB
 90
        0
102
RTVSPost2010PropOp41
 70
     1
102
RTVSPost2010Prop42
 90
       50
102
RTVSPost2010PropOp42
 70
     1
102
RTVSPost2010Prop43
 90
        3
102
RTVSPost2010PropOp43
 70
     1
102
RTVSPost2010Prop44ColorIndex
 90
        5
102
RTVSPost2010Prop44ColorRGB
 90
      255
102
RTVSPost2010PropOp44
 70
     1
102
RTVSPost2010Prop45
280
     0
102
RTVSPost2010PropOp45
 70
     1
102
RTVSPost2010Prop46
 90
       50
102
RTVSPost2010PropOp46
 70
     1
102
RTVSPost2010Prop47
 90
       50
102
RTVSPost2010PropOp47
 70
     1
102
RTVSPost2010Prop48
 90
       50
102
RTVSPost2010PropOp48
 70
     1
102
RTVSPost2010Prop49
280
     0
102
RTVSPost2010PropOp49
 70
     1
102
RTVSPost2010Prop50
 90
       50
102
RTVSPost2010PropOp50
 70
     1
102
RTVSPost2010Prop51ColorIndex
 90
      256
102
RTVSPost2010Prop51ColorRGB
 90
-16777216
102
RTVSPost2010PropOp51
 70
     0
102
RTVSPost2010Prop52
140
1.0
102
RTVSPost2010PropOp52
 70
     0
102
RTVSPost2010Prop53
 90
        2
102
RTVSPost2010PropOp53
 70
     1
102
RTVSPost2010Prop54
  1
strokes_ogs.tif
102
RTVSPost2010PropOp54
 70
     1
102
RTVSPost2010Prop55
280
     0
102
RTVSPost2010PropOp55
 70
     1
102
RTVSPost2010Prop56
140
1.0
102
RTVSPost2010PropOp56
 70
     1
102
RTVSPost2010Prop57
140
1.0
102
RTVSPost2010PropOp57
 70
     1
102
RTVSPropertyOp0
 70
     1
102
RTVSPropertyOp1
 70
     1
102
RTVSPropertyOp2
 70
     1
102
RTVSPropertyOp3
 70
     1
102
RTVSPropertyOp4
 70
     1
102
RTVSPropertyOp5
 70
     1
102
RTVSPropertyOp6
 70
     1
102
RTVSPropertyOp7
 70
     1
102
RTVSPropertyOp8
 70
     1
102
RTVSPropertyOp9
 70
     1
102
RTVSPropertyOp10
 70
     1
102
RTVSPropertyOp11
 70
     1
102
RTVSPropertyOp12
 70
     1
102
RTVSPropertyOp13
 70
     1
102
RTVSPropertyOp14
 70
     1
102
RTVSPropertyOp15
 70
     1
102
RTVSPropertyOp16
 70
     1
102
RTVSPropertyOp17
 70
     1
102
RTVSPropertyOp18
 70
     1
102
RTVSPropertyOp19
 70
     1
102
RTVSPropertyOp20
 70
     1
102
RTVSPropertyOp21
 70
     1
102
RTVSPropertyOp22
 70
     1
102
RTVSPropertyOp23
 70
     1
102
RTVSPropertyOp24
 70
     1
102
RTVSPropertyOp25
 70
     1
102
RTVSPropertyOp26
 70
     1
102
RTVSPropertyOp27
 70
     1
102
RTVSPropertyOp28
 70
     1
102
RTVSPropertyOp29
 70
     1
102
RTVSPropertyOp30
 70
     1
102
RTVSPropertyOp31
 70
     1
102
RTVSPropertyOp32
 70
     1
102
RTVSPropertyOp33
 70
     1
102
RTVSPropertyOp34
 70
     1
102
RTVSPropertyOp35
 70
     1
102
RTVSPropertyOp36
 70
     1
102
RTVSPropertyOp37
 70
     1
102
RTVSPropertyOp38
 70
     1
102
RTVSPropertyOp39
 70
     1
102
RTVSPropertyOp40
 70
     1
102
RTVSPropertyOp41
 70
     1
102
RTVSPropertyOp42
 70
     1
102
RTVSPropertyOp43
 70
     1
102
RTVSPropertyOp44
 70
     1
102
RTVSPropertyOp45
 70
     1
102
RTVSPropertyOp46
 70
     1
102
RTVSPropertyOp47
 70
     1
102
RTVSPropertyOp48
 70
     1
102
RTVSPropertyOp49
 70
     1
102
RTVSPropertyOp50
 70
     1
102
RTVSPropertyOp51
 70
     0
102
RTVSPropertyOp52
 70
     0
102
RTVSPropertyOp53
 70
     1
102
RTVSPropertyOp54
 70
     1
102
RTVSPropertyOp55
 70
     1
102
RTVSPropertyOp56
 70
     1
102
RTVSPropertyOp57
 70
     1
102
RTVSPropertyOp58
 70
     1
102
RTVSPropertyOp59
 70
     1
102
RTVSPropertyOp60
 70
     1
102
RTVSPropertyOp61
 70
     1
102
RTVSPropertyOp62
 70
     1
  0
XRECORD
  5
1B9C6
102
{ACAD_REACTORS
330
1B9C5
102
}
330
1B9C5
100
AcDbXrecord
280
     1
102
RTVSPost2010Prop28
280
     0
102
RTVSPost2010PropOp28
 70
     1
102
RTVSPost2010Prop29
280
     1
102
RTVSPost2010PropOp29
 70
     1
102
RTVSPost2010Prop30
280
     1
102
RTVSPost2010PropOp30
 70
     1
102
RTVSPost2010Prop31
280
     0
102
RTVSPost2010PropOp31
 70
     1
102
RTVSPost2010Prop32
280
     0
102
RTVSPost2010PropOp32
 70
     1
102
RTVSPost2010Prop33
280
     0
102
RTVSPost2010PropOp33
 70
     1
102
RTVSPost2010Prop34
280
     0
102
RTVSPost2010PropOp34
 70
     1
102
RTVSPost2010Prop35
280
     0
102
RTVSPost2010PropOp35
 70
     1
102
RTVSPost2010Prop36
280
     0
102
RTVSPost2010PropOp36
 70
     1
102
RTVSPost2010Prop37
 90
       50
102
RTVSPost2010PropOp37
 70
     1
102
RTVSPost2010Prop38
140
0.0
102
RTVSPost2010PropOp38
 70
     1
102
RTVSPost2010Prop39
140
1.0
102
RTVSPost2010PropOp39
 70
     1
102
RTVSPost2010Prop40
 90
        0
102
RTVSPost2010PropOp40
 70
     1
102
RTVSPost2010Prop41ColorIndex
 90
       18
102
RTVSPost2010Prop41ColorRGB
 90
        0
102
RTVSPost2010PropOp41
 70
     1
102
RTVSPost2010Prop42
 90
       50
102
RTVSPost2010PropOp42
 70
     1
102
RTVSPost2010Prop43
 90
        3
102
RTVSPost2010PropOp43
 70
     1
102
RTVSPost2010Prop44ColorIndex
 90
        5
102
RTVSPost2010Prop44ColorRGB
 90
      255
102
RTVSPost2010PropOp44
 70
     1
102
RTVSPost2010Prop45
280
     0
102
RTVSPost2010PropOp45
 70
     1
102
RTVSPost2010Prop46
 90
       50
102
RTVSPost2010PropOp46
 70
     1
102
RTVSPost2010Prop47
 90
       50
102
RTVSPost2010PropOp47
 70
     1
102
RTVSPost2010Prop48
 90
       50
102
RTVSPost2010PropOp48
 70
     1
102
RTVSPost2010Prop49
280
     0
102
RTVSPost2010PropOp49
 70
     1
102
RTVSPost2010Prop50
 90
       50
102
RTVSPost2010PropOp50
 70
     1
102
RTVSPost2010Prop51ColorIndex
 90
      256
102
RTVSPost2010Prop51ColorRGB
 90
-16777216
102
RTVSPost2010PropOp51
 70
     0
102
RTVSPost2010Prop52
140
1.0
102
RTVSPost2010PropOp52
 70
     0
102
RTVSPost2010Prop53
 90
        2
102
RTVSPost2010PropOp53
 70
     1
102
RTVSPost2010Prop54
  1
strokes_ogs.tif
102
RTVSPost2010PropOp54
 70
     1
102
RTVSPost2010Prop55
280
     0
102
RTVSPost2010PropOp55
 70
     1
102
RTVSPost2010Prop56
140
1.0
102
RTVSPost2010PropOp56
 70
     1
102
RTVSPost2010Prop57
140
1.0
102
RTVSPost2010PropOp57
 70
     1
102
RTVSPropertyOp0
 70
     1
102
RTVSPropertyOp1
 70
     1
102
RTVSPropertyOp2
 70
     1
102
RTVSPropertyOp3
 70
     1
102
RTVSPropertyOp4
 70
     1
102
RTVSPropertyOp5
 70
     1
102
RTVSPropertyOp6
 70
     1
102
RTVSPropertyOp7
 70
     1
102
RTVSPropertyOp8
 70
     1
102
RTVSPropertyOp9
 70
     1
102
RTVSPropertyOp10
 70
     1
102
RTVSPropertyOp11
 70
     1
102
RTVSPropertyOp12
 70
     1
102
RTVSPropertyOp13
 70
     1
102
RTVSPropertyOp14
 70
     1
102
RTVSPropertyOp15
 70
     1
102
RTVSPropertyOp16
 70
     1
102
RTVSPropertyOp17
 70
     1
102
RTVSPropertyOp18
 70
     1
102
RTVSPropertyOp19
 70
     1
102
RTVSPropertyOp20
 70
     1
102
RTVSPropertyOp21
 70
     1
102
RTVSPropertyOp22
 70
     1
102
RTVSPropertyOp23
 70
     1
102
RTVSPropertyOp24
 70
     1
102
RTVSPropertyOp25
 70
     1
102
RTVSPropertyOp26
 70
     1
102
RTVSPropertyOp27
 70
     1
102
RTVSPropertyOp28
 70
     1
102
RTVSPropertyOp29
 70
     1
102
RTVSPropertyOp30
 70
     1
102
RTVSPropertyOp31
 70
     1
102
RTVSPropertyOp32
 70
     1
102
RTVSPropertyOp33
 70
     1
102
RTVSPropertyOp34
 70
     1
102
RTVSPropertyOp35
 70
     1
102
RTVSPropertyOp36
 70
     1
102
RTVSPropertyOp37
 70
     1
102
RTVSPropertyOp38
 70
     1
102
RTVSPropertyOp39
 70
     1
102
RTVSPropertyOp40
 70
     1
102
RTVSPropertyOp41
 70
     1
102
RTVSPropertyOp42
 70
     1
102
RTVSPropertyOp43
 70
     1
102
RTVSPropertyOp44
 70
     1
102
RTVSPropertyOp45
 70
     1
102
RTVSPropertyOp46
 70
     1
102
RTVSPropertyOp47
 70
     1
102
RTVSPropertyOp48
 70
     1
102
RTVSPropertyOp49
 70
     1
102
RTVSPropertyOp50
 70
     1
102
RTVSPropertyOp51
 70
     0
102
RTVSPropertyOp52
 70
     0
102
RTVSPropertyOp53
 70
     1
102
RTVSPropertyOp54
 70
     1
102
RTVSPropertyOp55
 70
     1
102
RTVSPropertyOp56
 70
     1
102
RTVSPropertyOp57
 70
     1
102
RTVSPropertyOp58
 70
     1
102
RTVSPropertyOp59
 70
     1
102
RTVSPropertyOp60
 70
     1
102
RTVSPropertyOp61
 70
     1
102
RTVSPropertyOp62
 70
     1
  0
XRECORD
  5
1B9CE
102
{ACAD_REACTORS
330
1B9CD
102
}
330
1B9CD
100
AcDbXrecord
280
     1
102
RTVSPost2010Prop28
280
     0
102
RTVSPost2010PropOp28
 70
     1
102
RTVSPost2010Prop29
280
     1
102
RTVSPost2010PropOp29
 70
     1
102
RTVSPost2010Prop30
280
     1
102
RTVSPost2010PropOp30
 70
     1
102
RTVSPost2010Prop31
280
     0
102
RTVSPost2010PropOp31
 70
     1
102
RTVSPost2010Prop32
280
     0
102
RTVSPost2010PropOp32
 70
     1
102
RTVSPost2010Prop33
280
     0
102
RTVSPost2010PropOp33
 70
     1
102
RTVSPost2010Prop34
280
     0
102
RTVSPost2010PropOp34
 70
     1
102
RTVSPost2010Prop35
280
     0
102
RTVSPost2010PropOp35
 70
     1
102
RTVSPost2010Prop36
280
     0
102
RTVSPost2010PropOp36
 70
     1
102
RTVSPost2010Prop37
 90
       50
102
RTVSPost2010PropOp37
 70
     1
102
RTVSPost2010Prop38
140
0.0
102
RTVSPost2010PropOp38
 70
     1
102
RTVSPost2010Prop39
140
1.0
102
RTVSPost2010PropOp39
 70
     1
102
RTVSPost2010Prop40
 90
        0
102
RTVSPost2010PropOp40
 70
     1
102
RTVSPost2010Prop41ColorIndex
 90
       18
102
RTVSPost2010Prop41ColorRGB
 90
        0
102
RTVSPost2010PropOp41
 70
     1
102
RTVSPost2010Prop42
 90
       50
102
RTVSPost2010PropOp42
 70
     1
102
RTVSPost2010Prop43
 90
        3
102
RTVSPost2010PropOp43
 70
     1
102
RTVSPost2010Prop44ColorIndex
 90
        5
102
RTVSPost2010Prop44ColorRGB
 90
      255
102
RTVSPost2010PropOp44
 70
     1
102
RTVSPost2010Prop45
280
     0
102
RTVSPost2010PropOp45
 70
     1
102
RTVSPost2010Prop46
 90
       50
102
RTVSPost2010PropOp46
 70
     1
102
RTVSPost2010Prop47
 90
       50
102
RTVSPost2010PropOp47
 70
     1
102
RTVSPost2010Prop48
 90
       50
102
RTVSPost2010PropOp48
 70
     1
102
RTVSPost2010Prop49
280
     0
102
RTVSPost2010PropOp49
 70
     1
102
RTVSPost2010Prop50
 90
       50
102
RTVSPost2010PropOp50
 70
     1
102
RTVSPost2010Prop51ColorIndex
 90
      256
102
RTVSPost2010Prop51ColorRGB
 90
-16777216
102
RTVSPost2010PropOp51
 70
     0
102
RTVSPost2010Prop52
140
1.0
102
RTVSPost2010PropOp52
 70
     0
102
RTVSPost2010Prop53
 90
        2
102
RTVSPost2010PropOp53
 70
     1
102
RTVSPost2010Prop54
  1
strokes_ogs.tif
102
RTVSPost2010PropOp54
 70
     1
102
RTVSPost2010Prop55
280
     0
102
RTVSPost2010PropOp55
 70
     1
102
RTVSPost2010Prop56
140
1.0
102
RTVSPost2010PropOp56
 70
     1
102
RTVSPost2010Prop57
140
1.0
102
RTVSPost2010PropOp57
 70
     1
102
RTVSPropertyOp0
 70
     1
102
RTVSPropertyOp1
 70
     1
102
RTVSPropertyOp2
 70
     1
102
RTVSPropertyOp3
 70
     1
102
RTVSPropertyOp4
 70
     1
102
RTVSPropertyOp5
 70
     1
102
RTVSPropertyOp6
 70
     1
102
RTVSPropertyOp7
 70
     1
102
RTVSPropertyOp8
 70
     1
102
RTVSPropertyOp9
 70
     1
102
RTVSPropertyOp10
 70
     1
102
RTVSPropertyOp11
 70
     1
102
RTVSPropertyOp12
 70
     1
102
RTVSPropertyOp13
 70
     1
102
RTVSPropertyOp14
 70
     1
102
RTVSPropertyOp15
 70
     1
102
RTVSPropertyOp16
 70
     1
102
RTVSPropertyOp17
 70
     1
102
RTVSPropertyOp18
 70
     1
102
RTVSPropertyOp19
 70
     1
102
RTVSPropertyOp20
 70
     1
102
RTVSPropertyOp21
 70
     1
102
RTVSPropertyOp22
 70
     1
102
RTVSPropertyOp23
 70
     1
102
RTVSPropertyOp24
 70
     1
102
RTVSPropertyOp25
 70
     1
102
RTVSPropertyOp26
 70
     1
102
RTVSPropertyOp27
 70
     1
102
RTVSPropertyOp28
 70
     1
102
RTVSPropertyOp29
 70
     1
102
RTVSPropertyOp30
 70
     1
102
RTVSPropertyOp31
 70
     1
102
RTVSPropertyOp32
 70
     1
102
RTVSPropertyOp33
 70
     1
102
RTVSPropertyOp34
 70
     1
102
RTVSPropertyOp35
 70
     1
102
RTVSPropertyOp36
 70
     1
102
RTVSPropertyOp37
 70
     1
102
RTVSPropertyOp38
 70
     1
102
RTVSPropertyOp39
 70
     1
102
RTVSPropertyOp40
 70
     1
102
RTVSPropertyOp41
 70
     1
102
RTVSPropertyOp42
 70
     1
102
RTVSPropertyOp43
 70
     1
102
RTVSPropertyOp44
 70
     1
102
RTVSPropertyOp45
 70
     1
102
RTVSPropertyOp46
 70
     1
102
RTVSPropertyOp47
 70
     1
102
RTVSPropertyOp48
 70
     1
102
RTVSPropertyOp49
 70
     1
102
RTVSPropertyOp50
 70
     1
102
RTVSPropertyOp51
 70
     0
102
RTVSPropertyOp52
 70
     0
102
RTVSPropertyOp53
 70
     1
102
RTVSPropertyOp54
 70
     1
102
RTVSPropertyOp55
 70
     1
102
RTVSPropertyOp56
 70
     1
102
RTVSPropertyOp57
 70
     1
102
RTVSPropertyOp58
 70
     1
102
RTVSPropertyOp59
 70
     1
102
RTVSPropertyOp60
 70
     1
102
RTVSPropertyOp61
 70
     1
102
RTVSPropertyOp62
 70
     1
  0
XRECORD
  5
1B9C0
102
{ACAD_REACTORS
330
1B9BF
102
}
330
1B9BF
100
AcDbXrecord
280
     1
102
RTVSPost2010Prop28
280
     0
102
RTVSPost2010PropOp28
 70
     1
102
RTVSPost2010Prop29
280
     1
102
RTVSPost2010PropOp29
 70
     1
102
RTVSPost2010Prop30
280
     1
102
RTVSPost2010PropOp30
 70
     1
102
RTVSPost2010Prop31
280
     0
102
RTVSPost2010PropOp31
 70
     1
102
RTVSPost2010Prop32
280
     0
102
RTVSPost2010PropOp32
 70
     1
102
RTVSPost2010Prop33
280
     0
102
RTVSPost2010PropOp33
 70
     1
102
RTVSPost2010Prop34
280
     0
102
RTVSPost2010PropOp34
 70
     1
102
RTVSPost2010Prop35
280
     0
102
RTVSPost2010PropOp35
 70
     1
102
RTVSPost2010Prop36
280
     0
102
RTVSPost2010PropOp36
 70
     1
102
RTVSPost2010Prop37
 90
       50
102
RTVSPost2010PropOp37
 70
     1
102
RTVSPost2010Prop38
140
0.0
102
RTVSPost2010PropOp38
 70
     1
102
RTVSPost2010Prop39
140
1.0
102
RTVSPost2010PropOp39
 70
     1
102
RTVSPost2010Prop40
 90
        0
102
RTVSPost2010PropOp40
 70
     1
102
RTVSPost2010Prop41ColorIndex
 90
       18
102
RTVSPost2010Prop41ColorRGB
 90
        0
102
RTVSPost2010PropOp41
 70
     1
102
RTVSPost2010Prop42
 90
       50
102
RTVSPost2010PropOp42
 70
     1
102
RTVSPost2010Prop43
 90
        3
102
RTVSPost2010PropOp43
 70
     1
102
RTVSPost2010Prop44ColorIndex
 90
        5
102
RTVSPost2010Prop44ColorRGB
 90
      255
102
RTVSPost2010PropOp44
 70
     1
102
RTVSPost2010Prop45
280
     0
102
RTVSPost2010PropOp45
 70
     1
102
RTVSPost2010Prop46
 90
       50
102
RTVSPost2010PropOp46
 70
     1
102
RTVSPost2010Prop47
 90
       50
102
RTVSPost2010PropOp47
 70
     1
102
RTVSPost2010Prop48
 90
       50
102
RTVSPost2010PropOp48
 70
     1
102
RTVSPost2010Prop49
280
     0
102
RTVSPost2010PropOp49
 70
     1
102
RTVSPost2010Prop50
 90
       50
102
RTVSPost2010PropOp50
 70
     1
102
RTVSPost2010Prop51ColorIndex
 90
      256
102
RTVSPost2010Prop51ColorRGB
 90
-16777216
102
RTVSPost2010PropOp51
 70
     0
102
RTVSPost2010Prop52
140
1.0
102
RTVSPost2010PropOp52
 70
     0
102
RTVSPost2010Prop53
 90
        2
102
RTVSPost2010PropOp53
 70
     1
102
RTVSPost2010Prop54
  1
strokes_ogs.tif
102
RTVSPost2010PropOp54
 70
     1
102
RTVSPost2010Prop55
280
     0
102
RTVSPost2010PropOp55
 70
     1
102
RTVSPost2010Prop56
140
1.0
102
RTVSPost2010PropOp56
 70
     1
102
RTVSPost2010Prop57
140
1.0
102
RTVSPost2010PropOp57
 70
     1
102
RTVSPropertyOp0
 70
     1
102
RTVSPropertyOp1
 70
     1
102
RTVSPropertyOp2
 70
     1
102
RTVSPropertyOp3
 70
     1
102
RTVSPropertyOp4
 70
     1
102
RTVSPropertyOp5
 70
     1
102
RTVSPropertyOp6
 70
     1
102
RTVSPropertyOp7
 70
     1
102
RTVSPropertyOp8
 70
     1
102
RTVSPropertyOp9
 70
     1
102
RTVSPropertyOp10
 70
     1
102
RTVSPropertyOp11
 70
     1
102
RTVSPropertyOp12
 70
     1
102
RTVSPropertyOp13
 70
     1
102
RTVSPropertyOp14
 70
     1
102
RTVSPropertyOp15
 70
     1
102
RTVSPropertyOp16
 70
     1
102
RTVSPropertyOp17
 70
     1
102
RTVSPropertyOp18
 70
     1
102
RTVSPropertyOp19
 70
     1
102
RTVSPropertyOp20
 70
     1
102
RTVSPropertyOp21
 70
     1
102
RTVSPropertyOp22
 70
     1
102
RTVSPropertyOp23
 70
     1
102
RTVSPropertyOp24
 70
     1
102
RTVSPropertyOp25
 70
     1
102
RTVSPropertyOp26
 70
     1
102
RTVSPropertyOp27
 70
     1
102
RTVSPropertyOp28
 70
     1
102
RTVSPropertyOp29
 70
     1
102
RTVSPropertyOp30
 70
     1
102
RTVSPropertyOp31
 70
     1
102
RTVSPropertyOp32
 70
     1
102
RTVSPropertyOp33
 70
     1
102
RTVSPropertyOp34
 70
     1
102
RTVSPropertyOp35
 70
     1
102
RTVSPropertyOp36
 70
     1
102
RTVSPropertyOp37
 70
     1
102
RTVSPropertyOp38
 70
     1
102
RTVSPropertyOp39
 70
     1
102
RTVSPropertyOp40
 70
     1
102
RTVSPropertyOp41
 70
     1
102
RTVSPropertyOp42
 70
     1
102
RTVSPropertyOp43
 70
     1
102
RTVSPropertyOp44
 70
     1
102
RTVSPropertyOp45
 70
     1
102
RTVSPropertyOp46
 70
     1
102
RTVSPropertyOp47
 70
     1
102
RTVSPropertyOp48
 70
     1
102
RTVSPropertyOp49
 70
     1
102
RTVSPropertyOp50
 70
     1
102
RTVSPropertyOp51
 70
     0
102
RTVSPropertyOp52
 70
     0
102
RTVSPropertyOp53
 70
     1
102
RTVSPropertyOp54
 70
     1
102
RTVSPropertyOp55
 70
     1
102
RTVSPropertyOp56
 70
     1
102
RTVSPropertyOp57
 70
     1
102
RTVSPropertyOp58
 70
     1
102
RTVSPropertyOp59
 70
     1
102
RTVSPropertyOp60
 70
     1
102
RTVSPropertyOp61
 70
     1
102
RTVSPropertyOp62
 70
     1
  0
XRECORD
  5
1B9C4
102
{ACAD_REACTORS
330
1B9C3
102
}
330
1B9C3
100
AcDbXrecord
280
     1
102
RTVSPost2010Prop28
280
     0
102
RTVSPost2010PropOp28
 70
     1
102
RTVSPost2010Prop29
280
     1
102
RTVSPost2010PropOp29
 70
     1
102
RTVSPost2010Prop30
280
     1
102
RTVSPost2010PropOp30
 70
     1
102
RTVSPost2010Prop31
280
     0
102
RTVSPost2010PropOp31
 70
     1
102
RTVSPost2010Prop32
280
     0
102
RTVSPost2010PropOp32
 70
     1
102
RTVSPost2010Prop33
280
     0
102
RTVSPost2010PropOp33
 70
     1
102
RTVSPost2010Prop34
280
     0
102
RTVSPost2010PropOp34
 70
     1
102
RTVSPost2010Prop35
280
     0
102
RTVSPost2010PropOp35
 70
     1
102
RTVSPost2010Prop36
280
     0
102
RTVSPost2010PropOp36
 70
     1
102
RTVSPost2010Prop37
 90
       50
102
RTVSPost2010PropOp37
 70
     1
102
RTVSPost2010Prop38
140
0.0
102
RTVSPost2010PropOp38
 70
     1
102
RTVSPost2010Prop39
140
1.0
102
RTVSPost2010PropOp39
 70
     1
102
RTVSPost2010Prop40
 90
        0
102
RTVSPost2010PropOp40
 70
     1
102
RTVSPost2010Prop41ColorIndex
 90
       18
102
RTVSPost2010Prop41ColorRGB
 90
        0
102
RTVSPost2010PropOp41
 70
     1
102
RTVSPost2010Prop42
 90
       50
102
RTVSPost2010PropOp42
 70
     1
102
RTVSPost2010Prop43
 90
        3
102
RTVSPost2010PropOp43
 70
     1
102
RTVSPost2010Prop44ColorIndex
 90
        5
102
RTVSPost2010Prop44ColorRGB
 90
      255
102
RTVSPost2010PropOp44
 70
     1
102
RTVSPost2010Prop45
280
     0
102
RTVSPost2010PropOp45
 70
     1
102
RTVSPost2010Prop46
 90
       50
102
RTVSPost2010PropOp46
 70
     1
102
RTVSPost2010Prop47
 90
       50
102
RTVSPost2010PropOp47
 70
     1
102
RTVSPost2010Prop48
 90
       50
102
RTVSPost2010PropOp48
 70
     1
102
RTVSPost2010Prop49
280
     0
102
RTVSPost2010PropOp49
 70
     1
102
RTVSPost2010Prop50
 90
       50
102
RTVSPost2010PropOp50
 70
     1
102
RTVSPost2010Prop51ColorIndex
 90
      256
102
RTVSPost2010Prop51ColorRGB
 90
-16777216
102
RTVSPost2010PropOp51
 70
     0
102
RTVSPost2010Prop52
140
1.0
102
RTVSPost2010PropOp52
 70
     0
102
RTVSPost2010Prop53
 90
        2
102
RTVSPost2010PropOp53
 70
     1
102
RTVSPost2010Prop54
  1
strokes_ogs.tif
102
RTVSPost2010PropOp54
 70
     1
102
RTVSPost2010Prop55
280
     0
102
RTVSPost2010PropOp55
 70
     1
102
RTVSPost2010Prop56
140
1.0
102
RTVSPost2010PropOp56
 70
     1
102
RTVSPost2010Prop57
140
1.0
102
RTVSPost2010PropOp57
 70
     1
102
RTVSPropertyOp0
 70
     1
102
RTVSPropertyOp1
 70
     1
102
RTVSPropertyOp2
 70
     1
102
RTVSPropertyOp3
 70
     1
102
RTVSPropertyOp4
 70
     1
102
RTVSPropertyOp5
 70
     1
102
RTVSPropertyOp6
 70
     1
102
RTVSPropertyOp7
 70
     1
102
RTVSPropertyOp8
 70
     1
102
RTVSPropertyOp9
 70
     1
102
RTVSPropertyOp10
 70
     1
102
RTVSPropertyOp11
 70
     1
102
RTVSPropertyOp12
 70
     1
102
RTVSPropertyOp13
 70
     1
102
RTVSPropertyOp14
 70
     1
102
RTVSPropertyOp15
 70
     1
102
RTVSPropertyOp16
 70
     1
102
RTVSPropertyOp17
 70
     1
102
RTVSPropertyOp18
 70
     1
102
RTVSPropertyOp19
 70
     1
102
RTVSPropertyOp20
 70
     1
102
RTVSPropertyOp21
 70
     1
102
RTVSPropertyOp22
 70
     1
102
RTVSPropertyOp23
 70
     1
102
RTVSPropertyOp24
 70
     1
102
RTVSPropertyOp25
 70
     1
102
RTVSPropertyOp26
 70
     1
102
RTVSPropertyOp27
 70
     1
102
RTVSPropertyOp28
 70
     1
102
RTVSPropertyOp29
 70
     1
102
RTVSPropertyOp30
 70
     1
102
RTVSPropertyOp31
 70
     1
102
RTVSPropertyOp32
 70
     1
102
RTVSPropertyOp33
 70
     1
102
RTVSPropertyOp34
 70
     1
102
RTVSPropertyOp35
 70
     1
102
RTVSPropertyOp36
 70
     1
102
RTVSPropertyOp37
 70
     1
102
RTVSPropertyOp38
 70
     1
102
RTVSPropertyOp39
 70
     1
102
RTVSPropertyOp40
 70
     1
102
RTVSPropertyOp41
 70
     1
102
RTVSPropertyOp42
 70
     1
102
RTVSPropertyOp43
 70
     1
102
RTVSPropertyOp44
 70
     1
102
RTVSPropertyOp45
 70
     1
102
RTVSPropertyOp46
 70
     1
102
RTVSPropertyOp47
 70
     1
102
RTVSPropertyOp48
 70
     1
102
RTVSPropertyOp49
 70
     1
102
RTVSPropertyOp50
 70
     1
102
RTVSPropertyOp51
 70
     0
102
RTVSPropertyOp52
 70
     0
102
RTVSPropertyOp53
 70
     1
102
RTVSPropertyOp54
 70
     1
102
RTVSPropertyOp55
 70
     1
102
RTVSPropertyOp56
 70
     1
102
RTVSPropertyOp57
 70
     1
102
RTVSPropertyOp58
 70
     1
102
RTVSPropertyOp59
 70
     1
102
RTVSPropertyOp60
 70
     1
102
RTVSPropertyOp61
 70
     1
102
RTVSPropertyOp62
 70
     1
  0
XRECORD
  5
1B9DE
102
{ACAD_REACTORS
330
1B9DD
102
}
330
1B9DD
100
AcDbXrecord
280
     1
102
RTVSPost2010Prop28
280
     0
102
RTVSPost2010PropOp28
 70
     1
102
RTVSPost2010Prop29
280
     1
102
RTVSPost2010PropOp29
 70
     1
102
RTVSPost2010Prop30
280
     1
102
RTVSPost2010PropOp30
 70
     1
102
RTVSPost2010Prop31
280
     0
102
RTVSPost2010PropOp31
 70
     1
102
RTVSPost2010Prop32
280
     0
102
RTVSPost2010PropOp32
 70
     1
102
RTVSPost2010Prop33
280
     0
102
RTVSPost2010PropOp33
 70
     1
102
RTVSPost2010Prop34
280
     0
102
RTVSPost2010PropOp34
 70
     1
102
RTVSPost2010Prop35
280
     0
102
RTVSPost2010PropOp35
 70
     1
102
RTVSPost2010Prop36
280
     0
102
RTVSPost2010PropOp36
 70
     1
102
RTVSPost2010Prop37
 90
       50
102
RTVSPost2010PropOp37
 70
     0
102
RTVSPost2010Prop38
140
0.0
102
RTVSPost2010PropOp38
 70
     0
102
RTVSPost2010Prop39
140
1.0
102
RTVSPost2010PropOp39
 70
     0
102
RTVSPost2010Prop40
 90
        0
102
RTVSPost2010PropOp40
 70
     0
102
RTVSPost2010Prop41ColorIndex
 90
       18
102
RTVSPost2010Prop41ColorRGB
 90
        0
102
RTVSPost2010PropOp41
 70
     0
102
RTVSPost2010Prop42
 90
       50
102
RTVSPost2010PropOp42
 70
     0
102
RTVSPost2010Prop43
 90
        3
102
RTVSPost2010PropOp43
 70
     0
102
RTVSPost2010Prop44ColorIndex
 90
        5
102
RTVSPost2010Prop44ColorRGB
 90
      255
102
RTVSPost2010PropOp44
 70
     0
102
RTVSPost2010Prop45
280
     0
102
RTVSPost2010PropOp45
 70
     1
102
RTVSPost2010Prop46
 90
       50
102
RTVSPost2010PropOp46
 70
     0
102
RTVSPost2010Prop47
 90
       50
102
RTVSPost2010PropOp47
 70
     0
102
RTVSPost2010Prop48
 90
       50
102
RTVSPost2010PropOp48
 70
     0
102
RTVSPost2010Prop49
280
     0
102
RTVSPost2010PropOp49
 70
     1
102
RTVSPost2010Prop50
 90
       50
102
RTVSPost2010PropOp50
 70
     0
102
RTVSPost2010Prop51ColorIndex
 90
      256
102
RTVSPost2010Prop51ColorRGB
 90
-16777216
102
RTVSPost2010PropOp51
 70
     0
102
RTVSPost2010Prop52
140
1.0
102
RTVSPost2010PropOp52
 70
     0
102
RTVSPost2010Prop53
 90
        2
102
RTVSPost2010PropOp53
 70
     0
102
RTVSPost2010Prop54
  1
strokes_ogs.tif
102
RTVSPost2010PropOp54
 70
     0
102
RTVSPost2010Prop55
280
     0
102
RTVSPost2010PropOp55
 70
     1
102
RTVSPost2010Prop56
140
1.0
102
RTVSPost2010PropOp56
 70
     0
102
RTVSPost2010Prop57
140
1.0
102
RTVSPost2010PropOp57
 70
     0
102
RTVSPropertyOp0
 70
     0
102
RTVSPropertyOp1
 70
     0
102
RTVSPropertyOp2
 70
     0
102
RTVSPropertyOp3
 70
     0
102
RTVSPropertyOp4
 70
     0
102
RTVSPropertyOp5
 70
     0
102
RTVSPropertyOp6
 70
     0
102
RTVSPropertyOp7
 70
     0
102
RTVSPropertyOp8
 70
     0
102
RTVSPropertyOp9
 70
     0
102
RTVSPropertyOp10
 70
     0
102
RTVSPropertyOp11
 70
     0
102
RTVSPropertyOp12
 70
     0
102
RTVSPropertyOp13
 70
     0
102
RTVSPropertyOp14
 70
     2
102
RTVSPropertyOp15
 70
     0
102
RTVSPropertyOp16
 70
     0
102
RTVSPropertyOp17
 70
     0
102
RTVSPropertyOp18
 70
     0
102
RTVSPropertyOp19
 70
     0
102
RTVSPropertyOp20
 70
     0
102
RTVSPropertyOp21
 70
     0
102
RTVSPropertyOp22
 70
     0
102
RTVSPropertyOp23
 70
     0
102
RTVSPropertyOp24
 70
     0
102
RTVSPropertyOp25
 70
     0
102
RTVSPropertyOp26
 70
     0
102
RTVSPropertyOp27
 70
     0
102
RTVSPropertyOp28
 70
     1
102
RTVSPropertyOp29
 70
     1
102
RTVSPropertyOp30
 70
     1
102
RTVSPropertyOp31
 70
     1
102
RTVSPropertyOp32
 70
     1
102
RTVSPropertyOp33
 70
     1
102
RTVSPropertyOp34
 70
     1
102
RTVSPropertyOp35
 70
     1
102
RTVSPropertyOp36
 70
     1
102
RTVSPropertyOp37
 70
     0
102
RTVSPropertyOp38
 70
     0
102
RTVSPropertyOp39
 70
     0
102
RTVSPropertyOp40
 70
     0
102
RTVSPropertyOp41
 70
     0
102
RTVSPropertyOp42
 70
     0
102
RTVSPropertyOp43
 70
     0
102
RTVSPropertyOp44
 70
     0
102
RTVSPropertyOp45
 70
     1
102
RTVSPropertyOp46
 70
     0
102
RTVSPropertyOp47
 70
     0
102
RTVSPropertyOp48
 70
     0
102
RTVSPropertyOp49
 70
     1
102
RTVSPropertyOp50
 70
     0
102
RTVSPropertyOp51
 70
     0
102
RTVSPropertyOp52
 70
     0
102
RTVSPropertyOp53
 70
     0
102
RTVSPropertyOp54
 70
     0
102
RTVSPropertyOp55
 70
     1
102
RTVSPropertyOp56
 70
     0
102
RTVSPropertyOp57
 70
     0
102
RTVSPropertyOp58
 70
     0
102
RTVSPropertyOp59
 70
     0
102
RTVSPropertyOp60
 70
     0
102
RTVSPropertyOp61
 70
     0
102
RTVSPropertyOp62
 70
     0
  0
XRECORD
  5
1B9CC
102
{ACAD_REACTORS
330
1B9CB
102
}
330
1B9CB
100
AcDbXrecord
280
     1
102
RTVSPost2010Prop28
280
     0
102
RTVSPost2010PropOp28
 70
     1
102
RTVSPost2010Prop29
280
     1
102
RTVSPost2010PropOp29
 70
     1
102
RTVSPost2010Prop30
280
     1
102
RTVSPost2010PropOp30
 70
     1
102
RTVSPost2010Prop31
280
     0
102
RTVSPost2010PropOp31
 70
     1
102
RTVSPost2010Prop32
280
     0
102
RTVSPost2010PropOp32
 70
     1
102
RTVSPost2010Prop33
280
     0
102
RTVSPost2010PropOp33
 70
     1
102
RTVSPost2010Prop34
280
     0
102
RTVSPost2010PropOp34
 70
     1
102
RTVSPost2010Prop35
280
     0
102
RTVSPost2010PropOp35
 70
     1
102
RTVSPost2010Prop36
280
     0
102
RTVSPost2010PropOp36
 70
     1
102
RTVSPost2010Prop37
 90
       50
102
RTVSPost2010PropOp37
 70
     1
102
RTVSPost2010Prop38
140
0.0
102
RTVSPost2010PropOp38
 70
     1
102
RTVSPost2010Prop39
140
1.0
102
RTVSPost2010PropOp39
 70
     1
102
RTVSPost2010Prop40
 90
        0
102
RTVSPost2010PropOp40
 70
     1
102
RTVSPost2010Prop41ColorIndex
 90
       18
102
RTVSPost2010Prop41ColorRGB
 90
        0
102
RTVSPost2010PropOp41
 70
     1
102
RTVSPost2010Prop42
 90
       50
102
RTVSPost2010PropOp42
 70
     1
102
RTVSPost2010Prop43
 90
        3
102
RTVSPost2010PropOp43
 70
     1
102
RTVSPost2010Prop44ColorIndex
 90
        5
102
RTVSPost2010Prop44ColorRGB
 90
      255
102
RTVSPost2010PropOp44
 70
     1
102
RTVSPost2010Prop45
280
     0
102
RTVSPost2010PropOp45
 70
     1
102
RTVSPost2010Prop46
 90
       50
102
RTVSPost2010PropOp46
 70
     1
102
RTVSPost2010Prop47
 90
       50
102
RTVSPost2010PropOp47
 70
     1
102
RTVSPost2010Prop48
 90
       50
102
RTVSPost2010PropOp48
 70
     1
102
RTVSPost2010Prop49
280
     0
102
RTVSPost2010PropOp49
 70
     1
102
RTVSPost2010Prop50
 90
       50
102
RTVSPost2010PropOp50
 70
     1
102
RTVSPost2010Prop51ColorIndex
 90
      256
102
RTVSPost2010Prop51ColorRGB
 90
-16777216
102
RTVSPost2010PropOp51
 70
     0
102
RTVSPost2010Prop52
140
1.0
102
RTVSPost2010PropOp52
 70
     0
102
RTVSPost2010Prop53
 90
        2
102
RTVSPost2010PropOp53
 70
     1
102
RTVSPost2010Prop54
  1
strokes_ogs.tif
102
RTVSPost2010PropOp54
 70
     1
102
RTVSPost2010Prop55
280
     0
102
RTVSPost2010PropOp55
 70
     1
102
RTVSPost2010Prop56
140
1.0
102
RTVSPost2010PropOp56
 70
     1
102
RTVSPost2010Prop57
140
1.0
102
RTVSPost2010PropOp57
 70
     1
102
RTVSPropertyOp0
 70
     1
102
RTVSPropertyOp1
 70
     1
102
RTVSPropertyOp2
 70
     1
102
RTVSPropertyOp3
 70
     1
102
RTVSPropertyOp4
 70
     1
102
RTVSPropertyOp5
 70
     1
102
RTVSPropertyOp6
 70
     1
102
RTVSPropertyOp7
 70
     1
102
RTVSPropertyOp8
 70
     1
102
RTVSPropertyOp9
 70
     1
102
RTVSPropertyOp10
 70
     1
102
RTVSPropertyOp11
 70
     1
102
RTVSPropertyOp12
 70
     1
102
RTVSPropertyOp13
 70
     1
102
RTVSPropertyOp14
 70
     1
102
RTVSPropertyOp15
 70
     1
102
RTVSPropertyOp16
 70
     1
102
RTVSPropertyOp17
 70
     1
102
RTVSPropertyOp18
 70
     1
102
RTVSPropertyOp19
 70
     1
102
RTVSPropertyOp20
 70
     1
102
RTVSPropertyOp21
 70
     1
102
RTVSPropertyOp22
 70
     1
102
RTVSPropertyOp23
 70
     1
102
RTVSPropertyOp24
 70
     1
102
RTVSPropertyOp25
 70
     1
102
RTVSPropertyOp26
 70
     1
102
RTVSPropertyOp27
 70
     1
102
RTVSPropertyOp28
 70
     1
102
RTVSPropertyOp29
 70
     1
102
RTVSPropertyOp30
 70
     1
102
RTVSPropertyOp31
 70
     1
102
RTVSPropertyOp32
 70
     1
102
RTVSPropertyOp33
 70
     1
102
RTVSPropertyOp34
 70
     1
102
RTVSPropertyOp35
 70
     1
102
RTVSPropertyOp36
 70
     1
102
RTVSPropertyOp37
 70
     1
102
RTVSPropertyOp38
 70
     1
102
RTVSPropertyOp39
 70
     1
102
RTVSPropertyOp40
 70
     1
102
RTVSPropertyOp41
 70
     1
102
RTVSPropertyOp42
 70
     1
102
RTVSPropertyOp43
 70
     1
102
RTVSPropertyOp44
 70
     1
102
RTVSPropertyOp45
 70
     1
102
RTVSPropertyOp46
 70
     1
102
RTVSPropertyOp47
 70
     1
102
RTVSPropertyOp48
 70
     1
102
RTVSPropertyOp49
 70
     1
102
RTVSPropertyOp50
 70
     1
102
RTVSPropertyOp51
 70
     0
102
RTVSPropertyOp52
 70
     0
102
RTVSPropertyOp53
 70
     1
102
RTVSPropertyOp54
 70
     1
102
RTVSPropertyOp55
 70
     1
102
RTVSPropertyOp56
 70
     1
102
RTVSPropertyOp57
 70
     1
102
RTVSPropertyOp58
 70
     1
102
RTVSPropertyOp59
 70
     1
102
RTVSPropertyOp60
 70
     1
102
RTVSPropertyOp61
 70
     1
102
RTVSPropertyOp62
 70
     1
  0
XRECORD
  5
1B9B0
102
{ACAD_REACTORS
330
1B9AF
102
}
330
1B9AF
100
AcDbXrecord
280
     1
102
RTVSPost2010Prop28
280
     0
102
RTVSPost2010PropOp28
 70
     1
102
RTVSPost2010Prop29
280
     1
102
RTVSPost2010PropOp29
 70
     1
102
RTVSPost2010Prop30
280
     1
102
RTVSPost2010PropOp30
 70
     1
102
RTVSPost2010Prop31
280
     0
102
RTVSPost2010PropOp31
 70
     1
102
RTVSPost2010Prop32
280
     0
102
RTVSPost2010PropOp32
 70
     1
102
RTVSPost2010Prop33
280
     0
102
RTVSPost2010PropOp33
 70
     1
102
RTVSPost2010Prop34
280
     0
102
RTVSPost2010PropOp34
 70
     1
102
RTVSPost2010Prop35
280
     0
102
RTVSPost2010PropOp35
 70
     1
102
RTVSPost2010Prop36
280
     0
102
RTVSPost2010PropOp36
 70
     1
102
RTVSPost2010Prop37
 90
       50
102
RTVSPost2010PropOp37
 70
     1
102
RTVSPost2010Prop38
140
0.0
102
RTVSPost2010PropOp38
 70
     1
102
RTVSPost2010Prop39
140
1.0
102
RTVSPost2010PropOp39
 70
     1
102
RTVSPost2010Prop40
 90
        0
102
RTVSPost2010PropOp40
 70
     1
102
RTVSPost2010Prop41ColorIndex
 90
       18
102
RTVSPost2010Prop41ColorRGB
 90
        0
102
RTVSPost2010PropOp41
 70
     1
102
RTVSPost2010Prop42
 90
       50
102
RTVSPost2010PropOp42
 70
     1
102
RTVSPost2010Prop43
 90
        3
102
RTVSPost2010PropOp43
 70
     1
102
RTVSPost2010Prop44ColorIndex
 90
        5
102
RTVSPost2010Prop44ColorRGB
 90
      255
102
RTVSPost2010PropOp44
 70
     1
102
RTVSPost2010Prop45
280
     0
102
RTVSPost2010PropOp45
 70
     1
102
RTVSPost2010Prop46
 90
       50
102
RTVSPost2010PropOp46
 70
     1
102
RTVSPost2010Prop47
 90
       50
102
RTVSPost2010PropOp47
 70
     1
102
RTVSPost2010Prop48
 90
       50
102
RTVSPost2010PropOp48
 70
     1
102
RTVSPost2010Prop49
280
     0
102
RTVSPost2010PropOp49
 70
     1
102
RTVSPost2010Prop50
 90
       50
102
RTVSPost2010PropOp50
 70
     1
102
RTVSPost2010Prop51ColorIndex
 90
      256
102
RTVSPost2010Prop51ColorRGB
 90
-16777216
102
RTVSPost2010PropOp51
 70
     0
102
RTVSPost2010Prop52
140
1.0
102
RTVSPost2010PropOp52
 70
     0
102
RTVSPost2010Prop53
 90
        2
102
RTVSPost2010PropOp53
 70
     1
102
RTVSPost2010Prop54
  1
strokes_ogs.tif
102
RTVSPost2010PropOp54
 70
     1
102
RTVSPost2010Prop55
280
     0
102
RTVSPost2010PropOp55
 70
     1
102
RTVSPost2010Prop56
140
1.0
102
RTVSPost2010PropOp56
 70
     1
102
RTVSPost2010Prop57
140
1.0
102
RTVSPost2010PropOp57
 70
     1
102
RTVSPropertyOp0
 70
     1
102
RTVSPropertyOp1
 70
     1
102
RTVSPropertyOp2
 70
     1
102
RTVSPropertyOp3
 70
     1
102
RTVSPropertyOp4
 70
     1
102
RTVSPropertyOp5
 70
     1
102
RTVSPropertyOp6
 70
     1
102
RTVSPropertyOp7
 70
     1
102
RTVSPropertyOp8
 70
     1
102
RTVSPropertyOp9
 70
     1
102
RTVSPropertyOp10
 70
     1
102
RTVSPropertyOp11
 70
     1
102
RTVSPropertyOp12
 70
     1
102
RTVSPropertyOp13
 70
     1
102
RTVSPropertyOp14
 70
     1
102
RTVSPropertyOp15
 70
     1
102
RTVSPropertyOp16
 70
     1
102
RTVSPropertyOp17
 70
     1
102
RTVSPropertyOp18
 70
     1
102
RTVSPropertyOp19
 70
     1
102
RTVSPropertyOp20
 70
     1
102
RTVSPropertyOp21
 70
     1
102
RTVSPropertyOp22
 70
     1
102
RTVSPropertyOp23
 70
     1
102
RTVSPropertyOp24
 70
     1
102
RTVSPropertyOp25
 70
     1
102
RTVSPropertyOp26
 70
     1
102
RTVSPropertyOp27
 70
     1
102
RTVSPropertyOp28
 70
     1
102
RTVSPropertyOp29
 70
     1
102
RTVSPropertyOp30
 70
     1
102
RTVSPropertyOp31
 70
     1
102
RTVSPropertyOp32
 70
     1
102
RTVSPropertyOp33
 70
     1
102
RTVSPropertyOp34
 70
     1
102
RTVSPropertyOp35
 70
     1
102
RTVSPropertyOp36
 70
     1
102
RTVSPropertyOp37
 70
     1
102
RTVSPropertyOp38
 70
     1
102
RTVSPropertyOp39
 70
     1
102
RTVSPropertyOp40
 70
     1
102
RTVSPropertyOp41
 70
     1
102
RTVSPropertyOp42
 70
     1
102
RTVSPropertyOp43
 70
     1
102
RTVSPropertyOp44
 70
     1
102
RTVSPropertyOp45
 70
     1
102
RTVSPropertyOp46
 70
     1
102
RTVSPropertyOp47
 70
     1
102
RTVSPropertyOp48
 70
     1
102
RTVSPropertyOp49
 70
     1
102
RTVSPropertyOp50
 70
     1
102
RTVSPropertyOp51
 70
     0
102
RTVSPropertyOp52
 70
     0
102
RTVSPropertyOp53
 70
     1
102
RTVSPropertyOp54
 70
     1
102
RTVSPropertyOp55
 70
     1
102
RTVSPropertyOp56
 70
     1
102
RTVSPropertyOp57
 70
     1
102
RTVSPropertyOp58
 70
     1
102
RTVSPropertyOp59
 70
     1
102
RTVSPropertyOp60
 70
     1
102
RTVSPropertyOp61
 70
     1
102
RTVSPropertyOp62
 70
     1
  0
XRECORD
  5
1B9B2
102
{ACAD_REACTORS
330
1B9B1
102
}
330
1B9B1
100
AcDbXrecord
280
     1
102
RTVSPost2010Prop28
280
     0
102
RTVSPost2010PropOp28
 70
     1
102
RTVSPost2010Prop29
280
     1
102
RTVSPost2010PropOp29
 70
     1
102
RTVSPost2010Prop30
280
     1
102
RTVSPost2010PropOp30
 70
     1
102
RTVSPost2010Prop31
280
     0
102
RTVSPost2010PropOp31
 70
     1
102
RTVSPost2010Prop32
280
     0
102
RTVSPost2010PropOp32
 70
     1
102
RTVSPost2010Prop33
280
     0
102
RTVSPost2010PropOp33
 70
     1
102
RTVSPost2010Prop34
280
     0
102
RTVSPost2010PropOp34
 70
     1
102
RTVSPost2010Prop35
280
     0
102
RTVSPost2010PropOp35
 70
     1
102
RTVSPost2010Prop36
280
     0
102
RTVSPost2010PropOp36
 70
     1
102
RTVSPost2010Prop37
 90
       50
102
RTVSPost2010PropOp37
 70
     1
102
RTVSPost2010Prop38
140
0.0
102
RTVSPost2010PropOp38
 70
     1
102
RTVSPost2010Prop39
140
1.0
102
RTVSPost2010PropOp39
 70
     1
102
RTVSPost2010Prop40
 90
        0
102
RTVSPost2010PropOp40
 70
     1
102
RTVSPost2010Prop41ColorIndex
 90
       18
102
RTVSPost2010Prop41ColorRGB
 90
        0
102
RTVSPost2010PropOp41
 70
     1
102
RTVSPost2010Prop42
 90
       50
102
RTVSPost2010PropOp42
 70
     1
102
RTVSPost2010Prop43
 90
        3
102
RTVSPost2010PropOp43
 70
     1
102
RTVSPost2010Prop44ColorIndex
 90
        5
102
RTVSPost2010Prop44ColorRGB
 90
      255
102
RTVSPost2010PropOp44
 70
     1
102
RTVSPost2010Prop45
280
     0
102
RTVSPost2010PropOp45
 70
     1
102
RTVSPost2010Prop46
 90
       50
102
RTVSPost2010PropOp46
 70
     1
102
RTVSPost2010Prop47
 90
       50
102
RTVSPost2010PropOp47
 70
     1
102
RTVSPost2010Prop48
 90
       50
102
RTVSPost2010PropOp48
 70
     1
102
RTVSPost2010Prop49
280
     0
102
RTVSPost2010PropOp49
 70
     1
102
RTVSPost2010Prop50
 90
       50
102
RTVSPost2010PropOp50
 70
     1
102
RTVSPost2010Prop51ColorIndex
 90
      256
102
RTVSPost2010Prop51ColorRGB
 90
-16777216
102
RTVSPost2010PropOp51
 70
     0
102
RTVSPost2010Prop52
140
1.0
102
RTVSPost2010PropOp52
 70
     0
102
RTVSPost2010Prop53
 90
        2
102
RTVSPost2010PropOp53
 70
     1
102
RTVSPost2010Prop54
  1
strokes_ogs.tif
102
RTVSPost2010PropOp54
 70
     1
102
RTVSPost2010Prop55
280
     0
102
RTVSPost2010PropOp55
 70
     1
102
RTVSPost2010Prop56
140
1.0
102
RTVSPost2010PropOp56
 70
     1
102
RTVSPost2010Prop57
140
1.0
102
RTVSPost2010PropOp57
 70
     1
102
RTVSPropertyOp0
 70
     1
102
RTVSPropertyOp1
 70
     1
102
RTVSPropertyOp2
 70
     1
102
RTVSPropertyOp3
 70
     1
102
RTVSPropertyOp4
 70
     1
102
RTVSPropertyOp5
 70
     1
102
RTVSPropertyOp6
 70
     1
102
RTVSPropertyOp7
 70
     1
102
RTVSPropertyOp8
 70
     1
102
RTVSPropertyOp9
 70
     1
102
RTVSPropertyOp10
 70
     1
102
RTVSPropertyOp11
 70
     1
102
RTVSPropertyOp12
 70
     1
102
RTVSPropertyOp13
 70
     1
102
RTVSPropertyOp14
 70
     1
102
RTVSPropertyOp15
 70
     1
102
RTVSPropertyOp16
 70
     1
102
RTVSPropertyOp17
 70
     1
102
RTVSPropertyOp18
 70
     1
102
RTVSPropertyOp19
 70
     1
102
RTVSPropertyOp20
 70
     1
102
RTVSPropertyOp21
 70
     1
102
RTVSPropertyOp22
 70
     1
102
RTVSPropertyOp23
 70
     1
102
RTVSPropertyOp24
 70
     1
102
RTVSPropertyOp25
 70
     1
102
RTVSPropertyOp26
 70
     1
102
RTVSPropertyOp27
 70
     1
102
RTVSPropertyOp28
 70
     1
102
RTVSPropertyOp29
 70
     1
102
RTVSPropertyOp30
 70
     1
102
RTVSPropertyOp31
 70
     1
102
RTVSPropertyOp32
 70
     1
102
RTVSPropertyOp33
 70
     1
102
RTVSPropertyOp34
 70
     1
102
RTVSPropertyOp35
 70
     1
102
RTVSPropertyOp36
 70
     1
102
RTVSPropertyOp37
 70
     1
102
RTVSPropertyOp38
 70
     1
102
RTVSPropertyOp39
 70
     1
102
RTVSPropertyOp40
 70
     1
102
RTVSPropertyOp41
 70
     1
102
RTVSPropertyOp42
 70
     1
102
RTVSPropertyOp43
 70
     1
102
RTVSPropertyOp44
 70
     1
102
RTVSPropertyOp45
 70
     1
102
RTVSPropertyOp46
 70
     1
102
RTVSPropertyOp47
 70
     1
102
RTVSPropertyOp48
 70
     1
102
RTVSPropertyOp49
 70
     1
102
RTVSPropertyOp50
 70
     1
102
RTVSPropertyOp51
 70
     0
102
RTVSPropertyOp52
 70
     0
102
RTVSPropertyOp53
 70
     1
102
RTVSPropertyOp54
 70
     1
102
RTVSPropertyOp55
 70
     1
102
RTVSPropertyOp56
 70
     1
102
RTVSPropertyOp57
 70
     1
102
RTVSPropertyOp58
 70
     1
102
RTVSPropertyOp59
 70
     1
102
RTVSPropertyOp60
 70
     1
102
RTVSPropertyOp61
 70
     1
102
RTVSPropertyOp62
 70
     1
  0
XRECORD
  5
1B9B4
102
{ACAD_REACTORS
330
1B9B3
102
}
330
1B9B3
100
AcDbXrecord
280
     1
102
RTVSPost2010Prop28
280
     0
102
RTVSPost2010PropOp28
 70
     1
102
RTVSPost2010Prop29
280
     1
102
RTVSPost2010PropOp29
 70
     1
102
RTVSPost2010Prop30
280
     1
102
RTVSPost2010PropOp30
 70
     1
102
RTVSPost2010Prop31
280
     0
102
RTVSPost2010PropOp31
 70
     1
102
RTVSPost2010Prop32
280
     0
102
RTVSPost2010PropOp32
 70
     1
102
RTVSPost2010Prop33
280
     0
102
RTVSPost2010PropOp33
 70
     1
102
RTVSPost2010Prop34
280
     0
102
RTVSPost2010PropOp34
 70
     1
102
RTVSPost2010Prop35
280
     0
102
RTVSPost2010PropOp35
 70
     1
102
RTVSPost2010Prop36
280
     0
102
RTVSPost2010PropOp36
 70
     1
102
RTVSPost2010Prop37
 90
       50
102
RTVSPost2010PropOp37
 70
     1
102
RTVSPost2010Prop38
140
0.0
102
RTVSPost2010PropOp38
 70
     1
102
RTVSPost2010Prop39
140
1.0
102
RTVSPost2010PropOp39
 70
     1
102
RTVSPost2010Prop40
 90
        0
102
RTVSPost2010PropOp40
 70
     1
102
RTVSPost2010Prop41ColorIndex
 90
       18
102
RTVSPost2010Prop41ColorRGB
 90
        0
102
RTVSPost2010PropOp41
 70
     1
102
RTVSPost2010Prop42
 90
       50
102
RTVSPost2010PropOp42
 70
     1
102
RTVSPost2010Prop43
 90
        3
102
RTVSPost2010PropOp43
 70
     1
102
RTVSPost2010Prop44ColorIndex
 90
        5
102
RTVSPost2010Prop44ColorRGB
 90
      255
102
RTVSPost2010PropOp44
 70
     1
102
RTVSPost2010Prop45
280
     0
102
RTVSPost2010PropOp45
 70
     1
102
RTVSPost2010Prop46
 90
       50
102
RTVSPost2010PropOp46
 70
     1
102
RTVSPost2010Prop47
 90
       50
102
RTVSPost2010PropOp47
 70
     1
102
RTVSPost2010Prop48
 90
       50
102
RTVSPost2010PropOp48
 70
     1
102
RTVSPost2010Prop49
280
     0
102
RTVSPost2010PropOp49
 70
     1
102
RTVSPost2010Prop50
 90
       50
102
RTVSPost2010PropOp50
 70
     1
102
RTVSPost2010Prop51ColorIndex
 90
      256
102
RTVSPost2010Prop51ColorRGB
 90
-16777216
102
RTVSPost2010PropOp51
 70
     0
102
RTVSPost2010Prop52
140
1.0
102
RTVSPost2010PropOp52
 70
     0
102
RTVSPost2010Prop53
 90
        2
102
RTVSPost2010PropOp53
 70
     1
102
RTVSPost2010Prop54
  1
strokes_ogs.tif
102
RTVSPost2010PropOp54
 70
     1
102
RTVSPost2010Prop55
280
     0
102
RTVSPost2010PropOp55
 70
     1
102
RTVSPost2010Prop56
140
1.0
102
RTVSPost2010PropOp56
 70
     1
102
RTVSPost2010Prop57
140
1.0
102
RTVSPost2010PropOp57
 70
     1
102
RTVSPropertyOp0
 70
     1
102
RTVSPropertyOp1
 70
     1
102
RTVSPropertyOp2
 70
     1
102
RTVSPropertyOp3
 70
     1
102
RTVSPropertyOp4
 70
     1
102
RTVSPropertyOp5
 70
     1
102
RTVSPropertyOp6
 70
     1
102
RTVSPropertyOp7
 70
     1
102
RTVSPropertyOp8
 70
     1
102
RTVSPropertyOp9
 70
     1
102
RTVSPropertyOp10
 70
     1
102
RTVSPropertyOp11
 70
     1
102
RTVSPropertyOp12
 70
     1
102
RTVSPropertyOp13
 70
     1
102
RTVSPropertyOp14
 70
     1
102
RTVSPropertyOp15
 70
     1
102
RTVSPropertyOp16
 70
     1
102
RTVSPropertyOp17
 70
     1
102
RTVSPropertyOp18
 70
     1
102
RTVSPropertyOp19
 70
     1
102
RTVSPropertyOp20
 70
     1
102
RTVSPropertyOp21
 70
     1
102
RTVSPropertyOp22
 70
     1
102
RTVSPropertyOp23
 70
     1
102
RTVSPropertyOp24
 70
     1
102
RTVSPropertyOp25
 70
     1
102
RTVSPropertyOp26
 70
     1
102
RTVSPropertyOp27
 70
     1
102
RTVSPropertyOp28
 70
     1
102
RTVSPropertyOp29
 70
     1
102
RTVSPropertyOp30
 70
     1
102
RTVSPropertyOp31
 70
     1
102
RTVSPropertyOp32
 70
     1
102
RTVSPropertyOp33
 70
     1
102
RTVSPropertyOp34
 70
     1
102
RTVSPropertyOp35
 70
     1
102
RTVSPropertyOp36
 70
     1
102
RTVSPropertyOp37
 70
     1
102
RTVSPropertyOp38
 70
     1
102
RTVSPropertyOp39
 70
     1
102
RTVSPropertyOp40
 70
     1
102
RTVSPropertyOp41
 70
     1
102
RTVSPropertyOp42
 70
     1
102
RTVSPropertyOp43
 70
     1
102
RTVSPropertyOp44
 70
     1
102
RTVSPropertyOp45
 70
     1
102
RTVSPropertyOp46
 70
     1
102
RTVSPropertyOp47
 70
     1
102
RTVSPropertyOp48
 70
     1
102
RTVSPropertyOp49
 70
     1
102
RTVSPropertyOp50
 70
     1
102
RTVSPropertyOp51
 70
     0
102
RTVSPropertyOp52
 70
     0
102
RTVSPropertyOp53
 70
     1
102
RTVSPropertyOp54
 70
     1
102
RTVSPropertyOp55
 70
     1
102
RTVSPropertyOp56
 70
     1
102
RTVSPropertyOp57
 70
     1
102
RTVSPropertyOp58
 70
     1
102
RTVSPropertyOp59
 70
     1
102
RTVSPropertyOp60
 70
     1
102
RTVSPropertyOp61
 70
     1
102
RTVSPropertyOp62
 70
     1
  0
XRECORD
  5
1B9B6
102
{ACAD_REACTORS
330
1B9B5
102
}
330
1B9B5
100
AcDbXrecord
280
     1
102
RTVSPost2010Prop28
280
     0
102
RTVSPost2010PropOp28
 70
     1
102
RTVSPost2010Prop29
280
     1
102
RTVSPost2010PropOp29
 70
     1
102
RTVSPost2010Prop30
280
     1
102
RTVSPost2010PropOp30
 70
     1
102
RTVSPost2010Prop31
280
     0
102
RTVSPost2010PropOp31
 70
     1
102
RTVSPost2010Prop32
280
     0
102
RTVSPost2010PropOp32
 70
     1
102
RTVSPost2010Prop33
280
     0
102
RTVSPost2010PropOp33
 70
     1
102
RTVSPost2010Prop34
280
     0
102
RTVSPost2010PropOp34
 70
     1
102
RTVSPost2010Prop35
280
     0
102
RTVSPost2010PropOp35
 70
     1
102
RTVSPost2010Prop36
280
     0
102
RTVSPost2010PropOp36
 70
     1
102
RTVSPost2010Prop37
 90
       50
102
RTVSPost2010PropOp37
 70
     1
102
RTVSPost2010Prop38
140
0.0
102
RTVSPost2010PropOp38
 70
     1
102
RTVSPost2010Prop39
140
1.0
102
RTVSPost2010PropOp39
 70
     1
102
RTVSPost2010Prop40
 90
        0
102
RTVSPost2010PropOp40
 70
     1
102
RTVSPost2010Prop41ColorIndex
 90
       18
102
RTVSPost2010Prop41ColorRGB
 90
        0
102
RTVSPost2010PropOp41
 70
     1
102
RTVSPost2010Prop42
 90
       50
102
RTVSPost2010PropOp42
 70
     1
102
RTVSPost2010Prop43
 90
        3
102
RTVSPost2010PropOp43
 70
     1
102
RTVSPost2010Prop44ColorIndex
 90
        5
102
RTVSPost2010Prop44ColorRGB
 90
      255
102
RTVSPost2010PropOp44
 70
     1
102
RTVSPost2010Prop45
280
     0
102
RTVSPost2010PropOp45
 70
     1
102
RTVSPost2010Prop46
 90
       50
102
RTVSPost2010PropOp46
 70
     1
102
RTVSPost2010Prop47
 90
       50
102
RTVSPost2010PropOp47
 70
     1
102
RTVSPost2010Prop48
 90
       50
102
RTVSPost2010PropOp48
 70
     1
102
RTVSPost2010Prop49
280
     0
102
RTVSPost2010PropOp49
 70
     1
102
RTVSPost2010Prop50
 90
       50
102
RTVSPost2010PropOp50
 70
     1
102
RTVSPost2010Prop51ColorIndex
 90
      256
102
RTVSPost2010Prop51ColorRGB
 90
-16777216
102
RTVSPost2010PropOp51
 70
     0
102
RTVSPost2010Prop52
140
1.0
102
RTVSPost2010PropOp52
 70
     0
102
RTVSPost2010Prop53
 90
        2
102
RTVSPost2010PropOp53
 70
     1
102
RTVSPost2010Prop54
  1
strokes_ogs.tif
102
RTVSPost2010PropOp54
 70
     1
102
RTVSPost2010Prop55
280
     0
102
RTVSPost2010PropOp55
 70
     1
102
RTVSPost2010Prop56
140
1.0
102
RTVSPost2010PropOp56
 70
     1
102
RTVSPost2010Prop57
140
1.0
102
RTVSPost2010PropOp57
 70
     1
102
RTVSPropertyOp0
 70
     1
102
RTVSPropertyOp1
 70
     1
102
RTVSPropertyOp2
 70
     1
102
RTVSPropertyOp3
 70
     1
102
RTVSPropertyOp4
 70
     1
102
RTVSPropertyOp5
 70
     1
102
RTVSPropertyOp6
 70
     1
102
RTVSPropertyOp7
 70
     1
102
RTVSPropertyOp8
 70
     1
102
RTVSPropertyOp9
 70
     1
102
RTVSPropertyOp10
 70
     1
102
RTVSPropertyOp11
 70
     1
102
RTVSPropertyOp12
 70
     1
102
RTVSPropertyOp13
 70
     1
102
RTVSPropertyOp14
 70
     1
102
RTVSPropertyOp15
 70
     1
102
RTVSPropertyOp16
 70
     1
102
RTVSPropertyOp17
 70
     1
102
RTVSPropertyOp18
 70
     1
102
RTVSPropertyOp19
 70
     1
102
RTVSPropertyOp20
 70
     1
102
RTVSPropertyOp21
 70
     1
102
RTVSPropertyOp22
 70
     1
102
RTVSPropertyOp23
 70
     1
102
RTVSPropertyOp24
 70
     1
102
RTVSPropertyOp25
 70
     1
102
RTVSPropertyOp26
 70
     1
102
RTVSPropertyOp27
 70
     1
102
RTVSPropertyOp28
 70
     1
102
RTVSPropertyOp29
 70
     1
102
RTVSPropertyOp30
 70
     1
102
RTVSPropertyOp31
 70
     1
102
RTVSPropertyOp32
 70
     1
102
RTVSPropertyOp33
 70
     1
102
RTVSPropertyOp34
 70
     1
102
RTVSPropertyOp35
 70
     1
102
RTVSPropertyOp36
 70
     1
102
RTVSPropertyOp37
 70
     1
102
RTVSPropertyOp38
 70
     1
102
RTVSPropertyOp39
 70
     1
102
RTVSPropertyOp40
 70
     1
102
RTVSPropertyOp41
 70
     1
102
RTVSPropertyOp42
 70
     1
102
RTVSPropertyOp43
 70
     1
102
RTVSPropertyOp44
 70
     1
102
RTVSPropertyOp45
 70
     1
102
RTVSPropertyOp46
 70
     1
102
RTVSPropertyOp47
 70
     1
102
RTVSPropertyOp48
 70
     1
102
RTVSPropertyOp49
 70
     1
102
RTVSPropertyOp50
 70
     1
102
RTVSPropertyOp51
 70
     0
102
RTVSPropertyOp52
 70
     0
102
RTVSPropertyOp53
 70
     1
102
RTVSPropertyOp54
 70
     1
102
RTVSPropertyOp55
 70
     1
102
RTVSPropertyOp56
 70
     1
102
RTVSPropertyOp57
 70
     1
102
RTVSPropertyOp58
 70
     1
102
RTVSPropertyOp59
 70
     1
102
RTVSPropertyOp60
 70
     1
102
RTVSPropertyOp61
 70
     1
102
RTVSPropertyOp62
 70
     1
  0
XRECORD
  5
1B9BE
102
{ACAD_REACTORS
330
1B9BD
102
}
330
1B9BD
100
AcDbXrecord
280
     1
102
RTVSPost2010Prop28
280
     0
102
RTVSPost2010PropOp28
 70
     1
102
RTVSPost2010Prop29
280
     1
102
RTVSPost2010PropOp29
 70
     1
102
RTVSPost2010Prop30
280
     1
102
RTVSPost2010PropOp30
 70
     1
102
RTVSPost2010Prop31
280
     0
102
RTVSPost2010PropOp31
 70
     1
102
RTVSPost2010Prop32
280
     0
102
RTVSPost2010PropOp32
 70
     1
102
RTVSPost2010Prop33
280
     0
102
RTVSPost2010PropOp33
 70
     1
102
RTVSPost2010Prop34
280
     0
102
RTVSPost2010PropOp34
 70
     1
102
RTVSPost2010Prop35
280
     0
102
RTVSPost2010PropOp35
 70
     1
102
RTVSPost2010Prop36
280
     0
102
RTVSPost2010PropOp36
 70
     1
102
RTVSPost2010Prop37
 90
       50
102
RTVSPost2010PropOp37
 70
     1
102
RTVSPost2010Prop38
140
0.0
102
RTVSPost2010PropOp38
 70
     1
102
RTVSPost2010Prop39
140
1.0
102
RTVSPost2010PropOp39
 70
     1
102
RTVSPost2010Prop40
 90
        0
102
RTVSPost2010PropOp40
 70
     1
102
RTVSPost2010Prop41ColorIndex
 90
       18
102
RTVSPost2010Prop41ColorRGB
 90
        0
102
RTVSPost2010PropOp41
 70
     1
102
RTVSPost2010Prop42
 90
       50
102
RTVSPost2010PropOp42
 70
     1
102
RTVSPost2010Prop43
 90
        3
102
RTVSPost2010PropOp43
 70
     1
102
RTVSPost2010Prop44ColorIndex
 90
        5
102
RTVSPost2010Prop44ColorRGB
 90
      255
102
RTVSPost2010PropOp44
 70
     1
102
RTVSPost2010Prop45
280
     0
102
RTVSPost2010PropOp45
 70
     1
102
RTVSPost2010Prop46
 90
       50
102
RTVSPost2010PropOp46
 70
     1
102
RTVSPost2010Prop47
 90
       50
102
RTVSPost2010PropOp47
 70
     1
102
RTVSPost2010Prop48
 90
       50
102
RTVSPost2010PropOp48
 70
     1
102
RTVSPost2010Prop49
280
     0
102
RTVSPost2010PropOp49
 70
     1
102
RTVSPost2010Prop50
 90
       50
102
RTVSPost2010PropOp50
 70
     1
102
RTVSPost2010Prop51ColorIndex
 90
      256
102
RTVSPost2010Prop51ColorRGB
 90
-16777216
102
RTVSPost2010PropOp51
 70
     0
102
RTVSPost2010Prop52
140
1.0
102
RTVSPost2010PropOp52
 70
     0
102
RTVSPost2010Prop53
 90
        2
102
RTVSPost2010PropOp53
 70
     1
102
RTVSPost2010Prop54
  1
strokes_ogs.tif
102
RTVSPost2010PropOp54
 70
     1
102
RTVSPost2010Prop55
280
     0
102
RTVSPost2010PropOp55
 70
     1
102
RTVSPost2010Prop56
140
1.0
102
RTVSPost2010PropOp56
 70
     1
102
RTVSPost2010Prop57
140
1.0
102
RTVSPost2010PropOp57
 70
     1
102
RTVSPropertyOp0
 70
     1
102
RTVSPropertyOp1
 70
     1
102
RTVSPropertyOp2
 70
     1
102
RTVSPropertyOp3
 70
     1
102
RTVSPropertyOp4
 70
     1
102
RTVSPropertyOp5
 70
     1
102
RTVSPropertyOp6
 70
     1
102
RTVSPropertyOp7
 70
     1
102
RTVSPropertyOp8
 70
     1
102
RTVSPropertyOp9
 70
     1
102
RTVSPropertyOp10
 70
     1
102
RTVSPropertyOp11
 70
     1
102
RTVSPropertyOp12
 70
     1
102
RTVSPropertyOp13
 70
     1
102
RTVSPropertyOp14
 70
     1
102
RTVSPropertyOp15
 70
     1
102
RTVSPropertyOp16
 70
     1
102
RTVSPropertyOp17
 70
     1
102
RTVSPropertyOp18
 70
     1
102
RTVSPropertyOp19
 70
     1
102
RTVSPropertyOp20
 70
     1
102
RTVSPropertyOp21
 70
     1
102
RTVSPropertyOp22
 70
     1
102
RTVSPropertyOp23
 70
     1
102
RTVSPropertyOp24
 70
     1
102
RTVSPropertyOp25
 70
     1
102
RTVSPropertyOp26
 70
     1
102
RTVSPropertyOp27
 70
     1
102
RTVSPropertyOp28
 70
     1
102
RTVSPropertyOp29
 70
     1
102
RTVSPropertyOp30
 70
     1
102
RTVSPropertyOp31
 70
     1
102
RTVSPropertyOp32
 70
     1
102
RTVSPropertyOp33
 70
     1
102
RTVSPropertyOp34
 70
     1
102
RTVSPropertyOp35
 70
     1
102
RTVSPropertyOp36
 70
     1
102
RTVSPropertyOp37
 70
     1
102
RTVSPropertyOp38
 70
     1
102
RTVSPropertyOp39
 70
     1
102
RTVSPropertyOp40
 70
     1
102
RTVSPropertyOp41
 70
     1
102
RTVSPropertyOp42
 70
     1
102
RTVSPropertyOp43
 70
     1
102
RTVSPropertyOp44
 70
     1
102
RTVSPropertyOp45
 70
     1
102
RTVSPropertyOp46
 70
     1
102
RTVSPropertyOp47
 70
     1
102
RTVSPropertyOp48
 70
     1
102
RTVSPropertyOp49
 70
     1
102
RTVSPropertyOp50
 70
     1
102
RTVSPropertyOp51
 70
     0
102
RTVSPropertyOp52
 70
     0
102
RTVSPropertyOp53
 70
     1
102
RTVSPropertyOp54
 70
     1
102
RTVSPropertyOp55
 70
     1
102
RTVSPropertyOp56
 70
     1
102
RTVSPropertyOp57
 70
     1
102
RTVSPropertyOp58
 70
     1
102
RTVSPropertyOp59
 70
     1
102
RTVSPropertyOp60
 70
     1
102
RTVSPropertyOp61
 70
     1
102
RTVSPropertyOp62
 70
     1
  0
XRECORD
  5
1B9DA
102
{ACAD_REACTORS
330
1B9D9
102
}
330
1B9D9
100
AcDbXrecord
280
     1
102
RTVSPost2010Prop28
280
     0
102
RTVSPost2010PropOp28
 70
     1
102
RTVSPost2010Prop29
280
     1
102
RTVSPost2010PropOp29
 70
     1
102
RTVSPost2010Prop30
280
     1
102
RTVSPost2010PropOp30
 70
     1
102
RTVSPost2010Prop31
280
     0
102
RTVSPost2010PropOp31
 70
     1
102
RTVSPost2010Prop32
280
     0
102
RTVSPost2010PropOp32
 70
     1
102
RTVSPost2010Prop33
280
     0
102
RTVSPost2010PropOp33
 70
     1
102
RTVSPost2010Prop34
280
     0
102
RTVSPost2010PropOp34
 70
     1
102
RTVSPost2010Prop35
280
     0
102
RTVSPost2010PropOp35
 70
     1
102
RTVSPost2010Prop36
280
     0
102
RTVSPost2010PropOp36
 70
     1
102
RTVSPost2010Prop37
 90
       50
102
RTVSPost2010PropOp37
 70
     0
102
RTVSPost2010Prop38
140
0.0
102
RTVSPost2010PropOp38
 70
     0
102
RTVSPost2010Prop39
140
1.0
102
RTVSPost2010PropOp39
 70
     0
102
RTVSPost2010Prop40
 90
        0
102
RTVSPost2010PropOp40
 70
     0
102
RTVSPost2010Prop41ColorIndex
 90
       18
102
RTVSPost2010Prop41ColorRGB
 90
        0
102
RTVSPost2010PropOp41
 70
     0
102
RTVSPost2010Prop42
 90
       50
102
RTVSPost2010PropOp42
 70
     0
102
RTVSPost2010Prop43
 90
        3
102
RTVSPost2010PropOp43
 70
     0
102
RTVSPost2010Prop44ColorIndex
 90
        5
102
RTVSPost2010Prop44ColorRGB
 90
      255
102
RTVSPost2010PropOp44
 70
     0
102
RTVSPost2010Prop45
280
     0
102
RTVSPost2010PropOp45
 70
     1
102
RTVSPost2010Prop46
 90
       50
102
RTVSPost2010PropOp46
 70
     0
102
RTVSPost2010Prop47
 90
       50
102
RTVSPost2010PropOp47
 70
     0
102
RTVSPost2010Prop48
 90
       50
102
RTVSPost2010PropOp48
 70
     0
102
RTVSPost2010Prop49
280
     0
102
RTVSPost2010PropOp49
 70
     1
102
RTVSPost2010Prop50
 90
       50
102
RTVSPost2010PropOp50
 70
     0
102
RTVSPost2010Prop51ColorIndex
 90
      256
102
RTVSPost2010Prop51ColorRGB
 90
-16777216
102
RTVSPost2010PropOp51
 70
     0
102
RTVSPost2010Prop52
140
1.0
102
RTVSPost2010PropOp52
 70
     0
102
RTVSPost2010Prop53
 90
        2
102
RTVSPost2010PropOp53
 70
     0
102
RTVSPost2010Prop54
  1
strokes_ogs.tif
102
RTVSPost2010PropOp54
 70
     0
102
RTVSPost2010Prop55
280
     0
102
RTVSPost2010PropOp55
 70
     1
102
RTVSPost2010Prop56
140
1.0
102
RTVSPost2010PropOp56
 70
     0
102
RTVSPost2010Prop57
140
1.0
102
RTVSPost2010PropOp57
 70
     0
102
RTVSPropertyOp0
 70
     0
102
RTVSPropertyOp1
 70
     0
102
RTVSPropertyOp2
 70
     0
102
RTVSPropertyOp3
 70
     0
102
RTVSPropertyOp4
 70
     0
102
RTVSPropertyOp5
 70
     0
102
RTVSPropertyOp6
 70
     0
102
RTVSPropertyOp7
 70
     0
102
RTVSPropertyOp8
 70
     0
102
RTVSPropertyOp9
 70
     0
102
RTVSPropertyOp10
 70
     0
102
RTVSPropertyOp11
 70
     0
102
RTVSPropertyOp12
 70
     0
102
RTVSPropertyOp13
 70
     0
102
RTVSPropertyOp14
 70
     2
102
RTVSPropertyOp15
 70
     0
102
RTVSPropertyOp16
 70
     0
102
RTVSPropertyOp17
 70
     0
102
RTVSPropertyOp18
 70
     0
102
RTVSPropertyOp19
 70
     0
102
RTVSPropertyOp20
 70
     0
102
RTVSPropertyOp21
 70
     0
102
RTVSPropertyOp22
 70
     0
102
RTVSPropertyOp23
 70
     0
102
RTVSPropertyOp24
 70
     0
102
RTVSPropertyOp25
 70
     0
102
RTVSPropertyOp26
 70
     0
102
RTVSPropertyOp27
 70
     0
102
RTVSPropertyOp28
 70
     1
102
RTVSPropertyOp29
 70
     1
102
RTVSPropertyOp30
 70
     1
102
RTVSPropertyOp31
 70
     1
102
RTVSPropertyOp32
 70
     1
102
RTVSPropertyOp33
 70
     1
102
RTVSPropertyOp34
 70
     1
102
RTVSPropertyOp35
 70
     1
102
RTVSPropertyOp36
 70
     1
102
RTVSPropertyOp37
 70
     0
102
RTVSPropertyOp38
 70
     0
102
RTVSPropertyOp39
 70
     0
102
RTVSPropertyOp40
 70
     0
102
RTVSPropertyOp41
 70
     0
102
RTVSPropertyOp42
 70
     0
102
RTVSPropertyOp43
 70
     0
102
RTVSPropertyOp44
 70
     0
102
RTVSPropertyOp45
 70
     1
102
RTVSPropertyOp46
 70
     0
102
RTVSPropertyOp47
 70
     0
102
RTVSPropertyOp48
 70
     0
102
RTVSPropertyOp49
 70
     1
102
RTVSPropertyOp50
 70
     0
102
RTVSPropertyOp51
 70
     0
102
RTVSPropertyOp52
 70
     0
102
RTVSPropertyOp53
 70
     0
102
RTVSPropertyOp54
 70
     0
102
RTVSPropertyOp55
 70
     1
102
RTVSPropertyOp56
 70
     0
102
RTVSPropertyOp57
 70
     0
102
RTVSPropertyOp58
 70
     0
102
RTVSPropertyOp59
 70
     0
102
RTVSPropertyOp60
 70
     0
102
RTVSPropertyOp61
 70
     0
102
RTVSPropertyOp62
 70
     0
  0
XRECORD
  5
1B9CA
102
{ACAD_REACTORS
330
1B9C9
102
}
330
1B9C9
100
AcDbXrecord
280
     1
102
RTVSPost2010Prop28
280
     0
102
RTVSPost2010PropOp28
 70
     1
102
RTVSPost2010Prop29
280
     1
102
RTVSPost2010PropOp29
 70
     1
102
RTVSPost2010Prop30
280
     1
102
RTVSPost2010PropOp30
 70
     1
102
RTVSPost2010Prop31
280
     0
102
RTVSPost2010PropOp31
 70
     1
102
RTVSPost2010Prop32
280
     0
102
RTVSPost2010PropOp32
 70
     1
102
RTVSPost2010Prop33
280
     0
102
RTVSPost2010PropOp33
 70
     1
102
RTVSPost2010Prop34
280
     0
102
RTVSPost2010PropOp34
 70
     1
102
RTVSPost2010Prop35
280
     0
102
RTVSPost2010PropOp35
 70
     1
102
RTVSPost2010Prop36
280
     0
102
RTVSPost2010PropOp36
 70
     1
102
RTVSPost2010Prop37
 90
       50
102
RTVSPost2010PropOp37
 70
     1
102
RTVSPost2010Prop38
140
0.0
102
RTVSPost2010PropOp38
 70
     1
102
RTVSPost2010Prop39
140
1.0
102
RTVSPost2010PropOp39
 70
     1
102
RTVSPost2010Prop40
 90
        0
102
RTVSPost2010PropOp40
 70
     1
102
RTVSPost2010Prop41ColorIndex
 90
       18
102
RTVSPost2010Prop41ColorRGB
 90
        0
102
RTVSPost2010PropOp41
 70
     1
102
RTVSPost2010Prop42
 90
       50
102
RTVSPost2010PropOp42
 70
     1
102
RTVSPost2010Prop43
 90
        3
102
RTVSPost2010PropOp43
 70
     1
102
RTVSPost2010Prop44ColorIndex
 90
        5
102
RTVSPost2010Prop44ColorRGB
 90
      255
102
RTVSPost2010PropOp44
 70
     1
102
RTVSPost2010Prop45
280
     0
102
RTVSPost2010PropOp45
 70
     1
102
RTVSPost2010Prop46
 90
       50
102
RTVSPost2010PropOp46
 70
     1
102
RTVSPost2010Prop47
 90
       50
102
RTVSPost2010PropOp47
 70
     1
102
RTVSPost2010Prop48
 90
       50
102
RTVSPost2010PropOp48
 70
     1
102
RTVSPost2010Prop49
280
     0
102
RTVSPost2010PropOp49
 70
     1
102
RTVSPost2010Prop50
 90
       50
102
RTVSPost2010PropOp50
 70
     1
102
RTVSPost2010Prop51ColorIndex
 90
      256
102
RTVSPost2010Prop51ColorRGB
 90
-16777216
102
RTVSPost2010PropOp51
 70
     0
102
RTVSPost2010Prop52
140
1.0
102
RTVSPost2010PropOp52
 70
     0
102
RTVSPost2010Prop53
 90
        2
102
RTVSPost2010PropOp53
 70
     1
102
RTVSPost2010Prop54
  1
strokes_ogs.tif
102
RTVSPost2010PropOp54
 70
     1
102
RTVSPost2010Prop55
280
     0
102
RTVSPost2010PropOp55
 70
     1
102
RTVSPost2010Prop56
140
1.0
102
RTVSPost2010PropOp56
 70
     1
102
RTVSPost2010Prop57
140
1.0
102
RTVSPost2010PropOp57
 70
     1
102
RTVSPropertyOp0
 70
     1
102
RTVSPropertyOp1
 70
     1
102
RTVSPropertyOp2
 70
     1
102
RTVSPropertyOp3
 70
     1
102
RTVSPropertyOp4
 70
     1
102
RTVSPropertyOp5
 70
     1
102
RTVSPropertyOp6
 70
     1
102
RTVSPropertyOp7
 70
     1
102
RTVSPropertyOp8
 70
     1
102
RTVSPropertyOp9
 70
     1
102
RTVSPropertyOp10
 70
     1
102
RTVSPropertyOp11
 70
     1
102
RTVSPropertyOp12
 70
     1
102
RTVSPropertyOp13
 70
     1
102
RTVSPropertyOp14
 70
     1
102
RTVSPropertyOp15
 70
     1
102
RTVSPropertyOp16
 70
     1
102
RTVSPropertyOp17
 70
     1
102
RTVSPropertyOp18
 70
     1
102
RTVSPropertyOp19
 70
     1
102
RTVSPropertyOp20
 70
     1
102
RTVSPropertyOp21
 70
     1
102
RTVSPropertyOp22
 70
     1
102
RTVSPropertyOp23
 70
     1
102
RTVSPropertyOp24
 70
     1
102
RTVSPropertyOp25
 70
     1
102
RTVSPropertyOp26
 70
     1
102
RTVSPropertyOp27
 70
     1
102
RTVSPropertyOp28
 70
     1
102
RTVSPropertyOp29
 70
     1
102
RTVSPropertyOp30
 70
     1
102
RTVSPropertyOp31
 70
     1
102
RTVSPropertyOp32
 70
     1
102
RTVSPropertyOp33
 70
     1
102
RTVSPropertyOp34
 70
     1
102
RTVSPropertyOp35
 70
     1
102
RTVSPropertyOp36
 70
     1
102
RTVSPropertyOp37
 70
     1
102
RTVSPropertyOp38
 70
     1
102
RTVSPropertyOp39
 70
     1
102
RTVSPropertyOp40
 70
     1
102
RTVSPropertyOp41
 70
     1
102
RTVSPropertyOp42
 70
     1
102
RTVSPropertyOp43
 70
     1
102
RTVSPropertyOp44
 70
     1
102
RTVSPropertyOp45
 70
     1
102
RTVSPropertyOp46
 70
     1
102
RTVSPropertyOp47
 70
     1
102
RTVSPropertyOp48
 70
     1
102
RTVSPropertyOp49
 70
     1
102
RTVSPropertyOp50
 70
     1
102
RTVSPropertyOp51
 70
     0
102
RTVSPropertyOp52
 70
     0
102
RTVSPropertyOp53
 70
     1
102
RTVSPropertyOp54
 70
     1
102
RTVSPropertyOp55
 70
     1
102
RTVSPropertyOp56
 70
     1
102
RTVSPropertyOp57
 70
     1
102
RTVSPropertyOp58
 70
     1
102
RTVSPropertyOp59
 70
     1
102
RTVSPropertyOp60
 70
     1
102
RTVSPropertyOp61
 70
     1
102
RTVSPropertyOp62
 70
     1
  0
XRECORD
  5
1B9DC
102
{ACAD_REACTORS
330
1B9DB
102
}
330
1B9DB
100
AcDbXrecord
280
     1
102
RTVSPost2010Prop28
280
     0
102
RTVSPost2010PropOp28
 70
     1
102
RTVSPost2010Prop29
280
     1
102
RTVSPost2010PropOp29
 70
     1
102
RTVSPost2010Prop30
280
     1
102
RTVSPost2010PropOp30
 70
     1
102
RTVSPost2010Prop31
280
     0
102
RTVSPost2010PropOp31
 70
     1
102
RTVSPost2010Prop32
280
     0
102
RTVSPost2010PropOp32
 70
     1
102
RTVSPost2010Prop33
280
     0
102
RTVSPost2010PropOp33
 70
     1
102
RTVSPost2010Prop34
280
     0
102
RTVSPost2010PropOp34
 70
     1
102
RTVSPost2010Prop35
280
     0
102
RTVSPost2010PropOp35
 70
     1
102
RTVSPost2010Prop36
280
     0
102
RTVSPost2010PropOp36
 70
     1
102
RTVSPost2010Prop37
 90
       50
102
RTVSPost2010PropOp37
 70
     0
102
RTVSPost2010Prop38
140
0.0
102
RTVSPost2010PropOp38
 70
     0
102
RTVSPost2010Prop39
140
1.0
102
RTVSPost2010PropOp39
 70
     0
102
RTVSPost2010Prop40
 90
        0
102
RTVSPost2010PropOp40
 70
     0
102
RTVSPost2010Prop41ColorIndex
 90
       18
102
RTVSPost2010Prop41ColorRGB
 90
        0
102
RTVSPost2010PropOp41
 70
     0
102
RTVSPost2010Prop42
 90
       50
102
RTVSPost2010PropOp42
 70
     0
102
RTVSPost2010Prop43
 90
        3
102
RTVSPost2010PropOp43
 70
     0
102
RTVSPost2010Prop44ColorIndex
 90
        5
102
RTVSPost2010Prop44ColorRGB
 90
      255
102
RTVSPost2010PropOp44
 70
     0
102
RTVSPost2010Prop45
280
     0
102
RTVSPost2010PropOp45
 70
     1
102
RTVSPost2010Prop46
 90
       50
102
RTVSPost2010PropOp46
 70
     0
102
RTVSPost2010Prop47
 90
       50
102
RTVSPost2010PropOp47
 70
     0
102
RTVSPost2010Prop48
 90
       50
102
RTVSPost2010PropOp48
 70
     0
102
RTVSPost2010Prop49
280
     0
102
RTVSPost2010PropOp49
 70
     1
102
RTVSPost2010Prop50
 90
       50
102
RTVSPost2010PropOp50
 70
     0
102
RTVSPost2010Prop51ColorIndex
 90
      256
102
RTVSPost2010Prop51ColorRGB
 90
-16777216
102
RTVSPost2010PropOp51
 70
     0
102
RTVSPost2010Prop52
140
1.0
102
RTVSPost2010PropOp52
 70
     0
102
RTVSPost2010Prop53
 90
        2
102
RTVSPost2010PropOp53
 70
     0
102
RTVSPost2010Prop54
  1
strokes_ogs.tif
102
RTVSPost2010PropOp54
 70
     0
102
RTVSPost2010Prop55
280
     0
102
RTVSPost2010PropOp55
 70
     1
102
RTVSPost2010Prop56
140
1.0
102
RTVSPost2010PropOp56
 70
     0
102
RTVSPost2010Prop57
140
1.0
102
RTVSPost2010PropOp57
 70
     0
102
RTVSPropertyOp0
 70
     0
102
RTVSPropertyOp1
 70
     0
102
RTVSPropertyOp2
 70
     0
102
RTVSPropertyOp3
 70
     0
102
RTVSPropertyOp4
 70
     0
102
RTVSPropertyOp5
 70
     0
102
RTVSPropertyOp6
 70
     0
102
RTVSPropertyOp7
 70
     0
102
RTVSPropertyOp8
 70
     0
102
RTVSPropertyOp9
 70
     0
102
RTVSPropertyOp10
 70
     0
102
RTVSPropertyOp11
 70
     0
102
RTVSPropertyOp12
 70
     0
102
RTVSPropertyOp13
 70
     0
102
RTVSPropertyOp14
 70
     2
102
RTVSPropertyOp15
 70
     0
102
RTVSPropertyOp16
 70
     0
102
RTVSPropertyOp17
 70
     0
102
RTVSPropertyOp18
 70
     0
102
RTVSPropertyOp19
 70
     0
102
RTVSPropertyOp20
 70
     0
102
RTVSPropertyOp21
 70
     0
102
RTVSPropertyOp22
 70
     0
102
RTVSPropertyOp23
 70
     0
102
RTVSPropertyOp24
 70
     0
102
RTVSPropertyOp25
 70
     0
102
RTVSPropertyOp26
 70
     0
102
RTVSPropertyOp27
 70
     0
102
RTVSPropertyOp28
 70
     1
102
RTVSPropertyOp29
 70
     1
102
RTVSPropertyOp30
 70
     1
102
RTVSPropertyOp31
 70
     1
102
RTVSPropertyOp32
 70
     1
102
RTVSPropertyOp33
 70
     1
102
RTVSPropertyOp34
 70
     1
102
RTVSPropertyOp35
 70
     1
102
RTVSPropertyOp36
 70
     1
102
RTVSPropertyOp37
 70
     0
102
RTVSPropertyOp38
 70
     0
102
RTVSPropertyOp39
 70
     0
102
RTVSPropertyOp40
 70
     0
102
RTVSPropertyOp41
 70
     0
102
RTVSPropertyOp42
 70
     0
102
RTVSPropertyOp43
 70
     0
102
RTVSPropertyOp44
 70
     0
102
RTVSPropertyOp45
 70
     1
102
RTVSPropertyOp46
 70
     0
102
RTVSPropertyOp47
 70
     0
102
RTVSPropertyOp48
 70
     0
102
RTVSPropertyOp49
 70
     1
102
RTVSPropertyOp50
 70
     0
102
RTVSPropertyOp51
 70
     0
102
RTVSPropertyOp52
 70
     0
102
RTVSPropertyOp53
 70
     0
102
RTVSPropertyOp54
 70
     0
102
RTVSPropertyOp55
 70
     1
102
RTVSPropertyOp56
 70
     0
102
RTVSPropertyOp57
 70
     0
102
RTVSPropertyOp58
 70
     0
102
RTVSPropertyOp59
 70
     0
102
RTVSPropertyOp60
 70
     0
102
RTVSPropertyOp61
 70
     0
102
RTVSPropertyOp62
 70
     0
  0
XRECORD
  5
1B9C2
102
{ACAD_REACTORS
330
1B9C1
102
}
330
1B9C1
100
AcDbXrecord
280
     1
102
RTVSPost2010Prop28
280
     0
102
RTVSPost2010PropOp28
 70
     1
102
RTVSPost2010Prop29
280
     1
102
RTVSPost2010PropOp29
 70
     1
102
RTVSPost2010Prop30
280
     1
102
RTVSPost2010PropOp30
 70
     1
102
RTVSPost2010Prop31
280
     0
102
RTVSPost2010PropOp31
 70
     1
102
RTVSPost2010Prop32
280
     0
102
RTVSPost2010PropOp32
 70
     1
102
RTVSPost2010Prop33
280
     0
102
RTVSPost2010PropOp33
 70
     1
102
RTVSPost2010Prop34
280
     0
102
RTVSPost2010PropOp34
 70
     1
102
RTVSPost2010Prop35
280
     0
102
RTVSPost2010PropOp35
 70
     1
102
RTVSPost2010Prop36
280
     0
102
RTVSPost2010PropOp36
 70
     1
102
RTVSPost2010Prop37
 90
       50
102
RTVSPost2010PropOp37
 70
     1
102
RTVSPost2010Prop38
140
0.0
102
RTVSPost2010PropOp38
 70
     1
102
RTVSPost2010Prop39
140
1.0
102
RTVSPost2010PropOp39
 70
     1
102
RTVSPost2010Prop40
 90
        0
102
RTVSPost2010PropOp40
 70
     1
102
RTVSPost2010Prop41ColorIndex
 90
       18
102
RTVSPost2010Prop41ColorRGB
 90
        0
102
RTVSPost2010PropOp41
 70
     1
102
RTVSPost2010Prop42
 90
       50
102
RTVSPost2010PropOp42
 70
     1
102
RTVSPost2010Prop43
 90
        3
102
RTVSPost2010PropOp43
 70
     1
102
RTVSPost2010Prop44ColorIndex
 90
        5
102
RTVSPost2010Prop44ColorRGB
 90
      255
102
RTVSPost2010PropOp44
 70
     1
102
RTVSPost2010Prop45
280
     0
102
RTVSPost2010PropOp45
 70
     1
102
RTVSPost2010Prop46
 90
       50
102
RTVSPost2010PropOp46
 70
     1
102
RTVSPost2010Prop47
 90
       50
102
RTVSPost2010PropOp47
 70
     1
102
RTVSPost2010Prop48
 90
       50
102
RTVSPost2010PropOp48
 70
     1
102
RTVSPost2010Prop49
280
     0
102
RTVSPost2010PropOp49
 70
     1
102
RTVSPost2010Prop50
 90
       50
102
RTVSPost2010PropOp50
 70
     1
102
RTVSPost2010Prop51ColorIndex
 90
      256
102
RTVSPost2010Prop51ColorRGB
 90
-16777216
102
RTVSPost2010PropOp51
 70
     0
102
RTVSPost2010Prop52
140
1.0
102
RTVSPost2010PropOp52
 70
     0
102
RTVSPost2010Prop53
 90
        2
102
RTVSPost2010PropOp53
 70
     1
102
RTVSPost2010Prop54
  1
strokes_ogs.tif
102
RTVSPost2010PropOp54
 70
     1
102
RTVSPost2010Prop55
280
     0
102
RTVSPost2010PropOp55
 70
     1
102
RTVSPost2010Prop56
140
1.0
102
RTVSPost2010PropOp56
 70
     1
102
RTVSPost2010Prop57
140
1.0
102
RTVSPost2010PropOp57
 70
     1
102
RTVSPropertyOp0
 70
     1
102
RTVSPropertyOp1
 70
     1
102
RTVSPropertyOp2
 70
     1
102
RTVSPropertyOp3
 70
     1
102
RTVSPropertyOp4
 70
     1
102
RTVSPropertyOp5
 70
     1
102
RTVSPropertyOp6
 70
     1
102
RTVSPropertyOp7
 70
     1
102
RTVSPropertyOp8
 70
     1
102
RTVSPropertyOp9
 70
     1
102
RTVSPropertyOp10
 70
     1
102
RTVSPropertyOp11
 70
     1
102
RTVSPropertyOp12
 70
     1
102
RTVSPropertyOp13
 70
     1
102
RTVSPropertyOp14
 70
     1
102
RTVSPropertyOp15
 70
     1
102
RTVSPropertyOp16
 70
     1
102
RTVSPropertyOp17
 70
     1
102
RTVSPropertyOp18
 70
     1
102
RTVSPropertyOp19
 70
     1
102
RTVSPropertyOp20
 70
     1
102
RTVSPropertyOp21
 70
     1
102
RTVSPropertyOp22
 70
     1
102
RTVSPropertyOp23
 70
     1
102
RTVSPropertyOp24
 70
     1
102
RTVSPropertyOp25
 70
     1
102
RTVSPropertyOp26
 70
     1
102
RTVSPropertyOp27
 70
     1
102
RTVSPropertyOp28
 70
     1
102
RTVSPropertyOp29
 70
     1
102
RTVSPropertyOp30
 70
     1
102
RTVSPropertyOp31
 70
     1
102
RTVSPropertyOp32
 70
     1
102
RTVSPropertyOp33
 70
     1
102
RTVSPropertyOp34
 70
     1
102
RTVSPropertyOp35
 70
     1
102
RTVSPropertyOp36
 70
     1
102
RTVSPropertyOp37
 70
     1
102
RTVSPropertyOp38
 70
     1
102
RTVSPropertyOp39
 70
     1
102
RTVSPropertyOp40
 70
     1
102
RTVSPropertyOp41
 70
     1
102
RTVSPropertyOp42
 70
     1
102
RTVSPropertyOp43
 70
     1
102
RTVSPropertyOp44
 70
     1
102
RTVSPropertyOp45
 70
     1
102
RTVSPropertyOp46
 70
     1
102
RTVSPropertyOp47
 70
     1
102
RTVSPropertyOp48
 70
     1
102
RTVSPropertyOp49
 70
     1
102
RTVSPropertyOp50
 70
     1
102
RTVSPropertyOp51
 70
     0
102
RTVSPropertyOp52
 70
     0
102
RTVSPropertyOp53
 70
     1
102
RTVSPropertyOp54
 70
     1
102
RTVSPropertyOp55
 70
     1
102
RTVSPropertyOp56
 70
     1
102
RTVSPropertyOp57
 70
     1
102
RTVSPropertyOp58
 70
     1
102
RTVSPropertyOp59
 70
     1
102
RTVSPropertyOp60
 70
     1
102
RTVSPropertyOp61
 70
     1
102
RTVSPropertyOp62
 70
     1
  0
XRECORD
  5
1B9D8
102
{ACAD_REACTORS
330
1B9D7
102
}
330
1B9D7
100
AcDbXrecord
280
     1
102
RTVSPost2010Prop28
280
     0
102
RTVSPost2010PropOp28
 70
     1
102
RTVSPost2010Prop29
280
     1
102
RTVSPost2010PropOp29
 70
     1
102
RTVSPost2010Prop30
280
     1
102
RTVSPost2010PropOp30
 70
     1
102
RTVSPost2010Prop31
280
     0
102
RTVSPost2010PropOp31
 70
     1
102
RTVSPost2010Prop32
280
     0
102
RTVSPost2010PropOp32
 70
     1
102
RTVSPost2010Prop33
280
     0
102
RTVSPost2010PropOp33
 70
     1
102
RTVSPost2010Prop34
280
     0
102
RTVSPost2010PropOp34
 70
     1
102
RTVSPost2010Prop35
280
     0
102
RTVSPost2010PropOp35
 70
     1
102
RTVSPost2010Prop36
280
     0
102
RTVSPost2010PropOp36
 70
     1
102
RTVSPost2010Prop37
 90
       50
102
RTVSPost2010PropOp37
 70
     1
102
RTVSPost2010Prop38
140
0.0
102
RTVSPost2010PropOp38
 70
     1
102
RTVSPost2010Prop39
140
1.0
102
RTVSPost2010PropOp39
 70
     1
102
RTVSPost2010Prop40
 90
        0
102
RTVSPost2010PropOp40
 70
     1
102
RTVSPost2010Prop41ColorIndex
 90
       18
102
RTVSPost2010Prop41ColorRGB
 90
        0
102
RTVSPost2010PropOp41
 70
     1
102
RTVSPost2010Prop42
 90
       50
102
RTVSPost2010PropOp42
 70
     1
102
RTVSPost2010Prop43
 90
        3
102
RTVSPost2010PropOp43
 70
     1
102
RTVSPost2010Prop44ColorIndex
 90
        5
102
RTVSPost2010Prop44ColorRGB
 90
      255
102
RTVSPost2010PropOp44
 70
     1
102
RTVSPost2010Prop45
280
     0
102
RTVSPost2010PropOp45
 70
     1
102
RTVSPost2010Prop46
 90
       50
102
RTVSPost2010PropOp46
 70
     1
102
RTVSPost2010Prop47
 90
       50
102
RTVSPost2010PropOp47
 70
     1
102
RTVSPost2010Prop48
 90
       50
102
RTVSPost2010PropOp48
 70
     1
102
RTVSPost2010Prop49
280
     0
102
RTVSPost2010PropOp49
 70
     1
102
RTVSPost2010Prop50
 90
       50
102
RTVSPost2010PropOp50
 70
     1
102
RTVSPost2010Prop51ColorIndex
 90
      256
102
RTVSPost2010Prop51ColorRGB
 90
-16777216
102
RTVSPost2010PropOp51
 70
     0
102
RTVSPost2010Prop52
140
1.0
102
RTVSPost2010PropOp52
 70
     0
102
RTVSPost2010Prop53
 90
        2
102
RTVSPost2010PropOp53
 70
     1
102
RTVSPost2010Prop54
  1
strokes_ogs.tif
102
RTVSPost2010PropOp54
 70
     1
102
RTVSPost2010Prop55
280
     0
102
RTVSPost2010PropOp55
 70
     1
102
RTVSPost2010Prop56
140
1.0
102
RTVSPost2010PropOp56
 70
     1
102
RTVSPost2010Prop57
140
1.0
102
RTVSPost2010PropOp57
 70
     1
102
RTVSPropertyOp0
 70
     1
102
RTVSPropertyOp1
 70
     1
102
RTVSPropertyOp2
 70
     1
102
RTVSPropertyOp3
 70
     1
102
RTVSPropertyOp4
 70
     1
102
RTVSPropertyOp5
 70
     1
102
RTVSPropertyOp6
 70
     1
102
RTVSPropertyOp7
 70
     1
102
RTVSPropertyOp8
 70
     1
102
RTVSPropertyOp9
 70
     1
102
RTVSPropertyOp10
 70
     1
102
RTVSPropertyOp11
 70
     1
102
RTVSPropertyOp12
 70
     1
102
RTVSPropertyOp13
 70
     1
102
RTVSPropertyOp14
 70
     1
102
RTVSPropertyOp15
 70
     1
102
RTVSPropertyOp16
 70
     1
102
RTVSPropertyOp17
 70
     1
102
RTVSPropertyOp18
 70
     1
102
RTVSPropertyOp19
 70
     1
102
RTVSPropertyOp20
 70
     1
102
RTVSPropertyOp21
 70
     1
102
RTVSPropertyOp22
 70
     1
102
RTVSPropertyOp23
 70
     1
102
RTVSPropertyOp24
 70
     1
102
RTVSPropertyOp25
 70
     1
102
RTVSPropertyOp26
 70
     1
102
RTVSPropertyOp27
 70
     1
102
RTVSPropertyOp28
 70
     1
102
RTVSPropertyOp29
 70
     1
102
RTVSPropertyOp30
 70
     1
102
RTVSPropertyOp31
 70
     1
102
RTVSPropertyOp32
 70
     1
102
RTVSPropertyOp33
 70
     1
102
RTVSPropertyOp34
 70
     1
102
RTVSPropertyOp35
 70
     1
102
RTVSPropertyOp36
 70
     1
102
RTVSPropertyOp37
 70
     1
102
RTVSPropertyOp38
 70
     1
102
RTVSPropertyOp39
 70
     1
102
RTVSPropertyOp40
 70
     1
102
RTVSPropertyOp41
 70
     1
102
RTVSPropertyOp42
 70
     1
102
RTVSPropertyOp43
 70
     1
102
RTVSPropertyOp44
 70
     1
102
RTVSPropertyOp45
 70
     1
102
RTVSPropertyOp46
 70
     1
102
RTVSPropertyOp47
 70
     1
102
RTVSPropertyOp48
 70
     1
102
RTVSPropertyOp49
 70
     1
102
RTVSPropertyOp50
 70
     1
102
RTVSPropertyOp51
 70
     0
102
RTVSPropertyOp52
 70
     0
102
RTVSPropertyOp53
 70
     1
102
RTVSPropertyOp54
 70
     1
102
RTVSPropertyOp55
 70
     1
102
RTVSPropertyOp56
 70
     1
102
RTVSPropertyOp57
 70
     1
102
RTVSPropertyOp58
 70
     1
102
RTVSPropertyOp59
 70
     1
102
RTVSPropertyOp60
 70
     1
102
RTVSPropertyOp61
 70
     1
102
RTVSPropertyOp62
 70
     1
  0
XRECORD
  5
1B9D6
102
{ACAD_REACTORS
330
1B9D5
102
}
330
1B9D5
100
AcDbXrecord
280
     1
102
RTVSPost2010Prop28
280
     0
102
RTVSPost2010PropOp28
 70
     1
102
RTVSPost2010Prop29
280
     1
102
RTVSPost2010PropOp29
 70
     1
102
RTVSPost2010Prop30
280
     1
102
RTVSPost2010PropOp30
 70
     1
102
RTVSPost2010Prop31
280
     0
102
RTVSPost2010PropOp31
 70
     1
102
RTVSPost2010Prop32
280
     0
102
RTVSPost2010PropOp32
 70
     1
102
RTVSPost2010Prop33
280
     0
102
RTVSPost2010PropOp33
 70
     1
102
RTVSPost2010Prop34
280
     0
102
RTVSPost2010PropOp34
 70
     1
102
RTVSPost2010Prop35
280
     0
102
RTVSPost2010PropOp35
 70
     1
102
RTVSPost2010Prop36
280
     0
102
RTVSPost2010PropOp36
 70
     1
102
RTVSPost2010Prop37
 90
       50
102
RTVSPost2010PropOp37
 70
     1
102
RTVSPost2010Prop38
140
0.0
102
RTVSPost2010PropOp38
 70
     1
102
RTVSPost2010Prop39
140
1.0
102
RTVSPost2010PropOp39
 70
     1
102
RTVSPost2010Prop40
 90
        0
102
RTVSPost2010PropOp40
 70
     1
102
RTVSPost2010Prop41ColorIndex
 90
       18
102
RTVSPost2010Prop41ColorRGB
 90
        0
102
RTVSPost2010PropOp41
 70
     1
102
RTVSPost2010Prop42
 90
       50
102
RTVSPost2010PropOp42
 70
     1
102
RTVSPost2010Prop43
 90
        3
102
RTVSPost2010PropOp43
 70
     1
102
RTVSPost2010Prop44ColorIndex
 90
        5
102
RTVSPost2010Prop44ColorRGB
 90
      255
102
RTVSPost2010PropOp44
 70
     1
102
RTVSPost2010Prop45
280
     0
102
RTVSPost2010PropOp45
 70
     1
102
RTVSPost2010Prop46
 90
       50
102
RTVSPost2010PropOp46
 70
     1
102
RTVSPost2010Prop47
 90
       50
102
RTVSPost2010PropOp47
 70
     1
102
RTVSPost2010Prop48
 90
       50
102
RTVSPost2010PropOp48
 70
     1
102
RTVSPost2010Prop49
280
     0
102
RTVSPost2010PropOp49
 70
     1
102
RTVSPost2010Prop50
 90
       50
102
RTVSPost2010PropOp50
 70
     1
102
RTVSPost2010Prop51ColorIndex
 90
      256
102
RTVSPost2010Prop51ColorRGB
 90
-16777216
102
RTVSPost2010PropOp51
 70
     0
102
RTVSPost2010Prop52
140
1.0
102
RTVSPost2010PropOp52
 70
     0
102
RTVSPost2010Prop53
 90
        2
102
RTVSPost2010PropOp53
 70
     1
102
RTVSPost2010Prop54
  1
strokes_ogs.tif
102
RTVSPost2010PropOp54
 70
     1
102
RTVSPost2010Prop55
280
     0
102
RTVSPost2010PropOp55
 70
     1
102
RTVSPost2010Prop56
140
1.0
102
RTVSPost2010PropOp56
 70
     1
102
RTVSPost2010Prop57
140
1.0
102
RTVSPost2010PropOp57
 70
     1
102
RTVSPropertyOp0
 70
     1
102
RTVSPropertyOp1
 70
     1
102
RTVSPropertyOp2
 70
     1
102
RTVSPropertyOp3
 70
     1
102
RTVSPropertyOp4
 70
     1
102
RTVSPropertyOp5
 70
     1
102
RTVSPropertyOp6
 70
     1
102
RTVSPropertyOp7
 70
     1
102
RTVSPropertyOp8
 70
     1
102
RTVSPropertyOp9
 70
     1
102
RTVSPropertyOp10
 70
     1
102
RTVSPropertyOp11
 70
     1
102
RTVSPropertyOp12
 70
     1
102
RTVSPropertyOp13
 70
     1
102
RTVSPropertyOp14
 70
     1
102
RTVSPropertyOp15
 70
     1
102
RTVSPropertyOp16
 70
     1
102
RTVSPropertyOp17
 70
     1
102
RTVSPropertyOp18
 70
     1
102
RTVSPropertyOp19
 70
     1
102
RTVSPropertyOp20
 70
     1
102
RTVSPropertyOp21
 70
     1
102
RTVSPropertyOp22
 70
     1
102
RTVSPropertyOp23
 70
     1
102
RTVSPropertyOp24
 70
     1
102
RTVSPropertyOp25
 70
     1
102
RTVSPropertyOp26
 70
     1
102
RTVSPropertyOp27
 70
     1
102
RTVSPropertyOp28
 70
     1
102
RTVSPropertyOp29
 70
     1
102
RTVSPropertyOp30
 70
     1
102
RTVSPropertyOp31
 70
     1
102
RTVSPropertyOp32
 70
     1
102
RTVSPropertyOp33
 70
     1
102
RTVSPropertyOp34
 70
     1
102
RTVSPropertyOp35
 70
     1
102
RTVSPropertyOp36
 70
     1
102
RTVSPropertyOp37
 70
     1
102
RTVSPropertyOp38
 70
     1
102
RTVSPropertyOp39
 70
     1
102
RTVSPropertyOp40
 70
     1
102
RTVSPropertyOp41
 70
     1
102
RTVSPropertyOp42
 70
     1
102
RTVSPropertyOp43
 70
     1
102
RTVSPropertyOp44
 70
     1
102
RTVSPropertyOp45
 70
     1
102
RTVSPropertyOp46
 70
     1
102
RTVSPropertyOp47
 70
     1
102
RTVSPropertyOp48
 70
     1
102
RTVSPropertyOp49
 70
     1
102
RTVSPropertyOp50
 70
     1
102
RTVSPropertyOp51
 70
     0
102
RTVSPropertyOp52
 70
     0
102
RTVSPropertyOp53
 70
     1
102
RTVSPropertyOp54
 70
     1
102
RTVSPropertyOp55
 70
     1
102
RTVSPropertyOp56
 70
     1
102
RTVSPropertyOp57
 70
     1
102
RTVSPropertyOp58
 70
     1
102
RTVSPropertyOp59
 70
     1
102
RTVSPropertyOp60
 70
     1
102
RTVSPropertyOp61
 70
     1
102
RTVSPropertyOp62
 70
     1
  0
XRECORD
  5
1B9D0
102
{ACAD_REACTORS
330
1B9CF
102
}
330
1B9CF
100
AcDbXrecord
280
     1
102
RTVSPost2010Prop28
280
     0
102
RTVSPost2010PropOp28
 70
     1
102
RTVSPost2010Prop29
280
     1
102
RTVSPost2010PropOp29
 70
     1
102
RTVSPost2010Prop30
280
     1
102
RTVSPost2010PropOp30
 70
     1
102
RTVSPost2010Prop31
280
     0
102
RTVSPost2010PropOp31
 70
     1
102
RTVSPost2010Prop32
280
     0
102
RTVSPost2010PropOp32
 70
     1
102
RTVSPost2010Prop33
280
     0
102
RTVSPost2010PropOp33
 70
     1
102
RTVSPost2010Prop34
280
     0
102
RTVSPost2010PropOp34
 70
     1
102
RTVSPost2010Prop35
280
     0
102
RTVSPost2010PropOp35
 70
     1
102
RTVSPost2010Prop36
280
     0
102
RTVSPost2010PropOp36
 70
     1
102
RTVSPost2010Prop37
 90
       50
102
RTVSPost2010PropOp37
 70
     1
102
RTVSPost2010Prop38
140
0.0
102
RTVSPost2010PropOp38
 70
     1
102
RTVSPost2010Prop39
140
1.0
102
RTVSPost2010PropOp39
 70
     1
102
RTVSPost2010Prop40
 90
        0
102
RTVSPost2010PropOp40
 70
     1
102
RTVSPost2010Prop41ColorIndex
 90
       18
102
RTVSPost2010Prop41ColorRGB
 90
        0
102
RTVSPost2010PropOp41
 70
     1
102
RTVSPost2010Prop42
 90
       50
102
RTVSPost2010PropOp42
 70
     1
102
RTVSPost2010Prop43
 90
        3
102
RTVSPost2010PropOp43
 70
     1
102
RTVSPost2010Prop44ColorIndex
 90
        5
102
RTVSPost2010Prop44ColorRGB
 90
      255
102
RTVSPost2010PropOp44
 70
     1
102
RTVSPost2010Prop45
280
     0
102
RTVSPost2010PropOp45
 70
     1
102
RTVSPost2010Prop46
 90
       50
102
RTVSPost2010PropOp46
 70
     1
102
RTVSPost2010Prop47
 90
       50
102
RTVSPost2010PropOp47
 70
     1
102
RTVSPost2010Prop48
 90
       50
102
RTVSPost2010PropOp48
 70
     1
102
RTVSPost2010Prop49
280
     0
102
RTVSPost2010PropOp49
 70
     1
102
RTVSPost2010Prop50
 90
       50
102
RTVSPost2010PropOp50
 70
     1
102
RTVSPost2010Prop51ColorIndex
 90
      256
102
RTVSPost2010Prop51ColorRGB
 90
-16777216
102
RTVSPost2010PropOp51
 70
     0
102
RTVSPost2010Prop52
140
1.0
102
RTVSPost2010PropOp52
 70
     0
102
RTVSPost2010Prop53
 90
        2
102
RTVSPost2010PropOp53
 70
     1
102
RTVSPost2010Prop54
  1
strokes_ogs.tif
102
RTVSPost2010PropOp54
 70
     1
102
RTVSPost2010Prop55
280
     0
102
RTVSPost2010PropOp55
 70
     1
102
RTVSPost2010Prop56
140
1.0
102
RTVSPost2010PropOp56
 70
     1
102
RTVSPost2010Prop57
140
1.0
102
RTVSPost2010PropOp57
 70
     1
102
RTVSPropertyOp0
 70
     1
102
RTVSPropertyOp1
 70
     1
102
RTVSPropertyOp2
 70
     1
102
RTVSPropertyOp3
 70
     1
102
RTVSPropertyOp4
 70
     1
102
RTVSPropertyOp5
 70
     1
102
RTVSPropertyOp6
 70
     1
102
RTVSPropertyOp7
 70
     1
102
RTVSPropertyOp8
 70
     1
102
RTVSPropertyOp9
 70
     1
102
RTVSPropertyOp10
 70
     1
102
RTVSPropertyOp11
 70
     1
102
RTVSPropertyOp12
 70
     1
102
RTVSPropertyOp13
 70
     1
102
RTVSPropertyOp14
 70
     1
102
RTVSPropertyOp15
 70
     1
102
RTVSPropertyOp16
 70
     1
102
RTVSPropertyOp17
 70
     1
102
RTVSPropertyOp18
 70
     1
102
RTVSPropertyOp19
 70
     1
102
RTVSPropertyOp20
 70
     1
102
RTVSPropertyOp21
 70
     1
102
RTVSPropertyOp22
 70
     1
102
RTVSPropertyOp23
 70
     1
102
RTVSPropertyOp24
 70
     1
102
RTVSPropertyOp25
 70
     1
102
RTVSPropertyOp26
 70
     1
102
RTVSPropertyOp27
 70
     1
102
RTVSPropertyOp28
 70
     1
102
RTVSPropertyOp29
 70
     1
102
RTVSPropertyOp30
 70
     1
102
RTVSPropertyOp31
 70
     1
102
RTVSPropertyOp32
 70
     1
102
RTVSPropertyOp33
 70
     1
102
RTVSPropertyOp34
 70
     1
102
RTVSPropertyOp35
 70
     1
102
RTVSPropertyOp36
 70
     1
102
RTVSPropertyOp37
 70
     1
102
RTVSPropertyOp38
 70
     1
102
RTVSPropertyOp39
 70
     1
102
RTVSPropertyOp40
 70
     1
102
RTVSPropertyOp41
 70
     1
102
RTVSPropertyOp42
 70
     1
102
RTVSPropertyOp43
 70
     1
102
RTVSPropertyOp44
 70
     1
102
RTVSPropertyOp45
 70
     1
102
RTVSPropertyOp46
 70
     1
102
RTVSPropertyOp47
 70
     1
102
RTVSPropertyOp48
 70
     1
102
RTVSPropertyOp49
 70
     1
102
RTVSPropertyOp50
 70
     1
102
RTVSPropertyOp51
 70
     0
102
RTVSPropertyOp52
 70
     0
102
RTVSPropertyOp53
 70
     1
102
RTVSPropertyOp54
 70
     1
102
RTVSPropertyOp55
 70
     1
102
RTVSPropertyOp56
 70
     1
102
RTVSPropertyOp57
 70
     1
102
RTVSPropertyOp58
 70
     1
102
RTVSPropertyOp59
 70
     1
102
RTVSPropertyOp60
 70
     1
102
RTVSPropertyOp61
 70
     1
102
RTVSPropertyOp62
 70
     1
  0
XRECORD
  5
1B9D2
102
{ACAD_REACTORS
330
1B9D1
102
}
330
1B9D1
100
AcDbXrecord
280
     1
102
RTVSPost2010Prop28
280
     0
102
RTVSPost2010PropOp28
 70
     1
102
RTVSPost2010Prop29
280
     1
102
RTVSPost2010PropOp29
 70
     1
102
RTVSPost2010Prop30
280
     1
102
RTVSPost2010PropOp30
 70
     1
102
RTVSPost2010Prop31
280
     0
102
RTVSPost2010PropOp31
 70
     1
102
RTVSPost2010Prop32
280
     0
102
RTVSPost2010PropOp32
 70
     1
102
RTVSPost2010Prop33
280
     0
102
RTVSPost2010PropOp33
 70
     1
102
RTVSPost2010Prop34
280
     0
102
RTVSPost2010PropOp34
 70
     1
102
RTVSPost2010Prop35
280
     0
102
RTVSPost2010PropOp35
 70
     1
102
RTVSPost2010Prop36
280
     0
102
RTVSPost2010PropOp36
 70
     1
102
RTVSPost2010Prop37
 90
       50
102
RTVSPost2010PropOp37
 70
     1
102
RTVSPost2010Prop38
140
0.0
102
RTVSPost2010PropOp38
 70
     1
102
RTVSPost2010Prop39
140
1.0
102
RTVSPost2010PropOp39
 70
     1
102
RTVSPost2010Prop40
 90
        0
102
RTVSPost2010PropOp40
 70
     1
102
RTVSPost2010Prop41ColorIndex
 90
       18
102
RTVSPost2010Prop41ColorRGB
 90
        0
102
RTVSPost2010PropOp41
 70
     1
102
RTVSPost2010Prop42
 90
       50
102
RTVSPost2010PropOp42
 70
     1
102
RTVSPost2010Prop43
 90
        3
102
RTVSPost2010PropOp43
 70
     1
102
RTVSPost2010Prop44ColorIndex
 90
        5
102
RTVSPost2010Prop44ColorRGB
 90
      255
102
RTVSPost2010PropOp44
 70
     1
102
RTVSPost2010Prop45
280
     0
102
RTVSPost2010PropOp45
 70
     1
102
RTVSPost2010Prop46
 90
       50
102
RTVSPost2010PropOp46
 70
     1
102
RTVSPost2010Prop47
 90
       50
102
RTVSPost2010PropOp47
 70
     1
102
RTVSPost2010Prop48
 90
       50
102
RTVSPost2010PropOp48
 70
     1
102
RTVSPost2010Prop49
280
     0
102
RTVSPost2010PropOp49
 70
     1
102
RTVSPost2010Prop50
 90
       50
102
RTVSPost2010PropOp50
 70
     1
102
RTVSPost2010Prop51ColorIndex
 90
      256
102
RTVSPost2010Prop51ColorRGB
 90
-16777216
102
RTVSPost2010PropOp51
 70
     0
102
RTVSPost2010Prop52
140
1.0
102
RTVSPost2010PropOp52
 70
     0
102
RTVSPost2010Prop53
 90
        2
102
RTVSPost2010PropOp53
 70
     1
102
RTVSPost2010Prop54
  1
strokes_ogs.tif
102
RTVSPost2010PropOp54
 70
     1
102
RTVSPost2010Prop55
280
     0
102
RTVSPost2010PropOp55
 70
     1
102
RTVSPost2010Prop56
140
1.0
102
RTVSPost2010PropOp56
 70
     1
102
RTVSPost2010Prop57
140
1.0
102
RTVSPost2010PropOp57
 70
     1
102
RTVSPropertyOp0
 70
     1
102
RTVSPropertyOp1
 70
     1
102
RTVSPropertyOp2
 70
     1
102
RTVSPropertyOp3
 70
     1
102
RTVSPropertyOp4
 70
     1
102
RTVSPropertyOp5
 70
     1
102
RTVSPropertyOp6
 70
     1
102
RTVSPropertyOp7
 70
     1
102
RTVSPropertyOp8
 70
     1
102
RTVSPropertyOp9
 70
     1
102
RTVSPropertyOp10
 70
     1
102
RTVSPropertyOp11
 70
     1
102
RTVSPropertyOp12
 70
     1
102
RTVSPropertyOp13
 70
     1
102
RTVSPropertyOp14
 70
     1
102
RTVSPropertyOp15
 70
     1
102
RTVSPropertyOp16
 70
     1
102
RTVSPropertyOp17
 70
     1
102
RTVSPropertyOp18
 70
     1
102
RTVSPropertyOp19
 70
     1
102
RTVSPropertyOp20
 70
     1
102
RTVSPropertyOp21
 70
     1
102
RTVSPropertyOp22
 70
     1
102
RTVSPropertyOp23
 70
     1
102
RTVSPropertyOp24
 70
     1
102
RTVSPropertyOp25
 70
     1
102
RTVSPropertyOp26
 70
     1
102
RTVSPropertyOp27
 70
     1
102
RTVSPropertyOp28
 70
     1
102
RTVSPropertyOp29
 70
     1
102
RTVSPropertyOp30
 70
     1
102
RTVSPropertyOp31
 70
     1
102
RTVSPropertyOp32
 70
     1
102
RTVSPropertyOp33
 70
     1
102
RTVSPropertyOp34
 70
     1
102
RTVSPropertyOp35
 70
     1
102
RTVSPropertyOp36
 70
     1
102
RTVSPropertyOp37
 70
     1
102
RTVSPropertyOp38
 70
     1
102
RTVSPropertyOp39
 70
     1
102
RTVSPropertyOp40
 70
     1
102
RTVSPropertyOp41
 70
     1
102
RTVSPropertyOp42
 70
     1
102
RTVSPropertyOp43
 70
     1
102
RTVSPropertyOp44
 70
     1
102
RTVSPropertyOp45
 70
     1
102
RTVSPropertyOp46
 70
     1
102
RTVSPropertyOp47
 70
     1
102
RTVSPropertyOp48
 70
     1
102
RTVSPropertyOp49
 70
     1
102
RTVSPropertyOp50
 70
     1
102
RTVSPropertyOp51
 70
     0
102
RTVSPropertyOp52
 70
     0
102
RTVSPropertyOp53
 70
     1
102
RTVSPropertyOp54
 70
     1
102
RTVSPropertyOp55
 70
     1
102
RTVSPropertyOp56
 70
     1
102
RTVSPropertyOp57
 70
     1
102
RTVSPropertyOp58
 70
     1
102
RTVSPropertyOp59
 70
     1
102
RTVSPropertyOp60
 70
     1
102
RTVSPropertyOp61
 70
     1
102
RTVSPropertyOp62
 70
     1
  0
XRECORD
  5
1B9C8
102
{ACAD_REACTORS
330
1B9C7
102
}
330
1B9C7
100
AcDbXrecord
280
     1
102
RTVSPost2010Prop28
280
     0
102
RTVSPost2010PropOp28
 70
     1
102
RTVSPost2010Prop29
280
     1
102
RTVSPost2010PropOp29
 70
     1
102
RTVSPost2010Prop30
280
     1
102
RTVSPost2010PropOp30
 70
     1
102
RTVSPost2010Prop31
280
     0
102
RTVSPost2010PropOp31
 70
     1
102
RTVSPost2010Prop32
280
     0
102
RTVSPost2010PropOp32
 70
     1
102
RTVSPost2010Prop33
280
     0
102
RTVSPost2010PropOp33
 70
     1
102
RTVSPost2010Prop34
280
     0
102
RTVSPost2010PropOp34
 70
     1
102
RTVSPost2010Prop35
280
     0
102
RTVSPost2010PropOp35
 70
     1
102
RTVSPost2010Prop36
280
     0
102
RTVSPost2010PropOp36
 70
     1
102
RTVSPost2010Prop37
 90
       50
102
RTVSPost2010PropOp37
 70
     1
102
RTVSPost2010Prop38
140
0.0
102
RTVSPost2010PropOp38
 70
     1
102
RTVSPost2010Prop39
140
1.0
102
RTVSPost2010PropOp39
 70
     1
102
RTVSPost2010Prop40
 90
        0
102
RTVSPost2010PropOp40
 70
     1
102
RTVSPost2010Prop41ColorIndex
 90
       18
102
RTVSPost2010Prop41ColorRGB
 90
        0
102
RTVSPost2010PropOp41
 70
     1
102
RTVSPost2010Prop42
 90
       50
102
RTVSPost2010PropOp42
 70
     1
102
RTVSPost2010Prop43
 90
        3
102
RTVSPost2010PropOp43
 70
     1
102
RTVSPost2010Prop44ColorIndex
 90
        5
102
RTVSPost2010Prop44ColorRGB
 90
      255
102
RTVSPost2010PropOp44
 70
     1
102
RTVSPost2010Prop45
280
     0
102
RTVSPost2010PropOp45
 70
     1
102
RTVSPost2010Prop46
 90
       50
102
RTVSPost2010PropOp46
 70
     1
102
RTVSPost2010Prop47
 90
       50
102
RTVSPost2010PropOp47
 70
     1
102
RTVSPost2010Prop48
 90
       50
102
RTVSPost2010PropOp48
 70
     1
102
RTVSPost2010Prop49
280
     0
102
RTVSPost2010PropOp49
 70
     1
102
RTVSPost2010Prop50
 90
       50
102
RTVSPost2010PropOp50
 70
     1
102
RTVSPost2010Prop51ColorIndex
 90
      256
102
RTVSPost2010Prop51ColorRGB
 90
-16777216
102
RTVSPost2010PropOp51
 70
     0
102
RTVSPost2010Prop52
140
1.0
102
RTVSPost2010PropOp52
 70
     0
102
RTVSPost2010Prop53
 90
        2
102
RTVSPost2010PropOp53
 70
     1
102
RTVSPost2010Prop54
  1
strokes_ogs.tif
102
RTVSPost2010PropOp54
 70
     1
102
RTVSPost2010Prop55
280
     0
102
RTVSPost2010PropOp55
 70
     1
102
RTVSPost2010Prop56
140
1.0
102
RTVSPost2010PropOp56
 70
     1
102
RTVSPost2010Prop57
140
1.0
102
RTVSPost2010PropOp57
 70
     1
102
RTVSPropertyOp0
 70
     1
102
RTVSPropertyOp1
 70
     1
102
RTVSPropertyOp2
 70
     1
102
RTVSPropertyOp3
 70
     1
102
RTVSPropertyOp4
 70
     1
102
RTVSPropertyOp5
 70
     1
102
RTVSPropertyOp6
 70
     1
102
RTVSPropertyOp7
 70
     1
102
RTVSPropertyOp8
 70
     1
102
RTVSPropertyOp9
 70
     1
102
RTVSPropertyOp10
 70
     1
102
RTVSPropertyOp11
 70
     1
102
RTVSPropertyOp12
 70
     1
102
RTVSPropertyOp13
 70
     1
102
RTVSPropertyOp14
 70
     1
102
RTVSPropertyOp15
 70
     1
102
RTVSPropertyOp16
 70
     1
102
RTVSPropertyOp17
 70
     1
102
RTVSPropertyOp18
 70
     1
102
RTVSPropertyOp19
 70
     1
102
RTVSPropertyOp20
 70
     1
102
RTVSPropertyOp21
 70
     1
102
RTVSPropertyOp22
 70
     1
102
RTVSPropertyOp23
 70
     1
102
RTVSPropertyOp24
 70
     1
102
RTVSPropertyOp25
 70
     1
102
RTVSPropertyOp26
 70
     1
102
RTVSPropertyOp27
 70
     1
102
RTVSPropertyOp28
 70
     1
102
RTVSPropertyOp29
 70
     1
102
RTVSPropertyOp30
 70
     1
102
RTVSPropertyOp31
 70
     1
102
RTVSPropertyOp32
 70
     1
102
RTVSPropertyOp33
 70
     1
102
RTVSPropertyOp34
 70
     1
102
RTVSPropertyOp35
 70
     1
102
RTVSPropertyOp36
 70
     1
102
RTVSPropertyOp37
 70
     1
102
RTVSPropertyOp38
 70
     1
102
RTVSPropertyOp39
 70
     1
102
RTVSPropertyOp40
 70
     1
102
RTVSPropertyOp41
 70
     1
102
RTVSPropertyOp42
 70
     1
102
RTVSPropertyOp43
 70
     1
102
RTVSPropertyOp44
 70
     1
102
RTVSPropertyOp45
 70
     1
102
RTVSPropertyOp46
 70
     1
102
RTVSPropertyOp47
 70
     1
102
RTVSPropertyOp48
 70
     1
102
RTVSPropertyOp49
 70
     1
102
RTVSPropertyOp50
 70
     1
102
RTVSPropertyOp51
 70
     0
102
RTVSPropertyOp52
 70
     0
102
RTVSPropertyOp53
 70
     1
102
RTVSPropertyOp54
 70
     1
102
RTVSPropertyOp55
 70
     1
102
RTVSPropertyOp56
 70
     1
102
RTVSPropertyOp57
 70
     1
102
RTVSPropertyOp58
 70
     1
102
RTVSPropertyOp59
 70
     1
102
RTVSPropertyOp60
 70
     1
102
RTVSPropertyOp61
 70
     1
102
RTVSPropertyOp62
 70
     1
  0
XRECORD
  5
1B9BC
102
{ACAD_REACTORS
330
1B9BB
102
}
330
1B9BB
100
AcDbXrecord
280
     1
102
RTVSPost2010Prop28
280
     0
102
RTVSPost2010PropOp28
 70
     1
102
RTVSPost2010Prop29
280
     1
102
RTVSPost2010PropOp29
 70
     1
102
RTVSPost2010Prop30
280
     1
102
RTVSPost2010PropOp30
 70
     1
102
RTVSPost2010Prop31
280
     0
102
RTVSPost2010PropOp31
 70
     1
102
RTVSPost2010Prop32
280
     0
102
RTVSPost2010PropOp32
 70
     1
102
RTVSPost2010Prop33
280
     0
102
RTVSPost2010PropOp33
 70
     1
102
RTVSPost2010Prop34
280
     0
102
RTVSPost2010PropOp34
 70
     1
102
RTVSPost2010Prop35
280
     0
102
RTVSPost2010PropOp35
 70
     1
102
RTVSPost2010Prop36
280
     0
102
RTVSPost2010PropOp36
 70
     1
102
RTVSPost2010Prop37
 90
       50
102
RTVSPost2010PropOp37
 70
     1
102
RTVSPost2010Prop38
140
0.0
102
RTVSPost2010PropOp38
 70
     1
102
RTVSPost2010Prop39
140
1.0
102
RTVSPost2010PropOp39
 70
     1
102
RTVSPost2010Prop40
 90
        0
102
RTVSPost2010PropOp40
 70
     1
102
RTVSPost2010Prop41ColorIndex
 90
       18
102
RTVSPost2010Prop41ColorRGB
 90
        0
102
RTVSPost2010PropOp41
 70
     1
102
RTVSPost2010Prop42
 90
       50
102
RTVSPost2010PropOp42
 70
     1
102
RTVSPost2010Prop43
 90
        3
102
RTVSPost2010PropOp43
 70
     1
102
RTVSPost2010Prop44ColorIndex
 90
        5
102
RTVSPost2010Prop44ColorRGB
 90
      255
102
RTVSPost2010PropOp44
 70
     1
102
RTVSPost2010Prop45
280
     0
102
RTVSPost2010PropOp45
 70
     1
102
RTVSPost2010Prop46
 90
       50
102
RTVSPost2010PropOp46
 70
     1
102
RTVSPost2010Prop47
 90
       50
102
RTVSPost2010PropOp47
 70
     1
102
RTVSPost2010Prop48
 90
       50
102
RTVSPost2010PropOp48
 70
     1
102
RTVSPost2010Prop49
280
     0
102
RTVSPost2010PropOp49
 70
     1
102
RTVSPost2010Prop50
 90
       50
102
RTVSPost2010PropOp50
 70
     1
102
RTVSPost2010Prop51ColorIndex
 90
      256
102
RTVSPost2010Prop51ColorRGB
 90
-16777216
102
RTVSPost2010PropOp51
 70
     0
102
RTVSPost2010Prop52
140
1.0
102
RTVSPost2010PropOp52
 70
     0
102
RTVSPost2010Prop53
 90
        2
102
RTVSPost2010PropOp53
 70
     1
102
RTVSPost2010Prop54
  1
strokes_ogs.tif
102
RTVSPost2010PropOp54
 70
     1
102
RTVSPost2010Prop55
280
     0
102
RTVSPost2010PropOp55
 70
     1
102
RTVSPost2010Prop56
140
1.0
102
RTVSPost2010PropOp56
 70
     1
102
RTVSPost2010Prop57
140
1.0
102
RTVSPost2010PropOp57
 70
     1
102
RTVSPropertyOp0
 70
     1
102
RTVSPropertyOp1
 70
     1
102
RTVSPropertyOp2
 70
     1
102
RTVSPropertyOp3
 70
     1
102
RTVSPropertyOp4
 70
     1
102
RTVSPropertyOp5
 70
     1
102
RTVSPropertyOp6
 70
     1
102
RTVSPropertyOp7
 70
     1
102
RTVSPropertyOp8
 70
     1
102
RTVSPropertyOp9
 70
     1
102
RTVSPropertyOp10
 70
     1
102
RTVSPropertyOp11
 70
     1
102
RTVSPropertyOp12
 70
     1
102
RTVSPropertyOp13
 70
     1
102
RTVSPropertyOp14
 70
     1
102
RTVSPropertyOp15
 70
     1
102
RTVSPropertyOp16
 70
     1
102
RTVSPropertyOp17
 70
     1
102
RTVSPropertyOp18
 70
     1
102
RTVSPropertyOp19
 70
     1
102
RTVSPropertyOp20
 70
     1
102
RTVSPropertyOp21
 70
     1
102
RTVSPropertyOp22
 70
     1
102
RTVSPropertyOp23
 70
     1
102
RTVSPropertyOp24
 70
     1
102
RTVSPropertyOp25
 70
     1
102
RTVSPropertyOp26
 70
     1
102
RTVSPropertyOp27
 70
     1
102
RTVSPropertyOp28
 70
     1
102
RTVSPropertyOp29
 70
     1
102
RTVSPropertyOp30
 70
     1
102
RTVSPropertyOp31
 70
     1
102
RTVSPropertyOp32
 70
     1
102
RTVSPropertyOp33
 70
     1
102
RTVSPropertyOp34
 70
     1
102
RTVSPropertyOp35
 70
     1
102
RTVSPropertyOp36
 70
     1
102
RTVSPropertyOp37
 70
     1
102
RTVSPropertyOp38
 70
     1
102
RTVSPropertyOp39
 70
     1
102
RTVSPropertyOp40
 70
     1
102
RTVSPropertyOp41
 70
     1
102
RTVSPropertyOp42
 70
     1
102
RTVSPropertyOp43
 70
     1
102
RTVSPropertyOp44
 70
     1
102
RTVSPropertyOp45
 70
     1
102
RTVSPropertyOp46
 70
     1
102
RTVSPropertyOp47
 70
     1
102
RTVSPropertyOp48
 70
     1
102
RTVSPropertyOp49
 70
     1
102
RTVSPropertyOp50
 70
     1
102
RTVSPropertyOp51
 70
     0
102
RTVSPropertyOp52
 70
     0
102
RTVSPropertyOp53
 70
     1
102
RTVSPropertyOp54
 70
     1
102
RTVSPropertyOp55
 70
     1
102
RTVSPropertyOp56
 70
     1
102
RTVSPropertyOp57
 70
     1
102
RTVSPropertyOp58
 70
     1
102
RTVSPropertyOp59
 70
     1
102
RTVSPropertyOp60
 70
     1
102
RTVSPropertyOp61
 70
     1
102
RTVSPropertyOp62
 70
     1
  0
XRECORD
  5
1B9D4
102
{ACAD_REACTORS
330
1B9D3
102
}
330
1B9D3
100
AcDbXrecord
280
     1
102
RTVSPost2010Prop28
280
     0
102
RTVSPost2010PropOp28
 70
     1
102
RTVSPost2010Prop29
280
     1
102
RTVSPost2010PropOp29
 70
     1
102
RTVSPost2010Prop30
280
     1
102
RTVSPost2010PropOp30
 70
     1
102
RTVSPost2010Prop31
280
     0
102
RTVSPost2010PropOp31
 70
     1
102
RTVSPost2010Prop32
280
     0
102
RTVSPost2010PropOp32
 70
     1
102
RTVSPost2010Prop33
280
     0
102
RTVSPost2010PropOp33
 70
     1
102
RTVSPost2010Prop34
280
     0
102
RTVSPost2010PropOp34
 70
     1
102
RTVSPost2010Prop35
280
     0
102
RTVSPost2010PropOp35
 70
     1
102
RTVSPost2010Prop36
280
     0
102
RTVSPost2010PropOp36
 70
     1
102
RTVSPost2010Prop37
 90
       50
102
RTVSPost2010PropOp37
 70
     1
102
RTVSPost2010Prop38
140
0.0
102
RTVSPost2010PropOp38
 70
     1
102
RTVSPost2010Prop39
140
1.0
102
RTVSPost2010PropOp39
 70
     1
102
RTVSPost2010Prop40
 90
        0
102
RTVSPost2010PropOp40
 70
     1
102
RTVSPost2010Prop41ColorIndex
 90
       18
102
RTVSPost2010Prop41ColorRGB
 90
        0
102
RTVSPost2010PropOp41
 70
     1
102
RTVSPost2010Prop42
 90
       50
102
RTVSPost2010PropOp42
 70
     1
102
RTVSPost2010Prop43
 90
        3
102
RTVSPost2010PropOp43
 70
     1
102
RTVSPost2010Prop44ColorIndex
 90
        5
102
RTVSPost2010Prop44ColorRGB
 90
      255
102
RTVSPost2010PropOp44
 70
     1
102
RTVSPost2010Prop45
280
     0
102
RTVSPost2010PropOp45
 70
     1
102
RTVSPost2010Prop46
 90
       50
102
RTVSPost2010PropOp46
 70
     1
102
RTVSPost2010Prop47
 90
       50
102
RTVSPost2010PropOp47
 70
     1
102
RTVSPost2010Prop48
 90
       50
102
RTVSPost2010PropOp48
 70
     1
102
RTVSPost2010Prop49
280
     0
102
RTVSPost2010PropOp49
 70
     1
102
RTVSPost2010Prop50
 90
       50
102
RTVSPost2010PropOp50
 70
     1
102
RTVSPost2010Prop51ColorIndex
 90
      256
102
RTVSPost2010Prop51ColorRGB
 90
-16777216
102
RTVSPost2010PropOp51
 70
     0
102
RTVSPost2010Prop52
140
1.0
102
RTVSPost2010PropOp52
 70
     0
102
RTVSPost2010Prop53
 90
        2
102
RTVSPost2010PropOp53
 70
     1
102
RTVSPost2010Prop54
  1
strokes_ogs.tif
102
RTVSPost2010PropOp54
 70
     1
102
RTVSPost2010Prop55
280
     0
102
RTVSPost2010PropOp55
 70
     1
102
RTVSPost2010Prop56
140
1.0
102
RTVSPost2010PropOp56
 70
     1
102
RTVSPost2010Prop57
140
1.0
102
RTVSPost2010PropOp57
 70
     1
102
RTVSPropertyOp0
 70
     1
102
RTVSPropertyOp1
 70
     1
102
RTVSPropertyOp2
 70
     1
102
RTVSPropertyOp3
 70
     1
102
RTVSPropertyOp4
 70
     1
102
RTVSPropertyOp5
 70
     1
102
RTVSPropertyOp6
 70
     1
102
RTVSPropertyOp7
 70
     1
102
RTVSPropertyOp8
 70
     1
102
RTVSPropertyOp9
 70
     1
102
RTVSPropertyOp10
 70
     1
102
RTVSPropertyOp11
 70
     1
102
RTVSPropertyOp12
 70
     1
102
RTVSPropertyOp13
 70
     1
102
RTVSPropertyOp14
 70
     1
102
RTVSPropertyOp15
 70
     1
102
RTVSPropertyOp16
 70
     1
102
RTVSPropertyOp17
 70
     1
102
RTVSPropertyOp18
 70
     1
102
RTVSPropertyOp19
 70
     1
102
RTVSPropertyOp20
 70
     1
102
RTVSPropertyOp21
 70
     1
102
RTVSPropertyOp22
 70
     1
102
RTVSPropertyOp23
 70
     1
102
RTVSPropertyOp24
 70
     1
102
RTVSPropertyOp25
 70
     1
102
RTVSPropertyOp26
 70
     1
102
RTVSPropertyOp27
 70
     1
102
RTVSPropertyOp28
 70
     1
102
RTVSPropertyOp29
 70
     1
102
RTVSPropertyOp30
 70
     1
102
RTVSPropertyOp31
 70
     1
102
RTVSPropertyOp32
 70
     1
102
RTVSPropertyOp33
 70
     1
102
RTVSPropertyOp34
 70
     1
102
RTVSPropertyOp35
 70
     1
102
RTVSPropertyOp36
 70
     1
102
RTVSPropertyOp37
 70
     1
102
RTVSPropertyOp38
 70
     1
102
RTVSPropertyOp39
 70
     1
102
RTVSPropertyOp40
 70
     1
102
RTVSPropertyOp41
 70
     1
102
RTVSPropertyOp42
 70
     1
102
RTVSPropertyOp43
 70
     1
102
RTVSPropertyOp44
 70
     1
102
RTVSPropertyOp45
 70
     1
102
RTVSPropertyOp46
 70
     1
102
RTVSPropertyOp47
 70
     1
102
RTVSPropertyOp48
 70
     1
102
RTVSPropertyOp49
 70
     1
102
RTVSPropertyOp50
 70
     1
102
RTVSPropertyOp51
 70
     0
102
RTVSPropertyOp52
 70
     0
102
RTVSPropertyOp53
 70
     1
102
RTVSPropertyOp54
 70
     1
102
RTVSPropertyOp55
 70
     1
102
RTVSPropertyOp56
 70
     1
102
RTVSPropertyOp57
 70
     1
102
RTVSPropertyOp58
 70
     1
102
RTVSPropertyOp59
 70
     1
102
RTVSPropertyOp60
 70
     1
102
RTVSPropertyOp61
 70
     1
102
RTVSPropertyOp62
 70
     1
  0
ENDSEC
  0
EOF
