  0
SECTION
  2
HEADER
  9
$ACADVER
  1
AC1015
  9
$ACADMAINTVER
 70
    20
  9
$DWGCODEPAGE
  3
ANSI_932
  9
$INSBASE
 10
0.0
 20
0.0
 30
0.0
  9
$EXTMIN
 10
10.0
 20
9.999999999999998
 30
0.0
  9
$EXTMAX
 10
459.6375039999998
 20
331.5054979999998
 30
0.0
  9
$LIMMIN
 10
0.0
 20
0.0
  9
$LIMMAX
 10
495.0
 20
341.25
  9
$ORTHOMODE
 70
     1
  9
$REGENMODE
 70
     1
  9
$FILLMODE
 70
     1
  9
$QTEXTMODE
 70
     0
  9
$MIRRTEXT
 70
     1
  9
$LTSCALE
 40
20.0
  9
$ATTMODE
 70
     1
  9
$TEXTSIZE
 40
5.0
  9
$TRACEWID
 40
1.0
  9
$TEXTSTYLE
  7
STANDARD
  9
$CLAYER
  8
0
  9
$CELTYPE
  6
BYLAYER
  9
$CECOLOR
 62
   256
  9
$CELTSCALE
 40
1.0
  9
$DISPSILH
 70
     0
  9
$DIMSCALE
 40
1.0
  9
$DIMASZ
 40
3.0
  9
$DIMEXO
 40
1.0
  9
$DIMDLI
 40
10.0
  9
$DIMRND
 40
0.0
  9
$DIMDLE
 40
0.0
  9
$DIMEXE
 40
1.0
  9
$DIMTP
 40
0.0
  9
$DIMTM
 40
0.0
  9
$DIMTXT
 40
3.2
  9
$DIMCEN
 40
0.0
  9
$DIMTSZ
 40
0.0
  9
$DIMTOL
 70
     0
  9
$DIMLIM
 70
     0
  9
$DIMTIH
 70
     0
  9
$DIMTOH
 70
     0
  9
$DIMSE1
 70
     0
  9
$DIMSE2
 70
     0
  9
$DIMTAD
 70
     3
  9
$DIMZIN
 70
     8
  9
$DIMBLK
  1

  9
$DIMASO
 70
     1
  9
$DIMSHO
 70
     1
  9
$DIMPOST
  1

  9
$DIMAPOST
  1

  9
$DIMALT
 70
     0
  9
$DIMALTD
 70
     2
  9
$DIMALTF
 40
25.4
  9
$DIMLFAC
 40
1.0
  9
$DIMTOFL
 70
     1
  9
$DIMTVP
 40
0.0
  9
$DIMTIX
 70
     0
  9
$DIMSOXD
 70
     0
  9
$DIMSAH
 70
     1
  9
$DIMBLK1
  1
OPEN
  9
$DIMBLK2
  1
OPEN
  9
$DIMSTYLE
  2
STANDARD
  9
$DIMCLRD
 70
     0
  9
$DIMCLRE
 70
     0
  9
$DIMCLRT
 70
     0
  9
$DIMTFAC
 40
1.0
  9
$DIMGAP
 40
1.0
  9
$DIMJUST
 70
     0
  9
$DIMSD1
 70
     0
  9
$DIMSD2
 70
     0
  9
$DIMTOLJ
 70
     1
  9
$DIMTZIN
 70
     0
  9
$DIMALTZ
 70
     0
  9
$DIMALTTZ
 70
     0
  9
$DIMUPT
 70
     0
  9
$DIMDEC
 70
     4
  9
$DIMTDEC
 70
     4
  9
$DIMALTU
 70
     2
  9
$DIMALTTD
 70
     2
  9
$DIMTXSTY
  7
STANDARD
  9
$DIMAUNIT
 70
     0
  9
$DIMADEC
 70
     0
  9
$DIMALTRND
 40
0.0
  9
$DIMAZIN
 70
     0
  9
$DIMDSEP
 70
    46
  9
$DIMATFIT
 70
     3
  9
$DIMFRAC
 70
     0
  9
$DIMLDRBLK
  1
OPEN
  9
$DIMLUNIT
 70
     2
  9
$DIMLWD
 70
    -2
  9
$DIMLWE
 70
    -2
  9
$DIMTMOVE
 70
     0
  9
$LUNITS
 70
     2
  9
$LUPREC
 70
     4
  9
$SKETCHINC
 40
1.0
  9
$FILLETRAD
 40
1.0
  9
$AUNITS
 70
     0
  9
$AUPREC
 70
     2
  9
$MENU
  1
.
  9
$ELEVATION
 40
0.0
  9
$PELEVATION
 40
0.0
  9
$THICKNESS
 40
0.0
  9
$LIMCHECK
 70
     0
  9
$CHAMFERA
 40
10.0
  9
$CHAMFERB
 40
10.0
  9
$CHAMFERC
 40
0.0
  9
$CHAMFERD
 40
0.0
  9
$SKPOLY
 70
     0
  9
$TDCREATE
 40
2451302.629449306
  9
$TDUCREATE
 40
2451302.254449306
  9
$TDUPDATE
 40
2457192.687190718
  9
$TDUUPDATE
 40
2457192.312190718
  9
$TDINDWG
 40
0.0000136227
  9
$TDUSRTIMER
 40
0.0000131366
  9
$USRTIMER
 70
     1
  9
$ANGBASE
 50
0.0
  9
$ANGDIR
 70
     0
  9
$PDMODE
 70
     0
  9
$PDSIZE
 40
0.0
  9
$PLINEWID
 40
0.0
  9
$SPLFRAME
 70
     0
  9
$SPLINETYPE
 70
     6
  9
$SPLINESEGS
 70
     8
  9
$HANDSEED
  5
B52C
  9
$SURFTAB1
 70
     6
  9
$SURFTAB2
 70
     6
  9
$SURFTYPE
 70
     6
  9
$SURFU
 70
     6
  9
$SURFV
 70
     6
  9
$UCSBASE
  2

  9
$UCSNAME
  2

  9
$UCSORG
 10
0.0
 20
0.0
 30
0.0
  9
$UCSXDIR
 10
1.0
 20
0.0
 30
0.0
  9
$UCSYDIR
 10
0.0
 20
1.0
 30
0.0
  9
$UCSORTHOREF
  2

  9
$UCSORTHOVIEW
 70
     0
  9
$UCSORGTOP
 10
0.0
 20
0.0
 30
0.0
  9
$UCSORGBOTTOM
 10
0.0
 20
0.0
 30
0.0
  9
$UCSORGLEFT
 10
0.0
 20
0.0
 30
0.0
  9
$UCSORGRIGHT
 10
0.0
 20
0.0
 30
0.0
  9
$UCSORGFRONT
 10
0.0
 20
0.0
 30
0.0
  9
$UCSORGBACK
 10
0.0
 20
0.0
 30
0.0
  9
$PUCSBASE
  2

  9
$PUCSNAME
  2

  9
$PUCSORG
 10
0.0
 20
0.0
 30
0.0
  9
$PUCSXDIR
 10
1.0
 20
0.0
 30
0.0
  9
$PUCSYDIR
 10
0.0
 20
1.0
 30
0.0
  9
$PUCSORTHOREF
  2

  9
$PUCSORTHOVIEW
 70
     0
  9
$PUCSORGTOP
 10
0.0
 20
0.0
 30
0.0
  9
$PUCSORGBOTTOM
 10
0.0
 20
0.0
 30
0.0
  9
$PUCSORGLEFT
 10
0.0
 20
0.0
 30
0.0
  9
$PUCSORGRIGHT
 10
0.0
 20
0.0
 30
0.0
  9
$PUCSORGFRONT
 10
0.0
 20
0.0
 30
0.0
  9
$PUCSORGBACK
 10
0.0
 20
0.0
 30
0.0
  9
$USERI1
 70
     0
  9
$USERI2
 70
     0
  9
$USERI3
 70
     0
  9
$USERI4
 70
     0
  9
$USERI5
 70
     0
  9
$USERR1
 40
0.0
  9
$USERR2
 40
0.0
  9
$USERR3
 40
0.0
  9
$USERR4
 40
0.0
  9
$USERR5
 40
0.0
  9
$WORLDVIEW
 70
     1
  9
$SHADEDGE
 70
     3
  9
$SHADEDIF
 70
    70
  9
$TILEMODE
 70
     1
  9
$MAXACTVP
 70
    16
  9
$PINSBASE
 10
0.0
 20
0.0
 30
0.0
  9
$PLIMCHECK
 70
     0
  9
$PEXTMIN
 10
1.000000000000000E+20
 20
1.000000000000000E+20
 30
1.000000000000000E+20
  9
$PEXTMAX
 10
-1.000000000000000E+20
 20
-1.000000000000000E+20
 30
-1.000000000000000E+20
  9
$PLIMMIN
 10
0.0
 20
0.0
  9
$PLIMMAX
 10
420.0
 20
297.0
  9
$UNITMODE
 70
     0
  9
$VISRETAIN
 70
     0
  9
$PLINEGEN
 70
     0
  9
$PSLTSCALE
 70
     0
  9
$TREEDEPTH
 70
  3020
  9
$CMLSTYLE
  2
STANDARD
  9
$CMLJUST
 70
     0
  9
$CMLSCALE
 40
1.0
  9
$PROXYGRAPHICS
 70
     1
  9
$MEASUREMENT
 70
     0
  9
$CELWEIGHT
370
    -1
  9
$ENDCAPS
280
     0
  9
$JOINSTYLE
280
     0
  9
$LWDISPLAY
290
     0
  9
$INSUNITS
 70
     0
  9
$HYPERLINKBASE
  1

  9
$STYLESHEET
  1

  9
$XEDIT
290
     1
  9
$CEPSNTYPE
380
     0
  9
$PSTYLEMODE
290
     1
  9
$FINGERPRINTGUID
  2
{573ACA53-83BE-4C2A-8BB4-9EFAE0B00FE3}
  9
$VERSIONGUID
  2
{B3EDD3FF-A315-4E27-A3A7-89753867C592}
  9
$EXTNAMES
290
     1
  9
$PSVPSCALE
 40
0.0
  9
$OLESTARTUP
290
     0
  0
ENDSEC
  0
SECTION
  2
CLASSES
  0
CLASS
  1
ACDBDICTIONARYWDFLT
  2
AcDbDictionaryWithDefault
  3
ObjectDBX Classes
 90
        0
280
     0
281
     0
  0
CLASS
  1
ACDBPLACEHOLDER
  2
AcDbPlaceHolder
  3
ObjectDBX Classes
 90
        0
280
     0
281
     0
  0
CLASS
  1
LAYOUT
  2
AcDbLayout
  3
ObjectDBX Classes
 90
        0
280
     0
281
     0
  0
CLASS
  1
DICTIONARYVAR
  2
AcDbDictionaryVar
  3
ObjectDBX Classes
 90
        0
280
     0
281
     0
  0
CLASS
  1
MATERIAL
  2
AcDbMaterial
  3
ObjectDBX Classes
 90
     1153
280
     0
281
     0
  0
CLASS
  1
VISUALSTYLE
  2
AcDbVisualStyle
  3
ObjectDBX Classes
 90
     4095
280
     0
281
     0
  0
CLASS
  1
TABLESTYLE
  2
AcDbTableStyle
  3
ObjectDBX Classes
 90
     4095
280
     0
281
     0
  0
CLASS
  1
SCALE
  2
AcDbScale
  3
ObjectDBX Classes
 90
     1153
280
     0
281
     0
  0
CLASS
  1
MLEADERSTYLE
  2
AcDbMLeaderStyle
  3
ACDB_MLEADERSTYLE_CLASS
 90
     4095
280
     0
281
     0
  0
CLASS
  1
ACDBSECTIONVIEWSTYLE
  2
AcDbSectionViewStyle
  3
ObjectDBX Classes
 90
     1025
280
     0
281
     0
  0
CLASS
  1
ACDBDETAILVIEWSTYLE
  2
AcDbDetailViewStyle
  3
ObjectDBX Classes
 90
     1025
280
     0
281
     0
  0
CLASS
  1
CELLSTYLEMAP
  2
AcDbCellStyleMap
  3
ObjectDBX Classes
 90
     1152
280
     0
281
     0
  0
ENDSEC
  0
SECTION
  2
TABLES
  0
TABLE
  2
VPORT
  5
AFCE
330
0
100
AcDbSymbolTable
 70
     1
  0
VPORT
  5
B475
330
AFCE
100
AcDbSymbolTableRecord
100
AcDbViewportTableRecord
  2
*ACTIVE
 70
     0
 10
0.0
 20
0.0
 11
1.0
 21
1.0
 12
332.2171468659061
 22
170.7551773388754
 13
0.0
 23
0.0
 14
10.0
 24
10.0
 15
10.0
 25
10.0
 16
0.0
 26
0.0
 36
1.0
 17
0.0
 27
0.0
 37
0.0
 40
325.0889488114631
 41
2.35006605019815
 42
50.0
 43
0.0
 44
0.0
 50
0.0
 51
0.0
 71
     0
 72
   100
 73
     1
 74
     0
 75
     0
 76
     0
 77
     0
 78
     0
281
     0
 65
     1
110
0.0
120
0.0
130
0.0
111
1.0
121
0.0
131
0.0
112
0.0
122
1.0
132
0.0
 79
     0
146
0.0
1001
ACAD_NAV_VCDISPLAY
1070
     3
  0
ENDTAB
  0
TABLE
  2
LTYPE
  5
AFCB
330
0
100
AcDbSymbolTable
 70
     4
  0
LTYPE
  5
AFD9
330
AFCB
100
AcDbSymbolTableRecord
100
AcDbLinetypeTableRecord
  2
BYBLOCK
 70
     0
  3

 72
    65
 73
     0
 40
0.0
  0
LTYPE
  5
AFDA
330
AFCB
100
AcDbSymbolTableRecord
100
AcDbLinetypeTableRecord
  2
BYLAYER
 70
     0
  3

 72
    65
 73
     0
 40
0.0
  0
LTYPE
  5
AFDB
330
AFCB
100
AcDbSymbolTableRecord
100
AcDbLinetypeTableRecord
  2
CONTINUOUS
 70
     0
  3
Solid line
 72
    65
 73
     0
 40
0.0
  0
LTYPE
  5
AFE9
330
AFCB
100
AcDbSymbolTableRecord
100
AcDbLinetypeTableRecord
  2
DASHED
 70
     0
  3
__ __ __ __ __ __ __ __ __ __ __ __ __ __ __ __
 72
    65
 73
     2
 40
0.75
 49
0.5
 74
     0
 49
-0.25
 74
     0
  0
LTYPE
  5
AFEA
330
AFCB
100
AcDbSymbolTableRecord
100
AcDbLinetypeTableRecord
  2
CENTER
 70
     0
  3
____ _ ____ _ ____ _ ____ _ ____ _ ____ _ ____ 
 72
    65
 73
     4
 40
2.0
 49
1.25
 74
     0
 49
-0.25
 74
     0
 49
0.25
 74
     0
 49
-0.25
 74
     0
  0
LTYPE
  5
AFEB
330
AFCB
100
AcDbSymbolTableRecord
100
AcDbLinetypeTableRecord
  2
PHANTOM
 70
     0
  3
______  __  __  ______  __  __  ______  __  __ 
 72
    65
 73
     6
 40
2.5
 49
1.25
 74
     0
 49
-0.25
 74
     0
 49
0.25
 74
     0
 49
-0.25
 74
     0
 49
0.25
 74
     0
 49
-0.25
 74
     0
  0
ENDTAB
  0
TABLE
  2
LAYER
  5
AFC8
330
0
100
AcDbSymbolTable
 70
     8
  0
LAYER
  5
AFD6
102
{ACAD_XDICTIONARY
360
B4D0
102
}
330
AFC8
100
AcDbSymbolTableRecord
100
AcDbLayerTableRecord
  2
0
 70
     0
 62
     7
  6
CONTINUOUS
370
    -3
390
B47E
  0
LAYER
  5
AFEC
102
{ACAD_XDICTIONARY
360
B4D2
102
}
330
AFC8
100
AcDbSymbolTableRecord
100
AcDbLayerTableRecord
  2
4
 70
     0
 62
     1
  6
CENTER
370
    -3
390
B47E
  0
LAYER
  5
AFED
102
{ACAD_XDICTIONARY
360
B4D4
102
}
330
AFC8
100
AcDbSymbolTableRecord
100
AcDbLayerTableRecord
  2
5
 70
     0
 62
     6
  6
PHANTOM
370
    -3
390
B47E
  0
LAYER
  5
AFEE
102
{ACAD_XDICTIONARY
360
B4D6
102
}
330
AFC8
100
AcDbSymbolTableRecord
100
AcDbLayerTableRecord
  2
1
 70
     0
 62
     7
  6
CONTINUOUS
370
    -3
390
B47E
  0
LAYER
  5
AFEF
102
{ACAD_XDICTIONARY
360
B4D8
102
}
330
AFC8
100
AcDbSymbolTableRecord
100
AcDbLayerTableRecord
  2
2
 70
     0
 62
     4
  6
CONTINUOUS
370
    -3
390
B47E
  0
LAYER
  5
AFF0
102
{ACAD_XDICTIONARY
360
B4DA
102
}
330
AFC8
100
AcDbSymbolTableRecord
100
AcDbLayerTableRecord
  2
3
 70
     0
 62
     2
  6
DASHED
370
    -3
390
B47E
  0
LAYER
  5
AFF1
102
{ACAD_XDICTIONARY
360
B4DC
102
}
330
AFC8
100
AcDbSymbolTableRecord
100
AcDbLayerTableRecord
  2
6
 70
     0
 62
     5
  6
CONTINUOUS
370
    -3
390
B47E
  0
LAYER
  5
AFF2
102
{ACAD_XDICTIONARY
360
B4DE
102
}
330
AFC8
100
AcDbSymbolTableRecord
100
AcDbLayerTableRecord
  2
7
 70
     0
 62
     3
  6
CONTINUOUS
370
    -3
390
B47E
  0
ENDTAB
  0
TABLE
  2
STYLE
  5
AFC9
330
0
100
AcDbSymbolTable
 70
     1
  0
STYLE
  5
AFD7
330
AFC9
100
AcDbSymbolTableRecord
100
AcDbTextStyleTableRecord
  2
STANDARD
 70
     0
 40
0.0
 41
1.0
 50
0.0
 71
     0
 42
5.0
  3
txt
  4

  0
ENDTAB
  0
TABLE
  2
VIEW
  5
AFCC
330
0
100
AcDbSymbolTable
 70
     0
  0
ENDTAB
  0
TABLE
  2
UCS
  5
AFCD
330
0
100
AcDbSymbolTable
 70
     0
  0
ENDTAB
  0
TABLE
  2
APPID
  5
AFCF
330
0
100
AcDbSymbolTable
 70
     3
  0
APPID
  5
AFD8
330
AFCF
100
AcDbSymbolTableRecord
100
AcDbRegAppTableRecord
  2
ACAD
 70
     0
  0
APPID
  5
B4EA
330
AFCF
100
AcDbSymbolTableRecord
100
AcDbRegAppTableRecord
  2
ACAD_NAV_VCDISPLAY
 70
     0
  0
APPID
  5
B523
330
AFCF
100
AcDbSymbolTableRecord
100
AcDbRegAppTableRecord
  2
ACAD_MLEADERVER
 70
     0
  0
ENDTAB
  0
TABLE
  2
DIMSTYLE
  5
AFD0
330
0
100
AcDbSymbolTable
 70
     1
100
AcDbDimStyleTable
 71
     0
  0
DIMSTYLE
105
AFF4
330
AFD0
100
AcDbSymbolTableRecord
100
AcDbDimStyleTableRecord
  2
STANDARD
 70
     0
 41
3.0
 42
1.0
 43
10.0
 44
1.0
 73
     0
 74
     0
 77
     3
 78
     8
140
3.2
141
0.0
147
1.0
172
     1
173
     1
284
     8
285
     8
286
     8
340
AFD7
  0
ENDTAB
  0
TABLE
  2
BLOCK_RECORD
  5
AFC7
330
0
100
AcDbSymbolTable
 70
     1
  0
BLOCK_RECORD
  5
AFE4
102
{ACAD_XDICTIONARY
360
B478
102
}
330
AFC7
100
AcDbSymbolTableRecord
100
AcDbBlockTableRecord
  2
*MODEL_SPACE
340
B4CC
  0
BLOCK_RECORD
  5
AFE0
102
{ACAD_XDICTIONARY
360
B476
102
}
330
AFC7
100
AcDbSymbolTableRecord
100
AcDbBlockTableRecord
  2
*PAPER_SPACE
340
B4CD
  0
BLOCK_RECORD
  5
AFFC
330
AFC7
100
AcDbSymbolTableRecord
100
AcDbBlockTableRecord
  2
_OPEN
340
0
  0
ENDTAB
  0
ENDSEC
  0
SECTION
  2
BLOCKS
  0
BLOCK
  5
AFE5
330
AFE4
100
AcDbEntity
  8
0
100
AcDbBlockBegin
  2
*MODEL_SPACE
 70
     0
 10
0.0
 20
0.0
 30
0.0
  3
*MODEL_SPACE
  1

  0
ENDBLK
  5
AFE6
330
AFE4
100
AcDbEntity
  8
0
100
AcDbBlockEnd
  0
BLOCK
  5
AFE1
330
AFE0
100
AcDbEntity
 67
     1
  8
0
100
AcDbBlockBegin
  2
*PAPER_SPACE
 70
     0
 10
0.0
 20
0.0
 30
0.0
  3
*PAPER_SPACE
  1

  0
ENDBLK
  5
AFE2
330
AFE0
100
AcDbEntity
 67
     1
  8
0
100
AcDbBlockEnd
  0
BLOCK
  5
AFFD
330
AFFC
100
AcDbEntity
  8
0
100
AcDbBlockBegin
  2
_OPEN
 70
     0
 10
0.0
 20
0.0
 30
0.0
  3
_OPEN
  1

  0
LINE
  5
AFFE
330
AFFC
100
AcDbEntity
  8
0
  6
ByBlock
 62
     0
100
AcDbLine
 10
-1.0
 20
0.166667
 30
0.0
 11
0.0
 21
0.0
 31
0.0
  0
LINE
  5
AFFF
330
AFFC
100
AcDbEntity
  8
0
  6
ByBlock
 62
     0
100
AcDbLine
 10
0.0
 20
0.0
 30
0.0
 11
-1.0
 21
-0.166667
 31
0.0
  0
LINE
  5
B000
330
AFFC
100
AcDbEntity
  8
0
  6
ByBlock
 62
     0
100
AcDbLine
 10
0.0
 20
0.0
 30
0.0
 11
-1.0
 21
0.0
 31
0.0
  0
ENDBLK
  5
B001
330
AFFC
100
AcDbEntity
  8
0
100
AcDbBlockEnd
  0
ENDSEC
  0
SECTION
  2
ENTITIES
  0
TEXT
  5
B002
330
AFE4
100
AcDbEntity
  8
7
  6
Continuous
100
AcDbText
 10
10.0
 20
18.0
 30
0.0
 40
3.0
  1
TYPE No.106S
100
AcDbText
  0
TEXT
  5
B003
330
AFE4
100
AcDbEntity
  8
7
  6
Continuous
100
AcDbText
 10
10.0
 20
26.0
 30
0.0
 40
3.0
  1
CODE No.9017
100
AcDbText
  0
TEXT
  5
B004
330
AFE4
100
AcDbEntity
  8
1
  6
Continuous
100
AcDbText
 10
10.0
 20
10.0
 30
0.0
 40
1.399999999999999
  1
LAYER
100
AcDbText
  0
TEXT
  5
B005
330
AFE4
100
AcDbEntity
  8
1
  6
Continuous
100
AcDbText
 10
17.97951099999998
 20
10.04873699999998
 30
0.0
 40
1.399999999999999
  1
1
100
AcDbText
  0
TEXT
  5
B006
330
AFE4
100
AcDbEntity
  8
7
  6
Continuous
100
AcDbText
 10
29.97951099999999
 20
10.04873699999998
 30
0.0
 40
1.399999999999999
  1
7
100
AcDbText
  0
TEXT
  5
B007
330
AFE4
100
AcDbEntity
  8
4
  6
CENTER
100
AcDbText
 10
23.97951099999999
 20
10.04873699999998
 30
0.0
 40
1.399999999999999
  1
4
100
AcDbText
  0
TEXT
  5
B008
330
AFE4
100
AcDbEntity
  8
3
  6
DASHED
100
AcDbText
 10
21.979511
 20
10.04873699999998
 30
0.0
 40
1.399999999999999
  1
3
100
AcDbText
  0
TEXT
  5
B009
330
AFE4
100
AcDbEntity
  8
2
  6
Continuous
100
AcDbText
 10
19.97951099999999
 20
10.04873699999998
 30
0.0
 40
1.399999999999999
  1
2
100
AcDbText
  0
TEXT
  5
B00A
330
AFE4
100
AcDbEntity
  8
6
  6
Continuous
100
AcDbText
 10
27.979511
 20
10.04873699999998
 30
0.0
 40
1.399999999999999
  1
6
100
AcDbText
  0
TEXT
  5
B00B
330
AFE4
100
AcDbEntity
  8
5
  6
PHANTOM
100
AcDbText
 10
25.97951099999999
 20
10.04873699999998
 30
0.0
 40
1.399999999999999
  1
5
100
AcDbText
  0
LINE
  5
B00C
330
AFE4
100
AcDbEntity
  8
4
  6
CENTER
100
AcDbLine
 10
206.1692469999999
 20
178.7334899999999
 30
0.0
 11
121.169247
 21
178.7334899999999
 31
0.0
  0
LINE
  5
B00D
330
AFE4
100
AcDbEntity
  8
4
  6
CENTER
100
AcDbLine
 10
163.6692469999998
 20
136.23349
 30
0.0
 11
163.6692469999998
 21
219.23349
 31
0.0
  0
LINE
  5
B00E
330
AFE4
100
AcDbEntity
  8
1
  6
Continuous
100
AcDbLine
 10
188.45846
 20
226.65849
 30
0.0
 11
190.0834599999998
 21
225.53349
 31
0.0
  0
LINE
  5
B00F
330
AFE4
100
AcDbEntity
  8
1
  6
Continuous
100
AcDbLine
 10
190.2942469999999
 20
226.65849
 30
0.0
 11
188.6692469999999
 21
225.53349
 31
0.0
  0
LINE
  5
B010
330
AFE4
100
AcDbEntity
  8
1
  6
Continuous
100
AcDbLine
 10
211.4614439999999
 20
229.8334899999999
 30
0.0
 11
165.8770499999999
 21
229.8334899999999
 31
0.0
  0
LINE
  5
B011
330
AFE4
100
AcDbEntity
  8
1
  6
Continuous
100
AcDbLine
 10
211.719247
 20
228.9584899999999
 30
0.0
 11
165.619247
 21
228.9584899999999
 31
0.0
  0
LINE
  5
B012
330
AFE4
100
AcDbEntity
  8
1
  6
Continuous
100
AcDbLine
 10
211.669247
 20
226.65849
 30
0.0
 11
165.6692469999998
 21
226.65849
 31
0.0
  0
LINE
  5
B013
330
AFE4
100
AcDbEntity
  8
1
  6
Continuous
100
AcDbLine
 10
223.669247
 20
234.2334899999999
 30
0.0
 11
153.669247
 21
234.2334899999999
 31
0.0
  0
LINE
  5
B014
330
AFE4
100
AcDbEntity
  8
1
  6
Continuous
100
AcDbLine
 10
223.669247
 20
231.9334899999998
 30
0.0
 11
153.669247
 21
231.9334899999998
 31
0.0
  0
LINE
  5
B015
330
AFE4
100
AcDbEntity
  8
1
  6
Continuous
100
AcDbLine
 10
211.669247
 20
225.53349
 30
0.0
 11
165.6692469999998
 21
225.53349
 31
0.0
  0
LINE
  5
B016
330
AFE4
100
AcDbEntity
  8
1
  6
Continuous
100
AcDbLine
 10
159.8047719999998
 20
220.9334899999999
 30
0.0
 11
156.6692469999999
 21
220.9334899999999
 31
0.0
  0
LINE
  5
B017
330
AFE4
100
AcDbEntity
  8
1
  6
Continuous
100
AcDbLine
 10
170.6692469999999
 20
223.23349
 30
0.0
 11
156.6692469999999
 21
223.23349
 31
0.0
  0
LINE
  5
B018
330
AFE4
100
AcDbEntity
  8
1
  6
Continuous
100
AcDbLine
 10
156.6692469999999
 20
223.23349
 30
0.0
 11
156.6692469999999
 21
220.9334899999999
 31
0.0
  0
LINE
  5
B019
330
AFE4
100
AcDbEntity
  8
1
  6
Continuous
100
AcDbLine
 10
153.669247
 20
234.2334899999999
 30
0.0
 11
153.669247
 21
231.9334899999998
 31
0.0
  0
LINE
  5
B01A
330
AFE4
100
AcDbEntity
  8
4
  6
CENTER
100
AcDbLine
 10
188.6692469999999
 20
239.2334899999999
 30
0.0
 11
188.6692469999999
 21
206.425602
 31
0.0
  0
LINE
  5
B01B
330
AFE4
100
AcDbEntity
  8
1
  6
Continuous
100
AcDbLine
 10
172.9021109999999
 20
226.65849
 30
0.0
 11
174.527111
 21
225.53349
 31
0.0
  0
LINE
  5
B01C
330
AFE4
100
AcDbEntity
  8
1
  6
Continuous
100
AcDbLine
 10
173.323684
 20
226.65849
 30
0.0
 11
171.6986839999999
 21
225.53349
 31
0.0
  0
LINE
  5
B01D
330
AFE4
100
AcDbEntity
  8
1
  6
Continuous
100
AcDbLine
 10
174.7378969999998
 20
226.65849
 30
0.0
 11
173.112897
 21
225.53349
 31
0.0
  0
ARC
  5
B01E
330
AFE4
100
AcDbEntity
  8
1
  6
Continuous
100
AcDbCircle
 10
167.3364369999999
 20
222.53349
 30
0.0
 40
3.0
100
AcDbArc
 50
90.0
 51
166.5066009999998
  0
ARC
  5
B01F
330
AFE4
100
AcDbEntity
  8
1
  6
Continuous
100
AcDbCircle
 10
165.8770499999999
 20
233.33349
 30
0.0
 40
3.5
100
AcDbArc
 50
203.578178
 51
270.0
  0
LINE
  5
B020
330
AFE4
100
AcDbEntity
  8
1
  6
Continuous
100
AcDbLine
 10
165.1192469999998
 20
228.1584899999999
 30
0.0
 11
165.619247
 21
228.9584899999999
 31
0.0
  0
LINE
  5
B021
330
AFE4
100
AcDbEntity
  8
1
  6
Continuous
100
AcDbLine
 10
168.65947
 20
226.65849
 30
0.0
 11
170.2844699999999
 21
225.53349
 31
0.0
  0
LINE
  5
B022
330
AFE4
100
AcDbEntity
  8
1
  6
Continuous
100
AcDbLine
 10
170.495257
 20
226.65849
 30
0.0
 11
168.870257
 21
225.53349
 31
0.0
  0
LINE
  5
B023
330
AFE4
100
AcDbEntity
  8
1
  6
Continuous
100
AcDbLine
 10
165.831043
 20
226.65849
 30
0.0
 11
167.4560429999999
 21
225.53349
 31
0.0
  0
LINE
  5
B024
330
AFE4
100
AcDbEntity
  8
1
  6
Continuous
100
AcDbLine
 10
167.245257
 20
226.65849
 30
0.0
 11
168.870257
 21
225.53349
 31
0.0
  0
LINE
  5
B025
330
AFE4
100
AcDbEntity
  8
1
  6
Continuous
100
AcDbLine
 10
165.6692469999998
 20
226.075121
 30
0.0
 11
166.2526159999998
 21
226.65849
 31
0.0
  0
LINE
  5
B026
330
AFE4
100
AcDbEntity
  8
1
  6
Continuous
100
AcDbLine
 10
167.66683
 20
226.65849
 30
0.0
 11
166.04183
 21
225.53349
 31
0.0
  0
LINE
  5
B027
330
AFE4
100
AcDbEntity
  8
1
  6
Continuous
100
AcDbLine
 10
169.0810429999999
 20
226.65849
 30
0.0
 11
167.4560429999999
 21
225.53349
 31
0.0
  0
LINE
  5
B028
330
AFE4
100
AcDbEntity
  8
1
  6
Continuous
100
AcDbLine
 10
165.6692469999998
 20
226.65849
 30
0.0
 11
165.6692469999998
 21
225.53349
 31
0.0
  0
LINE
  5
B029
330
AFE4
100
AcDbEntity
  8
1
  6
Continuous
100
AcDbLine
 10
166.019247
 20
226.65849
 30
0.0
 11
165.1192469999998
 21
228.1584899999999
 31
0.0
  0
LINE
  5
B02A
330
AFE4
100
AcDbEntity
  8
1
  6
Continuous
100
AcDbLine
 10
170.0736839999999
 20
226.65849
 30
0.0
 11
171.6986839999999
 21
225.53349
 31
0.0
  0
LINE
  5
B02B
330
AFE4
100
AcDbEntity
  8
1
  6
Continuous
100
AcDbLine
 10
171.487897
 20
226.65849
 30
0.0
 11
173.112897
 21
225.53349
 31
0.0
  0
LINE
  5
B02C
330
AFE4
100
AcDbEntity
  8
1
  6
Continuous
100
AcDbLine
 10
171.90947
 20
226.65849
 30
0.0
 11
170.2844699999999
 21
225.53349
 31
0.0
  0
ARC
  5
B02D
330
AFE4
100
AcDbEntity
  8
1
  6
Continuous
100
AcDbCircle
 10
171.9192469999999
 20
224.4839899999998
 30
0.0
 40
6.974499999999999
100
AcDbArc
 50
129.9139999999999
 51
140.0924019999999
  0
LINE
  5
B02E
330
AFE4
100
AcDbEntity
  8
1
  6
Continuous
100
AcDbLine
 10
179.9731789999999
 20
226.65849
 30
0.0
 11
181.598179
 21
225.53349
 31
0.0
  0
LINE
  5
B02F
330
AFE4
100
AcDbEntity
  8
1
  6
Continuous
100
AcDbLine
 10
181.3873919999998
 20
226.65849
 30
0.0
 11
183.012392
 21
225.53349
 31
0.0
  0
LINE
  5
B030
330
AFE4
100
AcDbEntity
  8
1
  6
Continuous
100
AcDbLine
 10
181.808965
 20
226.65849
 30
0.0
 11
180.1839649999998
 21
225.53349
 31
0.0
  0
LINE
  5
B031
330
AFE4
100
AcDbEntity
  8
1
  6
Continuous
100
AcDbLine
 10
177.144752
 20
226.65849
 30
0.0
 11
178.769752
 21
225.53349
 31
0.0
  0
LINE
  5
B032
330
AFE4
100
AcDbEntity
  8
1
  6
Continuous
100
AcDbLine
 10
177.566325
 20
226.65849
 30
0.0
 11
175.941325
 21
225.53349
 31
0.0
  0
LINE
  5
B033
330
AFE4
100
AcDbEntity
  8
1
  6
Continuous
100
AcDbLine
 10
178.9805379999999
 20
226.65849
 30
0.0
 11
177.3555379999999
 21
225.53349
 31
0.0
  0
LINE
  5
B034
330
AFE4
100
AcDbEntity
  8
1
  6
Continuous
100
AcDbLine
 10
174.316325
 20
226.65849
 30
0.0
 11
175.941325
 21
225.53349
 31
0.0
  0
LINE
  5
B035
330
AFE4
100
AcDbEntity
  8
1
  6
Continuous
100
AcDbLine
 10
175.730538
 20
226.65849
 30
0.0
 11
177.3555379999999
 21
225.53349
 31
0.0
  0
LINE
  5
B036
330
AFE4
100
AcDbEntity
  8
1
  6
Continuous
100
AcDbLine
 10
176.1521109999999
 20
226.65849
 30
0.0
 11
174.527111
 21
225.53349
 31
0.0
  0
LINE
  5
B037
330
AFE4
100
AcDbEntity
  8
1
  6
Continuous
100
AcDbLine
 10
178.558965
 20
226.65849
 30
0.0
 11
180.1839649999998
 21
225.53349
 31
0.0
  0
LINE
  5
B038
330
AFE4
100
AcDbEntity
  8
1
  6
Continuous
100
AcDbLine
 10
180.394752
 20
226.65849
 30
0.0
 11
178.769752
 21
225.53349
 31
0.0
  0
LINE
  5
B039
330
AFE4
100
AcDbEntity
  8
1
  6
Continuous
100
AcDbLine
 10
184.21582
 20
226.65849
 30
0.0
 11
185.84082
 21
225.53349
 31
0.0
  0
LINE
  5
B03A
330
AFE4
100
AcDbEntity
  8
1
  6
Continuous
100
AcDbLine
 10
186.0516059999999
 20
226.65849
 30
0.0
 11
184.4266059999999
 21
225.53349
 31
0.0
  0
LINE
  5
B03B
330
AFE4
100
AcDbEntity
  8
1
  6
Continuous
100
AcDbLine
 10
182.8016059999999
 20
226.65849
 30
0.0
 11
184.4266059999999
 21
225.53349
 31
0.0
  0
LINE
  5
B03C
330
AFE4
100
AcDbEntity
  8
1
  6
Continuous
100
AcDbLine
 10
183.2231789999999
 20
226.65849
 30
0.0
 11
181.598179
 21
225.53349
 31
0.0
  0
LINE
  5
B03D
330
AFE4
100
AcDbEntity
  8
1
  6
Continuous
100
AcDbLine
 10
184.6373919999998
 20
226.65849
 30
0.0
 11
183.012392
 21
225.53349
 31
0.0
  0
LINE
  5
B03E
330
AFE4
100
AcDbEntity
  8
1
  6
Continuous
100
AcDbLine
 10
185.630033
 20
226.65849
 30
0.0
 11
187.2550329999999
 21
225.53349
 31
0.0
  0
LINE
  5
B03F
330
AFE4
100
AcDbEntity
  8
1
  6
Continuous
100
AcDbLine
 10
187.044247
 20
226.65849
 30
0.0
 11
188.6692469999999
 21
225.53349
 31
0.0
  0
LINE
  5
B040
330
AFE4
100
AcDbEntity
  8
1
  6
Continuous
100
AcDbLine
 10
187.46582
 20
226.65849
 30
0.0
 11
185.84082
 21
225.53349
 31
0.0
  0
LINE
  5
B041
330
AFE4
100
AcDbEntity
  8
1
  6
Continuous
100
AcDbLine
 10
188.880033
 20
226.65849
 30
0.0
 11
187.2550329999999
 21
225.53349
 31
0.0
  0
ARC
  5
B042
330
AFE4
100
AcDbEntity
  8
1
  6
Continuous
100
AcDbCircle
 10
209.9878229999999
 20
222.071827
 30
0.0
 40
3.462340999999999
100
AcDbArc
 50
7.662535
 51
91.134876
  0
LINE
  5
B043
330
AFE4
100
AcDbEntity
  8
1
  6
Continuous
100
AcDbLine
 10
213.419247
 20
217.9334899999998
 30
0.0
 11
205.563346
 21
217.9334899999998
 31
0.0
  0
LINE
  5
B044
330
AFE4
100
AcDbEntity
  8
1
  6
Continuous
100
AcDbLine
 10
203.613618
 20
217.7419839999998
 30
0.0
 11
203.5692469999999
 21
217.67099
 31
0.0
  0
LINE
  5
B045
330
AFE4
100
AcDbEntity
  8
1
  6
Continuous
100
AcDbLine
 10
213.419247
 20
222.53349
 30
0.0
 11
213.419247
 21
217.9334899999998
 31
0.0
  0
LINE
  5
B046
330
AFE4
100
AcDbEntity
  8
1
  6
Continuous
100
AcDbLine
 10
205.4290229999998
 20
226.65849
 30
0.0
 11
207.054023
 21
225.53349
 31
0.0
  0
LINE
  5
B047
330
AFE4
100
AcDbEntity
  8
1
  6
Continuous
100
AcDbLine
 10
207.264809
 20
226.65849
 30
0.0
 11
205.639809
 21
225.53349
 31
0.0
  0
LINE
  5
B048
330
AFE4
100
AcDbEntity
  8
1
  6
Continuous
100
AcDbLine
 10
196.943742
 20
226.65849
 30
0.0
 11
198.5687419999999
 21
225.53349
 31
0.0
  0
LINE
  5
B049
330
AFE4
100
AcDbEntity
  8
1
  6
Continuous
100
AcDbLine
 10
198.779528
 20
226.65849
 30
0.0
 11
197.1545279999999
 21
225.53349
 31
0.0
  0
LINE
  5
B04A
330
AFE4
100
AcDbEntity
  8
1
  6
Continuous
100
AcDbLine
 10
192.701101
 20
226.65849
 30
0.0
 11
194.326101
 21
225.53349
 31
0.0
  0
LINE
  5
B04B
330
AFE4
100
AcDbEntity
  8
1
  6
Continuous
100
AcDbLine
 10
194.536887
 20
226.65849
 30
0.0
 11
192.911887
 21
225.53349
 31
0.0
  0
LINE
  5
B04C
330
AFE4
100
AcDbEntity
  8
1
  6
Continuous
100
AcDbLine
 10
191.286887
 20
226.65849
 30
0.0
 11
192.911887
 21
225.53349
 31
0.0
  0
LINE
  5
B04D
330
AFE4
100
AcDbEntity
  8
1
  6
Continuous
100
AcDbLine
 10
189.8726739999999
 20
226.65849
 30
0.0
 11
191.4976739999999
 21
225.53349
 31
0.0
  0
LINE
  5
B04E
330
AFE4
100
AcDbEntity
  8
1
  6
Continuous
100
AcDbLine
 10
193.1226739999999
 20
226.65849
 30
0.0
 11
191.4976739999999
 21
225.53349
 31
0.0
  0
LINE
  5
B04F
330
AFE4
100
AcDbEntity
  8
1
  6
Continuous
100
AcDbLine
 10
191.70846
 20
226.65849
 30
0.0
 11
190.0834599999998
 21
225.53349
 31
0.0
  0
LINE
  5
B050
330
AFE4
100
AcDbEntity
  8
1
  6
Continuous
100
AcDbLine
 10
195.5295279999999
 20
226.65849
 30
0.0
 11
197.1545279999999
 21
225.53349
 31
0.0
  0
LINE
  5
B051
330
AFE4
100
AcDbEntity
  8
1
  6
Continuous
100
AcDbLine
 10
194.1153139999999
 20
226.65849
 30
0.0
 11
195.7403139999999
 21
225.53349
 31
0.0
  0
LINE
  5
B052
330
AFE4
100
AcDbEntity
  8
1
  6
Continuous
100
AcDbLine
 10
197.3653139999999
 20
226.65849
 30
0.0
 11
195.7403139999999
 21
225.53349
 31
0.0
  0
LINE
  5
B053
330
AFE4
100
AcDbEntity
  8
1
  6
Continuous
100
AcDbLine
 10
195.9511009999999
 20
226.65849
 30
0.0
 11
194.326101
 21
225.53349
 31
0.0
  0
LINE
  5
B054
330
AFE4
100
AcDbEntity
  8
1
  6
Continuous
100
AcDbLine
 10
201.186382
 20
226.65849
 30
0.0
 11
202.811382
 21
225.53349
 31
0.0
  0
LINE
  5
B055
330
AFE4
100
AcDbEntity
  8
1
  6
Continuous
100
AcDbLine
 10
203.0221689999999
 20
226.65849
 30
0.0
 11
201.3971689999999
 21
225.53349
 31
0.0
  0
LINE
  5
B056
330
AFE4
100
AcDbEntity
  8
1
  6
Continuous
100
AcDbLine
 10
199.7721689999999
 20
226.65849
 30
0.0
 11
201.3971689999999
 21
225.53349
 31
0.0
  0
LINE
  5
B057
330
AFE4
100
AcDbEntity
  8
1
  6
Continuous
100
AcDbLine
 10
198.357955
 20
226.65849
 30
0.0
 11
199.982955
 21
225.53349
 31
0.0
  0
LINE
  5
B058
330
AFE4
100
AcDbEntity
  8
1
  6
Continuous
100
AcDbLine
 10
201.607955
 20
226.65849
 30
0.0
 11
199.982955
 21
225.53349
 31
0.0
  0
LINE
  5
B059
330
AFE4
100
AcDbEntity
  8
1
  6
Continuous
100
AcDbLine
 10
200.1937419999999
 20
226.65849
 30
0.0
 11
198.5687419999999
 21
225.53349
 31
0.0
  0
LINE
  5
B05A
330
AFE4
100
AcDbEntity
  8
1
  6
Continuous
100
AcDbLine
 10
204.014809
 20
226.65849
 30
0.0
 11
205.639809
 21
225.53349
 31
0.0
  0
LINE
  5
B05B
330
AFE4
100
AcDbEntity
  8
1
  6
Continuous
100
AcDbLine
 10
202.6005959999999
 20
226.65849
 30
0.0
 11
204.2255959999998
 21
225.53349
 31
0.0
  0
LINE
  5
B05C
330
AFE4
100
AcDbEntity
  8
1
  6
Continuous
100
AcDbLine
 10
205.850596
 20
226.65849
 30
0.0
 11
204.2255959999998
 21
225.53349
 31
0.0
  0
LINE
  5
B05D
330
AFE4
100
AcDbEntity
  8
1
  6
Continuous
100
AcDbLine
 10
204.436382
 20
226.65849
 30
0.0
 11
202.811382
 21
225.53349
 31
0.0
  0
ARC
  5
B05E
330
AFE4
100
AcDbEntity
  8
1
  6
Continuous
100
AcDbCircle
 10
211.4614439999999
 20
233.33349
 30
0.0
 40
3.5
100
AcDbArc
 50
270.0
 51
336.421822
  0
LINE
  5
B05F
330
AFE4
100
AcDbEntity
  8
1
  6
Continuous
100
AcDbLine
 10
212.219247
 20
228.1584899999999
 30
0.0
 11
211.719247
 21
228.9584899999999
 31
0.0
  0
LINE
  5
B060
330
AFE4
100
AcDbEntity
  8
1
  6
Continuous
100
AcDbLine
 10
209.6716639999999
 20
226.65849
 30
0.0
 11
211.2966639999999
 21
225.53349
 31
0.0
  0
LINE
  5
B061
330
AFE4
100
AcDbEntity
  8
1
  6
Continuous
100
AcDbLine
 10
211.5074499999999
 20
226.65849
 30
0.0
 11
209.88245
 21
225.53349
 31
0.0
  0
LINE
  5
B062
330
AFE4
100
AcDbEntity
  8
1
  6
Continuous
100
AcDbLine
 10
208.25745
 20
226.65849
 30
0.0
 11
209.88245
 21
225.53349
 31
0.0
  0
LINE
  5
B063
330
AFE4
100
AcDbEntity
  8
1
  6
Continuous
100
AcDbLine
 10
206.843236
 20
226.65849
 30
0.0
 11
208.4682359999999
 21
225.53349
 31
0.0
  0
LINE
  5
B064
330
AFE4
100
AcDbEntity
  8
1
  6
Continuous
100
AcDbLine
 10
210.0932359999999
 20
226.65849
 30
0.0
 11
208.4682359999999
 21
225.53349
 31
0.0
  0
LINE
  5
B065
330
AFE4
100
AcDbEntity
  8
1
  6
Continuous
100
AcDbLine
 10
208.679023
 20
226.65849
 30
0.0
 11
207.054023
 21
225.53349
 31
0.0
  0
LINE
  5
B066
330
AFE4
100
AcDbEntity
  8
1
  6
Continuous
100
AcDbLine
 10
211.085877
 20
226.65849
 30
0.0
 11
211.669247
 21
226.075121
 31
0.0
  0
LINE
  5
B067
330
AFE4
100
AcDbEntity
  8
1
  6
Continuous
100
AcDbLine
 10
211.669247
 20
225.4060729999999
 30
0.0
 11
211.2966639999999
 21
225.53349
 31
0.0
  0
LINE
  5
B068
330
AFE4
100
AcDbEntity
  8
1
  6
Continuous
100
AcDbLine
 10
211.669247
 20
226.65849
 30
0.0
 11
211.669247
 21
225.53349
 31
0.0
  0
LINE
  5
B069
330
AFE4
100
AcDbEntity
  8
1
  6
Continuous
100
AcDbLine
 10
211.3192469999999
 20
226.65849
 30
0.0
 11
212.219247
 21
228.1584899999999
 31
0.0
  0
ARC
  5
B06A
330
AFE4
100
AcDbEntity
  8
1
  6
Continuous
100
AcDbCircle
 10
205.4192469999999
 20
224.4839899999998
 30
0.0
 40
6.974499999999999
100
AcDbArc
 50
39.907598
 51
50.08600000000002
  0
LINE
  5
B06B
330
AFE4
100
AcDbEntity
  8
1
  6
Continuous
100
AcDbLine
 10
223.669247
 20
234.2334899999999
 30
0.0
 11
223.669247
 21
231.9334899999998
 31
0.0
  0
LINE
  5
B06C
330
AFE4
100
AcDbEntity
  8
4
  6
CENTER
100
AcDbLine
 10
228.9691719999999
 20
299.5054979999999
 30
0.0
 11
121.1692379999998
 21
299.5054979999999
 31
0.0
  0
CIRCLE
  5
B06D
330
AFE4
100
AcDbEntity
  8
1
  6
Continuous
100
AcDbCircle
 10
188.6691719999998
 20
299.5054979999999
 30
0.0
 40
20.89999999999999
  0
CIRCLE
  5
B06E
330
AFE4
100
AcDbEntity
  8
1
  6
Continuous
100
AcDbCircle
 10
188.6691719999998
 20
299.5054979999999
 30
0.0
 40
23.5
  0
CIRCLE
  5
B06F
330
AFE4
100
AcDbEntity
  8
1
  6
Continuous
100
AcDbCircle
 10
188.6691719999998
 20
299.5054979999999
 30
0.0
 40
11.9
  0
LINE
  5
B070
330
AFE4
100
AcDbEntity
  8
1
  6
Continuous
100
AcDbLine
 10
216.669172
 20
272.5054979999999
 30
0.0
 11
160.669172
 21
272.5054979999999
 31
0.0
  0
LINE
  5
B071
330
AFE4
100
AcDbEntity
  8
1
  6
Continuous
100
AcDbLine
 10
216.669172
 20
326.5054979999998
 30
0.0
 11
160.669172
 21
326.5054979999998
 31
0.0
  0
LINE
  5
B072
330
AFE4
100
AcDbEntity
  8
4
  6
CENTER
100
AcDbLine
 10
188.6691719999998
 20
267.505498
 30
0.0
 11
188.6691719999998
 21
331.5054979999998
 31
0.0
  0
LINE
  5
B073
330
AFE4
100
AcDbEntity
  8
1
  6
Continuous
100
AcDbLine
 10
153.669172
 20
279.5054979999998
 30
0.0
 11
153.669172
 21
319.505498
 31
0.0
  0
LINE
  5
B074
330
AFE4
100
AcDbEntity
  8
4
  6
CENTER
100
AcDbLine
 10
167.919172
 20
281.5054979999998
 30
0.0
 11
155.419172
 21
281.5054979999998
 31
0.0
  0
ARC
  5
B075
330
AFE4
100
AcDbEntity
  8
1
  6
Continuous
100
AcDbCircle
 10
160.669172
 20
279.5054979999998
 30
0.0
 40
7.0
100
AcDbArc
 50
180.0
 51
270.0
  0
LINE
  5
B076
330
AFE4
100
AcDbEntity
  8
4
  6
CENTER
100
AcDbLine
 10
161.669172
 20
275.2554979999998
 30
0.0
 11
161.669172
 21
287.7554979999998
 31
0.0
  0
CIRCLE
  5
B077
330
AFE4
100
AcDbEntity
  8
1
  6
Continuous
100
AcDbCircle
 10
161.669172
 20
281.5054979999998
 30
0.0
 40
3.25
  0
LINE
  5
B078
330
AFE4
100
AcDbEntity
  8
4
  6
CENTER
100
AcDbLine
 10
167.919172
 20
317.505498
 30
0.0
 11
155.419172
 21
317.505498
 31
0.0
  0
ARC
  5
B079
330
AFE4
100
AcDbEntity
  8
1
  6
Continuous
100
AcDbCircle
 10
160.669172
 20
319.505498
 30
0.0
 40
7.0
100
AcDbArc
 50
90.0
 51
180.0
  0
LINE
  5
B07A
330
AFE4
100
AcDbEntity
  8
4
  6
CENTER
100
AcDbLine
 10
161.669172
 20
311.255498
 30
0.0
 11
161.669172
 21
323.755498
 31
0.0
  0
CIRCLE
  5
B07B
330
AFE4
100
AcDbEntity
  8
1
  6
Continuous
100
AcDbCircle
 10
161.669172
 20
317.505498
 30
0.0
 40
3.25
  0
LINE
  5
B07C
330
AFE4
100
AcDbEntity
  8
1
  6
Continuous
100
AcDbLine
 10
223.669172
 20
279.5054979999998
 30
0.0
 11
223.669172
 21
319.505498
 31
0.0
  0
ARC
  5
B07D
330
AFE4
100
AcDbEntity
  8
1
  6
Continuous
100
AcDbCircle
 10
216.669172
 20
279.5054979999998
 30
0.0
 40
7.0
100
AcDbArc
 50
270.0
 51
0.0
  0
LINE
  5
B07E
330
AFE4
100
AcDbEntity
  8
4
  6
CENTER
100
AcDbLine
 10
215.669172
 20
275.2554979999998
 30
0.0
 11
215.669172
 21
287.7554979999998
 31
0.0
  0
CIRCLE
  5
B07F
330
AFE4
100
AcDbEntity
  8
1
  6
Continuous
100
AcDbCircle
 10
215.669172
 20
281.5054979999998
 30
0.0
 40
3.25
  0
LINE
  5
B080
330
AFE4
100
AcDbEntity
  8
4
  6
CENTER
100
AcDbLine
 10
221.919172
 20
281.5054979999998
 30
0.0
 11
209.4191719999999
 21
281.5054979999998
 31
0.0
  0
ARC
  5
B081
330
AFE4
100
AcDbEntity
  8
1
  6
Continuous
100
AcDbCircle
 10
216.669172
 20
319.505498
 30
0.0
 40
7.0
100
AcDbArc
 50
0.0
 51
90.0
  0
LINE
  5
B082
330
AFE4
100
AcDbEntity
  8
4
  6
CENTER
100
AcDbLine
 10
215.669172
 20
311.255498
 30
0.0
 11
215.669172
 21
323.755498
 31
0.0
  0
LINE
  5
B083
330
AFE4
100
AcDbEntity
  8
4
  6
CENTER
100
AcDbLine
 10
221.919172
 20
317.505498
 30
0.0
 11
209.4191719999999
 21
317.505498
 31
0.0
  0
CIRCLE
  5
B084
330
AFE4
100
AcDbEntity
  8
1
  6
Continuous
100
AcDbCircle
 10
215.669172
 20
317.505498
 30
0.0
 40
3.25
  0
LINE
  5
B085
330
AFE4
100
AcDbEntity
  8
4
  6
CENTER
100
AcDbLine
 10
290.4033759999999
 20
239.2334899999999
 30
0.0
 11
290.4033759999999
 21
136.23349
 31
0.0
  0
LINE
  5
B086
330
AFE4
100
AcDbEntity
  8
4
  6
CENTER
100
AcDbLine
 10
255.912056
 20
178.7334899999999
 30
0.0
 11
319.2118759999999
 21
178.7334899999999
 31
0.0
  0
LINE
  5
B087
330
AFE4
100
AcDbEntity
  8
1
  6
Continuous
100
AcDbLine
 10
311.405793
 20
226.65849
 30
0.0
 11
313.030793
 21
225.53349
 31
0.0
  0
LINE
  5
B088
330
AFE4
100
AcDbEntity
  8
1
  6
Continuous
100
AcDbLine
 10
313.241579
 20
226.65849
 30
0.0
 11
311.616579
 21
225.53349
 31
0.0
  0
ARC
  5
B089
330
AFE4
100
AcDbEntity
  8
1
  6
Continuous
100
AcDbCircle
 10
219.2048479999999
 20
170.77931
 30
0.0
 40
99.466508
100
AcDbArc
 50
17.154698
 51
25.73159999999998
  0
LINE
  5
B08A
330
AFE4
100
AcDbEntity
  8
1
  6
Continuous
100
AcDbLine
 10
263.4033759999999
 20
231.9334899999998
 30
0.0
 11
317.4033759999999
 21
231.9334899999998
 31
0.0
  0
LINE
  5
B08B
330
AFE4
100
AcDbEntity
  8
1
  6
Continuous
100
AcDbLine
 10
263.4033759999999
 20
234.2334899999999
 30
0.0
 11
317.4033759999999
 21
234.2334899999999
 31
0.0
  0
LINE
  5
B08C
330
AFE4
100
AcDbEntity
  8
1
  6
Continuous
100
AcDbLine
 10
313.195573
 20
229.8334899999999
 30
0.0
 11
267.6111789999998
 21
229.8334899999999
 31
0.0
  0
LINE
  5
B08D
330
AFE4
100
AcDbEntity
  8
1
  6
Continuous
100
AcDbLine
 10
313.453376
 20
228.9584899999999
 30
0.0
 11
267.3533759999999
 21
228.9584899999999
 31
0.0
  0
LINE
  5
B08E
330
AFE4
100
AcDbEntity
  8
1
  6
Continuous
100
AcDbLine
 10
313.4033759999999
 20
226.65849
 30
0.0
 11
267.4033759999999
 21
226.65849
 31
0.0
  0
LINE
  5
B08F
330
AFE4
100
AcDbEntity
  8
1
  6
Continuous
100
AcDbLine
 10
313.4033759999999
 20
225.53349
 30
0.0
 11
267.4033759999999
 21
225.53349
 31
0.0
  0
LINE
  5
B090
330
AFE4
100
AcDbEntity
  8
1
  6
Continuous
100
AcDbLine
 10
273.8948759999999
 20
212.8298829999998
 30
0.0
 11
273.8948759999999
 21
167.2334899999999
 31
0.0
  0
LINE
  5
B091
330
AFE4
100
AcDbEntity
  8
1
  6
Continuous
100
AcDbLine
 10
306.9118759999998
 20
167.2334899999999
 30
0.0
 11
309.2118759999999
 21
167.2334899999999
 31
0.0
  0
LINE
  5
B092
330
AFE4
100
AcDbEntity
  8
1
  6
Continuous
100
AcDbLine
 10
309.2118759999999
 20
167.2334899999999
 30
0.0
 11
309.2118759999999
 21
167.6249589999999
 31
0.0
  0
LINE
  5
B093
330
AFE4
100
AcDbEntity
  8
1
  6
Continuous
100
AcDbLine
 10
278.8788809999999
 20
226.65849
 30
0.0
 11
280.5038809999999
 21
225.53349
 31
0.0
  0
LINE
  5
B094
330
AFE4
100
AcDbEntity
  8
1
  6
Continuous
100
AcDbLine
 10
280.714667
 20
226.65849
 30
0.0
 11
279.089667
 21
225.53349
 31
0.0
  0
LINE
  5
B095
330
AFE4
100
AcDbEntity
  8
1
  6
Continuous
100
AcDbLine
 10
302.0968209999999
 20
217.9334899999998
 30
0.0
 11
278.7778819999999
 21
217.9334899999998
 31
0.0
  0
ARC
  5
B096
330
AFE4
100
AcDbEntity
  8
1
  6
Continuous
100
AcDbCircle
 10
278.7439049999999
 20
210.2186619999999
 30
0.0
 40
7.714902
100
AcDbArc
 50
89.74766999999998
 51
150.9629099999999
  0
LINE
  5
B097
330
AFE4
100
AcDbEntity
  8
1
  6
Continuous
100
AcDbLine
 10
263.4033759999999
 20
234.2334899999999
 30
0.0
 11
263.4033759999999
 21
231.9334899999998
 31
0.0
  0
LINE
  5
B098
330
AFE4
100
AcDbEntity
  8
1
  6
Continuous
100
AcDbLine
 10
270.393599
 20
226.65849
 30
0.0
 11
272.018599
 21
225.53349
 31
0.0
  0
LINE
  5
B099
330
AFE4
100
AcDbEntity
  8
1
  6
Continuous
100
AcDbLine
 10
272.2293859999999
 20
226.65849
 30
0.0
 11
270.6043859999999
 21
225.53349
 31
0.0
  0
LINE
  5
B09A
330
AFE4
100
AcDbEntity
  8
1
  6
Continuous
100
AcDbLine
 10
266.8533759999998
 20
228.1584899999999
 30
0.0
 11
267.3533759999999
 21
228.9584899999999
 31
0.0
  0
LINE
  5
B09B
330
AFE4
100
AcDbEntity
  8
1
  6
Continuous
100
AcDbLine
 10
267.4033759999999
 20
225.9060729999999
 30
0.0
 11
267.7759589999999
 21
225.53349
 31
0.0
  0
LINE
  5
B09C
330
AFE4
100
AcDbEntity
  8
1
  6
Continuous
100
AcDbLine
 10
267.4033759999999
 20
226.5751209999999
 30
0.0
 11
267.9867449999999
 21
226.65849
 31
0.0
  0
LINE
  5
B09D
330
AFE4
100
AcDbEntity
  8
1
  6
Continuous
100
AcDbLine
 10
267.753376
 20
226.65849
 30
0.0
 11
266.8533759999998
 21
228.1584899999999
 31
0.0
  0
LINE
  5
B09E
330
AFE4
100
AcDbEntity
  8
1
  6
Continuous
100
AcDbLine
 10
267.4033759999999
 20
226.65849
 30
0.0
 11
267.4033759999999
 21
225.53349
 31
0.0
  0
LINE
  5
B09F
330
AFE4
100
AcDbEntity
  8
1
  6
Continuous
100
AcDbLine
 10
267.565172
 20
226.65849
 30
0.0
 11
269.190172
 21
225.53349
 31
0.0
  0
LINE
  5
B0A0
330
AFE4
100
AcDbEntity
  8
1
  6
Continuous
100
AcDbLine
 10
268.9793859999999
 20
226.65849
 30
0.0
 11
270.6043859999999
 21
225.53349
 31
0.0
  0
LINE
  5
B0A1
330
AFE4
100
AcDbEntity
  8
1
  6
Continuous
100
AcDbLine
 10
269.4009589999998
 20
226.65849
 30
0.0
 11
267.7759589999999
 21
225.53349
 31
0.0
  0
LINE
  5
B0A2
330
AFE4
100
AcDbEntity
  8
1
  6
Continuous
100
AcDbLine
 10
270.815172
 20
226.65849
 30
0.0
 11
269.190172
 21
225.53349
 31
0.0
  0
ARC
  5
B0A3
330
AFE4
100
AcDbEntity
  8
1
  6
Continuous
100
AcDbCircle
 10
267.6111789999998
 20
233.33349
 30
0.0
 40
3.5
100
AcDbArc
 50
203.578178
 51
270.0
  0
ARC
  5
B0A4
330
AFE4
100
AcDbEntity
  8
1
  6
Continuous
100
AcDbCircle
 10
273.6533759999999
 20
224.4839899999998
 30
0.0
 40
6.974499999999999
100
AcDbArc
 50
129.9139999999999
 51
140.0924019999999
  0
LINE
  5
B0A5
330
AFE4
100
AcDbEntity
  8
1
  6
Continuous
100
AcDbLine
 10
274.6362399999998
 20
226.65849
 30
0.0
 11
276.26124
 21
225.53349
 31
0.0
  0
LINE
  5
B0A6
330
AFE4
100
AcDbEntity
  8
1
  6
Continuous
100
AcDbLine
 10
276.4720259999999
 20
226.65849
 30
0.0
 11
274.8470259999999
 21
225.53349
 31
0.0
  0
LINE
  5
B0A7
330
AFE4
100
AcDbEntity
  8
1
  6
Continuous
100
AcDbLine
 10
271.807813
 20
226.65849
 30
0.0
 11
273.432813
 21
225.53349
 31
0.0
  0
LINE
  5
B0A8
330
AFE4
100
AcDbEntity
  8
1
  6
Continuous
100
AcDbLine
 10
273.2220259999999
 20
226.65849
 30
0.0
 11
274.8470259999999
 21
225.53349
 31
0.0
  0
LINE
  5
B0A9
330
AFE4
100
AcDbEntity
  8
1
  6
Continuous
100
AcDbLine
 10
273.6435989999999
 20
226.65849
 30
0.0
 11
272.018599
 21
225.53349
 31
0.0
  0
LINE
  5
B0AA
330
AFE4
100
AcDbEntity
  8
1
  6
Continuous
100
AcDbLine
 10
275.057813
 20
226.65849
 30
0.0
 11
273.432813
 21
225.53349
 31
0.0
  0
LINE
  5
B0AB
330
AFE4
100
AcDbEntity
  8
1
  6
Continuous
100
AcDbLine
 10
276.0504539999999
 20
226.65849
 30
0.0
 11
277.675454
 21
225.53349
 31
0.0
  0
LINE
  5
B0AC
330
AFE4
100
AcDbEntity
  8
1
  6
Continuous
100
AcDbLine
 10
277.464667
 20
226.65849
 30
0.0
 11
279.089667
 21
225.53349
 31
0.0
  0
LINE
  5
B0AD
330
AFE4
100
AcDbEntity
  8
1
  6
Continuous
100
AcDbLine
 10
277.8862399999998
 20
226.65849
 30
0.0
 11
276.26124
 21
225.53349
 31
0.0
  0
LINE
  5
B0AE
330
AFE4
100
AcDbEntity
  8
1
  6
Continuous
100
AcDbLine
 10
279.300454
 20
226.65849
 30
0.0
 11
277.675454
 21
225.53349
 31
0.0
  0
ARC
  5
B0AF
330
AFE4
100
AcDbEntity
  8
1
  6
Continuous
100
AcDbCircle
 10
219.2048479999999
 20
170.77931
 30
0.0
 40
97.26650800000001
100
AcDbArc
 50
18.221623
 51
28.73472400000001
  0
ARC
  5
B0B0
330
AFE4
100
AcDbEntity
  8
1
  6
Continuous
100
AcDbCircle
 10
302.0628449999999
 20
210.2186619999999
 30
0.0
 40
7.714902
100
AcDbArc
 50
29.03709
 51
90.25233
  0
LINE
  5
B0B1
330
AFE4
100
AcDbEntity
  8
1
  6
Continuous
100
AcDbLine
 10
295.849443
 20
226.65849
 30
0.0
 11
297.474443
 21
225.53349
 31
0.0
  0
LINE
  5
B0B2
330
AFE4
100
AcDbEntity
  8
1
  6
Continuous
100
AcDbLine
 10
297.68523
 20
226.65849
 30
0.0
 11
296.06023
 21
225.53349
 31
0.0
  0
LINE
  5
B0B3
330
AFE4
100
AcDbEntity
  8
1
  6
Continuous
100
AcDbLine
 10
296.2710159999998
 20
226.65849
 30
0.0
 11
294.6460159999999
 21
225.53349
 31
0.0
  0
LINE
  5
B0B4
330
AFE4
100
AcDbEntity
  8
1
  6
Continuous
100
AcDbLine
 10
287.364162
 20
226.65849
 30
0.0
 11
288.989162
 21
225.53349
 31
0.0
  0
LINE
  5
B0B5
330
AFE4
100
AcDbEntity
  8
1
  6
Continuous
100
AcDbLine
 10
289.1999489999999
 20
226.65849
 30
0.0
 11
287.574949
 21
225.53349
 31
0.0
  0
LINE
  5
B0B6
330
AFE4
100
AcDbEntity
  8
1
  6
Continuous
100
AcDbLine
 10
283.1215209999998
 20
226.65849
 30
0.0
 11
284.7465209999999
 21
225.53349
 31
0.0
  0
LINE
  5
B0B7
330
AFE4
100
AcDbEntity
  8
1
  6
Continuous
100
AcDbLine
 10
284.957308
 20
226.65849
 30
0.0
 11
283.3323079999999
 21
225.53349
 31
0.0
  0
LINE
  5
B0B8
330
AFE4
100
AcDbEntity
  8
1
  6
Continuous
100
AcDbLine
 10
280.2930939999999
 20
226.65849
 30
0.0
 11
281.9180939999998
 21
225.53349
 31
0.0
  0
LINE
  5
B0B9
330
AFE4
100
AcDbEntity
  8
1
  6
Continuous
100
AcDbLine
 10
281.707308
 20
226.65849
 30
0.0
 11
283.3323079999999
 21
225.53349
 31
0.0
  0
LINE
  5
B0BA
330
AFE4
100
AcDbEntity
  8
1
  6
Continuous
100
AcDbLine
 10
282.128881
 20
226.65849
 30
0.0
 11
280.5038809999999
 21
225.53349
 31
0.0
  0
LINE
  5
B0BB
330
AFE4
100
AcDbEntity
  8
1
  6
Continuous
100
AcDbLine
 10
283.543094
 20
226.65849
 30
0.0
 11
281.9180939999998
 21
225.53349
 31
0.0
  0
LINE
  5
B0BC
330
AFE4
100
AcDbEntity
  8
1
  6
Continuous
100
AcDbLine
 10
284.535735
 20
226.65849
 30
0.0
 11
286.1607349999998
 21
225.53349
 31
0.0
  0
LINE
  5
B0BD
330
AFE4
100
AcDbEntity
  8
1
  6
Continuous
100
AcDbLine
 10
285.949949
 20
226.65849
 30
0.0
 11
287.574949
 21
225.53349
 31
0.0
  0
LINE
  5
B0BE
330
AFE4
100
AcDbEntity
  8
1
  6
Continuous
100
AcDbLine
 10
286.3715209999999
 20
226.65849
 30
0.0
 11
284.7465209999999
 21
225.53349
 31
0.0
  0
LINE
  5
B0BF
330
AFE4
100
AcDbEntity
  8
1
  6
Continuous
100
AcDbLine
 10
287.7857349999998
 20
226.65849
 30
0.0
 11
286.1607349999998
 21
225.53349
 31
0.0
  0
LINE
  5
B0C0
330
AFE4
100
AcDbEntity
  8
1
  6
Continuous
100
AcDbLine
 10
291.6068029999999
 20
226.65849
 30
0.0
 11
293.2318029999998
 21
225.53349
 31
0.0
  0
LINE
  5
B0C1
330
AFE4
100
AcDbEntity
  8
1
  6
Continuous
100
AcDbLine
 10
293.4425889999999
 20
226.65849
 30
0.0
 11
291.817589
 21
225.53349
 31
0.0
  0
LINE
  5
B0C2
330
AFE4
100
AcDbEntity
  8
1
  6
Continuous
100
AcDbLine
 10
290.192589
 20
226.65849
 30
0.0
 11
291.817589
 21
225.53349
 31
0.0
  0
LINE
  5
B0C3
330
AFE4
100
AcDbEntity
  8
1
  6
Continuous
100
AcDbLine
 10
288.7783759999999
 20
226.65849
 30
0.0
 11
290.4033759999999
 21
225.53349
 31
0.0
  0
LINE
  5
B0C4
330
AFE4
100
AcDbEntity
  8
1
  6
Continuous
100
AcDbLine
 10
290.614162
 20
226.65849
 30
0.0
 11
288.989162
 21
225.53349
 31
0.0
  0
LINE
  5
B0C5
330
AFE4
100
AcDbEntity
  8
1
  6
Continuous
100
AcDbLine
 10
292.0283759999999
 20
226.65849
 30
0.0
 11
290.4033759999999
 21
225.53349
 31
0.0
  0
LINE
  5
B0C6
330
AFE4
100
AcDbEntity
  8
1
  6
Continuous
100
AcDbLine
 10
294.4352299999998
 20
226.65849
 30
0.0
 11
296.06023
 21
225.53349
 31
0.0
  0
LINE
  5
B0C7
330
AFE4
100
AcDbEntity
  8
1
  6
Continuous
100
AcDbLine
 10
293.0210159999999
 20
226.65849
 30
0.0
 11
294.6460159999999
 21
225.53349
 31
0.0
  0
LINE
  5
B0C8
330
AFE4
100
AcDbEntity
  8
1
  6
Continuous
100
AcDbLine
 10
294.8568029999999
 20
226.65849
 30
0.0
 11
293.2318029999998
 21
225.53349
 31
0.0
  0
LINE
  5
B0C9
330
AFE4
100
AcDbEntity
  8
1
  6
Continuous
100
AcDbLine
 10
304.334725
 20
226.65849
 30
0.0
 11
305.9597249999999
 21
225.53349
 31
0.0
  0
LINE
  5
B0CA
330
AFE4
100
AcDbEntity
  8
1
  6
Continuous
100
AcDbLine
 10
302.9205109999999
 20
226.65849
 30
0.0
 11
304.5455109999999
 21
225.53349
 31
0.0
  0
LINE
  5
B0CB
330
AFE4
100
AcDbEntity
  8
1
  6
Continuous
100
AcDbLine
 10
304.756298
 20
226.65849
 30
0.0
 11
303.131298
 21
225.53349
 31
0.0
  0
LINE
  5
B0CC
330
AFE4
100
AcDbEntity
  8
1
  6
Continuous
100
AcDbLine
 10
300.092084
 20
226.65849
 30
0.0
 11
301.7170839999999
 21
225.53349
 31
0.0
  0
LINE
  5
B0CD
330
AFE4
100
AcDbEntity
  8
1
  6
Continuous
100
AcDbLine
 10
301.927871
 20
226.65849
 30
0.0
 11
300.3028709999999
 21
225.53349
 31
0.0
  0
LINE
  5
B0CE
330
AFE4
100
AcDbEntity
  8
1
  6
Continuous
100
AcDbLine
 10
300.5136569999999
 20
226.65849
 30
0.0
 11
298.8886569999999
 21
225.53349
 31
0.0
  0
LINE
  5
B0CF
330
AFE4
100
AcDbEntity
  8
1
  6
Continuous
100
AcDbLine
 10
298.6778709999999
 20
226.65849
 30
0.0
 11
300.3028709999999
 21
225.53349
 31
0.0
  0
LINE
  5
B0D0
330
AFE4
100
AcDbEntity
  8
1
  6
Continuous
100
AcDbLine
 10
297.2636569999999
 20
226.65849
 30
0.0
 11
298.8886569999999
 21
225.53349
 31
0.0
  0
LINE
  5
B0D1
330
AFE4
100
AcDbEntity
  8
1
  6
Continuous
100
AcDbLine
 10
299.099443
 20
226.65849
 30
0.0
 11
297.474443
 21
225.53349
 31
0.0
  0
LINE
  5
B0D2
330
AFE4
100
AcDbEntity
  8
1
  6
Continuous
100
AcDbLine
 10
301.506298
 20
226.65849
 30
0.0
 11
303.131298
 21
225.53349
 31
0.0
  0
LINE
  5
B0D3
330
AFE4
100
AcDbEntity
  8
1
  6
Continuous
100
AcDbLine
 10
303.342084
 20
226.65849
 30
0.0
 11
301.7170839999999
 21
225.53349
 31
0.0
  0
LINE
  5
B0D4
330
AFE4
100
AcDbEntity
  8
1
  6
Continuous
100
AcDbLine
 10
307.163152
 20
226.65849
 30
0.0
 11
308.788152
 21
225.53349
 31
0.0
  0
LINE
  5
B0D5
330
AFE4
100
AcDbEntity
  8
1
  6
Continuous
100
AcDbLine
 10
308.998938
 20
226.65849
 30
0.0
 11
307.373938
 21
225.53349
 31
0.0
  0
LINE
  5
B0D6
330
AFE4
100
AcDbEntity
  8
1
  6
Continuous
100
AcDbLine
 10
305.748938
 20
226.65849
 30
0.0
 11
307.373938
 21
225.53349
 31
0.0
  0
LINE
  5
B0D7
330
AFE4
100
AcDbEntity
  8
1
  6
Continuous
100
AcDbLine
 10
307.5847249999998
 20
226.65849
 30
0.0
 11
305.9597249999999
 21
225.53349
 31
0.0
  0
LINE
  5
B0D8
330
AFE4
100
AcDbEntity
  8
1
  6
Continuous
100
AcDbLine
 10
306.1705109999999
 20
226.65849
 30
0.0
 11
304.5455109999999
 21
225.53349
 31
0.0
  0
LINE
  5
B0D9
330
AFE4
100
AcDbEntity
  8
1
  6
Continuous
100
AcDbLine
 10
309.991579
 20
226.65849
 30
0.0
 11
311.616579
 21
225.53349
 31
0.0
  0
LINE
  5
B0DA
330
AFE4
100
AcDbEntity
  8
1
  6
Continuous
100
AcDbLine
 10
308.577366
 20
226.65849
 30
0.0
 11
310.2023659999999
 21
225.53349
 31
0.0
  0
LINE
  5
B0DB
330
AFE4
100
AcDbEntity
  8
1
  6
Continuous
100
AcDbLine
 10
311.8273659999999
 20
226.65849
 30
0.0
 11
310.2023659999999
 21
225.53349
 31
0.0
  0
LINE
  5
B0DC
330
AFE4
100
AcDbEntity
  8
1
  6
Continuous
100
AcDbLine
 10
310.4131520000001
 20
226.65849
 30
0.0
 11
308.788152
 21
225.53349
 31
0.0
  0
ARC
  5
B0DD
330
AFE4
100
AcDbEntity
  8
1
  6
Continuous
100
AcDbCircle
 10
307.1533759999999
 20
224.4839899999998
 30
0.0
 40
6.974499999999999
100
AcDbArc
 50
39.907598
 51
50.08600000000002
  0
LINE
  5
B0DE
330
AFE4
100
AcDbEntity
  8
1
  6
Continuous
100
AcDbLine
 10
317.4033759999999
 20
234.2334899999999
 30
0.0
 11
317.4033759999999
 21
231.9334899999998
 31
0.0
  0
LINE
  5
B0DF
330
AFE4
100
AcDbEntity
  8
1
  6
Continuous
100
AcDbLine
 10
313.9533759999999
 20
228.1584899999999
 30
0.0
 11
313.453376
 21
228.9584899999999
 31
0.0
  0
LINE
  5
B0E0
330
AFE4
100
AcDbEntity
  8
1
  6
Continuous
100
AcDbLine
 10
312.8200059999999
 20
226.65849
 30
0.0
 11
313.4033759999999
 21
226.5751209999999
 31
0.0
  0
LINE
  5
B0E1
330
AFE4
100
AcDbEntity
  8
1
  6
Continuous
100
AcDbLine
 10
313.4033759999999
 20
225.9060729999999
 30
0.0
 11
313.030793
 21
225.53349
 31
0.0
  0
LINE
  5
B0E2
330
AFE4
100
AcDbEntity
  8
1
  6
Continuous
100
AcDbLine
 10
313.4033759999999
 20
226.65849
 30
0.0
 11
313.4033759999999
 21
225.53349
 31
0.0
  0
LINE
  5
B0E3
330
AFE4
100
AcDbEntity
  8
1
  6
Continuous
100
AcDbLine
 10
313.0533759999999
 20
226.65849
 30
0.0
 11
313.9533759999999
 21
228.1584899999999
 31
0.0
  0
ARC
  5
B0E4
330
AFE4
100
AcDbEntity
  8
1
  6
Continuous
100
AcDbCircle
 10
313.195573
 20
233.33349
 30
0.0
 40
3.5
100
AcDbArc
 50
270.0
 51
336.421822
  0
LINE
  5
B0E5
330
AFE4
100
AcDbEntity
  8
4
  6
CENTER
100
AcDbLine
 10
161.6692469999998
 20
239.2334899999999
 30
0.0
 11
161.6692469999998
 21
226.93349
 31
0.0
  0
LINE
  5
B0E6
330
AFE4
100
AcDbEntity
  8
4
  6
CENTER
100
AcDbLine
 10
215.669247
 20
239.2334899999999
 30
0.0
 11
215.669247
 21
226.93349
 31
0.0
  0
LINE
  5
B0E7
330
AFE4
100
AcDbEntity
  8
4
  6
CENTER
100
AcDbLine
 10
272.4033759999999
 20
239.2334899999999
 30
0.0
 11
272.4033759999999
 21
226.93349
 31
0.0
  0
LINE
  5
B0E8
330
AFE4
100
AcDbEntity
  8
4
  6
CENTER
100
AcDbLine
 10
308.403376
 20
239.2334899999999
 30
0.0
 11
308.403376
 21
226.93349
 31
0.0
  0
LINE
  5
B0E9
330
AFE4
100
AcDbEntity
  8
1
  6
Continuous
100
AcDbLine
 10
273.8948759999999
 20
167.2334899999999
 30
0.0
 11
271.5948759999998
 21
167.2334899999999
 31
0.0
  0
LINE
  5
B0EA
330
AFE4
100
AcDbEntity
  8
1
  6
Continuous
100
AcDbLine
 10
271.5948759999998
 20
167.2334899999999
 30
0.0
 11
271.5948759999998
 21
167.6249589999999
 31
0.0
  0
LINE
  5
B0EB
330
AFE4
100
AcDbEntity
  8
4
  6
CENTER
100
AcDbLine
 10
59.204661
 20
239.2335349999999
 30
0.0
 11
59.204661
 21
136.2335349999999
 31
0.0
  0
LINE
  5
B0EC
330
AFE4
100
AcDbEntity
  8
1
  6
Continuous
100
AcDbLine
 10
78.01316099999998
 20
218.9335349999999
 30
0.0
 11
78.01316099999998
 21
193.830825
 31
0.0
  0
LINE
  5
B0ED
330
AFE4
100
AcDbEntity
  8
1
  6
Continuous
100
AcDbLine
 10
40.39616099999999
 20
218.9335349999999
 30
0.0
 11
40.39616099999999
 21
167.2335349999999
 31
0.0
  0
LINE
  5
B0EE
330
AFE4
100
AcDbEntity
  8
1
  6
Continuous
100
AcDbLine
 10
75.713161
 20
218.9335349999999
 30
0.0
 11
75.713161
 21
193.830825
 31
0.0
  0
LINE
  5
B0EF
330
AFE4
100
AcDbEntity
  8
1
  6
Continuous
100
AcDbLine
 10
42.69616099999999
 20
218.9335349999999
 30
0.0
 11
42.69616099999999
 21
167.2335349999999
 31
0.0
  0
LINE
  5
B0F0
330
AFE4
100
AcDbEntity
  8
4
  6
CENTER
100
AcDbLine
 10
30.39616099999999
 20
178.733535
 30
0.0
 11
93.69598100000001
 21
178.733535
 31
0.0
  0
LINE
  5
B0F1
330
AFE4
100
AcDbEntity
  8
1
  6
Continuous
100
AcDbLine
 10
40.39616099999999
 20
167.2335349999999
 30
0.0
 11
42.69616099999999
 21
167.2335349999999
 31
0.0
  0
LINE
  5
B0F2
330
AFE4
100
AcDbEntity
  8
1
  6
Continuous
100
AcDbLine
 10
42.69616099999999
 20
174.7335349999999
 30
0.0
 11
44.704661
 21
174.7335349999999
 31
0.0
  0
ARC
  5
B0F3
330
AFE4
100
AcDbEntity
  8
1
  6
Continuous
100
AcDbCircle
 10
79.454661
 20
192.4980859999998
 30
0.0
 40
45.0
100
AcDbArc
 50
180.0
 51
194.017084
  0
LINE
  5
B0F4
330
AFE4
100
AcDbEntity
  8
1
  6
Continuous
100
AcDbLine
 10
42.69616099999999
 20
182.733535
 30
0.0
 11
44.704661
 21
182.733535
 31
0.0
  0
LINE
  5
B0F5
330
AFE4
100
AcDbEntity
  8
1
  6
Continuous
100
AcDbLine
 10
75.713161
 20
167.2335349999999
 30
0.0
 11
78.01316099999998
 21
167.2335349999999
 31
0.0
  0
LINE
  5
B0F6
330
AFE4
100
AcDbEntity
  8
1
  6
Continuous
100
AcDbLine
 10
73.704661
 20
174.7335349999999
 30
0.0
 11
75.713161
 21
174.7335349999999
 31
0.0
  0
LINE
  5
B0F7
330
AFE4
100
AcDbEntity
  8
1
  6
Continuous
100
AcDbLine
 10
61.070588
 20
219.471035
 30
0.0
 11
62.243874
 21
220.9334899999999
 31
0.0
  0
LINE
  5
B0F8
330
AFE4
100
AcDbEntity
  8
1
  6
Continuous
100
AcDbLine
 10
62.454661
 20
225.53349
 30
0.0
 11
60.618875
 21
226.658535
 31
0.0
  0
LINE
  5
B0F9
330
AFE4
100
AcDbEntity
  8
1
  6
Continuous
100
AcDbLine
 10
62.033088
 20
225.53349
 30
0.0
 11
63.447302
 21
226.658535
 31
0.0
  0
LINE
  5
B0FA
330
AFE4
100
AcDbEntity
  8
1
  6
Continuous
100
AcDbLine
 10
60.61887399999999
 20
225.53349
 30
0.0
 11
62.033088
 21
226.658535
 31
0.0
  0
LINE
  5
B0FB
330
AFE4
100
AcDbEntity
  8
1
  6
Continuous
100
AcDbLine
 10
42.69616099999999
 20
217.971035
 30
0.0
 11
75.713161
 21
217.971035
 31
0.0
  0
LINE
  5
B0FC
330
AFE4
100
AcDbEntity
  8
1
  6
Continuous
100
AcDbLine
 10
36.41246399999999
 20
229.833535
 30
0.0
 11
81.99685800000002
 21
229.833535
 31
0.0
  0
LINE
  5
B0FD
330
AFE4
100
AcDbEntity
  8
1
  6
Continuous
100
AcDbLine
 10
36.15466099999999
 20
228.958535
 30
0.0
 11
82.254661
 21
228.958535
 31
0.0
  0
LINE
  5
B0FE
330
AFE4
100
AcDbEntity
  8
1
  6
Continuous
100
AcDbLine
 10
36.204661
 20
226.658535
 30
0.0
 11
82.20466100000001
 21
226.658535
 31
0.0
  0
LINE
  5
B0FF
330
AFE4
100
AcDbEntity
  8
1
  6
Continuous
100
AcDbLine
 10
32.204661
 20
234.2335349999999
 30
0.0
 11
86.20466099999999
 21
234.2335349999999
 31
0.0
  0
LINE
  5
B100
330
AFE4
100
AcDbEntity
  8
1
  6
Continuous
100
AcDbLine
 10
32.204661
 20
231.933535
 30
0.0
 11
86.20466099999999
 21
231.933535
 31
0.0
  0
LINE
  5
B101
330
AFE4
100
AcDbEntity
  8
1
  6
Continuous
100
AcDbLine
 10
36.415447
 20
225.53349
 30
0.0
 11
82.415447
 21
225.53349
 31
0.0
  0
LINE
  5
B102
330
AFE4
100
AcDbEntity
  8
1
  6
Continuous
100
AcDbLine
 10
42.924457
 20
219.471035
 30
0.0
 11
75.570701
 21
219.471035
 31
0.0
  0
LINE
  5
B103
330
AFE4
100
AcDbEntity
  8
1
  6
Continuous
100
AcDbLine
 10
45.01544699999999
 20
220.9334899999999
 30
0.0
 11
73.81544699999998
 21
220.9334899999999
 31
0.0
  0
LINE
  5
B104
330
AFE4
100
AcDbEntity
  8
1
  6
Continuous
100
AcDbLine
 10
45.01544699999999
 20
223.23349
 30
0.0
 11
73.81544699999998
 21
223.23349
 31
0.0
  0
ARC
  5
B105
330
AFE4
100
AcDbEntity
  8
1
  6
Continuous
100
AcDbCircle
 10
45.374331
 20
218.21681
 30
0.0
 40
5.029499999999998
100
AcDbArc
 50
94.09185900000002
 51
171.807218
  0
LINE
  5
B106
330
AFE4
100
AcDbEntity
  8
1
  6
Continuous
100
AcDbLine
 10
44.790304
 20
220.916498
 30
0.0
 11
45.52502599999999
 21
219.471035
 31
0.0
  0
ARC
  5
B107
330
AFE4
100
AcDbEntity
  8
1
  6
Continuous
100
AcDbCircle
 10
48.298161
 20
223.1601569999999
 30
0.0
 40
7.487396
100
AcDbArc
 50
233.119947
 51
265.563802
  0
LINE
  5
B108
330
AFE4
100
AcDbEntity
  8
1
  6
Continuous
100
AcDbLine
 10
43.668711
 20
219.9131359999999
 30
0.0
 11
44.110812
 21
219.471035
 31
0.0
  0
LINE
  5
B109
330
AFE4
100
AcDbEntity
  8
1
  6
Continuous
100
AcDbLine
 10
44.749558
 20
220.909737
 30
0.0
 11
42.991526
 21
219.471035
 31
0.0
  0
LINE
  5
B10A
330
AFE4
100
AcDbEntity
  8
1
  6
Continuous
100
AcDbLine
 10
42.69616099999999
 20
217.971035
 30
0.0
 11
43.80466099999998
 21
217.171035
 31
0.0
  0
LINE
  5
B10B
330
AFE4
100
AcDbEntity
  8
1
  6
Continuous
100
AcDbLine
 10
43.904661
 20
219.471035
 30
0.0
 11
42.69616099999999
 21
217.971035
 31
0.0
  0
ARC
  5
B10C
330
AFE4
100
AcDbEntity
  8
1
  6
Continuous
100
AcDbCircle
 10
45.45498099999998
 20
218.0789959999999
 30
0.0
 40
2.888134999999998
100
AcDbArc
 50
98.75362899999997
 51
162.789725
  0
LINE
  5
B10D
330
AFE4
100
AcDbEntity
  8
1
  6
Continuous
100
AcDbLine
 10
54.510307
 20
219.471035
 30
0.0
 11
53.75859300000001
 21
220.9334899999999
 31
0.0
  0
LINE
  5
B10E
330
AFE4
100
AcDbEntity
  8
1
  6
Continuous
100
AcDbLine
 10
50.267666
 20
219.471035
 30
0.0
 11
49.51595199999999
 21
220.9334899999999
 31
0.0
  0
LINE
  5
B10F
330
AFE4
100
AcDbEntity
  8
1
  6
Continuous
100
AcDbLine
 10
47.439239
 20
219.471035
 30
0.0
 11
46.687525
 21
220.9334899999999
 31
0.0
  0
LINE
  5
B110
330
AFE4
100
AcDbEntity
  8
1
  6
Continuous
100
AcDbLine
 10
48.853453
 20
219.471035
 30
0.0
 11
48.101739
 21
220.9334899999999
 31
0.0
  0
LINE
  5
B111
330
AFE4
100
AcDbEntity
  8
1
  6
Continuous
100
AcDbLine
 10
45.014239
 20
219.471035
 30
0.0
 11
46.687525
 21
220.9334899999999
 31
0.0
  0
LINE
  5
B112
330
AFE4
100
AcDbEntity
  8
1
  6
Continuous
100
AcDbLine
 10
46.928453
 20
219.471035
 30
0.0
 11
48.101739
 21
220.9334899999999
 31
0.0
  0
LINE
  5
B113
330
AFE4
100
AcDbEntity
  8
1
  6
Continuous
100
AcDbLine
 10
48.34266599999999
 20
219.471035
 30
0.0
 11
49.51595199999999
 21
220.9334899999999
 31
0.0
  0
LINE
  5
B114
330
AFE4
100
AcDbEntity
  8
1
  6
Continuous
100
AcDbLine
 10
51.68188
 20
219.471035
 30
0.0
 11
50.930166
 21
220.9334899999999
 31
0.0
  0
LINE
  5
B115
330
AFE4
100
AcDbEntity
  8
1
  6
Continuous
100
AcDbLine
 10
53.09609399999999
 20
219.471035
 30
0.0
 11
52.34438
 21
220.9334899999999
 31
0.0
  0
LINE
  5
B116
330
AFE4
100
AcDbEntity
  8
1
  6
Continuous
100
AcDbLine
 10
49.75687999999999
 20
219.471035
 30
0.0
 11
50.930166
 21
220.9334899999999
 31
0.0
  0
LINE
  5
B117
330
AFE4
100
AcDbEntity
  8
1
  6
Continuous
100
AcDbLine
 10
51.171094
 20
219.471035
 30
0.0
 11
52.34438
 21
220.9334899999999
 31
0.0
  0
LINE
  5
B118
330
AFE4
100
AcDbEntity
  8
1
  6
Continuous
100
AcDbLine
 10
52.58530699999999
 20
219.471035
 30
0.0
 11
53.75859300000001
 21
220.9334899999999
 31
0.0
  0
LINE
  5
B119
330
AFE4
100
AcDbEntity
  8
1
  6
Continuous
100
AcDbLine
 10
56.82794799999999
 20
219.471035
 30
0.0
 11
58.001234
 21
220.9334899999999
 31
0.0
  0
LINE
  5
B11A
330
AFE4
100
AcDbEntity
  8
1
  6
Continuous
100
AcDbLine
 10
55.924521
 20
219.471035
 30
0.0
 11
55.17280699999999
 21
220.9334899999999
 31
0.0
  0
LINE
  5
B11B
330
AFE4
100
AcDbEntity
  8
1
  6
Continuous
100
AcDbLine
 10
57.338734
 20
219.471035
 30
0.0
 11
56.58701999999999
 21
220.9334899999999
 31
0.0
  0
LINE
  5
B11C
330
AFE4
100
AcDbEntity
  8
1
  6
Continuous
100
AcDbLine
 10
53.999521
 20
219.471035
 30
0.0
 11
55.17280699999999
 21
220.9334899999999
 31
0.0
  0
LINE
  5
B11D
330
AFE4
100
AcDbEntity
  8
1
  6
Continuous
100
AcDbLine
 10
55.413734
 20
219.471035
 30
0.0
 11
56.58701999999999
 21
220.9334899999999
 31
0.0
  0
LINE
  5
B11E
330
AFE4
100
AcDbEntity
  8
1
  6
Continuous
100
AcDbLine
 10
61.581375
 20
219.471035
 30
0.0
 11
60.829661
 21
220.9334899999999
 31
0.0
  0
LINE
  5
B11F
330
AFE4
100
AcDbEntity
  8
1
  6
Continuous
100
AcDbLine
 10
58.75294799999998
 20
219.471035
 30
0.0
 11
58.001234
 21
220.9334899999999
 31
0.0
  0
LINE
  5
B120
330
AFE4
100
AcDbEntity
  8
1
  6
Continuous
100
AcDbLine
 10
60.167161
 20
219.471035
 30
0.0
 11
59.415447
 21
220.9334899999999
 31
0.0
  0
LINE
  5
B121
330
AFE4
100
AcDbEntity
  8
1
  6
Continuous
100
AcDbLine
 10
59.65637499999999
 20
219.471035
 30
0.0
 11
60.829661
 21
220.9334899999999
 31
0.0
  0
LINE
  5
B122
330
AFE4
100
AcDbEntity
  8
1
  6
Continuous
100
AcDbLine
 10
58.24216100000001
 20
219.471035
 30
0.0
 11
59.415447
 21
220.9334899999999
 31
0.0
  0
LINE
  5
B123
330
AFE4
100
AcDbEntity
  8
1
  6
Continuous
100
AcDbLine
 10
46.89831199999999
 20
225.53349
 30
0.0
 11
45.06252599999998
 21
226.658535
 31
0.0
  0
LINE
  5
B124
330
AFE4
100
AcDbEntity
  8
1
  6
Continuous
100
AcDbLine
 10
45.062525
 20
225.53349
 30
0.0
 11
46.476739
 21
226.658535
 31
0.0
  0
LINE
  5
B125
330
AFE4
100
AcDbEntity
  8
1
  6
Continuous
100
AcDbLine
 10
38.41302999999999
 20
225.53349
 30
0.0
 11
36.577244
 21
226.658535
 31
0.0
  0
LINE
  5
B126
330
AFE4
100
AcDbEntity
  8
1
  6
Continuous
100
AcDbLine
 10
36.577244
 20
225.53349
 30
0.0
 11
37.991458
 21
226.658535
 31
0.0
  0
ARC
  5
B127
330
AFE4
100
AcDbEntity
  8
1
  6
Continuous
100
AcDbCircle
 10
42.454661
 20
224.484035
 30
0.0
 40
6.974499999999999
100
AcDbArc
 50
129.9139999999999
 51
140.0924019999999
  0
LINE
  5
B128
330
AFE4
100
AcDbEntity
  8
1
  6
Continuous
100
AcDbLine
 10
35.654661
 20
228.1585349999998
 30
0.0
 11
36.15466099999999
 21
228.958535
 31
0.0
  0
LINE
  5
B129
330
AFE4
100
AcDbEntity
  8
1
  6
Continuous
100
AcDbLine
 10
36.415447
 20
226.1168599999999
 30
0.0
 11
36.99881699999997
 21
225.53349
 31
0.0
  0
LINE
  5
B12A
330
AFE4
100
AcDbEntity
  8
1
  6
Continuous
100
AcDbLine
 10
36.263453
 20
226.3447439999999
 30
0.0
 11
36.577244
 21
226.658535
 31
0.0
  0
LINE
  5
B12B
330
AFE4
100
AcDbEntity
  8
1
  6
Continuous
100
AcDbLine
 10
36.204661
 20
226.658535
 30
0.0
 11
36.415447
 21
225.53349
 31
0.0
  0
LINE
  5
B12C
330
AFE4
100
AcDbEntity
  8
1
  6
Continuous
100
AcDbLine
 10
36.55466099999999
 20
226.658535
 30
0.0
 11
35.654661
 21
228.1585349999998
 31
0.0
  0
ARC
  5
B12D
330
AFE4
100
AcDbEntity
  8
1
  6
Continuous
100
AcDbCircle
 10
36.41246399999999
 20
233.333535
 30
0.0
 40
3.5
100
AcDbArc
 50
203.578178
 51
270.0
  0
LINE
  5
B12E
330
AFE4
100
AcDbEntity
  8
1
  6
Continuous
100
AcDbLine
 10
32.204661
 20
234.2335349999999
 30
0.0
 11
32.204661
 21
231.933535
 31
0.0
  0
LINE
  5
B12F
330
AFE4
100
AcDbEntity
  8
1
  6
Continuous
100
AcDbLine
 10
42.65567100000001
 20
225.53349
 30
0.0
 11
40.819885
 21
226.658535
 31
0.0
  0
LINE
  5
B130
330
AFE4
100
AcDbEntity
  8
1
  6
Continuous
100
AcDbLine
 10
40.819885
 20
225.53349
 30
0.0
 11
42.234099
 21
226.658535
 31
0.0
  0
LINE
  5
B131
330
AFE4
100
AcDbEntity
  8
1
  6
Continuous
100
AcDbLine
 10
39.827244
 20
225.53349
 30
0.0
 11
37.991458
 21
226.658535
 31
0.0
  0
LINE
  5
B132
330
AFE4
100
AcDbEntity
  8
1
  6
Continuous
100
AcDbLine
 10
41.24145699999998
 20
225.53349
 30
0.0
 11
39.40567099999999
 21
226.658535
 31
0.0
  0
LINE
  5
B133
330
AFE4
100
AcDbEntity
  8
1
  6
Continuous
100
AcDbLine
 10
37.99145699999999
 20
225.53349
 30
0.0
 11
39.40567099999999
 21
226.658535
 31
0.0
  0
LINE
  5
B134
330
AFE4
100
AcDbEntity
  8
1
  6
Continuous
100
AcDbLine
 10
39.40567099999999
 20
225.53349
 30
0.0
 11
40.819885
 21
226.658535
 31
0.0
  0
LINE
  5
B135
330
AFE4
100
AcDbEntity
  8
1
  6
Continuous
100
AcDbLine
 10
44.06988499999999
 20
225.53349
 30
0.0
 11
42.234099
 21
226.658535
 31
0.0
  0
LINE
  5
B136
330
AFE4
100
AcDbEntity
  8
1
  6
Continuous
100
AcDbLine
 10
45.48409799999999
 20
225.53349
 30
0.0
 11
43.648312
 21
226.658535
 31
0.0
  0
LINE
  5
B137
330
AFE4
100
AcDbEntity
  8
1
  6
Continuous
100
AcDbLine
 10
42.23409799999997
 20
225.53349
 30
0.0
 11
43.648312
 21
226.658535
 31
0.0
  0
LINE
  5
B138
330
AFE4
100
AcDbEntity
  8
1
  6
Continuous
100
AcDbLine
 10
43.648312
 20
225.53349
 30
0.0
 11
45.06252599999998
 21
226.658535
 31
0.0
  0
LINE
  5
B139
330
AFE4
100
AcDbEntity
  8
1
  6
Continuous
100
AcDbLine
 10
53.96938000000001
 20
225.53349
 30
0.0
 11
52.133594
 21
226.658535
 31
0.0
  0
LINE
  5
B13A
330
AFE4
100
AcDbEntity
  8
1
  6
Continuous
100
AcDbLine
 10
55.38359299999999
 20
225.53349
 30
0.0
 11
53.54780699999999
 21
226.658535
 31
0.0
  0
LINE
  5
B13B
330
AFE4
100
AcDbEntity
  8
1
  6
Continuous
100
AcDbLine
 10
53.54780699999999
 20
225.53349
 30
0.0
 11
54.96202099999999
 21
226.658535
 31
0.0
  0
LINE
  5
B13C
330
AFE4
100
AcDbEntity
  8
1
  6
Continuous
100
AcDbLine
 10
51.140952
 20
225.53349
 30
0.0
 11
49.305166
 21
226.658535
 31
0.0
  0
LINE
  5
B13D
330
AFE4
100
AcDbEntity
  8
1
  6
Continuous
100
AcDbLine
 10
49.305166
 20
225.53349
 30
0.0
 11
50.71938
 21
226.658535
 31
0.0
  0
LINE
  5
B13E
330
AFE4
100
AcDbEntity
  8
1
  6
Continuous
100
AcDbLine
 10
48.312525
 20
225.53349
 30
0.0
 11
46.476739
 21
226.658535
 31
0.0
  0
LINE
  5
B13F
330
AFE4
100
AcDbEntity
  8
1
  6
Continuous
100
AcDbLine
 10
49.726739
 20
225.53349
 30
0.0
 11
47.890953
 21
226.658535
 31
0.0
  0
LINE
  5
B140
330
AFE4
100
AcDbEntity
  8
1
  6
Continuous
100
AcDbLine
 10
46.476739
 20
225.53349
 30
0.0
 11
47.890953
 21
226.658535
 31
0.0
  0
LINE
  5
B141
330
AFE4
100
AcDbEntity
  8
1
  6
Continuous
100
AcDbLine
 10
47.890952
 20
225.53349
 30
0.0
 11
49.305166
 21
226.658535
 31
0.0
  0
LINE
  5
B142
330
AFE4
100
AcDbEntity
  8
1
  6
Continuous
100
AcDbLine
 10
52.55516599999999
 20
225.53349
 30
0.0
 11
50.71938
 21
226.658535
 31
0.0
  0
LINE
  5
B143
330
AFE4
100
AcDbEntity
  8
1
  6
Continuous
100
AcDbLine
 10
50.71938
 20
225.53349
 30
0.0
 11
52.133594
 21
226.658535
 31
0.0
  0
LINE
  5
B144
330
AFE4
100
AcDbEntity
  8
1
  6
Continuous
100
AcDbLine
 10
52.133593
 20
225.53349
 30
0.0
 11
53.54780699999999
 21
226.658535
 31
0.0
  0
LINE
  5
B145
330
AFE4
100
AcDbEntity
  8
1
  6
Continuous
100
AcDbLine
 10
58.21201999999999
 20
225.53349
 30
0.0
 11
56.37623399999998
 21
226.658535
 31
0.0
  0
LINE
  5
B146
330
AFE4
100
AcDbEntity
  8
1
  6
Continuous
100
AcDbLine
 10
56.37623399999998
 20
225.53349
 30
0.0
 11
57.790448
 21
226.658535
 31
0.0
  0
LINE
  5
B147
330
AFE4
100
AcDbEntity
  8
1
  6
Continuous
100
AcDbLine
 10
57.790447
 20
225.53349
 30
0.0
 11
59.204661
 21
226.658535
 31
0.0
  0
LINE
  5
B148
330
AFE4
100
AcDbEntity
  8
1
  6
Continuous
100
AcDbLine
 10
56.79780699999999
 20
225.53349
 30
0.0
 11
54.96202099999999
 21
226.658535
 31
0.0
  0
LINE
  5
B149
330
AFE4
100
AcDbEntity
  8
1
  6
Continuous
100
AcDbLine
 10
54.96202
 20
225.53349
 30
0.0
 11
56.37623399999998
 21
226.658535
 31
0.0
  0
LINE
  5
B14A
330
AFE4
100
AcDbEntity
  8
1
  6
Continuous
100
AcDbLine
 10
59.626234
 20
225.53349
 30
0.0
 11
57.790448
 21
226.658535
 31
0.0
  0
LINE
  5
B14B
330
AFE4
100
AcDbEntity
  8
1
  6
Continuous
100
AcDbLine
 10
61.040447
 20
225.53349
 30
0.0
 11
59.204661
 21
226.658535
 31
0.0
  0
LINE
  5
B14C
330
AFE4
100
AcDbEntity
  8
1
  6
Continuous
100
AcDbLine
 10
59.204661
 20
225.53349
 30
0.0
 11
60.618875
 21
226.658535
 31
0.0
  0
ARC
  5
B14D
330
AFE4
100
AcDbEntity
  8
1
  6
Continuous
100
AcDbCircle
 10
73.410515
 20
218.6392559999999
 30
0.0
 40
4.612044999999998
100
AcDbArc
 50
3.658345999999998
 51
84.96300599999997
  0
LINE
  5
B14E
330
AFE4
100
AcDbEntity
  8
1
  6
Continuous
100
AcDbLine
 10
69.55587
 20
219.471035
 30
0.0
 11
71.229156
 21
220.9334899999999
 31
0.0
  0
LINE
  5
B14F
330
AFE4
100
AcDbEntity
  8
1
  6
Continuous
100
AcDbLine
 10
65.31322900000001
 20
219.471035
 30
0.0
 11
66.48651499999998
 21
220.9334899999999
 31
0.0
  0
LINE
  5
B150
330
AFE4
100
AcDbEntity
  8
1
  6
Continuous
100
AcDbLine
 10
65.824016
 20
219.471035
 30
0.0
 11
65.07230200000001
 21
220.9334899999999
 31
0.0
  0
LINE
  5
B151
330
AFE4
100
AcDbEntity
  8
1
  6
Continuous
100
AcDbLine
 10
64.409802
 20
219.471035
 30
0.0
 11
63.65808799999999
 21
220.9334899999999
 31
0.0
  0
LINE
  5
B152
330
AFE4
100
AcDbEntity
  8
1
  6
Continuous
100
AcDbLine
 10
62.99558799999999
 20
219.471035
 30
0.0
 11
62.243874
 21
220.9334899999999
 31
0.0
  0
LINE
  5
B153
330
AFE4
100
AcDbEntity
  8
1
  6
Continuous
100
AcDbLine
 10
63.899016
 20
219.471035
 30
0.0
 11
65.07230200000001
 21
220.9334899999999
 31
0.0
  0
LINE
  5
B154
330
AFE4
100
AcDbEntity
  8
1
  6
Continuous
100
AcDbLine
 10
62.484802
 20
219.471035
 30
0.0
 11
63.65808799999999
 21
220.9334899999999
 31
0.0
  0
LINE
  5
B155
330
AFE4
100
AcDbEntity
  8
1
  6
Continuous
100
AcDbLine
 10
70.56665600000002
 20
219.471035
 30
0.0
 11
69.314942
 21
220.9334899999999
 31
0.0
  0
LINE
  5
B156
330
AFE4
100
AcDbEntity
  8
1
  6
Continuous
100
AcDbLine
 10
68.652443
 20
219.471035
 30
0.0
 11
67.900729
 21
220.9334899999999
 31
0.0
  0
LINE
  5
B157
330
AFE4
100
AcDbEntity
  8
1
  6
Continuous
100
AcDbLine
 10
67.238229
 20
219.471035
 30
0.0
 11
66.48651499999998
 21
220.9334899999999
 31
0.0
  0
LINE
  5
B158
330
AFE4
100
AcDbEntity
  8
1
  6
Continuous
100
AcDbLine
 10
68.14165600000001
 20
219.471035
 30
0.0
 11
69.314942
 21
220.9334899999999
 31
0.0
  0
LINE
  5
B159
330
AFE4
100
AcDbEntity
  8
1
  6
Continuous
100
AcDbLine
 10
66.72744300000001
 20
219.471035
 30
0.0
 11
67.900729
 21
220.9334899999999
 31
0.0
  0
ARC
  5
B15A
330
AFE4
100
AcDbEntity
  8
1
  6
Continuous
100
AcDbCircle
 10
70.601229
 20
223.52157
 30
0.0
 40
7.848514999999999
100
AcDbArc
 50
270.9161379999998
 51
305.988185
  0
LINE
  5
B15B
330
AFE4
100
AcDbEntity
  8
1
  6
Continuous
100
AcDbLine
 10
75.41779699999998
 20
219.471035
 30
0.0
 11
74.14171500000001
 21
220.84474
 31
0.0
  0
LINE
  5
B15C
330
AFE4
100
AcDbEntity
  8
1
  6
Continuous
100
AcDbLine
 10
74.298511
 20
219.471035
 30
0.0
 11
75.34200799999998
 21
219.910147
 31
0.0
  0
LINE
  5
B15D
330
AFE4
100
AcDbEntity
  8
1
  6
Continuous
100
AcDbLine
 10
75.713161
 20
217.971035
 30
0.0
 11
75.21316099999999
 21
217.171035
 31
0.0
  0
LINE
  5
B15E
330
AFE4
100
AcDbEntity
  8
1
  6
Continuous
100
AcDbLine
 10
74.50466099999998
 20
219.471035
 30
0.0
 11
75.713161
 21
217.971035
 31
0.0
  0
ARC
  5
B15F
330
AFE4
100
AcDbEntity
  8
1
  6
Continuous
100
AcDbCircle
 10
73.35485
 20
218.596111
 30
0.0
 40
2.382327999999998
100
AcDbArc
 50
8.142542999999998
 51
78.852283
  0
LINE
  5
B160
330
AFE4
100
AcDbEntity
  8
1
  6
Continuous
100
AcDbLine
 10
73.395083
 20
219.471035
 30
0.0
 11
72.64336899999998
 21
220.9334899999999
 31
0.0
  0
LINE
  5
B161
330
AFE4
100
AcDbEntity
  8
1
  6
Continuous
100
AcDbLine
 10
71.98087
 20
219.471035
 30
0.0
 11
71.229156
 21
220.9334899999999
 31
0.0
  0
LINE
  5
B162
330
AFE4
100
AcDbEntity
  8
1
  6
Continuous
100
AcDbLine
 10
72.884297
 20
219.471035
 30
0.0
 11
74.015416
 21
220.8850279999999
 31
0.0
  0
LINE
  5
B163
330
AFE4
100
AcDbEntity
  8
1
  6
Continuous
100
AcDbLine
 10
71.470083
 20
219.471035
 30
0.0
 11
72.64336899999998
 21
220.9334899999999
 31
0.0
  0
LINE
  5
B164
330
AFE4
100
AcDbEntity
  8
1
  6
Continuous
100
AcDbLine
 10
79.425224
 20
225.53349
 30
0.0
 11
77.589438
 21
226.658535
 31
0.0
  0
LINE
  5
B165
330
AFE4
100
AcDbEntity
  8
1
  6
Continuous
100
AcDbLine
 10
77.589437
 20
225.53349
 30
0.0
 11
79.00365100000001
 21
226.658535
 31
0.0
  0
LINE
  5
B166
330
AFE4
100
AcDbEntity
  8
1
  6
Continuous
100
AcDbLine
 10
70.939942
 20
225.53349
 30
0.0
 11
69.104156
 21
226.658535
 31
0.0
  0
LINE
  5
B167
330
AFE4
100
AcDbEntity
  8
1
  6
Continuous
100
AcDbLine
 10
69.104156
 20
225.53349
 30
0.0
 11
70.51836999999998
 21
226.658535
 31
0.0
  0
LINE
  5
B168
330
AFE4
100
AcDbEntity
  8
1
  6
Continuous
100
AcDbLine
 10
66.697302
 20
225.53349
 30
0.0
 11
64.86151600000001
 21
226.658535
 31
0.0
  0
LINE
  5
B169
330
AFE4
100
AcDbEntity
  8
1
  6
Continuous
100
AcDbLine
 10
64.861515
 20
225.53349
 30
0.0
 11
66.275729
 21
226.658535
 31
0.0
  0
LINE
  5
B16A
330
AFE4
100
AcDbEntity
  8
1
  6
Continuous
100
AcDbLine
 10
65.28308800000001
 20
225.53349
 30
0.0
 11
63.447302
 21
226.658535
 31
0.0
  0
LINE
  5
B16B
330
AFE4
100
AcDbEntity
  8
1
  6
Continuous
100
AcDbLine
 10
63.86887399999999
 20
225.53349
 30
0.0
 11
62.033088
 21
226.658535
 31
0.0
  0
LINE
  5
B16C
330
AFE4
100
AcDbEntity
  8
1
  6
Continuous
100
AcDbLine
 10
63.447302
 20
225.53349
 30
0.0
 11
64.86151600000001
 21
226.658535
 31
0.0
  0
LINE
  5
B16D
330
AFE4
100
AcDbEntity
  8
1
  6
Continuous
100
AcDbLine
 10
69.52572899999998
 20
225.53349
 30
0.0
 11
67.689943
 21
226.658535
 31
0.0
  0
LINE
  5
B16E
330
AFE4
100
AcDbEntity
  8
1
  6
Continuous
100
AcDbLine
 10
68.111515
 20
225.53349
 30
0.0
 11
66.275729
 21
226.658535
 31
0.0
  0
LINE
  5
B16F
330
AFE4
100
AcDbEntity
  8
1
  6
Continuous
100
AcDbLine
 10
67.689942
 20
225.53349
 30
0.0
 11
69.104156
 21
226.658535
 31
0.0
  0
LINE
  5
B170
330
AFE4
100
AcDbEntity
  8
1
  6
Continuous
100
AcDbLine
 10
66.275729
 20
225.53349
 30
0.0
 11
67.689943
 21
226.658535
 31
0.0
  0
LINE
  5
B171
330
AFE4
100
AcDbEntity
  8
1
  6
Continuous
100
AcDbLine
 10
75.18258299999998
 20
225.53349
 30
0.0
 11
73.34679699999998
 21
226.658535
 31
0.0
  0
LINE
  5
B172
330
AFE4
100
AcDbEntity
  8
1
  6
Continuous
100
AcDbLine
 10
73.34679699999998
 20
225.53349
 30
0.0
 11
74.76101099999998
 21
226.658535
 31
0.0
  0
LINE
  5
B173
330
AFE4
100
AcDbEntity
  8
1
  6
Continuous
100
AcDbLine
 10
73.76836899999998
 20
225.53349
 30
0.0
 11
71.932583
 21
226.658535
 31
0.0
  0
LINE
  5
B174
330
AFE4
100
AcDbEntity
  8
1
  6
Continuous
100
AcDbLine
 10
72.354156
 20
225.53349
 30
0.0
 11
70.51836999999998
 21
226.658535
 31
0.0
  0
LINE
  5
B175
330
AFE4
100
AcDbEntity
  8
1
  6
Continuous
100
AcDbLine
 10
71.932583
 20
225.53349
 30
0.0
 11
73.34679699999998
 21
226.658535
 31
0.0
  0
LINE
  5
B176
330
AFE4
100
AcDbEntity
  8
1
  6
Continuous
100
AcDbLine
 10
70.51836899999996
 20
225.53349
 30
0.0
 11
71.932583
 21
226.658535
 31
0.0
  0
LINE
  5
B177
330
AFE4
100
AcDbEntity
  8
1
  6
Continuous
100
AcDbLine
 10
78.01101
 20
225.53349
 30
0.0
 11
76.175224
 21
226.658535
 31
0.0
  0
LINE
  5
B178
330
AFE4
100
AcDbEntity
  8
1
  6
Continuous
100
AcDbLine
 10
76.59679699999998
 20
225.53349
 30
0.0
 11
74.76101099999998
 21
226.658535
 31
0.0
  0
LINE
  5
B179
330
AFE4
100
AcDbEntity
  8
1
  6
Continuous
100
AcDbLine
 10
76.175224
 20
225.53349
 30
0.0
 11
77.589438
 21
226.658535
 31
0.0
  0
LINE
  5
B17A
330
AFE4
100
AcDbEntity
  8
1
  6
Continuous
100
AcDbLine
 10
74.76100999999998
 20
225.53349
 30
0.0
 11
76.175224
 21
226.658535
 31
0.0
  0
LINE
  5
B17B
330
AFE4
100
AcDbEntity
  8
1
  6
Continuous
100
AcDbLine
 10
82.754661
 20
228.1585349999998
 30
0.0
 11
82.254661
 21
228.958535
 31
0.0
  0
LINE
  5
B17C
330
AFE4
100
AcDbEntity
  8
1
  6
Continuous
100
AcDbLine
 10
81.85466099999997
 20
226.658535
 30
0.0
 11
82.754661
 21
228.1585349999998
 31
0.0
  0
LINE
  5
B17D
330
AFE4
100
AcDbEntity
  8
1
  6
Continuous
100
AcDbLine
 10
82.20466100000001
 20
226.285952
 30
0.0
 11
81.83207800000003
 21
226.658535
 31
0.0
  0
LINE
  5
B17E
330
AFE4
100
AcDbEntity
  8
1
  6
Continuous
100
AcDbLine
 10
82.25365100000002
 20
225.53349
 30
0.0
 11
80.417865
 21
226.658535
 31
0.0
  0
LINE
  5
B17F
330
AFE4
100
AcDbEntity
  8
1
  6
Continuous
100
AcDbLine
 10
80.839437
 20
225.53349
 30
0.0
 11
79.00365100000001
 21
226.658535
 31
0.0
  0
LINE
  5
B180
330
AFE4
100
AcDbEntity
  8
1
  6
Continuous
100
AcDbLine
 10
81.83207800000003
 20
225.53349
 30
0.0
 11
82.323395
 21
226.0248069999999
 31
0.0
  0
LINE
  5
B181
330
AFE4
100
AcDbEntity
  8
1
  6
Continuous
100
AcDbLine
 10
80.41786399999997
 20
225.53349
 30
0.0
 11
81.83207800000003
 21
226.658535
 31
0.0
  0
LINE
  5
B182
330
AFE4
100
AcDbEntity
  8
1
  6
Continuous
100
AcDbLine
 10
79.00365100000001
 20
225.53349
 30
0.0
 11
80.417865
 21
226.658535
 31
0.0
  0
LINE
  5
B183
330
AFE4
100
AcDbEntity
  8
1
  6
Continuous
100
AcDbLine
 10
82.20466100000001
 20
226.658535
 30
0.0
 11
82.415447
 21
225.53349
 31
0.0
  0
ARC
  5
B184
330
AFE4
100
AcDbEntity
  8
1
  6
Continuous
100
AcDbCircle
 10
81.99685800000002
 20
233.333535
 30
0.0
 40
3.5
100
AcDbArc
 50
270.0
 51
336.421822
  0
ARC
  5
B185
330
AFE4
100
AcDbEntity
  8
1
  6
Continuous
100
AcDbCircle
 10
75.954661
 20
224.484035
 30
0.0
 40
6.974499999999999
100
AcDbArc
 50
39.907598
 51
50.08600000000002
  0
LINE
  5
B186
330
AFE4
100
AcDbEntity
  8
1
  6
Continuous
100
AcDbLine
 10
86.20466099999999
 20
234.2335349999999
 30
0.0
 11
86.20466099999999
 21
231.933535
 31
0.0
  0
LINE
  5
B187
330
AFE4
100
AcDbEntity
  8
1
  6
Continuous
100
AcDbLine
 10
265.6533759999999
 20
222.1124899999999
 30
0.0
 11
265.6533759999999
 21
190.8813439999999
 31
0.0
  0
LINE
  5
B188
330
AFE4
100
AcDbEntity
  8
1
  6
Continuous
100
AcDbLine
 10
315.1533759999999
 20
222.1124899999999
 30
0.0
 11
315.1533759999999
 21
194.3997019999999
 31
0.0
  0
ARC
  5
B189
330
AFE4
100
AcDbEntity
  8
1
  6
Continuous
100
AcDbCircle
 10
311.732376
 20
222.1124899999999
 30
0.0
 40
3.420999999999998
100
AcDbArc
 50
0.0
 51
90.0
  0
ARC
  5
B18A
330
AFE4
100
AcDbEntity
  8
1
  6
Continuous
100
AcDbCircle
 10
269.0743759999999
 20
222.1124899999999
 30
0.0
 40
3.420999999999998
100
AcDbArc
 50
90.0
 51
180.0
  0
ARC
  5
B18B
330
AFE4
100
AcDbEntity
  8
1
  6
Continuous
100
AcDbCircle
 10
163.6692469999998
 20
177.7334899999999
 30
0.0
 40
10.5
100
AcDbArc
 50
199.475619
 51
311.162895
  0
ARC
  5
B18C
330
AFE4
100
AcDbEntity
  8
1
  6
Continuous
100
AcDbCircle
 10
205.563346
 20
207.9334899999998
 30
0.0
 40
10.0
100
AcDbArc
 50
90.0
 51
148.863801
  0
LINE
  5
B18D
330
AFE4
100
AcDbEntity
  8
4
  6
CENTER
100
AcDbLine
 10
41.204661
 20
239.2335349999999
 30
0.0
 11
41.204661
 21
226.9335349999999
 31
0.0
  0
LINE
  5
B18E
330
AFE4
100
AcDbEntity
  8
4
  6
CENTER
100
AcDbLine
 10
77.204661
 20
239.2335349999999
 30
0.0
 11
77.204661
 21
226.9335349999999
 31
0.0
  0
LINE
  5
B18F
330
AFE4
100
AcDbEntity
  8
1
  6
Continuous
100
AcDbLine
 10
197.003941
 20
213.104232
 30
0.0
 11
183.424779
 21
190.348949
 31
0.0
  0
LINE
  5
B190
330
AFE4
100
AcDbEntity
  8
1
  6
Continuous
100
AcDbLine
 10
159.9484809999999
 20
223.23349
 30
0.0
 11
154.626125
 21
188.0489619999999
 31
0.0
  0
LINE
  5
B191
330
AFE4
100
AcDbEntity
  8
1
  6
Continuous
100
AcDbLine
 10
83.954661
 20
222.0714899999999
 30
0.0
 11
83.954661
 21
193.830825
 31
0.0
  0
LINE
  5
B192
330
AFE4
100
AcDbEntity
  8
1
  6
Continuous
100
AcDbLine
 10
34.454661
 20
222.0714899999999
 30
0.0
 11
34.454661
 21
192.4980859999998
 31
0.0
  0
ARC
  5
B193
330
AFE4
100
AcDbEntity
  8
1
  6
Continuous
100
AcDbCircle
 10
37.916661
 20
222.0714899999999
 30
0.0
 40
3.461999999999998
100
AcDbArc
 50
90.0
 51
180.0
  0
ARC
  5
B194
330
AFE4
100
AcDbEntity
  8
1
  6
Continuous
100
AcDbCircle
 10
80.492661
 20
222.0714899999999
 30
0.0
 40
3.461999999999998
100
AcDbArc
 50
0.0
 51
90.0
  0
ARC
  5
B195
330
AFE4
100
AcDbEntity
  8
1
  6
Continuous
100
AcDbCircle
 10
79.454661
 20
192.4980859999998
 30
0.0
 40
45.0
100
AcDbArc
 50
207.47971
 51
209.776794
  0
LINE
  5
B196
330
AFE4
100
AcDbEntity
  8
4
  6
CENTER
100
AcDbLine
 10
188.6691719999998
 20
106.601209
 30
0.0
 11
188.6691719999998
 21
42.60120899999999
 31
0.0
  0
LINE
  5
B197
330
AFE4
100
AcDbEntity
  8
1
  6
Continuous
100
AcDbLine
 10
216.669172
 20
47.60120899999999
 30
0.0
 11
160.669172
 21
47.60120899999999
 31
0.0
  0
LINE
  5
B198
330
AFE4
100
AcDbEntity
  8
1
  6
Continuous
100
AcDbLine
 10
216.669172
 20
101.601209
 30
0.0
 11
210.6696959999999
 21
101.601209
 31
0.0
  0
LINE
  5
B199
330
AFE4
100
AcDbEntity
  8
4
  6
CENTER
100
AcDbLine
 10
167.919172
 20
92.601209
 30
0.0
 11
155.419172
 21
92.601209
 31
0.0
  0
LINE
  5
B19A
330
AFE4
100
AcDbEntity
  8
4
  6
CENTER
100
AcDbLine
 10
167.919172
 20
56.60120899999999
 30
0.0
 11
155.419172
 21
56.60120899999999
 31
0.0
  0
LINE
  5
B19B
330
AFE4
100
AcDbEntity
  8
4
  6
CENTER
100
AcDbLine
 10
228.9691719999999
 20
74.60120899999998
 30
0.0
 11
121.1692379999998
 21
74.60120899999998
 31
0.0
  0
LINE
  5
B19C
330
AFE4
100
AcDbEntity
  8
4
  6
CENTER
100
AcDbLine
 10
161.669172
 20
98.851209
 30
0.0
 11
161.669172
 21
86.35120899999998
 31
0.0
  0
LINE
  5
B19D
330
AFE4
100
AcDbEntity
  8
1
  6
Continuous
100
AcDbLine
 10
153.4691719999998
 20
93.409709
 30
0.0
 11
153.4691719999998
 21
91.10970899999999
 31
0.0
  0
ARC
  5
B19E
330
AFE4
100
AcDbEntity
  8
1
  6
Continuous
100
AcDbCircle
 10
160.669172
 20
94.60120899999997
 30
0.0
 40
7.0
100
AcDbArc
 50
115.376254
 51
170.8884569999999
  0
LINE
  5
B19F
330
AFE4
100
AcDbEntity
  8
4
  6
CENTER
100
AcDbLine
 10
161.669172
 20
62.85120899999999
 30
0.0
 11
161.669172
 21
50.35120899999999
 31
0.0
  0
LINE
  5
B1A0
330
AFE4
100
AcDbEntity
  8
1
  6
Continuous
100
AcDbLine
 10
153.4691719999998
 20
58.092709
 30
0.0
 11
153.4691719999998
 21
55.792709
 31
0.0
  0
ARC
  5
B1A1
330
AFE4
100
AcDbEntity
  8
1
  6
Continuous
100
AcDbCircle
 10
160.669172
 20
54.60120899999999
 30
0.0
 40
7.0
100
AcDbArc
 50
180.0
 51
270.0
  0
ARC
  5
B1A2
330
AFE4
100
AcDbEntity
  8
1
  6
Continuous
100
AcDbCircle
 10
161.669172
 20
56.60120899999999
 30
0.0
 40
3.25
100
AcDbArc
 50
143.8042269999999
 51
152.6823629999999
  0
LINE
  5
B1A3
330
AFE4
100
AcDbEntity
  8
1
  6
Continuous
100
AcDbLine
 10
223.669172
 20
94.60120899999997
 30
0.0
 11
223.669172
 21
54.60120899999999
 31
0.0
  0
LINE
  5
B1A4
330
AFE4
100
AcDbEntity
  8
4
  6
CENTER
100
AcDbLine
 10
215.669172
 20
98.851209
 30
0.0
 11
215.669172
 21
86.35120899999998
 31
0.0
  0
CIRCLE
  5
B1A5
330
AFE4
100
AcDbEntity
  8
1
  6
Continuous
100
AcDbCircle
 10
215.669172
 20
92.601209
 30
0.0
 40
3.25
  0
LINE
  5
B1A6
330
AFE4
100
AcDbEntity
  8
4
  6
CENTER
100
AcDbLine
 10
221.919172
 20
92.601209
 30
0.0
 11
209.4191719999999
 21
92.601209
 31
0.0
  0
ARC
  5
B1A7
330
AFE4
100
AcDbEntity
  8
1
  6
Continuous
100
AcDbCircle
 10
216.669172
 20
94.60120899999997
 30
0.0
 40
7.0
100
AcDbArc
 50
0.0
 51
90.0
  0
LINE
  5
B1A8
330
AFE4
100
AcDbEntity
  8
4
  6
CENTER
100
AcDbLine
 10
221.919172
 20
56.60120899999999
 30
0.0
 11
209.4191719999999
 21
56.60120899999999
 31
0.0
  0
CIRCLE
  5
B1A9
330
AFE4
100
AcDbEntity
  8
1
  6
Continuous
100
AcDbCircle
 10
215.669172
 20
56.60120899999999
 30
0.0
 40
3.25
  0
LINE
  5
B1AA
330
AFE4
100
AcDbEntity
  8
4
  6
CENTER
100
AcDbLine
 10
215.669172
 20
62.85120899999999
 30
0.0
 11
215.669172
 21
50.35120899999999
 31
0.0
  0
ARC
  5
B1AB
330
AFE4
100
AcDbEntity
  8
1
  6
Continuous
100
AcDbCircle
 10
216.669172
 20
54.60120899999999
 30
0.0
 40
7.0
100
AcDbArc
 50
270.0
 51
0.0
  0
LINE
  5
B1AC
330
AFE4
100
AcDbEntity
  8
4
  6
CENTER
100
AcDbLine
 10
163.6692469999998
 20
106.601209
 30
0.0
 11
163.6692469999998
 21
42.60120899999999
 31
0.0
  0
LINE
  5
B1AD
330
AFE4
100
AcDbEntity
  8
1
  6
Continuous
100
AcDbLine
 10
153.4691719999998
 20
93.409709
 30
0.0
 11
169.8578239999999
 21
93.409709
 31
0.0
  0
LINE
  5
B1AE
330
AFE4
100
AcDbEntity
  8
1
  6
Continuous
100
AcDbLine
 10
153.4691719999998
 20
91.10970899999999
 30
0.0
 11
169.8578239999999
 21
91.10970899999999
 31
0.0
  0
LINE
  5
B1AF
330
AFE4
100
AcDbEntity
  8
1
  6
Continuous
100
AcDbLine
 10
153.4691719999998
 20
55.792709
 30
0.0
 11
169.8578239999999
 21
55.792709
 31
0.0
  0
LINE
  5
B1B0
330
AFE4
100
AcDbEntity
  8
1
  6
Continuous
100
AcDbLine
 10
153.4691719999998
 20
58.092709
 30
0.0
 11
169.8578239999999
 21
58.092709
 31
0.0
  0
ARC
  5
B1B1
330
AFE4
100
AcDbEntity
  8
1
  6
Continuous
100
AcDbCircle
 10
161.669172
 20
92.601209
 30
0.0
 40
3.25
100
AcDbArc
 50
207.317637
 51
216.195773
  0
LINE
  5
B1B2
330
AFE4
100
AcDbEntity
  8
1
  6
Continuous
100
AcDbLine
 10
153.669172
 20
60.101209
 30
0.0
 11
153.669172
 21
58.092709
 31
0.0
  0
LINE
  5
B1B3
330
AFE4
100
AcDbEntity
  8
1
  6
Continuous
100
AcDbLine
 10
153.669172
 20
90.377682
 30
0.0
 11
153.669172
 21
89.10120899999999
 31
0.0
  0
LINE
  5
B1B4
330
AFE4
100
AcDbEntity
  8
1
  6
Continuous
100
AcDbLine
 10
153.669172
 20
55.792709
 30
0.0
 11
153.669172
 21
54.60120899999999
 31
0.0
  0
ARC
  5
B1B5
330
AFE4
100
AcDbEntity
  8
1
  6
Continuous
100
AcDbCircle
 10
188.6691719999998
 20
74.60120899999998
 30
0.0
 40
24.75
100
AcDbArc
 50
234.9429129999998
 51
73.70093799999998
  0
ARC
  5
B1B6
330
AFE4
100
AcDbEntity
  8
1
  6
Continuous
100
AcDbCircle
 10
188.6691719999998
 20
74.60120899999998
 30
0.0
 40
22.45
100
AcDbArc
 50
234.9429129999998
 51
72.71909499999998
  0
ARC
  5
B1B7
330
AFE4
100
AcDbEntity
  8
1
  6
Continuous
100
AcDbCircle
 10
169.8578239999999
 20
101.4097089999999
 30
0.0
 40
8.0
100
AcDbArc
 50
304.5017169999999
 51
305.057087
  0
ARC
  5
B1B8
330
AFE4
100
AcDbEntity
  8
1
  6
Continuous
100
AcDbCircle
 10
169.8578239999999
 20
101.4097089999999
 30
0.0
 40
10.3
100
AcDbArc
 50
270.0
 51
305.057087
  0
ARC
  5
B1B9
330
AFE4
100
AcDbEntity
  8
1
  6
Continuous
100
AcDbCircle
 10
169.8578239999999
 20
47.792709
 30
0.0
 40
10.3
100
AcDbArc
 50
54.942913
 51
90.0
  0
ARC
  5
B1BA
330
AFE4
100
AcDbEntity
  8
1
  6
Continuous
100
AcDbCircle
 10
169.8578239999999
 20
47.792709
 30
0.0
 40
8.0
100
AcDbArc
 50
54.942913
 51
90.0
  0
ARC
  5
B1BB
330
AFE4
100
AcDbEntity
  8
1
  6
Continuous
100
AcDbCircle
 10
188.6691719999998
 20
74.60120899999998
 30
0.0
 40
26.000075
100
AcDbArc
 50
226.504025
 51
66.162345
  0
ARC
  5
B1BC
330
AFE4
100
AcDbEntity
  8
1
  6
Continuous
100
AcDbCircle
 10
188.6691719999998
 20
74.60120899999998
 30
0.0
 40
18.44999999999998
100
AcDbArc
 50
225.64192
 51
134.35808
  0
ARC
  5
B1BD
330
AFE4
100
AcDbEntity
  8
1
  6
Continuous
100
AcDbCircle
 10
188.6691719999998
 20
74.60120899999998
 30
0.0
 40
20.44999999999999
100
AcDbArc
 50
225.1573849999998
 51
75.27459499999998
  0
ARC
  5
B1BE
330
AFE4
100
AcDbEntity
  8
1
  6
Continuous
100
AcDbCircle
 10
161.669172
 20
281.5054979999998
 30
0.0
 40
3.25
100
AcDbArc
 50
194.4046939999998
 51
202.623302
  0
LINE
  5
B1BF
330
AFE4
100
AcDbEntity
  8
1
  6
Continuous
100
AcDbLine
 10
158.521343
 20
280.696998
 30
0.0
 11
164.817001
 21
280.696998
 31
0.0
  0
LINE
  5
B1C0
330
AFE4
100
AcDbEntity
  8
1
  6
Continuous
100
AcDbLine
 10
158.7816249999999
 20
282.996998
 30
0.0
 11
159.6200019999998
 21
282.996998
 31
0.0
  0
LINE
  5
B1C1
330
AFE4
100
AcDbEntity
  8
1
  6
Continuous
100
AcDbLine
 10
158.521343
 20
318.313998
 30
0.0
 11
164.817001
 21
318.313998
 31
0.0
  0
ARC
  5
B1C2
330
AFE4
100
AcDbEntity
  8
1
  6
Continuous
100
AcDbCircle
 10
212.2482479999999
 20
74.60120899999998
 30
0.0
 40
55.579
100
AcDbArc
 50
162.720836
 51
164.877128
  0
ARC
  5
B1C3
330
AFE4
100
AcDbEntity
  8
1
  6
Continuous
100
AcDbCircle
 10
212.2482479999999
 20
74.60120899999998
 30
0.0
 40
55.579
100
AcDbArc
 50
195.1228719999998
 51
197.279164
  0
ARC
  5
B1C4
330
AFE4
100
AcDbEntity
  8
1
  6
Continuous
100
AcDbCircle
 10
212.2482479999999
 20
300.865771
 30
0.0
 40
55.579
100
AcDbArc
 50
197.892775
 51
201.277466
  0
ARC
  5
B1C5
330
AFE4
100
AcDbEntity
  8
1
  6
Continuous
100
AcDbCircle
 10
212.2482479999999
 20
300.865771
 30
0.0
 40
55.579
100
AcDbArc
 50
161.703431
 51
164.172741
  0
ARC
  5
B1C6
330
AFE4
100
AcDbEntity
  8
1
  6
Continuous
100
AcDbCircle
 10
267.8533489999999
 20
192.498041
 30
0.0
 40
45.0
100
AcDbArc
 50
333.6771109999999
 51
6.077233000000001
  0
ARC
  5
B1C7
330
AFE4
100
AcDbEntity
  8
1
  6
Continuous
100
AcDbCircle
 10
270.190847
 20
192.563659
 30
0.0
 40
45.0
100
AcDbArc
 50
333.035978
 51
3.794623999999998
  0
ARC
  5
B1C8
330
AFE4
100
AcDbEntity
  8
1
  6
Continuous
100
AcDbCircle
 10
282.9696049999999
 20
191.7707639999999
 30
0.0
 40
30.135401
100
AcDbArc
 50
10.499302
 51
18.221623
  0
ARC
  5
B1C9
330
AFE4
100
AcDbEntity
  8
1
  6
Continuous
100
AcDbCircle
 10
361.6019039999998
 20
170.77931
 30
0.0
 40
97.26650800000001
100
AcDbArc
 50
151.2652759999998
 51
161.778377
  0
ARC
  5
B1CA
330
AFE4
100
AcDbEntity
  8
1
  6
Continuous
100
AcDbCircle
 10
297.837146
 20
191.7707639999999
 30
0.0
 40
30.135401
100
AcDbArc
 50
161.778377
 51
169.500698
  0
ARC
  5
B1CB
330
AFE4
100
AcDbEntity
  8
1
  6
Continuous
100
AcDbCircle
 10
312.9534019999999
 20
192.498041
 30
0.0
 40
45.0
100
AcDbArc
 50
173.922767
 51
194.2381949999999
  0
ARC
  5
B1CC
330
AFE4
100
AcDbEntity
  8
1
  6
Continuous
100
AcDbCircle
 10
279.4968749999998
 20
223.160111
 30
0.0
 40
7.487396
100
AcDbArc
 50
240.6184049999999
 51
265.563802
  0
ARC
  5
B1CD
330
AFE4
100
AcDbEntity
  8
1
  6
Continuous
100
AcDbCircle
 10
301.7999429999999
 20
223.521524
 30
0.0
 40
7.848514999999999
100
AcDbArc
 50
270.9161379999998
 51
294.920656
  0
ARC
  5
B1CE
330
AFE4
100
AcDbEntity
  8
1
  6
Continuous
100
AcDbCircle
 10
163.6692469999998
 20
178.7334899999999
 30
0.0
 40
12.5
100
AcDbArc
 50
197.5517639999999
 51
315.013568
  0
ARC
  5
B1CF
330
AFE4
100
AcDbEntity
  8
1
  6
Continuous
100
AcDbCircle
 10
163.6692469999998
 20
178.7334899999999
 30
0.0
 40
28.0
100
AcDbArc
 50
103.0579949999999
 51
152.626986
  0
ARC
  5
B1D0
330
AFE4
100
AcDbEntity
  8
1
  6
Continuous
100
AcDbCircle
 10
163.6692469999998
 20
178.7334899999999
 30
0.0
 40
19.5
100
AcDbArc
 50
113.402507
 51
145.315396
  0
ARC
  5
B1D1
330
AFE4
100
AcDbEntity
  8
1
  6
Continuous
100
AcDbCircle
 10
163.6692469999998
 20
178.7334899999999
 30
0.0
 40
37.5
100
AcDbArc
 50
97.39539
 51
157.203565
  0
ARC
  5
B1D2
330
AFE4
100
AcDbEntity
  8
1
  6
Continuous
100
AcDbCircle
 10
141.169247
 20
74.60120899999998
 30
0.0
 40
60.0
100
AcDbArc
 50
351.1501169999998
 51
8.849883
  0
LINE
  5
B1D3
330
AFE4
100
AcDbEntity
  8
1
  6
Continuous
100
AcDbLine
 10
176.1692469999999
 20
62.10120899999999
 30
0.0
 11
182.1787469999999
 21
63.57077
 31
0.0
  0
LINE
  5
B1D4
330
AFE4
100
AcDbEntity
  8
1
  6
Continuous
100
AcDbLine
 10
198.972794
 20
64.10120899999999
 30
0.0
 11
128.3657009999998
 21
64.10120899999999
 31
0.0
  0
LINE
  5
B1D5
330
AFE4
100
AcDbEntity
  8
1
  6
Continuous
100
AcDbLine
 10
182.591897
 20
64.10120899999999
 30
0.0
 11
182.3672929999999
 21
63.71218299999998
 31
0.0
  0
ARC
  5
B1D6
330
AFE4
100
AcDbEntity
  8
1
  6
Continuous
100
AcDbCircle
 10
182.107485
 20
63.86218299999999
 30
0.0
 40
0.3
100
AcDbArc
 50
283.741415
 51
330.0
  0
ARC
  5
B1D7
330
AFE4
100
AcDbEntity
  8
1
  6
Continuous
100
AcDbCircle
 10
198.972794
 20
65.601209
 30
0.0
 40
1.5
100
AcDbArc
 50
270.0
 51
351.1501169999998
  0
LINE
  5
B1D8
330
AFE4
100
AcDbEntity
  8
1
  6
Continuous
100
AcDbLine
 10
176.1692469999999
 20
62.10120899999999
 30
0.0
 11
175.0145469999999
 21
60.101209
 31
0.0
  0
LINE
  5
B1D9
330
AFE4
100
AcDbEntity
  8
1
  6
Continuous
100
AcDbLine
 10
152.3239479999998
 20
60.101209
 30
0.0
 11
175.0145469999999
 21
60.101209
 31
0.0
  0
LINE
  5
B1DA
330
AFE4
100
AcDbEntity
  8
1
  6
Continuous
100
AcDbLine
 10
151.1692469999998
 20
62.10120899999999
 30
0.0
 11
176.1692469999999
 21
62.10120899999999
 31
0.0
  0
LINE
  5
B1DB
330
AFE4
100
AcDbEntity
  8
1
  6
Continuous
100
AcDbLine
 10
159.6692469999998
 20
58.092709
 30
0.0
 11
159.6692469999998
 21
60.101209
 31
0.0
  0
LINE
  5
B1DC
330
AFE4
100
AcDbEntity
  8
1
  6
Continuous
100
AcDbLine
 10
167.6692469999998
 20
58.092709
 30
0.0
 11
167.6692469999998
 21
60.101209
 31
0.0
  0
LINE
  5
B1DD
330
AFE4
100
AcDbEntity
  8
1
  6
Continuous
100
AcDbLine
 10
176.1692469999999
 20
87.10120899999997
 30
0.0
 11
182.1787469999999
 21
85.631648
 31
0.0
  0
LINE
  5
B1DE
330
AFE4
100
AcDbEntity
  8
1
  6
Continuous
100
AcDbLine
 10
198.972794
 20
85.10120899999998
 30
0.0
 11
128.3657009999998
 21
85.10120899999998
 31
0.0
  0
LINE
  5
B1DF
330
AFE4
100
AcDbEntity
  8
1
  6
Continuous
100
AcDbLine
 10
182.591897
 20
85.10120899999998
 30
0.0
 11
182.3672929999999
 21
85.490235
 31
0.0
  0
ARC
  5
B1E0
330
AFE4
100
AcDbEntity
  8
1
  6
Continuous
100
AcDbCircle
 10
182.107485
 20
85.34023499999998
 30
0.0
 40
0.3
100
AcDbArc
 50
30.0
 51
76.25858499999998
  0
ARC
  5
B1E1
330
AFE4
100
AcDbEntity
  8
1
  6
Continuous
100
AcDbCircle
 10
198.972794
 20
83.60120899999998
 30
0.0
 40
1.5
100
AcDbArc
 50
8.849883
 51
90.0
  0
LINE
  5
B1E2
330
AFE4
100
AcDbEntity
  8
1
  6
Continuous
100
AcDbLine
 10
159.6692469999998
 20
89.10120899999999
 30
0.0
 11
159.6692469999998
 21
91.10970899999999
 31
0.0
  0
LINE
  5
B1E3
330
AFE4
100
AcDbEntity
  8
1
  6
Continuous
100
AcDbLine
 10
167.6692469999998
 20
89.10120899999999
 30
0.0
 11
167.6692469999998
 21
91.10970899999999
 31
0.0
  0
LINE
  5
B1E4
330
AFE4
100
AcDbEntity
  8
1
  6
Continuous
100
AcDbLine
 10
176.1692469999999
 20
87.10120899999997
 30
0.0
 11
175.0145469999999
 21
89.10120899999999
 31
0.0
  0
LINE
  5
B1E5
330
AFE4
100
AcDbEntity
  8
1
  6
Continuous
100
AcDbLine
 10
152.3239479999998
 20
89.10120899999999
 30
0.0
 11
175.0145469999999
 21
89.10120899999999
 31
0.0
  0
LINE
  5
B1E6
330
AFE4
100
AcDbEntity
  8
1
  6
Continuous
100
AcDbLine
 10
151.1692469999998
 20
87.10120899999997
 30
0.0
 11
176.1692469999999
 21
87.10120899999997
 31
0.0
  0
ARC
  5
B1E7
330
AFE4
100
AcDbEntity
  8
1
  6
Continuous
100
AcDbCircle
 10
186.1692469999999
 20
74.60120899999998
 30
0.0
 40
60.0
100
AcDbArc
 50
171.150117
 51
188.8498829999998
  0
LINE
  5
B1E8
330
AFE4
100
AcDbEntity
  8
1
  6
Continuous
100
AcDbLine
 10
144.746598
 20
64.10120899999999
 30
0.0
 11
144.9712019999998
 21
63.71218299999998
 31
0.0
  0
ARC
  5
B1E9
330
AFE4
100
AcDbEntity
  8
1
  6
Continuous
100
AcDbCircle
 10
145.231009
 20
63.86218299999999
 30
0.0
 40
0.3
100
AcDbArc
 50
210.0
 51
256.258585
  0
LINE
  5
B1EA
330
AFE4
100
AcDbEntity
  8
1
  6
Continuous
100
AcDbLine
 10
151.1692469999998
 20
62.10120899999999
 30
0.0
 11
152.3239479999998
 21
60.101209
 31
0.0
  0
LINE
  5
B1EB
330
AFE4
100
AcDbEntity
  8
1
  6
Continuous
100
AcDbLine
 10
151.1692469999998
 20
62.10120899999999
 30
0.0
 11
145.159747
 21
63.57077
 31
0.0
  0
ARC
  5
B1EC
330
AFE4
100
AcDbEntity
  8
1
  6
Continuous
100
AcDbCircle
 10
128.3657009999998
 20
65.601209
 30
0.0
 40
1.5
100
AcDbArc
 50
188.8498829999998
 51
270.0
  0
LINE
  5
B1ED
330
AFE4
100
AcDbEntity
  8
1
  6
Continuous
100
AcDbLine
 10
144.746598
 20
85.10120899999998
 30
0.0
 11
144.9712019999998
 21
85.490235
 31
0.0
  0
ARC
  5
B1EE
330
AFE4
100
AcDbEntity
  8
1
  6
Continuous
100
AcDbCircle
 10
145.231009
 20
85.34023499999998
 30
0.0
 40
0.3
100
AcDbArc
 50
103.741415
 51
150.0
  0
LINE
  5
B1EF
330
AFE4
100
AcDbEntity
  8
1
  6
Continuous
100
AcDbLine
 10
151.1692469999998
 20
87.10120899999997
 30
0.0
 11
152.3239479999998
 21
89.10120899999999
 31
0.0
  0
LINE
  5
B1F0
330
AFE4
100
AcDbEntity
  8
1
  6
Continuous
100
AcDbLine
 10
151.1692469999998
 20
87.10120899999997
 30
0.0
 11
145.159747
 21
85.631648
 31
0.0
  0
ARC
  5
B1F1
330
AFE4
100
AcDbEntity
  8
1
  6
Continuous
100
AcDbCircle
 10
128.3657009999998
 20
83.60120899999998
 30
0.0
 40
1.5
100
AcDbArc
 50
90.0
 51
171.150117
  0
LINE
  5
B1F2
330
AFE4
100
AcDbEntity
  8
1
  6
Continuous
100
AcDbLine
 10
46.704661
 20
191.233535
 30
0.0
 11
46.704661
 21
166.233535
 31
0.0
  0
LINE
  5
B1F3
330
AFE4
100
AcDbEntity
  8
1
  6
Continuous
100
AcDbLine
 10
44.704661
 20
190.078834
 30
0.0
 11
44.704661
 21
167.388235
 31
0.0
  0
LINE
  5
B1F4
330
AFE4
100
AcDbEntity
  8
1
  6
Continuous
100
AcDbLine
 10
73.704661
 20
176.947425
 30
0.0
 11
73.704661
 21
167.388235
 31
0.0
  0
LINE
  5
B1F5
330
AFE4
100
AcDbEntity
  8
1
  6
Continuous
100
AcDbLine
 10
71.704661
 20
177.1664449999999
 30
0.0
 11
71.704661
 21
166.233535
 31
0.0
  0
LINE
  5
B1F6
330
AFE4
100
AcDbEntity
  8
1
  6
Continuous
100
AcDbLine
 10
69.704661
 20
143.4299879999999
 30
0.0
 11
69.704661
 21
214.0370809999998
 31
0.0
  0
LINE
  5
B1F7
330
AFE4
100
AcDbEntity
  8
1
  6
Continuous
100
AcDbLine
 10
48.704661
 20
143.4299879999999
 30
0.0
 11
48.704661
 21
214.0370809999998
 31
0.0
  0
ARC
  5
B1F8
330
AFE4
100
AcDbEntity
  8
1
  6
Continuous
100
AcDbCircle
 10
59.204661
 20
201.2335349999999
 30
0.0
 40
60.0
100
AcDbArc
 50
261.1501169999999
 51
278.8498829999999
  0
ARC
  5
B1F9
330
AFE4
100
AcDbEntity
  8
1
  6
Continuous
100
AcDbCircle
 10
50.204661
 20
143.4299879999999
 30
0.0
 40
1.5
100
AcDbArc
 50
180.0
 51
261.1501169999999
  0
LINE
  5
B1FA
330
AFE4
100
AcDbEntity
  8
1
  6
Continuous
100
AcDbLine
 10
46.704661
 20
166.233535
 30
0.0
 11
44.704661
 21
167.388235
 31
0.0
  0
ARC
  5
B1FB
330
AFE4
100
AcDbEntity
  8
1
  6
Continuous
100
AcDbCircle
 10
48.465635
 20
160.295297
 30
0.0
 40
0.3
100
AcDbArc
 50
193.741415
 51
239.9999999999999
  0
LINE
  5
B1FC
330
AFE4
100
AcDbEntity
  8
1
  6
Continuous
100
AcDbLine
 10
48.704661
 20
159.810885
 30
0.0
 11
48.315635
 21
160.035489
 31
0.0
  0
LINE
  5
B1FD
330
AFE4
100
AcDbEntity
  8
1
  6
Continuous
100
AcDbLine
 10
46.704661
 20
166.233535
 30
0.0
 11
48.174222
 21
160.2240349999999
 31
0.0
  0
ARC
  5
B1FE
330
AFE4
100
AcDbEntity
  8
1
  6
Continuous
100
AcDbCircle
 10
68.204661
 20
143.4299879999999
 30
0.0
 40
1.5
100
AcDbArc
 50
278.8498829999999
 51
0.0
  0
LINE
  5
B1FF
330
AFE4
100
AcDbEntity
  8
1
  6
Continuous
100
AcDbLine
 10
71.704661
 20
166.233535
 30
0.0
 11
73.704661
 21
167.388235
 31
0.0
  0
ARC
  5
B200
330
AFE4
100
AcDbEntity
  8
1
  6
Continuous
100
AcDbCircle
 10
69.94368699999999
 20
160.295297
 30
0.0
 40
0.3
100
AcDbArc
 50
300.0
 51
346.2585849999999
  0
LINE
  5
B201
330
AFE4
100
AcDbEntity
  8
1
  6
Continuous
100
AcDbLine
 10
69.704661
 20
159.810885
 30
0.0
 11
70.093687
 21
160.035489
 31
0.0
  0
LINE
  5
B202
330
AFE4
100
AcDbEntity
  8
1
  6
Continuous
100
AcDbLine
 10
71.704661
 20
166.233535
 30
0.0
 11
70.2351
 21
160.2240349999999
 31
0.0
  0
ARC
  5
B203
330
AFE4
100
AcDbEntity
  8
1
  6
Continuous
100
AcDbCircle
 10
59.204661
 20
156.2335349999999
 30
0.0
 40
60.0
100
AcDbArc
 50
81.15011700000001
 51
98.84988300000001
  0
LINE
  5
B204
330
AFE4
100
AcDbEntity
  8
1
  6
Continuous
100
AcDbLine
 10
46.704661
 20
191.233535
 30
0.0
 11
48.174222
 21
197.2430349999999
 31
0.0
  0
LINE
  5
B205
330
AFE4
100
AcDbEntity
  8
1
  6
Continuous
100
AcDbLine
 10
46.704661
 20
191.233535
 30
0.0
 11
44.704661
 21
190.078834
 31
0.0
  0
ARC
  5
B206
330
AFE4
100
AcDbEntity
  8
1
  6
Continuous
100
AcDbCircle
 10
48.465635
 20
197.171773
 30
0.0
 40
0.3
100
AcDbArc
 50
119.9999999999999
 51
166.258585
  0
LINE
  5
B207
330
AFE4
100
AcDbEntity
  8
1
  6
Continuous
100
AcDbLine
 10
48.704661
 20
197.656184
 30
0.0
 11
48.315635
 21
197.43158
 31
0.0
  0
ARC
  5
B208
330
AFE4
100
AcDbEntity
  8
1
  6
Continuous
100
AcDbCircle
 10
50.204661
 20
214.0370809999998
 30
0.0
 40
1.5
100
AcDbArc
 50
98.84988300000001
 51
180.0
  0
LINE
  5
B209
330
AFE4
100
AcDbEntity
  8
1
  6
Continuous
100
AcDbLine
 10
71.09219799999998
 20
193.7380899999998
 30
0.0
 11
70.2351
 21
197.2430349999999
 31
0.0
  0
ARC
  5
B20A
330
AFE4
100
AcDbEntity
  8
1
  6
Continuous
100
AcDbCircle
 10
69.94368699999999
 20
197.171773
 30
0.0
 40
0.3
100
AcDbArc
 50
13.741415
 51
60.0
  0
LINE
  5
B20B
330
AFE4
100
AcDbEntity
  8
1
  6
Continuous
100
AcDbLine
 10
69.704661
 20
197.656184
 30
0.0
 11
70.093687
 21
197.43158
 31
0.0
  0
ARC
  5
B20C
330
AFE4
100
AcDbEntity
  8
1
  6
Continuous
100
AcDbCircle
 10
68.204661
 20
214.0370809999998
 30
0.0
 40
1.5
100
AcDbArc
 50
0.0
 51
81.15011700000001
  0
LINE
  5
B20D
330
AFE4
100
AcDbEntity
  8
1
  6
Continuous
100
AcDbLine
 10
47.719019
 20
215.695192
 30
0.0
 11
51.16181199999999
 21
215.6920299999999
 31
0.0
  0
LINE
  5
B20E
330
AFE4
100
AcDbEntity
  8
1
  6
Continuous
100
AcDbLine
 10
67.35673299999999
 20
215.6771529999998
 30
0.0
 11
70.72671899999997
 21
215.674058
 31
0.0
  0
LINE
  5
B20F
330
AFE4
100
AcDbEntity
  8
1
  6
Continuous
100
AcDbLine
 10
279.9033759999999
 20
143.4299429999998
 30
0.0
 11
279.9033759999999
 21
214.0370359999999
 31
0.0
  0
LINE
  5
B210
330
AFE4
100
AcDbEntity
  8
1
  6
Continuous
100
AcDbLine
 10
300.9033759999999
 20
143.4299429999998
 30
0.0
 11
300.9033759999999
 21
214.0370359999999
 31
0.0
  0
ARC
  5
B211
330
AFE4
100
AcDbEntity
  8
1
  6
Continuous
100
AcDbCircle
 10
290.4033759999999
 20
201.2334899999999
 30
0.0
 40
60.0
100
AcDbArc
 50
261.1501169999999
 51
278.8498829999999
  0
ARC
  5
B212
330
AFE4
100
AcDbEntity
  8
1
  6
Continuous
100
AcDbCircle
 10
281.403376
 20
143.4299429999998
 30
0.0
 40
1.5
100
AcDbArc
 50
180.0
 51
261.1501169999999
  0
ARC
  5
B213
330
AFE4
100
AcDbEntity
  8
1
  6
Continuous
100
AcDbCircle
 10
299.4033759999999
 20
143.4299429999998
 30
0.0
 40
1.5
100
AcDbArc
 50
278.8498829999999
 51
0.0
  0
LINE
  5
B214
330
AFE4
100
AcDbEntity
  8
1
  6
Continuous
100
AcDbLine
 10
275.9033759999999
 20
190.078789
 30
0.0
 11
275.9033759999999
 21
167.3881899999998
 31
0.0
  0
LINE
  5
B215
330
AFE4
100
AcDbEntity
  8
1
  6
Continuous
100
AcDbLine
 10
277.9033759999999
 20
191.2334899999999
 30
0.0
 11
277.9033759999999
 21
166.2334899999999
 31
0.0
  0
LINE
  5
B216
330
AFE4
100
AcDbEntity
  8
1
  6
Continuous
100
AcDbLine
 10
275.9033759999999
 20
174.73349
 30
0.0
 11
273.8948759999999
 21
174.73349
 31
0.0
  0
LINE
  5
B217
330
AFE4
100
AcDbEntity
  8
1
  6
Continuous
100
AcDbLine
 10
277.9033759999999
 20
166.2334899999999
 30
0.0
 11
275.9033759999999
 21
167.3881899999998
 31
0.0
  0
ARC
  5
B218
330
AFE4
100
AcDbEntity
  8
1
  6
Continuous
100
AcDbCircle
 10
279.66435
 20
160.295252
 30
0.0
 40
0.3
100
AcDbArc
 50
193.741415
 51
239.9999999999999
  0
LINE
  5
B219
330
AFE4
100
AcDbEntity
  8
1
  6
Continuous
100
AcDbLine
 10
279.9033759999999
 20
159.8108399999999
 30
0.0
 11
279.51435
 21
160.0354439999998
 31
0.0
  0
LINE
  5
B21A
330
AFE4
100
AcDbEntity
  8
1
  6
Continuous
100
AcDbLine
 10
277.9033759999999
 20
166.2334899999999
 30
0.0
 11
279.3729369999999
 21
160.2239899999998
 31
0.0
  0
LINE
  5
B21B
330
AFE4
100
AcDbEntity
  8
1
  6
Continuous
100
AcDbLine
 10
275.9033759999999
 20
182.7334899999999
 30
0.0
 11
273.8948759999999
 21
182.7334899999999
 31
0.0
  0
LINE
  5
B21C
330
AFE4
100
AcDbEntity
  8
1
  6
Continuous
100
AcDbLine
 10
277.9033759999999
 20
191.2334899999999
 30
0.0
 11
279.3729369999999
 21
197.24299
 31
0.0
  0
LINE
  5
B21D
330
AFE4
100
AcDbEntity
  8
1
  6
Continuous
100
AcDbLine
 10
277.9033759999999
 20
191.2334899999999
 30
0.0
 11
275.9033759999999
 21
190.078789
 31
0.0
  0
ARC
  5
B21E
330
AFE4
100
AcDbEntity
  8
1
  6
Continuous
100
AcDbCircle
 10
279.66435
 20
197.171728
 30
0.0
 40
0.3
100
AcDbArc
 50
119.9999999999999
 51
166.258585
  0
LINE
  5
B21F
330
AFE4
100
AcDbEntity
  8
1
  6
Continuous
100
AcDbLine
 10
279.9033759999999
 20
197.656139
 30
0.0
 11
279.51435
 21
197.4315349999999
 31
0.0
  0
LINE
  5
B220
330
AFE4
100
AcDbEntity
  8
1
  6
Continuous
100
AcDbLine
 10
302.9033759999999
 20
191.2334899999999
 30
0.0
 11
302.9033759999999
 21
166.2334899999999
 31
0.0
  0
LINE
  5
B221
330
AFE4
100
AcDbEntity
  8
1
  6
Continuous
100
AcDbLine
 10
304.9033759999999
 20
190.078789
 30
0.0
 11
304.9033759999999
 21
167.3881899999998
 31
0.0
  0
LINE
  5
B222
330
AFE4
100
AcDbEntity
  8
1
  6
Continuous
100
AcDbLine
 10
306.9118759999998
 20
174.73349
 30
0.0
 11
304.9033759999999
 21
174.73349
 31
0.0
  0
LINE
  5
B223
330
AFE4
100
AcDbEntity
  8
1
  6
Continuous
100
AcDbLine
 10
302.9033759999999
 20
166.2334899999999
 30
0.0
 11
304.9033759999999
 21
167.3881899999998
 31
0.0
  0
ARC
  5
B224
330
AFE4
100
AcDbEntity
  8
1
  6
Continuous
100
AcDbCircle
 10
301.142402
 20
160.295252
 30
0.0
 40
0.3
100
AcDbArc
 50
300.0
 51
346.2585849999999
  0
LINE
  5
B225
330
AFE4
100
AcDbEntity
  8
1
  6
Continuous
100
AcDbLine
 10
300.9033759999999
 20
159.8108399999999
 30
0.0
 11
301.2924019999999
 21
160.0354439999998
 31
0.0
  0
LINE
  5
B226
330
AFE4
100
AcDbEntity
  8
1
  6
Continuous
100
AcDbLine
 10
302.9033759999999
 20
166.2334899999999
 30
0.0
 11
301.4338149999999
 21
160.2239899999998
 31
0.0
  0
LINE
  5
B227
330
AFE4
100
AcDbEntity
  8
1
  6
Continuous
100
AcDbLine
 10
302.9033759999999
 20
191.2334899999999
 30
0.0
 11
301.4338149999999
 21
197.24299
 31
0.0
  0
LINE
  5
B228
330
AFE4
100
AcDbEntity
  8
1
  6
Continuous
100
AcDbLine
 10
302.9033759999999
 20
191.2334899999999
 30
0.0
 11
304.9033759999999
 21
190.078789
 31
0.0
  0
ARC
  5
B229
330
AFE4
100
AcDbEntity
  8
1
  6
Continuous
100
AcDbCircle
 10
301.142402
 20
197.171728
 30
0.0
 40
0.3
100
AcDbArc
 50
13.741415
 51
60.0
  0
LINE
  5
B22A
330
AFE4
100
AcDbEntity
  8
1
  6
Continuous
100
AcDbLine
 10
306.9118759999998
 20
182.7334899999999
 30
0.0
 11
304.9033759999999
 21
182.7334899999999
 31
0.0
  0
LINE
  5
B22B
330
AFE4
100
AcDbEntity
  8
1
  6
Continuous
100
AcDbLine
 10
300.9033759999999
 20
197.656139
 30
0.0
 11
301.2924019999999
 21
197.4315349999999
 31
0.0
  0
ARC
  5
B22C
330
AFE4
100
AcDbEntity
  8
1
  6
Continuous
100
AcDbCircle
 10
290.4033759999999
 20
156.2334899999999
 30
0.0
 40
60.0
100
AcDbArc
 50
81.15011700000001
 51
82.16004899999999
  0
ARC
  5
B22D
330
AFE4
100
AcDbEntity
  8
1
  6
Continuous
100
AcDbCircle
 10
281.403376
 20
214.0370359999999
 30
0.0
 40
1.5
100
AcDbArc
 50
98.84988300000001
 51
180.0
  0
ARC
  5
B22E
330
AFE4
100
AcDbEntity
  8
1
  6
Continuous
100
AcDbCircle
 10
299.4033759999999
 20
214.0370359999999
 30
0.0
 40
1.5
100
AcDbArc
 50
0.0
 51
81.15011700000001
  0
ARC
  5
B22F
330
AFE4
100
AcDbEntity
  8
1
  6
Continuous
100
AcDbCircle
 10
295.1360389999999
 20
194.2181659999999
 30
0.0
 40
20.0
100
AcDbArc
 50
3.794623999999998
 51
17.154698
  0
ARC
  5
B230
330
AFE4
100
AcDbEntity
  8
1
  6
Continuous
100
AcDbCircle
 10
361.6019039999998
 20
170.77931
 30
0.0
 40
99.466508
100
AcDbArc
 50
154.2684
 51
162.845302
  0
ARC
  5
B231
330
AFE4
100
AcDbEntity
  8
1
  6
Continuous
100
AcDbCircle
 10
285.6707119999999
 20
194.2181659999999
 30
0.0
 40
20.0
100
AcDbArc
 50
162.845302
 51
176.205376
  0
ARC
  5
B232
330
AFE4
100
AcDbEntity
  8
1
  6
Continuous
100
AcDbCircle
 10
310.615904
 20
192.563659
 30
0.0
 40
45.0
100
AcDbArc
 50
176.205376
 51
183.193499
  0
ARC
  5
B233
330
AFE4
100
AcDbEntity
  8
1
  6
Continuous
100
AcDbCircle
 10
319.2118759999999
 20
167.6249589999999
 30
0.0
 40
10.0
100
AcDbArc
 50
153.0359779999998
 51
180.0
  0
ARC
  5
B234
330
AFE4
100
AcDbEntity
  8
1
  6
Continuous
100
AcDbCircle
 10
319.2118759999999
 20
167.0895419999999
 30
0.0
 40
12.3
100
AcDbArc
 50
153.677111
 51
179.329451
  0
LINE
  5
B235
330
AFE4
100
AcDbEntity
  8
1
  6
Continuous
100
AcDbLine
 10
306.9118759999998
 20
212.8298829999998
 30
0.0
 11
306.9118759999998
 21
167.2334899999999
 31
0.0
  0
ARC
  5
B236
330
AFE4
100
AcDbEntity
  8
1
  6
Continuous
100
AcDbCircle
 10
261.594876
 20
167.0895419999999
 30
0.0
 40
12.3
100
AcDbArc
 50
0.670549
 51
26.322889
  0
ARC
  5
B237
330
AFE4
100
AcDbEntity
  8
1
  6
Continuous
100
AcDbCircle
 10
261.594876
 20
167.6249589999999
 30
0.0
 40
10.0
100
AcDbArc
 50
0.0
 51
26.96402199999999
  0
LINE
  5
B238
330
AFE4
100
AcDbEntity
  8
1
  6
Continuous
100
AcDbLine
 10
279.1554759999999
 20
215.664841
 30
0.0
 11
301.9254329999998
 21
215.674012
 31
0.0
  0
ARC
  5
B239
330
AFE4
100
AcDbEntity
  8
1
  6
Continuous
100
AcDbCircle
 10
290.4033759999999
 20
156.2334899999999
 30
0.0
 40
60.0
100
AcDbArc
 50
97.88610400000003
 51
98.84988300000001
  0
LINE
  5
B23A
330
AFE4
100
AcDbEntity
  8
1
  6
Continuous
100
AcDbLine
 10
278.917733
 20
215.695147
 30
0.0
 11
279.1554759999999
 21
215.664841
 31
0.0
  0
ARC
  5
B23B
330
AFE4
100
AcDbEntity
  8
1
  6
Continuous
100
AcDbCircle
 10
128.3657009999998
 20
308.5054979999998
 30
0.0
 40
1.5
100
AcDbArc
 50
90.0
 51
171.150117
  0
ARC
  5
B23C
330
AFE4
100
AcDbEntity
  8
1
  6
Continuous
100
AcDbCircle
 10
128.3657009999998
 20
290.505498
 30
0.0
 40
1.5
100
AcDbArc
 50
188.8498829999998
 51
270.0
  0
ARC
  5
B23D
330
AFE4
100
AcDbEntity
  8
1
  6
Continuous
100
AcDbCircle
 10
186.1692469999999
 20
299.5054979999999
 30
0.0
 40
60.0
100
AcDbArc
 50
171.150117
 51
188.8498829999998
  0
LINE
  5
B23E
330
AFE4
100
AcDbEntity
  8
1
  6
Continuous
100
AcDbLine
 10
151.1692469999998
 20
312.0054979999999
 30
0.0
 11
152.3239479999998
 21
314.0054979999998
 31
0.0
  0
LINE
  5
B23F
330
AFE4
100
AcDbEntity
  8
1
  6
Continuous
100
AcDbLine
 10
153.669172
 20
310.0054979999999
 30
0.0
 11
128.3657009999998
 21
310.0054979999999
 31
0.0
  0
LINE
  5
B240
330
AFE4
100
AcDbEntity
  8
1
  6
Continuous
100
AcDbLine
 10
153.669172
 20
289.005498
 30
0.0
 11
128.3657009999998
 21
289.005498
 31
0.0
  0
LINE
  5
B241
330
AFE4
100
AcDbEntity
  8
1
  6
Continuous
100
AcDbLine
 10
151.1692469999998
 20
312.0054979999999
 30
0.0
 11
153.669172
 21
312.0054979999999
 31
0.0
  0
LINE
  5
B242
330
AFE4
100
AcDbEntity
  8
1
  6
Continuous
100
AcDbLine
 10
160.026735
 20
320.309941
 30
0.0
 11
163.311609
 21
320.309941
 31
0.0
  0
LINE
  5
B243
330
AFE4
100
AcDbEntity
  8
1
  6
Continuous
100
AcDbLine
 10
152.3239479999998
 20
285.0054979999999
 30
0.0
 11
153.669172
 21
285.0054979999999
 31
0.0
  0
LINE
  5
B244
330
AFE4
100
AcDbEntity
  8
1
  6
Continuous
100
AcDbLine
 10
151.1692469999998
 20
287.0054979999998
 30
0.0
 11
153.669172
 21
287.0054979999998
 31
0.0
  0
LINE
  5
B245
330
AFE4
100
AcDbEntity
  8
1
  6
Continuous
100
AcDbLine
 10
144.746598
 20
289.005498
 30
0.0
 11
144.9712019999998
 21
288.616472
 31
0.0
  0
ARC
  5
B246
330
AFE4
100
AcDbEntity
  8
1
  6
Continuous
100
AcDbCircle
 10
145.231009
 20
288.766472
 30
0.0
 40
0.3
100
AcDbArc
 50
210.0
 51
256.258585
  0
LINE
  5
B247
330
AFE4
100
AcDbEntity
  8
1
  6
Continuous
100
AcDbLine
 10
151.1692469999998
 20
287.0054979999998
 30
0.0
 11
152.3239479999998
 21
285.0054979999999
 31
0.0
  0
LINE
  5
B248
330
AFE4
100
AcDbEntity
  8
1
  6
Continuous
100
AcDbLine
 10
151.1692469999998
 20
287.0054979999998
 30
0.0
 11
145.159747
 21
288.4750589999999
 31
0.0
  0
LINE
  5
B249
330
AFE4
100
AcDbEntity
  8
1
  6
Continuous
100
AcDbLine
 10
144.746598
 20
310.0054979999999
 30
0.0
 11
144.9712019999998
 21
310.3945239999999
 31
0.0
  0
ARC
  5
B24A
330
AFE4
100
AcDbEntity
  8
1
  6
Continuous
100
AcDbCircle
 10
145.231009
 20
310.244524
 30
0.0
 40
0.3
100
AcDbArc
 50
103.741415
 51
150.0
  0
LINE
  5
B24B
330
AFE4
100
AcDbEntity
  8
1
  6
Continuous
100
AcDbLine
 10
151.1692469999998
 20
312.0054979999999
 30
0.0
 11
145.159747
 21
310.5359369999998
 31
0.0
  0
LINE
  5
B24C
330
AFE4
100
AcDbEntity
  8
1
  6
Continuous
100
AcDbLine
 10
152.3239479999998
 20
314.0054979999998
 30
0.0
 11
153.669172
 21
314.0054979999998
 31
0.0
  0
LINE
  5
B24D
330
AFE4
100
AcDbEntity
  8
1
  6
Continuous
100
AcDbLine
 10
153.4691719999998
 20
316.013998
 30
0.0
 11
153.669172
 21
316.013998
 31
0.0
  0
LINE
  5
B24E
330
AFE4
100
AcDbEntity
  8
1
  6
Continuous
100
AcDbLine
 10
153.4691719999998
 20
318.313998
 30
0.0
 11
153.669172
 21
318.313998
 31
0.0
  0
LINE
  5
B24F
330
AFE4
100
AcDbEntity
  8
1
  6
Continuous
100
AcDbLine
 10
153.4691719999998
 20
318.313998
 30
0.0
 11
153.4691719999998
 21
316.013998
 31
0.0
  0
ARC
  5
B250
330
AFE4
100
AcDbEntity
  8
1
  6
Continuous
100
AcDbCircle
 10
200.065815
 20
223.521524
 30
0.0
 40
7.848514999999999
100
AcDbArc
 50
270.9161379999998
 51
314.603254
  0
LINE
  5
B251
330
AFE4
100
AcDbEntity
  8
1
  6
Continuous
100
AcDbLine
 10
199.233205
 20
215.674892
 30
0.0
 11
200.191305
 21
215.674012
 31
0.0
  0
LINE
  5
B252
330
AFE4
100
AcDbEntity
  8
1
  6
Continuous
100
AcDbLine
 10
174.537744
 20
98.197761
 30
0.0
 11
208.844529
 21
98.456138
 31
0.0
  0
LINE
  5
B253
330
AFE4
100
AcDbEntity
  8
1
  6
Continuous
100
AcDbLine
 10
174.863552
 20
100.500281
 30
0.0
 11
209.526051
 21
100.761336
 31
0.0
  0
LINE
  5
B254
330
AFE4
100
AcDbEntity
  8
1
  6
Continuous
100
AcDbLine
 10
192.353117
 20
94.940852
 30
0.0
 11
190.652676
 21
98.319121
 31
0.0
  0
LINE
  5
B255
330
AFE4
100
AcDbEntity
  8
1
  6
Continuous
100
AcDbLine
 10
122.950676
 20
84.98876499999999
 30
0.0
 11
144.265427
 21
86.113551
 31
0.0
  0
LINE
  5
B256
330
AFE4
100
AcDbEntity
  8
1
  6
Continuous
100
AcDbLine
 10
122.829476
 20
87.28557099999996
 30
0.0
 11
142.276978
 21
88.31182400000001
 31
0.0
  0
ARC
  5
B257
330
AFE4
100
AcDbEntity
  8
1
  6
Continuous
100
AcDbCircle
 10
131.631604
 20
81.267787
 30
0.0
 40
20.17326399999999
100
AcDbArc
 50
75.699
 51
109.7464399999998
  0
ARC
  5
B258
330
AFE4
100
AcDbEntity
  8
1
  6
Continuous
100
AcDbCircle
 10
125.8294639999999
 20
97.43121999999999
 30
0.0
 40
3.0
100
AcDbArc
 50
109.7464399999998
 51
180.00001
  0
LINE
  5
B259
330
AFE4
100
AcDbEntity
  8
1
  6
Continuous
100
AcDbLine
 10
122.829476
 20
87.28557099999996
 30
0.0
 11
122.950676
 21
84.98876499999999
 31
0.0
  0
LINE
  5
B25A
330
AFE4
100
AcDbEntity
  8
1
  6
Continuous
100
AcDbLine
 10
122.8294639999998
 20
97.43121999999999
 30
0.0
 11
122.8294639999998
 21
87.285579
 31
0.0
  0
LINE
  5
B25B
330
AFE4
100
AcDbEntity
  8
1
  6
Continuous
100
AcDbLine
 10
147.609158
 20
93.409709
 30
0.0
 11
171.83112
 21
93.409709
 31
0.0
  0
LINE
  5
B25C
330
AFE4
100
AcDbEntity
  8
1
  6
Continuous
100
AcDbLine
 10
147.7290459999998
 20
95.70970800000001
 30
0.0
 11
169.7466399999998
 21
95.70970800000001
 31
0.0
  0
ARC
  5
B25D
330
AFE4
100
AcDbEntity
  8
1
  6
Continuous
100
AcDbCircle
 10
135.873669
 20
97.90888100000001
 30
0.0
 40
3.0
100
AcDbArc
 50
0.0
 51
75.699
  0
ARC
  5
B25E
330
AFE4
100
AcDbEntity
  8
1
  6
Continuous
100
AcDbCircle
 10
142.153767
 20
88.50559500000001
 30
0.0
 40
2.5
100
AcDbArc
 50
273.02071
 51
331.8796199999999
  0
LINE
  5
B25F
330
AFE4
100
AcDbEntity
  8
1
  6
Continuous
100
AcDbLine
 10
145.524153
 20
94.388026
 30
0.0
 11
142.2769849999999
 21
88.31182400000001
 31
0.0
  0
LINE
  5
B260
330
AFE4
100
AcDbEntity
  8
1
  6
Continuous
100
AcDbLine
 10
138.8736689999998
 20
97.90888100000001
 30
0.0
 11
138.8736689999998
 21
88.132228
 31
0.0
  0
ARC
  5
B261
330
AFE4
100
AcDbEntity
  8
1
  6
Continuous
100
AcDbCircle
 10
147.7290459999998
 20
93.209712
 30
0.0
 40
2.5
100
AcDbArc
 50
90.00000300000001
 51
151.87961
  0
LINE
  5
B262
330
AFE4
100
AcDbEntity
  8
1
  6
Continuous
100
AcDbLine
 10
150.307831
 20
89.278369
 30
0.0
 11
152.912657
 21
89.23319499999998
 31
0.0
  0
ARC
  5
B263
330
AFE4
100
AcDbEntity
  8
1
  6
Continuous
100
AcDbCircle
 10
144.133679
 20
88.61007200000001
 30
0.0
 40
2.5
100
AcDbArc
 50
273.02071
 51
331.8796199999999
  0
LINE
  5
B264
330
AFE4
100
AcDbEntity
  8
1
  6
Continuous
100
AcDbLine
 10
149.790556
 20
93.409709
 30
0.0
 11
150.307825
 21
89.278361
 31
0.0
  0
LINE
  5
B265
330
AFE4
100
AcDbEntity
  8
1
  6
Continuous
100
AcDbLine
 10
152.9126629999999
 20
89.233188
 30
0.0
 11
154.15304
 21
91.10970899999999
 31
0.0
  0
LINE
  5
B266
330
AFE4
100
AcDbEntity
  8
1
  6
Continuous
100
AcDbLine
 10
149.5332379999998
 20
93.409709
 30
0.0
 11
146.338578
 21
87.43176600000003
 31
0.0
  0
LINE
  5
B267
330
AFE4
100
AcDbEntity
  8
1
  6
Continuous
100
AcDbLine
 10
147.6091669999999
 20
93.409717
 30
0.0
 11
144.35867
 21
87.327281
 31
0.0
  0
LINE
  5
B268
330
AFE4
100
AcDbEntity
  8
1
  6
Continuous
100
AcDbLine
 10
169.7466389999999
 20
95.70970800000001
 30
0.0
 11
172.501016
 21
99.32002199999999
 31
0.0
  0
LINE
  5
B269
330
AFE4
100
AcDbEntity
  8
1
  6
Continuous
100
AcDbLine
 10
171.7853499999999
 20
94.59004499999997
 30
0.0
 11
174.537746
 21
98.197761
 31
0.0
  0
LINE
  5
B26A
330
AFE4
100
AcDbEntity
  8
1
  6
Continuous
100
AcDbLine
 10
174.216249
 20
94.59004499999997
 30
0.0
 11
176.968636
 21
98.19775300000001
 31
0.0
  0
ARC
  5
B26B
330
AFE4
100
AcDbEntity
  8
1
  6
Continuous
100
AcDbCircle
 10
171.83112
 20
96.40970500000001
 30
0.0
 40
3.0
100
AcDbArc
 50
270.0
 51
322.65931
  0
ARC
  5
B26C
330
AFE4
100
AcDbEntity
  8
1
  6
Continuous
100
AcDbCircle
 10
169.400227
 20
96.40970500000001
 30
0.0
 40
3.0
100
AcDbArc
 50
270.0
 51
322.65931
  0
ARC
  5
B26D
330
AFE4
100
AcDbEntity
  8
1
  6
Continuous
100
AcDbCircle
 10
174.8861439999998
 20
97.50035799999999
 30
0.0
 40
3.0
100
AcDbArc
 50
90.43150699999999
 51
142.65931
  0
LINE
  5
B26E
330
AFE4
100
AcDbEntity
  8
1
  6
Continuous
100
AcDbLine
 10
195.695425
 20
98.35710400000001
 30
0.0
 11
195.212283
 21
95.221225
 31
0.0
  0
LINE
  5
B26F
330
AFE4
100
AcDbEntity
  8
1
  6
Continuous
100
AcDbLine
 10
194.71407
 20
98.34971500000001
 30
0.0
 11
194.234681
 21
95.238185
 31
0.0
  0
LINE
  5
B270
330
AFE4
100
AcDbEntity
  8
1
  6
Continuous
100
AcDbLine
 10
194.2066059999999
 20
94.37364499999999
 30
0.0
 11
193.229002
 21
94.39060500000001
 31
0.0
  0
ARC
  5
B271
330
AFE4
100
AcDbEntity
  8
1
  6
Continuous
100
AcDbCircle
 10
193.2463419999999
 20
95.390449
 30
0.0
 40
1.0
100
AcDbArc
 50
206.71825
 51
351.24136
  0
ARC
  5
B272
330
AFE4
100
AcDbEntity
  8
1
  6
Continuous
100
AcDbCircle
 10
194.22395
 20
95.373496
 30
0.0
 40
1.0
100
AcDbArc
 50
269.00653
 51
351.24136
  0
LINE
  5
B273
330
AFE4
100
AcDbEntity
  8
1
  6
Continuous
100
AcDbLine
 10
209.5586359999999
 20
100.592013
 30
0.0
 11
207.448166
 21
111.556491
 31
0.0
  0
LINE
  5
B274
330
AFE4
100
AcDbEntity
  8
1
  6
Continuous
100
AcDbLine
 10
209.177838
 20
102.570388
 30
0.0
 11
197.677311
 21
100.672084
 31
0.0
  0
ARC
  5
B275
330
AFE4
100
AcDbEntity
  8
1
  6
Continuous
100
AcDbCircle
 10
205.484219
 20
111.1784729999999
 30
0.0
 40
2.0
100
AcDbArc
 50
10.895189
 51
87.72556999999997
  0
ARC
  5
B276
330
AFE4
100
AcDbEntity
  8
1
  6
Continuous
100
AcDbCircle
 10
206.742894
 20
111.420737
 30
0.0
 40
2.0
100
AcDbArc
 50
10.895189
 51
87.72556999999997
  0
LINE
  5
B277
330
AFE4
100
AcDbEntity
  8
1
  6
Continuous
100
AcDbLine
 10
197.677311
 20
100.672088
 30
0.0
 11
196.705904
 21
109.49705
 31
0.0
  0
ARC
  5
B278
330
AFE4
100
AcDbEntity
  8
1
  6
Continuous
100
AcDbCircle
 10
199.1908989999998
 20
109.770575
 30
0.0
 40
2.5
100
AcDbArc
 50
108.7507699999999
 51
186.2815399999998
  0
ARC
  5
B279
330
AFE4
100
AcDbEntity
  8
1
  6
Continuous
100
AcDbCircle
 10
204.774975
 20
93.321132
 30
0.0
 40
19.871416
100
AcDbArc
 50
87.72556999999997
 51
108.7507699999999
  0
ARC
  5
B27A
330
AFE4
100
AcDbEntity
  8
1
  6
Continuous
100
AcDbCircle
 10
206.03365
 20
93.56341099999999
 30
0.0
 40
19.871416
100
AcDbArc
 50
87.72556999999997
 51
102.7433999999998
  0
LINE
  5
B27B
330
AFE4
100
AcDbEntity
  8
1
  6
Continuous
100
AcDbLine
 10
210.8294679999999
 20
100.77114
 30
0.0
 11
210.8294679999999
 21
100.4560769999999
 31
0.0
  0
LINE
  5
B27C
330
AFE4
100
AcDbEntity
  8
1
  6
Continuous
100
AcDbLine
 10
210.817314
 20
100.8342889999999
 30
0.0
 11
208.7068449999999
 21
111.7987659999998
 31
0.0
  0
ARC
  5
B27D
330
AFE4
100
AcDbEntity
  8
1
  6
Continuous
100
AcDbCircle
 10
208.8294679999999
 20
100.4560769999999
 30
0.0
 40
2.0
100
AcDbArc
 50
270.43151
 51
0.0
  0
LINE
  5
B27E
330
AFE4
100
AcDbEntity
  8
1
  6
Continuous
100
AcDbLine
 10
77.567593
 20
176.524395
 30
0.0
 11
71.09877400000002
 21
177.2327949999999
 31
0.0
  0
LINE
  5
B27F
330
AFE4
100
AcDbEntity
  8
1
  6
Continuous
100
AcDbLine
 10
71.994158
 20
178.431895
 30
0.0
 11
73.259169
 21
177.2480749999998
 31
0.0
  0
LINE
  5
B280
330
AFE4
100
AcDbEntity
  8
1
  6
Continuous
100
AcDbLine
 10
71.99414899999998
 20
190.0568449999999
 30
0.0
 11
75.945687
 21
190.0568449999999
 31
0.0
  0
LINE
  5
B281
330
AFE4
100
AcDbEntity
  8
1
  6
Continuous
100
AcDbLine
 10
71.69414599999997
 20
193.830825
 30
0.0
 11
85.05167299999998
 21
193.830825
 31
0.0
  0
LINE
  5
B282
330
AFE4
100
AcDbEntity
  8
1
  6
Continuous
100
AcDbLine
 10
71.99414899999998
 20
191.540855
 30
0.0
 11
85.05167299999998
 21
191.540855
 31
0.0
  0
LINE
  5
B283
330
AFE4
100
AcDbEntity
  8
1
  6
Continuous
100
AcDbLine
 10
69.69414599999999
 20
178.431895
 30
0.0
 11
69.69414599999999
 21
191.830825
 31
0.0
  0
LINE
  5
B284
330
AFE4
100
AcDbEntity
  8
1
  6
Continuous
100
AcDbLine
 10
71.99414899999998
 20
178.431895
 30
0.0
 11
71.99414899999998
 21
191.540855
 31
0.0
  0
LINE
  5
B285
330
AFE4
100
AcDbEntity
  8
1
  6
Continuous
100
AcDbLine
 10
69.694152
 20
178.431885
 30
0.0
 11
70.45733299999998
 21
177.5657349999999
 31
0.0
  0
LINE
  5
B286
330
AFE4
100
AcDbEntity
  8
1
  6
Continuous
100
AcDbLine
 10
69.69414599999999
 20
178.431895
 30
0.0
 11
71.99414899999998
 21
178.431895
 31
0.0
  0
ARC
  5
B287
330
AFE4
100
AcDbEntity
  8
1
  6
Continuous
100
AcDbCircle
 10
71.20763499999998
 20
178.226845
 30
0.0
 40
1.0
100
AcDbArc
 50
221.38382
 51
263.7504599999999
  0
ARC
  5
B288
330
AFE4
100
AcDbEntity
  8
1
  6
Continuous
100
AcDbCircle
 10
71.69414599999997
 20
191.830825
 30
0.0
 40
2.0
100
AcDbArc
 50
90.00001000000002
 51
180.0
  0
LINE
  5
B289
330
AFE4
100
AcDbEntity
  8
5
  6
PHANTOM
100
AcDbLine
 10
194.353635
 20
195.1570199999999
 30
0.0
 11
209.3509399999998
 21
195.4414449999999
 31
0.0
  0
LINE
  5
B28A
330
AFE4
100
AcDbEntity
  8
5
  6
PHANTOM
100
AcDbLine
 10
194.397247
 20
192.8574309999999
 30
0.0
 11
209.39455
 21
193.141855
 31
0.0
  0
ARC
  5
B28B
330
AFE4
100
AcDbEntity
  8
5
  6
PHANTOM
100
AcDbCircle
 10
180.767948
 20
217.536464
 30
0.0
 40
36.516224
100
AcDbArc
 50
282.19776
 51
318.0241899999999
  0
ARC
  5
B28C
330
AFE4
100
AcDbEntity
  8
1
  6
Continuous
100
AcDbCircle
 10
196.326625
 20
175.70552
 30
0.0
 40
2.0
100
AcDbArc
 50
229.39871
 51
326.8214899999999
  0
ARC
  5
B28D
330
AFE4
100
AcDbEntity
  8
1
  6
Continuous
100
AcDbCircle
 10
199.6472389999999
 20
201.17498
 30
0.0
 40
36.516224
100
AcDbArc
 50
247.93276
 51
283.7591899999998
  0
ARC
  5
B28E
330
AFE4
100
AcDbEntity
  8
5
  6
PHANTOM
100
AcDbCircle
 10
124.8176759999999
 20
156.258585
 30
0.0
 40
10.0
100
AcDbArc
 50
34.265
 51
88.33108699999998
  0
LINE
  5
B28F
330
AFE4
100
AcDbEntity
  8
5
  6
PHANTOM
100
AcDbLine
 10
121.594866
 20
168.3377289999999
 30
0.0
 11
135.512573
 21
176.023624
 31
0.0
  0
LINE
  5
B290
330
AFE4
100
AcDbEntity
  8
5
  6
PHANTOM
100
AcDbLine
 10
122.7067399999999
 20
166.3243349999999
 30
0.0
 11
136.6244479999998
 21
174.010231
 31
0.0
  0
LINE
  5
B291
330
AFE4
100
AcDbEntity
  8
1
  6
Continuous
100
AcDbLine
 10
123.04416
 20
193.8307659999999
 30
0.0
 11
138.8736659999999
 21
192.3467489999999
 31
0.0
  0
LINE
  5
B292
330
AFE4
100
AcDbEntity
  8
1
  6
Continuous
100
AcDbLine
 10
142.276979
 20
177.2749289999999
 30
0.0
 11
130.7078149999999
 21
178.4318449999999
 31
0.0
  0
LINE
  5
B293
330
AFE4
100
AcDbEntity
  8
1
  6
Continuous
100
AcDbLine
 10
122.8294769999999
 20
191.540803
 30
0.0
 11
138.658983
 21
190.056787
 31
0.0
  0
LINE
  5
B294
330
AFE4
100
AcDbEntity
  8
1
  6
Continuous
100
AcDbLine
 10
80.313163
 20
190.0568449999999
 30
0.0
 11
80.313163
 21
169.384375
 31
0.0
  0
LINE
  5
B295
330
AFE4
100
AcDbEntity
  8
1
  6
Continuous
100
AcDbLine
 10
73.259163
 20
189.886345
 30
0.0
 11
73.259163
 21
177.2480749999998
 31
0.0
  0
LINE
  5
B296
330
AFE4
100
AcDbEntity
  8
1
  6
Continuous
100
AcDbLine
 10
85.37453399999998
 20
164.658805
 30
0.0
 11
85.37453399999998
 21
171.805304
 31
0.0
  0
LINE
  5
B297
330
AFE4
100
AcDbEntity
  8
1
  6
Continuous
100
AcDbLine
 10
128.906812
 20
182.0335379999999
 30
0.0
 11
128.906812
 21
180.42192
 31
0.0
  0
LINE
  5
B298
330
AFE4
100
AcDbEntity
  8
1
  6
Continuous
100
AcDbLine
 10
85.37453399999998
 20
164.896905
 30
0.0
 11
97.038278
 21
164.896905
 31
0.0
  0
LINE
  5
B299
330
AFE4
100
AcDbEntity
  8
1
  6
Continuous
100
AcDbLine
 10
87.19312099999998
 20
175.030675
 30
0.0
 11
95.300378
 21
175.030675
 31
0.0
  0
LINE
  5
B29A
330
AFE4
100
AcDbEntity
  8
1
  6
Continuous
100
AcDbLine
 10
86.813163
 20
173.1056449999999
 30
0.0
 11
95.300378
 21
173.1056449999999
 31
0.0
  0
LINE
  5
B29B
330
AFE4
100
AcDbEntity
  8
1
  6
Continuous
100
AcDbLine
 10
83.07453100000001
 20
164.658805
 30
0.0
 11
85.37453399999998
 21
164.658805
 31
0.0
  0
ARC
  5
B29C
330
AFE4
100
AcDbEntity
  8
1
  6
Continuous
100
AcDbCircle
 10
84.37453399999998
 20
168.384375
 30
0.0
 40
1.0
100
AcDbArc
 50
0.000003
 51
90.00001000000002
  0
ARC
  5
B29D
330
AFE4
100
AcDbEntity
  8
1
  6
Continuous
100
AcDbCircle
 10
82.57453099999997
 20
168.884375
 30
0.0
 40
0.5
100
AcDbArc
 50
0.000003
 51
90.00001000000002
  0
LINE
  5
B29E
330
AFE4
100
AcDbEntity
  8
1
  6
Continuous
100
AcDbLine
 10
78.01316099999998
 20
169.384375
 30
0.0
 11
78.01316099999998
 21
176.027365
 31
0.0
  0
LINE
  5
B29F
330
AFE4
100
AcDbEntity
  8
1
  6
Continuous
100
AcDbLine
 10
78.530872
 20
176.6707749999999
 30
0.0
 11
73.25916499999998
 21
177.2480749999998
 31
0.0
  0
ARC
  5
B2A0
330
AFE4
100
AcDbEntity
  8
1
  6
Continuous
100
AcDbCircle
 10
78.313164
 20
174.682655
 30
0.0
 40
2.0
100
AcDbArc
 50
0.000003
 51
83.75046000000002
  0
ARC
  5
B2A1
330
AFE4
100
AcDbEntity
  8
1
  6
Continuous
100
AcDbCircle
 10
77.51316099999998
 20
176.027365
 30
0.0
 40
0.5
100
AcDbArc
 50
0.000003
 51
83.75046000000002
  0
LINE
  5
B2A2
330
AFE4
100
AcDbEntity
  8
1
  6
Continuous
100
AcDbLine
 10
78.01316099999998
 20
169.384375
 30
0.0
 11
84.37453399999998
 21
169.384375
 31
0.0
  0
LINE
  5
B2A3
330
AFE4
100
AcDbEntity
  8
1
  6
Continuous
100
AcDbLine
 10
83.07453100000001
 20
164.658805
 30
0.0
 11
83.07453100000001
 21
168.884375
 31
0.0
  0
LINE
  5
B2A4
330
AFE4
100
AcDbEntity
  8
1
  6
Continuous
100
AcDbLine
 10
98.038278
 20
165.896905
 30
0.0
 11
98.038278
 21
169.957665
 31
0.0
  0
ARC
  5
B2A5
330
AFE4
100
AcDbEntity
  8
1
  6
Continuous
100
AcDbCircle
 10
95.300378
 20
171.1054049999999
 30
0.0
 40
2.0
100
AcDbArc
 50
26.01504999999999
 51
89.99998999999998
  0
ARC
  5
B2A6
330
AFE4
100
AcDbEntity
  8
1
  6
Continuous
100
AcDbCircle
 10
95.300378
 20
173.030425
 30
0.0
 40
2.0
100
AcDbArc
 50
26.01504999999999
 51
89.99998999999998
  0
LWPOLYLINE
  5
B2A7
330
AFE4
100
AcDbEntity
  8
1
  6
Continuous
100
AcDbPolyline
 90
       17
 70
     0
 43
0.0
 10
98.022538
 20
167.5155949999999
 42
0.008513
 10
98.03523
 20
167.8050649999998
 42
0.008476
 10
98.03806299999999
 20
168.093095
 42
0.008462
 10
98.031146
 20
168.3807149999998
 42
0.008423
 10
98.01456000000001
 20
168.667255
 42
0.008368
 10
97.98841899999999
 20
168.9524549999999
 42
0.00832
 10
97.95276000000001
 20
169.2367449999998
 42
0.008256
 10
97.90767999999999
 20
169.5197949999998
 42
0.008179
 10
97.853299
 20
169.801335
 42
0.008088
 10
97.789763
 20
170.0810549999999
 42
0.007986
 10
97.71723900000001
 20
170.3587049999999
 42
0.007873
 10
97.63591600000005
 20
170.6340149999998
 42
0.00775
 10
97.54599699999999
 20
170.906755
 42
0.007619
 10
97.44770200000001
 20
171.1767049999999
 42
0.007481
 10
97.34126299999999
 20
171.443655
 42
0.007337
 10
97.22692300000002
 20
171.707415
 42
0.007189
 10
97.10492999999999
 20
171.967825
  0
LWPOLYLINE
  5
B2BA
330
AFE4
100
AcDbEntity
  8
1
  6
Continuous
100
AcDbPolyline
 90
       17
 70
     0
 43
0.0
 10
98.022538
 20
169.440625
 42
0.008513
 10
98.03523
 20
169.7300949999998
 42
0.008476
 10
98.03806299999999
 20
170.0181249999999
 42
0.008462
 10
98.031146
 20
170.3057349999999
 42
0.008423
 10
98.01456000000001
 20
170.592275
 42
0.008368
 10
97.98841899999999
 20
170.877485
 42
0.00832
 10
97.95276000000001
 20
171.1617649999998
 42
0.008256
 10
97.90767999999999
 20
171.444825
 42
0.008179
 10
97.853299
 20
171.726355
 42
0.008088
 10
97.789763
 20
172.006085
 42
0.007986
 10
97.71723900000001
 20
172.2837249999998
 42
0.007873
 10
97.63591600000005
 20
172.559045
 42
0.00775
 10
97.54599699999999
 20
172.8317849999999
 42
0.007619
 10
97.44770200000001
 20
173.1017249999999
 42
0.007481
 10
97.34126299999999
 20
173.3686749999999
 42
0.007337
 10
97.22692300000002
 20
173.6324449999999
 42
0.007189
 10
97.10492999999999
 20
173.8928549999999
  0
ARC
  5
B2CD
330
AFE4
100
AcDbEntity
  8
1
  6
Continuous
100
AcDbCircle
 10
97.038278
 20
165.896905
 30
0.0
 40
1.0
100
AcDbArc
 50
270.0000039999998
 51
0.000003
  0
LINE
  5
B2CE
330
AFE4
100
AcDbEntity
  8
5
  6
PHANTOM
100
AcDbLine
 10
121.594866
 20
168.3377289999999
 30
0.0
 11
122.7067399999999
 21
166.3243349999999
 31
0.0
  0
LINE
  5
B2CF
330
AFE4
100
AcDbEntity
  8
5
  6
PHANTOM
100
AcDbLine
 10
122.706729
 20
166.3243379999999
 30
0.0
 11
125.1089209999999
 21
166.254346
 31
0.0
  0
ARC
  5
B2D0
330
AFE4
100
AcDbEntity
  8
1
  6
Continuous
100
AcDbCircle
 10
130.906812
 20
180.42192
 30
0.0
 40
2.0
100
AcDbArc
 50
179.9999899999999
 51
264.28942
  0
LINE
  5
B2D1
330
AFE4
100
AcDbEntity
  8
1
  6
Continuous
100
AcDbLine
 10
85.99222899999999
 20
188.011185
 30
0.0
 11
85.56627500000002
 21
185.66171
 31
0.0
  0
LINE
  5
B2D2
330
AFE4
100
AcDbEntity
  8
1
  6
Continuous
100
AcDbLine
 10
85.879913
 20
190.5606949999999
 30
0.0
 11
86.18648299999998
 21
190.5051049999999
 31
0.0
  0
LINE
  5
B2D3
330
AFE4
100
AcDbEntity
  8
1
  6
Continuous
100
AcDbLine
 10
85.52564599999998
 20
191.2061549999999
 30
0.0
 11
85.81144300000003
 21
190.5731049999999
 31
0.0
  0
LINE
  5
B2D4
330
AFE4
100
AcDbEntity
  8
1
  6
Continuous
100
AcDbLine
 10
85.87991999999998
 20
192.646805
 30
0.0
 11
85.87991999999998
 21
190.5568449999999
 31
0.0
  0
LINE
  5
B2D5
330
AFE4
100
AcDbEntity
  8
1
  6
Continuous
100
AcDbLine
 10
85.50737899999999
 20
193.536555
 30
0.0
 11
85.853341
 21
192.7702449999999
 31
0.0
  0
LINE
  5
B2D6
330
AFE4
100
AcDbEntity
  8
1
  6
Continuous
100
AcDbLine
 10
85.05167299999998
 20
193.3532549999999
 30
0.0
 11
85.05167299999998
 21
191.8731649999998
 31
0.0
  0
LINE
  5
B2D7
330
AFE4
100
AcDbEntity
  8
1
  6
Continuous
100
AcDbLine
 10
86.18648299999998
 20
190.5051049999999
 30
0.0
 11
85.37452999999997
 21
186.0265449999999
 31
0.0
  0
LINE
  5
B2D8
330
AFE4
100
AcDbEntity
  8
1
  6
Continuous
100
AcDbLine
 10
83.767717
 20
190.0568449999999
 30
0.0
 11
83.171312
 21
186.7671949999999
 31
0.0
  0
LINE
  5
B2D9
330
AFE4
100
AcDbEntity
  8
1
  6
Continuous
100
AcDbLine
 10
86.18648299999998
 20
190.5051049999999
 30
0.0
 11
85.992227
 21
188.0111649999999
 31
0.0
  0
ARC
  5
B2DA
330
AFE4
100
AcDbEntity
  8
1
  6
Continuous
100
AcDbCircle
 10
85.05167299999998
 20
191.0408549999999
 30
0.0
 40
0.5
100
AcDbArc
 50
24.29733999999999
 51
90.00001000000002
  0
ARC
  5
B2DB
330
AFE4
100
AcDbEntity
  8
1
  6
Continuous
100
AcDbCircle
 10
85.57991699999998
 20
192.646805
 30
0.0
 40
0.3
100
AcDbArc
 50
0.000003
 51
24.29733999999999
  0
ARC
  5
B2DC
330
AFE4
100
AcDbEntity
  8
1
  6
Continuous
100
AcDbCircle
 10
85.05167299999998
 20
193.3308249999998
 30
0.0
 40
0.5
100
AcDbArc
 50
24.29733999999999
 51
90.00001000000002
  0
ARC
  5
B2DD
330
AFE4
100
AcDbEntity
  8
1
  6
Continuous
100
AcDbCircle
 10
85.37992
 20
190.5568449999999
 30
0.0
 40
0.5
100
AcDbArc
 50
270.0
 51
0.000003
  0
LINE
  5
B2DE
330
AFE4
100
AcDbEntity
  8
1
  6
Continuous
100
AcDbLine
 10
75.94568599999998
 20
190.0568449999999
 30
0.0
 11
80.313165
 21
189.7732149999999
 31
0.0
  0
LINE
  5
B2DF
330
AFE4
100
AcDbEntity
  8
1
  6
Continuous
100
AcDbLine
 10
78.01316099999998
 20
190.0568449999999
 30
0.0
 11
78.01316099999998
 21
189.922585
 31
0.0
  0
LINE
  5
B2E0
330
AFE4
100
AcDbEntity
  8
1
  6
Continuous
100
AcDbLine
 10
75.945687
 20
190.0568449999999
 30
0.0
 11
85.37992
 21
190.0568449999999
 31
0.0
  0
LINE
  5
B2E1
330
AFE4
100
AcDbEntity
  8
1
  6
Continuous
100
AcDbLine
 10
80.31315699999998
 20
187.728025
 30
0.0
 11
85.374542
 21
186.0265449999999
 31
0.0
  0
LINE
  5
B2E2
330
AFE4
100
AcDbEntity
  8
1
  6
Continuous
100
AcDbLine
 10
123.04416
 20
193.8307659999999
 30
0.0
 11
122.8294769999999
 21
191.540803
 31
0.0
  0
LINE
  5
B2E3
330
AFE4
100
AcDbEntity
  8
1
  6
Continuous
100
AcDbLine
 10
122.829469
 20
191.540812
 30
0.0
 11
124.775335
 21
190.130482
 31
0.0
  0
ARC
  5
B2E4
330
AFE4
100
AcDbEntity
  8
1
  6
Continuous
100
AcDbCircle
 10
118.906812
 20
182.0335379999999
 30
0.0
 40
10.0
100
AcDbArc
 50
0.0
 51
54.06608699999999
  0
LINE
  5
B2E5
330
AFE4
100
AcDbEntity
  8
5
  6
PHANTOM
100
AcDbLine
 10
149.260176
 20
184.237052
 30
0.0
 11
150.8339789999999
 21
181.1668579999999
 31
0.0
  0
LINE
  5
B2E6
330
AFE4
100
AcDbEntity
  8
5
  6
PHANTOM
100
AcDbLine
 10
145.0490719999999
 20
183.0430419999999
 30
0.0
 11
145.6569429999998
 21
179.698969
 31
0.0
  0
ARC
  5
B2E7
330
AFE4
100
AcDbEntity
  8
5
  6
PHANTOM
100
AcDbCircle
 10
170.07937
 20
168.359389
 30
0.0
 40
23.117449
100
AcDbArc
 50
91.666292
 51
146.35693
  0
ARC
  5
B2E8
330
AFE4
100
AcDbEntity
  8
5
  6
PHANTOM
100
AcDbCircle
 10
195.8783679999999
 20
147.6347849999999
 30
0.0
 40
35.0
100
AcDbArc
 50
102.1977609999999
 51
132.572111
  0
LINE
  5
B2E9
330
AFE4
100
AcDbEntity
  8
5
  6
PHANTOM
100
AcDbLine
 10
165.636772
 20
190.957252
 30
0.0
 11
173.7173789999999
 21
174.7252009999999
 31
0.0
  0
LINE
  5
B2EA
330
AFE4
100
AcDbEntity
  8
5
  6
PHANTOM
100
AcDbLine
 10
169.4071549999999
 20
191.467062
 30
0.0
 11
176.6728889999999
 21
176.8948189999999
 31
0.0
  0
LINE
  5
B2EB
330
AFE4
100
AcDbEntity
  8
1
  6
Continuous
100
AcDbLine
 10
190.6526709999999
 20
180.9213379999999
 30
0.0
 11
191.3888809999999
 21
187.792633
 31
0.0
  0
LINE
  5
B2EC
330
AFE4
100
AcDbEntity
  8
1
  6
Continuous
100
AcDbLine
 10
172.177532
 20
187.7279659999999
 30
0.0
 11
171.2156629999998
 21
180.706205
 31
0.0
  0
LINE
  5
B2ED
330
AFE4
100
AcDbEntity
  8
1
  6
Continuous
100
AcDbLine
 10
175.5805699999999
 20
186.0264899999999
 30
0.0
 11
173.3807969999998
 21
169.8926069999999
 31
0.0
  0
LINE
  5
B2EE
330
AFE4
100
AcDbEntity
  8
1
  6
Continuous
100
AcDbLine
 10
144.2568889999998
 20
190.14433
 30
0.0
 11
142.276979
 21
177.274927
 31
0.0
  0
LINE
  5
B2EF
330
AFE4
100
AcDbEntity
  8
1
  6
Continuous
100
AcDbLine
 10
148.246847
 20
189.7731649999998
 30
0.0
 11
146.2009159999998
 21
176.4746139999998
 31
0.0
  0
ARC
  5
B2F0
330
AFE4
100
AcDbEntity
  8
5
  6
PHANTOM
100
AcDbCircle
 10
162.77166
 20
183.673245
 30
0.0
 40
13.93694899999998
100
AcDbArc
 50
265.2903099999999
 51
312.57211
  0
ARC
  5
B2F1
330
AFE4
100
AcDbEntity
  8
1
  6
Continuous
100
AcDbCircle
 10
165.70863
 20
183.3212729999999
 30
0.0
 40
13.93694899999998
100
AcDbArc
 50
231.02531
 51
278.30711
  0
ARC
  5
B2F2
330
AFE4
100
AcDbEntity
  8
5
  6
PHANTOM
100
AcDbCircle
 10
135.64236
 20
161.6829309999999
 30
0.0
 40
2.0
100
AcDbArc
 50
214.2649899999999
 51
298.55442
  0
ARC
  5
B2F3
330
AFE4
100
AcDbEntity
  8
5
  6
PHANTOM
100
AcDbCircle
 10
168.9669389999999
 20
122.3468209999999
 30
0.0
 40
48.348667
100
AcDbArc
 50
102.286608
 51
117.1909139999999
  0
LINE
  5
B2F4
330
AFE4
100
AcDbEntity
  8
5
  6
PHANTOM
100
AcDbLine
 10
144.70795
 20
179.1740059999999
 30
0.0
 11
150.5044739999999
 21
167.0316159999998
 31
0.0
  0
ARC
  5
B2F5
330
AFE4
100
AcDbEntity
  8
1
  6
Continuous
100
AcDbCircle
 10
136.3005879999998
 20
129.1504439999999
 30
0.0
 40
48.348667
100
AcDbArc
 50
68.021608
 51
82.925914
  0
LINE
  5
B2F6
330
AFE4
100
AcDbEntity
  8
5
  6
PHANTOM
100
AcDbLine
 10
135.512573
 20
176.023624
 30
0.0
 11
136.6244479999998
 21
174.010231
 31
0.0
  0
LINE
  5
B2F7
330
AFE4
100
AcDbEntity
  8
5
  6
PHANTOM
100
AcDbLine
 10
136.4706399999998
 20
174.617298
 30
0.0
 11
145.6569429999998
 21
179.698969
 31
0.0
  0
LINE
  5
B2F8
330
AFE4
100
AcDbEntity
  8
5
  6
PHANTOM
100
AcDbLine
 10
141.2015059999999
 20
177.234321
 30
0.0
 11
146.8109719999999
 21
165.4837689999999
 31
0.0
  0
LINE
  5
B2F9
330
AFE4
100
AcDbEntity
  8
5
  6
PHANTOM
100
AcDbLine
 10
133.0821
 20
161.888798
 30
0.0
 11
133.989475
 21
160.5568889999998
 31
0.0
  0
LINE
  5
B2FA
330
AFE4
100
AcDbEntity
  8
5
  6
PHANTOM
100
AcDbLine
 10
146.810971
 20
165.4837699999999
 30
0.0
 11
136.5983549999999
 21
159.926209
 31
0.0
  0
ARC
  5
B2FB
330
AFE4
100
AcDbEntity
  8
5
  6
PHANTOM
100
AcDbCircle
 10
160.806263
 20
159.817118
 30
0.0
 40
10.0
100
AcDbArc
 50
85.29030400000001
 51
102.286608
  0
ARC
  5
B2FC
330
AFE4
100
AcDbEntity
  8
1
  6
Continuous
100
AcDbCircle
 10
150.652835
 20
164.7121199999999
 30
0.0
 40
10.0
100
AcDbArc
 50
51.02530399999999
 51
68.021608
  0
ARC
  5
B2FD
330
AFE4
100
AcDbEntity
  8
1
  6
Continuous
100
AcDbCircle
 10
172.778996
 20
134.897781
 30
0.0
 40
35.0
100
AcDbArc
 50
67.93276099999999
 51
98.30711100000002
  0
LINE
  5
B2FE
330
AFE4
100
AcDbEntity
  8
1
  6
Continuous
100
AcDbLine
 10
194.922971
 20
178.752207
 30
0.0
 11
193.2664289999999
 21
181.444087
 31
0.0
  0
LINE
  5
B2FF
330
AFE4
100
AcDbEntity
  8
1
  6
Continuous
100
AcDbLine
 10
190.6526709999999
 20
180.921334
 30
0.0
 11
193.2664289999999
 21
181.4440859999999
 31
0.0
  0
LINE
  5
B300
330
AFE4
100
AcDbEntity
  8
1
  6
Continuous
100
AcDbLine
 10
194.5421749999999
 20
174.6008939999999
 30
0.0
 11
194.021533
 21
175.4469359999999
 31
0.0
  0
LINE
  5
B301
330
AFE4
100
AcDbEntity
  8
1
  6
Continuous
100
AcDbLine
 10
194.542177
 20
174.600896
 30
0.0
 11
195.025045
 21
174.1870089999999
 31
0.0
  0
LINE
  5
B302
330
AFE4
100
AcDbEntity
  8
1
  6
Continuous
100
AcDbLine
 10
194.9229689999999
 20
178.7522039999998
 30
0.0
 11
194.0559879999999
 21
175.573272
 31
0.0
  0
ARC
  5
B303
330
AFE4
100
AcDbEntity
  8
1
  6
Continuous
100
AcDbCircle
 10
163.1260039999999
 20
166.550858
 30
0.0
 40
23.117449
100
AcDbArc
 50
57.40129200000001
 51
112.09193
  0
LINE
  5
B304
330
AFE4
100
AcDbEntity
  8
5
  6
PHANTOM
100
AcDbLine
 10
145.049074
 20
183.0430409999999
 30
0.0
 11
149.260178
 21
184.237049
 31
0.0
  0
LINE
  5
B305
330
AFE4
100
AcDbEntity
  8
1
  6
Continuous
100
AcDbLine
 10
138.873662
 20
190.6450899999999
 30
0.0
 11
149.326701
 21
189.6727139999999
 31
0.0
  0
LINE
  5
B306
330
AFE4
100
AcDbEntity
  8
1
  6
Continuous
100
AcDbLine
 10
138.8736659999999
 20
192.3467489999999
 30
0.0
 11
138.658983
 21
190.056787
 31
0.0
  0
LINE
  5
B307
330
AFE4
100
AcDbEntity
  8
1
  6
Continuous
100
AcDbLine
 10
154.8596029999998
 20
191.394481
 30
0.0
 11
154.431676
 21
187.971058
 31
0.0
  0
LINE
  5
B308
330
AFE4
100
AcDbEntity
  8
1
  6
Continuous
100
AcDbLine
 10
150.7071159999999
 20
192.7786389999999
 30
0.0
 11
154.8596029999998
 21
191.394477
 31
0.0
  0
LINE
  5
B309
330
AFE4
100
AcDbEntity
  8
1
  6
Continuous
100
AcDbLine
 10
150.7071149999999
 20
192.7786419999999
 30
0.0
 11
149.326701
 21
189.672713
 31
0.0
  0
LINE
  5
B30A
330
AFE4
100
AcDbEntity
  8
5
  6
PHANTOM
100
AcDbLine
 10
179.4855619999999
 20
202.461837
 30
0.0
 11
170.156326
 21
197.810486
 31
0.0
  0
LINE
  5
B30B
330
AFE4
100
AcDbEntity
  8
5
  6
PHANTOM
100
AcDbLine
 10
180.069476
 20
201.3705459999999
 30
0.0
 11
170.4366139999999
 21
196.567813
 31
0.0
  0
LINE
  5
B30C
330
AFE4
100
AcDbEntity
  8
5
  6
PHANTOM
100
AcDbLine
 10
169.4071549999999
 20
191.4670639999999
 30
0.0
 11
183.5699209999999
 21
197.879762
 31
0.0
  0
LINE
  5
B30D
330
AFE4
100
AcDbEntity
  8
5
  6
PHANTOM
100
AcDbLine
 10
169.5071049999999
 20
193.225008
 30
0.0
 11
182.949623
 21
199.222047
 31
0.0
  0
ARC
  5
B30E
330
AFE4
100
AcDbEntity
  8
1
  6
Continuous
100
AcDbCircle
 10
179.1057099999999
 20
188.214153
 30
0.0
 40
1.463619999999998
100
AcDbArc
 50
83.211027
 51
138.3671699999998
  0
ARC
  5
B30F
330
AFE4
100
AcDbEntity
  8
1
  6
Continuous
100
AcDbCircle
 10
179.433415
 20
188.3700859999999
 30
0.0
 40
2.5
100
AcDbArc
 50
82.23483599999999
 51
154.97845
  0
LINE
  5
B310
330
AFE4
100
AcDbEntity
  8
1
  6
Continuous
100
AcDbLine
 10
175.5805709999999
 20
186.0264899999999
 30
0.0
 11
190.895767
 21
183.3522769999999
 31
0.0
  0
LINE
  5
B311
330
AFE4
100
AcDbEntity
  8
1
  6
Continuous
100
AcDbLine
 10
176.6529339999999
 20
187.4230559999998
 30
0.0
 11
191.1388609999999
 21
184.8108399999999
 31
0.0
  0
LINE
  5
B312
330
AFE4
100
AcDbEntity
  8
5
  6
PHANTOM
100
AcDbLine
 10
168.8042759999999
 20
195.171569
 30
0.0
 11
169.407158
 21
191.4670629999999
 31
0.0
  0
LINE
  5
B313
330
AFE4
100
AcDbEntity
  8
5
  6
PHANTOM
100
AcDbLine
 10
169.40716
 20
191.467057
 30
0.0
 11
169.6275219999999
 21
195.342847
 31
0.0
  0
ARC
  5
B314
330
AFE4
100
AcDbEntity
  8
5
  6
PHANTOM
100
AcDbCircle
 10
171.088778
 20
195.259769
 30
0.0
 40
1.463619999999998
100
AcDbArc
 50
117.476027
 51
172.6321699999999
  0
ARC
  5
B315
330
AFE4
100
AcDbEntity
  8
5
  6
PHANTOM
100
AcDbCircle
 10
171.2718139999998
 20
195.5731439999999
 30
0.0
 40
2.5
100
AcDbArc
 50
116.499836
 51
189.24345
  0
LINE
  5
B316
330
AFE4
100
AcDbEntity
  8
1
  6
Continuous
100
AcDbLine
 10
177.1680419999999
 20
189.427485
 30
0.0
 11
175.5805729999999
 21
186.026489
 31
0.0
  0
LINE
  5
B317
330
AFE4
100
AcDbEntity
  8
1
  6
Continuous
100
AcDbLine
 10
175.5805709999999
 20
186.0264819999999
 30
0.0
 11
177.9448399999999
 21
189.105531
 31
0.0
  0
LINE
  5
B318
330
AFE4
100
AcDbEntity
  8
5
  6
PHANTOM
100
AcDbLine
 10
194.353635
 20
195.1570199999999
 30
0.0
 11
194.397247
 21
192.8574309999999
 31
0.0
  0
ARC
  5
B319
330
AFE4
100
AcDbEntity
  8
5
  6
PHANTOM
100
AcDbCircle
 10
180.15486
 20
201.1194329999999
 30
0.0
 40
1.5
100
AcDbArc
 50
28.14949999999999
 51
116.499836
  0
ARC
  5
B31A
330
AFE4
100
AcDbEntity
  8
5
  6
PHANTOM
100
AcDbCircle
 10
180.7387679999999
 20
200.028147
 30
0.0
 40
1.5
100
AcDbArc
 50
28.14949999999999
 51
116.499836
  0
LINE
  5
B31B
330
AFE4
100
AcDbEntity
  8
5
  6
PHANTOM
100
AcDbLine
 10
189.488111
 20
196.345471
 30
0.0
 11
186.6034889999999
 21
197.637486
 31
0.0
  0
LINE
  5
B31C
330
AFE4
100
AcDbEntity
  8
5
  6
PHANTOM
100
AcDbLine
 10
184.7376889999999
 20
195.7338599999999
 30
0.0
 11
186.60349
 21
197.637485
 31
0.0
  0
LINE
  5
B31D
330
AFE4
100
AcDbEntity
  8
5
  6
PHANTOM
100
AcDbLine
 10
191.510683
 20
192.700253
 30
0.0
 11
190.6040619999999
 21
193.1063259999999
 31
0.0
  0
LINE
  5
B31E
330
AFE4
100
AcDbEntity
  8
5
  6
PHANTOM
100
AcDbLine
 10
191.510683
 20
192.7002569999999
 30
0.0
 11
192.1427729999998
 21
192.6300679999999
 31
0.0
  0
LINE
  5
B31F
330
AFE4
100
AcDbEntity
  8
5
  6
PHANTOM
100
AcDbLine
 10
189.488111
 20
196.3454669999999
 30
0.0
 11
190.561408
 21
193.2301349999999
 31
0.0
  0
LINE
  5
B320
330
AFE4
100
AcDbEntity
  8
5
  6
PHANTOM
100
AcDbLine
 10
184.7376869999999
 20
195.7338629999999
 30
0.0
 11
181.477437
 21
201.8270939999999
 31
0.0
  0
ARC
  5
B321
330
AFE4
100
AcDbEntity
  8
5
  6
PHANTOM
100
AcDbCircle
 10
192.3634999999999
 20
194.6178469999999
 30
0.0
 40
2.0
100
AcDbArc
 50
263.6637099999999
 51
1.086489999999999
  0
ARC
  5
B322
330
AFE4
100
AcDbEntity
  8
1
  6
Continuous
100
AcDbCircle
 10
189.8974189999999
 20
187.9524299999999
 30
0.0
 40
1.5
100
AcDbArc
 50
353.8845
 51
82.23483599999999
  0
ARC
  5
B323
330
AFE4
100
AcDbEntity
  8
1
  6
Continuous
100
AcDbCircle
 10
189.7655679999998
 20
186.7217939999999
 30
0.0
 40
1.5
100
AcDbArc
 50
353.8845
 51
82.23483599999999
  0
LINE
  5
B324
330
AFE4
100
AcDbEntity
  8
1
  6
Continuous
100
AcDbLine
 10
190.100085
 20
189.43868
 30
0.0
 11
179.7711989999999
 21
190.8471639999999
 31
0.0
  0
LINE
  5
B325
330
AFE4
100
AcDbEntity
  8
1
  6
Continuous
100
AcDbLine
 10
189.9682359999999
 20
188.208035
 30
0.0
 11
179.30319
 21
189.662359
 31
0.0
  0
LINE
  5
B326
330
AFE4
100
AcDbEntity
  8
1
  6
Continuous
100
AcDbLine
 10
124.934793
 20
289.0132359999999
 30
0.0
 11
144.2653479999998
 21
287.9931599999998
 31
0.0
  0
ARC
  5
B327
330
AFE4
100
AcDbEntity
  8
1
  6
Continuous
100
AcDbCircle
 10
131.631529
 20
292.8389119999998
 30
0.0
 40
20.17326399999999
100
AcDbArc
 50
250.2535599999999
 51
284.3009999999998
  0
ARC
  5
B328
330
AFE4
100
AcDbEntity
  8
1
  6
Continuous
100
AcDbCircle
 10
125.829389
 20
276.675491
 30
0.0
 40
3.0
100
AcDbArc
 50
179.9999899999999
 51
250.25357
  0
ARC
  5
B329
330
AFE4
100
AcDbEntity
  8
1
  6
Continuous
100
AcDbCircle
 10
124.829389
 20
287.01601
 30
0.0
 40
2.0
100
AcDbArc
 50
86.97929000000002
 51
180.00001
  0
LINE
  5
B32A
330
AFE4
100
AcDbEntity
  8
1
  6
Continuous
100
AcDbLine
 10
122.8293889999999
 20
276.675491
 30
0.0
 11
122.8293889999999
 21
286.8211319999998
 31
0.0
  0
LINE
  5
B32B
330
AFE4
100
AcDbEntity
  8
1
  6
Continuous
100
AcDbLine
 10
138.8735939999999
 20
276.1978259999998
 30
0.0
 11
138.8735939999999
 21
288.2776789999999
 31
0.0
  0
ARC
  5
B32C
330
AFE4
100
AcDbEntity
  8
1
  6
Continuous
100
AcDbCircle
 10
135.873594
 20
276.1978259999998
 30
0.0
 40
3.0
100
AcDbArc
 50
284.3009999999998
 51
0.0
  0
LINE
  5
B32D
330
AFE4
100
AcDbEntity
  8
1
  6
Continuous
100
AcDbLine
 10
147.7289709999998
 20
278.3969990000001
 30
0.0
 11
153.7574989999999
 21
278.3969990000001
 31
0.0
  0
ARC
  5
B32E
330
AFE4
100
AcDbEntity
  8
1
  6
Continuous
100
AcDbCircle
 10
144.1336039999999
 20
285.4966269999998
 30
0.0
 40
2.5
100
AcDbArc
 50
28.120384
 51
86.97929000000002
  0
LINE
  5
B32F
330
AFE4
100
AcDbEntity
  8
1
  6
Continuous
100
AcDbLine
 10
145.524074
 20
279.7186879999998
 30
0.0
 11
142.276907
 21
285.794887
 31
0.0
  0
LINE
  5
B330
330
AFE4
100
AcDbEntity
  8
1
  6
Continuous
100
AcDbLine
 10
147.448147
 20
279.718685
 30
0.0
 11
144.2568129999999
 21
285.690406
 31
0.0
  0
LINE
  5
B331
330
AFE4
100
AcDbEntity
  8
1
  6
Continuous
100
AcDbLine
 10
138.8735939999999
 20
285.9744789999999
 30
0.0
 11
144.2568179999998
 21
285.690406
 31
0.0
  0
LINE
  5
B332
330
AFE4
100
AcDbEntity
  8
1
  6
Continuous
100
AcDbLine
 10
151.470009
 20
284.8485059999998
 30
0.0
 11
152.0463389999999
 21
284.8585009999998
 31
0.0
  0
ARC
  5
B333
330
AFE4
100
AcDbEntity
  8
1
  6
Continuous
100
AcDbCircle
 10
152.0737049999999
 20
283.280479
 30
0.0
 40
1.578255999999999
100
AcDbArc
 50
33.464662
 51
167.02493
  0
ARC
  5
B334
330
AFE4
100
AcDbEntity
  8
1
  6
Continuous
100
AcDbCircle
 10
151.4960229999998
 20
283.3487279999999
 30
0.0
 40
1.5
100
AcDbArc
 50
90.99346699999999
 51
167.02493
  0
ARC
  5
B335
330
AFE4
100
AcDbEntity
  8
1
  6
Continuous
100
AcDbCircle
 10
147.7289709999998
 20
280.8969989999999
 30
0.0
 40
2.5
100
AcDbArc
 50
208.1203899999999
 51
270.0
  0
ARC
  5
B336
330
AFE4
100
AcDbEntity
  8
1
  6
Continuous
100
AcDbCircle
 10
149.6530429999999
 20
280.8969989999999
 30
0.0
 40
2.5
100
AcDbArc
 50
208.1203899999999
 51
270.0
  0
ARC
  5
B337
330
AFE4
100
AcDbEntity
  8
1
  6
Continuous
100
AcDbCircle
 10
147.73731
 20
280.396999
 30
0.0
 40
2.0
100
AcDbArc
 50
296.80124
 51
347.0249299999999
  0
LINE
  5
B338
330
AFE4
100
AcDbEntity
  8
1
  6
Continuous
100
AcDbLine
 10
153.3903249999999
 20
284.150768
 30
0.0
 11
153.669172
 21
283.728911
 31
0.0
  0
LINE
  5
B339
330
AFE4
100
AcDbEntity
  8
1
  6
Continuous
100
AcDbLine
 10
149.402199
 20
280.942062
 30
0.0
 11
146.3385029999998
 21
286.674945
 31
0.0
  0
LINE
  5
B33A
330
AFE4
100
AcDbEntity
  8
1
  6
Continuous
100
AcDbLine
 10
150.5357419999999
 20
283.6348409999999
 30
0.0
 11
149.6862449999999
 21
279.947948
 31
0.0
  0
LINE
  5
B33B
330
AFE4
100
AcDbEntity
  8
1
  6
Continuous
100
AcDbLine
 10
150.0343169999998
 20
283.68552
 30
0.0
 11
149.402197
 21
280.9420579999999
 31
0.0
  0
LINE
  5
B33C
330
AFE4
100
AcDbEntity
  8
1
  6
Continuous
100
AcDbLine
 10
198.2749229999998
 20
175.030627
 30
0.0
 11
197.0162479999999
 21
173.105595
 31
0.0
  0
LINE
  5
B33D
330
AFE4
100
AcDbEntity
  8
1
  6
Continuous
100
AcDbLine
 10
198.2749229999998
 20
175.030627
 30
0.0
 11
210.829469
 21
166.821886
 31
0.0
  0
LINE
  5
B33E
330
AFE4
100
AcDbEntity
  8
1
  6
Continuous
100
AcDbLine
 10
197.0162479999999
 20
173.105595
 30
0.0
 11
209.5707909999999
 21
164.896854
 31
0.0
  0
LINE
  5
B33F
330
AFE4
100
AcDbEntity
  8
1
  6
Continuous
100
AcDbLine
 10
210.829469
 20
166.821886
 30
0.0
 11
209.5707909999999
 21
164.896854
 31
0.0
  0
LINE
  5
B340
330
AFE4
100
AcDbEntity
  8
5
  6
PHANTOM
100
AcDbLine
 10
209.3509399999998
 20
195.4414449999999
 30
0.0
 11
209.39455
 21
193.141855
 31
0.0
  0
ARC
  5
B341
330
AFE4
100
AcDbEntity
  8
1
  6
Continuous
100
AcDbCircle
 10
206.742819
 20
262.685962
 30
0.0
 40
2.0
100
AcDbArc
 50
272.27443
 51
349.1048099999999
  0
ARC
  5
B342
330
AFE4
100
AcDbEntity
  8
1
  6
Continuous
100
AcDbCircle
 10
204.7749
 20
280.785571
 30
0.0
 40
19.871416
100
AcDbArc
 50
251.24923
 51
260.95302
  0
ARC
  5
B343
330
AFE4
100
AcDbEntity
  8
1
  6
Continuous
100
AcDbCircle
 10
200.4494949999999
 20
264.093858
 30
0.0
 40
2.5
100
AcDbArc
 50
173.7184599999999
 51
251.24922
  0
ARC
  5
B344
330
AFE4
100
AcDbEntity
  8
1
  6
Continuous
100
AcDbCircle
 10
199.1908239999999
 20
264.3361299999999
 30
0.0
 40
2.5
100
AcDbArc
 50
173.7184599999999
 51
251.24922
  0
ARC
  5
B345
330
AFE4
100
AcDbEntity
  8
1
  6
Continuous
100
AcDbCircle
 10
206.033575
 20
280.543296
 30
0.0
 40
19.871416
100
AcDbArc
 50
257.2566
 51
272.27443
  0
LINE
  5
B346
330
AFE4
100
AcDbEntity
  8
1
  6
Continuous
100
AcDbLine
 10
198.860305
 20
272.5054979999999
 30
0.0
 11
197.964502
 21
264.3673909999999
 31
0.0
  0
LINE
  5
B347
330
AFE4
100
AcDbEntity
  8
1
  6
Continuous
100
AcDbLine
 10
197.57496
 20
272.5054979999999
 30
0.0
 11
196.705827
 21
264.609664
 31
0.0
  0
LINE
  5
B348
330
AFE4
100
AcDbEntity
  8
1
  6
Continuous
100
AcDbLine
 10
210.66962
 20
272.5054979999999
 30
0.0
 11
208.7067699999999
 21
262.3079329999999
 31
0.0
  0
LINE
  5
B349
330
AFE4
100
AcDbEntity
  8
1
  6
Continuous
100
AcDbLine
 10
78.01316099999998
 20
169.384375
 30
0.0
 11
78.01316099999998
 21
167.2335349999999
 31
0.0
  0
LINE
  5
B34A
330
AFE4
100
AcDbEntity
  8
1
  6
Continuous
100
AcDbLine
 10
75.713161
 20
176.7274739999998
 30
0.0
 11
75.713161
 21
167.2335349999999
 31
0.0
  0
ARC
  5
B34B
330
AFE4
100
AcDbEntity
  8
1
  6
Continuous
100
AcDbCircle
 10
188.6691719999998
 20
74.60120899999998
 30
0.0
 40
24.75
100
AcDbArc
 50
107.162077
 51
125.057087
  0
ARC
  5
B34C
330
AFE4
100
AcDbEntity
  8
1
  6
Continuous
100
AcDbCircle
 10
188.6691719999998
 20
74.60120899999998
 30
0.0
 40
26.000075
100
AcDbArc
 50
114.7006689999999
 51
117.926141
  0
LINE
  5
B34D
330
AFE4
100
AcDbEntity
  8
1
  6
Continuous
100
AcDbLine
 10
197.5750379999998
 20
101.601209
 30
0.0
 11
169.6692469999999
 21
101.601209
 31
0.0
  0
ARC
  5
B34E
330
AFE4
100
AcDbEntity
  8
1
  6
Continuous
100
AcDbCircle
 10
188.6691719999998
 20
74.60120899999998
 30
0.0
 40
22.45
100
AcDbArc
 50
83.08227399999998
 51
125.057087
  0
ARC
  5
B34F
330
AFE4
100
AcDbEntity
  8
1
  6
Continuous
100
AcDbCircle
 10
188.6691719999998
 20
74.60120899999998
 30
0.0
 40
20.44999999999999
100
AcDbArc
 50
79.08535
 51
134.8426149999999
  0
LINE
  5
B350
330
AFE4
100
AcDbEntity
  8
1
  6
Continuous
100
AcDbLine
 10
160.720629
 20
278.3969990000001
 30
0.0
 11
162.617715
 21
278.3969990000001
 31
0.0
  0
CIRCLE
  5
B351
330
AFE4
100
AcDbEntity
  8
2
  6
Continuous
100
AcDbCircle
 10
163.6692469999998
 20
178.7334899999999
 30
0.0
 40
3.3235
  0
CIRCLE
  5
B352
330
AFE4
100
AcDbEntity
  8
1
  6
Continuous
100
AcDbCircle
 10
163.6692469999998
 20
178.7334899999999
 30
0.0
 40
4.0
  0
CIRCLE
  5
B353
330
AFE4
100
AcDbEntity
  8
1
  6
Continuous
100
AcDbCircle
 10
163.6692469999998
 20
178.7334899999999
 30
0.0
 40
6.0
  0
LINE
  5
B354
330
AFE4
100
AcDbEntity
  8
1
  6
Continuous
100
AcDbLine
 10
169.6692469999999
 20
182.1975909999999
 30
0.0
 11
169.6692469999999
 21
175.2693879999999
 31
0.0
  0
LINE
  5
B355
330
AFE4
100
AcDbEntity
  8
1
  6
Continuous
100
AcDbLine
 10
157.6692469999999
 20
182.1975909999999
 30
0.0
 11
157.6692469999999
 21
175.2693879999999
 31
0.0
  0
LINE
  5
B356
330
AFE4
100
AcDbEntity
  8
1
  6
Continuous
100
AcDbLine
 10
163.6692469999998
 20
171.805286
 30
0.0
 11
169.6692469999999
 21
175.2693879999999
 31
0.0
  0
LINE
  5
B357
330
AFE4
100
AcDbEntity
  8
1
  6
Continuous
100
AcDbLine
 10
163.6692469999998
 20
171.805286
 30
0.0
 11
157.6692469999999
 21
175.2693879999999
 31
0.0
  0
LINE
  5
B358
330
AFE4
100
AcDbEntity
  8
1
  6
Continuous
100
AcDbLine
 10
169.6692469999999
 20
182.1975909999999
 30
0.0
 11
163.6692469999998
 21
185.6616929999999
 31
0.0
  0
LINE
  5
B359
330
AFE4
100
AcDbEntity
  8
1
  6
Continuous
100
AcDbLine
 10
157.6692469999999
 20
182.1975909999999
 30
0.0
 11
163.6692469999998
 21
185.6616929999999
 31
0.0
  0
ARC
  5
B35A
330
AFE4
100
AcDbEntity
  8
1
  6
Continuous
100
AcDbCircle
 10
45.89616099999999
 20
178.733535
 30
0.0
 40
10.5
100
AcDbArc
 50
138.1896849999999
 51
221.810315
  0
LINE
  5
B35B
330
AFE4
100
AcDbEntity
  8
1
  6
Continuous
100
AcDbLine
 10
38.06992299999999
 20
185.7335349999999
 30
0.0
 11
38.06992299999999
 21
171.7335349999999
 31
0.0
  0
LINE
  5
B35C
330
AFE4
100
AcDbEntity
  8
1
  6
Continuous
100
AcDbLine
 10
38.06992299999999
 20
171.7335349999999
 30
0.0
 11
40.39616099999999
 21
171.7335349999999
 31
0.0
  0
LINE
  5
B35D
330
AFE4
100
AcDbEntity
  8
1
  6
Continuous
100
AcDbLine
 10
38.06992299999999
 20
185.7335349999999
 30
0.0
 11
40.39616099999999
 21
185.7335349999999
 31
0.0
  0
LINE
  5
B35E
330
AFE4
100
AcDbEntity
  8
5
  6
PHANTOM
100
AcDbLine
 10
459.2118849999998
 20
168.3377289999999
 30
0.0
 11
453.8887759999998
 21
171.277355
 31
0.0
  0
ARC
  5
B35F
330
AFE4
100
AcDbEntity
  8
1
  6
Continuous
100
AcDbCircle
 10
417.137504
 20
178.7334899999999
 30
0.0
 40
37.5
100
AcDbArc
 50
137.903804
 51
82.60460999999997
  0
ARC
  5
B360
330
AFE4
100
AcDbEntity
  8
1
  6
Continuous
100
AcDbCircle
 10
417.137504
 20
178.7334899999999
 30
0.0
 40
19.5
100
AcDbArc
 50
155.210272
 51
66.597493
  0
ARC
  5
B361
330
AFE4
100
AcDbEntity
  8
1
  6
Continuous
100
AcDbCircle
 10
417.137504
 20
178.7334899999999
 30
0.0
 40
28.0
100
AcDbArc
 50
143.9862819999999
 51
76.94200499999998
  0
ARC
  5
B362
330
AFE4
100
AcDbEntity
  8
1
  6
Continuous
100
AcDbCircle
 10
417.137504
 20
178.7334899999999
 30
0.0
 40
12.5
100
AcDbArc
 50
182.5877099999999
 51
42.83294699999999
  0
LINE
  5
B363
330
AFE4
100
AcDbEntity
  8
1
  6
Continuous
100
AcDbLine
 10
383.80281
 20
213.104232
 30
0.0
 11
408.150128
 21
172.30421
 31
0.0
  0
ARC
  5
B364
330
AFE4
100
AcDbEntity
  8
1
  6
Continuous
100
AcDbCircle
 10
417.137504
 20
177.7334899999999
 30
0.0
 40
10.5
100
AcDbArc
 50
211.136199
 51
9.004619999999997
  0
LINE
  5
B365
330
AFE4
100
AcDbEntity
  8
4
  6
CENTER
100
AcDbLine
 10
417.137504
 20
136.23349
 30
0.0
 11
417.137504
 21
219.23349
 31
0.0
  0
ARC
  5
B366
330
AFE4
100
AcDbEntity
  8
5
  6
PHANTOM
100
AcDbCircle
 10
455.989075
 20
156.258585
 30
0.0
 40
10.0
100
AcDbArc
 50
91.66891300000001
 51
112.0485399999999
  0
LINE
  5
B367
330
AFE4
100
AcDbEntity
  8
5
  6
PHANTOM
100
AcDbLine
 10
459.2118849999998
 20
168.3377289999999
 30
0.0
 11
458.1000109999997
 21
166.3243349999999
 31
0.0
  0
LINE
  5
B368
330
AFE4
100
AcDbEntity
  8
5
  6
PHANTOM
100
AcDbLine
 10
458.1000219999999
 20
166.3243379999999
 30
0.0
 11
455.6978299999998
 21
166.254346
 31
0.0
  0
ARC
  5
B369
330
AFE4
100
AcDbEntity
  8
1
  6
Continuous
100
AcDbCircle
 10
381.159512
 20
201.17498
 30
0.0
 40
36.516224
100
AcDbArc
 50
256.24081
 51
271.901066
  0
LINE
  5
B36A
330
AFE4
100
AcDbEntity
  8
1
  6
Continuous
100
AcDbLine
 10
380.020374
 20
173.388523
 30
0.0
 11
369.977282
 21
166.821886
 31
0.0
  0
LINE
  5
B36B
330
AFE4
100
AcDbEntity
  8
1
  6
Continuous
100
AcDbLine
 10
372.4744359999998
 20
165.706626
 30
0.0
 11
371.2359599999999
 21
164.896854
 31
0.0
  0
LINE
  5
B36C
330
AFE4
100
AcDbEntity
  8
1
  6
Continuous
100
AcDbLine
 10
369.977282
 20
166.821886
 30
0.0
 11
371.2359599999999
 21
164.896854
 31
0.0
  0
LINE
  5
B36D
330
AFE4
100
AcDbEntity
  8
1
  6
Continuous
100
AcDbLine
 10
457.762591
 20
193.8307659999999
 30
0.0
 11
451.708276
 21
193.2631729999999
 31
0.0
  0
ARC
  5
B36E
330
AFE4
100
AcDbEntity
  8
1
  6
Continuous
100
AcDbCircle
 10
461.8999389999998
 20
182.0335379999999
 30
0.0
 40
10.0
100
AcDbArc
 50
125.9339129999998
 51
146.3135399999998
  0
LINE
  5
B36F
330
AFE4
100
AcDbEntity
  8
4
  6
CENTER
100
AcDbLine
 10
374.6375039999999
 20
178.7334899999999
 30
0.0
 11
459.6375039999998
 21
178.7334899999999
 31
0.0
  0
LINE
  5
B370
330
AFE4
100
AcDbEntity
  8
1
  6
Continuous
100
AcDbLine
 10
457.762591
 20
193.8307659999999
 30
0.0
 11
457.977274
 21
191.540803
 31
0.0
  0
LINE
  5
B371
330
AFE4
100
AcDbEntity
  8
1
  6
Continuous
100
AcDbLine
 10
457.977282
 20
191.540812
 30
0.0
 11
456.0314159999999
 21
190.130482
 31
0.0
  0
ARC
  5
B372
330
AFE4
100
AcDbEntity
  8
5
  6
PHANTOM
100
AcDbCircle
 10
400.0388029999998
 20
217.536464
 30
0.0
 40
36.516224
100
AcDbArc
 50
221.9758099999999
 51
237.636066
  0
LINE
  5
B373
330
AFE4
100
AcDbEntity
  8
1
  6
Continuous
100
AcDbLine
 10
389.098291
 20
226.65849
 30
0.0
 11
390.723291
 21
225.53349
 31
0.0
  0
LINE
  5
B374
330
AFE4
100
AcDbEntity
  8
1
  6
Continuous
100
AcDbLine
 10
390.934077
 20
226.65849
 30
0.0
 11
389.309077
 21
225.53349
 31
0.0
  0
LINE
  5
B375
330
AFE4
100
AcDbEntity
  8
1
  6
Continuous
100
AcDbLine
 10
389.5198639999999
 20
226.65849
 30
0.0
 11
387.8948639999999
 21
225.53349
 31
0.0
  0
LINE
  5
B376
330
AFE4
100
AcDbEntity
  8
1
  6
Continuous
100
AcDbLine
 10
369.137504
 20
225.53349
 30
0.0
 11
415.1375039999998
 21
225.53349
 31
0.0
  0
LINE
  5
B377
330
AFE4
100
AcDbEntity
  8
1
  6
Continuous
100
AcDbLine
 10
357.1375039999999
 20
231.9334899999998
 30
0.0
 11
427.1375039999998
 21
231.9334899999998
 31
0.0
  0
LINE
  5
B378
330
AFE4
100
AcDbEntity
  8
1
  6
Continuous
100
AcDbLine
 10
357.1375039999999
 20
234.2334899999999
 30
0.0
 11
427.1375039999998
 21
234.2334899999999
 31
0.0
  0
LINE
  5
B379
330
AFE4
100
AcDbEntity
  8
1
  6
Continuous
100
AcDbLine
 10
369.137504
 20
226.65849
 30
0.0
 11
415.1375039999998
 21
226.65849
 31
0.0
  0
LINE
  5
B37A
330
AFE4
100
AcDbEntity
  8
1
  6
Continuous
100
AcDbLine
 10
369.087504
 20
228.9584899999999
 30
0.0
 11
415.187504
 21
228.9584899999999
 31
0.0
  0
LINE
  5
B37B
330
AFE4
100
AcDbEntity
  8
1
  6
Continuous
100
AcDbLine
 10
369.3453069999998
 20
229.8334899999999
 30
0.0
 11
414.9297009999998
 21
229.8334899999999
 31
0.0
  0
LINE
  5
B37C
330
AFE4
100
AcDbEntity
  8
1
  6
Continuous
100
AcDbLine
 10
420.85827
 20
223.23349
 30
0.0
 11
427.5897759999998
 21
178.7334899999999
 31
0.0
  0
LINE
  5
B37D
330
AFE4
100
AcDbEntity
  8
4
  6
CENTER
100
AcDbLine
 10
392.137504
 20
239.2334899999999
 30
0.0
 11
392.137504
 21
206.425602
 31
0.0
  0
LINE
  5
B37E
330
AFE4
100
AcDbEntity
  8
1
  6
Continuous
100
AcDbLine
 10
410.1375039999998
 20
223.23349
 30
0.0
 11
424.1375039999998
 21
223.23349
 31
0.0
  0
LINE
  5
B37F
330
AFE4
100
AcDbEntity
  8
1
  6
Continuous
100
AcDbLine
 10
421.001979
 20
220.9334899999999
 30
0.0
 11
424.1375039999998
 21
220.9334899999999
 31
0.0
  0
LINE
  5
B380
330
AFE4
100
AcDbEntity
  8
1
  6
Continuous
100
AcDbLine
 10
427.1375039999998
 20
234.2334899999999
 30
0.0
 11
427.1375039999998
 21
231.9334899999998
 31
0.0
  0
LINE
  5
B381
330
AFE4
100
AcDbEntity
  8
1
  6
Continuous
100
AcDbLine
 10
424.1375039999998
 20
223.23349
 30
0.0
 11
424.1375039999998
 21
220.9334899999999
 31
0.0
  0
LINE
  5
B382
330
AFE4
100
AcDbEntity
  8
1
  6
Continuous
100
AcDbLine
 10
404.6546399999998
 20
226.65849
 30
0.0
 11
406.2796399999998
 21
225.53349
 31
0.0
  0
LINE
  5
B383
330
AFE4
100
AcDbEntity
  8
1
  6
Continuous
100
AcDbLine
 10
406.4904259999998
 20
226.65849
 30
0.0
 11
404.8654259999998
 21
225.53349
 31
0.0
  0
LINE
  5
B384
330
AFE4
100
AcDbEntity
  8
4
  6
CENTER
100
AcDbLine
 10
419.1375039999998
 20
239.2334899999999
 30
0.0
 11
419.1375039999998
 21
226.93349
 31
0.0
  0
ARC
  5
B385
330
AFE4
100
AcDbEntity
  8
1
  6
Continuous
100
AcDbCircle
 10
408.8875039999998
 20
224.4839899999998
 30
0.0
 40
6.974499999999999
100
AcDbArc
 50
39.907598
 51
50.08600000000002
  0
LINE
  5
B386
330
AFE4
100
AcDbEntity
  8
1
  6
Continuous
100
AcDbLine
 10
408.897281
 20
226.65849
 30
0.0
 11
410.5222809999999
 21
225.53349
 31
0.0
  0
LINE
  5
B387
330
AFE4
100
AcDbEntity
  8
1
  6
Continuous
100
AcDbLine
 10
409.3188539999998
 20
226.65849
 30
0.0
 11
407.6938539999998
 21
225.53349
 31
0.0
  0
LINE
  5
B388
330
AFE4
100
AcDbEntity
  8
1
  6
Continuous
100
AcDbLine
 10
410.733067
 20
226.65849
 30
0.0
 11
409.108067
 21
225.53349
 31
0.0
  0
LINE
  5
B389
330
AFE4
100
AcDbEntity
  8
1
  6
Continuous
100
AcDbLine
 10
414.787504
 20
226.65849
 30
0.0
 11
415.687504
 21
228.1584899999999
 31
0.0
  0
LINE
  5
B38A
330
AFE4
100
AcDbEntity
  8
1
  6
Continuous
100
AcDbLine
 10
415.1375039999998
 20
226.65849
 30
0.0
 11
415.1375039999998
 21
225.53349
 31
0.0
  0
LINE
  5
B38B
330
AFE4
100
AcDbEntity
  8
1
  6
Continuous
100
AcDbLine
 10
411.7257079999998
 20
226.65849
 30
0.0
 11
413.350708
 21
225.53349
 31
0.0
  0
LINE
  5
B38C
330
AFE4
100
AcDbEntity
  8
1
  6
Continuous
100
AcDbLine
 10
413.139921
 20
226.65849
 30
0.0
 11
414.7649209999998
 21
225.53349
 31
0.0
  0
LINE
  5
B38D
330
AFE4
100
AcDbEntity
  8
1
  6
Continuous
100
AcDbLine
 10
415.1375039999998
 20
226.075121
 30
0.0
 11
414.554135
 21
226.65849
 31
0.0
  0
LINE
  5
B38E
330
AFE4
100
AcDbEntity
  8
1
  6
Continuous
100
AcDbLine
 10
413.5614939999999
 20
226.65849
 30
0.0
 11
411.9364939999998
 21
225.53349
 31
0.0
  0
LINE
  5
B38F
330
AFE4
100
AcDbEntity
  8
1
  6
Continuous
100
AcDbLine
 10
414.9757079999998
 20
226.65849
 30
0.0
 11
413.350708
 21
225.53349
 31
0.0
  0
LINE
  5
B390
330
AFE4
100
AcDbEntity
  8
1
  6
Continuous
100
AcDbLine
 10
410.311494
 20
226.65849
 30
0.0
 11
411.9364939999998
 21
225.53349
 31
0.0
  0
LINE
  5
B391
330
AFE4
100
AcDbEntity
  8
1
  6
Continuous
100
AcDbLine
 10
412.147281
 20
226.65849
 30
0.0
 11
410.5222809999999
 21
225.53349
 31
0.0
  0
LINE
  5
B392
330
AFE4
100
AcDbEntity
  8
1
  6
Continuous
100
AcDbLine
 10
415.687504
 20
228.1584899999999
 30
0.0
 11
415.187504
 21
228.9584899999999
 31
0.0
  0
ARC
  5
B393
330
AFE4
100
AcDbEntity
  8
1
  6
Continuous
100
AcDbCircle
 10
414.9297009999998
 20
233.33349
 30
0.0
 40
3.5
100
AcDbArc
 50
270.0
 51
336.421822
  0
ARC
  5
B394
330
AFE4
100
AcDbEntity
  8
1
  6
Continuous
100
AcDbCircle
 10
413.470314
 20
222.53349
 30
0.0
 40
3.0
100
AcDbArc
 50
13.49339899999998
 51
90.0
  0
LINE
  5
B395
330
AFE4
100
AcDbEntity
  8
1
  6
Continuous
100
AcDbLine
 10
406.068854
 20
226.65849
 30
0.0
 11
407.6938539999998
 21
225.53349
 31
0.0
  0
LINE
  5
B396
330
AFE4
100
AcDbEntity
  8
1
  6
Continuous
100
AcDbLine
 10
407.4830669999998
 20
226.65849
 30
0.0
 11
409.108067
 21
225.53349
 31
0.0
  0
LINE
  5
B397
330
AFE4
100
AcDbEntity
  8
1
  6
Continuous
100
AcDbLine
 10
407.90464
 20
226.65849
 30
0.0
 11
406.2796399999998
 21
225.53349
 31
0.0
  0
LINE
  5
B398
330
AFE4
100
AcDbEntity
  8
1
  6
Continuous
100
AcDbLine
 10
391.9267179999998
 20
226.65849
 30
0.0
 11
393.551718
 21
225.53349
 31
0.0
  0
LINE
  5
B399
330
AFE4
100
AcDbEntity
  8
1
  6
Continuous
100
AcDbLine
 10
393.340931
 20
226.65849
 30
0.0
 11
394.965931
 21
225.53349
 31
0.0
  0
LINE
  5
B39A
330
AFE4
100
AcDbEntity
  8
1
  6
Continuous
100
AcDbLine
 10
393.7625039999998
 20
226.65849
 30
0.0
 11
392.137504
 21
225.53349
 31
0.0
  0
LINE
  5
B39B
330
AFE4
100
AcDbEntity
  8
1
  6
Continuous
100
AcDbLine
 10
395.176718
 20
226.65849
 30
0.0
 11
393.551718
 21
225.53349
 31
0.0
  0
LINE
  5
B39C
330
AFE4
100
AcDbEntity
  8
1
  6
Continuous
100
AcDbLine
 10
396.1693589999999
 20
226.65849
 30
0.0
 11
397.7943589999999
 21
225.53349
 31
0.0
  0
LINE
  5
B39D
330
AFE4
100
AcDbEntity
  8
1
  6
Continuous
100
AcDbLine
 10
397.583572
 20
226.65849
 30
0.0
 11
399.208572
 21
225.53349
 31
0.0
  0
LINE
  5
B39E
330
AFE4
100
AcDbEntity
  8
1
  6
Continuous
100
AcDbLine
 10
398.005145
 20
226.65849
 30
0.0
 11
396.380145
 21
225.53349
 31
0.0
  0
LINE
  5
B39F
330
AFE4
100
AcDbEntity
  8
1
  6
Continuous
100
AcDbLine
 10
394.755145
 20
226.65849
 30
0.0
 11
396.380145
 21
225.53349
 31
0.0
  0
LINE
  5
B3A0
330
AFE4
100
AcDbEntity
  8
1
  6
Continuous
100
AcDbLine
 10
396.590931
 20
226.65849
 30
0.0
 11
394.965931
 21
225.53349
 31
0.0
  0
LINE
  5
B3A1
330
AFE4
100
AcDbEntity
  8
1
  6
Continuous
100
AcDbLine
 10
400.4119989999998
 20
226.65849
 30
0.0
 11
402.0369989999998
 21
225.53349
 31
0.0
  0
LINE
  5
B3A2
330
AFE4
100
AcDbEntity
  8
1
  6
Continuous
100
AcDbLine
 10
402.2477859999998
 20
226.65849
 30
0.0
 11
400.622786
 21
225.53349
 31
0.0
  0
LINE
  5
B3A3
330
AFE4
100
AcDbEntity
  8
1
  6
Continuous
100
AcDbLine
 10
405.0762129999998
 20
226.65849
 30
0.0
 11
403.451213
 21
225.53349
 31
0.0
  0
LINE
  5
B3A4
330
AFE4
100
AcDbEntity
  8
1
  6
Continuous
100
AcDbLine
 10
401.826213
 20
226.65849
 30
0.0
 11
403.451213
 21
225.53349
 31
0.0
  0
LINE
  5
B3A5
330
AFE4
100
AcDbEntity
  8
1
  6
Continuous
100
AcDbLine
 10
403.2404259999998
 20
226.65849
 30
0.0
 11
404.8654259999998
 21
225.53349
 31
0.0
  0
LINE
  5
B3A6
330
AFE4
100
AcDbEntity
  8
1
  6
Continuous
100
AcDbLine
 10
403.661999
 20
226.65849
 30
0.0
 11
402.0369989999998
 21
225.53349
 31
0.0
  0
LINE
  5
B3A7
330
AFE4
100
AcDbEntity
  8
1
  6
Continuous
100
AcDbLine
 10
398.9977859999998
 20
226.65849
 30
0.0
 11
400.622786
 21
225.53349
 31
0.0
  0
LINE
  5
B3A8
330
AFE4
100
AcDbEntity
  8
1
  6
Continuous
100
AcDbLine
 10
399.419359
 20
226.65849
 30
0.0
 11
397.7943589999999
 21
225.53349
 31
0.0
  0
LINE
  5
B3A9
330
AFE4
100
AcDbEntity
  8
1
  6
Continuous
100
AcDbLine
 10
400.8335719999998
 20
226.65849
 30
0.0
 11
399.208572
 21
225.53349
 31
0.0
  0
LINE
  5
B3AA
330
AFE4
100
AcDbEntity
  8
1
  6
Continuous
100
AcDbLine
 10
390.5125039999999
 20
226.65849
 30
0.0
 11
392.137504
 21
225.53349
 31
0.0
  0
LINE
  5
B3AB
330
AFE4
100
AcDbEntity
  8
1
  6
Continuous
100
AcDbLine
 10
392.348291
 20
226.65849
 30
0.0
 11
390.723291
 21
225.53349
 31
0.0
  0
LINE
  5
B3AC
330
AFE4
100
AcDbEntity
  8
1
  6
Continuous
100
AcDbLine
 10
367.3875039999999
 20
222.53349
 30
0.0
 11
367.3875039999999
 21
217.9334899999998
 31
0.0
  0
LINE
  5
B3AD
330
AFE4
100
AcDbEntity
  8
5
  6
PHANTOM
100
AcDbLine
 10
383.453004
 20
195.2139169999999
 30
0.0
 11
371.455811
 21
195.4414449999999
 31
0.0
  0
LINE
  5
B3AE
330
AFE4
100
AcDbEntity
  8
5
  6
PHANTOM
100
AcDbLine
 10
372.89165
 20
193.113797
 30
0.0
 11
371.412201
 21
193.141855
 31
0.0
  0
LINE
  5
B3AF
330
AFE4
100
AcDbEntity
  8
5
  6
PHANTOM
100
AcDbLine
 10
371.455811
 20
195.4414449999999
 30
0.0
 11
371.412201
 21
193.141855
 31
0.0
  0
LINE
  5
B3B0
330
AFE4
100
AcDbEntity
  8
1
  6
Continuous
100
AcDbLine
 10
367.3875039999999
 20
217.9334899999998
 30
0.0
 11
375.243405
 21
217.9334899999998
 31
0.0
  0
LINE
  5
B3B1
330
AFE4
100
AcDbEntity
  8
1
  6
Continuous
100
AcDbLine
 10
381.573546
 20
215.674892
 30
0.0
 11
380.615446
 21
215.674012
 31
0.0
  0
ARC
  5
B3B2
330
AFE4
100
AcDbEntity
  8
1
  6
Continuous
100
AcDbCircle
 10
380.7409359999999
 20
223.521524
 30
0.0
 40
7.848514999999999
100
AcDbArc
 50
225.396746
 51
269.083862
  0
ARC
  5
B3B3
330
AFE4
100
AcDbEntity
  8
1
  6
Continuous
100
AcDbCircle
 10
375.243405
 20
207.9334899999998
 30
0.0
 40
10.0
100
AcDbArc
 50
31.136199
 51
90.0
  0
LINE
  5
B3B4
330
AFE4
100
AcDbEntity
  8
1
  6
Continuous
100
AcDbLine
 10
377.193133
 20
217.7419839999998
 30
0.0
 11
377.237504
 21
217.67099
 31
0.0
  0
LINE
  5
B3B5
330
AFE4
100
AcDbEntity
  8
1
  6
Continuous
100
AcDbLine
 10
372.1277279999998
 20
226.65849
 30
0.0
 11
373.752728
 21
225.53349
 31
0.0
  0
LINE
  5
B3B6
330
AFE4
100
AcDbEntity
  8
1
  6
Continuous
100
AcDbLine
 10
373.9635149999998
 20
226.65849
 30
0.0
 11
372.3385149999999
 21
225.53349
 31
0.0
  0
LINE
  5
B3B7
330
AFE4
100
AcDbEntity
  8
1
  6
Continuous
100
AcDbLine
 10
376.3703689999999
 20
226.65849
 30
0.0
 11
377.9953689999999
 21
225.53349
 31
0.0
  0
LINE
  5
B3B8
330
AFE4
100
AcDbEntity
  8
1
  6
Continuous
100
AcDbLine
 10
374.9561549999999
 20
226.65849
 30
0.0
 11
376.5811549999999
 21
225.53349
 31
0.0
  0
LINE
  5
B3B9
330
AFE4
100
AcDbEntity
  8
1
  6
Continuous
100
AcDbLine
 10
378.2061549999998
 20
226.65849
 30
0.0
 11
376.5811549999999
 21
225.53349
 31
0.0
  0
LINE
  5
B3BA
330
AFE4
100
AcDbEntity
  8
1
  6
Continuous
100
AcDbLine
 10
376.791942
 20
226.65849
 30
0.0
 11
375.166942
 21
225.53349
 31
0.0
  0
LINE
  5
B3BB
330
AFE4
100
AcDbEntity
  8
1
  6
Continuous
100
AcDbLine
 10
380.6130089999999
 20
226.65849
 30
0.0
 11
382.2380089999999
 21
225.53349
 31
0.0
  0
LINE
  5
B3BC
330
AFE4
100
AcDbEntity
  8
1
  6
Continuous
100
AcDbLine
 10
379.198796
 20
226.65849
 30
0.0
 11
380.8237959999999
 21
225.53349
 31
0.0
  0
LINE
  5
B3BD
330
AFE4
100
AcDbEntity
  8
1
  6
Continuous
100
AcDbLine
 10
382.448796
 20
226.65849
 30
0.0
 11
380.8237959999999
 21
225.53349
 31
0.0
  0
LINE
  5
B3BE
330
AFE4
100
AcDbEntity
  8
1
  6
Continuous
100
AcDbLine
 10
381.034582
 20
226.65849
 30
0.0
 11
379.4095819999999
 21
225.53349
 31
0.0
  0
LINE
  5
B3BF
330
AFE4
100
AcDbEntity
  8
1
  6
Continuous
100
AcDbLine
 10
377.784582
 20
226.65849
 30
0.0
 11
379.4095819999999
 21
225.53349
 31
0.0
  0
LINE
  5
B3C0
330
AFE4
100
AcDbEntity
  8
1
  6
Continuous
100
AcDbLine
 10
379.620369
 20
226.65849
 30
0.0
 11
377.9953689999999
 21
225.53349
 31
0.0
  0
LINE
  5
B3C1
330
AFE4
100
AcDbEntity
  8
1
  6
Continuous
100
AcDbLine
 10
384.85565
 20
226.65849
 30
0.0
 11
386.48065
 21
225.53349
 31
0.0
  0
LINE
  5
B3C2
330
AFE4
100
AcDbEntity
  8
1
  6
Continuous
100
AcDbLine
 10
383.441437
 20
226.65849
 30
0.0
 11
385.066437
 21
225.53349
 31
0.0
  0
LINE
  5
B3C3
330
AFE4
100
AcDbEntity
  8
1
  6
Continuous
100
AcDbLine
 10
386.691437
 20
226.65849
 30
0.0
 11
385.066437
 21
225.53349
 31
0.0
  0
LINE
  5
B3C4
330
AFE4
100
AcDbEntity
  8
1
  6
Continuous
100
AcDbLine
 10
385.2772229999998
 20
226.65849
 30
0.0
 11
383.6522229999998
 21
225.53349
 31
0.0
  0
LINE
  5
B3C5
330
AFE4
100
AcDbEntity
  8
1
  6
Continuous
100
AcDbLine
 10
387.684077
 20
226.65849
 30
0.0
 11
389.309077
 21
225.53349
 31
0.0
  0
LINE
  5
B3C6
330
AFE4
100
AcDbEntity
  8
1
  6
Continuous
100
AcDbLine
 10
386.2698639999999
 20
226.65849
 30
0.0
 11
387.8948639999999
 21
225.53349
 31
0.0
  0
LINE
  5
B3C7
330
AFE4
100
AcDbEntity
  8
1
  6
Continuous
100
AcDbLine
 10
388.10565
 20
226.65849
 30
0.0
 11
386.48065
 21
225.53349
 31
0.0
  0
LINE
  5
B3C8
330
AFE4
100
AcDbEntity
  8
1
  6
Continuous
100
AcDbLine
 10
382.027223
 20
226.65849
 30
0.0
 11
383.6522229999998
 21
225.53349
 31
0.0
  0
LINE
  5
B3C9
330
AFE4
100
AcDbEntity
  8
1
  6
Continuous
100
AcDbLine
 10
383.8630089999999
 20
226.65849
 30
0.0
 11
382.2380089999999
 21
225.53349
 31
0.0
  0
LINE
  5
B3CA
330
AFE4
100
AcDbEntity
  8
1
  6
Continuous
100
AcDbLine
 10
373.5419419999999
 20
226.65849
 30
0.0
 11
375.166942
 21
225.53349
 31
0.0
  0
LINE
  5
B3CB
330
AFE4
100
AcDbEntity
  8
1
  6
Continuous
100
AcDbLine
 10
375.3777279999998
 20
226.65849
 30
0.0
 11
373.752728
 21
225.53349
 31
0.0
  0
LINE
  5
B3CC
330
AFE4
100
AcDbEntity
  8
4
  6
CENTER
100
AcDbLine
 10
365.137504
 20
239.2334899999999
 30
0.0
 11
365.137504
 21
226.93349
 31
0.0
  0
ARC
  5
B3CD
330
AFE4
100
AcDbEntity
  8
1
  6
Continuous
100
AcDbCircle
 10
375.387504
 20
224.4839899999998
 30
0.0
 40
6.974499999999999
100
AcDbArc
 50
129.9139999999999
 51
140.0924019999999
  0
LINE
  5
B3CE
330
AFE4
100
AcDbEntity
  8
1
  6
Continuous
100
AcDbLine
 10
369.4875039999999
 20
226.65849
 30
0.0
 11
368.587504
 21
228.1584899999999
 31
0.0
  0
LINE
  5
B3CF
330
AFE4
100
AcDbEntity
  8
1
  6
Continuous
100
AcDbLine
 10
369.137504
 20
226.65849
 30
0.0
 11
369.137504
 21
225.53349
 31
0.0
  0
LINE
  5
B3D0
330
AFE4
100
AcDbEntity
  8
1
  6
Continuous
100
AcDbLine
 10
369.137504
 20
225.4060729999999
 30
0.0
 11
369.510087
 21
225.53349
 31
0.0
  0
LINE
  5
B3D1
330
AFE4
100
AcDbEntity
  8
1
  6
Continuous
100
AcDbLine
 10
369.7208739999999
 20
226.65849
 30
0.0
 11
369.137504
 21
226.075121
 31
0.0
  0
LINE
  5
B3D2
330
AFE4
100
AcDbEntity
  8
1
  6
Continuous
100
AcDbLine
 10
370.7135149999999
 20
226.65849
 30
0.0
 11
372.3385149999999
 21
225.53349
 31
0.0
  0
LINE
  5
B3D3
330
AFE4
100
AcDbEntity
  8
1
  6
Continuous
100
AcDbLine
 10
372.5493009999998
 20
226.65849
 30
0.0
 11
370.9243009999998
 21
225.53349
 31
0.0
  0
LINE
  5
B3D4
330
AFE4
100
AcDbEntity
  8
1
  6
Continuous
100
AcDbLine
 10
369.2993009999999
 20
226.65849
 30
0.0
 11
370.9243009999998
 21
225.53349
 31
0.0
  0
LINE
  5
B3D5
330
AFE4
100
AcDbEntity
  8
1
  6
Continuous
100
AcDbLine
 10
371.1350869999998
 20
226.65849
 30
0.0
 11
369.510087
 21
225.53349
 31
0.0
  0
LINE
  5
B3D6
330
AFE4
100
AcDbEntity
  8
1
  6
Continuous
100
AcDbLine
 10
368.587504
 20
228.1584899999999
 30
0.0
 11
369.087504
 21
228.9584899999999
 31
0.0
  0
ARC
  5
B3D7
330
AFE4
100
AcDbEntity
  8
1
  6
Continuous
100
AcDbCircle
 10
369.3453069999998
 20
233.33349
 30
0.0
 40
3.5
100
AcDbArc
 50
203.578178
 51
270.0
  0
ARC
  5
B3D8
330
AFE4
100
AcDbEntity
  8
1
  6
Continuous
100
AcDbCircle
 10
370.8189279999999
 20
222.071827
 30
0.0
 40
3.462340999999999
100
AcDbArc
 50
88.86512399999999
 51
172.3374649999999
  0
LINE
  5
B3D9
330
AFE4
100
AcDbEntity
  8
1
  6
Continuous
100
AcDbLine
 10
357.1375039999999
 20
234.2334899999999
 30
0.0
 11
357.1375039999999
 21
231.9334899999998
 31
0.0
  0
CIRCLE
  5
B3DA
330
AFE4
100
AcDbEntity
  8
1
  6
Continuous
100
AcDbCircle
 10
417.137504
 20
178.7334899999999
 30
0.0
 40
7.0
  0
ARC
  5
B3DB
330
AFE4
100
AcDbEntity
  8
1
  6
Continuous
100
AcDbCircle
 10
163.6692469999998
 20
178.7334899999999
 30
0.0
 40
37.5
100
AcDbArc
 50
351.805585
 51
42.09619599999999
  0
ARC
  5
B3DC
330
AFE4
100
AcDbEntity
  8
1
  6
Continuous
100
AcDbCircle
 10
163.6692469999998
 20
178.7334899999999
 30
0.0
 40
28.0
100
AcDbArc
 50
4.857635
 51
12.100412
  0
ARC
  5
B3DD
330
AFE4
100
AcDbEntity
  8
1
  6
Continuous
100
AcDbCircle
 10
163.6692469999998
 20
178.7334899999999
 30
0.0
 40
28.0
100
AcDbArc
 50
22.65674699999999
 51
36.01371799999999
  0
ARC
  5
B3DE
330
AFE4
100
AcDbEntity
  8
1
  6
Continuous
100
AcDbCircle
 10
163.6692469999998
 20
178.7334899999999
 30
0.0
 40
19.5
100
AcDbArc
 50
185.5746659999999
 51
330.1173549999999
  0
ARC
  5
B3DF
330
AFE4
100
AcDbEntity
  8
1
  6
Continuous
100
AcDbCircle
 10
163.6692469999998
 20
178.7334899999999
 30
0.0
 40
28.0
100
AcDbArc
 50
181.63505
 51
333.6775289999998
  0
ARC
  5
B3E0
330
AFE4
100
AcDbEntity
  8
1
  6
Continuous
100
AcDbCircle
 10
163.6692469999998
 20
178.7334899999999
 30
0.0
 40
37.5
100
AcDbArc
 50
166.3548839999999
 51
337.988649
  0
ARC
  5
B3E1
330
AFE4
100
AcDbEntity
  8
1
  6
Continuous
100
AcDbCircle
 10
163.6692469999998
 20
61.29270899999998
 30
0.0
 40
10.5
100
AcDbArc
 50
228.1896849999998
 51
311.810315
  0
LINE
  5
B3E2
330
AFE4
100
AcDbEntity
  8
1
  6
Continuous
100
AcDbLine
 10
156.6692469999999
 20
53.466471
 30
0.0
 11
170.6692469999999
 21
53.466471
 31
0.0
  0
LINE
  5
B3E3
330
AFE4
100
AcDbEntity
  8
1
  6
Continuous
100
AcDbLine
 10
156.6692469999999
 20
53.466471
 30
0.0
 11
156.6692469999999
 21
55.792709
 31
0.0
  0
LINE
  5
B3E4
330
AFE4
100
AcDbEntity
  8
1
  6
Continuous
100
AcDbLine
 10
170.6692469999999
 20
53.466471
 30
0.0
 11
170.6692469999999
 21
55.792709
 31
0.0
  0
LINE
  5
B3E5
330
AFE4
100
AcDbEntity
  8
1
  6
Continuous
100
AcDbLine
 10
263.1803629999998
 20
190.4597799999999
 30
0.0
 11
264.204506
 21
184.8108299999999
 31
0.0
  0
LINE
  5
B3E6
330
AFE4
100
AcDbEntity
  8
1
  6
Continuous
100
AcDbLine
 10
265.326741
 20
189.1670699999998
 30
0.0
 11
263.8255889999999
 21
188.8949199999999
 31
0.0
  0
LINE
  5
B3E7
330
AFE4
100
AcDbEntity
  8
1
  6
Continuous
100
AcDbLine
 10
265.4434699999999
 20
190.87008
 30
0.0
 11
263.1803629999998
 21
190.4597799999999
 31
0.0
  0
LINE
  5
B3E8
330
AFE4
100
AcDbEntity
  8
1
  6
Continuous
100
AcDbLine
 10
264.109148
 20
193.5364899999999
 30
0.0
 11
263.763188
 21
192.77018
 31
0.0
  0
ARC
  5
B3E9
330
AFE4
100
AcDbEntity
  8
1
  6
Continuous
100
AcDbCircle
 10
264.03662
 20
192.6467399999999
 30
0.0
 40
0.3
100
AcDbArc
 50
155.7026559999999
 51
270.00001
  0
LINE
  5
B3EA
330
AFE4
100
AcDbEntity
  8
1
  6
Continuous
100
AcDbLine
 10
264.5419979999999
 20
164.896854
 30
0.0
 11
252.578257
 21
164.896854
 31
0.0
  0
LINE
  5
B3EB
330
AFE4
100
AcDbEntity
  8
1
  6
Continuous
100
AcDbLine
 10
264.5419979999999
 20
175.0306199999999
 30
0.0
 11
254.316164
 21
175.0306199999999
 31
0.0
  0
LINE
  5
B3EC
330
AFE4
100
AcDbEntity
  8
1
  6
Continuous
100
AcDbLine
 10
264.5419979999999
 20
175.0306199999999
 30
0.0
 11
254.316164
 21
175.0306199999999
 31
0.0
  0
LINE
  5
B3ED
330
AFE4
100
AcDbEntity
  8
1
  6
Continuous
100
AcDbLine
 10
264.5419979999999
 20
166.82188
 30
0.0
 11
252.578257
 21
166.82188
 31
0.0
  0
ARC
  5
B3EE
330
AFE4
100
AcDbEntity
  8
1
  6
Continuous
100
AcDbCircle
 10
254.316164
 20
173.03038
 30
0.0
 40
2.0
100
AcDbArc
 50
90.00000300000001
 51
153.984946
  0
LWPOLYLINE
  5
B3EF
330
AFE4
100
AcDbEntity
  8
1
  6
Continuous
100
AcDbPolyline
 90
       17
 70
     0
 43
0.0
 10
252.5184129999999
 20
173.9067799999999
 42
0.007202
 10
252.3956779999998
 20
173.64581
 42
0.007353
 10
252.280593
 20
173.3813899999999
 42
0.0075
 10
252.173416
 20
173.1136699999999
 42
0.007642
 10
252.074397
 20
172.84283
 42
0.007777
 10
251.9837779999999
 20
172.5690699999999
 42
0.007904
 10
251.9017899999998
 20
172.29262
 42
0.008021
 10
251.828649
 20
172.0137
 42
0.008128
 10
251.7645549999998
 20
171.7325699999999
 42
0.008223
 10
251.7096899999998
 20
171.4495
 42
0.008305
 10
251.6642109999999
 20
171.16478
 42
0.008372
 10
251.628254
 20
170.8787
 42
0.008424
 10
251.601927
 20
170.5915799999999
 42
0.008485
 10
251.585276
 20
170.30292
 42
0.008499
 10
251.5784449999999
 20
170.0140799999998
 42
0.008455
 10
251.581394
 20
169.72675
 42
0.008453
 10
251.594073
 20
169.43932
  0
ARC
  5
B402
330
AFE4
100
AcDbEntity
  8
1
  6
Continuous
100
AcDbCircle
 10
252.578257
 20
165.896854
 30
0.0
 40
1.0
100
AcDbArc
 50
180.0000029999999
 51
269.9999899999999
  0
ARC
  5
B403
330
AFE4
100
AcDbEntity
  8
1
  6
Continuous
100
AcDbCircle
 10
252.578257
 20
167.8218799999999
 30
0.0
 40
1.0
100
AcDbArc
 50
180.0000029999999
 51
269.9999899999999
  0
LINE
  5
B404
330
AFE4
100
AcDbEntity
  8
1
  6
Continuous
100
AcDbLine
 10
251.5782569999998
 20
165.896854
 30
0.0
 11
251.5782569999998
 21
169.9576099999999
 31
0.0
  0
LINE
  5
B405
330
AFE4
100
AcDbEntity
  8
1
  6
Continuous
100
AcDbLine
 10
263.7366169999999
 20
192.6467399999999
 30
0.0
 11
263.7366169999999
 21
190.56063
 31
0.0
  0
LINE
  5
B406
330
AFE4
100
AcDbEntity
  8
1
  6
Continuous
100
AcDbLine
 10
265.4434699999999
 20
190.87008
 30
0.0
 11
266.5419989999999
 21
184.8108299999999
 31
0.0
  0
LINE
  5
B407
330
AFE4
100
AcDbEntity
  8
1
  6
Continuous
100
AcDbLine
 10
266.5419989999999
 20
181.4301289999999
 30
0.0
 11
266.5419989999999
 21
184.8108299999999
 31
0.0
  0
LINE
  5
B408
330
AFE4
100
AcDbEntity
  8
1
  6
Continuous
100
AcDbLine
 10
266.421192
 20
175.51315
 30
0.0
 11
269.2097069999999
 21
176.2112799999999
 31
0.0
  0
LINE
  5
B409
330
AFE4
100
AcDbEntity
  8
1
  6
Continuous
100
AcDbLine
 10
264.9991309999999
 20
177.08215
 30
0.0
 11
269.2097039999998
 21
178.1363199999999
 31
0.0
  0
LINE
  5
B40A
330
AFE4
100
AcDbEntity
  8
1
  6
Continuous
100
AcDbLine
 10
270.639579
 20
179.96831
 30
0.0
 11
270.639579
 21
178.0432799999999
 31
0.0
  0
LINE
  5
B40B
330
AFE4
100
AcDbEntity
  8
1
  6
Continuous
100
AcDbLine
 10
271.5948749999999
 20
169.38432
 30
0.0
 11
266.5419989999999
 21
169.38432
 31
0.0
  0
ARC
  5
B40C
330
AFE4
100
AcDbEntity
  8
1
  6
Continuous
100
AcDbCircle
 10
264.5419979999999
 20
173.03062
 30
0.0
 40
2.0
100
AcDbArc
 50
0.0
 51
90.00000300000001
  0
ARC
  5
B40D
330
AFE4
100
AcDbEntity
  8
1
  6
Continuous
100
AcDbCircle
 10
268.7510449999999
 20
178.0432799999999
 30
0.0
 40
1.888533999999999
100
AcDbArc
 50
284.05577
 51
0.0
  0
ARC
  5
B40E
330
AFE4
100
AcDbEntity
  8
1
  6
Continuous
100
AcDbCircle
 10
268.7510449999999
 20
179.96831
 30
0.0
 40
1.888533999999999
100
AcDbArc
 50
284.05577
 51
50.71895000000001
  0
ARC
  5
B40F
330
AFE4
100
AcDbEntity
  8
1
  6
Continuous
100
AcDbCircle
 10
265.241999
 20
176.1120899999999
 30
0.0
 40
1.0
100
AcDbArc
 50
104.055767
 51
180.0000029999999
  0
ARC
  5
B410
330
AFE4
100
AcDbEntity
  8
1
  6
Continuous
100
AcDbCircle
 10
264.5419979999999
 20
164.8218799999999
 30
0.0
 40
2.0
100
AcDbArc
 50
53.52021999999998
 51
90.00000300000001
  0
ARC
  5
B411
330
AFE4
100
AcDbEntity
  8
1
  6
Continuous
100
AcDbCircle
 10
264.5419979999999
 20
166.8968539999999
 30
0.0
 40
2.0
100
AcDbArc
 50
269.9999899999999
 51
0.0
  0
LINE
  5
B412
330
AFE4
100
AcDbEntity
  8
1
  6
Continuous
100
AcDbLine
 10
266.5419989999999
 20
166.8968539999999
 30
0.0
 11
266.5419989999999
 21
175.5433899999999
 31
0.0
  0
LINE
  5
B413
330
AFE4
100
AcDbEntity
  8
1
  6
Continuous
100
AcDbLine
 10
264.241999
 20
175.0306199999999
 30
0.0
 11
264.241999
 21
184.8108299999999
 31
0.0
  0
LINE
  5
B414
330
AFE4
100
AcDbEntity
  8
1
  6
Continuous
100
AcDbLine
 10
265.6533759999999
 20
193.83076
 30
0.0
 11
264.564864
 21
193.83076
 31
0.0
  0
LINE
  5
B415
330
AFE4
100
AcDbEntity
  8
1
  6
Continuous
100
AcDbLine
 10
265.6533759999999
 20
192.3467399999999
 30
0.0
 11
264.03662
 21
192.3467399999999
 31
0.0
  0
ARC
  5
B416
330
AFE4
100
AcDbEntity
  8
1
  6
Continuous
100
AcDbCircle
 10
264.564864
 20
193.33076
 30
0.0
 40
0.5
100
AcDbArc
 50
90.00000300000001
 51
155.7026559999999
  0
LINE
  5
B417
330
AFE4
100
AcDbEntity
  8
1
  6
Continuous
100
AcDbLine
 10
269.946723
 20
181.4301289999999
 30
0.0
 11
265.241999
 21
181.4301289999999
 31
0.0
  0
ARC
  5
B418
330
AFE4
100
AcDbEntity
  8
1
  6
Continuous
100
AcDbCircle
 10
265.241999
 20
182.430129
 30
0.0
 40
1.0
100
AcDbArc
 50
180.0
 51
270.0
  0
ARC
  5
B419
330
AFE4
100
AcDbEntity
  8
1
  6
Continuous
100
AcDbCircle
 10
310.615904
 20
192.563659
 30
0.0
 40
45.0
100
AcDbArc
 50
201.469657
 51
206.964022
  0
ARC
  5
B41A
330
AFE4
100
AcDbEntity
  8
1
  6
Continuous
100
AcDbCircle
 10
312.9534019999999
 20
192.498041
 30
0.0
 40
45.0
100
AcDbArc
 50
199.536031
 51
206.322889
  0
LINE
  5
B41B
330
AFE4
100
AcDbEntity
  8
1
  6
Continuous
100
AcDbLine
 10
170.407163
 20
174.8040509999999
 30
0.0
 11
169.716697
 21
169.763558
 31
0.0
  0
LINE
  5
B41C
330
AFE4
100
AcDbEntity
  8
1
  6
Continuous
100
AcDbLine
 10
85.37453399999998
 20
185.66171
 30
0.0
 11
85.37453399999998
 21
186.0265449999999
 31
0.0
  0
LINE
  5
B41D
330
AFE4
100
AcDbEntity
  8
1
  6
Continuous
100
AcDbLine
 10
311.538114
 20
174.804054
 30
0.0
 11
311.538114
 21
171.7334899999999
 31
0.0
  0
ARC
  5
B41E
330
AFE4
100
AcDbEntity
  8
1
  6
Continuous
100
AcDbCircle
 10
303.7118759999998
 20
178.7334899999999
 30
0.0
 40
10.5
100
AcDbArc
 50
318.189685
 51
15.61096599999999
  0
LINE
  5
B41F
330
AFE4
100
AcDbEntity
  8
1
  6
Continuous
100
AcDbLine
 10
311.538114
 20
171.7334899999999
 30
0.0
 11
310.0948599999999
 21
171.7334899999999
 31
0.0
  0
LINE
  5
B420
330
AFE4
100
AcDbEntity
  8
1
  6
Continuous
100
AcDbLine
 10
160.811316
 20
320.6402359999998
 30
0.0
 11
162.527029
 21
320.6402359999998
 31
0.0
  0
LINE
  5
B421
330
AFE4
100
AcDbEntity
  8
4
  6
CENTER
100
AcDbLine
 10
163.6691719999998
 20
265.014152
 30
0.0
 11
163.6691719999998
 21
331.5054979999998
 31
0.0
  0
LINE
  5
B422
330
AFE4
100
AcDbEntity
  8
1
  6
Continuous
100
AcDbLine
 10
170.6692469999999
 20
97.20970800000001
 30
0.0
 11
170.6692469999999
 21
96.919021
 31
0.0
  0
LINE
  5
B423
330
AFE4
100
AcDbEntity
  8
1
  6
Continuous
100
AcDbLine
 10
156.6692469999999
 20
97.20970800000001
 30
0.0
 11
156.6692469999999
 21
95.70970800000001
 31
0.0
  0
LINE
  5
B424
330
AFE4
100
AcDbEntity
  8
1
  6
Continuous
100
AcDbLine
 10
170.6692469999999
 20
97.20970800000001
 30
0.0
 11
156.6692469999999
 21
97.20970800000001
 31
0.0
  0
LINE
  5
B425
330
AFE4
100
AcDbEntity
  8
1
  6
Continuous
100
AcDbLine
 10
87.69598100000001
 20
181.933535
 30
0.0
 11
86.89598100000003
 21
182.733535
 31
0.0
  0
LINE
  5
B426
330
AFE4
100
AcDbEntity
  8
2
  6
Continuous
100
AcDbLine
 10
87.57248100000003
 20
182.057035
 30
0.0
 11
86.813163
 21
182.057035
 31
0.0
  0
ARC
  5
B427
330
AFE4
100
AcDbEntity
  8
1
  6
Continuous
100
AcDbCircle
 10
166.6692469999999
 20
93.54464400000001
 30
0.0
 40
8.665063999999999
100
AcDbArc
 50
69.743842
 51
110.256158
  0
LINE
  5
B428
330
AFE4
100
AcDbEntity
  8
1
  6
Continuous
100
AcDbLine
 10
159.6692469999998
 20
102.292526
 30
0.0
 11
167.6692469999998
 21
102.292526
 31
0.0
  0
LINE
  5
B429
330
AFE4
100
AcDbEntity
  8
1
  6
Continuous
100
AcDbLine
 10
166.869247
 20
103.092526
 30
0.0
 11
160.4692469999999
 21
103.092526
 31
0.0
  0
LINE
  5
B42A
330
AFE4
100
AcDbEntity
  8
1
  6
Continuous
100
AcDbLine
 10
157.6692469999999
 20
102.2097079999999
 30
0.0
 11
169.6692469999999
 21
102.2097079999999
 31
0.0
  0
LINE
  5
B42B
330
AFE4
100
AcDbEntity
  8
1
  6
Continuous
100
AcDbLine
 10
87.69598100000001
 20
175.533535
 30
0.0
 11
86.89598100000003
 21
174.7335349999999
 31
0.0
  0
LINE
  5
B42C
330
AFE4
100
AcDbEntity
  8
2
  6
Continuous
100
AcDbLine
 10
87.57248100000003
 20
175.4100349999999
 30
0.0
 11
86.813163
 21
175.4100349999999
 31
0.0
  0
ARC
  5
B42D
330
AFE4
100
AcDbEntity
  8
1
  6
Continuous
100
AcDbCircle
 10
166.6692469999999
 20
105.874771
 30
0.0
 40
8.665063999999999
100
AcDbArc
 50
249.7438419999999
 51
290.256158
  0
LINE
  5
B42E
330
AFE4
100
AcDbEntity
  8
1
  6
Continuous
100
AcDbLine
 10
81.813163
 20
171.7335349999999
 30
0.0
 11
81.813163
 21
185.7335349999999
 31
0.0
  0
LINE
  5
B42F
330
AFE4
100
AcDbEntity
  8
1
  6
Continuous
100
AcDbLine
 10
86.89598100000003
 20
182.733535
 30
0.0
 11
86.89598100000003
 21
174.7335349999999
 31
0.0
  0
ARC
  5
B430
330
AFE4
100
AcDbEntity
  8
1
  6
Continuous
100
AcDbCircle
 10
93.277265
 20
178.733535
 30
0.0
 40
11.464102
100
AcDbArc
 50
162.412046
 51
197.5879539999999
  0
ARC
  5
B431
330
AFE4
100
AcDbEntity
  8
1
  6
Continuous
100
AcDbCircle
 10
75.349062
 20
178.733535
 30
0.0
 40
11.464102
100
AcDbArc
 50
342.4120459999999
 51
17.587954
  0
LINE
  5
B432
330
AFE4
100
AcDbEntity
  8
1
  6
Continuous
100
AcDbLine
 10
86.813163
 20
184.7335349999999
 30
0.0
 11
86.813163
 21
172.7335349999999
 31
0.0
  0
LINE
  5
B433
330
AFE4
100
AcDbEntity
  8
1
  6
Continuous
100
AcDbLine
 10
81.813163
 20
171.7335349999999
 30
0.0
 11
80.313163
 21
171.7335349999999
 31
0.0
  0
LINE
  5
B434
330
AFE4
100
AcDbEntity
  8
2
  6
Continuous
100
AcDbLine
 10
160.3457469999999
 20
102.9690259999999
 30
0.0
 11
160.3457469999999
 21
102.2097079999999
 31
0.0
  0
LINE
  5
B435
330
AFE4
100
AcDbEntity
  8
1
  6
Continuous
100
AcDbLine
 10
160.4692469999999
 20
103.092526
 30
0.0
 11
159.6692469999998
 21
102.292526
 31
0.0
  0
LINE
  5
B436
330
AFE4
100
AcDbEntity
  8
1
  6
Continuous
100
AcDbLine
 10
159.6692469999998
 20
102.2097079999999
 30
0.0
 11
159.6692469999998
 21
102.292526
 31
0.0
  0
ARC
  5
B437
330
AFE4
100
AcDbEntity
  8
1
  6
Continuous
100
AcDbCircle
 10
160.6692469999998
 20
93.54464400000001
 30
0.0
 40
8.665063999999999
100
AcDbArc
 50
69.743842
 51
110.256158
  0
LINE
  5
B438
330
AFE4
100
AcDbEntity
  8
1
  6
Continuous
100
AcDbLine
 10
163.6692469999998
 20
97.745606
 30
0.0
 11
163.6692469999998
 21
101.673809
 31
0.0
  0
LINE
  5
B439
330
AFE4
100
AcDbEntity
  8
1
  6
Continuous
100
AcDbLine
 10
86.813163
 20
174.7335349999999
 30
0.0
 11
86.89598100000003
 21
174.7335349999999
 31
0.0
  0
ARC
  5
B43A
330
AFE4
100
AcDbEntity
  8
1
  6
Continuous
100
AcDbCircle
 10
83.746176
 20
173.537383
 30
0.0
 40
3.066986999999998
100
AcDbArc
 50
334.384247
 51
34.38424699999998
  0
ARC
  5
B43B
330
AFE4
100
AcDbEntity
  8
1
  6
Continuous
100
AcDbCircle
 10
84.880151
 20
173.537383
 30
0.0
 40
3.066986999999998
100
AcDbArc
 50
145.615753
 51
205.615753
  0
LINE
  5
B43C
330
AFE4
100
AcDbEntity
  8
1
  6
Continuous
100
AcDbLine
 10
82.34906200000002
 20
175.2694339999999
 30
0.0
 11
86.27726499999999
 21
175.2694339999999
 31
0.0
  0
LINE
  5
B43D
330
AFE4
100
AcDbEntity
  8
1
  6
Continuous
100
AcDbLine
 10
82.34906200000002
 20
171.8053319999999
 30
0.0
 11
86.27726499999999
 21
171.8053319999999
 31
0.0
  0
LINE
  5
B43E
330
AFE4
100
AcDbEntity
  8
1
  6
Continuous
100
AcDbLine
 10
82.34906200000002
 20
171.8053319999999
 30
0.0
 11
81.813163
 21
172.7335349999999
 31
0.0
  0
LINE
  5
B43F
330
AFE4
100
AcDbEntity
  8
1
  6
Continuous
100
AcDbLine
 10
86.27726499999999
 20
171.8053319999999
 30
0.0
 11
86.813163
 21
172.7335349999999
 31
0.0
  0
ARC
  5
B440
330
AFE4
100
AcDbEntity
  8
1
  6
Continuous
100
AcDbCircle
 10
160.6692469999998
 20
105.874771
 30
0.0
 40
8.665063999999999
100
AcDbArc
 50
249.7438419999999
 51
290.256158
  0
LINE
  5
B441
330
AFE4
100
AcDbEntity
  8
1
  6
Continuous
100
AcDbLine
 10
157.6692469999999
 20
102.2097079999999
 30
0.0
 11
157.6692469999999
 21
97.20970800000001
 31
0.0
  0
LINE
  5
B442
330
AFE4
100
AcDbEntity
  8
1
  6
Continuous
100
AcDbLine
 10
81.813163
 20
185.7335349999999
 30
0.0
 11
80.313163
 21
185.7335349999999
 31
0.0
  0
LINE
  5
B443
330
AFE4
100
AcDbEntity
  8
1
  6
Continuous
100
AcDbLine
 10
86.813163
 20
182.733535
 30
0.0
 11
86.89598100000003
 21
182.733535
 31
0.0
  0
LINE
  5
B444
330
AFE4
100
AcDbEntity
  8
1
  6
Continuous
100
AcDbLine
 10
86.27726499999999
 20
185.6617389999999
 30
0.0
 11
86.813163
 21
184.7335349999999
 31
0.0
  0
LINE
  5
B445
330
AFE4
100
AcDbEntity
  8
1
  6
Continuous
100
AcDbLine
 10
82.34906200000002
 20
185.6617389999999
 30
0.0
 11
81.813163
 21
184.7335349999999
 31
0.0
  0
LINE
  5
B446
330
AFE4
100
AcDbEntity
  8
1
  6
Continuous
100
AcDbLine
 10
82.34906200000002
 20
185.6617389999999
 30
0.0
 11
86.27726499999999
 21
185.6617389999999
 31
0.0
  0
LINE
  5
B447
330
AFE4
100
AcDbEntity
  8
1
  6
Continuous
100
AcDbLine
 10
82.34906200000002
 20
182.1976369999999
 30
0.0
 11
86.27726499999999
 21
182.1976369999999
 31
0.0
  0
ARC
  5
B448
330
AFE4
100
AcDbEntity
  8
1
  6
Continuous
100
AcDbCircle
 10
84.880151
 20
183.929688
 30
0.0
 40
3.066986999999998
100
AcDbArc
 50
154.3842469999999
 51
214.384247
  0
ARC
  5
B449
330
AFE4
100
AcDbEntity
  8
1
  6
Continuous
100
AcDbCircle
 10
83.746176
 20
183.929688
 30
0.0
 40
3.066986999999998
100
AcDbArc
 50
325.6157529999999
 51
25.615753
  0
LINE
  5
B44A
330
AFE4
100
AcDbEntity
  8
1
  6
Continuous
100
AcDbLine
 10
87.69598100000001
 20
175.533535
 30
0.0
 11
87.69598100000001
 21
181.933535
 31
0.0
  0
LINE
  5
B44B
330
AFE4
100
AcDbEntity
  8
2
  6
Continuous
100
AcDbLine
 10
166.992747
 20
102.9690259999999
 30
0.0
 11
166.992747
 21
102.2097079999999
 31
0.0
  0
LINE
  5
B44C
330
AFE4
100
AcDbEntity
  8
1
  6
Continuous
100
AcDbLine
 10
166.869247
 20
103.092526
 30
0.0
 11
167.6692469999998
 21
102.292526
 31
0.0
  0
LINE
  5
B44D
330
AFE4
100
AcDbEntity
  8
1
  6
Continuous
100
AcDbLine
 10
167.6692469999998
 20
102.2097079999999
 30
0.0
 11
167.6692469999998
 21
102.292526
 31
0.0
  0
LINE
  5
B44E
330
AFE4
100
AcDbEntity
  8
1
  6
Continuous
100
AcDbLine
 10
169.6692469999999
 20
102.2097079999999
 30
0.0
 11
169.6692469999999
 21
97.20970800000001
 31
0.0
  0
CIRCLE
  5
B44F
330
AFE4
100
AcDbEntity
  8
1
  6
Continuous
100
AcDbCircle
 10
163.6692469999998
 20
178.7334899999999
 30
0.0
 40
7.0
  0
LINE
  5
B450
330
AFE4
100
AcDbEntity
  8
1
  6
Continuous
100
AcDbLine
 10
261.912056
 20
175.53349
 30
0.0
 11
261.912056
 21
181.9334899999999
 31
0.0
  0
LINE
  5
B451
330
AFE4
100
AcDbEntity
  8
1
  6
Continuous
100
AcDbLine
 10
262.7948739999999
 20
184.7334899999999
 30
0.0
 11
262.7948739999999
 21
175.0306199999999
 31
0.0
  0
ARC
  5
B452
330
AFE4
100
AcDbEntity
  8
1
  6
Continuous
100
AcDbCircle
 10
274.258975
 20
178.7334899999999
 30
0.0
 40
11.464102
100
AcDbArc
 50
162.412046
 51
197.5879539999999
  0
LINE
  5
B453
330
AFE4
100
AcDbEntity
  8
1
  6
Continuous
100
AcDbLine
 10
262.712056
 20
182.7334899999999
 30
0.0
 11
262.712056
 21
175.0306199999999
 31
0.0
  0
LINE
  5
B454
330
AFE4
100
AcDbEntity
  8
1
  6
Continuous
100
AcDbLine
 10
264.241999
 20
175.2693879999999
 30
0.0
 11
263.330772
 21
175.2693879999999
 31
0.0
  0
ARC
  5
B455
330
AFE4
100
AcDbEntity
  8
1
  6
Continuous
100
AcDbCircle
 10
265.8618609999999
 20
173.537337
 30
0.0
 40
3.066986999999998
100
AcDbArc
 50
145.615753
 51
150.8636899999999
  0
LINE
  5
B456
330
AFE4
100
AcDbEntity
  8
2
  6
Continuous
100
AcDbLine
 10
262.0355559999998
 20
175.4099899999999
 30
0.0
 11
262.7948739999999
 21
175.4099899999999
 31
0.0
  0
LINE
  5
B457
330
AFE4
100
AcDbEntity
  8
1
  6
Continuous
100
AcDbLine
 10
261.912056
 20
175.53349
 30
0.0
 11
262.4149259999999
 21
175.0306199999999
 31
0.0
  0
LINE
  5
B458
330
AFE4
100
AcDbEntity
  8
1
  6
Continuous
100
AcDbLine
 10
264.241999
 20
182.1975909999999
 30
0.0
 11
263.330772
 21
182.1975909999999
 31
0.0
  0
LINE
  5
B459
330
AFE4
100
AcDbEntity
  8
1
  6
Continuous
100
AcDbLine
 10
264.0502459999999
 20
185.6616929999999
 30
0.0
 11
263.330772
 21
185.6616929999999
 31
0.0
  0
ARC
  5
B45A
330
AFE4
100
AcDbEntity
  8
1
  6
Continuous
100
AcDbCircle
 10
265.8618609999999
 20
183.929642
 30
0.0
 40
3.066986999999998
100
AcDbArc
 50
154.3842469999999
 51
214.384247
  0
LINE
  5
B45B
330
AFE4
100
AcDbEntity
  8
1
  6
Continuous
100
AcDbLine
 10
263.330772
 20
185.6616929999999
 30
0.0
 11
262.7948739999999
 21
184.7334899999999
 31
0.0
  0
LINE
  5
B45C
330
AFE4
100
AcDbEntity
  8
1
  6
Continuous
100
AcDbLine
 10
262.7948739999999
 20
182.7334899999999
 30
0.0
 11
262.712056
 21
182.7334899999999
 31
0.0
  0
LINE
  5
B45D
330
AFE4
100
AcDbEntity
  8
2
  6
Continuous
100
AcDbLine
 10
262.0355559999998
 20
182.0569899999999
 30
0.0
 11
262.7948739999999
 21
182.0569899999999
 31
0.0
  0
LINE
  5
B45E
330
AFE4
100
AcDbEntity
  8
1
  6
Continuous
100
AcDbLine
 10
261.912056
 20
181.9334899999999
 30
0.0
 11
262.712056
 21
182.7334899999999
 31
0.0
  0
ARC
  5
B45F
330
AFE4
100
AcDbEntity
  8
1
  6
Continuous
100
AcDbCircle
 10
160.6692469999998
 20
280.562062
 30
0.0
 40
8.665063999999999
100
AcDbArc
 50
249.7438419999999
 51
290.256158
  0
LINE
  5
B460
330
AFE4
100
AcDbEntity
  8
1
  6
Continuous
100
AcDbLine
 10
157.6692469999999
 20
271.8969990000001
 30
0.0
 11
169.6692469999999
 21
271.8969990000001
 31
0.0
  0
LINE
  5
B461
330
AFE4
100
AcDbEntity
  8
1
  6
Continuous
100
AcDbLine
 10
167.6692469999998
 20
271.8969990000001
 30
0.0
 11
167.6692469999998
 21
271.814181
 31
0.0
  0
LINE
  5
B462
330
AFE4
100
AcDbEntity
  8
1
  6
Continuous
100
AcDbLine
 10
166.869247
 20
271.014181
 30
0.0
 11
167.6692469999998
 21
271.814181
 31
0.0
  0
LINE
  5
B463
330
AFE4
100
AcDbEntity
  8
2
  6
Continuous
100
AcDbLine
 10
166.992747
 20
271.1376809999998
 30
0.0
 11
166.992747
 21
271.8969990000001
 31
0.0
  0
ARC
  5
B464
330
AFE4
100
AcDbEntity
  8
1
  6
Continuous
100
AcDbCircle
 10
166.6692469999999
 20
280.562062
 30
0.0
 40
8.665063999999999
100
AcDbArc
 50
249.7438419999999
 51
290.256158
  0
LINE
  5
B465
330
AFE4
100
AcDbEntity
  8
1
  6
Continuous
100
AcDbLine
 10
159.6692469999998
 20
271.8969990000001
 30
0.0
 11
159.6692469999998
 21
271.814181
 31
0.0
  0
LINE
  5
B466
330
AFE4
100
AcDbEntity
  8
1
  6
Continuous
100
AcDbLine
 10
160.4692469999999
 20
271.014181
 30
0.0
 11
159.6692469999998
 21
271.814181
 31
0.0
  0
LINE
  5
B467
330
AFE4
100
AcDbEntity
  8
2
  6
Continuous
100
AcDbLine
 10
160.3457469999999
 20
271.1376809999998
 30
0.0
 11
160.3457469999999
 21
271.8969990000001
 31
0.0
  0
LINE
  5
B468
330
AFE4
100
AcDbEntity
  8
1
  6
Continuous
100
AcDbLine
 10
166.869247
 20
271.014181
 30
0.0
 11
160.4692469999999
 21
271.014181
 31
0.0
  0
LINE
  5
B469
330
AFE4
100
AcDbEntity
  8
1
  6
Continuous
100
AcDbLine
 10
159.6692469999998
 20
271.814181
 30
0.0
 11
167.6692469999998
 21
271.814181
 31
0.0
  0
LINE
  5
B46A
330
AFE4
100
AcDbEntity
  8
1
  6
Continuous
100
AcDbLine
 10
157.6692469999999
 20
271.8969990000001
 30
0.0
 11
157.6692469999999
 21
273.180907
 31
0.0
  0
LINE
  5
B46B
330
AFE4
100
AcDbEntity
  8
1
  6
Continuous
100
AcDbLine
 10
169.6692469999999
 20
271.8969990000001
 30
0.0
 11
169.6692469999999
 21
272.5054979999999
 31
0.0
  0
LINE
  5
B46C
330
AFE4
100
AcDbEntity
  8
1
  6
Continuous
100
AcDbLine
 10
163.6692469999998
 20
272.5054979999999
 30
0.0
 11
163.6692469999998
 21
272.432897
 31
0.0
  0
ARC
  5
B46D
330
AFE4
100
AcDbEntity
  8
1
  6
Continuous
100
AcDbCircle
 10
310.615904
 20
192.563659
 30
0.0
 40
45.0
100
AcDbArc
 50
191.644122
 51
194.324408
  0
ENDSEC
  0
SECTION
  2
OBJECTS
  0
DICTIONARY
  5
AFD2
330
0
100
AcDbDictionary
281
     1
  3
ACAD_CIP_PREVIOUS_PRODUCT_INFO
350
B4CF
  3
ACAD_COLOR
350
B4B1
  3
ACAD_DETAILVIEWSTYLE
350
B4CA
  3
ACAD_GROUP
350
AFD3
  3
ACAD_LAYOUT
350
AFDF
  3
ACAD_MATERIAL
350
B47F
  3
ACAD_MLEADERSTYLE
350
B4C6
  3
ACAD_MLINESTYLE
350
AFDC
  3
ACAD_PLOTSETTINGS
350
AFDE
  3
ACAD_PLOTSTYLENAME
350
B47D
  3
ACAD_SCALELIST
350
B4B4
  3
ACAD_SECTIONVIEWSTYLE
350
B4C8
  3
ACAD_TABLESTYLE
350
B4B2
  3
ACAD_VISUALSTYLE
350
B498
  3
ACDB_RECOMPOSE_DATA
350
B4ED
  3
AcDbVariableDictionary
350
B4E0
  3
DWGPROPS
350
B4EE
  0
DICTIONARY
  5
B4D0
330
AFD6
100
AcDbDictionary
280
     1
281
     1
  3
ADSK_XREC_LAYER_RECONCILED
360
B4D1
  0
DICTIONARY
  5
B4D2
330
AFEC
100
AcDbDictionary
280
     1
281
     1
  3
ADSK_XREC_LAYER_RECONCILED
360
B4D3
  0
DICTIONARY
  5
B4D4
330
AFED
100
AcDbDictionary
280
     1
281
     1
  3
ADSK_XREC_LAYER_RECONCILED
360
B4D5
  0
DICTIONARY
  5
B4D6
330
AFEE
100
AcDbDictionary
280
     1
281
     1
  3
ADSK_XREC_LAYER_RECONCILED
360
B4D7
  0
DICTIONARY
  5
B4D8
330
AFEF
100
AcDbDictionary
280
     1
281
     1
  3
ADSK_XREC_LAYER_RECONCILED
360
B4D9
  0
DICTIONARY
  5
B4DA
330
AFF0
100
AcDbDictionary
280
     1
281
     1
  3
ADSK_XREC_LAYER_RECONCILED
360
B4DB
  0
DICTIONARY
  5
B4DC
330
AFF1
100
AcDbDictionary
280
     1
281
     1
  3
ADSK_XREC_LAYER_RECONCILED
360
B4DD
  0
DICTIONARY
  5
B4DE
330
AFF2
100
AcDbDictionary
280
     1
281
     1
  3
ADSK_XREC_LAYER_RECONCILED
360
B4DF
  0
DICTIONARY
  5
B478
330
AFE4
100
AcDbDictionary
281
     1
  3
ACAD_LAYOUTSELFREF
350
B479
  0
DICTIONARY
  5
B476
330
AFE0
100
AcDbDictionary
281
     1
  3
ACAD_LAYOUTSELFREF
350
B477
  0
XRECORD
  5
B4CF
102
{ACAD_REACTORS
330
AFD2
102
}
330
AFD2
100
AcDbXrecord
280
     1
300
ACDLT
300
2014
300
ACDLT_F_S
  0
DICTIONARY
  5
B4B1
102
{ACAD_REACTORS
330
AFD2
102
}
330
AFD2
100
AcDbDictionary
281
     1
  0
DICTIONARY
  5
B4CA
102
{ACAD_REACTORS
330
AFD2
102
}
330
AFD2
100
AcDbDictionary
281
     1
  3
Imperial24
350
B4CB
  0
DICTIONARY
  5
AFD3
102
{ACAD_REACTORS
330
AFD2
102
}
330
AFD2
100
AcDbDictionary
281
     1
  0
DICTIONARY
  5
AFDF
102
{ACAD_REACTORS
330
AFD2
102
}
330
AFD2
100
AcDbDictionary
281
     1
  3
Model
350
B4CC
  3
レイアウト1
350
B4CD
  0
DICTIONARY
  5
B47F
102
{ACAD_REACTORS
330
AFD2
102
}
330
AFD2
100
AcDbDictionary
281
     1
  3
ByBlock
350
B488
  3
ByLayer
350
B480
  3
Global
350
B490
  0
DICTIONARY
  5
B4C6
102
{ACAD_REACTORS
330
AFD2
102
}
330
AFD2
100
AcDbDictionary
281
     1
  3
Standard
350
B4C7
  0
DICTIONARY
  5
AFDC
102
{ACAD_REACTORS
330
AFD2
102
}
330
AFD2
100
AcDbDictionary
281
     1
  3
STANDARD
350
AFDD
  0
DICTIONARY
  5
AFDE
102
{ACAD_REACTORS
330
AFD2
102
}
330
AFD2
100
AcDbDictionary
281
     1
  0
ACDBDICTIONARYWDFLT
  5
B47D
102
{ACAD_REACTORS
330
AFD2
102
}
330
AFD2
100
AcDbDictionary
281
     1
  3
Normal
350
B47E
100
AcDbDictionaryWithDefault
340
B47E
  0
DICTIONARY
  5
B4B4
102
{ACAD_REACTORS
330
AFD2
102
}
330
AFD2
100
AcDbDictionary
281
     1
  3
A0
350
B4B5
  3
A1
350
B4B6
  3
A2
350
B4B7
  3
A3
350
B4B8
  3
A4
350
B4B9
  3
A5
350
B4BA
  3
A6
350
B4BB
  3
A7
350
B4BC
  3
A8
350
B4BD
  3
A9
350
B4BE
  3
B0
350
B4BF
  3
B1
350
B4C0
  3
B2
350
B4C1
  3
B3
350
B4C2
  3
B4
350
B4C3
  3
B5
350
B4C4
  3
B6
350
B4C5
  0
DICTIONARY
  5
B4C8
102
{ACAD_REACTORS
330
AFD2
102
}
330
AFD2
100
AcDbDictionary
281
     1
  3
Imperial24
350
B4C9
  0
DICTIONARY
  5
B4B2
102
{ACAD_REACTORS
330
AFD2
102
}
330
AFD2
100
AcDbDictionary
281
     1
  3
Standard
350
B4B3
  0
DICTIONARY
  5
B498
102
{ACAD_REACTORS
330
AFD2
102
}
330
AFD2
100
AcDbDictionary
281
     1
  3
2dWireframe
350
B49E
  3
Basic
350
B49D
  3
Brighten
350
B4A4
  3
ColorChange
350
B4A8
  3
Conceptual
350
B4A1
  3
Dim
350
B4A3
  3
EdgeColorOff
350
B4B0
  3
Facepattern
350
B4A7
  3
Flat
350
B499
  3
FlatWithEdges
350
B49A
  3
Gouraud
350
B49B
  3
GouraudWithEdges
350
B49C
  3
Hidden
350
B4A0
  3
JitterOff
350
B4AE
  3
Linepattern
350
B4A6
  3
OverhangOff
350
B4AF
  3
Realistic
350
B4A2
  3
Shaded
350
B4AD
  3
Shaded with edges
350
B4AC
  3
Shades of Gray
350
B4A9
  3
Sketchy
350
B4AA
  3
Thicken
350
B4A5
  3
Wireframe
350
B49F
  3
X-Ray
350
B4AB
  0
XRECORD
  5
B4ED
102
{ACAD_REACTORS
330
AFD2
102
}
330
AFD2
100
AcDbXrecord
280
     1
 90
        1
330
B4B3
  0
DICTIONARY
  5
B4E0
102
{ACAD_REACTORS
330
AFD2
102
}
330
AFD2
100
AcDbDictionary
281
     1
  3
CANNOSCALE
350
B4E5
  3
CMLEADERSTYLE
350
B4E2
  3
CTABLESTYLE
350
B4E1
  3
CVIEWDETAILSTYLE
350
B4E3
  3
CVIEWSECTIONSTYLE
350
B4E4
  3
DIMASSOC
350
B4E8
  3
INDEXCTL
350
B4E7
  3
SORTENTS
350
B4E6
  3
XCLIPFRAME
350
B4E9
  0
XRECORD
  5
B4EE
102
{ACAD_REACTORS
330
AFD2
102
}
330
AFD2
100
AcDbXrecord
280
     1
  1
DWGPROPS COOKIE
  2

  3

  4

  6

  7

  8
Yoshitsune
  9

300
=
301
=
302
=
303
=
304
=
305
=
306
=
307
=
308
=
309
=
 40
0.0000129398148148
 41
2451302.629449306
 42
2457192.687190718
  1

 90
        0
  0
XRECORD
  5
B4D1
102
{ACAD_REACTORS
330
B4D0
102
}
330
B4D0
100
AcDbXrecord
280
     1
290
     1
  0
XRECORD
  5
B4D3
102
{ACAD_REACTORS
330
B4D2
102
}
330
B4D2
100
AcDbXrecord
280
     1
290
     1
  0
XRECORD
  5
B4D5
102
{ACAD_REACTORS
330
B4D4
102
}
330
B4D4
100
AcDbXrecord
280
     1
290
     1
  0
XRECORD
  5
B4D7
102
{ACAD_REACTORS
330
B4D6
102
}
330
B4D6
100
AcDbXrecord
280
     1
290
     1
  0
XRECORD
  5
B4D9
102
{ACAD_REACTORS
330
B4D8
102
}
330
B4D8
100
AcDbXrecord
280
     1
290
     1
  0
XRECORD
  5
B4DB
102
{ACAD_REACTORS
330
B4DA
102
}
330
B4DA
100
AcDbXrecord
280
     1
290
     1
  0
XRECORD
  5
B4DD
102
{ACAD_REACTORS
330
B4DC
102
}
330
B4DC
100
AcDbXrecord
280
     1
290
     1
  0
XRECORD
  5
B4DF
102
{ACAD_REACTORS
330
B4DE
102
}
330
B4DE
100
AcDbXrecord
280
     1
290
     1
  0
XRECORD
  5
B479
102
{ACAD_REACTORS
330
B478
102
}
330
B478
100
AcDbXrecord
280
     1
340
AFE4
  0
XRECORD
  5
B477
102
{ACAD_REACTORS
330
B476
102
}
330
B476
100
AcDbXrecord
280
     1
340
AFE0
  0
ACDBDETAILVIEWSTYLE
  5
B4CB
102
{ACAD_XDICTIONARY
360
B526
102
}
102
{ACAD_REACTORS
330
B4CA
102
}
330
B4CA
100
AcDbModelDocViewStyle
 70
     0
  3
Imperial24
290
     0
100
AcDbDetailViewStyle
 70
     0
 71
     0
 90
        3
 71
     1
340
AFD7
 40
0.24
340
0
 40
0.24
300

 40
0.36
280
     3
 71
     2
340
AFDB
 90
       25
 71
     3
340
AFD7
 40
0.24
 90
        1
 40
0.75
 90
        1
300
%<\AcVar ViewType \f "%tc1">% %<\AcVar ViewDetailId>%\PSCALE %<\AcVar ViewScale \f "%sn">%
 71
     4
340
AFDB
 90
       25
340
AFDB
 90
       25
280
     0
  0
LAYOUT
  5
B4CC
102
{ACAD_XDICTIONARY
360
B528
102
}
102
{ACAD_REACTORS
330
AFDF
102
}
330
AFDF
100
AcDbPlotSettings
  1

  2
Canon LBP9100C
  4

  6

 40
0.0
 41
0.0
 42
0.0
 43
0.0
 44
0.0
 45
0.0
 46
0.0
 47
0.0
 48
0.0
 49
0.0
140
0.0
141
0.0
142
1.0
143
1.0
 70
  1712
 72
     0
 73
     0
 74
     0
  7

 75
     0
147
1.0
148
0.0
149
0.0
100
AcDbLayout
  1
Model
 70
     1
 71
     0
 10
0.0
 20
0.0
 11
12.0
 21
9.0
 12
0.0
 22
0.0
 32
0.0
 14
0.0
 24
0.0
 34
0.0
 15
0.0
 25
0.0
 35
0.0
146
0.0
 13
0.0
 23
0.0
 33
0.0
 16
1.0
 26
0.0
 36
0.0
 17
0.0
 27
1.0
 37
0.0
 76
     0
330
AFE4
331
B475
  0
LAYOUT
  5
B4CD
102
{ACAD_XDICTIONARY
360
B52A
102
}
102
{ACAD_REACTORS
330
AFDF
102
}
330
AFDF
100
AcDbPlotSettings
  1

  2
Canon LBP9100C
  4

  6

 40
0.0
 41
0.0
 42
0.0
 43
0.0
 44
0.0
 45
0.0
 46
0.0
 47
0.0
 48
0.0
 49
0.0
140
0.0
141
0.0
142
1.0
143
1.0
 70
   688
 72
     0
 73
     0
 74
     5
  7

 75
    16
147
1.0
148
0.0
149
0.0
100
AcDbLayout
  1
レイアウト1
 70
     0
 71
     1
 10
0.0
 20
0.0
 11
420.0
 21
297.0
 12
0.0
 22
0.0
 32
0.0
 14
1.000000000000000E+20
 24
1.000000000000000E+20
 34
1.000000000000000E+20
 15
-1.000000000000000E+20
 25
-1.000000000000000E+20
 35
-1.000000000000000E+20
146
0.0
 13
0.0
 23
0.0
 33
0.0
 16
1.0
 26
0.0
 36
0.0
 17
0.0
 27
1.0
 37
0.0
 76
     0
330
AFE0
  0
MATERIAL
  5
B488
102
{ACAD_XDICTIONARY
360
B489
102
}
102
{ACAD_REACTORS
330
B47F
102
}
330
B47F
100
AcDbMaterial
  1
ByBlock
 72
     0
 43
0.0208333333333333
 43
0.0
 43
0.0
 43
0.0
 43
0.0
 43
0.0208333333333333
 43
0.0
 43
0.0
 43
0.0
 43
0.0
 43
1.0
 43
0.0
 43
0.0
 43
0.0
 43
0.0
 43
1.0
 77
     0
 47
0.0208333333333333
 47
0.0
 47
0.0
 47
0.0
 47
0.0
 47
0.0208333333333333
 47
0.0
 47
0.0
 47
0.0
 47
0.0
 47
1.0
 47
0.0
 47
0.0
 47
0.0
 47
0.0
 47
1.0
171
     0
 49
0.0208333333333333
 49
0.0
 49
0.0
 49
0.0
 49
0.0
 49
0.0208333333333333
 49
0.0
 49
0.0
 49
0.0
 49
0.0
 49
1.0
 49
0.0
 49
0.0
 49
0.0
 49
0.0
 49
1.0
175
     0
142
0.0208333333333333
142
0.0
142
0.0
142
0.0
142
0.0
142
0.0208333333333333
142
0.0
142
0.0
142
0.0
142
0.0
142
1.0
142
0.0
142
0.0
142
0.0
142
0.0
142
1.0
179
     0
144
0.0208333333333333
144
0.0
144
0.0
144
0.0
144
0.0
144
0.0208333333333333
144
0.0
144
0.0
144
0.0
144
0.0
144
1.0
144
0.0
144
0.0
144
0.0
144
0.0
144
1.0
147
0.0208333333333333
147
0.0
147
0.0
147
0.0
147
0.0
147
0.0208333333333333
147
0.0
147
0.0
147
0.0
147
0.0
147
1.0
147
0.0
147
0.0
147
0.0
147
0.0
147
1.0
  0
MATERIAL
  5
B480
102
{ACAD_XDICTIONARY
360
B481
102
}
102
{ACAD_REACTORS
330
B47F
102
}
330
B47F
100
AcDbMaterial
  1
ByLayer
 72
     0
 43
0.0208333333333333
 43
0.0
 43
0.0
 43
0.0
 43
0.0
 43
0.0208333333333333
 43
0.0
 43
0.0
 43
0.0
 43
0.0
 43
1.0
 43
0.0
 43
0.0
 43
0.0
 43
0.0
 43
1.0
 77
     0
 47
0.0208333333333333
 47
0.0
 47
0.0
 47
0.0
 47
0.0
 47
0.0208333333333333
 47
0.0
 47
0.0
 47
0.0
 47
0.0
 47
1.0
 47
0.0
 47
0.0
 47
0.0
 47
0.0
 47
1.0
171
     0
 49
0.0208333333333333
 49
0.0
 49
0.0
 49
0.0
 49
0.0
 49
0.0208333333333333
 49
0.0
 49
0.0
 49
0.0
 49
0.0
 49
1.0
 49
0.0
 49
0.0
 49
0.0
 49
0.0
 49
1.0
175
     0
142
0.0208333333333333
142
0.0
142
0.0
142
0.0
142
0.0
142
0.0208333333333333
142
0.0
142
0.0
142
0.0
142
0.0
142
1.0
142
0.0
142
0.0
142
0.0
142
0.0
142
1.0
179
     0
144
0.0208333333333333
144
0.0
144
0.0
144
0.0
144
0.0
144
0.0208333333333333
144
0.0
144
0.0
144
0.0
144
0.0
144
1.0
144
0.0
144
0.0
144
0.0
144
0.0
144
1.0
147
0.0208333333333333
147
0.0
147
0.0
147
0.0
147
0.0
147
0.0208333333333333
147
0.0
147
0.0
147
0.0
147
0.0
147
1.0
147
0.0
147
0.0
147
0.0
147
0.0
147
1.0
  0
MATERIAL
  5
B490
102
{ACAD_XDICTIONARY
360
B491
102
}
102
{ACAD_REACTORS
330
B47F
102
}
330
B47F
100
AcDbMaterial
  1
Global
 72
     0
 43
0.0208333333333333
 43
0.0
 43
0.0
 43
0.0
 43
0.0
 43
0.0208333333333333
 43
0.0
 43
0.0
 43
0.0
 43
0.0
 43
1.0
 43
0.0
 43
0.0
 43
0.0
 43
0.0
 43
1.0
 77
     0
 47
0.0208333333333333
 47
0.0
 47
0.0
 47
0.0
 47
0.0
 47
0.0208333333333333
 47
0.0
 47
0.0
 47
0.0
 47
0.0
 47
1.0
 47
0.0
 47
0.0
 47
0.0
 47
0.0
 47
1.0
171
     0
 49
0.0208333333333333
 49
0.0
 49
0.0
 49
0.0
 49
0.0
 49
0.0208333333333333
 49
0.0
 49
0.0
 49
0.0
 49
0.0
 49
1.0
 49
0.0
 49
0.0
 49
0.0
 49
0.0
 49
1.0
175
     0
142
0.0208333333333333
142
0.0
142
0.0
142
0.0
142
0.0
142
0.0208333333333333
142
0.0
142
0.0
142
0.0
142
0.0
142
1.0
142
0.0
142
0.0
142
0.0
142
0.0
142
1.0
179
     0
144
0.0208333333333333
144
0.0
144
0.0
144
0.0
144
0.0
144
0.0208333333333333
144
0.0
144
0.0
144
0.0
144
0.0
144
1.0
144
0.0
144
0.0
144
0.0
144
0.0
144
1.0
147
0.0208333333333333
147
0.0
147
0.0
147
0.0
147
0.0
147
0.0208333333333333
147
0.0
147
0.0
147
0.0
147
0.0
147
1.0
147
0.0
147
0.0
147
0.0
147
0.0
147
1.0
  0
MLEADERSTYLE
  5
B4C7
102
{ACAD_REACTORS
330
B4C6
102
}
330
B4C6
100
AcDbMLeaderStyle
170
     2
171
     1
172
     0
 90
        2
 40
0.0
 41
0.0
173
     1
 91
-1056964608
340
AFD9
 92
       -2
290
     1
 42
0.09
291
     1
 43
0.36
  3
Standard
 44
0.18
300

342
AFD7
174
     1
178
     6
175
     1
176
     0
 93
-1056964608
 45
0.18
292
     0
297
     0
 46
0.18
 94
-1056964608
 47
1.0
 49
1.0
140
1.0
293
     1
141
0.0
294
     1
177
     0
142
1.0
295
     0
296
     0
143
0.125
1001
ACAD_MLEADERVER
1070
     2
  0
MLINESTYLE
  5
AFDD
102
{ACAD_REACTORS
330
AFDC
102
}
330
AFDC
100
AcDbMlineStyle
  2
STANDARD
 70
     0
  3

 62
   256
 51
90.0
 52
90.0
 71
     2
 49
0.5
 62
   256
  6
BYLAYER
 49
-0.5
 62
   256
  6
BYLAYER
  0
ACDBPLACEHOLDER
  5
B47E
102
{ACAD_REACTORS
330
B47D
102
}
330
B47D
  0
SCALE
  5
B4B5
102
{ACAD_REACTORS
330
B4B4
102
}
330
B4B4
100
AcDbScale
 70
     0
300
1:1
140
1.0
141
1.0
290
     1
  0
SCALE
  5
B4B6
102
{ACAD_REACTORS
330
B4B4
102
}
330
B4B4
100
AcDbScale
 70
     0
300
1/128" = 1'-0"
140
0.0078125
141
12.0
290
     0
  0
SCALE
  5
B4B7
102
{ACAD_REACTORS
330
B4B4
102
}
330
B4B4
100
AcDbScale
 70
     0
300
1/64" = 1'-0"
140
0.015625
141
12.0
290
     0
  0
SCALE
  5
B4B8
102
{ACAD_REACTORS
330
B4B4
102
}
330
B4B4
100
AcDbScale
 70
     0
300
1/32" = 1'-0"
140
0.03125
141
12.0
290
     0
  0
SCALE
  5
B4B9
102
{ACAD_REACTORS
330
B4B4
102
}
330
B4B4
100
AcDbScale
 70
     0
300
1/16" = 1'-0"
140
0.0625
141
12.0
290
     0
  0
SCALE
  5
B4BA
102
{ACAD_REACTORS
330
B4B4
102
}
330
B4B4
100
AcDbScale
 70
     0
300
3/32" = 1'-0"
140
0.09375
141
12.0
290
     0
  0
SCALE
  5
B4BB
102
{ACAD_REACTORS
330
B4B4
102
}
330
B4B4
100
AcDbScale
 70
     0
300
1/8" = 1'-0"
140
0.125
141
12.0
290
     0
  0
SCALE
  5
B4BC
102
{ACAD_REACTORS
330
B4B4
102
}
330
B4B4
100
AcDbScale
 70
     0
300
3/16" = 1'-0"
140
0.1875
141
12.0
290
     0
  0
SCALE
  5
B4BD
102
{ACAD_REACTORS
330
B4B4
102
}
330
B4B4
100
AcDbScale
 70
     0
300
1/4" = 1'-0"
140
0.25
141
12.0
290
     0
  0
SCALE
  5
B4BE
102
{ACAD_REACTORS
330
B4B4
102
}
330
B4B4
100
AcDbScale
 70
     0
300
3/8" = 1'-0"
140
0.375
141
12.0
290
     0
  0
SCALE
  5
B4BF
102
{ACAD_REACTORS
330
B4B4
102
}
330
B4B4
100
AcDbScale
 70
     0
300
1/2" = 1'-0"
140
0.5
141
12.0
290
     0
  0
SCALE
  5
B4C0
102
{ACAD_REACTORS
330
B4B4
102
}
330
B4B4
100
AcDbScale
 70
     0
300
3/4" = 1'-0"
140
0.75
141
12.0
290
     0
  0
SCALE
  5
B4C1
102
{ACAD_REACTORS
330
B4B4
102
}
330
B4B4
100
AcDbScale
 70
     0
300
1" = 1'-0"
140
1.0
141
12.0
290
     0
  0
SCALE
  5
B4C2
102
{ACAD_REACTORS
330
B4B4
102
}
330
B4B4
100
AcDbScale
 70
     0
300
1-1/2" = 1'-0"
140
1.5
141
12.0
290
     0
  0
SCALE
  5
B4C3
102
{ACAD_REACTORS
330
B4B4
102
}
330
B4B4
100
AcDbScale
 70
     0
300
3" = 1'-0"
140
3.0
141
12.0
290
     0
  0
SCALE
  5
B4C4
102
{ACAD_REACTORS
330
B4B4
102
}
330
B4B4
100
AcDbScale
 70
     0
300
6" = 1'-0"
140
6.0
141
12.0
290
     0
  0
SCALE
  5
B4C5
102
{ACAD_REACTORS
330
B4B4
102
}
330
B4B4
100
AcDbScale
 70
     0
300
1'-0" = 1'-0"
140
12.0
141
12.0
290
     0
  0
ACDBSECTIONVIEWSTYLE
  5
B4C9
102
{ACAD_XDICTIONARY
360
B524
102
}
102
{ACAD_REACTORS
330
B4C8
102
}
330
B4C8
100
AcDbModelDocViewStyle
 70
     0
  3
Imperial24
290
     0
100
AcDbSectionViewStyle
 70
     0
 71
     0
 90
       78
 71
     1
340
AFD7
 40
0.24
340
0
340
0
 40
0.24
300
I, O, Q, S, X, Z
 40
0.48
 90
        3
 40
0.18
 90
        1
 71
     2
340
AFDB
 90
       25
340
AFDB
 90
       50
 40
0.24
 40
0.0
 40
0.24
 71
     3
340
AFD7
 40
0.24
 90
        1
 40
0.75
 90
        1
300
%<\AcVar ViewType \f "%tc1">% %<\AcVar ViewSectionStartId>%-%<\AcVar ViewSectionEndId>%\PSCALE %<\AcVar ViewScale \f "%sn">%
 71
     4
300
ANSI31
 40
1.0
 90
        0
290
     0
290
     0
 90
        6
 40
0.0
 40
1.570796326794896
 40
0.2617993877991494
 40
1.308996938995747
 40
-0.2617993877991494
 40
1.832595714594046
  0
TABLESTYLE
  5
B4B3
102
{ACAD_XDICTIONARY
360
B4EB
102
}
102
{ACAD_REACTORS
330
B4B2
102
}
330
B4B2
100
AcDbTableStyle
  3
Standard
 70
     0
 71
     0
 40
0.06
 41
0.06
280
     0
281
     0
  7
STANDARD
140
0.18
170
     2
 62
     0
 63
     7
283
     0
274
    -2
284
     1
 64
     0
275
    -2
285
     1
 65
     0
276
    -2
286
     1
 66
     0
277
    -2
287
     1
 67
     0
278
    -2
288
     1
 68
     0
279
    -2
289
     1
 69
     0
  7
STANDARD
140
0.25
170
     5
 62
     0
 63
     7
283
     0
274
    -2
284
     1
 64
     0
275
    -2
285
     1
 65
     0
276
    -2
286
     1
 66
     0
277
    -2
287
     1
 67
     0
278
    -2
288
     1
 68
     0
279
    -2
289
     1
 69
     0
  7
STANDARD
140
0.18
170
     5
 62
     0
 63
     7
283
     0
274
    -2
284
     1
 64
     0
275
    -2
285
     1
 65
     0
276
    -2
286
     1
 66
     0
277
    -2
287
     1
 67
     0
278
    -2
288
     1
 68
     0
279
    -2
289
     1
 69
     0
  0
VISUALSTYLE
  5
B49E
102
{ACAD_XDICTIONARY
360
B4FC
102
}
102
{ACAD_REACTORS
330
B498
102
}
330
B498
100
AcDbVisualStyle
  2
2dWireframe
 70
     4
 71
     0
 72
     2
 73
     0
 90
        0
 40
-0.6
 41
-30.0
 62
     5
 63
     7
 74
     1
 91
        4
 64
     7
 65
   257
 75
     1
175
     1
 42
1.0
 92
        0
 66
   257
 43
1.0
 76
     1
 77
     6
 78
     2
 67
     7
 79
     5
170
     0
171
     0
290
     0
174
     0
 93
        1
 44
0.0
173
     0
291
     0
 45
0.0
1001
ACAD
1000
AcDbSavedByObjectVersion
1070
     0
  0
VISUALSTYLE
  5
B49D
102
{ACAD_XDICTIONARY
360
B4FA
102
}
102
{ACAD_REACTORS
330
B498
102
}
330
B498
100
AcDbVisualStyle
  2
Basic
 70
     7
 71
     1
 72
     0
 73
     1
 90
        0
 40
-0.6
 41
-30.0
 62
     5
 63
     7
 74
     0
 91
        4
 64
     7
 65
   257
 75
     1
175
     1
 42
1.0
 92
        8
 66
     7
 43
1.0
 76
     1
 77
     6
 78
     2
 67
     7
 79
     5
170
     0
171
     0
290
     0
174
     0
 93
        1
 44
0.0
173
     0
291
     1
 45
0.0
1001
ACAD
1000
AcDbSavedByObjectVersion
1070
     0
  0
VISUALSTYLE
  5
B4A4
102
{ACAD_XDICTIONARY
360
B508
102
}
102
{ACAD_REACTORS
330
B498
102
}
330
B498
100
AcDbVisualStyle
  2
Brighten
 70
    12
 71
     2
 72
     2
 73
     0
 90
        0
 40
-0.6
 41
-30.0
 62
     5
 63
     7
 74
     1
 91
        4
 64
     7
 65
   257
 75
     1
175
     1
 42
1.0
 92
        8
 66
     7
 43
1.0
 76
     1
 77
     6
 78
     2
 67
     7
 79
     5
170
     0
171
     0
290
     0
174
     0
 93
        1
 44
50.0
173
     0
291
     1
 45
0.0
1001
ACAD
1000
AcDbSavedByObjectVersion
1070
     0
  0
VISUALSTYLE
  5
B4A8
102
{ACAD_XDICTIONARY
360
B510
102
}
102
{ACAD_REACTORS
330
B498
102
}
330
B498
100
AcDbVisualStyle
  2
ColorChange
 70
    16
 71
     2
 72
     2
 73
     3
 90
        0
 40
-0.6
 41
-30.0
 62
     5
 63
     8
 74
     1
 91
        4
 64
     7
 65
   257
 75
     1
175
     1
 42
1.0
 92
        8
 66
     8
 43
1.0
 76
     1
 77
     6
 78
     2
 67
     7
 79
     5
170
     0
171
     0
290
     0
174
     0
 93
        1
 44
0.0
173
     0
291
     1
 45
0.0
1001
ACAD
1000
AcDbSavedByObjectVersion
1070
     0
  0
VISUALSTYLE
  5
B4A1
102
{ACAD_XDICTIONARY
360
B502
102
}
102
{ACAD_REACTORS
330
B498
102
}
330
B498
100
AcDbVisualStyle
  2
Conceptual
 70
     9
 71
     3
 72
     2
 73
     0
 90
        0
 40
-0.6
 41
-30.0
 62
     5
 63
     7
 74
     2
 91
        2
 64
     7
 65
   257
 75
     1
175
     1
 42
179.0
 92
        8
 66
     7
 43
1.0
 76
     1
 77
     6
 78
     2
 67
     7
 79
     3
170
     0
171
     0
290
     0
174
     0
 93
        1
 44
0.0
173
     0
291
     0
 45
0.0
1001
ACAD
1000
AcDbSavedByObjectVersion
1070
     0
  0
VISUALSTYLE
  5
B4A3
102
{ACAD_XDICTIONARY
360
B506
102
}
102
{ACAD_REACTORS
330
B498
102
}
330
B498
100
AcDbVisualStyle
  2
Dim
 70
    11
 71
     2
 72
     2
 73
     0
 90
        0
 40
-0.6
 41
-30.0
 62
     5
 63
     7
 74
     1
 91
        4
 64
     7
 65
   257
 75
     1
175
     1
 42
1.0
 92
        8
 66
     7
 43
1.0
 76
     1
 77
     6
 78
     2
 67
     7
 79
     5
170
     0
171
     0
290
     0
174
     0
 93
        1
 44
-50.0
173
     0
291
     1
 45
0.0
1001
ACAD
1000
AcDbSavedByObjectVersion
1070
     0
  0
VISUALSTYLE
  5
B4B0
102
{ACAD_XDICTIONARY
360
B520
102
}
102
{ACAD_REACTORS
330
B498
102
}
330
B498
100
AcDbVisualStyle
  2
EdgeColorOff
 70
    22
 71
     2
 72
     2
 73
     0
 90
        0
 40
-0.6
 41
-30.0
 62
     5
 63
     7
 74
     1
 91
        4
 64
     7
 65
   257
 75
     1
175
     1
 42
1.0
 92
        8
 66
     7
 43
1.0
 76
     1
 77
     6
 78
     2
 67
     7
 79
     5
170
     0
171
     0
290
     0
174
     0
 93
        1
 44
0.0
173
     0
291
     1
 45
0.0
1001
ACAD
1000
AcDbSavedByObjectVersion
1070
     0
  0
VISUALSTYLE
  5
B4A7
102
{ACAD_XDICTIONARY
360
B50E
102
}
102
{ACAD_REACTORS
330
B498
102
}
330
B498
100
AcDbVisualStyle
  2
Facepattern
 70
    15
 71
     2
 72
     2
 73
     0
 90
        0
 40
-0.6
 41
-30.0
 62
     5
 63
     7
 74
     1
 91
        4
 64
     7
 65
   257
 75
     1
175
     1
 42
1.0
 92
        8
 66
     7
 43
1.0
 76
     1
 77
     6
 78
     2
 67
     7
 79
     5
170
     0
171
     0
290
     0
174
     0
 93
        1
 44
0.0
173
     0
291
     1
 45
0.0
1001
ACAD
1000
AcDbSavedByObjectVersion
1070
     0
  0
VISUALSTYLE
  5
B499
102
{ACAD_XDICTIONARY
360
B4F2
102
}
102
{ACAD_REACTORS
330
B498
102
}
330
B498
100
AcDbVisualStyle
  2
Flat
 70
     0
 71
     2
 72
     1
 73
     1
 90
        2
 40
-0.6
 41
30.0
 62
     5
 63
     7
 74
     0
 91
        0
 64
     7
 65
   257
 75
     1
175
     1
 42
1.0
 92
        8
 66
     7
 43
1.0
 76
     1
 77
     6
 78
     2
 67
     7
 79
     5
170
     0
171
     0
290
     0
174
     0
 93
       13
 44
0.0
173
     0
291
     1
 45
0.0
1001
ACAD
1000
AcDbSavedByObjectVersion
1070
     0
  0
VISUALSTYLE
  5
B49A
102
{ACAD_XDICTIONARY
360
B4F4
102
}
102
{ACAD_REACTORS
330
B498
102
}
330
B498
100
AcDbVisualStyle
  2
FlatWithEdges
 70
     1
 71
     2
 72
     1
 73
     1
 90
        2
 40
-0.6
 41
30.0
 62
     5
 63
     7
 74
     1
 91
        0
 64
     7
 65
   257
 75
     1
175
     1
 42
1.0
 92
        0
 66
   257
 43
1.0
 76
     1
 77
     6
 78
     2
 67
     7
 79
     5
170
     0
171
     0
290
     0
174
     0
 93
       13
 44
0.0
173
     0
291
     1
 45
0.0
1001
ACAD
1000
AcDbSavedByObjectVersion
1070
     0
  0
VISUALSTYLE
  5
B49B
102
{ACAD_XDICTIONARY
360
B4F6
102
}
102
{ACAD_REACTORS
330
B498
102
}
330
B498
100
AcDbVisualStyle
  2
Gouraud
 70
     2
 71
     2
 72
     2
 73
     1
 90
        2
 40
-0.6
 41
30.0
 62
     5
 63
     7
 74
     0
 91
        0
 64
     7
 65
   257
 75
     1
175
     1
 42
1.0
 92
        0
 66
     7
 43
1.0
 76
     1
 77
     6
 78
     2
 67
     7
 79
     5
170
     0
171
     0
290
     0
174
     0
 93
       13
 44
0.0
173
     0
291
     1
 45
0.0
1001
ACAD
1000
AcDbSavedByObjectVersion
1070
     0
  0
VISUALSTYLE
  5
B49C
102
{ACAD_XDICTIONARY
360
B4F8
102
}
102
{ACAD_REACTORS
330
B498
102
}
330
B498
100
AcDbVisualStyle
  2
GouraudWithEdges
 70
     3
 71
     2
 72
     2
 73
     1
 90
        2
 40
-0.6
 41
30.0
 62
     5
 63
     7
 74
     1
 91
        0
 64
     7
 65
   257
 75
     1
175
     1
 42
1.0
 92
        0
 66
   257
 43
1.0
 76
     1
 77
     6
 78
     2
 67
     7
 79
     5
170
     0
171
     0
290
     0
174
     0
 93
       13
 44
0.0
173
     0
291
     1
 45
0.0
1001
ACAD
1000
AcDbSavedByObjectVersion
1070
     0
  0
VISUALSTYLE
  5
B4A0
102
{ACAD_XDICTIONARY
360
B500
102
}
102
{ACAD_REACTORS
330
B498
102
}
330
B498
100
AcDbVisualStyle
  2
Hidden
 70
     6
 71
     1
 72
     2
 73
     2
 90
        0
 40
-0.6
 41
-30.0
 62
     5
 63
     7
 74
     2
 91
        2
 64
     7
 65
   257
 75
     2
175
     1
 42
40.0
 92
        0
 66
   257
 43
1.0
 76
     1
 77
     6
 78
     2
 67
     7
 79
     3
170
     0
171
     0
290
     0
174
     0
 93
        1
 44
0.0
173
     0
291
     0
 45
0.0
1001
ACAD
1000
AcDbSavedByObjectVersion
1070
     0
  0
VISUALSTYLE
  5
B4AE
102
{ACAD_XDICTIONARY
360
B51C
102
}
102
{ACAD_REACTORS
330
B498
102
}
330
B498
100
AcDbVisualStyle
  2
JitterOff
 70
    20
 71
     2
 72
     2
 73
     0
 90
        0
 40
-0.6
 41
-30.0
 62
     5
 63
     7
 74
     1
 91
        4
 64
     7
 65
   257
 75
     1
175
     1
 42
1.0
 92
       10
 66
     7
 43
1.0
 76
     1
 77
     6
 78
     2
 67
     7
 79
     5
170
     0
171
     0
290
     0
174
     0
 93
        1
 44
0.0
173
     0
291
     1
 45
0.0
1001
ACAD
1000
AcDbSavedByObjectVersion
1070
     0
  0
VISUALSTYLE
  5
B4A6
102
{ACAD_XDICTIONARY
360
B50C
102
}
102
{ACAD_REACTORS
330
B498
102
}
330
B498
100
AcDbVisualStyle
  2
Linepattern
 70
    14
 71
     2
 72
     2
 73
     0
 90
        0
 40
-0.6
 41
-30.0
 62
     5
 63
     7
 74
     1
 91
        4
 64
     7
 65
   257
 75
     7
175
     7
 42
1.0
 92
        8
 66
     7
 43
1.0
 76
     1
 77
     6
 78
     2
 67
     7
 79
     5
170
     0
171
     0
290
     0
174
     0
 93
        1
 44
0.0
173
     0
291
     1
 45
0.0
1001
ACAD
1000
AcDbSavedByObjectVersion
1070
     0
  0
VISUALSTYLE
  5
B4AF
102
{ACAD_XDICTIONARY
360
B51E
102
}
102
{ACAD_REACTORS
330
B498
102
}
330
B498
100
AcDbVisualStyle
  2
OverhangOff
 70
    21
 71
     2
 72
     2
 73
     0
 90
        0
 40
-0.6
 41
-30.0
 62
     5
 63
     7
 74
     1
 91
        4
 64
     7
 65
   257
 75
     1
175
     1
 42
1.0
 92
        9
 66
     7
 43
1.0
 76
     1
 77
     6
 78
     2
 67
     7
 79
     5
170
     0
171
     0
290
     0
174
     0
 93
        1
 44
0.0
173
     0
291
     1
 45
0.0
1001
ACAD
1000
AcDbSavedByObjectVersion
1070
     0
  0
VISUALSTYLE
  5
B4A2
102
{ACAD_XDICTIONARY
360
B504
102
}
102
{ACAD_REACTORS
330
B498
102
}
330
B498
100
AcDbVisualStyle
  2
Realistic
 70
     8
 71
     2
 72
     3
 73
     0
 90
        2
 40
-0.6
 41
30.0
 62
     5
 63
     7
 74
     0
 91
        0
 64
     7
 65
   257
 75
     1
175
     1
 42
1.0
 92
        8
 66
   257
 43
1.0
 76
     1
 77
     6
 78
     2
 67
     7
 79
     3
170
     0
171
     0
290
     0
174
     0
 93
       13
 44
0.0
173
     0
291
     0
 45
0.0
1001
ACAD
1000
AcDbSavedByObjectVersion
1070
     0
  0
VISUALSTYLE
  5
B4AD
102
{ACAD_XDICTIONARY
360
B51A
102
}
102
{ACAD_REACTORS
330
B498
102
}
330
B498
100
AcDbVisualStyle
  2
Shaded
 70
    27
 71
     2
 72
     2
 73
     1
 90
        2
 40
-0.6
 41
30.0
 62
     5
 63
     7
 74
     0
 91
        4
 64
     7
 65
   257
 75
     1
175
     1
 42
1.0
 92
        8
 66
   257
 43
1.0
 76
     1
 77
     6
 78
     2
 67
     8
 79
     3
170
     0
171
     0
290
     0
174
     0
 93
        5
 44
0.0
173
     0
291
     0
 45
0.0
1001
ACAD
1000
AcDbSavedByObjectVersion
1070
     0
  0
VISUALSTYLE
  5
B4AC
102
{ACAD_XDICTIONARY
360
B518
102
}
102
{ACAD_REACTORS
330
B498
102
}
330
B498
100
AcDbVisualStyle
  2
Shaded with edges
 70
    26
 71
     2
 72
     2
 73
     1
 90
        2
 40
-0.6
 41
30.0
 62
     5
 63
     7
 74
     1
 91
       10
 64
     7
 65
   257
 75
     2
175
     1
 42
1.0
 92
        8
 66
   257
 43
1.0
 76
     1
 77
     6
 78
     2
 67
     7
 79
     3
170
     0
171
     0
290
     0
174
     0
 93
        5
 44
0.0
173
     0
291
     0
 45
0.0
1001
ACAD
1000
AcDbSavedByObjectVersion
1070
     0
  0
VISUALSTYLE
  5
B4A9
102
{ACAD_XDICTIONARY
360
B512
102
}
102
{ACAD_REACTORS
330
B498
102
}
330
B498
100
AcDbVisualStyle
  2
Shades of Gray
 70
    23
 71
     2
 72
     2
 73
     3
 90
        0
 40
-0.6
 41
-30.0
 62
     5
 63
     7
 74
     2
 91
        2
 64
     7
 65
     7
 75
     1
175
     1
 42
40.0
 92
        8
 66
     7
 43
1.0
 76
     1
 77
     6
 78
     2
 67
     7
 79
     3
170
     0
171
     0
290
     0
174
     0
 93
        1
 44
0.0
173
     0
291
     0
 45
0.0
1001
ACAD
1000
AcDbSavedByObjectVersion
1070
     0
  0
VISUALSTYLE
  5
B4AA
102
{ACAD_XDICTIONARY
360
B514
102
}
102
{ACAD_REACTORS
330
B498
102
}
330
B498
100
AcDbVisualStyle
  2
Sketchy
 70
    24
 71
     1
 72
     2
 73
     2
 90
        0
 40
-0.6
 41
-30.0
 62
     5
 63
     7
 74
     2
 91
        2
 64
     7
 65
     7
 75
     1
175
     1
 42
40.0
 92
       11
 66
     7
 43
1.0
 76
     1
 77
     6
 78
     2
 67
     7
 79
     6
170
     0
171
     0
290
     0
174
     0
 93
        1
 44
0.0
173
     0
291
     0
 45
0.0
1001
ACAD
1000
AcDbSavedByObjectVersion
1070
     0
  0
VISUALSTYLE
  5
B4A5
102
{ACAD_XDICTIONARY
360
B50A
102
}
102
{ACAD_REACTORS
330
B498
102
}
330
B498
100
AcDbVisualStyle
  2
Thicken
 70
    13
 71
     2
 72
     2
 73
     0
 90
        0
 40
-0.6
 41
-30.0
 62
     5
 63
     7
 74
     1
 91
        4
 64
     7
 65
   257
 75
     1
175
     1
 42
1.0
 92
       12
 66
     7
 43
1.0
 76
     1
 77
     6
 78
     2
 67
     7
 79
     5
170
     0
171
     0
290
     0
174
     0
 93
        1
 44
0.0
173
     0
291
     1
 45
0.0
1001
ACAD
1000
AcDbSavedByObjectVersion
1070
     0
  0
VISUALSTYLE
  5
B49F
102
{ACAD_XDICTIONARY
360
B4FE
102
}
102
{ACAD_REACTORS
330
B498
102
}
330
B498
100
AcDbVisualStyle
  2
Wireframe
 70
     5
 71
     0
 72
     2
 73
     0
 90
        0
 40
-0.6
 41
-30.0
 62
     5
 63
     7
 74
     1
 91
        4
 64
     7
 65
   257
 75
     1
175
     1
 42
1.0
 92
        0
 66
   257
 43
1.0
 76
     1
 77
     6
 78
     2
 67
     7
 79
     3
170
     0
171
     0
290
     0
174
     0
 93
        1
 44
0.0
173
     0
291
     0
 45
0.0
1001
ACAD
1000
AcDbSavedByObjectVersion
1070
     0
  0
VISUALSTYLE
  5
B4AB
102
{ACAD_XDICTIONARY
360
B516
102
}
102
{ACAD_REACTORS
330
B498
102
}
330
B498
100
AcDbVisualStyle
  2
X-Ray
 70
    25
 71
     2
 72
     2
 73
     1
 90
        1
 40
0.5
 41
-30.0
 62
     5
 63
     7
 74
     1
 91
        0
 64
     7
 65
   257
 75
     1
175
     1
 42
1.0
 92
        8
 66
     7
 43
1.0
 76
     1
 77
     6
 78
     2
 67
     7
 79
     3
170
     0
171
     0
290
     0
174
     0
 93
       13
 44
0.0
173
     0
291
     0
 45
0.0
1001
ACAD
1000
AcDbSavedByObjectVersion
1070
     0
  0
DICTIONARYVAR
  5
B4E5
102
{ACAD_REACTORS
330
B4E0
102
}
330
B4E0
100
DictionaryVariables
280
     0
  1
1:1
  0
DICTIONARYVAR
  5
B4E2
102
{ACAD_REACTORS
330
B4E0
102
}
330
B4E0
100
DictionaryVariables
280
     0
  1
STANDARD
  0
DICTIONARYVAR
  5
B4E1
102
{ACAD_REACTORS
330
B4E0
102
}
330
B4E0
100
DictionaryVariables
280
     0
  1
STANDARD
  0
DICTIONARYVAR
  5
B4E3
102
{ACAD_REACTORS
330
B4E0
102
}
330
B4E0
100
DictionaryVariables
280
     0
  1
Imperial24
  0
DICTIONARYVAR
  5
B4E4
102
{ACAD_REACTORS
330
B4E0
102
}
330
B4E0
100
DictionaryVariables
280
     0
  1
Imperial24
  0
DICTIONARYVAR
  5
B4E8
102
{ACAD_REACTORS
330
B4E0
102
}
330
B4E0
100
DictionaryVariables
280
     0
  1
1
  0
DICTIONARYVAR
  5
B4E7
102
{ACAD_REACTORS
330
B4E0
102
}
330
B4E0
100
DictionaryVariables
280
     0
  1
0
  0
DICTIONARYVAR
  5
B4E6
102
{ACAD_REACTORS
330
B4E0
102
}
330
B4E0
100
DictionaryVariables
280
     0
  1
127
  0
DICTIONARYVAR
  5
B4E9
102
{ACAD_REACTORS
330
B4E0
102
}
330
B4E0
100
DictionaryVariables
280
     0
  1
2
  0
DICTIONARY
  5
B526
330
B4CB
100
AcDbDictionary
280
     1
281
     1
  3
ACAD_XREC_ROUNDTRIP
360
B527
  0
DICTIONARY
  5
B528
330
B4CC
100
AcDbDictionary
280
     1
281
     1
  3
ACAD_XREC_ROUNDTRIP
360
B529
  0
DICTIONARY
  5
B52A
330
B4CD
100
AcDbDictionary
280
     1
281
     1
  3
ACAD_XREC_ROUNDTRIP
360
B52B
  0
DICTIONARY
  5
B489
330
B488
100
AcDbDictionary
280
     1
281
     1
  3
ACAD_XREC_ROUNDTRIP
360
B4F0
  3
BUMPTILE
360
B48B
  3
DIFFUSETILE
360
B48A
  3
OPACITYTILE
360
B48E
  3
REFLECTIONTILE
360
B48D
  3
REFRACTIONTILE
360
B48F
  3
SPECULARTILE
360
B48C
  0
DICTIONARY
  5
B481
330
B480
100
AcDbDictionary
280
     1
281
     1
  3
ACAD_XREC_ROUNDTRIP
360
B4EF
  3
BUMPTILE
360
B483
  3
DIFFUSETILE
360
B482
  3
OPACITYTILE
360
B486
  3
REFLECTIONTILE
360
B485
  3
REFRACTIONTILE
360
B487
  3
SPECULARTILE
360
B484
  0
DICTIONARY
  5
B491
330
B490
100
AcDbDictionary
280
     1
281
     1
  3
ACAD_XREC_ROUNDTRIP
360
B4F1
  3
BUMPTILE
360
B493
  3
DIFFUSETILE
360
B492
  3
OPACITYTILE
360
B496
  3
REFLECTIONTILE
360
B495
  3
REFRACTIONTILE
360
B497
  3
SPECULARTILE
360
B494
  0
DICTIONARY
  5
B524
330
B4C9
100
AcDbDictionary
280
     1
281
     1
  3
ACAD_XREC_ROUNDTRIP
360
B525
  0
DICTIONARY
  5
B4EB
330
B4B3
100
AcDbDictionary
280
     1
281
     1
  3
ACAD_ROUNDTRIP_2008_TABLESTYLE_CELLSTYLEMAP
360
B4EC
  3
ACAD_XREC_ROUNDTRIP
360
B522
  0
DICTIONARY
  5
B4FC
330
B49E
100
AcDbDictionary
280
     1
281
     1
  3
ACAD_XREC_ROUNDTRIP
360
B4FD
  0
DICTIONARY
  5
B4FA
330
B49D
100
AcDbDictionary
280
     1
281
     1
  3
ACAD_XREC_ROUNDTRIP
360
B4FB
  0
DICTIONARY
  5
B508
330
B4A4
100
AcDbDictionary
280
     1
281
     1
  3
ACAD_XREC_ROUNDTRIP
360
B509
  0
DICTIONARY
  5
B510
330
B4A8
100
AcDbDictionary
280
     1
281
     1
  3
ACAD_XREC_ROUNDTRIP
360
B511
  0
DICTIONARY
  5
B502
330
B4A1
100
AcDbDictionary
280
     1
281
     1
  3
ACAD_XREC_ROUNDTRIP
360
B503
  0
DICTIONARY
  5
B506
330
B4A3
100
AcDbDictionary
280
     1
281
     1
  3
ACAD_XREC_ROUNDTRIP
360
B507
  0
DICTIONARY
  5
B520
330
B4B0
100
AcDbDictionary
280
     1
281
     1
  3
ACAD_XREC_ROUNDTRIP
360
B521
  0
DICTIONARY
  5
B50E
330
B4A7
100
AcDbDictionary
280
     1
281
     1
  3
ACAD_XREC_ROUNDTRIP
360
B50F
  0
DICTIONARY
  5
B4F2
330
B499
100
AcDbDictionary
280
     1
281
     1
  3
ACAD_XREC_ROUNDTRIP
360
B4F3
  0
DICTIONARY
  5
B4F4
330
B49A
100
AcDbDictionary
280
     1
281
     1
  3
ACAD_XREC_ROUNDTRIP
360
B4F5
  0
DICTIONARY
  5
B4F6
330
B49B
100
AcDbDictionary
280
     1
281
     1
  3
ACAD_XREC_ROUNDTRIP
360
B4F7
  0
DICTIONARY
  5
B4F8
330
B49C
100
AcDbDictionary
280
     1
281
     1
  3
ACAD_XREC_ROUNDTRIP
360
B4F9
  0
DICTIONARY
  5
B500
330
B4A0
100
AcDbDictionary
280
     1
281
     1
  3
ACAD_XREC_ROUNDTRIP
360
B501
  0
DICTIONARY
  5
B51C
330
B4AE
100
AcDbDictionary
280
     1
281
     1
  3
ACAD_XREC_ROUNDTRIP
360
B51D
  0
DICTIONARY
  5
B50C
330
B4A6
100
AcDbDictionary
280
     1
281
     1
  3
ACAD_XREC_ROUNDTRIP
360
B50D
  0
DICTIONARY
  5
B51E
330
B4AF
100
AcDbDictionary
280
     1
281
     1
  3
ACAD_XREC_ROUNDTRIP
360
B51F
  0
DICTIONARY
  5
B504
330
B4A2
100
AcDbDictionary
280
     1
281
     1
  3
ACAD_XREC_ROUNDTRIP
360
B505
  0
DICTIONARY
  5
B51A
330
B4AD
100
AcDbDictionary
280
     1
281
     1
  3
ACAD_XREC_ROUNDTRIP
360
B51B
  0
DICTIONARY
  5
B518
330
B4AC
100
AcDbDictionary
280
     1
281
     1
  3
ACAD_XREC_ROUNDTRIP
360
B519
  0
DICTIONARY
  5
B512
330
B4A9
100
AcDbDictionary
280
     1
281
     1
  3
ACAD_XREC_ROUNDTRIP
360
B513
  0
DICTIONARY
  5
B514
330
B4AA
100
AcDbDictionary
280
     1
281
     1
  3
ACAD_XREC_ROUNDTRIP
360
B515
  0
DICTIONARY
  5
B50A
330
B4A5
100
AcDbDictionary
280
     1
281
     1
  3
ACAD_XREC_ROUNDTRIP
360
B50B
  0
DICTIONARY
  5
B4FE
330
B49F
100
AcDbDictionary
280
     1
281
     1
  3
ACAD_XREC_ROUNDTRIP
360
B4FF
  0
DICTIONARY
  5
B516
330
B4AB
100
AcDbDictionary
280
     1
281
     1
  3
ACAD_XREC_ROUNDTRIP
360
B517
  0
XRECORD
  5
B527
102
{ACAD_REACTORS
330
B526
102
}
330
B526
100
AcDbXrecord
280
     1
102
DISPLAYNAME
  1
Imperial24
102
FLAGS
 90
        0
  0
XRECORD
  5
B529
102
{ACAD_REACTORS
330
B528
102
}
330
B528
100
AcDbXrecord
280
     1
102
SHADEPLOT
 70
     0
102
SHADEPLOTRESLEVEL
 70
     2
102
SHADEPLOTCUSTOMDPI
 70
   300
  0
XRECORD
  5
B52B
102
{ACAD_REACTORS
330
B52A
102
}
330
B52A
100
AcDbXrecord
280
     1
102
SHADEPLOT
 70
     0
102
SHADEPLOTRESLEVEL
 70
     2
102
SHADEPLOTCUSTOMDPI
 70
   300
  0
XRECORD
  5
B4F0
102
{ACAD_REACTORS
330
B489
102
}
330
B489
100
AcDbXrecord
280
     1
102
MATERIAL
148
0.0
149
0.0
149
0.0
 93
        0
 94
      127
282
     0
 72
     0
 77
     0
171
     0
175
     0
179
     0
273
     0
  0
XRECORD
  5
B48B
102
{ACAD_REACTORS
330
B489
102
}
330
B489
100
AcDbXrecord
280
     1
270
     1
271
     1
  0
XRECORD
  5
B48A
102
{ACAD_REACTORS
330
B489
102
}
330
B489
100
AcDbXrecord
280
     1
270
     1
271
     1
  0
XRECORD
  5
B48E
102
{ACAD_REACTORS
330
B489
102
}
330
B489
100
AcDbXrecord
280
     1
270
     1
271
     1
  0
XRECORD
  5
B48D
102
{ACAD_REACTORS
330
B489
102
}
330
B489
100
AcDbXrecord
280
     1
270
     1
271
     1
  0
XRECORD
  5
B48F
102
{ACAD_REACTORS
330
B489
102
}
330
B489
100
AcDbXrecord
280
     1
270
     1
271
     1
  0
XRECORD
  5
B48C
102
{ACAD_REACTORS
330
B489
102
}
330
B489
100
AcDbXrecord
280
     1
270
     1
271
     1
  0
XRECORD
  5
B4EF
102
{ACAD_REACTORS
330
B481
102
}
330
B481
100
AcDbXrecord
280
     1
102
MATERIAL
148
0.0
149
0.0
149
0.0
 93
        0
 94
      127
282
     0
 72
     0
 77
     0
171
     0
175
     0
179
     0
273
     0
  0
XRECORD
  5
B483
102
{ACAD_REACTORS
330
B481
102
}
330
B481
100
AcDbXrecord
280
     1
270
     1
271
     1
  0
XRECORD
  5
B482
102
{ACAD_REACTORS
330
B481
102
}
330
B481
100
AcDbXrecord
280
     1
270
     1
271
     1
  0
XRECORD
  5
B486
102
{ACAD_REACTORS
330
B481
102
}
330
B481
100
AcDbXrecord
280
     1
270
     1
271
     1
  0
XRECORD
  5
B485
102
{ACAD_REACTORS
330
B481
102
}
330
B481
100
AcDbXrecord
280
     1
270
     1
271
     1
  0
XRECORD
  5
B487
102
{ACAD_REACTORS
330
B481
102
}
330
B481
100
AcDbXrecord
280
     1
270
     1
271
     1
  0
XRECORD
  5
B484
102
{ACAD_REACTORS
330
B481
102
}
330
B481
100
AcDbXrecord
280
     1
270
     1
271
     1
  0
XRECORD
  5
B4F1
102
{ACAD_REACTORS
330
B491
102
}
330
B491
100
AcDbXrecord
280
     1
102
MATERIAL
148
0.0
149
0.0
149
0.0
 93
        0
 94
      127
282
     0
 72
     0
 77
     0
171
     0
175
     0
179
     0
273
     0
  0
XRECORD
  5
B493
102
{ACAD_REACTORS
330
B491
102
}
330
B491
100
AcDbXrecord
280
     1
270
     1
271
     1
  0
XRECORD
  5
B492
102
{ACAD_REACTORS
330
B491
102
}
330
B491
100
AcDbXrecord
280
     1
270
     1
271
     1
  0
XRECORD
  5
B496
102
{ACAD_REACTORS
330
B491
102
}
330
B491
100
AcDbXrecord
280
     1
270
     1
271
     1
  0
XRECORD
  5
B495
102
{ACAD_REACTORS
330
B491
102
}
330
B491
100
AcDbXrecord
280
     1
270
     1
271
     1
  0
XRECORD
  5
B497
102
{ACAD_REACTORS
330
B491
102
}
330
B491
100
AcDbXrecord
280
     1
270
     1
271
     1
  0
XRECORD
  5
B494
102
{ACAD_REACTORS
330
B491
102
}
330
B491
100
AcDbXrecord
280
     1
270
     1
271
     1
  0
XRECORD
  5
B525
102
{ACAD_REACTORS
330
B524
102
}
330
B524
100
AcDbXrecord
280
     1
102
DISPLAYNAME
  1
Imperial24
102
FLAGS
 90
        0
  0
CELLSTYLEMAP
  5
B4EC
102
{ACAD_REACTORS
330
B4EB
102
}
330
B4EB
100
AcDbCellStyleMap
 90
        3
300
CELLSTYLE
  1
TABLEFORMAT_BEGIN
 90
        5
170
     1
 91
        0
 92
    32768
 62
   257
 93
        1
300
CONTENTFORMAT
  1
CONTENTFORMAT_BEGIN
 90
        0
 91
        0
 92
      512
 93
        0
300

 40
0.0
140
1.0
 94
        5
 62
     0
340
AFD7
144
0.25
309
CONTENTFORMAT_END
171
     0
 94
        0
309
TABLEFORMAT_END
  1
CELLSTYLE_BEGIN
 90
        1
 91
        1
300
_TITLE
309
CELLSTYLE_END
300
CELLSTYLE
  1
TABLEFORMAT_BEGIN
 90
        5
170
     1
 91
        0
 92
        0
 62
   257
 93
        1
300
CONTENTFORMAT
  1
CONTENTFORMAT_BEGIN
 90
        0
 91
        0
 92
      512
 93
        0
300

 40
0.0
140
1.0
 94
        5
 62
     0
340
AFD7
144
0.18
309
CONTENTFORMAT_END
171
     0
 94
        0
309
TABLEFORMAT_END
  1
CELLSTYLE_BEGIN
 90
        2
 91
        1
300
_HEADER
309
CELLSTYLE_END
300
CELLSTYLE
  1
TABLEFORMAT_BEGIN
 90
        5
170
     1
 91
        0
 92
        0
 62
   257
 93
        1
300
CONTENTFORMAT
  1
CONTENTFORMAT_BEGIN
 90
        0
 91
        0
 92
      512
 93
        0
300

 40
0.0
140
1.0
 94
        2
 62
     0
340
AFD7
144
0.18
309
CONTENTFORMAT_END
171
     0
 94
        0
309
TABLEFORMAT_END
  1
CELLSTYLE_BEGIN
 90
        3
 91
        2
300
_DATA
309
CELLSTYLE_END
  0
XRECORD
  5
B522
102
{ACAD_REACTORS
330
B4EB
102
}
330
B4EB
100
AcDbXrecord
280
     1
102
ACAD_ROUNDTRIP_PRE2007_TABLESTYLE
 90
      512
 91
        0
  1

 92
      512
 93
        0
  2

 94
      512
 95
        0
  3

  0
XRECORD
  5
B4FD
102
{ACAD_REACTORS
330
B4FC
102
}
330
B4FC
100
AcDbXrecord
280
     1
102
RTVSPost2010Prop28
280
     1
102
RTVSPost2010PropOp28
 70
     1
102
RTVSPost2010Prop29
280
     1
102
RTVSPost2010PropOp29
 70
     1
102
RTVSPost2010Prop30
280
     0
102
RTVSPost2010PropOp30
 70
     1
102
RTVSPost2010Prop31
280
     0
102
RTVSPost2010PropOp31
 70
     1
102
RTVSPost2010Prop32
280
     0
102
RTVSPost2010PropOp32
 70
     1
102
RTVSPost2010Prop33
280
     0
102
RTVSPost2010PropOp33
 70
     1
102
RTVSPost2010Prop34
280
     0
102
RTVSPost2010PropOp34
 70
     1
102
RTVSPost2010Prop35
280
     0
102
RTVSPost2010PropOp35
 70
     1
102
RTVSPost2010Prop36
280
     0
102
RTVSPost2010PropOp36
 70
     1
102
RTVSPost2010Prop37
 90
       50
102
RTVSPost2010PropOp37
 70
     1
102
RTVSPost2010Prop38
140
0.0
102
RTVSPost2010PropOp38
 70
     1
102
RTVSPost2010Prop39
140
1.0
102
RTVSPost2010PropOp39
 70
     1
102
RTVSPost2010Prop40
 90
        0
102
RTVSPost2010PropOp40
 70
     1
102
RTVSPost2010Prop41ColorIndex
 90
       18
102
RTVSPost2010Prop41ColorRGB
 90
        0
102
RTVSPost2010PropOp41
 70
     1
102
RTVSPost2010Prop42
 90
       50
102
RTVSPost2010PropOp42
 70
     1
102
RTVSPost2010Prop43
 90
        3
102
RTVSPost2010PropOp43
 70
     1
102
RTVSPost2010Prop44ColorIndex
 90
        5
102
RTVSPost2010Prop44ColorRGB
 90
      255
102
RTVSPost2010PropOp44
 70
     1
102
RTVSPost2010Prop45
280
     0
102
RTVSPost2010PropOp45
 70
     1
102
RTVSPost2010Prop46
 90
       50
102
RTVSPost2010PropOp46
 70
     1
102
RTVSPost2010Prop47
 90
       50
102
RTVSPost2010PropOp47
 70
     1
102
RTVSPost2010Prop48
 90
       50
102
RTVSPost2010PropOp48
 70
     1
102
RTVSPost2010Prop49
280
     0
102
RTVSPost2010PropOp49
 70
     1
102
RTVSPost2010Prop50
 90
       50
102
RTVSPost2010PropOp50
 70
     1
102
RTVSPost2010Prop51ColorIndex
 90
      256
102
RTVSPost2010Prop51ColorRGB
 90
-16777216
102
RTVSPost2010PropOp51
 70
     0
102
RTVSPost2010Prop52
140
1.0
102
RTVSPost2010PropOp52
 70
     0
102
RTVSPost2010Prop53
 90
        2
102
RTVSPost2010PropOp53
 70
     1
102
RTVSPost2010Prop54
  1
strokes_ogs.tif
102
RTVSPost2010PropOp54
 70
     1
102
RTVSPost2010Prop55
280
     0
102
RTVSPost2010PropOp55
 70
     1
102
RTVSPost2010Prop56
140
1.0
102
RTVSPost2010PropOp56
 70
     1
102
RTVSPost2010Prop57
140
1.0
102
RTVSPost2010PropOp57
 70
     1
102
RTVSPropertyOp0
 70
     1
102
RTVSPropertyOp1
 70
     1
102
RTVSPropertyOp2
 70
     1
102
RTVSPropertyOp3
 70
     1
102
RTVSPropertyOp4
 70
     1
102
RTVSPropertyOp5
 70
     1
102
RTVSPropertyOp6
 70
     1
102
RTVSPropertyOp7
 70
     1
102
RTVSPropertyOp8
 70
     1
102
RTVSPropertyOp9
 70
     1
102
RTVSPropertyOp10
 70
     1
102
RTVSPropertyOp11
 70
     1
102
RTVSPropertyOp12
 70
     1
102
RTVSPropertyOp13
 70
     1
102
RTVSPropertyOp14
 70
     1
102
RTVSPropertyOp15
 70
     1
102
RTVSPropertyOp16
 70
     1
102
RTVSPropertyOp17
 70
     1
102
RTVSPropertyOp18
 70
     1
102
RTVSPropertyOp19
 70
     1
102
RTVSPropertyOp20
 70
     1
102
RTVSPropertyOp21
 70
     1
102
RTVSPropertyOp22
 70
     1
102
RTVSPropertyOp23
 70
     1
102
RTVSPropertyOp24
 70
     1
102
RTVSPropertyOp25
 70
     1
102
RTVSPropertyOp26
 70
     1
102
RTVSPropertyOp27
 70
     1
102
RTVSPropertyOp28
 70
     1
102
RTVSPropertyOp29
 70
     1
102
RTVSPropertyOp30
 70
     1
102
RTVSPropertyOp31
 70
     1
102
RTVSPropertyOp32
 70
     1
102
RTVSPropertyOp33
 70
     1
102
RTVSPropertyOp34
 70
     1
102
RTVSPropertyOp35
 70
     1
102
RTVSPropertyOp36
 70
     1
102
RTVSPropertyOp37
 70
     1
102
RTVSPropertyOp38
 70
     1
102
RTVSPropertyOp39
 70
     1
102
RTVSPropertyOp40
 70
     1
102
RTVSPropertyOp41
 70
     1
102
RTVSPropertyOp42
 70
     1
102
RTVSPropertyOp43
 70
     1
102
RTVSPropertyOp44
 70
     1
102
RTVSPropertyOp45
 70
     1
102
RTVSPropertyOp46
 70
     1
102
RTVSPropertyOp47
 70
     1
102
RTVSPropertyOp48
 70
     1
102
RTVSPropertyOp49
 70
     1
102
RTVSPropertyOp50
 70
     1
102
RTVSPropertyOp51
 70
     0
102
RTVSPropertyOp52
 70
     0
102
RTVSPropertyOp53
 70
     1
102
RTVSPropertyOp54
 70
     1
102
RTVSPropertyOp55
 70
     1
102
RTVSPropertyOp56
 70
     1
102
RTVSPropertyOp57
 70
     1
102
RTVSPropertyOp58
 70
     1
102
RTVSPropertyOp59
 70
     1
102
RTVSPropertyOp60
 70
     1
102
RTVSPropertyOp61
 70
     1
102
RTVSPropertyOp62
 70
     1
  0
XRECORD
  5
B4FB
102
{ACAD_REACTORS
330
B4FA
102
}
330
B4FA
100
AcDbXrecord
280
     1
102
RTVSPost2010Prop28
280
     0
102
RTVSPost2010PropOp28
 70
     1
102
RTVSPost2010Prop29
280
     1
102
RTVSPost2010PropOp29
 70
     1
102
RTVSPost2010Prop30
280
     1
102
RTVSPost2010PropOp30
 70
     1
102
RTVSPost2010Prop31
280
     0
102
RTVSPost2010PropOp31
 70
     1
102
RTVSPost2010Prop32
280
     0
102
RTVSPost2010PropOp32
 70
     1
102
RTVSPost2010Prop33
280
     0
102
RTVSPost2010PropOp33
 70
     1
102
RTVSPost2010Prop34
280
     0
102
RTVSPost2010PropOp34
 70
     1
102
RTVSPost2010Prop35
280
     0
102
RTVSPost2010PropOp35
 70
     1
102
RTVSPost2010Prop36
280
     0
102
RTVSPost2010PropOp36
 70
     1
102
RTVSPost2010Prop37
 90
       50
102
RTVSPost2010PropOp37
 70
     1
102
RTVSPost2010Prop38
140
0.0
102
RTVSPost2010PropOp38
 70
     1
102
RTVSPost2010Prop39
140
1.0
102
RTVSPost2010PropOp39
 70
     1
102
RTVSPost2010Prop40
 90
        0
102
RTVSPost2010PropOp40
 70
     1
102
RTVSPost2010Prop41ColorIndex
 90
       18
102
RTVSPost2010Prop41ColorRGB
 90
        0
102
RTVSPost2010PropOp41
 70
     1
102
RTVSPost2010Prop42
 90
       50
102
RTVSPost2010PropOp42
 70
     1
102
RTVSPost2010Prop43
 90
        3
102
RTVSPost2010PropOp43
 70
     1
102
RTVSPost2010Prop44ColorIndex
 90
        5
102
RTVSPost2010Prop44ColorRGB
 90
      255
102
RTVSPost2010PropOp44
 70
     1
102
RTVSPost2010Prop45
280
     0
102
RTVSPost2010PropOp45
 70
     1
102
RTVSPost2010Prop46
 90
       50
102
RTVSPost2010PropOp46
 70
     1
102
RTVSPost2010Prop47
 90
       50
102
RTVSPost2010PropOp47
 70
     1
102
RTVSPost2010Prop48
 90
       50
102
RTVSPost2010PropOp48
 70
     1
102
RTVSPost2010Prop49
280
     0
102
RTVSPost2010PropOp49
 70
     1
102
RTVSPost2010Prop50
 90
       50
102
RTVSPost2010PropOp50
 70
     1
102
RTVSPost2010Prop51ColorIndex
 90
      256
102
RTVSPost2010Prop51ColorRGB
 90
-16777216
102
RTVSPost2010PropOp51
 70
     0
102
RTVSPost2010Prop52
140
1.0
102
RTVSPost2010PropOp52
 70
     0
102
RTVSPost2010Prop53
 90
        2
102
RTVSPost2010PropOp53
 70
     1
102
RTVSPost2010Prop54
  1
strokes_ogs.tif
102
RTVSPost2010PropOp54
 70
     1
102
RTVSPost2010Prop55
280
     0
102
RTVSPost2010PropOp55
 70
     1
102
RTVSPost2010Prop56
140
1.0
102
RTVSPost2010PropOp56
 70
     1
102
RTVSPost2010Prop57
140
1.0
102
RTVSPost2010PropOp57
 70
     1
102
RTVSPropertyOp0
 70
     1
102
RTVSPropertyOp1
 70
     1
102
RTVSPropertyOp2
 70
     1
102
RTVSPropertyOp3
 70
     1
102
RTVSPropertyOp4
 70
     1
102
RTVSPropertyOp5
 70
     1
102
RTVSPropertyOp6
 70
     1
102
RTVSPropertyOp7
 70
     1
102
RTVSPropertyOp8
 70
     1
102
RTVSPropertyOp9
 70
     1
102
RTVSPropertyOp10
 70
     1
102
RTVSPropertyOp11
 70
     1
102
RTVSPropertyOp12
 70
     1
102
RTVSPropertyOp13
 70
     1
102
RTVSPropertyOp14
 70
     1
102
RTVSPropertyOp15
 70
     1
102
RTVSPropertyOp16
 70
     1
102
RTVSPropertyOp17
 70
     1
102
RTVSPropertyOp18
 70
     1
102
RTVSPropertyOp19
 70
     1
102
RTVSPropertyOp20
 70
     1
102
RTVSPropertyOp21
 70
     1
102
RTVSPropertyOp22
 70
     1
102
RTVSPropertyOp23
 70
     1
102
RTVSPropertyOp24
 70
     1
102
RTVSPropertyOp25
 70
     1
102
RTVSPropertyOp26
 70
     1
102
RTVSPropertyOp27
 70
     1
102
RTVSPropertyOp28
 70
     1
102
RTVSPropertyOp29
 70
     1
102
RTVSPropertyOp30
 70
     1
102
RTVSPropertyOp31
 70
     1
102
RTVSPropertyOp32
 70
     1
102
RTVSPropertyOp33
 70
     1
102
RTVSPropertyOp34
 70
     1
102
RTVSPropertyOp35
 70
     1
102
RTVSPropertyOp36
 70
     1
102
RTVSPropertyOp37
 70
     1
102
RTVSPropertyOp38
 70
     1
102
RTVSPropertyOp39
 70
     1
102
RTVSPropertyOp40
 70
     1
102
RTVSPropertyOp41
 70
     1
102
RTVSPropertyOp42
 70
     1
102
RTVSPropertyOp43
 70
     1
102
RTVSPropertyOp44
 70
     1
102
RTVSPropertyOp45
 70
     1
102
RTVSPropertyOp46
 70
     1
102
RTVSPropertyOp47
 70
     1
102
RTVSPropertyOp48
 70
     1
102
RTVSPropertyOp49
 70
     1
102
RTVSPropertyOp50
 70
     1
102
RTVSPropertyOp51
 70
     0
102
RTVSPropertyOp52
 70
     0
102
RTVSPropertyOp53
 70
     1
102
RTVSPropertyOp54
 70
     1
102
RTVSPropertyOp55
 70
     1
102
RTVSPropertyOp56
 70
     1
102
RTVSPropertyOp57
 70
     1
102
RTVSPropertyOp58
 70
     1
102
RTVSPropertyOp59
 70
     1
102
RTVSPropertyOp60
 70
     1
102
RTVSPropertyOp61
 70
     1
102
RTVSPropertyOp62
 70
     1
  0
XRECORD
  5
B509
102
{ACAD_REACTORS
330
B508
102
}
330
B508
100
AcDbXrecord
280
     1
102
RTVSPost2010Prop28
280
     0
102
RTVSPost2010PropOp28
 70
     1
102
RTVSPost2010Prop29
280
     1
102
RTVSPost2010PropOp29
 70
     1
102
RTVSPost2010Prop30
280
     1
102
RTVSPost2010PropOp30
 70
     1
102
RTVSPost2010Prop31
280
     0
102
RTVSPost2010PropOp31
 70
     1
102
RTVSPost2010Prop32
280
     0
102
RTVSPost2010PropOp32
 70
     1
102
RTVSPost2010Prop33
280
     0
102
RTVSPost2010PropOp33
 70
     1
102
RTVSPost2010Prop34
280
     0
102
RTVSPost2010PropOp34
 70
     1
102
RTVSPost2010Prop35
280
     0
102
RTVSPost2010PropOp35
 70
     1
102
RTVSPost2010Prop36
280
     0
102
RTVSPost2010PropOp36
 70
     1
102
RTVSPost2010Prop37
 90
       50
102
RTVSPost2010PropOp37
 70
     1
102
RTVSPost2010Prop38
140
0.0
102
RTVSPost2010PropOp38
 70
     1
102
RTVSPost2010Prop39
140
1.0
102
RTVSPost2010PropOp39
 70
     1
102
RTVSPost2010Prop40
 90
        0
102
RTVSPost2010PropOp40
 70
     1
102
RTVSPost2010Prop41ColorIndex
 90
       18
102
RTVSPost2010Prop41ColorRGB
 90
        0
102
RTVSPost2010PropOp41
 70
     1
102
RTVSPost2010Prop42
 90
       50
102
RTVSPost2010PropOp42
 70
     1
102
RTVSPost2010Prop43
 90
        3
102
RTVSPost2010PropOp43
 70
     1
102
RTVSPost2010Prop44ColorIndex
 90
        5
102
RTVSPost2010Prop44ColorRGB
 90
      255
102
RTVSPost2010PropOp44
 70
     1
102
RTVSPost2010Prop45
280
     0
102
RTVSPost2010PropOp45
 70
     1
102
RTVSPost2010Prop46
 90
       50
102
RTVSPost2010PropOp46
 70
     1
102
RTVSPost2010Prop47
 90
       50
102
RTVSPost2010PropOp47
 70
     1
102
RTVSPost2010Prop48
 90
       50
102
RTVSPost2010PropOp48
 70
     1
102
RTVSPost2010Prop49
280
     0
102
RTVSPost2010PropOp49
 70
     1
102
RTVSPost2010Prop50
 90
       50
102
RTVSPost2010PropOp50
 70
     1
102
RTVSPost2010Prop51ColorIndex
 90
      256
102
RTVSPost2010Prop51ColorRGB
 90
-16777216
102
RTVSPost2010PropOp51
 70
     0
102
RTVSPost2010Prop52
140
1.0
102
RTVSPost2010PropOp52
 70
     0
102
RTVSPost2010Prop53
 90
        2
102
RTVSPost2010PropOp53
 70
     1
102
RTVSPost2010Prop54
  1
strokes_ogs.tif
102
RTVSPost2010PropOp54
 70
     1
102
RTVSPost2010Prop55
280
     0
102
RTVSPost2010PropOp55
 70
     1
102
RTVSPost2010Prop56
140
1.0
102
RTVSPost2010PropOp56
 70
     1
102
RTVSPost2010Prop57
140
1.0
102
RTVSPost2010PropOp57
 70
     1
102
RTVSPropertyOp0
 70
     1
102
RTVSPropertyOp1
 70
     1
102
RTVSPropertyOp2
 70
     1
102
RTVSPropertyOp3
 70
     1
102
RTVSPropertyOp4
 70
     1
102
RTVSPropertyOp5
 70
     1
102
RTVSPropertyOp6
 70
     1
102
RTVSPropertyOp7
 70
     1
102
RTVSPropertyOp8
 70
     1
102
RTVSPropertyOp9
 70
     1
102
RTVSPropertyOp10
 70
     1
102
RTVSPropertyOp11
 70
     1
102
RTVSPropertyOp12
 70
     1
102
RTVSPropertyOp13
 70
     1
102
RTVSPropertyOp14
 70
     1
102
RTVSPropertyOp15
 70
     1
102
RTVSPropertyOp16
 70
     1
102
RTVSPropertyOp17
 70
     1
102
RTVSPropertyOp18
 70
     1
102
RTVSPropertyOp19
 70
     1
102
RTVSPropertyOp20
 70
     1
102
RTVSPropertyOp21
 70
     1
102
RTVSPropertyOp22
 70
     1
102
RTVSPropertyOp23
 70
     1
102
RTVSPropertyOp24
 70
     1
102
RTVSPropertyOp25
 70
     1
102
RTVSPropertyOp26
 70
     1
102
RTVSPropertyOp27
 70
     1
102
RTVSPropertyOp28
 70
     1
102
RTVSPropertyOp29
 70
     1
102
RTVSPropertyOp30
 70
     1
102
RTVSPropertyOp31
 70
     1
102
RTVSPropertyOp32
 70
     1
102
RTVSPropertyOp33
 70
     1
102
RTVSPropertyOp34
 70
     1
102
RTVSPropertyOp35
 70
     1
102
RTVSPropertyOp36
 70
     1
102
RTVSPropertyOp37
 70
     1
102
RTVSPropertyOp38
 70
     1
102
RTVSPropertyOp39
 70
     1
102
RTVSPropertyOp40
 70
     1
102
RTVSPropertyOp41
 70
     1
102
RTVSPropertyOp42
 70
     1
102
RTVSPropertyOp43
 70
     1
102
RTVSPropertyOp44
 70
     1
102
RTVSPropertyOp45
 70
     1
102
RTVSPropertyOp46
 70
     1
102
RTVSPropertyOp47
 70
     1
102
RTVSPropertyOp48
 70
     1
102
RTVSPropertyOp49
 70
     1
102
RTVSPropertyOp50
 70
     1
102
RTVSPropertyOp51
 70
     0
102
RTVSPropertyOp52
 70
     0
102
RTVSPropertyOp53
 70
     1
102
RTVSPropertyOp54
 70
     1
102
RTVSPropertyOp55
 70
     1
102
RTVSPropertyOp56
 70
     1
102
RTVSPropertyOp57
 70
     1
102
RTVSPropertyOp58
 70
     1
102
RTVSPropertyOp59
 70
     1
102
RTVSPropertyOp60
 70
     1
102
RTVSPropertyOp61
 70
     1
102
RTVSPropertyOp62
 70
     1
  0
XRECORD
  5
B511
102
{ACAD_REACTORS
330
B510
102
}
330
B510
100
AcDbXrecord
280
     1
102
RTVSPost2010Prop28
280
     0
102
RTVSPost2010PropOp28
 70
     1
102
RTVSPost2010Prop29
280
     1
102
RTVSPost2010PropOp29
 70
     1
102
RTVSPost2010Prop30
280
     1
102
RTVSPost2010PropOp30
 70
     1
102
RTVSPost2010Prop31
280
     0
102
RTVSPost2010PropOp31
 70
     1
102
RTVSPost2010Prop32
280
     0
102
RTVSPost2010PropOp32
 70
     1
102
RTVSPost2010Prop33
280
     0
102
RTVSPost2010PropOp33
 70
     1
102
RTVSPost2010Prop34
280
     0
102
RTVSPost2010PropOp34
 70
     1
102
RTVSPost2010Prop35
280
     0
102
RTVSPost2010PropOp35
 70
     1
102
RTVSPost2010Prop36
280
     0
102
RTVSPost2010PropOp36
 70
     1
102
RTVSPost2010Prop37
 90
       50
102
RTVSPost2010PropOp37
 70
     1
102
RTVSPost2010Prop38
140
0.0
102
RTVSPost2010PropOp38
 70
     1
102
RTVSPost2010Prop39
140
1.0
102
RTVSPost2010PropOp39
 70
     1
102
RTVSPost2010Prop40
 90
        0
102
RTVSPost2010PropOp40
 70
     1
102
RTVSPost2010Prop41ColorIndex
 90
       18
102
RTVSPost2010Prop41ColorRGB
 90
        0
102
RTVSPost2010PropOp41
 70
     1
102
RTVSPost2010Prop42
 90
       50
102
RTVSPost2010PropOp42
 70
     1
102
RTVSPost2010Prop43
 90
        3
102
RTVSPost2010PropOp43
 70
     1
102
RTVSPost2010Prop44ColorIndex
 90
        5
102
RTVSPost2010Prop44ColorRGB
 90
      255
102
RTVSPost2010PropOp44
 70
     1
102
RTVSPost2010Prop45
280
     0
102
RTVSPost2010PropOp45
 70
     1
102
RTVSPost2010Prop46
 90
       50
102
RTVSPost2010PropOp46
 70
     1
102
RTVSPost2010Prop47
 90
       50
102
RTVSPost2010PropOp47
 70
     1
102
RTVSPost2010Prop48
 90
       50
102
RTVSPost2010PropOp48
 70
     1
102
RTVSPost2010Prop49
280
     0
102
RTVSPost2010PropOp49
 70
     1
102
RTVSPost2010Prop50
 90
       50
102
RTVSPost2010PropOp50
 70
     1
102
RTVSPost2010Prop51ColorIndex
 90
      256
102
RTVSPost2010Prop51ColorRGB
 90
-16777216
102
RTVSPost2010PropOp51
 70
     0
102
RTVSPost2010Prop52
140
1.0
102
RTVSPost2010PropOp52
 70
     0
102
RTVSPost2010Prop53
 90
        2
102
RTVSPost2010PropOp53
 70
     1
102
RTVSPost2010Prop54
  1
strokes_ogs.tif
102
RTVSPost2010PropOp54
 70
     1
102
RTVSPost2010Prop55
280
     0
102
RTVSPost2010PropOp55
 70
     1
102
RTVSPost2010Prop56
140
1.0
102
RTVSPost2010PropOp56
 70
     1
102
RTVSPost2010Prop57
140
1.0
102
RTVSPost2010PropOp57
 70
     1
102
RTVSPropertyOp0
 70
     1
102
RTVSPropertyOp1
 70
     1
102
RTVSPropertyOp2
 70
     1
102
RTVSPropertyOp3
 70
     1
102
RTVSPropertyOp4
 70
     1
102
RTVSPropertyOp5
 70
     1
102
RTVSPropertyOp6
 70
     1
102
RTVSPropertyOp7
 70
     1
102
RTVSPropertyOp8
 70
     1
102
RTVSPropertyOp9
 70
     1
102
RTVSPropertyOp10
 70
     1
102
RTVSPropertyOp11
 70
     1
102
RTVSPropertyOp12
 70
     1
102
RTVSPropertyOp13
 70
     1
102
RTVSPropertyOp14
 70
     1
102
RTVSPropertyOp15
 70
     1
102
RTVSPropertyOp16
 70
     1
102
RTVSPropertyOp17
 70
     1
102
RTVSPropertyOp18
 70
     1
102
RTVSPropertyOp19
 70
     1
102
RTVSPropertyOp20
 70
     1
102
RTVSPropertyOp21
 70
     1
102
RTVSPropertyOp22
 70
     1
102
RTVSPropertyOp23
 70
     1
102
RTVSPropertyOp24
 70
     1
102
RTVSPropertyOp25
 70
     1
102
RTVSPropertyOp26
 70
     1
102
RTVSPropertyOp27
 70
     1
102
RTVSPropertyOp28
 70
     1
102
RTVSPropertyOp29
 70
     1
102
RTVSPropertyOp30
 70
     1
102
RTVSPropertyOp31
 70
     1
102
RTVSPropertyOp32
 70
     1
102
RTVSPropertyOp33
 70
     1
102
RTVSPropertyOp34
 70
     1
102
RTVSPropertyOp35
 70
     1
102
RTVSPropertyOp36
 70
     1
102
RTVSPropertyOp37
 70
     1
102
RTVSPropertyOp38
 70
     1
102
RTVSPropertyOp39
 70
     1
102
RTVSPropertyOp40
 70
     1
102
RTVSPropertyOp41
 70
     1
102
RTVSPropertyOp42
 70
     1
102
RTVSPropertyOp43
 70
     1
102
RTVSPropertyOp44
 70
     1
102
RTVSPropertyOp45
 70
     1
102
RTVSPropertyOp46
 70
     1
102
RTVSPropertyOp47
 70
     1
102
RTVSPropertyOp48
 70
     1
102
RTVSPropertyOp49
 70
     1
102
RTVSPropertyOp50
 70
     1
102
RTVSPropertyOp51
 70
     0
102
RTVSPropertyOp52
 70
     0
102
RTVSPropertyOp53
 70
     1
102
RTVSPropertyOp54
 70
     1
102
RTVSPropertyOp55
 70
     1
102
RTVSPropertyOp56
 70
     1
102
RTVSPropertyOp57
 70
     1
102
RTVSPropertyOp58
 70
     1
102
RTVSPropertyOp59
 70
     1
102
RTVSPropertyOp60
 70
     1
102
RTVSPropertyOp61
 70
     1
102
RTVSPropertyOp62
 70
     1
  0
XRECORD
  5
B503
102
{ACAD_REACTORS
330
B502
102
}
330
B502
100
AcDbXrecord
280
     1
102
RTVSPost2010Prop28
280
     0
102
RTVSPost2010PropOp28
 70
     1
102
RTVSPost2010Prop29
280
     1
102
RTVSPost2010PropOp29
 70
     1
102
RTVSPost2010Prop30
280
     1
102
RTVSPost2010PropOp30
 70
     1
102
RTVSPost2010Prop31
280
     0
102
RTVSPost2010PropOp31
 70
     1
102
RTVSPost2010Prop32
280
     0
102
RTVSPost2010PropOp32
 70
     1
102
RTVSPost2010Prop33
280
     0
102
RTVSPost2010PropOp33
 70
     1
102
RTVSPost2010Prop34
280
     0
102
RTVSPost2010PropOp34
 70
     1
102
RTVSPost2010Prop35
280
     0
102
RTVSPost2010PropOp35
 70
     1
102
RTVSPost2010Prop36
280
     0
102
RTVSPost2010PropOp36
 70
     1
102
RTVSPost2010Prop37
 90
       50
102
RTVSPost2010PropOp37
 70
     1
102
RTVSPost2010Prop38
140
0.0
102
RTVSPost2010PropOp38
 70
     1
102
RTVSPost2010Prop39
140
1.0
102
RTVSPost2010PropOp39
 70
     1
102
RTVSPost2010Prop40
 90
        0
102
RTVSPost2010PropOp40
 70
     1
102
RTVSPost2010Prop41ColorIndex
 90
       18
102
RTVSPost2010Prop41ColorRGB
 90
        0
102
RTVSPost2010PropOp41
 70
     1
102
RTVSPost2010Prop42
 90
       50
102
RTVSPost2010PropOp42
 70
     1
102
RTVSPost2010Prop43
 90
        3
102
RTVSPost2010PropOp43
 70
     1
102
RTVSPost2010Prop44ColorIndex
 90
        5
102
RTVSPost2010Prop44ColorRGB
 90
      255
102
RTVSPost2010PropOp44
 70
     1
102
RTVSPost2010Prop45
280
     0
102
RTVSPost2010PropOp45
 70
     1
102
RTVSPost2010Prop46
 90
       50
102
RTVSPost2010PropOp46
 70
     1
102
RTVSPost2010Prop47
 90
       50
102
RTVSPost2010PropOp47
 70
     1
102
RTVSPost2010Prop48
 90
       50
102
RTVSPost2010PropOp48
 70
     1
102
RTVSPost2010Prop49
280
     0
102
RTVSPost2010PropOp49
 70
     1
102
RTVSPost2010Prop50
 90
       50
102
RTVSPost2010PropOp50
 70
     1
102
RTVSPost2010Prop51ColorIndex
 90
      256
102
RTVSPost2010Prop51ColorRGB
 90
-16777216
102
RTVSPost2010PropOp51
 70
     0
102
RTVSPost2010Prop52
140
1.0
102
RTVSPost2010PropOp52
 70
     0
102
RTVSPost2010Prop53
 90
        2
102
RTVSPost2010PropOp53
 70
     1
102
RTVSPost2010Prop54
  1
strokes_ogs.tif
102
RTVSPost2010PropOp54
 70
     1
102
RTVSPost2010Prop55
280
     0
102
RTVSPost2010PropOp55
 70
     1
102
RTVSPost2010Prop56
140
1.0
102
RTVSPost2010PropOp56
 70
     1
102
RTVSPost2010Prop57
140
1.0
102
RTVSPost2010PropOp57
 70
     1
102
RTVSPropertyOp0
 70
     1
102
RTVSPropertyOp1
 70
     1
102
RTVSPropertyOp2
 70
     1
102
RTVSPropertyOp3
 70
     1
102
RTVSPropertyOp4
 70
     1
102
RTVSPropertyOp5
 70
     1
102
RTVSPropertyOp6
 70
     1
102
RTVSPropertyOp7
 70
     1
102
RTVSPropertyOp8
 70
     1
102
RTVSPropertyOp9
 70
     1
102
RTVSPropertyOp10
 70
     1
102
RTVSPropertyOp11
 70
     1
102
RTVSPropertyOp12
 70
     1
102
RTVSPropertyOp13
 70
     1
102
RTVSPropertyOp14
 70
     1
102
RTVSPropertyOp15
 70
     1
102
RTVSPropertyOp16
 70
     1
102
RTVSPropertyOp17
 70
     1
102
RTVSPropertyOp18
 70
     1
102
RTVSPropertyOp19
 70
     1
102
RTVSPropertyOp20
 70
     1
102
RTVSPropertyOp21
 70
     1
102
RTVSPropertyOp22
 70
     1
102
RTVSPropertyOp23
 70
     1
102
RTVSPropertyOp24
 70
     1
102
RTVSPropertyOp25
 70
     1
102
RTVSPropertyOp26
 70
     1
102
RTVSPropertyOp27
 70
     1
102
RTVSPropertyOp28
 70
     1
102
RTVSPropertyOp29
 70
     1
102
RTVSPropertyOp30
 70
     1
102
RTVSPropertyOp31
 70
     1
102
RTVSPropertyOp32
 70
     1
102
RTVSPropertyOp33
 70
     1
102
RTVSPropertyOp34
 70
     1
102
RTVSPropertyOp35
 70
     1
102
RTVSPropertyOp36
 70
     1
102
RTVSPropertyOp37
 70
     1
102
RTVSPropertyOp38
 70
     1
102
RTVSPropertyOp39
 70
     1
102
RTVSPropertyOp40
 70
     1
102
RTVSPropertyOp41
 70
     1
102
RTVSPropertyOp42
 70
     1
102
RTVSPropertyOp43
 70
     1
102
RTVSPropertyOp44
 70
     1
102
RTVSPropertyOp45
 70
     1
102
RTVSPropertyOp46
 70
     1
102
RTVSPropertyOp47
 70
     1
102
RTVSPropertyOp48
 70
     1
102
RTVSPropertyOp49
 70
     1
102
RTVSPropertyOp50
 70
     1
102
RTVSPropertyOp51
 70
     0
102
RTVSPropertyOp52
 70
     0
102
RTVSPropertyOp53
 70
     1
102
RTVSPropertyOp54
 70
     1
102
RTVSPropertyOp55
 70
     1
102
RTVSPropertyOp56
 70
     1
102
RTVSPropertyOp57
 70
     1
102
RTVSPropertyOp58
 70
     1
102
RTVSPropertyOp59
 70
     1
102
RTVSPropertyOp60
 70
     1
102
RTVSPropertyOp61
 70
     1
102
RTVSPropertyOp62
 70
     1
  0
XRECORD
  5
B507
102
{ACAD_REACTORS
330
B506
102
}
330
B506
100
AcDbXrecord
280
     1
102
RTVSPost2010Prop28
280
     0
102
RTVSPost2010PropOp28
 70
     1
102
RTVSPost2010Prop29
280
     1
102
RTVSPost2010PropOp29
 70
     1
102
RTVSPost2010Prop30
280
     1
102
RTVSPost2010PropOp30
 70
     1
102
RTVSPost2010Prop31
280
     0
102
RTVSPost2010PropOp31
 70
     1
102
RTVSPost2010Prop32
280
     0
102
RTVSPost2010PropOp32
 70
     1
102
RTVSPost2010Prop33
280
     0
102
RTVSPost2010PropOp33
 70
     1
102
RTVSPost2010Prop34
280
     0
102
RTVSPost2010PropOp34
 70
     1
102
RTVSPost2010Prop35
280
     0
102
RTVSPost2010PropOp35
 70
     1
102
RTVSPost2010Prop36
280
     0
102
RTVSPost2010PropOp36
 70
     1
102
RTVSPost2010Prop37
 90
       50
102
RTVSPost2010PropOp37
 70
     1
102
RTVSPost2010Prop38
140
0.0
102
RTVSPost2010PropOp38
 70
     1
102
RTVSPost2010Prop39
140
1.0
102
RTVSPost2010PropOp39
 70
     1
102
RTVSPost2010Prop40
 90
        0
102
RTVSPost2010PropOp40
 70
     1
102
RTVSPost2010Prop41ColorIndex
 90
       18
102
RTVSPost2010Prop41ColorRGB
 90
        0
102
RTVSPost2010PropOp41
 70
     1
102
RTVSPost2010Prop42
 90
       50
102
RTVSPost2010PropOp42
 70
     1
102
RTVSPost2010Prop43
 90
        3
102
RTVSPost2010PropOp43
 70
     1
102
RTVSPost2010Prop44ColorIndex
 90
        5
102
RTVSPost2010Prop44ColorRGB
 90
      255
102
RTVSPost2010PropOp44
 70
     1
102
RTVSPost2010Prop45
280
     0
102
RTVSPost2010PropOp45
 70
     1
102
RTVSPost2010Prop46
 90
       50
102
RTVSPost2010PropOp46
 70
     1
102
RTVSPost2010Prop47
 90
       50
102
RTVSPost2010PropOp47
 70
     1
102
RTVSPost2010Prop48
 90
       50
102
RTVSPost2010PropOp48
 70
     1
102
RTVSPost2010Prop49
280
     0
102
RTVSPost2010PropOp49
 70
     1
102
RTVSPost2010Prop50
 90
       50
102
RTVSPost2010PropOp50
 70
     1
102
RTVSPost2010Prop51ColorIndex
 90
      256
102
RTVSPost2010Prop51ColorRGB
 90
-16777216
102
RTVSPost2010PropOp51
 70
     0
102
RTVSPost2010Prop52
140
1.0
102
RTVSPost2010PropOp52
 70
     0
102
RTVSPost2010Prop53
 90
        2
102
RTVSPost2010PropOp53
 70
     1
102
RTVSPost2010Prop54
  1
strokes_ogs.tif
102
RTVSPost2010PropOp54
 70
     1
102
RTVSPost2010Prop55
280
     0
102
RTVSPost2010PropOp55
 70
     1
102
RTVSPost2010Prop56
140
1.0
102
RTVSPost2010PropOp56
 70
     1
102
RTVSPost2010Prop57
140
1.0
102
RTVSPost2010PropOp57
 70
     1
102
RTVSPropertyOp0
 70
     1
102
RTVSPropertyOp1
 70
     1
102
RTVSPropertyOp2
 70
     1
102
RTVSPropertyOp3
 70
     1
102
RTVSPropertyOp4
 70
     1
102
RTVSPropertyOp5
 70
     1
102
RTVSPropertyOp6
 70
     1
102
RTVSPropertyOp7
 70
     1
102
RTVSPropertyOp8
 70
     1
102
RTVSPropertyOp9
 70
     1
102
RTVSPropertyOp10
 70
     1
102
RTVSPropertyOp11
 70
     1
102
RTVSPropertyOp12
 70
     1
102
RTVSPropertyOp13
 70
     1
102
RTVSPropertyOp14
 70
     1
102
RTVSPropertyOp15
 70
     1
102
RTVSPropertyOp16
 70
     1
102
RTVSPropertyOp17
 70
     1
102
RTVSPropertyOp18
 70
     1
102
RTVSPropertyOp19
 70
     1
102
RTVSPropertyOp20
 70
     1
102
RTVSPropertyOp21
 70
     1
102
RTVSPropertyOp22
 70
     1
102
RTVSPropertyOp23
 70
     1
102
RTVSPropertyOp24
 70
     1
102
RTVSPropertyOp25
 70
     1
102
RTVSPropertyOp26
 70
     1
102
RTVSPropertyOp27
 70
     1
102
RTVSPropertyOp28
 70
     1
102
RTVSPropertyOp29
 70
     1
102
RTVSPropertyOp30
 70
     1
102
RTVSPropertyOp31
 70
     1
102
RTVSPropertyOp32
 70
     1
102
RTVSPropertyOp33
 70
     1
102
RTVSPropertyOp34
 70
     1
102
RTVSPropertyOp35
 70
     1
102
RTVSPropertyOp36
 70
     1
102
RTVSPropertyOp37
 70
     1
102
RTVSPropertyOp38
 70
     1
102
RTVSPropertyOp39
 70
     1
102
RTVSPropertyOp40
 70
     1
102
RTVSPropertyOp41
 70
     1
102
RTVSPropertyOp42
 70
     1
102
RTVSPropertyOp43
 70
     1
102
RTVSPropertyOp44
 70
     1
102
RTVSPropertyOp45
 70
     1
102
RTVSPropertyOp46
 70
     1
102
RTVSPropertyOp47
 70
     1
102
RTVSPropertyOp48
 70
     1
102
RTVSPropertyOp49
 70
     1
102
RTVSPropertyOp50
 70
     1
102
RTVSPropertyOp51
 70
     0
102
RTVSPropertyOp52
 70
     0
102
RTVSPropertyOp53
 70
     1
102
RTVSPropertyOp54
 70
     1
102
RTVSPropertyOp55
 70
     1
102
RTVSPropertyOp56
 70
     1
102
RTVSPropertyOp57
 70
     1
102
RTVSPropertyOp58
 70
     1
102
RTVSPropertyOp59
 70
     1
102
RTVSPropertyOp60
 70
     1
102
RTVSPropertyOp61
 70
     1
102
RTVSPropertyOp62
 70
     1
  0
XRECORD
  5
B521
102
{ACAD_REACTORS
330
B520
102
}
330
B520
100
AcDbXrecord
280
     1
102
RTVSPost2010Prop28
280
     0
102
RTVSPost2010PropOp28
 70
     1
102
RTVSPost2010Prop29
280
     1
102
RTVSPost2010PropOp29
 70
     1
102
RTVSPost2010Prop30
280
     1
102
RTVSPost2010PropOp30
 70
     1
102
RTVSPost2010Prop31
280
     0
102
RTVSPost2010PropOp31
 70
     1
102
RTVSPost2010Prop32
280
     0
102
RTVSPost2010PropOp32
 70
     1
102
RTVSPost2010Prop33
280
     0
102
RTVSPost2010PropOp33
 70
     1
102
RTVSPost2010Prop34
280
     0
102
RTVSPost2010PropOp34
 70
     1
102
RTVSPost2010Prop35
280
     0
102
RTVSPost2010PropOp35
 70
     1
102
RTVSPost2010Prop36
280
     0
102
RTVSPost2010PropOp36
 70
     1
102
RTVSPost2010Prop37
 90
       50
102
RTVSPost2010PropOp37
 70
     0
102
RTVSPost2010Prop38
140
0.0
102
RTVSPost2010PropOp38
 70
     0
102
RTVSPost2010Prop39
140
1.0
102
RTVSPost2010PropOp39
 70
     0
102
RTVSPost2010Prop40
 90
        0
102
RTVSPost2010PropOp40
 70
     0
102
RTVSPost2010Prop41ColorIndex
 90
       18
102
RTVSPost2010Prop41ColorRGB
 90
        0
102
RTVSPost2010PropOp41
 70
     0
102
RTVSPost2010Prop42
 90
       50
102
RTVSPost2010PropOp42
 70
     0
102
RTVSPost2010Prop43
 90
        3
102
RTVSPost2010PropOp43
 70
     0
102
RTVSPost2010Prop44ColorIndex
 90
        5
102
RTVSPost2010Prop44ColorRGB
 90
      255
102
RTVSPost2010PropOp44
 70
     0
102
RTVSPost2010Prop45
280
     0
102
RTVSPost2010PropOp45
 70
     1
102
RTVSPost2010Prop46
 90
       50
102
RTVSPost2010PropOp46
 70
     0
102
RTVSPost2010Prop47
 90
       50
102
RTVSPost2010PropOp47
 70
     0
102
RTVSPost2010Prop48
 90
       50
102
RTVSPost2010PropOp48
 70
     0
102
RTVSPost2010Prop49
280
     0
102
RTVSPost2010PropOp49
 70
     1
102
RTVSPost2010Prop50
 90
       50
102
RTVSPost2010PropOp50
 70
     0
102
RTVSPost2010Prop51ColorIndex
 90
      256
102
RTVSPost2010Prop51ColorRGB
 90
-16777216
102
RTVSPost2010PropOp51
 70
     0
102
RTVSPost2010Prop52
140
1.0
102
RTVSPost2010PropOp52
 70
     0
102
RTVSPost2010Prop53
 90
        2
102
RTVSPost2010PropOp53
 70
     0
102
RTVSPost2010Prop54
  1
strokes_ogs.tif
102
RTVSPost2010PropOp54
 70
     0
102
RTVSPost2010Prop55
280
     0
102
RTVSPost2010PropOp55
 70
     1
102
RTVSPost2010Prop56
140
1.0
102
RTVSPost2010PropOp56
 70
     0
102
RTVSPost2010Prop57
140
1.0
102
RTVSPost2010PropOp57
 70
     0
102
RTVSPropertyOp0
 70
     0
102
RTVSPropertyOp1
 70
     0
102
RTVSPropertyOp2
 70
     0
102
RTVSPropertyOp3
 70
     0
102
RTVSPropertyOp4
 70
     0
102
RTVSPropertyOp5
 70
     0
102
RTVSPropertyOp6
 70
     0
102
RTVSPropertyOp7
 70
     0
102
RTVSPropertyOp8
 70
     0
102
RTVSPropertyOp9
 70
     0
102
RTVSPropertyOp10
 70
     0
102
RTVSPropertyOp11
 70
     0
102
RTVSPropertyOp12
 70
     0
102
RTVSPropertyOp13
 70
     0
102
RTVSPropertyOp14
 70
     2
102
RTVSPropertyOp15
 70
     0
102
RTVSPropertyOp16
 70
     0
102
RTVSPropertyOp17
 70
     0
102
RTVSPropertyOp18
 70
     0
102
RTVSPropertyOp19
 70
     0
102
RTVSPropertyOp20
 70
     0
102
RTVSPropertyOp21
 70
     0
102
RTVSPropertyOp22
 70
     0
102
RTVSPropertyOp23
 70
     0
102
RTVSPropertyOp24
 70
     0
102
RTVSPropertyOp25
 70
     0
102
RTVSPropertyOp26
 70
     0
102
RTVSPropertyOp27
 70
     0
102
RTVSPropertyOp28
 70
     1
102
RTVSPropertyOp29
 70
     1
102
RTVSPropertyOp30
 70
     1
102
RTVSPropertyOp31
 70
     1
102
RTVSPropertyOp32
 70
     1
102
RTVSPropertyOp33
 70
     1
102
RTVSPropertyOp34
 70
     1
102
RTVSPropertyOp35
 70
     1
102
RTVSPropertyOp36
 70
     1
102
RTVSPropertyOp37
 70
     0
102
RTVSPropertyOp38
 70
     0
102
RTVSPropertyOp39
 70
     0
102
RTVSPropertyOp40
 70
     0
102
RTVSPropertyOp41
 70
     0
102
RTVSPropertyOp42
 70
     0
102
RTVSPropertyOp43
 70
     0
102
RTVSPropertyOp44
 70
     0
102
RTVSPropertyOp45
 70
     1
102
RTVSPropertyOp46
 70
     0
102
RTVSPropertyOp47
 70
     0
102
RTVSPropertyOp48
 70
     0
102
RTVSPropertyOp49
 70
     1
102
RTVSPropertyOp50
 70
     0
102
RTVSPropertyOp51
 70
     0
102
RTVSPropertyOp52
 70
     0
102
RTVSPropertyOp53
 70
     0
102
RTVSPropertyOp54
 70
     0
102
RTVSPropertyOp55
 70
     1
102
RTVSPropertyOp56
 70
     0
102
RTVSPropertyOp57
 70
     0
102
RTVSPropertyOp58
 70
     0
102
RTVSPropertyOp59
 70
     0
102
RTVSPropertyOp60
 70
     0
102
RTVSPropertyOp61
 70
     0
102
RTVSPropertyOp62
 70
     0
  0
XRECORD
  5
B50F
102
{ACAD_REACTORS
330
B50E
102
}
330
B50E
100
AcDbXrecord
280
     1
102
RTVSPost2010Prop28
280
     0
102
RTVSPost2010PropOp28
 70
     1
102
RTVSPost2010Prop29
280
     1
102
RTVSPost2010PropOp29
 70
     1
102
RTVSPost2010Prop30
280
     1
102
RTVSPost2010PropOp30
 70
     1
102
RTVSPost2010Prop31
280
     0
102
RTVSPost2010PropOp31
 70
     1
102
RTVSPost2010Prop32
280
     0
102
RTVSPost2010PropOp32
 70
     1
102
RTVSPost2010Prop33
280
     0
102
RTVSPost2010PropOp33
 70
     1
102
RTVSPost2010Prop34
280
     0
102
RTVSPost2010PropOp34
 70
     1
102
RTVSPost2010Prop35
280
     0
102
RTVSPost2010PropOp35
 70
     1
102
RTVSPost2010Prop36
280
     0
102
RTVSPost2010PropOp36
 70
     1
102
RTVSPost2010Prop37
 90
       50
102
RTVSPost2010PropOp37
 70
     1
102
RTVSPost2010Prop38
140
0.0
102
RTVSPost2010PropOp38
 70
     1
102
RTVSPost2010Prop39
140
1.0
102
RTVSPost2010PropOp39
 70
     1
102
RTVSPost2010Prop40
 90
        0
102
RTVSPost2010PropOp40
 70
     1
102
RTVSPost2010Prop41ColorIndex
 90
       18
102
RTVSPost2010Prop41ColorRGB
 90
        0
102
RTVSPost2010PropOp41
 70
     1
102
RTVSPost2010Prop42
 90
       50
102
RTVSPost2010PropOp42
 70
     1
102
RTVSPost2010Prop43
 90
        3
102
RTVSPost2010PropOp43
 70
     1
102
RTVSPost2010Prop44ColorIndex
 90
        5
102
RTVSPost2010Prop44ColorRGB
 90
      255
102
RTVSPost2010PropOp44
 70
     1
102
RTVSPost2010Prop45
280
     0
102
RTVSPost2010PropOp45
 70
     1
102
RTVSPost2010Prop46
 90
       50
102
RTVSPost2010PropOp46
 70
     1
102
RTVSPost2010Prop47
 90
       50
102
RTVSPost2010PropOp47
 70
     1
102
RTVSPost2010Prop48
 90
       50
102
RTVSPost2010PropOp48
 70
     1
102
RTVSPost2010Prop49
280
     0
102
RTVSPost2010PropOp49
 70
     1
102
RTVSPost2010Prop50
 90
       50
102
RTVSPost2010PropOp50
 70
     1
102
RTVSPost2010Prop51ColorIndex
 90
      256
102
RTVSPost2010Prop51ColorRGB
 90
-16777216
102
RTVSPost2010PropOp51
 70
     0
102
RTVSPost2010Prop52
140
1.0
102
RTVSPost2010PropOp52
 70
     0
102
RTVSPost2010Prop53
 90
        2
102
RTVSPost2010PropOp53
 70
     1
102
RTVSPost2010Prop54
  1
strokes_ogs.tif
102
RTVSPost2010PropOp54
 70
     1
102
RTVSPost2010Prop55
280
     0
102
RTVSPost2010PropOp55
 70
     1
102
RTVSPost2010Prop56
140
1.0
102
RTVSPost2010PropOp56
 70
     1
102
RTVSPost2010Prop57
140
1.0
102
RTVSPost2010PropOp57
 70
     1
102
RTVSPropertyOp0
 70
     1
102
RTVSPropertyOp1
 70
     1
102
RTVSPropertyOp2
 70
     1
102
RTVSPropertyOp3
 70
     1
102
RTVSPropertyOp4
 70
     1
102
RTVSPropertyOp5
 70
     1
102
RTVSPropertyOp6
 70
     1
102
RTVSPropertyOp7
 70
     1
102
RTVSPropertyOp8
 70
     1
102
RTVSPropertyOp9
 70
     1
102
RTVSPropertyOp10
 70
     1
102
RTVSPropertyOp11
 70
     1
102
RTVSPropertyOp12
 70
     1
102
RTVSPropertyOp13
 70
     1
102
RTVSPropertyOp14
 70
     1
102
RTVSPropertyOp15
 70
     1
102
RTVSPropertyOp16
 70
     1
102
RTVSPropertyOp17
 70
     1
102
RTVSPropertyOp18
 70
     1
102
RTVSPropertyOp19
 70
     1
102
RTVSPropertyOp20
 70
     1
102
RTVSPropertyOp21
 70
     1
102
RTVSPropertyOp22
 70
     1
102
RTVSPropertyOp23
 70
     1
102
RTVSPropertyOp24
 70
     1
102
RTVSPropertyOp25
 70
     1
102
RTVSPropertyOp26
 70
     1
102
RTVSPropertyOp27
 70
     1
102
RTVSPropertyOp28
 70
     1
102
RTVSPropertyOp29
 70
     1
102
RTVSPropertyOp30
 70
     1
102
RTVSPropertyOp31
 70
     1
102
RTVSPropertyOp32
 70
     1
102
RTVSPropertyOp33
 70
     1
102
RTVSPropertyOp34
 70
     1
102
RTVSPropertyOp35
 70
     1
102
RTVSPropertyOp36
 70
     1
102
RTVSPropertyOp37
 70
     1
102
RTVSPropertyOp38
 70
     1
102
RTVSPropertyOp39
 70
     1
102
RTVSPropertyOp40
 70
     1
102
RTVSPropertyOp41
 70
     1
102
RTVSPropertyOp42
 70
     1
102
RTVSPropertyOp43
 70
     1
102
RTVSPropertyOp44
 70
     1
102
RTVSPropertyOp45
 70
     1
102
RTVSPropertyOp46
 70
     1
102
RTVSPropertyOp47
 70
     1
102
RTVSPropertyOp48
 70
     1
102
RTVSPropertyOp49
 70
     1
102
RTVSPropertyOp50
 70
     1
102
RTVSPropertyOp51
 70
     0
102
RTVSPropertyOp52
 70
     0
102
RTVSPropertyOp53
 70
     1
102
RTVSPropertyOp54
 70
     1
102
RTVSPropertyOp55
 70
     1
102
RTVSPropertyOp56
 70
     1
102
RTVSPropertyOp57
 70
     1
102
RTVSPropertyOp58
 70
     1
102
RTVSPropertyOp59
 70
     1
102
RTVSPropertyOp60
 70
     1
102
RTVSPropertyOp61
 70
     1
102
RTVSPropertyOp62
 70
     1
  0
XRECORD
  5
B4F3
102
{ACAD_REACTORS
330
B4F2
102
}
330
B4F2
100
AcDbXrecord
280
     1
102
RTVSPost2010Prop28
280
     0
102
RTVSPost2010PropOp28
 70
     1
102
RTVSPost2010Prop29
280
     1
102
RTVSPost2010PropOp29
 70
     1
102
RTVSPost2010Prop30
280
     1
102
RTVSPost2010PropOp30
 70
     1
102
RTVSPost2010Prop31
280
     0
102
RTVSPost2010PropOp31
 70
     1
102
RTVSPost2010Prop32
280
     0
102
RTVSPost2010PropOp32
 70
     1
102
RTVSPost2010Prop33
280
     0
102
RTVSPost2010PropOp33
 70
     1
102
RTVSPost2010Prop34
280
     0
102
RTVSPost2010PropOp34
 70
     1
102
RTVSPost2010Prop35
280
     0
102
RTVSPost2010PropOp35
 70
     1
102
RTVSPost2010Prop36
280
     0
102
RTVSPost2010PropOp36
 70
     1
102
RTVSPost2010Prop37
 90
       50
102
RTVSPost2010PropOp37
 70
     1
102
RTVSPost2010Prop38
140
0.0
102
RTVSPost2010PropOp38
 70
     1
102
RTVSPost2010Prop39
140
1.0
102
RTVSPost2010PropOp39
 70
     1
102
RTVSPost2010Prop40
 90
        0
102
RTVSPost2010PropOp40
 70
     1
102
RTVSPost2010Prop41ColorIndex
 90
       18
102
RTVSPost2010Prop41ColorRGB
 90
        0
102
RTVSPost2010PropOp41
 70
     1
102
RTVSPost2010Prop42
 90
       50
102
RTVSPost2010PropOp42
 70
     1
102
RTVSPost2010Prop43
 90
        3
102
RTVSPost2010PropOp43
 70
     1
102
RTVSPost2010Prop44ColorIndex
 90
        5
102
RTVSPost2010Prop44ColorRGB
 90
      255
102
RTVSPost2010PropOp44
 70
     1
102
RTVSPost2010Prop45
280
     0
102
RTVSPost2010PropOp45
 70
     1
102
RTVSPost2010Prop46
 90
       50
102
RTVSPost2010PropOp46
 70
     1
102
RTVSPost2010Prop47
 90
       50
102
RTVSPost2010PropOp47
 70
     1
102
RTVSPost2010Prop48
 90
       50
102
RTVSPost2010PropOp48
 70
     1
102
RTVSPost2010Prop49
280
     0
102
RTVSPost2010PropOp49
 70
     1
102
RTVSPost2010Prop50
 90
       50
102
RTVSPost2010PropOp50
 70
     1
102
RTVSPost2010Prop51ColorIndex
 90
      256
102
RTVSPost2010Prop51ColorRGB
 90
-16777216
102
RTVSPost2010PropOp51
 70
     0
102
RTVSPost2010Prop52
140
1.0
102
RTVSPost2010PropOp52
 70
     0
102
RTVSPost2010Prop53
 90
        2
102
RTVSPost2010PropOp53
 70
     1
102
RTVSPost2010Prop54
  1
strokes_ogs.tif
102
RTVSPost2010PropOp54
 70
     1
102
RTVSPost2010Prop55
280
     0
102
RTVSPost2010PropOp55
 70
     1
102
RTVSPost2010Prop56
140
1.0
102
RTVSPost2010PropOp56
 70
     1
102
RTVSPost2010Prop57
140
1.0
102
RTVSPost2010PropOp57
 70
     1
102
RTVSPropertyOp0
 70
     1
102
RTVSPropertyOp1
 70
     1
102
RTVSPropertyOp2
 70
     1
102
RTVSPropertyOp3
 70
     1
102
RTVSPropertyOp4
 70
     1
102
RTVSPropertyOp5
 70
     1
102
RTVSPropertyOp6
 70
     1
102
RTVSPropertyOp7
 70
     1
102
RTVSPropertyOp8
 70
     1
102
RTVSPropertyOp9
 70
     1
102
RTVSPropertyOp10
 70
     1
102
RTVSPropertyOp11
 70
     1
102
RTVSPropertyOp12
 70
     1
102
RTVSPropertyOp13
 70
     1
102
RTVSPropertyOp14
 70
     1
102
RTVSPropertyOp15
 70
     1
102
RTVSPropertyOp16
 70
     1
102
RTVSPropertyOp17
 70
     1
102
RTVSPropertyOp18
 70
     1
102
RTVSPropertyOp19
 70
     1
102
RTVSPropertyOp20
 70
     1
102
RTVSPropertyOp21
 70
     1
102
RTVSPropertyOp22
 70
     1
102
RTVSPropertyOp23
 70
     1
102
RTVSPropertyOp24
 70
     1
102
RTVSPropertyOp25
 70
     1
102
RTVSPropertyOp26
 70
     1
102
RTVSPropertyOp27
 70
     1
102
RTVSPropertyOp28
 70
     1
102
RTVSPropertyOp29
 70
     1
102
RTVSPropertyOp30
 70
     1
102
RTVSPropertyOp31
 70
     1
102
RTVSPropertyOp32
 70
     1
102
RTVSPropertyOp33
 70
     1
102
RTVSPropertyOp34
 70
     1
102
RTVSPropertyOp35
 70
     1
102
RTVSPropertyOp36
 70
     1
102
RTVSPropertyOp37
 70
     1
102
RTVSPropertyOp38
 70
     1
102
RTVSPropertyOp39
 70
     1
102
RTVSPropertyOp40
 70
     1
102
RTVSPropertyOp41
 70
     1
102
RTVSPropertyOp42
 70
     1
102
RTVSPropertyOp43
 70
     1
102
RTVSPropertyOp44
 70
     1
102
RTVSPropertyOp45
 70
     1
102
RTVSPropertyOp46
 70
     1
102
RTVSPropertyOp47
 70
     1
102
RTVSPropertyOp48
 70
     1
102
RTVSPropertyOp49
 70
     1
102
RTVSPropertyOp50
 70
     1
102
RTVSPropertyOp51
 70
     0
102
RTVSPropertyOp52
 70
     0
102
RTVSPropertyOp53
 70
     1
102
RTVSPropertyOp54
 70
     1
102
RTVSPropertyOp55
 70
     1
102
RTVSPropertyOp56
 70
     1
102
RTVSPropertyOp57
 70
     1
102
RTVSPropertyOp58
 70
     1
102
RTVSPropertyOp59
 70
     1
102
RTVSPropertyOp60
 70
     1
102
RTVSPropertyOp61
 70
     1
102
RTVSPropertyOp62
 70
     1
  0
XRECORD
  5
B4F5
102
{ACAD_REACTORS
330
B4F4
102
}
330
B4F4
100
AcDbXrecord
280
     1
102
RTVSPost2010Prop28
280
     0
102
RTVSPost2010PropOp28
 70
     1
102
RTVSPost2010Prop29
280
     1
102
RTVSPost2010PropOp29
 70
     1
102
RTVSPost2010Prop30
280
     1
102
RTVSPost2010PropOp30
 70
     1
102
RTVSPost2010Prop31
280
     0
102
RTVSPost2010PropOp31
 70
     1
102
RTVSPost2010Prop32
280
     0
102
RTVSPost2010PropOp32
 70
     1
102
RTVSPost2010Prop33
280
     0
102
RTVSPost2010PropOp33
 70
     1
102
RTVSPost2010Prop34
280
     0
102
RTVSPost2010PropOp34
 70
     1
102
RTVSPost2010Prop35
280
     0
102
RTVSPost2010PropOp35
 70
     1
102
RTVSPost2010Prop36
280
     0
102
RTVSPost2010PropOp36
 70
     1
102
RTVSPost2010Prop37
 90
       50
102
RTVSPost2010PropOp37
 70
     1
102
RTVSPost2010Prop38
140
0.0
102
RTVSPost2010PropOp38
 70
     1
102
RTVSPost2010Prop39
140
1.0
102
RTVSPost2010PropOp39
 70
     1
102
RTVSPost2010Prop40
 90
        0
102
RTVSPost2010PropOp40
 70
     1
102
RTVSPost2010Prop41ColorIndex
 90
       18
102
RTVSPost2010Prop41ColorRGB
 90
        0
102
RTVSPost2010PropOp41
 70
     1
102
RTVSPost2010Prop42
 90
       50
102
RTVSPost2010PropOp42
 70
     1
102
RTVSPost2010Prop43
 90
        3
102
RTVSPost2010PropOp43
 70
     1
102
RTVSPost2010Prop44ColorIndex
 90
        5
102
RTVSPost2010Prop44ColorRGB
 90
      255
102
RTVSPost2010PropOp44
 70
     1
102
RTVSPost2010Prop45
280
     0
102
RTVSPost2010PropOp45
 70
     1
102
RTVSPost2010Prop46
 90
       50
102
RTVSPost2010PropOp46
 70
     1
102
RTVSPost2010Prop47
 90
       50
102
RTVSPost2010PropOp47
 70
     1
102
RTVSPost2010Prop48
 90
       50
102
RTVSPost2010PropOp48
 70
     1
102
RTVSPost2010Prop49
280
     0
102
RTVSPost2010PropOp49
 70
     1
102
RTVSPost2010Prop50
 90
       50
102
RTVSPost2010PropOp50
 70
     1
102
RTVSPost2010Prop51ColorIndex
 90
      256
102
RTVSPost2010Prop51ColorRGB
 90
-16777216
102
RTVSPost2010PropOp51
 70
     0
102
RTVSPost2010Prop52
140
1.0
102
RTVSPost2010PropOp52
 70
     0
102
RTVSPost2010Prop53
 90
        2
102
RTVSPost2010PropOp53
 70
     1
102
RTVSPost2010Prop54
  1
strokes_ogs.tif
102
RTVSPost2010PropOp54
 70
     1
102
RTVSPost2010Prop55
280
     0
102
RTVSPost2010PropOp55
 70
     1
102
RTVSPost2010Prop56
140
1.0
102
RTVSPost2010PropOp56
 70
     1
102
RTVSPost2010Prop57
140
1.0
102
RTVSPost2010PropOp57
 70
     1
102
RTVSPropertyOp0
 70
     1
102
RTVSPropertyOp1
 70
     1
102
RTVSPropertyOp2
 70
     1
102
RTVSPropertyOp3
 70
     1
102
RTVSPropertyOp4
 70
     1
102
RTVSPropertyOp5
 70
     1
102
RTVSPropertyOp6
 70
     1
102
RTVSPropertyOp7
 70
     1
102
RTVSPropertyOp8
 70
     1
102
RTVSPropertyOp9
 70
     1
102
RTVSPropertyOp10
 70
     1
102
RTVSPropertyOp11
 70
     1
102
RTVSPropertyOp12
 70
     1
102
RTVSPropertyOp13
 70
     1
102
RTVSPropertyOp14
 70
     1
102
RTVSPropertyOp15
 70
     1
102
RTVSPropertyOp16
 70
     1
102
RTVSPropertyOp17
 70
     1
102
RTVSPropertyOp18
 70
     1
102
RTVSPropertyOp19
 70
     1
102
RTVSPropertyOp20
 70
     1
102
RTVSPropertyOp21
 70
     1
102
RTVSPropertyOp22
 70
     1
102
RTVSPropertyOp23
 70
     1
102
RTVSPropertyOp24
 70
     1
102
RTVSPropertyOp25
 70
     1
102
RTVSPropertyOp26
 70
     1
102
RTVSPropertyOp27
 70
     1
102
RTVSPropertyOp28
 70
     1
102
RTVSPropertyOp29
 70
     1
102
RTVSPropertyOp30
 70
     1
102
RTVSPropertyOp31
 70
     1
102
RTVSPropertyOp32
 70
     1
102
RTVSPropertyOp33
 70
     1
102
RTVSPropertyOp34
 70
     1
102
RTVSPropertyOp35
 70
     1
102
RTVSPropertyOp36
 70
     1
102
RTVSPropertyOp37
 70
     1
102
RTVSPropertyOp38
 70
     1
102
RTVSPropertyOp39
 70
     1
102
RTVSPropertyOp40
 70
     1
102
RTVSPropertyOp41
 70
     1
102
RTVSPropertyOp42
 70
     1
102
RTVSPropertyOp43
 70
     1
102
RTVSPropertyOp44
 70
     1
102
RTVSPropertyOp45
 70
     1
102
RTVSPropertyOp46
 70
     1
102
RTVSPropertyOp47
 70
     1
102
RTVSPropertyOp48
 70
     1
102
RTVSPropertyOp49
 70
     1
102
RTVSPropertyOp50
 70
     1
102
RTVSPropertyOp51
 70
     0
102
RTVSPropertyOp52
 70
     0
102
RTVSPropertyOp53
 70
     1
102
RTVSPropertyOp54
 70
     1
102
RTVSPropertyOp55
 70
     1
102
RTVSPropertyOp56
 70
     1
102
RTVSPropertyOp57
 70
     1
102
RTVSPropertyOp58
 70
     1
102
RTVSPropertyOp59
 70
     1
102
RTVSPropertyOp60
 70
     1
102
RTVSPropertyOp61
 70
     1
102
RTVSPropertyOp62
 70
     1
  0
XRECORD
  5
B4F7
102
{ACAD_REACTORS
330
B4F6
102
}
330
B4F6
100
AcDbXrecord
280
     1
102
RTVSPost2010Prop28
280
     0
102
RTVSPost2010PropOp28
 70
     1
102
RTVSPost2010Prop29
280
     1
102
RTVSPost2010PropOp29
 70
     1
102
RTVSPost2010Prop30
280
     1
102
RTVSPost2010PropOp30
 70
     1
102
RTVSPost2010Prop31
280
     0
102
RTVSPost2010PropOp31
 70
     1
102
RTVSPost2010Prop32
280
     0
102
RTVSPost2010PropOp32
 70
     1
102
RTVSPost2010Prop33
280
     0
102
RTVSPost2010PropOp33
 70
     1
102
RTVSPost2010Prop34
280
     0
102
RTVSPost2010PropOp34
 70
     1
102
RTVSPost2010Prop35
280
     0
102
RTVSPost2010PropOp35
 70
     1
102
RTVSPost2010Prop36
280
     0
102
RTVSPost2010PropOp36
 70
     1
102
RTVSPost2010Prop37
 90
       50
102
RTVSPost2010PropOp37
 70
     1
102
RTVSPost2010Prop38
140
0.0
102
RTVSPost2010PropOp38
 70
     1
102
RTVSPost2010Prop39
140
1.0
102
RTVSPost2010PropOp39
 70
     1
102
RTVSPost2010Prop40
 90
        0
102
RTVSPost2010PropOp40
 70
     1
102
RTVSPost2010Prop41ColorIndex
 90
       18
102
RTVSPost2010Prop41ColorRGB
 90
        0
102
RTVSPost2010PropOp41
 70
     1
102
RTVSPost2010Prop42
 90
       50
102
RTVSPost2010PropOp42
 70
     1
102
RTVSPost2010Prop43
 90
        3
102
RTVSPost2010PropOp43
 70
     1
102
RTVSPost2010Prop44ColorIndex
 90
        5
102
RTVSPost2010Prop44ColorRGB
 90
      255
102
RTVSPost2010PropOp44
 70
     1
102
RTVSPost2010Prop45
280
     0
102
RTVSPost2010PropOp45
 70
     1
102
RTVSPost2010Prop46
 90
       50
102
RTVSPost2010PropOp46
 70
     1
102
RTVSPost2010Prop47
 90
       50
102
RTVSPost2010PropOp47
 70
     1
102
RTVSPost2010Prop48
 90
       50
102
RTVSPost2010PropOp48
 70
     1
102
RTVSPost2010Prop49
280
     0
102
RTVSPost2010PropOp49
 70
     1
102
RTVSPost2010Prop50
 90
       50
102
RTVSPost2010PropOp50
 70
     1
102
RTVSPost2010Prop51ColorIndex
 90
      256
102
RTVSPost2010Prop51ColorRGB
 90
-16777216
102
RTVSPost2010PropOp51
 70
     0
102
RTVSPost2010Prop52
140
1.0
102
RTVSPost2010PropOp52
 70
     0
102
RTVSPost2010Prop53
 90
        2
102
RTVSPost2010PropOp53
 70
     1
102
RTVSPost2010Prop54
  1
strokes_ogs.tif
102
RTVSPost2010PropOp54
 70
     1
102
RTVSPost2010Prop55
280
     0
102
RTVSPost2010PropOp55
 70
     1
102
RTVSPost2010Prop56
140
1.0
102
RTVSPost2010PropOp56
 70
     1
102
RTVSPost2010Prop57
140
1.0
102
RTVSPost2010PropOp57
 70
     1
102
RTVSPropertyOp0
 70
     1
102
RTVSPropertyOp1
 70
     1
102
RTVSPropertyOp2
 70
     1
102
RTVSPropertyOp3
 70
     1
102
RTVSPropertyOp4
 70
     1
102
RTVSPropertyOp5
 70
     1
102
RTVSPropertyOp6
 70
     1
102
RTVSPropertyOp7
 70
     1
102
RTVSPropertyOp8
 70
     1
102
RTVSPropertyOp9
 70
     1
102
RTVSPropertyOp10
 70
     1
102
RTVSPropertyOp11
 70
     1
102
RTVSPropertyOp12
 70
     1
102
RTVSPropertyOp13
 70
     1
102
RTVSPropertyOp14
 70
     1
102
RTVSPropertyOp15
 70
     1
102
RTVSPropertyOp16
 70
     1
102
RTVSPropertyOp17
 70
     1
102
RTVSPropertyOp18
 70
     1
102
RTVSPropertyOp19
 70
     1
102
RTVSPropertyOp20
 70
     1
102
RTVSPropertyOp21
 70
     1
102
RTVSPropertyOp22
 70
     1
102
RTVSPropertyOp23
 70
     1
102
RTVSPropertyOp24
 70
     1
102
RTVSPropertyOp25
 70
     1
102
RTVSPropertyOp26
 70
     1
102
RTVSPropertyOp27
 70
     1
102
RTVSPropertyOp28
 70
     1
102
RTVSPropertyOp29
 70
     1
102
RTVSPropertyOp30
 70
     1
102
RTVSPropertyOp31
 70
     1
102
RTVSPropertyOp32
 70
     1
102
RTVSPropertyOp33
 70
     1
102
RTVSPropertyOp34
 70
     1
102
RTVSPropertyOp35
 70
     1
102
RTVSPropertyOp36
 70
     1
102
RTVSPropertyOp37
 70
     1
102
RTVSPropertyOp38
 70
     1
102
RTVSPropertyOp39
 70
     1
102
RTVSPropertyOp40
 70
     1
102
RTVSPropertyOp41
 70
     1
102
RTVSPropertyOp42
 70
     1
102
RTVSPropertyOp43
 70
     1
102
RTVSPropertyOp44
 70
     1
102
RTVSPropertyOp45
 70
     1
102
RTVSPropertyOp46
 70
     1
102
RTVSPropertyOp47
 70
     1
102
RTVSPropertyOp48
 70
     1
102
RTVSPropertyOp49
 70
     1
102
RTVSPropertyOp50
 70
     1
102
RTVSPropertyOp51
 70
     0
102
RTVSPropertyOp52
 70
     0
102
RTVSPropertyOp53
 70
     1
102
RTVSPropertyOp54
 70
     1
102
RTVSPropertyOp55
 70
     1
102
RTVSPropertyOp56
 70
     1
102
RTVSPropertyOp57
 70
     1
102
RTVSPropertyOp58
 70
     1
102
RTVSPropertyOp59
 70
     1
102
RTVSPropertyOp60
 70
     1
102
RTVSPropertyOp61
 70
     1
102
RTVSPropertyOp62
 70
     1
  0
XRECORD
  5
B4F9
102
{ACAD_REACTORS
330
B4F8
102
}
330
B4F8
100
AcDbXrecord
280
     1
102
RTVSPost2010Prop28
280
     0
102
RTVSPost2010PropOp28
 70
     1
102
RTVSPost2010Prop29
280
     1
102
RTVSPost2010PropOp29
 70
     1
102
RTVSPost2010Prop30
280
     1
102
RTVSPost2010PropOp30
 70
     1
102
RTVSPost2010Prop31
280
     0
102
RTVSPost2010PropOp31
 70
     1
102
RTVSPost2010Prop32
280
     0
102
RTVSPost2010PropOp32
 70
     1
102
RTVSPost2010Prop33
280
     0
102
RTVSPost2010PropOp33
 70
     1
102
RTVSPost2010Prop34
280
     0
102
RTVSPost2010PropOp34
 70
     1
102
RTVSPost2010Prop35
280
     0
102
RTVSPost2010PropOp35
 70
     1
102
RTVSPost2010Prop36
280
     0
102
RTVSPost2010PropOp36
 70
     1
102
RTVSPost2010Prop37
 90
       50
102
RTVSPost2010PropOp37
 70
     1
102
RTVSPost2010Prop38
140
0.0
102
RTVSPost2010PropOp38
 70
     1
102
RTVSPost2010Prop39
140
1.0
102
RTVSPost2010PropOp39
 70
     1
102
RTVSPost2010Prop40
 90
        0
102
RTVSPost2010PropOp40
 70
     1
102
RTVSPost2010Prop41ColorIndex
 90
       18
102
RTVSPost2010Prop41ColorRGB
 90
        0
102
RTVSPost2010PropOp41
 70
     1
102
RTVSPost2010Prop42
 90
       50
102
RTVSPost2010PropOp42
 70
     1
102
RTVSPost2010Prop43
 90
        3
102
RTVSPost2010PropOp43
 70
     1
102
RTVSPost2010Prop44ColorIndex
 90
        5
102
RTVSPost2010Prop44ColorRGB
 90
      255
102
RTVSPost2010PropOp44
 70
     1
102
RTVSPost2010Prop45
280
     0
102
RTVSPost2010PropOp45
 70
     1
102
RTVSPost2010Prop46
 90
       50
102
RTVSPost2010PropOp46
 70
     1
102
RTVSPost2010Prop47
 90
       50
102
RTVSPost2010PropOp47
 70
     1
102
RTVSPost2010Prop48
 90
       50
102
RTVSPost2010PropOp48
 70
     1
102
RTVSPost2010Prop49
280
     0
102
RTVSPost2010PropOp49
 70
     1
102
RTVSPost2010Prop50
 90
       50
102
RTVSPost2010PropOp50
 70
     1
102
RTVSPost2010Prop51ColorIndex
 90
      256
102
RTVSPost2010Prop51ColorRGB
 90
-16777216
102
RTVSPost2010PropOp51
 70
     0
102
RTVSPost2010Prop52
140
1.0
102
RTVSPost2010PropOp52
 70
     0
102
RTVSPost2010Prop53
 90
        2
102
RTVSPost2010PropOp53
 70
     1
102
RTVSPost2010Prop54
  1
strokes_ogs.tif
102
RTVSPost2010PropOp54
 70
     1
102
RTVSPost2010Prop55
280
     0
102
RTVSPost2010PropOp55
 70
     1
102
RTVSPost2010Prop56
140
1.0
102
RTVSPost2010PropOp56
 70
     1
102
RTVSPost2010Prop57
140
1.0
102
RTVSPost2010PropOp57
 70
     1
102
RTVSPropertyOp0
 70
     1
102
RTVSPropertyOp1
 70
     1
102
RTVSPropertyOp2
 70
     1
102
RTVSPropertyOp3
 70
     1
102
RTVSPropertyOp4
 70
     1
102
RTVSPropertyOp5
 70
     1
102
RTVSPropertyOp6
 70
     1
102
RTVSPropertyOp7
 70
     1
102
RTVSPropertyOp8
 70
     1
102
RTVSPropertyOp9
 70
     1
102
RTVSPropertyOp10
 70
     1
102
RTVSPropertyOp11
 70
     1
102
RTVSPropertyOp12
 70
     1
102
RTVSPropertyOp13
 70
     1
102
RTVSPropertyOp14
 70
     1
102
RTVSPropertyOp15
 70
     1
102
RTVSPropertyOp16
 70
     1
102
RTVSPropertyOp17
 70
     1
102
RTVSPropertyOp18
 70
     1
102
RTVSPropertyOp19
 70
     1
102
RTVSPropertyOp20
 70
     1
102
RTVSPropertyOp21
 70
     1
102
RTVSPropertyOp22
 70
     1
102
RTVSPropertyOp23
 70
     1
102
RTVSPropertyOp24
 70
     1
102
RTVSPropertyOp25
 70
     1
102
RTVSPropertyOp26
 70
     1
102
RTVSPropertyOp27
 70
     1
102
RTVSPropertyOp28
 70
     1
102
RTVSPropertyOp29
 70
     1
102
RTVSPropertyOp30
 70
     1
102
RTVSPropertyOp31
 70
     1
102
RTVSPropertyOp32
 70
     1
102
RTVSPropertyOp33
 70
     1
102
RTVSPropertyOp34
 70
     1
102
RTVSPropertyOp35
 70
     1
102
RTVSPropertyOp36
 70
     1
102
RTVSPropertyOp37
 70
     1
102
RTVSPropertyOp38
 70
     1
102
RTVSPropertyOp39
 70
     1
102
RTVSPropertyOp40
 70
     1
102
RTVSPropertyOp41
 70
     1
102
RTVSPropertyOp42
 70
     1
102
RTVSPropertyOp43
 70
     1
102
RTVSPropertyOp44
 70
     1
102
RTVSPropertyOp45
 70
     1
102
RTVSPropertyOp46
 70
     1
102
RTVSPropertyOp47
 70
     1
102
RTVSPropertyOp48
 70
     1
102
RTVSPropertyOp49
 70
     1
102
RTVSPropertyOp50
 70
     1
102
RTVSPropertyOp51
 70
     0
102
RTVSPropertyOp52
 70
     0
102
RTVSPropertyOp53
 70
     1
102
RTVSPropertyOp54
 70
     1
102
RTVSPropertyOp55
 70
     1
102
RTVSPropertyOp56
 70
     1
102
RTVSPropertyOp57
 70
     1
102
RTVSPropertyOp58
 70
     1
102
RTVSPropertyOp59
 70
     1
102
RTVSPropertyOp60
 70
     1
102
RTVSPropertyOp61
 70
     1
102
RTVSPropertyOp62
 70
     1
  0
XRECORD
  5
B501
102
{ACAD_REACTORS
330
B500
102
}
330
B500
100
AcDbXrecord
280
     1
102
RTVSPost2010Prop28
280
     0
102
RTVSPost2010PropOp28
 70
     1
102
RTVSPost2010Prop29
280
     1
102
RTVSPost2010PropOp29
 70
     1
102
RTVSPost2010Prop30
280
     1
102
RTVSPost2010PropOp30
 70
     1
102
RTVSPost2010Prop31
280
     0
102
RTVSPost2010PropOp31
 70
     1
102
RTVSPost2010Prop32
280
     0
102
RTVSPost2010PropOp32
 70
     1
102
RTVSPost2010Prop33
280
     0
102
RTVSPost2010PropOp33
 70
     1
102
RTVSPost2010Prop34
280
     0
102
RTVSPost2010PropOp34
 70
     1
102
RTVSPost2010Prop35
280
     0
102
RTVSPost2010PropOp35
 70
     1
102
RTVSPost2010Prop36
280
     0
102
RTVSPost2010PropOp36
 70
     1
102
RTVSPost2010Prop37
 90
       50
102
RTVSPost2010PropOp37
 70
     1
102
RTVSPost2010Prop38
140
0.0
102
RTVSPost2010PropOp38
 70
     1
102
RTVSPost2010Prop39
140
1.0
102
RTVSPost2010PropOp39
 70
     1
102
RTVSPost2010Prop40
 90
        0
102
RTVSPost2010PropOp40
 70
     1
102
RTVSPost2010Prop41ColorIndex
 90
       18
102
RTVSPost2010Prop41ColorRGB
 90
        0
102
RTVSPost2010PropOp41
 70
     1
102
RTVSPost2010Prop42
 90
       50
102
RTVSPost2010PropOp42
 70
     1
102
RTVSPost2010Prop43
 90
        3
102
RTVSPost2010PropOp43
 70
     1
102
RTVSPost2010Prop44ColorIndex
 90
        5
102
RTVSPost2010Prop44ColorRGB
 90
      255
102
RTVSPost2010PropOp44
 70
     1
102
RTVSPost2010Prop45
280
     0
102
RTVSPost2010PropOp45
 70
     1
102
RTVSPost2010Prop46
 90
       50
102
RTVSPost2010PropOp46
 70
     1
102
RTVSPost2010Prop47
 90
       50
102
RTVSPost2010PropOp47
 70
     1
102
RTVSPost2010Prop48
 90
       50
102
RTVSPost2010PropOp48
 70
     1
102
RTVSPost2010Prop49
280
     0
102
RTVSPost2010PropOp49
 70
     1
102
RTVSPost2010Prop50
 90
       50
102
RTVSPost2010PropOp50
 70
     1
102
RTVSPost2010Prop51ColorIndex
 90
      256
102
RTVSPost2010Prop51ColorRGB
 90
-16777216
102
RTVSPost2010PropOp51
 70
     0
102
RTVSPost2010Prop52
140
1.0
102
RTVSPost2010PropOp52
 70
     0
102
RTVSPost2010Prop53
 90
        2
102
RTVSPost2010PropOp53
 70
     1
102
RTVSPost2010Prop54
  1
strokes_ogs.tif
102
RTVSPost2010PropOp54
 70
     1
102
RTVSPost2010Prop55
280
     0
102
RTVSPost2010PropOp55
 70
     1
102
RTVSPost2010Prop56
140
1.0
102
RTVSPost2010PropOp56
 70
     1
102
RTVSPost2010Prop57
140
1.0
102
RTVSPost2010PropOp57
 70
     1
102
RTVSPropertyOp0
 70
     1
102
RTVSPropertyOp1
 70
     1
102
RTVSPropertyOp2
 70
     1
102
RTVSPropertyOp3
 70
     1
102
RTVSPropertyOp4
 70
     1
102
RTVSPropertyOp5
 70
     1
102
RTVSPropertyOp6
 70
     1
102
RTVSPropertyOp7
 70
     1
102
RTVSPropertyOp8
 70
     1
102
RTVSPropertyOp9
 70
     1
102
RTVSPropertyOp10
 70
     1
102
RTVSPropertyOp11
 70
     1
102
RTVSPropertyOp12
 70
     1
102
RTVSPropertyOp13
 70
     1
102
RTVSPropertyOp14
 70
     1
102
RTVSPropertyOp15
 70
     1
102
RTVSPropertyOp16
 70
     1
102
RTVSPropertyOp17
 70
     1
102
RTVSPropertyOp18
 70
     1
102
RTVSPropertyOp19
 70
     1
102
RTVSPropertyOp20
 70
     1
102
RTVSPropertyOp21
 70
     1
102
RTVSPropertyOp22
 70
     1
102
RTVSPropertyOp23
 70
     1
102
RTVSPropertyOp24
 70
     1
102
RTVSPropertyOp25
 70
     1
102
RTVSPropertyOp26
 70
     1
102
RTVSPropertyOp27
 70
     1
102
RTVSPropertyOp28
 70
     1
102
RTVSPropertyOp29
 70
     1
102
RTVSPropertyOp30
 70
     1
102
RTVSPropertyOp31
 70
     1
102
RTVSPropertyOp32
 70
     1
102
RTVSPropertyOp33
 70
     1
102
RTVSPropertyOp34
 70
     1
102
RTVSPropertyOp35
 70
     1
102
RTVSPropertyOp36
 70
     1
102
RTVSPropertyOp37
 70
     1
102
RTVSPropertyOp38
 70
     1
102
RTVSPropertyOp39
 70
     1
102
RTVSPropertyOp40
 70
     1
102
RTVSPropertyOp41
 70
     1
102
RTVSPropertyOp42
 70
     1
102
RTVSPropertyOp43
 70
     1
102
RTVSPropertyOp44
 70
     1
102
RTVSPropertyOp45
 70
     1
102
RTVSPropertyOp46
 70
     1
102
RTVSPropertyOp47
 70
     1
102
RTVSPropertyOp48
 70
     1
102
RTVSPropertyOp49
 70
     1
102
RTVSPropertyOp50
 70
     1
102
RTVSPropertyOp51
 70
     0
102
RTVSPropertyOp52
 70
     0
102
RTVSPropertyOp53
 70
     1
102
RTVSPropertyOp54
 70
     1
102
RTVSPropertyOp55
 70
     1
102
RTVSPropertyOp56
 70
     1
102
RTVSPropertyOp57
 70
     1
102
RTVSPropertyOp58
 70
     1
102
RTVSPropertyOp59
 70
     1
102
RTVSPropertyOp60
 70
     1
102
RTVSPropertyOp61
 70
     1
102
RTVSPropertyOp62
 70
     1
  0
XRECORD
  5
B51D
102
{ACAD_REACTORS
330
B51C
102
}
330
B51C
100
AcDbXrecord
280
     1
102
RTVSPost2010Prop28
280
     0
102
RTVSPost2010PropOp28
 70
     1
102
RTVSPost2010Prop29
280
     1
102
RTVSPost2010PropOp29
 70
     1
102
RTVSPost2010Prop30
280
     1
102
RTVSPost2010PropOp30
 70
     1
102
RTVSPost2010Prop31
280
     0
102
RTVSPost2010PropOp31
 70
     1
102
RTVSPost2010Prop32
280
     0
102
RTVSPost2010PropOp32
 70
     1
102
RTVSPost2010Prop33
280
     0
102
RTVSPost2010PropOp33
 70
     1
102
RTVSPost2010Prop34
280
     0
102
RTVSPost2010PropOp34
 70
     1
102
RTVSPost2010Prop35
280
     0
102
RTVSPost2010PropOp35
 70
     1
102
RTVSPost2010Prop36
280
     0
102
RTVSPost2010PropOp36
 70
     1
102
RTVSPost2010Prop37
 90
       50
102
RTVSPost2010PropOp37
 70
     0
102
RTVSPost2010Prop38
140
0.0
102
RTVSPost2010PropOp38
 70
     0
102
RTVSPost2010Prop39
140
1.0
102
RTVSPost2010PropOp39
 70
     0
102
RTVSPost2010Prop40
 90
        0
102
RTVSPost2010PropOp40
 70
     0
102
RTVSPost2010Prop41ColorIndex
 90
       18
102
RTVSPost2010Prop41ColorRGB
 90
        0
102
RTVSPost2010PropOp41
 70
     0
102
RTVSPost2010Prop42
 90
       50
102
RTVSPost2010PropOp42
 70
     0
102
RTVSPost2010Prop43
 90
        3
102
RTVSPost2010PropOp43
 70
     0
102
RTVSPost2010Prop44ColorIndex
 90
        5
102
RTVSPost2010Prop44ColorRGB
 90
      255
102
RTVSPost2010PropOp44
 70
     0
102
RTVSPost2010Prop45
280
     0
102
RTVSPost2010PropOp45
 70
     1
102
RTVSPost2010Prop46
 90
       50
102
RTVSPost2010PropOp46
 70
     0
102
RTVSPost2010Prop47
 90
       50
102
RTVSPost2010PropOp47
 70
     0
102
RTVSPost2010Prop48
 90
       50
102
RTVSPost2010PropOp48
 70
     0
102
RTVSPost2010Prop49
280
     0
102
RTVSPost2010PropOp49
 70
     1
102
RTVSPost2010Prop50
 90
       50
102
RTVSPost2010PropOp50
 70
     0
102
RTVSPost2010Prop51ColorIndex
 90
      256
102
RTVSPost2010Prop51ColorRGB
 90
-16777216
102
RTVSPost2010PropOp51
 70
     0
102
RTVSPost2010Prop52
140
1.0
102
RTVSPost2010PropOp52
 70
     0
102
RTVSPost2010Prop53
 90
        2
102
RTVSPost2010PropOp53
 70
     0
102
RTVSPost2010Prop54
  1
strokes_ogs.tif
102
RTVSPost2010PropOp54
 70
     0
102
RTVSPost2010Prop55
280
     0
102
RTVSPost2010PropOp55
 70
     1
102
RTVSPost2010Prop56
140
1.0
102
RTVSPost2010PropOp56
 70
     0
102
RTVSPost2010Prop57
140
1.0
102
RTVSPost2010PropOp57
 70
     0
102
RTVSPropertyOp0
 70
     0
102
RTVSPropertyOp1
 70
     0
102
RTVSPropertyOp2
 70
     0
102
RTVSPropertyOp3
 70
     0
102
RTVSPropertyOp4
 70
     0
102
RTVSPropertyOp5
 70
     0
102
RTVSPropertyOp6
 70
     0
102
RTVSPropertyOp7
 70
     0
102
RTVSPropertyOp8
 70
     0
102
RTVSPropertyOp9
 70
     0
102
RTVSPropertyOp10
 70
     0
102
RTVSPropertyOp11
 70
     0
102
RTVSPropertyOp12
 70
     0
102
RTVSPropertyOp13
 70
     0
102
RTVSPropertyOp14
 70
     2
102
RTVSPropertyOp15
 70
     0
102
RTVSPropertyOp16
 70
     0
102
RTVSPropertyOp17
 70
     0
102
RTVSPropertyOp18
 70
     0
102
RTVSPropertyOp19
 70
     0
102
RTVSPropertyOp20
 70
     0
102
RTVSPropertyOp21
 70
     0
102
RTVSPropertyOp22
 70
     0
102
RTVSPropertyOp23
 70
     0
102
RTVSPropertyOp24
 70
     0
102
RTVSPropertyOp25
 70
     0
102
RTVSPropertyOp26
 70
     0
102
RTVSPropertyOp27
 70
     0
102
RTVSPropertyOp28
 70
     1
102
RTVSPropertyOp29
 70
     1
102
RTVSPropertyOp30
 70
     1
102
RTVSPropertyOp31
 70
     1
102
RTVSPropertyOp32
 70
     1
102
RTVSPropertyOp33
 70
     1
102
RTVSPropertyOp34
 70
     1
102
RTVSPropertyOp35
 70
     1
102
RTVSPropertyOp36
 70
     1
102
RTVSPropertyOp37
 70
     0
102
RTVSPropertyOp38
 70
     0
102
RTVSPropertyOp39
 70
     0
102
RTVSPropertyOp40
 70
     0
102
RTVSPropertyOp41
 70
     0
102
RTVSPropertyOp42
 70
     0
102
RTVSPropertyOp43
 70
     0
102
RTVSPropertyOp44
 70
     0
102
RTVSPropertyOp45
 70
     1
102
RTVSPropertyOp46
 70
     0
102
RTVSPropertyOp47
 70
     0
102
RTVSPropertyOp48
 70
     0
102
RTVSPropertyOp49
 70
     1
102
RTVSPropertyOp50
 70
     0
102
RTVSPropertyOp51
 70
     0
102
RTVSPropertyOp52
 70
     0
102
RTVSPropertyOp53
 70
     0
102
RTVSPropertyOp54
 70
     0
102
RTVSPropertyOp55
 70
     1
102
RTVSPropertyOp56
 70
     0
102
RTVSPropertyOp57
 70
     0
102
RTVSPropertyOp58
 70
     0
102
RTVSPropertyOp59
 70
     0
102
RTVSPropertyOp60
 70
     0
102
RTVSPropertyOp61
 70
     0
102
RTVSPropertyOp62
 70
     0
  0
XRECORD
  5
B50D
102
{ACAD_REACTORS
330
B50C
102
}
330
B50C
100
AcDbXrecord
280
     1
102
RTVSPost2010Prop28
280
     0
102
RTVSPost2010PropOp28
 70
     1
102
RTVSPost2010Prop29
280
     1
102
RTVSPost2010PropOp29
 70
     1
102
RTVSPost2010Prop30
280
     1
102
RTVSPost2010PropOp30
 70
     1
102
RTVSPost2010Prop31
280
     0
102
RTVSPost2010PropOp31
 70
     1
102
RTVSPost2010Prop32
280
     0
102
RTVSPost2010PropOp32
 70
     1
102
RTVSPost2010Prop33
280
     0
102
RTVSPost2010PropOp33
 70
     1
102
RTVSPost2010Prop34
280
     0
102
RTVSPost2010PropOp34
 70
     1
102
RTVSPost2010Prop35
280
     0
102
RTVSPost2010PropOp35
 70
     1
102
RTVSPost2010Prop36
280
     0
102
RTVSPost2010PropOp36
 70
     1
102
RTVSPost2010Prop37
 90
       50
102
RTVSPost2010PropOp37
 70
     1
102
RTVSPost2010Prop38
140
0.0
102
RTVSPost2010PropOp38
 70
     1
102
RTVSPost2010Prop39
140
1.0
102
RTVSPost2010PropOp39
 70
     1
102
RTVSPost2010Prop40
 90
        0
102
RTVSPost2010PropOp40
 70
     1
102
RTVSPost2010Prop41ColorIndex
 90
       18
102
RTVSPost2010Prop41ColorRGB
 90
        0
102
RTVSPost2010PropOp41
 70
     1
102
RTVSPost2010Prop42
 90
       50
102
RTVSPost2010PropOp42
 70
     1
102
RTVSPost2010Prop43
 90
        3
102
RTVSPost2010PropOp43
 70
     1
102
RTVSPost2010Prop44ColorIndex
 90
        5
102
RTVSPost2010Prop44ColorRGB
 90
      255
102
RTVSPost2010PropOp44
 70
     1
102
RTVSPost2010Prop45
280
     0
102
RTVSPost2010PropOp45
 70
     1
102
RTVSPost2010Prop46
 90
       50
102
RTVSPost2010PropOp46
 70
     1
102
RTVSPost2010Prop47
 90
       50
102
RTVSPost2010PropOp47
 70
     1
102
RTVSPost2010Prop48
 90
       50
102
RTVSPost2010PropOp48
 70
     1
102
RTVSPost2010Prop49
280
     0
102
RTVSPost2010PropOp49
 70
     1
102
RTVSPost2010Prop50
 90
       50
102
RTVSPost2010PropOp50
 70
     1
102
RTVSPost2010Prop51ColorIndex
 90
      256
102
RTVSPost2010Prop51ColorRGB
 90
-16777216
102
RTVSPost2010PropOp51
 70
     0
102
RTVSPost2010Prop52
140
1.0
102
RTVSPost2010PropOp52
 70
     0
102
RTVSPost2010Prop53
 90
        2
102
RTVSPost2010PropOp53
 70
     1
102
RTVSPost2010Prop54
  1
strokes_ogs.tif
102
RTVSPost2010PropOp54
 70
     1
102
RTVSPost2010Prop55
280
     0
102
RTVSPost2010PropOp55
 70
     1
102
RTVSPost2010Prop56
140
1.0
102
RTVSPost2010PropOp56
 70
     1
102
RTVSPost2010Prop57
140
1.0
102
RTVSPost2010PropOp57
 70
     1
102
RTVSPropertyOp0
 70
     1
102
RTVSPropertyOp1
 70
     1
102
RTVSPropertyOp2
 70
     1
102
RTVSPropertyOp3
 70
     1
102
RTVSPropertyOp4
 70
     1
102
RTVSPropertyOp5
 70
     1
102
RTVSPropertyOp6
 70
     1
102
RTVSPropertyOp7
 70
     1
102
RTVSPropertyOp8
 70
     1
102
RTVSPropertyOp9
 70
     1
102
RTVSPropertyOp10
 70
     1
102
RTVSPropertyOp11
 70
     1
102
RTVSPropertyOp12
 70
     1
102
RTVSPropertyOp13
 70
     1
102
RTVSPropertyOp14
 70
     1
102
RTVSPropertyOp15
 70
     1
102
RTVSPropertyOp16
 70
     1
102
RTVSPropertyOp17
 70
     1
102
RTVSPropertyOp18
 70
     1
102
RTVSPropertyOp19
 70
     1
102
RTVSPropertyOp20
 70
     1
102
RTVSPropertyOp21
 70
     1
102
RTVSPropertyOp22
 70
     1
102
RTVSPropertyOp23
 70
     1
102
RTVSPropertyOp24
 70
     1
102
RTVSPropertyOp25
 70
     1
102
RTVSPropertyOp26
 70
     1
102
RTVSPropertyOp27
 70
     1
102
RTVSPropertyOp28
 70
     1
102
RTVSPropertyOp29
 70
     1
102
RTVSPropertyOp30
 70
     1
102
RTVSPropertyOp31
 70
     1
102
RTVSPropertyOp32
 70
     1
102
RTVSPropertyOp33
 70
     1
102
RTVSPropertyOp34
 70
     1
102
RTVSPropertyOp35
 70
     1
102
RTVSPropertyOp36
 70
     1
102
RTVSPropertyOp37
 70
     1
102
RTVSPropertyOp38
 70
     1
102
RTVSPropertyOp39
 70
     1
102
RTVSPropertyOp40
 70
     1
102
RTVSPropertyOp41
 70
     1
102
RTVSPropertyOp42
 70
     1
102
RTVSPropertyOp43
 70
     1
102
RTVSPropertyOp44
 70
     1
102
RTVSPropertyOp45
 70
     1
102
RTVSPropertyOp46
 70
     1
102
RTVSPropertyOp47
 70
     1
102
RTVSPropertyOp48
 70
     1
102
RTVSPropertyOp49
 70
     1
102
RTVSPropertyOp50
 70
     1
102
RTVSPropertyOp51
 70
     0
102
RTVSPropertyOp52
 70
     0
102
RTVSPropertyOp53
 70
     1
102
RTVSPropertyOp54
 70
     1
102
RTVSPropertyOp55
 70
     1
102
RTVSPropertyOp56
 70
     1
102
RTVSPropertyOp57
 70
     1
102
RTVSPropertyOp58
 70
     1
102
RTVSPropertyOp59
 70
     1
102
RTVSPropertyOp60
 70
     1
102
RTVSPropertyOp61
 70
     1
102
RTVSPropertyOp62
 70
     1
  0
XRECORD
  5
B51F
102
{ACAD_REACTORS
330
B51E
102
}
330
B51E
100
AcDbXrecord
280
     1
102
RTVSPost2010Prop28
280
     0
102
RTVSPost2010PropOp28
 70
     1
102
RTVSPost2010Prop29
280
     1
102
RTVSPost2010PropOp29
 70
     1
102
RTVSPost2010Prop30
280
     1
102
RTVSPost2010PropOp30
 70
     1
102
RTVSPost2010Prop31
280
     0
102
RTVSPost2010PropOp31
 70
     1
102
RTVSPost2010Prop32
280
     0
102
RTVSPost2010PropOp32
 70
     1
102
RTVSPost2010Prop33
280
     0
102
RTVSPost2010PropOp33
 70
     1
102
RTVSPost2010Prop34
280
     0
102
RTVSPost2010PropOp34
 70
     1
102
RTVSPost2010Prop35
280
     0
102
RTVSPost2010PropOp35
 70
     1
102
RTVSPost2010Prop36
280
     0
102
RTVSPost2010PropOp36
 70
     1
102
RTVSPost2010Prop37
 90
       50
102
RTVSPost2010PropOp37
 70
     0
102
RTVSPost2010Prop38
140
0.0
102
RTVSPost2010PropOp38
 70
     0
102
RTVSPost2010Prop39
140
1.0
102
RTVSPost2010PropOp39
 70
     0
102
RTVSPost2010Prop40
 90
        0
102
RTVSPost2010PropOp40
 70
     0
102
RTVSPost2010Prop41ColorIndex
 90
       18
102
RTVSPost2010Prop41ColorRGB
 90
        0
102
RTVSPost2010PropOp41
 70
     0
102
RTVSPost2010Prop42
 90
       50
102
RTVSPost2010PropOp42
 70
     0
102
RTVSPost2010Prop43
 90
        3
102
RTVSPost2010PropOp43
 70
     0
102
RTVSPost2010Prop44ColorIndex
 90
        5
102
RTVSPost2010Prop44ColorRGB
 90
      255
102
RTVSPost2010PropOp44
 70
     0
102
RTVSPost2010Prop45
280
     0
102
RTVSPost2010PropOp45
 70
     1
102
RTVSPost2010Prop46
 90
       50
102
RTVSPost2010PropOp46
 70
     0
102
RTVSPost2010Prop47
 90
       50
102
RTVSPost2010PropOp47
 70
     0
102
RTVSPost2010Prop48
 90
       50
102
RTVSPost2010PropOp48
 70
     0
102
RTVSPost2010Prop49
280
     0
102
RTVSPost2010PropOp49
 70
     1
102
RTVSPost2010Prop50
 90
       50
102
RTVSPost2010PropOp50
 70
     0
102
RTVSPost2010Prop51ColorIndex
 90
      256
102
RTVSPost2010Prop51ColorRGB
 90
-16777216
102
RTVSPost2010PropOp51
 70
     0
102
RTVSPost2010Prop52
140
1.0
102
RTVSPost2010PropOp52
 70
     0
102
RTVSPost2010Prop53
 90
        2
102
RTVSPost2010PropOp53
 70
     0
102
RTVSPost2010Prop54
  1
strokes_ogs.tif
102
RTVSPost2010PropOp54
 70
     0
102
RTVSPost2010Prop55
280
     0
102
RTVSPost2010PropOp55
 70
     1
102
RTVSPost2010Prop56
140
1.0
102
RTVSPost2010PropOp56
 70
     0
102
RTVSPost2010Prop57
140
1.0
102
RTVSPost2010PropOp57
 70
     0
102
RTVSPropertyOp0
 70
     0
102
RTVSPropertyOp1
 70
     0
102
RTVSPropertyOp2
 70
     0
102
RTVSPropertyOp3
 70
     0
102
RTVSPropertyOp4
 70
     0
102
RTVSPropertyOp5
 70
     0
102
RTVSPropertyOp6
 70
     0
102
RTVSPropertyOp7
 70
     0
102
RTVSPropertyOp8
 70
     0
102
RTVSPropertyOp9
 70
     0
102
RTVSPropertyOp10
 70
     0
102
RTVSPropertyOp11
 70
     0
102
RTVSPropertyOp12
 70
     0
102
RTVSPropertyOp13
 70
     0
102
RTVSPropertyOp14
 70
     2
102
RTVSPropertyOp15
 70
     0
102
RTVSPropertyOp16
 70
     0
102
RTVSPropertyOp17
 70
     0
102
RTVSPropertyOp18
 70
     0
102
RTVSPropertyOp19
 70
     0
102
RTVSPropertyOp20
 70
     0
102
RTVSPropertyOp21
 70
     0
102
RTVSPropertyOp22
 70
     0
102
RTVSPropertyOp23
 70
     0
102
RTVSPropertyOp24
 70
     0
102
RTVSPropertyOp25
 70
     0
102
RTVSPropertyOp26
 70
     0
102
RTVSPropertyOp27
 70
     0
102
RTVSPropertyOp28
 70
     1
102
RTVSPropertyOp29
 70
     1
102
RTVSPropertyOp30
 70
     1
102
RTVSPropertyOp31
 70
     1
102
RTVSPropertyOp32
 70
     1
102
RTVSPropertyOp33
 70
     1
102
RTVSPropertyOp34
 70
     1
102
RTVSPropertyOp35
 70
     1
102
RTVSPropertyOp36
 70
     1
102
RTVSPropertyOp37
 70
     0
102
RTVSPropertyOp38
 70
     0
102
RTVSPropertyOp39
 70
     0
102
RTVSPropertyOp40
 70
     0
102
RTVSPropertyOp41
 70
     0
102
RTVSPropertyOp42
 70
     0
102
RTVSPropertyOp43
 70
     0
102
RTVSPropertyOp44
 70
     0
102
RTVSPropertyOp45
 70
     1
102
RTVSPropertyOp46
 70
     0
102
RTVSPropertyOp47
 70
     0
102
RTVSPropertyOp48
 70
     0
102
RTVSPropertyOp49
 70
     1
102
RTVSPropertyOp50
 70
     0
102
RTVSPropertyOp51
 70
     0
102
RTVSPropertyOp52
 70
     0
102
RTVSPropertyOp53
 70
     0
102
RTVSPropertyOp54
 70
     0
102
RTVSPropertyOp55
 70
     1
102
RTVSPropertyOp56
 70
     0
102
RTVSPropertyOp57
 70
     0
102
RTVSPropertyOp58
 70
     0
102
RTVSPropertyOp59
 70
     0
102
RTVSPropertyOp60
 70
     0
102
RTVSPropertyOp61
 70
     0
102
RTVSPropertyOp62
 70
     0
  0
XRECORD
  5
B505
102
{ACAD_REACTORS
330
B504
102
}
330
B504
100
AcDbXrecord
280
     1
102
RTVSPost2010Prop28
280
     0
102
RTVSPost2010PropOp28
 70
     1
102
RTVSPost2010Prop29
280
     1
102
RTVSPost2010PropOp29
 70
     1
102
RTVSPost2010Prop30
280
     1
102
RTVSPost2010PropOp30
 70
     1
102
RTVSPost2010Prop31
280
     0
102
RTVSPost2010PropOp31
 70
     1
102
RTVSPost2010Prop32
280
     0
102
RTVSPost2010PropOp32
 70
     1
102
RTVSPost2010Prop33
280
     0
102
RTVSPost2010PropOp33
 70
     1
102
RTVSPost2010Prop34
280
     0
102
RTVSPost2010PropOp34
 70
     1
102
RTVSPost2010Prop35
280
     0
102
RTVSPost2010PropOp35
 70
     1
102
RTVSPost2010Prop36
280
     0
102
RTVSPost2010PropOp36
 70
     1
102
RTVSPost2010Prop37
 90
       50
102
RTVSPost2010PropOp37
 70
     1
102
RTVSPost2010Prop38
140
0.0
102
RTVSPost2010PropOp38
 70
     1
102
RTVSPost2010Prop39
140
1.0
102
RTVSPost2010PropOp39
 70
     1
102
RTVSPost2010Prop40
 90
        0
102
RTVSPost2010PropOp40
 70
     1
102
RTVSPost2010Prop41ColorIndex
 90
       18
102
RTVSPost2010Prop41ColorRGB
 90
        0
102
RTVSPost2010PropOp41
 70
     1
102
RTVSPost2010Prop42
 90
       50
102
RTVSPost2010PropOp42
 70
     1
102
RTVSPost2010Prop43
 90
        3
102
RTVSPost2010PropOp43
 70
     1
102
RTVSPost2010Prop44ColorIndex
 90
        5
102
RTVSPost2010Prop44ColorRGB
 90
      255
102
RTVSPost2010PropOp44
 70
     1
102
RTVSPost2010Prop45
280
     0
102
RTVSPost2010PropOp45
 70
     1
102
RTVSPost2010Prop46
 90
       50
102
RTVSPost2010PropOp46
 70
     1
102
RTVSPost2010Prop47
 90
       50
102
RTVSPost2010PropOp47
 70
     1
102
RTVSPost2010Prop48
 90
       50
102
RTVSPost2010PropOp48
 70
     1
102
RTVSPost2010Prop49
280
     0
102
RTVSPost2010PropOp49
 70
     1
102
RTVSPost2010Prop50
 90
       50
102
RTVSPost2010PropOp50
 70
     1
102
RTVSPost2010Prop51ColorIndex
 90
      256
102
RTVSPost2010Prop51ColorRGB
 90
-16777216
102
RTVSPost2010PropOp51
 70
     0
102
RTVSPost2010Prop52
140
1.0
102
RTVSPost2010PropOp52
 70
     0
102
RTVSPost2010Prop53
 90
        2
102
RTVSPost2010PropOp53
 70
     1
102
RTVSPost2010Prop54
  1
strokes_ogs.tif
102
RTVSPost2010PropOp54
 70
     1
102
RTVSPost2010Prop55
280
     0
102
RTVSPost2010PropOp55
 70
     1
102
RTVSPost2010Prop56
140
1.0
102
RTVSPost2010PropOp56
 70
     1
102
RTVSPost2010Prop57
140
1.0
102
RTVSPost2010PropOp57
 70
     1
102
RTVSPropertyOp0
 70
     1
102
RTVSPropertyOp1
 70
     1
102
RTVSPropertyOp2
 70
     1
102
RTVSPropertyOp3
 70
     1
102
RTVSPropertyOp4
 70
     1
102
RTVSPropertyOp5
 70
     1
102
RTVSPropertyOp6
 70
     1
102
RTVSPropertyOp7
 70
     1
102
RTVSPropertyOp8
 70
     1
102
RTVSPropertyOp9
 70
     1
102
RTVSPropertyOp10
 70
     1
102
RTVSPropertyOp11
 70
     1
102
RTVSPropertyOp12
 70
     1
102
RTVSPropertyOp13
 70
     1
102
RTVSPropertyOp14
 70
     1
102
RTVSPropertyOp15
 70
     1
102
RTVSPropertyOp16
 70
     1
102
RTVSPropertyOp17
 70
     1
102
RTVSPropertyOp18
 70
     1
102
RTVSPropertyOp19
 70
     1
102
RTVSPropertyOp20
 70
     1
102
RTVSPropertyOp21
 70
     1
102
RTVSPropertyOp22
 70
     1
102
RTVSPropertyOp23
 70
     1
102
RTVSPropertyOp24
 70
     1
102
RTVSPropertyOp25
 70
     1
102
RTVSPropertyOp26
 70
     1
102
RTVSPropertyOp27
 70
     1
102
RTVSPropertyOp28
 70
     1
102
RTVSPropertyOp29
 70
     1
102
RTVSPropertyOp30
 70
     1
102
RTVSPropertyOp31
 70
     1
102
RTVSPropertyOp32
 70
     1
102
RTVSPropertyOp33
 70
     1
102
RTVSPropertyOp34
 70
     1
102
RTVSPropertyOp35
 70
     1
102
RTVSPropertyOp36
 70
     1
102
RTVSPropertyOp37
 70
     1
102
RTVSPropertyOp38
 70
     1
102
RTVSPropertyOp39
 70
     1
102
RTVSPropertyOp40
 70
     1
102
RTVSPropertyOp41
 70
     1
102
RTVSPropertyOp42
 70
     1
102
RTVSPropertyOp43
 70
     1
102
RTVSPropertyOp44
 70
     1
102
RTVSPropertyOp45
 70
     1
102
RTVSPropertyOp46
 70
     1
102
RTVSPropertyOp47
 70
     1
102
RTVSPropertyOp48
 70
     1
102
RTVSPropertyOp49
 70
     1
102
RTVSPropertyOp50
 70
     1
102
RTVSPropertyOp51
 70
     0
102
RTVSPropertyOp52
 70
     0
102
RTVSPropertyOp53
 70
     1
102
RTVSPropertyOp54
 70
     1
102
RTVSPropertyOp55
 70
     1
102
RTVSPropertyOp56
 70
     1
102
RTVSPropertyOp57
 70
     1
102
RTVSPropertyOp58
 70
     1
102
RTVSPropertyOp59
 70
     1
102
RTVSPropertyOp60
 70
     1
102
RTVSPropertyOp61
 70
     1
102
RTVSPropertyOp62
 70
     1
  0
XRECORD
  5
B51B
102
{ACAD_REACTORS
330
B51A
102
}
330
B51A
100
AcDbXrecord
280
     1
102
RTVSPost2010Prop28
280
     0
102
RTVSPost2010PropOp28
 70
     1
102
RTVSPost2010Prop29
280
     1
102
RTVSPost2010PropOp29
 70
     1
102
RTVSPost2010Prop30
280
     1
102
RTVSPost2010PropOp30
 70
     1
102
RTVSPost2010Prop31
280
     0
102
RTVSPost2010PropOp31
 70
     1
102
RTVSPost2010Prop32
280
     0
102
RTVSPost2010PropOp32
 70
     1
102
RTVSPost2010Prop33
280
     0
102
RTVSPost2010PropOp33
 70
     1
102
RTVSPost2010Prop34
280
     0
102
RTVSPost2010PropOp34
 70
     1
102
RTVSPost2010Prop35
280
     0
102
RTVSPost2010PropOp35
 70
     1
102
RTVSPost2010Prop36
280
     0
102
RTVSPost2010PropOp36
 70
     1
102
RTVSPost2010Prop37
 90
       50
102
RTVSPost2010PropOp37
 70
     1
102
RTVSPost2010Prop38
140
0.0
102
RTVSPost2010PropOp38
 70
     1
102
RTVSPost2010Prop39
140
1.0
102
RTVSPost2010PropOp39
 70
     1
102
RTVSPost2010Prop40
 90
        0
102
RTVSPost2010PropOp40
 70
     1
102
RTVSPost2010Prop41ColorIndex
 90
       18
102
RTVSPost2010Prop41ColorRGB
 90
        0
102
RTVSPost2010PropOp41
 70
     1
102
RTVSPost2010Prop42
 90
       50
102
RTVSPost2010PropOp42
 70
     1
102
RTVSPost2010Prop43
 90
        3
102
RTVSPost2010PropOp43
 70
     1
102
RTVSPost2010Prop44ColorIndex
 90
        5
102
RTVSPost2010Prop44ColorRGB
 90
      255
102
RTVSPost2010PropOp44
 70
     1
102
RTVSPost2010Prop45
280
     0
102
RTVSPost2010PropOp45
 70
     1
102
RTVSPost2010Prop46
 90
       50
102
RTVSPost2010PropOp46
 70
     1
102
RTVSPost2010Prop47
 90
       50
102
RTVSPost2010PropOp47
 70
     1
102
RTVSPost2010Prop48
 90
       50
102
RTVSPost2010PropOp48
 70
     1
102
RTVSPost2010Prop49
280
     0
102
RTVSPost2010PropOp49
 70
     1
102
RTVSPost2010Prop50
 90
       50
102
RTVSPost2010PropOp50
 70
     1
102
RTVSPost2010Prop51ColorIndex
 90
      256
102
RTVSPost2010Prop51ColorRGB
 90
-16777216
102
RTVSPost2010PropOp51
 70
     0
102
RTVSPost2010Prop52
140
1.0
102
RTVSPost2010PropOp52
 70
     0
102
RTVSPost2010Prop53
 90
        2
102
RTVSPost2010PropOp53
 70
     1
102
RTVSPost2010Prop54
  1
strokes_ogs.tif
102
RTVSPost2010PropOp54
 70
     1
102
RTVSPost2010Prop55
280
     0
102
RTVSPost2010PropOp55
 70
     1
102
RTVSPost2010Prop56
140
1.0
102
RTVSPost2010PropOp56
 70
     1
102
RTVSPost2010Prop57
140
1.0
102
RTVSPost2010PropOp57
 70
     1
102
RTVSPropertyOp0
 70
     1
102
RTVSPropertyOp1
 70
     1
102
RTVSPropertyOp2
 70
     1
102
RTVSPropertyOp3
 70
     1
102
RTVSPropertyOp4
 70
     1
102
RTVSPropertyOp5
 70
     1
102
RTVSPropertyOp6
 70
     1
102
RTVSPropertyOp7
 70
     1
102
RTVSPropertyOp8
 70
     1
102
RTVSPropertyOp9
 70
     1
102
RTVSPropertyOp10
 70
     1
102
RTVSPropertyOp11
 70
     1
102
RTVSPropertyOp12
 70
     1
102
RTVSPropertyOp13
 70
     1
102
RTVSPropertyOp14
 70
     1
102
RTVSPropertyOp15
 70
     1
102
RTVSPropertyOp16
 70
     1
102
RTVSPropertyOp17
 70
     1
102
RTVSPropertyOp18
 70
     1
102
RTVSPropertyOp19
 70
     1
102
RTVSPropertyOp20
 70
     1
102
RTVSPropertyOp21
 70
     1
102
RTVSPropertyOp22
 70
     1
102
RTVSPropertyOp23
 70
     1
102
RTVSPropertyOp24
 70
     1
102
RTVSPropertyOp25
 70
     1
102
RTVSPropertyOp26
 70
     1
102
RTVSPropertyOp27
 70
     1
102
RTVSPropertyOp28
 70
     1
102
RTVSPropertyOp29
 70
     1
102
RTVSPropertyOp30
 70
     1
102
RTVSPropertyOp31
 70
     1
102
RTVSPropertyOp32
 70
     1
102
RTVSPropertyOp33
 70
     1
102
RTVSPropertyOp34
 70
     1
102
RTVSPropertyOp35
 70
     1
102
RTVSPropertyOp36
 70
     1
102
RTVSPropertyOp37
 70
     1
102
RTVSPropertyOp38
 70
     1
102
RTVSPropertyOp39
 70
     1
102
RTVSPropertyOp40
 70
     1
102
RTVSPropertyOp41
 70
     1
102
RTVSPropertyOp42
 70
     1
102
RTVSPropertyOp43
 70
     1
102
RTVSPropertyOp44
 70
     1
102
RTVSPropertyOp45
 70
     1
102
RTVSPropertyOp46
 70
     1
102
RTVSPropertyOp47
 70
     1
102
RTVSPropertyOp48
 70
     1
102
RTVSPropertyOp49
 70
     1
102
RTVSPropertyOp50
 70
     1
102
RTVSPropertyOp51
 70
     0
102
RTVSPropertyOp52
 70
     0
102
RTVSPropertyOp53
 70
     1
102
RTVSPropertyOp54
 70
     1
102
RTVSPropertyOp55
 70
     1
102
RTVSPropertyOp56
 70
     1
102
RTVSPropertyOp57
 70
     1
102
RTVSPropertyOp58
 70
     1
102
RTVSPropertyOp59
 70
     1
102
RTVSPropertyOp60
 70
     1
102
RTVSPropertyOp61
 70
     1
102
RTVSPropertyOp62
 70
     1
  0
XRECORD
  5
B519
102
{ACAD_REACTORS
330
B518
102
}
330
B518
100
AcDbXrecord
280
     1
102
RTVSPost2010Prop28
280
     0
102
RTVSPost2010PropOp28
 70
     1
102
RTVSPost2010Prop29
280
     1
102
RTVSPost2010PropOp29
 70
     1
102
RTVSPost2010Prop30
280
     1
102
RTVSPost2010PropOp30
 70
     1
102
RTVSPost2010Prop31
280
     0
102
RTVSPost2010PropOp31
 70
     1
102
RTVSPost2010Prop32
280
     0
102
RTVSPost2010PropOp32
 70
     1
102
RTVSPost2010Prop33
280
     0
102
RTVSPost2010PropOp33
 70
     1
102
RTVSPost2010Prop34
280
     0
102
RTVSPost2010PropOp34
 70
     1
102
RTVSPost2010Prop35
280
     0
102
RTVSPost2010PropOp35
 70
     1
102
RTVSPost2010Prop36
280
     0
102
RTVSPost2010PropOp36
 70
     1
102
RTVSPost2010Prop37
 90
       50
102
RTVSPost2010PropOp37
 70
     1
102
RTVSPost2010Prop38
140
0.0
102
RTVSPost2010PropOp38
 70
     1
102
RTVSPost2010Prop39
140
1.0
102
RTVSPost2010PropOp39
 70
     1
102
RTVSPost2010Prop40
 90
        0
102
RTVSPost2010PropOp40
 70
     1
102
RTVSPost2010Prop41ColorIndex
 90
       18
102
RTVSPost2010Prop41ColorRGB
 90
        0
102
RTVSPost2010PropOp41
 70
     1
102
RTVSPost2010Prop42
 90
       50
102
RTVSPost2010PropOp42
 70
     1
102
RTVSPost2010Prop43
 90
        3
102
RTVSPost2010PropOp43
 70
     1
102
RTVSPost2010Prop44ColorIndex
 90
        5
102
RTVSPost2010Prop44ColorRGB
 90
      255
102
RTVSPost2010PropOp44
 70
     1
102
RTVSPost2010Prop45
280
     0
102
RTVSPost2010PropOp45
 70
     1
102
RTVSPost2010Prop46
 90
       50
102
RTVSPost2010PropOp46
 70
     1
102
RTVSPost2010Prop47
 90
       50
102
RTVSPost2010PropOp47
 70
     1
102
RTVSPost2010Prop48
 90
       50
102
RTVSPost2010PropOp48
 70
     1
102
RTVSPost2010Prop49
280
     0
102
RTVSPost2010PropOp49
 70
     1
102
RTVSPost2010Prop50
 90
       50
102
RTVSPost2010PropOp50
 70
     1
102
RTVSPost2010Prop51ColorIndex
 90
      256
102
RTVSPost2010Prop51ColorRGB
 90
-16777216
102
RTVSPost2010PropOp51
 70
     0
102
RTVSPost2010Prop52
140
1.0
102
RTVSPost2010PropOp52
 70
     0
102
RTVSPost2010Prop53
 90
        2
102
RTVSPost2010PropOp53
 70
     1
102
RTVSPost2010Prop54
  1
strokes_ogs.tif
102
RTVSPost2010PropOp54
 70
     1
102
RTVSPost2010Prop55
280
     0
102
RTVSPost2010PropOp55
 70
     1
102
RTVSPost2010Prop56
140
1.0
102
RTVSPost2010PropOp56
 70
     1
102
RTVSPost2010Prop57
140
1.0
102
RTVSPost2010PropOp57
 70
     1
102
RTVSPropertyOp0
 70
     1
102
RTVSPropertyOp1
 70
     1
102
RTVSPropertyOp2
 70
     1
102
RTVSPropertyOp3
 70
     1
102
RTVSPropertyOp4
 70
     1
102
RTVSPropertyOp5
 70
     1
102
RTVSPropertyOp6
 70
     1
102
RTVSPropertyOp7
 70
     1
102
RTVSPropertyOp8
 70
     1
102
RTVSPropertyOp9
 70
     1
102
RTVSPropertyOp10
 70
     1
102
RTVSPropertyOp11
 70
     1
102
RTVSPropertyOp12
 70
     1
102
RTVSPropertyOp13
 70
     1
102
RTVSPropertyOp14
 70
     1
102
RTVSPropertyOp15
 70
     1
102
RTVSPropertyOp16
 70
     1
102
RTVSPropertyOp17
 70
     1
102
RTVSPropertyOp18
 70
     1
102
RTVSPropertyOp19
 70
     1
102
RTVSPropertyOp20
 70
     1
102
RTVSPropertyOp21
 70
     1
102
RTVSPropertyOp22
 70
     1
102
RTVSPropertyOp23
 70
     1
102
RTVSPropertyOp24
 70
     1
102
RTVSPropertyOp25
 70
     1
102
RTVSPropertyOp26
 70
     1
102
RTVSPropertyOp27
 70
     1
102
RTVSPropertyOp28
 70
     1
102
RTVSPropertyOp29
 70
     1
102
RTVSPropertyOp30
 70
     1
102
RTVSPropertyOp31
 70
     1
102
RTVSPropertyOp32
 70
     1
102
RTVSPropertyOp33
 70
     1
102
RTVSPropertyOp34
 70
     1
102
RTVSPropertyOp35
 70
     1
102
RTVSPropertyOp36
 70
     1
102
RTVSPropertyOp37
 70
     1
102
RTVSPropertyOp38
 70
     1
102
RTVSPropertyOp39
 70
     1
102
RTVSPropertyOp40
 70
     1
102
RTVSPropertyOp41
 70
     1
102
RTVSPropertyOp42
 70
     1
102
RTVSPropertyOp43
 70
     1
102
RTVSPropertyOp44
 70
     1
102
RTVSPropertyOp45
 70
     1
102
RTVSPropertyOp46
 70
     1
102
RTVSPropertyOp47
 70
     1
102
RTVSPropertyOp48
 70
     1
102
RTVSPropertyOp49
 70
     1
102
RTVSPropertyOp50
 70
     1
102
RTVSPropertyOp51
 70
     0
102
RTVSPropertyOp52
 70
     0
102
RTVSPropertyOp53
 70
     1
102
RTVSPropertyOp54
 70
     1
102
RTVSPropertyOp55
 70
     1
102
RTVSPropertyOp56
 70
     1
102
RTVSPropertyOp57
 70
     1
102
RTVSPropertyOp58
 70
     1
102
RTVSPropertyOp59
 70
     1
102
RTVSPropertyOp60
 70
     1
102
RTVSPropertyOp61
 70
     1
102
RTVSPropertyOp62
 70
     1
  0
XRECORD
  5
B513
102
{ACAD_REACTORS
330
B512
102
}
330
B512
100
AcDbXrecord
280
     1
102
RTVSPost2010Prop28
280
     0
102
RTVSPost2010PropOp28
 70
     1
102
RTVSPost2010Prop29
280
     1
102
RTVSPost2010PropOp29
 70
     1
102
RTVSPost2010Prop30
280
     1
102
RTVSPost2010PropOp30
 70
     1
102
RTVSPost2010Prop31
280
     0
102
RTVSPost2010PropOp31
 70
     1
102
RTVSPost2010Prop32
280
     0
102
RTVSPost2010PropOp32
 70
     1
102
RTVSPost2010Prop33
280
     0
102
RTVSPost2010PropOp33
 70
     1
102
RTVSPost2010Prop34
280
     0
102
RTVSPost2010PropOp34
 70
     1
102
RTVSPost2010Prop35
280
     0
102
RTVSPost2010PropOp35
 70
     1
102
RTVSPost2010Prop36
280
     0
102
RTVSPost2010PropOp36
 70
     1
102
RTVSPost2010Prop37
 90
       50
102
RTVSPost2010PropOp37
 70
     1
102
RTVSPost2010Prop38
140
0.0
102
RTVSPost2010PropOp38
 70
     1
102
RTVSPost2010Prop39
140
1.0
102
RTVSPost2010PropOp39
 70
     1
102
RTVSPost2010Prop40
 90
        0
102
RTVSPost2010PropOp40
 70
     1
102
RTVSPost2010Prop41ColorIndex
 90
       18
102
RTVSPost2010Prop41ColorRGB
 90
        0
102
RTVSPost2010PropOp41
 70
     1
102
RTVSPost2010Prop42
 90
       50
102
RTVSPost2010PropOp42
 70
     1
102
RTVSPost2010Prop43
 90
        3
102
RTVSPost2010PropOp43
 70
     1
102
RTVSPost2010Prop44ColorIndex
 90
        5
102
RTVSPost2010Prop44ColorRGB
 90
      255
102
RTVSPost2010PropOp44
 70
     1
102
RTVSPost2010Prop45
280
     0
102
RTVSPost2010PropOp45
 70
     1
102
RTVSPost2010Prop46
 90
       50
102
RTVSPost2010PropOp46
 70
     1
102
RTVSPost2010Prop47
 90
       50
102
RTVSPost2010PropOp47
 70
     1
102
RTVSPost2010Prop48
 90
       50
102
RTVSPost2010PropOp48
 70
     1
102
RTVSPost2010Prop49
280
     0
102
RTVSPost2010PropOp49
 70
     1
102
RTVSPost2010Prop50
 90
       50
102
RTVSPost2010PropOp50
 70
     1
102
RTVSPost2010Prop51ColorIndex
 90
      256
102
RTVSPost2010Prop51ColorRGB
 90
-16777216
102
RTVSPost2010PropOp51
 70
     0
102
RTVSPost2010Prop52
140
1.0
102
RTVSPost2010PropOp52
 70
     0
102
RTVSPost2010Prop53
 90
        2
102
RTVSPost2010PropOp53
 70
     1
102
RTVSPost2010Prop54
  1
strokes_ogs.tif
102
RTVSPost2010PropOp54
 70
     1
102
RTVSPost2010Prop55
280
     0
102
RTVSPost2010PropOp55
 70
     1
102
RTVSPost2010Prop56
140
1.0
102
RTVSPost2010PropOp56
 70
     1
102
RTVSPost2010Prop57
140
1.0
102
RTVSPost2010PropOp57
 70
     1
102
RTVSPropertyOp0
 70
     1
102
RTVSPropertyOp1
 70
     1
102
RTVSPropertyOp2
 70
     1
102
RTVSPropertyOp3
 70
     1
102
RTVSPropertyOp4
 70
     1
102
RTVSPropertyOp5
 70
     1
102
RTVSPropertyOp6
 70
     1
102
RTVSPropertyOp7
 70
     1
102
RTVSPropertyOp8
 70
     1
102
RTVSPropertyOp9
 70
     1
102
RTVSPropertyOp10
 70
     1
102
RTVSPropertyOp11
 70
     1
102
RTVSPropertyOp12
 70
     1
102
RTVSPropertyOp13
 70
     1
102
RTVSPropertyOp14
 70
     1
102
RTVSPropertyOp15
 70
     1
102
RTVSPropertyOp16
 70
     1
102
RTVSPropertyOp17
 70
     1
102
RTVSPropertyOp18
 70
     1
102
RTVSPropertyOp19
 70
     1
102
RTVSPropertyOp20
 70
     1
102
RTVSPropertyOp21
 70
     1
102
RTVSPropertyOp22
 70
     1
102
RTVSPropertyOp23
 70
     1
102
RTVSPropertyOp24
 70
     1
102
RTVSPropertyOp25
 70
     1
102
RTVSPropertyOp26
 70
     1
102
RTVSPropertyOp27
 70
     1
102
RTVSPropertyOp28
 70
     1
102
RTVSPropertyOp29
 70
     1
102
RTVSPropertyOp30
 70
     1
102
RTVSPropertyOp31
 70
     1
102
RTVSPropertyOp32
 70
     1
102
RTVSPropertyOp33
 70
     1
102
RTVSPropertyOp34
 70
     1
102
RTVSPropertyOp35
 70
     1
102
RTVSPropertyOp36
 70
     1
102
RTVSPropertyOp37
 70
     1
102
RTVSPropertyOp38
 70
     1
102
RTVSPropertyOp39
 70
     1
102
RTVSPropertyOp40
 70
     1
102
RTVSPropertyOp41
 70
     1
102
RTVSPropertyOp42
 70
     1
102
RTVSPropertyOp43
 70
     1
102
RTVSPropertyOp44
 70
     1
102
RTVSPropertyOp45
 70
     1
102
RTVSPropertyOp46
 70
     1
102
RTVSPropertyOp47
 70
     1
102
RTVSPropertyOp48
 70
     1
102
RTVSPropertyOp49
 70
     1
102
RTVSPropertyOp50
 70
     1
102
RTVSPropertyOp51
 70
     0
102
RTVSPropertyOp52
 70
     0
102
RTVSPropertyOp53
 70
     1
102
RTVSPropertyOp54
 70
     1
102
RTVSPropertyOp55
 70
     1
102
RTVSPropertyOp56
 70
     1
102
RTVSPropertyOp57
 70
     1
102
RTVSPropertyOp58
 70
     1
102
RTVSPropertyOp59
 70
     1
102
RTVSPropertyOp60
 70
     1
102
RTVSPropertyOp61
 70
     1
102
RTVSPropertyOp62
 70
     1
  0
XRECORD
  5
B515
102
{ACAD_REACTORS
330
B514
102
}
330
B514
100
AcDbXrecord
280
     1
102
RTVSPost2010Prop28
280
     0
102
RTVSPost2010PropOp28
 70
     1
102
RTVSPost2010Prop29
280
     1
102
RTVSPost2010PropOp29
 70
     1
102
RTVSPost2010Prop30
280
     1
102
RTVSPost2010PropOp30
 70
     1
102
RTVSPost2010Prop31
280
     0
102
RTVSPost2010PropOp31
 70
     1
102
RTVSPost2010Prop32
280
     0
102
RTVSPost2010PropOp32
 70
     1
102
RTVSPost2010Prop33
280
     0
102
RTVSPost2010PropOp33
 70
     1
102
RTVSPost2010Prop34
280
     0
102
RTVSPost2010PropOp34
 70
     1
102
RTVSPost2010Prop35
280
     0
102
RTVSPost2010PropOp35
 70
     1
102
RTVSPost2010Prop36
280
     0
102
RTVSPost2010PropOp36
 70
     1
102
RTVSPost2010Prop37
 90
       50
102
RTVSPost2010PropOp37
 70
     1
102
RTVSPost2010Prop38
140
0.0
102
RTVSPost2010PropOp38
 70
     1
102
RTVSPost2010Prop39
140
1.0
102
RTVSPost2010PropOp39
 70
     1
102
RTVSPost2010Prop40
 90
        0
102
RTVSPost2010PropOp40
 70
     1
102
RTVSPost2010Prop41ColorIndex
 90
       18
102
RTVSPost2010Prop41ColorRGB
 90
        0
102
RTVSPost2010PropOp41
 70
     1
102
RTVSPost2010Prop42
 90
       50
102
RTVSPost2010PropOp42
 70
     1
102
RTVSPost2010Prop43
 90
        3
102
RTVSPost2010PropOp43
 70
     1
102
RTVSPost2010Prop44ColorIndex
 90
        5
102
RTVSPost2010Prop44ColorRGB
 90
      255
102
RTVSPost2010PropOp44
 70
     1
102
RTVSPost2010Prop45
280
     0
102
RTVSPost2010PropOp45
 70
     1
102
RTVSPost2010Prop46
 90
       50
102
RTVSPost2010PropOp46
 70
     1
102
RTVSPost2010Prop47
 90
       50
102
RTVSPost2010PropOp47
 70
     1
102
RTVSPost2010Prop48
 90
       50
102
RTVSPost2010PropOp48
 70
     1
102
RTVSPost2010Prop49
280
     0
102
RTVSPost2010PropOp49
 70
     1
102
RTVSPost2010Prop50
 90
       50
102
RTVSPost2010PropOp50
 70
     1
102
RTVSPost2010Prop51ColorIndex
 90
      256
102
RTVSPost2010Prop51ColorRGB
 90
-16777216
102
RTVSPost2010PropOp51
 70
     0
102
RTVSPost2010Prop52
140
1.0
102
RTVSPost2010PropOp52
 70
     0
102
RTVSPost2010Prop53
 90
        2
102
RTVSPost2010PropOp53
 70
     1
102
RTVSPost2010Prop54
  1
strokes_ogs.tif
102
RTVSPost2010PropOp54
 70
     1
102
RTVSPost2010Prop55
280
     0
102
RTVSPost2010PropOp55
 70
     1
102
RTVSPost2010Prop56
140
1.0
102
RTVSPost2010PropOp56
 70
     1
102
RTVSPost2010Prop57
140
1.0
102
RTVSPost2010PropOp57
 70
     1
102
RTVSPropertyOp0
 70
     1
102
RTVSPropertyOp1
 70
     1
102
RTVSPropertyOp2
 70
     1
102
RTVSPropertyOp3
 70
     1
102
RTVSPropertyOp4
 70
     1
102
RTVSPropertyOp5
 70
     1
102
RTVSPropertyOp6
 70
     1
102
RTVSPropertyOp7
 70
     1
102
RTVSPropertyOp8
 70
     1
102
RTVSPropertyOp9
 70
     1
102
RTVSPropertyOp10
 70
     1
102
RTVSPropertyOp11
 70
     1
102
RTVSPropertyOp12
 70
     1
102
RTVSPropertyOp13
 70
     1
102
RTVSPropertyOp14
 70
     1
102
RTVSPropertyOp15
 70
     1
102
RTVSPropertyOp16
 70
     1
102
RTVSPropertyOp17
 70
     1
102
RTVSPropertyOp18
 70
     1
102
RTVSPropertyOp19
 70
     1
102
RTVSPropertyOp20
 70
     1
102
RTVSPropertyOp21
 70
     1
102
RTVSPropertyOp22
 70
     1
102
RTVSPropertyOp23
 70
     1
102
RTVSPropertyOp24
 70
     1
102
RTVSPropertyOp25
 70
     1
102
RTVSPropertyOp26
 70
     1
102
RTVSPropertyOp27
 70
     1
102
RTVSPropertyOp28
 70
     1
102
RTVSPropertyOp29
 70
     1
102
RTVSPropertyOp30
 70
     1
102
RTVSPropertyOp31
 70
     1
102
RTVSPropertyOp32
 70
     1
102
RTVSPropertyOp33
 70
     1
102
RTVSPropertyOp34
 70
     1
102
RTVSPropertyOp35
 70
     1
102
RTVSPropertyOp36
 70
     1
102
RTVSPropertyOp37
 70
     1
102
RTVSPropertyOp38
 70
     1
102
RTVSPropertyOp39
 70
     1
102
RTVSPropertyOp40
 70
     1
102
RTVSPropertyOp41
 70
     1
102
RTVSPropertyOp42
 70
     1
102
RTVSPropertyOp43
 70
     1
102
RTVSPropertyOp44
 70
     1
102
RTVSPropertyOp45
 70
     1
102
RTVSPropertyOp46
 70
     1
102
RTVSPropertyOp47
 70
     1
102
RTVSPropertyOp48
 70
     1
102
RTVSPropertyOp49
 70
     1
102
RTVSPropertyOp50
 70
     1
102
RTVSPropertyOp51
 70
     0
102
RTVSPropertyOp52
 70
     0
102
RTVSPropertyOp53
 70
     1
102
RTVSPropertyOp54
 70
     1
102
RTVSPropertyOp55
 70
     1
102
RTVSPropertyOp56
 70
     1
102
RTVSPropertyOp57
 70
     1
102
RTVSPropertyOp58
 70
     1
102
RTVSPropertyOp59
 70
     1
102
RTVSPropertyOp60
 70
     1
102
RTVSPropertyOp61
 70
     1
102
RTVSPropertyOp62
 70
     1
  0
XRECORD
  5
B50B
102
{ACAD_REACTORS
330
B50A
102
}
330
B50A
100
AcDbXrecord
280
     1
102
RTVSPost2010Prop28
280
     0
102
RTVSPost2010PropOp28
 70
     1
102
RTVSPost2010Prop29
280
     1
102
RTVSPost2010PropOp29
 70
     1
102
RTVSPost2010Prop30
280
     1
102
RTVSPost2010PropOp30
 70
     1
102
RTVSPost2010Prop31
280
     0
102
RTVSPost2010PropOp31
 70
     1
102
RTVSPost2010Prop32
280
     0
102
RTVSPost2010PropOp32
 70
     1
102
RTVSPost2010Prop33
280
     0
102
RTVSPost2010PropOp33
 70
     1
102
RTVSPost2010Prop34
280
     0
102
RTVSPost2010PropOp34
 70
     1
102
RTVSPost2010Prop35
280
     0
102
RTVSPost2010PropOp35
 70
     1
102
RTVSPost2010Prop36
280
     0
102
RTVSPost2010PropOp36
 70
     1
102
RTVSPost2010Prop37
 90
       50
102
RTVSPost2010PropOp37
 70
     1
102
RTVSPost2010Prop38
140
0.0
102
RTVSPost2010PropOp38
 70
     1
102
RTVSPost2010Prop39
140
1.0
102
RTVSPost2010PropOp39
 70
     1
102
RTVSPost2010Prop40
 90
        0
102
RTVSPost2010PropOp40
 70
     1
102
RTVSPost2010Prop41ColorIndex
 90
       18
102
RTVSPost2010Prop41ColorRGB
 90
        0
102
RTVSPost2010PropOp41
 70
     1
102
RTVSPost2010Prop42
 90
       50
102
RTVSPost2010PropOp42
 70
     1
102
RTVSPost2010Prop43
 90
        3
102
RTVSPost2010PropOp43
 70
     1
102
RTVSPost2010Prop44ColorIndex
 90
        5
102
RTVSPost2010Prop44ColorRGB
 90
      255
102
RTVSPost2010PropOp44
 70
     1
102
RTVSPost2010Prop45
280
     0
102
RTVSPost2010PropOp45
 70
     1
102
RTVSPost2010Prop46
 90
       50
102
RTVSPost2010PropOp46
 70
     1
102
RTVSPost2010Prop47
 90
       50
102
RTVSPost2010PropOp47
 70
     1
102
RTVSPost2010Prop48
 90
       50
102
RTVSPost2010PropOp48
 70
     1
102
RTVSPost2010Prop49
280
     0
102
RTVSPost2010PropOp49
 70
     1
102
RTVSPost2010Prop50
 90
       50
102
RTVSPost2010PropOp50
 70
     1
102
RTVSPost2010Prop51ColorIndex
 90
      256
102
RTVSPost2010Prop51ColorRGB
 90
-16777216
102
RTVSPost2010PropOp51
 70
     0
102
RTVSPost2010Prop52
140
1.0
102
RTVSPost2010PropOp52
 70
     0
102
RTVSPost2010Prop53
 90
        2
102
RTVSPost2010PropOp53
 70
     1
102
RTVSPost2010Prop54
  1
strokes_ogs.tif
102
RTVSPost2010PropOp54
 70
     1
102
RTVSPost2010Prop55
280
     0
102
RTVSPost2010PropOp55
 70
     1
102
RTVSPost2010Prop56
140
1.0
102
RTVSPost2010PropOp56
 70
     1
102
RTVSPost2010Prop57
140
1.0
102
RTVSPost2010PropOp57
 70
     1
102
RTVSPropertyOp0
 70
     1
102
RTVSPropertyOp1
 70
     1
102
RTVSPropertyOp2
 70
     1
102
RTVSPropertyOp3
 70
     1
102
RTVSPropertyOp4
 70
     1
102
RTVSPropertyOp5
 70
     1
102
RTVSPropertyOp6
 70
     1
102
RTVSPropertyOp7
 70
     1
102
RTVSPropertyOp8
 70
     1
102
RTVSPropertyOp9
 70
     1
102
RTVSPropertyOp10
 70
     1
102
RTVSPropertyOp11
 70
     1
102
RTVSPropertyOp12
 70
     1
102
RTVSPropertyOp13
 70
     1
102
RTVSPropertyOp14
 70
     1
102
RTVSPropertyOp15
 70
     1
102
RTVSPropertyOp16
 70
     1
102
RTVSPropertyOp17
 70
     1
102
RTVSPropertyOp18
 70
     1
102
RTVSPropertyOp19
 70
     1
102
RTVSPropertyOp20
 70
     1
102
RTVSPropertyOp21
 70
     1
102
RTVSPropertyOp22
 70
     1
102
RTVSPropertyOp23
 70
     1
102
RTVSPropertyOp24
 70
     1
102
RTVSPropertyOp25
 70
     1
102
RTVSPropertyOp26
 70
     1
102
RTVSPropertyOp27
 70
     1
102
RTVSPropertyOp28
 70
     1
102
RTVSPropertyOp29
 70
     1
102
RTVSPropertyOp30
 70
     1
102
RTVSPropertyOp31
 70
     1
102
RTVSPropertyOp32
 70
     1
102
RTVSPropertyOp33
 70
     1
102
RTVSPropertyOp34
 70
     1
102
RTVSPropertyOp35
 70
     1
102
RTVSPropertyOp36
 70
     1
102
RTVSPropertyOp37
 70
     1
102
RTVSPropertyOp38
 70
     1
102
RTVSPropertyOp39
 70
     1
102
RTVSPropertyOp40
 70
     1
102
RTVSPropertyOp41
 70
     1
102
RTVSPropertyOp42
 70
     1
102
RTVSPropertyOp43
 70
     1
102
RTVSPropertyOp44
 70
     1
102
RTVSPropertyOp45
 70
     1
102
RTVSPropertyOp46
 70
     1
102
RTVSPropertyOp47
 70
     1
102
RTVSPropertyOp48
 70
     1
102
RTVSPropertyOp49
 70
     1
102
RTVSPropertyOp50
 70
     1
102
RTVSPropertyOp51
 70
     0
102
RTVSPropertyOp52
 70
     0
102
RTVSPropertyOp53
 70
     1
102
RTVSPropertyOp54
 70
     1
102
RTVSPropertyOp55
 70
     1
102
RTVSPropertyOp56
 70
     1
102
RTVSPropertyOp57
 70
     1
102
RTVSPropertyOp58
 70
     1
102
RTVSPropertyOp59
 70
     1
102
RTVSPropertyOp60
 70
     1
102
RTVSPropertyOp61
 70
     1
102
RTVSPropertyOp62
 70
     1
  0
XRECORD
  5
B4FF
102
{ACAD_REACTORS
330
B4FE
102
}
330
B4FE
100
AcDbXrecord
280
     1
102
RTVSPost2010Prop28
280
     0
102
RTVSPost2010PropOp28
 70
     1
102
RTVSPost2010Prop29
280
     1
102
RTVSPost2010PropOp29
 70
     1
102
RTVSPost2010Prop30
280
     1
102
RTVSPost2010PropOp30
 70
     1
102
RTVSPost2010Prop31
280
     0
102
RTVSPost2010PropOp31
 70
     1
102
RTVSPost2010Prop32
280
     0
102
RTVSPost2010PropOp32
 70
     1
102
RTVSPost2010Prop33
280
     0
102
RTVSPost2010PropOp33
 70
     1
102
RTVSPost2010Prop34
280
     0
102
RTVSPost2010PropOp34
 70
     1
102
RTVSPost2010Prop35
280
     0
102
RTVSPost2010PropOp35
 70
     1
102
RTVSPost2010Prop36
280
     0
102
RTVSPost2010PropOp36
 70
     1
102
RTVSPost2010Prop37
 90
       50
102
RTVSPost2010PropOp37
 70
     1
102
RTVSPost2010Prop38
140
0.0
102
RTVSPost2010PropOp38
 70
     1
102
RTVSPost2010Prop39
140
1.0
102
RTVSPost2010PropOp39
 70
     1
102
RTVSPost2010Prop40
 90
        0
102
RTVSPost2010PropOp40
 70
     1
102
RTVSPost2010Prop41ColorIndex
 90
       18
102
RTVSPost2010Prop41ColorRGB
 90
        0
102
RTVSPost2010PropOp41
 70
     1
102
RTVSPost2010Prop42
 90
       50
102
RTVSPost2010PropOp42
 70
     1
102
RTVSPost2010Prop43
 90
        3
102
RTVSPost2010PropOp43
 70
     1
102
RTVSPost2010Prop44ColorIndex
 90
        5
102
RTVSPost2010Prop44ColorRGB
 90
      255
102
RTVSPost2010PropOp44
 70
     1
102
RTVSPost2010Prop45
280
     0
102
RTVSPost2010PropOp45
 70
     1
102
RTVSPost2010Prop46
 90
       50
102
RTVSPost2010PropOp46
 70
     1
102
RTVSPost2010Prop47
 90
       50
102
RTVSPost2010PropOp47
 70
     1
102
RTVSPost2010Prop48
 90
       50
102
RTVSPost2010PropOp48
 70
     1
102
RTVSPost2010Prop49
280
     0
102
RTVSPost2010PropOp49
 70
     1
102
RTVSPost2010Prop50
 90
       50
102
RTVSPost2010PropOp50
 70
     1
102
RTVSPost2010Prop51ColorIndex
 90
      256
102
RTVSPost2010Prop51ColorRGB
 90
-16777216
102
RTVSPost2010PropOp51
 70
     0
102
RTVSPost2010Prop52
140
1.0
102
RTVSPost2010PropOp52
 70
     0
102
RTVSPost2010Prop53
 90
        2
102
RTVSPost2010PropOp53
 70
     1
102
RTVSPost2010Prop54
  1
strokes_ogs.tif
102
RTVSPost2010PropOp54
 70
     1
102
RTVSPost2010Prop55
280
     0
102
RTVSPost2010PropOp55
 70
     1
102
RTVSPost2010Prop56
140
1.0
102
RTVSPost2010PropOp56
 70
     1
102
RTVSPost2010Prop57
140
1.0
102
RTVSPost2010PropOp57
 70
     1
102
RTVSPropertyOp0
 70
     1
102
RTVSPropertyOp1
 70
     1
102
RTVSPropertyOp2
 70
     1
102
RTVSPropertyOp3
 70
     1
102
RTVSPropertyOp4
 70
     1
102
RTVSPropertyOp5
 70
     1
102
RTVSPropertyOp6
 70
     1
102
RTVSPropertyOp7
 70
     1
102
RTVSPropertyOp8
 70
     1
102
RTVSPropertyOp9
 70
     1
102
RTVSPropertyOp10
 70
     1
102
RTVSPropertyOp11
 70
     1
102
RTVSPropertyOp12
 70
     1
102
RTVSPropertyOp13
 70
     1
102
RTVSPropertyOp14
 70
     1
102
RTVSPropertyOp15
 70
     1
102
RTVSPropertyOp16
 70
     1
102
RTVSPropertyOp17
 70
     1
102
RTVSPropertyOp18
 70
     1
102
RTVSPropertyOp19
 70
     1
102
RTVSPropertyOp20
 70
     1
102
RTVSPropertyOp21
 70
     1
102
RTVSPropertyOp22
 70
     1
102
RTVSPropertyOp23
 70
     1
102
RTVSPropertyOp24
 70
     1
102
RTVSPropertyOp25
 70
     1
102
RTVSPropertyOp26
 70
     1
102
RTVSPropertyOp27
 70
     1
102
RTVSPropertyOp28
 70
     1
102
RTVSPropertyOp29
 70
     1
102
RTVSPropertyOp30
 70
     1
102
RTVSPropertyOp31
 70
     1
102
RTVSPropertyOp32
 70
     1
102
RTVSPropertyOp33
 70
     1
102
RTVSPropertyOp34
 70
     1
102
RTVSPropertyOp35
 70
     1
102
RTVSPropertyOp36
 70
     1
102
RTVSPropertyOp37
 70
     1
102
RTVSPropertyOp38
 70
     1
102
RTVSPropertyOp39
 70
     1
102
RTVSPropertyOp40
 70
     1
102
RTVSPropertyOp41
 70
     1
102
RTVSPropertyOp42
 70
     1
102
RTVSPropertyOp43
 70
     1
102
RTVSPropertyOp44
 70
     1
102
RTVSPropertyOp45
 70
     1
102
RTVSPropertyOp46
 70
     1
102
RTVSPropertyOp47
 70
     1
102
RTVSPropertyOp48
 70
     1
102
RTVSPropertyOp49
 70
     1
102
RTVSPropertyOp50
 70
     1
102
RTVSPropertyOp51
 70
     0
102
RTVSPropertyOp52
 70
     0
102
RTVSPropertyOp53
 70
     1
102
RTVSPropertyOp54
 70
     1
102
RTVSPropertyOp55
 70
     1
102
RTVSPropertyOp56
 70
     1
102
RTVSPropertyOp57
 70
     1
102
RTVSPropertyOp58
 70
     1
102
RTVSPropertyOp59
 70
     1
102
RTVSPropertyOp60
 70
     1
102
RTVSPropertyOp61
 70
     1
102
RTVSPropertyOp62
 70
     1
  0
XRECORD
  5
B517
102
{ACAD_REACTORS
330
B516
102
}
330
B516
100
AcDbXrecord
280
     1
102
RTVSPost2010Prop28
280
     0
102
RTVSPost2010PropOp28
 70
     1
102
RTVSPost2010Prop29
280
     1
102
RTVSPost2010PropOp29
 70
     1
102
RTVSPost2010Prop30
280
     1
102
RTVSPost2010PropOp30
 70
     1
102
RTVSPost2010Prop31
280
     0
102
RTVSPost2010PropOp31
 70
     1
102
RTVSPost2010Prop32
280
     0
102
RTVSPost2010PropOp32
 70
     1
102
RTVSPost2010Prop33
280
     0
102
RTVSPost2010PropOp33
 70
     1
102
RTVSPost2010Prop34
280
     0
102
RTVSPost2010PropOp34
 70
     1
102
RTVSPost2010Prop35
280
     0
102
RTVSPost2010PropOp35
 70
     1
102
RTVSPost2010Prop36
280
     0
102
RTVSPost2010PropOp36
 70
     1
102
RTVSPost2010Prop37
 90
       50
102
RTVSPost2010PropOp37
 70
     1
102
RTVSPost2010Prop38
140
0.0
102
RTVSPost2010PropOp38
 70
     1
102
RTVSPost2010Prop39
140
1.0
102
RTVSPost2010PropOp39
 70
     1
102
RTVSPost2010Prop40
 90
        0
102
RTVSPost2010PropOp40
 70
     1
102
RTVSPost2010Prop41ColorIndex
 90
       18
102
RTVSPost2010Prop41ColorRGB
 90
        0
102
RTVSPost2010PropOp41
 70
     1
102
RTVSPost2010Prop42
 90
       50
102
RTVSPost2010PropOp42
 70
     1
102
RTVSPost2010Prop43
 90
        3
102
RTVSPost2010PropOp43
 70
     1
102
RTVSPost2010Prop44ColorIndex
 90
        5
102
RTVSPost2010Prop44ColorRGB
 90
      255
102
RTVSPost2010PropOp44
 70
     1
102
RTVSPost2010Prop45
280
     0
102
RTVSPost2010PropOp45
 70
     1
102
RTVSPost2010Prop46
 90
       50
102
RTVSPost2010PropOp46
 70
     1
102
RTVSPost2010Prop47
 90
       50
102
RTVSPost2010PropOp47
 70
     1
102
RTVSPost2010Prop48
 90
       50
102
RTVSPost2010PropOp48
 70
     1
102
RTVSPost2010Prop49
280
     0
102
RTVSPost2010PropOp49
 70
     1
102
RTVSPost2010Prop50
 90
       50
102
RTVSPost2010PropOp50
 70
     1
102
RTVSPost2010Prop51ColorIndex
 90
      256
102
RTVSPost2010Prop51ColorRGB
 90
-16777216
102
RTVSPost2010PropOp51
 70
     0
102
RTVSPost2010Prop52
140
1.0
102
RTVSPost2010PropOp52
 70
     0
102
RTVSPost2010Prop53
 90
        2
102
RTVSPost2010PropOp53
 70
     1
102
RTVSPost2010Prop54
  1
strokes_ogs.tif
102
RTVSPost2010PropOp54
 70
     1
102
RTVSPost2010Prop55
280
     0
102
RTVSPost2010PropOp55
 70
     1
102
RTVSPost2010Prop56
140
1.0
102
RTVSPost2010PropOp56
 70
     1
102
RTVSPost2010Prop57
140
1.0
102
RTVSPost2010PropOp57
 70
     1
102
RTVSPropertyOp0
 70
     1
102
RTVSPropertyOp1
 70
     1
102
RTVSPropertyOp2
 70
     1
102
RTVSPropertyOp3
 70
     1
102
RTVSPropertyOp4
 70
     1
102
RTVSPropertyOp5
 70
     1
102
RTVSPropertyOp6
 70
     1
102
RTVSPropertyOp7
 70
     1
102
RTVSPropertyOp8
 70
     1
102
RTVSPropertyOp9
 70
     1
102
RTVSPropertyOp10
 70
     1
102
RTVSPropertyOp11
 70
     1
102
RTVSPropertyOp12
 70
     1
102
RTVSPropertyOp13
 70
     1
102
RTVSPropertyOp14
 70
     1
102
RTVSPropertyOp15
 70
     1
102
RTVSPropertyOp16
 70
     1
102
RTVSPropertyOp17
 70
     1
102
RTVSPropertyOp18
 70
     1
102
RTVSPropertyOp19
 70
     1
102
RTVSPropertyOp20
 70
     1
102
RTVSPropertyOp21
 70
     1
102
RTVSPropertyOp22
 70
     1
102
RTVSPropertyOp23
 70
     1
102
RTVSPropertyOp24
 70
     1
102
RTVSPropertyOp25
 70
     1
102
RTVSPropertyOp26
 70
     1
102
RTVSPropertyOp27
 70
     1
102
RTVSPropertyOp28
 70
     1
102
RTVSPropertyOp29
 70
     1
102
RTVSPropertyOp30
 70
     1
102
RTVSPropertyOp31
 70
     1
102
RTVSPropertyOp32
 70
     1
102
RTVSPropertyOp33
 70
     1
102
RTVSPropertyOp34
 70
     1
102
RTVSPropertyOp35
 70
     1
102
RTVSPropertyOp36
 70
     1
102
RTVSPropertyOp37
 70
     1
102
RTVSPropertyOp38
 70
     1
102
RTVSPropertyOp39
 70
     1
102
RTVSPropertyOp40
 70
     1
102
RTVSPropertyOp41
 70
     1
102
RTVSPropertyOp42
 70
     1
102
RTVSPropertyOp43
 70
     1
102
RTVSPropertyOp44
 70
     1
102
RTVSPropertyOp45
 70
     1
102
RTVSPropertyOp46
 70
     1
102
RTVSPropertyOp47
 70
     1
102
RTVSPropertyOp48
 70
     1
102
RTVSPropertyOp49
 70
     1
102
RTVSPropertyOp50
 70
     1
102
RTVSPropertyOp51
 70
     0
102
RTVSPropertyOp52
 70
     0
102
RTVSPropertyOp53
 70
     1
102
RTVSPropertyOp54
 70
     1
102
RTVSPropertyOp55
 70
     1
102
RTVSPropertyOp56
 70
     1
102
RTVSPropertyOp57
 70
     1
102
RTVSPropertyOp58
 70
     1
102
RTVSPropertyOp59
 70
     1
102
RTVSPropertyOp60
 70
     1
102
RTVSPropertyOp61
 70
     1
102
RTVSPropertyOp62
 70
     1
  0
ENDSEC
  0
EOF
