  0
SECTION
  2
HEADER
  9
$ACADVER
  1
AC1015
  9
$ACADMAINTVER
 70
    20
  9
$DWGCODEPAGE
  3
ANSI_932
  9
$INSBASE
 10
0.0
 20
0.0
 30
0.0
  9
$EXTMIN
 10
10.0
 20
9.999999999999998
 30
0.0
  9
$EXTMAX
 10
583.4316719999998
 20
418.6778279999998
 30
0.0
  9
$LIMMIN
 10
0.0
 20
0.0
  9
$LIMMAX
 10
663.7395339999999
 20
457.578012
  9
$ORTHOMODE
 70
     0
  9
$REGENMODE
 70
     1
  9
$FILLMODE
 70
     1
  9
$QTEXTMODE
 70
     0
  9
$MIRRTEXT
 70
     1
  9
$LTSCALE
 40
20.0
  9
$ATTMODE
 70
     1
  9
$TEXTSIZE
 40
5.0
  9
$TRACEWID
 40
1.0
  9
$TEXTSTYLE
  7
STANDARD
  9
$CLAYER
  8
0
  9
$CELTYPE
  6
BYLAYER
  9
$CECOLOR
 62
   256
  9
$CELTSCALE
 40
1.0
  9
$DISPSILH
 70
     0
  9
$DIMSCALE
 40
1.0
  9
$DIMASZ
 40
3.0
  9
$DIMEXO
 40
1.0
  9
$DIMDLI
 40
10.0
  9
$DIMRND
 40
0.0
  9
$DIMDLE
 40
0.0
  9
$DIMEXE
 40
1.0
  9
$DIMTP
 40
0.0
  9
$DIMTM
 40
0.0
  9
$DIMTXT
 40
3.2
  9
$DIMCEN
 40
0.0
  9
$DIMTSZ
 40
0.0
  9
$DIMTOL
 70
     0
  9
$DIMLIM
 70
     0
  9
$DIMTIH
 70
     0
  9
$DIMTOH
 70
     0
  9
$DIMSE1
 70
     0
  9
$DIMSE2
 70
     0
  9
$DIMTAD
 70
     3
  9
$DIMZIN
 70
     8
  9
$DIMBLK
  1

  9
$DIMASO
 70
     1
  9
$DIMSHO
 70
     1
  9
$DIMPOST
  1

  9
$DIMAPOST
  1

  9
$DIMALT
 70
     0
  9
$DIMALTD
 70
     2
  9
$DIMALTF
 40
25.4
  9
$DIMLFAC
 40
1.0
  9
$DIMTOFL
 70
     1
  9
$DIMTVP
 40
0.0
  9
$DIMTIX
 70
     0
  9
$DIMSOXD
 70
     0
  9
$DIMSAH
 70
     1
  9
$DIMBLK1
  1
OPEN
  9
$DIMBLK2
  1
OPEN
  9
$DIMSTYLE
  2
STANDARD
  9
$DIMCLRD
 70
     0
  9
$DIMCLRE
 70
     0
  9
$DIMCLRT
 70
     0
  9
$DIMTFAC
 40
1.0
  9
$DIMGAP
 40
1.0
  9
$DIMJUST
 70
     0
  9
$DIMSD1
 70
     0
  9
$DIMSD2
 70
     0
  9
$DIMTOLJ
 70
     1
  9
$DIMTZIN
 70
     0
  9
$DIMALTZ
 70
     0
  9
$DIMALTTZ
 70
     0
  9
$DIMUPT
 70
     0
  9
$DIMDEC
 70
     4
  9
$DIMTDEC
 70
     4
  9
$DIMALTU
 70
     2
  9
$DIMALTTD
 70
     2
  9
$DIMTXSTY
  7
STANDARD
  9
$DIMAUNIT
 70
     0
  9
$DIMADEC
 70
     0
  9
$DIMALTRND
 40
0.0
  9
$DIMAZIN
 70
     0
  9
$DIMDSEP
 70
    46
  9
$DIMATFIT
 70
     3
  9
$DIMFRAC
 70
     0
  9
$DIMLDRBLK
  1
OPEN
  9
$DIMLUNIT
 70
     2
  9
$DIMLWD
 70
    -2
  9
$DIMLWE
 70
    -2
  9
$DIMTMOVE
 70
     0
  9
$LUNITS
 70
     2
  9
$LUPREC
 70
     4
  9
$SKETCHINC
 40
1.0
  9
$FILLETRAD
 40
12.6
  9
$AUNITS
 70
     0
  9
$AUPREC
 70
     2
  9
$MENU
  1
.
  9
$ELEVATION
 40
0.0
  9
$PELEVATION
 40
0.0
  9
$THICKNESS
 40
0.0
  9
$LIMCHECK
 70
     0
  9
$CHAMFERA
 40
10.0
  9
$CHAMFERB
 40
10.0
  9
$CHAMFERC
 40
0.0
  9
$CHAMFERD
 40
0.0
  9
$SKPOLY
 70
     0
  9
$TDCREATE
 40
2451301.484435186
  9
$TDUCREATE
 40
2451301.109435185
  9
$TDUPDATE
 40
2457192.687401123
  9
$TDUUPDATE
 40
2457192.312401123
  9
$TDINDWG
 40
0.0000139120
  9
$TDUSRTIMER
 40
0.0000134259
  9
$USRTIMER
 70
     1
  9
$ANGBASE
 50
0.0
  9
$ANGDIR
 70
     0
  9
$PDMODE
 70
     0
  9
$PDSIZE
 40
0.0
  9
$PLINEWID
 40
0.0
  9
$SPLFRAME
 70
     0
  9
$SPLINETYPE
 70
     6
  9
$SPLINESEGS
 70
     8
  9
$HANDSEED
  5
CC3B
  9
$SURFTAB1
 70
     6
  9
$SURFTAB2
 70
     6
  9
$SURFTYPE
 70
     6
  9
$SURFU
 70
     6
  9
$SURFV
 70
     6
  9
$UCSBASE
  2

  9
$UCSNAME
  2

  9
$UCSORG
 10
0.0
 20
0.0
 30
0.0
  9
$UCSXDIR
 10
1.0
 20
0.0
 30
0.0
  9
$UCSYDIR
 10
0.0
 20
1.0
 30
0.0
  9
$UCSORTHOREF
  2

  9
$UCSORTHOVIEW
 70
     0
  9
$UCSORGTOP
 10
0.0
 20
0.0
 30
0.0
  9
$UCSORGBOTTOM
 10
0.0
 20
0.0
 30
0.0
  9
$UCSORGLEFT
 10
0.0
 20
0.0
 30
0.0
  9
$UCSORGRIGHT
 10
0.0
 20
0.0
 30
0.0
  9
$UCSORGFRONT
 10
0.0
 20
0.0
 30
0.0
  9
$UCSORGBACK
 10
0.0
 20
0.0
 30
0.0
  9
$PUCSBASE
  2

  9
$PUCSNAME
  2

  9
$PUCSORG
 10
0.0
 20
0.0
 30
0.0
  9
$PUCSXDIR
 10
1.0
 20
0.0
 30
0.0
  9
$PUCSYDIR
 10
0.0
 20
1.0
 30
0.0
  9
$PUCSORTHOREF
  2

  9
$PUCSORTHOVIEW
 70
     0
  9
$PUCSORGTOP
 10
0.0
 20
0.0
 30
0.0
  9
$PUCSORGBOTTOM
 10
0.0
 20
0.0
 30
0.0
  9
$PUCSORGLEFT
 10
0.0
 20
0.0
 30
0.0
  9
$PUCSORGRIGHT
 10
0.0
 20
0.0
 30
0.0
  9
$PUCSORGFRONT
 10
0.0
 20
0.0
 30
0.0
  9
$PUCSORGBACK
 10
0.0
 20
0.0
 30
0.0
  9
$USERI1
 70
     0
  9
$USERI2
 70
     0
  9
$USERI3
 70
     0
  9
$USERI4
 70
     0
  9
$USERI5
 70
     0
  9
$USERR1
 40
0.0
  9
$USERR2
 40
0.0
  9
$USERR3
 40
0.0
  9
$USERR4
 40
0.0
  9
$USERR5
 40
0.0
  9
$WORLDVIEW
 70
     1
  9
$SHADEDGE
 70
     3
  9
$SHADEDIF
 70
    70
  9
$TILEMODE
 70
     1
  9
$MAXACTVP
 70
    16
  9
$PINSBASE
 10
0.0
 20
0.0
 30
0.0
  9
$PLIMCHECK
 70
     0
  9
$PEXTMIN
 10
1.000000000000000E+20
 20
1.000000000000000E+20
 30
1.000000000000000E+20
  9
$PEXTMAX
 10
-1.000000000000000E+20
 20
-1.000000000000000E+20
 30
-1.000000000000000E+20
  9
$PLIMMIN
 10
0.0
 20
0.0
  9
$PLIMMAX
 10
420.0
 20
297.0
  9
$UNITMODE
 70
     0
  9
$VISRETAIN
 70
     0
  9
$PLINEGEN
 70
     0
  9
$PSLTSCALE
 70
     0
  9
$TREEDEPTH
 70
  3020
  9
$CMLSTYLE
  2
STANDARD
  9
$CMLJUST
 70
     0
  9
$CMLSCALE
 40
1.0
  9
$PROXYGRAPHICS
 70
     1
  9
$MEASUREMENT
 70
     0
  9
$CELWEIGHT
370
    -1
  9
$ENDCAPS
280
     0
  9
$JOINSTYLE
280
     0
  9
$LWDISPLAY
290
     0
  9
$INSUNITS
 70
     0
  9
$HYPERLINKBASE
  1

  9
$STYLESHEET
  1

  9
$XEDIT
290
     1
  9
$CEPSNTYPE
380
     0
  9
$PSTYLEMODE
290
     1
  9
$FINGERPRINTGUID
  2
{3AA0FF04-FB88-4282-B283-9335F6AF48BE}
  9
$VERSIONGUID
  2
{7063704B-E488-4926-AF93-AECFBCBE9ECF}
  9
$EXTNAMES
290
     1
  9
$PSVPSCALE
 40
0.0
  9
$OLESTARTUP
290
     0
  0
ENDSEC
  0
SECTION
  2
CLASSES
  0
CLASS
  1
ACDBDICTIONARYWDFLT
  2
AcDbDictionaryWithDefault
  3
ObjectDBX Classes
 90
        0
280
     0
281
     0
  0
CLASS
  1
ACDBPLACEHOLDER
  2
AcDbPlaceHolder
  3
ObjectDBX Classes
 90
        0
280
     0
281
     0
  0
CLASS
  1
LAYOUT
  2
AcDbLayout
  3
ObjectDBX Classes
 90
        0
280
     0
281
     0
  0
CLASS
  1
DICTIONARYVAR
  2
AcDbDictionaryVar
  3
ObjectDBX Classes
 90
        0
280
     0
281
     0
  0
CLASS
  1
MATERIAL
  2
AcDbMaterial
  3
ObjectDBX Classes
 90
     1153
280
     0
281
     0
  0
CLASS
  1
VISUALSTYLE
  2
AcDbVisualStyle
  3
ObjectDBX Classes
 90
     4095
280
     0
281
     0
  0
CLASS
  1
TABLESTYLE
  2
AcDbTableStyle
  3
ObjectDBX Classes
 90
     4095
280
     0
281
     0
  0
CLASS
  1
SCALE
  2
AcDbScale
  3
ObjectDBX Classes
 90
     1153
280
     0
281
     0
  0
CLASS
  1
MLEADERSTYLE
  2
AcDbMLeaderStyle
  3
ACDB_MLEADERSTYLE_CLASS
 90
     4095
280
     0
281
     0
  0
CLASS
  1
ACDBSECTIONVIEWSTYLE
  2
AcDbSectionViewStyle
  3
ObjectDBX Classes
 90
     1025
280
     0
281
     0
  0
CLASS
  1
ACDBDETAILVIEWSTYLE
  2
AcDbDetailViewStyle
  3
ObjectDBX Classes
 90
     1025
280
     0
281
     0
  0
CLASS
  1
CELLSTYLEMAP
  2
AcDbCellStyleMap
  3
ObjectDBX Classes
 90
     1152
280
     0
281
     0
  0
ENDSEC
  0
SECTION
  2
TABLES
  0
TABLE
  2
VPORT
  5
C733
330
0
100
AcDbSymbolTable
 70
     1
  0
VPORT
  5
CB84
330
C733
100
AcDbSymbolTableRecord
100
AcDbViewportTableRecord
  2
*ACTIVE
 70
     0
 10
0.0
 20
0.0
 11
1.0
 21
1.0
 12
420.4981156632748
 22
214.336088273532
 13
0.0
 23
0.0
 14
10.0
 24
10.0
 15
10.0
 25
10.0
 16
0.0
 26
0.0
 36
1.0
 17
0.0
 27
0.0
 37
0.0
 40
413.2477040860384
 41
2.35006605019815
 42
50.0
 43
0.0
 44
0.0
 50
0.0
 51
0.0
 71
     0
 72
   100
 73
     1
 74
     0
 75
     0
 76
     0
 77
     0
 78
     0
281
     0
 65
     1
110
0.0
120
0.0
130
0.0
111
1.0
121
0.0
131
0.0
112
0.0
122
1.0
132
0.0
 79
     0
146
0.0
1001
ACAD_NAV_VCDISPLAY
1070
     3
  0
ENDTAB
  0
TABLE
  2
LTYPE
  5
C730
330
0
100
AcDbSymbolTable
 70
     4
  0
LTYPE
  5
C73E
330
C730
100
AcDbSymbolTableRecord
100
AcDbLinetypeTableRecord
  2
BYBLOCK
 70
     0
  3

 72
    65
 73
     0
 40
0.0
  0
LTYPE
  5
C73F
330
C730
100
AcDbSymbolTableRecord
100
AcDbLinetypeTableRecord
  2
BYLAYER
 70
     0
  3

 72
    65
 73
     0
 40
0.0
  0
LTYPE
  5
C740
330
C730
100
AcDbSymbolTableRecord
100
AcDbLinetypeTableRecord
  2
CONTINUOUS
 70
     0
  3
Solid line
 72
    65
 73
     0
 40
0.0
  0
LTYPE
  5
C74E
330
C730
100
AcDbSymbolTableRecord
100
AcDbLinetypeTableRecord
  2
DASHED
 70
     0
  3
__ __ __ __ __ __ __ __ __ __ __ __ __ __ __ __
 72
    65
 73
     2
 40
0.75
 49
0.5
 74
     0
 49
-0.25
 74
     0
  0
LTYPE
  5
C74F
330
C730
100
AcDbSymbolTableRecord
100
AcDbLinetypeTableRecord
  2
CENTER
 70
     0
  3
____ _ ____ _ ____ _ ____ _ ____ _ ____ _ ____ 
 72
    65
 73
     4
 40
2.0
 49
1.25
 74
     0
 49
-0.25
 74
     0
 49
0.25
 74
     0
 49
-0.25
 74
     0
  0
LTYPE
  5
C750
330
C730
100
AcDbSymbolTableRecord
100
AcDbLinetypeTableRecord
  2
PHANTOM
 70
     0
  3
______  __  __  ______  __  __  ______  __  __ 
 72
    65
 73
     6
 40
2.5
 49
1.25
 74
     0
 49
-0.25
 74
     0
 49
0.25
 74
     0
 49
-0.25
 74
     0
 49
0.25
 74
     0
 49
-0.25
 74
     0
  0
ENDTAB
  0
TABLE
  2
LAYER
  5
C72D
330
0
100
AcDbSymbolTable
 70
     8
  0
LAYER
  5
C73B
102
{ACAD_XDICTIONARY
360
CBDF
102
}
330
C72D
100
AcDbSymbolTableRecord
100
AcDbLayerTableRecord
  2
0
 70
     0
 62
     7
  6
CONTINUOUS
370
    -3
390
CB8D
  0
LAYER
  5
C751
102
{ACAD_XDICTIONARY
360
CBE1
102
}
330
C72D
100
AcDbSymbolTableRecord
100
AcDbLayerTableRecord
  2
4
 70
     0
 62
     1
  6
CENTER
370
    -3
390
CB8D
  0
LAYER
  5
C752
102
{ACAD_XDICTIONARY
360
CBE3
102
}
330
C72D
100
AcDbSymbolTableRecord
100
AcDbLayerTableRecord
  2
5
 70
     0
 62
     6
  6
PHANTOM
370
    -3
390
CB8D
  0
LAYER
  5
C753
102
{ACAD_XDICTIONARY
360
CBE5
102
}
330
C72D
100
AcDbSymbolTableRecord
100
AcDbLayerTableRecord
  2
1
 70
     0
 62
     7
  6
CONTINUOUS
370
    -3
390
CB8D
  0
LAYER
  5
C754
102
{ACAD_XDICTIONARY
360
CBE7
102
}
330
C72D
100
AcDbSymbolTableRecord
100
AcDbLayerTableRecord
  2
2
 70
     0
 62
     4
  6
CONTINUOUS
370
    -3
390
CB8D
  0
LAYER
  5
C755
102
{ACAD_XDICTIONARY
360
CBE9
102
}
330
C72D
100
AcDbSymbolTableRecord
100
AcDbLayerTableRecord
  2
3
 70
     0
 62
     2
  6
DASHED
370
    -3
390
CB8D
  0
LAYER
  5
C756
102
{ACAD_XDICTIONARY
360
CBEB
102
}
330
C72D
100
AcDbSymbolTableRecord
100
AcDbLayerTableRecord
  2
6
 70
     0
 62
     5
  6
CONTINUOUS
370
    -3
390
CB8D
  0
LAYER
  5
C757
102
{ACAD_XDICTIONARY
360
CBED
102
}
330
C72D
100
AcDbSymbolTableRecord
100
AcDbLayerTableRecord
  2
7
 70
     0
 62
     3
  6
CONTINUOUS
370
    -3
390
CB8D
  0
ENDTAB
  0
TABLE
  2
STYLE
  5
C72E
330
0
100
AcDbSymbolTable
 70
     1
  0
STYLE
  5
C73C
330
C72E
100
AcDbSymbolTableRecord
100
AcDbTextStyleTableRecord
  2
STANDARD
 70
     0
 40
0.0
 41
1.0
 50
0.0
 71
     0
 42
5.0
  3
txt
  4

  0
ENDTAB
  0
TABLE
  2
VIEW
  5
C731
330
0
100
AcDbSymbolTable
 70
     0
  0
ENDTAB
  0
TABLE
  2
UCS
  5
C732
330
0
100
AcDbSymbolTable
 70
     0
  0
ENDTAB
  0
TABLE
  2
APPID
  5
C734
330
0
100
AcDbSymbolTable
 70
     3
  0
APPID
  5
C73D
330
C734
100
AcDbSymbolTableRecord
100
AcDbRegAppTableRecord
  2
ACAD
 70
     0
  0
APPID
  5
CBF9
330
C734
100
AcDbSymbolTableRecord
100
AcDbRegAppTableRecord
  2
ACAD_NAV_VCDISPLAY
 70
     0
  0
APPID
  5
CC32
330
C734
100
AcDbSymbolTableRecord
100
AcDbRegAppTableRecord
  2
ACAD_MLEADERVER
 70
     0
  0
ENDTAB
  0
TABLE
  2
DIMSTYLE
  5
C735
330
0
100
AcDbSymbolTable
 70
     1
100
AcDbDimStyleTable
 71
     0
  0
DIMSTYLE
105
C759
330
C735
100
AcDbSymbolTableRecord
100
AcDbDimStyleTableRecord
  2
STANDARD
 70
     0
 41
3.0
 42
1.0
 43
10.0
 44
1.0
 73
     0
 74
     0
 77
     3
 78
     8
140
3.2
141
0.0
147
1.0
172
     1
173
     1
284
     8
285
     8
286
     8
340
C73C
  0
ENDTAB
  0
TABLE
  2
BLOCK_RECORD
  5
C72C
330
0
100
AcDbSymbolTable
 70
     1
  0
BLOCK_RECORD
  5
C749
102
{ACAD_XDICTIONARY
360
CB87
102
}
330
C72C
100
AcDbSymbolTableRecord
100
AcDbBlockTableRecord
  2
*MODEL_SPACE
340
CBDB
  0
BLOCK_RECORD
  5
C745
102
{ACAD_XDICTIONARY
360
CB85
102
}
330
C72C
100
AcDbSymbolTableRecord
100
AcDbBlockTableRecord
  2
*PAPER_SPACE
340
CBDC
  0
BLOCK_RECORD
  5
C761
330
C72C
100
AcDbSymbolTableRecord
100
AcDbBlockTableRecord
  2
_OPEN
340
0
  0
ENDTAB
  0
ENDSEC
  0
SECTION
  2
BLOCKS
  0
BLOCK
  5
C74A
330
C749
100
AcDbEntity
  8
0
100
AcDbBlockBegin
  2
*MODEL_SPACE
 70
     0
 10
0.0
 20
0.0
 30
0.0
  3
*MODEL_SPACE
  1

  0
ENDBLK
  5
C74B
330
C749
100
AcDbEntity
  8
0
100
AcDbBlockEnd
  0
BLOCK
  5
C746
330
C745
100
AcDbEntity
 67
     1
  8
0
100
AcDbBlockBegin
  2
*PAPER_SPACE
 70
     0
 10
0.0
 20
0.0
 30
0.0
  3
*PAPER_SPACE
  1

  0
ENDBLK
  5
C747
330
C745
100
AcDbEntity
 67
     1
  8
0
100
AcDbBlockEnd
  0
BLOCK
  5
C762
330
C761
100
AcDbEntity
  8
0
100
AcDbBlockBegin
  2
_OPEN
 70
     0
 10
0.0
 20
0.0
 30
0.0
  3
_OPEN
  1

  0
LINE
  5
C763
330
C761
100
AcDbEntity
  8
0
  6
ByBlock
 62
     0
100
AcDbLine
 10
-1.0
 20
0.166667
 30
0.0
 11
0.0
 21
0.0
 31
0.0
  0
LINE
  5
C764
330
C761
100
AcDbEntity
  8
0
  6
ByBlock
 62
     0
100
AcDbLine
 10
0.0
 20
0.0
 30
0.0
 11
-1.0
 21
-0.166667
 31
0.0
  0
LINE
  5
C765
330
C761
100
AcDbEntity
  8
0
  6
ByBlock
 62
     0
100
AcDbLine
 10
0.0
 20
0.0
 30
0.0
 11
-1.0
 21
0.0
 31
0.0
  0
ENDBLK
  5
C766
330
C761
100
AcDbEntity
  8
0
100
AcDbBlockEnd
  0
ENDSEC
  0
SECTION
  2
ENTITIES
  0
TEXT
  5
C767
330
C749
100
AcDbEntity
  8
7
  6
Continuous
100
AcDbText
 10
10.0
 20
18.0
 30
0.0
 40
3.0
  1
TYPE No.107-NS
100
AcDbText
  0
TEXT
  5
C768
330
C749
100
AcDbEntity
  8
7
  6
Continuous
100
AcDbText
 10
10.0
 20
26.0
 30
0.0
 40
3.0
  1
CODE No.9654
100
AcDbText
  0
TEXT
  5
C769
330
C749
100
AcDbEntity
  8
1
  6
Continuous
100
AcDbText
 10
10.0
 20
10.0
 30
0.0
 40
1.399999999999999
  1
LAYER
100
AcDbText
  0
TEXT
  5
C76A
330
C749
100
AcDbEntity
  8
1
  6
Continuous
100
AcDbText
 10
17.97951099999998
 20
10.04873699999998
 30
0.0
 40
1.399999999999999
  1
1
100
AcDbText
  0
TEXT
  5
C76B
330
C749
100
AcDbEntity
  8
7
  6
Continuous
100
AcDbText
 10
29.97951099999999
 20
10.04873699999998
 30
0.0
 40
1.399999999999999
  1
7
100
AcDbText
  0
TEXT
  5
C76C
330
C749
100
AcDbEntity
  8
4
  6
CENTER
100
AcDbText
 10
23.97951099999999
 20
10.04873699999998
 30
0.0
 40
1.399999999999999
  1
4
100
AcDbText
  0
TEXT
  5
C76D
330
C749
100
AcDbEntity
  8
3
  6
DASHED
100
AcDbText
 10
21.979511
 20
10.04873699999998
 30
0.0
 40
1.399999999999999
  1
3
100
AcDbText
  0
TEXT
  5
C76E
330
C749
100
AcDbEntity
  8
2
  6
Continuous
100
AcDbText
 10
19.97951099999999
 20
10.04873699999998
 30
0.0
 40
1.399999999999999
  1
2
100
AcDbText
  0
TEXT
  5
C76F
330
C749
100
AcDbEntity
  8
6
  6
Continuous
100
AcDbText
 10
27.979511
 20
10.04873699999998
 30
0.0
 40
1.399999999999999
  1
6
100
AcDbText
  0
TEXT
  5
C770
330
C749
100
AcDbEntity
  8
5
  6
PHANTOM
100
AcDbText
 10
25.97951099999999
 20
10.04873699999998
 30
0.0
 40
1.399999999999999
  1
5
100
AcDbText
  0
LINE
  5
C771
330
C749
100
AcDbEntity
  8
1
  6
Continuous
100
AcDbLine
 10
250.507768
 20
271.4269239999999
 30
0.0
 11
244.853411
 21
270.928035
 31
0.0
  0
LINE
  5
C772
330
C749
100
AcDbEntity
  8
1
  6
Continuous
100
AcDbLine
 10
175.086035
 20
291.726337
 30
0.0
 11
274.0860349999999
 21
291.726337
 31
0.0
  0
ARC
  5
C773
330
C749
100
AcDbEntity
  8
1
  6
Continuous
100
AcDbCircle
 10
245.117864
 20
276.746691
 30
0.0
 40
7.172999999999999
100
AcDbArc
 50
16.056676
 51
21.632539
  0
LINE
  5
C774
330
C749
100
AcDbEntity
  8
1
  6
Continuous
100
AcDbLine
 10
334.28406
 20
281.4103479999999
 30
0.0
 11
382.7340599999999
 21
281.4103479999999
 31
0.0
  0
LINE
  5
C775
330
C749
100
AcDbEntity
  8
1
  6
Continuous
100
AcDbLine
 10
329.2364899999999
 20
285.353337
 30
0.0
 11
387.781629
 21
285.353337
 31
0.0
  0
LINE
  5
C776
330
C749
100
AcDbEntity
  8
1
  6
Continuous
100
AcDbLine
 10
385.1951599999999
 20
283.5183369999999
 30
0.0
 11
385.1951599999999
 21
281.410337
 31
0.0
  0
LINE
  5
C777
330
C749
100
AcDbEntity
  8
1
  6
Continuous
100
AcDbLine
 10
396.00906
 20
291.726337
 30
0.0
 11
396.00906
 21
288.826722
 31
0.0
  0
LINE
  5
C778
330
C749
100
AcDbEntity
  8
1
  6
Continuous
100
AcDbLine
 10
321.00906
 20
291.726337
 30
0.0
 11
321.00906
 21
288.826722
 31
0.0
  0
LINE
  5
C779
330
C749
100
AcDbEntity
  8
1
  6
Continuous
100
AcDbLine
 10
321.00906
 20
291.726337
 30
0.0
 11
396.00906
 21
291.726337
 31
0.0
  0
LINE
  5
C77A
330
C749
100
AcDbEntity
  8
1
  6
Continuous
100
AcDbLine
 10
321.00906
 20
288.826722
 30
0.0
 11
396.00906
 21
288.826722
 31
0.0
  0
LINE
  5
C77B
330
C749
100
AcDbEntity
  8
1
  6
Continuous
100
AcDbLine
 10
331.82296
 20
283.5183369999999
 30
0.0
 11
385.1951599999999
 21
283.5183369999999
 31
0.0
  0
LINE
  5
C77C
330
C749
100
AcDbEntity
  8
1
  6
Continuous
100
AcDbLine
 10
331.82296
 20
281.410337
 30
0.0
 11
385.1951599999999
 21
281.410337
 31
0.0
  0
LINE
  5
C77D
330
C749
100
AcDbEntity
  8
1
  6
Continuous
100
AcDbLine
 10
331.82296
 20
281.410337
 30
0.0
 11
331.82296
 21
283.5183369999999
 31
0.0
  0
ARC
  5
C77E
330
C749
100
AcDbEntity
  8
1
  6
Continuous
100
AcDbCircle
 10
329.2364899999999
 20
292.853337
 30
0.0
 40
7.5
100
AcDbArc
 50
212.4716319999998
 51
270.0
  0
ARC
  5
C77F
330
C749
100
AcDbEntity
  8
1
  6
Continuous
100
AcDbCircle
 10
387.781629
 20
292.853337
 30
0.0
 40
7.5
100
AcDbArc
 50
270.0
 51
327.528368
  0
ARC
  5
C780
330
C749
100
AcDbEntity
  8
1
  6
Continuous
100
AcDbCircle
 10
376.907448
 20
290.102173
 30
0.0
 40
9.0
100
AcDbArc
 50
312.9845629999999
 51
328.1532869999999
  0
ARC
  5
C781
330
C749
100
AcDbEntity
  8
1
  6
Continuous
100
AcDbCircle
 10
340.45271
 20
289.765918
 30
0.0
 40
9.0
100
AcDbArc
 50
209.359435
 51
223.961567
  0
LINE
  5
C782
330
C749
100
AcDbEntity
  8
1
  6
Continuous
100
AcDbLine
 10
248.8110349999999
 20
281.4113479999999
 30
0.0
 11
200.3610349999999
 21
281.4113479999999
 31
0.0
  0
ARC
  5
C783
330
C749
100
AcDbEntity
  8
1
  6
Continuous
100
AcDbCircle
 10
248.8110349999999
 20
278.211348
 30
0.0
 40
3.2
100
AcDbArc
 50
21.59414599999999
 51
90.0
  0
LINE
  5
C784
330
C749
100
AcDbEntity
  8
1
  6
Continuous
100
AcDbLine
 10
253.858604
 20
285.353337
 30
0.0
 11
195.3134649999999
 21
285.353337
 31
0.0
  0
LINE
  5
C785
330
C749
100
AcDbEntity
  8
1
  6
Continuous
100
AcDbLine
 10
197.899935
 20
283.5183369999999
 30
0.0
 11
197.899935
 21
281.411337
 31
0.0
  0
LINE
  5
C786
330
C749
100
AcDbEntity
  8
1
  6
Continuous
100
AcDbLine
 10
274.0860349999999
 20
288.826722
 30
0.0
 11
175.086035
 21
288.826722
 31
0.0
  0
LINE
  5
C787
330
C749
100
AcDbEntity
  8
1
  6
Continuous
100
AcDbLine
 10
251.272135
 20
283.5183369999999
 30
0.0
 11
197.899935
 21
283.5183369999999
 31
0.0
  0
LINE
  5
C788
330
C749
100
AcDbEntity
  8
1
  6
Continuous
100
AcDbLine
 10
251.272135
 20
281.411337
 30
0.0
 11
197.899935
 21
281.411337
 31
0.0
  0
LINE
  5
C789
330
C749
100
AcDbEntity
  8
1
  6
Continuous
100
AcDbLine
 10
251.272135
 20
281.411337
 30
0.0
 11
251.272135
 21
283.5183369999999
 31
0.0
  0
ARC
  5
C78A
330
C749
100
AcDbEntity
  8
1
  6
Continuous
100
AcDbCircle
 10
253.858604
 20
292.853337
 30
0.0
 40
7.5
100
AcDbArc
 50
270.0
 51
327.528368
  0
ARC
  5
C78B
330
C749
100
AcDbEntity
  8
1
  6
Continuous
100
AcDbCircle
 10
195.3134649999999
 20
292.853337
 30
0.0
 40
7.5
100
AcDbArc
 50
212.4716319999998
 51
270.0
  0
ARC
  5
C78C
330
C749
100
AcDbEntity
  8
1
  6
Continuous
100
AcDbCircle
 10
206.187646
 20
290.102173
 30
0.0
 40
9.0
100
AcDbArc
 50
211.8467129999999
 51
227.0154369999999
  0
ARC
  5
C78D
330
C749
100
AcDbEntity
  8
1
  6
Continuous
100
AcDbCircle
 10
242.6423839999999
 20
289.765918
 30
0.0
 40
9.0
100
AcDbArc
 50
316.0384329999998
 51
330.6405649999998
  0
LINE
  5
C78E
330
C749
100
AcDbEntity
  8
1
  6
Continuous
100
AcDbLine
 10
274.0860349999999
 20
288.826722
 30
0.0
 11
274.0860349999999
 21
291.726337
 31
0.0
  0
LINE
  5
C78F
330
C749
100
AcDbEntity
  8
1
  6
Continuous
100
AcDbLine
 10
175.086035
 20
288.826722
 30
0.0
 11
175.086035
 21
291.710877
 31
0.0
  0
LINE
  5
C790
330
C749
100
AcDbEntity
  8
1
  6
Continuous
100
AcDbLine
 10
274.0860349999999
 20
346.1778279999998
 30
0.0
 11
274.0860349999999
 21
406.1778279999998
 31
0.0
  0
LINE
  5
C791
330
C749
100
AcDbEntity
  8
1
  6
Continuous
100
AcDbLine
 10
175.086035
 20
346.1778279999998
 30
0.0
 11
175.086035
 21
406.1778279999998
 31
0.0
  0
LINE
  5
C792
330
C749
100
AcDbEntity
  8
1
  6
Continuous
100
AcDbLine
 10
266.5860349999999
 20
413.6778279999998
 30
0.0
 11
182.586035
 21
413.6778279999998
 31
0.0
  0
LINE
  5
C793
330
C749
100
AcDbEntity
  8
1
  6
Continuous
100
AcDbLine
 10
266.5860349999999
 20
338.6778279999999
 30
0.0
 11
182.586035
 21
338.6778279999999
 31
0.0
  0
CIRCLE
  5
C794
330
C749
100
AcDbEntity
  8
1
  6
Continuous
100
AcDbCircle
 10
264.5860349999999
 20
404.1778279999999
 30
0.0
 40
4.25
  0
CIRCLE
  5
C795
330
C749
100
AcDbEntity
  8
1
  6
Continuous
100
AcDbCircle
 10
264.5860349999999
 20
348.1778279999999
 30
0.0
 40
4.25
  0
CIRCLE
  5
C796
330
C749
100
AcDbEntity
  8
1
  6
Continuous
100
AcDbCircle
 10
184.586035
 20
348.1778279999999
 30
0.0
 40
4.25
  0
CIRCLE
  5
C797
330
C749
100
AcDbEntity
  8
1
  6
Continuous
100
AcDbCircle
 10
184.586035
 20
404.1778279999999
 30
0.0
 40
4.25
  0
CIRCLE
  5
C798
330
C749
100
AcDbEntity
  8
1
  6
Continuous
100
AcDbCircle
 10
224.586035
 20
376.1778279999999
 30
0.0
 40
31.0
  0
CIRCLE
  5
C799
330
C749
100
AcDbEntity
  8
1
  6
Continuous
100
AcDbCircle
 10
224.586035
 20
376.1778279999999
 30
0.0
 40
13.34999999999999
  0
ARC
  5
C79A
330
C749
100
AcDbEntity
  8
1
  6
Continuous
100
AcDbCircle
 10
266.5860349999999
 20
406.1778279999998
 30
0.0
 40
7.5
100
AcDbArc
 50
0.0
 51
90.0
  0
ARC
  5
C79B
330
C749
100
AcDbEntity
  8
1
  6
Continuous
100
AcDbCircle
 10
266.5860349999999
 20
346.1778279999998
 30
0.0
 40
7.5
100
AcDbArc
 50
270.0
 51
0.0
  0
ARC
  5
C79C
330
C749
100
AcDbEntity
  8
1
  6
Continuous
100
AcDbCircle
 10
182.586035
 20
406.1778279999998
 30
0.0
 40
7.5
100
AcDbArc
 50
90.0
 51
180.0
  0
ARC
  5
C79D
330
C749
100
AcDbEntity
  8
1
  6
Continuous
100
AcDbCircle
 10
182.586035
 20
346.1778279999998
 30
0.0
 40
7.5
100
AcDbArc
 50
180.0
 51
270.0
  0
LINE
  5
C79E
330
C749
100
AcDbEntity
  8
1
  6
Continuous
100
AcDbLine
 10
331.08406
 20
278.2103479999999
 30
0.0
 11
331.08406
 21
240.8077009999999
 31
0.0
  0
LINE
  5
C79F
330
C749
100
AcDbEntity
  8
1
  6
Continuous
100
AcDbLine
 10
385.9340599999999
 20
278.2103479999999
 30
0.0
 11
385.9340599999999
 21
238.32971
 31
0.0
  0
ARC
  5
C7A0
330
C749
100
AcDbEntity
  8
1
  6
Continuous
100
AcDbCircle
 10
334.28406
 20
278.2103479999999
 30
0.0
 40
3.2
100
AcDbArc
 50
90.0
 51
180.0
  0
ARC
  5
C7A1
330
C749
100
AcDbEntity
  8
1
  6
Continuous
100
AcDbCircle
 10
382.7340599999999
 20
278.2103479999999
 30
0.0
 40
3.2
100
AcDbArc
 50
0.0
 51
90.0
  0
LINE
  5
C7A2
330
C749
100
AcDbEntity
  8
1
  6
Continuous
100
AcDbLine
 10
374.3262599999998
 20
207.2262429999999
 30
0.0
 11
376.926269
 21
207.2262429999999
 31
0.0
  0
LINE
  5
C7A3
330
C749
100
AcDbEntity
  8
1
  6
Continuous
100
AcDbLine
 10
349.962153
 20
271.52734
 30
0.0
 11
367.055966
 21
271.52734
 31
0.0
  0
ARC
  5
C7A4
330
C749
100
AcDbEntity
  8
1
  6
Continuous
100
AcDbCircle
 10
371.669201
 20
238.32971
 30
0.0
 40
40.585141
100
AcDbArc
 50
127.58973
 51
178.2037629999999
  0
ARC
  5
C7A5
330
C749
100
AcDbEntity
  8
1
  6
Continuous
100
AcDbCircle
 10
349.962153
 20
266.5273399999999
 30
0.0
 40
5.0
100
AcDbArc
 50
90.0
 51
127.58973
  0
ARC
  5
C7A6
330
C749
100
AcDbEntity
  8
1
  6
Continuous
100
AcDbCircle
 10
372.9088929999999
 20
240.1980149999999
 30
0.0
 40
39.224834
100
AcDbArc
 50
127.1210199999998
 51
179.538277
  0
ARC
  5
C7A7
330
C749
100
AcDbEntity
  8
1
  6
Continuous
100
AcDbCircle
 10
345.3489189999999
 20
238.32971
 30
0.0
 40
40.585141
100
AcDbArc
 50
4.655269999999998
 51
52.41027
  0
ARC
  5
C7A8
330
C749
100
AcDbEntity
  8
1
  6
Continuous
100
AcDbCircle
 10
367.055966
 20
266.5273399999999
 30
0.0
 40
5.0
100
AcDbArc
 50
52.41027
 51
90.0
  0
ARC
  5
C7A9
330
C749
100
AcDbEntity
  8
1
  6
Continuous
100
AcDbCircle
 10
344.109226
 20
240.1980149999999
 30
0.0
 40
39.224834
100
AcDbArc
 50
0.4616360000000002
 51
52.87898000000001
  0
ARC
  5
C7AA
330
C749
100
AcDbEntity
  8
1
  6
Continuous
100
AcDbCircle
 10
191.5864479999999
 20
218.726543
 30
0.0
 40
50.0
100
AcDbArc
 50
85.14298000000001
 51
154.492044
  0
LINE
  5
C7AB
330
C749
100
AcDbEntity
  8
1
  6
Continuous
100
AcDbLine
 10
203.380718
 20
277.1581949999999
 30
0.0
 11
203.380718
 21
233.1632759999999
 31
0.0
  0
LINE
  5
C7AC
330
C749
100
AcDbEntity
  8
1
  6
Continuous
100
AcDbLine
 10
332.82296
 20
283.5183369999999
 30
0.0
 11
331.82296
 21
282.410337
 31
0.0
  0
LINE
  5
C7AD
330
C749
100
AcDbEntity
  8
1
  6
Continuous
100
AcDbLine
 10
332.9442799999998
 20
281.410337
 30
0.0
 11
334.9442799999998
 21
283.5183369999999
 31
0.0
  0
LINE
  5
C7AE
330
C749
100
AcDbEntity
  8
1
  6
Continuous
100
AcDbLine
 10
335.0656
 20
281.410337
 30
0.0
 11
337.0656
 21
283.5183369999999
 31
0.0
  0
LINE
  5
C7AF
330
C749
100
AcDbEntity
  8
1
  6
Continuous
100
AcDbLine
 10
337.1869209999999
 20
281.410337
 30
0.0
 11
339.1869209999999
 21
283.5183369999999
 31
0.0
  0
LINE
  5
C7B0
330
C749
100
AcDbEntity
  8
1
  6
Continuous
100
AcDbLine
 10
339.308241
 20
281.410337
 30
0.0
 11
341.308241
 21
283.5183369999999
 31
0.0
  0
LINE
  5
C7B1
330
C749
100
AcDbEntity
  8
1
  6
Continuous
100
AcDbLine
 10
341.4295609999999
 20
281.410337
 30
0.0
 11
343.4295609999999
 21
283.5183369999999
 31
0.0
  0
LINE
  5
C7B2
330
C749
100
AcDbEntity
  8
1
  6
Continuous
100
AcDbLine
 10
343.5508819999999
 20
281.410337
 30
0.0
 11
345.5508819999999
 21
283.5183369999999
 31
0.0
  0
LINE
  5
C7B3
330
C749
100
AcDbEntity
  8
1
  6
Continuous
100
AcDbLine
 10
345.672202
 20
281.410337
 30
0.0
 11
347.672202
 21
283.5183369999999
 31
0.0
  0
LINE
  5
C7B4
330
C749
100
AcDbEntity
  8
1
  6
Continuous
100
AcDbLine
 10
347.7935219999998
 20
281.410337
 30
0.0
 11
349.793522
 21
283.5183369999999
 31
0.0
  0
LINE
  5
C7B5
330
C749
100
AcDbEntity
  8
1
  6
Continuous
100
AcDbLine
 10
349.914843
 20
281.410337
 30
0.0
 11
351.914843
 21
283.5183369999999
 31
0.0
  0
LINE
  5
C7B6
330
C749
100
AcDbEntity
  8
1
  6
Continuous
100
AcDbLine
 10
352.036163
 20
281.410337
 30
0.0
 11
354.036163
 21
283.5183369999999
 31
0.0
  0
LINE
  5
C7B7
330
C749
100
AcDbEntity
  8
1
  6
Continuous
100
AcDbLine
 10
354.157483
 20
281.410337
 30
0.0
 11
356.157483
 21
283.5183369999999
 31
0.0
  0
LINE
  5
C7B8
330
C749
100
AcDbEntity
  8
1
  6
Continuous
100
AcDbLine
 10
356.278804
 20
281.410337
 30
0.0
 11
358.278804
 21
283.5183369999999
 31
0.0
  0
LINE
  5
C7B9
330
C749
100
AcDbEntity
  8
1
  6
Continuous
100
AcDbLine
 10
358.400124
 20
281.410337
 30
0.0
 11
360.400124
 21
283.5183369999999
 31
0.0
  0
LINE
  5
C7BA
330
C749
100
AcDbEntity
  8
1
  6
Continuous
100
AcDbLine
 10
360.5214439999999
 20
281.410337
 30
0.0
 11
362.5214439999999
 21
283.5183369999999
 31
0.0
  0
LINE
  5
C7BB
330
C749
100
AcDbEntity
  8
1
  6
Continuous
100
AcDbLine
 10
362.642765
 20
281.410337
 30
0.0
 11
364.642765
 21
283.5183369999999
 31
0.0
  0
LINE
  5
C7BC
330
C749
100
AcDbEntity
  8
1
  6
Continuous
100
AcDbLine
 10
364.764085
 20
281.410337
 30
0.0
 11
366.764085
 21
283.5183369999999
 31
0.0
  0
LINE
  5
C7BD
330
C749
100
AcDbEntity
  8
1
  6
Continuous
100
AcDbLine
 10
366.885405
 20
281.410337
 30
0.0
 11
368.8854049999998
 21
283.5183369999999
 31
0.0
  0
LINE
  5
C7BE
330
C749
100
AcDbEntity
  8
1
  6
Continuous
100
AcDbLine
 10
369.0067259999998
 20
281.410337
 30
0.0
 11
371.0067259999998
 21
283.5183369999999
 31
0.0
  0
LINE
  5
C7BF
330
C749
100
AcDbEntity
  8
1
  6
Continuous
100
AcDbLine
 10
371.1280459999999
 20
281.410337
 30
0.0
 11
373.1280459999999
 21
283.5183369999999
 31
0.0
  0
LINE
  5
C7C0
330
C749
100
AcDbEntity
  8
1
  6
Continuous
100
AcDbLine
 10
373.249366
 20
281.410337
 30
0.0
 11
375.249366
 21
283.5183369999999
 31
0.0
  0
LINE
  5
C7C1
330
C749
100
AcDbEntity
  8
1
  6
Continuous
100
AcDbLine
 10
375.3706869999998
 20
281.410337
 30
0.0
 11
377.3706869999998
 21
283.5183369999999
 31
0.0
  0
LINE
  5
C7C2
330
C749
100
AcDbEntity
  8
1
  6
Continuous
100
AcDbLine
 10
377.492007
 20
281.410337
 30
0.0
 11
379.4920069999998
 21
283.5183369999999
 31
0.0
  0
LINE
  5
C7C3
330
C749
100
AcDbEntity
  8
1
  6
Continuous
100
AcDbLine
 10
379.613327
 20
281.410337
 30
0.0
 11
381.613327
 21
283.5183369999999
 31
0.0
  0
LINE
  5
C7C4
330
C749
100
AcDbEntity
  8
1
  6
Continuous
100
AcDbLine
 10
381.7346479999998
 20
281.410337
 30
0.0
 11
383.7346479999998
 21
283.5183369999999
 31
0.0
  0
LINE
  5
C7C5
330
C749
100
AcDbEntity
  8
1
  6
Continuous
100
AcDbLine
 10
383.855968
 20
281.410337
 30
0.0
 11
385.1951599999999
 21
282.7495279999999
 31
0.0
  0
LINE
  5
C7C6
330
C749
100
AcDbEntity
  8
1
  6
Continuous
100
AcDbLine
 10
332.82296
 20
281.410337
 30
0.0
 11
331.82296
 21
282.410337
 31
0.0
  0
LINE
  5
C7C7
330
C749
100
AcDbEntity
  8
1
  6
Continuous
100
AcDbLine
 10
335.651387
 20
281.410337
 30
0.0
 11
333.651387
 21
283.5183369999999
 31
0.0
  0
LINE
  5
C7C8
330
C749
100
AcDbEntity
  8
1
  6
Continuous
100
AcDbLine
 10
338.479814
 20
281.410337
 30
0.0
 11
336.4798139999999
 21
283.5183369999999
 31
0.0
  0
LINE
  5
C7C9
330
C749
100
AcDbEntity
  8
1
  6
Continuous
100
AcDbLine
 10
341.308241
 20
281.410337
 30
0.0
 11
339.308241
 21
283.5183369999999
 31
0.0
  0
LINE
  5
C7CA
330
C749
100
AcDbEntity
  8
1
  6
Continuous
100
AcDbLine
 10
344.1366679999999
 20
281.410337
 30
0.0
 11
342.1366679999999
 21
283.5183369999999
 31
0.0
  0
LINE
  5
C7CB
330
C749
100
AcDbEntity
  8
1
  6
Continuous
100
AcDbLine
 10
346.965095
 20
281.410337
 30
0.0
 11
344.965095
 21
283.5183369999999
 31
0.0
  0
LINE
  5
C7CC
330
C749
100
AcDbEntity
  8
1
  6
Continuous
100
AcDbLine
 10
349.793522
 20
281.410337
 30
0.0
 11
347.7935219999998
 21
283.5183369999999
 31
0.0
  0
LINE
  5
C7CD
330
C749
100
AcDbEntity
  8
1
  6
Continuous
100
AcDbLine
 10
352.6219489999999
 20
281.410337
 30
0.0
 11
350.6219489999998
 21
283.5183369999999
 31
0.0
  0
LINE
  5
C7CE
330
C749
100
AcDbEntity
  8
1
  6
Continuous
100
AcDbLine
 10
355.450377
 20
281.410337
 30
0.0
 11
353.450377
 21
283.5183369999999
 31
0.0
  0
LINE
  5
C7CF
330
C749
100
AcDbEntity
  8
1
  6
Continuous
100
AcDbLine
 10
358.278804
 20
281.410337
 30
0.0
 11
356.278804
 21
283.5183369999999
 31
0.0
  0
LINE
  5
C7D0
330
C749
100
AcDbEntity
  8
1
  6
Continuous
100
AcDbLine
 10
361.107231
 20
281.410337
 30
0.0
 11
359.107231
 21
283.5183369999999
 31
0.0
  0
LINE
  5
C7D1
330
C749
100
AcDbEntity
  8
1
  6
Continuous
100
AcDbLine
 10
363.9356579999999
 20
281.410337
 30
0.0
 11
361.9356579999999
 21
283.5183369999999
 31
0.0
  0
LINE
  5
C7D2
330
C749
100
AcDbEntity
  8
1
  6
Continuous
100
AcDbLine
 10
366.764085
 20
281.410337
 30
0.0
 11
364.764085
 21
283.5183369999999
 31
0.0
  0
LINE
  5
C7D3
330
C749
100
AcDbEntity
  8
1
  6
Continuous
100
AcDbLine
 10
369.592512
 20
281.410337
 30
0.0
 11
367.592512
 21
283.5183369999999
 31
0.0
  0
LINE
  5
C7D4
330
C749
100
AcDbEntity
  8
1
  6
Continuous
100
AcDbLine
 10
372.4209389999999
 20
281.410337
 30
0.0
 11
370.4209389999999
 21
283.5183369999999
 31
0.0
  0
LINE
  5
C7D5
330
C749
100
AcDbEntity
  8
1
  6
Continuous
100
AcDbLine
 10
375.249366
 20
281.410337
 30
0.0
 11
373.249366
 21
283.5183369999999
 31
0.0
  0
LINE
  5
C7D6
330
C749
100
AcDbEntity
  8
1
  6
Continuous
100
AcDbLine
 10
378.077794
 20
281.410337
 30
0.0
 11
376.077794
 21
283.5183369999999
 31
0.0
  0
LINE
  5
C7D7
330
C749
100
AcDbEntity
  8
1
  6
Continuous
100
AcDbLine
 10
380.906221
 20
281.410337
 30
0.0
 11
378.906221
 21
283.5183369999999
 31
0.0
  0
LINE
  5
C7D8
330
C749
100
AcDbEntity
  8
1
  6
Continuous
100
AcDbLine
 10
383.7346479999998
 20
281.410337
 30
0.0
 11
381.7346479999998
 21
283.5183369999999
 31
0.0
  0
LINE
  5
C7D9
330
C749
100
AcDbEntity
  8
1
  6
Continuous
100
AcDbLine
 10
385.1951599999999
 20
282.886252
 30
0.0
 11
384.563075
 21
283.5183369999999
 31
0.0
  0
LINE
  5
C7DA
330
C749
100
AcDbEntity
  8
1
  6
Continuous
100
AcDbLine
 10
250.2721349999999
 20
283.5183369999999
 30
0.0
 11
251.272135
 21
282.5183369999999
 31
0.0
  0
LINE
  5
C7DB
330
C749
100
AcDbEntity
  8
1
  6
Continuous
100
AcDbLine
 10
250.150814
 20
281.411337
 30
0.0
 11
248.150814
 21
283.5183369999999
 31
0.0
  0
LINE
  5
C7DC
330
C749
100
AcDbEntity
  8
1
  6
Continuous
100
AcDbLine
 10
248.0294939999998
 20
281.411337
 30
0.0
 11
246.029494
 21
283.5183369999999
 31
0.0
  0
LINE
  5
C7DD
330
C749
100
AcDbEntity
  8
1
  6
Continuous
100
AcDbLine
 10
245.908174
 20
281.411337
 30
0.0
 11
243.908174
 21
283.5183369999999
 31
0.0
  0
LINE
  5
C7DE
330
C749
100
AcDbEntity
  8
1
  6
Continuous
100
AcDbLine
 10
243.7868529999998
 20
281.411337
 30
0.0
 11
241.7868529999998
 21
283.5183369999999
 31
0.0
  0
LINE
  5
C7DF
330
C749
100
AcDbEntity
  8
1
  6
Continuous
100
AcDbLine
 10
241.665533
 20
281.411337
 30
0.0
 11
239.665533
 21
283.5183369999999
 31
0.0
  0
LINE
  5
C7E0
330
C749
100
AcDbEntity
  8
1
  6
Continuous
100
AcDbLine
 10
239.5442129999999
 20
281.411337
 30
0.0
 11
237.5442129999999
 21
283.5183369999999
 31
0.0
  0
LINE
  5
C7E1
330
C749
100
AcDbEntity
  8
1
  6
Continuous
100
AcDbLine
 10
237.4228919999999
 20
281.411337
 30
0.0
 11
235.422892
 21
283.5183369999999
 31
0.0
  0
LINE
  5
C7E2
330
C749
100
AcDbEntity
  8
1
  6
Continuous
100
AcDbLine
 10
235.301572
 20
281.411337
 30
0.0
 11
233.301572
 21
283.5183369999999
 31
0.0
  0
LINE
  5
C7E3
330
C749
100
AcDbEntity
  8
1
  6
Continuous
100
AcDbLine
 10
233.180252
 20
281.411337
 30
0.0
 11
231.180252
 21
283.5183369999999
 31
0.0
  0
LINE
  5
C7E4
330
C749
100
AcDbEntity
  8
1
  6
Continuous
100
AcDbLine
 10
231.058931
 20
281.411337
 30
0.0
 11
229.058931
 21
283.5183369999999
 31
0.0
  0
LINE
  5
C7E5
330
C749
100
AcDbEntity
  8
1
  6
Continuous
100
AcDbLine
 10
228.9376109999998
 20
281.411337
 30
0.0
 11
226.9376109999999
 21
283.5183369999999
 31
0.0
  0
LINE
  5
C7E6
330
C749
100
AcDbEntity
  8
1
  6
Continuous
100
AcDbLine
 10
226.816291
 20
281.411337
 30
0.0
 11
224.816291
 21
283.5183369999999
 31
0.0
  0
LINE
  5
C7E7
330
C749
100
AcDbEntity
  8
1
  6
Continuous
100
AcDbLine
 10
224.69497
 20
281.411337
 30
0.0
 11
222.69497
 21
283.5183369999999
 31
0.0
  0
LINE
  5
C7E8
330
C749
100
AcDbEntity
  8
1
  6
Continuous
100
AcDbLine
 10
222.57365
 20
281.411337
 30
0.0
 11
220.5736499999999
 21
283.5183369999999
 31
0.0
  0
LINE
  5
C7E9
330
C749
100
AcDbEntity
  8
1
  6
Continuous
100
AcDbLine
 10
220.4523299999999
 20
281.411337
 30
0.0
 11
218.4523299999999
 21
283.5183369999999
 31
0.0
  0
LINE
  5
C7EA
330
C749
100
AcDbEntity
  8
1
  6
Continuous
100
AcDbLine
 10
218.3310089999999
 20
281.411337
 30
0.0
 11
216.3310089999999
 21
283.5183369999999
 31
0.0
  0
LINE
  5
C7EB
330
C749
100
AcDbEntity
  8
1
  6
Continuous
100
AcDbLine
 10
216.209689
 20
281.411337
 30
0.0
 11
214.209689
 21
283.5183369999999
 31
0.0
  0
LINE
  5
C7EC
330
C749
100
AcDbEntity
  8
1
  6
Continuous
100
AcDbLine
 10
214.0883689999999
 20
281.411337
 30
0.0
 11
212.0883689999998
 21
283.5183369999999
 31
0.0
  0
LINE
  5
C7ED
330
C749
100
AcDbEntity
  8
1
  6
Continuous
100
AcDbLine
 10
211.9670479999999
 20
281.411337
 30
0.0
 11
209.9670479999999
 21
283.5183369999999
 31
0.0
  0
LINE
  5
C7EE
330
C749
100
AcDbEntity
  8
1
  6
Continuous
100
AcDbLine
 10
209.8457279999998
 20
281.411337
 30
0.0
 11
207.845728
 21
283.5183369999999
 31
0.0
  0
LINE
  5
C7EF
330
C749
100
AcDbEntity
  8
1
  6
Continuous
100
AcDbLine
 10
207.724407
 20
281.411337
 30
0.0
 11
205.724407
 21
283.5183369999999
 31
0.0
  0
LINE
  5
C7F0
330
C749
100
AcDbEntity
  8
1
  6
Continuous
100
AcDbLine
 10
205.6030869999999
 20
281.411337
 30
0.0
 11
203.6030869999999
 21
283.5183369999999
 31
0.0
  0
LINE
  5
C7F1
330
C749
100
AcDbEntity
  8
1
  6
Continuous
100
AcDbLine
 10
203.4817669999999
 20
281.411337
 30
0.0
 11
201.4817669999999
 21
283.5183369999999
 31
0.0
  0
LINE
  5
C7F2
330
C749
100
AcDbEntity
  8
1
  6
Continuous
100
AcDbLine
 10
201.3604459999998
 20
281.411337
 30
0.0
 11
199.360446
 21
283.5183369999999
 31
0.0
  0
LINE
  5
C7F3
330
C749
100
AcDbEntity
  8
1
  6
Continuous
100
AcDbLine
 10
199.2391259999999
 20
281.411337
 30
0.0
 11
197.899935
 21
282.8575279999999
 31
0.0
  0
LINE
  5
C7F4
330
C749
100
AcDbEntity
  8
1
  6
Continuous
100
AcDbLine
 10
250.2721349999999
 20
281.411337
 30
0.0
 11
251.272135
 21
282.5183369999999
 31
0.0
  0
LINE
  5
C7F5
330
C749
100
AcDbEntity
  8
1
  6
Continuous
100
AcDbLine
 10
247.4437079999999
 20
281.411337
 30
0.0
 11
249.4437079999999
 21
283.5183369999999
 31
0.0
  0
LINE
  5
C7F6
330
C749
100
AcDbEntity
  8
1
  6
Continuous
100
AcDbLine
 10
244.6152799999999
 20
281.411337
 30
0.0
 11
246.6152799999999
 21
283.5183369999999
 31
0.0
  0
LINE
  5
C7F7
330
C749
100
AcDbEntity
  8
1
  6
Continuous
100
AcDbLine
 10
241.7868529999998
 20
281.411337
 30
0.0
 11
243.7868529999998
 21
283.5183369999999
 31
0.0
  0
LINE
  5
C7F8
330
C749
100
AcDbEntity
  8
1
  6
Continuous
100
AcDbLine
 10
238.9584259999999
 20
281.411337
 30
0.0
 11
240.9584259999999
 21
283.5183369999999
 31
0.0
  0
LINE
  5
C7F9
330
C749
100
AcDbEntity
  8
1
  6
Continuous
100
AcDbLine
 10
236.129999
 20
281.411337
 30
0.0
 11
238.129999
 21
283.5183369999999
 31
0.0
  0
LINE
  5
C7FA
330
C749
100
AcDbEntity
  8
1
  6
Continuous
100
AcDbLine
 10
233.301572
 20
281.411337
 30
0.0
 11
235.301572
 21
283.5183369999999
 31
0.0
  0
LINE
  5
C7FB
330
C749
100
AcDbEntity
  8
1
  6
Continuous
100
AcDbLine
 10
230.4731449999999
 20
281.411337
 30
0.0
 11
232.4731449999999
 21
283.5183369999999
 31
0.0
  0
LINE
  5
C7FC
330
C749
100
AcDbEntity
  8
1
  6
Continuous
100
AcDbLine
 10
227.644718
 20
281.411337
 30
0.0
 11
229.644718
 21
283.5183369999999
 31
0.0
  0
LINE
  5
C7FD
330
C749
100
AcDbEntity
  8
1
  6
Continuous
100
AcDbLine
 10
224.816291
 20
281.411337
 30
0.0
 11
226.816291
 21
283.5183369999999
 31
0.0
  0
LINE
  5
C7FE
330
C749
100
AcDbEntity
  8
1
  6
Continuous
100
AcDbLine
 10
221.9878629999998
 20
281.411337
 30
0.0
 11
223.9878629999998
 21
283.5183369999999
 31
0.0
  0
LINE
  5
C7FF
330
C749
100
AcDbEntity
  8
1
  6
Continuous
100
AcDbLine
 10
219.1594359999999
 20
281.411337
 30
0.0
 11
221.1594359999998
 21
283.5183369999999
 31
0.0
  0
LINE
  5
C800
330
C749
100
AcDbEntity
  8
1
  6
Continuous
100
AcDbLine
 10
216.3310089999999
 20
281.411337
 30
0.0
 11
218.3310089999999
 21
283.5183369999999
 31
0.0
  0
LINE
  5
C801
330
C749
100
AcDbEntity
  8
1
  6
Continuous
100
AcDbLine
 10
213.502582
 20
281.411337
 30
0.0
 11
215.502582
 21
283.5183369999999
 31
0.0
  0
LINE
  5
C802
330
C749
100
AcDbEntity
  8
1
  6
Continuous
100
AcDbLine
 10
210.6741549999999
 20
281.411337
 30
0.0
 11
212.6741549999999
 21
283.5183369999999
 31
0.0
  0
LINE
  5
C803
330
C749
100
AcDbEntity
  8
1
  6
Continuous
100
AcDbLine
 10
207.845728
 20
281.411337
 30
0.0
 11
209.8457279999998
 21
283.5183369999999
 31
0.0
  0
LINE
  5
C804
330
C749
100
AcDbEntity
  8
1
  6
Continuous
100
AcDbLine
 10
205.0173009999999
 20
281.411337
 30
0.0
 11
207.0173009999999
 21
283.5183369999999
 31
0.0
  0
LINE
  5
C805
330
C749
100
AcDbEntity
  8
1
  6
Continuous
100
AcDbLine
 10
202.188874
 20
281.411337
 30
0.0
 11
204.188874
 21
283.5183369999999
 31
0.0
  0
LINE
  5
C806
330
C749
100
AcDbEntity
  8
1
  6
Continuous
100
AcDbLine
 10
199.360446
 20
281.411337
 30
0.0
 11
201.3604459999998
 21
283.5183369999999
 31
0.0
  0
LINE
  5
C807
330
C749
100
AcDbEntity
  8
1
  6
Continuous
100
AcDbLine
 10
197.899935
 20
282.886252
 30
0.0
 11
198.5320189999999
 21
283.5183369999999
 31
0.0
  0
LINE
  5
C808
330
C749
100
AcDbEntity
  8
4
  6
CENTER
100
AcDbLine
 10
133.5864479999999
 20
218.726543
 30
0.0
 11
248.816658
 21
218.726543
 31
0.0
  0
LINE
  5
C809
330
C749
100
AcDbEntity
  8
4
  6
CENTER
100
AcDbLine
 10
191.5864479999999
 20
160.6195429999999
 30
0.0
 11
191.5864479999999
 21
276.726543
 31
0.0
  0
LINE
  5
C80A
330
C749
100
AcDbEntity
  8
4
  6
CENTER
100
AcDbLine
 10
224.586035
 20
247.7533339999999
 30
0.0
 11
224.586035
 21
296.7263369999999
 31
0.0
  0
LINE
  5
C80B
330
C749
100
AcDbEntity
  8
4
  6
CENTER
100
AcDbLine
 10
271.8360349999999
 20
404.1778279999999
 30
0.0
 11
257.3360349999999
 21
404.1778279999999
 31
0.0
  0
LINE
  5
C80C
330
C749
100
AcDbEntity
  8
4
  6
CENTER
100
AcDbLine
 10
264.5860349999999
 20
396.9278279999999
 30
0.0
 11
264.5860349999999
 21
411.4278279999998
 31
0.0
  0
LINE
  5
C80D
330
C749
100
AcDbEntity
  8
4
  6
CENTER
100
AcDbLine
 10
271.8360349999999
 20
348.1778279999999
 30
0.0
 11
257.3360349999999
 21
348.1778279999999
 31
0.0
  0
LINE
  5
C80E
330
C749
100
AcDbEntity
  8
4
  6
CENTER
100
AcDbLine
 10
264.5860349999999
 20
340.9278279999999
 30
0.0
 11
264.5860349999999
 21
355.4278279999999
 31
0.0
  0
LINE
  5
C80F
330
C749
100
AcDbEntity
  8
4
  6
CENTER
100
AcDbLine
 10
190.463829
 20
348.1778279999999
 30
0.0
 11
178.6615369999999
 21
348.1778279999999
 31
0.0
  0
LINE
  5
C810
330
C749
100
AcDbEntity
  8
4
  6
CENTER
100
AcDbLine
 10
184.586035
 20
340.3079739999999
 30
0.0
 11
184.586035
 21
354.6681159999999
 31
0.0
  0
LINE
  5
C811
330
C749
100
AcDbEntity
  8
4
  6
CENTER
100
AcDbLine
 10
191.836035
 20
404.1778279999999
 30
0.0
 11
177.336035
 21
404.1778279999999
 31
0.0
  0
LINE
  5
C812
330
C749
100
AcDbEntity
  8
4
  6
CENTER
100
AcDbLine
 10
184.586035
 20
396.9278279999999
 30
0.0
 11
184.586035
 21
411.4278279999998
 31
0.0
  0
LINE
  5
C813
330
C749
100
AcDbEntity
  8
4
  6
CENTER
100
AcDbLine
 10
279.0860349999999
 20
376.1778279999999
 30
0.0
 11
136.586035
 21
376.1778279999999
 31
0.0
  0
LINE
  5
C814
330
C749
100
AcDbEntity
  8
4
  6
CENTER
100
AcDbLine
 10
224.586035
 20
333.6778279999998
 30
0.0
 11
224.586035
 21
418.6778279999998
 31
0.0
  0
LINE
  5
C815
330
C749
100
AcDbEntity
  8
4
  6
CENTER
100
AcDbLine
 10
358.50906
 20
296.7263369999999
 30
0.0
 11
358.50906
 21
160.726247
 31
0.0
  0
LINE
  5
C816
330
C749
100
AcDbEntity
  8
1
  6
Continuous
100
AcDbLine
 10
342.69186
 20
265.208383
 30
0.0
 11
342.69186
 21
231.728206
 31
0.0
  0
LINE
  5
C817
330
C749
100
AcDbEntity
  8
1
  6
Continuous
100
AcDbLine
 10
374.3262599999998
 20
265.2083819999999
 30
0.0
 11
374.3262599999998
 21
207.2262429999999
 31
0.0
  0
ARC
  5
C818
330
C749
100
AcDbEntity
  8
1
  6
Continuous
100
AcDbCircle
 10
181.4622139999999
 20
266.318997
 30
0.0
 40
14.529548
100
AcDbArc
 50
359.3096679999999
 51
41.61228499999999
  0
LINE
  5
C819
330
C749
100
AcDbEntity
  8
1
  6
Continuous
100
AcDbLine
 10
192.3253129999999
 20
275.9678749999998
 30
0.0
 11
191.5883819999999
 21
278.48638
 31
0.0
  0
ARC
  5
C81A
330
C749
100
AcDbEntity
  8
1
  6
Continuous
100
AcDbCircle
 10
183.746176
 20
275.8823549999998
 30
0.0
 40
5.267126
100
AcDbArc
 50
2.768558
 51
15.576486
  0
ARC
  5
C81B
330
C749
100
AcDbEntity
  8
1
  6
Continuous
100
AcDbCircle
 10
192.5528429999999
 20
546.829645
 30
0.0
 40
270.861866
100
AcDbArc
 50
269.329835
 51
269.95187
  0
ARC
  5
C81C
330
C749
100
AcDbEntity
  8
1
  6
Continuous
100
AcDbCircle
 10
189.391374
 20
276.5519729999999
 30
0.0
 40
0.565705
100
AcDbArc
 50
227.219834
 51
269.329835
  0
ARC
  5
C81D
330
C749
100
AcDbEntity
  8
1
  6
Continuous
100
AcDbCircle
 10
194.983895
 20
277.458008
 30
0.0
 40
6.166148999999997
100
AcDbArc
 50
174.1216709999999
 51
181.498972
  0
ARC
  5
C81E
330
C749
100
AcDbEntity
  8
1
  6
Continuous
100
AcDbCircle
 10
189.104413
 20
277.963069
 30
0.0
 40
0.283955
100
AcDbArc
 50
112.4266129999999
 51
153.555477
  0
ARC
  5
C81F
330
C749
100
AcDbEntity
  8
1
  6
Continuous
100
AcDbCircle
 10
190.4158669999999
 20
274.7854319999999
 30
0.0
 40
3.721582999999998
100
AcDbArc
 50
88.727417
 51
112.4266129999999
  0
ARC
  5
C820
330
C749
100
AcDbEntity
  8
1
  6
Continuous
100
AcDbCircle
 10
245.057491
 20
268.61502
 30
0.0
 40
2.322
100
AcDbArc
 50
95.042199
 51
166.6951479999999
  0
ARC
  5
C821
330
C749
100
AcDbEntity
  8
1
  6
Continuous
100
AcDbCircle
 10
196.1450389999999
 20
279.690506
 30
0.0
 40
1.189
100
AcDbArc
 50
271.184952
 51
5.074886
  0
ARC
  5
C822
330
C749
100
AcDbEntity
  8
1
  6
Continuous
100
AcDbCircle
 10
193.4351679999998
 20
410.7017019999998
 30
0.0
 40
132.2282199999999
100
AcDbArc
 50
268.727417
 51
273.9593529999999
  0
LINE
  5
C823
330
C749
100
AcDbEntity
  8
1
  6
Continuous
100
AcDbLine
 10
192.3253129999999
 20
275.9678749999998
 30
0.0
 11
191.5883819999999
 21
278.48638
 31
0.0
  0
ARC
  5
C824
330
C749
100
AcDbEntity
  8
1
  6
Continuous
100
AcDbCircle
 10
183.746176
 20
275.8823549999998
 30
0.0
 40
5.267126
100
AcDbArc
 50
2.768558
 51
15.576486
  0
ARC
  5
C825
330
C749
100
AcDbEntity
  8
1
  6
Continuous
100
AcDbCircle
 10
192.5528429999999
 20
546.829645
 30
0.0
 40
270.861866
100
AcDbArc
 50
269.329835
 51
269.95187
  0
ARC
  5
C826
330
C749
100
AcDbEntity
  8
1
  6
Continuous
100
AcDbCircle
 10
189.391374
 20
276.5519729999999
 30
0.0
 40
0.565705
100
AcDbArc
 50
227.219834
 51
269.329835
  0
ARC
  5
C827
330
C749
100
AcDbEntity
  8
1
  6
Continuous
100
AcDbCircle
 10
194.983895
 20
277.458008
 30
0.0
 40
6.166148999999997
100
AcDbArc
 50
174.1216709999999
 51
181.498972
  0
ARC
  5
C828
330
C749
100
AcDbEntity
  8
1
  6
Continuous
100
AcDbCircle
 10
189.104413
 20
277.963069
 30
0.0
 40
0.283955
100
AcDbArc
 50
112.4266129999999
 51
153.555477
  0
ARC
  5
C829
330
C749
100
AcDbEntity
  8
1
  6
Continuous
100
AcDbCircle
 10
190.4158669999999
 20
274.7854319999999
 30
0.0
 40
3.721582999999998
100
AcDbArc
 50
88.727417
 51
112.4266129999999
  0
ARC
  5
C82A
330
C749
100
AcDbEntity
  8
1
  6
Continuous
100
AcDbCircle
 10
200.1180199999998
 20
278.226135
 30
0.0
 40
3.2
100
AcDbArc
 50
90.23407699999998
 51
150.627636
  0
ARC
  5
C82B
330
C749
100
AcDbEntity
  8
1
  6
Continuous
100
AcDbCircle
 10
200.1948669999999
 20
279.042456
 30
0.0
 40
2.383999999999999
100
AcDbArc
 50
353.8988339999999
 51
90.23407699999998
  0
LINE
  5
C82C
330
C749
100
AcDbEntity
  8
4
  6
CENTER
100
AcDbLine
 10
57.121566
 20
296.7263459999998
 30
0.0
 11
57.121566
 21
160.7267559999999
 31
0.0
  0
LINE
  5
C82D
330
C749
100
AcDbEntity
  8
4
  6
CENTER
100
AcDbLine
 10
29.971999
 20
218.7267559999999
 30
0.0
 11
91.80438700000001
 21
218.7267559999999
 31
0.0
  0
LINE
  5
C82E
330
C749
100
AcDbEntity
  8
1
  6
Continuous
100
AcDbLine
 10
44.284708
 20
281.393346
 30
0.0
 11
46.284708
 21
283.518346
 31
0.0
  0
LINE
  5
C82F
330
C749
100
AcDbEntity
  8
1
  6
Continuous
100
AcDbLine
 10
30.43546599999999
 20
283.518346
 30
0.0
 11
83.80766599999999
 21
283.518346
 31
0.0
  0
LINE
  5
C830
330
C749
100
AcDbEntity
  8
1
  6
Continuous
100
AcDbLine
 10
19.621566
 20
288.8267309999998
 30
0.0
 11
94.621566
 21
288.8267309999998
 31
0.0
  0
LINE
  5
C831
330
C749
100
AcDbEntity
  8
1
  6
Continuous
100
AcDbLine
 10
19.621566
 20
291.726346
 30
0.0
 11
94.621566
 21
291.726346
 31
0.0
  0
LINE
  5
C832
330
C749
100
AcDbEntity
  8
1
  6
Continuous
100
AcDbLine
 10
27.84899600000001
 20
285.3533459999998
 30
0.0
 11
86.39413499999998
 21
285.3533459999998
 31
0.0
  0
LINE
  5
C833
330
C749
100
AcDbEntity
  8
1
  6
Continuous
100
AcDbLine
 10
42.20434
 20
278.5643709999998
 30
0.0
 11
72.038775
 21
278.5643709999998
 31
0.0
  0
LINE
  5
C834
330
C749
100
AcDbEntity
  8
1
  6
Continuous
100
AcDbLine
 10
30.43546599999999
 20
281.3933569999999
 30
0.0
 11
83.80766599999999
 21
281.3933569999999
 31
0.0
  0
LINE
  5
C835
330
C749
100
AcDbEntity
  8
1
  6
Continuous
100
AcDbLine
 10
42.20434
 20
275.9643709999999
 30
0.0
 11
72.038775
 21
275.9643709999999
 31
0.0
  0
LINE
  5
C836
330
C749
100
AcDbEntity
  8
1
  6
Continuous
100
AcDbLine
 10
38.70434
 20
275.0643709999998
 30
0.0
 11
38.70434
 21
207.226752
 31
0.0
  0
LINE
  5
C837
330
C749
100
AcDbEntity
  8
1
  6
Continuous
100
AcDbLine
 10
41.30434
 20
275.0643709999998
 30
0.0
 11
41.30434
 21
207.226752
 31
0.0
  0
LINE
  5
C838
330
C749
100
AcDbEntity
  8
1
  6
Continuous
100
AcDbLine
 10
29.696566
 20
278.193357
 30
0.0
 11
29.696566
 21
240.80652
 31
0.0
  0
ARC
  5
C839
330
C749
100
AcDbEntity
  8
1
  6
Continuous
100
AcDbCircle
 10
66.162603
 20
240.80652
 30
0.0
 40
36.466037
100
AcDbArc
 50
180.0
 51
209.7374579999999
  0
LINE
  5
C83A
330
C749
100
AcDbEntity
  8
1
  6
Continuous
100
AcDbLine
 10
38.70434
 20
207.226752
 30
0.0
 11
41.30434
 21
207.226752
 31
0.0
  0
ARC
  5
C83B
330
C749
100
AcDbEntity
  8
1
  6
Continuous
100
AcDbCircle
 10
32.896566
 20
278.193357
 30
0.0
 40
3.2
100
AcDbArc
 50
90.0
 51
180.0
  0
ARC
  5
C83C
330
C749
100
AcDbEntity
  8
1
  6
Continuous
100
AcDbCircle
 10
27.84899600000001
 20
292.853346
 30
0.0
 40
7.5
100
AcDbArc
 50
212.4716319999998
 51
270.0
  0
LINE
  5
C83D
330
C749
100
AcDbEntity
  8
1
  6
Continuous
100
AcDbLine
 10
19.621566
 20
291.726346
 30
0.0
 11
19.621566
 21
288.8267309999998
 31
0.0
  0
LINE
  5
C83E
330
C749
100
AcDbEntity
  8
1
  6
Continuous
100
AcDbLine
 10
45.577601
 20
281.393346
 30
0.0
 11
43.577601
 21
283.518346
 31
0.0
  0
LINE
  5
C83F
330
C749
100
AcDbEntity
  8
1
  6
Continuous
100
AcDbLine
 10
42.74917399999997
 20
281.393346
 30
0.0
 11
40.74917399999999
 21
283.518346
 31
0.0
  0
LINE
  5
C840
330
C749
100
AcDbEntity
  8
1
  6
Continuous
100
AcDbLine
 10
39.92074699999999
 20
281.393346
 30
0.0
 11
37.920747
 21
283.518346
 31
0.0
  0
LINE
  5
C841
330
C749
100
AcDbEntity
  8
1
  6
Continuous
100
AcDbLine
 10
37.09232
 20
281.393346
 30
0.0
 11
35.09232
 21
283.518346
 31
0.0
  0
LINE
  5
C842
330
C749
100
AcDbEntity
  8
1
  6
Continuous
100
AcDbLine
 10
34.26389299999998
 20
281.393346
 30
0.0
 11
32.26389299999999
 21
283.518346
 31
0.0
  0
LINE
  5
C843
330
C749
100
AcDbEntity
  8
1
  6
Continuous
100
AcDbLine
 10
31.435466
 20
281.393346
 30
0.0
 11
30.43546599999999
 21
282.393346
 31
0.0
  0
LINE
  5
C844
330
C749
100
AcDbEntity
  8
1
  6
Continuous
100
AcDbLine
 10
42.16338799999999
 20
281.393346
 30
0.0
 11
44.163388
 21
283.518346
 31
0.0
  0
LINE
  5
C845
330
C749
100
AcDbEntity
  8
1
  6
Continuous
100
AcDbLine
 10
40.042067
 20
281.393346
 30
0.0
 11
42.04206699999999
 21
283.518346
 31
0.0
  0
LINE
  5
C846
330
C749
100
AcDbEntity
  8
1
  6
Continuous
100
AcDbLine
 10
37.920747
 20
281.393346
 30
0.0
 11
39.92074699999999
 21
283.518346
 31
0.0
  0
LINE
  5
C847
330
C749
100
AcDbEntity
  8
1
  6
Continuous
100
AcDbLine
 10
35.799427
 20
281.393346
 30
0.0
 11
37.799427
 21
283.518346
 31
0.0
  0
LINE
  5
C848
330
C749
100
AcDbEntity
  8
1
  6
Continuous
100
AcDbLine
 10
33.678106
 20
281.393346
 30
0.0
 11
35.678106
 21
283.518346
 31
0.0
  0
LINE
  5
C849
330
C749
100
AcDbEntity
  8
1
  6
Continuous
100
AcDbLine
 10
31.55678599999999
 20
281.393346
 30
0.0
 11
33.55678599999999
 21
283.518346
 31
0.0
  0
LINE
  5
C84A
330
C749
100
AcDbEntity
  8
1
  6
Continuous
100
AcDbLine
 10
30.43546599999999
 20
281.393346
 30
0.0
 11
30.43546599999999
 21
283.518346
 31
0.0
  0
ARC
  5
C84B
330
C749
100
AcDbEntity
  8
1
  6
Continuous
100
AcDbCircle
 10
42.20434
 20
275.0643709999998
 30
0.0
 40
3.5
100
AcDbArc
 50
90.0
 51
178.892845
  0
ARC
  5
C84C
330
C749
100
AcDbEntity
  8
1
  6
Continuous
100
AcDbCircle
 10
42.20434
 20
275.0643709999998
 30
0.0
 40
0.9
100
AcDbArc
 50
90.0
 51
180.0
  0
LINE
  5
C84D
330
C749
100
AcDbEntity
  8
1
  6
Continuous
100
AcDbLine
 10
31.435466
 20
283.518346
 30
0.0
 11
30.43546599999999
 21
282.393346
 31
0.0
  0
ARC
  5
C84E
330
C749
100
AcDbEntity
  8
1
  6
Continuous
100
AcDbCircle
 10
39.06521599999999
 20
289.7659269999999
 30
0.0
 40
9.0
100
AcDbArc
 50
209.359435
 51
223.961567
  0
LINE
  5
C84F
330
C749
100
AcDbEntity
  8
1
  6
Continuous
100
AcDbLine
 10
75.538775
 20
275.0643709999998
 30
0.0
 11
75.538775
 21
241.0285659999999
 31
0.0
  0
LINE
  5
C850
330
C749
100
AcDbEntity
  8
1
  6
Continuous
100
AcDbLine
 10
72.938775
 20
275.0643709999998
 30
0.0
 11
72.938775
 21
231.728352
 31
0.0
  0
LINE
  5
C851
330
C749
100
AcDbEntity
  8
1
  6
Continuous
100
AcDbLine
 10
84.54656599999998
 20
278.193357
 30
0.0
 11
84.54656599999998
 21
241.2815859999998
 31
0.0
  0
ARC
  5
C852
330
C749
100
AcDbEntity
  8
1
  6
Continuous
100
AcDbCircle
 10
48.080566
 20
240.807914
 30
0.0
 40
36.466
100
AcDbArc
 50
337.0208149999999
 51
348.863824
  0
LINE
  5
C853
330
C749
100
AcDbEntity
  8
1
  6
Continuous
100
AcDbLine
 10
79.518727
 20
281.393346
 30
0.0
 11
77.51872699999998
 21
283.518346
 31
0.0
  0
LINE
  5
C854
330
C749
100
AcDbEntity
  8
1
  6
Continuous
100
AcDbLine
 10
78.22583299999998
 20
281.393346
 30
0.0
 11
80.22583299999999
 21
283.518346
 31
0.0
  0
LINE
  5
C855
330
C749
100
AcDbEntity
  8
1
  6
Continuous
100
AcDbLine
 10
62.548164
 20
281.393346
 30
0.0
 11
60.54816399999999
 21
283.518346
 31
0.0
  0
LINE
  5
C856
330
C749
100
AcDbEntity
  8
1
  6
Continuous
100
AcDbLine
 10
61.25527099999999
 20
281.393346
 30
0.0
 11
63.25527099999999
 21
283.518346
 31
0.0
  0
LINE
  5
C857
330
C749
100
AcDbEntity
  8
1
  6
Continuous
100
AcDbLine
 10
59.719737
 20
281.393346
 30
0.0
 11
57.719737
 21
283.518346
 31
0.0
  0
LINE
  5
C858
330
C749
100
AcDbEntity
  8
1
  6
Continuous
100
AcDbLine
 10
56.89130999999999
 20
281.393346
 30
0.0
 11
54.89131
 21
283.518346
 31
0.0
  0
LINE
  5
C859
330
C749
100
AcDbEntity
  8
1
  6
Continuous
100
AcDbLine
 10
54.06288299999999
 20
281.393346
 30
0.0
 11
52.062883
 21
283.518346
 31
0.0
  0
LINE
  5
C85A
330
C749
100
AcDbEntity
  8
1
  6
Continuous
100
AcDbLine
 10
51.23445499999998
 20
281.393346
 30
0.0
 11
49.23445499999999
 21
283.518346
 31
0.0
  0
LINE
  5
C85B
330
C749
100
AcDbEntity
  8
1
  6
Continuous
100
AcDbLine
 10
48.406028
 20
281.393346
 30
0.0
 11
46.40602799999999
 21
283.518346
 31
0.0
  0
LINE
  5
C85C
330
C749
100
AcDbEntity
  8
1
  6
Continuous
100
AcDbLine
 10
59.13395
 20
281.393346
 30
0.0
 11
61.13395
 21
283.518346
 31
0.0
  0
LINE
  5
C85D
330
C749
100
AcDbEntity
  8
1
  6
Continuous
100
AcDbLine
 10
57.01263
 20
281.393346
 30
0.0
 11
59.01263
 21
283.518346
 31
0.0
  0
LINE
  5
C85E
330
C749
100
AcDbEntity
  8
1
  6
Continuous
100
AcDbLine
 10
54.89131
 20
281.393346
 30
0.0
 11
56.89130999999999
 21
283.518346
 31
0.0
  0
LINE
  5
C85F
330
C749
100
AcDbEntity
  8
1
  6
Continuous
100
AcDbLine
 10
52.769989
 20
281.393346
 30
0.0
 11
54.769989
 21
283.518346
 31
0.0
  0
LINE
  5
C860
330
C749
100
AcDbEntity
  8
1
  6
Continuous
100
AcDbLine
 10
50.648669
 20
281.393346
 30
0.0
 11
52.64866899999999
 21
283.518346
 31
0.0
  0
LINE
  5
C861
330
C749
100
AcDbEntity
  8
1
  6
Continuous
100
AcDbLine
 10
48.527349
 20
281.393346
 30
0.0
 11
50.527349
 21
283.518346
 31
0.0
  0
LINE
  5
C862
330
C749
100
AcDbEntity
  8
1
  6
Continuous
100
AcDbLine
 10
46.40602799999999
 20
281.393346
 30
0.0
 11
48.406028
 21
283.518346
 31
0.0
  0
LINE
  5
C863
330
C749
100
AcDbEntity
  8
1
  6
Continuous
100
AcDbLine
 10
76.69029999999998
 20
281.393346
 30
0.0
 11
74.69029999999998
 21
283.518346
 31
0.0
  0
LINE
  5
C864
330
C749
100
AcDbEntity
  8
1
  6
Continuous
100
AcDbLine
 10
73.86187199999998
 20
281.393346
 30
0.0
 11
71.86187199999998
 21
283.518346
 31
0.0
  0
LINE
  5
C865
330
C749
100
AcDbEntity
  8
1
  6
Continuous
100
AcDbLine
 10
71.033445
 20
281.393346
 30
0.0
 11
69.033445
 21
283.518346
 31
0.0
  0
LINE
  5
C866
330
C749
100
AcDbEntity
  8
1
  6
Continuous
100
AcDbLine
 10
68.20501800000001
 20
281.393346
 30
0.0
 11
66.20501800000001
 21
283.518346
 31
0.0
  0
LINE
  5
C867
330
C749
100
AcDbEntity
  8
1
  6
Continuous
100
AcDbLine
 10
65.376591
 20
281.393346
 30
0.0
 11
63.37659099999999
 21
283.518346
 31
0.0
  0
LINE
  5
C868
330
C749
100
AcDbEntity
  8
1
  6
Continuous
100
AcDbLine
 10
76.10451299999998
 20
281.393346
 30
0.0
 11
78.10451299999998
 21
283.518346
 31
0.0
  0
LINE
  5
C869
330
C749
100
AcDbEntity
  8
1
  6
Continuous
100
AcDbLine
 10
73.983193
 20
281.393346
 30
0.0
 11
75.98319299999999
 21
283.518346
 31
0.0
  0
LINE
  5
C86A
330
C749
100
AcDbEntity
  8
1
  6
Continuous
100
AcDbLine
 10
71.86187199999998
 20
281.393346
 30
0.0
 11
73.86187199999998
 21
283.518346
 31
0.0
  0
LINE
  5
C86B
330
C749
100
AcDbEntity
  8
1
  6
Continuous
100
AcDbLine
 10
69.74055200000001
 20
281.393346
 30
0.0
 11
71.74055200000002
 21
283.518346
 31
0.0
  0
LINE
  5
C86C
330
C749
100
AcDbEntity
  8
1
  6
Continuous
100
AcDbLine
 10
67.619232
 20
281.393346
 30
0.0
 11
69.619232
 21
283.518346
 31
0.0
  0
LINE
  5
C86D
330
C749
100
AcDbEntity
  8
1
  6
Continuous
100
AcDbLine
 10
65.497911
 20
281.393346
 30
0.0
 11
67.497911
 21
283.518346
 31
0.0
  0
LINE
  5
C86E
330
C749
100
AcDbEntity
  8
1
  6
Continuous
100
AcDbLine
 10
63.37659099999999
 20
281.393346
 30
0.0
 11
65.376591
 21
283.518346
 31
0.0
  0
ARC
  5
C86F
330
C749
100
AcDbEntity
  8
1
  6
Continuous
100
AcDbCircle
 10
72.038775
 20
275.0643709999998
 30
0.0
 40
3.5
100
AcDbArc
 50
0.0
 51
90.0
  0
ARC
  5
C870
330
C749
100
AcDbEntity
  8
1
  6
Continuous
100
AcDbCircle
 10
72.038775
 20
275.0643709999998
 30
0.0
 40
0.9
100
AcDbArc
 50
0.0
 51
90.0
  0
LINE
  5
C871
330
C749
100
AcDbEntity
  8
1
  6
Continuous
100
AcDbLine
 10
82.347154
 20
281.393346
 30
0.0
 11
80.34715400000001
 21
283.518346
 31
0.0
  0
LINE
  5
C872
330
C749
100
AcDbEntity
  8
1
  6
Continuous
100
AcDbLine
 10
82.468474
 20
281.393346
 30
0.0
 11
83.80766599999999
 21
282.732537
 31
0.0
  0
LINE
  5
C873
330
C749
100
AcDbEntity
  8
1
  6
Continuous
100
AcDbLine
 10
80.34715400000001
 20
281.393346
 30
0.0
 11
82.347154
 21
283.518346
 31
0.0
  0
LINE
  5
C874
330
C749
100
AcDbEntity
  8
1
  6
Continuous
100
AcDbLine
 10
83.80766599999999
 20
283.518346
 30
0.0
 11
83.80766599999999
 21
281.393346
 31
0.0
  0
ARC
  5
C875
330
C749
100
AcDbEntity
  8
1
  6
Continuous
100
AcDbCircle
 10
81.34656600000003
 20
278.193357
 30
0.0
 40
3.2
100
AcDbArc
 50
0.0
 51
90.0
  0
ARC
  5
C876
330
C749
100
AcDbEntity
  8
1
  6
Continuous
100
AcDbCircle
 10
86.39413499999998
 20
292.853346
 30
0.0
 40
7.5
100
AcDbArc
 50
270.0
 51
327.528368
  0
ARC
  5
C877
330
C749
100
AcDbEntity
  8
1
  6
Continuous
100
AcDbCircle
 10
75.519954
 20
290.102182
 30
0.0
 40
9.0
100
AcDbArc
 50
312.9845629999999
 51
328.1532869999999
  0
LINE
  5
C878
330
C749
100
AcDbEntity
  8
1
  6
Continuous
100
AcDbLine
 10
83.80766599999999
 20
282.761261
 30
0.0
 11
83.17558099999997
 21
283.518346
 31
0.0
  0
LINE
  5
C879
330
C749
100
AcDbEntity
  8
1
  6
Continuous
100
AcDbLine
 10
94.621566
 20
291.726346
 30
0.0
 11
94.621566
 21
288.8267309999998
 31
0.0
  0
LINE
  5
C87A
330
C749
100
AcDbEntity
  8
1
  6
Continuous
100
AcDbLine
 10
47.521566
 20
268.5106059999998
 30
0.0
 11
47.82569099999999
 21
268.5106059999998
 31
0.0
  0
LINE
  5
C87B
330
C749
100
AcDbEntity
  8
1
  6
Continuous
100
AcDbLine
 10
47.521566
 20
268.5106059999998
 30
0.0
 11
47.521566
 21
270.5106059999998
 31
0.0
  0
LINE
  5
C87C
330
C749
100
AcDbEntity
  8
1
  6
Continuous
100
AcDbLine
 10
66.721566
 20
268.5106059999998
 30
0.0
 11
66.41744
 21
268.5106059999998
 31
0.0
  0
LINE
  5
C87D
330
C749
100
AcDbEntity
  8
1
  6
Continuous
100
AcDbLine
 10
61.221566
 20
270.110606
 30
0.0
 11
63.66104100000001
 21
268.619816
 31
0.0
  0
LINE
  5
C87E
330
C749
100
AcDbEntity
  8
1
  6
Continuous
100
AcDbLine
 10
61.221566
 20
270.110606
 30
0.0
 11
60.458024
 21
269.0607359999999
 31
0.0
  0
LINE
  5
C87F
330
C749
100
AcDbEntity
  8
1
  6
Continuous
100
AcDbLine
 10
66.721566
 20
268.5106059999998
 30
0.0
 11
66.721566
 21
270.5106059999998
 31
0.0
  0
LINE
  5
C880
330
C749
100
AcDbEntity
  8
1
  6
Continuous
100
AcDbLine
 10
53.02156599999999
 20
270.110606
 30
0.0
 11
50.582091
 21
268.619816
 31
0.0
  0
LINE
  5
C881
330
C749
100
AcDbEntity
  8
1
  6
Continuous
100
AcDbLine
 10
53.02156599999999
 20
270.110606
 30
0.0
 11
53.78510699999999
 21
269.0607359999999
 31
0.0
  0
LINE
  5
C882
330
C749
100
AcDbEntity
  8
1
  6
Continuous
100
AcDbLine
 10
71.316565
 20
270.5106059999998
 30
0.0
 11
42.92656599999999
 21
270.5106059999998
 31
0.0
  0
ARC
  5
C883
330
C749
100
AcDbEntity
  8
1
  6
Continuous
100
AcDbCircle
 10
71.641402
 20
274.5652119999999
 30
0.0
 40
4.031502999999998
100
AcDbArc
 50
278.1363819999999
 51
287.7668209999999
  0
ARC
  5
C884
330
C749
100
AcDbEntity
  8
1
  6
Continuous
100
AcDbCircle
 10
71.316565
 20
276.8372949999999
 30
0.0
 40
6.326689
100
AcDbArc
 50
270.0
 51
278.1363819999999
  0
LINE
  5
C885
330
C749
100
AcDbEntity
  8
1
  6
Continuous
100
AcDbLine
 10
72.938775
 20
273.7506629999999
 30
0.0
 11
41.30434
 21
273.7506629999999
 31
0.0
  0
LINE
  5
C886
330
C749
100
AcDbEntity
  8
1
  6
Continuous
100
AcDbLine
 10
72.938775
 20
274.960097
 30
0.0
 11
41.30434
 21
274.960097
 31
0.0
  0
ARC
  5
C887
330
C749
100
AcDbEntity
  8
1
  6
Continuous
100
AcDbCircle
 10
42.60172899999999
 20
274.5652119999999
 30
0.0
 40
4.031502999999998
100
AcDbArc
 50
252.2331789999999
 51
261.8636179999999
  0
ARC
  5
C888
330
C749
100
AcDbEntity
  8
1
  6
Continuous
100
AcDbCircle
 10
42.92656599999999
 20
276.8372949999999
 30
0.0
 40
6.326689
100
AcDbArc
 50
261.8636179999999
 51
270.0
  0
LINE
  5
C889
330
C749
100
AcDbEntity
  8
1
  6
Continuous
100
AcDbLine
 10
71.91403000000002
 20
274.960097
 30
0.0
 11
70.909756
 21
275.9643709999999
 31
0.0
  0
LINE
  5
C88A
330
C749
100
AcDbEntity
  8
1
  6
Continuous
100
AcDbLine
 10
49.286613
 20
274.960097
 30
0.0
 11
48.282339
 21
275.9643709999999
 31
0.0
  0
LINE
  5
C88B
330
C749
100
AcDbEntity
  8
1
  6
Continuous
100
AcDbLine
 10
48.69227999999999
 20
274.960097
 30
0.0
 11
49.696553
 21
275.9643709999999
 31
0.0
  0
LINE
  5
C88C
330
C749
100
AcDbEntity
  8
1
  6
Continuous
100
AcDbLine
 10
43.03542499999998
 20
274.960097
 30
0.0
 11
44.03969899999998
 21
275.9643709999999
 31
0.0
  0
LINE
  5
C88D
330
C749
100
AcDbEntity
  8
1
  6
Continuous
100
AcDbLine
 10
41.560075
 20
275.615567
 30
0.0
 11
42.21554499999998
 21
274.960097
 31
0.0
  0
LINE
  5
C88E
330
C749
100
AcDbEntity
  8
1
  6
Continuous
100
AcDbLine
 10
43.629758
 20
274.960097
 30
0.0
 11
42.625485
 21
275.9643709999999
 31
0.0
  0
LINE
  5
C88F
330
C749
100
AcDbEntity
  8
1
  6
Continuous
100
AcDbLine
 10
41.621212
 20
274.960097
 30
0.0
 11
42.625485
 21
275.9643709999999
 31
0.0
  0
LINE
  5
C890
330
C749
100
AcDbEntity
  8
1
  6
Continuous
100
AcDbLine
 10
47.278066
 20
274.960097
 30
0.0
 11
48.282339
 21
275.9643709999999
 31
0.0
  0
LINE
  5
C891
330
C749
100
AcDbEntity
  8
1
  6
Continuous
100
AcDbLine
 10
45.04397199999998
 20
274.960097
 30
0.0
 11
44.03969899999998
 21
275.9643709999999
 31
0.0
  0
LINE
  5
C892
330
C749
100
AcDbEntity
  8
1
  6
Continuous
100
AcDbLine
 10
46.458186
 20
274.960097
 30
0.0
 11
45.453912
 21
275.9643709999999
 31
0.0
  0
LINE
  5
C893
330
C749
100
AcDbEntity
  8
1
  6
Continuous
100
AcDbLine
 10
47.872399
 20
274.960097
 30
0.0
 11
46.86812599999998
 21
275.9643709999999
 31
0.0
  0
LINE
  5
C894
330
C749
100
AcDbEntity
  8
1
  6
Continuous
100
AcDbLine
 10
44.449639
 20
274.960097
 30
0.0
 11
45.453912
 21
275.9643709999999
 31
0.0
  0
LINE
  5
C895
330
C749
100
AcDbEntity
  8
1
  6
Continuous
100
AcDbLine
 10
45.86385299999998
 20
274.960097
 30
0.0
 11
46.86812599999998
 21
275.9643709999999
 31
0.0
  0
LINE
  5
C896
330
C749
100
AcDbEntity
  8
1
  6
Continuous
100
AcDbLine
 10
69.08560300000001
 20
274.960097
 30
0.0
 11
68.081329
 21
275.9643709999999
 31
0.0
  0
LINE
  5
C897
330
C749
100
AcDbEntity
  8
1
  6
Continuous
100
AcDbLine
 10
68.49127
 20
274.960097
 30
0.0
 11
69.49554300000001
 21
275.9643709999999
 31
0.0
  0
LINE
  5
C898
330
C749
100
AcDbEntity
  8
1
  6
Continuous
100
AcDbLine
 10
60.60032099999999
 20
274.960097
 30
0.0
 11
59.59604800000001
 21
275.9643709999999
 31
0.0
  0
LINE
  5
C899
330
C749
100
AcDbEntity
  8
1
  6
Continuous
100
AcDbLine
 10
60.005988
 20
274.960097
 30
0.0
 11
61.010261
 21
275.9643709999999
 31
0.0
  0
LINE
  5
C89A
330
C749
100
AcDbEntity
  8
1
  6
Continuous
100
AcDbLine
 10
59.18610799999999
 20
274.960097
 30
0.0
 11
58.18183399999998
 21
275.9643709999999
 31
0.0
  0
LINE
  5
C89B
330
C749
100
AcDbEntity
  8
1
  6
Continuous
100
AcDbLine
 10
58.591775
 20
274.960097
 30
0.0
 11
59.59604800000001
 21
275.9643709999999
 31
0.0
  0
LINE
  5
C89C
330
C749
100
AcDbEntity
  8
1
  6
Continuous
100
AcDbLine
 10
64.842962
 20
274.960097
 30
0.0
 11
63.838689
 21
275.9643709999999
 31
0.0
  0
LINE
  5
C89D
330
C749
100
AcDbEntity
  8
1
  6
Continuous
100
AcDbLine
 10
64.24862899999999
 20
274.960097
 30
0.0
 11
65.252902
 21
275.9643709999999
 31
0.0
  0
LINE
  5
C89E
330
C749
100
AcDbEntity
  8
1
  6
Continuous
100
AcDbLine
 10
63.428748
 20
274.960097
 30
0.0
 11
62.424475
 21
275.9643709999999
 31
0.0
  0
LINE
  5
C89F
330
C749
100
AcDbEntity
  8
1
  6
Continuous
100
AcDbLine
 10
62.01453499999999
 20
274.960097
 30
0.0
 11
61.010261
 21
275.9643709999999
 31
0.0
  0
LINE
  5
C8A0
330
C749
100
AcDbEntity
  8
1
  6
Continuous
100
AcDbLine
 10
62.834415
 20
274.960097
 30
0.0
 11
63.838689
 21
275.9643709999999
 31
0.0
  0
LINE
  5
C8A1
330
C749
100
AcDbEntity
  8
1
  6
Continuous
100
AcDbLine
 10
61.42020200000001
 20
274.960097
 30
0.0
 11
62.424475
 21
275.9643709999999
 31
0.0
  0
LINE
  5
C8A2
330
C749
100
AcDbEntity
  8
1
  6
Continuous
100
AcDbLine
 10
67.671389
 20
274.960097
 30
0.0
 11
66.66711600000001
 21
275.9643709999999
 31
0.0
  0
LINE
  5
C8A3
330
C749
100
AcDbEntity
  8
1
  6
Continuous
100
AcDbLine
 10
66.257175
 20
274.960097
 30
0.0
 11
65.252902
 21
275.9643709999999
 31
0.0
  0
LINE
  5
C8A4
330
C749
100
AcDbEntity
  8
1
  6
Continuous
100
AcDbLine
 10
67.077056
 20
274.960097
 30
0.0
 11
68.081329
 21
275.9643709999999
 31
0.0
  0
LINE
  5
C8A5
330
C749
100
AcDbEntity
  8
1
  6
Continuous
100
AcDbLine
 10
65.662842
 20
274.960097
 30
0.0
 11
66.66711600000001
 21
275.9643709999999
 31
0.0
  0
LINE
  5
C8A6
330
C749
100
AcDbEntity
  8
1
  6
Continuous
100
AcDbLine
 10
70.49981600000002
 20
274.960097
 30
0.0
 11
69.49554300000001
 21
275.9643709999999
 31
0.0
  0
LINE
  5
C8A7
330
C749
100
AcDbEntity
  8
1
  6
Continuous
100
AcDbLine
 10
69.90548299999999
 20
274.960097
 30
0.0
 11
70.909756
 21
275.9643709999999
 31
0.0
  0
LINE
  5
C8A8
330
C749
100
AcDbEntity
  8
1
  6
Continuous
100
AcDbLine
 10
52.11504
 20
274.960097
 30
0.0
 11
51.11076699999999
 21
275.9643709999999
 31
0.0
  0
LINE
  5
C8A9
330
C749
100
AcDbEntity
  8
1
  6
Continuous
100
AcDbLine
 10
51.520707
 20
274.960097
 30
0.0
 11
52.52498
 21
275.9643709999999
 31
0.0
  0
LINE
  5
C8AA
330
C749
100
AcDbEntity
  8
1
  6
Continuous
100
AcDbLine
 10
50.700826
 20
274.960097
 30
0.0
 11
49.696553
 21
275.9643709999999
 31
0.0
  0
LINE
  5
C8AB
330
C749
100
AcDbEntity
  8
1
  6
Continuous
100
AcDbLine
 10
50.106493
 20
274.960097
 30
0.0
 11
51.11076699999999
 21
275.9643709999999
 31
0.0
  0
LINE
  5
C8AC
330
C749
100
AcDbEntity
  8
1
  6
Continuous
100
AcDbLine
 10
56.35768
 20
274.960097
 30
0.0
 11
55.35340699999999
 21
275.9643709999999
 31
0.0
  0
LINE
  5
C8AD
330
C749
100
AcDbEntity
  8
1
  6
Continuous
100
AcDbLine
 10
55.763347
 20
274.960097
 30
0.0
 11
56.767621
 21
275.9643709999999
 31
0.0
  0
LINE
  5
C8AE
330
C749
100
AcDbEntity
  8
1
  6
Continuous
100
AcDbLine
 10
54.94346700000001
 20
274.960097
 30
0.0
 11
53.93919399999999
 21
275.9643709999999
 31
0.0
  0
LINE
  5
C8AF
330
C749
100
AcDbEntity
  8
1
  6
Continuous
100
AcDbLine
 10
53.52925299999998
 20
274.960097
 30
0.0
 11
52.52498
 21
275.9643709999999
 31
0.0
  0
LINE
  5
C8B0
330
C749
100
AcDbEntity
  8
1
  6
Continuous
100
AcDbLine
 10
54.349134
 20
274.960097
 30
0.0
 11
55.35340699999999
 21
275.9643709999999
 31
0.0
  0
LINE
  5
C8B1
330
C749
100
AcDbEntity
  8
1
  6
Continuous
100
AcDbLine
 10
52.93492
 20
274.960097
 30
0.0
 11
53.93919399999999
 21
275.9643709999999
 31
0.0
  0
LINE
  5
C8B2
330
C749
100
AcDbEntity
  8
1
  6
Continuous
100
AcDbLine
 10
57.77189400000001
 20
274.960097
 30
0.0
 11
56.767621
 21
275.9643709999999
 31
0.0
  0
LINE
  5
C8B3
330
C749
100
AcDbEntity
  8
1
  6
Continuous
100
AcDbLine
 10
57.17756099999999
 20
274.960097
 30
0.0
 11
58.18183399999998
 21
275.9643709999999
 31
0.0
  0
LINE
  5
C8B4
330
C749
100
AcDbEntity
  8
1
  6
Continuous
100
AcDbLine
 10
72.484261
 20
275.8040789999999
 30
0.0
 11
72.71129999999998
 21
275.577041
 31
0.0
  0
LINE
  5
C8B5
330
C749
100
AcDbEntity
  8
1
  6
Continuous
100
AcDbLine
 10
71.31969699999998
 20
274.960097
 30
0.0
 11
72.272261
 21
275.912661
 31
0.0
  0
LINE
  5
C8B6
330
C749
100
AcDbEntity
  8
1
  6
Continuous
100
AcDbLine
 10
72.73390999999998
 20
274.960097
 30
0.0
 11
72.870993
 21
275.0971799999999
 31
0.0
  0
LINE
  5
C8B7
330
C749
100
AcDbEntity
  8
4
  6
CENTER
100
AcDbLine
 10
184.586035
 20
283.826722
 30
0.0
 11
184.586035
 21
296.7263369999999
 31
0.0
  0
LINE
  5
C8B8
330
C749
100
AcDbEntity
  8
4
  6
CENTER
100
AcDbLine
 10
264.5860349999999
 20
283.826722
 30
0.0
 11
264.5860349999999
 21
296.7263369999999
 31
0.0
  0
LINE
  5
C8B9
330
C749
100
AcDbEntity
  8
4
  6
CENTER
100
AcDbLine
 10
330.5090599999999
 20
296.7263369999999
 30
0.0
 11
330.5090599999999
 21
283.826722
 31
0.0
  0
LINE
  5
C8BA
330
C749
100
AcDbEntity
  8
4
  6
CENTER
100
AcDbLine
 10
386.5090599999999
 20
296.7263369999999
 30
0.0
 11
386.5090599999999
 21
283.826722
 31
0.0
  0
LINE
  5
C8BB
330
C749
100
AcDbEntity
  8
4
  6
CENTER
100
AcDbLine
 10
85.121566
 20
296.7263459999998
 30
0.0
 11
85.121566
 21
283.8267309999998
 31
0.0
  0
LINE
  5
C8BC
330
C749
100
AcDbEntity
  8
4
  6
CENTER
100
AcDbLine
 10
29.12156599999999
 20
296.7263459999998
 30
0.0
 11
29.12156599999999
 21
283.8267309999998
 31
0.0
  0
ARC
  5
C8BD
330
C749
100
AcDbEntity
  8
1
  6
Continuous
100
AcDbCircle
 10
150.31378
 20
291.5450149999998
 30
0.0
 40
95.157
100
AcDbArc
 50
312.2389989999998
 51
346.3948139999998
  0
ARC
  5
C8BE
330
C749
100
AcDbEntity
  8
1
  6
Continuous
100
AcDbCircle
 10
123.324982
 20
267.0195019999998
 30
0.0
 40
72.67100000000002
100
AcDbArc
 50
332.9657919999998
 51
359.3096679999999
  0
LINE
  5
C8BF
330
C749
100
AcDbEntity
  8
1
  6
Continuous
100
AcDbLine
 10
252.0110349999999
 20
271.52734
 30
0.0
 11
252.0110349999999
 21
278.730657
 31
0.0
  0
LINE
  5
C8C0
330
C749
100
AcDbEntity
  8
1
  6
Continuous
100
AcDbLine
 10
250.507768
 20
271.4269239999999
 30
0.0
 11
252.0110349999999
 21
271.52734
 31
0.0
  0
LINE
  5
C8C1
330
C749
100
AcDbEntity
  8
1
  6
Continuous
100
AcDbLine
 10
185.5864479999999
 20
222.190644
 30
0.0
 11
185.5864479999999
 21
215.262441
 31
0.0
  0
LINE
  5
C8C2
330
C749
100
AcDbEntity
  8
1
  6
Continuous
100
AcDbLine
 10
197.586448
 20
222.190644
 30
0.0
 11
197.586448
 21
215.262441
 31
0.0
  0
CIRCLE
  5
C8C3
330
C749
100
AcDbEntity
  8
1
  6
Continuous
100
AcDbCircle
 10
191.5864479999999
 20
218.726543
 30
0.0
 40
6.0
  0
LINE
  5
C8C4
330
C749
100
AcDbEntity
  8
1
  6
Continuous
100
AcDbLine
 10
191.5864479999999
 20
211.798339
 30
0.0
 11
197.586448
 21
215.262441
 31
0.0
  0
LINE
  5
C8C5
330
C749
100
AcDbEntity
  8
1
  6
Continuous
100
AcDbLine
 10
191.5864479999999
 20
211.798339
 30
0.0
 11
185.5864479999999
 21
215.262441
 31
0.0
  0
LINE
  5
C8C6
330
C749
100
AcDbEntity
  8
1
  6
Continuous
100
AcDbLine
 10
197.586448
 20
222.190644
 30
0.0
 11
191.5864479999999
 21
225.6547459999999
 31
0.0
  0
LINE
  5
C8C7
330
C749
100
AcDbEntity
  8
1
  6
Continuous
100
AcDbLine
 10
185.5864479999999
 20
222.190644
 30
0.0
 11
191.5864479999999
 21
225.6547459999999
 31
0.0
  0
CIRCLE
  5
C8C8
330
C749
100
AcDbEntity
  8
1
  6
Continuous
100
AcDbCircle
 10
191.5864479999999
 20
218.726543
 30
0.0
 40
4.0
  0
CIRCLE
  5
C8C9
330
C749
100
AcDbEntity
  8
2
  6
Continuous
100
AcDbCircle
 10
191.5864479999999
 20
218.726543
 30
0.0
 40
3.3235
  0
LINE
  5
C8CA
330
C749
100
AcDbEntity
  8
4
  6
CENTER
100
AcDbLine
 10
279.0860349999999
 20
84.274845
 30
0.0
 11
136.586035
 21
84.274845
 31
0.0
  0
LINE
  5
C8CB
330
C749
100
AcDbEntity
  8
1
  6
Continuous
100
AcDbLine
 10
266.5860349999999
 20
46.774845
 30
0.0
 11
182.586035
 21
46.774845
 31
0.0
  0
LINE
  5
C8CC
330
C749
100
AcDbEntity
  8
1
  6
Continuous
100
AcDbLine
 10
266.5860349999999
 20
121.7748449999999
 30
0.0
 11
241.5544099999999
 21
121.7748449999999
 31
0.0
  0
LINE
  5
C8CD
330
C749
100
AcDbEntity
  8
1
  6
Continuous
100
AcDbLine
 10
175.086035
 20
114.274845
 30
0.0
 11
175.086035
 21
106.574845
 31
0.0
  0
LINE
  5
C8CE
330
C749
100
AcDbEntity
  8
4
  6
CENTER
100
AcDbLine
 10
190.463829
 20
112.274845
 30
0.0
 11
178.6615369999999
 21
112.274845
 31
0.0
  0
ARC
  5
C8CF
330
C749
100
AcDbEntity
  8
1
  6
Continuous
100
AcDbCircle
 10
184.586035
 20
112.274845
 30
0.0
 40
4.25
100
AcDbArc
 50
23.32568399999999
 51
283.6089609999999
  0
ARC
  5
C8D0
330
C749
100
AcDbEntity
  8
1
  6
Continuous
100
AcDbCircle
 10
182.586035
 20
114.274845
 30
0.0
 40
7.5
100
AcDbArc
 50
90.0
 51
180.0
  0
LINE
  5
C8D1
330
C749
100
AcDbEntity
  8
4
  6
CENTER
100
AcDbLine
 10
184.586035
 20
120.1446989999999
 30
0.0
 11
184.586035
 21
105.784557
 31
0.0
  0
LINE
  5
C8D2
330
C749
100
AcDbEntity
  8
4
  6
CENTER
100
AcDbLine
 10
191.836035
 20
56.27484499999999
 30
0.0
 11
177.336035
 21
56.27484499999999
 31
0.0
  0
CIRCLE
  5
C8D3
330
C749
100
AcDbEntity
  8
1
  6
Continuous
100
AcDbCircle
 10
184.586035
 20
56.27484499999999
 30
0.0
 40
4.25
  0
ARC
  5
C8D4
330
C749
100
AcDbEntity
  8
1
  6
Continuous
100
AcDbCircle
 10
182.586035
 20
54.27484499999999
 30
0.0
 40
7.5
100
AcDbArc
 50
180.0
 51
270.0
  0
LINE
  5
C8D5
330
C749
100
AcDbEntity
  8
4
  6
CENTER
100
AcDbLine
 10
184.586035
 20
63.52484499999999
 30
0.0
 11
184.586035
 21
49.02484499999999
 31
0.0
  0
LINE
  5
C8D6
330
C749
100
AcDbEntity
  8
1
  6
Continuous
100
AcDbLine
 10
274.0860349999999
 20
114.274845
 30
0.0
 11
274.0860349999999
 21
54.27484499999999
 31
0.0
  0
LINE
  5
C8D7
330
C749
100
AcDbEntity
  8
4
  6
CENTER
100
AcDbLine
 10
224.586035
 20
126.774845
 30
0.0
 11
224.586035
 21
41.774845
 31
0.0
  0
CIRCLE
  5
C8D8
330
C749
100
AcDbEntity
  8
1
  6
Continuous
100
AcDbCircle
 10
264.5860349999999
 20
112.274845
 30
0.0
 40
4.25
  0
ARC
  5
C8D9
330
C749
100
AcDbEntity
  8
1
  6
Continuous
100
AcDbCircle
 10
266.5860349999999
 20
114.274845
 30
0.0
 40
7.5
100
AcDbArc
 50
0.0
 51
90.0
  0
LINE
  5
C8DA
330
C749
100
AcDbEntity
  8
4
  6
CENTER
100
AcDbLine
 10
271.8360349999999
 20
112.274845
 30
0.0
 11
257.3360349999999
 21
112.274845
 31
0.0
  0
LINE
  5
C8DB
330
C749
100
AcDbEntity
  8
4
  6
CENTER
100
AcDbLine
 10
264.5860349999999
 20
119.524845
 30
0.0
 11
264.5860349999999
 21
105.024845
 31
0.0
  0
CIRCLE
  5
C8DC
330
C749
100
AcDbEntity
  8
1
  6
Continuous
100
AcDbCircle
 10
264.5860349999999
 20
56.27484499999999
 30
0.0
 40
4.25
  0
ARC
  5
C8DD
330
C749
100
AcDbEntity
  8
1
  6
Continuous
100
AcDbCircle
 10
266.5860349999999
 20
54.27484499999999
 30
0.0
 40
7.5
100
AcDbArc
 50
270.0
 51
0.0
  0
LINE
  5
C8DE
330
C749
100
AcDbEntity
  8
4
  6
CENTER
100
AcDbLine
 10
271.8360349999999
 20
56.27484499999999
 30
0.0
 11
257.3360349999999
 21
56.27484499999999
 31
0.0
  0
LINE
  5
C8DF
330
C749
100
AcDbEntity
  8
4
  6
CENTER
100
AcDbLine
 10
264.5860349999999
 20
63.52484499999999
 30
0.0
 11
264.5860349999999
 21
49.02484499999999
 31
0.0
  0
LINE
  5
C8E0
330
C749
100
AcDbEntity
  8
1
  6
Continuous
100
AcDbLine
 10
362.6090609999998
 20
270.1105969999999
 30
0.0
 11
365.227242
 21
268.510597
 31
0.0
  0
LINE
  5
C8E1
330
C749
100
AcDbEntity
  8
1
  6
Continuous
100
AcDbLine
 10
362.6090609999998
 20
270.1105969999999
 30
0.0
 11
361.8455189999999
 21
269.060727
 31
0.0
  0
LINE
  5
C8E2
330
C749
100
AcDbEntity
  8
1
  6
Continuous
100
AcDbLine
 10
368.109061
 20
268.510597
 30
0.0
 11
368.109061
 21
270.510597
 31
0.0
  0
LINE
  5
C8E3
330
C749
100
AcDbEntity
  8
1
  6
Continuous
100
AcDbLine
 10
348.909061
 20
268.510597
 30
0.0
 11
348.909061
 21
270.510597
 31
0.0
  0
LINE
  5
C8E4
330
C749
100
AcDbEntity
  8
1
  6
Continuous
100
AcDbLine
 10
354.409061
 20
270.1105969999999
 30
0.0
 11
351.790879
 21
268.510597
 31
0.0
  0
LINE
  5
C8E5
330
C749
100
AcDbEntity
  8
1
  6
Continuous
100
AcDbLine
 10
354.409061
 20
270.1105969999999
 30
0.0
 11
355.1726019999999
 21
269.060727
 31
0.0
  0
LINE
  5
C8E6
330
C749
100
AcDbEntity
  8
1
  6
Continuous
100
AcDbLine
 10
348.909061
 20
268.510597
 30
0.0
 11
368.109061
 21
268.510597
 31
0.0
  0
LINE
  5
C8E7
330
C749
100
AcDbEntity
  8
1
  6
Continuous
100
AcDbLine
 10
369.0037029999999
 20
270.510597
 30
0.0
 11
348.014416
 21
270.510597
 31
0.0
  0
LINE
  5
C8E8
330
C749
100
AcDbEntity
  8
4
  6
CENTER
100
AcDbLine
 10
191.586035
 20
126.774845
 30
0.0
 11
191.586035
 21
41.774845
 31
0.0
  0
LINE
  5
C8E9
330
C749
100
AcDbEntity
  8
1
  6
Continuous
100
AcDbLine
 10
180.437878
 20
65.857619
 30
0.0
 11
200.250976
 21
65.857619
 31
0.0
  0
LINE
  5
C8EA
330
C749
100
AcDbEntity
  8
1
  6
Continuous
100
AcDbLine
 10
180.437878
 20
68.45761899999999
 30
0.0
 11
200.253235
 21
68.45761899999999
 31
0.0
  0
LINE
  5
C8EB
330
C749
100
AcDbEntity
  8
1
  6
Continuous
100
AcDbLine
 10
180.437878
 20
68.45761899999999
 30
0.0
 11
180.437878
 21
65.857619
 31
0.0
  0
LINE
  5
C8EC
330
C749
100
AcDbEntity
  8
1
  6
Continuous
100
AcDbLine
 10
175.086035
 20
70.774845
 30
0.0
 11
175.086035
 21
54.27484499999999
 31
0.0
  0
ARC
  5
C8ED
330
C749
100
AcDbEntity
  8
1
  6
Continuous
100
AcDbCircle
 10
224.586035
 20
84.274845
 30
0.0
 40
35.59999899999999
100
AcDbArc
 50
218.3591509999999
 51
60.45070199999999
  0
ARC
  5
C8EE
330
C749
100
AcDbEntity
  8
1
  6
Continuous
100
AcDbCircle
 10
224.586035
 20
84.274845
 30
0.0
 40
27.425
100
AcDbArc
 50
229.403483
 51
49.975741
  0
ARC
  5
C8EF
330
C749
100
AcDbEntity
  8
1
  6
Continuous
100
AcDbCircle
 10
224.586035
 20
84.274845
 30
0.0
 40
24.82499999999999
100
AcDbArc
 50
229.403483
 51
38.04747499999999
  0
ARC
  5
C8F0
330
C749
100
AcDbEntity
  8
1
  6
Continuous
100
AcDbCircle
 10
200.232537
 20
55.85763599999999
 30
0.0
 40
10.0
100
AcDbArc
 50
49.40348300000001
 51
90.0
  0
ARC
  5
C8F1
330
C749
100
AcDbEntity
  8
1
  6
Continuous
100
AcDbCircle
 10
200.232537
 20
55.85763599999999
 30
0.0
 40
12.6
100
AcDbArc
 50
49.40348300000001
 51
90.0
  0
ARC
  5
C8F2
330
C749
100
AcDbEntity
  8
1
  6
Continuous
100
AcDbCircle
 10
224.586035
 20
84.274845
 30
0.0
 40
19.82499999999999
100
AcDbArc
 50
222.9185799999999
 51
317.177047
  0
LINE
  5
C8F3
330
C749
100
AcDbEntity
  8
4
  6
CENTER
100
AcDbLine
 10
326.6262859999998
 20
218.726543
 30
0.0
 11
386.926286
 21
218.726543
 31
0.0
  0
ARC
  5
C8F4
330
C749
100
AcDbEntity
  8
1
  6
Continuous
100
AcDbCircle
 10
349.4680599999999
 20
240.8077009999999
 30
0.0
 40
36.466
100
AcDbArc
 50
323.7207199999998
 51
0.0
  0
LINE
  5
C8F5
330
C749
100
AcDbEntity
  8
1
  6
Continuous
100
AcDbLine
 10
376.926269
 20
213.3127599999999
 30
0.0
 11
376.926269
 21
207.2262429999999
 31
0.0
  0
ARC
  5
C8F6
330
C749
100
AcDbEntity
  8
1
  6
Continuous
100
AcDbCircle
 10
386.9262689999998
 20
213.3127599999999
 30
0.0
 40
10.0
100
AcDbArc
 50
143.72072
 51
180.0
  0
ARC
  5
C8F7
330
C749
100
AcDbEntity
  8
1
  6
Continuous
100
AcDbCircle
 10
349.4680599999999
 20
240.8077009999999
 30
0.0
 40
33.866
100
AcDbArc
 50
323.7207009999999
 51
0.0
  0
ARC
  5
C8F8
330
C749
100
AcDbEntity
  8
1
  6
Continuous
100
AcDbCircle
 10
386.92626
 20
213.312748
 30
0.0
 40
12.6
100
AcDbArc
 50
143.7207009999999
 51
180.0
  0
ARC
  5
C8F9
330
C749
100
AcDbEntity
  8
1
  6
Continuous
100
AcDbCircle
 10
367.5500599999999
 20
240.8077009999999
 30
0.0
 40
33.866
100
AcDbArc
 50
180.0
 51
202.5370109999999
  0
ARC
  5
C8FA
330
C749
100
AcDbEntity
  8
1
  6
Continuous
100
AcDbCircle
 10
367.5500599999999
 20
240.8077009999999
 30
0.0
 40
36.466
100
AcDbArc
 50
180.0
 51
205.3019139999999
  0
LINE
  5
C8FB
330
C749
100
AcDbEntity
  8
1
  6
Continuous
100
AcDbLine
 10
144.392603
 20
362.6778279999999
 30
0.0
 11
175.086035
 21
362.6778279999999
 31
0.0
  0
LINE
  5
C8FC
330
C749
100
AcDbEntity
  8
1
  6
Continuous
100
AcDbLine
 10
144.392603
 20
389.6778279999999
 30
0.0
 11
175.086035
 21
389.6778279999999
 31
0.0
  0
ARC
  5
C8FD
330
C749
100
AcDbEntity
  8
1
  6
Continuous
100
AcDbCircle
 10
144.392603
 20
387.177828
 30
0.0
 40
2.5
100
AcDbArc
 50
90.0
 51
176.8071899999999
  0
ARC
  5
C8FE
330
C749
100
AcDbEntity
  8
1
  6
Continuous
100
AcDbCircle
 10
144.392603
 20
365.1778279999998
 30
0.0
 40
2.5
100
AcDbArc
 50
183.19281
 51
270.0
  0
ARC
  5
C8FF
330
C749
100
AcDbEntity
  8
1
  6
Continuous
100
AcDbCircle
 10
341.5860349999999
 20
376.1778279999999
 30
0.0
 40
200.0
100
AcDbArc
 50
176.8071899999999
 51
183.19281
  0
LINE
  5
C900
330
C749
100
AcDbEntity
  8
1
  6
Continuous
100
AcDbLine
 10
43.62156599999997
 20
265.9201879999999
 30
0.0
 11
43.62156599999997
 21
171.2267559999999
 31
0.0
  0
LINE
  5
C901
330
C749
100
AcDbEntity
  8
1
  6
Continuous
100
AcDbLine
 10
70.621566
 20
265.9201879999999
 30
0.0
 11
70.621566
 21
171.2267559999999
 31
0.0
  0
ARC
  5
C902
330
C749
100
AcDbEntity
  8
1
  6
Continuous
100
AcDbCircle
 10
46.12156599999997
 20
171.5333229999998
 30
0.0
 40
2.5
100
AcDbArc
 50
180.0
 51
266.80719
  0
LINE
  5
C903
330
C749
100
AcDbEntity
  8
1
  6
Continuous
100
AcDbLine
 10
41.87156599999997
 20
209.404955
 30
0.0
 11
41.87156599999997
 21
228.0485559999999
 31
0.0
  0
LINE
  5
C904
330
C749
100
AcDbEntity
  8
1
  6
Continuous
100
AcDbLine
 10
43.524269
 20
207.435339
 30
0.0
 11
43.62156599999997
 21
207.418183
 31
0.0
  0
LINE
  5
C905
330
C749
100
AcDbEntity
  8
1
  6
Continuous
100
AcDbLine
 10
41.30434
 20
213.2267559999999
 30
0.0
 11
41.87156599999997
 21
213.2267559999999
 31
0.0
  0
ARC
  5
C906
330
C749
100
AcDbEntity
  8
1
  6
Continuous
100
AcDbCircle
 10
43.87156599999999
 20
209.404955
 30
0.0
 40
2.0
100
AcDbArc
 50
180.0
 51
260.0
  0
LINE
  5
C907
330
C749
100
AcDbEntity
  8
1
  6
Continuous
100
AcDbLine
 10
43.524269
 20
230.0181719999999
 30
0.0
 11
43.62156599999997
 21
230.0353279999999
 31
0.0
  0
LINE
  5
C908
330
C749
100
AcDbEntity
  8
1
  6
Continuous
100
AcDbLine
 10
41.30434
 20
224.226756
 30
0.0
 11
41.87156599999997
 21
224.226756
 31
0.0
  0
ARC
  5
C909
330
C749
100
AcDbEntity
  8
1
  6
Continuous
100
AcDbCircle
 10
43.87156599999999
 20
228.0485559999999
 30
0.0
 40
2.0
100
AcDbArc
 50
100.0
 51
180.0
  0
ARC
  5
C90A
330
C749
100
AcDbEntity
  8
1
  6
Continuous
100
AcDbCircle
 10
57.121566
 20
368.726756
 30
0.0
 40
200.0
100
AcDbArc
 50
266.80719
 51
273.19281
  0
ARC
  5
C90B
330
C749
100
AcDbEntity
  8
1
  6
Continuous
100
AcDbCircle
 10
68.121566
 20
171.5333229999998
 30
0.0
 40
2.5
100
AcDbArc
 50
273.19281
 51
0.0
  0
LINE
  5
C90C
330
C749
100
AcDbEntity
  8
1
  6
Continuous
100
AcDbLine
 10
72.371566
 20
209.404955
 30
0.0
 11
72.371566
 21
228.0485559999999
 31
0.0
  0
ARC
  5
C90D
330
C749
100
AcDbEntity
  8
1
  6
Continuous
100
AcDbCircle
 10
70.371566
 20
209.404955
 30
0.0
 40
2.0
100
AcDbArc
 50
280.0
 51
0.0
  0
LINE
  5
C90E
330
C749
100
AcDbEntity
  8
1
  6
Continuous
100
AcDbLine
 10
70.718862
 20
207.435339
 30
0.0
 11
70.621566
 21
207.418183
 31
0.0
  0
ARC
  5
C90F
330
C749
100
AcDbEntity
  8
1
  6
Continuous
100
AcDbCircle
 10
70.371566
 20
228.0485559999999
 30
0.0
 40
2.0
100
AcDbArc
 50
0.0
 51
80.0
  0
LINE
  5
C910
330
C749
100
AcDbEntity
  8
1
  6
Continuous
100
AcDbLine
 10
70.718862
 20
230.0181719999999
 30
0.0
 11
70.621566
 21
230.0353279999999
 31
0.0
  0
ARC
  5
C911
330
C749
100
AcDbEntity
  8
1
  6
Continuous
100
AcDbCircle
 10
46.12156599999997
 20
265.9201879999999
 30
0.0
 40
2.5
100
AcDbArc
 50
93.19281
 51
180.0
  0
ARC
  5
C912
330
C749
100
AcDbEntity
  8
1
  6
Continuous
100
AcDbCircle
 10
57.121566
 20
68.72675599999999
 30
0.0
 40
200.0
100
AcDbArc
 50
86.80719000000001
 51
93.19281
  0
ARC
  5
C913
330
C749
100
AcDbEntity
  8
1
  6
Continuous
100
AcDbCircle
 10
68.121566
 20
265.9201879999999
 30
0.0
 40
2.5
100
AcDbArc
 50
0.0
 51
86.80719000000001
  0
LINE
  5
C914
330
C749
100
AcDbEntity
  8
1
  6
Continuous
100
AcDbLine
 10
372.0090599999999
 20
265.919975
 30
0.0
 11
372.0090599999999
 21
171.2265429999999
 31
0.0
  0
LINE
  5
C915
330
C749
100
AcDbEntity
  8
1
  6
Continuous
100
AcDbLine
 10
345.0090599999999
 20
265.919975
 30
0.0
 11
345.0090599999999
 21
171.2265429999999
 31
0.0
  0
ARC
  5
C916
330
C749
100
AcDbEntity
  8
1
  6
Continuous
100
AcDbCircle
 10
347.5090599999999
 20
171.53311
 30
0.0
 40
2.5
100
AcDbArc
 50
180.0
 51
266.80719
  0
ARC
  5
C917
330
C749
100
AcDbEntity
  8
1
  6
Continuous
100
AcDbCircle
 10
358.50906
 20
368.726543
 30
0.0
 40
200.0
100
AcDbArc
 50
266.80719
 51
273.19281
  0
ARC
  5
C918
330
C749
100
AcDbEntity
  8
1
  6
Continuous
100
AcDbCircle
 10
369.5090599999999
 20
171.53311
 30
0.0
 40
2.5
100
AcDbArc
 50
273.19281
 51
0.0
  0
LINE
  5
C919
330
C749
100
AcDbEntity
  8
1
  6
Continuous
100
AcDbLine
 10
373.7590599999998
 20
209.4047419999998
 30
0.0
 11
373.7590599999998
 21
228.0483429999999
 31
0.0
  0
LINE
  5
C91A
330
C749
100
AcDbEntity
  8
1
  6
Continuous
100
AcDbLine
 10
343.2590599999999
 20
209.4047419999998
 30
0.0
 11
343.2590599999999
 21
228.0483429999999
 31
0.0
  0
ARC
  5
C91B
330
C749
100
AcDbEntity
  8
1
  6
Continuous
100
AcDbCircle
 10
345.2590599999999
 20
209.4047419999998
 30
0.0
 40
2.0
100
AcDbArc
 50
180.0
 51
260.0
  0
LINE
  5
C91C
330
C749
100
AcDbEntity
  8
1
  6
Continuous
100
AcDbLine
 10
344.9117629999999
 20
207.4351259999999
 30
0.0
 11
345.0090599999999
 21
207.41797
 31
0.0
  0
LINE
  5
C91D
330
C749
100
AcDbEntity
  8
1
  6
Continuous
100
AcDbLine
 10
374.3262689999999
 20
224.2265429999999
 30
0.0
 11
373.7590599999998
 21
224.2265429999999
 31
0.0
  0
LINE
  5
C91E
330
C749
100
AcDbEntity
  8
1
  6
Continuous
100
AcDbLine
 10
374.3262689999999
 20
213.2265429999999
 30
0.0
 11
373.7590599999998
 21
213.2265429999999
 31
0.0
  0
LINE
  5
C91F
330
C749
100
AcDbEntity
  8
1
  6
Continuous
100
AcDbLine
 10
372.106356
 20
207.4351259999999
 30
0.0
 11
372.0090599999999
 21
207.41797
 31
0.0
  0
ARC
  5
C920
330
C749
100
AcDbEntity
  8
1
  6
Continuous
100
AcDbCircle
 10
371.7590599999998
 20
209.4047419999998
 30
0.0
 40
2.0
100
AcDbArc
 50
280.0
 51
0.0
  0
ARC
  5
C921
330
C749
100
AcDbEntity
  8
1
  6
Continuous
100
AcDbCircle
 10
347.5090599999999
 20
265.919975
 30
0.0
 40
2.5
100
AcDbArc
 50
93.19281
 51
180.0
  0
ARC
  5
C922
330
C749
100
AcDbEntity
  8
1
  6
Continuous
100
AcDbCircle
 10
345.2590599999999
 20
228.0483429999999
 30
0.0
 40
2.0
100
AcDbArc
 50
100.0
 51
180.0
  0
LINE
  5
C923
330
C749
100
AcDbEntity
  8
1
  6
Continuous
100
AcDbLine
 10
344.9117629999999
 20
230.0179589999999
 30
0.0
 11
345.0090599999999
 21
230.035115
 31
0.0
  0
LINE
  5
C924
330
C749
100
AcDbEntity
  8
1
  6
Continuous
100
AcDbLine
 10
372.106356
 20
230.0179589999999
 30
0.0
 11
372.0090599999999
 21
230.035115
 31
0.0
  0
ARC
  5
C925
330
C749
100
AcDbEntity
  8
1
  6
Continuous
100
AcDbCircle
 10
371.7590599999998
 20
228.0483429999999
 30
0.0
 40
2.0
100
AcDbArc
 50
0.0
 51
80.0
  0
ARC
  5
C926
330
C749
100
AcDbEntity
  8
1
  6
Continuous
100
AcDbCircle
 10
358.50906
 20
68.726543
 30
0.0
 40
200.0
100
AcDbArc
 50
86.80719000000001
 51
87.337226
  0
ARC
  5
C927
330
C749
100
AcDbEntity
  8
1
  6
Continuous
100
AcDbCircle
 10
369.5090599999999
 20
265.919975
 30
0.0
 40
2.5
100
AcDbArc
 50
0.0
 51
86.80719000000001
  0
ARC
  5
C928
330
C749
100
AcDbEntity
  8
1
  6
Continuous
100
AcDbCircle
 10
358.50906
 20
68.726543
 30
0.0
 40
200.0
100
AcDbArc
 50
92.66277399999998
 51
93.19281
  0
LINE
  5
C929
330
C749
100
AcDbEntity
  8
1
  6
Continuous
100
AcDbLine
 10
144.392603
 20
97.77484499999999
 30
0.0
 11
239.086035
 21
97.77484499999999
 31
0.0
  0
LINE
  5
C92A
330
C749
100
AcDbEntity
  8
1
  6
Continuous
100
AcDbLine
 10
144.392603
 20
70.774845
 30
0.0
 11
239.086035
 21
70.774845
 31
0.0
  0
ARC
  5
C92B
330
C749
100
AcDbEntity
  8
1
  6
Continuous
100
AcDbCircle
 10
341.5860349999999
 20
84.274845
 30
0.0
 40
200.0
100
AcDbArc
 50
176.8071899999999
 51
183.19281
  0
ARC
  5
C92C
330
C749
100
AcDbEntity
  8
1
  6
Continuous
100
AcDbCircle
 10
144.392603
 20
73.274845
 30
0.0
 40
2.5
100
AcDbArc
 50
183.19281
 51
270.0
  0
ARC
  5
C92D
330
C749
100
AcDbEntity
  8
1
  6
Continuous
100
AcDbCircle
 10
144.392603
 20
95.27484499999998
 30
0.0
 40
2.5
100
AcDbArc
 50
90.0
 51
176.8071899999999
  0
ARC
  5
C92E
330
C749
100
AcDbEntity
  8
1
  6
Continuous
100
AcDbCircle
 10
41.58603499999999
 20
84.274845
 30
0.0
 40
200.0
100
AcDbArc
 50
356.80719
 51
3.192809999999998
  0
LINE
  5
C92F
330
C749
100
AcDbEntity
  8
1
  6
Continuous
100
AcDbLine
 10
200.907836
 20
69.02484499999999
 30
0.0
 11
182.264235
 21
69.02484499999999
 31
0.0
  0
LINE
  5
C930
330
C749
100
AcDbEntity
  8
1
  6
Continuous
100
AcDbLine
 10
186.086035
 20
68.45761899999999
 30
0.0
 11
186.086035
 21
69.02484499999999
 31
0.0
  0
ARC
  5
C931
330
C749
100
AcDbEntity
  8
1
  6
Continuous
100
AcDbCircle
 10
182.264235
 20
71.024845
 30
0.0
 40
2.0
100
AcDbArc
 50
190.0
 51
270.0
  0
LINE
  5
C932
330
C749
100
AcDbEntity
  8
1
  6
Continuous
100
AcDbLine
 10
180.2946189999999
 20
70.677548
 30
0.0
 11
180.2774629999999
 21
70.774845
 31
0.0
  0
ARC
  5
C933
330
C749
100
AcDbEntity
  8
1
  6
Continuous
100
AcDbCircle
 10
200.907836
 20
71.024845
 30
0.0
 40
2.0
100
AcDbArc
 50
270.0
 51
350.0
  0
LINE
  5
C934
330
C749
100
AcDbEntity
  8
1
  6
Continuous
100
AcDbLine
 10
197.086035
 20
68.45761899999999
 30
0.0
 11
197.086035
 21
69.02484499999999
 31
0.0
  0
LINE
  5
C935
330
C749
100
AcDbEntity
  8
1
  6
Continuous
100
AcDbLine
 10
202.877452
 20
70.677548
 30
0.0
 11
202.8946079999998
 21
70.774845
 31
0.0
  0
ARC
  5
C936
330
C749
100
AcDbEntity
  8
1
  6
Continuous
100
AcDbCircle
 10
238.779468
 20
73.274845
 30
0.0
 40
2.5
100
AcDbArc
 50
270.0
 51
356.80719
  0
LINE
  5
C937
330
C749
100
AcDbEntity
  8
1
  6
Continuous
100
AcDbLine
 10
200.907836
 20
99.52484500000002
 30
0.0
 11
182.264235
 21
99.52484500000002
 31
0.0
  0
LINE
  5
C938
330
C749
100
AcDbEntity
  8
1
  6
Continuous
100
AcDbLine
 10
180.2946189999999
 20
97.87214099999999
 30
0.0
 11
180.2774629999999
 21
97.77484499999999
 31
0.0
  0
ARC
  5
C939
330
C749
100
AcDbEntity
  8
1
  6
Continuous
100
AcDbCircle
 10
182.264235
 20
97.52484500000001
 30
0.0
 40
2.0
100
AcDbArc
 50
90.0
 51
170.0
  0
ARC
  5
C93A
330
C749
100
AcDbEntity
  8
1
  6
Continuous
100
AcDbCircle
 10
200.907836
 20
97.52484500000001
 30
0.0
 40
2.0
100
AcDbArc
 50
10.0
 51
90.0
  0
LINE
  5
C93B
330
C749
100
AcDbEntity
  8
1
  6
Continuous
100
AcDbLine
 10
202.877452
 20
97.87214099999999
 30
0.0
 11
202.8946079999998
 21
97.77484499999999
 31
0.0
  0
ARC
  5
C93C
330
C749
100
AcDbEntity
  8
1
  6
Continuous
100
AcDbCircle
 10
238.779468
 20
95.27484499999998
 30
0.0
 40
2.5
100
AcDbArc
 50
3.192809999999998
 51
90.0
  0
ARC
  5
C93D
330
C749
100
AcDbEntity
  8
1
  6
Continuous
100
AcDbCircle
 10
224.586035
 20
84.274845
 30
0.0
 40
19.82499999999999
100
AcDbArc
 50
42.822953
 51
50.51155399999998
  0
ARC
  5
C93E
330
C749
100
AcDbEntity
  8
1
  6
Continuous
100
AcDbCircle
 10
224.586035
 20
84.274845
 30
0.0
 40
19.82499999999999
100
AcDbArc
 50
327.475953
 51
32.52404699999999
  0
LINE
  5
C93F
330
C749
100
AcDbEntity
  8
1
  6
Continuous
100
AcDbLine
 10
184.586035
 20
63.531381
 30
0.0
 11
184.586035
 21
65.857619
 31
0.0
  0
LINE
  5
C940
330
C749
100
AcDbEntity
  8
1
  6
Continuous
100
AcDbLine
 10
198.586035
 20
63.531381
 30
0.0
 11
184.586035
 21
63.531381
 31
0.0
  0
ARC
  5
C941
330
C749
100
AcDbEntity
  8
1
  6
Continuous
100
AcDbCircle
 10
191.586035
 20
71.357619
 30
0.0
 40
10.5
100
AcDbArc
 50
228.1896849999998
 51
311.810315
  0
LINE
  5
C942
330
C749
100
AcDbEntity
  8
1
  6
Continuous
100
AcDbLine
 10
198.586035
 20
63.531381
 30
0.0
 11
198.586035
 21
65.857619
 31
0.0
  0
LINE
  5
C943
330
C749
100
AcDbEntity
  8
1
  6
Continuous
100
AcDbLine
 10
36.378102
 20
225.7267559999999
 30
0.0
 11
36.378102
 21
211.726756
 31
0.0
  0
ARC
  5
C944
330
C749
100
AcDbEntity
  8
1
  6
Continuous
100
AcDbCircle
 10
44.20434
 20
218.7267559999999
 30
0.0
 40
10.5
100
AcDbArc
 50
138.1896849999999
 51
221.810315
  0
LINE
  5
C945
330
C749
100
AcDbEntity
  8
1
  6
Continuous
100
AcDbLine
 10
36.378102
 20
211.726756
 30
0.0
 11
38.70434
 21
211.726756
 31
0.0
  0
LINE
  5
C946
330
C749
100
AcDbEntity
  8
1
  6
Continuous
100
AcDbLine
 10
36.378102
 20
225.7267559999999
 30
0.0
 11
38.70434
 21
225.7267559999999
 31
0.0
  0
LINE
  5
C947
330
C749
100
AcDbEntity
  8
1
  6
Continuous
100
AcDbLine
 10
379.2525069999999
 20
219.768312
 30
0.0
 11
379.2525069999999
 21
211.7265429999999
 31
0.0
  0
ARC
  5
C948
330
C749
100
AcDbEntity
  8
1
  6
Continuous
100
AcDbCircle
 10
371.4262689999998
 20
218.726543
 30
0.0
 40
10.5
100
AcDbArc
 50
318.189685
 51
22.38542199999999
  0
LINE
  5
C949
330
C749
100
AcDbEntity
  8
1
  6
Continuous
100
AcDbLine
 10
379.2525069999999
 20
211.7265429999999
 30
0.0
 11
376.926269
 21
211.7265429999999
 31
0.0
  0
LINE
  5
C94A
330
C749
100
AcDbEntity
  8
4
  6
CENTER
100
AcDbLine
 10
191.586035
 20
333.6778279999998
 30
0.0
 11
191.586035
 21
418.6778279999998
 31
0.0
  0
ARC
  5
C94B
330
C749
100
AcDbEntity
  8
1
  6
Continuous
100
AcDbCircle
 10
153.4503819999999
 20
392.8967579999999
 30
0.0
 40
42.67852
100
AcDbArc
 50
282.7194099999999
 51
293.9002299999998
  0
LINE
  5
C94C
330
C749
100
AcDbEntity
  8
1
  6
Continuous
100
AcDbLine
 10
175.086035
 20
356.1778279999999
 30
0.0
 11
140.741402
 21
356.1778279999999
 31
0.0
  0
LINE
  5
C94D
330
C749
100
AcDbEntity
  8
1
  6
Continuous
100
AcDbLine
 10
175.086035
 20
353.8778279999998
 30
0.0
 11
164.8472019999998
 21
353.8778279999998
 31
0.0
  0
LINE
  5
C94E
330
C749
100
AcDbEntity
  8
1
  6
Continuous
100
AcDbLine
 10
175.086035
 20
360.8778279999999
 30
0.0
 11
137.2977219999999
 21
360.8778279999999
 31
0.0
  0
LINE
  5
C94F
330
C749
100
AcDbEntity
  8
1
  6
Continuous
100
AcDbLine
 10
175.086035
 20
360.3778279999998
 30
0.0
 11
137.2977219999999
 21
360.3778279999998
 31
0.0
  0
LINE
  5
C950
330
C749
100
AcDbEntity
  8
1
  6
Continuous
100
AcDbLine
 10
137.2977219999999
 20
360.8778279999999
 30
0.0
 11
137.2977219999999
 21
360.3778279999998
 31
0.0
  0
ARC
  5
C951
330
C749
100
AcDbEntity
  8
1
  6
Continuous
100
AcDbCircle
 10
152.653355
 20
339.2716679999999
 30
0.0
 40
10.19384799999998
100
AcDbArc
 50
179.9999899999999
 51
0.00001
  0
LINE
  5
C952
330
C749
100
AcDbEntity
  8
1
  6
Continuous
100
AcDbLine
 10
162.847202
 20
351.8778279999998
 30
0.0
 11
162.847202
 21
339.2716679999999
 31
0.0
  0
LINE
  5
C953
330
C749
100
AcDbEntity
  8
1
  6
Continuous
100
AcDbLine
 10
142.459511
 20
352.3778279999998
 30
0.0
 11
142.459511
 21
339.2716679999999
 31
0.0
  0
LINE
  5
C954
330
C749
100
AcDbEntity
  8
1
  6
Continuous
100
AcDbLine
 10
141.939736
 20
353.8778279999998
 30
0.0
 11
141.939736
 21
339.2716679999999
 31
0.0
  0
ARC
  5
C955
330
C749
100
AcDbEntity
  8
1
  6
Continuous
100
AcDbCircle
 10
152.653355
 20
339.2716679999999
 30
0.0
 40
10.19384799999998
100
AcDbArc
 50
268.5391099999999
 51
0.0
  0
ARC
  5
C956
330
C749
100
AcDbEntity
  8
1
  6
Continuous
100
AcDbCircle
 10
152.133579
 20
339.2716679999999
 30
0.0
 40
10.19384799999998
100
AcDbArc
 50
179.9999899999999
 51
271.4608999999999
  0
ARC
  5
C957
330
C749
100
AcDbEntity
  8
1
  6
Continuous
100
AcDbCircle
 10
140.0495379999999
 20
358.3778279999998
 30
0.0
 40
2.0
100
AcDbArc
 50
5.229133
 51
90.00000300000001
  0
LINE
  5
C958
330
C749
100
AcDbEntity
  8
1
  6
Continuous
100
AcDbLine
 10
140.741402
 20
356.1778279999999
 30
0.0
 11
140.741402
 21
353.8778279999998
 31
0.0
  0
LINE
  5
C959
330
C749
100
AcDbEntity
  8
1
  6
Continuous
100
AcDbLine
 10
140.9595109999999
 20
353.8778279999998
 30
0.0
 11
140.741402
 21
353.8778279999998
 31
0.0
  0
ARC
  5
C95A
330
C749
100
AcDbEntity
  8
1
  6
Continuous
100
AcDbCircle
 10
140.9595109999999
 20
352.3778279999998
 30
0.0
 40
1.5
100
AcDbArc
 50
0.0
 51
90.00000300000001
  0
ARC
  5
C95B
330
C749
100
AcDbEntity
  8
1
  6
Continuous
100
AcDbCircle
 10
149.4979589999998
 20
359.2425379999999
 30
0.0
 40
7.487911
100
AcDbArc
 50
185.22913
 51
204.16012
  0
ARC
  5
C95C
330
C749
100
AcDbEntity
  8
1
  6
Continuous
100
AcDbCircle
 10
158.946385
 20
358.3778279999998
 30
0.0
 40
2.0
100
AcDbArc
 50
90.00000300000001
 51
174.77087
  0
ARC
  5
C95D
330
C749
100
AcDbEntity
  8
1
  6
Continuous
100
AcDbCircle
 10
164.8472019999998
 20
351.8778279999998
 30
0.0
 40
2.0
100
AcDbArc
 50
90.00000300000001
 51
180.00001
  0
ARC
  5
C95E
330
C749
100
AcDbEntity
  8
1
  6
Continuous
100
AcDbCircle
 10
149.4979589999998
 20
359.2425379999999
 30
0.0
 40
7.487911
100
AcDbArc
 50
335.8398799999998
 51
354.77087
  0
ARC
  5
C95F
330
C749
100
AcDbEntity
  8
1
  6
Continuous
100
AcDbCircle
 10
231.203692
 20
337.2956879999999
 30
0.0
 40
10.184876
100
AcDbArc
 50
174.8501199999998
 51
354.8501299999998
  0
ARC
  5
C960
330
C749
100
AcDbEntity
  8
1
  6
Continuous
100
AcDbCircle
 10
174.397762
 20
355.3778279999999
 30
0.0
 40
5.0
100
AcDbArc
 50
82.08784900000003
 51
90.00000300000001
  0
LINE
  5
C961
330
C749
100
AcDbEntity
  8
1
  6
Continuous
100
AcDbLine
 10
221.1021039999998
 20
338.6778279999999
 30
0.0
 11
221.0599299999998
 21
338.209878
 31
0.0
  0
LINE
  5
C962
330
C749
100
AcDbEntity
  8
1
  6
Continuous
100
AcDbLine
 10
220.4693009999998
 20
338.6778279999999
 30
0.0
 11
220.432225
 21
338.266448
 31
0.0
  0
ARC
  5
C963
330
C749
100
AcDbEntity
  8
1
  6
Continuous
100
AcDbCircle
 10
230.575987
 20
337.3522579999999
 30
0.0
 40
10.184876
100
AcDbArc
 50
174.8501199999998
 51
266.6231599999999
  0
LINE
  5
C964
330
C749
100
AcDbEntity
  8
1
  6
Continuous
100
AcDbLine
 10
241.5544109999999
 20
338.6778279999999
 30
0.0
 11
241.347452
 21
336.3814679999999
 31
0.0
  0
LINE
  5
C965
330
C749
100
AcDbEntity
  8
1
  6
Continuous
100
AcDbLine
 10
79.96863999999998
 20
228.352166
 30
0.0
 11
82.52007199999999
 21
225.65496
 31
0.0
  0
LINE
  5
C966
330
C749
100
AcDbEntity
  8
1
  6
Continuous
100
AcDbLine
 10
79.42156899999997
 20
221.574646
 30
0.0
 11
79.42156899999997
 21
237.055306
 31
0.0
  0
LINE
  5
C967
330
C749
100
AcDbEntity
  8
1
  6
Continuous
100
AcDbLine
 10
77.121566
 20
217.4655859999998
 30
0.0
 11
77.121566
 21
239.0285659999999
 31
0.0
  0
LINE
  5
C968
330
C749
100
AcDbEntity
  8
1
  6
Continuous
100
AcDbLine
 10
72.92156899999998
 20
198.121366
 30
0.0
 11
72.92156899999998
 21
235.291496
 31
0.0
  0
LINE
  5
C969
330
C749
100
AcDbEntity
  8
1
  6
Continuous
100
AcDbLine
 10
72.42156899999997
 20
198.121366
 30
0.0
 11
72.42156899999997
 21
235.291496
 31
0.0
  0
LINE
  5
C96A
330
C749
100
AcDbEntity
  8
1
  6
Continuous
100
AcDbLine
 10
89.103086
 20
218.2590559999999
 30
0.0
 11
95.63200100000001
 21
218.2590559999999
 31
0.0
  0
LINE
  5
C96B
330
C749
100
AcDbEntity
  8
1
  6
Continuous
100
AcDbLine
 10
87.417966
 20
220.4772259999999
 30
0.0
 11
95.63200100000001
 21
220.4772259999999
 31
0.0
  0
LINE
  5
C96C
330
C749
100
AcDbEntity
  8
1
  6
Continuous
100
AcDbLine
 10
89.51624800000002
 20
212.9500559999999
 30
0.0
 11
95.63200100000001
 21
212.9500559999999
 31
0.0
  0
LINE
  5
C96D
330
C749
100
AcDbEntity
  8
1
  6
Continuous
100
AcDbLine
 10
79.42156899999997
 20
202.601136
 30
0.0
 11
79.42156899999997
 21
205.409726
 31
0.0
  0
ARC
  5
C96E
330
C749
100
AcDbEntity
  8
1
  6
Continuous
100
AcDbCircle
 10
82.12156400000003
 20
204.833436
 30
0.0
 40
5.0
100
AcDbArc
 50
191.3836599999999
 51
254.6875700000001
  0
LINE
  5
C96F
330
C749
100
AcDbEntity
  8
1
  6
Continuous
100
AcDbLine
 10
77.121566
 20
196.6300359999999
 30
0.0
 11
77.121566
 21
203.8015759999999
 31
0.0
  0
ARC
  5
C970
330
C749
100
AcDbEntity
  8
1
  6
Continuous
100
AcDbCircle
 10
74.92156899999997
 20
201.1851459999999
 30
0.0
 40
2.0
100
AcDbArc
 50
95.22910999999997
 51
180.00001
  0
ARC
  5
C971
330
C749
100
AcDbEntity
  8
1
  6
Continuous
100
AcDbCircle
 10
74.056853
 20
210.6335759999999
 30
0.0
 40
7.487911
100
AcDbArc
 50
275.229115
 51
84.77087
  0
LINE
  5
C972
330
C749
100
AcDbEntity
  8
1
  6
Continuous
100
AcDbLine
 10
89.51624800000002
 20
196.6300359999999
 30
0.0
 11
89.51624800000002
 21
216.2688559999998
 31
0.0
  0
LINE
  5
C973
330
C749
100
AcDbEntity
  8
1
  6
Continuous
100
AcDbLine
 10
77.121566
 20
196.6300359999999
 30
0.0
 11
89.49819699999997
 21
196.6300359999999
 31
0.0
  0
LINE
  5
C974
330
C749
100
AcDbEntity
  8
1
  6
Continuous
100
AcDbLine
 10
72.42156899999997
 20
198.121366
 30
0.0
 11
72.92156899999998
 21
198.121366
 31
0.0
  0
ARC
  5
C975
330
C749
100
AcDbEntity
  8
1
  6
Continuous
100
AcDbCircle
 10
87.95498399999997
 20
196.8667759999999
 30
0.0
 40
1.561261999999999
100
AcDbArc
 50
351.278397
 51
68.44682
  0
ARC
  5
C976
330
C749
100
AcDbEntity
  8
1
  6
Continuous
100
AcDbCircle
 10
70.047332
 20
160.735086
 30
0.0
 40
40.721458
100
AcDbArc
 50
66.19688
 51
74.68756999999998
  0
ARC
  5
C977
330
C749
100
AcDbEntity
  8
1
  6
Continuous
100
AcDbCircle
 10
85.98565399999998
 20
196.8667759999999
 30
0.0
 40
1.230588
100
AcDbArc
 50
348.908329
 51
66.19688
  0
ARC
  5
C978
330
C749
100
AcDbEntity
  8
1
  6
Continuous
100
AcDbCircle
 10
81.42156899999998
 20
202.601136
 30
0.0
 40
2.0
100
AcDbArc
 50
180.0
 51
257.2238599999999
  0
ARC
  5
C979
330
C749
100
AcDbEntity
  8
1
  6
Continuous
100
AcDbCircle
 10
69.562011
 20
150.3002459999999
 30
0.0
 40
51.62864299999998
100
AcDbArc
 50
68.44682
 51
77.22386
  0
ARC
  5
C97A
330
C749
100
AcDbEntity
  8
1
  6
Continuous
100
AcDbCircle
 10
72.42048599999998
 20
208.308716
 30
0.0
 40
13.0
100
AcDbArc
 50
52.70184
 51
68.8002
  0
ARC
  5
C97B
330
C749
100
AcDbEntity
  8
1
  6
Continuous
100
AcDbCircle
 10
74.92156899999997
 20
220.081996
 30
0.0
 40
2.0
100
AcDbArc
 50
180.00001
 51
264.7708699999999
  0
ARC
  5
C97C
330
C749
100
AcDbEntity
  8
1
  6
Continuous
100
AcDbCircle
 10
84.51624800000002
 20
216.2688559999998
 30
0.0
 40
5.0
100
AcDbArc
 50
0.000003
 51
43.40908999999999
  0
ARC
  5
C97D
330
C749
100
AcDbEntity
  8
1
  6
Continuous
100
AcDbCircle
 10
73.08744699999998
 20
217.186856
 30
0.0
 40
8.0
100
AcDbArc
 50
339.1486919999999
 51
358.7803149999999
  0
ARC
  5
C97E
330
C749
100
AcDbEntity
  8
1
  6
Continuous
100
AcDbCircle
 10
73.08744699999998
 20
217.186856
 30
0.0
 40
10.0
100
AcDbArc
 50
326.90039
 51
6.111539999999997
  0
ARC
  5
C97F
330
C749
100
AcDbEntity
  8
1
  6
Continuous
100
AcDbCircle
 10
72.42048599999998
 20
208.308716
 30
0.0
 40
15.0
100
AcDbArc
 50
48.45631
 51
62.17719999999999
  0
ARC
  5
C980
330
C749
100
AcDbEntity
  8
1
  6
Continuous
100
AcDbCircle
 10
81.041976
 20
218.0385759999999
 30
0.0
 40
2.0
100
AcDbArc
 50
6.111539999999997
 51
48.45631
  0
ARC
  5
C981
330
C749
100
AcDbEntity
  8
1
  6
Continuous
100
AcDbCircle
 10
79.08607399999998
 20
217.0591359999999
 30
0.0
 40
2.0
100
AcDbArc
 50
0.000003
 51
52.70184
  0
LINE
  5
C982
330
C749
100
AcDbEntity
  8
1
  6
Continuous
100
AcDbLine
 10
89.42156700000003
 20
218.2590559999999
 30
0.0
 11
89.42156700000003
 21
220.4772259999999
 31
0.0
  0
ARC
  5
C983
330
C749
100
AcDbEntity
  8
1
  6
Continuous
100
AcDbCircle
 10
104.5925879999999
 20
215.604566
 30
0.0
 40
1.539409999999999
100
AcDbArc
 50
284.187905
 51
75.81209
  0
ARC
  5
C984
330
C749
100
AcDbEntity
  8
1
  6
Continuous
100
AcDbCircle
 10
104.5925879999999
 20
217.8226759999998
 30
0.0
 40
1.539409999999999
100
AcDbArc
 50
0.000003
 51
75.81209
  0
ARC
  5
C985
330
C749
100
AcDbEntity
  8
1
  6
Continuous
100
AcDbCircle
 10
95.63200100000001
 20
251.047906
 30
0.0
 40
38.097919
100
AcDbArc
 50
270.0
 51
284.187905
  0
ARC
  5
C986
330
C749
100
AcDbEntity
  8
1
  6
Continuous
100
AcDbCircle
 10
95.63200100000001
 20
182.3793159999999
 30
0.0
 40
38.097919
100
AcDbArc
 50
75.81209
 51
90.00001000000002
  0
ARC
  5
C987
330
C749
100
AcDbEntity
  8
1
  6
Continuous
100
AcDbCircle
 10
95.63200100000001
 20
180.1611859999999
 30
0.0
 40
38.097919
100
AcDbArc
 50
75.81209
 51
90.00001000000002
  0
LINE
  5
C988
330
C749
100
AcDbEntity
  8
1
  6
Continuous
100
AcDbLine
 10
106.1320009999999
 20
217.8226759999998
 30
0.0
 11
106.1320009999999
 21
215.604566
 31
0.0
  0
ARC
  5
C989
330
C749
100
AcDbEntity
  8
1
  6
Continuous
100
AcDbCircle
 10
93.72156999999999
 20
200.817106
 30
0.0
 40
38.238205
100
AcDbArc
 50
75.85980999999998
 51
90.00001000000002
  0
ARC
  5
C98A
330
C749
100
AcDbEntity
  8
1
  6
Continuous
100
AcDbCircle
 10
93.72156999999999
 20
203.043376
 30
0.0
 40
38.238205
100
AcDbArc
 50
75.85980999999998
 51
90.00001000000002
  0
ARC
  5
C98B
330
C749
100
AcDbEntity
  8
1
  6
Continuous
100
AcDbCircle
 10
93.72156999999999
 20
272.0030159999998
 30
0.0
 40
38.238205
100
AcDbArc
 50
270.0
 51
284.140197
  0
ARC
  5
C98C
330
C749
100
AcDbEntity
  8
1
  6
Continuous
100
AcDbCircle
 10
77.42156899999997
 20
239.0285659999999
 30
0.0
 40
2.0
100
AcDbArc
 50
36.33068999999999
 51
90.00001000000002
  0
ARC
  5
C98D
330
C749
100
AcDbEntity
  8
1
  6
Continuous
100
AcDbCircle
 10
82.12156400000003
 20
236.2815859999999
 30
0.0
 40
5.0
100
AcDbArc
 50
90.00001000000002
 51
180.0
  0
LINE
  5
C98E
330
C749
100
AcDbEntity
  8
1
  6
Continuous
100
AcDbLine
 10
77.121566
 20
227.0870659999999
 30
0.0
 11
79.42156899999997
 21
227.0870659999999
 31
0.0
  0
LINE
  5
C98F
330
C749
100
AcDbEntity
  8
1
  6
Continuous
100
AcDbLine
 10
77.121566
 20
227.0870659999999
 30
0.0
 11
79.42156899999997
 21
227.0870659999999
 31
0.0
  0
LINE
  5
C990
330
C749
100
AcDbEntity
  8
1
  6
Continuous
100
AcDbLine
 10
72.42156899999997
 20
235.291496
 30
0.0
 11
72.92156899999998
 21
235.291496
 31
0.0
  0
LINE
  5
C991
330
C749
100
AcDbEntity
  8
1
  6
Continuous
100
AcDbLine
 10
74.52155999999998
 20
239.0285659999999
 30
0.0
 11
74.52155999999998
 21
241.0285659999999
 31
0.0
  0
LINE
  5
C992
330
C749
100
AcDbEntity
  8
1
  6
Continuous
100
AcDbLine
 10
74.52155999999998
 20
239.0285659999999
 30
0.0
 11
77.121566
 21
239.0285659999999
 31
0.0
  0
LINE
  5
C993
330
C749
100
AcDbEntity
  8
1
  6
Continuous
100
AcDbLine
 10
74.52155999999998
 20
241.0285659999999
 30
0.0
 11
77.42156899999997
 21
241.0285659999999
 31
0.0
  0
ARC
  5
C994
330
C749
100
AcDbEntity
  8
1
  6
Continuous
100
AcDbCircle
 10
74.92156899999997
 20
231.9901259999999
 30
0.0
 40
2.0
100
AcDbArc
 50
180.00001
 51
264.7708699999999
  0
ARC
  5
C995
330
C749
100
AcDbEntity
  8
1
  6
Continuous
100
AcDbCircle
 10
74.056853
 20
222.5416959999999
 30
0.0
 40
7.487911
100
AcDbArc
 50
65.83988000000001
 51
84.77087
  0
ARC
  5
C996
330
C749
100
AcDbEntity
  8
1
  6
Continuous
100
AcDbCircle
 10
81.42156899999998
 20
231.764816
 30
0.0
 40
2.0
100
AcDbArc
 50
90.00001000000002
 51
180.0
  0
ARC
  5
C997
330
C749
100
AcDbEntity
  8
1
  6
Continuous
100
AcDbCircle
 10
81.42156899999998
 20
237.055306
 30
0.0
 40
2.0
100
AcDbArc
 50
90.00001000000002
 51
180.0
  0
ARC
  5
C998
330
C749
100
AcDbEntity
  8
1
  6
Continuous
100
AcDbCircle
 10
81.42156899999998
 20
229.7265759999999
 30
0.0
 40
2.0
100
AcDbArc
 50
180.0
 51
223.40908
  0
LINE
  5
C999
330
C749
100
AcDbEntity
  8
1
  6
Continuous
100
AcDbLine
 10
81.42156899999998
 20
233.764816
 30
0.0
 11
93.72156999999999
 21
233.764816
 31
0.0
  0
LINE
  5
C99A
330
C749
100
AcDbEntity
  8
1
  6
Continuous
100
AcDbLine
 10
81.42156899999998
 20
239.0553259999999
 30
0.0
 11
93.72156999999999
 21
239.0553259999999
 31
0.0
  0
LINE
  5
C99B
330
C749
100
AcDbEntity
  8
1
  6
Continuous
100
AcDbLine
 10
82.12156400000003
 20
241.2815859999998
 30
0.0
 11
93.72156999999999
 21
241.2815859999998
 31
0.0
  0
ARC
  5
C99C
330
C749
100
AcDbEntity
  8
1
  6
Continuous
100
AcDbCircle
 10
102.6884589999999
 20
236.410066
 30
0.0
 40
1.533117999999999
100
AcDbArc
 50
284.140197
 51
75.85980999999998
  0
ARC
  5
C99D
330
C749
100
AcDbEntity
  8
1
  6
Continuous
100
AcDbCircle
 10
102.6884589999999
 20
238.636316
 30
0.0
 40
1.533117999999999
100
AcDbArc
 50
0.000003
 51
75.85980999999998
  0
LINE
  5
C99E
330
C749
100
AcDbEntity
  8
1
  6
Continuous
100
AcDbLine
 10
104.22157
 20
238.636316
 30
0.0
 11
104.22157
 21
236.410066
 31
0.0
  0
LINE
  5
C99F
330
C749
100
AcDbEntity
  8
1
  6
Continuous
100
AcDbLine
 10
104.22157
 20
238.636316
 30
0.0
 11
104.22157
 21
236.410066
 31
0.0
  0
ARC
  5
C9A0
330
C749
100
AcDbEntity
  8
1
  6
Continuous
100
AcDbCircle
 10
190.595092
 20
220.768596
 30
0.0
 40
19.0
100
AcDbArc
 50
232.638976
 51
273.0885699999999
  0
LINE
  5
C9A1
330
C749
100
AcDbEntity
  8
1
  6
Continuous
100
AcDbLine
 10
193.061584
 20
201.874045
 30
0.0
 11
191.6188059999998
 21
201.796196
 31
0.0
  0
ARC
  5
C9A2
330
C749
100
AcDbEntity
  8
1
  6
Continuous
100
AcDbCircle
 10
340.7090569999998
 20
213.0930629999999
 30
0.0
 40
2.0
100
AcDbArc
 50
0.0
 51
84.77085999999998
  0
ARC
  5
C9A3
330
C749
100
AcDbEntity
  8
1
  6
Continuous
100
AcDbCircle
 10
340.7090569999998
 20
231.989913
 30
0.0
 40
2.0
100
AcDbArc
 50
275.2291299999999
 51
0.0
  0
ARC
  5
C9A4
330
C749
100
AcDbEntity
  8
1
  6
Continuous
100
AcDbCircle
 10
340.7090569999998
 20
201.1849329999999
 30
0.0
 40
2.0
100
AcDbArc
 50
0.0
 51
84.77088
  0
ARC
  5
C9A5
330
C749
100
AcDbEntity
  8
1
  6
Continuous
100
AcDbCircle
 10
341.573773
 20
222.541483
 30
0.0
 40
7.487911
100
AcDbArc
 50
95.229134
 51
264.77089
  0
LINE
  5
C9A6
330
C749
100
AcDbEntity
  8
1
  6
Continuous
100
AcDbLine
 10
335.2416359999998
 20
196.6298229999999
 30
0.0
 11
335.2416359999998
 21
210.9498429999999
 31
0.0
  0
LINE
  5
C9A7
330
C749
100
AcDbEntity
  8
1
  6
Continuous
100
AcDbLine
 10
326.1143779999998
 20
196.6298229999999
 30
0.0
 11
326.1143779999998
 21
212.9498429999999
 31
0.0
  0
LINE
  5
C9A8
330
C749
100
AcDbEntity
  8
1
  6
Continuous
100
AcDbLine
 10
337.5416389999998
 20
196.6298229999999
 30
0.0
 11
337.5416389999998
 21
210.167993
 31
0.0
  0
LINE
  5
C9A9
330
C749
100
AcDbEntity
  8
1
  6
Continuous
100
AcDbLine
 10
337.5416389999998
 20
196.6298229999999
 30
0.0
 11
337.5416389999998
 21
216.2319129999999
 31
0.0
  0
LINE
  5
C9AA
330
C749
100
AcDbEntity
  8
1
  6
Continuous
100
AcDbLine
 10
338.5090599999998
 20
201.2394229999999
 30
0.0
 11
338.5090599999998
 21
215.709483
 31
0.0
  0
LINE
  5
C9AB
330
C749
100
AcDbEntity
  8
1
  6
Continuous
100
AcDbLine
 10
337.5416389999998
 20
196.6298229999999
 30
0.0
 11
326.1324329999998
 21
196.6298229999999
 31
0.0
  0
LINE
  5
C9AC
330
C749
100
AcDbEntity
  8
1
  6
Continuous
100
AcDbLine
 10
338.5090599999998
 20
201.2394229999999
 30
0.0
 11
337.5416389999998
 21
201.2394229999999
 31
0.0
  0
ARC
  5
C9AD
330
C749
100
AcDbEntity
  8
1
  6
Continuous
100
AcDbCircle
 10
341.573773
 20
210.6333629999999
 30
0.0
 40
7.487911
100
AcDbArc
 50
245.83988
 51
264.7708799999999
  0
LINE
  5
C9AE
330
C749
100
AcDbEntity
  8
1
  6
Continuous
100
AcDbLine
 10
333.2416379999999
 20
212.9498429999999
 30
0.0
 11
319.998621
 21
212.9498429999999
 31
0.0
  0
LINE
  5
C9AF
330
C749
100
AcDbEntity
  8
1
  6
Continuous
100
AcDbLine
 10
332.541641
 20
215.167993
 30
0.0
 11
319.998621
 21
215.167993
 31
0.0
  0
LINE
  5
C9B0
330
C749
100
AcDbEntity
  8
1
  6
Continuous
100
AcDbLine
 10
326.2090549999999
 20
220.4770129999999
 30
0.0
 11
319.998621
 21
220.4770129999999
 31
0.0
  0
ARC
  5
C9B1
330
C749
100
AcDbEntity
  8
1
  6
Continuous
100
AcDbCircle
 10
311.038031
 20
217.8224629999998
 30
0.0
 40
1.539409999999999
100
AcDbArc
 50
104.1879039999998
 51
180.0000029999999
  0
ARC
  5
C9B2
330
C749
100
AcDbEntity
  8
1
  6
Continuous
100
AcDbCircle
 10
319.998621
 20
182.3791029999999
 30
0.0
 40
38.097919
100
AcDbArc
 50
90.00000300000001
 51
104.1879039999998
  0
ARC
  5
C9B3
330
C749
100
AcDbEntity
  8
1
  6
Continuous
100
AcDbCircle
 10
319.998621
 20
251.0477129999999
 30
0.0
 40
38.097919
100
AcDbArc
 50
255.81209
 51
269.9999899999999
  0
ARC
  5
C9B4
330
C749
100
AcDbEntity
  8
1
  6
Continuous
100
AcDbCircle
 10
319.998621
 20
253.2658629999999
 30
0.0
 40
38.097919
100
AcDbArc
 50
255.81209
 51
269.9999899999999
  0
ARC
  5
C9B5
330
C749
100
AcDbEntity
  8
1
  6
Continuous
100
AcDbCircle
 10
311.038031
 20
215.6043529999998
 30
0.0
 40
1.539409999999999
100
AcDbArc
 50
180.0000029999999
 51
255.81209
  0
ARC
  5
C9B6
330
C749
100
AcDbEntity
  8
1
  6
Continuous
100
AcDbCircle
 10
311.038031
 20
217.8225029999999
 30
0.0
 40
1.539409999999999
100
AcDbArc
 50
104.1879039999998
 51
255.81209
  0
LINE
  5
C9B7
330
C749
100
AcDbEntity
  8
1
  6
Continuous
100
AcDbLine
 10
309.498621
 20
217.8224629999998
 30
0.0
 11
309.498621
 21
215.6043529999998
 31
0.0
  0
ARC
  5
C9B8
330
C749
100
AcDbEntity
  8
1
  6
Continuous
100
AcDbCircle
 10
332.541641
 20
210.167993
 30
0.0
 40
5.0
100
AcDbArc
 50
0.0
 51
90.00000300000001
  0
LWPOLYLINE
  5
C9B9
330
C749
100
AcDbEntity
  8
1
  6
Continuous
100
AcDbPolyline
 90
       17
 70
     0
 43
0.0
 10
328.43045
 20
219.5611129999999
 42
0.035213
 10
328.4305109999999
 20
219.487823
 42
0.034371
 10
328.440736
 20
219.415423
 42
0.032439
 10
328.460609
 20
219.344763
 42
0.029676
 10
328.4892209999998
 20
219.2768029999998
 42
0.02657
 10
328.525441
 20
219.212193
 42
0.023288
 10
328.5676649999999
 20
219.151863
 42
0.020411
 10
328.6148379999999
 20
219.095613
 42
0.01808
 10
328.6665069999999
 20
219.042843
 42
0.016058
 10
328.7219149999998
 20
218.993473
 42
0.014332
 10
328.7804229999999
 20
218.947393
 42
0.012734
 10
328.8408219999999
 20
218.904903
 42
0.01145
 10
328.9028850000002
 20
218.865573
 42
0.010486
 10
328.9669990000001
 20
218.8287929999999
 42
0.009655
 10
329.0328479999999
 20
218.7944529999998
 42
0.008937
 10
329.100162
 20
218.762473
 42
0.008317
 10
329.1687129999999
 20
218.7327529999998
  0
LINE
  5
C9CC
330
C749
100
AcDbEntity
  8
1
  6
Continuous
100
AcDbLine
 10
326.2090549999999
 20
218.726543
 30
0.0
 11
326.2090549999999
 21
220.4770129999999
 31
0.0
  0
LINE
  5
C9CD
330
C749
100
AcDbEntity
  8
1
  6
Continuous
100
AcDbLine
 10
326.2090549999999
 20
218.726543
 30
0.0
 11
335.130562
 21
218.726543
 31
0.0
  0
ARC
  5
C9CE
330
C749
100
AcDbEntity
  8
1
  6
Continuous
100
AcDbCircle
 10
333.2416379999999
 20
210.9498429999999
 30
0.0
 40
2.0
100
AcDbArc
 50
0.0
 51
90.00000300000001
  0
LINE
  5
C9CF
330
C749
100
AcDbEntity
  8
1
  6
Continuous
100
AcDbLine
 10
331.7706819999999
 20
233.7646029999999
 30
0.0
 11
321.909056
 21
233.7646029999999
 31
0.0
  0
LINE
  5
C9D0
330
C749
100
AcDbEntity
  8
1
  6
Continuous
100
AcDbLine
 10
331.40359
 20
235.9908729999999
 30
0.0
 11
321.909056
 21
235.9908729999999
 31
0.0
  0
LINE
  5
C9D1
330
C749
100
AcDbEntity
  8
1
  6
Continuous
100
AcDbLine
 10
331.08406
 20
241.2813729999998
 30
0.0
 11
321.9090519999999
 21
241.2813729999998
 31
0.0
  0
ARC
  5
C9D2
330
C749
100
AcDbEntity
  8
1
  6
Continuous
100
AcDbCircle
 10
321.909056
 20
272.0028029999999
 30
0.0
 40
38.238205
100
AcDbArc
 50
255.8598100000001
 51
269.9999899999999
  0
ARC
  5
C9D3
330
C749
100
AcDbEntity
  8
1
  6
Continuous
100
AcDbCircle
 10
321.9090519999999
 20
203.0431629999999
 30
0.0
 40
38.238205
100
AcDbArc
 50
90.00000300000001
 51
104.140195
  0
ARC
  5
C9D4
330
C749
100
AcDbEntity
  8
1
  6
Continuous
100
AcDbCircle
 10
321.909056
 20
274.2290729999999
 30
0.0
 40
38.238205
100
AcDbArc
 50
255.8598100000001
 51
269.9999899999999
  0
ARC
  5
C9D5
330
C749
100
AcDbEntity
  8
1
  6
Continuous
100
AcDbCircle
 10
312.9421709999999
 20
236.4098529999999
 30
0.0
 40
1.533117999999999
100
AcDbArc
 50
180.0000029999999
 51
255.8598100000001
  0
ARC
  5
C9D6
330
C749
100
AcDbEntity
  8
1
  6
Continuous
100
AcDbCircle
 10
312.9421709999999
 20
238.6361229999999
 30
0.0
 40
1.533117999999999
100
AcDbArc
 50
104.140195
 51
255.85982
  0
ARC
  5
C9D7
330
C749
100
AcDbEntity
  8
1
  6
Continuous
100
AcDbCircle
 10
312.9421709999999
 20
238.6361229999999
 30
0.0
 40
1.533117999999999
100
AcDbArc
 50
104.140195
 51
180.0000029999999
  0
LINE
  5
C9D8
330
C749
100
AcDbEntity
  8
1
  6
Continuous
100
AcDbLine
 10
311.4090519999999
 20
238.6361229999999
 30
0.0
 11
311.4090519999999
 21
236.4098529999999
 31
0.0
  0
LINE
  5
C9D9
330
C749
100
AcDbEntity
  8
1
  6
Continuous
100
AcDbLine
 10
311.4090519999999
 20
238.6361229999999
 30
0.0
 11
311.4090519999999
 21
236.4098529999999
 31
0.0
  0
LINE
  5
C9DA
330
C749
100
AcDbEntity
  8
1
  6
Continuous
100
AcDbLine
 10
342.7090569999998
 20
198.1211529999999
 30
0.0
 11
342.7090569999998
 21
235.291283
 31
0.0
  0
LINE
  5
C9DB
330
C749
100
AcDbEntity
  8
1
  6
Continuous
100
AcDbLine
 10
343.2090569999999
 20
198.1211529999999
 30
0.0
 11
343.2090569999999
 21
235.291283
 31
0.0
  0
LINE
  5
C9DC
330
C749
100
AcDbEntity
  8
1
  6
Continuous
100
AcDbLine
 10
343.2090569999999
 20
198.1211529999999
 30
0.0
 11
342.7090569999998
 21
198.1211529999999
 31
0.0
  0
LINE
  5
C9DD
330
C749
100
AcDbEntity
  8
1
  6
Continuous
100
AcDbLine
 10
343.2090569999999
 20
235.291283
 30
0.0
 11
342.7090569999998
 21
235.291283
 31
0.0
  0
ARC
  5
C9DE
330
C749
100
AcDbEntity
  8
1
  6
Continuous
100
AcDbCircle
 10
151.9386979999999
 20
71.112425
 30
0.0
 40
38.122002
100
AcDbArc
 50
63.75835400000001
 51
87.72739399999997
  0
ARC
  5
C9DF
330
C749
100
AcDbEntity
  8
1
  6
Continuous
100
AcDbCircle
 10
153.450386
 20
67.555915
 30
0.0
 40
42.67852
100
AcDbArc
 50
66.09976999999999
 51
90.00000300000001
  0
LINE
  5
C9E0
330
C749
100
AcDbEntity
  8
1
  6
Continuous
100
AcDbLine
 10
200.6220229999999
 20
104.2748449999999
 30
0.0
 11
156.3299639999998
 21
104.2748449999999
 31
0.0
  0
LINE
  5
C9E1
330
C749
100
AcDbEntity
  8
1
  6
Continuous
100
AcDbLine
 10
245.562241
 20
99.57484499999999
 30
0.0
 11
137.297718
 21
99.57484499999999
 31
0.0
  0
LINE
  5
C9E2
330
C749
100
AcDbEntity
  8
1
  6
Continuous
100
AcDbLine
 10
245.562241
 20
100.0748449999999
 30
0.0
 11
137.297718
 21
100.0748449999999
 31
0.0
  0
ARC
  5
C9E3
330
C749
100
AcDbEntity
  8
1
  6
Continuous
100
AcDbCircle
 10
152.6533589999999
 20
121.1810049999999
 30
0.0
 40
10.19384799999998
100
AcDbArc
 50
0.0
 51
91.46089100000001
  0
ARC
  5
C9E4
330
C749
100
AcDbEntity
  8
1
  6
Continuous
100
AcDbCircle
 10
152.1335829999999
 20
121.1810049999999
 30
0.0
 40
10.19384799999998
100
AcDbArc
 50
0.0
 51
180.00001
  0
ARC
  5
C9E5
330
C749
100
AcDbEntity
  8
1
  6
Continuous
100
AcDbCircle
 10
152.1335829999999
 20
121.1810049999999
 30
0.0
 40
10.19384799999998
100
AcDbArc
 50
0.0
 51
180.00001
  0
ARC
  5
C9E6
330
C749
100
AcDbEntity
  8
1
  6
Continuous
100
AcDbCircle
 10
158.9463889999999
 20
102.0748449999999
 30
0.0
 40
2.0
100
AcDbArc
 50
185.22913
 51
270.0
  0
ARC
  5
C9E7
330
C749
100
AcDbEntity
  8
1
  6
Continuous
100
AcDbCircle
 10
140.0495339999999
 20
102.0748449999999
 30
0.0
 40
2.0
100
AcDbArc
 50
270.0
 51
354.77087
  0
LINE
  5
C9E8
330
C749
100
AcDbEntity
  8
1
  6
Continuous
100
AcDbLine
 10
137.297718
 20
99.57484499999999
 30
0.0
 11
137.297718
 21
100.0748449999999
 31
0.0
  0
ARC
  5
C9E9
330
C749
100
AcDbEntity
  8
1
  6
Continuous
100
AcDbCircle
 10
153.450386
 20
92.42059500000001
 30
0.0
 40
17.81383299999999
100
AcDbArc
 50
90.00000300000001
 51
127.3858
  0
ARC
  5
C9EA
330
C749
100
AcDbEntity
  8
1
  6
Continuous
100
AcDbCircle
 10
149.497963
 20
101.210135
 30
0.0
 40
7.487911
100
AcDbArc
 50
5.229133
 51
174.77087
  0
ARC
  5
C9EB
330
C749
100
AcDbEntity
  8
1
  6
Continuous
100
AcDbCircle
 10
151.624169
 20
98.880475
 30
0.0
 40
10.484208
100
AcDbArc
 50
79.970054
 51
149.0344399999998
  0
LINE
  5
C9EC
330
C749
100
AcDbEntity
  8
1
  6
Continuous
100
AcDbLine
 10
142.634205
 20
106.574845
 30
0.0
 11
140.741398
 21
106.574845
 31
0.0
  0
LINE
  5
C9ED
330
C749
100
AcDbEntity
  8
1
  6
Continuous
100
AcDbLine
 10
141.9397319999999
 20
106.574845
 30
0.0
 11
141.9397319999999
 21
121.1810049999999
 31
0.0
  0
LINE
  5
C9EE
330
C749
100
AcDbEntity
  8
1
  6
Continuous
100
AcDbLine
 10
142.6659589999999
 20
104.2748449999999
 30
0.0
 11
140.741398
 21
104.2748449999999
 31
0.0
  0
LINE
  5
C9EF
330
C749
100
AcDbEntity
  8
1
  6
Continuous
100
AcDbLine
 10
140.741398
 20
104.2748449999999
 30
0.0
 11
140.741398
 21
106.574845
 31
0.0
  0
LINE
  5
C9F0
330
C749
100
AcDbEntity
  8
1
  6
Continuous
100
AcDbLine
 10
162.8472059999998
 20
109.1871049999999
 30
0.0
 11
162.8472059999998
 21
121.1810049999999
 31
0.0
  0
LINE
  5
C9F1
330
C749
100
AcDbEntity
  8
1
  6
Continuous
100
AcDbLine
 10
162.327431
 20
109.301025
 30
0.0
 11
162.327431
 21
121.1810049999999
 31
0.0
  0
LINE
  5
C9F2
330
C749
100
AcDbEntity
  8
1
  6
Continuous
100
AcDbLine
 10
242.9465599999999
 20
106.327985
 30
0.0
 11
241.3474509999999
 21
124.071205
 31
0.0
  0
LINE
  5
C9F3
330
C749
100
AcDbEntity
  8
1
  6
Continuous
100
AcDbLine
 10
242.202164
 20
107.5661649999998
 30
0.0
 11
240.7197459999999
 21
124.014635
 31
0.0
  0
ARC
  5
C9F4
330
C749
100
AcDbEntity
  8
1
  6
Continuous
100
AcDbCircle
 10
230.575987
 20
123.1004149999999
 30
0.0
 40
10.184876
100
AcDbArc
 50
5.149873
 51
185.14987
  0
LINE
  5
C9F5
330
C749
100
AcDbEntity
  8
1
  6
Continuous
100
AcDbLine
 10
242.202164
 20
107.5661649999998
 30
0.0
 11
223.657675
 21
105.894835
 31
0.0
  0
LINE
  5
C9F6
330
C749
100
AcDbEntity
  8
1
  6
Continuous
100
AcDbLine
 10
242.040356
 20
105.242265
 30
0.0
 11
223.8641259999999
 21
103.604125
 31
0.0
  0
ARC
  5
C9F7
330
C749
100
AcDbEntity
  8
1
  6
Continuous
100
AcDbCircle
 10
216.793784
 20
91.36952499999999
 30
0.0
 40
23.0
100
AcDbArc
 50
92.15195600000004
 51
139.9947899999999
  0
LINE
  5
C9F8
330
C749
100
AcDbEntity
  8
1
  6
Continuous
100
AcDbLine
 10
180.828673
 20
103.1920449999998
 30
0.0
 11
199.960982
 21
103.1920449999998
 31
0.0
  0
ARC
  5
C9F9
330
C749
100
AcDbEntity
  8
1
  6
Continuous
100
AcDbCircle
 10
216.793784
 20
91.36952499999999
 30
0.0
 40
25.29999899999999
100
AcDbArc
 50
92.15195600000004
 51
139.9947899999999
  0
ARC
  5
C9FA
330
C749
100
AcDbEntity
  8
1
  6
Continuous
100
AcDbCircle
 10
195.267074
 20
109.2748449999999
 30
0.0
 40
5.0
100
AcDbArc
 50
270.0
 51
320.24725
  0
ARC
  5
C9FB
330
C749
100
AcDbEntity
  8
1
  6
Continuous
100
AcDbCircle
 10
174.3977659999999
 20
105.0748449999999
 30
0.0
 40
5.0
100
AcDbArc
 50
270.0
 51
315.0
  0
LINE
  5
C9FC
330
C749
100
AcDbEntity
  8
1
  6
Continuous
100
AcDbLine
 10
195.267074
 20
106.574845
 30
0.0
 11
170.7413939999999
 21
106.574845
 31
0.0
  0
LINE
  5
C9FD
330
C749
100
AcDbEntity
  8
1
  6
Continuous
100
AcDbLine
 10
177.933298
 20
101.539325
 30
0.0
 11
178.707354
 21
102.313385
 31
0.0
  0
ARC
  5
C9FE
330
C749
100
AcDbEntity
  8
1
  6
Continuous
100
AcDbCircle
 10
180.828673
 20
100.1920449999998
 30
0.0
 40
3.0
100
AcDbArc
 50
90.00000300000001
 51
135.0
  0
ARC
  5
C9FF
330
C749
100
AcDbEntity
  8
1
  6
Continuous
100
AcDbCircle
 10
173.216225
 20
114.274855
 30
0.0
 40
10.0
100
AcDbArc
 50
243.7583499999998
 51
270.0
  0
ARC
  5
CA00
330
C749
100
AcDbEntity
  8
1
  6
Continuous
100
AcDbCircle
 10
195.267074
 20
109.2748449999999
 30
0.0
 40
2.7
100
AcDbArc
 50
270.0
 51
320.24725
  0
ARC
  5
CA01
330
C749
100
AcDbEntity
  8
1
  6
Continuous
100
AcDbCircle
 10
223.6036369999999
 20
102.0748449999999
 30
0.0
 40
2.0
100
AcDbArc
 50
270.0
 51
354.77087
  0
ARC
  5
CA02
330
C749
100
AcDbEntity
  8
1
  6
Continuous
100
AcDbCircle
 10
213.892813
 20
101.0748449999999
 30
0.0
 40
1.0
100
AcDbArc
 50
165.96376
 51
270.0
  0
ARC
  5
CA03
330
C749
100
AcDbEntity
  8
1
  6
Continuous
100
AcDbCircle
 10
221.644218
 20
91.36952499999999
 30
0.0
 40
23.0
100
AcDbArc
 50
101.08106
 51
139.9947899999999
  0
ARC
  5
CA04
330
C749
100
AcDbEntity
  8
1
  6
Continuous
100
AcDbCircle
 10
212.308264
 20
107.1059549999999
 30
0.0
 40
2.0
100
AcDbArc
 50
353.1028449999998
 51
119.3577499999999
  0
ARC
  5
CA05
330
C749
100
AcDbEntity
  8
1
  6
Continuous
100
AcDbCircle
 10
199.960982
 20
108.1920449999998
 30
0.0
 40
5.0
100
AcDbArc
 50
270.0
 51
299.35776
  0
LINE
  5
CA06
330
C749
100
AcDbEntity
  8
1
  6
Continuous
100
AcDbLine
 10
212.922673
 20
101.317385
 30
0.0
 11
214.2485509999999
 21
106.6208949999999
 31
0.0
  0
LINE
  5
CA07
330
C749
100
AcDbEntity
  8
1
  6
Continuous
100
AcDbLine
 10
211.3277389999999
 20
108.849125
 30
0.0
 11
202.4122869999999
 21
103.8341849999999
 31
0.0
  0
ARC
  5
CA08
330
C749
100
AcDbEntity
  8
1
  6
Continuous
100
AcDbCircle
 10
200.1175069999999
 20
109.2748449999999
 30
0.0
 40
5.0
100
AcDbArc
 50
270.0
 51
320.24725
  0
LINE
  5
CA09
330
C749
100
AcDbEntity
  8
1
  6
Continuous
100
AcDbLine
 10
226.280968
 20
107.872925
 30
0.0
 11
225.0492329999999
 21
113.3055249999999
 31
0.0
  0
LINE
  5
CA0A
330
C749
100
AcDbEntity
  8
1
  6
Continuous
100
AcDbLine
 10
223.720722
 20
116.905505
 30
0.0
 11
221.92677
 21
116.743825
 31
0.0
  0
LINE
  5
CA0B
330
C749
100
AcDbEntity
  8
1
  6
Continuous
100
AcDbLine
 10
220.841046
 20
117.6500249999999
 30
0.0
 11
220.4322209999999
 21
122.186225
 31
0.0
  0
ARC
  5
CA0C
330
C749
100
AcDbEntity
  8
1
  6
Continuous
100
AcDbCircle
 10
221.8370129999999
 20
117.739785
 30
0.0
 40
1.0
100
AcDbArc
 50
185.1498799999999
 51
275.14987
  0
ARC
  5
CA0D
330
C749
100
AcDbEntity
  8
1
  6
Continuous
100
AcDbCircle
 10
223.8104929999999
 20
115.9095449999998
 30
0.0
 40
1.0
100
AcDbArc
 50
5.149873
 51
95.14987600000001
  0
LINE
  5
CA0E
330
C749
100
AcDbEntity
  8
1
  6
Continuous
100
AcDbLine
 10
219.284593
 20
106.935975
 30
0.0
 11
217.955733
 21
112.796955
 31
0.0
  0
LINE
  5
CA0F
330
C749
100
AcDbEntity
  8
1
  6
Continuous
100
AcDbLine
 10
221.5276639999999
 20
107.444535
 30
0.0
 11
220.1988029999998
 21
113.3055249999999
 31
0.0
  0
ARC
  5
CA10
330
C749
100
AcDbEntity
  8
1
  6
Continuous
100
AcDbCircle
 10
223.478156
 20
107.886765
 30
0.0
 40
2.0
100
AcDbArc
 50
192.7747199999999
 51
275.14987
  0
LINE
  5
CA11
330
C749
100
AcDbEntity
  8
1
  6
Continuous
100
AcDbLine
 10
225.049225
 20
113.3055149999999
 30
0.0
 11
224.806446
 21
115.999305
 31
0.0
  0
ARC
  5
CA12
330
C749
100
AcDbEntity
  8
1
  6
Continuous
100
AcDbCircle
 10
220.855666
 20
112.354705
 30
0.0
 40
4.299999999999998
100
AcDbArc
 50
12.774711
 51
92.15195600000004
  0
LINE
  5
CA13
330
C749
100
AcDbEntity
  8
1
  6
Continuous
100
AcDbLine
 10
214.607115
 20
116.5748549999999
 30
0.0
 11
221.680564
 21
116.5748549999999
 31
0.0
  0
ARC
  5
CA14
330
C749
100
AcDbEntity
  8
1
  6
Continuous
100
AcDbCircle
 10
216.00524
 20
112.354705
 30
0.0
 40
2.0
100
AcDbArc
 50
12.774711
 51
92.15195600000004
  0
ARC
  5
CA15
330
C749
100
AcDbEntity
  8
1
  6
Continuous
100
AcDbCircle
 10
216.00524
 20
112.354705
 30
0.0
 40
4.299999999999998
100
AcDbArc
 50
12.774711
 51
92.15195600000004
  0
ARC
  5
CA16
330
C749
100
AcDbEntity
  8
1
  6
Continuous
100
AcDbCircle
 10
228.2314589999999
 20
108.3151549999999
 30
0.0
 40
2.0
100
AcDbArc
 50
192.7747199999999
 51
275.14987
  0
ARC
  5
CA17
330
C749
100
AcDbEntity
  8
1
  6
Continuous
100
AcDbCircle
 10
233.0520609999999
 20
101.210135
 30
0.0
 40
7.487911
100
AcDbArc
 50
159.77338
 51
174.77087
  0
ARC
  5
CA18
330
C749
100
AcDbEntity
  8
1
  6
Continuous
100
AcDbCircle
 10
223.478156
 20
107.886765
 30
0.0
 40
4.299999999999998
100
AcDbArc
 50
192.7747199999999
 51
276.32929
  0
ARC
  5
CA19
330
C749
100
AcDbEntity
  8
1
  6
Continuous
100
AcDbCircle
 10
242.5004889999999
 20
102.0748449999999
 30
0.0
 40
2.0
100
AcDbArc
 50
185.22913
 51
270.0
  0
LINE
  5
CA1A
330
C749
100
AcDbEntity
  8
1
  6
Continuous
100
AcDbLine
 10
245.562241
 20
99.57484499999999
 30
0.0
 11
245.562241
 21
100.0748449999999
 31
0.0
  0
ARC
  5
CA1B
330
C749
100
AcDbEntity
  8
1
  6
Continuous
100
AcDbCircle
 10
233.0520609999999
 20
101.210135
 30
0.0
 40
7.487911
100
AcDbArc
 50
5.229133
 51
30.526359
  0
ARC
  5
CA1C
330
C749
100
AcDbEntity
  8
1
  6
Continuous
100
AcDbCircle
 10
241.9506
 20
106.2382249999999
 30
0.0
 40
1.0
100
AcDbArc
 50
275.14987
 51
5.149873
  0
ARC
  5
CA1D
330
C749
100
AcDbEntity
  8
1
  6
Continuous
100
AcDbCircle
 10
231.2036879999999
 20
123.1569949999999
 30
0.0
 40
10.184876
100
AcDbArc
 50
5.149873
 51
96.922905
  0
LINE
  5
CA1E
330
C749
100
AcDbEntity
  8
1
  6
Continuous
100
AcDbLine
 10
86.80438700000001
 20
215.5267559999999
 30
0.0
 11
86.80438700000001
 21
221.926756
 31
0.0
  0
LINE
  5
CA1F
330
C749
100
AcDbEntity
  8
1
  6
Continuous
100
AcDbLine
 10
85.92156899999997
 20
224.726756
 30
0.0
 11
85.92156899999997
 21
212.7267559999999
 31
0.0
  0
ARC
  5
CA20
330
C749
100
AcDbEntity
  8
1
  6
Continuous
100
AcDbCircle
 10
74.45746800000001
 20
218.7267559999999
 30
0.0
 40
11.464102
100
AcDbArc
 50
342.4120459999999
 51
17.587954
  0
ARC
  5
CA21
330
C749
100
AcDbEntity
  8
1
  6
Continuous
100
AcDbCircle
 10
92.385671
 20
218.7267559999999
 30
0.0
 40
11.464102
100
AcDbArc
 50
162.412046
 51
170.778287
  0
LINE
  5
CA22
330
C749
100
AcDbEntity
  8
1
  6
Continuous
100
AcDbLine
 10
86.00438699999996
 20
222.726756
 30
0.0
 11
86.00438699999996
 21
214.7267559999999
 31
0.0
  0
LINE
  5
CA23
330
C749
100
AcDbEntity
  8
1
  6
Continuous
100
AcDbLine
 10
80.92156899999997
 20
220.667179
 30
0.0
 11
80.92156899999997
 21
225.7267559999999
 31
0.0
  0
LINE
  5
CA24
330
C749
100
AcDbEntity
  8
1
  6
Continuous
100
AcDbLine
 10
85.38567099999999
 20
211.7985529999999
 30
0.0
 11
85.92156899999997
 21
212.7267559999999
 31
0.0
  0
LINE
  5
CA25
330
C749
100
AcDbEntity
  8
1
  6
Continuous
100
AcDbLine
 10
81.45746800000003
 20
211.7985529999999
 30
0.0
 11
85.38567099999999
 21
211.7985529999999
 31
0.0
  0
LINE
  5
CA26
330
C749
100
AcDbEntity
  8
1
  6
Continuous
100
AcDbLine
 10
82.900574
 20
215.2626549999999
 30
0.0
 11
85.38567099999999
 21
215.2626549999999
 31
0.0
  0
ARC
  5
CA27
330
C749
100
AcDbEntity
  8
1
  6
Continuous
100
AcDbCircle
 10
82.85458199999998
 20
213.530604
 30
0.0
 40
3.066986999999998
100
AcDbArc
 50
334.384247
 51
34.38424699999998
  0
LINE
  5
CA28
330
C749
100
AcDbEntity
  8
1
  6
Continuous
100
AcDbLine
 10
85.92156899999997
 20
214.7267559999999
 30
0.0
 11
86.00438699999996
 21
214.7267559999999
 31
0.0
  0
LINE
  5
CA29
330
C749
100
AcDbEntity
  8
2
  6
Continuous
100
AcDbLine
 10
86.680887
 20
215.403256
 30
0.0
 11
85.92156899999997
 21
215.403256
 31
0.0
  0
LINE
  5
CA2A
330
C749
100
AcDbEntity
  8
1
  6
Continuous
100
AcDbLine
 10
86.80438700000001
 20
215.5267559999999
 30
0.0
 11
86.00438699999996
 21
214.7267559999999
 31
0.0
  0
ARC
  5
CA2B
330
C749
100
AcDbEntity
  8
1
  6
Continuous
100
AcDbCircle
 10
82.85458199999998
 20
223.9229089999998
 30
0.0
 40
3.066986999999998
100
AcDbArc
 50
325.6157529999999
 51
25.615753
  0
ARC
  5
CA2C
330
C749
100
AcDbEntity
  8
1
  6
Continuous
100
AcDbCircle
 10
83.988557
 20
223.9229089999998
 30
0.0
 40
3.066986999999998
100
AcDbArc
 50
154.3842469999999
 51
214.384247
  0
LINE
  5
CA2D
330
C749
100
AcDbEntity
  8
1
  6
Continuous
100
AcDbLine
 10
81.45746800000003
 20
222.190858
 30
0.0
 11
85.38567099999999
 21
222.190858
 31
0.0
  0
LINE
  5
CA2E
330
C749
100
AcDbEntity
  8
1
  6
Continuous
100
AcDbLine
 10
81.45746800000003
 20
225.65496
 30
0.0
 11
85.38567099999999
 21
225.65496
 31
0.0
  0
LINE
  5
CA2F
330
C749
100
AcDbEntity
  8
1
  6
Continuous
100
AcDbLine
 10
81.45746800000003
 20
225.65496
 30
0.0
 11
80.92156899999997
 21
224.726756
 31
0.0
  0
LINE
  5
CA30
330
C749
100
AcDbEntity
  8
1
  6
Continuous
100
AcDbLine
 10
85.38567099999999
 20
225.65496
 30
0.0
 11
85.92156899999997
 21
224.726756
 31
0.0
  0
LINE
  5
CA31
330
C749
100
AcDbEntity
  8
1
  6
Continuous
100
AcDbLine
 10
85.92156899999997
 20
222.726756
 30
0.0
 11
86.00438699999996
 21
222.726756
 31
0.0
  0
LINE
  5
CA32
330
C749
100
AcDbEntity
  8
1
  6
Continuous
100
AcDbLine
 10
80.92156899999997
 20
225.7267559999999
 30
0.0
 11
79.42156899999997
 21
225.7267559999999
 31
0.0
  0
LINE
  5
CA33
330
C749
100
AcDbEntity
  8
2
  6
Continuous
100
AcDbLine
 10
86.680887
 20
222.0502559999999
 30
0.0
 11
85.92156899999997
 21
222.0502559999999
 31
0.0
  0
LINE
  5
CA34
330
C749
100
AcDbEntity
  8
1
  6
Continuous
100
AcDbLine
 10
86.80438700000001
 20
221.926756
 30
0.0
 11
86.00438699999996
 21
222.726756
 31
0.0
  0
CIRCLE
  5
CA35
330
C749
100
AcDbEntity
  8
1
  6
Continuous
100
AcDbCircle
 10
191.5864479999999
 20
218.726543
 30
0.0
 40
7.0
  0
LWPOLYLINE
  5
CA36
330
C749
100
AcDbEntity
  8
1
  6
Continuous
100
AcDbPolyline
 90
       14
 70
     0
 43
0.0
 10
333.348335
 20
228.158148
 42
0.005919
 10
332.844723
 20
227.8884029999999
 42
0.010459
 10
332.0435859999999
 20
227.424953
 42
0.011488
 10
331.2635419999998
 20
226.926833
 42
0.012711
 10
330.508493
 20
226.3916129999998
 42
0.014169
 10
329.783273
 20
225.8166629999998
 42
0.015907
 10
329.093902
 20
225.1992229999999
 42
0.017971
 10
328.4478839999998
 20
224.5366129999999
 42
0.020397
 10
327.854527
 20
223.8265429999999
 42
0.023231
 10
327.3242629999999
 20
223.066133
 42
0.026306
 10
326.872015
 20
222.2575029999999
 42
0.029458
 10
326.5127919999998
 20
221.404103
 42
0.032314
 10
326.2617009999999
 20
220.513443
 42
0.034363
 10
326.13152
 20
219.597663
  0
LWPOLYLINE
  5
CA46
330
C749
100
AcDbEntity
  8
1
  6
Continuous
100
AcDbPolyline
 90
       13
 70
     0
 43
0.0
 10
333.9095379999998
 20
226.7334519999999
 42
0.002011
 10
333.7716579999999
 20
226.6501729999998
 42
0.011492
 10
333.0662429999999
 20
226.197703
 42
0.012714
 10
332.3835349999999
 20
225.7116729999999
 42
0.01417
 10
331.727914
 20
225.1897229999999
 42
0.015904
 10
331.1048299999999
 20
224.6293629999999
 42
0.017963
 10
330.521073
 20
224.0282029999999
 42
0.020402
 10
329.9844939999999
 20
223.3834529999998
 42
0.023201
 10
329.5056999999999
 20
222.693973
 42
0.026255
 10
329.0975169999999
 20
221.961033
 42
0.029382
 10
328.7734429999999
 20
221.187793
 42
0.03221
 10
328.5470409999998
 20
220.381033
 42
0.034235
 10
328.4297609999999
 20
219.5517029999999
  0
LINE
  5
CA55
330
C749
100
AcDbEntity
  8
1
  6
Continuous
100
AcDbLine
 10
175.086035
 20
104.2748449999999
 30
0.0
 11
175.086035
 21
100.122443
 31
0.0
  0
LINE
  5
CA56
330
C749
100
AcDbEntity
  8
1
  6
Continuous
100
AcDbLine
 10
175.086035
 20
99.57484499999999
 30
0.0
 11
175.086035
 21
97.77484499999999
 31
0.0
  0
ARC
  5
CA57
330
C749
100
AcDbEntity
  8
1
  6
Continuous
100
AcDbCircle
 10
224.586035
 20
84.274845
 30
0.0
 40
35.59999899999999
100
AcDbArc
 50
96.33139799999998
 51
127.4235449999999
  0
ARC
  5
CA58
330
C749
100
AcDbEntity
  8
1
  6
Continuous
100
AcDbCircle
 10
224.586035
 20
84.274845
 30
0.0
 40
27.425
100
AcDbArc
 50
103.1077889999999
 51
115.4316709999998
  0
ARC
  5
CA59
330
C749
100
AcDbEntity
  8
1
  6
Continuous
100
AcDbCircle
 10
224.586035
 20
84.274845
 30
0.0
 40
24.82499999999999
100
AcDbArc
 50
103.1426759999998
 51
114.4936189999999
  0
ARC
  5
CA5A
330
C749
100
AcDbEntity
  8
1
  6
Continuous
100
AcDbCircle
 10
224.586035
 20
84.274845
 30
0.0
 40
19.82499999999999
100
AcDbArc
 50
129.488446
 51
137.08142
  0
ARC
  5
CA5B
330
C749
100
AcDbEntity
  8
1
  6
Continuous
100
AcDbCircle
 10
224.586035
 20
84.274845
 30
0.0
 40
24.82499999999999
100
AcDbArc
 50
39.52799699999999
 51
51.20219399999999
  0
LINE
  5
CA5C
330
C749
100
AcDbEntity
  8
1
  6
Continuous
100
AcDbLine
 10
220.469296
 20
121.7748449999999
 30
0.0
 11
182.586035
 21
121.7748449999999
 31
0.0
  0
LINE
  5
CA5D
330
C749
100
AcDbEntity
  8
1
  6
Continuous
100
AcDbLine
 10
75.538775
 20
239.0285659999999
 30
0.0
 11
75.538775
 21
229.8814999999999
 31
0.0
  0
LINE
  5
CA5E
330
C749
100
AcDbEntity
  8
1
  6
Continuous
100
AcDbLine
 10
195.586035
 20
113.074845
 30
0.0
 11
195.586035
 21
113.1576629999998
 31
0.0
  0
LINE
  5
CA5F
330
C749
100
AcDbEntity
  8
1
  6
Continuous
100
AcDbLine
 10
197.5860349999999
 20
113.074845
 30
0.0
 11
197.5860349999999
 21
108.0748449999999
 31
0.0
  0
LINE
  5
CA60
330
C749
100
AcDbEntity
  8
2
  6
Continuous
100
AcDbLine
 10
194.909535
 20
113.8341629999999
 30
0.0
 11
194.909535
 21
113.074845
 31
0.0
  0
LINE
  5
CA61
330
C749
100
AcDbEntity
  8
1
  6
Continuous
100
AcDbLine
 10
185.586035
 20
113.074845
 30
0.0
 11
185.586035
 21
108.0748449999999
 31
0.0
  0
ARC
  5
CA62
330
C749
100
AcDbEntity
  8
1
  6
Continuous
100
AcDbCircle
 10
188.586035
 20
116.739908
 30
0.0
 40
8.665063999999999
100
AcDbArc
 50
249.7438419999999
 51
290.256158
  0
LINE
  5
CA63
330
C749
100
AcDbEntity
  8
1
  6
Continuous
100
AcDbLine
 10
191.586035
 20
108.6107429999999
 30
0.0
 11
191.586035
 21
112.538946
 31
0.0
  0
ARC
  5
CA64
330
C749
100
AcDbEntity
  8
1
  6
Continuous
100
AcDbCircle
 10
188.586035
 20
104.409781
 30
0.0
 40
8.665063999999999
100
AcDbArc
 50
69.743842
 51
110.256158
  0
LINE
  5
CA65
330
C749
100
AcDbEntity
  8
1
  6
Continuous
100
AcDbLine
 10
187.586035
 20
113.074845
 30
0.0
 11
187.586035
 21
113.1576629999998
 31
0.0
  0
LINE
  5
CA66
330
C749
100
AcDbEntity
  8
1
  6
Continuous
100
AcDbLine
 10
188.3860349999999
 20
113.9576629999999
 30
0.0
 11
187.586035
 21
113.1576629999998
 31
0.0
  0
LINE
  5
CA67
330
C749
100
AcDbEntity
  8
2
  6
Continuous
100
AcDbLine
 10
188.2625349999999
 20
113.8341629999999
 30
0.0
 11
188.2625349999999
 21
113.074845
 31
0.0
  0
LINE
  5
CA68
330
C749
100
AcDbEntity
  8
1
  6
Continuous
100
AcDbLine
 10
194.786035
 20
113.9576629999999
 30
0.0
 11
188.3860349999999
 21
113.9576629999999
 31
0.0
  0
LINE
  5
CA69
330
C749
100
AcDbEntity
  8
1
  6
Continuous
100
AcDbLine
 10
184.586035
 20
108.024845
 30
0.0
 11
184.586035
 21
106.574845
 31
0.0
  0
ARC
  5
CA6A
330
C749
100
AcDbEntity
  8
1
  6
Continuous
100
AcDbCircle
 10
194.586035
 20
116.739908
 30
0.0
 40
8.665063999999999
100
AcDbArc
 50
249.7438419999999
 51
290.256158
  0
LINE
  5
CA6B
330
C749
100
AcDbEntity
  8
1
  6
Continuous
100
AcDbLine
 10
185.586035
 20
113.074845
 30
0.0
 11
197.5860349999999
 21
113.074845
 31
0.0
  0
ARC
  5
CA6C
330
C749
100
AcDbEntity
  8
1
  6
Continuous
100
AcDbCircle
 10
194.586035
 20
104.409781
 30
0.0
 40
8.665063999999999
100
AcDbArc
 50
69.743842
 51
110.256158
  0
LINE
  5
CA6D
330
C749
100
AcDbEntity
  8
1
  6
Continuous
100
AcDbLine
 10
197.7931989999999
 20
108.0748449999999
 30
0.0
 11
185.2360349999999
 21
108.0748449999999
 31
0.0
  0
LINE
  5
CA6E
330
C749
100
AcDbEntity
  8
1
  6
Continuous
100
AcDbLine
 10
194.786035
 20
113.9576629999999
 30
0.0
 11
195.586035
 21
113.1576629999998
 31
0.0
  0
LINE
  5
CA6F
330
C749
100
AcDbEntity
  8
1
  6
Continuous
100
AcDbLine
 10
187.586035
 20
113.1576629999998
 30
0.0
 11
195.586035
 21
113.1576629999998
 31
0.0
  0
LINE
  5
CA70
330
C749
100
AcDbEntity
  8
1
  6
Continuous
100
AcDbLine
 10
185.586035
 20
347.3778279999998
 30
0.0
 11
185.586035
 21
352.3778279999998
 31
0.0
  0
ARC
  5
CA71
330
C749
100
AcDbEntity
  8
1
  6
Continuous
100
AcDbCircle
 10
188.586035
 20
343.7127649999998
 30
0.0
 40
8.665063999999999
100
AcDbArc
 50
105.334855
 51
110.256158
  0
LINE
  5
CA72
330
C749
100
AcDbEntity
  8
1
  6
Continuous
100
AcDbLine
 10
188.488678
 20
346.4950099999999
 30
0.0
 11
188.3860349999999
 21
346.4950099999999
 31
0.0
  0
ARC
  5
CA73
330
C749
100
AcDbEntity
  8
1
  6
Continuous
100
AcDbCircle
 10
188.586035
 20
356.042892
 30
0.0
 40
8.665063999999999
100
AcDbArc
 50
249.7438419999999
 51
271.1530119999998
  0
LINE
  5
CA74
330
C749
100
AcDbEntity
  8
1
  6
Continuous
100
AcDbLine
 10
187.586035
 20
347.3778279999998
 30
0.0
 11
187.586035
 21
347.2950099999998
 31
0.0
  0
LINE
  5
CA75
330
C749
100
AcDbEntity
  8
1
  6
Continuous
100
AcDbLine
 10
187.586035
 20
347.2950099999998
 30
0.0
 11
188.743333
 21
347.2950099999998
 31
0.0
  0
LINE
  5
CA76
330
C749
100
AcDbEntity
  8
1
  6
Continuous
100
AcDbLine
 10
185.586035
 20
347.3778279999998
 30
0.0
 11
188.760062
 21
347.3778279999998
 31
0.0
  0
LINE
  5
CA77
330
C749
100
AcDbEntity
  8
1
  6
Continuous
100
AcDbLine
 10
188.3860349999999
 20
346.4950099999999
 30
0.0
 11
187.586035
 21
347.2950099999998
 31
0.0
  0
LINE
  5
CA78
330
C749
100
AcDbEntity
  8
2
  6
Continuous
100
AcDbLine
 10
188.2625349999999
 20
346.61851
 30
0.0
 11
188.2625349999999
 21
347.3778279999998
 31
0.0
  0
LINE
  5
CA79
330
C749
100
AcDbEntity
  8
1
  6
Continuous
100
AcDbLine
 10
86.80438700000001
 20
221.1258609999999
 30
0.0
 11
88.148572
 21
219.7048759999999
 31
0.0
  0
ARC
  5
CA7A
330
C749
100
AcDbEntity
  8
1
  6
Continuous
100
AcDbCircle
 10
191.5864479999999
 20
218.726543
 30
0.0
 40
50.0
100
AcDbArc
 50
175.701057
 51
178.4706549999999
  0
ARC
  5
CA7B
330
C749
100
AcDbEntity
  8
1
  6
Continuous
100
AcDbCircle
 10
191.5864479999999
 20
218.726543
 30
0.0
 40
40.0
100
AcDbArc
 50
84.386764
 51
151.7036689999999
  0
ARC
  5
CA7C
330
C749
100
AcDbEntity
  8
1
  6
Continuous
100
AcDbCircle
 10
191.5864479999999
 20
218.726543
 30
0.0
 40
40.0
100
AcDbArc
 50
23.047849
 51
25.700217
  0
ARC
  5
CA7D
330
C749
100
AcDbEntity
  8
1
  6
Continuous
100
AcDbCircle
 10
191.5864479999999
 20
218.726543
 30
0.0
 40
50.0
100
AcDbArc
 50
17.321195
 51
32.458048
  0
ARC
  5
CA7E
330
C749
100
AcDbEntity
  8
1
  6
Continuous
100
AcDbCircle
 10
191.5864479999999
 20
218.726543
 30
0.0
 40
50.0
100
AcDbArc
 50
203.483257
 51
347.423223
  0
LINE
  5
CA7F
330
C749
100
AcDbEntity
  8
1
  6
Continuous
100
AcDbLine
 10
186.086035
 20
104.2748449999999
 30
0.0
 11
186.086035
 21
103.1920449999998
 31
0.0
  0
LINE
  5
CA80
330
C749
100
AcDbEntity
  8
1
  6
Continuous
100
AcDbLine
 10
197.086035
 20
104.2748449999999
 30
0.0
 11
197.086035
 21
103.1920449999998
 31
0.0
  0
LINE
  5
CA81
330
C749
100
AcDbEntity
  8
4
  6
CENTER
100
AcDbLine
 10
452.4320849999998
 20
283.826722
 30
0.0
 11
452.4320849999998
 21
296.7263369999999
 31
0.0
  0
LINE
  5
CA82
330
C749
100
AcDbEntity
  8
4
  6
CENTER
100
AcDbLine
 10
532.4320849999998
 20
283.826722
 30
0.0
 11
532.4320849999998
 21
296.7263369999999
 31
0.0
  0
LINE
  5
CA83
330
C749
100
AcDbEntity
  8
4
  6
CENTER
100
AcDbLine
 10
492.4320849999999
 20
247.7533339999999
 30
0.0
 11
492.4320849999999
 21
296.7263369999999
 31
0.0
  0
ARC
  5
CA84
330
C749
100
AcDbEntity
  8
1
  6
Continuous
100
AcDbCircle
 10
521.704655
 20
292.853337
 30
0.0
 40
7.5
100
AcDbArc
 50
270.0
 51
327.528368
  0
ARC
  5
CA85
330
C749
100
AcDbEntity
  8
1
  6
Continuous
100
AcDbCircle
 10
463.1595159999998
 20
292.853337
 30
0.0
 40
7.5
100
AcDbArc
 50
212.4716319999998
 51
270.0
  0
LINE
  5
CA86
330
C749
100
AcDbEntity
  8
4
  6
CENTER
100
AcDbLine
 10
525.4316719999998
 20
160.6195429999999
 30
0.0
 11
525.4316719999998
 21
276.726543
 31
0.0
  0
ARC
  5
CA87
330
C749
100
AcDbEntity
  8
1
  6
Continuous
100
AcDbCircle
 10
516.823253
 20
279.042456
 30
0.0
 40
2.383999999999999
100
AcDbArc
 50
89.765923
 51
186.1011659999999
  0
ARC
  5
CA88
330
C749
100
AcDbEntity
  8
1
  6
Continuous
100
AcDbCircle
 10
523.582952
 20
410.7017019999998
 30
0.0
 40
132.2282199999999
100
AcDbArc
 50
266.0406469999999
 51
271.272583
  0
LINE
  5
CA89
330
C749
100
AcDbEntity
  8
1
  6
Continuous
100
AcDbLine
 10
513.5363530000002
 20
281.411337
 30
0.0
 11
515.5363529999998
 21
283.5183369999999
 31
0.0
  0
LINE
  5
CA8A
330
C749
100
AcDbEntity
  8
1
  6
Continuous
100
AcDbLine
 10
465.7459849999998
 20
281.411337
 30
0.0
 11
519.1181849999998
 21
281.411337
 31
0.0
  0
LINE
  5
CA8B
330
C749
100
AcDbEntity
  8
1
  6
Continuous
100
AcDbLine
 10
465.7459849999998
 20
283.5183369999999
 30
0.0
 11
519.1181849999998
 21
283.5183369999999
 31
0.0
  0
LINE
  5
CA8C
330
C749
100
AcDbEntity
  8
1
  6
Continuous
100
AcDbLine
 10
463.1595159999998
 20
285.353337
 30
0.0
 11
521.704655
 21
285.353337
 31
0.0
  0
LINE
  5
CA8D
330
C749
100
AcDbEntity
  8
1
  6
Continuous
100
AcDbLine
 10
468.2070849999998
 20
281.4113479999999
 30
0.0
 11
516.6570849999999
 21
281.4113479999999
 31
0.0
  0
LINE
  5
CA8E
330
C749
100
AcDbEntity
  8
1
  6
Continuous
100
AcDbLine
 10
575.0779659999998
 20
239.0551069999999
 30
0.0
 11
574.312401
 21
238.856446
 31
0.0
  0
LINE
  5
CA8F
330
C749
100
AcDbEntity
  8
1
  6
Continuous
100
AcDbLine
 10
574.359246
 20
238.194049
 30
0.0
 11
575.7542729999999
 21
232.66492
 31
0.0
  0
ARC
  5
CA90
330
C749
100
AcDbEntity
  8
1
  6
Continuous
100
AcDbCircle
 10
567.5197459999999
 20
210.6333649999998
 30
0.0
 40
9.0
100
AcDbArc
 50
308.09985
 51
30.130888
  0
ARC
  5
CA91
330
C749
100
AcDbEntity
  8
1
  6
Continuous
100
AcDbCircle
 10
567.2199869999998
 20
210.621158
 30
0.0
 40
12.5
100
AcDbArc
 50
289.004416
 51
49.04167199999999
  0
ARC
  5
CA92
330
C749
100
AcDbEntity
  8
5
  6
PHANTOM
100
AcDbCircle
 10
569.1627549999998
 20
213.6357649999999
 30
0.0
 40
7.64465
100
AcDbArc
 50
311.7431559999999
 51
335.95288
  0
ARC
  5
CA93
330
C749
100
AcDbEntity
  8
5
  6
PHANTOM
100
AcDbCircle
 10
556.4938429999998
 20
219.4187059999999
 30
0.0
 40
21.571022
100
AcDbArc
 50
324.1947679999999
 51
335.4648899999999
  0
ARC
  5
CA94
330
C749
100
AcDbEntity
  8
5
  6
PHANTOM
100
AcDbCircle
 10
556.4938409999999
 20
219.418699
 30
0.0
 40
21.571022
100
AcDbArc
 50
324.194772
 51
335.4648899999999
  0
LINE
  5
CA95
330
C749
100
AcDbEntity
  8
5
  6
PHANTOM
100
AcDbLine
 10
578.936862
 20
222.625229
 30
0.0
 11
578.147459
 21
222.6742419999999
 31
0.0
  0
LINE
  5
CA96
330
C749
100
AcDbEntity
  8
5
  6
PHANTOM
100
AcDbLine
 10
579.0793919999997
 20
224.920811
 30
0.0
 11
575.014336
 21
225.173207
 31
0.0
  0
ARC
  5
CA97
330
C749
100
AcDbEntity
  8
1
  6
Continuous
100
AcDbCircle
 10
559.0958259999998
 20
228.461909
 30
0.0
 40
17.180489
100
AcDbArc
 50
354.0528799999998
 51
14.16049
  0
ARC
  5
CA98
330
C749
100
AcDbEntity
  8
1
  6
Continuous
100
AcDbCircle
 10
554.741715
 20
229.0347319999999
 30
0.0
 40
21.571022
100
AcDbArc
 50
342.294772
 51
353.5648899999998
  0
ARC
  5
CA99
330
C749
100
AcDbEntity
  8
1
  6
Continuous
100
AcDbCircle
 10
554.741715
 20
229.0347399999999
 30
0.0
 40
21.571022
100
AcDbArc
 50
342.294768
 51
353.5648899999998
  0
ARC
  5
CA9A
330
C749
100
AcDbEntity
  8
1
  6
Continuous
100
AcDbCircle
 10
568.580338
 20
227.473895
 30
0.0
 40
7.64465
100
AcDbArc
 50
329.843156
 51
354.0528799999998
  0
ARC
  5
CA9B
330
C749
100
AcDbEntity
  8
5
  6
PHANTOM
100
AcDbCircle
 10
579.8721289999997
 20
221.9002029999999
 30
0.0
 40
1.890402999999997
100
AcDbArc
 50
155.828921
 51
176.0604999999999
  0
ARC
  5
CA9C
330
C749
100
AcDbEntity
  8
5
  6
PHANTOM
100
AcDbCircle
 10
579.8721259999997
 20
221.9001930000001
 30
0.0
 40
1.890402999999997
100
AcDbArc
 50
155.828915
 51
176.0604899999999
  0
LINE
  5
CA9D
330
C749
100
AcDbEntity
  8
5
  6
PHANTOM
100
AcDbLine
 10
578.8983040000001
 20
222.6276189999999
 30
0.0
 11
579.0793919999997
 21
224.920811
 31
0.0
  0
ARC
  5
CA9E
330
C749
100
AcDbEntity
  8
5
  6
PHANTOM
100
AcDbCircle
 10
560.4545289999999
 20
217.5215029999999
 30
0.0
 40
17.180489
100
AcDbArc
 50
335.95288
 51
356.06049
  0
LINE
  5
CA9F
330
C749
100
AcDbEntity
  8
5
  6
PHANTOM
100
AcDbLine
 10
577.9861959999998
 20
222.030069
 30
0.0
 11
577.594422
 21
216.3411439999999
 31
0.0
  0
LINE
  5
CAA0
330
C749
100
AcDbEntity
  8
1
  6
Continuous
100
AcDbLine
 10
574.5002599999998
 20
241.281374
 30
0.0
 11
570.5579469999999
 21
240.258363
 31
0.0
  0
LINE
  5
CAA1
330
C749
100
AcDbEntity
  8
1
  6
Continuous
100
AcDbLine
 10
575.0405739999997
 20
239.0454
 30
0.0
 11
574.5002599999998
 21
241.281375
 31
0.0
  0
ARC
  5
CAA2
330
C749
100
AcDbEntity
  8
1
  6
Continuous
100
AcDbCircle
 10
576.1922009999998
 20
238.656513
 30
0.0
 40
1.890402999999997
100
AcDbArc
 50
173.9289149999999
 51
194.1604899999999
  0
ARC
  5
CAA3
330
C749
100
AcDbEntity
  8
1
  6
Continuous
100
AcDbCircle
 10
576.1922009999998
 20
238.6565239999999
 30
0.0
 40
1.890402999999997
100
AcDbArc
 50
173.928921
 51
194.1605
  0
ARC
  5
CAA4
330
C749
100
AcDbEntity
  8
1
  6
Continuous
100
AcDbCircle
 10
516.9001009999998
 20
278.226135
 30
0.0
 40
3.2
100
AcDbArc
 50
29.372364
 51
89.765923
  0
ARC
  5
CAA5
330
C749
100
AcDbEntity
  8
1
  6
Continuous
100
AcDbCircle
 10
526.6022529999998
 20
274.7854319999999
 30
0.0
 40
3.721582999999998
100
AcDbArc
 50
67.573387
 51
91.27258299999999
  0
ARC
  5
CAA6
330
C749
100
AcDbEntity
  8
1
  6
Continuous
100
AcDbCircle
 10
527.913707
 20
277.963069
 30
0.0
 40
0.283955
100
AcDbArc
 50
26.44452299999999
 51
67.573387
  0
ARC
  5
CAA7
330
C749
100
AcDbEntity
  8
1
  6
Continuous
100
AcDbCircle
 10
522.0342249999998
 20
277.458008
 30
0.0
 40
6.166148999999997
100
AcDbArc
 50
358.5010279999999
 51
5.878328999999997
  0
ARC
  5
CAA8
330
C749
100
AcDbEntity
  8
1
  6
Continuous
100
AcDbCircle
 10
527.626747
 20
276.5519729999999
 30
0.0
 40
0.565705
100
AcDbArc
 50
270.6701649999998
 51
312.780166
  0
ARC
  5
CAA9
330
C749
100
AcDbEntity
  8
1
  6
Continuous
100
AcDbCircle
 10
524.4652769999999
 20
546.829645
 30
0.0
 40
270.861866
100
AcDbArc
 50
270.0481299999999
 51
270.6701649999998
  0
ARC
  5
CAAA
330
C749
100
AcDbEntity
  8
1
  6
Continuous
100
AcDbCircle
 10
533.2719439999998
 20
275.8823549999998
 30
0.0
 40
5.267126
100
AcDbArc
 50
164.4235139999999
 51
177.2314419999999
  0
LINE
  5
CAAB
330
C749
100
AcDbEntity
  8
1
  6
Continuous
100
AcDbLine
 10
524.692807
 20
275.9678749999998
 30
0.0
 11
525.429738
 21
278.48638
 31
0.0
  0
ARC
  5
CAAC
330
C749
100
AcDbEntity
  8
1
  6
Continuous
100
AcDbCircle
 10
520.8730809999998
 20
279.690506
 30
0.0
 40
1.189
100
AcDbArc
 50
174.9251139999999
 51
268.815048
  0
ARC
  5
CAAD
330
C749
100
AcDbEntity
  8
1
  6
Continuous
100
AcDbCircle
 10
526.6022529999998
 20
274.7854319999999
 30
0.0
 40
3.721582999999998
100
AcDbArc
 50
67.573387
 51
91.27258299999999
  0
ARC
  5
CAAE
330
C749
100
AcDbEntity
  8
1
  6
Continuous
100
AcDbCircle
 10
527.913707
 20
277.963069
 30
0.0
 40
0.283955
100
AcDbArc
 50
26.44452299999999
 51
67.573387
  0
ARC
  5
CAAF
330
C749
100
AcDbEntity
  8
1
  6
Continuous
100
AcDbCircle
 10
522.0342249999998
 20
277.458008
 30
0.0
 40
6.166148999999997
100
AcDbArc
 50
358.5010279999999
 51
5.878328999999997
  0
ARC
  5
CAB0
330
C749
100
AcDbEntity
  8
1
  6
Continuous
100
AcDbCircle
 10
527.626747
 20
276.5519729999999
 30
0.0
 40
0.565705
100
AcDbArc
 50
270.6701649999998
 51
312.780166
  0
ARC
  5
CAB1
330
C749
100
AcDbEntity
  8
1
  6
Continuous
100
AcDbCircle
 10
524.4652769999999
 20
546.829645
 30
0.0
 40
270.861866
100
AcDbArc
 50
270.0481299999999
 51
270.6701649999998
  0
ARC
  5
CAB2
330
C749
100
AcDbEntity
  8
1
  6
Continuous
100
AcDbCircle
 10
533.2719439999998
 20
275.8823549999998
 30
0.0
 40
5.267126
100
AcDbArc
 50
164.4235139999999
 51
177.2314419999999
  0
LINE
  5
CAB3
330
C749
100
AcDbEntity
  8
1
  6
Continuous
100
AcDbLine
 10
524.692807
 20
275.9678749999998
 30
0.0
 11
525.429738
 21
278.48638
 31
0.0
  0
ARC
  5
CAB4
330
C749
100
AcDbEntity
  8
1
  6
Continuous
100
AcDbCircle
 10
535.5559059999999
 20
266.318997
 30
0.0
 40
14.529548
100
AcDbArc
 50
138.3877149999999
 51
180.690332
  0
LINE
  5
CAB5
330
C749
100
AcDbEntity
  8
1
  6
Continuous
100
AcDbLine
 10
519.1181849999998
 20
282.886252
 30
0.0
 11
518.4861009999998
 21
283.5183369999999
 31
0.0
  0
LINE
  5
CAB6
330
C749
100
AcDbEntity
  8
1
  6
Continuous
100
AcDbLine
 10
517.657674
 20
281.411337
 30
0.0
 11
515.657674
 21
283.5183369999999
 31
0.0
  0
LINE
  5
CAB7
330
C749
100
AcDbEntity
  8
1
  6
Continuous
100
AcDbLine
 10
517.778994
 20
281.411337
 30
0.0
 11
519.1181849999998
 21
282.8575279999999
 31
0.0
  0
LINE
  5
CAB8
330
C749
100
AcDbEntity
  8
1
  6
Continuous
100
AcDbLine
 10
515.657674
 20
281.411337
 30
0.0
 11
517.657674
 21
283.5183369999999
 31
0.0
  0
ARC
  5
CAB9
330
C749
100
AcDbEntity
  8
1
  6
Continuous
100
AcDbCircle
 10
510.830474
 20
290.102173
 30
0.0
 40
9.0
100
AcDbArc
 50
312.9845629999999
 51
328.1532869999999
  0
LINE
  5
CABA
330
C749
100
AcDbEntity
  8
1
  6
Continuous
100
AcDbLine
 10
519.1181849999998
 20
283.5183369999999
 30
0.0
 11
519.1181849999998
 21
281.411337
 31
0.0
  0
ARC
  5
CABB
330
C749
100
AcDbEntity
  8
1
  6
Continuous
100
AcDbCircle
 10
483.9554679999998
 20
222.7912859999999
 30
0.0
 40
12.5
100
AcDbArc
 50
120.0335219999999
 51
193.4580699999998
  0
LINE
  5
CABC
330
C749
100
AcDbEntity
  8
1
  6
Continuous
100
AcDbLine
 10
513.6374019999998
 20
277.1581949999999
 30
0.0
 11
513.6374019999998
 21
233.1632759999999
 31
0.0
  0
LINE
  5
CABD
330
C749
100
AcDbEntity
  8
1
  6
Continuous
100
AcDbLine
 10
475.5349009999997
 20
215.515275
 30
0.0
 11
474.187837
 21
215.163039
 31
0.0
  0
ARC
  5
CABE
330
C749
100
AcDbEntity
  8
1
  6
Continuous
100
AcDbCircle
 10
506.728189
 20
216.620639
 30
0.0
 40
31.351715
100
AcDbArc
 50
192.12583
 51
196.2659149999999
  0
ARC
  5
CABF
330
C749
100
AcDbEntity
  8
1
  6
Continuous
100
AcDbCircle
 10
506.728189
 20
216.620639
 30
0.0
 40
31.351715
100
AcDbArc
 50
192.12584
 51
196.2659149999999
  0
ARC
  5
CAC0
330
C749
100
AcDbEntity
  8
1
  6
Continuous
100
AcDbCircle
 10
483.9656459999998
 20
222.5414919999999
 30
0.0
 40
9.0
100
AcDbArc
 50
150.7952919999999
 51
198.691673
  0
LINE
  5
CAC1
330
C749
100
AcDbEntity
  8
5
  6
PHANTOM
100
AcDbLine
 10
477.006342
 20
231.175933
 30
0.0
 11
475.6165049999999
 21
231.259628
 31
0.0
  0
ARC
  5
CAC2
330
C749
100
AcDbEntity
  8
1
  6
Continuous
100
AcDbCircle
 10
450.0136499999999
 20
199.883228
 30
0.0
 40
27.96965
100
AcDbArc
 50
19.50243999999998
 51
27.09602
  0
ARC
  5
CAC3
330
C749
100
AcDbEntity
  8
1
  6
Continuous
100
AcDbCircle
 10
498.5435729999998
 20
226.2822939999999
 30
0.0
 40
27.5
100
AcDbArc
 50
193.4580699999998
 51
203.71391
  0
ARC
  5
CAC4
330
C749
100
AcDbEntity
  8
1
  6
Continuous
100
AcDbCircle
 10
505.901445
 20
229.514304
 30
0.0
 40
35.53642700000001
100
AcDbArc
 50
203.71391
 51
212.434095
  0
ARC
  5
CAC5
330
C749
100
AcDbEntity
  8
1
  6
Continuous
100
AcDbCircle
 10
652.9415719999998
 20
266.1348639999999
 30
0.0
 40
185.8965599999999
100
AcDbArc
 50
195.9154399999999
 51
196.7298
  0
ARC
  5
CAC6
330
C749
100
AcDbEntity
  8
5
  6
PHANTOM
100
AcDbCircle
 10
661.360486
 20
224.174577
 30
0.0
 40
185.8965599999999
100
AcDbArc
 50
177.81544
 51
178.6297999999999
  0
ARC
  5
CAC7
330
C749
100
AcDbEntity
  8
5
  6
PHANTOM
100
AcDbCircle
 10
447.891482
 20
224.2462769999999
 30
0.0
 40
27.96965
100
AcDbArc
 50
1.402439999999999
 51
8.996019999999997
  0
ARC
  5
CAC8
330
C749
100
AcDbEntity
  8
5
  6
PHANTOM
100
AcDbCircle
 10
506.999462
 20
222.5355799999999
 30
0.0
 40
31.351715
100
AcDbArc
 50
174.02584
 51
178.1659149999999
  0
ARC
  5
CAC9
330
C749
100
AcDbEntity
  8
5
  6
PHANTOM
100
AcDbCircle
 10
506.999462
 20
222.5355799999999
 30
0.0
 40
31.351715
100
AcDbArc
 50
174.02583
 51
178.1659149999999
  0
LINE
  5
CACA
330
C749
100
AcDbEntity
  8
1
  6
Continuous
100
AcDbLine
 10
477.473907
 20
281.411337
 30
0.0
 11
479.473907
 21
283.5183369999999
 31
0.0
  0
LINE
  5
CACB
330
C749
100
AcDbEntity
  8
1
  6
Continuous
100
AcDbLine
 10
497.858684
 20
281.411337
 30
0.0
 11
495.8586839999998
 21
283.5183369999999
 31
0.0
  0
LINE
  5
CACC
330
C749
100
AcDbEntity
  8
1
  6
Continuous
100
AcDbLine
 10
514.829246
 20
281.411337
 30
0.0
 11
512.8292459999999
 21
283.5183369999999
 31
0.0
  0
LINE
  5
CACD
330
C749
100
AcDbEntity
  8
1
  6
Continuous
100
AcDbLine
 10
512.000819
 20
281.411337
 30
0.0
 11
510.0008189999998
 21
283.5183369999999
 31
0.0
  0
LINE
  5
CACE
330
C749
100
AcDbEntity
  8
1
  6
Continuous
100
AcDbLine
 10
509.1723919999998
 20
281.411337
 30
0.0
 11
507.172392
 21
283.5183369999999
 31
0.0
  0
LINE
  5
CACF
330
C749
100
AcDbEntity
  8
1
  6
Continuous
100
AcDbLine
 10
506.343965
 20
281.411337
 30
0.0
 11
504.343965
 21
283.5183369999999
 31
0.0
  0
LINE
  5
CAD0
330
C749
100
AcDbEntity
  8
1
  6
Continuous
100
AcDbLine
 10
503.5155379999998
 20
281.411337
 30
0.0
 11
501.515538
 21
283.5183369999999
 31
0.0
  0
LINE
  5
CAD1
330
C749
100
AcDbEntity
  8
1
  6
Continuous
100
AcDbLine
 10
500.687111
 20
281.411337
 30
0.0
 11
498.687111
 21
283.5183369999999
 31
0.0
  0
LINE
  5
CAD2
330
C749
100
AcDbEntity
  8
1
  6
Continuous
100
AcDbLine
 10
511.415033
 20
281.411337
 30
0.0
 11
513.4150329999998
 21
283.5183369999999
 31
0.0
  0
LINE
  5
CAD3
330
C749
100
AcDbEntity
  8
1
  6
Continuous
100
AcDbLine
 10
509.293713
 20
281.411337
 30
0.0
 11
511.2937129999998
 21
283.5183369999999
 31
0.0
  0
LINE
  5
CAD4
330
C749
100
AcDbEntity
  8
1
  6
Continuous
100
AcDbLine
 10
507.172392
 20
281.411337
 30
0.0
 11
509.1723919999998
 21
283.5183369999999
 31
0.0
  0
LINE
  5
CAD5
330
C749
100
AcDbEntity
  8
1
  6
Continuous
100
AcDbLine
 10
505.051072
 20
281.411337
 30
0.0
 11
507.0510719999998
 21
283.5183369999999
 31
0.0
  0
LINE
  5
CAD6
330
C749
100
AcDbEntity
  8
1
  6
Continuous
100
AcDbLine
 10
502.9297509999998
 20
281.411337
 30
0.0
 11
504.9297509999998
 21
283.5183369999999
 31
0.0
  0
LINE
  5
CAD7
330
C749
100
AcDbEntity
  8
1
  6
Continuous
100
AcDbLine
 10
500.808431
 20
281.411337
 30
0.0
 11
502.8084309999998
 21
283.5183369999999
 31
0.0
  0
LINE
  5
CAD8
330
C749
100
AcDbEntity
  8
1
  6
Continuous
100
AcDbLine
 10
498.687111
 20
281.411337
 30
0.0
 11
500.687111
 21
283.5183369999999
 31
0.0
  0
LINE
  5
CAD9
330
C749
100
AcDbEntity
  8
1
  6
Continuous
100
AcDbLine
 10
496.56579
 20
281.411337
 30
0.0
 11
498.5657899999998
 21
283.5183369999999
 31
0.0
  0
LINE
  5
CADA
330
C749
100
AcDbEntity
  8
1
  6
Continuous
100
AcDbLine
 10
495.0302569999998
 20
281.411337
 30
0.0
 11
493.030257
 21
283.5183369999999
 31
0.0
  0
LINE
  5
CADB
330
C749
100
AcDbEntity
  8
1
  6
Continuous
100
AcDbLine
 10
492.2018289999998
 20
281.411337
 30
0.0
 11
490.201829
 21
283.5183369999999
 31
0.0
  0
LINE
  5
CADC
330
C749
100
AcDbEntity
  8
1
  6
Continuous
100
AcDbLine
 10
489.3734019999998
 20
281.411337
 30
0.0
 11
487.3734019999998
 21
283.5183369999999
 31
0.0
  0
LINE
  5
CADD
330
C749
100
AcDbEntity
  8
1
  6
Continuous
100
AcDbLine
 10
486.544975
 20
281.411337
 30
0.0
 11
484.544975
 21
283.5183369999999
 31
0.0
  0
LINE
  5
CADE
330
C749
100
AcDbEntity
  8
1
  6
Continuous
100
AcDbLine
 10
483.716548
 20
281.411337
 30
0.0
 11
481.7165479999999
 21
283.5183369999999
 31
0.0
  0
LINE
  5
CADF
330
C749
100
AcDbEntity
  8
1
  6
Continuous
100
AcDbLine
 10
480.888121
 20
281.411337
 30
0.0
 11
478.888121
 21
283.5183369999999
 31
0.0
  0
LINE
  5
CAE0
330
C749
100
AcDbEntity
  8
1
  6
Continuous
100
AcDbLine
 10
494.44447
 20
281.411337
 30
0.0
 11
496.44447
 21
283.5183369999999
 31
0.0
  0
LINE
  5
CAE1
330
C749
100
AcDbEntity
  8
1
  6
Continuous
100
AcDbLine
 10
492.3231499999998
 20
281.411337
 30
0.0
 11
494.32315
 21
283.5183369999999
 31
0.0
  0
LINE
  5
CAE2
330
C749
100
AcDbEntity
  8
1
  6
Continuous
100
AcDbLine
 10
490.201829
 20
281.411337
 30
0.0
 11
492.2018289999998
 21
283.5183369999999
 31
0.0
  0
LINE
  5
CAE3
330
C749
100
AcDbEntity
  8
1
  6
Continuous
100
AcDbLine
 10
488.0805089999998
 20
281.411337
 30
0.0
 11
490.080509
 21
283.5183369999999
 31
0.0
  0
LINE
  5
CAE4
330
C749
100
AcDbEntity
  8
1
  6
Continuous
100
AcDbLine
 10
485.9591889999999
 20
281.411337
 30
0.0
 11
487.9591889999998
 21
283.5183369999999
 31
0.0
  0
LINE
  5
CAE5
330
C749
100
AcDbEntity
  8
1
  6
Continuous
100
AcDbLine
 10
483.8378679999998
 20
281.411337
 30
0.0
 11
485.8378679999998
 21
283.5183369999999
 31
0.0
  0
LINE
  5
CAE6
330
C749
100
AcDbEntity
  8
1
  6
Continuous
100
AcDbLine
 10
481.7165479999999
 20
281.411337
 30
0.0
 11
483.716548
 21
283.5183369999999
 31
0.0
  0
LINE
  5
CAE7
330
C749
100
AcDbEntity
  8
1
  6
Continuous
100
AcDbLine
 10
479.595228
 20
281.411337
 30
0.0
 11
481.595228
 21
283.5183369999999
 31
0.0
  0
LINE
  5
CAE8
330
C749
100
AcDbEntity
  8
1
  6
Continuous
100
AcDbLine
 10
466.5103519999998
 20
271.4269239999999
 30
0.0
 11
465.0070849999998
 21
271.52734
 31
0.0
  0
LINE
  5
CAE9
330
C749
100
AcDbEntity
  8
1
  6
Continuous
100
AcDbLine
 10
465.0070849999998
 20
271.52734
 30
0.0
 11
465.0070849999998
 21
278.730657
 31
0.0
  0
ARC
  5
CAEA
330
C749
100
AcDbEntity
  8
1
  6
Continuous
100
AcDbCircle
 10
471.9606299999998
 20
268.61502
 30
0.0
 40
2.322
100
AcDbArc
 50
13.304852
 51
84.95780100000002
  0
LINE
  5
CAEB
330
C749
100
AcDbEntity
  8
1
  6
Continuous
100
AcDbLine
 10
478.0596939999998
 20
281.411337
 30
0.0
 11
476.059694
 21
283.5183369999999
 31
0.0
  0
LINE
  5
CAEC
330
C749
100
AcDbEntity
  8
1
  6
Continuous
100
AcDbLine
 10
475.231267
 20
281.411337
 30
0.0
 11
473.2312669999998
 21
283.5183369999999
 31
0.0
  0
LINE
  5
CAED
330
C749
100
AcDbEntity
  8
1
  6
Continuous
100
AcDbLine
 10
472.40284
 20
281.411337
 30
0.0
 11
470.40284
 21
283.5183369999999
 31
0.0
  0
LINE
  5
CAEE
330
C749
100
AcDbEntity
  8
1
  6
Continuous
100
AcDbLine
 10
469.5744119999998
 20
281.411337
 30
0.0
 11
467.574412
 21
283.5183369999999
 31
0.0
  0
LINE
  5
CAEF
330
C749
100
AcDbEntity
  8
1
  6
Continuous
100
AcDbLine
 10
466.7459849999998
 20
281.411337
 30
0.0
 11
465.7459849999998
 21
282.5183369999999
 31
0.0
  0
LINE
  5
CAF0
330
C749
100
AcDbEntity
  8
1
  6
Continuous
100
AcDbLine
 10
475.352587
 20
281.411337
 30
0.0
 11
477.352587
 21
283.5183369999999
 31
0.0
  0
LINE
  5
CAF1
330
C749
100
AcDbEntity
  8
1
  6
Continuous
100
AcDbLine
 10
473.2312669999998
 20
281.411337
 30
0.0
 11
475.231267
 21
283.5183369999999
 31
0.0
  0
LINE
  5
CAF2
330
C749
100
AcDbEntity
  8
1
  6
Continuous
100
AcDbLine
 10
471.1099459999998
 20
281.411337
 30
0.0
 11
473.109946
 21
283.5183369999999
 31
0.0
  0
LINE
  5
CAF3
330
C749
100
AcDbEntity
  8
1
  6
Continuous
100
AcDbLine
 10
468.9886259999998
 20
281.411337
 30
0.0
 11
470.9886259999998
 21
283.5183369999999
 31
0.0
  0
LINE
  5
CAF4
330
C749
100
AcDbEntity
  8
1
  6
Continuous
100
AcDbLine
 10
466.8673059999998
 20
281.411337
 30
0.0
 11
468.867306
 21
283.5183369999999
 31
0.0
  0
LINE
  5
CAF5
330
C749
100
AcDbEntity
  8
1
  6
Continuous
100
AcDbLine
 10
466.7459849999998
 20
283.5183369999999
 30
0.0
 11
465.7459849999998
 21
282.5183369999999
 31
0.0
  0
ARC
  5
CAF6
330
C749
100
AcDbEntity
  8
1
  6
Continuous
100
AcDbCircle
 10
474.375736
 20
289.765918
 30
0.0
 40
9.0
100
AcDbArc
 50
209.359435
 51
223.961567
  0
LINE
  5
CAF7
330
C749
100
AcDbEntity
  8
1
  6
Continuous
100
AcDbLine
 10
465.7459849999998
 20
281.411337
 30
0.0
 11
465.7459849999998
 21
283.5183369999999
 31
0.0
  0
ARC
  5
CAF8
330
C749
100
AcDbEntity
  8
1
  6
Continuous
100
AcDbCircle
 10
468.2070849999998
 20
278.211348
 30
0.0
 40
3.2
100
AcDbArc
 50
90.0
 51
158.405854
  0
ARC
  5
CAF9
330
C749
100
AcDbEntity
  8
1
  6
Continuous
100
AcDbCircle
 10
471.9002559999998
 20
276.746691
 30
0.0
 40
7.172999999999999
100
AcDbArc
 50
158.3674609999999
 51
163.9433239999999
  0
LINE
  5
CAFA
330
C749
100
AcDbEntity
  8
1
  6
Continuous
100
AcDbLine
 10
466.5103519999998
 20
271.4269239999999
 30
0.0
 11
472.1647089999998
 21
270.928035
 31
0.0
  0
LINE
  5
CAFB
330
C749
100
AcDbEntity
  8
1
  6
Continuous
100
AcDbLine
 10
442.9320849999998
 20
288.826722
 30
0.0
 11
541.9320849999998
 21
288.826722
 31
0.0
  0
LINE
  5
CAFC
330
C749
100
AcDbEntity
  8
1
  6
Continuous
100
AcDbLine
 10
541.9320849999998
 20
291.726337
 30
0.0
 11
442.9320849999998
 21
291.726337
 31
0.0
  0
LINE
  5
CAFD
330
C749
100
AcDbEntity
  8
1
  6
Continuous
100
AcDbLine
 10
541.9320849999998
 20
288.826722
 30
0.0
 11
541.9320849999998
 21
291.710877
 31
0.0
  0
LINE
  5
CAFE
330
C749
100
AcDbEntity
  8
1
  6
Continuous
100
AcDbLine
 10
442.9320849999998
 20
288.826722
 30
0.0
 11
442.9320849999998
 21
291.726337
 31
0.0
  0
LINE
  5
CAFF
330
C749
100
AcDbEntity
  8
4
  6
CENTER
100
AcDbLine
 10
583.4316719999998
 20
218.726543
 30
0.0
 11
468.201462
 21
218.726543
 31
0.0
  0
ARC
  5
CB00
330
C749
100
AcDbEntity
  8
1
  6
Continuous
100
AcDbCircle
 10
593.6931379999997
 20
267.0195019999998
 30
0.0
 40
72.67100000000002
100
AcDbArc
 50
180.690332
 51
215.473014
  0
ARC
  5
CB01
330
C749
100
AcDbEntity
  8
1
  6
Continuous
100
AcDbCircle
 10
566.7043409999998
 20
291.5450149999998
 30
0.0
 40
95.157
100
AcDbArc
 50
193.605186
 51
240.5727950000001
  0
ARC
  5
CB02
330
C749
100
AcDbEntity
  8
1
  6
Continuous
100
AcDbCircle
 10
525.4316719999998
 20
218.726543
 30
0.0
 40
50.0
100
AcDbArc
 50
147.3664949999998
 51
94.85701999999996
  0
ARC
  5
CB03
330
C749
100
AcDbEntity
  8
1
  6
Continuous
100
AcDbCircle
 10
525.430243
 20
218.376545
 30
0.0
 40
11.14999999999999
100
AcDbArc
 50
239.8900379999998
 51
35.473014
  0
CIRCLE
  5
CB04
330
C749
100
AcDbEntity
  8
1
  6
Continuous
100
AcDbCircle
 10
525.4316719999998
 20
218.726543
 30
0.0
 40
7.0
  0
ARC
  5
CB05
330
C749
100
AcDbEntity
  8
1
  6
Continuous
100
AcDbCircle
 10
525.4316719999998
 20
218.726543
 30
0.0
 40
40.0
100
AcDbArc
 50
154.299783
 51
95.61323599999996
  0
ARC
  5
CB06
330
C749
100
AcDbEntity
  8
1
  6
Continuous
100
AcDbCircle
 10
191.5864479999999
 20
218.726543
 30
0.0
 40
40.0
100
AcDbArc
 50
208.662283
 51
326.6552509999999
  0
ARC
  5
CB07
330
C749
100
AcDbEntity
  8
5
  6
PHANTOM
100
AcDbCircle
 10
-9687.434933
 20
5902.573037
 30
0.0
 40
11374.978
100
AcDbArc
 50
330.09334
 51
330.11903
  0
ARC
  5
CB08
330
C749
100
AcDbEntity
  8
1
  6
Continuous
100
AcDbCircle
 10
168.409927
 20
246.5831899999999
 30
0.0
 40
13.76769
100
AcDbArc
 50
272.3706399999999
 51
311.9933399999998
  0
ARC
  5
CB09
330
C749
100
AcDbEntity
  8
5
  6
PHANTOM
100
AcDbCircle
 10
160.902396
 20
238.0043249999999
 30
0.0
 40
13.76769
100
AcDbArc
 50
290.47064
 51
330.09334
  0
ARC
  5
CB0A
330
C749
100
AcDbEntity
  8
5
  6
PHANTOM
100
AcDbCircle
 10
183.2407199999999
 20
453.631512
 30
0.0
 40
251.42841
100
AcDbArc
 50
263.55972
 51
269.2761499999999
  0
ARC
  5
CB0B
330
C749
100
AcDbEntity
  8
1
  6
Continuous
100
AcDbCircle
 10
268.1267689999998
 20
408.732173
 30
0.0
 40
221.83052
100
AcDbArc
 50
235.88754
 51
245.06386
  0
ARC
  5
CB0C
330
C749
100
AcDbEntity
  8
1
  6
Continuous
100
AcDbCircle
 10
256.6331399999999
 20
444.6002329999998
 30
0.0
 40
251.42841
100
AcDbArc
 50
245.45972
 51
251.1761499999999
  0
LINE
  5
CB0D
330
C749
100
AcDbEntity
  8
5
  6
PHANTOM
100
AcDbLine
 10
144.646381
 20
206.6972409999999
 30
0.0
 11
175.0133079999999
 21
202.3377449999999
 31
0.0
  0
ARC
  5
CB0E
330
C749
100
AcDbEntity
  8
5
  6
PHANTOM
100
AcDbCircle
 10
205.308956
 20
423.109157
 30
0.0
 40
221.83052
100
AcDbArc
 50
253.98754
 51
263.16386
  0
ARC
  5
CB0F
330
C749
100
AcDbEntity
  8
1
  6
Continuous
100
AcDbCircle
 10
-603.906292
 20
-2711.391357
 30
0.0
 40
3020.3101
100
AcDbArc
 50
74.61067799999998
 51
75.198368
  0
ARC
  5
CB10
330
C749
100
AcDbEntity
  8
5
  6
PHANTOM
100
AcDbCircle
 10
345.776652
 20
-2813.537461
 30
0.0
 40
3020.3101
100
AcDbArc
 50
92.710678
 51
93.29836800000002
  0
ARC
  5
CB11
330
C749
100
AcDbEntity
  8
1
  6
Continuous
100
AcDbCircle
 10
149.7981329999998
 20
210.621158
 30
0.0
 40
12.5
100
AcDbArc
 50
125.51238
 51
281.3157899999998
  0
LINE
  5
CB12
330
C749
100
AcDbEntity
  8
1
  6
Continuous
100
AcDbLine
 10
141.9775459999998
 20
239.0454
 30
0.0
 11
142.51786
 21
241.281375
 31
0.0
  0
LINE
  5
CB13
330
C749
100
AcDbEntity
  8
1
  6
Continuous
100
AcDbLine
 10
142.51786
 20
241.281374
 30
0.0
 11
162.8476169999999
 21
236.005906
 31
0.0
  0
ARC
  5
CB14
330
C749
100
AcDbEntity
  8
1
  6
Continuous
100
AcDbCircle
 10
162.276405
 20
229.0347319999999
 30
0.0
 40
21.571022
100
AcDbArc
 50
186.43511
 51
198.90187
  0
ARC
  5
CB15
330
C749
100
AcDbEntity
  8
1
  6
Continuous
100
AcDbCircle
 10
148.4377819999999
 20
227.473895
 30
0.0
 40
7.64465
100
AcDbArc
 50
185.9471199999999
 51
227.08005
  0
ARC
  5
CB16
330
C749
100
AcDbEntity
  8
5
  6
PHANTOM
100
AcDbCircle
 10
160.524279
 20
219.418699
 30
0.0
 40
21.571022
100
AcDbArc
 50
204.5351099999999
 51
217.00187
  0
ARC
  5
CB17
330
C749
100
AcDbEntity
  8
5
  6
PHANTOM
100
AcDbCircle
 10
147.855366
 20
213.6357649999999
 30
0.0
 40
7.64465
100
AcDbArc
 50
204.0471199999998
 51
245.18005
  0
ARC
  5
CB18
330
C749
100
AcDbEntity
  8
1
  6
Continuous
100
AcDbCircle
 10
149.498374
 20
210.6333649999998
 30
0.0
 40
9.0
100
AcDbArc
 50
119.9597899999997
 51
6.175894
  0
LINE
  5
CB19
330
C749
100
AcDbEntity
  8
5
  6
PHANTOM
100
AcDbLine
 10
138.0812589999999
 20
222.625229
 30
0.0
 11
159.103715
 21
223.930497
 31
0.0
  0
LINE
  5
CB1A
330
C749
100
AcDbEntity
  8
5
  6
PHANTOM
100
AcDbLine
 10
137.9387289999999
 20
224.920811
 30
0.0
 11
158.901446
 21
226.222372
 31
0.0
  0
LINE
  5
CB1B
330
C749
100
AcDbEntity
  8
1
  6
Continuous
100
AcDbLine
 10
142.6588739999999
 20
238.194049
 30
0.0
 11
141.263847
 21
232.66492
 31
0.0
  0
LINE
  5
CB1C
330
C749
100
AcDbEntity
  8
5
  6
PHANTOM
100
AcDbLine
 10
139.0319239999997
 20
222.030069
 30
0.0
 11
139.423699
 21
216.3411439999999
 31
0.0
  0
ARC
  5
CB1D
330
C749
100
AcDbEntity
  8
5
  6
PHANTOM
100
AcDbCircle
 10
156.563591
 20
217.5215029999999
 30
0.0
 40
17.180489
100
AcDbArc
 50
183.93951
 51
204.0471199999998
  0
ARC
  5
CB1E
330
C749
100
AcDbEntity
  8
1
  6
Continuous
100
AcDbCircle
 10
157.922294
 20
228.461909
 30
0.0
 40
17.180489
100
AcDbArc
 50
165.8395099999999
 51
185.9471199999999
  0
ARC
  5
CB1F
330
C749
100
AcDbEntity
  8
5
  6
PHANTOM
100
AcDbCircle
 10
137.145994
 20
221.9001930000001
 30
0.0
 40
1.890402999999997
100
AcDbArc
 50
3.93951
 51
24.171085
  0
LINE
  5
CB20
330
C749
100
AcDbEntity
  8
5
  6
PHANTOM
100
AcDbLine
 10
138.1198159999998
 20
222.6276189999999
 30
0.0
 11
137.9387279999999
 21
224.920811
 31
0.0
  0
ARC
  5
CB21
330
C749
100
AcDbEntity
  8
1
  6
Continuous
100
AcDbCircle
 10
166.238609
 20
246.616497
 30
0.0
 40
33.784821
100
AcDbArc
 50
227.08005
 51
245.45972
  0
ARC
  5
CB22
330
C749
100
AcDbEntity
  8
1
  6
Continuous
100
AcDbCircle
 10
162.299674
 20
239.2322799999998
 30
0.0
 40
27.052713
100
AcDbArc
 50
224.11755
 51
245.60599
  0
LINE
  5
CB23
330
C749
100
AcDbEntity
  8
1
  6
Continuous
100
AcDbLine
 10
143.231956
 20
221.875674
 30
0.0
 11
170.741805
 21
208.297617
 31
0.0
  0
ARC
  5
CB24
330
C749
100
AcDbEntity
  8
5
  6
PHANTOM
100
AcDbCircle
 10
165.9475079999999
 20
306.8126069999999
 30
0.0
 40
105.21761
100
AcDbArc
 50
263.70599
 51
273.2983699999999
  0
ARC
  5
CB25
330
C749
100
AcDbEntity
  8
1
  6
Continuous
100
AcDbCircle
 10
146.3643409999999
 20
227.7809629999999
 30
0.0
 40
30.0
100
AcDbArc
 50
281.3157899999998
 51
319.51122
  0
ARC
  5
CB26
330
C749
100
AcDbEntity
  8
1
  6
Continuous
100
AcDbCircle
 10
194.5824959999999
 20
310.4191469999999
 30
0.0
 40
105.21761
100
AcDbArc
 50
245.60599
 51
255.19837
  0
ARC
  5
CB27
330
C749
100
AcDbEntity
  8
5
  6
PHANTOM
100
AcDbCircle
 10
146.831026
 20
209.0993879999998
 30
0.0
 40
4.424784999999999
100
AcDbArc
 50
217.00187
 51
242.2175499999999
  0
ARC
  5
CB28
330
C749
100
AcDbEntity
  8
5
  6
PHANTOM
100
AcDbCircle
 10
158.828177
 20
237.3614059999999
 30
0.0
 40
33.784821
100
AcDbArc
 50
245.18005
 51
263.55972
  0
ARC
  5
CB29
330
C749
100
AcDbEntity
  8
5
  6
PHANTOM
100
AcDbCircle
 10
157.378259
 20
229.118858
 30
0.0
 40
27.052713
100
AcDbArc
 50
242.2175499999999
 51
263.70599
  0
LINE
  5
CB2A
330
C749
100
AcDbEntity
  8
1
  6
Continuous
100
AcDbLine
 10
141.940154
 20
239.0551069999999
 30
0.0
 11
162.3278459999999
 21
233.7646029999999
 31
0.0
  0
ARC
  5
CB2B
330
C749
100
AcDbEntity
  8
1
  6
Continuous
100
AcDbCircle
 10
140.825919
 20
238.656513
 30
0.0
 40
1.890402999999997
100
AcDbArc
 50
345.83951
 51
6.071085
  0
ARC
  5
CB2C
330
C749
100
AcDbEntity
  8
1
  6
Continuous
100
AcDbCircle
 10
146.054786
 20
223.4802349999999
 30
0.0
 40
4.424784999999999
100
AcDbArc
 50
198.90187
 51
224.11755
  0
ARC
  5
CB2D
330
C749
100
AcDbEntity
  8
1
  6
Continuous
100
AcDbCircle
 10
168.6227719999999
 20
241.4418599999999
 30
0.0
 40
8.621955999999999
100
AcDbArc
 50
239.4631599999999
 51
272.3706399999999
  0
ARC
  5
CB2E
330
C749
100
AcDbEntity
  8
1
  6
Continuous
100
AcDbCircle
 10
168.3037099999999
 20
238.8246839999999
 30
0.0
 40
6.294694999999999
100
AcDbArc
 50
208.9382899999999
 51
229.8151199999999
  0
LINE
  5
CB2F
330
C749
100
AcDbEntity
  8
1
  6
Continuous
100
AcDbLine
 10
162.847614
 20
236.005906
 30
0.0
 11
162.3278459999999
 21
233.764604
 31
0.0
  0
ARC
  5
CB30
330
C749
100
AcDbEntity
  8
5
  6
PHANTOM
100
AcDbCircle
 10
163.2118199999998
 20
230.5967439999998
 30
0.0
 40
6.294694999999999
100
AcDbArc
 50
227.0382899999999
 51
247.91512
  0
LINE
  5
CB31
330
C749
100
AcDbEntity
  8
5
  6
PHANTOM
100
AcDbLine
 10
158.9014429999998
 20
226.222371
 30
0.0
 11
159.103715
 21
223.930498
 31
0.0
  0
ARC
  5
CB32
330
C749
100
AcDbEntity
  8
5
  6
PHANTOM
100
AcDbCircle
 10
162.7019989999998
 20
233.1835359999999
 30
0.0
 40
8.621955999999999
100
AcDbArc
 50
257.5631599999999
 51
290.47064
  0
ARC
  5
CB33
330
C749
100
AcDbEntity
  8
1
  6
Continuous
100
AcDbCircle
 10
216.6758179999999
 20
219.405643
 30
0.0
 40
24.0
100
AcDbArc
 50
238.7675429999999
 51
289.3325429999999
  0
LINE
  5
CB34
330
C749
100
AcDbEntity
  8
1
  6
Continuous
100
AcDbLine
 10
222.50402
 20
220.47804
 30
0.0
 11
242.830283
 21
215.163039
 31
0.0
  0
LINE
  5
CB35
330
C749
100
AcDbEntity
  8
5
  6
PHANTOM
100
AcDbLine
 10
220.429937
 20
229.99673
 30
0.0
 11
241.401616
 21
231.259628
 31
0.0
  0
LINE
  5
CB36
330
C749
100
AcDbEntity
  8
5
  6
PHANTOM
100
AcDbLine
 10
220.5445069999999
 20
227.699461
 30
0.0
 11
241.492561
 21
228.9609359999999
 31
0.0
  0
ARC
  5
CB37
330
C749
100
AcDbEntity
  8
1
  6
Continuous
100
AcDbCircle
 10
229.0825109999999
 20
207.82172
 30
0.0
 40
10.601247
100
AcDbArc
 50
287.7560199999999
 51
334.9104299999999
  0
LINE
  5
CB38
330
C749
100
AcDbEntity
  8
1
  6
Continuous
100
AcDbLine
 10
221.8992129999998
 20
218.258856
 30
0.0
 11
242.2025789999999
 21
212.949842
 31
0.0
  0
ARC
  5
CB39
330
C749
100
AcDbEntity
  8
1
  6
Continuous
100
AcDbCircle
 10
233.0524739999999
 20
222.5414919999999
 30
0.0
 40
9.0
100
AcDbArc
 50
314.1266219999998
 51
196.56567
  0
ARC
  5
CB3A
330
C749
100
AcDbEntity
  8
5
  6
PHANTOM
100
AcDbCircle
 10
230.6149169999999
 20
220.0104799999998
 30
0.0
 40
10.601247
100
AcDbArc
 50
305.85602
 51
353.01043
  0
ARC
  5
CB3B
330
C749
100
AcDbEntity
  8
1
  6
Continuous
100
AcDbCircle
 10
233.062652
 20
222.7912859999999
 30
0.0
 40
12.5
100
AcDbArc
 50
346.5419299999999
 51
137.36829
  0
ARC
  5
CB3C
330
C749
100
AcDbEntity
  8
1
  6
Continuous
100
AcDbCircle
 10
162.1391519999999
 20
143.777454
 30
0.0
 40
99.473991
100
AcDbArc
 50
74.571657
 51
77.864013
  0
ARC
  5
CB3D
330
C749
100
AcDbEntity
  8
1
  6
Continuous
100
AcDbCircle
 10
-7432.741651999998
 20
8690.491142999997
 30
0.0
 40
11374.978
100
AcDbArc
 50
311.9933399999998
 51
312.0190299999998
  0
ARC
  5
CB3E
330
C749
100
AcDbEntity
  8
5
  6
PHANTOM
100
AcDbCircle
 10
222.126302
 20
278.5025039999998
 30
0.0
 40
51.39790699999998
100
AcDbArc
 50
248.9194399999999
 51
262.3748799999999
  0
ARC
  5
CB3F
330
C749
100
AcDbEntity
  8
1
  6
Continuous
100
AcDbCircle
 10
193.317489
 20
209.777126
 30
0.0
 40
21.205776
100
AcDbArc
 50
50.81944899999999
 51
70.74897800000002
  0
ARC
  5
CB40
330
C749
100
AcDbEntity
  8
1
  6
Continuous
100
AcDbCircle
 10
249.074615
 20
376.783883
 30
0.0
 40
183.4644199999999
100
AcDbArc
 50
256.00583
 51
259.3515299999999
  0
ARC
  5
CB41
330
C749
100
AcDbEntity
  8
5
  6
PHANTOM
100
AcDbCircle
 10
188.6909409999999
 20
504.31857
 30
0.0
 40
301.26257
100
AcDbArc
 50
272.7106699999998
 51
274.10583
  0
LINE
  5
CB42
330
C749
100
AcDbEntity
  8
1
  6
Continuous
100
AcDbLine
 10
202.4192129999999
 20
228.9302849999999
 30
0.0
 11
195.5520709999999
 21
201.9271139999999
 31
0.0
  0
LINE
  5
CB43
330
C749
100
AcDbEntity
  8
5
  6
PHANTOM
100
AcDbLine
 10
198.7130989999998
 20
231.790845
 30
0.0
 11
200.5750209999999
 21
203.9904469999999
 31
0.0
  0
ARC
  5
CB44
330
C749
100
AcDbEntity
  8
1
  6
Continuous
100
AcDbCircle
 10
190.595092
 20
220.768596
 30
0.0
 40
19.0
100
AcDbArc
 50
232.638976
 51
273.0885699999999
  0
LINE
  5
CB45
330
C749
100
AcDbEntity
  8
1
  6
Continuous
100
AcDbLine
 10
193.0619439999999
 20
201.8740639999998
 30
0.0
 11
191.6188059999998
 21
201.796196
 31
0.0
  0
ARC
  5
CB46
330
C749
100
AcDbEntity
  8
1
  6
Continuous
100
AcDbCircle
 10
277.5609349999999
 20
491.085823
 30
0.0
 40
301.26257
100
AcDbArc
 50
254.6106700000001
 51
256.00583
  0
ARC
  5
CB47
330
C749
100
AcDbEntity
  8
1
  6
Continuous
100
AcDbCircle
 10
191.575668
 20
238.005558
 30
0.0
 40
5.454352
100
AcDbArc
 50
237.3122899999999
 51
256.85837
  0
ARC
  5
CB48
330
C749
100
AcDbEntity
  8
5
  6
PHANTOM
100
AcDbCircle
 10
194.480669
 20
134.531259
 30
0.0
 40
97.44767799999999
100
AcDbArc
 50
88.848978
 51
94.958363
  0
LINE
  5
CB49
330
C749
100
AcDbEntity
  8
1
  6
Continuous
100
AcDbLine
 10
188.602517
 20
239.66679
 30
0.0
 11
188.603183
 21
238.3877709999999
 31
0.0
  0
LINE
  5
CB4A
330
C749
100
AcDbEntity
  8
1
  6
Continuous
100
AcDbLine
 10
188.6025099999999
 20
239.666793
 30
0.0
 11
187.911611
 21
237.7742759999999
 31
0.0
  0
ARC
  5
CB4B
330
C749
100
AcDbEntity
  8
5
  6
PHANTOM
100
AcDbCircle
 10
186.881245
 20
138.3376739999999
 30
0.0
 40
99.473991
100
AcDbArc
 50
92.67165699999999
 51
95.964013
  0
ARC
  5
CB4C
330
C749
100
AcDbEntity
  8
1
  6
Continuous
100
AcDbCircle
 10
189.66027
 20
235.02061
 30
0.0
 40
1.907709
100
AcDbArc
 50
189.7576899999999
 51
237.3122899999999
  0
ARC
  5
CB4D
330
C749
100
AcDbEntity
  8
5
  6
PHANTOM
100
AcDbCircle
 10
189.447101
 20
236.128352
 30
0.0
 40
7.284514999999997
100
AcDbArc
 50
183.4496599999999
 51
207.85768
  0
ARC
  5
CB4E
330
C749
100
AcDbEntity
  8
5
  6
PHANTOM
100
AcDbCircle
 10
164.837172
 20
233.756267
 30
0.0
 40
18.013693
100
AcDbArc
 50
357.80338
 51
8.722469999999997
  0
ARC
  5
CB4F
330
C749
100
AcDbEntity
  8
5
  6
PHANTOM
100
AcDbCircle
 10
184.6934029999999
 20
233.6158909999999
 30
0.0
 40
1.907709
100
AcDbArc
 50
207.8576899999999
 51
255.4122899999999
  0
ARC
  5
CB50
330
C749
100
AcDbEntity
  8
5
  6
PHANTOM
100
AcDbCircle
 10
185.5866659999998
 20
237.0482009999999
 30
0.0
 40
5.454352
100
AcDbArc
 50
255.4122899999999
 51
274.95837
  0
ARC
  5
CB51
330
C749
100
AcDbEntity
  8
1
  6
Continuous
100
AcDbCircle
 10
194.9592969999999
 20
235.9318809999999
 30
0.0
 40
7.284514999999997
100
AcDbArc
 50
165.3496599999998
 51
189.7576799999999
  0
ARC
  5
CB52
330
C749
100
AcDbEntity
  8
1
  6
Continuous
100
AcDbCircle
 10
170.830222
 20
241.322902
 30
0.0
 40
18.013693
100
AcDbArc
 50
339.7033799999999
 51
350.62247
  0
ARC
  5
CB53
330
C749
100
AcDbEntity
  8
5
  6
PHANTOM
100
AcDbCircle
 10
187.0894739999999
 20
228.8320709999999
 30
0.0
 40
13.50661099999999
100
AcDbArc
 50
141.3203
 51
150.11903
  0
LINE
  5
CB54
330
C749
100
AcDbEntity
  8
5
  6
PHANTOM
100
AcDbLine
 10
182.2445329999999
 20
237.70354
 30
0.0
 11
182.642527
 21
236.488019
 31
0.0
  0
LINE
  5
CB55
330
C749
100
AcDbEntity
  8
5
  6
PHANTOM
100
AcDbLine
 10
182.244526
 20
237.70354
 30
0.0
 11
182.175776
 21
235.690027
 31
0.0
  0
ARC
  5
CB56
330
C749
100
AcDbEntity
  8
1
  6
Continuous
100
AcDbCircle
 10
168.1799609999999
 20
137.798435
 30
0.0
 40
97.44767799999999
100
AcDbArc
 50
70.74897800000002
 51
76.85836299999998
  0
ARC
  5
CB57
330
C749
100
AcDbEntity
  8
5
  6
PHANTOM
100
AcDbCircle
 10
196.012202
 20
210.7577749999999
 30
0.0
 40
21.205776
100
AcDbArc
 50
68.919449
 51
88.848978
  0
ARC
  5
CB58
330
C749
100
AcDbEntity
  8
1
  6
Continuous
100
AcDbCircle
 10
226.918525
 20
229.9861819999999
 30
0.0
 40
13.023892
100
AcDbArc
 50
246.1973299999999
 51
259.33839
  0
LINE
  5
CB59
330
C749
100
AcDbEntity
  8
5
  6
PHANTOM
100
AcDbLine
 10
225.0546579999999
 20
227.9710569999998
 30
0.0
 11
226.6456479999999
 21
206.9385629999999
 31
0.0
  0
LINE
  5
CB5A
330
C749
100
AcDbEntity
  8
5
  6
PHANTOM
100
AcDbLine
 10
223.4052619999999
 20
227.499016
 30
0.0
 11
224.6599119999999
 21
206.046726
 31
0.0
  0
ARC
  5
CB5B
330
C749
100
AcDbEntity
  8
1
  6
Continuous
100
AcDbCircle
 10
221.4883799999999
 20
184.1028629999999
 30
0.0
 40
12.529045
100
AcDbArc
 50
90.80717400000001
 51
102.47269
  0
ARC
  5
CB5C
330
C749
100
AcDbEntity
  8
5
  6
PHANTOM
100
AcDbCircle
 10
220.0046089999999
 20
211.8928169999998
 30
0.0
 40
7.044608999999998
100
AcDbArc
 50
277.45153
 51
294.1476399999999
  0
LINE
  5
CB5D
330
C749
100
AcDbEntity
  8
1
  6
Continuous
100
AcDbLine
 10
224.5561319999999
 20
217.1795609999998
 30
0.0
 11
219.0839759999998
 21
196.399032
 31
0.0
  0
ARC
  5
CB5E
330
C749
100
AcDbEntity
  8
1
  6
Continuous
100
AcDbCircle
 10
216.4752799999999
 20
203.402126
 30
0.0
 40
7.044608999999998
100
AcDbArc
 50
259.3515299999999
 51
276.0476399999999
  0
ARC
  5
CB5F
330
C749
100
AcDbEntity
  8
1
  6
Continuous
100
AcDbCircle
 10
217.791572
 20
190.977855
 30
0.0
 40
5.449194
100
AcDbArc
 50
79.52325
 51
96.047636
  0
ARC
  5
CB60
330
C749
100
AcDbEntity
  8
5
  6
PHANTOM
100
AcDbCircle
 10
197.1251649999999
 20
386.8227489999999
 30
0.0
 40
183.4644199999999
100
AcDbArc
 50
274.10583
 51
277.45153
  0
LINE
  5
CB61
330
C749
100
AcDbEntity
  8
1
  6
Continuous
100
AcDbLine
 10
224.5089899999999
 20
217.18712
 30
0.0
 11
225.711004
 21
216.9943799999999
 31
0.0
  0
LINE
  5
CB62
330
C749
100
AcDbEntity
  8
1
  6
Continuous
100
AcDbLine
 10
225.7883119999999
 20
217.241635
 30
0.0
 11
225.7110089999999
 21
216.9943819999998
 31
0.0
  0
ARC
  5
CB63
330
C749
100
AcDbEntity
  8
1
  6
Continuous
100
AcDbCircle
 10
225.8850009999999
 20
217.8071089999999
 30
0.0
 40
21.08608999999999
100
AcDbArc
 50
265.6994
 51
287.7560199999999
  0
ARC
  5
CB64
330
C749
100
AcDbEntity
  8
1
  6
Continuous
100
AcDbCircle
 10
220.72422
 20
238.3415939999999
 30
0.0
 40
41.71508
100
AcDbArc
 50
270.80717
 51
274.922624
  0
ARC
  5
CB65
330
C749
100
AcDbEntity
  8
1
  6
Continuous
100
AcDbCircle
 10
220.72422
 20
238.3416019999999
 30
0.0
 40
41.71508
100
AcDbArc
 50
270.8071799999999
 51
274.9225549999998
  0
ARC
  5
CB66
330
C749
100
AcDbEntity
  8
5
  6
PHANTOM
100
AcDbCircle
 10
213.188422
 20
246.4233839999999
 30
0.0
 40
41.71508
100
AcDbArc
 50
288.9071799999999
 51
293.0225549999999
  0
ARC
  5
CB67
330
C749
100
AcDbEntity
  8
5
  6
PHANTOM
100
AcDbCircle
 10
230.765466
 20
195.1060159999999
 30
0.0
 40
12.529045
100
AcDbArc
 50
108.907174
 51
120.57269
  0
ARC
  5
CB68
330
C749
100
AcDbEntity
  8
5
  6
PHANTOM
100
AcDbCircle
 10
230.765468
 20
195.1060079999998
 30
0.0
 40
12.529045
100
AcDbArc
 50
108.9071669999998
 51
120.57268
  0
ARC
  5
CB69
330
C749
100
AcDbEntity
  8
5
  6
PHANTOM
100
AcDbCircle
 10
225.1156939999999
 20
200.4922919999999
 30
0.0
 40
5.449194
100
AcDbArc
 50
97.62325
 51
114.147636
  0
ARC
  5
CB6A
330
C749
100
AcDbEntity
  8
5
  6
PHANTOM
100
AcDbCircle
 10
224.473408
 20
228.5083579999999
 30
0.0
 40
21.08608999999999
100
AcDbArc
 50
283.7994
 51
305.85602
  0
LINE
  5
CB6B
330
C749
100
AcDbEntity
  8
1
  6
Continuous
100
AcDbLine
 10
226.2705609999999
 20
217.115815
 30
0.0
 11
221.248522
 21
196.629816
 31
0.0
  0
ARC
  5
CB6C
330
C749
100
AcDbEntity
  8
5
  6
PHANTOM
100
AcDbCircle
 10
221.6720379999999
 20
240.405851
 30
0.0
 40
13.023892
100
AcDbArc
 50
264.2973299999998
 51
277.4383899999999
  0
ARC
  5
CB6D
330
C749
100
AcDbEntity
  8
1
  6
Continuous
100
AcDbCircle
 10
226.8269339999999
 20
240.404979
 30
0.0
 40
22.92425199999999
100
AcDbArc
 50
244.2748799999999
 51
256.9798299999998
  0
LINE
  5
CB6E
330
C749
100
AcDbEntity
  8
5
  6
PHANTOM
100
AcDbLine
 10
220.4339739999999
 20
229.996969
 30
0.0
 11
220.541644
 21
227.7590109999999
 31
0.0
  0
ARC
  5
CB6F
330
C749
100
AcDbEntity
  8
1
  6
Continuous
100
AcDbCircle
 10
239.1860419999999
 20
266.0565219999999
 30
0.0
 40
51.39790699999998
100
AcDbArc
 50
230.8194399999999
 51
244.2748799999999
  0
ARC
  5
CB70
330
C749
100
AcDbEntity
  8
5
  6
PHANTOM
100
AcDbCircle
 10
218.3481049999998
 20
250.2806249999999
 30
0.0
 40
22.92425199999999
100
AcDbArc
 50
262.3748799999999
 51
275.0798299999999
  0
LINE
  5
CB71
330
C749
100
AcDbEntity
  8
1
  6
Continuous
100
AcDbLine
 10
222.507931
 20
220.477014
 30
0.0
 11
221.9149929999999
 21
218.316349
 31
0.0
  0
LINE
  5
CB72
330
C749
100
AcDbEntity
  8
5
  6
PHANTOM
100
AcDbLine
 10
223.358104
 20
227.4915549999998
 30
0.0
 11
224.560517
 21
227.6817899999998
 31
0.0
  0
LINE
  5
CB73
330
C749
100
AcDbEntity
  8
5
  6
PHANTOM
100
AcDbLine
 10
224.557183
 20
227.9408279999999
 30
0.0
 11
224.5605209999999
 21
227.681793
 31
0.0
  0
ARC
  5
CB74
330
C749
100
AcDbEntity
  8
1
  6
Continuous
100
AcDbCircle
 10
190.4515529999999
 20
229.7291099999999
 30
0.0
 40
13.50661099999999
100
AcDbArc
 50
123.2202999999999
 51
132.0190299999999
  0
ARC
  5
CB75
330
C749
100
AcDbEntity
  8
1
  6
Continuous
100
AcDbCircle
 10
218.474547
 20
226.2822939999999
 30
0.0
 40
27.5
100
AcDbArc
 50
336.28609
 51
346.5419299999999
  0
ARC
  5
CB76
330
C749
100
AcDbEntity
  8
1
  6
Continuous
100
AcDbCircle
 10
267.00447
 20
199.883228
 30
0.0
 40
27.96965
100
AcDbArc
 50
152.9039799999999
 51
158.718333
  0
ARC
  5
CB77
330
C749
100
AcDbEntity
  8
1
  6
Continuous
100
AcDbCircle
 10
210.289931
 20
216.620639
 30
0.0
 40
31.351715
100
AcDbArc
 50
334.9104299999999
 51
347.87417
  0
ARC
  5
CB78
330
C749
100
AcDbEntity
  8
1
  6
Continuous
100
AcDbCircle
 10
64.076548
 20
266.1348639999999
 30
0.0
 40
185.8965599999999
100
AcDbArc
 50
343.2701999999999
 51
344.08456
  0
ARC
  5
CB79
330
C749
100
AcDbEntity
  8
1
  6
Continuous
100
AcDbCircle
 10
211.1166749999999
 20
229.514304
 30
0.0
 40
35.53642700000001
100
AcDbArc
 50
327.5659319999999
 51
336.28609
  0
ARC
  5
CB7A
330
C749
100
AcDbEntity
  8
5
  6
PHANTOM
100
AcDbCircle
 10
55.65763399999998
 20
224.174577
 30
0.0
 40
185.8965599999999
100
AcDbArc
 50
1.3702
 51
2.184559999999999
  0
ARC
  5
CB7B
330
C749
100
AcDbEntity
  8
5
  6
PHANTOM
100
AcDbCircle
 10
269.126638
 20
224.2462769999999
 30
0.0
 40
27.96965
100
AcDbArc
 50
171.00398
 51
176.818333
  0
ARC
  5
CB7C
330
C749
100
AcDbEntity
  8
5
  6
PHANTOM
100
AcDbCircle
 10
210.0186579999999
 20
222.5355799999999
 30
0.0
 40
31.351715
100
AcDbArc
 50
353.01043
 51
5.974169999999999
  0
ENDSEC
  0
SECTION
  2
OBJECTS
  0
DICTIONARY
  5
C737
330
0
100
AcDbDictionary
281
     1
  3
ACAD_CIP_PREVIOUS_PRODUCT_INFO
350
CBDE
  3
ACAD_COLOR
350
CBC0
  3
ACAD_DETAILVIEWSTYLE
350
CBD9
  3
ACAD_GROUP
350
C738
  3
ACAD_LAYOUT
350
C744
  3
ACAD_MATERIAL
350
CB8E
  3
ACAD_MLEADERSTYLE
350
CBD5
  3
ACAD_MLINESTYLE
350
C741
  3
ACAD_PLOTSETTINGS
350
C743
  3
ACAD_PLOTSTYLENAME
350
CB8C
  3
ACAD_SCALELIST
350
CBC3
  3
ACAD_SECTIONVIEWSTYLE
350
CBD7
  3
ACAD_TABLESTYLE
350
CBC1
  3
ACAD_VISUALSTYLE
350
CBA7
  3
ACDB_RECOMPOSE_DATA
350
CBFC
  3
AcDbVariableDictionary
350
CBEF
  3
DWGPROPS
350
CBFD
  0
DICTIONARY
  5
CBDF
330
C73B
100
AcDbDictionary
280
     1
281
     1
  3
ADSK_XREC_LAYER_RECONCILED
360
CBE0
  0
DICTIONARY
  5
CBE1
330
C751
100
AcDbDictionary
280
     1
281
     1
  3
ADSK_XREC_LAYER_RECONCILED
360
CBE2
  0
DICTIONARY
  5
CBE3
330
C752
100
AcDbDictionary
280
     1
281
     1
  3
ADSK_XREC_LAYER_RECONCILED
360
CBE4
  0
DICTIONARY
  5
CBE5
330
C753
100
AcDbDictionary
280
     1
281
     1
  3
ADSK_XREC_LAYER_RECONCILED
360
CBE6
  0
DICTIONARY
  5
CBE7
330
C754
100
AcDbDictionary
280
     1
281
     1
  3
ADSK_XREC_LAYER_RECONCILED
360
CBE8
  0
DICTIONARY
  5
CBE9
330
C755
100
AcDbDictionary
280
     1
281
     1
  3
ADSK_XREC_LAYER_RECONCILED
360
CBEA
  0
DICTIONARY
  5
CBEB
330
C756
100
AcDbDictionary
280
     1
281
     1
  3
ADSK_XREC_LAYER_RECONCILED
360
CBEC
  0
DICTIONARY
  5
CBED
330
C757
100
AcDbDictionary
280
     1
281
     1
  3
ADSK_XREC_LAYER_RECONCILED
360
CBEE
  0
DICTIONARY
  5
CB87
330
C749
100
AcDbDictionary
281
     1
  3
ACAD_LAYOUTSELFREF
350
CB88
  0
DICTIONARY
  5
CB85
330
C745
100
AcDbDictionary
281
     1
  3
ACAD_LAYOUTSELFREF
350
CB86
  0
XRECORD
  5
CBDE
102
{ACAD_REACTORS
330
C737
102
}
330
C737
100
AcDbXrecord
280
     1
300
ACDLT
300
2014
300
ACDLT_F_S
  0
DICTIONARY
  5
CBC0
102
{ACAD_REACTORS
330
C737
102
}
330
C737
100
AcDbDictionary
281
     1
  0
DICTIONARY
  5
CBD9
102
{ACAD_REACTORS
330
C737
102
}
330
C737
100
AcDbDictionary
281
     1
  3
Imperial24
350
CBDA
  0
DICTIONARY
  5
C738
102
{ACAD_REACTORS
330
C737
102
}
330
C737
100
AcDbDictionary
281
     1
  0
DICTIONARY
  5
C744
102
{ACAD_REACTORS
330
C737
102
}
330
C737
100
AcDbDictionary
281
     1
  3
Model
350
CBDB
  3
レイアウト1
350
CBDC
  0
DICTIONARY
  5
CB8E
102
{ACAD_REACTORS
330
C737
102
}
330
C737
100
AcDbDictionary
281
     1
  3
ByBlock
350
CB97
  3
ByLayer
350
CB8F
  3
Global
350
CB9F
  0
DICTIONARY
  5
CBD5
102
{ACAD_REACTORS
330
C737
102
}
330
C737
100
AcDbDictionary
281
     1
  3
Standard
350
CBD6
  0
DICTIONARY
  5
C741
102
{ACAD_REACTORS
330
C737
102
}
330
C737
100
AcDbDictionary
281
     1
  3
STANDARD
350
C742
  0
DICTIONARY
  5
C743
102
{ACAD_REACTORS
330
C737
102
}
330
C737
100
AcDbDictionary
281
     1
  0
ACDBDICTIONARYWDFLT
  5
CB8C
102
{ACAD_REACTORS
330
C737
102
}
330
C737
100
AcDbDictionary
281
     1
  3
Normal
350
CB8D
100
AcDbDictionaryWithDefault
340
CB8D
  0
DICTIONARY
  5
CBC3
102
{ACAD_REACTORS
330
C737
102
}
330
C737
100
AcDbDictionary
281
     1
  3
A0
350
CBC4
  3
A1
350
CBC5
  3
A2
350
CBC6
  3
A3
350
CBC7
  3
A4
350
CBC8
  3
A5
350
CBC9
  3
A6
350
CBCA
  3
A7
350
CBCB
  3
A8
350
CBCC
  3
A9
350
CBCD
  3
B0
350
CBCE
  3
B1
350
CBCF
  3
B2
350
CBD0
  3
B3
350
CBD1
  3
B4
350
CBD2
  3
B5
350
CBD3
  3
B6
350
CBD4
  0
DICTIONARY
  5
CBD7
102
{ACAD_REACTORS
330
C737
102
}
330
C737
100
AcDbDictionary
281
     1
  3
Imperial24
350
CBD8
  0
DICTIONARY
  5
CBC1
102
{ACAD_REACTORS
330
C737
102
}
330
C737
100
AcDbDictionary
281
     1
  3
Standard
350
CBC2
  0
DICTIONARY
  5
CBA7
102
{ACAD_REACTORS
330
C737
102
}
330
C737
100
AcDbDictionary
281
     1
  3
2dWireframe
350
CBAD
  3
Basic
350
CBAC
  3
Brighten
350
CBB3
  3
ColorChange
350
CBB7
  3
Conceptual
350
CBB0
  3
Dim
350
CBB2
  3
EdgeColorOff
350
CBBF
  3
Facepattern
350
CBB6
  3
Flat
350
CBA8
  3
FlatWithEdges
350
CBA9
  3
Gouraud
350
CBAA
  3
GouraudWithEdges
350
CBAB
  3
Hidden
350
CBAF
  3
JitterOff
350
CBBD
  3
Linepattern
350
CBB5
  3
OverhangOff
350
CBBE
  3
Realistic
350
CBB1
  3
Shaded
350
CBBC
  3
Shaded with edges
350
CBBB
  3
Shades of Gray
350
CBB8
  3
Sketchy
350
CBB9
  3
Thicken
350
CBB4
  3
Wireframe
350
CBAE
  3
X-Ray
350
CBBA
  0
XRECORD
  5
CBFC
102
{ACAD_REACTORS
330
C737
102
}
330
C737
100
AcDbXrecord
280
     1
 90
        1
330
CBC2
  0
DICTIONARY
  5
CBEF
102
{ACAD_REACTORS
330
C737
102
}
330
C737
100
AcDbDictionary
281
     1
  3
CANNOSCALE
350
CBF4
  3
CMLEADERSTYLE
350
CBF1
  3
CTABLESTYLE
350
CBF0
  3
CVIEWDETAILSTYLE
350
CBF2
  3
CVIEWSECTIONSTYLE
350
CBF3
  3
DIMASSOC
350
CBF7
  3
INDEXCTL
350
CBF6
  3
SORTENTS
350
CBF5
  3
XCLIPFRAME
350
CBF8
  0
XRECORD
  5
CBFD
102
{ACAD_REACTORS
330
C737
102
}
330
C737
100
AcDbXrecord
280
     1
  1
DWGPROPS COOKIE
  2

  3

  4

  6

  7

  8
Yoshitsune
  9

300
=
301
=
302
=
303
=
304
=
305
=
306
=
307
=
308
=
309
=
 40
0.0000132291666667
 41
2451301.484435186
 42
2457192.687401123
  1

 90
        0
  0
XRECORD
  5
CBE0
102
{ACAD_REACTORS
330
CBDF
102
}
330
CBDF
100
AcDbXrecord
280
     1
290
     1
  0
XRECORD
  5
CBE2
102
{ACAD_REACTORS
330
CBE1
102
}
330
CBE1
100
AcDbXrecord
280
     1
290
     1
  0
XRECORD
  5
CBE4
102
{ACAD_REACTORS
330
CBE3
102
}
330
CBE3
100
AcDbXrecord
280
     1
290
     1
  0
XRECORD
  5
CBE6
102
{ACAD_REACTORS
330
CBE5
102
}
330
CBE5
100
AcDbXrecord
280
     1
290
     1
  0
XRECORD
  5
CBE8
102
{ACAD_REACTORS
330
CBE7
102
}
330
CBE7
100
AcDbXrecord
280
     1
290
     1
  0
XRECORD
  5
CBEA
102
{ACAD_REACTORS
330
CBE9
102
}
330
CBE9
100
AcDbXrecord
280
     1
290
     1
  0
XRECORD
  5
CBEC
102
{ACAD_REACTORS
330
CBEB
102
}
330
CBEB
100
AcDbXrecord
280
     1
290
     1
  0
XRECORD
  5
CBEE
102
{ACAD_REACTORS
330
CBED
102
}
330
CBED
100
AcDbXrecord
280
     1
290
     1
  0
XRECORD
  5
CB88
102
{ACAD_REACTORS
330
CB87
102
}
330
CB87
100
AcDbXrecord
280
     1
340
C749
  0
XRECORD
  5
CB86
102
{ACAD_REACTORS
330
CB85
102
}
330
CB85
100
AcDbXrecord
280
     1
340
C745
  0
ACDBDETAILVIEWSTYLE
  5
CBDA
102
{ACAD_XDICTIONARY
360
CC35
102
}
102
{ACAD_REACTORS
330
CBD9
102
}
330
CBD9
100
AcDbModelDocViewStyle
 70
     0
  3
Imperial24
290
     0
100
AcDbDetailViewStyle
 70
     0
 71
     0
 90
        3
 71
     1
340
C73C
 40
0.24
340
0
 40
0.24
300

 40
0.36
280
     3
 71
     2
340
C740
 90
       25
 71
     3
340
C73C
 40
0.24
 90
        1
 40
0.75
 90
        1
300
%<\AcVar ViewType \f "%tc1">% %<\AcVar ViewDetailId>%\PSCALE %<\AcVar ViewScale \f "%sn">%
 71
     4
340
C740
 90
       25
340
C740
 90
       25
280
     0
  0
LAYOUT
  5
CBDB
102
{ACAD_XDICTIONARY
360
CC37
102
}
102
{ACAD_REACTORS
330
C744
102
}
330
C744
100
AcDbPlotSettings
  1

  2
Canon LBP9100C
  4

  6

 40
0.0
 41
0.0
 42
0.0
 43
0.0
 44
0.0
 45
0.0
 46
0.0
 47
0.0
 48
0.0
 49
0.0
140
0.0
141
0.0
142
1.0
143
1.0
 70
  1712
 72
     0
 73
     0
 74
     0
  7

 75
     0
147
1.0
148
0.0
149
0.0
100
AcDbLayout
  1
Model
 70
     1
 71
     0
 10
0.0
 20
0.0
 11
12.0
 21
9.0
 12
0.0
 22
0.0
 32
0.0
 14
0.0
 24
0.0
 34
0.0
 15
0.0
 25
0.0
 35
0.0
146
0.0
 13
0.0
 23
0.0
 33
0.0
 16
1.0
 26
0.0
 36
0.0
 17
0.0
 27
1.0
 37
0.0
 76
     0
330
C749
331
CB84
  0
LAYOUT
  5
CBDC
102
{ACAD_XDICTIONARY
360
CC39
102
}
102
{ACAD_REACTORS
330
C744
102
}
330
C744
100
AcDbPlotSettings
  1

  2
Canon LBP9100C
  4

  6

 40
0.0
 41
0.0
 42
0.0
 43
0.0
 44
0.0
 45
0.0
 46
0.0
 47
0.0
 48
0.0
 49
0.0
140
0.0
141
0.0
142
1.0
143
1.0
 70
   688
 72
     0
 73
     0
 74
     5
  7

 75
    16
147
1.0
148
0.0
149
0.0
100
AcDbLayout
  1
レイアウト1
 70
     0
 71
     1
 10
0.0
 20
0.0
 11
420.0
 21
297.0
 12
0.0
 22
0.0
 32
0.0
 14
1.000000000000000E+20
 24
1.000000000000000E+20
 34
1.000000000000000E+20
 15
-1.000000000000000E+20
 25
-1.000000000000000E+20
 35
-1.000000000000000E+20
146
0.0
 13
0.0
 23
0.0
 33
0.0
 16
1.0
 26
0.0
 36
0.0
 17
0.0
 27
1.0
 37
0.0
 76
     0
330
C745
  0
MATERIAL
  5
CB97
102
{ACAD_XDICTIONARY
360
CB98
102
}
102
{ACAD_REACTORS
330
CB8E
102
}
330
CB8E
100
AcDbMaterial
  1
ByBlock
 72
     0
 43
0.0208333333333333
 43
0.0
 43
0.0
 43
0.0
 43
0.0
 43
0.0208333333333333
 43
0.0
 43
0.0
 43
0.0
 43
0.0
 43
1.0
 43
0.0
 43
0.0
 43
0.0
 43
0.0
 43
1.0
 77
     0
 47
0.0208333333333333
 47
0.0
 47
0.0
 47
0.0
 47
0.0
 47
0.0208333333333333
 47
0.0
 47
0.0
 47
0.0
 47
0.0
 47
1.0
 47
0.0
 47
0.0
 47
0.0
 47
0.0
 47
1.0
171
     0
 49
0.0208333333333333
 49
0.0
 49
0.0
 49
0.0
 49
0.0
 49
0.0208333333333333
 49
0.0
 49
0.0
 49
0.0
 49
0.0
 49
1.0
 49
0.0
 49
0.0
 49
0.0
 49
0.0
 49
1.0
175
     0
142
0.0208333333333333
142
0.0
142
0.0
142
0.0
142
0.0
142
0.0208333333333333
142
0.0
142
0.0
142
0.0
142
0.0
142
1.0
142
0.0
142
0.0
142
0.0
142
0.0
142
1.0
179
     0
144
0.0208333333333333
144
0.0
144
0.0
144
0.0
144
0.0
144
0.0208333333333333
144
0.0
144
0.0
144
0.0
144
0.0
144
1.0
144
0.0
144
0.0
144
0.0
144
0.0
144
1.0
147
0.0208333333333333
147
0.0
147
0.0
147
0.0
147
0.0
147
0.0208333333333333
147
0.0
147
0.0
147
0.0
147
0.0
147
1.0
147
0.0
147
0.0
147
0.0
147
0.0
147
1.0
  0
MATERIAL
  5
CB8F
102
{ACAD_XDICTIONARY
360
CB90
102
}
102
{ACAD_REACTORS
330
CB8E
102
}
330
CB8E
100
AcDbMaterial
  1
ByLayer
 72
     0
 43
0.0208333333333333
 43
0.0
 43
0.0
 43
0.0
 43
0.0
 43
0.0208333333333333
 43
0.0
 43
0.0
 43
0.0
 43
0.0
 43
1.0
 43
0.0
 43
0.0
 43
0.0
 43
0.0
 43
1.0
 77
     0
 47
0.0208333333333333
 47
0.0
 47
0.0
 47
0.0
 47
0.0
 47
0.0208333333333333
 47
0.0
 47
0.0
 47
0.0
 47
0.0
 47
1.0
 47
0.0
 47
0.0
 47
0.0
 47
0.0
 47
1.0
171
     0
 49
0.0208333333333333
 49
0.0
 49
0.0
 49
0.0
 49
0.0
 49
0.0208333333333333
 49
0.0
 49
0.0
 49
0.0
 49
0.0
 49
1.0
 49
0.0
 49
0.0
 49
0.0
 49
0.0
 49
1.0
175
     0
142
0.0208333333333333
142
0.0
142
0.0
142
0.0
142
0.0
142
0.0208333333333333
142
0.0
142
0.0
142
0.0
142
0.0
142
1.0
142
0.0
142
0.0
142
0.0
142
0.0
142
1.0
179
     0
144
0.0208333333333333
144
0.0
144
0.0
144
0.0
144
0.0
144
0.0208333333333333
144
0.0
144
0.0
144
0.0
144
0.0
144
1.0
144
0.0
144
0.0
144
0.0
144
0.0
144
1.0
147
0.0208333333333333
147
0.0
147
0.0
147
0.0
147
0.0
147
0.0208333333333333
147
0.0
147
0.0
147
0.0
147
0.0
147
1.0
147
0.0
147
0.0
147
0.0
147
0.0
147
1.0
  0
MATERIAL
  5
CB9F
102
{ACAD_XDICTIONARY
360
CBA0
102
}
102
{ACAD_REACTORS
330
CB8E
102
}
330
CB8E
100
AcDbMaterial
  1
Global
 72
     0
 43
0.0208333333333333
 43
0.0
 43
0.0
 43
0.0
 43
0.0
 43
0.0208333333333333
 43
0.0
 43
0.0
 43
0.0
 43
0.0
 43
1.0
 43
0.0
 43
0.0
 43
0.0
 43
0.0
 43
1.0
 77
     0
 47
0.0208333333333333
 47
0.0
 47
0.0
 47
0.0
 47
0.0
 47
0.0208333333333333
 47
0.0
 47
0.0
 47
0.0
 47
0.0
 47
1.0
 47
0.0
 47
0.0
 47
0.0
 47
0.0
 47
1.0
171
     0
 49
0.0208333333333333
 49
0.0
 49
0.0
 49
0.0
 49
0.0
 49
0.0208333333333333
 49
0.0
 49
0.0
 49
0.0
 49
0.0
 49
1.0
 49
0.0
 49
0.0
 49
0.0
 49
0.0
 49
1.0
175
     0
142
0.0208333333333333
142
0.0
142
0.0
142
0.0
142
0.0
142
0.0208333333333333
142
0.0
142
0.0
142
0.0
142
0.0
142
1.0
142
0.0
142
0.0
142
0.0
142
0.0
142
1.0
179
     0
144
0.0208333333333333
144
0.0
144
0.0
144
0.0
144
0.0
144
0.0208333333333333
144
0.0
144
0.0
144
0.0
144
0.0
144
1.0
144
0.0
144
0.0
144
0.0
144
0.0
144
1.0
147
0.0208333333333333
147
0.0
147
0.0
147
0.0
147
0.0
147
0.0208333333333333
147
0.0
147
0.0
147
0.0
147
0.0
147
1.0
147
0.0
147
0.0
147
0.0
147
0.0
147
1.0
  0
MLEADERSTYLE
  5
CBD6
102
{ACAD_REACTORS
330
CBD5
102
}
330
CBD5
100
AcDbMLeaderStyle
170
     2
171
     1
172
     0
 90
        2
 40
0.0
 41
0.0
173
     1
 91
-1056964608
340
C73E
 92
       -2
290
     1
 42
0.09
291
     1
 43
0.36
  3
Standard
 44
0.18
300

342
C73C
174
     1
178
     6
175
     1
176
     0
 93
-1056964608
 45
0.18
292
     0
297
     0
 46
0.18
 94
-1056964608
 47
1.0
 49
1.0
140
1.0
293
     1
141
0.0
294
     1
177
     0
142
1.0
295
     0
296
     0
143
0.125
1001
ACAD_MLEADERVER
1070
     2
  0
MLINESTYLE
  5
C742
102
{ACAD_REACTORS
330
C741
102
}
330
C741
100
AcDbMlineStyle
  2
STANDARD
 70
     0
  3

 62
   256
 51
90.0
 52
90.0
 71
     2
 49
0.5
 62
   256
  6
BYLAYER
 49
-0.5
 62
   256
  6
BYLAYER
  0
ACDBPLACEHOLDER
  5
CB8D
102
{ACAD_REACTORS
330
CB8C
102
}
330
CB8C
  0
SCALE
  5
CBC4
102
{ACAD_REACTORS
330
CBC3
102
}
330
CBC3
100
AcDbScale
 70
     0
300
1:1
140
1.0
141
1.0
290
     1
  0
SCALE
  5
CBC5
102
{ACAD_REACTORS
330
CBC3
102
}
330
CBC3
100
AcDbScale
 70
     0
300
1/128" = 1'-0"
140
0.0078125
141
12.0
290
     0
  0
SCALE
  5
CBC6
102
{ACAD_REACTORS
330
CBC3
102
}
330
CBC3
100
AcDbScale
 70
     0
300
1/64" = 1'-0"
140
0.015625
141
12.0
290
     0
  0
SCALE
  5
CBC7
102
{ACAD_REACTORS
330
CBC3
102
}
330
CBC3
100
AcDbScale
 70
     0
300
1/32" = 1'-0"
140
0.03125
141
12.0
290
     0
  0
SCALE
  5
CBC8
102
{ACAD_REACTORS
330
CBC3
102
}
330
CBC3
100
AcDbScale
 70
     0
300
1/16" = 1'-0"
140
0.0625
141
12.0
290
     0
  0
SCALE
  5
CBC9
102
{ACAD_REACTORS
330
CBC3
102
}
330
CBC3
100
AcDbScale
 70
     0
300
3/32" = 1'-0"
140
0.09375
141
12.0
290
     0
  0
SCALE
  5
CBCA
102
{ACAD_REACTORS
330
CBC3
102
}
330
CBC3
100
AcDbScale
 70
     0
300
1/8" = 1'-0"
140
0.125
141
12.0
290
     0
  0
SCALE
  5
CBCB
102
{ACAD_REACTORS
330
CBC3
102
}
330
CBC3
100
AcDbScale
 70
     0
300
3/16" = 1'-0"
140
0.1875
141
12.0
290
     0
  0
SCALE
  5
CBCC
102
{ACAD_REACTORS
330
CBC3
102
}
330
CBC3
100
AcDbScale
 70
     0
300
1/4" = 1'-0"
140
0.25
141
12.0
290
     0
  0
SCALE
  5
CBCD
102
{ACAD_REACTORS
330
CBC3
102
}
330
CBC3
100
AcDbScale
 70
     0
300
3/8" = 1'-0"
140
0.375
141
12.0
290
     0
  0
SCALE
  5
CBCE
102
{ACAD_REACTORS
330
CBC3
102
}
330
CBC3
100
AcDbScale
 70
     0
300
1/2" = 1'-0"
140
0.5
141
12.0
290
     0
  0
SCALE
  5
CBCF
102
{ACAD_REACTORS
330
CBC3
102
}
330
CBC3
100
AcDbScale
 70
     0
300
3/4" = 1'-0"
140
0.75
141
12.0
290
     0
  0
SCALE
  5
CBD0
102
{ACAD_REACTORS
330
CBC3
102
}
330
CBC3
100
AcDbScale
 70
     0
300
1" = 1'-0"
140
1.0
141
12.0
290
     0
  0
SCALE
  5
CBD1
102
{ACAD_REACTORS
330
CBC3
102
}
330
CBC3
100
AcDbScale
 70
     0
300
1-1/2" = 1'-0"
140
1.5
141
12.0
290
     0
  0
SCALE
  5
CBD2
102
{ACAD_REACTORS
330
CBC3
102
}
330
CBC3
100
AcDbScale
 70
     0
300
3" = 1'-0"
140
3.0
141
12.0
290
     0
  0
SCALE
  5
CBD3
102
{ACAD_REACTORS
330
CBC3
102
}
330
CBC3
100
AcDbScale
 70
     0
300
6" = 1'-0"
140
6.0
141
12.0
290
     0
  0
SCALE
  5
CBD4
102
{ACAD_REACTORS
330
CBC3
102
}
330
CBC3
100
AcDbScale
 70
     0
300
1'-0" = 1'-0"
140
12.0
141
12.0
290
     0
  0
ACDBSECTIONVIEWSTYLE
  5
CBD8
102
{ACAD_XDICTIONARY
360
CC33
102
}
102
{ACAD_REACTORS
330
CBD7
102
}
330
CBD7
100
AcDbModelDocViewStyle
 70
     0
  3
Imperial24
290
     0
100
AcDbSectionViewStyle
 70
     0
 71
     0
 90
       78
 71
     1
340
C73C
 40
0.24
340
0
340
0
 40
0.24
300
I, O, Q, S, X, Z
 40
0.48
 90
        3
 40
0.18
 90
        1
 71
     2
340
C740
 90
       25
340
C740
 90
       50
 40
0.24
 40
0.0
 40
0.24
 71
     3
340
C73C
 40
0.24
 90
        1
 40
0.75
 90
        1
300
%<\AcVar ViewType \f "%tc1">% %<\AcVar ViewSectionStartId>%-%<\AcVar ViewSectionEndId>%\PSCALE %<\AcVar ViewScale \f "%sn">%
 71
     4
300
ANSI31
 40
1.0
 90
        0
290
     0
290
     0
 90
        6
 40
0.0
 40
1.570796326794896
 40
0.2617993877991494
 40
1.308996938995747
 40
-0.2617993877991494
 40
1.832595714594046
  0
TABLESTYLE
  5
CBC2
102
{ACAD_XDICTIONARY
360
CBFA
102
}
102
{ACAD_REACTORS
330
CBC1
102
}
330
CBC1
100
AcDbTableStyle
  3
Standard
 70
     0
 71
     0
 40
0.06
 41
0.06
280
     0
281
     0
  7
STANDARD
140
0.18
170
     2
 62
     0
 63
     7
283
     0
274
    -2
284
     1
 64
     0
275
    -2
285
     1
 65
     0
276
    -2
286
     1
 66
     0
277
    -2
287
     1
 67
     0
278
    -2
288
     1
 68
     0
279
    -2
289
     1
 69
     0
  7
STANDARD
140
0.25
170
     5
 62
     0
 63
     7
283
     0
274
    -2
284
     1
 64
     0
275
    -2
285
     1
 65
     0
276
    -2
286
     1
 66
     0
277
    -2
287
     1
 67
     0
278
    -2
288
     1
 68
     0
279
    -2
289
     1
 69
     0
  7
STANDARD
140
0.18
170
     5
 62
     0
 63
     7
283
     0
274
    -2
284
     1
 64
     0
275
    -2
285
     1
 65
     0
276
    -2
286
     1
 66
     0
277
    -2
287
     1
 67
     0
278
    -2
288
     1
 68
     0
279
    -2
289
     1
 69
     0
  0
VISUALSTYLE
  5
CBAD
102
{ACAD_XDICTIONARY
360
CC0B
102
}
102
{ACAD_REACTORS
330
CBA7
102
}
330
CBA7
100
AcDbVisualStyle
  2
2dWireframe
 70
     4
 71
     0
 72
     2
 73
     0
 90
        0
 40
-0.6
 41
-30.0
 62
     5
 63
     7
 74
     1
 91
        4
 64
     7
 65
   257
 75
     1
175
     1
 42
1.0
 92
        0
 66
   257
 43
1.0
 76
     1
 77
     6
 78
     2
 67
     7
 79
     5
170
     0
171
     0
290
     0
174
     0
 93
        1
 44
0.0
173
     0
291
     0
 45
0.0
1001
ACAD
1000
AcDbSavedByObjectVersion
1070
     0
  0
VISUALSTYLE
  5
CBAC
102
{ACAD_XDICTIONARY
360
CC09
102
}
102
{ACAD_REACTORS
330
CBA7
102
}
330
CBA7
100
AcDbVisualStyle
  2
Basic
 70
     7
 71
     1
 72
     0
 73
     1
 90
        0
 40
-0.6
 41
-30.0
 62
     5
 63
     7
 74
     0
 91
        4
 64
     7
 65
   257
 75
     1
175
     1
 42
1.0
 92
        8
 66
     7
 43
1.0
 76
     1
 77
     6
 78
     2
 67
     7
 79
     5
170
     0
171
     0
290
     0
174
     0
 93
        1
 44
0.0
173
     0
291
     1
 45
0.0
1001
ACAD
1000
AcDbSavedByObjectVersion
1070
     0
  0
VISUALSTYLE
  5
CBB3
102
{ACAD_XDICTIONARY
360
CC17
102
}
102
{ACAD_REACTORS
330
CBA7
102
}
330
CBA7
100
AcDbVisualStyle
  2
Brighten
 70
    12
 71
     2
 72
     2
 73
     0
 90
        0
 40
-0.6
 41
-30.0
 62
     5
 63
     7
 74
     1
 91
        4
 64
     7
 65
   257
 75
     1
175
     1
 42
1.0
 92
        8
 66
     7
 43
1.0
 76
     1
 77
     6
 78
     2
 67
     7
 79
     5
170
     0
171
     0
290
     0
174
     0
 93
        1
 44
50.0
173
     0
291
     1
 45
0.0
1001
ACAD
1000
AcDbSavedByObjectVersion
1070
     0
  0
VISUALSTYLE
  5
CBB7
102
{ACAD_XDICTIONARY
360
CC1F
102
}
102
{ACAD_REACTORS
330
CBA7
102
}
330
CBA7
100
AcDbVisualStyle
  2
ColorChange
 70
    16
 71
     2
 72
     2
 73
     3
 90
        0
 40
-0.6
 41
-30.0
 62
     5
 63
     8
 74
     1
 91
        4
 64
     7
 65
   257
 75
     1
175
     1
 42
1.0
 92
        8
 66
     8
 43
1.0
 76
     1
 77
     6
 78
     2
 67
     7
 79
     5
170
     0
171
     0
290
     0
174
     0
 93
        1
 44
0.0
173
     0
291
     1
 45
0.0
1001
ACAD
1000
AcDbSavedByObjectVersion
1070
     0
  0
VISUALSTYLE
  5
CBB0
102
{ACAD_XDICTIONARY
360
CC11
102
}
102
{ACAD_REACTORS
330
CBA7
102
}
330
CBA7
100
AcDbVisualStyle
  2
Conceptual
 70
     9
 71
     3
 72
     2
 73
     0
 90
        0
 40
-0.6
 41
-30.0
 62
     5
 63
     7
 74
     2
 91
        2
 64
     7
 65
   257
 75
     1
175
     1
 42
179.0
 92
        8
 66
     7
 43
1.0
 76
     1
 77
     6
 78
     2
 67
     7
 79
     3
170
     0
171
     0
290
     0
174
     0
 93
        1
 44
0.0
173
     0
291
     0
 45
0.0
1001
ACAD
1000
AcDbSavedByObjectVersion
1070
     0
  0
VISUALSTYLE
  5
CBB2
102
{ACAD_XDICTIONARY
360
CC15
102
}
102
{ACAD_REACTORS
330
CBA7
102
}
330
CBA7
100
AcDbVisualStyle
  2
Dim
 70
    11
 71
     2
 72
     2
 73
     0
 90
        0
 40
-0.6
 41
-30.0
 62
     5
 63
     7
 74
     1
 91
        4
 64
     7
 65
   257
 75
     1
175
     1
 42
1.0
 92
        8
 66
     7
 43
1.0
 76
     1
 77
     6
 78
     2
 67
     7
 79
     5
170
     0
171
     0
290
     0
174
     0
 93
        1
 44
-50.0
173
     0
291
     1
 45
0.0
1001
ACAD
1000
AcDbSavedByObjectVersion
1070
     0
  0
VISUALSTYLE
  5
CBBF
102
{ACAD_XDICTIONARY
360
CC2F
102
}
102
{ACAD_REACTORS
330
CBA7
102
}
330
CBA7
100
AcDbVisualStyle
  2
EdgeColorOff
 70
    22
 71
     2
 72
     2
 73
     0
 90
        0
 40
-0.6
 41
-30.0
 62
     5
 63
     7
 74
     1
 91
        4
 64
     7
 65
   257
 75
     1
175
     1
 42
1.0
 92
        8
 66
     7
 43
1.0
 76
     1
 77
     6
 78
     2
 67
     7
 79
     5
170
     0
171
     0
290
     0
174
     0
 93
        1
 44
0.0
173
     0
291
     1
 45
0.0
1001
ACAD
1000
AcDbSavedByObjectVersion
1070
     0
  0
VISUALSTYLE
  5
CBB6
102
{ACAD_XDICTIONARY
360
CC1D
102
}
102
{ACAD_REACTORS
330
CBA7
102
}
330
CBA7
100
AcDbVisualStyle
  2
Facepattern
 70
    15
 71
     2
 72
     2
 73
     0
 90
        0
 40
-0.6
 41
-30.0
 62
     5
 63
     7
 74
     1
 91
        4
 64
     7
 65
   257
 75
     1
175
     1
 42
1.0
 92
        8
 66
     7
 43
1.0
 76
     1
 77
     6
 78
     2
 67
     7
 79
     5
170
     0
171
     0
290
     0
174
     0
 93
        1
 44
0.0
173
     0
291
     1
 45
0.0
1001
ACAD
1000
AcDbSavedByObjectVersion
1070
     0
  0
VISUALSTYLE
  5
CBA8
102
{ACAD_XDICTIONARY
360
CC01
102
}
102
{ACAD_REACTORS
330
CBA7
102
}
330
CBA7
100
AcDbVisualStyle
  2
Flat
 70
     0
 71
     2
 72
     1
 73
     1
 90
        2
 40
-0.6
 41
30.0
 62
     5
 63
     7
 74
     0
 91
        0
 64
     7
 65
   257
 75
     1
175
     1
 42
1.0
 92
        8
 66
     7
 43
1.0
 76
     1
 77
     6
 78
     2
 67
     7
 79
     5
170
     0
171
     0
290
     0
174
     0
 93
       13
 44
0.0
173
     0
291
     1
 45
0.0
1001
ACAD
1000
AcDbSavedByObjectVersion
1070
     0
  0
VISUALSTYLE
  5
CBA9
102
{ACAD_XDICTIONARY
360
CC03
102
}
102
{ACAD_REACTORS
330
CBA7
102
}
330
CBA7
100
AcDbVisualStyle
  2
FlatWithEdges
 70
     1
 71
     2
 72
     1
 73
     1
 90
        2
 40
-0.6
 41
30.0
 62
     5
 63
     7
 74
     1
 91
        0
 64
     7
 65
   257
 75
     1
175
     1
 42
1.0
 92
        0
 66
   257
 43
1.0
 76
     1
 77
     6
 78
     2
 67
     7
 79
     5
170
     0
171
     0
290
     0
174
     0
 93
       13
 44
0.0
173
     0
291
     1
 45
0.0
1001
ACAD
1000
AcDbSavedByObjectVersion
1070
     0
  0
VISUALSTYLE
  5
CBAA
102
{ACAD_XDICTIONARY
360
CC05
102
}
102
{ACAD_REACTORS
330
CBA7
102
}
330
CBA7
100
AcDbVisualStyle
  2
Gouraud
 70
     2
 71
     2
 72
     2
 73
     1
 90
        2
 40
-0.6
 41
30.0
 62
     5
 63
     7
 74
     0
 91
        0
 64
     7
 65
   257
 75
     1
175
     1
 42
1.0
 92
        0
 66
     7
 43
1.0
 76
     1
 77
     6
 78
     2
 67
     7
 79
     5
170
     0
171
     0
290
     0
174
     0
 93
       13
 44
0.0
173
     0
291
     1
 45
0.0
1001
ACAD
1000
AcDbSavedByObjectVersion
1070
     0
  0
VISUALSTYLE
  5
CBAB
102
{ACAD_XDICTIONARY
360
CC07
102
}
102
{ACAD_REACTORS
330
CBA7
102
}
330
CBA7
100
AcDbVisualStyle
  2
GouraudWithEdges
 70
     3
 71
     2
 72
     2
 73
     1
 90
        2
 40
-0.6
 41
30.0
 62
     5
 63
     7
 74
     1
 91
        0
 64
     7
 65
   257
 75
     1
175
     1
 42
1.0
 92
        0
 66
   257
 43
1.0
 76
     1
 77
     6
 78
     2
 67
     7
 79
     5
170
     0
171
     0
290
     0
174
     0
 93
       13
 44
0.0
173
     0
291
     1
 45
0.0
1001
ACAD
1000
AcDbSavedByObjectVersion
1070
     0
  0
VISUALSTYLE
  5
CBAF
102
{ACAD_XDICTIONARY
360
CC0F
102
}
102
{ACAD_REACTORS
330
CBA7
102
}
330
CBA7
100
AcDbVisualStyle
  2
Hidden
 70
     6
 71
     1
 72
     2
 73
     2
 90
        0
 40
-0.6
 41
-30.0
 62
     5
 63
     7
 74
     2
 91
        2
 64
     7
 65
   257
 75
     2
175
     1
 42
40.0
 92
        0
 66
   257
 43
1.0
 76
     1
 77
     6
 78
     2
 67
     7
 79
     3
170
     0
171
     0
290
     0
174
     0
 93
        1
 44
0.0
173
     0
291
     0
 45
0.0
1001
ACAD
1000
AcDbSavedByObjectVersion
1070
     0
  0
VISUALSTYLE
  5
CBBD
102
{ACAD_XDICTIONARY
360
CC2B
102
}
102
{ACAD_REACTORS
330
CBA7
102
}
330
CBA7
100
AcDbVisualStyle
  2
JitterOff
 70
    20
 71
     2
 72
     2
 73
     0
 90
        0
 40
-0.6
 41
-30.0
 62
     5
 63
     7
 74
     1
 91
        4
 64
     7
 65
   257
 75
     1
175
     1
 42
1.0
 92
       10
 66
     7
 43
1.0
 76
     1
 77
     6
 78
     2
 67
     7
 79
     5
170
     0
171
     0
290
     0
174
     0
 93
        1
 44
0.0
173
     0
291
     1
 45
0.0
1001
ACAD
1000
AcDbSavedByObjectVersion
1070
     0
  0
VISUALSTYLE
  5
CBB5
102
{ACAD_XDICTIONARY
360
CC1B
102
}
102
{ACAD_REACTORS
330
CBA7
102
}
330
CBA7
100
AcDbVisualStyle
  2
Linepattern
 70
    14
 71
     2
 72
     2
 73
     0
 90
        0
 40
-0.6
 41
-30.0
 62
     5
 63
     7
 74
     1
 91
        4
 64
     7
 65
   257
 75
     7
175
     7
 42
1.0
 92
        8
 66
     7
 43
1.0
 76
     1
 77
     6
 78
     2
 67
     7
 79
     5
170
     0
171
     0
290
     0
174
     0
 93
        1
 44
0.0
173
     0
291
     1
 45
0.0
1001
ACAD
1000
AcDbSavedByObjectVersion
1070
     0
  0
VISUALSTYLE
  5
CBBE
102
{ACAD_XDICTIONARY
360
CC2D
102
}
102
{ACAD_REACTORS
330
CBA7
102
}
330
CBA7
100
AcDbVisualStyle
  2
OverhangOff
 70
    21
 71
     2
 72
     2
 73
     0
 90
        0
 40
-0.6
 41
-30.0
 62
     5
 63
     7
 74
     1
 91
        4
 64
     7
 65
   257
 75
     1
175
     1
 42
1.0
 92
        9
 66
     7
 43
1.0
 76
     1
 77
     6
 78
     2
 67
     7
 79
     5
170
     0
171
     0
290
     0
174
     0
 93
        1
 44
0.0
173
     0
291
     1
 45
0.0
1001
ACAD
1000
AcDbSavedByObjectVersion
1070
     0
  0
VISUALSTYLE
  5
CBB1
102
{ACAD_XDICTIONARY
360
CC13
102
}
102
{ACAD_REACTORS
330
CBA7
102
}
330
CBA7
100
AcDbVisualStyle
  2
Realistic
 70
     8
 71
     2
 72
     3
 73
     0
 90
        2
 40
-0.6
 41
30.0
 62
     5
 63
     7
 74
     0
 91
        0
 64
     7
 65
   257
 75
     1
175
     1
 42
1.0
 92
        8
 66
   257
 43
1.0
 76
     1
 77
     6
 78
     2
 67
     7
 79
     3
170
     0
171
     0
290
     0
174
     0
 93
       13
 44
0.0
173
     0
291
     0
 45
0.0
1001
ACAD
1000
AcDbSavedByObjectVersion
1070
     0
  0
VISUALSTYLE
  5
CBBC
102
{ACAD_XDICTIONARY
360
CC29
102
}
102
{ACAD_REACTORS
330
CBA7
102
}
330
CBA7
100
AcDbVisualStyle
  2
Shaded
 70
    27
 71
     2
 72
     2
 73
     1
 90
        2
 40
-0.6
 41
30.0
 62
     5
 63
     7
 74
     0
 91
        4
 64
     7
 65
   257
 75
     1
175
     1
 42
1.0
 92
        8
 66
   257
 43
1.0
 76
     1
 77
     6
 78
     2
 67
     8
 79
     3
170
     0
171
     0
290
     0
174
     0
 93
        5
 44
0.0
173
     0
291
     0
 45
0.0
1001
ACAD
1000
AcDbSavedByObjectVersion
1070
     0
  0
VISUALSTYLE
  5
CBBB
102
{ACAD_XDICTIONARY
360
CC27
102
}
102
{ACAD_REACTORS
330
CBA7
102
}
330
CBA7
100
AcDbVisualStyle
  2
Shaded with edges
 70
    26
 71
     2
 72
     2
 73
     1
 90
        2
 40
-0.6
 41
30.0
 62
     5
 63
     7
 74
     1
 91
       10
 64
     7
 65
   257
 75
     2
175
     1
 42
1.0
 92
        8
 66
   257
 43
1.0
 76
     1
 77
     6
 78
     2
 67
     7
 79
     3
170
     0
171
     0
290
     0
174
     0
 93
        5
 44
0.0
173
     0
291
     0
 45
0.0
1001
ACAD
1000
AcDbSavedByObjectVersion
1070
     0
  0
VISUALSTYLE
  5
CBB8
102
{ACAD_XDICTIONARY
360
CC21
102
}
102
{ACAD_REACTORS
330
CBA7
102
}
330
CBA7
100
AcDbVisualStyle
  2
Shades of Gray
 70
    23
 71
     2
 72
     2
 73
     3
 90
        0
 40
-0.6
 41
-30.0
 62
     5
 63
     7
 74
     2
 91
        2
 64
     7
 65
     7
 75
     1
175
     1
 42
40.0
 92
        8
 66
     7
 43
1.0
 76
     1
 77
     6
 78
     2
 67
     7
 79
     3
170
     0
171
     0
290
     0
174
     0
 93
        1
 44
0.0
173
     0
291
     0
 45
0.0
1001
ACAD
1000
AcDbSavedByObjectVersion
1070
     0
  0
VISUALSTYLE
  5
CBB9
102
{ACAD_XDICTIONARY
360
CC23
102
}
102
{ACAD_REACTORS
330
CBA7
102
}
330
CBA7
100
AcDbVisualStyle
  2
Sketchy
 70
    24
 71
     1
 72
     2
 73
     2
 90
        0
 40
-0.6
 41
-30.0
 62
     5
 63
     7
 74
     2
 91
        2
 64
     7
 65
     7
 75
     1
175
     1
 42
40.0
 92
       11
 66
     7
 43
1.0
 76
     1
 77
     6
 78
     2
 67
     7
 79
     6
170
     0
171
     0
290
     0
174
     0
 93
        1
 44
0.0
173
     0
291
     0
 45
0.0
1001
ACAD
1000
AcDbSavedByObjectVersion
1070
     0
  0
VISUALSTYLE
  5
CBB4
102
{ACAD_XDICTIONARY
360
CC19
102
}
102
{ACAD_REACTORS
330
CBA7
102
}
330
CBA7
100
AcDbVisualStyle
  2
Thicken
 70
    13
 71
     2
 72
     2
 73
     0
 90
        0
 40
-0.6
 41
-30.0
 62
     5
 63
     7
 74
     1
 91
        4
 64
     7
 65
   257
 75
     1
175
     1
 42
1.0
 92
       12
 66
     7
 43
1.0
 76
     1
 77
     6
 78
     2
 67
     7
 79
     5
170
     0
171
     0
290
     0
174
     0
 93
        1
 44
0.0
173
     0
291
     1
 45
0.0
1001
ACAD
1000
AcDbSavedByObjectVersion
1070
     0
  0
VISUALSTYLE
  5
CBAE
102
{ACAD_XDICTIONARY
360
CC0D
102
}
102
{ACAD_REACTORS
330
CBA7
102
}
330
CBA7
100
AcDbVisualStyle
  2
Wireframe
 70
     5
 71
     0
 72
     2
 73
     0
 90
        0
 40
-0.6
 41
-30.0
 62
     5
 63
     7
 74
     1
 91
        4
 64
     7
 65
   257
 75
     1
175
     1
 42
1.0
 92
        0
 66
   257
 43
1.0
 76
     1
 77
     6
 78
     2
 67
     7
 79
     3
170
     0
171
     0
290
     0
174
     0
 93
        1
 44
0.0
173
     0
291
     0
 45
0.0
1001
ACAD
1000
AcDbSavedByObjectVersion
1070
     0
  0
VISUALSTYLE
  5
CBBA
102
{ACAD_XDICTIONARY
360
CC25
102
}
102
{ACAD_REACTORS
330
CBA7
102
}
330
CBA7
100
AcDbVisualStyle
  2
X-Ray
 70
    25
 71
     2
 72
     2
 73
     1
 90
        1
 40
0.5
 41
-30.0
 62
     5
 63
     7
 74
     1
 91
        0
 64
     7
 65
   257
 75
     1
175
     1
 42
1.0
 92
        8
 66
     7
 43
1.0
 76
     1
 77
     6
 78
     2
 67
     7
 79
     3
170
     0
171
     0
290
     0
174
     0
 93
       13
 44
0.0
173
     0
291
     0
 45
0.0
1001
ACAD
1000
AcDbSavedByObjectVersion
1070
     0
  0
DICTIONARYVAR
  5
CBF4
102
{ACAD_REACTORS
330
CBEF
102
}
330
CBEF
100
DictionaryVariables
280
     0
  1
1:1
  0
DICTIONARYVAR
  5
CBF1
102
{ACAD_REACTORS
330
CBEF
102
}
330
CBEF
100
DictionaryVariables
280
     0
  1
STANDARD
  0
DICTIONARYVAR
  5
CBF0
102
{ACAD_REACTORS
330
CBEF
102
}
330
CBEF
100
DictionaryVariables
280
     0
  1
STANDARD
  0
DICTIONARYVAR
  5
CBF2
102
{ACAD_REACTORS
330
CBEF
102
}
330
CBEF
100
DictionaryVariables
280
     0
  1
Imperial24
  0
DICTIONARYVAR
  5
CBF3
102
{ACAD_REACTORS
330
CBEF
102
}
330
CBEF
100
DictionaryVariables
280
     0
  1
Imperial24
  0
DICTIONARYVAR
  5
CBF7
102
{ACAD_REACTORS
330
CBEF
102
}
330
CBEF
100
DictionaryVariables
280
     0
  1
1
  0
DICTIONARYVAR
  5
CBF6
102
{ACAD_REACTORS
330
CBEF
102
}
330
CBEF
100
DictionaryVariables
280
     0
  1
0
  0
DICTIONARYVAR
  5
CBF5
102
{ACAD_REACTORS
330
CBEF
102
}
330
CBEF
100
DictionaryVariables
280
     0
  1
127
  0
DICTIONARYVAR
  5
CBF8
102
{ACAD_REACTORS
330
CBEF
102
}
330
CBEF
100
DictionaryVariables
280
     0
  1
2
  0
DICTIONARY
  5
CC35
330
CBDA
100
AcDbDictionary
280
     1
281
     1
  3
ACAD_XREC_ROUNDTRIP
360
CC36
  0
DICTIONARY
  5
CC37
330
CBDB
100
AcDbDictionary
280
     1
281
     1
  3
ACAD_XREC_ROUNDTRIP
360
CC38
  0
DICTIONARY
  5
CC39
330
CBDC
100
AcDbDictionary
280
     1
281
     1
  3
ACAD_XREC_ROUNDTRIP
360
CC3A
  0
DICTIONARY
  5
CB98
330
CB97
100
AcDbDictionary
280
     1
281
     1
  3
ACAD_XREC_ROUNDTRIP
360
CBFF
  3
BUMPTILE
360
CB9A
  3
DIFFUSETILE
360
CB99
  3
OPACITYTILE
360
CB9D
  3
REFLECTIONTILE
360
CB9C
  3
REFRACTIONTILE
360
CB9E
  3
SPECULARTILE
360
CB9B
  0
DICTIONARY
  5
CB90
330
CB8F
100
AcDbDictionary
280
     1
281
     1
  3
ACAD_XREC_ROUNDTRIP
360
CBFE
  3
BUMPTILE
360
CB92
  3
DIFFUSETILE
360
CB91
  3
OPACITYTILE
360
CB95
  3
REFLECTIONTILE
360
CB94
  3
REFRACTIONTILE
360
CB96
  3
SPECULARTILE
360
CB93
  0
DICTIONARY
  5
CBA0
330
CB9F
100
AcDbDictionary
280
     1
281
     1
  3
ACAD_XREC_ROUNDTRIP
360
CC00
  3
BUMPTILE
360
CBA2
  3
DIFFUSETILE
360
CBA1
  3
OPACITYTILE
360
CBA5
  3
REFLECTIONTILE
360
CBA4
  3
REFRACTIONTILE
360
CBA6
  3
SPECULARTILE
360
CBA3
  0
DICTIONARY
  5
CC33
330
CBD8
100
AcDbDictionary
280
     1
281
     1
  3
ACAD_XREC_ROUNDTRIP
360
CC34
  0
DICTIONARY
  5
CBFA
330
CBC2
100
AcDbDictionary
280
     1
281
     1
  3
ACAD_ROUNDTRIP_2008_TABLESTYLE_CELLSTYLEMAP
360
CBFB
  3
ACAD_XREC_ROUNDTRIP
360
CC31
  0
DICTIONARY
  5
CC0B
330
CBAD
100
AcDbDictionary
280
     1
281
     1
  3
ACAD_XREC_ROUNDTRIP
360
CC0C
  0
DICTIONARY
  5
CC09
330
CBAC
100
AcDbDictionary
280
     1
281
     1
  3
ACAD_XREC_ROUNDTRIP
360
CC0A
  0
DICTIONARY
  5
CC17
330
CBB3
100
AcDbDictionary
280
     1
281
     1
  3
ACAD_XREC_ROUNDTRIP
360
CC18
  0
DICTIONARY
  5
CC1F
330
CBB7
100
AcDbDictionary
280
     1
281
     1
  3
ACAD_XREC_ROUNDTRIP
360
CC20
  0
DICTIONARY
  5
CC11
330
CBB0
100
AcDbDictionary
280
     1
281
     1
  3
ACAD_XREC_ROUNDTRIP
360
CC12
  0
DICTIONARY
  5
CC15
330
CBB2
100
AcDbDictionary
280
     1
281
     1
  3
ACAD_XREC_ROUNDTRIP
360
CC16
  0
DICTIONARY
  5
CC2F
330
CBBF
100
AcDbDictionary
280
     1
281
     1
  3
ACAD_XREC_ROUNDTRIP
360
CC30
  0
DICTIONARY
  5
CC1D
330
CBB6
100
AcDbDictionary
280
     1
281
     1
  3
ACAD_XREC_ROUNDTRIP
360
CC1E
  0
DICTIONARY
  5
CC01
330
CBA8
100
AcDbDictionary
280
     1
281
     1
  3
ACAD_XREC_ROUNDTRIP
360
CC02
  0
DICTIONARY
  5
CC03
330
CBA9
100
AcDbDictionary
280
     1
281
     1
  3
ACAD_XREC_ROUNDTRIP
360
CC04
  0
DICTIONARY
  5
CC05
330
CBAA
100
AcDbDictionary
280
     1
281
     1
  3
ACAD_XREC_ROUNDTRIP
360
CC06
  0
DICTIONARY
  5
CC07
330
CBAB
100
AcDbDictionary
280
     1
281
     1
  3
ACAD_XREC_ROUNDTRIP
360
CC08
  0
DICTIONARY
  5
CC0F
330
CBAF
100
AcDbDictionary
280
     1
281
     1
  3
ACAD_XREC_ROUNDTRIP
360
CC10
  0
DICTIONARY
  5
CC2B
330
CBBD
100
AcDbDictionary
280
     1
281
     1
  3
ACAD_XREC_ROUNDTRIP
360
CC2C
  0
DICTIONARY
  5
CC1B
330
CBB5
100
AcDbDictionary
280
     1
281
     1
  3
ACAD_XREC_ROUNDTRIP
360
CC1C
  0
DICTIONARY
  5
CC2D
330
CBBE
100
AcDbDictionary
280
     1
281
     1
  3
ACAD_XREC_ROUNDTRIP
360
CC2E
  0
DICTIONARY
  5
CC13
330
CBB1
100
AcDbDictionary
280
     1
281
     1
  3
ACAD_XREC_ROUNDTRIP
360
CC14
  0
DICTIONARY
  5
CC29
330
CBBC
100
AcDbDictionary
280
     1
281
     1
  3
ACAD_XREC_ROUNDTRIP
360
CC2A
  0
DICTIONARY
  5
CC27
330
CBBB
100
AcDbDictionary
280
     1
281
     1
  3
ACAD_XREC_ROUNDTRIP
360
CC28
  0
DICTIONARY
  5
CC21
330
CBB8
100
AcDbDictionary
280
     1
281
     1
  3
ACAD_XREC_ROUNDTRIP
360
CC22
  0
DICTIONARY
  5
CC23
330
CBB9
100
AcDbDictionary
280
     1
281
     1
  3
ACAD_XREC_ROUNDTRIP
360
CC24
  0
DICTIONARY
  5
CC19
330
CBB4
100
AcDbDictionary
280
     1
281
     1
  3
ACAD_XREC_ROUNDTRIP
360
CC1A
  0
DICTIONARY
  5
CC0D
330
CBAE
100
AcDbDictionary
280
     1
281
     1
  3
ACAD_XREC_ROUNDTRIP
360
CC0E
  0
DICTIONARY
  5
CC25
330
CBBA
100
AcDbDictionary
280
     1
281
     1
  3
ACAD_XREC_ROUNDTRIP
360
CC26
  0
XRECORD
  5
CC36
102
{ACAD_REACTORS
330
CC35
102
}
330
CC35
100
AcDbXrecord
280
     1
102
DISPLAYNAME
  1
Imperial24
102
FLAGS
 90
        0
  0
XRECORD
  5
CC38
102
{ACAD_REACTORS
330
CC37
102
}
330
CC37
100
AcDbXrecord
280
     1
102
SHADEPLOT
 70
     0
102
SHADEPLOTRESLEVEL
 70
     2
102
SHADEPLOTCUSTOMDPI
 70
   300
  0
XRECORD
  5
CC3A
102
{ACAD_REACTORS
330
CC39
102
}
330
CC39
100
AcDbXrecord
280
     1
102
SHADEPLOT
 70
     0
102
SHADEPLOTRESLEVEL
 70
     2
102
SHADEPLOTCUSTOMDPI
 70
   300
  0
XRECORD
  5
CBFF
102
{ACAD_REACTORS
330
CB98
102
}
330
CB98
100
AcDbXrecord
280
     1
102
MATERIAL
148
0.0
149
0.0
149
0.0
 93
        0
 94
      127
282
     0
 72
     0
 77
     0
171
     0
175
     0
179
     0
273
     0
  0
XRECORD
  5
CB9A
102
{ACAD_REACTORS
330
CB98
102
}
330
CB98
100
AcDbXrecord
280
     1
270
     1
271
     1
  0
XRECORD
  5
CB99
102
{ACAD_REACTORS
330
CB98
102
}
330
CB98
100
AcDbXrecord
280
     1
270
     1
271
     1
  0
XRECORD
  5
CB9D
102
{ACAD_REACTORS
330
CB98
102
}
330
CB98
100
AcDbXrecord
280
     1
270
     1
271
     1
  0
XRECORD
  5
CB9C
102
{ACAD_REACTORS
330
CB98
102
}
330
CB98
100
AcDbXrecord
280
     1
270
     1
271
     1
  0
XRECORD
  5
CB9E
102
{ACAD_REACTORS
330
CB98
102
}
330
CB98
100
AcDbXrecord
280
     1
270
     1
271
     1
  0
XRECORD
  5
CB9B
102
{ACAD_REACTORS
330
CB98
102
}
330
CB98
100
AcDbXrecord
280
     1
270
     1
271
     1
  0
XRECORD
  5
CBFE
102
{ACAD_REACTORS
330
CB90
102
}
330
CB90
100
AcDbXrecord
280
     1
102
MATERIAL
148
0.0
149
0.0
149
0.0
 93
        0
 94
      127
282
     0
 72
     0
 77
     0
171
     0
175
     0
179
     0
273
     0
  0
XRECORD
  5
CB92
102
{ACAD_REACTORS
330
CB90
102
}
330
CB90
100
AcDbXrecord
280
     1
270
     1
271
     1
  0
XRECORD
  5
CB91
102
{ACAD_REACTORS
330
CB90
102
}
330
CB90
100
AcDbXrecord
280
     1
270
     1
271
     1
  0
XRECORD
  5
CB95
102
{ACAD_REACTORS
330
CB90
102
}
330
CB90
100
AcDbXrecord
280
     1
270
     1
271
     1
  0
XRECORD
  5
CB94
102
{ACAD_REACTORS
330
CB90
102
}
330
CB90
100
AcDbXrecord
280
     1
270
     1
271
     1
  0
XRECORD
  5
CB96
102
{ACAD_REACTORS
330
CB90
102
}
330
CB90
100
AcDbXrecord
280
     1
270
     1
271
     1
  0
XRECORD
  5
CB93
102
{ACAD_REACTORS
330
CB90
102
}
330
CB90
100
AcDbXrecord
280
     1
270
     1
271
     1
  0
XRECORD
  5
CC00
102
{ACAD_REACTORS
330
CBA0
102
}
330
CBA0
100
AcDbXrecord
280
     1
102
MATERIAL
148
0.0
149
0.0
149
0.0
 93
        0
 94
      127
282
     0
 72
     0
 77
     0
171
     0
175
     0
179
     0
273
     0
  0
XRECORD
  5
CBA2
102
{ACAD_REACTORS
330
CBA0
102
}
330
CBA0
100
AcDbXrecord
280
     1
270
     1
271
     1
  0
XRECORD
  5
CBA1
102
{ACAD_REACTORS
330
CBA0
102
}
330
CBA0
100
AcDbXrecord
280
     1
270
     1
271
     1
  0
XRECORD
  5
CBA5
102
{ACAD_REACTORS
330
CBA0
102
}
330
CBA0
100
AcDbXrecord
280
     1
270
     1
271
     1
  0
XRECORD
  5
CBA4
102
{ACAD_REACTORS
330
CBA0
102
}
330
CBA0
100
AcDbXrecord
280
     1
270
     1
271
     1
  0
XRECORD
  5
CBA6
102
{ACAD_REACTORS
330
CBA0
102
}
330
CBA0
100
AcDbXrecord
280
     1
270
     1
271
     1
  0
XRECORD
  5
CBA3
102
{ACAD_REACTORS
330
CBA0
102
}
330
CBA0
100
AcDbXrecord
280
     1
270
     1
271
     1
  0
XRECORD
  5
CC34
102
{ACAD_REACTORS
330
CC33
102
}
330
CC33
100
AcDbXrecord
280
     1
102
DISPLAYNAME
  1
Imperial24
102
FLAGS
 90
        0
  0
CELLSTYLEMAP
  5
CBFB
102
{ACAD_REACTORS
330
CBFA
102
}
330
CBFA
100
AcDbCellStyleMap
 90
        3
300
CELLSTYLE
  1
TABLEFORMAT_BEGIN
 90
        5
170
     1
 91
        0
 92
    32768
 62
   257
 93
        1
300
CONTENTFORMAT
  1
CONTENTFORMAT_BEGIN
 90
        0
 91
        0
 92
      512
 93
        0
300

 40
0.0
140
1.0
 94
        5
 62
     0
340
C73C
144
0.25
309
CONTENTFORMAT_END
171
     0
 94
        0
309
TABLEFORMAT_END
  1
CELLSTYLE_BEGIN
 90
        1
 91
        1
300
_TITLE
309
CELLSTYLE_END
300
CELLSTYLE
  1
TABLEFORMAT_BEGIN
 90
        5
170
     1
 91
        0
 92
        0
 62
   257
 93
        1
300
CONTENTFORMAT
  1
CONTENTFORMAT_BEGIN
 90
        0
 91
        0
 92
      512
 93
        0
300

 40
0.0
140
1.0
 94
        5
 62
     0
340
C73C
144
0.18
309
CONTENTFORMAT_END
171
     0
 94
        0
309
TABLEFORMAT_END
  1
CELLSTYLE_BEGIN
 90
        2
 91
        1
300
_HEADER
309
CELLSTYLE_END
300
CELLSTYLE
  1
TABLEFORMAT_BEGIN
 90
        5
170
     1
 91
        0
 92
        0
 62
   257
 93
        1
300
CONTENTFORMAT
  1
CONTENTFORMAT_BEGIN
 90
        0
 91
        0
 92
      512
 93
        0
300

 40
0.0
140
1.0
 94
        2
 62
     0
340
C73C
144
0.18
309
CONTENTFORMAT_END
171
     0
 94
        0
309
TABLEFORMAT_END
  1
CELLSTYLE_BEGIN
 90
        3
 91
        2
300
_DATA
309
CELLSTYLE_END
  0
XRECORD
  5
CC31
102
{ACAD_REACTORS
330
CBFA
102
}
330
CBFA
100
AcDbXrecord
280
     1
102
ACAD_ROUNDTRIP_PRE2007_TABLESTYLE
 90
      512
 91
        0
  1

 92
      512
 93
        0
  2

 94
      512
 95
        0
  3

  0
XRECORD
  5
CC0C
102
{ACAD_REACTORS
330
CC0B
102
}
330
CC0B
100
AcDbXrecord
280
     1
102
RTVSPost2010Prop28
280
     1
102
RTVSPost2010PropOp28
 70
     1
102
RTVSPost2010Prop29
280
     1
102
RTVSPost2010PropOp29
 70
     1
102
RTVSPost2010Prop30
280
     0
102
RTVSPost2010PropOp30
 70
     1
102
RTVSPost2010Prop31
280
     0
102
RTVSPost2010PropOp31
 70
     1
102
RTVSPost2010Prop32
280
     0
102
RTVSPost2010PropOp32
 70
     1
102
RTVSPost2010Prop33
280
     0
102
RTVSPost2010PropOp33
 70
     1
102
RTVSPost2010Prop34
280
     0
102
RTVSPost2010PropOp34
 70
     1
102
RTVSPost2010Prop35
280
     0
102
RTVSPost2010PropOp35
 70
     1
102
RTVSPost2010Prop36
280
     0
102
RTVSPost2010PropOp36
 70
     1
102
RTVSPost2010Prop37
 90
       50
102
RTVSPost2010PropOp37
 70
     1
102
RTVSPost2010Prop38
140
0.0
102
RTVSPost2010PropOp38
 70
     1
102
RTVSPost2010Prop39
140
1.0
102
RTVSPost2010PropOp39
 70
     1
102
RTVSPost2010Prop40
 90
        0
102
RTVSPost2010PropOp40
 70
     1
102
RTVSPost2010Prop41ColorIndex
 90
       18
102
RTVSPost2010Prop41ColorRGB
 90
        0
102
RTVSPost2010PropOp41
 70
     1
102
RTVSPost2010Prop42
 90
       50
102
RTVSPost2010PropOp42
 70
     1
102
RTVSPost2010Prop43
 90
        3
102
RTVSPost2010PropOp43
 70
     1
102
RTVSPost2010Prop44ColorIndex
 90
        5
102
RTVSPost2010Prop44ColorRGB
 90
      255
102
RTVSPost2010PropOp44
 70
     1
102
RTVSPost2010Prop45
280
     0
102
RTVSPost2010PropOp45
 70
     1
102
RTVSPost2010Prop46
 90
       50
102
RTVSPost2010PropOp46
 70
     1
102
RTVSPost2010Prop47
 90
       50
102
RTVSPost2010PropOp47
 70
     1
102
RTVSPost2010Prop48
 90
       50
102
RTVSPost2010PropOp48
 70
     1
102
RTVSPost2010Prop49
280
     0
102
RTVSPost2010PropOp49
 70
     1
102
RTVSPost2010Prop50
 90
       50
102
RTVSPost2010PropOp50
 70
     1
102
RTVSPost2010Prop51ColorIndex
 90
      256
102
RTVSPost2010Prop51ColorRGB
 90
-16777216
102
RTVSPost2010PropOp51
 70
     0
102
RTVSPost2010Prop52
140
1.0
102
RTVSPost2010PropOp52
 70
     0
102
RTVSPost2010Prop53
 90
        2
102
RTVSPost2010PropOp53
 70
     1
102
RTVSPost2010Prop54
  1
strokes_ogs.tif
102
RTVSPost2010PropOp54
 70
     1
102
RTVSPost2010Prop55
280
     0
102
RTVSPost2010PropOp55
 70
     1
102
RTVSPost2010Prop56
140
1.0
102
RTVSPost2010PropOp56
 70
     1
102
RTVSPost2010Prop57
140
1.0
102
RTVSPost2010PropOp57
 70
     1
102
RTVSPropertyOp0
 70
     1
102
RTVSPropertyOp1
 70
     1
102
RTVSPropertyOp2
 70
     1
102
RTVSPropertyOp3
 70
     1
102
RTVSPropertyOp4
 70
     1
102
RTVSPropertyOp5
 70
     1
102
RTVSPropertyOp6
 70
     1
102
RTVSPropertyOp7
 70
     1
102
RTVSPropertyOp8
 70
     1
102
RTVSPropertyOp9
 70
     1
102
RTVSPropertyOp10
 70
     1
102
RTVSPropertyOp11
 70
     1
102
RTVSPropertyOp12
 70
     1
102
RTVSPropertyOp13
 70
     1
102
RTVSPropertyOp14
 70
     1
102
RTVSPropertyOp15
 70
     1
102
RTVSPropertyOp16
 70
     1
102
RTVSPropertyOp17
 70
     1
102
RTVSPropertyOp18
 70
     1
102
RTVSPropertyOp19
 70
     1
102
RTVSPropertyOp20
 70
     1
102
RTVSPropertyOp21
 70
     1
102
RTVSPropertyOp22
 70
     1
102
RTVSPropertyOp23
 70
     1
102
RTVSPropertyOp24
 70
     1
102
RTVSPropertyOp25
 70
     1
102
RTVSPropertyOp26
 70
     1
102
RTVSPropertyOp27
 70
     1
102
RTVSPropertyOp28
 70
     1
102
RTVSPropertyOp29
 70
     1
102
RTVSPropertyOp30
 70
     1
102
RTVSPropertyOp31
 70
     1
102
RTVSPropertyOp32
 70
     1
102
RTVSPropertyOp33
 70
     1
102
RTVSPropertyOp34
 70
     1
102
RTVSPropertyOp35
 70
     1
102
RTVSPropertyOp36
 70
     1
102
RTVSPropertyOp37
 70
     1
102
RTVSPropertyOp38
 70
     1
102
RTVSPropertyOp39
 70
     1
102
RTVSPropertyOp40
 70
     1
102
RTVSPropertyOp41
 70
     1
102
RTVSPropertyOp42
 70
     1
102
RTVSPropertyOp43
 70
     1
102
RTVSPropertyOp44
 70
     1
102
RTVSPropertyOp45
 70
     1
102
RTVSPropertyOp46
 70
     1
102
RTVSPropertyOp47
 70
     1
102
RTVSPropertyOp48
 70
     1
102
RTVSPropertyOp49
 70
     1
102
RTVSPropertyOp50
 70
     1
102
RTVSPropertyOp51
 70
     0
102
RTVSPropertyOp52
 70
     0
102
RTVSPropertyOp53
 70
     1
102
RTVSPropertyOp54
 70
     1
102
RTVSPropertyOp55
 70
     1
102
RTVSPropertyOp56
 70
     1
102
RTVSPropertyOp57
 70
     1
102
RTVSPropertyOp58
 70
     1
102
RTVSPropertyOp59
 70
     1
102
RTVSPropertyOp60
 70
     1
102
RTVSPropertyOp61
 70
     1
102
RTVSPropertyOp62
 70
     1
  0
XRECORD
  5
CC0A
102
{ACAD_REACTORS
330
CC09
102
}
330
CC09
100
AcDbXrecord
280
     1
102
RTVSPost2010Prop28
280
     0
102
RTVSPost2010PropOp28
 70
     1
102
RTVSPost2010Prop29
280
     1
102
RTVSPost2010PropOp29
 70
     1
102
RTVSPost2010Prop30
280
     1
102
RTVSPost2010PropOp30
 70
     1
102
RTVSPost2010Prop31
280
     0
102
RTVSPost2010PropOp31
 70
     1
102
RTVSPost2010Prop32
280
     0
102
RTVSPost2010PropOp32
 70
     1
102
RTVSPost2010Prop33
280
     0
102
RTVSPost2010PropOp33
 70
     1
102
RTVSPost2010Prop34
280
     0
102
RTVSPost2010PropOp34
 70
     1
102
RTVSPost2010Prop35
280
     0
102
RTVSPost2010PropOp35
 70
     1
102
RTVSPost2010Prop36
280
     0
102
RTVSPost2010PropOp36
 70
     1
102
RTVSPost2010Prop37
 90
       50
102
RTVSPost2010PropOp37
 70
     1
102
RTVSPost2010Prop38
140
0.0
102
RTVSPost2010PropOp38
 70
     1
102
RTVSPost2010Prop39
140
1.0
102
RTVSPost2010PropOp39
 70
     1
102
RTVSPost2010Prop40
 90
        0
102
RTVSPost2010PropOp40
 70
     1
102
RTVSPost2010Prop41ColorIndex
 90
       18
102
RTVSPost2010Prop41ColorRGB
 90
        0
102
RTVSPost2010PropOp41
 70
     1
102
RTVSPost2010Prop42
 90
       50
102
RTVSPost2010PropOp42
 70
     1
102
RTVSPost2010Prop43
 90
        3
102
RTVSPost2010PropOp43
 70
     1
102
RTVSPost2010Prop44ColorIndex
 90
        5
102
RTVSPost2010Prop44ColorRGB
 90
      255
102
RTVSPost2010PropOp44
 70
     1
102
RTVSPost2010Prop45
280
     0
102
RTVSPost2010PropOp45
 70
     1
102
RTVSPost2010Prop46
 90
       50
102
RTVSPost2010PropOp46
 70
     1
102
RTVSPost2010Prop47
 90
       50
102
RTVSPost2010PropOp47
 70
     1
102
RTVSPost2010Prop48
 90
       50
102
RTVSPost2010PropOp48
 70
     1
102
RTVSPost2010Prop49
280
     0
102
RTVSPost2010PropOp49
 70
     1
102
RTVSPost2010Prop50
 90
       50
102
RTVSPost2010PropOp50
 70
     1
102
RTVSPost2010Prop51ColorIndex
 90
      256
102
RTVSPost2010Prop51ColorRGB
 90
-16777216
102
RTVSPost2010PropOp51
 70
     0
102
RTVSPost2010Prop52
140
1.0
102
RTVSPost2010PropOp52
 70
     0
102
RTVSPost2010Prop53
 90
        2
102
RTVSPost2010PropOp53
 70
     1
102
RTVSPost2010Prop54
  1
strokes_ogs.tif
102
RTVSPost2010PropOp54
 70
     1
102
RTVSPost2010Prop55
280
     0
102
RTVSPost2010PropOp55
 70
     1
102
RTVSPost2010Prop56
140
1.0
102
RTVSPost2010PropOp56
 70
     1
102
RTVSPost2010Prop57
140
1.0
102
RTVSPost2010PropOp57
 70
     1
102
RTVSPropertyOp0
 70
     1
102
RTVSPropertyOp1
 70
     1
102
RTVSPropertyOp2
 70
     1
102
RTVSPropertyOp3
 70
     1
102
RTVSPropertyOp4
 70
     1
102
RTVSPropertyOp5
 70
     1
102
RTVSPropertyOp6
 70
     1
102
RTVSPropertyOp7
 70
     1
102
RTVSPropertyOp8
 70
     1
102
RTVSPropertyOp9
 70
     1
102
RTVSPropertyOp10
 70
     1
102
RTVSPropertyOp11
 70
     1
102
RTVSPropertyOp12
 70
     1
102
RTVSPropertyOp13
 70
     1
102
RTVSPropertyOp14
 70
     1
102
RTVSPropertyOp15
 70
     1
102
RTVSPropertyOp16
 70
     1
102
RTVSPropertyOp17
 70
     1
102
RTVSPropertyOp18
 70
     1
102
RTVSPropertyOp19
 70
     1
102
RTVSPropertyOp20
 70
     1
102
RTVSPropertyOp21
 70
     1
102
RTVSPropertyOp22
 70
     1
102
RTVSPropertyOp23
 70
     1
102
RTVSPropertyOp24
 70
     1
102
RTVSPropertyOp25
 70
     1
102
RTVSPropertyOp26
 70
     1
102
RTVSPropertyOp27
 70
     1
102
RTVSPropertyOp28
 70
     1
102
RTVSPropertyOp29
 70
     1
102
RTVSPropertyOp30
 70
     1
102
RTVSPropertyOp31
 70
     1
102
RTVSPropertyOp32
 70
     1
102
RTVSPropertyOp33
 70
     1
102
RTVSPropertyOp34
 70
     1
102
RTVSPropertyOp35
 70
     1
102
RTVSPropertyOp36
 70
     1
102
RTVSPropertyOp37
 70
     1
102
RTVSPropertyOp38
 70
     1
102
RTVSPropertyOp39
 70
     1
102
RTVSPropertyOp40
 70
     1
102
RTVSPropertyOp41
 70
     1
102
RTVSPropertyOp42
 70
     1
102
RTVSPropertyOp43
 70
     1
102
RTVSPropertyOp44
 70
     1
102
RTVSPropertyOp45
 70
     1
102
RTVSPropertyOp46
 70
     1
102
RTVSPropertyOp47
 70
     1
102
RTVSPropertyOp48
 70
     1
102
RTVSPropertyOp49
 70
     1
102
RTVSPropertyOp50
 70
     1
102
RTVSPropertyOp51
 70
     0
102
RTVSPropertyOp52
 70
     0
102
RTVSPropertyOp53
 70
     1
102
RTVSPropertyOp54
 70
     1
102
RTVSPropertyOp55
 70
     1
102
RTVSPropertyOp56
 70
     1
102
RTVSPropertyOp57
 70
     1
102
RTVSPropertyOp58
 70
     1
102
RTVSPropertyOp59
 70
     1
102
RTVSPropertyOp60
 70
     1
102
RTVSPropertyOp61
 70
     1
102
RTVSPropertyOp62
 70
     1
  0
XRECORD
  5
CC18
102
{ACAD_REACTORS
330
CC17
102
}
330
CC17
100
AcDbXrecord
280
     1
102
RTVSPost2010Prop28
280
     0
102
RTVSPost2010PropOp28
 70
     1
102
RTVSPost2010Prop29
280
     1
102
RTVSPost2010PropOp29
 70
     1
102
RTVSPost2010Prop30
280
     1
102
RTVSPost2010PropOp30
 70
     1
102
RTVSPost2010Prop31
280
     0
102
RTVSPost2010PropOp31
 70
     1
102
RTVSPost2010Prop32
280
     0
102
RTVSPost2010PropOp32
 70
     1
102
RTVSPost2010Prop33
280
     0
102
RTVSPost2010PropOp33
 70
     1
102
RTVSPost2010Prop34
280
     0
102
RTVSPost2010PropOp34
 70
     1
102
RTVSPost2010Prop35
280
     0
102
RTVSPost2010PropOp35
 70
     1
102
RTVSPost2010Prop36
280
     0
102
RTVSPost2010PropOp36
 70
     1
102
RTVSPost2010Prop37
 90
       50
102
RTVSPost2010PropOp37
 70
     1
102
RTVSPost2010Prop38
140
0.0
102
RTVSPost2010PropOp38
 70
     1
102
RTVSPost2010Prop39
140
1.0
102
RTVSPost2010PropOp39
 70
     1
102
RTVSPost2010Prop40
 90
        0
102
RTVSPost2010PropOp40
 70
     1
102
RTVSPost2010Prop41ColorIndex
 90
       18
102
RTVSPost2010Prop41ColorRGB
 90
        0
102
RTVSPost2010PropOp41
 70
     1
102
RTVSPost2010Prop42
 90
       50
102
RTVSPost2010PropOp42
 70
     1
102
RTVSPost2010Prop43
 90
        3
102
RTVSPost2010PropOp43
 70
     1
102
RTVSPost2010Prop44ColorIndex
 90
        5
102
RTVSPost2010Prop44ColorRGB
 90
      255
102
RTVSPost2010PropOp44
 70
     1
102
RTVSPost2010Prop45
280
     0
102
RTVSPost2010PropOp45
 70
     1
102
RTVSPost2010Prop46
 90
       50
102
RTVSPost2010PropOp46
 70
     1
102
RTVSPost2010Prop47
 90
       50
102
RTVSPost2010PropOp47
 70
     1
102
RTVSPost2010Prop48
 90
       50
102
RTVSPost2010PropOp48
 70
     1
102
RTVSPost2010Prop49
280
     0
102
RTVSPost2010PropOp49
 70
     1
102
RTVSPost2010Prop50
 90
       50
102
RTVSPost2010PropOp50
 70
     1
102
RTVSPost2010Prop51ColorIndex
 90
      256
102
RTVSPost2010Prop51ColorRGB
 90
-16777216
102
RTVSPost2010PropOp51
 70
     0
102
RTVSPost2010Prop52
140
1.0
102
RTVSPost2010PropOp52
 70
     0
102
RTVSPost2010Prop53
 90
        2
102
RTVSPost2010PropOp53
 70
     1
102
RTVSPost2010Prop54
  1
strokes_ogs.tif
102
RTVSPost2010PropOp54
 70
     1
102
RTVSPost2010Prop55
280
     0
102
RTVSPost2010PropOp55
 70
     1
102
RTVSPost2010Prop56
140
1.0
102
RTVSPost2010PropOp56
 70
     1
102
RTVSPost2010Prop57
140
1.0
102
RTVSPost2010PropOp57
 70
     1
102
RTVSPropertyOp0
 70
     1
102
RTVSPropertyOp1
 70
     1
102
RTVSPropertyOp2
 70
     1
102
RTVSPropertyOp3
 70
     1
102
RTVSPropertyOp4
 70
     1
102
RTVSPropertyOp5
 70
     1
102
RTVSPropertyOp6
 70
     1
102
RTVSPropertyOp7
 70
     1
102
RTVSPropertyOp8
 70
     1
102
RTVSPropertyOp9
 70
     1
102
RTVSPropertyOp10
 70
     1
102
RTVSPropertyOp11
 70
     1
102
RTVSPropertyOp12
 70
     1
102
RTVSPropertyOp13
 70
     1
102
RTVSPropertyOp14
 70
     1
102
RTVSPropertyOp15
 70
     1
102
RTVSPropertyOp16
 70
     1
102
RTVSPropertyOp17
 70
     1
102
RTVSPropertyOp18
 70
     1
102
RTVSPropertyOp19
 70
     1
102
RTVSPropertyOp20
 70
     1
102
RTVSPropertyOp21
 70
     1
102
RTVSPropertyOp22
 70
     1
102
RTVSPropertyOp23
 70
     1
102
RTVSPropertyOp24
 70
     1
102
RTVSPropertyOp25
 70
     1
102
RTVSPropertyOp26
 70
     1
102
RTVSPropertyOp27
 70
     1
102
RTVSPropertyOp28
 70
     1
102
RTVSPropertyOp29
 70
     1
102
RTVSPropertyOp30
 70
     1
102
RTVSPropertyOp31
 70
     1
102
RTVSPropertyOp32
 70
     1
102
RTVSPropertyOp33
 70
     1
102
RTVSPropertyOp34
 70
     1
102
RTVSPropertyOp35
 70
     1
102
RTVSPropertyOp36
 70
     1
102
RTVSPropertyOp37
 70
     1
102
RTVSPropertyOp38
 70
     1
102
RTVSPropertyOp39
 70
     1
102
RTVSPropertyOp40
 70
     1
102
RTVSPropertyOp41
 70
     1
102
RTVSPropertyOp42
 70
     1
102
RTVSPropertyOp43
 70
     1
102
RTVSPropertyOp44
 70
     1
102
RTVSPropertyOp45
 70
     1
102
RTVSPropertyOp46
 70
     1
102
RTVSPropertyOp47
 70
     1
102
RTVSPropertyOp48
 70
     1
102
RTVSPropertyOp49
 70
     1
102
RTVSPropertyOp50
 70
     1
102
RTVSPropertyOp51
 70
     0
102
RTVSPropertyOp52
 70
     0
102
RTVSPropertyOp53
 70
     1
102
RTVSPropertyOp54
 70
     1
102
RTVSPropertyOp55
 70
     1
102
RTVSPropertyOp56
 70
     1
102
RTVSPropertyOp57
 70
     1
102
RTVSPropertyOp58
 70
     1
102
RTVSPropertyOp59
 70
     1
102
RTVSPropertyOp60
 70
     1
102
RTVSPropertyOp61
 70
     1
102
RTVSPropertyOp62
 70
     1
  0
XRECORD
  5
CC20
102
{ACAD_REACTORS
330
CC1F
102
}
330
CC1F
100
AcDbXrecord
280
     1
102
RTVSPost2010Prop28
280
     0
102
RTVSPost2010PropOp28
 70
     1
102
RTVSPost2010Prop29
280
     1
102
RTVSPost2010PropOp29
 70
     1
102
RTVSPost2010Prop30
280
     1
102
RTVSPost2010PropOp30
 70
     1
102
RTVSPost2010Prop31
280
     0
102
RTVSPost2010PropOp31
 70
     1
102
RTVSPost2010Prop32
280
     0
102
RTVSPost2010PropOp32
 70
     1
102
RTVSPost2010Prop33
280
     0
102
RTVSPost2010PropOp33
 70
     1
102
RTVSPost2010Prop34
280
     0
102
RTVSPost2010PropOp34
 70
     1
102
RTVSPost2010Prop35
280
     0
102
RTVSPost2010PropOp35
 70
     1
102
RTVSPost2010Prop36
280
     0
102
RTVSPost2010PropOp36
 70
     1
102
RTVSPost2010Prop37
 90
       50
102
RTVSPost2010PropOp37
 70
     1
102
RTVSPost2010Prop38
140
0.0
102
RTVSPost2010PropOp38
 70
     1
102
RTVSPost2010Prop39
140
1.0
102
RTVSPost2010PropOp39
 70
     1
102
RTVSPost2010Prop40
 90
        0
102
RTVSPost2010PropOp40
 70
     1
102
RTVSPost2010Prop41ColorIndex
 90
       18
102
RTVSPost2010Prop41ColorRGB
 90
        0
102
RTVSPost2010PropOp41
 70
     1
102
RTVSPost2010Prop42
 90
       50
102
RTVSPost2010PropOp42
 70
     1
102
RTVSPost2010Prop43
 90
        3
102
RTVSPost2010PropOp43
 70
     1
102
RTVSPost2010Prop44ColorIndex
 90
        5
102
RTVSPost2010Prop44ColorRGB
 90
      255
102
RTVSPost2010PropOp44
 70
     1
102
RTVSPost2010Prop45
280
     0
102
RTVSPost2010PropOp45
 70
     1
102
RTVSPost2010Prop46
 90
       50
102
RTVSPost2010PropOp46
 70
     1
102
RTVSPost2010Prop47
 90
       50
102
RTVSPost2010PropOp47
 70
     1
102
RTVSPost2010Prop48
 90
       50
102
RTVSPost2010PropOp48
 70
     1
102
RTVSPost2010Prop49
280
     0
102
RTVSPost2010PropOp49
 70
     1
102
RTVSPost2010Prop50
 90
       50
102
RTVSPost2010PropOp50
 70
     1
102
RTVSPost2010Prop51ColorIndex
 90
      256
102
RTVSPost2010Prop51ColorRGB
 90
-16777216
102
RTVSPost2010PropOp51
 70
     0
102
RTVSPost2010Prop52
140
1.0
102
RTVSPost2010PropOp52
 70
     0
102
RTVSPost2010Prop53
 90
        2
102
RTVSPost2010PropOp53
 70
     1
102
RTVSPost2010Prop54
  1
strokes_ogs.tif
102
RTVSPost2010PropOp54
 70
     1
102
RTVSPost2010Prop55
280
     0
102
RTVSPost2010PropOp55
 70
     1
102
RTVSPost2010Prop56
140
1.0
102
RTVSPost2010PropOp56
 70
     1
102
RTVSPost2010Prop57
140
1.0
102
RTVSPost2010PropOp57
 70
     1
102
RTVSPropertyOp0
 70
     1
102
RTVSPropertyOp1
 70
     1
102
RTVSPropertyOp2
 70
     1
102
RTVSPropertyOp3
 70
     1
102
RTVSPropertyOp4
 70
     1
102
RTVSPropertyOp5
 70
     1
102
RTVSPropertyOp6
 70
     1
102
RTVSPropertyOp7
 70
     1
102
RTVSPropertyOp8
 70
     1
102
RTVSPropertyOp9
 70
     1
102
RTVSPropertyOp10
 70
     1
102
RTVSPropertyOp11
 70
     1
102
RTVSPropertyOp12
 70
     1
102
RTVSPropertyOp13
 70
     1
102
RTVSPropertyOp14
 70
     1
102
RTVSPropertyOp15
 70
     1
102
RTVSPropertyOp16
 70
     1
102
RTVSPropertyOp17
 70
     1
102
RTVSPropertyOp18
 70
     1
102
RTVSPropertyOp19
 70
     1
102
RTVSPropertyOp20
 70
     1
102
RTVSPropertyOp21
 70
     1
102
RTVSPropertyOp22
 70
     1
102
RTVSPropertyOp23
 70
     1
102
RTVSPropertyOp24
 70
     1
102
RTVSPropertyOp25
 70
     1
102
RTVSPropertyOp26
 70
     1
102
RTVSPropertyOp27
 70
     1
102
RTVSPropertyOp28
 70
     1
102
RTVSPropertyOp29
 70
     1
102
RTVSPropertyOp30
 70
     1
102
RTVSPropertyOp31
 70
     1
102
RTVSPropertyOp32
 70
     1
102
RTVSPropertyOp33
 70
     1
102
RTVSPropertyOp34
 70
     1
102
RTVSPropertyOp35
 70
     1
102
RTVSPropertyOp36
 70
     1
102
RTVSPropertyOp37
 70
     1
102
RTVSPropertyOp38
 70
     1
102
RTVSPropertyOp39
 70
     1
102
RTVSPropertyOp40
 70
     1
102
RTVSPropertyOp41
 70
     1
102
RTVSPropertyOp42
 70
     1
102
RTVSPropertyOp43
 70
     1
102
RTVSPropertyOp44
 70
     1
102
RTVSPropertyOp45
 70
     1
102
RTVSPropertyOp46
 70
     1
102
RTVSPropertyOp47
 70
     1
102
RTVSPropertyOp48
 70
     1
102
RTVSPropertyOp49
 70
     1
102
RTVSPropertyOp50
 70
     1
102
RTVSPropertyOp51
 70
     0
102
RTVSPropertyOp52
 70
     0
102
RTVSPropertyOp53
 70
     1
102
RTVSPropertyOp54
 70
     1
102
RTVSPropertyOp55
 70
     1
102
RTVSPropertyOp56
 70
     1
102
RTVSPropertyOp57
 70
     1
102
RTVSPropertyOp58
 70
     1
102
RTVSPropertyOp59
 70
     1
102
RTVSPropertyOp60
 70
     1
102
RTVSPropertyOp61
 70
     1
102
RTVSPropertyOp62
 70
     1
  0
XRECORD
  5
CC12
102
{ACAD_REACTORS
330
CC11
102
}
330
CC11
100
AcDbXrecord
280
     1
102
RTVSPost2010Prop28
280
     0
102
RTVSPost2010PropOp28
 70
     1
102
RTVSPost2010Prop29
280
     1
102
RTVSPost2010PropOp29
 70
     1
102
RTVSPost2010Prop30
280
     1
102
RTVSPost2010PropOp30
 70
     1
102
RTVSPost2010Prop31
280
     0
102
RTVSPost2010PropOp31
 70
     1
102
RTVSPost2010Prop32
280
     0
102
RTVSPost2010PropOp32
 70
     1
102
RTVSPost2010Prop33
280
     0
102
RTVSPost2010PropOp33
 70
     1
102
RTVSPost2010Prop34
280
     0
102
RTVSPost2010PropOp34
 70
     1
102
RTVSPost2010Prop35
280
     0
102
RTVSPost2010PropOp35
 70
     1
102
RTVSPost2010Prop36
280
     0
102
RTVSPost2010PropOp36
 70
     1
102
RTVSPost2010Prop37
 90
       50
102
RTVSPost2010PropOp37
 70
     1
102
RTVSPost2010Prop38
140
0.0
102
RTVSPost2010PropOp38
 70
     1
102
RTVSPost2010Prop39
140
1.0
102
RTVSPost2010PropOp39
 70
     1
102
RTVSPost2010Prop40
 90
        0
102
RTVSPost2010PropOp40
 70
     1
102
RTVSPost2010Prop41ColorIndex
 90
       18
102
RTVSPost2010Prop41ColorRGB
 90
        0
102
RTVSPost2010PropOp41
 70
     1
102
RTVSPost2010Prop42
 90
       50
102
RTVSPost2010PropOp42
 70
     1
102
RTVSPost2010Prop43
 90
        3
102
RTVSPost2010PropOp43
 70
     1
102
RTVSPost2010Prop44ColorIndex
 90
        5
102
RTVSPost2010Prop44ColorRGB
 90
      255
102
RTVSPost2010PropOp44
 70
     1
102
RTVSPost2010Prop45
280
     0
102
RTVSPost2010PropOp45
 70
     1
102
RTVSPost2010Prop46
 90
       50
102
RTVSPost2010PropOp46
 70
     1
102
RTVSPost2010Prop47
 90
       50
102
RTVSPost2010PropOp47
 70
     1
102
RTVSPost2010Prop48
 90
       50
102
RTVSPost2010PropOp48
 70
     1
102
RTVSPost2010Prop49
280
     0
102
RTVSPost2010PropOp49
 70
     1
102
RTVSPost2010Prop50
 90
       50
102
RTVSPost2010PropOp50
 70
     1
102
RTVSPost2010Prop51ColorIndex
 90
      256
102
RTVSPost2010Prop51ColorRGB
 90
-16777216
102
RTVSPost2010PropOp51
 70
     0
102
RTVSPost2010Prop52
140
1.0
102
RTVSPost2010PropOp52
 70
     0
102
RTVSPost2010Prop53
 90
        2
102
RTVSPost2010PropOp53
 70
     1
102
RTVSPost2010Prop54
  1
strokes_ogs.tif
102
RTVSPost2010PropOp54
 70
     1
102
RTVSPost2010Prop55
280
     0
102
RTVSPost2010PropOp55
 70
     1
102
RTVSPost2010Prop56
140
1.0
102
RTVSPost2010PropOp56
 70
     1
102
RTVSPost2010Prop57
140
1.0
102
RTVSPost2010PropOp57
 70
     1
102
RTVSPropertyOp0
 70
     1
102
RTVSPropertyOp1
 70
     1
102
RTVSPropertyOp2
 70
     1
102
RTVSPropertyOp3
 70
     1
102
RTVSPropertyOp4
 70
     1
102
RTVSPropertyOp5
 70
     1
102
RTVSPropertyOp6
 70
     1
102
RTVSPropertyOp7
 70
     1
102
RTVSPropertyOp8
 70
     1
102
RTVSPropertyOp9
 70
     1
102
RTVSPropertyOp10
 70
     1
102
RTVSPropertyOp11
 70
     1
102
RTVSPropertyOp12
 70
     1
102
RTVSPropertyOp13
 70
     1
102
RTVSPropertyOp14
 70
     1
102
RTVSPropertyOp15
 70
     1
102
RTVSPropertyOp16
 70
     1
102
RTVSPropertyOp17
 70
     1
102
RTVSPropertyOp18
 70
     1
102
RTVSPropertyOp19
 70
     1
102
RTVSPropertyOp20
 70
     1
102
RTVSPropertyOp21
 70
     1
102
RTVSPropertyOp22
 70
     1
102
RTVSPropertyOp23
 70
     1
102
RTVSPropertyOp24
 70
     1
102
RTVSPropertyOp25
 70
     1
102
RTVSPropertyOp26
 70
     1
102
RTVSPropertyOp27
 70
     1
102
RTVSPropertyOp28
 70
     1
102
RTVSPropertyOp29
 70
     1
102
RTVSPropertyOp30
 70
     1
102
RTVSPropertyOp31
 70
     1
102
RTVSPropertyOp32
 70
     1
102
RTVSPropertyOp33
 70
     1
102
RTVSPropertyOp34
 70
     1
102
RTVSPropertyOp35
 70
     1
102
RTVSPropertyOp36
 70
     1
102
RTVSPropertyOp37
 70
     1
102
RTVSPropertyOp38
 70
     1
102
RTVSPropertyOp39
 70
     1
102
RTVSPropertyOp40
 70
     1
102
RTVSPropertyOp41
 70
     1
102
RTVSPropertyOp42
 70
     1
102
RTVSPropertyOp43
 70
     1
102
RTVSPropertyOp44
 70
     1
102
RTVSPropertyOp45
 70
     1
102
RTVSPropertyOp46
 70
     1
102
RTVSPropertyOp47
 70
     1
102
RTVSPropertyOp48
 70
     1
102
RTVSPropertyOp49
 70
     1
102
RTVSPropertyOp50
 70
     1
102
RTVSPropertyOp51
 70
     0
102
RTVSPropertyOp52
 70
     0
102
RTVSPropertyOp53
 70
     1
102
RTVSPropertyOp54
 70
     1
102
RTVSPropertyOp55
 70
     1
102
RTVSPropertyOp56
 70
     1
102
RTVSPropertyOp57
 70
     1
102
RTVSPropertyOp58
 70
     1
102
RTVSPropertyOp59
 70
     1
102
RTVSPropertyOp60
 70
     1
102
RTVSPropertyOp61
 70
     1
102
RTVSPropertyOp62
 70
     1
  0
XRECORD
  5
CC16
102
{ACAD_REACTORS
330
CC15
102
}
330
CC15
100
AcDbXrecord
280
     1
102
RTVSPost2010Prop28
280
     0
102
RTVSPost2010PropOp28
 70
     1
102
RTVSPost2010Prop29
280
     1
102
RTVSPost2010PropOp29
 70
     1
102
RTVSPost2010Prop30
280
     1
102
RTVSPost2010PropOp30
 70
     1
102
RTVSPost2010Prop31
280
     0
102
RTVSPost2010PropOp31
 70
     1
102
RTVSPost2010Prop32
280
     0
102
RTVSPost2010PropOp32
 70
     1
102
RTVSPost2010Prop33
280
     0
102
RTVSPost2010PropOp33
 70
     1
102
RTVSPost2010Prop34
280
     0
102
RTVSPost2010PropOp34
 70
     1
102
RTVSPost2010Prop35
280
     0
102
RTVSPost2010PropOp35
 70
     1
102
RTVSPost2010Prop36
280
     0
102
RTVSPost2010PropOp36
 70
     1
102
RTVSPost2010Prop37
 90
       50
102
RTVSPost2010PropOp37
 70
     1
102
RTVSPost2010Prop38
140
0.0
102
RTVSPost2010PropOp38
 70
     1
102
RTVSPost2010Prop39
140
1.0
102
RTVSPost2010PropOp39
 70
     1
102
RTVSPost2010Prop40
 90
        0
102
RTVSPost2010PropOp40
 70
     1
102
RTVSPost2010Prop41ColorIndex
 90
       18
102
RTVSPost2010Prop41ColorRGB
 90
        0
102
RTVSPost2010PropOp41
 70
     1
102
RTVSPost2010Prop42
 90
       50
102
RTVSPost2010PropOp42
 70
     1
102
RTVSPost2010Prop43
 90
        3
102
RTVSPost2010PropOp43
 70
     1
102
RTVSPost2010Prop44ColorIndex
 90
        5
102
RTVSPost2010Prop44ColorRGB
 90
      255
102
RTVSPost2010PropOp44
 70
     1
102
RTVSPost2010Prop45
280
     0
102
RTVSPost2010PropOp45
 70
     1
102
RTVSPost2010Prop46
 90
       50
102
RTVSPost2010PropOp46
 70
     1
102
RTVSPost2010Prop47
 90
       50
102
RTVSPost2010PropOp47
 70
     1
102
RTVSPost2010Prop48
 90
       50
102
RTVSPost2010PropOp48
 70
     1
102
RTVSPost2010Prop49
280
     0
102
RTVSPost2010PropOp49
 70
     1
102
RTVSPost2010Prop50
 90
       50
102
RTVSPost2010PropOp50
 70
     1
102
RTVSPost2010Prop51ColorIndex
 90
      256
102
RTVSPost2010Prop51ColorRGB
 90
-16777216
102
RTVSPost2010PropOp51
 70
     0
102
RTVSPost2010Prop52
140
1.0
102
RTVSPost2010PropOp52
 70
     0
102
RTVSPost2010Prop53
 90
        2
102
RTVSPost2010PropOp53
 70
     1
102
RTVSPost2010Prop54
  1
strokes_ogs.tif
102
RTVSPost2010PropOp54
 70
     1
102
RTVSPost2010Prop55
280
     0
102
RTVSPost2010PropOp55
 70
     1
102
RTVSPost2010Prop56
140
1.0
102
RTVSPost2010PropOp56
 70
     1
102
RTVSPost2010Prop57
140
1.0
102
RTVSPost2010PropOp57
 70
     1
102
RTVSPropertyOp0
 70
     1
102
RTVSPropertyOp1
 70
     1
102
RTVSPropertyOp2
 70
     1
102
RTVSPropertyOp3
 70
     1
102
RTVSPropertyOp4
 70
     1
102
RTVSPropertyOp5
 70
     1
102
RTVSPropertyOp6
 70
     1
102
RTVSPropertyOp7
 70
     1
102
RTVSPropertyOp8
 70
     1
102
RTVSPropertyOp9
 70
     1
102
RTVSPropertyOp10
 70
     1
102
RTVSPropertyOp11
 70
     1
102
RTVSPropertyOp12
 70
     1
102
RTVSPropertyOp13
 70
     1
102
RTVSPropertyOp14
 70
     1
102
RTVSPropertyOp15
 70
     1
102
RTVSPropertyOp16
 70
     1
102
RTVSPropertyOp17
 70
     1
102
RTVSPropertyOp18
 70
     1
102
RTVSPropertyOp19
 70
     1
102
RTVSPropertyOp20
 70
     1
102
RTVSPropertyOp21
 70
     1
102
RTVSPropertyOp22
 70
     1
102
RTVSPropertyOp23
 70
     1
102
RTVSPropertyOp24
 70
     1
102
RTVSPropertyOp25
 70
     1
102
RTVSPropertyOp26
 70
     1
102
RTVSPropertyOp27
 70
     1
102
RTVSPropertyOp28
 70
     1
102
RTVSPropertyOp29
 70
     1
102
RTVSPropertyOp30
 70
     1
102
RTVSPropertyOp31
 70
     1
102
RTVSPropertyOp32
 70
     1
102
RTVSPropertyOp33
 70
     1
102
RTVSPropertyOp34
 70
     1
102
RTVSPropertyOp35
 70
     1
102
RTVSPropertyOp36
 70
     1
102
RTVSPropertyOp37
 70
     1
102
RTVSPropertyOp38
 70
     1
102
RTVSPropertyOp39
 70
     1
102
RTVSPropertyOp40
 70
     1
102
RTVSPropertyOp41
 70
     1
102
RTVSPropertyOp42
 70
     1
102
RTVSPropertyOp43
 70
     1
102
RTVSPropertyOp44
 70
     1
102
RTVSPropertyOp45
 70
     1
102
RTVSPropertyOp46
 70
     1
102
RTVSPropertyOp47
 70
     1
102
RTVSPropertyOp48
 70
     1
102
RTVSPropertyOp49
 70
     1
102
RTVSPropertyOp50
 70
     1
102
RTVSPropertyOp51
 70
     0
102
RTVSPropertyOp52
 70
     0
102
RTVSPropertyOp53
 70
     1
102
RTVSPropertyOp54
 70
     1
102
RTVSPropertyOp55
 70
     1
102
RTVSPropertyOp56
 70
     1
102
RTVSPropertyOp57
 70
     1
102
RTVSPropertyOp58
 70
     1
102
RTVSPropertyOp59
 70
     1
102
RTVSPropertyOp60
 70
     1
102
RTVSPropertyOp61
 70
     1
102
RTVSPropertyOp62
 70
     1
  0
XRECORD
  5
CC30
102
{ACAD_REACTORS
330
CC2F
102
}
330
CC2F
100
AcDbXrecord
280
     1
102
RTVSPost2010Prop28
280
     0
102
RTVSPost2010PropOp28
 70
     1
102
RTVSPost2010Prop29
280
     1
102
RTVSPost2010PropOp29
 70
     1
102
RTVSPost2010Prop30
280
     1
102
RTVSPost2010PropOp30
 70
     1
102
RTVSPost2010Prop31
280
     0
102
RTVSPost2010PropOp31
 70
     1
102
RTVSPost2010Prop32
280
     0
102
RTVSPost2010PropOp32
 70
     1
102
RTVSPost2010Prop33
280
     0
102
RTVSPost2010PropOp33
 70
     1
102
RTVSPost2010Prop34
280
     0
102
RTVSPost2010PropOp34
 70
     1
102
RTVSPost2010Prop35
280
     0
102
RTVSPost2010PropOp35
 70
     1
102
RTVSPost2010Prop36
280
     0
102
RTVSPost2010PropOp36
 70
     1
102
RTVSPost2010Prop37
 90
       50
102
RTVSPost2010PropOp37
 70
     0
102
RTVSPost2010Prop38
140
0.0
102
RTVSPost2010PropOp38
 70
     0
102
RTVSPost2010Prop39
140
1.0
102
RTVSPost2010PropOp39
 70
     0
102
RTVSPost2010Prop40
 90
        0
102
RTVSPost2010PropOp40
 70
     0
102
RTVSPost2010Prop41ColorIndex
 90
       18
102
RTVSPost2010Prop41ColorRGB
 90
        0
102
RTVSPost2010PropOp41
 70
     0
102
RTVSPost2010Prop42
 90
       50
102
RTVSPost2010PropOp42
 70
     0
102
RTVSPost2010Prop43
 90
        3
102
RTVSPost2010PropOp43
 70
     0
102
RTVSPost2010Prop44ColorIndex
 90
        5
102
RTVSPost2010Prop44ColorRGB
 90
      255
102
RTVSPost2010PropOp44
 70
     0
102
RTVSPost2010Prop45
280
     0
102
RTVSPost2010PropOp45
 70
     1
102
RTVSPost2010Prop46
 90
       50
102
RTVSPost2010PropOp46
 70
     0
102
RTVSPost2010Prop47
 90
       50
102
RTVSPost2010PropOp47
 70
     0
102
RTVSPost2010Prop48
 90
       50
102
RTVSPost2010PropOp48
 70
     0
102
RTVSPost2010Prop49
280
     0
102
RTVSPost2010PropOp49
 70
     1
102
RTVSPost2010Prop50
 90
       50
102
RTVSPost2010PropOp50
 70
     0
102
RTVSPost2010Prop51ColorIndex
 90
      256
102
RTVSPost2010Prop51ColorRGB
 90
-16777216
102
RTVSPost2010PropOp51
 70
     0
102
RTVSPost2010Prop52
140
1.0
102
RTVSPost2010PropOp52
 70
     0
102
RTVSPost2010Prop53
 90
        2
102
RTVSPost2010PropOp53
 70
     0
102
RTVSPost2010Prop54
  1
strokes_ogs.tif
102
RTVSPost2010PropOp54
 70
     0
102
RTVSPost2010Prop55
280
     0
102
RTVSPost2010PropOp55
 70
     1
102
RTVSPost2010Prop56
140
1.0
102
RTVSPost2010PropOp56
 70
     0
102
RTVSPost2010Prop57
140
1.0
102
RTVSPost2010PropOp57
 70
     0
102
RTVSPropertyOp0
 70
     0
102
RTVSPropertyOp1
 70
     0
102
RTVSPropertyOp2
 70
     0
102
RTVSPropertyOp3
 70
     0
102
RTVSPropertyOp4
 70
     0
102
RTVSPropertyOp5
 70
     0
102
RTVSPropertyOp6
 70
     0
102
RTVSPropertyOp7
 70
     0
102
RTVSPropertyOp8
 70
     0
102
RTVSPropertyOp9
 70
     0
102
RTVSPropertyOp10
 70
     0
102
RTVSPropertyOp11
 70
     0
102
RTVSPropertyOp12
 70
     0
102
RTVSPropertyOp13
 70
     0
102
RTVSPropertyOp14
 70
     2
102
RTVSPropertyOp15
 70
     0
102
RTVSPropertyOp16
 70
     0
102
RTVSPropertyOp17
 70
     0
102
RTVSPropertyOp18
 70
     0
102
RTVSPropertyOp19
 70
     0
102
RTVSPropertyOp20
 70
     0
102
RTVSPropertyOp21
 70
     0
102
RTVSPropertyOp22
 70
     0
102
RTVSPropertyOp23
 70
     0
102
RTVSPropertyOp24
 70
     0
102
RTVSPropertyOp25
 70
     0
102
RTVSPropertyOp26
 70
     0
102
RTVSPropertyOp27
 70
     0
102
RTVSPropertyOp28
 70
     1
102
RTVSPropertyOp29
 70
     1
102
RTVSPropertyOp30
 70
     1
102
RTVSPropertyOp31
 70
     1
102
RTVSPropertyOp32
 70
     1
102
RTVSPropertyOp33
 70
     1
102
RTVSPropertyOp34
 70
     1
102
RTVSPropertyOp35
 70
     1
102
RTVSPropertyOp36
 70
     1
102
RTVSPropertyOp37
 70
     0
102
RTVSPropertyOp38
 70
     0
102
RTVSPropertyOp39
 70
     0
102
RTVSPropertyOp40
 70
     0
102
RTVSPropertyOp41
 70
     0
102
RTVSPropertyOp42
 70
     0
102
RTVSPropertyOp43
 70
     0
102
RTVSPropertyOp44
 70
     0
102
RTVSPropertyOp45
 70
     1
102
RTVSPropertyOp46
 70
     0
102
RTVSPropertyOp47
 70
     0
102
RTVSPropertyOp48
 70
     0
102
RTVSPropertyOp49
 70
     1
102
RTVSPropertyOp50
 70
     0
102
RTVSPropertyOp51
 70
     0
102
RTVSPropertyOp52
 70
     0
102
RTVSPropertyOp53
 70
     0
102
RTVSPropertyOp54
 70
     0
102
RTVSPropertyOp55
 70
     1
102
RTVSPropertyOp56
 70
     0
102
RTVSPropertyOp57
 70
     0
102
RTVSPropertyOp58
 70
     0
102
RTVSPropertyOp59
 70
     0
102
RTVSPropertyOp60
 70
     0
102
RTVSPropertyOp61
 70
     0
102
RTVSPropertyOp62
 70
     0
  0
XRECORD
  5
CC1E
102
{ACAD_REACTORS
330
CC1D
102
}
330
CC1D
100
AcDbXrecord
280
     1
102
RTVSPost2010Prop28
280
     0
102
RTVSPost2010PropOp28
 70
     1
102
RTVSPost2010Prop29
280
     1
102
RTVSPost2010PropOp29
 70
     1
102
RTVSPost2010Prop30
280
     1
102
RTVSPost2010PropOp30
 70
     1
102
RTVSPost2010Prop31
280
     0
102
RTVSPost2010PropOp31
 70
     1
102
RTVSPost2010Prop32
280
     0
102
RTVSPost2010PropOp32
 70
     1
102
RTVSPost2010Prop33
280
     0
102
RTVSPost2010PropOp33
 70
     1
102
RTVSPost2010Prop34
280
     0
102
RTVSPost2010PropOp34
 70
     1
102
RTVSPost2010Prop35
280
     0
102
RTVSPost2010PropOp35
 70
     1
102
RTVSPost2010Prop36
280
     0
102
RTVSPost2010PropOp36
 70
     1
102
RTVSPost2010Prop37
 90
       50
102
RTVSPost2010PropOp37
 70
     1
102
RTVSPost2010Prop38
140
0.0
102
RTVSPost2010PropOp38
 70
     1
102
RTVSPost2010Prop39
140
1.0
102
RTVSPost2010PropOp39
 70
     1
102
RTVSPost2010Prop40
 90
        0
102
RTVSPost2010PropOp40
 70
     1
102
RTVSPost2010Prop41ColorIndex
 90
       18
102
RTVSPost2010Prop41ColorRGB
 90
        0
102
RTVSPost2010PropOp41
 70
     1
102
RTVSPost2010Prop42
 90
       50
102
RTVSPost2010PropOp42
 70
     1
102
RTVSPost2010Prop43
 90
        3
102
RTVSPost2010PropOp43
 70
     1
102
RTVSPost2010Prop44ColorIndex
 90
        5
102
RTVSPost2010Prop44ColorRGB
 90
      255
102
RTVSPost2010PropOp44
 70
     1
102
RTVSPost2010Prop45
280
     0
102
RTVSPost2010PropOp45
 70
     1
102
RTVSPost2010Prop46
 90
       50
102
RTVSPost2010PropOp46
 70
     1
102
RTVSPost2010Prop47
 90
       50
102
RTVSPost2010PropOp47
 70
     1
102
RTVSPost2010Prop48
 90
       50
102
RTVSPost2010PropOp48
 70
     1
102
RTVSPost2010Prop49
280
     0
102
RTVSPost2010PropOp49
 70
     1
102
RTVSPost2010Prop50
 90
       50
102
RTVSPost2010PropOp50
 70
     1
102
RTVSPost2010Prop51ColorIndex
 90
      256
102
RTVSPost2010Prop51ColorRGB
 90
-16777216
102
RTVSPost2010PropOp51
 70
     0
102
RTVSPost2010Prop52
140
1.0
102
RTVSPost2010PropOp52
 70
     0
102
RTVSPost2010Prop53
 90
        2
102
RTVSPost2010PropOp53
 70
     1
102
RTVSPost2010Prop54
  1
strokes_ogs.tif
102
RTVSPost2010PropOp54
 70
     1
102
RTVSPost2010Prop55
280
     0
102
RTVSPost2010PropOp55
 70
     1
102
RTVSPost2010Prop56
140
1.0
102
RTVSPost2010PropOp56
 70
     1
102
RTVSPost2010Prop57
140
1.0
102
RTVSPost2010PropOp57
 70
     1
102
RTVSPropertyOp0
 70
     1
102
RTVSPropertyOp1
 70
     1
102
RTVSPropertyOp2
 70
     1
102
RTVSPropertyOp3
 70
     1
102
RTVSPropertyOp4
 70
     1
102
RTVSPropertyOp5
 70
     1
102
RTVSPropertyOp6
 70
     1
102
RTVSPropertyOp7
 70
     1
102
RTVSPropertyOp8
 70
     1
102
RTVSPropertyOp9
 70
     1
102
RTVSPropertyOp10
 70
     1
102
RTVSPropertyOp11
 70
     1
102
RTVSPropertyOp12
 70
     1
102
RTVSPropertyOp13
 70
     1
102
RTVSPropertyOp14
 70
     1
102
RTVSPropertyOp15
 70
     1
102
RTVSPropertyOp16
 70
     1
102
RTVSPropertyOp17
 70
     1
102
RTVSPropertyOp18
 70
     1
102
RTVSPropertyOp19
 70
     1
102
RTVSPropertyOp20
 70
     1
102
RTVSPropertyOp21
 70
     1
102
RTVSPropertyOp22
 70
     1
102
RTVSPropertyOp23
 70
     1
102
RTVSPropertyOp24
 70
     1
102
RTVSPropertyOp25
 70
     1
102
RTVSPropertyOp26
 70
     1
102
RTVSPropertyOp27
 70
     1
102
RTVSPropertyOp28
 70
     1
102
RTVSPropertyOp29
 70
     1
102
RTVSPropertyOp30
 70
     1
102
RTVSPropertyOp31
 70
     1
102
RTVSPropertyOp32
 70
     1
102
RTVSPropertyOp33
 70
     1
102
RTVSPropertyOp34
 70
     1
102
RTVSPropertyOp35
 70
     1
102
RTVSPropertyOp36
 70
     1
102
RTVSPropertyOp37
 70
     1
102
RTVSPropertyOp38
 70
     1
102
RTVSPropertyOp39
 70
     1
102
RTVSPropertyOp40
 70
     1
102
RTVSPropertyOp41
 70
     1
102
RTVSPropertyOp42
 70
     1
102
RTVSPropertyOp43
 70
     1
102
RTVSPropertyOp44
 70
     1
102
RTVSPropertyOp45
 70
     1
102
RTVSPropertyOp46
 70
     1
102
RTVSPropertyOp47
 70
     1
102
RTVSPropertyOp48
 70
     1
102
RTVSPropertyOp49
 70
     1
102
RTVSPropertyOp50
 70
     1
102
RTVSPropertyOp51
 70
     0
102
RTVSPropertyOp52
 70
     0
102
RTVSPropertyOp53
 70
     1
102
RTVSPropertyOp54
 70
     1
102
RTVSPropertyOp55
 70
     1
102
RTVSPropertyOp56
 70
     1
102
RTVSPropertyOp57
 70
     1
102
RTVSPropertyOp58
 70
     1
102
RTVSPropertyOp59
 70
     1
102
RTVSPropertyOp60
 70
     1
102
RTVSPropertyOp61
 70
     1
102
RTVSPropertyOp62
 70
     1
  0
XRECORD
  5
CC02
102
{ACAD_REACTORS
330
CC01
102
}
330
CC01
100
AcDbXrecord
280
     1
102
RTVSPost2010Prop28
280
     0
102
RTVSPost2010PropOp28
 70
     1
102
RTVSPost2010Prop29
280
     1
102
RTVSPost2010PropOp29
 70
     1
102
RTVSPost2010Prop30
280
     1
102
RTVSPost2010PropOp30
 70
     1
102
RTVSPost2010Prop31
280
     0
102
RTVSPost2010PropOp31
 70
     1
102
RTVSPost2010Prop32
280
     0
102
RTVSPost2010PropOp32
 70
     1
102
RTVSPost2010Prop33
280
     0
102
RTVSPost2010PropOp33
 70
     1
102
RTVSPost2010Prop34
280
     0
102
RTVSPost2010PropOp34
 70
     1
102
RTVSPost2010Prop35
280
     0
102
RTVSPost2010PropOp35
 70
     1
102
RTVSPost2010Prop36
280
     0
102
RTVSPost2010PropOp36
 70
     1
102
RTVSPost2010Prop37
 90
       50
102
RTVSPost2010PropOp37
 70
     1
102
RTVSPost2010Prop38
140
0.0
102
RTVSPost2010PropOp38
 70
     1
102
RTVSPost2010Prop39
140
1.0
102
RTVSPost2010PropOp39
 70
     1
102
RTVSPost2010Prop40
 90
        0
102
RTVSPost2010PropOp40
 70
     1
102
RTVSPost2010Prop41ColorIndex
 90
       18
102
RTVSPost2010Prop41ColorRGB
 90
        0
102
RTVSPost2010PropOp41
 70
     1
102
RTVSPost2010Prop42
 90
       50
102
RTVSPost2010PropOp42
 70
     1
102
RTVSPost2010Prop43
 90
        3
102
RTVSPost2010PropOp43
 70
     1
102
RTVSPost2010Prop44ColorIndex
 90
        5
102
RTVSPost2010Prop44ColorRGB
 90
      255
102
RTVSPost2010PropOp44
 70
     1
102
RTVSPost2010Prop45
280
     0
102
RTVSPost2010PropOp45
 70
     1
102
RTVSPost2010Prop46
 90
       50
102
RTVSPost2010PropOp46
 70
     1
102
RTVSPost2010Prop47
 90
       50
102
RTVSPost2010PropOp47
 70
     1
102
RTVSPost2010Prop48
 90
       50
102
RTVSPost2010PropOp48
 70
     1
102
RTVSPost2010Prop49
280
     0
102
RTVSPost2010PropOp49
 70
     1
102
RTVSPost2010Prop50
 90
       50
102
RTVSPost2010PropOp50
 70
     1
102
RTVSPost2010Prop51ColorIndex
 90
      256
102
RTVSPost2010Prop51ColorRGB
 90
-16777216
102
RTVSPost2010PropOp51
 70
     0
102
RTVSPost2010Prop52
140
1.0
102
RTVSPost2010PropOp52
 70
     0
102
RTVSPost2010Prop53
 90
        2
102
RTVSPost2010PropOp53
 70
     1
102
RTVSPost2010Prop54
  1
strokes_ogs.tif
102
RTVSPost2010PropOp54
 70
     1
102
RTVSPost2010Prop55
280
     0
102
RTVSPost2010PropOp55
 70
     1
102
RTVSPost2010Prop56
140
1.0
102
RTVSPost2010PropOp56
 70
     1
102
RTVSPost2010Prop57
140
1.0
102
RTVSPost2010PropOp57
 70
     1
102
RTVSPropertyOp0
 70
     1
102
RTVSPropertyOp1
 70
     1
102
RTVSPropertyOp2
 70
     1
102
RTVSPropertyOp3
 70
     1
102
RTVSPropertyOp4
 70
     1
102
RTVSPropertyOp5
 70
     1
102
RTVSPropertyOp6
 70
     1
102
RTVSPropertyOp7
 70
     1
102
RTVSPropertyOp8
 70
     1
102
RTVSPropertyOp9
 70
     1
102
RTVSPropertyOp10
 70
     1
102
RTVSPropertyOp11
 70
     1
102
RTVSPropertyOp12
 70
     1
102
RTVSPropertyOp13
 70
     1
102
RTVSPropertyOp14
 70
     1
102
RTVSPropertyOp15
 70
     1
102
RTVSPropertyOp16
 70
     1
102
RTVSPropertyOp17
 70
     1
102
RTVSPropertyOp18
 70
     1
102
RTVSPropertyOp19
 70
     1
102
RTVSPropertyOp20
 70
     1
102
RTVSPropertyOp21
 70
     1
102
RTVSPropertyOp22
 70
     1
102
RTVSPropertyOp23
 70
     1
102
RTVSPropertyOp24
 70
     1
102
RTVSPropertyOp25
 70
     1
102
RTVSPropertyOp26
 70
     1
102
RTVSPropertyOp27
 70
     1
102
RTVSPropertyOp28
 70
     1
102
RTVSPropertyOp29
 70
     1
102
RTVSPropertyOp30
 70
     1
102
RTVSPropertyOp31
 70
     1
102
RTVSPropertyOp32
 70
     1
102
RTVSPropertyOp33
 70
     1
102
RTVSPropertyOp34
 70
     1
102
RTVSPropertyOp35
 70
     1
102
RTVSPropertyOp36
 70
     1
102
RTVSPropertyOp37
 70
     1
102
RTVSPropertyOp38
 70
     1
102
RTVSPropertyOp39
 70
     1
102
RTVSPropertyOp40
 70
     1
102
RTVSPropertyOp41
 70
     1
102
RTVSPropertyOp42
 70
     1
102
RTVSPropertyOp43
 70
     1
102
RTVSPropertyOp44
 70
     1
102
RTVSPropertyOp45
 70
     1
102
RTVSPropertyOp46
 70
     1
102
RTVSPropertyOp47
 70
     1
102
RTVSPropertyOp48
 70
     1
102
RTVSPropertyOp49
 70
     1
102
RTVSPropertyOp50
 70
     1
102
RTVSPropertyOp51
 70
     0
102
RTVSPropertyOp52
 70
     0
102
RTVSPropertyOp53
 70
     1
102
RTVSPropertyOp54
 70
     1
102
RTVSPropertyOp55
 70
     1
102
RTVSPropertyOp56
 70
     1
102
RTVSPropertyOp57
 70
     1
102
RTVSPropertyOp58
 70
     1
102
RTVSPropertyOp59
 70
     1
102
RTVSPropertyOp60
 70
     1
102
RTVSPropertyOp61
 70
     1
102
RTVSPropertyOp62
 70
     1
  0
XRECORD
  5
CC04
102
{ACAD_REACTORS
330
CC03
102
}
330
CC03
100
AcDbXrecord
280
     1
102
RTVSPost2010Prop28
280
     0
102
RTVSPost2010PropOp28
 70
     1
102
RTVSPost2010Prop29
280
     1
102
RTVSPost2010PropOp29
 70
     1
102
RTVSPost2010Prop30
280
     1
102
RTVSPost2010PropOp30
 70
     1
102
RTVSPost2010Prop31
280
     0
102
RTVSPost2010PropOp31
 70
     1
102
RTVSPost2010Prop32
280
     0
102
RTVSPost2010PropOp32
 70
     1
102
RTVSPost2010Prop33
280
     0
102
RTVSPost2010PropOp33
 70
     1
102
RTVSPost2010Prop34
280
     0
102
RTVSPost2010PropOp34
 70
     1
102
RTVSPost2010Prop35
280
     0
102
RTVSPost2010PropOp35
 70
     1
102
RTVSPost2010Prop36
280
     0
102
RTVSPost2010PropOp36
 70
     1
102
RTVSPost2010Prop37
 90
       50
102
RTVSPost2010PropOp37
 70
     1
102
RTVSPost2010Prop38
140
0.0
102
RTVSPost2010PropOp38
 70
     1
102
RTVSPost2010Prop39
140
1.0
102
RTVSPost2010PropOp39
 70
     1
102
RTVSPost2010Prop40
 90
        0
102
RTVSPost2010PropOp40
 70
     1
102
RTVSPost2010Prop41ColorIndex
 90
       18
102
RTVSPost2010Prop41ColorRGB
 90
        0
102
RTVSPost2010PropOp41
 70
     1
102
RTVSPost2010Prop42
 90
       50
102
RTVSPost2010PropOp42
 70
     1
102
RTVSPost2010Prop43
 90
        3
102
RTVSPost2010PropOp43
 70
     1
102
RTVSPost2010Prop44ColorIndex
 90
        5
102
RTVSPost2010Prop44ColorRGB
 90
      255
102
RTVSPost2010PropOp44
 70
     1
102
RTVSPost2010Prop45
280
     0
102
RTVSPost2010PropOp45
 70
     1
102
RTVSPost2010Prop46
 90
       50
102
RTVSPost2010PropOp46
 70
     1
102
RTVSPost2010Prop47
 90
       50
102
RTVSPost2010PropOp47
 70
     1
102
RTVSPost2010Prop48
 90
       50
102
RTVSPost2010PropOp48
 70
     1
102
RTVSPost2010Prop49
280
     0
102
RTVSPost2010PropOp49
 70
     1
102
RTVSPost2010Prop50
 90
       50
102
RTVSPost2010PropOp50
 70
     1
102
RTVSPost2010Prop51ColorIndex
 90
      256
102
RTVSPost2010Prop51ColorRGB
 90
-16777216
102
RTVSPost2010PropOp51
 70
     0
102
RTVSPost2010Prop52
140
1.0
102
RTVSPost2010PropOp52
 70
     0
102
RTVSPost2010Prop53
 90
        2
102
RTVSPost2010PropOp53
 70
     1
102
RTVSPost2010Prop54
  1
strokes_ogs.tif
102
RTVSPost2010PropOp54
 70
     1
102
RTVSPost2010Prop55
280
     0
102
RTVSPost2010PropOp55
 70
     1
102
RTVSPost2010Prop56
140
1.0
102
RTVSPost2010PropOp56
 70
     1
102
RTVSPost2010Prop57
140
1.0
102
RTVSPost2010PropOp57
 70
     1
102
RTVSPropertyOp0
 70
     1
102
RTVSPropertyOp1
 70
     1
102
RTVSPropertyOp2
 70
     1
102
RTVSPropertyOp3
 70
     1
102
RTVSPropertyOp4
 70
     1
102
RTVSPropertyOp5
 70
     1
102
RTVSPropertyOp6
 70
     1
102
RTVSPropertyOp7
 70
     1
102
RTVSPropertyOp8
 70
     1
102
RTVSPropertyOp9
 70
     1
102
RTVSPropertyOp10
 70
     1
102
RTVSPropertyOp11
 70
     1
102
RTVSPropertyOp12
 70
     1
102
RTVSPropertyOp13
 70
     1
102
RTVSPropertyOp14
 70
     1
102
RTVSPropertyOp15
 70
     1
102
RTVSPropertyOp16
 70
     1
102
RTVSPropertyOp17
 70
     1
102
RTVSPropertyOp18
 70
     1
102
RTVSPropertyOp19
 70
     1
102
RTVSPropertyOp20
 70
     1
102
RTVSPropertyOp21
 70
     1
102
RTVSPropertyOp22
 70
     1
102
RTVSPropertyOp23
 70
     1
102
RTVSPropertyOp24
 70
     1
102
RTVSPropertyOp25
 70
     1
102
RTVSPropertyOp26
 70
     1
102
RTVSPropertyOp27
 70
     1
102
RTVSPropertyOp28
 70
     1
102
RTVSPropertyOp29
 70
     1
102
RTVSPropertyOp30
 70
     1
102
RTVSPropertyOp31
 70
     1
102
RTVSPropertyOp32
 70
     1
102
RTVSPropertyOp33
 70
     1
102
RTVSPropertyOp34
 70
     1
102
RTVSPropertyOp35
 70
     1
102
RTVSPropertyOp36
 70
     1
102
RTVSPropertyOp37
 70
     1
102
RTVSPropertyOp38
 70
     1
102
RTVSPropertyOp39
 70
     1
102
RTVSPropertyOp40
 70
     1
102
RTVSPropertyOp41
 70
     1
102
RTVSPropertyOp42
 70
     1
102
RTVSPropertyOp43
 70
     1
102
RTVSPropertyOp44
 70
     1
102
RTVSPropertyOp45
 70
     1
102
RTVSPropertyOp46
 70
     1
102
RTVSPropertyOp47
 70
     1
102
RTVSPropertyOp48
 70
     1
102
RTVSPropertyOp49
 70
     1
102
RTVSPropertyOp50
 70
     1
102
RTVSPropertyOp51
 70
     0
102
RTVSPropertyOp52
 70
     0
102
RTVSPropertyOp53
 70
     1
102
RTVSPropertyOp54
 70
     1
102
RTVSPropertyOp55
 70
     1
102
RTVSPropertyOp56
 70
     1
102
RTVSPropertyOp57
 70
     1
102
RTVSPropertyOp58
 70
     1
102
RTVSPropertyOp59
 70
     1
102
RTVSPropertyOp60
 70
     1
102
RTVSPropertyOp61
 70
     1
102
RTVSPropertyOp62
 70
     1
  0
XRECORD
  5
CC06
102
{ACAD_REACTORS
330
CC05
102
}
330
CC05
100
AcDbXrecord
280
     1
102
RTVSPost2010Prop28
280
     0
102
RTVSPost2010PropOp28
 70
     1
102
RTVSPost2010Prop29
280
     1
102
RTVSPost2010PropOp29
 70
     1
102
RTVSPost2010Prop30
280
     1
102
RTVSPost2010PropOp30
 70
     1
102
RTVSPost2010Prop31
280
     0
102
RTVSPost2010PropOp31
 70
     1
102
RTVSPost2010Prop32
280
     0
102
RTVSPost2010PropOp32
 70
     1
102
RTVSPost2010Prop33
280
     0
102
RTVSPost2010PropOp33
 70
     1
102
RTVSPost2010Prop34
280
     0
102
RTVSPost2010PropOp34
 70
     1
102
RTVSPost2010Prop35
280
     0
102
RTVSPost2010PropOp35
 70
     1
102
RTVSPost2010Prop36
280
     0
102
RTVSPost2010PropOp36
 70
     1
102
RTVSPost2010Prop37
 90
       50
102
RTVSPost2010PropOp37
 70
     1
102
RTVSPost2010Prop38
140
0.0
102
RTVSPost2010PropOp38
 70
     1
102
RTVSPost2010Prop39
140
1.0
102
RTVSPost2010PropOp39
 70
     1
102
RTVSPost2010Prop40
 90
        0
102
RTVSPost2010PropOp40
 70
     1
102
RTVSPost2010Prop41ColorIndex
 90
       18
102
RTVSPost2010Prop41ColorRGB
 90
        0
102
RTVSPost2010PropOp41
 70
     1
102
RTVSPost2010Prop42
 90
       50
102
RTVSPost2010PropOp42
 70
     1
102
RTVSPost2010Prop43
 90
        3
102
RTVSPost2010PropOp43
 70
     1
102
RTVSPost2010Prop44ColorIndex
 90
        5
102
RTVSPost2010Prop44ColorRGB
 90
      255
102
RTVSPost2010PropOp44
 70
     1
102
RTVSPost2010Prop45
280
     0
102
RTVSPost2010PropOp45
 70
     1
102
RTVSPost2010Prop46
 90
       50
102
RTVSPost2010PropOp46
 70
     1
102
RTVSPost2010Prop47
 90
       50
102
RTVSPost2010PropOp47
 70
     1
102
RTVSPost2010Prop48
 90
       50
102
RTVSPost2010PropOp48
 70
     1
102
RTVSPost2010Prop49
280
     0
102
RTVSPost2010PropOp49
 70
     1
102
RTVSPost2010Prop50
 90
       50
102
RTVSPost2010PropOp50
 70
     1
102
RTVSPost2010Prop51ColorIndex
 90
      256
102
RTVSPost2010Prop51ColorRGB
 90
-16777216
102
RTVSPost2010PropOp51
 70
     0
102
RTVSPost2010Prop52
140
1.0
102
RTVSPost2010PropOp52
 70
     0
102
RTVSPost2010Prop53
 90
        2
102
RTVSPost2010PropOp53
 70
     1
102
RTVSPost2010Prop54
  1
strokes_ogs.tif
102
RTVSPost2010PropOp54
 70
     1
102
RTVSPost2010Prop55
280
     0
102
RTVSPost2010PropOp55
 70
     1
102
RTVSPost2010Prop56
140
1.0
102
RTVSPost2010PropOp56
 70
     1
102
RTVSPost2010Prop57
140
1.0
102
RTVSPost2010PropOp57
 70
     1
102
RTVSPropertyOp0
 70
     1
102
RTVSPropertyOp1
 70
     1
102
RTVSPropertyOp2
 70
     1
102
RTVSPropertyOp3
 70
     1
102
RTVSPropertyOp4
 70
     1
102
RTVSPropertyOp5
 70
     1
102
RTVSPropertyOp6
 70
     1
102
RTVSPropertyOp7
 70
     1
102
RTVSPropertyOp8
 70
     1
102
RTVSPropertyOp9
 70
     1
102
RTVSPropertyOp10
 70
     1
102
RTVSPropertyOp11
 70
     1
102
RTVSPropertyOp12
 70
     1
102
RTVSPropertyOp13
 70
     1
102
RTVSPropertyOp14
 70
     1
102
RTVSPropertyOp15
 70
     1
102
RTVSPropertyOp16
 70
     1
102
RTVSPropertyOp17
 70
     1
102
RTVSPropertyOp18
 70
     1
102
RTVSPropertyOp19
 70
     1
102
RTVSPropertyOp20
 70
     1
102
RTVSPropertyOp21
 70
     1
102
RTVSPropertyOp22
 70
     1
102
RTVSPropertyOp23
 70
     1
102
RTVSPropertyOp24
 70
     1
102
RTVSPropertyOp25
 70
     1
102
RTVSPropertyOp26
 70
     1
102
RTVSPropertyOp27
 70
     1
102
RTVSPropertyOp28
 70
     1
102
RTVSPropertyOp29
 70
     1
102
RTVSPropertyOp30
 70
     1
102
RTVSPropertyOp31
 70
     1
102
RTVSPropertyOp32
 70
     1
102
RTVSPropertyOp33
 70
     1
102
RTVSPropertyOp34
 70
     1
102
RTVSPropertyOp35
 70
     1
102
RTVSPropertyOp36
 70
     1
102
RTVSPropertyOp37
 70
     1
102
RTVSPropertyOp38
 70
     1
102
RTVSPropertyOp39
 70
     1
102
RTVSPropertyOp40
 70
     1
102
RTVSPropertyOp41
 70
     1
102
RTVSPropertyOp42
 70
     1
102
RTVSPropertyOp43
 70
     1
102
RTVSPropertyOp44
 70
     1
102
RTVSPropertyOp45
 70
     1
102
RTVSPropertyOp46
 70
     1
102
RTVSPropertyOp47
 70
     1
102
RTVSPropertyOp48
 70
     1
102
RTVSPropertyOp49
 70
     1
102
RTVSPropertyOp50
 70
     1
102
RTVSPropertyOp51
 70
     0
102
RTVSPropertyOp52
 70
     0
102
RTVSPropertyOp53
 70
     1
102
RTVSPropertyOp54
 70
     1
102
RTVSPropertyOp55
 70
     1
102
RTVSPropertyOp56
 70
     1
102
RTVSPropertyOp57
 70
     1
102
RTVSPropertyOp58
 70
     1
102
RTVSPropertyOp59
 70
     1
102
RTVSPropertyOp60
 70
     1
102
RTVSPropertyOp61
 70
     1
102
RTVSPropertyOp62
 70
     1
  0
XRECORD
  5
CC08
102
{ACAD_REACTORS
330
CC07
102
}
330
CC07
100
AcDbXrecord
280
     1
102
RTVSPost2010Prop28
280
     0
102
RTVSPost2010PropOp28
 70
     1
102
RTVSPost2010Prop29
280
     1
102
RTVSPost2010PropOp29
 70
     1
102
RTVSPost2010Prop30
280
     1
102
RTVSPost2010PropOp30
 70
     1
102
RTVSPost2010Prop31
280
     0
102
RTVSPost2010PropOp31
 70
     1
102
RTVSPost2010Prop32
280
     0
102
RTVSPost2010PropOp32
 70
     1
102
RTVSPost2010Prop33
280
     0
102
RTVSPost2010PropOp33
 70
     1
102
RTVSPost2010Prop34
280
     0
102
RTVSPost2010PropOp34
 70
     1
102
RTVSPost2010Prop35
280
     0
102
RTVSPost2010PropOp35
 70
     1
102
RTVSPost2010Prop36
280
     0
102
RTVSPost2010PropOp36
 70
     1
102
RTVSPost2010Prop37
 90
       50
102
RTVSPost2010PropOp37
 70
     1
102
RTVSPost2010Prop38
140
0.0
102
RTVSPost2010PropOp38
 70
     1
102
RTVSPost2010Prop39
140
1.0
102
RTVSPost2010PropOp39
 70
     1
102
RTVSPost2010Prop40
 90
        0
102
RTVSPost2010PropOp40
 70
     1
102
RTVSPost2010Prop41ColorIndex
 90
       18
102
RTVSPost2010Prop41ColorRGB
 90
        0
102
RTVSPost2010PropOp41
 70
     1
102
RTVSPost2010Prop42
 90
       50
102
RTVSPost2010PropOp42
 70
     1
102
RTVSPost2010Prop43
 90
        3
102
RTVSPost2010PropOp43
 70
     1
102
RTVSPost2010Prop44ColorIndex
 90
        5
102
RTVSPost2010Prop44ColorRGB
 90
      255
102
RTVSPost2010PropOp44
 70
     1
102
RTVSPost2010Prop45
280
     0
102
RTVSPost2010PropOp45
 70
     1
102
RTVSPost2010Prop46
 90
       50
102
RTVSPost2010PropOp46
 70
     1
102
RTVSPost2010Prop47
 90
       50
102
RTVSPost2010PropOp47
 70
     1
102
RTVSPost2010Prop48
 90
       50
102
RTVSPost2010PropOp48
 70
     1
102
RTVSPost2010Prop49
280
     0
102
RTVSPost2010PropOp49
 70
     1
102
RTVSPost2010Prop50
 90
       50
102
RTVSPost2010PropOp50
 70
     1
102
RTVSPost2010Prop51ColorIndex
 90
      256
102
RTVSPost2010Prop51ColorRGB
 90
-16777216
102
RTVSPost2010PropOp51
 70
     0
102
RTVSPost2010Prop52
140
1.0
102
RTVSPost2010PropOp52
 70
     0
102
RTVSPost2010Prop53
 90
        2
102
RTVSPost2010PropOp53
 70
     1
102
RTVSPost2010Prop54
  1
strokes_ogs.tif
102
RTVSPost2010PropOp54
 70
     1
102
RTVSPost2010Prop55
280
     0
102
RTVSPost2010PropOp55
 70
     1
102
RTVSPost2010Prop56
140
1.0
102
RTVSPost2010PropOp56
 70
     1
102
RTVSPost2010Prop57
140
1.0
102
RTVSPost2010PropOp57
 70
     1
102
RTVSPropertyOp0
 70
     1
102
RTVSPropertyOp1
 70
     1
102
RTVSPropertyOp2
 70
     1
102
RTVSPropertyOp3
 70
     1
102
RTVSPropertyOp4
 70
     1
102
RTVSPropertyOp5
 70
     1
102
RTVSPropertyOp6
 70
     1
102
RTVSPropertyOp7
 70
     1
102
RTVSPropertyOp8
 70
     1
102
RTVSPropertyOp9
 70
     1
102
RTVSPropertyOp10
 70
     1
102
RTVSPropertyOp11
 70
     1
102
RTVSPropertyOp12
 70
     1
102
RTVSPropertyOp13
 70
     1
102
RTVSPropertyOp14
 70
     1
102
RTVSPropertyOp15
 70
     1
102
RTVSPropertyOp16
 70
     1
102
RTVSPropertyOp17
 70
     1
102
RTVSPropertyOp18
 70
     1
102
RTVSPropertyOp19
 70
     1
102
RTVSPropertyOp20
 70
     1
102
RTVSPropertyOp21
 70
     1
102
RTVSPropertyOp22
 70
     1
102
RTVSPropertyOp23
 70
     1
102
RTVSPropertyOp24
 70
     1
102
RTVSPropertyOp25
 70
     1
102
RTVSPropertyOp26
 70
     1
102
RTVSPropertyOp27
 70
     1
102
RTVSPropertyOp28
 70
     1
102
RTVSPropertyOp29
 70
     1
102
RTVSPropertyOp30
 70
     1
102
RTVSPropertyOp31
 70
     1
102
RTVSPropertyOp32
 70
     1
102
RTVSPropertyOp33
 70
     1
102
RTVSPropertyOp34
 70
     1
102
RTVSPropertyOp35
 70
     1
102
RTVSPropertyOp36
 70
     1
102
RTVSPropertyOp37
 70
     1
102
RTVSPropertyOp38
 70
     1
102
RTVSPropertyOp39
 70
     1
102
RTVSPropertyOp40
 70
     1
102
RTVSPropertyOp41
 70
     1
102
RTVSPropertyOp42
 70
     1
102
RTVSPropertyOp43
 70
     1
102
RTVSPropertyOp44
 70
     1
102
RTVSPropertyOp45
 70
     1
102
RTVSPropertyOp46
 70
     1
102
RTVSPropertyOp47
 70
     1
102
RTVSPropertyOp48
 70
     1
102
RTVSPropertyOp49
 70
     1
102
RTVSPropertyOp50
 70
     1
102
RTVSPropertyOp51
 70
     0
102
RTVSPropertyOp52
 70
     0
102
RTVSPropertyOp53
 70
     1
102
RTVSPropertyOp54
 70
     1
102
RTVSPropertyOp55
 70
     1
102
RTVSPropertyOp56
 70
     1
102
RTVSPropertyOp57
 70
     1
102
RTVSPropertyOp58
 70
     1
102
RTVSPropertyOp59
 70
     1
102
RTVSPropertyOp60
 70
     1
102
RTVSPropertyOp61
 70
     1
102
RTVSPropertyOp62
 70
     1
  0
XRECORD
  5
CC10
102
{ACAD_REACTORS
330
CC0F
102
}
330
CC0F
100
AcDbXrecord
280
     1
102
RTVSPost2010Prop28
280
     0
102
RTVSPost2010PropOp28
 70
     1
102
RTVSPost2010Prop29
280
     1
102
RTVSPost2010PropOp29
 70
     1
102
RTVSPost2010Prop30
280
     1
102
RTVSPost2010PropOp30
 70
     1
102
RTVSPost2010Prop31
280
     0
102
RTVSPost2010PropOp31
 70
     1
102
RTVSPost2010Prop32
280
     0
102
RTVSPost2010PropOp32
 70
     1
102
RTVSPost2010Prop33
280
     0
102
RTVSPost2010PropOp33
 70
     1
102
RTVSPost2010Prop34
280
     0
102
RTVSPost2010PropOp34
 70
     1
102
RTVSPost2010Prop35
280
     0
102
RTVSPost2010PropOp35
 70
     1
102
RTVSPost2010Prop36
280
     0
102
RTVSPost2010PropOp36
 70
     1
102
RTVSPost2010Prop37
 90
       50
102
RTVSPost2010PropOp37
 70
     1
102
RTVSPost2010Prop38
140
0.0
102
RTVSPost2010PropOp38
 70
     1
102
RTVSPost2010Prop39
140
1.0
102
RTVSPost2010PropOp39
 70
     1
102
RTVSPost2010Prop40
 90
        0
102
RTVSPost2010PropOp40
 70
     1
102
RTVSPost2010Prop41ColorIndex
 90
       18
102
RTVSPost2010Prop41ColorRGB
 90
        0
102
RTVSPost2010PropOp41
 70
     1
102
RTVSPost2010Prop42
 90
       50
102
RTVSPost2010PropOp42
 70
     1
102
RTVSPost2010Prop43
 90
        3
102
RTVSPost2010PropOp43
 70
     1
102
RTVSPost2010Prop44ColorIndex
 90
        5
102
RTVSPost2010Prop44ColorRGB
 90
      255
102
RTVSPost2010PropOp44
 70
     1
102
RTVSPost2010Prop45
280
     0
102
RTVSPost2010PropOp45
 70
     1
102
RTVSPost2010Prop46
 90
       50
102
RTVSPost2010PropOp46
 70
     1
102
RTVSPost2010Prop47
 90
       50
102
RTVSPost2010PropOp47
 70
     1
102
RTVSPost2010Prop48
 90
       50
102
RTVSPost2010PropOp48
 70
     1
102
RTVSPost2010Prop49
280
     0
102
RTVSPost2010PropOp49
 70
     1
102
RTVSPost2010Prop50
 90
       50
102
RTVSPost2010PropOp50
 70
     1
102
RTVSPost2010Prop51ColorIndex
 90
      256
102
RTVSPost2010Prop51ColorRGB
 90
-16777216
102
RTVSPost2010PropOp51
 70
     0
102
RTVSPost2010Prop52
140
1.0
102
RTVSPost2010PropOp52
 70
     0
102
RTVSPost2010Prop53
 90
        2
102
RTVSPost2010PropOp53
 70
     1
102
RTVSPost2010Prop54
  1
strokes_ogs.tif
102
RTVSPost2010PropOp54
 70
     1
102
RTVSPost2010Prop55
280
     0
102
RTVSPost2010PropOp55
 70
     1
102
RTVSPost2010Prop56
140
1.0
102
RTVSPost2010PropOp56
 70
     1
102
RTVSPost2010Prop57
140
1.0
102
RTVSPost2010PropOp57
 70
     1
102
RTVSPropertyOp0
 70
     1
102
RTVSPropertyOp1
 70
     1
102
RTVSPropertyOp2
 70
     1
102
RTVSPropertyOp3
 70
     1
102
RTVSPropertyOp4
 70
     1
102
RTVSPropertyOp5
 70
     1
102
RTVSPropertyOp6
 70
     1
102
RTVSPropertyOp7
 70
     1
102
RTVSPropertyOp8
 70
     1
102
RTVSPropertyOp9
 70
     1
102
RTVSPropertyOp10
 70
     1
102
RTVSPropertyOp11
 70
     1
102
RTVSPropertyOp12
 70
     1
102
RTVSPropertyOp13
 70
     1
102
RTVSPropertyOp14
 70
     1
102
RTVSPropertyOp15
 70
     1
102
RTVSPropertyOp16
 70
     1
102
RTVSPropertyOp17
 70
     1
102
RTVSPropertyOp18
 70
     1
102
RTVSPropertyOp19
 70
     1
102
RTVSPropertyOp20
 70
     1
102
RTVSPropertyOp21
 70
     1
102
RTVSPropertyOp22
 70
     1
102
RTVSPropertyOp23
 70
     1
102
RTVSPropertyOp24
 70
     1
102
RTVSPropertyOp25
 70
     1
102
RTVSPropertyOp26
 70
     1
102
RTVSPropertyOp27
 70
     1
102
RTVSPropertyOp28
 70
     1
102
RTVSPropertyOp29
 70
     1
102
RTVSPropertyOp30
 70
     1
102
RTVSPropertyOp31
 70
     1
102
RTVSPropertyOp32
 70
     1
102
RTVSPropertyOp33
 70
     1
102
RTVSPropertyOp34
 70
     1
102
RTVSPropertyOp35
 70
     1
102
RTVSPropertyOp36
 70
     1
102
RTVSPropertyOp37
 70
     1
102
RTVSPropertyOp38
 70
     1
102
RTVSPropertyOp39
 70
     1
102
RTVSPropertyOp40
 70
     1
102
RTVSPropertyOp41
 70
     1
102
RTVSPropertyOp42
 70
     1
102
RTVSPropertyOp43
 70
     1
102
RTVSPropertyOp44
 70
     1
102
RTVSPropertyOp45
 70
     1
102
RTVSPropertyOp46
 70
     1
102
RTVSPropertyOp47
 70
     1
102
RTVSPropertyOp48
 70
     1
102
RTVSPropertyOp49
 70
     1
102
RTVSPropertyOp50
 70
     1
102
RTVSPropertyOp51
 70
     0
102
RTVSPropertyOp52
 70
     0
102
RTVSPropertyOp53
 70
     1
102
RTVSPropertyOp54
 70
     1
102
RTVSPropertyOp55
 70
     1
102
RTVSPropertyOp56
 70
     1
102
RTVSPropertyOp57
 70
     1
102
RTVSPropertyOp58
 70
     1
102
RTVSPropertyOp59
 70
     1
102
RTVSPropertyOp60
 70
     1
102
RTVSPropertyOp61
 70
     1
102
RTVSPropertyOp62
 70
     1
  0
XRECORD
  5
CC2C
102
{ACAD_REACTORS
330
CC2B
102
}
330
CC2B
100
AcDbXrecord
280
     1
102
RTVSPost2010Prop28
280
     0
102
RTVSPost2010PropOp28
 70
     1
102
RTVSPost2010Prop29
280
     1
102
RTVSPost2010PropOp29
 70
     1
102
RTVSPost2010Prop30
280
     1
102
RTVSPost2010PropOp30
 70
     1
102
RTVSPost2010Prop31
280
     0
102
RTVSPost2010PropOp31
 70
     1
102
RTVSPost2010Prop32
280
     0
102
RTVSPost2010PropOp32
 70
     1
102
RTVSPost2010Prop33
280
     0
102
RTVSPost2010PropOp33
 70
     1
102
RTVSPost2010Prop34
280
     0
102
RTVSPost2010PropOp34
 70
     1
102
RTVSPost2010Prop35
280
     0
102
RTVSPost2010PropOp35
 70
     1
102
RTVSPost2010Prop36
280
     0
102
RTVSPost2010PropOp36
 70
     1
102
RTVSPost2010Prop37
 90
       50
102
RTVSPost2010PropOp37
 70
     0
102
RTVSPost2010Prop38
140
0.0
102
RTVSPost2010PropOp38
 70
     0
102
RTVSPost2010Prop39
140
1.0
102
RTVSPost2010PropOp39
 70
     0
102
RTVSPost2010Prop40
 90
        0
102
RTVSPost2010PropOp40
 70
     0
102
RTVSPost2010Prop41ColorIndex
 90
       18
102
RTVSPost2010Prop41ColorRGB
 90
        0
102
RTVSPost2010PropOp41
 70
     0
102
RTVSPost2010Prop42
 90
       50
102
RTVSPost2010PropOp42
 70
     0
102
RTVSPost2010Prop43
 90
        3
102
RTVSPost2010PropOp43
 70
     0
102
RTVSPost2010Prop44ColorIndex
 90
        5
102
RTVSPost2010Prop44ColorRGB
 90
      255
102
RTVSPost2010PropOp44
 70
     0
102
RTVSPost2010Prop45
280
     0
102
RTVSPost2010PropOp45
 70
     1
102
RTVSPost2010Prop46
 90
       50
102
RTVSPost2010PropOp46
 70
     0
102
RTVSPost2010Prop47
 90
       50
102
RTVSPost2010PropOp47
 70
     0
102
RTVSPost2010Prop48
 90
       50
102
RTVSPost2010PropOp48
 70
     0
102
RTVSPost2010Prop49
280
     0
102
RTVSPost2010PropOp49
 70
     1
102
RTVSPost2010Prop50
 90
       50
102
RTVSPost2010PropOp50
 70
     0
102
RTVSPost2010Prop51ColorIndex
 90
      256
102
RTVSPost2010Prop51ColorRGB
 90
-16777216
102
RTVSPost2010PropOp51
 70
     0
102
RTVSPost2010Prop52
140
1.0
102
RTVSPost2010PropOp52
 70
     0
102
RTVSPost2010Prop53
 90
        2
102
RTVSPost2010PropOp53
 70
     0
102
RTVSPost2010Prop54
  1
strokes_ogs.tif
102
RTVSPost2010PropOp54
 70
     0
102
RTVSPost2010Prop55
280
     0
102
RTVSPost2010PropOp55
 70
     1
102
RTVSPost2010Prop56
140
1.0
102
RTVSPost2010PropOp56
 70
     0
102
RTVSPost2010Prop57
140
1.0
102
RTVSPost2010PropOp57
 70
     0
102
RTVSPropertyOp0
 70
     0
102
RTVSPropertyOp1
 70
     0
102
RTVSPropertyOp2
 70
     0
102
RTVSPropertyOp3
 70
     0
102
RTVSPropertyOp4
 70
     0
102
RTVSPropertyOp5
 70
     0
102
RTVSPropertyOp6
 70
     0
102
RTVSPropertyOp7
 70
     0
102
RTVSPropertyOp8
 70
     0
102
RTVSPropertyOp9
 70
     0
102
RTVSPropertyOp10
 70
     0
102
RTVSPropertyOp11
 70
     0
102
RTVSPropertyOp12
 70
     0
102
RTVSPropertyOp13
 70
     0
102
RTVSPropertyOp14
 70
     2
102
RTVSPropertyOp15
 70
     0
102
RTVSPropertyOp16
 70
     0
102
RTVSPropertyOp17
 70
     0
102
RTVSPropertyOp18
 70
     0
102
RTVSPropertyOp19
 70
     0
102
RTVSPropertyOp20
 70
     0
102
RTVSPropertyOp21
 70
     0
102
RTVSPropertyOp22
 70
     0
102
RTVSPropertyOp23
 70
     0
102
RTVSPropertyOp24
 70
     0
102
RTVSPropertyOp25
 70
     0
102
RTVSPropertyOp26
 70
     0
102
RTVSPropertyOp27
 70
     0
102
RTVSPropertyOp28
 70
     1
102
RTVSPropertyOp29
 70
     1
102
RTVSPropertyOp30
 70
     1
102
RTVSPropertyOp31
 70
     1
102
RTVSPropertyOp32
 70
     1
102
RTVSPropertyOp33
 70
     1
102
RTVSPropertyOp34
 70
     1
102
RTVSPropertyOp35
 70
     1
102
RTVSPropertyOp36
 70
     1
102
RTVSPropertyOp37
 70
     0
102
RTVSPropertyOp38
 70
     0
102
RTVSPropertyOp39
 70
     0
102
RTVSPropertyOp40
 70
     0
102
RTVSPropertyOp41
 70
     0
102
RTVSPropertyOp42
 70
     0
102
RTVSPropertyOp43
 70
     0
102
RTVSPropertyOp44
 70
     0
102
RTVSPropertyOp45
 70
     1
102
RTVSPropertyOp46
 70
     0
102
RTVSPropertyOp47
 70
     0
102
RTVSPropertyOp48
 70
     0
102
RTVSPropertyOp49
 70
     1
102
RTVSPropertyOp50
 70
     0
102
RTVSPropertyOp51
 70
     0
102
RTVSPropertyOp52
 70
     0
102
RTVSPropertyOp53
 70
     0
102
RTVSPropertyOp54
 70
     0
102
RTVSPropertyOp55
 70
     1
102
RTVSPropertyOp56
 70
     0
102
RTVSPropertyOp57
 70
     0
102
RTVSPropertyOp58
 70
     0
102
RTVSPropertyOp59
 70
     0
102
RTVSPropertyOp60
 70
     0
102
RTVSPropertyOp61
 70
     0
102
RTVSPropertyOp62
 70
     0
  0
XRECORD
  5
CC1C
102
{ACAD_REACTORS
330
CC1B
102
}
330
CC1B
100
AcDbXrecord
280
     1
102
RTVSPost2010Prop28
280
     0
102
RTVSPost2010PropOp28
 70
     1
102
RTVSPost2010Prop29
280
     1
102
RTVSPost2010PropOp29
 70
     1
102
RTVSPost2010Prop30
280
     1
102
RTVSPost2010PropOp30
 70
     1
102
RTVSPost2010Prop31
280
     0
102
RTVSPost2010PropOp31
 70
     1
102
RTVSPost2010Prop32
280
     0
102
RTVSPost2010PropOp32
 70
     1
102
RTVSPost2010Prop33
280
     0
102
RTVSPost2010PropOp33
 70
     1
102
RTVSPost2010Prop34
280
     0
102
RTVSPost2010PropOp34
 70
     1
102
RTVSPost2010Prop35
280
     0
102
RTVSPost2010PropOp35
 70
     1
102
RTVSPost2010Prop36
280
     0
102
RTVSPost2010PropOp36
 70
     1
102
RTVSPost2010Prop37
 90
       50
102
RTVSPost2010PropOp37
 70
     1
102
RTVSPost2010Prop38
140
0.0
102
RTVSPost2010PropOp38
 70
     1
102
RTVSPost2010Prop39
140
1.0
102
RTVSPost2010PropOp39
 70
     1
102
RTVSPost2010Prop40
 90
        0
102
RTVSPost2010PropOp40
 70
     1
102
RTVSPost2010Prop41ColorIndex
 90
       18
102
RTVSPost2010Prop41ColorRGB
 90
        0
102
RTVSPost2010PropOp41
 70
     1
102
RTVSPost2010Prop42
 90
       50
102
RTVSPost2010PropOp42
 70
     1
102
RTVSPost2010Prop43
 90
        3
102
RTVSPost2010PropOp43
 70
     1
102
RTVSPost2010Prop44ColorIndex
 90
        5
102
RTVSPost2010Prop44ColorRGB
 90
      255
102
RTVSPost2010PropOp44
 70
     1
102
RTVSPost2010Prop45
280
     0
102
RTVSPost2010PropOp45
 70
     1
102
RTVSPost2010Prop46
 90
       50
102
RTVSPost2010PropOp46
 70
     1
102
RTVSPost2010Prop47
 90
       50
102
RTVSPost2010PropOp47
 70
     1
102
RTVSPost2010Prop48
 90
       50
102
RTVSPost2010PropOp48
 70
     1
102
RTVSPost2010Prop49
280
     0
102
RTVSPost2010PropOp49
 70
     1
102
RTVSPost2010Prop50
 90
       50
102
RTVSPost2010PropOp50
 70
     1
102
RTVSPost2010Prop51ColorIndex
 90
      256
102
RTVSPost2010Prop51ColorRGB
 90
-16777216
102
RTVSPost2010PropOp51
 70
     0
102
RTVSPost2010Prop52
140
1.0
102
RTVSPost2010PropOp52
 70
     0
102
RTVSPost2010Prop53
 90
        2
102
RTVSPost2010PropOp53
 70
     1
102
RTVSPost2010Prop54
  1
strokes_ogs.tif
102
RTVSPost2010PropOp54
 70
     1
102
RTVSPost2010Prop55
280
     0
102
RTVSPost2010PropOp55
 70
     1
102
RTVSPost2010Prop56
140
1.0
102
RTVSPost2010PropOp56
 70
     1
102
RTVSPost2010Prop57
140
1.0
102
RTVSPost2010PropOp57
 70
     1
102
RTVSPropertyOp0
 70
     1
102
RTVSPropertyOp1
 70
     1
102
RTVSPropertyOp2
 70
     1
102
RTVSPropertyOp3
 70
     1
102
RTVSPropertyOp4
 70
     1
102
RTVSPropertyOp5
 70
     1
102
RTVSPropertyOp6
 70
     1
102
RTVSPropertyOp7
 70
     1
102
RTVSPropertyOp8
 70
     1
102
RTVSPropertyOp9
 70
     1
102
RTVSPropertyOp10
 70
     1
102
RTVSPropertyOp11
 70
     1
102
RTVSPropertyOp12
 70
     1
102
RTVSPropertyOp13
 70
     1
102
RTVSPropertyOp14
 70
     1
102
RTVSPropertyOp15
 70
     1
102
RTVSPropertyOp16
 70
     1
102
RTVSPropertyOp17
 70
     1
102
RTVSPropertyOp18
 70
     1
102
RTVSPropertyOp19
 70
     1
102
RTVSPropertyOp20
 70
     1
102
RTVSPropertyOp21
 70
     1
102
RTVSPropertyOp22
 70
     1
102
RTVSPropertyOp23
 70
     1
102
RTVSPropertyOp24
 70
     1
102
RTVSPropertyOp25
 70
     1
102
RTVSPropertyOp26
 70
     1
102
RTVSPropertyOp27
 70
     1
102
RTVSPropertyOp28
 70
     1
102
RTVSPropertyOp29
 70
     1
102
RTVSPropertyOp30
 70
     1
102
RTVSPropertyOp31
 70
     1
102
RTVSPropertyOp32
 70
     1
102
RTVSPropertyOp33
 70
     1
102
RTVSPropertyOp34
 70
     1
102
RTVSPropertyOp35
 70
     1
102
RTVSPropertyOp36
 70
     1
102
RTVSPropertyOp37
 70
     1
102
RTVSPropertyOp38
 70
     1
102
RTVSPropertyOp39
 70
     1
102
RTVSPropertyOp40
 70
     1
102
RTVSPropertyOp41
 70
     1
102
RTVSPropertyOp42
 70
     1
102
RTVSPropertyOp43
 70
     1
102
RTVSPropertyOp44
 70
     1
102
RTVSPropertyOp45
 70
     1
102
RTVSPropertyOp46
 70
     1
102
RTVSPropertyOp47
 70
     1
102
RTVSPropertyOp48
 70
     1
102
RTVSPropertyOp49
 70
     1
102
RTVSPropertyOp50
 70
     1
102
RTVSPropertyOp51
 70
     0
102
RTVSPropertyOp52
 70
     0
102
RTVSPropertyOp53
 70
     1
102
RTVSPropertyOp54
 70
     1
102
RTVSPropertyOp55
 70
     1
102
RTVSPropertyOp56
 70
     1
102
RTVSPropertyOp57
 70
     1
102
RTVSPropertyOp58
 70
     1
102
RTVSPropertyOp59
 70
     1
102
RTVSPropertyOp60
 70
     1
102
RTVSPropertyOp61
 70
     1
102
RTVSPropertyOp62
 70
     1
  0
XRECORD
  5
CC2E
102
{ACAD_REACTORS
330
CC2D
102
}
330
CC2D
100
AcDbXrecord
280
     1
102
RTVSPost2010Prop28
280
     0
102
RTVSPost2010PropOp28
 70
     1
102
RTVSPost2010Prop29
280
     1
102
RTVSPost2010PropOp29
 70
     1
102
RTVSPost2010Prop30
280
     1
102
RTVSPost2010PropOp30
 70
     1
102
RTVSPost2010Prop31
280
     0
102
RTVSPost2010PropOp31
 70
     1
102
RTVSPost2010Prop32
280
     0
102
RTVSPost2010PropOp32
 70
     1
102
RTVSPost2010Prop33
280
     0
102
RTVSPost2010PropOp33
 70
     1
102
RTVSPost2010Prop34
280
     0
102
RTVSPost2010PropOp34
 70
     1
102
RTVSPost2010Prop35
280
     0
102
RTVSPost2010PropOp35
 70
     1
102
RTVSPost2010Prop36
280
     0
102
RTVSPost2010PropOp36
 70
     1
102
RTVSPost2010Prop37
 90
       50
102
RTVSPost2010PropOp37
 70
     0
102
RTVSPost2010Prop38
140
0.0
102
RTVSPost2010PropOp38
 70
     0
102
RTVSPost2010Prop39
140
1.0
102
RTVSPost2010PropOp39
 70
     0
102
RTVSPost2010Prop40
 90
        0
102
RTVSPost2010PropOp40
 70
     0
102
RTVSPost2010Prop41ColorIndex
 90
       18
102
RTVSPost2010Prop41ColorRGB
 90
        0
102
RTVSPost2010PropOp41
 70
     0
102
RTVSPost2010Prop42
 90
       50
102
RTVSPost2010PropOp42
 70
     0
102
RTVSPost2010Prop43
 90
        3
102
RTVSPost2010PropOp43
 70
     0
102
RTVSPost2010Prop44ColorIndex
 90
        5
102
RTVSPost2010Prop44ColorRGB
 90
      255
102
RTVSPost2010PropOp44
 70
     0
102
RTVSPost2010Prop45
280
     0
102
RTVSPost2010PropOp45
 70
     1
102
RTVSPost2010Prop46
 90
       50
102
RTVSPost2010PropOp46
 70
     0
102
RTVSPost2010Prop47
 90
       50
102
RTVSPost2010PropOp47
 70
     0
102
RTVSPost2010Prop48
 90
       50
102
RTVSPost2010PropOp48
 70
     0
102
RTVSPost2010Prop49
280
     0
102
RTVSPost2010PropOp49
 70
     1
102
RTVSPost2010Prop50
 90
       50
102
RTVSPost2010PropOp50
 70
     0
102
RTVSPost2010Prop51ColorIndex
 90
      256
102
RTVSPost2010Prop51ColorRGB
 90
-16777216
102
RTVSPost2010PropOp51
 70
     0
102
RTVSPost2010Prop52
140
1.0
102
RTVSPost2010PropOp52
 70
     0
102
RTVSPost2010Prop53
 90
        2
102
RTVSPost2010PropOp53
 70
     0
102
RTVSPost2010Prop54
  1
strokes_ogs.tif
102
RTVSPost2010PropOp54
 70
     0
102
RTVSPost2010Prop55
280
     0
102
RTVSPost2010PropOp55
 70
     1
102
RTVSPost2010Prop56
140
1.0
102
RTVSPost2010PropOp56
 70
     0
102
RTVSPost2010Prop57
140
1.0
102
RTVSPost2010PropOp57
 70
     0
102
RTVSPropertyOp0
 70
     0
102
RTVSPropertyOp1
 70
     0
102
RTVSPropertyOp2
 70
     0
102
RTVSPropertyOp3
 70
     0
102
RTVSPropertyOp4
 70
     0
102
RTVSPropertyOp5
 70
     0
102
RTVSPropertyOp6
 70
     0
102
RTVSPropertyOp7
 70
     0
102
RTVSPropertyOp8
 70
     0
102
RTVSPropertyOp9
 70
     0
102
RTVSPropertyOp10
 70
     0
102
RTVSPropertyOp11
 70
     0
102
RTVSPropertyOp12
 70
     0
102
RTVSPropertyOp13
 70
     0
102
RTVSPropertyOp14
 70
     2
102
RTVSPropertyOp15
 70
     0
102
RTVSPropertyOp16
 70
     0
102
RTVSPropertyOp17
 70
     0
102
RTVSPropertyOp18
 70
     0
102
RTVSPropertyOp19
 70
     0
102
RTVSPropertyOp20
 70
     0
102
RTVSPropertyOp21
 70
     0
102
RTVSPropertyOp22
 70
     0
102
RTVSPropertyOp23
 70
     0
102
RTVSPropertyOp24
 70
     0
102
RTVSPropertyOp25
 70
     0
102
RTVSPropertyOp26
 70
     0
102
RTVSPropertyOp27
 70
     0
102
RTVSPropertyOp28
 70
     1
102
RTVSPropertyOp29
 70
     1
102
RTVSPropertyOp30
 70
     1
102
RTVSPropertyOp31
 70
     1
102
RTVSPropertyOp32
 70
     1
102
RTVSPropertyOp33
 70
     1
102
RTVSPropertyOp34
 70
     1
102
RTVSPropertyOp35
 70
     1
102
RTVSPropertyOp36
 70
     1
102
RTVSPropertyOp37
 70
     0
102
RTVSPropertyOp38
 70
     0
102
RTVSPropertyOp39
 70
     0
102
RTVSPropertyOp40
 70
     0
102
RTVSPropertyOp41
 70
     0
102
RTVSPropertyOp42
 70
     0
102
RTVSPropertyOp43
 70
     0
102
RTVSPropertyOp44
 70
     0
102
RTVSPropertyOp45
 70
     1
102
RTVSPropertyOp46
 70
     0
102
RTVSPropertyOp47
 70
     0
102
RTVSPropertyOp48
 70
     0
102
RTVSPropertyOp49
 70
     1
102
RTVSPropertyOp50
 70
     0
102
RTVSPropertyOp51
 70
     0
102
RTVSPropertyOp52
 70
     0
102
RTVSPropertyOp53
 70
     0
102
RTVSPropertyOp54
 70
     0
102
RTVSPropertyOp55
 70
     1
102
RTVSPropertyOp56
 70
     0
102
RTVSPropertyOp57
 70
     0
102
RTVSPropertyOp58
 70
     0
102
RTVSPropertyOp59
 70
     0
102
RTVSPropertyOp60
 70
     0
102
RTVSPropertyOp61
 70
     0
102
RTVSPropertyOp62
 70
     0
  0
XRECORD
  5
CC14
102
{ACAD_REACTORS
330
CC13
102
}
330
CC13
100
AcDbXrecord
280
     1
102
RTVSPost2010Prop28
280
     0
102
RTVSPost2010PropOp28
 70
     1
102
RTVSPost2010Prop29
280
     1
102
RTVSPost2010PropOp29
 70
     1
102
RTVSPost2010Prop30
280
     1
102
RTVSPost2010PropOp30
 70
     1
102
RTVSPost2010Prop31
280
     0
102
RTVSPost2010PropOp31
 70
     1
102
RTVSPost2010Prop32
280
     0
102
RTVSPost2010PropOp32
 70
     1
102
RTVSPost2010Prop33
280
     0
102
RTVSPost2010PropOp33
 70
     1
102
RTVSPost2010Prop34
280
     0
102
RTVSPost2010PropOp34
 70
     1
102
RTVSPost2010Prop35
280
     0
102
RTVSPost2010PropOp35
 70
     1
102
RTVSPost2010Prop36
280
     0
102
RTVSPost2010PropOp36
 70
     1
102
RTVSPost2010Prop37
 90
       50
102
RTVSPost2010PropOp37
 70
     1
102
RTVSPost2010Prop38
140
0.0
102
RTVSPost2010PropOp38
 70
     1
102
RTVSPost2010Prop39
140
1.0
102
RTVSPost2010PropOp39
 70
     1
102
RTVSPost2010Prop40
 90
        0
102
RTVSPost2010PropOp40
 70
     1
102
RTVSPost2010Prop41ColorIndex
 90
       18
102
RTVSPost2010Prop41ColorRGB
 90
        0
102
RTVSPost2010PropOp41
 70
     1
102
RTVSPost2010Prop42
 90
       50
102
RTVSPost2010PropOp42
 70
     1
102
RTVSPost2010Prop43
 90
        3
102
RTVSPost2010PropOp43
 70
     1
102
RTVSPost2010Prop44ColorIndex
 90
        5
102
RTVSPost2010Prop44ColorRGB
 90
      255
102
RTVSPost2010PropOp44
 70
     1
102
RTVSPost2010Prop45
280
     0
102
RTVSPost2010PropOp45
 70
     1
102
RTVSPost2010Prop46
 90
       50
102
RTVSPost2010PropOp46
 70
     1
102
RTVSPost2010Prop47
 90
       50
102
RTVSPost2010PropOp47
 70
     1
102
RTVSPost2010Prop48
 90
       50
102
RTVSPost2010PropOp48
 70
     1
102
RTVSPost2010Prop49
280
     0
102
RTVSPost2010PropOp49
 70
     1
102
RTVSPost2010Prop50
 90
       50
102
RTVSPost2010PropOp50
 70
     1
102
RTVSPost2010Prop51ColorIndex
 90
      256
102
RTVSPost2010Prop51ColorRGB
 90
-16777216
102
RTVSPost2010PropOp51
 70
     0
102
RTVSPost2010Prop52
140
1.0
102
RTVSPost2010PropOp52
 70
     0
102
RTVSPost2010Prop53
 90
        2
102
RTVSPost2010PropOp53
 70
     1
102
RTVSPost2010Prop54
  1
strokes_ogs.tif
102
RTVSPost2010PropOp54
 70
     1
102
RTVSPost2010Prop55
280
     0
102
RTVSPost2010PropOp55
 70
     1
102
RTVSPost2010Prop56
140
1.0
102
RTVSPost2010PropOp56
 70
     1
102
RTVSPost2010Prop57
140
1.0
102
RTVSPost2010PropOp57
 70
     1
102
RTVSPropertyOp0
 70
     1
102
RTVSPropertyOp1
 70
     1
102
RTVSPropertyOp2
 70
     1
102
RTVSPropertyOp3
 70
     1
102
RTVSPropertyOp4
 70
     1
102
RTVSPropertyOp5
 70
     1
102
RTVSPropertyOp6
 70
     1
102
RTVSPropertyOp7
 70
     1
102
RTVSPropertyOp8
 70
     1
102
RTVSPropertyOp9
 70
     1
102
RTVSPropertyOp10
 70
     1
102
RTVSPropertyOp11
 70
     1
102
RTVSPropertyOp12
 70
     1
102
RTVSPropertyOp13
 70
     1
102
RTVSPropertyOp14
 70
     1
102
RTVSPropertyOp15
 70
     1
102
RTVSPropertyOp16
 70
     1
102
RTVSPropertyOp17
 70
     1
102
RTVSPropertyOp18
 70
     1
102
RTVSPropertyOp19
 70
     1
102
RTVSPropertyOp20
 70
     1
102
RTVSPropertyOp21
 70
     1
102
RTVSPropertyOp22
 70
     1
102
RTVSPropertyOp23
 70
     1
102
RTVSPropertyOp24
 70
     1
102
RTVSPropertyOp25
 70
     1
102
RTVSPropertyOp26
 70
     1
102
RTVSPropertyOp27
 70
     1
102
RTVSPropertyOp28
 70
     1
102
RTVSPropertyOp29
 70
     1
102
RTVSPropertyOp30
 70
     1
102
RTVSPropertyOp31
 70
     1
102
RTVSPropertyOp32
 70
     1
102
RTVSPropertyOp33
 70
     1
102
RTVSPropertyOp34
 70
     1
102
RTVSPropertyOp35
 70
     1
102
RTVSPropertyOp36
 70
     1
102
RTVSPropertyOp37
 70
     1
102
RTVSPropertyOp38
 70
     1
102
RTVSPropertyOp39
 70
     1
102
RTVSPropertyOp40
 70
     1
102
RTVSPropertyOp41
 70
     1
102
RTVSPropertyOp42
 70
     1
102
RTVSPropertyOp43
 70
     1
102
RTVSPropertyOp44
 70
     1
102
RTVSPropertyOp45
 70
     1
102
RTVSPropertyOp46
 70
     1
102
RTVSPropertyOp47
 70
     1
102
RTVSPropertyOp48
 70
     1
102
RTVSPropertyOp49
 70
     1
102
RTVSPropertyOp50
 70
     1
102
RTVSPropertyOp51
 70
     0
102
RTVSPropertyOp52
 70
     0
102
RTVSPropertyOp53
 70
     1
102
RTVSPropertyOp54
 70
     1
102
RTVSPropertyOp55
 70
     1
102
RTVSPropertyOp56
 70
     1
102
RTVSPropertyOp57
 70
     1
102
RTVSPropertyOp58
 70
     1
102
RTVSPropertyOp59
 70
     1
102
RTVSPropertyOp60
 70
     1
102
RTVSPropertyOp61
 70
     1
102
RTVSPropertyOp62
 70
     1
  0
XRECORD
  5
CC2A
102
{ACAD_REACTORS
330
CC29
102
}
330
CC29
100
AcDbXrecord
280
     1
102
RTVSPost2010Prop28
280
     0
102
RTVSPost2010PropOp28
 70
     1
102
RTVSPost2010Prop29
280
     1
102
RTVSPost2010PropOp29
 70
     1
102
RTVSPost2010Prop30
280
     1
102
RTVSPost2010PropOp30
 70
     1
102
RTVSPost2010Prop31
280
     0
102
RTVSPost2010PropOp31
 70
     1
102
RTVSPost2010Prop32
280
     0
102
RTVSPost2010PropOp32
 70
     1
102
RTVSPost2010Prop33
280
     0
102
RTVSPost2010PropOp33
 70
     1
102
RTVSPost2010Prop34
280
     0
102
RTVSPost2010PropOp34
 70
     1
102
RTVSPost2010Prop35
280
     0
102
RTVSPost2010PropOp35
 70
     1
102
RTVSPost2010Prop36
280
     0
102
RTVSPost2010PropOp36
 70
     1
102
RTVSPost2010Prop37
 90
       50
102
RTVSPost2010PropOp37
 70
     1
102
RTVSPost2010Prop38
140
0.0
102
RTVSPost2010PropOp38
 70
     1
102
RTVSPost2010Prop39
140
1.0
102
RTVSPost2010PropOp39
 70
     1
102
RTVSPost2010Prop40
 90
        0
102
RTVSPost2010PropOp40
 70
     1
102
RTVSPost2010Prop41ColorIndex
 90
       18
102
RTVSPost2010Prop41ColorRGB
 90
        0
102
RTVSPost2010PropOp41
 70
     1
102
RTVSPost2010Prop42
 90
       50
102
RTVSPost2010PropOp42
 70
     1
102
RTVSPost2010Prop43
 90
        3
102
RTVSPost2010PropOp43
 70
     1
102
RTVSPost2010Prop44ColorIndex
 90
        5
102
RTVSPost2010Prop44ColorRGB
 90
      255
102
RTVSPost2010PropOp44
 70
     1
102
RTVSPost2010Prop45
280
     0
102
RTVSPost2010PropOp45
 70
     1
102
RTVSPost2010Prop46
 90
       50
102
RTVSPost2010PropOp46
 70
     1
102
RTVSPost2010Prop47
 90
       50
102
RTVSPost2010PropOp47
 70
     1
102
RTVSPost2010Prop48
 90
       50
102
RTVSPost2010PropOp48
 70
     1
102
RTVSPost2010Prop49
280
     0
102
RTVSPost2010PropOp49
 70
     1
102
RTVSPost2010Prop50
 90
       50
102
RTVSPost2010PropOp50
 70
     1
102
RTVSPost2010Prop51ColorIndex
 90
      256
102
RTVSPost2010Prop51ColorRGB
 90
-16777216
102
RTVSPost2010PropOp51
 70
     0
102
RTVSPost2010Prop52
140
1.0
102
RTVSPost2010PropOp52
 70
     0
102
RTVSPost2010Prop53
 90
        2
102
RTVSPost2010PropOp53
 70
     1
102
RTVSPost2010Prop54
  1
strokes_ogs.tif
102
RTVSPost2010PropOp54
 70
     1
102
RTVSPost2010Prop55
280
     0
102
RTVSPost2010PropOp55
 70
     1
102
RTVSPost2010Prop56
140
1.0
102
RTVSPost2010PropOp56
 70
     1
102
RTVSPost2010Prop57
140
1.0
102
RTVSPost2010PropOp57
 70
     1
102
RTVSPropertyOp0
 70
     1
102
RTVSPropertyOp1
 70
     1
102
RTVSPropertyOp2
 70
     1
102
RTVSPropertyOp3
 70
     1
102
RTVSPropertyOp4
 70
     1
102
RTVSPropertyOp5
 70
     1
102
RTVSPropertyOp6
 70
     1
102
RTVSPropertyOp7
 70
     1
102
RTVSPropertyOp8
 70
     1
102
RTVSPropertyOp9
 70
     1
102
RTVSPropertyOp10
 70
     1
102
RTVSPropertyOp11
 70
     1
102
RTVSPropertyOp12
 70
     1
102
RTVSPropertyOp13
 70
     1
102
RTVSPropertyOp14
 70
     1
102
RTVSPropertyOp15
 70
     1
102
RTVSPropertyOp16
 70
     1
102
RTVSPropertyOp17
 70
     1
102
RTVSPropertyOp18
 70
     1
102
RTVSPropertyOp19
 70
     1
102
RTVSPropertyOp20
 70
     1
102
RTVSPropertyOp21
 70
     1
102
RTVSPropertyOp22
 70
     1
102
RTVSPropertyOp23
 70
     1
102
RTVSPropertyOp24
 70
     1
102
RTVSPropertyOp25
 70
     1
102
RTVSPropertyOp26
 70
     1
102
RTVSPropertyOp27
 70
     1
102
RTVSPropertyOp28
 70
     1
102
RTVSPropertyOp29
 70
     1
102
RTVSPropertyOp30
 70
     1
102
RTVSPropertyOp31
 70
     1
102
RTVSPropertyOp32
 70
     1
102
RTVSPropertyOp33
 70
     1
102
RTVSPropertyOp34
 70
     1
102
RTVSPropertyOp35
 70
     1
102
RTVSPropertyOp36
 70
     1
102
RTVSPropertyOp37
 70
     1
102
RTVSPropertyOp38
 70
     1
102
RTVSPropertyOp39
 70
     1
102
RTVSPropertyOp40
 70
     1
102
RTVSPropertyOp41
 70
     1
102
RTVSPropertyOp42
 70
     1
102
RTVSPropertyOp43
 70
     1
102
RTVSPropertyOp44
 70
     1
102
RTVSPropertyOp45
 70
     1
102
RTVSPropertyOp46
 70
     1
102
RTVSPropertyOp47
 70
     1
102
RTVSPropertyOp48
 70
     1
102
RTVSPropertyOp49
 70
     1
102
RTVSPropertyOp50
 70
     1
102
RTVSPropertyOp51
 70
     0
102
RTVSPropertyOp52
 70
     0
102
RTVSPropertyOp53
 70
     1
102
RTVSPropertyOp54
 70
     1
102
RTVSPropertyOp55
 70
     1
102
RTVSPropertyOp56
 70
     1
102
RTVSPropertyOp57
 70
     1
102
RTVSPropertyOp58
 70
     1
102
RTVSPropertyOp59
 70
     1
102
RTVSPropertyOp60
 70
     1
102
RTVSPropertyOp61
 70
     1
102
RTVSPropertyOp62
 70
     1
  0
XRECORD
  5
CC28
102
{ACAD_REACTORS
330
CC27
102
}
330
CC27
100
AcDbXrecord
280
     1
102
RTVSPost2010Prop28
280
     0
102
RTVSPost2010PropOp28
 70
     1
102
RTVSPost2010Prop29
280
     1
102
RTVSPost2010PropOp29
 70
     1
102
RTVSPost2010Prop30
280
     1
102
RTVSPost2010PropOp30
 70
     1
102
RTVSPost2010Prop31
280
     0
102
RTVSPost2010PropOp31
 70
     1
102
RTVSPost2010Prop32
280
     0
102
RTVSPost2010PropOp32
 70
     1
102
RTVSPost2010Prop33
280
     0
102
RTVSPost2010PropOp33
 70
     1
102
RTVSPost2010Prop34
280
     0
102
RTVSPost2010PropOp34
 70
     1
102
RTVSPost2010Prop35
280
     0
102
RTVSPost2010PropOp35
 70
     1
102
RTVSPost2010Prop36
280
     0
102
RTVSPost2010PropOp36
 70
     1
102
RTVSPost2010Prop37
 90
       50
102
RTVSPost2010PropOp37
 70
     1
102
RTVSPost2010Prop38
140
0.0
102
RTVSPost2010PropOp38
 70
     1
102
RTVSPost2010Prop39
140
1.0
102
RTVSPost2010PropOp39
 70
     1
102
RTVSPost2010Prop40
 90
        0
102
RTVSPost2010PropOp40
 70
     1
102
RTVSPost2010Prop41ColorIndex
 90
       18
102
RTVSPost2010Prop41ColorRGB
 90
        0
102
RTVSPost2010PropOp41
 70
     1
102
RTVSPost2010Prop42
 90
       50
102
RTVSPost2010PropOp42
 70
     1
102
RTVSPost2010Prop43
 90
        3
102
RTVSPost2010PropOp43
 70
     1
102
RTVSPost2010Prop44ColorIndex
 90
        5
102
RTVSPost2010Prop44ColorRGB
 90
      255
102
RTVSPost2010PropOp44
 70
     1
102
RTVSPost2010Prop45
280
     0
102
RTVSPost2010PropOp45
 70
     1
102
RTVSPost2010Prop46
 90
       50
102
RTVSPost2010PropOp46
 70
     1
102
RTVSPost2010Prop47
 90
       50
102
RTVSPost2010PropOp47
 70
     1
102
RTVSPost2010Prop48
 90
       50
102
RTVSPost2010PropOp48
 70
     1
102
RTVSPost2010Prop49
280
     0
102
RTVSPost2010PropOp49
 70
     1
102
RTVSPost2010Prop50
 90
       50
102
RTVSPost2010PropOp50
 70
     1
102
RTVSPost2010Prop51ColorIndex
 90
      256
102
RTVSPost2010Prop51ColorRGB
 90
-16777216
102
RTVSPost2010PropOp51
 70
     0
102
RTVSPost2010Prop52
140
1.0
102
RTVSPost2010PropOp52
 70
     0
102
RTVSPost2010Prop53
 90
        2
102
RTVSPost2010PropOp53
 70
     1
102
RTVSPost2010Prop54
  1
strokes_ogs.tif
102
RTVSPost2010PropOp54
 70
     1
102
RTVSPost2010Prop55
280
     0
102
RTVSPost2010PropOp55
 70
     1
102
RTVSPost2010Prop56
140
1.0
102
RTVSPost2010PropOp56
 70
     1
102
RTVSPost2010Prop57
140
1.0
102
RTVSPost2010PropOp57
 70
     1
102
RTVSPropertyOp0
 70
     1
102
RTVSPropertyOp1
 70
     1
102
RTVSPropertyOp2
 70
     1
102
RTVSPropertyOp3
 70
     1
102
RTVSPropertyOp4
 70
     1
102
RTVSPropertyOp5
 70
     1
102
RTVSPropertyOp6
 70
     1
102
RTVSPropertyOp7
 70
     1
102
RTVSPropertyOp8
 70
     1
102
RTVSPropertyOp9
 70
     1
102
RTVSPropertyOp10
 70
     1
102
RTVSPropertyOp11
 70
     1
102
RTVSPropertyOp12
 70
     1
102
RTVSPropertyOp13
 70
     1
102
RTVSPropertyOp14
 70
     1
102
RTVSPropertyOp15
 70
     1
102
RTVSPropertyOp16
 70
     1
102
RTVSPropertyOp17
 70
     1
102
RTVSPropertyOp18
 70
     1
102
RTVSPropertyOp19
 70
     1
102
RTVSPropertyOp20
 70
     1
102
RTVSPropertyOp21
 70
     1
102
RTVSPropertyOp22
 70
     1
102
RTVSPropertyOp23
 70
     1
102
RTVSPropertyOp24
 70
     1
102
RTVSPropertyOp25
 70
     1
102
RTVSPropertyOp26
 70
     1
102
RTVSPropertyOp27
 70
     1
102
RTVSPropertyOp28
 70
     1
102
RTVSPropertyOp29
 70
     1
102
RTVSPropertyOp30
 70
     1
102
RTVSPropertyOp31
 70
     1
102
RTVSPropertyOp32
 70
     1
102
RTVSPropertyOp33
 70
     1
102
RTVSPropertyOp34
 70
     1
102
RTVSPropertyOp35
 70
     1
102
RTVSPropertyOp36
 70
     1
102
RTVSPropertyOp37
 70
     1
102
RTVSPropertyOp38
 70
     1
102
RTVSPropertyOp39
 70
     1
102
RTVSPropertyOp40
 70
     1
102
RTVSPropertyOp41
 70
     1
102
RTVSPropertyOp42
 70
     1
102
RTVSPropertyOp43
 70
     1
102
RTVSPropertyOp44
 70
     1
102
RTVSPropertyOp45
 70
     1
102
RTVSPropertyOp46
 70
     1
102
RTVSPropertyOp47
 70
     1
102
RTVSPropertyOp48
 70
     1
102
RTVSPropertyOp49
 70
     1
102
RTVSPropertyOp50
 70
     1
102
RTVSPropertyOp51
 70
     0
102
RTVSPropertyOp52
 70
     0
102
RTVSPropertyOp53
 70
     1
102
RTVSPropertyOp54
 70
     1
102
RTVSPropertyOp55
 70
     1
102
RTVSPropertyOp56
 70
     1
102
RTVSPropertyOp57
 70
     1
102
RTVSPropertyOp58
 70
     1
102
RTVSPropertyOp59
 70
     1
102
RTVSPropertyOp60
 70
     1
102
RTVSPropertyOp61
 70
     1
102
RTVSPropertyOp62
 70
     1
  0
XRECORD
  5
CC22
102
{ACAD_REACTORS
330
CC21
102
}
330
CC21
100
AcDbXrecord
280
     1
102
RTVSPost2010Prop28
280
     0
102
RTVSPost2010PropOp28
 70
     1
102
RTVSPost2010Prop29
280
     1
102
RTVSPost2010PropOp29
 70
     1
102
RTVSPost2010Prop30
280
     1
102
RTVSPost2010PropOp30
 70
     1
102
RTVSPost2010Prop31
280
     0
102
RTVSPost2010PropOp31
 70
     1
102
RTVSPost2010Prop32
280
     0
102
RTVSPost2010PropOp32
 70
     1
102
RTVSPost2010Prop33
280
     0
102
RTVSPost2010PropOp33
 70
     1
102
RTVSPost2010Prop34
280
     0
102
RTVSPost2010PropOp34
 70
     1
102
RTVSPost2010Prop35
280
     0
102
RTVSPost2010PropOp35
 70
     1
102
RTVSPost2010Prop36
280
     0
102
RTVSPost2010PropOp36
 70
     1
102
RTVSPost2010Prop37
 90
       50
102
RTVSPost2010PropOp37
 70
     1
102
RTVSPost2010Prop38
140
0.0
102
RTVSPost2010PropOp38
 70
     1
102
RTVSPost2010Prop39
140
1.0
102
RTVSPost2010PropOp39
 70
     1
102
RTVSPost2010Prop40
 90
        0
102
RTVSPost2010PropOp40
 70
     1
102
RTVSPost2010Prop41ColorIndex
 90
       18
102
RTVSPost2010Prop41ColorRGB
 90
        0
102
RTVSPost2010PropOp41
 70
     1
102
RTVSPost2010Prop42
 90
       50
102
RTVSPost2010PropOp42
 70
     1
102
RTVSPost2010Prop43
 90
        3
102
RTVSPost2010PropOp43
 70
     1
102
RTVSPost2010Prop44ColorIndex
 90
        5
102
RTVSPost2010Prop44ColorRGB
 90
      255
102
RTVSPost2010PropOp44
 70
     1
102
RTVSPost2010Prop45
280
     0
102
RTVSPost2010PropOp45
 70
     1
102
RTVSPost2010Prop46
 90
       50
102
RTVSPost2010PropOp46
 70
     1
102
RTVSPost2010Prop47
 90
       50
102
RTVSPost2010PropOp47
 70
     1
102
RTVSPost2010Prop48
 90
       50
102
RTVSPost2010PropOp48
 70
     1
102
RTVSPost2010Prop49
280
     0
102
RTVSPost2010PropOp49
 70
     1
102
RTVSPost2010Prop50
 90
       50
102
RTVSPost2010PropOp50
 70
     1
102
RTVSPost2010Prop51ColorIndex
 90
      256
102
RTVSPost2010Prop51ColorRGB
 90
-16777216
102
RTVSPost2010PropOp51
 70
     0
102
RTVSPost2010Prop52
140
1.0
102
RTVSPost2010PropOp52
 70
     0
102
RTVSPost2010Prop53
 90
        2
102
RTVSPost2010PropOp53
 70
     1
102
RTVSPost2010Prop54
  1
strokes_ogs.tif
102
RTVSPost2010PropOp54
 70
     1
102
RTVSPost2010Prop55
280
     0
102
RTVSPost2010PropOp55
 70
     1
102
RTVSPost2010Prop56
140
1.0
102
RTVSPost2010PropOp56
 70
     1
102
RTVSPost2010Prop57
140
1.0
102
RTVSPost2010PropOp57
 70
     1
102
RTVSPropertyOp0
 70
     1
102
RTVSPropertyOp1
 70
     1
102
RTVSPropertyOp2
 70
     1
102
RTVSPropertyOp3
 70
     1
102
RTVSPropertyOp4
 70
     1
102
RTVSPropertyOp5
 70
     1
102
RTVSPropertyOp6
 70
     1
102
RTVSPropertyOp7
 70
     1
102
RTVSPropertyOp8
 70
     1
102
RTVSPropertyOp9
 70
     1
102
RTVSPropertyOp10
 70
     1
102
RTVSPropertyOp11
 70
     1
102
RTVSPropertyOp12
 70
     1
102
RTVSPropertyOp13
 70
     1
102
RTVSPropertyOp14
 70
     1
102
RTVSPropertyOp15
 70
     1
102
RTVSPropertyOp16
 70
     1
102
RTVSPropertyOp17
 70
     1
102
RTVSPropertyOp18
 70
     1
102
RTVSPropertyOp19
 70
     1
102
RTVSPropertyOp20
 70
     1
102
RTVSPropertyOp21
 70
     1
102
RTVSPropertyOp22
 70
     1
102
RTVSPropertyOp23
 70
     1
102
RTVSPropertyOp24
 70
     1
102
RTVSPropertyOp25
 70
     1
102
RTVSPropertyOp26
 70
     1
102
RTVSPropertyOp27
 70
     1
102
RTVSPropertyOp28
 70
     1
102
RTVSPropertyOp29
 70
     1
102
RTVSPropertyOp30
 70
     1
102
RTVSPropertyOp31
 70
     1
102
RTVSPropertyOp32
 70
     1
102
RTVSPropertyOp33
 70
     1
102
RTVSPropertyOp34
 70
     1
102
RTVSPropertyOp35
 70
     1
102
RTVSPropertyOp36
 70
     1
102
RTVSPropertyOp37
 70
     1
102
RTVSPropertyOp38
 70
     1
102
RTVSPropertyOp39
 70
     1
102
RTVSPropertyOp40
 70
     1
102
RTVSPropertyOp41
 70
     1
102
RTVSPropertyOp42
 70
     1
102
RTVSPropertyOp43
 70
     1
102
RTVSPropertyOp44
 70
     1
102
RTVSPropertyOp45
 70
     1
102
RTVSPropertyOp46
 70
     1
102
RTVSPropertyOp47
 70
     1
102
RTVSPropertyOp48
 70
     1
102
RTVSPropertyOp49
 70
     1
102
RTVSPropertyOp50
 70
     1
102
RTVSPropertyOp51
 70
     0
102
RTVSPropertyOp52
 70
     0
102
RTVSPropertyOp53
 70
     1
102
RTVSPropertyOp54
 70
     1
102
RTVSPropertyOp55
 70
     1
102
RTVSPropertyOp56
 70
     1
102
RTVSPropertyOp57
 70
     1
102
RTVSPropertyOp58
 70
     1
102
RTVSPropertyOp59
 70
     1
102
RTVSPropertyOp60
 70
     1
102
RTVSPropertyOp61
 70
     1
102
RTVSPropertyOp62
 70
     1
  0
XRECORD
  5
CC24
102
{ACAD_REACTORS
330
CC23
102
}
330
CC23
100
AcDbXrecord
280
     1
102
RTVSPost2010Prop28
280
     0
102
RTVSPost2010PropOp28
 70
     1
102
RTVSPost2010Prop29
280
     1
102
RTVSPost2010PropOp29
 70
     1
102
RTVSPost2010Prop30
280
     1
102
RTVSPost2010PropOp30
 70
     1
102
RTVSPost2010Prop31
280
     0
102
RTVSPost2010PropOp31
 70
     1
102
RTVSPost2010Prop32
280
     0
102
RTVSPost2010PropOp32
 70
     1
102
RTVSPost2010Prop33
280
     0
102
RTVSPost2010PropOp33
 70
     1
102
RTVSPost2010Prop34
280
     0
102
RTVSPost2010PropOp34
 70
     1
102
RTVSPost2010Prop35
280
     0
102
RTVSPost2010PropOp35
 70
     1
102
RTVSPost2010Prop36
280
     0
102
RTVSPost2010PropOp36
 70
     1
102
RTVSPost2010Prop37
 90
       50
102
RTVSPost2010PropOp37
 70
     1
102
RTVSPost2010Prop38
140
0.0
102
RTVSPost2010PropOp38
 70
     1
102
RTVSPost2010Prop39
140
1.0
102
RTVSPost2010PropOp39
 70
     1
102
RTVSPost2010Prop40
 90
        0
102
RTVSPost2010PropOp40
 70
     1
102
RTVSPost2010Prop41ColorIndex
 90
       18
102
RTVSPost2010Prop41ColorRGB
 90
        0
102
RTVSPost2010PropOp41
 70
     1
102
RTVSPost2010Prop42
 90
       50
102
RTVSPost2010PropOp42
 70
     1
102
RTVSPost2010Prop43
 90
        3
102
RTVSPost2010PropOp43
 70
     1
102
RTVSPost2010Prop44ColorIndex
 90
        5
102
RTVSPost2010Prop44ColorRGB
 90
      255
102
RTVSPost2010PropOp44
 70
     1
102
RTVSPost2010Prop45
280
     0
102
RTVSPost2010PropOp45
 70
     1
102
RTVSPost2010Prop46
 90
       50
102
RTVSPost2010PropOp46
 70
     1
102
RTVSPost2010Prop47
 90
       50
102
RTVSPost2010PropOp47
 70
     1
102
RTVSPost2010Prop48
 90
       50
102
RTVSPost2010PropOp48
 70
     1
102
RTVSPost2010Prop49
280
     0
102
RTVSPost2010PropOp49
 70
     1
102
RTVSPost2010Prop50
 90
       50
102
RTVSPost2010PropOp50
 70
     1
102
RTVSPost2010Prop51ColorIndex
 90
      256
102
RTVSPost2010Prop51ColorRGB
 90
-16777216
102
RTVSPost2010PropOp51
 70
     0
102
RTVSPost2010Prop52
140
1.0
102
RTVSPost2010PropOp52
 70
     0
102
RTVSPost2010Prop53
 90
        2
102
RTVSPost2010PropOp53
 70
     1
102
RTVSPost2010Prop54
  1
strokes_ogs.tif
102
RTVSPost2010PropOp54
 70
     1
102
RTVSPost2010Prop55
280
     0
102
RTVSPost2010PropOp55
 70
     1
102
RTVSPost2010Prop56
140
1.0
102
RTVSPost2010PropOp56
 70
     1
102
RTVSPost2010Prop57
140
1.0
102
RTVSPost2010PropOp57
 70
     1
102
RTVSPropertyOp0
 70
     1
102
RTVSPropertyOp1
 70
     1
102
RTVSPropertyOp2
 70
     1
102
RTVSPropertyOp3
 70
     1
102
RTVSPropertyOp4
 70
     1
102
RTVSPropertyOp5
 70
     1
102
RTVSPropertyOp6
 70
     1
102
RTVSPropertyOp7
 70
     1
102
RTVSPropertyOp8
 70
     1
102
RTVSPropertyOp9
 70
     1
102
RTVSPropertyOp10
 70
     1
102
RTVSPropertyOp11
 70
     1
102
RTVSPropertyOp12
 70
     1
102
RTVSPropertyOp13
 70
     1
102
RTVSPropertyOp14
 70
     1
102
RTVSPropertyOp15
 70
     1
102
RTVSPropertyOp16
 70
     1
102
RTVSPropertyOp17
 70
     1
102
RTVSPropertyOp18
 70
     1
102
RTVSPropertyOp19
 70
     1
102
RTVSPropertyOp20
 70
     1
102
RTVSPropertyOp21
 70
     1
102
RTVSPropertyOp22
 70
     1
102
RTVSPropertyOp23
 70
     1
102
RTVSPropertyOp24
 70
     1
102
RTVSPropertyOp25
 70
     1
102
RTVSPropertyOp26
 70
     1
102
RTVSPropertyOp27
 70
     1
102
RTVSPropertyOp28
 70
     1
102
RTVSPropertyOp29
 70
     1
102
RTVSPropertyOp30
 70
     1
102
RTVSPropertyOp31
 70
     1
102
RTVSPropertyOp32
 70
     1
102
RTVSPropertyOp33
 70
     1
102
RTVSPropertyOp34
 70
     1
102
RTVSPropertyOp35
 70
     1
102
RTVSPropertyOp36
 70
     1
102
RTVSPropertyOp37
 70
     1
102
RTVSPropertyOp38
 70
     1
102
RTVSPropertyOp39
 70
     1
102
RTVSPropertyOp40
 70
     1
102
RTVSPropertyOp41
 70
     1
102
RTVSPropertyOp42
 70
     1
102
RTVSPropertyOp43
 70
     1
102
RTVSPropertyOp44
 70
     1
102
RTVSPropertyOp45
 70
     1
102
RTVSPropertyOp46
 70
     1
102
RTVSPropertyOp47
 70
     1
102
RTVSPropertyOp48
 70
     1
102
RTVSPropertyOp49
 70
     1
102
RTVSPropertyOp50
 70
     1
102
RTVSPropertyOp51
 70
     0
102
RTVSPropertyOp52
 70
     0
102
RTVSPropertyOp53
 70
     1
102
RTVSPropertyOp54
 70
     1
102
RTVSPropertyOp55
 70
     1
102
RTVSPropertyOp56
 70
     1
102
RTVSPropertyOp57
 70
     1
102
RTVSPropertyOp58
 70
     1
102
RTVSPropertyOp59
 70
     1
102
RTVSPropertyOp60
 70
     1
102
RTVSPropertyOp61
 70
     1
102
RTVSPropertyOp62
 70
     1
  0
XRECORD
  5
CC1A
102
{ACAD_REACTORS
330
CC19
102
}
330
CC19
100
AcDbXrecord
280
     1
102
RTVSPost2010Prop28
280
     0
102
RTVSPost2010PropOp28
 70
     1
102
RTVSPost2010Prop29
280
     1
102
RTVSPost2010PropOp29
 70
     1
102
RTVSPost2010Prop30
280
     1
102
RTVSPost2010PropOp30
 70
     1
102
RTVSPost2010Prop31
280
     0
102
RTVSPost2010PropOp31
 70
     1
102
RTVSPost2010Prop32
280
     0
102
RTVSPost2010PropOp32
 70
     1
102
RTVSPost2010Prop33
280
     0
102
RTVSPost2010PropOp33
 70
     1
102
RTVSPost2010Prop34
280
     0
102
RTVSPost2010PropOp34
 70
     1
102
RTVSPost2010Prop35
280
     0
102
RTVSPost2010PropOp35
 70
     1
102
RTVSPost2010Prop36
280
     0
102
RTVSPost2010PropOp36
 70
     1
102
RTVSPost2010Prop37
 90
       50
102
RTVSPost2010PropOp37
 70
     1
102
RTVSPost2010Prop38
140
0.0
102
RTVSPost2010PropOp38
 70
     1
102
RTVSPost2010Prop39
140
1.0
102
RTVSPost2010PropOp39
 70
     1
102
RTVSPost2010Prop40
 90
        0
102
RTVSPost2010PropOp40
 70
     1
102
RTVSPost2010Prop41ColorIndex
 90
       18
102
RTVSPost2010Prop41ColorRGB
 90
        0
102
RTVSPost2010PropOp41
 70
     1
102
RTVSPost2010Prop42
 90
       50
102
RTVSPost2010PropOp42
 70
     1
102
RTVSPost2010Prop43
 90
        3
102
RTVSPost2010PropOp43
 70
     1
102
RTVSPost2010Prop44ColorIndex
 90
        5
102
RTVSPost2010Prop44ColorRGB
 90
      255
102
RTVSPost2010PropOp44
 70
     1
102
RTVSPost2010Prop45
280
     0
102
RTVSPost2010PropOp45
 70
     1
102
RTVSPost2010Prop46
 90
       50
102
RTVSPost2010PropOp46
 70
     1
102
RTVSPost2010Prop47
 90
       50
102
RTVSPost2010PropOp47
 70
     1
102
RTVSPost2010Prop48
 90
       50
102
RTVSPost2010PropOp48
 70
     1
102
RTVSPost2010Prop49
280
     0
102
RTVSPost2010PropOp49
 70
     1
102
RTVSPost2010Prop50
 90
       50
102
RTVSPost2010PropOp50
 70
     1
102
RTVSPost2010Prop51ColorIndex
 90
      256
102
RTVSPost2010Prop51ColorRGB
 90
-16777216
102
RTVSPost2010PropOp51
 70
     0
102
RTVSPost2010Prop52
140
1.0
102
RTVSPost2010PropOp52
 70
     0
102
RTVSPost2010Prop53
 90
        2
102
RTVSPost2010PropOp53
 70
     1
102
RTVSPost2010Prop54
  1
strokes_ogs.tif
102
RTVSPost2010PropOp54
 70
     1
102
RTVSPost2010Prop55
280
     0
102
RTVSPost2010PropOp55
 70
     1
102
RTVSPost2010Prop56
140
1.0
102
RTVSPost2010PropOp56
 70
     1
102
RTVSPost2010Prop57
140
1.0
102
RTVSPost2010PropOp57
 70
     1
102
RTVSPropertyOp0
 70
     1
102
RTVSPropertyOp1
 70
     1
102
RTVSPropertyOp2
 70
     1
102
RTVSPropertyOp3
 70
     1
102
RTVSPropertyOp4
 70
     1
102
RTVSPropertyOp5
 70
     1
102
RTVSPropertyOp6
 70
     1
102
RTVSPropertyOp7
 70
     1
102
RTVSPropertyOp8
 70
     1
102
RTVSPropertyOp9
 70
     1
102
RTVSPropertyOp10
 70
     1
102
RTVSPropertyOp11
 70
     1
102
RTVSPropertyOp12
 70
     1
102
RTVSPropertyOp13
 70
     1
102
RTVSPropertyOp14
 70
     1
102
RTVSPropertyOp15
 70
     1
102
RTVSPropertyOp16
 70
     1
102
RTVSPropertyOp17
 70
     1
102
RTVSPropertyOp18
 70
     1
102
RTVSPropertyOp19
 70
     1
102
RTVSPropertyOp20
 70
     1
102
RTVSPropertyOp21
 70
     1
102
RTVSPropertyOp22
 70
     1
102
RTVSPropertyOp23
 70
     1
102
RTVSPropertyOp24
 70
     1
102
RTVSPropertyOp25
 70
     1
102
RTVSPropertyOp26
 70
     1
102
RTVSPropertyOp27
 70
     1
102
RTVSPropertyOp28
 70
     1
102
RTVSPropertyOp29
 70
     1
102
RTVSPropertyOp30
 70
     1
102
RTVSPropertyOp31
 70
     1
102
RTVSPropertyOp32
 70
     1
102
RTVSPropertyOp33
 70
     1
102
RTVSPropertyOp34
 70
     1
102
RTVSPropertyOp35
 70
     1
102
RTVSPropertyOp36
 70
     1
102
RTVSPropertyOp37
 70
     1
102
RTVSPropertyOp38
 70
     1
102
RTVSPropertyOp39
 70
     1
102
RTVSPropertyOp40
 70
     1
102
RTVSPropertyOp41
 70
     1
102
RTVSPropertyOp42
 70
     1
102
RTVSPropertyOp43
 70
     1
102
RTVSPropertyOp44
 70
     1
102
RTVSPropertyOp45
 70
     1
102
RTVSPropertyOp46
 70
     1
102
RTVSPropertyOp47
 70
     1
102
RTVSPropertyOp48
 70
     1
102
RTVSPropertyOp49
 70
     1
102
RTVSPropertyOp50
 70
     1
102
RTVSPropertyOp51
 70
     0
102
RTVSPropertyOp52
 70
     0
102
RTVSPropertyOp53
 70
     1
102
RTVSPropertyOp54
 70
     1
102
RTVSPropertyOp55
 70
     1
102
RTVSPropertyOp56
 70
     1
102
RTVSPropertyOp57
 70
     1
102
RTVSPropertyOp58
 70
     1
102
RTVSPropertyOp59
 70
     1
102
RTVSPropertyOp60
 70
     1
102
RTVSPropertyOp61
 70
     1
102
RTVSPropertyOp62
 70
     1
  0
XRECORD
  5
CC0E
102
{ACAD_REACTORS
330
CC0D
102
}
330
CC0D
100
AcDbXrecord
280
     1
102
RTVSPost2010Prop28
280
     0
102
RTVSPost2010PropOp28
 70
     1
102
RTVSPost2010Prop29
280
     1
102
RTVSPost2010PropOp29
 70
     1
102
RTVSPost2010Prop30
280
     1
102
RTVSPost2010PropOp30
 70
     1
102
RTVSPost2010Prop31
280
     0
102
RTVSPost2010PropOp31
 70
     1
102
RTVSPost2010Prop32
280
     0
102
RTVSPost2010PropOp32
 70
     1
102
RTVSPost2010Prop33
280
     0
102
RTVSPost2010PropOp33
 70
     1
102
RTVSPost2010Prop34
280
     0
102
RTVSPost2010PropOp34
 70
     1
102
RTVSPost2010Prop35
280
     0
102
RTVSPost2010PropOp35
 70
     1
102
RTVSPost2010Prop36
280
     0
102
RTVSPost2010PropOp36
 70
     1
102
RTVSPost2010Prop37
 90
       50
102
RTVSPost2010PropOp37
 70
     1
102
RTVSPost2010Prop38
140
0.0
102
RTVSPost2010PropOp38
 70
     1
102
RTVSPost2010Prop39
140
1.0
102
RTVSPost2010PropOp39
 70
     1
102
RTVSPost2010Prop40
 90
        0
102
RTVSPost2010PropOp40
 70
     1
102
RTVSPost2010Prop41ColorIndex
 90
       18
102
RTVSPost2010Prop41ColorRGB
 90
        0
102
RTVSPost2010PropOp41
 70
     1
102
RTVSPost2010Prop42
 90
       50
102
RTVSPost2010PropOp42
 70
     1
102
RTVSPost2010Prop43
 90
        3
102
RTVSPost2010PropOp43
 70
     1
102
RTVSPost2010Prop44ColorIndex
 90
        5
102
RTVSPost2010Prop44ColorRGB
 90
      255
102
RTVSPost2010PropOp44
 70
     1
102
RTVSPost2010Prop45
280
     0
102
RTVSPost2010PropOp45
 70
     1
102
RTVSPost2010Prop46
 90
       50
102
RTVSPost2010PropOp46
 70
     1
102
RTVSPost2010Prop47
 90
       50
102
RTVSPost2010PropOp47
 70
     1
102
RTVSPost2010Prop48
 90
       50
102
RTVSPost2010PropOp48
 70
     1
102
RTVSPost2010Prop49
280
     0
102
RTVSPost2010PropOp49
 70
     1
102
RTVSPost2010Prop50
 90
       50
102
RTVSPost2010PropOp50
 70
     1
102
RTVSPost2010Prop51ColorIndex
 90
      256
102
RTVSPost2010Prop51ColorRGB
 90
-16777216
102
RTVSPost2010PropOp51
 70
     0
102
RTVSPost2010Prop52
140
1.0
102
RTVSPost2010PropOp52
 70
     0
102
RTVSPost2010Prop53
 90
        2
102
RTVSPost2010PropOp53
 70
     1
102
RTVSPost2010Prop54
  1
strokes_ogs.tif
102
RTVSPost2010PropOp54
 70
     1
102
RTVSPost2010Prop55
280
     0
102
RTVSPost2010PropOp55
 70
     1
102
RTVSPost2010Prop56
140
1.0
102
RTVSPost2010PropOp56
 70
     1
102
RTVSPost2010Prop57
140
1.0
102
RTVSPost2010PropOp57
 70
     1
102
RTVSPropertyOp0
 70
     1
102
RTVSPropertyOp1
 70
     1
102
RTVSPropertyOp2
 70
     1
102
RTVSPropertyOp3
 70
     1
102
RTVSPropertyOp4
 70
     1
102
RTVSPropertyOp5
 70
     1
102
RTVSPropertyOp6
 70
     1
102
RTVSPropertyOp7
 70
     1
102
RTVSPropertyOp8
 70
     1
102
RTVSPropertyOp9
 70
     1
102
RTVSPropertyOp10
 70
     1
102
RTVSPropertyOp11
 70
     1
102
RTVSPropertyOp12
 70
     1
102
RTVSPropertyOp13
 70
     1
102
RTVSPropertyOp14
 70
     1
102
RTVSPropertyOp15
 70
     1
102
RTVSPropertyOp16
 70
     1
102
RTVSPropertyOp17
 70
     1
102
RTVSPropertyOp18
 70
     1
102
RTVSPropertyOp19
 70
     1
102
RTVSPropertyOp20
 70
     1
102
RTVSPropertyOp21
 70
     1
102
RTVSPropertyOp22
 70
     1
102
RTVSPropertyOp23
 70
     1
102
RTVSPropertyOp24
 70
     1
102
RTVSPropertyOp25
 70
     1
102
RTVSPropertyOp26
 70
     1
102
RTVSPropertyOp27
 70
     1
102
RTVSPropertyOp28
 70
     1
102
RTVSPropertyOp29
 70
     1
102
RTVSPropertyOp30
 70
     1
102
RTVSPropertyOp31
 70
     1
102
RTVSPropertyOp32
 70
     1
102
RTVSPropertyOp33
 70
     1
102
RTVSPropertyOp34
 70
     1
102
RTVSPropertyOp35
 70
     1
102
RTVSPropertyOp36
 70
     1
102
RTVSPropertyOp37
 70
     1
102
RTVSPropertyOp38
 70
     1
102
RTVSPropertyOp39
 70
     1
102
RTVSPropertyOp40
 70
     1
102
RTVSPropertyOp41
 70
     1
102
RTVSPropertyOp42
 70
     1
102
RTVSPropertyOp43
 70
     1
102
RTVSPropertyOp44
 70
     1
102
RTVSPropertyOp45
 70
     1
102
RTVSPropertyOp46
 70
     1
102
RTVSPropertyOp47
 70
     1
102
RTVSPropertyOp48
 70
     1
102
RTVSPropertyOp49
 70
     1
102
RTVSPropertyOp50
 70
     1
102
RTVSPropertyOp51
 70
     0
102
RTVSPropertyOp52
 70
     0
102
RTVSPropertyOp53
 70
     1
102
RTVSPropertyOp54
 70
     1
102
RTVSPropertyOp55
 70
     1
102
RTVSPropertyOp56
 70
     1
102
RTVSPropertyOp57
 70
     1
102
RTVSPropertyOp58
 70
     1
102
RTVSPropertyOp59
 70
     1
102
RTVSPropertyOp60
 70
     1
102
RTVSPropertyOp61
 70
     1
102
RTVSPropertyOp62
 70
     1
  0
XRECORD
  5
CC26
102
{ACAD_REACTORS
330
CC25
102
}
330
CC25
100
AcDbXrecord
280
     1
102
RTVSPost2010Prop28
280
     0
102
RTVSPost2010PropOp28
 70
     1
102
RTVSPost2010Prop29
280
     1
102
RTVSPost2010PropOp29
 70
     1
102
RTVSPost2010Prop30
280
     1
102
RTVSPost2010PropOp30
 70
     1
102
RTVSPost2010Prop31
280
     0
102
RTVSPost2010PropOp31
 70
     1
102
RTVSPost2010Prop32
280
     0
102
RTVSPost2010PropOp32
 70
     1
102
RTVSPost2010Prop33
280
     0
102
RTVSPost2010PropOp33
 70
     1
102
RTVSPost2010Prop34
280
     0
102
RTVSPost2010PropOp34
 70
     1
102
RTVSPost2010Prop35
280
     0
102
RTVSPost2010PropOp35
 70
     1
102
RTVSPost2010Prop36
280
     0
102
RTVSPost2010PropOp36
 70
     1
102
RTVSPost2010Prop37
 90
       50
102
RTVSPost2010PropOp37
 70
     1
102
RTVSPost2010Prop38
140
0.0
102
RTVSPost2010PropOp38
 70
     1
102
RTVSPost2010Prop39
140
1.0
102
RTVSPost2010PropOp39
 70
     1
102
RTVSPost2010Prop40
 90
        0
102
RTVSPost2010PropOp40
 70
     1
102
RTVSPost2010Prop41ColorIndex
 90
       18
102
RTVSPost2010Prop41ColorRGB
 90
        0
102
RTVSPost2010PropOp41
 70
     1
102
RTVSPost2010Prop42
 90
       50
102
RTVSPost2010PropOp42
 70
     1
102
RTVSPost2010Prop43
 90
        3
102
RTVSPost2010PropOp43
 70
     1
102
RTVSPost2010Prop44ColorIndex
 90
        5
102
RTVSPost2010Prop44ColorRGB
 90
      255
102
RTVSPost2010PropOp44
 70
     1
102
RTVSPost2010Prop45
280
     0
102
RTVSPost2010PropOp45
 70
     1
102
RTVSPost2010Prop46
 90
       50
102
RTVSPost2010PropOp46
 70
     1
102
RTVSPost2010Prop47
 90
       50
102
RTVSPost2010PropOp47
 70
     1
102
RTVSPost2010Prop48
 90
       50
102
RTVSPost2010PropOp48
 70
     1
102
RTVSPost2010Prop49
280
     0
102
RTVSPost2010PropOp49
 70
     1
102
RTVSPost2010Prop50
 90
       50
102
RTVSPost2010PropOp50
 70
     1
102
RTVSPost2010Prop51ColorIndex
 90
      256
102
RTVSPost2010Prop51ColorRGB
 90
-16777216
102
RTVSPost2010PropOp51
 70
     0
102
RTVSPost2010Prop52
140
1.0
102
RTVSPost2010PropOp52
 70
     0
102
RTVSPost2010Prop53
 90
        2
102
RTVSPost2010PropOp53
 70
     1
102
RTVSPost2010Prop54
  1
strokes_ogs.tif
102
RTVSPost2010PropOp54
 70
     1
102
RTVSPost2010Prop55
280
     0
102
RTVSPost2010PropOp55
 70
     1
102
RTVSPost2010Prop56
140
1.0
102
RTVSPost2010PropOp56
 70
     1
102
RTVSPost2010Prop57
140
1.0
102
RTVSPost2010PropOp57
 70
     1
102
RTVSPropertyOp0
 70
     1
102
RTVSPropertyOp1
 70
     1
102
RTVSPropertyOp2
 70
     1
102
RTVSPropertyOp3
 70
     1
102
RTVSPropertyOp4
 70
     1
102
RTVSPropertyOp5
 70
     1
102
RTVSPropertyOp6
 70
     1
102
RTVSPropertyOp7
 70
     1
102
RTVSPropertyOp8
 70
     1
102
RTVSPropertyOp9
 70
     1
102
RTVSPropertyOp10
 70
     1
102
RTVSPropertyOp11
 70
     1
102
RTVSPropertyOp12
 70
     1
102
RTVSPropertyOp13
 70
     1
102
RTVSPropertyOp14
 70
     1
102
RTVSPropertyOp15
 70
     1
102
RTVSPropertyOp16
 70
     1
102
RTVSPropertyOp17
 70
     1
102
RTVSPropertyOp18
 70
     1
102
RTVSPropertyOp19
 70
     1
102
RTVSPropertyOp20
 70
     1
102
RTVSPropertyOp21
 70
     1
102
RTVSPropertyOp22
 70
     1
102
RTVSPropertyOp23
 70
     1
102
RTVSPropertyOp24
 70
     1
102
RTVSPropertyOp25
 70
     1
102
RTVSPropertyOp26
 70
     1
102
RTVSPropertyOp27
 70
     1
102
RTVSPropertyOp28
 70
     1
102
RTVSPropertyOp29
 70
     1
102
RTVSPropertyOp30
 70
     1
102
RTVSPropertyOp31
 70
     1
102
RTVSPropertyOp32
 70
     1
102
RTVSPropertyOp33
 70
     1
102
RTVSPropertyOp34
 70
     1
102
RTVSPropertyOp35
 70
     1
102
RTVSPropertyOp36
 70
     1
102
RTVSPropertyOp37
 70
     1
102
RTVSPropertyOp38
 70
     1
102
RTVSPropertyOp39
 70
     1
102
RTVSPropertyOp40
 70
     1
102
RTVSPropertyOp41
 70
     1
102
RTVSPropertyOp42
 70
     1
102
RTVSPropertyOp43
 70
     1
102
RTVSPropertyOp44
 70
     1
102
RTVSPropertyOp45
 70
     1
102
RTVSPropertyOp46
 70
     1
102
RTVSPropertyOp47
 70
     1
102
RTVSPropertyOp48
 70
     1
102
RTVSPropertyOp49
 70
     1
102
RTVSPropertyOp50
 70
     1
102
RTVSPropertyOp51
 70
     0
102
RTVSPropertyOp52
 70
     0
102
RTVSPropertyOp53
 70
     1
102
RTVSPropertyOp54
 70
     1
102
RTVSPropertyOp55
 70
     1
102
RTVSPropertyOp56
 70
     1
102
RTVSPropertyOp57
 70
     1
102
RTVSPropertyOp58
 70
     1
102
RTVSPropertyOp59
 70
     1
102
RTVSPropertyOp60
 70
     1
102
RTVSPropertyOp61
 70
     1
102
RTVSPropertyOp62
 70
     1
  0
ENDSEC
  0
EOF
