  0
SECTION
  2
HEADER
  9
$ACADVER
  1
AC1015
  9
$ACADMAINTVER
 70
    20
  9
$DWGCODEPAGE
  3
ANSI_932
  9
$INSBASE
 10
0.0
 20
0.0
 30
0.0
  9
$EXTMIN
 10
10.0
 20
9.999999999999998
 30
0.0
  9
$EXTMAX
 10
590.2311479999998
 20
435.3751099999998
 30
0.0
  9
$LIMMIN
 10
0.0
 20
0.0
  9
$LIMMAX
 10
792.0
 20
546.0
  9
$ORTHOMODE
 70
     1
  9
$REGENMODE
 70
     1
  9
$FILLMODE
 70
     1
  9
$QTEXTMODE
 70
     0
  9
$MIRRTEXT
 70
     1
  9
$LTSCALE
 40
20.0
  9
$ATTMODE
 70
     1
  9
$TEXTSIZE
 40
5.0
  9
$TRACEWID
 40
1.0
  9
$TEXTSTYLE
  7
STANDARD
  9
$CLAYER
  8
0
  9
$CELTYPE
  6
BYLAYER
  9
$CECOLOR
 62
   256
  9
$CELTSCALE
 40
1.0
  9
$DISPSILH
 70
     0
  9
$DIMSCALE
 40
1.0
  9
$DIMASZ
 40
3.0
  9
$DIMEXO
 40
1.0
  9
$DIMDLI
 40
10.0
  9
$DIMRND
 40
0.0
  9
$DIMDLE
 40
0.0
  9
$DIMEXE
 40
1.0
  9
$DIMTP
 40
0.0
  9
$DIMTM
 40
0.0
  9
$DIMTXT
 40
3.2
  9
$DIMCEN
 40
0.0
  9
$DIMTSZ
 40
0.0
  9
$DIMTOL
 70
     0
  9
$DIMLIM
 70
     0
  9
$DIMTIH
 70
     0
  9
$DIMTOH
 70
     0
  9
$DIMSE1
 70
     0
  9
$DIMSE2
 70
     0
  9
$DIMTAD
 70
     3
  9
$DIMZIN
 70
     8
  9
$DIMBLK
  1

  9
$DIMASO
 70
     1
  9
$DIMSHO
 70
     1
  9
$DIMPOST
  1

  9
$DIMAPOST
  1

  9
$DIMALT
 70
     0
  9
$DIMALTD
 70
     2
  9
$DIMALTF
 40
25.4
  9
$DIMLFAC
 40
1.0
  9
$DIMTOFL
 70
     1
  9
$DIMTVP
 40
0.0
  9
$DIMTIX
 70
     0
  9
$DIMSOXD
 70
     0
  9
$DIMSAH
 70
     1
  9
$DIMBLK1
  1
OPEN
  9
$DIMBLK2
  1
OPEN
  9
$DIMSTYLE
  2
STANDARD
  9
$DIMCLRD
 70
     0
  9
$DIMCLRE
 70
     0
  9
$DIMCLRT
 70
     0
  9
$DIMTFAC
 40
1.0
  9
$DIMGAP
 40
1.0
  9
$DIMJUST
 70
     0
  9
$DIMSD1
 70
     0
  9
$DIMSD2
 70
     0
  9
$DIMTOLJ
 70
     1
  9
$DIMTZIN
 70
     0
  9
$DIMALTZ
 70
     0
  9
$DIMALTTZ
 70
     0
  9
$DIMUPT
 70
     0
  9
$DIMDEC
 70
     4
  9
$DIMTDEC
 70
     4
  9
$DIMALTU
 70
     2
  9
$DIMALTTD
 70
     2
  9
$DIMTXSTY
  7
STANDARD
  9
$DIMAUNIT
 70
     0
  9
$DIMADEC
 70
     0
  9
$DIMALTRND
 40
0.0
  9
$DIMAZIN
 70
     0
  9
$DIMDSEP
 70
    46
  9
$DIMATFIT
 70
     3
  9
$DIMFRAC
 70
     0
  9
$DIMLDRBLK
  1
OPEN
  9
$DIMLUNIT
 70
     2
  9
$DIMLWD
 70
    -2
  9
$DIMLWE
 70
    -2
  9
$DIMTMOVE
 70
     0
  9
$LUNITS
 70
     2
  9
$LUPREC
 70
     4
  9
$SKETCHINC
 40
1.0
  9
$FILLETRAD
 40
8.0
  9
$AUNITS
 70
     0
  9
$AUPREC
 70
     2
  9
$MENU
  1
.
  9
$ELEVATION
 40
0.0
  9
$PELEVATION
 40
0.0
  9
$THICKNESS
 40
0.0
  9
$LIMCHECK
 70
     0
  9
$CHAMFERA
 40
10.0
  9
$CHAMFERB
 40
10.0
  9
$CHAMFERC
 40
0.0
  9
$CHAMFERD
 40
0.0
  9
$SKPOLY
 70
     0
  9
$TDCREATE
 40
2451301.493036343
  9
$TDUCREATE
 40
2451301.118036343
  9
$TDUPDATE
 40
2457192.687485671
  9
$TDUUPDATE
 40
2457192.312485671
  9
$TDINDWG
 40
0.0000128935
  9
$TDUSRTIMER
 40
0.0000124074
  9
$USRTIMER
 70
     1
  9
$ANGBASE
 50
0.0
  9
$ANGDIR
 70
     0
  9
$PDMODE
 70
     0
  9
$PDSIZE
 40
0.0
  9
$PLINEWID
 40
0.0
  9
$SPLFRAME
 70
     0
  9
$SPLINETYPE
 70
     6
  9
$SPLINESEGS
 70
     8
  9
$HANDSEED
  5
ADDC
  9
$SURFTAB1
 70
     6
  9
$SURFTAB2
 70
     6
  9
$SURFTYPE
 70
     6
  9
$SURFU
 70
     6
  9
$SURFV
 70
     6
  9
$UCSBASE
  2

  9
$UCSNAME
  2

  9
$UCSORG
 10
0.0
 20
0.0
 30
0.0
  9
$UCSXDIR
 10
1.0
 20
0.0
 30
0.0
  9
$UCSYDIR
 10
0.0
 20
1.0
 30
0.0
  9
$UCSORTHOREF
  2

  9
$UCSORTHOVIEW
 70
     0
  9
$UCSORGTOP
 10
0.0
 20
0.0
 30
0.0
  9
$UCSORGBOTTOM
 10
0.0
 20
0.0
 30
0.0
  9
$UCSORGLEFT
 10
0.0
 20
0.0
 30
0.0
  9
$UCSORGRIGHT
 10
0.0
 20
0.0
 30
0.0
  9
$UCSORGFRONT
 10
0.0
 20
0.0
 30
0.0
  9
$UCSORGBACK
 10
0.0
 20
0.0
 30
0.0
  9
$PUCSBASE
  2

  9
$PUCSNAME
  2

  9
$PUCSORG
 10
0.0
 20
0.0
 30
0.0
  9
$PUCSXDIR
 10
1.0
 20
0.0
 30
0.0
  9
$PUCSYDIR
 10
0.0
 20
1.0
 30
0.0
  9
$PUCSORTHOREF
  2

  9
$PUCSORTHOVIEW
 70
     0
  9
$PUCSORGTOP
 10
0.0
 20
0.0
 30
0.0
  9
$PUCSORGBOTTOM
 10
0.0
 20
0.0
 30
0.0
  9
$PUCSORGLEFT
 10
0.0
 20
0.0
 30
0.0
  9
$PUCSORGRIGHT
 10
0.0
 20
0.0
 30
0.0
  9
$PUCSORGFRONT
 10
0.0
 20
0.0
 30
0.0
  9
$PUCSORGBACK
 10
0.0
 20
0.0
 30
0.0
  9
$USERI1
 70
     0
  9
$USERI2
 70
     0
  9
$USERI3
 70
     0
  9
$USERI4
 70
     0
  9
$USERI5
 70
     0
  9
$USERR1
 40
0.0
  9
$USERR2
 40
0.0
  9
$USERR3
 40
0.0
  9
$USERR4
 40
0.0
  9
$USERR5
 40
0.0
  9
$WORLDVIEW
 70
     1
  9
$SHADEDGE
 70
     3
  9
$SHADEDIF
 70
    70
  9
$TILEMODE
 70
     1
  9
$MAXACTVP
 70
    16
  9
$PINSBASE
 10
0.0
 20
0.0
 30
0.0
  9
$PLIMCHECK
 70
     0
  9
$PEXTMIN
 10
1.000000000000000E+20
 20
1.000000000000000E+20
 30
1.000000000000000E+20
  9
$PEXTMAX
 10
-1.000000000000000E+20
 20
-1.000000000000000E+20
 30
-1.000000000000000E+20
  9
$PLIMMIN
 10
0.0
 20
0.0
  9
$PLIMMAX
 10
420.0
 20
297.0
  9
$UNITMODE
 70
     0
  9
$VISRETAIN
 70
     0
  9
$PLINEGEN
 70
     0
  9
$PSLTSCALE
 70
     0
  9
$TREEDEPTH
 70
  3020
  9
$CMLSTYLE
  2
STANDARD
  9
$CMLJUST
 70
     0
  9
$CMLSCALE
 40
1.0
  9
$PROXYGRAPHICS
 70
     1
  9
$MEASUREMENT
 70
     0
  9
$CELWEIGHT
370
    -1
  9
$ENDCAPS
280
     0
  9
$JOINSTYLE
280
     0
  9
$LWDISPLAY
290
     0
  9
$INSUNITS
 70
     0
  9
$HYPERLINKBASE
  1

  9
$STYLESHEET
  1

  9
$XEDIT
290
     1
  9
$CEPSNTYPE
380
     0
  9
$PSTYLEMODE
290
     1
  9
$FINGERPRINTGUID
  2
{4F4F2AFF-8AB6-4F11-B4EB-06DF284EB9F8}
  9
$VERSIONGUID
  2
{09FF7EBF-64BD-4653-83BF-7675CB7A988A}
  9
$EXTNAMES
290
     1
  9
$PSVPSCALE
 40
0.0
  9
$OLESTARTUP
290
     0
  0
ENDSEC
  0
SECTION
  2
CLASSES
  0
CLASS
  1
ACDBDICTIONARYWDFLT
  2
AcDbDictionaryWithDefault
  3
ObjectDBX Classes
 90
        0
280
     0
281
     0
  0
CLASS
  1
ACDBPLACEHOLDER
  2
AcDbPlaceHolder
  3
ObjectDBX Classes
 90
        0
280
     0
281
     0
  0
CLASS
  1
LAYOUT
  2
AcDbLayout
  3
ObjectDBX Classes
 90
        0
280
     0
281
     0
  0
CLASS
  1
DICTIONARYVAR
  2
AcDbDictionaryVar
  3
ObjectDBX Classes
 90
        0
280
     0
281
     0
  0
CLASS
  1
MATERIAL
  2
AcDbMaterial
  3
ObjectDBX Classes
 90
     1153
280
     0
281
     0
  0
CLASS
  1
VISUALSTYLE
  2
AcDbVisualStyle
  3
ObjectDBX Classes
 90
     4095
280
     0
281
     0
  0
CLASS
  1
TABLESTYLE
  2
AcDbTableStyle
  3
ObjectDBX Classes
 90
     4095
280
     0
281
     0
  0
CLASS
  1
SCALE
  2
AcDbScale
  3
ObjectDBX Classes
 90
     1153
280
     0
281
     0
  0
CLASS
  1
MLEADERSTYLE
  2
AcDbMLeaderStyle
  3
ACDB_MLEADERSTYLE_CLASS
 90
     4095
280
     0
281
     0
  0
CLASS
  1
ACDBSECTIONVIEWSTYLE
  2
AcDbSectionViewStyle
  3
ObjectDBX Classes
 90
     1025
280
     0
281
     0
  0
CLASS
  1
ACDBDETAILVIEWSTYLE
  2
AcDbDetailViewStyle
  3
ObjectDBX Classes
 90
     1025
280
     0
281
     0
  0
CLASS
  1
CELLSTYLEMAP
  2
AcDbCellStyleMap
  3
ObjectDBX Classes
 90
     1152
280
     0
281
     0
  0
ENDSEC
  0
SECTION
  2
TABLES
  0
TABLE
  2
VPORT
  5
A971
330
0
100
AcDbSymbolTable
 70
     1
  0
VPORT
  5
AD25
330
A971
100
AcDbSymbolTableRecord
100
AcDbViewportTableRecord
  2
*ACTIVE
 70
     0
 10
0.0
 20
0.0
 11
1.0
 21
1.0
 12
428.9506449082566
 22
222.6789562907988
 13
0.0
 23
0.0
 14
10.0
 24
10.0
 15
10.0
 25
10.0
 16
0.0
 26
0.0
 36
1.0
 17
0.0
 27
0.0
 37
0.0
 40
430.0966276150827
 41
2.35006605019815
 42
50.0
 43
0.0
 44
0.0
 50
0.0
 51
0.0
 71
     0
 72
   100
 73
     1
 74
     0
 75
     0
 76
     0
 77
     0
 78
     0
281
     0
 65
     1
110
0.0
120
0.0
130
0.0
111
1.0
121
0.0
131
0.0
112
0.0
122
1.0
132
0.0
 79
     0
146
0.0
1001
ACAD_NAV_VCDISPLAY
1070
     3
  0
ENDTAB
  0
TABLE
  2
LTYPE
  5
A96E
330
0
100
AcDbSymbolTable
 70
     4
  0
LTYPE
  5
A97C
330
A96E
100
AcDbSymbolTableRecord
100
AcDbLinetypeTableRecord
  2
BYBLOCK
 70
     0
  3

 72
    65
 73
     0
 40
0.0
  0
LTYPE
  5
A97D
330
A96E
100
AcDbSymbolTableRecord
100
AcDbLinetypeTableRecord
  2
BYLAYER
 70
     0
  3

 72
    65
 73
     0
 40
0.0
  0
LTYPE
  5
A97E
330
A96E
100
AcDbSymbolTableRecord
100
AcDbLinetypeTableRecord
  2
CONTINUOUS
 70
     0
  3
Solid line
 72
    65
 73
     0
 40
0.0
  0
LTYPE
  5
A98C
330
A96E
100
AcDbSymbolTableRecord
100
AcDbLinetypeTableRecord
  2
DASHED
 70
     0
  3
__ __ __ __ __ __ __ __ __ __ __ __ __ __ __ __
 72
    65
 73
     2
 40
0.75
 49
0.5
 74
     0
 49
-0.25
 74
     0
  0
LTYPE
  5
A98D
330
A96E
100
AcDbSymbolTableRecord
100
AcDbLinetypeTableRecord
  2
CENTER
 70
     0
  3
____ _ ____ _ ____ _ ____ _ ____ _ ____ _ ____ 
 72
    65
 73
     4
 40
2.0
 49
1.25
 74
     0
 49
-0.25
 74
     0
 49
0.25
 74
     0
 49
-0.25
 74
     0
  0
LTYPE
  5
A98E
330
A96E
100
AcDbSymbolTableRecord
100
AcDbLinetypeTableRecord
  2
PHANTOM
 70
     0
  3
______  __  __  ______  __  __  ______  __  __ 
 72
    65
 73
     6
 40
2.5
 49
1.25
 74
     0
 49
-0.25
 74
     0
 49
0.25
 74
     0
 49
-0.25
 74
     0
 49
0.25
 74
     0
 49
-0.25
 74
     0
  0
ENDTAB
  0
TABLE
  2
LAYER
  5
A96B
330
0
100
AcDbSymbolTable
 70
     8
  0
LAYER
  5
A979
102
{ACAD_XDICTIONARY
360
AD80
102
}
330
A96B
100
AcDbSymbolTableRecord
100
AcDbLayerTableRecord
  2
0
 70
     0
 62
     7
  6
CONTINUOUS
370
    -3
390
AD2E
  0
LAYER
  5
A98F
102
{ACAD_XDICTIONARY
360
AD82
102
}
330
A96B
100
AcDbSymbolTableRecord
100
AcDbLayerTableRecord
  2
4
 70
     0
 62
     1
  6
CENTER
370
    -3
390
AD2E
  0
LAYER
  5
A990
102
{ACAD_XDICTIONARY
360
AD84
102
}
330
A96B
100
AcDbSymbolTableRecord
100
AcDbLayerTableRecord
  2
5
 70
     0
 62
     6
  6
PHANTOM
370
    -3
390
AD2E
  0
LAYER
  5
A991
102
{ACAD_XDICTIONARY
360
AD86
102
}
330
A96B
100
AcDbSymbolTableRecord
100
AcDbLayerTableRecord
  2
1
 70
     0
 62
     7
  6
CONTINUOUS
370
    -3
390
AD2E
  0
LAYER
  5
A992
102
{ACAD_XDICTIONARY
360
AD88
102
}
330
A96B
100
AcDbSymbolTableRecord
100
AcDbLayerTableRecord
  2
2
 70
     0
 62
     4
  6
CONTINUOUS
370
    -3
390
AD2E
  0
LAYER
  5
A993
102
{ACAD_XDICTIONARY
360
AD8A
102
}
330
A96B
100
AcDbSymbolTableRecord
100
AcDbLayerTableRecord
  2
3
 70
     0
 62
     2
  6
DASHED
370
    -3
390
AD2E
  0
LAYER
  5
A994
102
{ACAD_XDICTIONARY
360
AD8C
102
}
330
A96B
100
AcDbSymbolTableRecord
100
AcDbLayerTableRecord
  2
6
 70
     0
 62
     5
  6
CONTINUOUS
370
    -3
390
AD2E
  0
LAYER
  5
A995
102
{ACAD_XDICTIONARY
360
AD8E
102
}
330
A96B
100
AcDbSymbolTableRecord
100
AcDbLayerTableRecord
  2
7
 70
     0
 62
     3
  6
CONTINUOUS
370
    -3
390
AD2E
  0
ENDTAB
  0
TABLE
  2
STYLE
  5
A96C
330
0
100
AcDbSymbolTable
 70
     1
  0
STYLE
  5
A97A
330
A96C
100
AcDbSymbolTableRecord
100
AcDbTextStyleTableRecord
  2
STANDARD
 70
     0
 40
0.0
 41
1.0
 50
0.0
 71
     0
 42
5.0
  3
txt
  4

  0
ENDTAB
  0
TABLE
  2
VIEW
  5
A96F
330
0
100
AcDbSymbolTable
 70
     0
  0
ENDTAB
  0
TABLE
  2
UCS
  5
A970
330
0
100
AcDbSymbolTable
 70
     0
  0
ENDTAB
  0
TABLE
  2
APPID
  5
A972
330
0
100
AcDbSymbolTable
 70
     3
  0
APPID
  5
A97B
330
A972
100
AcDbSymbolTableRecord
100
AcDbRegAppTableRecord
  2
ACAD
 70
     0
  0
APPID
  5
AD9A
330
A972
100
AcDbSymbolTableRecord
100
AcDbRegAppTableRecord
  2
ACAD_NAV_VCDISPLAY
 70
     0
  0
APPID
  5
ADD3
330
A972
100
AcDbSymbolTableRecord
100
AcDbRegAppTableRecord
  2
ACAD_MLEADERVER
 70
     0
  0
ENDTAB
  0
TABLE
  2
DIMSTYLE
  5
A973
330
0
100
AcDbSymbolTable
 70
     1
100
AcDbDimStyleTable
 71
     0
  0
DIMSTYLE
105
A997
330
A973
100
AcDbSymbolTableRecord
100
AcDbDimStyleTableRecord
  2
STANDARD
 70
     0
 41
3.0
 42
1.0
 43
10.0
 44
1.0
 73
     0
 74
     0
 77
     3
 78
     8
140
3.2
141
0.0
147
1.0
172
     1
173
     1
284
     8
285
     8
286
     8
340
A97A
  0
ENDTAB
  0
TABLE
  2
BLOCK_RECORD
  5
A96A
330
0
100
AcDbSymbolTable
 70
     1
  0
BLOCK_RECORD
  5
A987
102
{ACAD_XDICTIONARY
360
AD28
102
}
330
A96A
100
AcDbSymbolTableRecord
100
AcDbBlockTableRecord
  2
*MODEL_SPACE
340
AD7C
  0
BLOCK_RECORD
  5
A983
102
{ACAD_XDICTIONARY
360
AD26
102
}
330
A96A
100
AcDbSymbolTableRecord
100
AcDbBlockTableRecord
  2
*PAPER_SPACE
340
AD7D
  0
BLOCK_RECORD
  5
A99F
330
A96A
100
AcDbSymbolTableRecord
100
AcDbBlockTableRecord
  2
_OPEN
340
0
  0
ENDTAB
  0
ENDSEC
  0
SECTION
  2
BLOCKS
  0
BLOCK
  5
A988
330
A987
100
AcDbEntity
  8
0
100
AcDbBlockBegin
  2
*MODEL_SPACE
 70
     0
 10
0.0
 20
0.0
 30
0.0
  3
*MODEL_SPACE
  1

  0
ENDBLK
  5
A989
330
A987
100
AcDbEntity
  8
0
100
AcDbBlockEnd
  0
BLOCK
  5
A984
330
A983
100
AcDbEntity
 67
     1
  8
0
100
AcDbBlockBegin
  2
*PAPER_SPACE
 70
     0
 10
0.0
 20
0.0
 30
0.0
  3
*PAPER_SPACE
  1

  0
ENDBLK
  5
A985
330
A983
100
AcDbEntity
 67
     1
  8
0
100
AcDbBlockEnd
  0
BLOCK
  5
A9A0
330
A99F
100
AcDbEntity
  8
0
100
AcDbBlockBegin
  2
_OPEN
 70
     0
 10
0.0
 20
0.0
 30
0.0
  3
_OPEN
  1

  0
LINE
  5
A9A1
330
A99F
100
AcDbEntity
  8
0
  6
ByBlock
 62
     0
100
AcDbLine
 10
-1.0
 20
0.166667
 30
0.0
 11
0.0
 21
0.0
 31
0.0
  0
LINE
  5
A9A2
330
A99F
100
AcDbEntity
  8
0
  6
ByBlock
 62
     0
100
AcDbLine
 10
0.0
 20
0.0
 30
0.0
 11
-1.0
 21
-0.166667
 31
0.0
  0
LINE
  5
A9A3
330
A99F
100
AcDbEntity
  8
0
  6
ByBlock
 62
     0
100
AcDbLine
 10
0.0
 20
0.0
 30
0.0
 11
-1.0
 21
0.0
 31
0.0
  0
ENDBLK
  5
A9A4
330
A99F
100
AcDbEntity
  8
0
100
AcDbBlockEnd
  0
ENDSEC
  0
SECTION
  2
ENTITIES
  0
TEXT
  5
A9A5
330
A987
100
AcDbEntity
  8
7
  6
Continuous
100
AcDbText
 10
10.0
 20
18.0
 30
0.0
 40
3.0
  1
TYPE No.108S
100
AcDbText
  0
TEXT
  5
A9A6
330
A987
100
AcDbEntity
  8
7
  6
Continuous
100
AcDbText
 10
10.0
 20
26.0
 30
0.0
 40
3.0
  1
CODE No.9019
100
AcDbText
  0
TEXT
  5
A9A7
330
A987
100
AcDbEntity
  8
1
  6
Continuous
100
AcDbText
 10
10.0
 20
10.0
 30
0.0
 40
1.399999999999999
  1
LAYER
100
AcDbText
  0
TEXT
  5
A9A8
330
A987
100
AcDbEntity
  8
1
  6
Continuous
100
AcDbText
 10
17.97951099999998
 20
10.04873699999998
 30
0.0
 40
1.399999999999999
  1
1
100
AcDbText
  0
TEXT
  5
A9A9
330
A987
100
AcDbEntity
  8
7
  6
Continuous
100
AcDbText
 10
29.97951099999999
 20
10.04873699999998
 30
0.0
 40
1.399999999999999
  1
7
100
AcDbText
  0
TEXT
  5
A9AA
330
A987
100
AcDbEntity
  8
4
  6
CENTER
100
AcDbText
 10
23.97951099999999
 20
10.04873699999998
 30
0.0
 40
1.399999999999999
  1
4
100
AcDbText
  0
TEXT
  5
A9AB
330
A987
100
AcDbEntity
  8
3
  6
DASHED
100
AcDbText
 10
21.979511
 20
10.04873699999998
 30
0.0
 40
1.399999999999999
  1
3
100
AcDbText
  0
TEXT
  5
A9AC
330
A987
100
AcDbEntity
  8
2
  6
Continuous
100
AcDbText
 10
19.97951099999999
 20
10.04873699999998
 30
0.0
 40
1.399999999999999
  1
2
100
AcDbText
  0
TEXT
  5
A9AD
330
A987
100
AcDbEntity
  8
6
  6
Continuous
100
AcDbText
 10
27.979511
 20
10.04873699999998
 30
0.0
 40
1.399999999999999
  1
6
100
AcDbText
  0
TEXT
  5
A9AE
330
A987
100
AcDbEntity
  8
5
  6
PHANTOM
100
AcDbText
 10
25.97951099999999
 20
10.04873699999998
 30
0.0
 40
1.399999999999999
  1
5
100
AcDbText
  0
LINE
  5
A9AF
330
A987
100
AcDbEntity
  8
4
  6
CENTER
100
AcDbLine
 10
330.0098619999999
 20
229.998735
 30
0.0
 11
390.6262299999998
 21
229.998735
 31
0.0
  0
LINE
  5
A9B0
330
A987
100
AcDbEntity
  8
1
  6
Continuous
100
AcDbLine
 10
336.6976399999999
 20
304.8337389999999
 30
0.0
 11
390.0698399999998
 21
304.8337389999999
 31
0.0
  0
LINE
  5
A9B1
330
A987
100
AcDbEntity
  8
1
  6
Continuous
100
AcDbLine
 10
336.6976399999999
 20
306.940739
 30
0.0
 11
390.0698399999998
 21
306.940739
 31
0.0
  0
LINE
  5
A9B2
330
A987
100
AcDbEntity
  8
1
  6
Continuous
100
AcDbLine
 10
325.733735
 20
312.24912
 30
0.0
 11
400.733735
 21
312.24912
 31
0.0
  0
LINE
  5
A9B3
330
A987
100
AcDbEntity
  8
1
  6
Continuous
100
AcDbLine
 10
325.733735
 20
315.148735
 30
0.0
 11
400.733735
 21
315.148735
 31
0.0
  0
LINE
  5
A9B4
330
A987
100
AcDbEntity
  8
1
  6
Continuous
100
AcDbLine
 10
333.961165
 20
308.7757349999999
 30
0.0
 11
392.5063039999998
 21
308.7757349999999
 31
0.0
  0
LINE
  5
A9B5
330
A987
100
AcDbEntity
  8
4
  6
CENTER
100
AcDbLine
 10
282.2363389999998
 20
230.148739
 30
0.0
 11
136.2363389999998
 21
230.148739
 31
0.0
  0
LINE
  5
A9B6
330
A987
100
AcDbEntity
  8
4
  6
CENTER
100
AcDbLine
 10
299.7363389999998
 20
392.8751099999999
 30
0.0
 11
139.2363389999998
 21
392.8751099999999
 31
0.0
  0
LINE
  5
A9B7
330
A987
100
AcDbEntity
  8
4
  6
CENTER
100
AcDbLine
 10
245.2363389999999
 20
350.37511
 30
0.0
 11
245.2363389999999
 21
435.3751099999998
 31
0.0
  0
CIRCLE
  5
A9B8
330
A987
100
AcDbEntity
  8
1
  6
Continuous
100
AcDbCircle
 10
245.2363389999999
 20
392.8751099999999
 30
0.0
 40
31.0
  0
LINE
  5
A9B9
330
A987
100
AcDbEntity
  8
1
  6
Continuous
100
AcDbLine
 10
195.7363389999999
 20
362.87511
 30
0.0
 11
195.7363389999999
 21
422.8751099999998
 31
0.0
  0
LINE
  5
A9BA
330
A987
100
AcDbEntity
  8
1
  6
Continuous
100
AcDbLine
 10
294.7363389999998
 20
362.87511
 30
0.0
 11
294.7363389999998
 21
422.8751099999998
 31
0.0
  0
CIRCLE
  5
A9BB
330
A987
100
AcDbEntity
  8
1
  6
Continuous
100
AcDbCircle
 10
245.2363389999999
 20
392.8751099999999
 30
0.0
 40
13.34999999999999
  0
LINE
  5
A9BC
330
A987
100
AcDbEntity
  8
1
  6
Continuous
100
AcDbLine
 10
287.2363389999998
 20
355.3751099999999
 30
0.0
 11
203.2363389999999
 21
355.3751099999999
 31
0.0
  0
LINE
  5
A9BD
330
A987
100
AcDbEntity
  8
4
  6
CENTER
100
AcDbLine
 10
205.236339
 20
357.62511
 30
0.0
 11
205.236339
 21
372.1251099999999
 31
0.0
  0
ARC
  5
A9BE
330
A987
100
AcDbEntity
  8
1
  6
Continuous
100
AcDbCircle
 10
203.2363389999999
 20
362.87511
 30
0.0
 40
7.5
100
AcDbArc
 50
180.0
 51
270.0
  0
CIRCLE
  5
A9BF
330
A987
100
AcDbEntity
  8
1
  6
Continuous
100
AcDbCircle
 10
205.236339
 20
364.87511
 30
0.0
 40
4.25
  0
LINE
  5
A9C0
330
A987
100
AcDbEntity
  8
4
  6
CENTER
100
AcDbLine
 10
212.4863389999999
 20
364.87511
 30
0.0
 11
197.986339
 21
364.87511
 31
0.0
  0
LINE
  5
A9C1
330
A987
100
AcDbEntity
  8
4
  6
CENTER
100
AcDbLine
 10
285.2363389999998
 20
357.62511
 30
0.0
 11
285.2363389999998
 21
372.1251099999999
 31
0.0
  0
ARC
  5
A9C2
330
A987
100
AcDbEntity
  8
1
  6
Continuous
100
AcDbCircle
 10
287.2363389999998
 20
362.87511
 30
0.0
 40
7.5
100
AcDbArc
 50
270.0
 51
0.0
  0
CIRCLE
  5
A9C3
330
A987
100
AcDbEntity
  8
1
  6
Continuous
100
AcDbCircle
 10
285.2363389999998
 20
364.87511
 30
0.0
 40
4.25
  0
ARC
  5
A9C4
330
A987
100
AcDbEntity
  8
1
  6
Continuous
100
AcDbCircle
 10
333.961165
 20
316.275735
 30
0.0
 40
7.5
100
AcDbArc
 50
212.4716319999998
 51
270.0
  0
LINE
  5
A9C5
330
A987
100
AcDbEntity
  8
1
  6
Continuous
100
AcDbLine
 10
340.526067
 20
304.8337389999999
 30
0.0
 11
338.526067
 21
306.940739
 31
0.0
  0
LINE
  5
A9C6
330
A987
100
AcDbEntity
  8
1
  6
Continuous
100
AcDbLine
 10
339.9402799999998
 20
304.8337389999999
 30
0.0
 11
341.9402799999998
 21
306.940739
 31
0.0
  0
LINE
  5
A9C7
330
A987
100
AcDbEntity
  8
1
  6
Continuous
100
AcDbLine
 10
337.6976399999999
 20
304.8337389999999
 30
0.0
 11
336.6976399999999
 21
305.8337389999999
 31
0.0
  0
LINE
  5
A9C8
330
A987
100
AcDbEntity
  8
1
  6
Continuous
100
AcDbLine
 10
337.81896
 20
304.8337389999999
 30
0.0
 11
339.81896
 21
306.940739
 31
0.0
  0
LINE
  5
A9C9
330
A987
100
AcDbEntity
  8
1
  6
Continuous
100
AcDbLine
 10
337.6976399999999
 20
306.940739
 30
0.0
 11
336.6976399999999
 21
305.8337389999999
 31
0.0
  0
ARC
  5
A9CA
330
A987
100
AcDbEntity
  8
1
  6
Continuous
100
AcDbCircle
 10
345.544594
 20
314.01511
 30
0.0
 40
9.740422999999999
100
AcDbArc
 50
212.5408119999999
 51
226.576259
  0
LINE
  5
A9CB
330
A987
100
AcDbEntity
  8
1
  6
Continuous
100
AcDbLine
 10
336.6976399999999
 20
304.8337389999999
 30
0.0
 11
336.6976399999999
 21
306.940739
 31
0.0
  0
LINE
  5
A9CC
330
A987
100
AcDbEntity
  8
1
  6
Continuous
100
AcDbLine
 10
343.3544939999998
 20
304.8337389999999
 30
0.0
 11
341.3544939999998
 21
306.940739
 31
0.0
  0
LINE
  5
A9CD
330
A987
100
AcDbEntity
  8
1
  6
Continuous
100
AcDbLine
 10
342.0616009999998
 20
304.8337389999999
 30
0.0
 11
344.0616009999998
 21
306.940739
 31
0.0
  0
LINE
  5
A9CE
330
A987
100
AcDbEntity
  8
1
  6
Continuous
100
AcDbLine
 10
325.733735
 20
315.148735
 30
0.0
 11
325.733735
 21
312.24912
 31
0.0
  0
LINE
  5
A9CF
330
A987
100
AcDbEntity
  8
4
  6
CENTER
100
AcDbLine
 10
292.486339
 20
364.87511
 30
0.0
 11
277.986339
 21
364.87511
 31
0.0
  0
LINE
  5
A9D0
330
A987
100
AcDbEntity
  8
1
  6
Continuous
100
AcDbLine
 10
287.2363389999998
 20
430.3751099999998
 30
0.0
 11
203.2363389999999
 21
430.3751099999998
 31
0.0
  0
ARC
  5
A9D1
330
A987
100
AcDbEntity
  8
1
  6
Continuous
100
AcDbCircle
 10
203.2363389999999
 20
422.8751099999998
 30
0.0
 40
7.5
100
AcDbArc
 50
90.0
 51
180.0
  0
LINE
  5
A9D2
330
A987
100
AcDbEntity
  8
4
  6
CENTER
100
AcDbLine
 10
212.4863389999999
 20
420.8751099999998
 30
0.0
 11
197.986339
 21
420.8751099999998
 31
0.0
  0
CIRCLE
  5
A9D3
330
A987
100
AcDbEntity
  8
1
  6
Continuous
100
AcDbCircle
 10
205.236339
 20
420.8751099999998
 30
0.0
 40
4.25
  0
LINE
  5
A9D4
330
A987
100
AcDbEntity
  8
4
  6
CENTER
100
AcDbLine
 10
205.236339
 20
413.6251099999998
 30
0.0
 11
205.236339
 21
428.1251099999998
 31
0.0
  0
LINE
  5
A9D5
330
A987
100
AcDbEntity
  8
4
  6
CENTER
100
AcDbLine
 10
292.486339
 20
420.8751099999998
 30
0.0
 11
277.986339
 21
420.8751099999998
 31
0.0
  0
ARC
  5
A9D6
330
A987
100
AcDbEntity
  8
1
  6
Continuous
100
AcDbCircle
 10
287.2363389999998
 20
422.8751099999998
 30
0.0
 40
7.5
100
AcDbArc
 50
0.0
 51
90.0
  0
CIRCLE
  5
A9D7
330
A987
100
AcDbEntity
  8
1
  6
Continuous
100
AcDbCircle
 10
285.2363389999998
 20
420.8751099999998
 30
0.0
 40
4.25
  0
LINE
  5
A9D8
330
A987
100
AcDbEntity
  8
4
  6
CENTER
100
AcDbLine
 10
285.2363389999998
 20
413.6251099999998
 30
0.0
 11
285.2363389999998
 21
428.1251099999998
 31
0.0
  0
LINE
  5
A9D9
330
A987
100
AcDbEntity
  8
4
  6
CENTER
100
AcDbLine
 10
363.233743
 20
320.1487349999998
 30
0.0
 11
363.233743
 21
157.1487389999998
 31
0.0
  0
ARC
  5
A9DA
330
A987
100
AcDbEntity
  8
1
  6
Continuous
100
AcDbCircle
 10
116.9851689999999
 20
196.291948
 30
0.0
 40
277.8421779999998
100
AcDbArc
 50
13.58600199999999
 51
19.83204999999999
  0
ARC
  5
A9DB
330
A987
100
AcDbEntity
  8
1
  6
Continuous
100
AcDbCircle
 10
116.9496709999999
 20
196.123224
 30
0.0
 40
280.2147699999999
100
AcDbArc
 50
13.044057
 51
19.16351999999999
  0
ARC
  5
A9DC
330
A987
100
AcDbEntity
  8
1
  6
Continuous
100
AcDbCircle
 10
358.197645
 20
252.198299
 30
0.0
 40
32.53609799999999
100
AcDbArc
 50
2.672433999999999
 51
12.72982799999999
  0
LINE
  5
A9DD
330
A987
100
AcDbEntity
  8
1
  6
Continuous
100
AcDbLine
 10
381.5865249999998
 20
227.269807
 30
0.0
 11
381.576723
 21
217.498753
 31
0.0
  0
LINE
  5
A9DE
330
A987
100
AcDbEntity
  8
1
  6
Continuous
100
AcDbLine
 10
377.2956189999999
 20
304.8337389999999
 30
0.0
 11
375.2956189999999
 21
306.940739
 31
0.0
  0
LINE
  5
A9DF
330
A987
100
AcDbEntity
  8
1
  6
Continuous
100
AcDbLine
 10
376.002726
 20
304.8337389999999
 30
0.0
 11
378.002726
 21
306.940739
 31
0.0
  0
ARC
  5
A9E0
330
A987
100
AcDbEntity
  8
1
  6
Continuous
100
AcDbCircle
 10
372.781274
 20
288.57601
 30
0.0
 40
5.908440999999998
100
AcDbArc
 50
19.557187
 51
71.279225
  0
ARC
  5
A9E1
330
A987
100
AcDbEntity
  8
1
  6
Continuous
100
AcDbCircle
 10
372.921012
 20
285.1310429999998
 30
0.0
 40
9.209889
100
AcDbArc
 50
18.85874099999998
 51
79.00453
  0
LINE
  5
A9E2
330
A987
100
AcDbEntity
  8
1
  6
Continuous
100
AcDbLine
 10
359.0321629999999
 20
304.8337389999999
 30
0.0
 11
361.0321629999999
 21
306.940739
 31
0.0
  0
ARC
  5
A9E3
330
A987
100
AcDbEntity
  8
1
  6
Continuous
100
AcDbCircle
 10
363.233743
 20
235.273323
 30
0.0
 40
60.0
100
AcDbArc
 50
79.00453
 51
100.9954699999999
  0
LINE
  5
A9E4
330
A987
100
AcDbEntity
  8
1
  6
Continuous
100
AcDbLine
 10
350.5468819999999
 20
304.8337389999999
 30
0.0
 11
352.5468819999999
 21
306.940739
 31
0.0
  0
LINE
  5
A9E5
330
A987
100
AcDbEntity
  8
1
  6
Continuous
100
AcDbLine
 10
349.011348
 20
304.8337389999999
 30
0.0
 11
347.011348
 21
306.940739
 31
0.0
  0
LINE
  5
A9E6
330
A987
100
AcDbEntity
  8
1
  6
Continuous
100
AcDbLine
 10
346.3042409999998
 20
304.8337389999999
 30
0.0
 11
348.3042409999998
 21
306.940739
 31
0.0
  0
LINE
  5
A9E7
330
A987
100
AcDbEntity
  8
1
  6
Continuous
100
AcDbLine
 10
346.182921
 20
304.8337389999999
 30
0.0
 11
344.182921
 21
306.940739
 31
0.0
  0
LINE
  5
A9E8
330
A987
100
AcDbEntity
  8
1
  6
Continuous
100
AcDbLine
 10
344.182921
 20
304.8337389999999
 30
0.0
 11
346.182921
 21
306.940739
 31
0.0
  0
LINE
  5
A9E9
330
A987
100
AcDbEntity
  8
1
  6
Continuous
100
AcDbLine
 10
351.8397749999999
 20
304.8337389999999
 30
0.0
 11
349.8397749999999
 21
306.940739
 31
0.0
  0
LINE
  5
A9EA
330
A987
100
AcDbEntity
  8
1
  6
Continuous
100
AcDbLine
 10
348.425562
 20
304.8337389999999
 30
0.0
 11
350.425562
 21
306.940739
 31
0.0
  0
LINE
  5
A9EB
330
A987
100
AcDbEntity
  8
1
  6
Continuous
100
AcDbLine
 10
357.4966289999999
 20
304.8337389999999
 30
0.0
 11
355.4966289999999
 21
306.940739
 31
0.0
  0
LINE
  5
A9EC
330
A987
100
AcDbEntity
  8
1
  6
Continuous
100
AcDbLine
 10
354.7895229999999
 20
304.8337389999999
 30
0.0
 11
356.7895229999999
 21
306.940739
 31
0.0
  0
LINE
  5
A9ED
330
A987
100
AcDbEntity
  8
1
  6
Continuous
100
AcDbLine
 10
354.6682019999999
 20
304.8337389999999
 30
0.0
 11
352.6682019999999
 21
306.940739
 31
0.0
  0
LINE
  5
A9EE
330
A987
100
AcDbEntity
  8
1
  6
Continuous
100
AcDbLine
 10
352.6682019999999
 20
304.8337389999999
 30
0.0
 11
354.6682019999999
 21
306.940739
 31
0.0
  0
LINE
  5
A9EF
330
A987
100
AcDbEntity
  8
1
  6
Continuous
100
AcDbLine
 10
360.3250569999998
 20
304.8337389999999
 30
0.0
 11
358.3250569999998
 21
306.940739
 31
0.0
  0
LINE
  5
A9F0
330
A987
100
AcDbEntity
  8
1
  6
Continuous
100
AcDbLine
 10
356.9108429999998
 20
304.8337389999999
 30
0.0
 11
358.910843
 21
306.940739
 31
0.0
  0
LINE
  5
A9F1
330
A987
100
AcDbEntity
  8
1
  6
Continuous
100
AcDbLine
 10
368.810338
 20
304.8337389999999
 30
0.0
 11
366.810338
 21
306.940739
 31
0.0
  0
LINE
  5
A9F2
330
A987
100
AcDbEntity
  8
1
  6
Continuous
100
AcDbLine
 10
367.517445
 20
304.8337389999999
 30
0.0
 11
369.517445
 21
306.940739
 31
0.0
  0
LINE
  5
A9F3
330
A987
100
AcDbEntity
  8
1
  6
Continuous
100
AcDbLine
 10
365.9819109999999
 20
304.8337389999999
 30
0.0
 11
363.9819109999999
 21
306.940739
 31
0.0
  0
LINE
  5
A9F4
330
A987
100
AcDbEntity
  8
1
  6
Continuous
100
AcDbLine
 10
363.274804
 20
304.8337389999999
 30
0.0
 11
365.274804
 21
306.940739
 31
0.0
  0
LINE
  5
A9F5
330
A987
100
AcDbEntity
  8
1
  6
Continuous
100
AcDbLine
 10
363.153484
 20
304.8337389999999
 30
0.0
 11
361.153484
 21
306.940739
 31
0.0
  0
LINE
  5
A9F6
330
A987
100
AcDbEntity
  8
1
  6
Continuous
100
AcDbLine
 10
361.153484
 20
304.8337389999999
 30
0.0
 11
363.153484
 21
306.940739
 31
0.0
  0
LINE
  5
A9F7
330
A987
100
AcDbEntity
  8
1
  6
Continuous
100
AcDbLine
 10
365.396124
 20
304.8337389999999
 30
0.0
 11
367.3961240000001
 21
306.940739
 31
0.0
  0
LINE
  5
A9F8
330
A987
100
AcDbEntity
  8
1
  6
Continuous
100
AcDbLine
 10
374.467192
 20
304.8337389999999
 30
0.0
 11
372.467192
 21
306.940739
 31
0.0
  0
LINE
  5
A9F9
330
A987
100
AcDbEntity
  8
1
  6
Continuous
100
AcDbLine
 10
371.760085
 20
304.8337389999999
 30
0.0
 11
373.760085
 21
306.940739
 31
0.0
  0
LINE
  5
A9FA
330
A987
100
AcDbEntity
  8
1
  6
Continuous
100
AcDbLine
 10
371.6387649999999
 20
304.8337389999999
 30
0.0
 11
369.6387649999999
 21
306.940739
 31
0.0
  0
LINE
  5
A9FB
330
A987
100
AcDbEntity
  8
1
  6
Continuous
100
AcDbLine
 10
369.6387649999999
 20
304.8337389999999
 30
0.0
 11
371.6387649999999
 21
306.940739
 31
0.0
  0
LINE
  5
A9FC
330
A987
100
AcDbEntity
  8
1
  6
Continuous
100
AcDbLine
 10
373.881406
 20
304.8337389999999
 30
0.0
 11
375.881406
 21
306.940739
 31
0.0
  0
ARC
  5
A9FD
330
A987
100
AcDbEntity
  8
1
  6
Continuous
100
AcDbCircle
 10
392.5063039999998
 20
316.275735
 30
0.0
 40
7.5
100
AcDbArc
 50
270.0
 51
327.528368
  0
LINE
  5
A9FE
330
A987
100
AcDbEntity
  8
1
  6
Continuous
100
AcDbLine
 10
385.780901
 20
304.8337389999999
 30
0.0
 11
383.7809009999999
 21
306.940739
 31
0.0
  0
LINE
  5
A9FF
330
A987
100
AcDbEntity
  8
1
  6
Continuous
100
AcDbLine
 10
384.4880069999999
 20
304.8337389999999
 30
0.0
 11
386.4880069999999
 21
306.940739
 31
0.0
  0
LINE
  5
AA00
330
A987
100
AcDbEntity
  8
1
  6
Continuous
100
AcDbLine
 10
382.952474
 20
304.8337389999999
 30
0.0
 11
380.952474
 21
306.940739
 31
0.0
  0
LINE
  5
AA01
330
A987
100
AcDbEntity
  8
1
  6
Continuous
100
AcDbLine
 10
380.2453669999999
 20
304.8337389999999
 30
0.0
 11
382.2453669999999
 21
306.940739
 31
0.0
  0
LINE
  5
AA02
330
A987
100
AcDbEntity
  8
1
  6
Continuous
100
AcDbLine
 10
380.124046
 20
304.8337389999999
 30
0.0
 11
378.124046
 21
306.940739
 31
0.0
  0
LINE
  5
AA03
330
A987
100
AcDbEntity
  8
1
  6
Continuous
100
AcDbLine
 10
378.124046
 20
304.8337389999999
 30
0.0
 11
380.124046
 21
306.940739
 31
0.0
  0
LINE
  5
AA04
330
A987
100
AcDbEntity
  8
1
  6
Continuous
100
AcDbLine
 10
382.366687
 20
304.8337389999999
 30
0.0
 11
384.366687
 21
306.940739
 31
0.0
  0
LINE
  5
AA05
330
A987
100
AcDbEntity
  8
1
  6
Continuous
100
AcDbLine
 10
388.7306479999999
 20
304.8337389999999
 30
0.0
 11
390.0698399999998
 21
306.27993
 31
0.0
  0
ARC
  5
AA06
330
A987
100
AcDbEntity
  8
1
  6
Continuous
100
AcDbCircle
 10
381.977374
 20
312.761158
 30
0.0
 40
8.316993
100
AcDbArc
 50
315.587222
 51
331.367448
  0
LINE
  5
AA07
330
A987
100
AcDbEntity
  8
1
  6
Continuous
100
AcDbLine
 10
388.609328
 20
304.8337389999999
 30
0.0
 11
386.609328
 21
306.940739
 31
0.0
  0
LINE
  5
AA08
330
A987
100
AcDbEntity
  8
1
  6
Continuous
100
AcDbLine
 10
386.609328
 20
304.8337389999999
 30
0.0
 11
388.609328
 21
306.940739
 31
0.0
  0
LINE
  5
AA09
330
A987
100
AcDbEntity
  8
1
  6
Continuous
100
AcDbLine
 10
390.0698399999998
 20
306.308654
 30
0.0
 11
389.4377549999999
 21
306.940739
 31
0.0
  0
LINE
  5
AA0A
330
A987
100
AcDbEntity
  8
1
  6
Continuous
100
AcDbLine
 10
390.0698399999998
 20
306.940739
 30
0.0
 11
390.0698399999998
 21
304.8337389999999
 31
0.0
  0
LINE
  5
AA0B
330
A987
100
AcDbEntity
  8
1
  6
Continuous
100
AcDbLine
 10
400.733735
 20
315.148735
 30
0.0
 11
400.733735
 21
312.24912
 31
0.0
  0
ARC
  5
AA0C
330
A987
100
AcDbEntity
  8
1
  6
Continuous
100
AcDbCircle
 10
36.966356
 20
316.2757529999999
 30
0.0
 40
7.5
100
AcDbArc
 50
212.4716319999998
 51
270.0
  0
LINE
  5
AA0D
330
A987
100
AcDbEntity
  8
1
  6
Continuous
100
AcDbLine
 10
28.73892599999999
 20
312.249138
 30
0.0
 11
103.738926
 21
312.249138
 31
0.0
  0
LINE
  5
AA0E
330
A987
100
AcDbEntity
  8
1
  6
Continuous
100
AcDbLine
 10
28.73892599999999
 20
315.148753
 30
0.0
 11
103.738926
 21
315.148753
 31
0.0
  0
LINE
  5
AA0F
330
A987
100
AcDbEntity
  8
4
  6
CENTER
100
AcDbLine
 10
245.2363389999999
 20
249.735135
 30
0.0
 11
245.2363389999999
 21
320.148739
 31
0.0
  0
LINE
  5
AA10
330
A987
100
AcDbEntity
  8
1
  6
Continuous
100
AcDbLine
 10
223.76406
 20
301.319268
 30
0.0
 11
223.76406
 21
242.9508229999999
 31
0.0
  0
ARC
  5
AA11
330
A987
100
AcDbEntity
  8
1
  6
Continuous
100
AcDbCircle
 10
107.3197639999999
 20
352.1749449999999
 30
0.0
 40
171.799
100
AcDbArc
 50
317.908121
 51
339.6990839999999
  0
ARC
  5
AA12
330
A987
100
AcDbEntity
  8
1
  6
Continuous
100
AcDbCircle
 10
80.74851200000003
 20
296.636365
 30
0.0
 40
132.243177
100
AcDbArc
 50
337.694631
 51
2.590463
  0
LINE
  5
AA13
330
A987
100
AcDbEntity
  8
1
  6
Continuous
100
AcDbLine
 10
253.9518769999999
 20
304.8337389999999
 30
0.0
 11
255.9518769999999
 21
306.940739
 31
0.0
  0
LINE
  5
AA14
330
A987
100
AcDbEntity
  8
1
  6
Continuous
100
AcDbLine
 10
255.9518769999999
 20
304.8337389999999
 30
0.0
 11
253.9518769999999
 21
306.940739
 31
0.0
  0
LINE
  5
AA15
330
A987
100
AcDbEntity
  8
1
  6
Continuous
100
AcDbLine
 10
271.9224389999999
 20
304.8337389999999
 30
0.0
 11
218.5502389999999
 21
304.8337389999999
 31
0.0
  0
LINE
  5
AA16
330
A987
100
AcDbEntity
  8
1
  6
Continuous
100
AcDbLine
 10
271.9224389999999
 20
306.940739
 30
0.0
 11
218.5502389999999
 21
306.940739
 31
0.0
  0
LINE
  5
AA17
330
A987
100
AcDbEntity
  8
1
  6
Continuous
100
AcDbLine
 10
294.7363389999998
 20
312.249124
 30
0.0
 11
195.7363389999999
 21
312.249124
 31
0.0
  0
LINE
  5
AA18
330
A987
100
AcDbEntity
  8
1
  6
Continuous
100
AcDbLine
 10
274.5089089999999
 20
308.775739
 30
0.0
 11
215.96377
 21
308.775739
 31
0.0
  0
LINE
  5
AA19
330
A987
100
AcDbEntity
  8
1
  6
Continuous
100
AcDbLine
 10
294.7363389999998
 20
312.249124
 30
0.0
 11
294.7363389999998
 21
315.1487389999999
 31
0.0
  0
ARC
  5
AA1A
330
A987
100
AcDbEntity
  8
1
  6
Continuous
100
AcDbCircle
 10
274.5089089999999
 20
316.2757389999999
 30
0.0
 40
7.5
100
AcDbArc
 50
270.0
 51
327.528368
  0
ARC
  5
AA1B
330
A987
100
AcDbEntity
  8
1
  6
Continuous
100
AcDbCircle
 10
266.252922
 20
300.673624
 30
0.0
 40
6.768752
100
AcDbArc
 50
16.69546099999999
 51
28.62323099999998
  0
LINE
  5
AA1C
330
A987
100
AcDbEntity
  8
1
  6
Continuous
100
AcDbLine
 10
262.437158
 20
304.8337389999999
 30
0.0
 11
264.437158
 21
306.940739
 31
0.0
  0
LINE
  5
AA1D
330
A987
100
AcDbEntity
  8
1
  6
Continuous
100
AcDbLine
 10
264.437158
 20
304.8337389999999
 30
0.0
 11
262.437158
 21
306.940739
 31
0.0
  0
LINE
  5
AA1E
330
A987
100
AcDbEntity
  8
1
  6
Continuous
100
AcDbLine
 10
268.094012
 20
304.8337389999999
 30
0.0
 11
270.094012
 21
306.940739
 31
0.0
  0
LINE
  5
AA1F
330
A987
100
AcDbEntity
  8
1
  6
Continuous
100
AcDbLine
 10
268.679799
 20
304.8337389999999
 30
0.0
 11
266.679799
 21
306.940739
 31
0.0
  0
LINE
  5
AA20
330
A987
100
AcDbEntity
  8
1
  6
Continuous
100
AcDbLine
 10
270.922439
 20
304.8337389999999
 30
0.0
 11
271.9224389999999
 21
305.940739
 31
0.0
  0
LINE
  5
AA21
330
A987
100
AcDbEntity
  8
1
  6
Continuous
100
AcDbLine
 10
270.8011189999999
 20
304.8337389999999
 30
0.0
 11
268.8011189999999
 21
306.940739
 31
0.0
  0
LINE
  5
AA22
330
A987
100
AcDbEntity
  8
1
  6
Continuous
100
AcDbLine
 10
270.922439
 20
306.940739
 30
0.0
 11
271.9224389999999
 21
305.940739
 31
0.0
  0
ARC
  5
AA23
330
A987
100
AcDbEntity
  8
1
  6
Continuous
100
AcDbCircle
 10
263.2926889999998
 20
313.1883199999998
 30
0.0
 40
9.0
100
AcDbArc
 50
316.0384329999998
 51
330.6405649999998
  0
LINE
  5
AA24
330
A987
100
AcDbEntity
  8
1
  6
Continuous
100
AcDbLine
 10
271.9224389999999
 20
304.8337389999999
 30
0.0
 11
271.9224389999999
 21
306.940739
 31
0.0
  0
ARC
  5
AA25
330
A987
100
AcDbEntity
  8
1
  6
Continuous
100
AcDbCircle
 10
269.50967
 20
302.4509739999999
 30
0.0
 40
3.058577999999998
100
AcDbArc
 50
28.62323099999998
 51
51.173052
  0
LINE
  5
AA26
330
A987
100
AcDbEntity
  8
1
  6
Continuous
100
AcDbLine
 10
265.2655849999998
 20
304.8337389999999
 30
0.0
 11
267.2655849999998
 21
306.940739
 31
0.0
  0
LINE
  5
AA27
330
A987
100
AcDbEntity
  8
1
  6
Continuous
100
AcDbLine
 10
266.5584779999999
 20
304.8337389999999
 30
0.0
 11
264.5584779999999
 21
306.940739
 31
0.0
  0
LINE
  5
AA28
330
A987
100
AcDbEntity
  8
1
  6
Continuous
100
AcDbLine
 10
259.6087309999999
 20
304.8337389999999
 30
0.0
 11
261.6087309999999
 21
306.940739
 31
0.0
  0
LINE
  5
AA29
330
A987
100
AcDbEntity
  8
1
  6
Continuous
100
AcDbLine
 10
260.194517
 20
304.8337389999999
 30
0.0
 11
258.194517
 21
306.940739
 31
0.0
  0
LINE
  5
AA2A
330
A987
100
AcDbEntity
  8
1
  6
Continuous
100
AcDbLine
 10
262.315838
 20
304.8337389999999
 30
0.0
 11
260.3158379999999
 21
306.940739
 31
0.0
  0
LINE
  5
AA2B
330
A987
100
AcDbEntity
  8
1
  6
Continuous
100
AcDbLine
 10
256.780304
 20
304.8337389999999
 30
0.0
 11
258.780304
 21
306.940739
 31
0.0
  0
LINE
  5
AA2C
330
A987
100
AcDbEntity
  8
1
  6
Continuous
100
AcDbLine
 10
258.0731969999998
 20
304.8337389999999
 30
0.0
 11
256.0731969999998
 21
306.940739
 31
0.0
  0
LINE
  5
AA2D
330
A987
100
AcDbEntity
  8
1
  6
Continuous
100
AcDbLine
 10
222.8391779999999
 20
304.8337389999999
 30
0.0
 11
224.8391779999999
 21
306.940739
 31
0.0
  0
LINE
  5
AA2E
330
A987
100
AcDbEntity
  8
1
  6
Continuous
100
AcDbLine
 10
224.132071
 20
304.8337389999999
 30
0.0
 11
222.132071
 21
306.940739
 31
0.0
  0
LINE
  5
AA2F
330
A987
100
AcDbEntity
  8
1
  6
Continuous
100
AcDbLine
 10
209.418711
 20
302.612789
 30
0.0
 11
223.7636549999999
 21
302.612789
 31
0.0
  0
ARC
  5
AA30
330
A987
100
AcDbEntity
  8
1
  6
Continuous
100
AcDbCircle
 10
221.4179389999999
 20
303.040206
 30
0.0
 40
2.384338999999997
100
AcDbArc
 50
349.6733199999998
 51
48.78250799999999
  0
LINE
  5
AA31
330
A987
100
AcDbEntity
  8
1
  6
Continuous
100
AcDbLine
 10
195.7363389999999
 20
315.1487389999999
 30
0.0
 11
294.7363389999998
 21
315.1487389999999
 31
0.0
  0
LINE
  5
AA32
330
A987
100
AcDbEntity
  8
1
  6
Continuous
100
AcDbLine
 10
241.1026339999998
 20
304.8337389999999
 30
0.0
 11
239.1026339999999
 21
306.940739
 31
0.0
  0
LINE
  5
AA33
330
A987
100
AcDbEntity
  8
1
  6
Continuous
100
AcDbLine
 10
249.587916
 20
304.8337389999999
 30
0.0
 11
247.587916
 21
306.940739
 31
0.0
  0
LINE
  5
AA34
330
A987
100
AcDbEntity
  8
1
  6
Continuous
100
AcDbLine
 10
251.123449
 20
304.8337389999999
 30
0.0
 11
253.123449
 21
306.940739
 31
0.0
  0
LINE
  5
AA35
330
A987
100
AcDbEntity
  8
1
  6
Continuous
100
AcDbLine
 10
253.8305559999999
 20
304.8337389999999
 30
0.0
 11
251.8305559999999
 21
306.940739
 31
0.0
  0
LINE
  5
AA36
330
A987
100
AcDbEntity
  8
1
  6
Continuous
100
AcDbLine
 10
248.2950219999999
 20
304.8337389999999
 30
0.0
 11
250.2950219999999
 21
306.940739
 31
0.0
  0
LINE
  5
AA37
330
A987
100
AcDbEntity
  8
1
  6
Continuous
100
AcDbLine
 10
251.7092359999999
 20
304.8337389999999
 30
0.0
 11
249.7092359999999
 21
306.940739
 31
0.0
  0
LINE
  5
AA38
330
A987
100
AcDbEntity
  8
1
  6
Continuous
100
AcDbLine
 10
242.6381679999999
 20
304.8337389999999
 30
0.0
 11
244.638168
 21
306.940739
 31
0.0
  0
LINE
  5
AA39
330
A987
100
AcDbEntity
  8
1
  6
Continuous
100
AcDbLine
 10
245.3452749999999
 20
304.8337389999999
 30
0.0
 11
243.3452749999999
 21
306.940739
 31
0.0
  0
LINE
  5
AA3A
330
A987
100
AcDbEntity
  8
1
  6
Continuous
100
AcDbLine
 10
245.466595
 20
304.8337389999999
 30
0.0
 11
247.466595
 21
306.940739
 31
0.0
  0
LINE
  5
AA3B
330
A987
100
AcDbEntity
  8
1
  6
Continuous
100
AcDbLine
 10
247.466595
 20
304.8337389999999
 30
0.0
 11
245.466595
 21
306.940739
 31
0.0
  0
LINE
  5
AA3C
330
A987
100
AcDbEntity
  8
1
  6
Continuous
100
AcDbLine
 10
239.809741
 20
304.8337389999999
 30
0.0
 11
241.809741
 21
306.940739
 31
0.0
  0
LINE
  5
AA3D
330
A987
100
AcDbEntity
  8
1
  6
Continuous
100
AcDbLine
 10
243.2239539999999
 20
304.8337389999999
 30
0.0
 11
241.2239539999999
 21
306.940739
 31
0.0
  0
LINE
  5
AA3E
330
A987
100
AcDbEntity
  8
1
  6
Continuous
100
AcDbLine
 10
232.6173529999998
 20
304.8337389999999
 30
0.0
 11
230.6173529999998
 21
306.940739
 31
0.0
  0
LINE
  5
AA3F
330
A987
100
AcDbEntity
  8
1
  6
Continuous
100
AcDbLine
 10
234.1528869999999
 20
304.8337389999999
 30
0.0
 11
236.1528869999999
 21
306.940739
 31
0.0
  0
LINE
  5
AA40
330
A987
100
AcDbEntity
  8
1
  6
Continuous
100
AcDbLine
 10
236.859993
 20
304.8337389999999
 30
0.0
 11
234.859993
 21
306.940739
 31
0.0
  0
LINE
  5
AA41
330
A987
100
AcDbEntity
  8
1
  6
Continuous
100
AcDbLine
 10
236.981314
 20
304.8337389999999
 30
0.0
 11
238.981314
 21
306.940739
 31
0.0
  0
LINE
  5
AA42
330
A987
100
AcDbEntity
  8
1
  6
Continuous
100
AcDbLine
 10
238.981314
 20
304.8337389999999
 30
0.0
 11
236.981314
 21
306.940739
 31
0.0
  0
LINE
  5
AA43
330
A987
100
AcDbEntity
  8
1
  6
Continuous
100
AcDbLine
 10
231.3244599999999
 20
304.8337389999999
 30
0.0
 11
233.32446
 21
306.940739
 31
0.0
  0
LINE
  5
AA44
330
A987
100
AcDbEntity
  8
1
  6
Continuous
100
AcDbLine
 10
234.738673
 20
304.8337389999999
 30
0.0
 11
232.738673
 21
306.940739
 31
0.0
  0
LINE
  5
AA45
330
A987
100
AcDbEntity
  8
1
  6
Continuous
100
AcDbLine
 10
225.6676049999999
 20
304.8337389999999
 30
0.0
 11
227.6676049999999
 21
306.940739
 31
0.0
  0
LINE
  5
AA46
330
A987
100
AcDbEntity
  8
1
  6
Continuous
100
AcDbLine
 10
228.374712
 20
304.8337389999999
 30
0.0
 11
226.374712
 21
306.940739
 31
0.0
  0
LINE
  5
AA47
330
A987
100
AcDbEntity
  8
1
  6
Continuous
100
AcDbLine
 10
228.4960319999999
 20
304.8337389999999
 30
0.0
 11
230.4960319999999
 21
306.940739
 31
0.0
  0
LINE
  5
AA48
330
A987
100
AcDbEntity
  8
1
  6
Continuous
100
AcDbLine
 10
230.4960319999999
 20
304.8337389999999
 30
0.0
 11
228.4960319999999
 21
306.940739
 31
0.0
  0
LINE
  5
AA49
330
A987
100
AcDbEntity
  8
1
  6
Continuous
100
AcDbLine
 10
226.253392
 20
304.8337389999999
 30
0.0
 11
224.253392
 21
306.940739
 31
0.0
  0
ARC
  5
AA4A
330
A987
100
AcDbEntity
  8
1
  6
Continuous
100
AcDbCircle
 10
215.96377
 20
316.2757389999999
 30
0.0
 40
7.5
100
AcDbArc
 50
212.4716319999998
 51
270.0
  0
ARC
  5
AA4B
330
A987
100
AcDbEntity
  8
1
  6
Continuous
100
AcDbCircle
 10
217.7253169999999
 20
303.7620889999999
 30
0.0
 40
1.188780999999998
100
AcDbArc
 50
284.807772
 51
2.109159
  0
LINE
  5
AA4C
330
A987
100
AcDbEntity
  8
1
  6
Continuous
100
AcDbLine
 10
218.5502389999999
 20
306.308654
 30
0.0
 11
219.182324
 21
306.940739
 31
0.0
  0
LINE
  5
AA4D
330
A987
100
AcDbEntity
  8
1
  6
Continuous
100
AcDbLine
 10
219.889431
 20
304.8337389999999
 30
0.0
 11
218.5502389999999
 21
306.27993
 31
0.0
  0
ARC
  5
AA4E
330
A987
100
AcDbEntity
  8
1
  6
Continuous
100
AcDbCircle
 10
221.1087229999999
 20
303.125599
 30
0.0
 40
2.298399999999999
100
AcDbArc
 50
131.996419
 51
162.784696
  0
LINE
  5
AA4F
330
A987
100
AcDbEntity
  8
1
  6
Continuous
100
AcDbLine
 10
220.0107509999999
 20
304.8337389999999
 30
0.0
 11
222.0107509999999
 21
306.940739
 31
0.0
  0
LINE
  5
AA50
330
A987
100
AcDbEntity
  8
1
  6
Continuous
100
AcDbLine
 10
222.0107509999999
 20
304.8337389999999
 30
0.0
 11
220.0107509999999
 21
306.940739
 31
0.0
  0
ARC
  5
AA51
330
A987
100
AcDbEntity
  8
1
  6
Continuous
100
AcDbCircle
 10
226.8379509999999
 20
313.5245750000001
 30
0.0
 40
9.0
100
AcDbArc
 50
211.8467129999999
 51
227.0154369999999
  0
LINE
  5
AA52
330
A987
100
AcDbEntity
  8
1
  6
Continuous
100
AcDbLine
 10
218.5502389999999
 20
306.940739
 30
0.0
 11
218.5502389999999
 21
304.8337389999999
 31
0.0
  0
LINE
  5
AA53
330
A987
100
AcDbEntity
  8
1
  6
Continuous
100
AcDbLine
 10
209.260104
 20
300.059162
 30
0.0
 11
212.947386
 21
300.059162
 31
0.0
  0
ARC
  5
AA54
330
A987
100
AcDbEntity
  8
1
  6
Continuous
100
AcDbCircle
 10
210.1356829999998
 20
301.692338
 30
0.0
 40
2.172123
100
AcDbArc
 50
163.484735
 51
182.237079
  0
ARC
  5
AA55
330
A987
100
AcDbEntity
  8
1
  6
Continuous
100
AcDbCircle
 10
199.7357799999998
 20
299.681799
 30
0.0
 40
8.451753
100
AcDbArc
 50
4.483236999999999
 51
13.17066
  0
ARC
  5
AA56
330
A987
100
AcDbEntity
  8
1
  6
Continuous
100
AcDbCircle
 10
208.578211
 20
301.5506779999999
 30
0.0
 40
0.9230079999999999
100
AcDbArc
 50
108.7945229999998
 51
124.668912
  0
LINE
  5
AA57
330
A987
100
AcDbEntity
  8
1
  6
Continuous
100
AcDbLine
 10
208.2973739999999
 20
300.17851
 30
0.0
 11
208.1616719999999
 21
300.3424509999998
 31
0.0
  0
ARC
  5
AA58
330
A987
100
AcDbEntity
  8
1
  6
Continuous
100
AcDbCircle
 10
209.260104
 20
304.0017989999999
 30
0.0
 40
3.942636999999998
100
AcDbArc
 50
255.866358
 51
270.0
  0
ARC
  5
AA59
330
A987
100
AcDbEntity
  8
1
  6
Continuous
100
AcDbCircle
 10
209.418711
 20
299.0809509999999
 30
0.0
 40
3.531837999999998
100
AcDbArc
 50
90.0
 51
108.7945229999998
  0
LINE
  5
AA5A
330
A987
100
AcDbEntity
  8
1
  6
Continuous
100
AcDbLine
 10
195.7363389999999
 20
312.249124
 30
0.0
 11
195.7363389999999
 21
315.133279
 31
0.0
  0
LINE
  5
AA5B
330
A987
100
AcDbEntity
  8
1
  6
Continuous
100
AcDbLine
 10
28.73892599999999
 20
315.148753
 30
0.0
 11
28.73892599999999
 21
312.249138
 31
0.0
  0
LINE
  5
AA5C
330
A987
100
AcDbEntity
  8
4
  6
CENTER
100
AcDbLine
 10
66.238934
 20
320.148753
 30
0.0
 11
66.238934
 21
157.1487389999998
 31
0.0
  0
LINE
  5
AA5D
330
A987
100
AcDbEntity
  8
1
  6
Continuous
100
AcDbLine
 10
84.663128
 20
298.60879
 30
0.0
 11
84.616552
 21
252.1784729999999
 31
0.0
  0
LINE
  5
AA5E
330
A987
100
AcDbEntity
  8
1
  6
Continuous
100
AcDbLine
 10
82.06357699999998
 20
299.058173
 30
0.0
 11
82.01655100000001
 21
252.1784729999999
 31
0.0
  0
LINE
  5
AA5F
330
A987
100
AcDbEntity
  8
1
  6
Continuous
100
AcDbLine
 10
47.81474099999999
 20
298.60879
 30
0.0
 11
47.896105
 21
217.498753
 31
0.0
  0
LINE
  5
AA60
330
A987
100
AcDbEntity
  8
1
  6
Continuous
100
AcDbLine
 10
50.414291
 20
299.058173
 30
0.0
 11
50.496107
 21
217.498753
 31
0.0
  0
ARC
  5
AA61
330
A987
100
AcDbEntity
  8
1
  6
Continuous
100
AcDbCircle
 10
53.938665
 20
255.422466
 30
0.0
 40
39.801511
100
AcDbArc
 50
338.6329589999999
 51
349.0860599999999
  0
ARC
  5
AA62
330
A987
100
AcDbEntity
  8
1
  6
Continuous
100
AcDbCircle
 10
78.539203
 20
255.422466
 30
0.0
 40
39.801511
100
AcDbArc
 50
180.452642
 51
210.446211
  0
LINE
  5
AA63
330
A987
100
AcDbEntity
  8
4
  6
CENTER
100
AcDbLine
 10
38.33146
 20
230.1487529999999
 30
0.0
 11
99.74338000000001
 21
230.1487529999999
 31
0.0
  0
LINE
  5
AA64
330
A987
100
AcDbEntity
  8
1
  6
Continuous
100
AcDbLine
 10
47.896105
 20
217.498753
 30
0.0
 11
50.496107
 21
217.498753
 31
0.0
  0
LINE
  5
AA65
330
A987
100
AcDbEntity
  8
1
  6
Continuous
100
AcDbLine
 10
50.488934
 20
224.6487529999999
 30
0.0
 11
50.488934
 21
230.1487529999999
 31
0.0
  0
ARC
  5
AA66
330
A987
100
AcDbEntity
  8
1
  6
Continuous
100
AcDbCircle
 10
95.51149499999999
 20
316.2757529999999
 30
0.0
 40
7.5
100
AcDbArc
 50
270.0
 51
327.528368
  0
LINE
  5
AA67
330
A987
100
AcDbEntity
  8
1
  6
Continuous
100
AcDbLine
 10
66.00867
 20
304.8337529999999
 30
0.0
 11
64.00866999999999
 21
306.9407529999998
 31
0.0
  0
LINE
  5
AA68
330
A987
100
AcDbEntity
  8
1
  6
Continuous
100
AcDbLine
 10
64.00866999999999
 20
304.8337529999999
 30
0.0
 11
66.00867
 21
306.9407529999998
 31
0.0
  0
LINE
  5
AA69
330
A987
100
AcDbEntity
  8
1
  6
Continuous
100
AcDbLine
 10
51.41429099999999
 20
300.0591759999999
 30
0.0
 11
81.06357800000003
 21
300.0591759999999
 31
0.0
  0
LINE
  5
AA6A
330
A987
100
AcDbEntity
  8
1
  6
Continuous
100
AcDbLine
 10
51.814739
 20
302.6128029999998
 30
0.0
 11
80.66312999999999
 21
302.6128029999998
 31
0.0
  0
LINE
  5
AA6B
330
A987
100
AcDbEntity
  8
1
  6
Continuous
100
AcDbLine
 10
39.552826
 20
304.8337529999999
 30
0.0
 11
92.925026
 21
304.8337529999999
 31
0.0
  0
LINE
  5
AA6C
330
A987
100
AcDbEntity
  8
1
  6
Continuous
100
AcDbLine
 10
39.552826
 20
306.9407529999998
 30
0.0
 11
92.925026
 21
306.9407529999998
 31
0.0
  0
LINE
  5
AA6D
330
A987
100
AcDbEntity
  8
1
  6
Continuous
100
AcDbLine
 10
36.966356
 20
308.7757529999998
 30
0.0
 11
95.51149499999999
 21
308.7757529999998
 31
0.0
  0
LINE
  5
AA6E
330
A987
100
AcDbEntity
  8
1
  6
Continuous
100
AcDbLine
 10
49.03810700000001
 20
304.8337529999999
 30
0.0
 11
47.038107
 21
306.9407529999998
 31
0.0
  0
LINE
  5
AA6F
330
A987
100
AcDbEntity
  8
1
  6
Continuous
100
AcDbLine
 10
47.038107
 20
304.8337529999999
 30
0.0
 11
49.03810700000001
 21
306.9407529999998
 31
0.0
  0
ARC
  5
AA70
330
A987
100
AcDbEntity
  8
1
  6
Continuous
100
AcDbCircle
 10
51.814739
 20
298.6128029999998
 30
0.0
 40
4.0
100
AcDbArc
 50
90.0
 51
180.057476
  0
LINE
  5
AA71
330
A987
100
AcDbEntity
  8
1
  6
Continuous
100
AcDbLine
 10
40.552826
 20
304.8337529999999
 30
0.0
 11
39.552826
 21
305.9407529999999
 31
0.0
  0
LINE
  5
AA72
330
A987
100
AcDbEntity
  8
1
  6
Continuous
100
AcDbLine
 10
40.552826
 20
306.9407529999998
 30
0.0
 11
39.552826
 21
305.9407529999999
 31
0.0
  0
LINE
  5
AA73
330
A987
100
AcDbEntity
  8
1
  6
Continuous
100
AcDbLine
 10
39.552826
 20
304.8337529999999
 30
0.0
 11
39.552826
 21
306.9407529999998
 31
0.0
  0
LINE
  5
AA74
330
A987
100
AcDbEntity
  8
1
  6
Continuous
100
AcDbLine
 10
46.20968
 20
304.8337529999999
 30
0.0
 11
44.20968
 21
306.9407529999998
 31
0.0
  0
LINE
  5
AA75
330
A987
100
AcDbEntity
  8
1
  6
Continuous
100
AcDbLine
 10
42.79546599999997
 20
304.8337529999999
 30
0.0
 11
44.79546599999999
 21
306.9407529999998
 31
0.0
  0
LINE
  5
AA76
330
A987
100
AcDbEntity
  8
1
  6
Continuous
100
AcDbLine
 10
43.381253
 20
304.8337529999999
 30
0.0
 11
41.381253
 21
306.9407529999998
 31
0.0
  0
LINE
  5
AA77
330
A987
100
AcDbEntity
  8
1
  6
Continuous
100
AcDbLine
 10
40.674146
 20
304.8337529999999
 30
0.0
 11
42.674146
 21
306.9407529999998
 31
0.0
  0
ARC
  5
AA78
330
A987
100
AcDbEntity
  8
1
  6
Continuous
100
AcDbCircle
 10
48.18257599999999
 20
313.1883339999999
 30
0.0
 40
9.0
100
AcDbArc
 50
209.359435
 51
223.961567
  0
LINE
  5
AA79
330
A987
100
AcDbEntity
  8
1
  6
Continuous
100
AcDbLine
 10
44.916787
 20
304.8337529999999
 30
0.0
 11
46.91678699999999
 21
306.9407529999998
 31
0.0
  0
LINE
  5
AA7A
330
A987
100
AcDbEntity
  8
1
  6
Continuous
100
AcDbLine
 10
57.523388
 20
304.8337529999999
 30
0.0
 11
55.523388
 21
306.9407529999998
 31
0.0
  0
LINE
  5
AA7B
330
A987
100
AcDbEntity
  8
1
  6
Continuous
100
AcDbLine
 10
55.523388
 20
304.8337529999999
 30
0.0
 11
57.523388
 21
306.9407529999998
 31
0.0
  0
ARC
  5
AA7C
330
A987
100
AcDbEntity
  8
1
  6
Continuous
100
AcDbCircle
 10
51.41429099999999
 20
299.059176
 30
0.0
 40
1.0
100
AcDbArc
 50
90.0
 51
180.057476
  0
LINE
  5
AA7D
330
A987
100
AcDbEntity
  8
1
  6
Continuous
100
AcDbLine
 10
51.280748
 20
304.8337529999999
 30
0.0
 11
53.28074799999999
 21
306.9407529999998
 31
0.0
  0
LINE
  5
AA7E
330
A987
100
AcDbEntity
  8
1
  6
Continuous
100
AcDbLine
 10
51.866534
 20
304.8337529999999
 30
0.0
 11
49.866534
 21
306.9407529999998
 31
0.0
  0
LINE
  5
AA7F
330
A987
100
AcDbEntity
  8
1
  6
Continuous
100
AcDbLine
 10
49.159427
 20
304.8337529999999
 30
0.0
 11
51.159427
 21
306.9407529999998
 31
0.0
  0
LINE
  5
AA80
330
A987
100
AcDbEntity
  8
1
  6
Continuous
100
AcDbLine
 10
54.694961
 20
304.8337529999999
 30
0.0
 11
52.694961
 21
306.9407529999998
 31
0.0
  0
LINE
  5
AA81
330
A987
100
AcDbEntity
  8
1
  6
Continuous
100
AcDbLine
 10
53.402068
 20
304.8337529999999
 30
0.0
 11
55.402068
 21
306.9407529999998
 31
0.0
  0
LINE
  5
AA82
330
A987
100
AcDbEntity
  8
1
  6
Continuous
100
AcDbLine
 10
59.766029
 20
304.8337529999999
 30
0.0
 11
61.766029
 21
306.9407529999998
 31
0.0
  0
LINE
  5
AA83
330
A987
100
AcDbEntity
  8
1
  6
Continuous
100
AcDbLine
 10
60.351815
 20
304.8337529999999
 30
0.0
 11
58.351815
 21
306.9407529999998
 31
0.0
  0
LINE
  5
AA84
330
A987
100
AcDbEntity
  8
1
  6
Continuous
100
AcDbLine
 10
57.644709
 20
304.8337529999999
 30
0.0
 11
59.644709
 21
306.9407529999998
 31
0.0
  0
LINE
  5
AA85
330
A987
100
AcDbEntity
  8
1
  6
Continuous
100
AcDbLine
 10
63.18024300000001
 20
304.8337529999999
 30
0.0
 11
61.180243
 21
306.9407529999998
 31
0.0
  0
LINE
  5
AA86
330
A987
100
AcDbEntity
  8
1
  6
Continuous
100
AcDbLine
 10
61.887349
 20
304.8337529999999
 30
0.0
 11
63.887349
 21
306.9407529999998
 31
0.0
  0
LINE
  5
AA87
330
A987
100
AcDbEntity
  8
1
  6
Continuous
100
AcDbLine
 10
82.97923199999997
 20
304.8337529999999
 30
0.0
 11
80.97923199999998
 21
306.9407529999998
 31
0.0
  0
LINE
  5
AA88
330
A987
100
AcDbEntity
  8
1
  6
Continuous
100
AcDbLine
 10
80.97923199999998
 20
304.8337529999999
 30
0.0
 11
82.97923199999997
 21
306.9407529999998
 31
0.0
  0
ARC
  5
AA89
330
A987
100
AcDbEntity
  8
1
  6
Continuous
100
AcDbCircle
 10
81.06357800000003
 20
299.059176
 30
0.0
 40
1.0
100
AcDbArc
 50
359.9425239999998
 51
90.0
  0
ARC
  5
AA8A
330
A987
100
AcDbEntity
  8
1
  6
Continuous
100
AcDbCircle
 10
80.66312999999999
 20
298.6128029999998
 30
0.0
 40
4.0
100
AcDbArc
 50
359.9425239999998
 51
90.0
  0
LINE
  5
AA8B
330
A987
100
AcDbEntity
  8
1
  6
Continuous
100
AcDbLine
 10
74.49395099999998
 20
304.8337529999999
 30
0.0
 11
72.49395099999998
 21
306.9407529999998
 31
0.0
  0
LINE
  5
AA8C
330
A987
100
AcDbEntity
  8
1
  6
Continuous
100
AcDbLine
 10
72.49395099999998
 20
304.8337529999999
 30
0.0
 11
74.49395099999998
 21
306.9407529999998
 31
0.0
  0
LINE
  5
AA8D
330
A987
100
AcDbEntity
  8
1
  6
Continuous
100
AcDbLine
 10
68.25131
 20
304.8337529999999
 30
0.0
 11
70.25131
 21
306.9407529999998
 31
0.0
  0
LINE
  5
AA8E
330
A987
100
AcDbEntity
  8
1
  6
Continuous
100
AcDbLine
 10
68.837097
 20
304.8337529999999
 30
0.0
 11
66.837097
 21
306.9407529999998
 31
0.0
  0
LINE
  5
AA8F
330
A987
100
AcDbEntity
  8
1
  6
Continuous
100
AcDbLine
 10
66.12999000000001
 20
304.8337529999999
 30
0.0
 11
68.12999000000001
 21
306.9407529999998
 31
0.0
  0
LINE
  5
AA90
330
A987
100
AcDbEntity
  8
1
  6
Continuous
100
AcDbLine
 10
71.66552400000002
 20
304.8337529999999
 30
0.0
 11
69.66552400000001
 21
306.9407529999998
 31
0.0
  0
LINE
  5
AA91
330
A987
100
AcDbEntity
  8
1
  6
Continuous
100
AcDbLine
 10
70.37263100000001
 20
304.8337529999999
 30
0.0
 11
72.37263100000001
 21
306.9407529999998
 31
0.0
  0
LINE
  5
AA92
330
A987
100
AcDbEntity
  8
1
  6
Continuous
100
AcDbLine
 10
77.322378
 20
304.8337529999999
 30
0.0
 11
75.322378
 21
306.9407529999998
 31
0.0
  0
LINE
  5
AA93
330
A987
100
AcDbEntity
  8
1
  6
Continuous
100
AcDbLine
 10
76.736592
 20
304.8337529999999
 30
0.0
 11
78.736592
 21
306.9407529999998
 31
0.0
  0
LINE
  5
AA94
330
A987
100
AcDbEntity
  8
1
  6
Continuous
100
AcDbLine
 10
74.61527099999996
 20
304.8337529999999
 30
0.0
 11
76.61527099999998
 21
306.9407529999998
 31
0.0
  0
LINE
  5
AA95
330
A987
100
AcDbEntity
  8
1
  6
Continuous
100
AcDbLine
 10
80.15080500000001
 20
304.8337529999999
 30
0.0
 11
78.150805
 21
306.9407529999998
 31
0.0
  0
LINE
  5
AA96
330
A987
100
AcDbEntity
  8
1
  6
Continuous
100
AcDbLine
 10
78.85791199999999
 20
304.8337529999999
 30
0.0
 11
80.857912
 21
306.9407529999998
 31
0.0
  0
LINE
  5
AA97
330
A987
100
AcDbEntity
  8
1
  6
Continuous
100
AcDbLine
 10
85.80766
 20
304.8337529999999
 30
0.0
 11
83.80765999999999
 21
306.9407529999998
 31
0.0
  0
LINE
  5
AA98
330
A987
100
AcDbEntity
  8
1
  6
Continuous
100
AcDbLine
 10
85.221873
 20
304.8337529999999
 30
0.0
 11
87.22187299999999
 21
306.9407529999998
 31
0.0
  0
LINE
  5
AA99
330
A987
100
AcDbEntity
  8
1
  6
Continuous
100
AcDbLine
 10
83.100553
 20
304.8337529999999
 30
0.0
 11
85.10055300000002
 21
306.9407529999998
 31
0.0
  0
LINE
  5
AA9A
330
A987
100
AcDbEntity
  8
1
  6
Continuous
100
AcDbLine
 10
88.636087
 20
304.8337529999999
 30
0.0
 11
86.63608700000002
 21
306.9407529999998
 31
0.0
  0
LINE
  5
AA9B
330
A987
100
AcDbEntity
  8
1
  6
Continuous
100
AcDbLine
 10
87.34319300000001
 20
304.8337529999999
 30
0.0
 11
89.343193
 21
306.9407529999998
 31
0.0
  0
LINE
  5
AA9C
330
A987
100
AcDbEntity
  8
1
  6
Continuous
100
AcDbLine
 10
92.925026
 20
306.308668
 30
0.0
 11
92.29294100000002
 21
306.9407529999998
 31
0.0
  0
LINE
  5
AA9D
330
A987
100
AcDbEntity
  8
1
  6
Continuous
100
AcDbLine
 10
91.46451400000001
 20
304.8337529999999
 30
0.0
 11
89.46451399999999
 21
306.9407529999998
 31
0.0
  0
LINE
  5
AA9E
330
A987
100
AcDbEntity
  8
1
  6
Continuous
100
AcDbLine
 10
91.58583400000001
 20
304.8337529999999
 30
0.0
 11
92.925026
 21
306.279944
 31
0.0
  0
LINE
  5
AA9F
330
A987
100
AcDbEntity
  8
1
  6
Continuous
100
AcDbLine
 10
89.46451399999999
 20
304.8337529999999
 30
0.0
 11
91.46451400000001
 21
306.9407529999998
 31
0.0
  0
ARC
  5
AAA0
330
A987
100
AcDbEntity
  8
1
  6
Continuous
100
AcDbCircle
 10
84.637314
 20
313.524589
 30
0.0
 40
9.0
100
AcDbArc
 50
312.9845629999999
 51
328.1532869999999
  0
LINE
  5
AAA1
330
A987
100
AcDbEntity
  8
1
  6
Continuous
100
AcDbLine
 10
92.925026
 20
306.9407529999998
 30
0.0
 11
92.925026
 21
304.8337529999999
 31
0.0
  0
LINE
  5
AAA2
330
A987
100
AcDbEntity
  8
1
  6
Continuous
100
AcDbLine
 10
103.738926
 20
315.148753
 30
0.0
 11
103.738926
 21
312.249138
 31
0.0
  0
LINE
  5
AAA3
330
A987
100
AcDbEntity
  8
4
  6
CENTER
100
AcDbLine
 10
205.236339
 20
307.249124
 30
0.0
 11
205.236339
 21
320.148739
 31
0.0
  0
LINE
  5
AAA4
330
A987
100
AcDbEntity
  8
4
  6
CENTER
100
AcDbLine
 10
285.2363389999998
 20
307.249124
 30
0.0
 11
285.2363389999998
 21
320.148739
 31
0.0
  0
LINE
  5
AAA5
330
A987
100
AcDbEntity
  8
4
  6
CENTER
100
AcDbLine
 10
335.2337429999999
 20
320.1487349999998
 30
0.0
 11
335.2337429999999
 21
303.518735
 31
0.0
  0
LINE
  5
AAA6
330
A987
100
AcDbEntity
  8
4
  6
CENTER
100
AcDbLine
 10
391.233743
 20
320.1487349999998
 30
0.0
 11
391.233743
 21
303.518735
 31
0.0
  0
LINE
  5
AAA7
330
A987
100
AcDbEntity
  8
4
  6
CENTER
100
AcDbLine
 10
38.238934
 20
320.148753
 30
0.0
 11
38.238934
 21
303.668753
 31
0.0
  0
LINE
  5
AAA8
330
A987
100
AcDbEntity
  8
4
  6
CENTER
100
AcDbLine
 10
94.238934
 20
320.148753
 30
0.0
 11
94.238934
 21
303.668753
 31
0.0
  0
LINE
  5
AAA9
330
A987
100
AcDbEntity
  8
1
  6
Continuous
100
AcDbLine
 10
38.738934
 20
298.064753
 30
0.0
 11
38.738934
 21
255.108033
 31
0.0
  0
LINE
  5
AAAA
330
A987
100
AcDbEntity
  8
1
  6
Continuous
100
AcDbLine
 10
93.738934
 20
298.064753
 30
0.0
 11
93.738934
 21
255.108033
 31
0.0
  0
ARC
  5
AAAB
330
A987
100
AcDbEntity
  8
1
  6
Continuous
100
AcDbCircle
 10
45.50793399999998
 20
298.064753
 30
0.0
 40
6.769
100
AcDbArc
 50
90.0
 51
180.0
  0
ARC
  5
AAAC
330
A987
100
AcDbEntity
  8
1
  6
Continuous
100
AcDbCircle
 10
86.96993399999998
 20
298.064753
 30
0.0
 40
6.769
100
AcDbArc
 50
0.0
 51
90.0
  0
LINE
  5
AAAD
330
A987
100
AcDbEntity
  8
1
  6
Continuous
100
AcDbLine
 10
390.733743
 20
297.707739
 30
0.0
 11
390.733743
 21
255.1080059999999
 31
0.0
  0
LINE
  5
AAAE
330
A987
100
AcDbEntity
  8
1
  6
Continuous
100
AcDbLine
 10
335.733743
 20
297.707739
 30
0.0
 11
335.733743
 21
255.10806
 31
0.0
  0
ARC
  5
AAAF
330
A987
100
AcDbEntity
  8
1
  6
Continuous
100
AcDbCircle
 10
342.8597429999999
 20
297.707739
 30
0.0
 40
7.126
100
AcDbArc
 50
90.0
 51
180.0
  0
ARC
  5
AAB0
330
A987
100
AcDbEntity
  8
1
  6
Continuous
100
AcDbCircle
 10
383.607743
 20
297.707739
 30
0.0
 40
7.126
100
AcDbArc
 50
0.0
 51
90.0
  0
ARC
  5
AAB1
330
A987
100
AcDbEntity
  8
1
  6
Continuous
100
AcDbCircle
 10
609.4823169999997
 20
196.291948
 30
0.0
 40
277.8421779999998
100
AcDbArc
 50
160.1679499999999
 51
166.4139979999999
  0
ARC
  5
AAB2
330
A987
100
AcDbEntity
  8
1
  6
Continuous
100
AcDbCircle
 10
609.517816
 20
196.123224
 30
0.0
 40
280.2147699999999
100
AcDbArc
 50
160.8364799999999
 51
166.9559429999999
  0
ARC
  5
AAB3
330
A987
100
AcDbEntity
  8
1
  6
Continuous
100
AcDbCircle
 10
353.546474
 20
285.1310429999998
 30
0.0
 40
9.209889
100
AcDbArc
 50
100.9954699999999
 51
161.141259
  0
ARC
  5
AAB4
330
A987
100
AcDbEntity
  8
1
  6
Continuous
100
AcDbCircle
 10
353.686212
 20
288.57601
 30
0.0
 40
5.908440999999998
100
AcDbArc
 50
108.720775
 51
160.442813
  0
ARC
  5
AAB5
330
A987
100
AcDbEntity
  8
1
  6
Continuous
100
AcDbCircle
 10
350.9334739999998
 20
255.422466
 30
0.0
 40
39.801511
100
AcDbArc
 50
324.005645
 51
359.5473579999999
  0
LINE
  5
AAB6
330
A987
100
AcDbEntity
  8
1
  6
Continuous
100
AcDbLine
 10
347.419599
 20
288.592586
 30
0.0
 11
347.4590559999999
 21
249.258654
 31
0.0
  0
LINE
  5
AAB7
330
A987
100
AcDbEntity
  8
1
  6
Continuous
100
AcDbLine
 10
379.047888
 20
288.5925849999998
 30
0.0
 11
378.9765699999999
 21
217.498753
 31
0.0
  0
LINE
  5
AAB8
330
A987
100
AcDbEntity
  8
1
  6
Continuous
100
AcDbLine
 10
381.576723
 20
217.498753
 30
0.0
 11
378.9765699999999
 21
217.498753
 31
0.0
  0
ARC
  5
AAB9
330
A987
100
AcDbEntity
  8
1
  6
Continuous
100
AcDbCircle
 10
389.701521
 20
227.261666
 30
0.0
 40
8.115
100
AcDbArc
 50
144.0056449999999
 51
179.942522
  0
ARC
  5
AABA
330
A987
100
AcDbEntity
  8
1
  6
Continuous
100
AcDbCircle
 10
350.9334739999998
 20
255.422466
 30
0.0
 40
37.20151099999998
100
AcDbArc
 50
324.005645
 51
344.602802
  0
ARC
  5
AABB
330
A987
100
AcDbEntity
  8
1
  6
Continuous
100
AcDbCircle
 10
389.701521
 20
227.261666
 30
0.0
 40
10.715
100
AcDbArc
 50
144.0056449999999
 51
179.942522
  0
ARC
  5
AABC
330
A987
100
AcDbEntity
  8
1
  6
Continuous
100
AcDbCircle
 10
355.9482949999999
 20
254.0414179999999
 30
0.0
 40
32.0
100
AcDbArc
 50
344.602802
 51
13.58600199999999
  0
ARC
  5
AABD
330
A987
100
AcDbEntity
  8
1
  6
Continuous
100
AcDbCircle
 10
370.5191919999998
 20
254.0414179999999
 30
0.0
 40
32.0
100
AcDbArc
 50
166.4139979999999
 51
195.3971979999998
  0
ARC
  5
AABE
330
A987
100
AcDbEntity
  8
1
  6
Continuous
100
AcDbCircle
 10
368.2698409999999
 20
252.198299
 30
0.0
 40
32.53609799999999
100
AcDbArc
 50
167.270172
 51
177.3275659999999
  0
ARC
  5
AABF
330
A987
100
AcDbEntity
  8
1
  6
Continuous
100
AcDbCircle
 10
375.534012
 20
255.422466
 30
0.0
 40
39.801511
100
AcDbArc
 50
180.452642
 51
208.1055469999999
  0
ARC
  5
AAC0
330
A987
100
AcDbEntity
  8
1
  6
Continuous
100
AcDbCircle
 10
375.534012
 20
255.422466
 30
0.0
 40
37.20151099999998
100
AcDbArc
 50
195.3971979999998
 51
196.292101
  0
LINE
  5
AAC1
330
A987
100
AcDbEntity
  8
1
  6
Continuous
100
AcDbLine
 10
272.7363389999998
 20
295.273323
 30
0.0
 11
272.7363389999998
 21
302.618183
 31
0.0
  0
ARC
  5
AAC2
330
A987
100
AcDbEntity
  8
1
  6
Continuous
100
AcDbCircle
 10
272.588482
 20
290.754186
 30
0.0
 40
4.521554
100
AcDbArc
 50
88.126069
 51
156.3338149999998
  0
LINE
  5
AAC3
330
A987
100
AcDbEntity
  8
1
  6
Continuous
100
AcDbLine
 10
287.2363389999998
 20
124.9223679999999
 30
0.0
 11
270.3154309999998
 21
124.9223679999999
 31
0.0
  0
LINE
  5
AAC4
330
A987
100
AcDbEntity
  8
1
  6
Continuous
100
AcDbLine
 10
287.2363389999998
 20
49.922368
 30
0.0
 11
203.2363389999999
 21
49.922368
 31
0.0
  0
LINE
  5
AAC5
330
A987
100
AcDbEntity
  8
4
  6
CENTER
100
AcDbLine
 10
299.7363389999998
 20
87.422368
 30
0.0
 11
139.2363389999998
 21
87.422368
 31
0.0
  0
ARC
  5
AAC6
330
A987
100
AcDbEntity
  8
1
  6
Continuous
100
AcDbCircle
 10
203.2363389999999
 20
57.422368
 30
0.0
 40
7.5
100
AcDbArc
 50
180.0
 51
270.0
  0
LINE
  5
AAC7
330
A987
100
AcDbEntity
  8
4
  6
CENTER
100
AcDbLine
 10
245.2363389999999
 20
129.922368
 30
0.0
 11
245.2363389999999
 21
44.92236799999999
 31
0.0
  0
ARC
  5
AAC8
330
A987
100
AcDbEntity
  8
1
  6
Continuous
100
AcDbCircle
 10
203.2363389999999
 20
117.4223679999999
 30
0.0
 40
7.5
100
AcDbArc
 50
90.0
 51
180.0
  0
LINE
  5
AAC9
330
A987
100
AcDbEntity
  8
1
  6
Continuous
100
AcDbLine
 10
195.7363389999999
 20
117.4223679999999
 30
0.0
 11
195.7363389999999
 21
108.5779049999999
 31
0.0
  0
ARC
  5
AACA
330
A987
100
AcDbEntity
  8
1
  6
Continuous
100
AcDbCircle
 10
205.236339
 20
115.4223679999999
 30
0.0
 40
4.25
100
AcDbArc
 50
7.277300999999999
 51
241.9275129999999
  0
LINE
  5
AACB
330
A987
100
AcDbEntity
  8
4
  6
CENTER
100
AcDbLine
 10
205.236339
 20
122.6723679999999
 30
0.0
 11
205.236339
 21
108.1723679999999
 31
0.0
  0
LINE
  5
AACC
330
A987
100
AcDbEntity
  8
4
  6
CENTER
100
AcDbLine
 10
212.4863389999999
 20
115.4223679999999
 30
0.0
 11
197.986339
 21
115.4223679999999
 31
0.0
  0
LINE
  5
AACD
330
A987
100
AcDbEntity
  8
4
  6
CENTER
100
AcDbLine
 10
212.4863389999999
 20
59.42236799999999
 30
0.0
 11
197.986339
 21
59.42236799999999
 31
0.0
  0
CIRCLE
  5
AACE
330
A987
100
AcDbEntity
  8
1
  6
Continuous
100
AcDbCircle
 10
205.236339
 20
59.42236799999999
 30
0.0
 40
4.25
  0
LINE
  5
AACF
330
A987
100
AcDbEntity
  8
4
  6
CENTER
100
AcDbLine
 10
205.236339
 20
66.67236800000001
 30
0.0
 11
205.236339
 21
52.172368
 31
0.0
  0
ARC
  5
AAD0
330
A987
100
AcDbEntity
  8
1
  6
Continuous
100
AcDbCircle
 10
287.2363389999998
 20
57.422368
 30
0.0
 40
7.5
100
AcDbArc
 50
270.0
 51
0.0
  0
LINE
  5
AAD1
330
A987
100
AcDbEntity
  8
1
  6
Continuous
100
AcDbLine
 10
294.7363389999998
 20
117.4223679999999
 30
0.0
 11
294.7363389999998
 21
57.422368
 31
0.0
  0
CIRCLE
  5
AAD2
330
A987
100
AcDbEntity
  8
1
  6
Continuous
100
AcDbCircle
 10
285.2363389999998
 20
115.4223679999999
 30
0.0
 40
4.25
  0
LINE
  5
AAD3
330
A987
100
AcDbEntity
  8
4
  6
CENTER
100
AcDbLine
 10
285.2363389999998
 20
122.6723679999999
 30
0.0
 11
285.2363389999998
 21
108.1723679999999
 31
0.0
  0
ARC
  5
AAD4
330
A987
100
AcDbEntity
  8
1
  6
Continuous
100
AcDbCircle
 10
287.2363389999998
 20
117.4223679999999
 30
0.0
 40
7.5
100
AcDbArc
 50
0.0
 51
90.0
  0
LINE
  5
AAD5
330
A987
100
AcDbEntity
  8
4
  6
CENTER
100
AcDbLine
 10
292.486339
 20
115.4223679999999
 30
0.0
 11
277.986339
 21
115.4223679999999
 31
0.0
  0
LINE
  5
AAD6
330
A987
100
AcDbEntity
  8
4
  6
CENTER
100
AcDbLine
 10
292.486339
 20
59.42236799999999
 30
0.0
 11
277.986339
 21
59.42236799999999
 31
0.0
  0
CIRCLE
  5
AAD7
330
A987
100
AcDbEntity
  8
1
  6
Continuous
100
AcDbCircle
 10
285.2363389999998
 20
59.42236799999999
 30
0.0
 40
4.25
  0
LINE
  5
AAD8
330
A987
100
AcDbEntity
  8
4
  6
CENTER
100
AcDbLine
 10
285.2363389999998
 20
66.67236800000001
 30
0.0
 11
285.2363389999998
 21
52.172368
 31
0.0
  0
LINE
  5
AAD9
330
A987
100
AcDbEntity
  8
1
  6
Continuous
100
AcDbLine
 10
196.836339
 20
71.65441300000002
 30
0.0
 11
222.4529899999998
 21
71.68010999999999
 31
0.0
  0
LINE
  5
AADA
330
A987
100
AcDbEntity
  8
1
  6
Continuous
100
AcDbLine
 10
196.836339
 20
69.054411
 30
0.0
 11
221.431643
 21
69.07908299999999
 31
0.0
  0
LINE
  5
AADB
330
A987
100
AcDbEntity
  8
1
  6
Continuous
100
AcDbLine
 10
213.236339
 20
71.67086399999998
 30
0.0
 11
213.236339
 21
71.67236800000002
 31
0.0
  0
LINE
  5
AADC
330
A987
100
AcDbEntity
  8
1
  6
Continuous
100
AcDbLine
 10
214.7363389999999
 20
71.67236800000002
 30
0.0
 11
209.236339
 21
71.67236800000002
 31
0.0
  0
LINE
  5
AADD
330
A987
100
AcDbEntity
  8
1
  6
Continuous
100
AcDbLine
 10
203.7363389999999
 20
71.67236800000002
 30
0.0
 11
209.236339
 21
71.67236800000002
 31
0.0
  0
LINE
  5
AADE
330
A987
100
AcDbEntity
  8
4
  6
CENTER
100
AcDbLine
 10
209.236339
 20
129.922368
 30
0.0
 11
209.236339
 21
44.92236799999999
 31
0.0
  0
LINE
  5
AADF
330
A987
100
AcDbEntity
  8
1
  6
Continuous
100
AcDbLine
 10
195.7363389999999
 20
73.76237299999998
 30
0.0
 11
195.7363389999999
 21
57.422368
 31
0.0
  0
ARC
  5
AAE0
330
A987
100
AcDbEntity
  8
1
  6
Continuous
100
AcDbCircle
 10
245.2363389999999
 20
87.422368
 30
0.0
 40
27.5
100
AcDbArc
 50
227.907557
 51
333.762068
  0
ARC
  5
AAE1
330
A987
100
AcDbEntity
  8
1
  6
Continuous
100
AcDbCircle
 10
245.2363389999999
 20
87.422368
 30
0.0
 40
24.9
100
AcDbArc
 50
226.190799
 51
329.8670609999998
  0
LINE
  5
AAE2
330
A987
100
AcDbEntity
  8
1
  6
Continuous
100
AcDbLine
 10
196.836339
 20
71.65441300000002
 30
0.0
 11
196.836339
 21
69.054411
 31
0.0
  0
LINE
  5
AAE3
330
A987
100
AcDbEntity
  8
1
  6
Continuous
100
AcDbLine
 10
221.431643
 20
69.07908299999999
 30
0.0
 11
221.447699
 21
69.07908299999999
 31
0.0
  0
ARC
  5
AAE4
330
A987
100
AcDbEntity
  8
1
  6
Continuous
100
AcDbCircle
 10
222.461016
 20
63.680114
 30
0.0
 40
8.0
100
AcDbArc
 50
46.190799
 51
90.05747599999997
  0
ARC
  5
AAE5
330
A987
100
AcDbEntity
  8
1
  6
Continuous
100
AcDbCircle
 10
221.439668
 20
61.079087
 30
0.0
 40
8.0
100
AcDbArc
 50
47.907557
 51
90.05747500000003
  0
ARC
  5
AAE6
330
A987
100
AcDbEntity
  8
1
  6
Continuous
100
AcDbCircle
 10
245.2363389999999
 20
87.422368
 30
0.0
 40
35.6
100
AcDbArc
 50
215.4515149999998
 51
43.90886
  0
ARC
  5
AAE7
330
A987
100
AcDbEntity
  8
1
  6
Continuous
100
AcDbCircle
 10
245.2363389999999
 20
87.422368
 30
0.0
 40
24.9
100
AcDbArc
 50
30.132939
 51
34.116507
  0
ARC
  5
AAE8
330
A987
100
AcDbEntity
  8
1
  6
Continuous
100
AcDbCircle
 10
245.2363389999999
 20
87.422368
 30
0.0
 40
27.5
100
AcDbArc
 50
26.237932
 51
30.818025
  0
ARC
  5
AAE9
330
A987
100
AcDbEntity
  8
1
  6
Continuous
100
AcDbCircle
 10
245.2363389999999
 20
87.422368
 30
0.0
 40
20.89999999999999
100
AcDbArc
 50
36.732949
 51
41.197638
  0
ARC
  5
AAEA
330
A987
100
AcDbEntity
  8
1
  6
Continuous
100
AcDbCircle
 10
245.2363389999999
 20
87.422368
 30
0.0
 40
20.89999999999999
100
AcDbArc
 50
219.044124
 51
323.267051
  0
ARC
  5
AAEB
330
A987
100
AcDbEntity
  8
1
  6
Continuous
100
AcDbCircle
 10
209.236339
 20
230.148739
 30
0.0
 40
53.5
100
AcDbArc
 50
86.67057699999999
 51
155.526984
  0
ARC
  5
AAEC
330
A987
100
AcDbEntity
  8
1
  6
Continuous
100
AcDbCircle
 10
209.236339
 20
230.148739
 30
0.0
 40
65.0
100
AcDbArc
 50
86.69641400000001
 51
181.2281549999999
  0
LINE
  5
AAED
330
A987
100
AcDbEntity
  8
1
  6
Continuous
100
AcDbLine
 10
195.7363389999999
 20
380.3751099999999
 30
0.0
 11
150.387842
 21
380.3751099999999
 31
0.0
  0
LINE
  5
AAEE
330
A987
100
AcDbEntity
  8
1
  6
Continuous
100
AcDbLine
 10
195.7363389999999
 20
405.37511
 30
0.0
 11
150.387842
 21
405.37511
 31
0.0
  0
ARC
  5
AAEF
330
A987
100
AcDbEntity
  8
1
  6
Continuous
100
AcDbCircle
 10
209.2408079999999
 20
210.6563079999999
 30
0.0
 40
196.382
100
AcDbArc
 50
93.94313199999997
 51
97.46218000000002
  0
ARC
  5
AAF0
330
A987
100
AcDbEntity
  8
1
  6
Continuous
100
AcDbCircle
 10
209.240777
 20
575.0935459999998
 30
0.0
 40
196.381632
100
AcDbArc
 50
262.5378149999999
 51
263.7542359999998
  0
ARC
  5
AAF1
330
A987
100
AcDbEntity
  8
1
  6
Continuous
100
AcDbCircle
 10
174.236322
 20
392.8751099999999
 30
0.0
 40
30.0
100
AcDbArc
 50
162.5423969999999
 51
197.457603
  0
ARC
  5
AAF2
330
A987
100
AcDbEntity
  8
1
  6
Continuous
100
AcDbCircle
 10
150.387842
 20
385.37511
 30
0.0
 40
5.0
100
AcDbArc
 50
197.457603
 51
270.0
  0
ARC
  5
AAF3
330
A987
100
AcDbEntity
  8
1
  6
Continuous
100
AcDbCircle
 10
150.387842
 20
400.37511
 30
0.0
 40
5.0
100
AcDbArc
 50
90.0
 51
162.5423969999999
  0
ARC
  5
AAF4
330
A987
100
AcDbEntity
  8
1
  6
Continuous
100
AcDbCircle
 10
209.236339
 20
230.148739
 30
0.0
 40
40.0
100
AcDbArc
 50
88.46344499999998
 51
154.1448
  0
CIRCLE
  5
AAF5
330
A987
100
AcDbEntity
  8
1
  6
Continuous
100
AcDbCircle
 10
209.236339
 20
194.1487389999998
 30
0.0
 40
3.5
  0
ARC
  5
AAF6
330
A987
100
AcDbEntity
  8
1
  6
Continuous
100
AcDbCircle
 10
174.998304
 20
219.024127
 30
0.0
 40
3.5
100
AcDbArc
 50
223.8265109999999
 51
343.3872889999999
  0
CIRCLE
  5
AAF7
330
A987
100
AcDbEntity
  8
1
  6
Continuous
100
AcDbCircle
 10
188.0760699999999
 20
259.2733509999998
 30
0.0
 40
3.5
  0
LINE
  5
AAF8
330
A987
100
AcDbEntity
  8
1
  6
Continuous
100
AcDbLine
 10
78.738934
 20
171.3002549999998
 30
0.0
 11
78.738934
 21
288.99725
 31
0.0
  0
LINE
  5
AAF9
330
A987
100
AcDbEntity
  8
1
  6
Continuous
100
AcDbLine
 10
53.738934
 20
171.3002549999998
 30
0.0
 11
53.738934
 21
288.99725
 31
0.0
  0
ARC
  5
AAFA
330
A987
100
AcDbEntity
  8
1
  6
Continuous
100
AcDbCircle
 10
66.238934
 20
195.1487349999999
 30
0.0
 40
30.0
100
AcDbArc
 50
252.542397
 51
287.457603
  0
ARC
  5
AAFB
330
A987
100
AcDbEntity
  8
1
  6
Continuous
100
AcDbCircle
 10
58.738934
 20
171.3002549999998
 30
0.0
 40
5.0
100
AcDbArc
 50
180.0
 51
252.542397
  0
ARC
  5
AAFC
330
A987
100
AcDbEntity
  8
1
  6
Continuous
100
AcDbCircle
 10
73.738934
 20
171.3002549999998
 30
0.0
 40
5.0
100
AcDbArc
 50
287.457603
 51
0.0
  0
LINE
  5
AAFD
330
A987
100
AcDbEntity
  8
1
  6
Continuous
100
AcDbLine
 10
51.238934
 20
223.1487529999998
 30
0.0
 11
51.238934
 21
237.1487529999999
 31
0.0
  0
LINE
  5
AAFE
330
A987
100
AcDbEntity
  8
1
  6
Continuous
100
AcDbLine
 10
52.238934
 20
222.1487529999999
 30
0.0
 11
52.238934
 21
238.1487529999999
 31
0.0
  0
ARC
  5
AAFF
330
A987
100
AcDbEntity
  8
1
  6
Continuous
100
AcDbCircle
 10
53.06180999999998
 20
223.9716279999999
 30
0.0
 40
2.0
100
AcDbArc
 50
204.295189
 51
245.704811
  0
ARC
  5
AB00
330
A987
100
AcDbEntity
  8
1
  6
Continuous
100
AcDbCircle
 10
248.457737
 20
230.1532209999999
 30
0.0
 40
196.382
100
AcDbArc
 50
182.3360049999998
 51
187.4621799999999
  0
ARC
  5
AB01
330
A987
100
AcDbEntity
  8
1
  6
Continuous
100
AcDbCircle
 10
-115.9798679999999
 20
230.1532209999999
 30
0.0
 40
196.382
100
AcDbArc
 50
352.53782
 51
355.8339389999999
  0
ARC
  5
AB02
330
A987
100
AcDbEntity
  8
1
  6
Continuous
100
AcDbCircle
 10
248.45737
 20
230.1443149999998
 30
0.0
 40
196.381632
100
AcDbArc
 50
172.537815
 51
177.6639999999999
  0
LINE
  5
AB03
330
A987
100
AcDbEntity
  8
1
  6
Continuous
100
AcDbLine
 10
50.738934
 20
224.6487529999999
 30
0.0
 11
50.738934
 21
235.6487529999998
 31
0.0
  0
LINE
  5
AB04
330
A987
100
AcDbEntity
  8
1
  6
Continuous
100
AcDbLine
 10
50.738934
 20
224.6487529999999
 30
0.0
 11
51.238934
 21
224.6487529999999
 31
0.0
  0
LINE
  5
AB05
330
A987
100
AcDbEntity
  8
1
  6
Continuous
100
AcDbLine
 10
50.48742999999999
 20
226.1487529999999
 30
0.0
 11
50.738934
 21
226.1487529999999
 31
0.0
  0
LINE
  5
AB06
330
A987
100
AcDbEntity
  8
1
  6
Continuous
100
AcDbLine
 10
50.738934
 20
235.6487529999998
 30
0.0
 11
51.238934
 21
235.6487529999998
 31
0.0
  0
LINE
  5
AB07
330
A987
100
AcDbEntity
  8
1
  6
Continuous
100
AcDbLine
 10
50.479405
 20
234.1487529999999
 30
0.0
 11
50.738934
 21
234.1487529999999
 31
0.0
  0
ARC
  5
AB08
330
A987
100
AcDbEntity
  8
1
  6
Continuous
100
AcDbCircle
 10
53.06180999999998
 20
236.3258769999999
 30
0.0
 40
2.0
100
AcDbArc
 50
114.2951889999998
 51
155.704811
  0
ARC
  5
AB09
330
A987
100
AcDbEntity
  8
1
  6
Continuous
100
AcDbCircle
 10
-115.9798679999999
 20
230.1442839999999
 30
0.0
 40
196.382
100
AcDbArc
 50
4.517903999999997
 51
7.46218
  0
ARC
  5
AB0A
330
A987
100
AcDbEntity
  8
1
  6
Continuous
100
AcDbCircle
 10
66.238934
 20
265.14877
 30
0.0
 40
30.0
100
AcDbArc
 50
72.54239699999998
 51
107.457603
  0
ARC
  5
AB0B
330
A987
100
AcDbEntity
  8
1
  6
Continuous
100
AcDbCircle
 10
58.738934
 20
288.99725
 30
0.0
 40
5.0
100
AcDbArc
 50
107.457603
 51
180.0
  0
ARC
  5
AB0C
330
A987
100
AcDbEntity
  8
1
  6
Continuous
100
AcDbCircle
 10
73.738934
 20
288.99725
 30
0.0
 40
5.0
100
AcDbArc
 50
0.0
 51
72.54239699999998
  0
LINE
  5
AB0D
330
A987
100
AcDbEntity
  8
1
  6
Continuous
100
AcDbLine
 10
375.733743
 20
171.150237
 30
0.0
 11
375.733743
 21
288.8472319999999
 31
0.0
  0
LINE
  5
AB0E
330
A987
100
AcDbEntity
  8
1
  6
Continuous
100
AcDbLine
 10
350.733743
 20
171.150237
 30
0.0
 11
350.733743
 21
288.8472319999999
 31
0.0
  0
ARC
  5
AB0F
330
A987
100
AcDbEntity
  8
1
  6
Continuous
100
AcDbCircle
 10
363.233743
 20
194.9987169999999
 30
0.0
 40
30.0
100
AcDbArc
 50
252.542397
 51
287.457603
  0
ARC
  5
AB10
330
A987
100
AcDbEntity
  8
1
  6
Continuous
100
AcDbCircle
 10
355.733743
 20
171.150237
 30
0.0
 40
5.0
100
AcDbArc
 50
180.0
 51
252.542397
  0
ARC
  5
AB11
330
A987
100
AcDbEntity
  8
1
  6
Continuous
100
AcDbCircle
 10
370.7337429999999
 20
171.150237
 30
0.0
 40
5.0
100
AcDbArc
 50
287.457603
 51
0.0
  0
LINE
  5
AB12
330
A987
100
AcDbEntity
  8
1
  6
Continuous
100
AcDbLine
 10
378.233743
 20
222.998735
 30
0.0
 11
378.233743
 21
236.998735
 31
0.0
  0
LINE
  5
AB13
330
A987
100
AcDbEntity
  8
1
  6
Continuous
100
AcDbLine
 10
377.233743
 20
221.998735
 30
0.0
 11
377.233743
 21
237.9987349999999
 31
0.0
  0
ARC
  5
AB14
330
A987
100
AcDbEntity
  8
1
  6
Continuous
100
AcDbCircle
 10
545.452546
 20
230.003203
 30
0.0
 40
196.382
100
AcDbArc
 50
185.8187189999999
 51
187.4621799999999
  0
ARC
  5
AB15
330
A987
100
AcDbEntity
  8
1
  6
Continuous
100
AcDbCircle
 10
376.410868
 20
223.8216099999999
 30
0.0
 40
2.0
100
AcDbArc
 50
294.2951889999998
 51
335.704811
  0
ARC
  5
AB16
330
A987
100
AcDbEntity
  8
1
  6
Continuous
100
AcDbCircle
 10
181.014941
 20
230.003203
 30
0.0
 40
196.382
100
AcDbArc
 50
352.53782
 51
357.663995
  0
ARC
  5
AB17
330
A987
100
AcDbEntity
  8
1
  6
Continuous
100
AcDbCircle
 10
545.452179
 20
229.994297
 30
0.0
 40
196.381632
100
AcDbArc
 50
172.537815
 51
175.7173009999999
  0
ARC
  5
AB18
330
A987
100
AcDbEntity
  8
1
  6
Continuous
100
AcDbCircle
 10
181.014941
 20
229.994266
 30
0.0
 40
196.382
100
AcDbArc
 50
2.336005
 51
7.46218
  0
LINE
  5
AB19
330
A987
100
AcDbEntity
  8
1
  6
Continuous
100
AcDbLine
 10
378.733743
 20
224.498735
 30
0.0
 11
378.733743
 21
235.498735
 31
0.0
  0
LINE
  5
AB1A
330
A987
100
AcDbEntity
  8
1
  6
Continuous
100
AcDbLine
 10
378.733743
 20
225.998735
 30
0.0
 11
378.9850969999998
 21
225.998735
 31
0.0
  0
LINE
  5
AB1B
330
A987
100
AcDbEntity
  8
1
  6
Continuous
100
AcDbLine
 10
378.733743
 20
233.998735
 30
0.0
 11
378.993122
 21
233.998735
 31
0.0
  0
ARC
  5
AB1C
330
A987
100
AcDbEntity
  8
1
  6
Continuous
100
AcDbCircle
 10
376.410868
 20
236.1758589999999
 30
0.0
 40
2.0
100
AcDbArc
 50
24.295189
 51
65.70481099999999
  0
LINE
  5
AB1D
330
A987
100
AcDbEntity
  8
1
  6
Continuous
100
AcDbLine
 10
378.233743
 20
224.498735
 30
0.0
 11
378.733743
 21
224.498735
 31
0.0
  0
LINE
  5
AB1E
330
A987
100
AcDbEntity
  8
1
  6
Continuous
100
AcDbLine
 10
378.233743
 20
235.498735
 30
0.0
 11
378.733743
 21
235.498735
 31
0.0
  0
ARC
  5
AB1F
330
A987
100
AcDbEntity
  8
1
  6
Continuous
100
AcDbCircle
 10
363.233743
 20
264.998752
 30
0.0
 40
30.0
100
AcDbArc
 50
72.54239699999998
 51
107.457603
  0
ARC
  5
AB20
330
A987
100
AcDbEntity
  8
1
  6
Continuous
100
AcDbCircle
 10
355.733743
 20
288.8472319999999
 30
0.0
 40
5.0
100
AcDbArc
 50
107.457603
 51
180.0
  0
ARC
  5
AB21
330
A987
100
AcDbEntity
  8
1
  6
Continuous
100
AcDbCircle
 10
370.7337429999999
 20
288.8472319999999
 30
0.0
 40
5.0
100
AcDbArc
 50
0.0
 51
72.54239699999998
  0
LINE
  5
AB22
330
A987
100
AcDbEntity
  8
1
  6
Continuous
100
AcDbLine
 10
268.084837
 20
74.922368
 30
0.0
 11
150.387842
 21
74.922368
 31
0.0
  0
LINE
  5
AB23
330
A987
100
AcDbEntity
  8
1
  6
Continuous
100
AcDbLine
 10
268.084837
 20
99.922368
 30
0.0
 11
150.387842
 21
99.922368
 31
0.0
  0
ARC
  5
AB24
330
A987
100
AcDbEntity
  8
1
  6
Continuous
100
AcDbCircle
 10
150.387842
 20
79.922368
 30
0.0
 40
5.0
100
AcDbArc
 50
197.457603
 51
270.0
  0
ARC
  5
AB25
330
A987
100
AcDbEntity
  8
1
  6
Continuous
100
AcDbCircle
 10
150.387842
 20
94.922368
 30
0.0
 40
5.0
100
AcDbArc
 50
90.0
 51
162.5423969999999
  0
ARC
  5
AB26
330
A987
100
AcDbEntity
  8
1
  6
Continuous
100
AcDbCircle
 10
174.236322
 20
87.422368
 30
0.0
 40
30.0
100
AcDbArc
 50
162.5423969999999
 51
197.457603
  0
ARC
  5
AB27
330
A987
100
AcDbEntity
  8
1
  6
Continuous
100
AcDbCircle
 10
268.084837
 20
79.922368
 30
0.0
 40
5.0
100
AcDbArc
 50
270.0
 51
342.542397
  0
LINE
  5
AB28
330
A987
100
AcDbEntity
  8
1
  6
Continuous
100
AcDbLine
 10
217.236339
 20
73.42236800000002
 30
0.0
 11
201.2363389999999
 21
73.42236800000002
 31
0.0
  0
LINE
  5
AB29
330
A987
100
AcDbEntity
  8
1
  6
Continuous
100
AcDbLine
 10
216.2363389999999
 20
72.422368
 30
0.0
 11
202.2363389999999
 21
72.422368
 31
0.0
  0
LINE
  5
AB2A
330
A987
100
AcDbEntity
  8
1
  6
Continuous
100
AcDbLine
 10
214.7363389999999
 20
71.92236800000002
 30
0.0
 11
203.7363389999999
 21
71.92236800000002
 31
0.0
  0
ARC
  5
AB2B
330
A987
100
AcDbEntity
  8
1
  6
Continuous
100
AcDbCircle
 10
209.240777
 20
269.640804
 30
0.0
 40
196.381632
100
AcDbArc
 50
262.5378149999999
 51
267.6639999999998
  0
LINE
  5
AB2C
330
A987
100
AcDbEntity
  8
1
  6
Continuous
100
AcDbLine
 10
213.236339
 20
71.597859
 30
0.0
 11
213.236339
 21
71.92236800000002
 31
0.0
  0
LINE
  5
AB2D
330
A987
100
AcDbEntity
  8
1
  6
Continuous
100
AcDbLine
 10
205.236339
 20
71.597859
 30
0.0
 11
205.236339
 21
71.92236800000002
 31
0.0
  0
ARC
  5
AB2E
330
A987
100
AcDbEntity
  8
1
  6
Continuous
100
AcDbCircle
 10
203.0592149999999
 20
74.245244
 30
0.0
 40
2.0
100
AcDbArc
 50
204.295189
 51
245.704811
  0
LINE
  5
AB2F
330
A987
100
AcDbEntity
  8
1
  6
Continuous
100
AcDbLine
 10
203.7363389999999
 20
71.92236800000002
 30
0.0
 11
203.7363389999999
 21
72.422368
 31
0.0
  0
ARC
  5
AB30
330
A987
100
AcDbEntity
  8
1
  6
Continuous
100
AcDbCircle
 10
209.2318709999999
 20
269.641171
 30
0.0
 40
196.382
100
AcDbArc
 50
272.336005
 51
277.4621799999998
  0
ARC
  5
AB31
330
A987
100
AcDbEntity
  8
1
  6
Continuous
100
AcDbCircle
 10
215.413464
 20
74.245244
 30
0.0
 40
2.0
100
AcDbArc
 50
294.2951889999998
 51
335.704811
  0
LINE
  5
AB32
330
A987
100
AcDbEntity
  8
1
  6
Continuous
100
AcDbLine
 10
214.7363389999999
 20
71.92236800000002
 30
0.0
 11
214.7363389999999
 21
72.422368
 31
0.0
  0
ARC
  5
AB33
330
A987
100
AcDbEntity
  8
1
  6
Continuous
100
AcDbCircle
 10
209.2408079999999
 20
-94.79643399999996
 30
0.0
 40
196.382
100
AcDbArc
 50
96.24572
 51
97.46218000000002
  0
ARC
  5
AB34
330
A987
100
AcDbEntity
  8
1
  6
Continuous
100
AcDbCircle
 10
209.2318709999999
 20
-94.79643399999996
 30
0.0
 40
196.382
100
AcDbArc
 50
82.53781999999999
 51
83.75427999999997
  0
ARC
  5
AB35
330
A987
100
AcDbEntity
  8
1
  6
Continuous
100
AcDbCircle
 10
268.084837
 20
94.922368
 30
0.0
 40
5.0
100
AcDbArc
 50
17.45760299999999
 51
90.0
  0
ARC
  5
AB36
330
A987
100
AcDbEntity
  8
1
  6
Continuous
100
AcDbCircle
 10
244.2363569999999
 20
87.422368
 30
0.0
 40
30.0
100
AcDbArc
 50
342.542397
 51
17.45760299999999
  0
ARC
  5
AB37
330
A987
100
AcDbEntity
  8
1
  6
Continuous
100
AcDbCircle
 10
209.236339
 20
230.148739
 30
0.0
 40
25.64999999999999
100
AcDbArc
 50
96.16902299999999
 51
121.945804
  0
LINE
  5
AB38
330
A987
100
AcDbEntity
  8
1
  6
Continuous
100
AcDbLine
 10
202.2363389999999
 20
66.740612
 30
0.0
 11
202.2363389999999
 21
69.06685
 31
0.0
  0
LINE
  5
AB39
330
A987
100
AcDbEntity
  8
1
  6
Continuous
100
AcDbLine
 10
216.2363389999999
 20
66.740612
 30
0.0
 11
202.2363389999999
 21
66.740612
 31
0.0
  0
ARC
  5
AB3A
330
A987
100
AcDbEntity
  8
1
  6
Continuous
100
AcDbCircle
 10
209.236339
 20
74.56685
 30
0.0
 40
10.5
100
AcDbArc
 50
228.1896849999998
 51
311.810315
  0
LINE
  5
AB3B
330
A987
100
AcDbEntity
  8
1
  6
Continuous
100
AcDbLine
 10
216.2363389999999
 20
66.740612
 30
0.0
 11
216.2363389999999
 21
69.06685
 31
0.0
  0
LINE
  5
AB3C
330
A987
100
AcDbEntity
  8
1
  6
Continuous
100
AcDbLine
 10
45.557178
 20
237.1487529999999
 30
0.0
 11
45.557178
 21
223.1487529999998
 31
0.0
  0
ARC
  5
AB3D
330
A987
100
AcDbEntity
  8
1
  6
Continuous
100
AcDbCircle
 10
53.38341599999999
 20
230.1487529999999
 30
0.0
 40
10.5
100
AcDbArc
 50
138.1896849999999
 51
221.810315
  0
LINE
  5
AB3E
330
A987
100
AcDbEntity
  8
1
  6
Continuous
100
AcDbLine
 10
45.557178
 20
223.1487529999998
 30
0.0
 11
47.88341599999998
 21
223.1487529999998
 31
0.0
  0
LINE
  5
AB3F
330
A987
100
AcDbEntity
  8
1
  6
Continuous
100
AcDbLine
 10
45.557178
 20
237.1487529999999
 30
0.0
 11
47.88341599999998
 21
237.1487529999999
 31
0.0
  0
LINE
  5
AB40
330
A987
100
AcDbEntity
  8
1
  6
Continuous
100
AcDbLine
 10
383.9155009999998
 20
233.143636
 30
0.0
 11
383.9155009999998
 21
222.998735
 31
0.0
  0
ARC
  5
AB41
330
A987
100
AcDbEntity
  8
1
  6
Continuous
100
AcDbCircle
 10
376.089263
 20
229.998735
 30
0.0
 40
10.5
100
AcDbArc
 50
318.189685
 51
29.66984899999999
  0
LINE
  5
AB42
330
A987
100
AcDbEntity
  8
1
  6
Continuous
100
AcDbLine
 10
383.9155009999998
 20
222.998735
 30
0.0
 11
381.589263
 21
222.998735
 31
0.0
  0
LINE
  5
AB43
330
A987
100
AcDbEntity
  8
4
  6
CENTER
100
AcDbLine
 10
209.236339
 20
303.1487389999999
 30
0.0
 11
209.236339
 21
157.1487389999998
 31
0.0
  0
LINE
  5
AB44
330
A987
100
AcDbEntity
  8
4
  6
CENTER
100
AcDbLine
 10
209.236339
 20
350.37511
 30
0.0
 11
209.236339
 21
435.3751099999998
 31
0.0
  0
ARC
  5
AB45
330
A987
100
AcDbEntity
  8
1
  6
Continuous
100
AcDbCircle
 10
211.8918569999999
 20
208.658337
 30
0.0
 40
36.478828
100
AcDbArc
 50
72.90225599999998
 51
82.346502
  0
ARC
  5
AB46
330
A987
100
AcDbEntity
  8
1
  6
Continuous
100
AcDbCircle
 10
242.184345
 20
381.9039529999998
 30
0.0
 40
170.4503199999998
100
AcDbArc
 50
261.76691
 51
267.67719
  0
LINE
  5
AB47
330
A987
100
AcDbEntity
  8
1
  6
Continuous
100
AcDbLine
 10
222.708681
 20
243.4400979999999
 30
0.0
 11
217.455818
 21
213.1866969999999
 31
0.0
  0
LINE
  5
AB48
330
A987
100
AcDbEntity
  8
1
  6
Continuous
100
AcDbLine
 10
230.4389309999999
 20
210.644564
 30
0.0
 11
219.7783319999998
 21
212.932706
 31
0.0
  0
ARC
  5
AB49
330
A987
100
AcDbEntity
  8
1
  6
Continuous
100
AcDbCircle
 10
242.6332899999999
 20
81.562985
 30
0.0
 40
34.628464
100
AcDbArc
 50
100.4079299999998
 51
131.4236699999999
  0
ARC
  5
AB4A
330
A987
100
AcDbEntity
  8
1
  6
Continuous
100
AcDbCircle
 10
247.8861569999998
 20
81.562985
 30
0.0
 40
34.628464
100
AcDbArc
 50
105.9986399999999
 51
131.4236699999999
  0
ARC
  5
AB4B
330
A987
100
AcDbEntity
  8
1
  6
Continuous
100
AcDbCircle
 10
242.6332899999999
 20
81.562985
 30
0.0
 40
36.928463
100
AcDbArc
 50
100.4079299999998
 51
132.9837099999998
  0
LINE
  5
AB4C
330
A987
100
AcDbEntity
  8
1
  6
Continuous
100
AcDbLine
 10
173.54611
 20
100.919935
 30
0.0
 11
242.159703
 21
100.919935
 31
0.0
  0
LINE
  5
AB4D
330
A987
100
AcDbEntity
  8
1
  6
Continuous
100
AcDbLine
 10
173.54611
 20
100.4199349999999
 30
0.0
 11
242.169918
 21
100.4199349999999
 31
0.0
  0
ARC
  5
AB4E
330
A987
100
AcDbEntity
  8
5
  6
PHANTOM
100
AcDbCircle
 10
197.726734
 20
385.012363
 30
0.0
 40
170.4503199999998
100
AcDbArc
 50
278.26691
 51
284.1772
  0
ARC
  5
AB4F
330
A987
100
AcDbEntity
  8
5
  6
PHANTOM
100
AcDbCircle
 10
172.023235
 20
-11.663897
 30
0.0
 40
262.5541999999999
100
AcDbArc
 50
74.93044000000002
 51
79.51924099999998
  0
LINE
  5
AB50
330
A987
100
AcDbEntity
  8
1
  6
Continuous
100
AcDbLine
 10
87.36057499999999
 20
213.1867129999998
 30
0.0
 11
95.577067
 21
211.561163
 31
0.0
  0
LINE
  5
AB51
330
A987
100
AcDbEntity
  8
1
  6
Continuous
100
AcDbLine
 10
95.68653199999998
 20
211.545723
 30
0.0
 11
87.39445499999998
 21
212.249823
 31
0.0
  0
LINE
  5
AB52
330
A987
100
AcDbEntity
  8
1
  6
Continuous
100
AcDbLine
 10
95.981921
 20
234.6669729999999
 30
0.0
 11
100.6488609999999
 21
234.6669729999999
 31
0.0
  0
LINE
  5
AB53
330
A987
100
AcDbEntity
  8
1
  6
Continuous
100
AcDbLine
 10
96.77114500000001
 20
230.887463
 30
0.0
 11
100.6488609999999
 21
230.887463
 31
0.0
  0
ARC
  5
AB54
330
A987
100
AcDbEntity
  8
1
  6
Continuous
100
AcDbCircle
 10
76.95342700000002
 20
224.630623
 30
0.0
 40
21.51306299999999
100
AcDbArc
 50
22.89864199999999
 51
61.06876999999999
  0
LINE
  5
AB55
330
A987
100
AcDbEntity
  8
1
  6
Continuous
100
AcDbLine
 10
94.60169500000001
 20
236.9330829999999
 30
0.0
 11
100.6488609999999
 21
236.9330829999999
 31
0.0
  0
LINE
  5
AB56
330
A987
100
AcDbEntity
  8
1
  6
Continuous
100
AcDbLine
 10
89.36056200000001
 20
247.886673
 30
0.0
 11
100.6506469999999
 21
247.886673
 31
0.0
  0
LINE
  5
AB57
330
A987
100
AcDbEntity
  8
1
  6
Continuous
100
AcDbLine
 10
90.096234
 20
251.6661829999999
 30
0.0
 11
100.6506469999999
 21
251.6661829999999
 31
0.0
  0
LINE
  5
AB58
330
A987
100
AcDbEntity
  8
1
  6
Continuous
100
AcDbLine
 10
90.094449
 20
253.9322929999999
 30
0.0
 11
100.6506469999999
 21
253.9322929999999
 31
0.0
  0
LINE
  5
AB59
330
A987
100
AcDbEntity
  8
1
  6
Continuous
100
AcDbLine
 10
87.360562
 20
241.800973
 30
0.0
 11
87.360562
 21
248.9322929999999
 31
0.0
  0
LINE
  5
AB5A
330
A987
100
AcDbEntity
  8
1
  6
Continuous
100
AcDbLine
 10
85.09444899999998
 20
230.929333
 30
0.0
 11
85.09444899999998
 21
248.9322929999999
 31
0.0
  0
LINE
  5
AB5B
330
A987
100
AcDbEntity
  8
1
  6
Continuous
100
AcDbLine
 10
80.94665199999999
 20
245.6134129999998
 30
0.0
 11
80.94665199999999
 21
210.2437529999999
 31
0.0
  0
LINE
  5
AB5C
330
A987
100
AcDbEntity
  8
1
  6
Continuous
100
AcDbLine
 10
80.446652
 20
245.6134129999998
 30
0.0
 11
80.446652
 21
210.2437529999999
 31
0.0
  0
LINE
  5
AB5D
330
A987
100
AcDbEntity
  8
1
  6
Continuous
100
AcDbLine
 10
79.23647699999998
 20
245.6134129999998
 30
0.0
 11
79.23647699999998
 21
222.3637529999999
 31
0.0
  0
LINE
  5
AB5E
330
A987
100
AcDbEntity
  8
1
  6
Continuous
100
AcDbLine
 10
89.940762
 20
225.8056729999999
 30
0.0
 11
89.940762
 21
218.9218229999999
 31
0.0
  0
LINE
  5
AB5F
330
A987
100
AcDbEntity
  8
1
  6
Continuous
100
AcDbLine
 10
79.23648799999998
 20
222.3637529999999
 30
0.0
 11
80.44665999999997
 21
210.2437529999999
 31
0.0
  0
ARC
  5
AB60
330
A987
100
AcDbEntity
  8
1
  6
Continuous
100
AcDbCircle
 10
84.940762
 20
218.9218229999999
 30
0.0
 40
5.0
100
AcDbArc
 50
284.446613
 51
0.000003
  0
ARC
  5
AB61
330
A987
100
AcDbEntity
  8
1
  6
Continuous
100
AcDbCircle
 10
82.90647599999998
 20
211.1692029999999
 30
0.0
 40
2.0
100
AcDbArc
 50
104.44661
 51
168.4959
  0
LINE
  5
AB62
330
A987
100
AcDbEntity
  8
1
  6
Continuous
100
AcDbLine
 10
85.09444899999998
 20
213.1867129999998
 30
0.0
 11
87.360562
 21
213.1867129999998
 31
0.0
  0
LINE
  5
AB63
330
A987
100
AcDbEntity
  8
1
  6
Continuous
100
AcDbLine
 10
86.188151
 20
214.079933
 30
0.0
 11
82.40751299999997
 21
213.105963
 31
0.0
  0
LINE
  5
AB64
330
A987
100
AcDbEntity
  8
1
  6
Continuous
100
AcDbLine
 10
80.446652
 20
210.2437529999999
 30
0.0
 11
80.94665199999999
 21
210.2437529999999
 31
0.0
  0
LINE
  5
AB65
330
A987
100
AcDbEntity
  8
1
  6
Continuous
100
AcDbLine
 10
87.360562
 20
213.1867129999998
 30
0.0
 11
87.360562
 21
214.546393
 31
0.0
  0
LINE
  5
AB66
330
A987
100
AcDbEntity
  8
1
  6
Continuous
100
AcDbLine
 10
87.394452
 20
212.249823
 30
0.0
 11
85.09444899999998
 21
212.249823
 31
0.0
  0
LINE
  5
AB67
330
A987
100
AcDbEntity
  8
1
  6
Continuous
100
AcDbLine
 10
85.09444899999998
 20
212.249823
 30
0.0
 11
85.09444899999998
 21
213.798163
 31
0.0
  0
ARC
  5
AB68
330
A987
100
AcDbEntity
  8
1
  6
Continuous
100
AcDbCircle
 10
84.940762
 20
225.8056729999999
 30
0.0
 40
5.0
100
AcDbArc
 50
0.000003
 51
75.55338999999998
  0
ARC
  5
AB69
330
A987
100
AcDbEntity
  8
1
  6
Continuous
100
AcDbCircle
 10
82.90647599999998
 20
233.5583029999999
 30
0.0
 40
2.0
100
AcDbArc
 50
191.5041099999998
 51
255.5533799999999
  0
LINE
  5
AB6A
330
A987
100
AcDbEntity
  8
1
  6
Continuous
100
AcDbLine
 10
86.18814899999998
 20
230.6475629999999
 30
0.0
 11
82.407511
 21
231.6215329999999
 31
0.0
  0
ARC
  5
AB6B
330
A987
100
AcDbEntity
  8
1
  6
Continuous
100
AcDbCircle
 10
95.360562
 20
241.800973
 30
0.0
 40
8.0
100
AcDbArc
 50
180.0
 51
204.57293
  0
ARC
  5
AB6C
330
A987
100
AcDbEntity
  8
1
  6
Continuous
100
AcDbCircle
 10
95.094449
 20
242.4713829999999
 30
0.0
 40
10.0
100
AcDbArc
 50
180.0
 51
205.9646899999999
  0
ARC
  5
AB6D
330
A987
100
AcDbEntity
  8
1
  6
Continuous
100
AcDbCircle
 10
68.43009599999999
 20
229.4866429999999
 30
0.0
 40
19.65790399999999
100
AcDbArc
 50
0.5978420000000001
 51
25.96469
  0
ARC
  5
AB6E
330
A987
100
AcDbEntity
  8
1
  6
Continuous
100
AcDbCircle
 10
68.43009599999999
 20
229.4866429999999
 30
0.0
 40
21.61238299999999
100
AcDbArc
 50
352.575136
 51
24.57292999999999
  0
ARC
  5
AB6F
330
A987
100
AcDbEntity
  8
1
  6
Continuous
100
AcDbCircle
 10
89.36056200000001
 20
245.886673
 30
0.0
 40
2.0
100
AcDbArc
 50
90.00001000000002
 51
180.0
  0
LINE
  5
AB70
330
A987
100
AcDbEntity
  8
1
  6
Continuous
100
AcDbLine
 10
80.39445200000001
 20
249.8784929999999
 30
0.0
 11
85.39445200000001
 21
249.8784929999999
 31
0.0
  0
LINE
  5
AB71
330
A987
100
AcDbEntity
  8
1
  6
Continuous
100
AcDbLine
 10
80.39445200000001
 20
249.8784929999999
 30
0.0
 11
80.39445200000001
 21
252.1784729999999
 31
0.0
  0
LINE
  5
AB72
330
A987
100
AcDbEntity
  8
1
  6
Continuous
100
AcDbLine
 10
80.39445200000001
 20
252.1784729999999
 30
0.0
 11
85.39445200000001
 21
252.1784729999999
 31
0.0
  0
ARC
  5
AB73
330
A987
100
AcDbEntity
  8
1
  6
Continuous
100
AcDbCircle
 10
90.094449
 20
248.9322929999999
 30
0.0
 40
2.733886999999998
100
AcDbArc
 50
90.00001000000002
 51
180.0
  0
ARC
  5
AB74
330
A987
100
AcDbEntity
  8
1
  6
Continuous
100
AcDbCircle
 10
90.094449
 20
248.9322929999999
 30
0.0
 40
5.0
100
AcDbArc
 50
90.00001000000002
 51
180.0
  0
ARC
  5
AB75
330
A987
100
AcDbEntity
  8
1
  6
Continuous
100
AcDbCircle
 10
85.39445200000001
 20
250.178473
 30
0.0
 40
2.0
100
AcDbArc
 50
67.33977
 51
90.00001000000002
  0
LINE
  5
AB76
330
A987
100
AcDbEntity
  8
1
  6
Continuous
100
AcDbLine
 10
79.23647699999998
 20
245.6134129999998
 30
0.0
 11
85.09444899999998
 21
245.6134129999998
 31
0.0
  0
ARC
  5
AB77
330
A987
100
AcDbEntity
  8
1
  6
Continuous
100
AcDbCircle
 10
148.2235039999999
 20
72.838465
 30
0.0
 40
40.0
100
AcDbArc
 50
47.31937300000002
 51
77.68316299999998
  0
ARC
  5
AB78
330
A987
100
AcDbEntity
  8
1
  6
Continuous
100
AcDbCircle
 10
161.8170869999999
 20
121.3341049999999
 30
0.0
 40
11.0
100
AcDbArc
 50
0.0
 51
180.00001
  0
ARC
  5
AB79
330
A987
100
AcDbEntity
  8
1
  6
Continuous
100
AcDbCircle
 10
160.44198
 20
6.441374999999997
 30
0.0
 40
104.78456
100
AcDbArc
 50
77.09166899999998
 51
89.896156
  0
LINE
  5
AB7A
330
A987
100
AcDbEntity
  8
1
  6
Continuous
100
AcDbLine
 10
141.86635
 20
103.801965
 30
0.0
 11
173.568723
 21
100.919935
 31
0.0
  0
LINE
  5
AB7B
330
A987
100
AcDbEntity
  8
1
  6
Continuous
100
AcDbLine
 10
141.8210769999998
 20
103.304015
 30
0.0
 11
173.546113
 21
100.419915
 31
0.0
  0
LINE
  5
AB7C
330
A987
100
AcDbEntity
  8
1
  6
Continuous
100
AcDbLine
 10
150.8170869999999
 20
111.3095949999999
 30
0.0
 11
150.8170869999999
 21
121.3341049999999
 31
0.0
  0
ARC
  5
AB7D
330
A987
100
AcDbEntity
  8
1
  6
Continuous
100
AcDbCircle
 10
154.836343
 20
103.1249349999998
 30
0.0
 40
9.0
100
AcDbArc
 50
77.68316299999998
 51
166.96805
  0
ARC
  5
AB7E
330
A987
100
AcDbEntity
  8
1
  6
Continuous
100
AcDbCircle
 10
144.119653
 20
105.605375
 30
0.0
 40
2.0
100
AcDbArc
 50
264.80557
 51
346.9680499999999
  0
LINE
  5
AB7F
330
A987
100
AcDbEntity
  8
1
  6
Continuous
100
AcDbLine
 10
141.86635
 20
103.801965
 30
0.0
 11
141.8210769999998
 21
103.304015
 31
0.0
  0
ARC
  5
AB80
330
A987
100
AcDbEntity
  8
1
  6
Continuous
100
AcDbCircle
 10
193.3042879999999
 20
102.919935
 30
0.0
 40
2.0
100
AcDbArc
 50
270.0
 51
0.0
  0
LINE
  5
AB81
330
A987
100
AcDbEntity
  8
1
  6
Continuous
100
AcDbLine
 10
183.849996
 20
108.5779049999999
 30
0.0
 11
217.455815
 21
108.5779049999999
 31
0.0
  0
LINE
  5
AB82
330
A987
100
AcDbEntity
  8
1
  6
Continuous
100
AcDbLine
 10
170.173521
 20
106.277905
 30
0.0
 11
221.6671109999999
 21
106.277905
 31
0.0
  0
LINE
  5
AB83
330
A987
100
AcDbEntity
  8
1
  6
Continuous
100
AcDbLine
 10
172.8170899999998
 20
110.492625
 30
0.0
 11
172.8170899999998
 21
121.3341049999999
 31
0.0
  0
ARC
  5
AB84
330
A987
100
AcDbEntity
  8
1
  6
Continuous
100
AcDbCircle
 10
178.7295049999999
 20
105.919935
 30
0.0
 40
5.0
100
AcDbArc
 50
227.31937
 51
270.0
  0
ARC
  5
AB85
330
A987
100
AcDbEntity
  8
1
  6
Continuous
100
AcDbCircle
 10
160.44198
 20
6.441374999999997
 30
0.0
 40
102.48456
100
AcDbArc
 50
76.946999
 51
87.02353599999998
  0
ARC
  5
AB86
330
A987
100
AcDbEntity
  8
1
  6
Continuous
100
AcDbCircle
 10
197.3042879999999
 20
104.277905
 30
0.0
 40
2.0
100
AcDbArc
 50
90.00000300000001
 51
180.00001
  0
LINE
  5
AB87
330
A987
100
AcDbEntity
  8
1
  6
Continuous
100
AcDbLine
 10
195.3042879999999
 20
104.277905
 30
0.0
 11
195.3042879999999
 21
102.919935
 31
0.0
  0
ARC
  5
AB88
330
A987
100
AcDbEntity
  8
1
  6
Continuous
100
AcDbCircle
 10
216.414242
 20
111.277905
 30
0.0
 40
5.0
100
AcDbArc
 50
270.0
 51
311.42367
  0
ARC
  5
AB89
330
A987
100
AcDbEntity
  8
1
  6
Continuous
100
AcDbCircle
 10
221.6671109999999
 20
111.277905
 30
0.0
 40
5.0
100
AcDbArc
 50
270.0
 51
311.42367
  0
LINE
  5
AB8A
330
A987
100
AcDbEntity
  8
1
  6
Continuous
100
AcDbLine
 10
96.77114500000001
 20
212.5421529999999
 30
0.0
 11
96.77114500000001
 21
233.0014009999999
 31
0.0
  0
ARC
  5
AB8B
330
A987
100
AcDbEntity
  8
1
  6
Continuous
100
AcDbCircle
 10
95.77114499999996
 20
212.5421529999999
 30
0.0
 40
1.0
100
AcDbArc
 50
265.1466200000001
 51
0.000003
  0
ARC
  5
AB8C
330
A987
100
AcDbEntity
  8
1
  6
Continuous
100
AcDbCircle
 10
100.6488609999999
 20
180.222543
 30
0.0
 40
54.44366099999999
100
AcDbArc
 50
79.80144
 51
90.00001000000002
  0
ARC
  5
AB8D
330
A987
100
AcDbEntity
  8
1
  6
Continuous
100
AcDbCircle
 10
100.6488609999999
 20
285.331923
 30
0.0
 40
54.44366099999999
100
AcDbArc
 50
270.0
 51
280.1985559999998
  0
ARC
  5
AB8E
330
A987
100
AcDbEntity
  8
1
  6
Continuous
100
AcDbCircle
 10
100.6488609999999
 20
182.488653
 30
0.0
 40
54.44366099999999
100
AcDbArc
 50
79.80144
 51
90.00001000000002
  0
ARC
  5
AB8F
330
A987
100
AcDbEntity
  8
1
  6
Continuous
100
AcDbCircle
 10
110.1035729999999
 20
235.0433429999999
 30
0.0
 40
1.045285
100
AcDbArc
 50
0.000003
 51
79.80144
  0
ARC
  5
AB90
330
A987
100
AcDbEntity
  8
1
  6
Continuous
100
AcDbCircle
 10
110.1035729999999
 20
232.777233
 30
0.0
 40
1.045285
100
AcDbArc
 50
280.1985559999998
 51
79.80144
  0
LINE
  5
AB91
330
A987
100
AcDbEntity
  8
1
  6
Continuous
100
AcDbLine
 10
111.148861
 20
232.777233
 30
0.0
 11
111.148861
 21
235.0433429999999
 31
0.0
  0
ARC
  5
AB92
330
A987
100
AcDbEntity
  8
1
  6
Continuous
100
AcDbCircle
 10
100.6506469999999
 20
197.221723
 30
0.0
 40
54.44366099999999
100
AcDbArc
 50
79.80144
 51
90.00001000000002
  0
ARC
  5
AB93
330
A987
100
AcDbEntity
  8
1
  6
Continuous
100
AcDbCircle
 10
100.6506469999999
 20
302.331093
 30
0.0
 40
54.44366099999999
100
AcDbArc
 50
270.0
 51
280.1985559999998
  0
ARC
  5
AB94
330
A987
100
AcDbEntity
  8
1
  6
Continuous
100
AcDbCircle
 10
100.6506469999999
 20
199.4878329999998
 30
0.0
 40
54.44366099999999
100
AcDbArc
 50
79.80144
 51
90.00001000000002
  0
ARC
  5
AB95
330
A987
100
AcDbEntity
  8
1
  6
Continuous
100
AcDbCircle
 10
110.105359
 20
249.7764129999999
 30
0.0
 40
1.045285
100
AcDbArc
 50
280.1985559999998
 51
79.80144
  0
LINE
  5
AB96
330
A987
100
AcDbEntity
  8
1
  6
Continuous
100
AcDbLine
 10
111.1506469999999
 20
252.0425229999999
 30
0.0
 11
111.1506469999999
 21
249.7764129999999
 31
0.0
  0
ARC
  5
AB97
330
A987
100
AcDbEntity
  8
1
  6
Continuous
100
AcDbCircle
 10
110.105359
 20
252.0425229999999
 30
0.0
 40
1.045285
100
AcDbArc
 50
0.000003
 51
79.80144
  0
LINE
  5
AB98
330
A987
100
AcDbEntity
  8
1
  6
Continuous
100
AcDbLine
 10
151.210552
 20
253.932266
 30
0.0
 11
173.00196
 21
250.1486679999999
 31
0.0
  0
LINE
  5
AB99
330
A987
100
AcDbEntity
  8
1
  6
Continuous
100
AcDbLine
 10
150.8170959999999
 20
251.666168
 30
0.0
 11
172.608501
 21
247.8825689999999
 31
0.0
  0
ARC
  5
AB9A
330
A987
100
AcDbEntity
  8
1
  6
Continuous
100
AcDbCircle
 10
-898.6949609999996
 20
-1701.259427
 30
0.0
 40
2206.895999999999
100
AcDbArc
 50
60.47544399999999
 51
61.59328
  0
ARC
  5
AB9B
330
A987
100
AcDbEntity
  8
1
  6
Continuous
100
AcDbCircle
 10
179.410427
 20
257.346253
 30
0.0
 40
33.692234
100
AcDbArc
 50
219.0668599999999
 51
247.66752
  0
ARC
  5
AB9C
330
A987
100
AcDbEntity
  8
1
  6
Continuous
100
AcDbCircle
 10
179.410427
 20
257.346253
 30
0.0
 40
34.992233
100
AcDbArc
 50
221.7816099999998
 51
252.28302
  0
ARC
  5
AB9D
330
A987
100
AcDbEntity
  8
1
  6
Continuous
100
AcDbCircle
 10
138.0709949999999
 20
259.779286
 30
0.0
 40
50.0
100
AcDbArc
 50
294.1364399999999
 51
312.6920999999999
  0
ARC
  5
AB9E
330
A987
100
AcDbEntity
  8
1
  6
Continuous
100
AcDbCircle
 10
152.894603
 20
228.2951629999999
 30
0.0
 40
18.068386
100
AcDbArc
 50
274.11842
 51
296.3888
  0
ARC
  5
AB9F
330
A987
100
AcDbEntity
  8
1
  6
Continuous
100
AcDbCircle
 10
154.836345
 20
222.363736
 30
0.0
 40
9.0
100
AcDbArc
 50
82.14887799999997
 51
294.1364399999999
  0
ARC
  5
ABA0
330
A987
100
AcDbEntity
  8
5
  6
PHANTOM
100
AcDbCircle
 10
172.91415
 20
247.7552349999999
 30
0.0
 40
34.992233
100
AcDbArc
 50
238.28162
 51
268.7830099999998
  0
ARC
  5
ABA1
330
A987
100
AcDbEntity
  8
5
  6
PHANTOM
100
AcDbCircle
 10
-304.5205009999999
 20
-1936.393127
 30
0.0
 40
2206.895999999999
100
AcDbArc
 50
76.97544599999997
 51
78.09347999999999
  0
ARC
  5
ABA2
330
A987
100
AcDbEntity
  8
5
  6
PHANTOM
100
AcDbCircle
 10
172.91415
 20
247.7552349999999
 30
0.0
 40
33.692234
100
AcDbArc
 50
235.56686
 51
264.16751
  0
LINE
  5
ABA3
330
A987
100
AcDbEntity
  8
5
  6
PHANTOM
100
AcDbLine
 10
147.1115369999999
 20
234.1881129999999
 30
0.0
 11
169.080161
 21
236.749417
 31
0.0
  0
LINE
  5
ABA4
330
A987
100
AcDbEntity
  8
5
  6
PHANTOM
100
AcDbLine
 10
146.8451879999998
 20
236.472638
 30
0.0
 11
168.8138079999999
 21
239.033942
 31
0.0
  0
LINE
  5
ABA5
330
A987
100
AcDbEntity
  8
1
  6
Continuous
100
AcDbLine
 10
150.403919
 20
245.482243
 30
0.0
 11
150.4955479999999
 21
248.898747
 31
0.0
  0
ARC
  5
ABA6
330
A987
100
AcDbEntity
  8
1
  6
Continuous
100
AcDbCircle
 10
153.3663439999999
 20
221.743741
 30
0.0
 40
11.5
100
AcDbArc
 50
126.7532799999999
 51
274.1184099999999
  0
ARC
  5
ABA7
330
A987
100
AcDbEntity
  8
5
  6
PHANTOM
100
AcDbCircle
 10
162.993602
 20
231.649258
 30
0.0
 40
14.939529
100
AcDbArc
 50
193.57967
 51
218.2506099999999
  0
ARC
  5
ABA8
330
A987
100
AcDbEntity
  8
5
  6
PHANTOM
100
AcDbCircle
 10
159.446559
 20
225.964993
 30
0.0
 40
9.376015999999998
100
AcDbArc
 50
194.04088
 51
238.28162
  0
ARC
  5
ABA9
330
A987
100
AcDbEntity
  8
5
  6
PHANTOM
100
AcDbCircle
 10
160.553874
 20
229.725895
 30
0.0
 40
11.832833
100
AcDbArc
 50
218.2506099999999
 51
235.56686
  0
ARC
  5
ABAA
330
A987
100
AcDbEntity
  8
1
  6
Continuous
100
AcDbCircle
 10
165.324062
 20
244.7211119999999
 30
0.0
 40
14.939529
100
AcDbArc
 50
177.0796599999999
 51
201.7506099999999
  0
ARC
  5
ABAB
330
A987
100
AcDbEntity
  8
1
  6
Continuous
100
AcDbCircle
 10
162.4385479999999
 20
243.569871
 30
0.0
 40
11.832833
100
AcDbArc
 50
201.7506099999999
 51
219.0668599999999
  0
ARC
  5
ABAC
330
A987
100
AcDbEntity
  8
1
  6
Continuous
100
AcDbCircle
 10
160.3086659999999
 20
240.2783359999999
 30
0.0
 40
9.376015999999998
100
AcDbArc
 50
177.5408899999999
 51
221.7816200000001
  0
ARC
  5
ABAD
330
A987
100
AcDbEntity
  8
1
  6
Continuous
100
AcDbCircle
 10
159.266414
 20
213.843533
 30
0.0
 40
21.36022399999999
100
AcDbArc
 50
106.81413
 51
126.7948649999999
  0
LINE
  5
ABAE
330
A987
100
AcDbEntity
  8
5
  6
PHANTOM
100
AcDbLine
 10
148.471706
 20
228.1414949999999
 30
0.0
 11
147.589214
 21
231.4433279999998
 31
0.0
  0
ARC
  5
ABAF
330
A987
100
AcDbEntity
  8
5
  6
PHANTOM
100
AcDbCircle
 10
102.7603089999999
 20
221.8194169999999
 30
0.0
 40
45.850311
100
AcDbArc
 50
12.116412
 51
13.862037
  0
ARC
  5
ABB0
330
A987
100
AcDbEntity
  8
5
  6
PHANTOM
100
AcDbCircle
 10
156.3005479999999
 20
235.031643
 30
0.0
 40
9.296041999999998
100
AcDbArc
 50
179.5564099999998
 51
193.8620399999999
  0
LINE
  5
ABB1
330
A987
100
AcDbEntity
  8
5
  6
PHANTOM
100
AcDbLine
 10
147.111522
 20
234.188111
 30
0.0
 11
146.845172
 21
236.4726029999999
 31
0.0
  0
LINE
  5
ABB2
330
A987
100
AcDbEntity
  8
1
  6
Continuous
100
AcDbLine
 10
150.8170889999998
 20
251.666166
 30
0.0
 11
151.210544
 21
253.932234
 31
0.0
  0
ARC
  5
ABB3
330
A987
100
AcDbEntity
  8
1
  6
Continuous
100
AcDbCircle
 10
104.7793689999999
 20
252.4032399999999
 30
0.0
 40
45.850311
100
AcDbArc
 50
355.6164099999999
 51
357.3620399999999
  0
ARC
  5
ABB4
330
A987
100
AcDbEntity
  8
1
  6
Continuous
100
AcDbCircle
 10
159.8672899999999
 20
249.8651359999998
 30
0.0
 40
9.296041999999998
100
AcDbArc
 50
163.0564099999998
 51
177.3620399999999
  0
LINE
  5
ABB5
330
A987
100
AcDbEntity
  8
1
  6
Continuous
100
AcDbLine
 10
172.7576709999999
 20
248.7416889999999
 30
0.0
 11
173.786823
 21
246.2919299999998
 31
0.0
  0
LINE
  5
ABB6
330
A987
100
AcDbEntity
  8
1
  6
Continuous
100
AcDbLine
 10
203.4143559999999
 20
248.153702
 30
0.0
 11
203.1824739999999
 21
246.169602
 31
0.0
  0
ARC
  5
ABB7
330
A987
100
AcDbEntity
  8
1
  6
Continuous
100
AcDbCircle
 10
207.7259629999999
 20
247.7422039999999
 30
0.0
 40
4.807947999999998
100
AcDbArc
 50
163.71358
 51
201.2460599999999
  0
ARC
  5
ABB8
330
A987
100
AcDbEntity
  8
1
  6
Continuous
100
AcDbCircle
 10
45.58350899999999
 20
263.146366
 30
0.0
 40
148.2797099999999
100
AcDbArc
 50
353.7905959999998
 51
354.99627
  0
ARC
  5
ABB9
330
A987
100
AcDbEntity
  8
1
  6
Continuous
100
AcDbCircle
 10
41.92117899999997
 20
283.7311989999999
 30
0.0
 40
155.69888
100
AcDbArc
 50
346.634874
 51
347.88306
  0
ARC
  5
ABBA
330
A987
100
AcDbEntity
  8
5
  6
PHANTOM
100
AcDbCircle
 10
194.362331
 20
246.5573089999999
 30
0.0
 40
3.621125
100
AcDbArc
 50
0.213582
 51
24.55412
  0
LINE
  5
ABBB
330
A987
100
AcDbEntity
  8
5
  6
PHANTOM
100
AcDbLine
 10
188.4935909999999
 20
246.9803349999998
 30
0.0
 11
197.6559959999999
 21
248.0620759999999
 31
0.0
  0
ARC
  5
ABBC
330
A987
100
AcDbEntity
  8
1
  6
Continuous
100
AcDbCircle
 10
206.406246
 20
181.0540599999999
 30
0.0
 40
66.55304
100
AcDbArc
 50
102.80966
 51
105.7025
  0
ARC
  5
ABBD
330
A987
100
AcDbEntity
  8
1
  6
Continuous
100
AcDbCircle
 10
228.620021
 20
377.1381529999999
 30
0.0
 40
163.19777
100
AcDbArc
 50
247.66752
 51
257.7541899999999
  0
ARC
  5
ABBE
330
A987
100
AcDbEntity
  8
1
  6
Continuous
100
AcDbCircle
 10
208.565608
 20
253.838268
 30
0.0
 40
40.0
100
AcDbArc
 50
243.5478699999999
 51
273.2371
  0
ARC
  5
ABBF
330
A987
100
AcDbEntity
  8
1
  6
Continuous
100
AcDbCircle
 10
186.293109
 20
209.0729259999998
 30
0.0
 40
10.0
100
AcDbArc
 50
63.54786800000001
 51
95.21480399999999
  0
ARC
  5
ABC0
330
A987
100
AcDbEntity
  8
5
  6
PHANTOM
100
AcDbCircle
 10
186.0745419999998
 20
376.590353
 30
0.0
 40
163.19777
100
AcDbArc
 50
264.16751
 51
274.2541899999998
  0
ARC
  5
ABC1
330
A987
100
AcDbEntity
  8
1
  6
Continuous
100
AcDbCircle
 10
212.3055759999998
 20
360.314993
 30
0.0
 40
143.0878099999999
100
AcDbArc
 50
252.28302
 51
259.10244
  0
ARC
  5
ABC2
330
A987
100
AcDbEntity
  8
1
  6
Continuous
100
AcDbCircle
 10
191.6716949999998
 20
150.1408859999999
 30
0.0
 40
69.176979
100
AcDbArc
 50
95.21480399999999
 51
116.3888
  0
ARC
  5
ABC3
330
A987
100
AcDbEntity
  8
5
  6
PHANTOM
100
AcDbCircle
 10
175.2099719999999
 20
355.8264229999999
 30
0.0
 40
143.0878099999999
100
AcDbArc
 50
268.7830099999998
 51
275.60244
  0
ARC
  5
ABC4
330
A987
100
AcDbEntity
  8
1
  6
Continuous
100
AcDbCircle
 10
178.106197
 20
248.033948
 30
0.0
 40
4.657426
100
AcDbArc
 50
201.96431
 51
250.65271
  0
ARC
  5
ABC5
330
A987
100
AcDbEntity
  8
5
  6
PHANTOM
100
AcDbCircle
 10
174.416133
 20
240.6207089999998
 30
0.0
 40
6.824819999999997
100
AcDbArc
 50
267.1526999999999
 51
294.41348
  0
ARC
  5
ABC6
330
A987
100
AcDbEntity
  8
5
  6
PHANTOM
100
AcDbCircle
 10
174.3084669999998
 20
238.4559899999999
 30
0.0
 40
4.657426
100
AcDbArc
 50
218.46431
 51
267.1526999999999
  0
LINE
  5
ABC7
330
A987
100
AcDbEntity
  8
5
  6
PHANTOM
100
AcDbLine
 10
168.979198
 20
237.615529
 30
0.0
 11
170.6617349999999
 21
235.5589469999999
 31
0.0
  0
LINE
  5
ABC8
330
A987
100
AcDbEntity
  8
5
  6
PHANTOM
100
AcDbLine
 10
169.080173
 20
236.7494199999999
 30
0.0
 11
168.813827
 21
239.033892
 31
0.0
  0
ARC
  5
ABC9
330
A987
100
AcDbEntity
  8
1
  6
Continuous
100
AcDbCircle
 10
170.8277089999999
 20
307.607531
 30
0.0
 40
64.906509
100
AcDbArc
 50
277.91348
 51
285.70251
  0
ARC
  5
ABCA
330
A987
100
AcDbEntity
  8
1
  6
Continuous
100
AcDbCircle
 10
178.824245
 20
250.0789419999999
 30
0.0
 40
6.824819999999997
100
AcDbArc
 50
250.65271
 51
277.91348
  0
ARC
  5
ABCB
330
A987
100
AcDbEntity
  8
5
  6
PHANTOM
100
AcDbCircle
 10
42.950939
 20
215.307598
 30
0.0
 40
148.2797099999999
100
AcDbArc
 50
10.036237
 51
11.49626799999998
  0
ARC
  5
ABCC
330
A987
100
AcDbEntity
  8
5
  6
PHANTOM
100
AcDbCircle
 10
220.4664339999999
 20
182.2720009999999
 30
0.0
 40
66.55304
100
AcDbArc
 50
119.30966
 51
122.2025099999999
  0
ARC
  5
ABCD
330
A987
100
AcDbEntity
  8
5
  6
PHANTOM
100
AcDbCircle
 10
185.700984
 20
244.198838
 30
0.0
 40
4.465050999999998
100
AcDbArc
 50
299.30966
 51
319.96476
  0
ARC
  5
ABCE
330
A987
100
AcDbEntity
  8
5
  6
PHANTOM
100
AcDbCircle
 10
150.4098919999998
 20
293.509112
 30
0.0
 40
64.906509
100
AcDbArc
 50
294.41348
 51
302.2024999999998
  0
ARC
  5
ABCF
330
A987
100
AcDbEntity
  8
5
  6
PHANTOM
100
AcDbCircle
 10
178.828945
 20
246.9909759999999
 30
0.0
 40
9.664652
100
AcDbArc
 50
347.2642299999998
 51
359.93691
  0
ARC
  5
ABD0
330
A987
100
AcDbEntity
  8
5
  6
PHANTOM
100
AcDbCircle
 10
33.593029
 20
234.0045899999998
 30
0.0
 40
155.69888
100
AcDbArc
 50
2.695447999999998
 51
4.383064
  0
ARC
  5
ABD1
330
A987
100
AcDbEntity
  8
5
  6
PHANTOM
100
AcDbCircle
 10
186.3856769999999
 20
245.7159129999999
 30
0.0
 40
2.458061999999999
100
AcDbArc
 50
4.383064
 51
30.95727899999998
  0
LINE
  5
ABD2
330
A987
100
AcDbEntity
  8
5
  6
PHANTOM
100
AcDbLine
 10
218.378939
 20
246.719108
 30
0.0
 11
221.934819
 21
216.2196559999999
 31
0.0
  0
ARC
  5
ABD3
330
A987
100
AcDbEntity
  8
1
  6
Continuous
100
AcDbCircle
 10
289.30709
 20
656.744583
 30
0.0
 40
449.3142999999998
100
AcDbArc
 50
257.7541899999999
 51
260.46011
  0
ARC
  5
ABD4
330
A987
100
AcDbEntity
  8
5
  6
PHANTOM
100
AcDbCircle
 10
164.849986
 20
661.9185629999998
 30
0.0
 40
449.3142999999998
100
AcDbArc
 50
274.2541899999998
 51
276.9601
  0
LINE
  5
ABD5
330
A987
100
AcDbEntity
  8
1
  6
Continuous
100
AcDbLine
 10
214.8402879999999
 20
213.644093
 30
0.0
 11
216.4091169999999
 21
213.32412
 31
0.0
  0
ARC
  5
ABD6
330
A987
100
AcDbEntity
  8
1
  6
Continuous
100
AcDbCircle
 10
217.4681119999999
 20
217.335285
 30
0.0
 40
4.148610999999998
100
AcDbArc
 50
255.21079
 51
274.2280099999999
  0
ARC
  5
ABD7
330
A987
100
AcDbEntity
  8
1
  6
Continuous
100
AcDbCircle
 10
212.2982359999999
 20
187.8422379999999
 30
0.0
 40
26.101501
100
AcDbArc
 50
88.10390099999997
 51
93.237109
  0
ARC
  5
ABD8
330
A987
100
AcDbEntity
  8
5
  6
PHANTOM
100
AcDbCircle
 10
220.768337
 20
220.200902
 30
0.0
 40
4.148610999999998
100
AcDbArc
 50
271.7107899999999
 51
290.7280099999999
  0
LINE
  5
ABD9
330
A987
100
AcDbEntity
  8
5
  6
PHANTOM
100
AcDbLine
 10
219.2970939999999
 20
215.9153649999999
 30
0.0
 11
220.892189
 21
216.05414
 31
0.0
  0
ARC
  5
ABDA
330
A987
100
AcDbEntity
  8
1
  6
Continuous
100
AcDbCircle
 10
216.66563
 20
367.245253
 30
0.0
 40
121.98586
100
AcDbArc
 50
263.68355
 51
266.9217699999999
  0
ARC
  5
ABDB
330
A987
100
AcDbEntity
  8
5
  6
PHANTOM
100
AcDbCircle
 10
225.114116
 20
163.8567679999999
 30
0.0
 40
83.478699
100
AcDbArc
 50
98.84650399999999
 51
103.42178
  0
ARC
  5
ABDC
330
A987
100
AcDbEntity
  8
1
  6
Continuous
100
AcDbCircle
 10
189.4648039999999
 20
249.8441919999999
 30
0.0
 40
4.465050999999998
100
AcDbArc
 50
299.30966
 51
331.8913529999999
  0
ARC
  5
ABDD
330
A987
100
AcDbEntity
  8
5
  6
PHANTOM
100
AcDbCircle
 10
177.422176
 20
363.7096129999998
 30
0.0
 40
121.98586
100
AcDbArc
 50
280.18356
 51
283.4217799999998
  0
ARC
  5
ABDE
330
A987
100
AcDbEntity
  8
5
  6
PHANTOM
100
AcDbCircle
 10
203.894206
 20
248.9339149999999
 30
0.0
 40
6.21023
100
AcDbArc
 50
195.72791
 51
210.67112
  0
ARC
  5
ABDF
330
A987
100
AcDbEntity
  8
5
  6
PHANTOM
100
AcDbCircle
 10
202.791347
 20
246.5887309999998
 30
0.0
 40
4.807947999999998
100
AcDbArc
 50
180.2135899999999
 51
217.7460499999999
  0
LINE
  5
ABE0
330
A987
100
AcDbEntity
  8
5
  6
PHANTOM
100
AcDbLine
 10
198.540424
 20
245.758722
 30
0.0
 11
198.8816059999998
 21
243.7904689999998
 31
0.0
  0
ARC
  5
ABE1
330
A987
100
AcDbEntity
  8
1
  6
Continuous
100
AcDbCircle
 10
205.632327
 20
162.0771509999999
 30
0.0
 40
83.478699
100
AcDbArc
 50
82.346502
 51
86.92178
  0
ARC
  5
ABE2
330
A987
100
AcDbEntity
  8
5
  6
PHANTOM
100
AcDbCircle
 10
225.616443
 20
284.438219
 30
0.0
 40
38.374275
100
AcDbArc
 50
258.9579899999999
 51
261.25671
  0
ARC
  5
ABE3
330
A987
100
AcDbEntity
  8
5
  6
PHANTOM
100
AcDbCircle
 10
217.886104
 20
210.2975269999999
 30
0.0
 40
36.478828
100
AcDbArc
 50
89.40225799999996
 51
98.84650399999999
  0
LINE
  5
ABE4
330
A987
100
AcDbEntity
  8
1
  6
Continuous
100
AcDbLine
 10
172.608505
 20
247.8825669999999
 30
0.0
 11
173.001956
 21
250.148612
 31
0.0
  0
LINE
  5
ABE5
330
A987
100
AcDbEntity
  8
1
  6
Continuous
100
AcDbLine
 10
194.1282149999999
 20
252.178461
 30
0.0
 11
203.220539
 21
250.6133919999999
 31
0.0
  0
ARC
  5
ABE6
330
A987
100
AcDbEntity
  8
1
  6
Continuous
100
AcDbCircle
 10
191.7479889999999
 20
251.5647889999999
 30
0.0
 40
2.458061999999999
100
AcDbArc
 50
347.88306
 51
14.457279
  0
ARC
  5
ABE7
330
A987
100
AcDbEntity
  8
1
  6
Continuous
100
AcDbCircle
 10
184.8645809999999
 20
254.933575
 30
0.0
 40
9.664652
100
AcDbArc
 50
330.7642299999999
 51
343.43691
  0
ARC
  5
ABE8
330
A987
100
AcDbEntity
  8
1
  6
Continuous
100
AcDbCircle
 10
199.6351349999999
 20
250.106046
 30
0.0
 40
3.621125
100
AcDbArc
 50
343.71358
 51
8.054121
  0
ARC
  5
ABE9
330
A987
100
AcDbEntity
  8
1
  6
Continuous
100
AcDbCircle
 10
209.449474
 20
249.677587
 30
0.0
 40
6.21023
100
AcDbArc
 50
179.2279199999999
 51
194.17113
  0
ARC
  5
ABEA
330
A987
100
AcDbEntity
  8
1
  6
Continuous
100
AcDbCircle
 10
161.8170869999999
 20
358.9633999999999
 30
0.0
 40
11.0
100
AcDbArc
 50
179.9999899999999
 51
0.00001
  0
LINE
  5
ABEB
330
A987
100
AcDbEntity
  8
1
  6
Continuous
100
AcDbLine
 10
141.866342
 20
376.49554
 30
0.0
 11
173.5687189999999
 21
379.3775699999998
 31
0.0
  0
LINE
  5
ABEC
330
A987
100
AcDbEntity
  8
1
  6
Continuous
100
AcDbLine
 10
152.8170869999999
 20
374.0195799999999
 30
0.0
 11
193.122755
 21
374.0195799999999
 31
0.0
  0
LINE
  5
ABED
330
A987
100
AcDbEntity
  8
1
  6
Continuous
100
AcDbLine
 10
141.8210769999998
 20
376.9934799999999
 30
0.0
 11
173.54611
 21
379.87757
 31
0.0
  0
LINE
  5
ABEE
330
A987
100
AcDbEntity
  8
1
  6
Continuous
100
AcDbLine
 10
150.8170869999999
 20
372.0195799999999
 30
0.0
 11
150.8170869999999
 21
358.9633999999999
 31
0.0
  0
LINE
  5
ABEF
330
A987
100
AcDbEntity
  8
1
  6
Continuous
100
AcDbLine
 10
141.866342
 20
376.49554
 30
0.0
 11
141.8210769999998
 21
376.9934799999999
 31
0.0
  0
ARC
  5
ABF0
330
A987
100
AcDbEntity
  8
1
  6
Continuous
100
AcDbCircle
 10
152.8170869999999
 20
372.0195799999999
 30
0.0
 40
2.0
100
AcDbArc
 50
90.00000300000001
 51
180.00001
  0
ARC
  5
ABF1
330
A987
100
AcDbEntity
  8
1
  6
Continuous
100
AcDbCircle
 10
144.119653
 20
374.6921299999999
 30
0.0
 40
2.0
100
AcDbArc
 50
13.03195299999999
 51
95.19443
  0
ARC
  5
ABF2
330
A987
100
AcDbEntity
  8
1
  6
Continuous
100
AcDbCircle
 10
154.836343
 20
377.17257
 30
0.0
 40
9.0
100
AcDbArc
 50
193.03195
 51
243.4752700000001
  0
LINE
  5
ABF3
330
A987
100
AcDbEntity
  8
1
  6
Continuous
100
AcDbLine
 10
173.54611
 20
379.37756
 30
0.0
 11
193.3042879999999
 21
379.37756
 31
0.0
  0
LINE
  5
ABF4
330
A987
100
AcDbEntity
  8
1
  6
Continuous
100
AcDbLine
 10
174.8170899999998
 20
371.71958
 30
0.0
 11
195.7363389999999
 21
371.71958
 31
0.0
  0
LINE
  5
ABF5
330
A987
100
AcDbEntity
  8
1
  6
Continuous
100
AcDbLine
 10
173.54611
 20
379.87756
 30
0.0
 11
193.3042879999999
 21
379.87756
 31
0.0
  0
LINE
  5
ABF6
330
A987
100
AcDbEntity
  8
1
  6
Continuous
100
AcDbLine
 10
172.8170899999998
 20
369.71958
 30
0.0
 11
172.8170899999998
 21
358.9633999999999
 31
0.0
  0
ARC
  5
ABF7
330
A987
100
AcDbEntity
  8
1
  6
Continuous
100
AcDbCircle
 10
178.7295049999999
 20
374.37756
 30
0.0
 40
5.0
100
AcDbArc
 50
90.00000300000001
 51
132.68063
  0
ARC
  5
ABF8
330
A987
100
AcDbEntity
  8
1
  6
Continuous
100
AcDbCircle
 10
160.44198
 20
473.8561299999998
 30
0.0
 40
104.78456
100
AcDbArc
 50
276.7824899999999
 51
282.9083299999999
  0
ARC
  5
ABF9
330
A987
100
AcDbEntity
  8
1
  6
Continuous
100
AcDbCircle
 10
174.8170899999998
 20
369.71958
 30
0.0
 40
2.0
100
AcDbArc
 50
90.00000300000001
 51
180.00001
  0
ARC
  5
ABFA
330
A987
100
AcDbEntity
  8
1
  6
Continuous
100
AcDbCircle
 10
148.2235039999999
 20
407.4590399999998
 30
0.0
 40
40.0
100
AcDbArc
 50
303.28134
 51
312.68063
  0
ARC
  5
ABFB
330
A987
100
AcDbEntity
  8
1
  6
Continuous
100
AcDbCircle
 10
193.3042879999999
 20
377.37756
 30
0.0
 40
2.5
100
AcDbArc
 50
32.466765
 51
90.00000300000001
  0
ARC
  5
ABFC
330
A987
100
AcDbEntity
  8
1
  6
Continuous
100
AcDbCircle
 10
193.128217
 20
372.71958
 30
0.0
 40
1.0
100
AcDbArc
 50
270.0
 51
0.0
  0
ARC
  5
ABFD
330
A987
100
AcDbEntity
  8
1
  6
Continuous
100
AcDbCircle
 10
194.622755
 20
377.2195799999999
 30
0.0
 40
1.5
100
AcDbArc
 50
90.00000300000001
 51
180.00001
  0
ARC
  5
ABFE
330
A987
100
AcDbEntity
  8
1
  6
Continuous
100
AcDbCircle
 10
195.628217
 20
377.2195799999999
 30
0.0
 40
1.5
100
AcDbArc
 50
90.00000300000001
 51
180.00001
  0
ARC
  5
ABFF
330
A987
100
AcDbEntity
  8
1
  6
Continuous
100
AcDbCircle
 10
193.3042879999999
 20
377.37756
 30
0.0
 40
2.0
100
AcDbArc
 50
42.145286
 51
90.00000300000001
  0
LINE
  5
AC00
330
A987
100
AcDbEntity
  8
1
  6
Continuous
100
AcDbLine
 10
194.622755
 20
378.71958
 30
0.0
 11
195.7363389999999
 21
378.71958
 31
0.0
  0
LINE
  5
AC01
330
A987
100
AcDbEntity
  8
1
  6
Continuous
100
AcDbLine
 10
194.128217
 20
377.2195799999999
 30
0.0
 11
194.128217
 21
372.71958
 31
0.0
  0
LINE
  5
AC02
330
A987
100
AcDbEntity
  8
1
  6
Continuous
100
AcDbLine
 10
193.122755
 20
377.2195799999999
 30
0.0
 11
193.122755
 21
374.0195799999999
 31
0.0
  0
LINE
  5
AC03
330
A987
100
AcDbEntity
  8
1
  6
Continuous
100
AcDbLine
 10
344.3782239999999
 20
212.0998049999998
 30
0.0
 11
344.3782239999999
 21
233.7697949999999
 31
0.0
  0
LINE
  5
AC04
330
A987
100
AcDbEntity
  8
1
  6
Continuous
100
AcDbLine
 10
349.026023
 20
252.790405
 30
0.0
 11
349.026023
 21
210.093735
 31
0.0
  0
LINE
  5
AC05
330
A987
100
AcDbEntity
  8
1
  6
Continuous
100
AcDbLine
 10
348.526023
 20
252.790405
 30
0.0
 11
348.526023
 21
210.093735
 31
0.0
  0
LINE
  5
AC06
330
A987
100
AcDbEntity
  8
1
  6
Continuous
100
AcDbLine
 10
350.236195
 20
236.1938649999999
 30
0.0
 11
350.236195
 21
210.093735
 31
0.0
  0
LINE
  5
AC07
330
A987
100
AcDbEntity
  8
1
  6
Continuous
100
AcDbLine
 10
342.1121099999999
 20
212.0998049999998
 30
0.0
 11
342.1121099999999
 21
228.003575
 31
0.0
  0
ARC
  5
AC08
330
A987
100
AcDbEntity
  8
1
  6
Continuous
100
AcDbCircle
 10
347.736197
 20
214.066685
 30
0.0
 40
2.0
100
AcDbArc
 50
66.73944
 51
90.00000300000001
  0
ARC
  5
AC09
330
A987
100
AcDbEntity
  8
1
  6
Continuous
100
AcDbCircle
 10
346.3782259999999
 20
218.066685
 30
0.0
 40
2.0
100
AcDbArc
 50
180.0000029999999
 51
270.00001
  0
LINE
  5
AC0A
330
A987
100
AcDbEntity
  8
1
  6
Continuous
100
AcDbLine
 10
332.7015369999998
 20
212.3921349999998
 30
0.0
 11
332.7015369999998
 21
230.737455
 31
0.0
  0
ARC
  5
AC0B
330
A987
100
AcDbEntity
  8
1
  6
Continuous
100
AcDbCircle
 10
259.374031
 20
102.124215
 30
0.0
 40
9.0
100
AcDbArc
 50
10.178917
 51
27.485306
  0
ARC
  5
AC0C
330
A987
100
AcDbEntity
  8
1
  6
Continuous
100
AcDbCircle
 10
259.606758
 20
121.4501749999999
 30
0.0
 40
10.883919
100
AcDbArc
 50
0.0
 51
180.00001
  0
LINE
  5
AC0D
330
A987
100
AcDbEntity
  8
1
  6
Continuous
100
AcDbLine
 10
242.169922
 20
100.4199349999999
 30
0.0
 11
271.766767
 21
101.630105
 31
0.0
  0
LINE
  5
AC0E
330
A987
100
AcDbEntity
  8
1
  6
Continuous
100
AcDbLine
 10
242.159703
 20
100.919935
 30
0.0
 11
271.7463389999999
 21
102.129675
 31
0.0
  0
LINE
  5
AC0F
330
A987
100
AcDbEntity
  8
1
  6
Continuous
100
AcDbLine
 10
243.793782
 20
106.277905
 30
0.0
 11
268.884141
 21
106.277905
 31
0.0
  0
LINE
  5
AC10
330
A987
100
AcDbEntity
  8
1
  6
Continuous
100
AcDbLine
 10
243.793782
 20
108.5779049999999
 30
0.0
 11
269.490678
 21
108.5779049999999
 31
0.0
  0
ARC
  5
AC11
330
A987
100
AcDbEntity
  8
1
  6
Continuous
100
AcDbCircle
 10
236.7387809999999
 20
113.654595
 30
0.0
 40
2.0
100
AcDbArc
 50
11.499673
 51
100.4079299999998
  0
LINE
  5
AC12
330
A987
100
AcDbEntity
  8
1
  6
Continuous
100
AcDbLine
 10
240.9524629999999
 20
114.511855
 30
0.0
 11
241.8339299999999
 21
110.179165
 31
0.0
  0
LINE
  5
AC13
330
A987
100
AcDbEntity
  8
1
  6
Continuous
100
AcDbLine
 10
246.205334
 20
114.511855
 30
0.0
 11
247.0868009999998
 21
110.179165
 31
0.0
  0
LINE
  5
AC14
330
A987
100
AcDbEntity
  8
1
  6
Continuous
100
AcDbLine
 10
248.7228389999999
 20
108.5779049999999
 30
0.0
 11
248.7228389999999
 21
121.4501749999999
 31
0.0
  0
ARC
  5
AC15
330
A987
100
AcDbEntity
  8
1
  6
Continuous
100
AcDbCircle
 10
243.793782
 20
110.5779049999999
 30
0.0
 40
2.0
100
AcDbArc
 50
191.49967
 51
270.0
  0
ARC
  5
AC16
330
A987
100
AcDbEntity
  8
1
  6
Continuous
100
AcDbCircle
 10
239.8874549999999
 20
105.919935
 30
0.0
 40
5.0
100
AcDbArc
 50
270.0
 51
316.9468399999999
  0
ARC
  5
AC17
330
A987
100
AcDbEntity
  8
1
  6
Continuous
100
AcDbCircle
 10
243.793782
 20
110.5779049999999
 30
0.0
 40
4.299999999999998
100
AcDbArc
 50
191.49967
 51
270.0
  0
ARC
  5
AC18
330
A987
100
AcDbEntity
  8
1
  6
Continuous
100
AcDbCircle
 10
237.2363389999999
 20
102.919935
 30
0.0
 40
2.0
100
AcDbArc
 50
179.9999899999999
 51
270.0
  0
ARC
  5
AC19
330
A987
100
AcDbEntity
  8
1
  6
Continuous
100
AcDbCircle
 10
225.2363389999999
 20
103.209525
 30
0.0
 40
10.0
100
AcDbArc
 50
0.0
 51
45.00000099999999
  0
ARC
  5
AC1A
330
A987
100
AcDbEntity
  8
1
  6
Continuous
100
AcDbCircle
 10
230.703525
 20
110.4702749999999
 30
0.0
 40
1.0
100
AcDbArc
 50
45.00000099999999
 51
120.72746
  0
LINE
  5
AC1B
330
A987
100
AcDbEntity
  8
1
  6
Continuous
100
AcDbLine
 10
235.2363399999999
 20
103.209525
 30
0.0
 11
235.2363399999999
 21
102.919935
 31
0.0
  0
LINE
  5
AC1C
330
A987
100
AcDbEntity
  8
1
  6
Continuous
100
AcDbLine
 10
238.698631
 20
114.0533049999999
 30
0.0
 11
239.580098
 21
109.720635
 31
0.0
  0
LINE
  5
AC1D
330
A987
100
AcDbEntity
  8
1
  6
Continuous
100
AcDbLine
 10
231.410629
 20
111.1773449999999
 30
0.0
 11
232.307395
 21
110.280585
 31
0.0
  0
ARC
  5
AC1E
330
A987
100
AcDbEntity
  8
1
  6
Continuous
100
AcDbCircle
 10
265.4626819999999
 20
82.02625500000001
 30
0.0
 40
30.0
100
AcDbArc
 50
126.061235
 51
136.9468399999999
  0
ARC
  5
AC1F
330
A987
100
AcDbEntity
  8
1
  6
Continuous
100
AcDbCircle
 10
249.046649
 20
110.5779049999999
 30
0.0
 40
2.0
100
AcDbArc
 50
191.49967
 51
270.0
  0
ARC
  5
AC20
330
A987
100
AcDbEntity
  8
1
  6
Continuous
100
AcDbCircle
 10
241.9916499999999
 20
113.654595
 30
0.0
 40
4.299999999999998
100
AcDbArc
 50
11.499673
 51
100.4079299999998
  0
ARC
  5
AC21
330
A987
100
AcDbEntity
  8
1
  6
Continuous
100
AcDbCircle
 10
236.7387809999999
 20
113.654595
 30
0.0
 40
4.299999999999998
100
AcDbArc
 50
11.499673
 51
100.4079299999998
  0
LINE
  5
AC22
330
A987
100
AcDbEntity
  8
1
  6
Continuous
100
AcDbLine
 10
236.7387809999999
 20
117.954595
 30
0.0
 11
241.9916499999999
 21
117.954595
 31
0.0
  0
LINE
  5
AC23
330
A987
100
AcDbEntity
  8
1
  6
Continuous
100
AcDbLine
 10
270.884141
 20
108.277905
 30
0.0
 11
270.884141
 21
121.4501749999999
 31
0.0
  0
LINE
  5
AC24
330
A987
100
AcDbEntity
  8
1
  6
Continuous
100
AcDbLine
 10
270.4906779999999
 20
109.5779049999999
 30
0.0
 11
270.4906779999999
 21
121.4501749999999
 31
0.0
  0
ARC
  5
AC25
330
A987
100
AcDbEntity
  8
1
  6
Continuous
100
AcDbCircle
 10
270.2008989999999
 20
104.068175
 30
0.0
 40
2.0
100
AcDbArc
 50
190.1789199999998
 51
272.3414299999999
  0
ARC
  5
AC26
330
A987
100
AcDbEntity
  8
1
  6
Continuous
100
AcDbCircle
 10
269.490678
 20
109.5779049999999
 30
0.0
 40
1.0
100
AcDbArc
 50
270.0
 51
0.0
  0
ARC
  5
AC27
330
A987
100
AcDbEntity
  8
1
  6
Continuous
100
AcDbCircle
 10
268.884141
 20
108.277905
 30
0.0
 40
2.0
100
AcDbArc
 50
270.0
 51
0.0
  0
LINE
  5
AC28
330
A987
100
AcDbEntity
  8
1
  6
Continuous
100
AcDbLine
 10
271.7463389999999
 20
102.129675
 30
0.0
 11
271.766767
 21
101.630105
 31
0.0
  0
ARC
  5
AC29
330
A987
100
AcDbEntity
  8
1
  6
Continuous
100
AcDbCircle
 10
260.0002209999999
 20
121.4501749999999
 30
0.0
 40
10.883919
100
AcDbArc
 50
0.0
 51
91.035705
  0
ARC
  5
AC2A
330
A987
100
AcDbEntity
  8
1
  6
Continuous
100
AcDbCircle
 10
333.7015369999999
 20
212.3921349999998
 30
0.0
 40
1.0
100
AcDbArc
 50
180.0000029999999
 51
274.8533699999999
  0
LINE
  5
AC2B
330
A987
100
AcDbEntity
  8
1
  6
Continuous
100
AcDbLine
 10
350.236195
 20
210.093735
 30
0.0
 11
348.526023
 21
210.093735
 31
0.0
  0
LINE
  5
AC2C
330
A987
100
AcDbEntity
  8
1
  6
Continuous
100
AcDbLine
 10
333.7861439999999
 20
211.3957049999999
 30
0.0
 11
342.0782239999998
 21
212.099795
 31
0.0
  0
LINE
  5
AC2D
330
A987
100
AcDbEntity
  8
1
  6
Continuous
100
AcDbLine
 10
342.0782229999999
 20
212.0998049999998
 30
0.0
 11
344.3782239999999
 21
212.0998049999998
 31
0.0
  0
LINE
  5
AC2E
330
A987
100
AcDbEntity
  8
1
  6
Continuous
100
AcDbLine
 10
238.1056029999998
 20
235.1039179999999
 30
0.0
 11
253.3688479999999
 21
249.9739029999998
 31
0.0
  0
ARC
  5
AC2F
330
A987
100
AcDbEntity
  8
1
  6
Continuous
100
AcDbCircle
 10
259.006339
 20
240.003739
 30
0.0
 40
9.0
100
AcDbArc
 50
318.5396299999998
 51
138.74191
  0
ARC
  5
AC30
330
A987
100
AcDbEntity
  8
1
  6
Continuous
100
AcDbCircle
 10
260.2127679999999
 20
241.406845
 30
0.0
 40
11.53356999999999
100
AcDbArc
 50
317.00515
 51
74.245632
  0
LINE
  5
AC31
330
A987
100
AcDbEntity
  8
5
  6
PHANTOM
100
AcDbLine
 10
267.758399
 20
248.254214
 30
0.0
 11
245.8135179999999
 21
245.695695
 31
0.0
  0
LINE
  5
AC32
330
A987
100
AcDbEntity
  8
5
  6
PHANTOM
100
AcDbLine
 10
268.232189
 20
246.474181
 30
0.0
 11
267.6737549999999
 21
248.980213
 31
0.0
  0
LINE
  5
AC33
330
A987
100
AcDbEntity
  8
5
  6
PHANTOM
100
AcDbLine
 10
245.8266609999999
 20
245.583
 30
0.0
 11
245.547174
 21
247.9802149999999
 31
0.0
  0
LINE
  5
AC34
330
A987
100
AcDbEntity
  8
1
  6
Continuous
100
AcDbLine
 10
249.116296
 20
236.933081
 30
0.0
 11
270.8841389999999
 21
233.153573
 31
0.0
  0
ARC
  5
AC35
330
A987
100
AcDbEntity
  8
1
  6
Continuous
100
AcDbCircle
 10
241.472225
 20
253.3346439999998
 30
0.0
 40
40.555782
100
AcDbArc
 50
278.45716
 51
295.54208
  0
LINE
  5
AC36
330
A987
100
AcDbEntity
  8
1
  6
Continuous
100
AcDbLine
 10
270.4906799999998
 20
230.8874649999999
 30
0.0
 11
248.7228389999999
 21
234.666989
 31
0.0
  0
ARC
  5
AC37
330
A987
100
AcDbEntity
  8
5
  6
PHANTOM
100
AcDbCircle
 10
233.559589
 20
261.5353279999999
 30
0.0
 40
40.555782
100
AcDbArc
 50
294.95716
 51
312.04208
  0
LINE
  5
AC38
330
A987
100
AcDbEntity
  8
1
  6
Continuous
100
AcDbLine
 10
245.559028
 20
231.827921
 30
0.0
 11
242.159703
 21
212.2497999999999
 31
0.0
  0
LINE
  5
AC39
330
A987
100
AcDbEntity
  8
5
  6
PHANTOM
100
AcDbLine
 10
243.5863349999999
 20
242.074972
 30
0.0
 11
245.887479
 21
222.337629
 31
0.0
  0
ARC
  5
AC3A
330
A987
100
AcDbEntity
  8
1
  6
Continuous
100
AcDbCircle
 10
236.31039
 20
237.092793
 30
0.0
 40
25.520075
100
AcDbArc
 50
267.67719
 51
282.5895899999998
  0
ARC
  5
AC3B
330
A987
100
AcDbEntity
  8
1
  6
Continuous
100
AcDbCircle
 10
234.2163419999998
 20
228.24374
 30
0.0
 40
18.0
100
AcDbArc
 50
257.88608
 51
288.33201
  0
ARC
  5
AC3C
330
A987
100
AcDbEntity
  8
1
  6
Continuous
100
AcDbCircle
 10
258.9786559999998
 20
135.594225
 30
0.0
 40
78.47901199999999
100
AcDbArc
 50
98.457156
 51
102.58959
  0
ARC
  5
AC3D
330
A987
100
AcDbEntity
  8
1
  6
Continuous
100
AcDbCircle
 10
227.3470569999998
 20
248.975675
 30
0.0
 40
39.84033199999999
100
AcDbArc
 50
288.33201
 51
293.753979
  0
ARC
  5
AC3E
330
A987
100
AcDbEntity
  8
5
  6
PHANTOM
100
AcDbCircle
 10
283.78519
 20
153.6155869999998
 30
0.0
 40
78.47901199999999
100
AcDbArc
 50
114.95717
 51
119.0895899999999
  0
ARC
  5
AC3F
330
A987
100
AcDbEntity
  8
5
  6
PHANTOM
100
AcDbCircle
 10
233.223262
 20
244.4962819999998
 30
0.0
 40
25.520075
100
AcDbArc
 50
284.1772
 51
299.0896
  0
ARC
  5
AC40
330
A987
100
AcDbEntity
  8
1
  6
Continuous
100
AcDbCircle
 10
104.8771889999998
 20
8.863113
 30
0.0
 40
262.5541999999999
100
AcDbArc
 50
58.430438
 51
63.01923900000001
  0
ARC
  5
AC41
330
A987
100
AcDbEntity
  8
1
  6
Continuous
100
AcDbCircle
 10
240.3609499999999
 20
277.550364
 30
0.0
 40
38.374275
100
AcDbArc
 50
242.45799
 51
244.7567200000001
  0
ARC
  5
AC42
330
A987
100
AcDbEntity
  8
1
  6
Continuous
100
AcDbCircle
 10
244.8450039999999
 20
236.095677
 30
0.0
 40
4.327073999999998
100
AcDbArc
 50
238.36829
 51
298.99679
  0
LINE
  5
AC43
330
A987
100
AcDbEntity
  8
1
  6
Continuous
100
AcDbLine
 10
248.7034279999999
 20
234.5552019999999
 30
0.0
 11
249.1162939999999
 21
236.9330769999999
 31
0.0
  0
ARC
  5
AC44
330
A987
100
AcDbEntity
  8
1
  6
Continuous
100
AcDbCircle
 10
245.164695
 20
235.518868
 30
0.0
 40
3.667600999999999
100
AcDbArc
 50
298.99679
 51
344.7665799999999
  0
ARC
  5
AC45
330
A987
100
AcDbEntity
  8
1
  6
Continuous
100
AcDbCircle
 10
289.8279529999999
 20
212.966206
 30
0.0
 40
50.0
100
AcDbArc
 50
138.74191
 51
157.6752699999999
  0
ARC
  5
AC46
330
A987
100
AcDbEntity
  8
5
  6
PHANTOM
100
AcDbCircle
 10
241.6896089999999
 20
245.9641889999998
 30
0.0
 40
4.327073999999998
100
AcDbArc
 50
254.86829
 51
315.4967899999999
  0
ARC
  5
AC47
330
A987
100
AcDbEntity
  8
5
  6
PHANTOM
100
AcDbCircle
 10
164.9608259999999
 20
-37.89374699999999
 30
0.0
 40
289.71823
100
AcDbArc
 50
74.87402900000002
 51
74.93044000000002
  0
ARC
  5
AC48
330
A987
100
AcDbEntity
  8
5
  6
PHANTOM
100
AcDbCircle
 10
242.1599539999998
 20
245.501931
 30
0.0
 40
3.667600999999999
100
AcDbArc
 50
315.4967899999999
 51
1.266575999999999
  0
ARC
  5
AC49
330
A987
100
AcDbEntity
  8
1
  6
Continuous
100
AcDbCircle
 10
249.035121
 20
237.508629
 30
0.0
 40
23.015539
100
AcDbArc
 50
295.54208
 51
338.4279899999999
  0
LINE
  5
AC4A
330
A987
100
AcDbEntity
  8
1
  6
Continuous
100
AcDbLine
 10
270.4394029999999
 20
229.0461699999999
 30
0.0
 11
270.615718
 21
231.6076059999998
 31
0.0
  0
ARC
  5
AC4B
330
A987
100
AcDbEntity
  8
5
  6
PHANTOM
100
AcDbCircle
 10
245.305877
 20
248.5090109999999
 30
0.0
 40
23.015539
100
AcDbArc
 50
312.04208
 51
354.9279899999998
  0
LINE
  5
AC4C
330
A987
100
AcDbEntity
  8
1
  6
Continuous
100
AcDbLine
 10
270.490676
 20
230.88746
 30
0.0
 11
270.884136
 21
233.1535509999999
 31
0.0
  0
ARC
  5
AC4D
330
A987
100
AcDbEntity
  8
1
  6
Continuous
100
AcDbCircle
 10
260.550136
 20
242.602704
 30
0.0
 40
10.291035
100
AcDbArc
 50
74.245632
 51
134.2523
  0
LINE
  5
AC4E
330
A987
100
AcDbEntity
  8
5
  6
PHANTOM
100
AcDbLine
 10
245.5471699999999
 20
247.980225
 30
0.0
 11
267.492046
 21
250.538759
 31
0.0
  0
LINE
  5
AC4F
330
A987
100
AcDbEntity
  8
5
  6
PHANTOM
100
AcDbLine
 10
267.758399
 20
248.254215
 30
0.0
 11
267.492053
 21
250.538737
 31
0.0
  0
LINE
  5
AC50
330
A987
100
AcDbEntity
  8
1
  6
Continuous
100
AcDbLine
 10
336.1032259999999
 20
250.002745
 30
0.0
 11
328.8220359999999
 21
250.002745
 31
0.0
  0
LINE
  5
AC51
330
A987
100
AcDbEntity
  8
1
  6
Continuous
100
AcDbLine
 10
336.481633
 20
247.736635
 30
0.0
 11
328.8220359999999
 21
247.736635
 31
0.0
  0
LINE
  5
AC52
330
A987
100
AcDbEntity
  8
1
  6
Continuous
100
AcDbLine
 10
339.3782240000001
 20
236.783085
 30
0.0
 11
328.823816
 21
236.783085
 31
0.0
  0
LINE
  5
AC53
330
A987
100
AcDbEntity
  8
1
  6
Continuous
100
AcDbLine
 10
339.3782240000001
 20
233.0035749999999
 30
0.0
 11
328.823816
 21
233.0035749999999
 31
0.0
  0
LINE
  5
AC54
330
A987
100
AcDbEntity
  8
1
  6
Continuous
100
AcDbLine
 10
339.3782240000001
 20
230.737455
 30
0.0
 11
328.823816
 21
230.737455
 31
0.0
  0
LINE
  5
AC55
330
A987
100
AcDbEntity
  8
1
  6
Continuous
100
AcDbLine
 10
335.766343
 20
253.781485
 30
0.0
 11
328.8220359999999
 21
253.781485
 31
0.0
  0
ARC
  5
AC56
330
A987
100
AcDbEntity
  8
1
  6
Continuous
100
AcDbCircle
 10
319.3691
 20
232.6272149999998
 30
0.0
 40
1.045285
100
AcDbArc
 50
180.0000029999999
 51
259.80144
  0
ARC
  5
AC57
330
A987
100
AcDbEntity
  8
1
  6
Continuous
100
AcDbCircle
 10
328.823816
 20
285.1819049999999
 30
0.0
 40
54.44366099999999
100
AcDbArc
 50
259.80144
 51
269.9999899999999
  0
LINE
  5
AC58
330
A987
100
AcDbEntity
  8
1
  6
Continuous
100
AcDbLine
 10
318.323816
 20
234.8933249999999
 30
0.0
 11
318.323816
 21
232.6272149999998
 31
0.0
  0
ARC
  5
AC59
330
A987
100
AcDbEntity
  8
1
  6
Continuous
100
AcDbCircle
 10
319.3691
 20
234.8933249999999
 30
0.0
 40
1.045285
100
AcDbArc
 50
100.1985609999999
 51
259.80144
  0
ARC
  5
AC5A
330
A987
100
AcDbEntity
  8
1
  6
Continuous
100
AcDbCircle
 10
328.823816
 20
182.338635
 30
0.0
 40
54.44366099999999
100
AcDbArc
 50
90.00000300000001
 51
100.1985609999999
  0
ARC
  5
AC5B
330
A987
100
AcDbEntity
  8
1
  6
Continuous
100
AcDbCircle
 10
328.823816
 20
287.448015
 30
0.0
 40
54.44366099999999
100
AcDbArc
 50
259.80144
 51
269.9999899999999
  0
ARC
  5
AC5C
330
A987
100
AcDbEntity
  8
1
  6
Continuous
100
AcDbCircle
 10
328.8220359999999
 20
302.181075
 30
0.0
 40
54.44366099999999
100
AcDbArc
 50
259.80144
 51
269.9999899999999
  0
LINE
  5
AC5D
330
A987
100
AcDbEntity
  8
1
  6
Continuous
100
AcDbLine
 10
318.3220379999998
 20
249.626395
 30
0.0
 11
318.3220379999998
 21
251.8925049999999
 31
0.0
  0
ARC
  5
AC5E
330
A987
100
AcDbEntity
  8
1
  6
Continuous
100
AcDbCircle
 10
328.8220359999999
 20
199.3378149999998
 30
0.0
 40
54.44366099999999
100
AcDbArc
 50
90.00000300000001
 51
100.1985609999999
  0
ARC
  5
AC5F
330
A987
100
AcDbEntity
  8
1
  6
Continuous
100
AcDbCircle
 10
319.3673219999999
 20
249.626395
 30
0.0
 40
1.045285
100
AcDbArc
 50
180.0000029999999
 51
259.80144
  0
ARC
  5
AC60
330
A987
100
AcDbEntity
  8
1
  6
Continuous
100
AcDbCircle
 10
319.3673219999999
 20
251.8925049999999
 30
0.0
 40
1.045285
100
AcDbArc
 50
100.1985609999999
 51
259.80144
  0
ARC
  5
AC61
330
A987
100
AcDbEntity
  8
1
  6
Continuous
100
AcDbCircle
 10
328.8220359999999
 20
304.447195
 30
0.0
 40
54.44366099999999
100
AcDbArc
 50
259.80144
 51
269.9999899999999
  0
ARC
  5
AC62
330
A987
100
AcDbEntity
  8
1
  6
Continuous
100
AcDbCircle
 10
361.3013179999999
 20
248.844565
 30
0.0
 40
22.66362
100
AcDbArc
 50
198.30912
 51
230.01768
  0
LINE
  5
AC63
330
A987
100
AcDbEntity
  8
1
  6
Continuous
100
AcDbLine
 10
349.026024
 20
252.790405
 30
0.0
 11
350.236195
 21
236.1938649999999
 31
0.0
  0
ARC
  5
AC64
330
A987
100
AcDbEntity
  8
1
  6
Continuous
100
AcDbCircle
 10
352.5192569999999
 20
224.4806049999999
 30
0.0
 40
20.0
100
AcDbArc
 50
132.0325369999999
 51
142.039099
  0
ARC
  5
AC65
330
A987
100
AcDbEntity
  8
1
  6
Continuous
100
AcDbCircle
 10
352.5192569999999
 20
224.4806049999999
 30
0.0
 40
21.51306299999999
100
AcDbArc
 50
130.6239009999998
 51
145.1199369999999
  0
ARC
  5
AC66
330
A987
100
AcDbEntity
  8
1
  6
Continuous
100
AcDbCircle
 10
339.3782240000001
 20
231.7830649999999
 30
0.0
 40
5.0
100
AcDbArc
 50
0.0
 51
90.00000300000001
  0
ARC
  5
AC67
330
A987
100
AcDbEntity
  8
1
  6
Continuous
100
AcDbCircle
 10
339.3782240000001
 20
228.003575
 30
0.0
 40
5.0
100
AcDbArc
 50
0.0
 51
90.00000300000001
  0
LINE
  5
AC68
330
A987
100
AcDbEntity
  8
1
  6
Continuous
100
AcDbLine
 10
346.3782259999999
 20
216.066685
 30
0.0
 11
347.736197
 21
216.066685
 31
0.0
  0
ARC
  5
AC69
330
A987
100
AcDbEntity
  8
1
  6
Continuous
100
AcDbCircle
 10
339.3782240000001
 20
228.003575
 30
0.0
 40
2.733886999999998
100
AcDbArc
 50
0.0
 51
90.00000300000001
  0
ARC
  5
AC6A
330
A987
100
AcDbEntity
  8
1
  6
Continuous
100
AcDbCircle
 10
343.526023
 20
227.647505
 30
0.0
 40
5.0
100
AcDbArc
 50
0.0
 51
51.07577
  0
ARC
  5
AC6B
330
A987
100
AcDbEntity
  8
1
  6
Continuous
100
AcDbCircle
 10
344.5319099999999
 20
243.295645
 30
0.0
 40
5.0
100
AcDbArc
 50
104.446617
 51
198.3091
  0
LINE
  5
AC6C
330
A987
100
AcDbEntity
  8
1
  6
Continuous
100
AcDbLine
 10
349.026023
 20
252.790405
 30
0.0
 11
348.526023
 21
252.790405
 31
0.0
  0
LINE
  5
AC6D
330
A987
100
AcDbEntity
  8
1
  6
Continuous
100
AcDbLine
 10
343.2845229999998
 20
248.1375449999999
 30
0.0
 11
347.065158
 21
249.111525
 31
0.0
  0
ARC
  5
AC6E
330
A987
100
AcDbEntity
  8
1
  6
Continuous
100
AcDbCircle
 10
346.5662019999999
 20
251.048295
 30
0.0
 40
2.0
100
AcDbArc
 50
284.44661
 51
348.4958999999999
  0
ARC
  5
AC6F
330
A987
100
AcDbEntity
  8
1
  6
Continuous
100
AcDbCircle
 10
259.606758
 20
358.8473099999998
 30
0.0
 40
10.883919
100
AcDbArc
 50
198.603737
 51
271.0357
  0
ARC
  5
AC70
330
A987
100
AcDbEntity
  8
1
  6
Continuous
100
AcDbCircle
 10
260.0002209999999
 20
358.8473099999998
 30
0.0
 40
10.883919
100
AcDbArc
 50
198.603737
 51
341.3962629999998
  0
ARC
  5
AC71
330
A987
100
AcDbEntity
  8
1
  6
Continuous
100
AcDbCircle
 10
260.0002209999999
 20
358.8473099999998
 30
0.0
 40
10.883919
100
AcDbArc
 50
268.9642899999999
 51
341.3962629999998
  0
ARC
  5
AC72
330
A987
100
AcDbEntity
  8
1
  6
Continuous
100
AcDbCircle
 10
53.938665
 20
255.422466
 30
0.0
 40
39.801511
100
AcDbArc
 50
357.8543379999999
 51
359.5473579999999
  0
LINE
  5
AC73
330
A987
100
AcDbEntity
  8
1
  6
Continuous
100
AcDbLine
 10
82.01424299999997
 20
249.8784929999999
 30
0.0
 11
82.00996499999998
 21
245.6134129999998
 31
0.0
  0
LINE
  5
AC74
330
A987
100
AcDbEntity
  8
1
  6
Continuous
100
AcDbLine
 10
84.61424499999997
 20
249.8784929999999
 30
0.0
 11
84.60996599999999
 21
245.6134129999998
 31
0.0
  0
ARC
  5
AC75
330
A987
100
AcDbEntity
  8
1
  6
Continuous
100
AcDbCircle
 10
245.2363389999999
 20
87.422368
 30
0.0
 40
35.6
100
AcDbArc
 50
84.235109
 51
143.5403419999999
  0
LINE
  5
AC76
330
A987
100
AcDbEntity
  8
1
  6
Continuous
100
AcDbLine
 10
249.291547
 20
124.9223679999999
 30
0.0
 11
203.2363389999999
 21
124.9223679999999
 31
0.0
  0
ARC
  5
AC77
330
A987
100
AcDbEntity
  8
1
  6
Continuous
100
AcDbCircle
 10
245.2363389999999
 20
87.422368
 30
0.0
 40
27.5
100
AcDbArc
 50
103.789598
 51
120.2081709999998
  0
ARC
  5
AC78
330
A987
100
AcDbEntity
  8
1
  6
Continuous
100
AcDbCircle
 10
245.2363389999999
 20
87.422368
 30
0.0
 40
24.9
100
AcDbArc
 50
104.02533
 51
118.8539859999999
  0
ARC
  5
AC79
330
A987
100
AcDbEntity
  8
1
  6
Continuous
100
AcDbCircle
 10
245.2363389999999
 20
87.422368
 30
0.0
 40
27.5
100
AcDbArc
 50
82.716335
 51
88.19044400000001
  0
ARC
  5
AC7A
330
A987
100
AcDbEntity
  8
1
  6
Continuous
100
AcDbCircle
 10
245.2363389999999
 20
87.422368
 30
0.0
 40
24.9
100
AcDbArc
 50
81.95099199999999
 51
86.72450500000001
  0
ARC
  5
AC7B
330
A987
100
AcDbEntity
  8
1
  6
Continuous
100
AcDbCircle
 10
245.2363389999999
 20
87.422368
 30
0.0
 40
20.89999999999999
100
AcDbArc
 50
103.0282969999999
 51
119.5039479999998
  0
ARC
  5
AC7C
330
A987
100
AcDbEntity
  8
1
  6
Continuous
100
AcDbCircle
 10
209.240777
 20
575.0935459999998
 30
0.0
 40
196.381632
100
AcDbArc
 50
265.836503
 51
266.056869
  0
LINE
  5
AC7D
330
A987
100
AcDbEntity
  8
1
  6
Continuous
100
AcDbLine
 10
216.2363389999999
 20
110.077905
 30
0.0
 11
216.2363389999999
 21
108.5779049999999
 31
0.0
  0
LINE
  5
AC7E
330
A987
100
AcDbEntity
  8
1
  6
Continuous
100
AcDbLine
 10
202.2363389999999
 20
110.077905
 30
0.0
 11
202.2363389999999
 21
108.5779049999999
 31
0.0
  0
LINE
  5
AC7F
330
A987
100
AcDbEntity
  8
1
  6
Continuous
100
AcDbLine
 10
216.2363389999999
 20
110.077905
 30
0.0
 11
202.2363389999999
 21
110.077905
 31
0.0
  0
CIRCLE
  5
AC80
330
A987
100
AcDbEntity
  8
1
  6
Continuous
100
AcDbCircle
 10
209.236339
 20
230.148739
 30
0.0
 40
7.0
  0
LINE
  5
AC81
330
A987
100
AcDbEntity
  8
1
  6
Continuous
100
AcDbLine
 10
203.2363389999999
 20
233.612841
 30
0.0
 11
209.236339
 21
237.076942
 31
0.0
  0
LINE
  5
AC82
330
A987
100
AcDbEntity
  8
1
  6
Continuous
100
AcDbLine
 10
209.236339
 20
223.220536
 30
0.0
 11
203.2363389999999
 21
226.684638
 31
0.0
  0
LINE
  5
AC83
330
A987
100
AcDbEntity
  8
1
  6
Continuous
100
AcDbLine
 10
94.74338000000001
 20
233.3487529999999
 30
0.0
 11
93.94338000000001
 21
234.1487529999999
 31
0.0
  0
LINE
  5
AC84
330
A987
100
AcDbEntity
  8
2
  6
Continuous
100
AcDbLine
 10
94.61988000000003
 20
233.4722529999999
 30
0.0
 11
93.860562
 21
233.4722529999999
 31
0.0
  0
CIRCLE
  5
AC85
330
A987
100
AcDbEntity
  8
1
  6
Continuous
100
AcDbCircle
 10
209.236339
 20
230.148739
 30
0.0
 40
6.0
  0
CIRCLE
  5
AC86
330
A987
100
AcDbEntity
  8
1
  6
Continuous
100
AcDbCircle
 10
209.236339
 20
230.148739
 30
0.0
 40
4.0
  0
CIRCLE
  5
AC87
330
A987
100
AcDbEntity
  8
2
  6
Continuous
100
AcDbCircle
 10
209.236339
 20
230.148739
 30
0.0
 40
3.3235
  0
ARC
  5
AC88
330
A987
100
AcDbEntity
  8
1
  6
Continuous
100
AcDbCircle
 10
212.2363389999999
 20
106.4128409999999
 30
0.0
 40
8.665063999999999
100
AcDbArc
 50
69.743842
 51
110.256158
  0
LINE
  5
AC89
330
A987
100
AcDbEntity
  8
1
  6
Continuous
100
AcDbLine
 10
205.236339
 20
115.1607229999999
 30
0.0
 11
213.236339
 21
115.1607229999999
 31
0.0
  0
LINE
  5
AC8A
330
A987
100
AcDbEntity
  8
1
  6
Continuous
100
AcDbLine
 10
212.436339
 20
115.9607229999999
 30
0.0
 11
206.036339
 21
115.9607229999999
 31
0.0
  0
LINE
  5
AC8B
330
A987
100
AcDbEntity
  8
1
  6
Continuous
100
AcDbLine
 10
203.2363389999999
 20
115.077905
 30
0.0
 11
215.236339
 21
115.077905
 31
0.0
  0
LINE
  5
AC8C
330
A987
100
AcDbEntity
  8
1
  6
Continuous
100
AcDbLine
 10
94.74338000000001
 20
226.9487529999999
 30
0.0
 11
93.94338000000001
 21
226.1487529999999
 31
0.0
  0
LINE
  5
AC8D
330
A987
100
AcDbEntity
  8
2
  6
Continuous
100
AcDbLine
 10
94.61988000000003
 20
226.8252529999998
 30
0.0
 11
93.860562
 21
226.8252529999998
 31
0.0
  0
ARC
  5
AC8E
330
A987
100
AcDbEntity
  8
1
  6
Continuous
100
AcDbCircle
 10
212.2363389999999
 20
118.7429679999999
 30
0.0
 40
8.665063999999999
100
AcDbArc
 50
249.7438419999999
 51
290.256158
  0
LINE
  5
AC8F
330
A987
100
AcDbEntity
  8
1
  6
Continuous
100
AcDbLine
 10
203.2363389999999
 20
233.612841
 30
0.0
 11
203.2363389999999
 21
226.684638
 31
0.0
  0
LINE
  5
AC90
330
A987
100
AcDbEntity
  8
1
  6
Continuous
100
AcDbLine
 10
88.860562
 20
236.5358379999999
 30
0.0
 11
88.860562
 21
237.1487529999999
 31
0.0
  0
LINE
  5
AC91
330
A987
100
AcDbEntity
  8
1
  6
Continuous
100
AcDbLine
 10
93.94338000000001
 20
234.1487529999999
 30
0.0
 11
93.94338000000001
 21
226.1487529999999
 31
0.0
  0
ARC
  5
AC92
330
A987
100
AcDbEntity
  8
1
  6
Continuous
100
AcDbCircle
 10
82.39646099999999
 20
230.1487529999999
 30
0.0
 40
11.464102
100
AcDbArc
 50
342.4120459999999
 51
17.587954
  0
LINE
  5
AC93
330
A987
100
AcDbEntity
  8
1
  6
Continuous
100
AcDbLine
 10
93.860562
 20
236.1487529999999
 30
0.0
 11
93.860562
 21
224.1487529999999
 31
0.0
  0
LINE
  5
AC94
330
A987
100
AcDbEntity
  8
2
  6
Continuous
100
AcDbLine
 10
205.912839
 20
115.8372229999999
 30
0.0
 11
205.912839
 21
115.077905
 31
0.0
  0
LINE
  5
AC95
330
A987
100
AcDbEntity
  8
1
  6
Continuous
100
AcDbLine
 10
206.036339
 20
115.9607229999999
 30
0.0
 11
205.236339
 21
115.1607229999999
 31
0.0
  0
LINE
  5
AC96
330
A987
100
AcDbEntity
  8
1
  6
Continuous
100
AcDbLine
 10
205.236339
 20
115.077905
 30
0.0
 11
205.236339
 21
115.1607229999999
 31
0.0
  0
ARC
  5
AC97
330
A987
100
AcDbEntity
  8
1
  6
Continuous
100
AcDbCircle
 10
206.2363389999999
 20
106.4128409999999
 30
0.0
 40
8.665063999999999
100
AcDbArc
 50
69.743842
 51
110.256158
  0
LINE
  5
AC98
330
A987
100
AcDbEntity
  8
1
  6
Continuous
100
AcDbLine
 10
209.236339
 20
110.613803
 30
0.0
 11
209.236339
 21
114.542007
 31
0.0
  0
LINE
  5
AC99
330
A987
100
AcDbEntity
  8
1
  6
Continuous
100
AcDbLine
 10
93.860562
 20
226.1487529999999
 30
0.0
 11
93.94338000000001
 21
226.1487529999999
 31
0.0
  0
ARC
  5
AC9A
330
A987
100
AcDbEntity
  8
1
  6
Continuous
100
AcDbCircle
 10
90.793575
 20
224.9525999999999
 30
0.0
 40
3.066986999999998
100
AcDbArc
 50
334.384247
 51
34.38424699999998
  0
LINE
  5
AC9B
330
A987
100
AcDbEntity
  8
1
  6
Continuous
100
AcDbLine
 10
89.86289599999997
 20
226.6846509999998
 30
0.0
 11
93.32466399999999
 21
226.6846509999998
 31
0.0
  0
LINE
  5
AC9C
330
A987
100
AcDbEntity
  8
1
  6
Continuous
100
AcDbLine
 10
89.940762
 20
223.2205490000001
 30
0.0
 11
93.32466399999999
 21
223.2205490000001
 31
0.0
  0
LINE
  5
AC9D
330
A987
100
AcDbEntity
  8
1
  6
Continuous
100
AcDbLine
 10
93.32466399999999
 20
223.2205490000001
 30
0.0
 11
93.860562
 21
224.1487529999999
 31
0.0
  0
ARC
  5
AC9E
330
A987
100
AcDbEntity
  8
1
  6
Continuous
100
AcDbCircle
 10
206.2363389999999
 20
118.7429679999999
 30
0.0
 40
8.665063999999999
100
AcDbArc
 50
249.7438419999999
 51
290.256158
  0
LINE
  5
AC9F
330
A987
100
AcDbEntity
  8
1
  6
Continuous
100
AcDbLine
 10
203.2363389999999
 20
115.077905
 30
0.0
 11
203.2363389999999
 21
110.077905
 31
0.0
  0
LINE
  5
ACA0
330
A987
100
AcDbEntity
  8
1
  6
Continuous
100
AcDbLine
 10
88.860562
 20
237.1487529999999
 30
0.0
 11
88.638688
 21
237.1487529999999
 31
0.0
  0
LINE
  5
ACA1
330
A987
100
AcDbEntity
  8
1
  6
Continuous
100
AcDbLine
 10
93.860562
 20
234.1487529999999
 30
0.0
 11
93.94338000000001
 21
234.1487529999999
 31
0.0
  0
LINE
  5
ACA2
330
A987
100
AcDbEntity
  8
1
  6
Continuous
100
AcDbLine
 10
93.32466399999999
 20
237.0769559999998
 30
0.0
 11
93.860562
 21
236.1487529999999
 31
0.0
  0
LINE
  5
ACA3
330
A987
100
AcDbEntity
  8
1
  6
Continuous
100
AcDbLine
 10
89.396461
 20
237.0769559999998
 30
0.0
 11
88.94314300000003
 21
236.2917869999999
 31
0.0
  0
LINE
  5
ACA4
330
A987
100
AcDbEntity
  8
1
  6
Continuous
100
AcDbLine
 10
89.396461
 20
237.0769559999998
 30
0.0
 11
93.32466399999999
 21
237.0769559999998
 31
0.0
  0
LINE
  5
ACA5
330
A987
100
AcDbEntity
  8
1
  6
Continuous
100
AcDbLine
 10
89.644937
 20
233.612854
 30
0.0
 11
93.32466399999999
 21
233.612854
 31
0.0
  0
ARC
  5
ACA6
330
A987
100
AcDbEntity
  8
1
  6
Continuous
100
AcDbCircle
 10
91.92754900000002
 20
235.344905
 30
0.0
 40
3.066986999999998
100
AcDbArc
 50
154.3842469999999
 51
164.0899249999999
  0
ARC
  5
ACA7
330
A987
100
AcDbEntity
  8
1
  6
Continuous
100
AcDbCircle
 10
90.793575
 20
235.344905
 30
0.0
 40
3.066986999999998
100
AcDbArc
 50
325.6157529999999
 51
25.615753
  0
LINE
  5
ACA8
330
A987
100
AcDbEntity
  8
1
  6
Continuous
100
AcDbLine
 10
215.236339
 20
233.612841
 30
0.0
 11
215.236339
 21
226.684638
 31
0.0
  0
LINE
  5
ACA9
330
A987
100
AcDbEntity
  8
1
  6
Continuous
100
AcDbLine
 10
94.74338000000001
 20
226.9487529999999
 30
0.0
 11
94.74338000000001
 21
233.3487529999999
 31
0.0
  0
LINE
  5
ACAA
330
A987
100
AcDbEntity
  8
2
  6
Continuous
100
AcDbLine
 10
212.5598389999999
 20
115.8372229999999
 30
0.0
 11
212.5598389999999
 21
115.077905
 31
0.0
  0
LINE
  5
ACAB
330
A987
100
AcDbEntity
  8
1
  6
Continuous
100
AcDbLine
 10
212.436339
 20
115.9607229999999
 30
0.0
 11
213.236339
 21
115.1607229999999
 31
0.0
  0
LINE
  5
ACAC
330
A987
100
AcDbEntity
  8
1
  6
Continuous
100
AcDbLine
 10
213.236339
 20
115.077905
 30
0.0
 11
213.236339
 21
115.1607229999999
 31
0.0
  0
LINE
  5
ACAD
330
A987
100
AcDbEntity
  8
1
  6
Continuous
100
AcDbLine
 10
215.236339
 20
115.077905
 30
0.0
 11
215.236339
 21
110.077905
 31
0.0
  0
LINE
  5
ACAE
330
A987
100
AcDbEntity
  8
1
  6
Continuous
100
AcDbLine
 10
209.236339
 20
223.220536
 30
0.0
 11
215.236339
 21
226.684638
 31
0.0
  0
LINE
  5
ACAF
330
A987
100
AcDbEntity
  8
1
  6
Continuous
100
AcDbLine
 10
215.236339
 20
233.612841
 30
0.0
 11
209.236339
 21
237.076942
 31
0.0
  0
LINE
  5
ACB0
330
A987
100
AcDbEntity
  8
4
  6
CENTER
100
AcDbLine
 10
517.2311480000002
 20
303.1487389999999
 30
0.0
 11
517.2311480000002
 21
157.1487389999998
 31
0.0
  0
ARC
  5
ACB1
330
A987
100
AcDbEntity
  8
1
  6
Continuous
100
AcDbCircle
 10
517.2311480000002
 20
230.148739
 30
0.0
 40
25.64999999999999
100
AcDbArc
 50
166.1639979999999
 51
83.830977
  0
ARC
  5
ACB2
330
A987
100
AcDbEntity
  8
1
  6
Continuous
100
AcDbCircle
 10
517.2311480000002
 20
230.148739
 30
0.0
 40
40.0
100
AcDbArc
 50
152.099355
 51
91.53655500000001
  0
ARC
  5
ACB3
330
A987
100
AcDbEntity
  8
1
  6
Continuous
100
AcDbCircle
 10
517.2311480000002
 20
230.148739
 30
0.0
 40
65.0
100
AcDbArc
 50
140.165976
 51
93.30358600000002
  0
ARC
  5
ACB4
330
A987
100
AcDbEntity
  8
1
  6
Continuous
100
AcDbCircle
 10
517.2311480000002
 20
230.148739
 30
0.0
 40
53.5
100
AcDbArc
 50
144.7682419999999
 51
93.32942300000002
  0
ARC
  5
ACB5
330
A987
100
AcDbEntity
  8
1
  6
Continuous
100
AcDbCircle
 10
645.718975
 20
296.636365
 30
0.0
 40
132.243177
100
AcDbArc
 50
177.4095369999998
 51
207.314435
  0
ARC
  5
ACB6
330
A987
100
AcDbEntity
  8
1
  6
Continuous
100
AcDbCircle
 10
619.147723
 20
352.1749449999999
 30
0.0
 40
171.799
100
AcDbArc
 50
200.3009159999999
 51
230.062209
  0
LINE
  5
ACB7
330
A987
100
AcDbEntity
  8
1
  6
Continuous
100
AcDbLine
 10
502.7034269999998
 20
301.319268
 30
0.0
 11
502.7034269999998
 21
231.314644
 31
0.0
  0
LINE
  5
ACB8
330
A987
100
AcDbEntity
  8
4
  6
CENTER
100
AcDbLine
 10
444.2311479999998
 20
230.148739
 30
0.0
 11
590.2311479999998
 21
230.148739
 31
0.0
  0
ARC
  5
ACB9
330
A987
100
AcDbEntity
  8
1
  6
Continuous
100
AcDbCircle
 10
573.1011429999997
 20
221.743741
 30
0.0
 40
11.5
100
AcDbArc
 50
305.3198929999999
 51
37.569435
  0
CIRCLE
  5
ACBA
330
A987
100
AcDbEntity
  8
1
  6
Continuous
100
AcDbCircle
 10
551.469183
 20
219.024127
 30
0.0
 40
3.5
  0
CIRCLE
  5
ACBB
330
A987
100
AcDbEntity
  8
1
  6
Continuous
100
AcDbCircle
 10
517.2311480000002
 20
194.1487389999998
 30
0.0
 40
3.5
  0
ARC
  5
ACBC
330
A987
100
AcDbEntity
  8
1
  6
Continuous
100
AcDbCircle
 10
516.9811479999999
 20
230.148739
 30
0.0
 40
12.65
100
AcDbArc
 50
230.062209
 51
27.31443499999999
  0
CIRCLE
  5
ACBD
330
A987
100
AcDbEntity
  8
1
  6
Continuous
100
AcDbCircle
 10
482.993114
 20
219.024127
 30
0.0
 40
3.5
  0
LINE
  5
ACBE
330
A987
100
AcDbEntity
  8
1
  6
Continuous
100
AcDbLine
 10
472.6369309999998
 20
304.8337389999999
 30
0.0
 11
474.6369309999998
 21
306.940739
 31
0.0
  0
LINE
  5
ACBF
330
A987
100
AcDbEntity
  8
1
  6
Continuous
100
AcDbLine
 10
475.3440379999998
 20
304.8337389999999
 30
0.0
 11
473.344038
 21
306.940739
 31
0.0
  0
LINE
  5
ACC0
330
A987
100
AcDbEntity
  8
1
  6
Continuous
100
AcDbLine
 10
530.731148
 20
315.1487389999999
 30
0.0
 11
431.7311479999998
 21
315.1487389999999
 31
0.0
  0
LINE
  5
ACC1
330
A987
100
AcDbEntity
  8
1
  6
Continuous
100
AcDbLine
 10
451.9585779999998
 20
308.775739
 30
0.0
 11
510.503717
 21
308.775739
 31
0.0
  0
LINE
  5
ACC2
330
A987
100
AcDbEntity
  8
1
  6
Continuous
100
AcDbLine
 10
431.7311479999998
 20
312.249124
 30
0.0
 11
530.731148
 21
312.249124
 31
0.0
  0
LINE
  5
ACC3
330
A987
100
AcDbEntity
  8
1
  6
Continuous
100
AcDbLine
 10
454.545048
 20
306.940739
 30
0.0
 11
507.9172479999998
 21
306.940739
 31
0.0
  0
LINE
  5
ACC4
330
A987
100
AcDbEntity
  8
1
  6
Continuous
100
AcDbLine
 10
454.545048
 20
304.8337389999999
 30
0.0
 11
507.9172479999998
 21
304.8337389999999
 31
0.0
  0
LINE
  5
ACC5
330
A987
100
AcDbEntity
  8
4
  6
CENTER
100
AcDbLine
 10
481.2311479999998
 20
249.735135
 30
0.0
 11
481.2311479999998
 21
320.148739
 31
0.0
  0
CIRCLE
  5
ACC6
330
A987
100
AcDbEntity
  8
1
  6
Continuous
100
AcDbCircle
 10
538.391416
 20
259.2733509999998
 30
0.0
 40
3.5
  0
LINE
  5
ACC7
330
A987
100
AcDbEntity
  8
1
  6
Continuous
100
AcDbLine
 10
517.0487759999998
 20
302.612789
 30
0.0
 11
502.7038319999999
 21
302.612789
 31
0.0
  0
LINE
  5
ACC8
330
A987
100
AcDbEntity
  8
1
  6
Continuous
100
AcDbLine
 10
530.731148
 20
312.249124
 30
0.0
 11
530.731148
 21
315.133279
 31
0.0
  0
LINE
  5
ACC9
330
A987
100
AcDbEntity
  8
4
  6
CENTER
100
AcDbLine
 10
521.2311480000002
 20
307.249124
 30
0.0
 11
521.2311480000002
 21
320.148739
 31
0.0
  0
ARC
  5
ACCA
330
A987
100
AcDbEntity
  8
1
  6
Continuous
100
AcDbCircle
 10
517.0487759999998
 20
299.0809509999999
 30
0.0
 40
3.531837999999998
100
AcDbArc
 50
71.205477
 51
90.0
  0
ARC
  5
ACCB
330
A987
100
AcDbEntity
  8
1
  6
Continuous
100
AcDbCircle
 10
517.207383
 20
304.0017989999999
 30
0.0
 40
3.942636999999998
100
AcDbArc
 50
270.0
 51
284.133642
  0
LINE
  5
ACCC
330
A987
100
AcDbEntity
  8
1
  6
Continuous
100
AcDbLine
 10
518.170113
 20
300.17851
 30
0.0
 11
518.305815
 21
300.3424509999998
 31
0.0
  0
ARC
  5
ACCD
330
A987
100
AcDbEntity
  8
1
  6
Continuous
100
AcDbCircle
 10
517.889276
 20
301.5506779999999
 30
0.0
 40
0.9230079999999999
100
AcDbArc
 50
55.331088
 51
71.205477
  0
ARC
  5
ACCE
330
A987
100
AcDbEntity
  8
1
  6
Continuous
100
AcDbCircle
 10
526.731707
 20
299.681799
 30
0.0
 40
8.451753
100
AcDbArc
 50
166.82934
 51
175.516763
  0
ARC
  5
ACCF
330
A987
100
AcDbEntity
  8
1
  6
Continuous
100
AcDbCircle
 10
516.331804
 20
301.692338
 30
0.0
 40
2.172123
100
AcDbArc
 50
357.762921
 51
16.515265
  0
LINE
  5
ACD0
330
A987
100
AcDbEntity
  8
1
  6
Continuous
100
AcDbLine
 10
517.207383
 20
300.059162
 30
0.0
 11
513.5201009999998
 21
300.059162
 31
0.0
  0
ARC
  5
ACD1
330
A987
100
AcDbEntity
  8
1
  6
Continuous
100
AcDbCircle
 10
510.503717
 20
316.2757389999999
 30
0.0
 40
7.5
100
AcDbArc
 50
270.0
 51
327.528368
  0
LINE
  5
ACD2
330
A987
100
AcDbEntity
  8
1
  6
Continuous
100
AcDbLine
 10
489.607494
 20
304.8337389999999
 30
0.0
 11
491.6074939999998
 21
306.940739
 31
0.0
  0
LINE
  5
ACD3
330
A987
100
AcDbEntity
  8
1
  6
Continuous
100
AcDbLine
 10
492.3146
 20
304.8337389999999
 30
0.0
 11
490.3145999999998
 21
306.940739
 31
0.0
  0
LINE
  5
ACD4
330
A987
100
AcDbEntity
  8
1
  6
Continuous
100
AcDbLine
 10
507.9172479999998
 20
306.940739
 30
0.0
 11
507.9172479999998
 21
304.8337389999999
 31
0.0
  0
ARC
  5
ACD5
330
A987
100
AcDbEntity
  8
1
  6
Continuous
100
AcDbCircle
 10
499.6295359999998
 20
313.5245750000001
 30
0.0
 40
9.0
100
AcDbArc
 50
312.9845629999999
 51
328.1532869999999
  0
LINE
  5
ACD6
330
A987
100
AcDbEntity
  8
1
  6
Continuous
100
AcDbLine
 10
504.456736
 20
304.8337389999999
 30
0.0
 11
506.4567359999998
 21
306.940739
 31
0.0
  0
LINE
  5
ACD7
330
A987
100
AcDbEntity
  8
1
  6
Continuous
100
AcDbLine
 10
506.4567359999998
 20
304.8337389999999
 30
0.0
 11
504.456736
 21
306.940739
 31
0.0
  0
ARC
  5
ACD8
330
A987
100
AcDbEntity
  8
1
  6
Continuous
100
AcDbCircle
 10
505.3587639999998
 20
303.125599
 30
0.0
 40
2.298399999999999
100
AcDbArc
 50
17.21530399999998
 51
48.003581
  0
LINE
  5
ACD9
330
A987
100
AcDbEntity
  8
1
  6
Continuous
100
AcDbLine
 10
506.5780559999998
 20
304.8337389999999
 30
0.0
 11
507.9172479999998
 21
306.27993
 31
0.0
  0
LINE
  5
ACDA
330
A987
100
AcDbEntity
  8
1
  6
Continuous
100
AcDbLine
 10
507.9172479999998
 20
306.308654
 30
0.0
 11
507.285163
 21
306.940739
 31
0.0
  0
ARC
  5
ACDB
330
A987
100
AcDbEntity
  8
1
  6
Continuous
100
AcDbCircle
 10
508.74217
 20
303.7620889999999
 30
0.0
 40
1.188780999999998
100
AcDbArc
 50
177.8908409999999
 51
255.1922279999998
  0
LINE
  5
ACDC
330
A987
100
AcDbEntity
  8
1
  6
Continuous
100
AcDbLine
 10
500.214095
 20
304.8337389999999
 30
0.0
 11
502.2140949999998
 21
306.940739
 31
0.0
  0
LINE
  5
ACDD
330
A987
100
AcDbEntity
  8
1
  6
Continuous
100
AcDbLine
 10
495.971455
 20
304.8337389999999
 30
0.0
 11
497.9714549999997
 21
306.940739
 31
0.0
  0
LINE
  5
ACDE
330
A987
100
AcDbEntity
  8
1
  6
Continuous
100
AcDbLine
 10
497.9714549999997
 20
304.8337389999999
 30
0.0
 11
495.971455
 21
306.940739
 31
0.0
  0
LINE
  5
ACDF
330
A987
100
AcDbEntity
  8
1
  6
Continuous
100
AcDbLine
 10
498.092775
 20
304.8337389999999
 30
0.0
 11
500.092775
 21
306.940739
 31
0.0
  0
LINE
  5
ACE0
330
A987
100
AcDbEntity
  8
1
  6
Continuous
100
AcDbLine
 10
500.799882
 20
304.8337389999999
 30
0.0
 11
498.799882
 21
306.940739
 31
0.0
  0
LINE
  5
ACE1
330
A987
100
AcDbEntity
  8
1
  6
Continuous
100
AcDbLine
 10
491.7288139999998
 20
304.8337389999999
 30
0.0
 11
493.7288139999998
 21
306.940739
 31
0.0
  0
LINE
  5
ACE2
330
A987
100
AcDbEntity
  8
1
  6
Continuous
100
AcDbLine
 10
495.1430269999998
 20
304.8337389999999
 30
0.0
 11
493.1430269999999
 21
306.940739
 31
0.0
  0
LINE
  5
ACE3
330
A987
100
AcDbEntity
  8
1
  6
Continuous
100
AcDbLine
 10
493.850134
 20
304.8337389999999
 30
0.0
 11
495.8501339999998
 21
306.940739
 31
0.0
  0
ARC
  5
ACE4
330
A987
100
AcDbEntity
  8
1
  6
Continuous
100
AcDbCircle
 10
505.0495480000001
 20
303.040206
 30
0.0
 40
2.384338999999997
100
AcDbArc
 50
131.2174919999999
 51
190.32668
  0
LINE
  5
ACE5
330
A987
100
AcDbEntity
  8
1
  6
Continuous
100
AcDbLine
 10
502.335416
 20
304.8337389999999
 30
0.0
 11
504.3354159999998
 21
306.940739
 31
0.0
  0
LINE
  5
ACE6
330
A987
100
AcDbEntity
  8
1
  6
Continuous
100
AcDbLine
 10
503.628309
 20
304.8337389999999
 30
0.0
 11
501.6283089999998
 21
306.940739
 31
0.0
  0
LINE
  5
ACE7
330
A987
100
AcDbEntity
  8
1
  6
Continuous
100
AcDbLine
 10
487.4861730000001
 20
304.8337389999999
 30
0.0
 11
489.486173
 21
306.940739
 31
0.0
  0
LINE
  5
ACE8
330
A987
100
AcDbEntity
  8
1
  6
Continuous
100
AcDbLine
 10
489.486173
 20
304.8337389999999
 30
0.0
 11
487.4861730000001
 21
306.940739
 31
0.0
  0
LINE
  5
ACE9
330
A987
100
AcDbEntity
  8
1
  6
Continuous
100
AcDbLine
 10
483.243533
 20
304.8337389999999
 30
0.0
 11
485.243533
 21
306.940739
 31
0.0
  0
LINE
  5
ACEA
330
A987
100
AcDbEntity
  8
1
  6
Continuous
100
AcDbLine
 10
486.657746
 20
304.8337389999999
 30
0.0
 11
484.6577459999998
 21
306.940739
 31
0.0
  0
LINE
  5
ACEB
330
A987
100
AcDbEntity
  8
1
  6
Continuous
100
AcDbLine
 10
479.000892
 20
304.8337389999999
 30
0.0
 11
481.0008919999998
 21
306.940739
 31
0.0
  0
LINE
  5
ACEC
330
A987
100
AcDbEntity
  8
1
  6
Continuous
100
AcDbLine
 10
481.0008919999998
 20
304.8337389999999
 30
0.0
 11
479.000892
 21
306.940739
 31
0.0
  0
LINE
  5
ACED
330
A987
100
AcDbEntity
  8
1
  6
Continuous
100
AcDbLine
 10
481.122212
 20
304.8337389999999
 30
0.0
 11
483.1222119999998
 21
306.940739
 31
0.0
  0
LINE
  5
ACEE
330
A987
100
AcDbEntity
  8
1
  6
Continuous
100
AcDbLine
 10
483.829319
 20
304.8337389999999
 30
0.0
 11
481.829319
 21
306.940739
 31
0.0
  0
LINE
  5
ACEF
330
A987
100
AcDbEntity
  8
1
  6
Continuous
100
AcDbLine
 10
474.7582509999999
 20
304.8337389999999
 30
0.0
 11
476.7582509999998
 21
306.940739
 31
0.0
  0
LINE
  5
ACF0
330
A987
100
AcDbEntity
  8
1
  6
Continuous
100
AcDbLine
 10
478.172465
 20
304.8337389999999
 30
0.0
 11
476.1724649999998
 21
306.940739
 31
0.0
  0
LINE
  5
ACF1
330
A987
100
AcDbEntity
  8
1
  6
Continuous
100
AcDbLine
 10
476.879571
 20
304.8337389999999
 30
0.0
 11
478.879571
 21
306.940739
 31
0.0
  0
LINE
  5
ACF2
330
A987
100
AcDbEntity
  8
1
  6
Continuous
100
AcDbLine
 10
485.364853
 20
304.8337389999999
 30
0.0
 11
487.3648529999998
 21
306.940739
 31
0.0
  0
LINE
  5
ACF3
330
A987
100
AcDbEntity
  8
1
  6
Continuous
100
AcDbLine
 10
453.731148
 20
295.273323
 30
0.0
 11
453.731148
 21
302.618183
 31
0.0
  0
ARC
  5
ACF4
330
A987
100
AcDbEntity
  8
1
  6
Continuous
100
AcDbCircle
 10
453.879004
 20
290.754186
 30
0.0
 40
4.521554
100
AcDbArc
 50
23.66618499999999
 51
91.87393099999995
  0
ARC
  5
ACF5
330
A987
100
AcDbEntity
  8
1
  6
Continuous
100
AcDbCircle
 10
463.174798
 20
313.1883199999998
 30
0.0
 40
9.0
100
AcDbArc
 50
209.359435
 51
223.961567
  0
LINE
  5
ACF6
330
A987
100
AcDbEntity
  8
1
  6
Continuous
100
AcDbLine
 10
455.5450480000001
 20
306.940739
 30
0.0
 11
454.545048
 21
305.940739
 31
0.0
  0
LINE
  5
ACF7
330
A987
100
AcDbEntity
  8
1
  6
Continuous
100
AcDbLine
 10
455.5450480000001
 20
304.8337389999999
 30
0.0
 11
454.545048
 21
305.940739
 31
0.0
  0
LINE
  5
ACF8
330
A987
100
AcDbEntity
  8
1
  6
Continuous
100
AcDbLine
 10
468.3942899999998
 20
304.8337389999999
 30
0.0
 11
470.39429
 21
306.940739
 31
0.0
  0
LINE
  5
ACF9
330
A987
100
AcDbEntity
  8
1
  6
Continuous
100
AcDbLine
 10
469.687183
 20
304.8337389999999
 30
0.0
 11
467.687183
 21
306.940739
 31
0.0
  0
LINE
  5
ACFA
330
A987
100
AcDbEntity
  8
1
  6
Continuous
100
AcDbLine
 10
464.1516489999998
 20
304.8337389999999
 30
0.0
 11
466.151649
 21
306.940739
 31
0.0
  0
LINE
  5
ACFB
330
A987
100
AcDbEntity
  8
1
  6
Continuous
100
AcDbLine
 10
466.2729699999998
 20
304.8337389999999
 30
0.0
 11
468.27297
 21
306.940739
 31
0.0
  0
LINE
  5
ACFC
330
A987
100
AcDbEntity
  8
1
  6
Continuous
100
AcDbLine
 10
466.8587559999998
 20
304.8337389999999
 30
0.0
 11
464.858756
 21
306.940739
 31
0.0
  0
LINE
  5
ACFD
330
A987
100
AcDbEntity
  8
1
  6
Continuous
100
AcDbLine
 10
459.9090089999998
 20
304.8337389999999
 30
0.0
 11
461.9090089999998
 21
306.940739
 31
0.0
  0
LINE
  5
ACFE
330
A987
100
AcDbEntity
  8
1
  6
Continuous
100
AcDbLine
 10
461.2019019999998
 20
304.8337389999999
 30
0.0
 11
459.2019019999998
 21
306.940739
 31
0.0
  0
LINE
  5
ACFF
330
A987
100
AcDbEntity
  8
1
  6
Continuous
100
AcDbLine
 10
455.6663679999998
 20
304.8337389999999
 30
0.0
 11
457.666368
 21
306.940739
 31
0.0
  0
LINE
  5
AD00
330
A987
100
AcDbEntity
  8
1
  6
Continuous
100
AcDbLine
 10
457.7876879999998
 20
304.8337389999999
 30
0.0
 11
459.787688
 21
306.940739
 31
0.0
  0
LINE
  5
AD01
330
A987
100
AcDbEntity
  8
1
  6
Continuous
100
AcDbLine
 10
458.3734749999998
 20
304.8337389999999
 30
0.0
 11
456.373475
 21
306.940739
 31
0.0
  0
LINE
  5
AD02
330
A987
100
AcDbEntity
  8
1
  6
Continuous
100
AcDbLine
 10
462.0303289999998
 20
304.8337389999999
 30
0.0
 11
464.030329
 21
306.940739
 31
0.0
  0
LINE
  5
AD03
330
A987
100
AcDbEntity
  8
1
  6
Continuous
100
AcDbLine
 10
464.030329
 20
304.8337389999999
 30
0.0
 11
462.0303289999998
 21
306.940739
 31
0.0
  0
LINE
  5
AD04
330
A987
100
AcDbEntity
  8
1
  6
Continuous
100
AcDbLine
 10
470.5156099999999
 20
304.8337389999999
 30
0.0
 11
472.5156099999998
 21
306.940739
 31
0.0
  0
LINE
  5
AD05
330
A987
100
AcDbEntity
  8
1
  6
Continuous
100
AcDbLine
 10
472.5156099999998
 20
304.8337389999999
 30
0.0
 11
470.5156099999999
 21
306.940739
 31
0.0
  0
LINE
  5
AD06
330
A987
100
AcDbEntity
  8
4
  6
CENTER
100
AcDbLine
 10
441.231148
 20
307.249124
 30
0.0
 11
441.231148
 21
320.148739
 31
0.0
  0
ARC
  5
AD07
330
A987
100
AcDbEntity
  8
1
  6
Continuous
100
AcDbCircle
 10
456.9578169999998
 20
302.4509739999999
 30
0.0
 40
3.058577999999998
100
AcDbArc
 50
128.8269479999998
 51
151.3767689999999
  0
LINE
  5
AD08
330
A987
100
AcDbEntity
  8
1
  6
Continuous
100
AcDbLine
 10
454.545048
 20
304.8337389999999
 30
0.0
 11
454.545048
 21
306.940739
 31
0.0
  0
ARC
  5
AD09
330
A987
100
AcDbEntity
  8
1
  6
Continuous
100
AcDbCircle
 10
460.2145649999997
 20
300.673624
 30
0.0
 40
6.768752
100
AcDbArc
 50
151.3767689999999
 51
163.3045389999998
  0
ARC
  5
AD0A
330
A987
100
AcDbEntity
  8
1
  6
Continuous
100
AcDbCircle
 10
451.9585779999998
 20
316.2757389999999
 30
0.0
 40
7.5
100
AcDbArc
 50
212.4716319999998
 51
270.0
  0
LINE
  5
AD0B
330
A987
100
AcDbEntity
  8
1
  6
Continuous
100
AcDbLine
 10
431.7311479999998
 20
312.249124
 30
0.0
 11
431.7311479999998
 21
315.1487389999999
 31
0.0
  0
CIRCLE
  5
AD0C
330
A987
100
AcDbEntity
  8
1
  6
Continuous
100
AcDbCircle
 10
517.2311480000002
 20
230.148739
 30
0.0
 40
7.0
  0
LINE
  5
AD0D
330
A987
100
AcDbEntity
  8
1
  6
Continuous
100
AcDbLine
 10
203.2363389999999
 20
365.219574
 30
0.0
 11
209.4723559999999
 21
365.219574
 31
0.0
  0
ARC
  5
AD0E
330
A987
100
AcDbEntity
  8
1
  6
Continuous
100
AcDbCircle
 10
212.2363389999999
 20
373.884637
 30
0.0
 40
8.665063999999999
100
AcDbArc
 50
249.7438419999999
 51
250.939156
  0
LINE
  5
AD0F
330
A987
100
AcDbEntity
  8
1
  6
Continuous
100
AcDbLine
 10
203.2363389999999
 20
365.219574
 30
0.0
 11
203.2363389999999
 21
368.62511
 31
0.0
  0
LINE
  5
AD10
330
A987
100
AcDbEntity
  8
1
  6
Continuous
100
AcDbLine
 10
209.236339
 20
366.3112509999999
 30
0.0
 11
209.236339
 21
365.755472
 31
0.0
  0
ARC
  5
AD11
330
A987
100
AcDbEntity
  8
1
  6
Continuous
100
AcDbCircle
 10
206.2363389999999
 20
373.884637
 30
0.0
 40
8.665063999999999
100
AcDbArc
 50
249.7438419999999
 51
290.256158
  0
LINE
  5
AD12
330
A987
100
AcDbEntity
  8
1
  6
Continuous
100
AcDbLine
 10
205.236339
 20
365.219574
 30
0.0
 11
205.236339
 21
365.136756
 31
0.0
  0
LINE
  5
AD13
330
A987
100
AcDbEntity
  8
1
  6
Continuous
100
AcDbLine
 10
206.036339
 20
364.3367559999999
 30
0.0
 11
205.236339
 21
365.136756
 31
0.0
  0
LINE
  5
AD14
330
A987
100
AcDbEntity
  8
2
  6
Continuous
100
AcDbLine
 10
205.912839
 20
364.460256
 30
0.0
 11
205.912839
 21
365.219574
 31
0.0
  0
LINE
  5
AD15
330
A987
100
AcDbEntity
  8
1
  6
Continuous
100
AcDbLine
 10
209.452104
 20
364.3367559999999
 30
0.0
 11
206.036339
 21
364.3367559999999
 31
0.0
  0
LINE
  5
AD16
330
A987
100
AcDbEntity
  8
1
  6
Continuous
100
AcDbLine
 10
205.236339
 20
365.136756
 30
0.0
 11
209.478277
 21
365.136756
 31
0.0
  0
ARC
  5
AD17
330
A987
100
AcDbEntity
  8
1
  6
Continuous
100
AcDbCircle
 10
209.236339
 20
230.148739
 30
0.0
 40
40.0
100
AcDbArc
 50
19.738866
 51
27.900645
  0
ARC
  5
AD18
330
A987
100
AcDbEntity
  8
1
  6
Continuous
100
AcDbCircle
 10
209.236339
 20
230.148739
 30
0.0
 40
53.5
100
AcDbArc
 50
24.727499
 51
35.231758
  0
ARC
  5
AD19
330
A987
100
AcDbEntity
  8
1
  6
Continuous
100
AcDbCircle
 10
209.236339
 20
230.148739
 30
0.0
 40
25.64999999999999
100
AcDbArc
 50
205.586736
 51
313.1362109999999
  0
ARC
  5
AD1A
330
A987
100
AcDbEntity
  8
1
  6
Continuous
100
AcDbCircle
 10
209.236339
 20
230.148739
 30
0.0
 40
40.0
100
AcDbArc
 50
200.152798
 51
334.414515
  0
ARC
  5
AD1B
330
A987
100
AcDbEntity
  8
1
  6
Continuous
100
AcDbCircle
 10
209.236339
 20
230.148739
 30
0.0
 40
53.5
100
AcDbArc
 50
200.5783119999998
 51
346.9492879999998
  0
ARC
  5
AD1C
330
A987
100
AcDbEntity
  8
1
  6
Continuous
100
AcDbCircle
 10
209.236339
 20
230.148739
 30
0.0
 40
65.0
100
AcDbArc
 50
195.8825169999999
 51
39.834024
  0
ARC
  5
AD1D
330
A987
100
AcDbEntity
  8
1
  6
Continuous
100
AcDbCircle
 10
209.236339
 20
230.148739
 30
0.0
 40
25.64999999999999
100
AcDbArc
 50
128.3244949999998
 51
144.264831
  0
ENDSEC
  0
SECTION
  2
OBJECTS
  0
DICTIONARY
  5
A975
330
0
100
AcDbDictionary
281
     1
  3
ACAD_CIP_PREVIOUS_PRODUCT_INFO
350
AD7F
  3
ACAD_COLOR
350
AD61
  3
ACAD_DETAILVIEWSTYLE
350
AD7A
  3
ACAD_GROUP
350
A976
  3
ACAD_LAYOUT
350
A982
  3
ACAD_MATERIAL
350
AD2F
  3
ACAD_MLEADERSTYLE
350
AD76
  3
ACAD_MLINESTYLE
350
A97F
  3
ACAD_PLOTSETTINGS
350
A981
  3
ACAD_PLOTSTYLENAME
350
AD2D
  3
ACAD_SCALELIST
350
AD64
  3
ACAD_SECTIONVIEWSTYLE
350
AD78
  3
ACAD_TABLESTYLE
350
AD62
  3
ACAD_VISUALSTYLE
350
AD48
  3
ACDB_RECOMPOSE_DATA
350
AD9D
  3
AcDbVariableDictionary
350
AD90
  3
DWGPROPS
350
AD9E
  0
DICTIONARY
  5
AD80
330
A979
100
AcDbDictionary
280
     1
281
     1
  3
ADSK_XREC_LAYER_RECONCILED
360
AD81
  0
DICTIONARY
  5
AD82
330
A98F
100
AcDbDictionary
280
     1
281
     1
  3
ADSK_XREC_LAYER_RECONCILED
360
AD83
  0
DICTIONARY
  5
AD84
330
A990
100
AcDbDictionary
280
     1
281
     1
  3
ADSK_XREC_LAYER_RECONCILED
360
AD85
  0
DICTIONARY
  5
AD86
330
A991
100
AcDbDictionary
280
     1
281
     1
  3
ADSK_XREC_LAYER_RECONCILED
360
AD87
  0
DICTIONARY
  5
AD88
330
A992
100
AcDbDictionary
280
     1
281
     1
  3
ADSK_XREC_LAYER_RECONCILED
360
AD89
  0
DICTIONARY
  5
AD8A
330
A993
100
AcDbDictionary
280
     1
281
     1
  3
ADSK_XREC_LAYER_RECONCILED
360
AD8B
  0
DICTIONARY
  5
AD8C
330
A994
100
AcDbDictionary
280
     1
281
     1
  3
ADSK_XREC_LAYER_RECONCILED
360
AD8D
  0
DICTIONARY
  5
AD8E
330
A995
100
AcDbDictionary
280
     1
281
     1
  3
ADSK_XREC_LAYER_RECONCILED
360
AD8F
  0
DICTIONARY
  5
AD28
330
A987
100
AcDbDictionary
281
     1
  3
ACAD_LAYOUTSELFREF
350
AD29
  0
DICTIONARY
  5
AD26
330
A983
100
AcDbDictionary
281
     1
  3
ACAD_LAYOUTSELFREF
350
AD27
  0
XRECORD
  5
AD7F
102
{ACAD_REACTORS
330
A975
102
}
330
A975
100
AcDbXrecord
280
     1
300
ACDLT
300
2014
300
ACDLT_F_S
  0
DICTIONARY
  5
AD61
102
{ACAD_REACTORS
330
A975
102
}
330
A975
100
AcDbDictionary
281
     1
  0
DICTIONARY
  5
AD7A
102
{ACAD_REACTORS
330
A975
102
}
330
A975
100
AcDbDictionary
281
     1
  3
Imperial24
350
AD7B
  0
DICTIONARY
  5
A976
102
{ACAD_REACTORS
330
A975
102
}
330
A975
100
AcDbDictionary
281
     1
  0
DICTIONARY
  5
A982
102
{ACAD_REACTORS
330
A975
102
}
330
A975
100
AcDbDictionary
281
     1
  3
Model
350
AD7C
  3
レイアウト1
350
AD7D
  0
DICTIONARY
  5
AD2F
102
{ACAD_REACTORS
330
A975
102
}
330
A975
100
AcDbDictionary
281
     1
  3
ByBlock
350
AD38
  3
ByLayer
350
AD30
  3
Global
350
AD40
  0
DICTIONARY
  5
AD76
102
{ACAD_REACTORS
330
A975
102
}
330
A975
100
AcDbDictionary
281
     1
  3
Standard
350
AD77
  0
DICTIONARY
  5
A97F
102
{ACAD_REACTORS
330
A975
102
}
330
A975
100
AcDbDictionary
281
     1
  3
STANDARD
350
A980
  0
DICTIONARY
  5
A981
102
{ACAD_REACTORS
330
A975
102
}
330
A975
100
AcDbDictionary
281
     1
  0
ACDBDICTIONARYWDFLT
  5
AD2D
102
{ACAD_REACTORS
330
A975
102
}
330
A975
100
AcDbDictionary
281
     1
  3
Normal
350
AD2E
100
AcDbDictionaryWithDefault
340
AD2E
  0
DICTIONARY
  5
AD64
102
{ACAD_REACTORS
330
A975
102
}
330
A975
100
AcDbDictionary
281
     1
  3
A0
350
AD65
  3
A1
350
AD66
  3
A2
350
AD67
  3
A3
350
AD68
  3
A4
350
AD69
  3
A5
350
AD6A
  3
A6
350
AD6B
  3
A7
350
AD6C
  3
A8
350
AD6D
  3
A9
350
AD6E
  3
B0
350
AD6F
  3
B1
350
AD70
  3
B2
350
AD71
  3
B3
350
AD72
  3
B4
350
AD73
  3
B5
350
AD74
  3
B6
350
AD75
  0
DICTIONARY
  5
AD78
102
{ACAD_REACTORS
330
A975
102
}
330
A975
100
AcDbDictionary
281
     1
  3
Imperial24
350
AD79
  0
DICTIONARY
  5
AD62
102
{ACAD_REACTORS
330
A975
102
}
330
A975
100
AcDbDictionary
281
     1
  3
Standard
350
AD63
  0
DICTIONARY
  5
AD48
102
{ACAD_REACTORS
330
A975
102
}
330
A975
100
AcDbDictionary
281
     1
  3
2dWireframe
350
AD4E
  3
Basic
350
AD4D
  3
Brighten
350
AD54
  3
ColorChange
350
AD58
  3
Conceptual
350
AD51
  3
Dim
350
AD53
  3
EdgeColorOff
350
AD60
  3
Facepattern
350
AD57
  3
Flat
350
AD49
  3
FlatWithEdges
350
AD4A
  3
Gouraud
350
AD4B
  3
GouraudWithEdges
350
AD4C
  3
Hidden
350
AD50
  3
JitterOff
350
AD5E
  3
Linepattern
350
AD56
  3
OverhangOff
350
AD5F
  3
Realistic
350
AD52
  3
Shaded
350
AD5D
  3
Shaded with edges
350
AD5C
  3
Shades of Gray
350
AD59
  3
Sketchy
350
AD5A
  3
Thicken
350
AD55
  3
Wireframe
350
AD4F
  3
X-Ray
350
AD5B
  0
XRECORD
  5
AD9D
102
{ACAD_REACTORS
330
A975
102
}
330
A975
100
AcDbXrecord
280
     1
 90
        1
330
AD63
  0
DICTIONARY
  5
AD90
102
{ACAD_REACTORS
330
A975
102
}
330
A975
100
AcDbDictionary
281
     1
  3
CANNOSCALE
350
AD95
  3
CMLEADERSTYLE
350
AD92
  3
CTABLESTYLE
350
AD91
  3
CVIEWDETAILSTYLE
350
AD93
  3
CVIEWSECTIONSTYLE
350
AD94
  3
DIMASSOC
350
AD98
  3
INDEXCTL
350
AD97
  3
SORTENTS
350
AD96
  3
XCLIPFRAME
350
AD99
  0
XRECORD
  5
AD9E
102
{ACAD_REACTORS
330
A975
102
}
330
A975
100
AcDbXrecord
280
     1
  1
DWGPROPS COOKIE
  2

  3

  4

  6

  7

  8
Yoshitsune
  9

300
=
301
=
302
=
303
=
304
=
305
=
306
=
307
=
308
=
309
=
 40
0.0000122106481481
 41
2451301.493036343
 42
2457192.687485671
  1

 90
        0
  0
XRECORD
  5
AD81
102
{ACAD_REACTORS
330
AD80
102
}
330
AD80
100
AcDbXrecord
280
     1
290
     1
  0
XRECORD
  5
AD83
102
{ACAD_REACTORS
330
AD82
102
}
330
AD82
100
AcDbXrecord
280
     1
290
     1
  0
XRECORD
  5
AD85
102
{ACAD_REACTORS
330
AD84
102
}
330
AD84
100
AcDbXrecord
280
     1
290
     1
  0
XRECORD
  5
AD87
102
{ACAD_REACTORS
330
AD86
102
}
330
AD86
100
AcDbXrecord
280
     1
290
     1
  0
XRECORD
  5
AD89
102
{ACAD_REACTORS
330
AD88
102
}
330
AD88
100
AcDbXrecord
280
     1
290
     1
  0
XRECORD
  5
AD8B
102
{ACAD_REACTORS
330
AD8A
102
}
330
AD8A
100
AcDbXrecord
280
     1
290
     1
  0
XRECORD
  5
AD8D
102
{ACAD_REACTORS
330
AD8C
102
}
330
AD8C
100
AcDbXrecord
280
     1
290
     1
  0
XRECORD
  5
AD8F
102
{ACAD_REACTORS
330
AD8E
102
}
330
AD8E
100
AcDbXrecord
280
     1
290
     1
  0
XRECORD
  5
AD29
102
{ACAD_REACTORS
330
AD28
102
}
330
AD28
100
AcDbXrecord
280
     1
340
A987
  0
XRECORD
  5
AD27
102
{ACAD_REACTORS
330
AD26
102
}
330
AD26
100
AcDbXrecord
280
     1
340
A983
  0
ACDBDETAILVIEWSTYLE
  5
AD7B
102
{ACAD_XDICTIONARY
360
ADD6
102
}
102
{ACAD_REACTORS
330
AD7A
102
}
330
AD7A
100
AcDbModelDocViewStyle
 70
     0
  3
Imperial24
290
     0
100
AcDbDetailViewStyle
 70
     0
 71
     0
 90
        3
 71
     1
340
A97A
 40
0.24
340
0
 40
0.24
300

 40
0.36
280
     3
 71
     2
340
A97E
 90
       25
 71
     3
340
A97A
 40
0.24
 90
        1
 40
0.75
 90
        1
300
%<\AcVar ViewType \f "%tc1">% %<\AcVar ViewDetailId>%\PSCALE %<\AcVar ViewScale \f "%sn">%
 71
     4
340
A97E
 90
       25
340
A97E
 90
       25
280
     0
  0
LAYOUT
  5
AD7C
102
{ACAD_XDICTIONARY
360
ADD8
102
}
102
{ACAD_REACTORS
330
A982
102
}
330
A982
100
AcDbPlotSettings
  1

  2
Canon LBP9100C
  4

  6

 40
0.0
 41
0.0
 42
0.0
 43
0.0
 44
0.0
 45
0.0
 46
0.0
 47
0.0
 48
0.0
 49
0.0
140
0.0
141
0.0
142
1.0
143
1.0
 70
  1712
 72
     0
 73
     0
 74
     0
  7

 75
     0
147
1.0
148
0.0
149
0.0
100
AcDbLayout
  1
Model
 70
     1
 71
     0
 10
0.0
 20
0.0
 11
12.0
 21
9.0
 12
0.0
 22
0.0
 32
0.0
 14
0.0
 24
0.0
 34
0.0
 15
0.0
 25
0.0
 35
0.0
146
0.0
 13
0.0
 23
0.0
 33
0.0
 16
1.0
 26
0.0
 36
0.0
 17
0.0
 27
1.0
 37
0.0
 76
     0
330
A987
331
AD25
  0
LAYOUT
  5
AD7D
102
{ACAD_XDICTIONARY
360
ADDA
102
}
102
{ACAD_REACTORS
330
A982
102
}
330
A982
100
AcDbPlotSettings
  1

  2
Canon LBP9100C
  4

  6

 40
0.0
 41
0.0
 42
0.0
 43
0.0
 44
0.0
 45
0.0
 46
0.0
 47
0.0
 48
0.0
 49
0.0
140
0.0
141
0.0
142
1.0
143
1.0
 70
   688
 72
     0
 73
     0
 74
     5
  7

 75
    16
147
1.0
148
0.0
149
0.0
100
AcDbLayout
  1
レイアウト1
 70
     0
 71
     1
 10
0.0
 20
0.0
 11
420.0
 21
297.0
 12
0.0
 22
0.0
 32
0.0
 14
1.000000000000000E+20
 24
1.000000000000000E+20
 34
1.000000000000000E+20
 15
-1.000000000000000E+20
 25
-1.000000000000000E+20
 35
-1.000000000000000E+20
146
0.0
 13
0.0
 23
0.0
 33
0.0
 16
1.0
 26
0.0
 36
0.0
 17
0.0
 27
1.0
 37
0.0
 76
     0
330
A983
  0
MATERIAL
  5
AD38
102
{ACAD_XDICTIONARY
360
AD39
102
}
102
{ACAD_REACTORS
330
AD2F
102
}
330
AD2F
100
AcDbMaterial
  1
ByBlock
 72
     0
 43
0.0208333333333333
 43
0.0
 43
0.0
 43
0.0
 43
0.0
 43
0.0208333333333333
 43
0.0
 43
0.0
 43
0.0
 43
0.0
 43
1.0
 43
0.0
 43
0.0
 43
0.0
 43
0.0
 43
1.0
 77
     0
 47
0.0208333333333333
 47
0.0
 47
0.0
 47
0.0
 47
0.0
 47
0.0208333333333333
 47
0.0
 47
0.0
 47
0.0
 47
0.0
 47
1.0
 47
0.0
 47
0.0
 47
0.0
 47
0.0
 47
1.0
171
     0
 49
0.0208333333333333
 49
0.0
 49
0.0
 49
0.0
 49
0.0
 49
0.0208333333333333
 49
0.0
 49
0.0
 49
0.0
 49
0.0
 49
1.0
 49
0.0
 49
0.0
 49
0.0
 49
0.0
 49
1.0
175
     0
142
0.0208333333333333
142
0.0
142
0.0
142
0.0
142
0.0
142
0.0208333333333333
142
0.0
142
0.0
142
0.0
142
0.0
142
1.0
142
0.0
142
0.0
142
0.0
142
0.0
142
1.0
179
     0
144
0.0208333333333333
144
0.0
144
0.0
144
0.0
144
0.0
144
0.0208333333333333
144
0.0
144
0.0
144
0.0
144
0.0
144
1.0
144
0.0
144
0.0
144
0.0
144
0.0
144
1.0
147
0.0208333333333333
147
0.0
147
0.0
147
0.0
147
0.0
147
0.0208333333333333
147
0.0
147
0.0
147
0.0
147
0.0
147
1.0
147
0.0
147
0.0
147
0.0
147
0.0
147
1.0
  0
MATERIAL
  5
AD30
102
{ACAD_XDICTIONARY
360
AD31
102
}
102
{ACAD_REACTORS
330
AD2F
102
}
330
AD2F
100
AcDbMaterial
  1
ByLayer
 72
     0
 43
0.0208333333333333
 43
0.0
 43
0.0
 43
0.0
 43
0.0
 43
0.0208333333333333
 43
0.0
 43
0.0
 43
0.0
 43
0.0
 43
1.0
 43
0.0
 43
0.0
 43
0.0
 43
0.0
 43
1.0
 77
     0
 47
0.0208333333333333
 47
0.0
 47
0.0
 47
0.0
 47
0.0
 47
0.0208333333333333
 47
0.0
 47
0.0
 47
0.0
 47
0.0
 47
1.0
 47
0.0
 47
0.0
 47
0.0
 47
0.0
 47
1.0
171
     0
 49
0.0208333333333333
 49
0.0
 49
0.0
 49
0.0
 49
0.0
 49
0.0208333333333333
 49
0.0
 49
0.0
 49
0.0
 49
0.0
 49
1.0
 49
0.0
 49
0.0
 49
0.0
 49
0.0
 49
1.0
175
     0
142
0.0208333333333333
142
0.0
142
0.0
142
0.0
142
0.0
142
0.0208333333333333
142
0.0
142
0.0
142
0.0
142
0.0
142
1.0
142
0.0
142
0.0
142
0.0
142
0.0
142
1.0
179
     0
144
0.0208333333333333
144
0.0
144
0.0
144
0.0
144
0.0
144
0.0208333333333333
144
0.0
144
0.0
144
0.0
144
0.0
144
1.0
144
0.0
144
0.0
144
0.0
144
0.0
144
1.0
147
0.0208333333333333
147
0.0
147
0.0
147
0.0
147
0.0
147
0.0208333333333333
147
0.0
147
0.0
147
0.0
147
0.0
147
1.0
147
0.0
147
0.0
147
0.0
147
0.0
147
1.0
  0
MATERIAL
  5
AD40
102
{ACAD_XDICTIONARY
360
AD41
102
}
102
{ACAD_REACTORS
330
AD2F
102
}
330
AD2F
100
AcDbMaterial
  1
Global
 72
     0
 43
0.0208333333333333
 43
0.0
 43
0.0
 43
0.0
 43
0.0
 43
0.0208333333333333
 43
0.0
 43
0.0
 43
0.0
 43
0.0
 43
1.0
 43
0.0
 43
0.0
 43
0.0
 43
0.0
 43
1.0
 77
     0
 47
0.0208333333333333
 47
0.0
 47
0.0
 47
0.0
 47
0.0
 47
0.0208333333333333
 47
0.0
 47
0.0
 47
0.0
 47
0.0
 47
1.0
 47
0.0
 47
0.0
 47
0.0
 47
0.0
 47
1.0
171
     0
 49
0.0208333333333333
 49
0.0
 49
0.0
 49
0.0
 49
0.0
 49
0.0208333333333333
 49
0.0
 49
0.0
 49
0.0
 49
0.0
 49
1.0
 49
0.0
 49
0.0
 49
0.0
 49
0.0
 49
1.0
175
     0
142
0.0208333333333333
142
0.0
142
0.0
142
0.0
142
0.0
142
0.0208333333333333
142
0.0
142
0.0
142
0.0
142
0.0
142
1.0
142
0.0
142
0.0
142
0.0
142
0.0
142
1.0
179
     0
144
0.0208333333333333
144
0.0
144
0.0
144
0.0
144
0.0
144
0.0208333333333333
144
0.0
144
0.0
144
0.0
144
0.0
144
1.0
144
0.0
144
0.0
144
0.0
144
0.0
144
1.0
147
0.0208333333333333
147
0.0
147
0.0
147
0.0
147
0.0
147
0.0208333333333333
147
0.0
147
0.0
147
0.0
147
0.0
147
1.0
147
0.0
147
0.0
147
0.0
147
0.0
147
1.0
  0
MLEADERSTYLE
  5
AD77
102
{ACAD_REACTORS
330
AD76
102
}
330
AD76
100
AcDbMLeaderStyle
170
     2
171
     1
172
     0
 90
        2
 40
0.0
 41
0.0
173
     1
 91
-1056964608
340
A97C
 92
       -2
290
     1
 42
0.09
291
     1
 43
0.36
  3
Standard
 44
0.18
300

342
A97A
174
     1
178
     6
175
     1
176
     0
 93
-1056964608
 45
0.18
292
     0
297
     0
 46
0.18
 94
-1056964608
 47
1.0
 49
1.0
140
1.0
293
     1
141
0.0
294
     1
177
     0
142
1.0
295
     0
296
     0
143
0.125
1001
ACAD_MLEADERVER
1070
     2
  0
MLINESTYLE
  5
A980
102
{ACAD_REACTORS
330
A97F
102
}
330
A97F
100
AcDbMlineStyle
  2
STANDARD
 70
     0
  3

 62
   256
 51
90.0
 52
90.0
 71
     2
 49
0.5
 62
   256
  6
BYLAYER
 49
-0.5
 62
   256
  6
BYLAYER
  0
ACDBPLACEHOLDER
  5
AD2E
102
{ACAD_REACTORS
330
AD2D
102
}
330
AD2D
  0
SCALE
  5
AD65
102
{ACAD_REACTORS
330
AD64
102
}
330
AD64
100
AcDbScale
 70
     0
300
1:1
140
1.0
141
1.0
290
     1
  0
SCALE
  5
AD66
102
{ACAD_REACTORS
330
AD64
102
}
330
AD64
100
AcDbScale
 70
     0
300
1/128" = 1'-0"
140
0.0078125
141
12.0
290
     0
  0
SCALE
  5
AD67
102
{ACAD_REACTORS
330
AD64
102
}
330
AD64
100
AcDbScale
 70
     0
300
1/64" = 1'-0"
140
0.015625
141
12.0
290
     0
  0
SCALE
  5
AD68
102
{ACAD_REACTORS
330
AD64
102
}
330
AD64
100
AcDbScale
 70
     0
300
1/32" = 1'-0"
140
0.03125
141
12.0
290
     0
  0
SCALE
  5
AD69
102
{ACAD_REACTORS
330
AD64
102
}
330
AD64
100
AcDbScale
 70
     0
300
1/16" = 1'-0"
140
0.0625
141
12.0
290
     0
  0
SCALE
  5
AD6A
102
{ACAD_REACTORS
330
AD64
102
}
330
AD64
100
AcDbScale
 70
     0
300
3/32" = 1'-0"
140
0.09375
141
12.0
290
     0
  0
SCALE
  5
AD6B
102
{ACAD_REACTORS
330
AD64
102
}
330
AD64
100
AcDbScale
 70
     0
300
1/8" = 1'-0"
140
0.125
141
12.0
290
     0
  0
SCALE
  5
AD6C
102
{ACAD_REACTORS
330
AD64
102
}
330
AD64
100
AcDbScale
 70
     0
300
3/16" = 1'-0"
140
0.1875
141
12.0
290
     0
  0
SCALE
  5
AD6D
102
{ACAD_REACTORS
330
AD64
102
}
330
AD64
100
AcDbScale
 70
     0
300
1/4" = 1'-0"
140
0.25
141
12.0
290
     0
  0
SCALE
  5
AD6E
102
{ACAD_REACTORS
330
AD64
102
}
330
AD64
100
AcDbScale
 70
     0
300
3/8" = 1'-0"
140
0.375
141
12.0
290
     0
  0
SCALE
  5
AD6F
102
{ACAD_REACTORS
330
AD64
102
}
330
AD64
100
AcDbScale
 70
     0
300
1/2" = 1'-0"
140
0.5
141
12.0
290
     0
  0
SCALE
  5
AD70
102
{ACAD_REACTORS
330
AD64
102
}
330
AD64
100
AcDbScale
 70
     0
300
3/4" = 1'-0"
140
0.75
141
12.0
290
     0
  0
SCALE
  5
AD71
102
{ACAD_REACTORS
330
AD64
102
}
330
AD64
100
AcDbScale
 70
     0
300
1" = 1'-0"
140
1.0
141
12.0
290
     0
  0
SCALE
  5
AD72
102
{ACAD_REACTORS
330
AD64
102
}
330
AD64
100
AcDbScale
 70
     0
300
1-1/2" = 1'-0"
140
1.5
141
12.0
290
     0
  0
SCALE
  5
AD73
102
{ACAD_REACTORS
330
AD64
102
}
330
AD64
100
AcDbScale
 70
     0
300
3" = 1'-0"
140
3.0
141
12.0
290
     0
  0
SCALE
  5
AD74
102
{ACAD_REACTORS
330
AD64
102
}
330
AD64
100
AcDbScale
 70
     0
300
6" = 1'-0"
140
6.0
141
12.0
290
     0
  0
SCALE
  5
AD75
102
{ACAD_REACTORS
330
AD64
102
}
330
AD64
100
AcDbScale
 70
     0
300
1'-0" = 1'-0"
140
12.0
141
12.0
290
     0
  0
ACDBSECTIONVIEWSTYLE
  5
AD79
102
{ACAD_XDICTIONARY
360
ADD4
102
}
102
{ACAD_REACTORS
330
AD78
102
}
330
AD78
100
AcDbModelDocViewStyle
 70
     0
  3
Imperial24
290
     0
100
AcDbSectionViewStyle
 70
     0
 71
     0
 90
       78
 71
     1
340
A97A
 40
0.24
340
0
340
0
 40
0.24
300
I, O, Q, S, X, Z
 40
0.48
 90
        3
 40
0.18
 90
        1
 71
     2
340
A97E
 90
       25
340
A97E
 90
       50
 40
0.24
 40
0.0
 40
0.24
 71
     3
340
A97A
 40
0.24
 90
        1
 40
0.75
 90
        1
300
%<\AcVar ViewType \f "%tc1">% %<\AcVar ViewSectionStartId>%-%<\AcVar ViewSectionEndId>%\PSCALE %<\AcVar ViewScale \f "%sn">%
 71
     4
300
ANSI31
 40
1.0
 90
        0
290
     0
290
     0
 90
        6
 40
0.0
 40
1.570796326794896
 40
0.2617993877991494
 40
1.308996938995747
 40
-0.2617993877991494
 40
1.832595714594046
  0
TABLESTYLE
  5
AD63
102
{ACAD_XDICTIONARY
360
AD9B
102
}
102
{ACAD_REACTORS
330
AD62
102
}
330
AD62
100
AcDbTableStyle
  3
Standard
 70
     0
 71
     0
 40
0.06
 41
0.06
280
     0
281
     0
  7
STANDARD
140
0.18
170
     2
 62
     0
 63
     7
283
     0
274
    -2
284
     1
 64
     0
275
    -2
285
     1
 65
     0
276
    -2
286
     1
 66
     0
277
    -2
287
     1
 67
     0
278
    -2
288
     1
 68
     0
279
    -2
289
     1
 69
     0
  7
STANDARD
140
0.25
170
     5
 62
     0
 63
     7
283
     0
274
    -2
284
     1
 64
     0
275
    -2
285
     1
 65
     0
276
    -2
286
     1
 66
     0
277
    -2
287
     1
 67
     0
278
    -2
288
     1
 68
     0
279
    -2
289
     1
 69
     0
  7
STANDARD
140
0.18
170
     5
 62
     0
 63
     7
283
     0
274
    -2
284
     1
 64
     0
275
    -2
285
     1
 65
     0
276
    -2
286
     1
 66
     0
277
    -2
287
     1
 67
     0
278
    -2
288
     1
 68
     0
279
    -2
289
     1
 69
     0
  0
VISUALSTYLE
  5
AD4E
102
{ACAD_XDICTIONARY
360
ADAC
102
}
102
{ACAD_REACTORS
330
AD48
102
}
330
AD48
100
AcDbVisualStyle
  2
2dWireframe
 70
     4
 71
     0
 72
     2
 73
     0
 90
        0
 40
-0.6
 41
-30.0
 62
     5
 63
     7
 74
     1
 91
        4
 64
     7
 65
   257
 75
     1
175
     1
 42
1.0
 92
        0
 66
   257
 43
1.0
 76
     1
 77
     6
 78
     2
 67
     7
 79
     5
170
     0
171
     0
290
     0
174
     0
 93
        1
 44
0.0
173
     0
291
     0
 45
0.0
1001
ACAD
1000
AcDbSavedByObjectVersion
1070
     0
  0
VISUALSTYLE
  5
AD4D
102
{ACAD_XDICTIONARY
360
ADAA
102
}
102
{ACAD_REACTORS
330
AD48
102
}
330
AD48
100
AcDbVisualStyle
  2
Basic
 70
     7
 71
     1
 72
     0
 73
     1
 90
        0
 40
-0.6
 41
-30.0
 62
     5
 63
     7
 74
     0
 91
        4
 64
     7
 65
   257
 75
     1
175
     1
 42
1.0
 92
        8
 66
     7
 43
1.0
 76
     1
 77
     6
 78
     2
 67
     7
 79
     5
170
     0
171
     0
290
     0
174
     0
 93
        1
 44
0.0
173
     0
291
     1
 45
0.0
1001
ACAD
1000
AcDbSavedByObjectVersion
1070
     0
  0
VISUALSTYLE
  5
AD54
102
{ACAD_XDICTIONARY
360
ADB8
102
}
102
{ACAD_REACTORS
330
AD48
102
}
330
AD48
100
AcDbVisualStyle
  2
Brighten
 70
    12
 71
     2
 72
     2
 73
     0
 90
        0
 40
-0.6
 41
-30.0
 62
     5
 63
     7
 74
     1
 91
        4
 64
     7
 65
   257
 75
     1
175
     1
 42
1.0
 92
        8
 66
     7
 43
1.0
 76
     1
 77
     6
 78
     2
 67
     7
 79
     5
170
     0
171
     0
290
     0
174
     0
 93
        1
 44
50.0
173
     0
291
     1
 45
0.0
1001
ACAD
1000
AcDbSavedByObjectVersion
1070
     0
  0
VISUALSTYLE
  5
AD58
102
{ACAD_XDICTIONARY
360
ADC0
102
}
102
{ACAD_REACTORS
330
AD48
102
}
330
AD48
100
AcDbVisualStyle
  2
ColorChange
 70
    16
 71
     2
 72
     2
 73
     3
 90
        0
 40
-0.6
 41
-30.0
 62
     5
 63
     8
 74
     1
 91
        4
 64
     7
 65
   257
 75
     1
175
     1
 42
1.0
 92
        8
 66
     8
 43
1.0
 76
     1
 77
     6
 78
     2
 67
     7
 79
     5
170
     0
171
     0
290
     0
174
     0
 93
        1
 44
0.0
173
     0
291
     1
 45
0.0
1001
ACAD
1000
AcDbSavedByObjectVersion
1070
     0
  0
VISUALSTYLE
  5
AD51
102
{ACAD_XDICTIONARY
360
ADB2
102
}
102
{ACAD_REACTORS
330
AD48
102
}
330
AD48
100
AcDbVisualStyle
  2
Conceptual
 70
     9
 71
     3
 72
     2
 73
     0
 90
        0
 40
-0.6
 41
-30.0
 62
     5
 63
     7
 74
     2
 91
        2
 64
     7
 65
   257
 75
     1
175
     1
 42
179.0
 92
        8
 66
     7
 43
1.0
 76
     1
 77
     6
 78
     2
 67
     7
 79
     3
170
     0
171
     0
290
     0
174
     0
 93
        1
 44
0.0
173
     0
291
     0
 45
0.0
1001
ACAD
1000
AcDbSavedByObjectVersion
1070
     0
  0
VISUALSTYLE
  5
AD53
102
{ACAD_XDICTIONARY
360
ADB6
102
}
102
{ACAD_REACTORS
330
AD48
102
}
330
AD48
100
AcDbVisualStyle
  2
Dim
 70
    11
 71
     2
 72
     2
 73
     0
 90
        0
 40
-0.6
 41
-30.0
 62
     5
 63
     7
 74
     1
 91
        4
 64
     7
 65
   257
 75
     1
175
     1
 42
1.0
 92
        8
 66
     7
 43
1.0
 76
     1
 77
     6
 78
     2
 67
     7
 79
     5
170
     0
171
     0
290
     0
174
     0
 93
        1
 44
-50.0
173
     0
291
     1
 45
0.0
1001
ACAD
1000
AcDbSavedByObjectVersion
1070
     0
  0
VISUALSTYLE
  5
AD60
102
{ACAD_XDICTIONARY
360
ADD0
102
}
102
{ACAD_REACTORS
330
AD48
102
}
330
AD48
100
AcDbVisualStyle
  2
EdgeColorOff
 70
    22
 71
     2
 72
     2
 73
     0
 90
        0
 40
-0.6
 41
-30.0
 62
     5
 63
     7
 74
     1
 91
        4
 64
     7
 65
   257
 75
     1
175
     1
 42
1.0
 92
        8
 66
     7
 43
1.0
 76
     1
 77
     6
 78
     2
 67
     7
 79
     5
170
     0
171
     0
290
     0
174
     0
 93
        1
 44
0.0
173
     0
291
     1
 45
0.0
1001
ACAD
1000
AcDbSavedByObjectVersion
1070
     0
  0
VISUALSTYLE
  5
AD57
102
{ACAD_XDICTIONARY
360
ADBE
102
}
102
{ACAD_REACTORS
330
AD48
102
}
330
AD48
100
AcDbVisualStyle
  2
Facepattern
 70
    15
 71
     2
 72
     2
 73
     0
 90
        0
 40
-0.6
 41
-30.0
 62
     5
 63
     7
 74
     1
 91
        4
 64
     7
 65
   257
 75
     1
175
     1
 42
1.0
 92
        8
 66
     7
 43
1.0
 76
     1
 77
     6
 78
     2
 67
     7
 79
     5
170
     0
171
     0
290
     0
174
     0
 93
        1
 44
0.0
173
     0
291
     1
 45
0.0
1001
ACAD
1000
AcDbSavedByObjectVersion
1070
     0
  0
VISUALSTYLE
  5
AD49
102
{ACAD_XDICTIONARY
360
ADA2
102
}
102
{ACAD_REACTORS
330
AD48
102
}
330
AD48
100
AcDbVisualStyle
  2
Flat
 70
     0
 71
     2
 72
     1
 73
     1
 90
        2
 40
-0.6
 41
30.0
 62
     5
 63
     7
 74
     0
 91
        0
 64
     7
 65
   257
 75
     1
175
     1
 42
1.0
 92
        8
 66
     7
 43
1.0
 76
     1
 77
     6
 78
     2
 67
     7
 79
     5
170
     0
171
     0
290
     0
174
     0
 93
       13
 44
0.0
173
     0
291
     1
 45
0.0
1001
ACAD
1000
AcDbSavedByObjectVersion
1070
     0
  0
VISUALSTYLE
  5
AD4A
102
{ACAD_XDICTIONARY
360
ADA4
102
}
102
{ACAD_REACTORS
330
AD48
102
}
330
AD48
100
AcDbVisualStyle
  2
FlatWithEdges
 70
     1
 71
     2
 72
     1
 73
     1
 90
        2
 40
-0.6
 41
30.0
 62
     5
 63
     7
 74
     1
 91
        0
 64
     7
 65
   257
 75
     1
175
     1
 42
1.0
 92
        0
 66
   257
 43
1.0
 76
     1
 77
     6
 78
     2
 67
     7
 79
     5
170
     0
171
     0
290
     0
174
     0
 93
       13
 44
0.0
173
     0
291
     1
 45
0.0
1001
ACAD
1000
AcDbSavedByObjectVersion
1070
     0
  0
VISUALSTYLE
  5
AD4B
102
{ACAD_XDICTIONARY
360
ADA6
102
}
102
{ACAD_REACTORS
330
AD48
102
}
330
AD48
100
AcDbVisualStyle
  2
Gouraud
 70
     2
 71
     2
 72
     2
 73
     1
 90
        2
 40
-0.6
 41
30.0
 62
     5
 63
     7
 74
     0
 91
        0
 64
     7
 65
   257
 75
     1
175
     1
 42
1.0
 92
        0
 66
     7
 43
1.0
 76
     1
 77
     6
 78
     2
 67
     7
 79
     5
170
     0
171
     0
290
     0
174
     0
 93
       13
 44
0.0
173
     0
291
     1
 45
0.0
1001
ACAD
1000
AcDbSavedByObjectVersion
1070
     0
  0
VISUALSTYLE
  5
AD4C
102
{ACAD_XDICTIONARY
360
ADA8
102
}
102
{ACAD_REACTORS
330
AD48
102
}
330
AD48
100
AcDbVisualStyle
  2
GouraudWithEdges
 70
     3
 71
     2
 72
     2
 73
     1
 90
        2
 40
-0.6
 41
30.0
 62
     5
 63
     7
 74
     1
 91
        0
 64
     7
 65
   257
 75
     1
175
     1
 42
1.0
 92
        0
 66
   257
 43
1.0
 76
     1
 77
     6
 78
     2
 67
     7
 79
     5
170
     0
171
     0
290
     0
174
     0
 93
       13
 44
0.0
173
     0
291
     1
 45
0.0
1001
ACAD
1000
AcDbSavedByObjectVersion
1070
     0
  0
VISUALSTYLE
  5
AD50
102
{ACAD_XDICTIONARY
360
ADB0
102
}
102
{ACAD_REACTORS
330
AD48
102
}
330
AD48
100
AcDbVisualStyle
  2
Hidden
 70
     6
 71
     1
 72
     2
 73
     2
 90
        0
 40
-0.6
 41
-30.0
 62
     5
 63
     7
 74
     2
 91
        2
 64
     7
 65
   257
 75
     2
175
     1
 42
40.0
 92
        0
 66
   257
 43
1.0
 76
     1
 77
     6
 78
     2
 67
     7
 79
     3
170
     0
171
     0
290
     0
174
     0
 93
        1
 44
0.0
173
     0
291
     0
 45
0.0
1001
ACAD
1000
AcDbSavedByObjectVersion
1070
     0
  0
VISUALSTYLE
  5
AD5E
102
{ACAD_XDICTIONARY
360
ADCC
102
}
102
{ACAD_REACTORS
330
AD48
102
}
330
AD48
100
AcDbVisualStyle
  2
JitterOff
 70
    20
 71
     2
 72
     2
 73
     0
 90
        0
 40
-0.6
 41
-30.0
 62
     5
 63
     7
 74
     1
 91
        4
 64
     7
 65
   257
 75
     1
175
     1
 42
1.0
 92
       10
 66
     7
 43
1.0
 76
     1
 77
     6
 78
     2
 67
     7
 79
     5
170
     0
171
     0
290
     0
174
     0
 93
        1
 44
0.0
173
     0
291
     1
 45
0.0
1001
ACAD
1000
AcDbSavedByObjectVersion
1070
     0
  0
VISUALSTYLE
  5
AD56
102
{ACAD_XDICTIONARY
360
ADBC
102
}
102
{ACAD_REACTORS
330
AD48
102
}
330
AD48
100
AcDbVisualStyle
  2
Linepattern
 70
    14
 71
     2
 72
     2
 73
     0
 90
        0
 40
-0.6
 41
-30.0
 62
     5
 63
     7
 74
     1
 91
        4
 64
     7
 65
   257
 75
     7
175
     7
 42
1.0
 92
        8
 66
     7
 43
1.0
 76
     1
 77
     6
 78
     2
 67
     7
 79
     5
170
     0
171
     0
290
     0
174
     0
 93
        1
 44
0.0
173
     0
291
     1
 45
0.0
1001
ACAD
1000
AcDbSavedByObjectVersion
1070
     0
  0
VISUALSTYLE
  5
AD5F
102
{ACAD_XDICTIONARY
360
ADCE
102
}
102
{ACAD_REACTORS
330
AD48
102
}
330
AD48
100
AcDbVisualStyle
  2
OverhangOff
 70
    21
 71
     2
 72
     2
 73
     0
 90
        0
 40
-0.6
 41
-30.0
 62
     5
 63
     7
 74
     1
 91
        4
 64
     7
 65
   257
 75
     1
175
     1
 42
1.0
 92
        9
 66
     7
 43
1.0
 76
     1
 77
     6
 78
     2
 67
     7
 79
     5
170
     0
171
     0
290
     0
174
     0
 93
        1
 44
0.0
173
     0
291
     1
 45
0.0
1001
ACAD
1000
AcDbSavedByObjectVersion
1070
     0
  0
VISUALSTYLE
  5
AD52
102
{ACAD_XDICTIONARY
360
ADB4
102
}
102
{ACAD_REACTORS
330
AD48
102
}
330
AD48
100
AcDbVisualStyle
  2
Realistic
 70
     8
 71
     2
 72
     3
 73
     0
 90
        2
 40
-0.6
 41
30.0
 62
     5
 63
     7
 74
     0
 91
        0
 64
     7
 65
   257
 75
     1
175
     1
 42
1.0
 92
        8
 66
   257
 43
1.0
 76
     1
 77
     6
 78
     2
 67
     7
 79
     3
170
     0
171
     0
290
     0
174
     0
 93
       13
 44
0.0
173
     0
291
     0
 45
0.0
1001
ACAD
1000
AcDbSavedByObjectVersion
1070
     0
  0
VISUALSTYLE
  5
AD5D
102
{ACAD_XDICTIONARY
360
ADCA
102
}
102
{ACAD_REACTORS
330
AD48
102
}
330
AD48
100
AcDbVisualStyle
  2
Shaded
 70
    27
 71
     2
 72
     2
 73
     1
 90
        2
 40
-0.6
 41
30.0
 62
     5
 63
     7
 74
     0
 91
        4
 64
     7
 65
   257
 75
     1
175
     1
 42
1.0
 92
        8
 66
   257
 43
1.0
 76
     1
 77
     6
 78
     2
 67
     8
 79
     3
170
     0
171
     0
290
     0
174
     0
 93
        5
 44
0.0
173
     0
291
     0
 45
0.0
1001
ACAD
1000
AcDbSavedByObjectVersion
1070
     0
  0
VISUALSTYLE
  5
AD5C
102
{ACAD_XDICTIONARY
360
ADC8
102
}
102
{ACAD_REACTORS
330
AD48
102
}
330
AD48
100
AcDbVisualStyle
  2
Shaded with edges
 70
    26
 71
     2
 72
     2
 73
     1
 90
        2
 40
-0.6
 41
30.0
 62
     5
 63
     7
 74
     1
 91
       10
 64
     7
 65
   257
 75
     2
175
     1
 42
1.0
 92
        8
 66
   257
 43
1.0
 76
     1
 77
     6
 78
     2
 67
     7
 79
     3
170
     0
171
     0
290
     0
174
     0
 93
        5
 44
0.0
173
     0
291
     0
 45
0.0
1001
ACAD
1000
AcDbSavedByObjectVersion
1070
     0
  0
VISUALSTYLE
  5
AD59
102
{ACAD_XDICTIONARY
360
ADC2
102
}
102
{ACAD_REACTORS
330
AD48
102
}
330
AD48
100
AcDbVisualStyle
  2
Shades of Gray
 70
    23
 71
     2
 72
     2
 73
     3
 90
        0
 40
-0.6
 41
-30.0
 62
     5
 63
     7
 74
     2
 91
        2
 64
     7
 65
     7
 75
     1
175
     1
 42
40.0
 92
        8
 66
     7
 43
1.0
 76
     1
 77
     6
 78
     2
 67
     7
 79
     3
170
     0
171
     0
290
     0
174
     0
 93
        1
 44
0.0
173
     0
291
     0
 45
0.0
1001
ACAD
1000
AcDbSavedByObjectVersion
1070
     0
  0
VISUALSTYLE
  5
AD5A
102
{ACAD_XDICTIONARY
360
ADC4
102
}
102
{ACAD_REACTORS
330
AD48
102
}
330
AD48
100
AcDbVisualStyle
  2
Sketchy
 70
    24
 71
     1
 72
     2
 73
     2
 90
        0
 40
-0.6
 41
-30.0
 62
     5
 63
     7
 74
     2
 91
        2
 64
     7
 65
     7
 75
     1
175
     1
 42
40.0
 92
       11
 66
     7
 43
1.0
 76
     1
 77
     6
 78
     2
 67
     7
 79
     6
170
     0
171
     0
290
     0
174
     0
 93
        1
 44
0.0
173
     0
291
     0
 45
0.0
1001
ACAD
1000
AcDbSavedByObjectVersion
1070
     0
  0
VISUALSTYLE
  5
AD55
102
{ACAD_XDICTIONARY
360
ADBA
102
}
102
{ACAD_REACTORS
330
AD48
102
}
330
AD48
100
AcDbVisualStyle
  2
Thicken
 70
    13
 71
     2
 72
     2
 73
     0
 90
        0
 40
-0.6
 41
-30.0
 62
     5
 63
     7
 74
     1
 91
        4
 64
     7
 65
   257
 75
     1
175
     1
 42
1.0
 92
       12
 66
     7
 43
1.0
 76
     1
 77
     6
 78
     2
 67
     7
 79
     5
170
     0
171
     0
290
     0
174
     0
 93
        1
 44
0.0
173
     0
291
     1
 45
0.0
1001
ACAD
1000
AcDbSavedByObjectVersion
1070
     0
  0
VISUALSTYLE
  5
AD4F
102
{ACAD_XDICTIONARY
360
ADAE
102
}
102
{ACAD_REACTORS
330
AD48
102
}
330
AD48
100
AcDbVisualStyle
  2
Wireframe
 70
     5
 71
     0
 72
     2
 73
     0
 90
        0
 40
-0.6
 41
-30.0
 62
     5
 63
     7
 74
     1
 91
        4
 64
     7
 65
   257
 75
     1
175
     1
 42
1.0
 92
        0
 66
   257
 43
1.0
 76
     1
 77
     6
 78
     2
 67
     7
 79
     3
170
     0
171
     0
290
     0
174
     0
 93
        1
 44
0.0
173
     0
291
     0
 45
0.0
1001
ACAD
1000
AcDbSavedByObjectVersion
1070
     0
  0
VISUALSTYLE
  5
AD5B
102
{ACAD_XDICTIONARY
360
ADC6
102
}
102
{ACAD_REACTORS
330
AD48
102
}
330
AD48
100
AcDbVisualStyle
  2
X-Ray
 70
    25
 71
     2
 72
     2
 73
     1
 90
        1
 40
0.5
 41
-30.0
 62
     5
 63
     7
 74
     1
 91
        0
 64
     7
 65
   257
 75
     1
175
     1
 42
1.0
 92
        8
 66
     7
 43
1.0
 76
     1
 77
     6
 78
     2
 67
     7
 79
     3
170
     0
171
     0
290
     0
174
     0
 93
       13
 44
0.0
173
     0
291
     0
 45
0.0
1001
ACAD
1000
AcDbSavedByObjectVersion
1070
     0
  0
DICTIONARYVAR
  5
AD95
102
{ACAD_REACTORS
330
AD90
102
}
330
AD90
100
DictionaryVariables
280
     0
  1
1:1
  0
DICTIONARYVAR
  5
AD92
102
{ACAD_REACTORS
330
AD90
102
}
330
AD90
100
DictionaryVariables
280
     0
  1
STANDARD
  0
DICTIONARYVAR
  5
AD91
102
{ACAD_REACTORS
330
AD90
102
}
330
AD90
100
DictionaryVariables
280
     0
  1
STANDARD
  0
DICTIONARYVAR
  5
AD93
102
{ACAD_REACTORS
330
AD90
102
}
330
AD90
100
DictionaryVariables
280
     0
  1
Imperial24
  0
DICTIONARYVAR
  5
AD94
102
{ACAD_REACTORS
330
AD90
102
}
330
AD90
100
DictionaryVariables
280
     0
  1
Imperial24
  0
DICTIONARYVAR
  5
AD98
102
{ACAD_REACTORS
330
AD90
102
}
330
AD90
100
DictionaryVariables
280
     0
  1
1
  0
DICTIONARYVAR
  5
AD97
102
{ACAD_REACTORS
330
AD90
102
}
330
AD90
100
DictionaryVariables
280
     0
  1
0
  0
DICTIONARYVAR
  5
AD96
102
{ACAD_REACTORS
330
AD90
102
}
330
AD90
100
DictionaryVariables
280
     0
  1
127
  0
DICTIONARYVAR
  5
AD99
102
{ACAD_REACTORS
330
AD90
102
}
330
AD90
100
DictionaryVariables
280
     0
  1
2
  0
DICTIONARY
  5
ADD6
330
AD7B
100
AcDbDictionary
280
     1
281
     1
  3
ACAD_XREC_ROUNDTRIP
360
ADD7
  0
DICTIONARY
  5
ADD8
330
AD7C
100
AcDbDictionary
280
     1
281
     1
  3
ACAD_XREC_ROUNDTRIP
360
ADD9
  0
DICTIONARY
  5
ADDA
330
AD7D
100
AcDbDictionary
280
     1
281
     1
  3
ACAD_XREC_ROUNDTRIP
360
ADDB
  0
DICTIONARY
  5
AD39
330
AD38
100
AcDbDictionary
280
     1
281
     1
  3
ACAD_XREC_ROUNDTRIP
360
ADA0
  3
BUMPTILE
360
AD3B
  3
DIFFUSETILE
360
AD3A
  3
OPACITYTILE
360
AD3E
  3
REFLECTIONTILE
360
AD3D
  3
REFRACTIONTILE
360
AD3F
  3
SPECULARTILE
360
AD3C
  0
DICTIONARY
  5
AD31
330
AD30
100
AcDbDictionary
280
     1
281
     1
  3
ACAD_XREC_ROUNDTRIP
360
AD9F
  3
BUMPTILE
360
AD33
  3
DIFFUSETILE
360
AD32
  3
OPACITYTILE
360
AD36
  3
REFLECTIONTILE
360
AD35
  3
REFRACTIONTILE
360
AD37
  3
SPECULARTILE
360
AD34
  0
DICTIONARY
  5
AD41
330
AD40
100
AcDbDictionary
280
     1
281
     1
  3
ACAD_XREC_ROUNDTRIP
360
ADA1
  3
BUMPTILE
360
AD43
  3
DIFFUSETILE
360
AD42
  3
OPACITYTILE
360
AD46
  3
REFLECTIONTILE
360
AD45
  3
REFRACTIONTILE
360
AD47
  3
SPECULARTILE
360
AD44
  0
DICTIONARY
  5
ADD4
330
AD79
100
AcDbDictionary
280
     1
281
     1
  3
ACAD_XREC_ROUNDTRIP
360
ADD5
  0
DICTIONARY
  5
AD9B
330
AD63
100
AcDbDictionary
280
     1
281
     1
  3
ACAD_ROUNDTRIP_2008_TABLESTYLE_CELLSTYLEMAP
360
AD9C
  3
ACAD_XREC_ROUNDTRIP
360
ADD2
  0
DICTIONARY
  5
ADAC
330
AD4E
100
AcDbDictionary
280
     1
281
     1
  3
ACAD_XREC_ROUNDTRIP
360
ADAD
  0
DICTIONARY
  5
ADAA
330
AD4D
100
AcDbDictionary
280
     1
281
     1
  3
ACAD_XREC_ROUNDTRIP
360
ADAB
  0
DICTIONARY
  5
ADB8
330
AD54
100
AcDbDictionary
280
     1
281
     1
  3
ACAD_XREC_ROUNDTRIP
360
ADB9
  0
DICTIONARY
  5
ADC0
330
AD58
100
AcDbDictionary
280
     1
281
     1
  3
ACAD_XREC_ROUNDTRIP
360
ADC1
  0
DICTIONARY
  5
ADB2
330
AD51
100
AcDbDictionary
280
     1
281
     1
  3
ACAD_XREC_ROUNDTRIP
360
ADB3
  0
DICTIONARY
  5
ADB6
330
AD53
100
AcDbDictionary
280
     1
281
     1
  3
ACAD_XREC_ROUNDTRIP
360
ADB7
  0
DICTIONARY
  5
ADD0
330
AD60
100
AcDbDictionary
280
     1
281
     1
  3
ACAD_XREC_ROUNDTRIP
360
ADD1
  0
DICTIONARY
  5
ADBE
330
AD57
100
AcDbDictionary
280
     1
281
     1
  3
ACAD_XREC_ROUNDTRIP
360
ADBF
  0
DICTIONARY
  5
ADA2
330
AD49
100
AcDbDictionary
280
     1
281
     1
  3
ACAD_XREC_ROUNDTRIP
360
ADA3
  0
DICTIONARY
  5
ADA4
330
AD4A
100
AcDbDictionary
280
     1
281
     1
  3
ACAD_XREC_ROUNDTRIP
360
ADA5
  0
DICTIONARY
  5
ADA6
330
AD4B
100
AcDbDictionary
280
     1
281
     1
  3
ACAD_XREC_ROUNDTRIP
360
ADA7
  0
DICTIONARY
  5
ADA8
330
AD4C
100
AcDbDictionary
280
     1
281
     1
  3
ACAD_XREC_ROUNDTRIP
360
ADA9
  0
DICTIONARY
  5
ADB0
330
AD50
100
AcDbDictionary
280
     1
281
     1
  3
ACAD_XREC_ROUNDTRIP
360
ADB1
  0
DICTIONARY
  5
ADCC
330
AD5E
100
AcDbDictionary
280
     1
281
     1
  3
ACAD_XREC_ROUNDTRIP
360
ADCD
  0
DICTIONARY
  5
ADBC
330
AD56
100
AcDbDictionary
280
     1
281
     1
  3
ACAD_XREC_ROUNDTRIP
360
ADBD
  0
DICTIONARY
  5
ADCE
330
AD5F
100
AcDbDictionary
280
     1
281
     1
  3
ACAD_XREC_ROUNDTRIP
360
ADCF
  0
DICTIONARY
  5
ADB4
330
AD52
100
AcDbDictionary
280
     1
281
     1
  3
ACAD_XREC_ROUNDTRIP
360
ADB5
  0
DICTIONARY
  5
ADCA
330
AD5D
100
AcDbDictionary
280
     1
281
     1
  3
ACAD_XREC_ROUNDTRIP
360
ADCB
  0
DICTIONARY
  5
ADC8
330
AD5C
100
AcDbDictionary
280
     1
281
     1
  3
ACAD_XREC_ROUNDTRIP
360
ADC9
  0
DICTIONARY
  5
ADC2
330
AD59
100
AcDbDictionary
280
     1
281
     1
  3
ACAD_XREC_ROUNDTRIP
360
ADC3
  0
DICTIONARY
  5
ADC4
330
AD5A
100
AcDbDictionary
280
     1
281
     1
  3
ACAD_XREC_ROUNDTRIP
360
ADC5
  0
DICTIONARY
  5
ADBA
330
AD55
100
AcDbDictionary
280
     1
281
     1
  3
ACAD_XREC_ROUNDTRIP
360
ADBB
  0
DICTIONARY
  5
ADAE
330
AD4F
100
AcDbDictionary
280
     1
281
     1
  3
ACAD_XREC_ROUNDTRIP
360
ADAF
  0
DICTIONARY
  5
ADC6
330
AD5B
100
AcDbDictionary
280
     1
281
     1
  3
ACAD_XREC_ROUNDTRIP
360
ADC7
  0
XRECORD
  5
ADD7
102
{ACAD_REACTORS
330
ADD6
102
}
330
ADD6
100
AcDbXrecord
280
     1
102
DISPLAYNAME
  1
Imperial24
102
FLAGS
 90
        0
  0
XRECORD
  5
ADD9
102
{ACAD_REACTORS
330
ADD8
102
}
330
ADD8
100
AcDbXrecord
280
     1
102
SHADEPLOT
 70
     0
102
SHADEPLOTRESLEVEL
 70
     2
102
SHADEPLOTCUSTOMDPI
 70
   300
  0
XRECORD
  5
ADDB
102
{ACAD_REACTORS
330
ADDA
102
}
330
ADDA
100
AcDbXrecord
280
     1
102
SHADEPLOT
 70
     0
102
SHADEPLOTRESLEVEL
 70
     2
102
SHADEPLOTCUSTOMDPI
 70
   300
  0
XRECORD
  5
ADA0
102
{ACAD_REACTORS
330
AD39
102
}
330
AD39
100
AcDbXrecord
280
     1
102
MATERIAL
148
0.0
149
0.0
149
0.0
 93
        0
 94
      127
282
     0
 72
     0
 77
     0
171
     0
175
     0
179
     0
273
     0
  0
XRECORD
  5
AD3B
102
{ACAD_REACTORS
330
AD39
102
}
330
AD39
100
AcDbXrecord
280
     1
270
     1
271
     1
  0
XRECORD
  5
AD3A
102
{ACAD_REACTORS
330
AD39
102
}
330
AD39
100
AcDbXrecord
280
     1
270
     1
271
     1
  0
XRECORD
  5
AD3E
102
{ACAD_REACTORS
330
AD39
102
}
330
AD39
100
AcDbXrecord
280
     1
270
     1
271
     1
  0
XRECORD
  5
AD3D
102
{ACAD_REACTORS
330
AD39
102
}
330
AD39
100
AcDbXrecord
280
     1
270
     1
271
     1
  0
XRECORD
  5
AD3F
102
{ACAD_REACTORS
330
AD39
102
}
330
AD39
100
AcDbXrecord
280
     1
270
     1
271
     1
  0
XRECORD
  5
AD3C
102
{ACAD_REACTORS
330
AD39
102
}
330
AD39
100
AcDbXrecord
280
     1
270
     1
271
     1
  0
XRECORD
  5
AD9F
102
{ACAD_REACTORS
330
AD31
102
}
330
AD31
100
AcDbXrecord
280
     1
102
MATERIAL
148
0.0
149
0.0
149
0.0
 93
        0
 94
      127
282
     0
 72
     0
 77
     0
171
     0
175
     0
179
     0
273
     0
  0
XRECORD
  5
AD33
102
{ACAD_REACTORS
330
AD31
102
}
330
AD31
100
AcDbXrecord
280
     1
270
     1
271
     1
  0
XRECORD
  5
AD32
102
{ACAD_REACTORS
330
AD31
102
}
330
AD31
100
AcDbXrecord
280
     1
270
     1
271
     1
  0
XRECORD
  5
AD36
102
{ACAD_REACTORS
330
AD31
102
}
330
AD31
100
AcDbXrecord
280
     1
270
     1
271
     1
  0
XRECORD
  5
AD35
102
{ACAD_REACTORS
330
AD31
102
}
330
AD31
100
AcDbXrecord
280
     1
270
     1
271
     1
  0
XRECORD
  5
AD37
102
{ACAD_REACTORS
330
AD31
102
}
330
AD31
100
AcDbXrecord
280
     1
270
     1
271
     1
  0
XRECORD
  5
AD34
102
{ACAD_REACTORS
330
AD31
102
}
330
AD31
100
AcDbXrecord
280
     1
270
     1
271
     1
  0
XRECORD
  5
ADA1
102
{ACAD_REACTORS
330
AD41
102
}
330
AD41
100
AcDbXrecord
280
     1
102
MATERIAL
148
0.0
149
0.0
149
0.0
 93
        0
 94
      127
282
     0
 72
     0
 77
     0
171
     0
175
     0
179
     0
273
     0
  0
XRECORD
  5
AD43
102
{ACAD_REACTORS
330
AD41
102
}
330
AD41
100
AcDbXrecord
280
     1
270
     1
271
     1
  0
XRECORD
  5
AD42
102
{ACAD_REACTORS
330
AD41
102
}
330
AD41
100
AcDbXrecord
280
     1
270
     1
271
     1
  0
XRECORD
  5
AD46
102
{ACAD_REACTORS
330
AD41
102
}
330
AD41
100
AcDbXrecord
280
     1
270
     1
271
     1
  0
XRECORD
  5
AD45
102
{ACAD_REACTORS
330
AD41
102
}
330
AD41
100
AcDbXrecord
280
     1
270
     1
271
     1
  0
XRECORD
  5
AD47
102
{ACAD_REACTORS
330
AD41
102
}
330
AD41
100
AcDbXrecord
280
     1
270
     1
271
     1
  0
XRECORD
  5
AD44
102
{ACAD_REACTORS
330
AD41
102
}
330
AD41
100
AcDbXrecord
280
     1
270
     1
271
     1
  0
XRECORD
  5
ADD5
102
{ACAD_REACTORS
330
ADD4
102
}
330
ADD4
100
AcDbXrecord
280
     1
102
DISPLAYNAME
  1
Imperial24
102
FLAGS
 90
        0
  0
CELLSTYLEMAP
  5
AD9C
102
{ACAD_REACTORS
330
AD9B
102
}
330
AD9B
100
AcDbCellStyleMap
 90
        3
300
CELLSTYLE
  1
TABLEFORMAT_BEGIN
 90
        5
170
     1
 91
        0
 92
    32768
 62
   257
 93
        1
300
CONTENTFORMAT
  1
CONTENTFORMAT_BEGIN
 90
        0
 91
        0
 92
      512
 93
        0
300

 40
0.0
140
1.0
 94
        5
 62
     0
340
A97A
144
0.25
309
CONTENTFORMAT_END
171
     0
 94
        0
309
TABLEFORMAT_END
  1
CELLSTYLE_BEGIN
 90
        1
 91
        1
300
_TITLE
309
CELLSTYLE_END
300
CELLSTYLE
  1
TABLEFORMAT_BEGIN
 90
        5
170
     1
 91
        0
 92
        0
 62
   257
 93
        1
300
CONTENTFORMAT
  1
CONTENTFORMAT_BEGIN
 90
        0
 91
        0
 92
      512
 93
        0
300

 40
0.0
140
1.0
 94
        5
 62
     0
340
A97A
144
0.18
309
CONTENTFORMAT_END
171
     0
 94
        0
309
TABLEFORMAT_END
  1
CELLSTYLE_BEGIN
 90
        2
 91
        1
300
_HEADER
309
CELLSTYLE_END
300
CELLSTYLE
  1
TABLEFORMAT_BEGIN
 90
        5
170
     1
 91
        0
 92
        0
 62
   257
 93
        1
300
CONTENTFORMAT
  1
CONTENTFORMAT_BEGIN
 90
        0
 91
        0
 92
      512
 93
        0
300

 40
0.0
140
1.0
 94
        2
 62
     0
340
A97A
144
0.18
309
CONTENTFORMAT_END
171
     0
 94
        0
309
TABLEFORMAT_END
  1
CELLSTYLE_BEGIN
 90
        3
 91
        2
300
_DATA
309
CELLSTYLE_END
  0
XRECORD
  5
ADD2
102
{ACAD_REACTORS
330
AD9B
102
}
330
AD9B
100
AcDbXrecord
280
     1
102
ACAD_ROUNDTRIP_PRE2007_TABLESTYLE
 90
      512
 91
        0
  1

 92
      512
 93
        0
  2

 94
      512
 95
        0
  3

  0
XRECORD
  5
ADAD
102
{ACAD_REACTORS
330
ADAC
102
}
330
ADAC
100
AcDbXrecord
280
     1
102
RTVSPost2010Prop28
280
     1
102
RTVSPost2010PropOp28
 70
     1
102
RTVSPost2010Prop29
280
     1
102
RTVSPost2010PropOp29
 70
     1
102
RTVSPost2010Prop30
280
     0
102
RTVSPost2010PropOp30
 70
     1
102
RTVSPost2010Prop31
280
     0
102
RTVSPost2010PropOp31
 70
     1
102
RTVSPost2010Prop32
280
     0
102
RTVSPost2010PropOp32
 70
     1
102
RTVSPost2010Prop33
280
     0
102
RTVSPost2010PropOp33
 70
     1
102
RTVSPost2010Prop34
280
     0
102
RTVSPost2010PropOp34
 70
     1
102
RTVSPost2010Prop35
280
     0
102
RTVSPost2010PropOp35
 70
     1
102
RTVSPost2010Prop36
280
     0
102
RTVSPost2010PropOp36
 70
     1
102
RTVSPost2010Prop37
 90
       50
102
RTVSPost2010PropOp37
 70
     1
102
RTVSPost2010Prop38
140
0.0
102
RTVSPost2010PropOp38
 70
     1
102
RTVSPost2010Prop39
140
1.0
102
RTVSPost2010PropOp39
 70
     1
102
RTVSPost2010Prop40
 90
        0
102
RTVSPost2010PropOp40
 70
     1
102
RTVSPost2010Prop41ColorIndex
 90
       18
102
RTVSPost2010Prop41ColorRGB
 90
        0
102
RTVSPost2010PropOp41
 70
     1
102
RTVSPost2010Prop42
 90
       50
102
RTVSPost2010PropOp42
 70
     1
102
RTVSPost2010Prop43
 90
        3
102
RTVSPost2010PropOp43
 70
     1
102
RTVSPost2010Prop44ColorIndex
 90
        5
102
RTVSPost2010Prop44ColorRGB
 90
      255
102
RTVSPost2010PropOp44
 70
     1
102
RTVSPost2010Prop45
280
     0
102
RTVSPost2010PropOp45
 70
     1
102
RTVSPost2010Prop46
 90
       50
102
RTVSPost2010PropOp46
 70
     1
102
RTVSPost2010Prop47
 90
       50
102
RTVSPost2010PropOp47
 70
     1
102
RTVSPost2010Prop48
 90
       50
102
RTVSPost2010PropOp48
 70
     1
102
RTVSPost2010Prop49
280
     0
102
RTVSPost2010PropOp49
 70
     1
102
RTVSPost2010Prop50
 90
       50
102
RTVSPost2010PropOp50
 70
     1
102
RTVSPost2010Prop51ColorIndex
 90
      256
102
RTVSPost2010Prop51ColorRGB
 90
-16777216
102
RTVSPost2010PropOp51
 70
     0
102
RTVSPost2010Prop52
140
1.0
102
RTVSPost2010PropOp52
 70
     0
102
RTVSPost2010Prop53
 90
        2
102
RTVSPost2010PropOp53
 70
     1
102
RTVSPost2010Prop54
  1
strokes_ogs.tif
102
RTVSPost2010PropOp54
 70
     1
102
RTVSPost2010Prop55
280
     0
102
RTVSPost2010PropOp55
 70
     1
102
RTVSPost2010Prop56
140
1.0
102
RTVSPost2010PropOp56
 70
     1
102
RTVSPost2010Prop57
140
1.0
102
RTVSPost2010PropOp57
 70
     1
102
RTVSPropertyOp0
 70
     1
102
RTVSPropertyOp1
 70
     1
102
RTVSPropertyOp2
 70
     1
102
RTVSPropertyOp3
 70
     1
102
RTVSPropertyOp4
 70
     1
102
RTVSPropertyOp5
 70
     1
102
RTVSPropertyOp6
 70
     1
102
RTVSPropertyOp7
 70
     1
102
RTVSPropertyOp8
 70
     1
102
RTVSPropertyOp9
 70
     1
102
RTVSPropertyOp10
 70
     1
102
RTVSPropertyOp11
 70
     1
102
RTVSPropertyOp12
 70
     1
102
RTVSPropertyOp13
 70
     1
102
RTVSPropertyOp14
 70
     1
102
RTVSPropertyOp15
 70
     1
102
RTVSPropertyOp16
 70
     1
102
RTVSPropertyOp17
 70
     1
102
RTVSPropertyOp18
 70
     1
102
RTVSPropertyOp19
 70
     1
102
RTVSPropertyOp20
 70
     1
102
RTVSPropertyOp21
 70
     1
102
RTVSPropertyOp22
 70
     1
102
RTVSPropertyOp23
 70
     1
102
RTVSPropertyOp24
 70
     1
102
RTVSPropertyOp25
 70
     1
102
RTVSPropertyOp26
 70
     1
102
RTVSPropertyOp27
 70
     1
102
RTVSPropertyOp28
 70
     1
102
RTVSPropertyOp29
 70
     1
102
RTVSPropertyOp30
 70
     1
102
RTVSPropertyOp31
 70
     1
102
RTVSPropertyOp32
 70
     1
102
RTVSPropertyOp33
 70
     1
102
RTVSPropertyOp34
 70
     1
102
RTVSPropertyOp35
 70
     1
102
RTVSPropertyOp36
 70
     1
102
RTVSPropertyOp37
 70
     1
102
RTVSPropertyOp38
 70
     1
102
RTVSPropertyOp39
 70
     1
102
RTVSPropertyOp40
 70
     1
102
RTVSPropertyOp41
 70
     1
102
RTVSPropertyOp42
 70
     1
102
RTVSPropertyOp43
 70
     1
102
RTVSPropertyOp44
 70
     1
102
RTVSPropertyOp45
 70
     1
102
RTVSPropertyOp46
 70
     1
102
RTVSPropertyOp47
 70
     1
102
RTVSPropertyOp48
 70
     1
102
RTVSPropertyOp49
 70
     1
102
RTVSPropertyOp50
 70
     1
102
RTVSPropertyOp51
 70
     0
102
RTVSPropertyOp52
 70
     0
102
RTVSPropertyOp53
 70
     1
102
RTVSPropertyOp54
 70
     1
102
RTVSPropertyOp55
 70
     1
102
RTVSPropertyOp56
 70
     1
102
RTVSPropertyOp57
 70
     1
102
RTVSPropertyOp58
 70
     1
102
RTVSPropertyOp59
 70
     1
102
RTVSPropertyOp60
 70
     1
102
RTVSPropertyOp61
 70
     1
102
RTVSPropertyOp62
 70
     1
  0
XRECORD
  5
ADAB
102
{ACAD_REACTORS
330
ADAA
102
}
330
ADAA
100
AcDbXrecord
280
     1
102
RTVSPost2010Prop28
280
     0
102
RTVSPost2010PropOp28
 70
     1
102
RTVSPost2010Prop29
280
     1
102
RTVSPost2010PropOp29
 70
     1
102
RTVSPost2010Prop30
280
     1
102
RTVSPost2010PropOp30
 70
     1
102
RTVSPost2010Prop31
280
     0
102
RTVSPost2010PropOp31
 70
     1
102
RTVSPost2010Prop32
280
     0
102
RTVSPost2010PropOp32
 70
     1
102
RTVSPost2010Prop33
280
     0
102
RTVSPost2010PropOp33
 70
     1
102
RTVSPost2010Prop34
280
     0
102
RTVSPost2010PropOp34
 70
     1
102
RTVSPost2010Prop35
280
     0
102
RTVSPost2010PropOp35
 70
     1
102
RTVSPost2010Prop36
280
     0
102
RTVSPost2010PropOp36
 70
     1
102
RTVSPost2010Prop37
 90
       50
102
RTVSPost2010PropOp37
 70
     1
102
RTVSPost2010Prop38
140
0.0
102
RTVSPost2010PropOp38
 70
     1
102
RTVSPost2010Prop39
140
1.0
102
RTVSPost2010PropOp39
 70
     1
102
RTVSPost2010Prop40
 90
        0
102
RTVSPost2010PropOp40
 70
     1
102
RTVSPost2010Prop41ColorIndex
 90
       18
102
RTVSPost2010Prop41ColorRGB
 90
        0
102
RTVSPost2010PropOp41
 70
     1
102
RTVSPost2010Prop42
 90
       50
102
RTVSPost2010PropOp42
 70
     1
102
RTVSPost2010Prop43
 90
        3
102
RTVSPost2010PropOp43
 70
     1
102
RTVSPost2010Prop44ColorIndex
 90
        5
102
RTVSPost2010Prop44ColorRGB
 90
      255
102
RTVSPost2010PropOp44
 70
     1
102
RTVSPost2010Prop45
280
     0
102
RTVSPost2010PropOp45
 70
     1
102
RTVSPost2010Prop46
 90
       50
102
RTVSPost2010PropOp46
 70
     1
102
RTVSPost2010Prop47
 90
       50
102
RTVSPost2010PropOp47
 70
     1
102
RTVSPost2010Prop48
 90
       50
102
RTVSPost2010PropOp48
 70
     1
102
RTVSPost2010Prop49
280
     0
102
RTVSPost2010PropOp49
 70
     1
102
RTVSPost2010Prop50
 90
       50
102
RTVSPost2010PropOp50
 70
     1
102
RTVSPost2010Prop51ColorIndex
 90
      256
102
RTVSPost2010Prop51ColorRGB
 90
-16777216
102
RTVSPost2010PropOp51
 70
     0
102
RTVSPost2010Prop52
140
1.0
102
RTVSPost2010PropOp52
 70
     0
102
RTVSPost2010Prop53
 90
        2
102
RTVSPost2010PropOp53
 70
     1
102
RTVSPost2010Prop54
  1
strokes_ogs.tif
102
RTVSPost2010PropOp54
 70
     1
102
RTVSPost2010Prop55
280
     0
102
RTVSPost2010PropOp55
 70
     1
102
RTVSPost2010Prop56
140
1.0
102
RTVSPost2010PropOp56
 70
     1
102
RTVSPost2010Prop57
140
1.0
102
RTVSPost2010PropOp57
 70
     1
102
RTVSPropertyOp0
 70
     1
102
RTVSPropertyOp1
 70
     1
102
RTVSPropertyOp2
 70
     1
102
RTVSPropertyOp3
 70
     1
102
RTVSPropertyOp4
 70
     1
102
RTVSPropertyOp5
 70
     1
102
RTVSPropertyOp6
 70
     1
102
RTVSPropertyOp7
 70
     1
102
RTVSPropertyOp8
 70
     1
102
RTVSPropertyOp9
 70
     1
102
RTVSPropertyOp10
 70
     1
102
RTVSPropertyOp11
 70
     1
102
RTVSPropertyOp12
 70
     1
102
RTVSPropertyOp13
 70
     1
102
RTVSPropertyOp14
 70
     1
102
RTVSPropertyOp15
 70
     1
102
RTVSPropertyOp16
 70
     1
102
RTVSPropertyOp17
 70
     1
102
RTVSPropertyOp18
 70
     1
102
RTVSPropertyOp19
 70
     1
102
RTVSPropertyOp20
 70
     1
102
RTVSPropertyOp21
 70
     1
102
RTVSPropertyOp22
 70
     1
102
RTVSPropertyOp23
 70
     1
102
RTVSPropertyOp24
 70
     1
102
RTVSPropertyOp25
 70
     1
102
RTVSPropertyOp26
 70
     1
102
RTVSPropertyOp27
 70
     1
102
RTVSPropertyOp28
 70
     1
102
RTVSPropertyOp29
 70
     1
102
RTVSPropertyOp30
 70
     1
102
RTVSPropertyOp31
 70
     1
102
RTVSPropertyOp32
 70
     1
102
RTVSPropertyOp33
 70
     1
102
RTVSPropertyOp34
 70
     1
102
RTVSPropertyOp35
 70
     1
102
RTVSPropertyOp36
 70
     1
102
RTVSPropertyOp37
 70
     1
102
RTVSPropertyOp38
 70
     1
102
RTVSPropertyOp39
 70
     1
102
RTVSPropertyOp40
 70
     1
102
RTVSPropertyOp41
 70
     1
102
RTVSPropertyOp42
 70
     1
102
RTVSPropertyOp43
 70
     1
102
RTVSPropertyOp44
 70
     1
102
RTVSPropertyOp45
 70
     1
102
RTVSPropertyOp46
 70
     1
102
RTVSPropertyOp47
 70
     1
102
RTVSPropertyOp48
 70
     1
102
RTVSPropertyOp49
 70
     1
102
RTVSPropertyOp50
 70
     1
102
RTVSPropertyOp51
 70
     0
102
RTVSPropertyOp52
 70
     0
102
RTVSPropertyOp53
 70
     1
102
RTVSPropertyOp54
 70
     1
102
RTVSPropertyOp55
 70
     1
102
RTVSPropertyOp56
 70
     1
102
RTVSPropertyOp57
 70
     1
102
RTVSPropertyOp58
 70
     1
102
RTVSPropertyOp59
 70
     1
102
RTVSPropertyOp60
 70
     1
102
RTVSPropertyOp61
 70
     1
102
RTVSPropertyOp62
 70
     1
  0
XRECORD
  5
ADB9
102
{ACAD_REACTORS
330
ADB8
102
}
330
ADB8
100
AcDbXrecord
280
     1
102
RTVSPost2010Prop28
280
     0
102
RTVSPost2010PropOp28
 70
     1
102
RTVSPost2010Prop29
280
     1
102
RTVSPost2010PropOp29
 70
     1
102
RTVSPost2010Prop30
280
     1
102
RTVSPost2010PropOp30
 70
     1
102
RTVSPost2010Prop31
280
     0
102
RTVSPost2010PropOp31
 70
     1
102
RTVSPost2010Prop32
280
     0
102
RTVSPost2010PropOp32
 70
     1
102
RTVSPost2010Prop33
280
     0
102
RTVSPost2010PropOp33
 70
     1
102
RTVSPost2010Prop34
280
     0
102
RTVSPost2010PropOp34
 70
     1
102
RTVSPost2010Prop35
280
     0
102
RTVSPost2010PropOp35
 70
     1
102
RTVSPost2010Prop36
280
     0
102
RTVSPost2010PropOp36
 70
     1
102
RTVSPost2010Prop37
 90
       50
102
RTVSPost2010PropOp37
 70
     1
102
RTVSPost2010Prop38
140
0.0
102
RTVSPost2010PropOp38
 70
     1
102
RTVSPost2010Prop39
140
1.0
102
RTVSPost2010PropOp39
 70
     1
102
RTVSPost2010Prop40
 90
        0
102
RTVSPost2010PropOp40
 70
     1
102
RTVSPost2010Prop41ColorIndex
 90
       18
102
RTVSPost2010Prop41ColorRGB
 90
        0
102
RTVSPost2010PropOp41
 70
     1
102
RTVSPost2010Prop42
 90
       50
102
RTVSPost2010PropOp42
 70
     1
102
RTVSPost2010Prop43
 90
        3
102
RTVSPost2010PropOp43
 70
     1
102
RTVSPost2010Prop44ColorIndex
 90
        5
102
RTVSPost2010Prop44ColorRGB
 90
      255
102
RTVSPost2010PropOp44
 70
     1
102
RTVSPost2010Prop45
280
     0
102
RTVSPost2010PropOp45
 70
     1
102
RTVSPost2010Prop46
 90
       50
102
RTVSPost2010PropOp46
 70
     1
102
RTVSPost2010Prop47
 90
       50
102
RTVSPost2010PropOp47
 70
     1
102
RTVSPost2010Prop48
 90
       50
102
RTVSPost2010PropOp48
 70
     1
102
RTVSPost2010Prop49
280
     0
102
RTVSPost2010PropOp49
 70
     1
102
RTVSPost2010Prop50
 90
       50
102
RTVSPost2010PropOp50
 70
     1
102
RTVSPost2010Prop51ColorIndex
 90
      256
102
RTVSPost2010Prop51ColorRGB
 90
-16777216
102
RTVSPost2010PropOp51
 70
     0
102
RTVSPost2010Prop52
140
1.0
102
RTVSPost2010PropOp52
 70
     0
102
RTVSPost2010Prop53
 90
        2
102
RTVSPost2010PropOp53
 70
     1
102
RTVSPost2010Prop54
  1
strokes_ogs.tif
102
RTVSPost2010PropOp54
 70
     1
102
RTVSPost2010Prop55
280
     0
102
RTVSPost2010PropOp55
 70
     1
102
RTVSPost2010Prop56
140
1.0
102
RTVSPost2010PropOp56
 70
     1
102
RTVSPost2010Prop57
140
1.0
102
RTVSPost2010PropOp57
 70
     1
102
RTVSPropertyOp0
 70
     1
102
RTVSPropertyOp1
 70
     1
102
RTVSPropertyOp2
 70
     1
102
RTVSPropertyOp3
 70
     1
102
RTVSPropertyOp4
 70
     1
102
RTVSPropertyOp5
 70
     1
102
RTVSPropertyOp6
 70
     1
102
RTVSPropertyOp7
 70
     1
102
RTVSPropertyOp8
 70
     1
102
RTVSPropertyOp9
 70
     1
102
RTVSPropertyOp10
 70
     1
102
RTVSPropertyOp11
 70
     1
102
RTVSPropertyOp12
 70
     1
102
RTVSPropertyOp13
 70
     1
102
RTVSPropertyOp14
 70
     1
102
RTVSPropertyOp15
 70
     1
102
RTVSPropertyOp16
 70
     1
102
RTVSPropertyOp17
 70
     1
102
RTVSPropertyOp18
 70
     1
102
RTVSPropertyOp19
 70
     1
102
RTVSPropertyOp20
 70
     1
102
RTVSPropertyOp21
 70
     1
102
RTVSPropertyOp22
 70
     1
102
RTVSPropertyOp23
 70
     1
102
RTVSPropertyOp24
 70
     1
102
RTVSPropertyOp25
 70
     1
102
RTVSPropertyOp26
 70
     1
102
RTVSPropertyOp27
 70
     1
102
RTVSPropertyOp28
 70
     1
102
RTVSPropertyOp29
 70
     1
102
RTVSPropertyOp30
 70
     1
102
RTVSPropertyOp31
 70
     1
102
RTVSPropertyOp32
 70
     1
102
RTVSPropertyOp33
 70
     1
102
RTVSPropertyOp34
 70
     1
102
RTVSPropertyOp35
 70
     1
102
RTVSPropertyOp36
 70
     1
102
RTVSPropertyOp37
 70
     1
102
RTVSPropertyOp38
 70
     1
102
RTVSPropertyOp39
 70
     1
102
RTVSPropertyOp40
 70
     1
102
RTVSPropertyOp41
 70
     1
102
RTVSPropertyOp42
 70
     1
102
RTVSPropertyOp43
 70
     1
102
RTVSPropertyOp44
 70
     1
102
RTVSPropertyOp45
 70
     1
102
RTVSPropertyOp46
 70
     1
102
RTVSPropertyOp47
 70
     1
102
RTVSPropertyOp48
 70
     1
102
RTVSPropertyOp49
 70
     1
102
RTVSPropertyOp50
 70
     1
102
RTVSPropertyOp51
 70
     0
102
RTVSPropertyOp52
 70
     0
102
RTVSPropertyOp53
 70
     1
102
RTVSPropertyOp54
 70
     1
102
RTVSPropertyOp55
 70
     1
102
RTVSPropertyOp56
 70
     1
102
RTVSPropertyOp57
 70
     1
102
RTVSPropertyOp58
 70
     1
102
RTVSPropertyOp59
 70
     1
102
RTVSPropertyOp60
 70
     1
102
RTVSPropertyOp61
 70
     1
102
RTVSPropertyOp62
 70
     1
  0
XRECORD
  5
ADC1
102
{ACAD_REACTORS
330
ADC0
102
}
330
ADC0
100
AcDbXrecord
280
     1
102
RTVSPost2010Prop28
280
     0
102
RTVSPost2010PropOp28
 70
     1
102
RTVSPost2010Prop29
280
     1
102
RTVSPost2010PropOp29
 70
     1
102
RTVSPost2010Prop30
280
     1
102
RTVSPost2010PropOp30
 70
     1
102
RTVSPost2010Prop31
280
     0
102
RTVSPost2010PropOp31
 70
     1
102
RTVSPost2010Prop32
280
     0
102
RTVSPost2010PropOp32
 70
     1
102
RTVSPost2010Prop33
280
     0
102
RTVSPost2010PropOp33
 70
     1
102
RTVSPost2010Prop34
280
     0
102
RTVSPost2010PropOp34
 70
     1
102
RTVSPost2010Prop35
280
     0
102
RTVSPost2010PropOp35
 70
     1
102
RTVSPost2010Prop36
280
     0
102
RTVSPost2010PropOp36
 70
     1
102
RTVSPost2010Prop37
 90
       50
102
RTVSPost2010PropOp37
 70
     1
102
RTVSPost2010Prop38
140
0.0
102
RTVSPost2010PropOp38
 70
     1
102
RTVSPost2010Prop39
140
1.0
102
RTVSPost2010PropOp39
 70
     1
102
RTVSPost2010Prop40
 90
        0
102
RTVSPost2010PropOp40
 70
     1
102
RTVSPost2010Prop41ColorIndex
 90
       18
102
RTVSPost2010Prop41ColorRGB
 90
        0
102
RTVSPost2010PropOp41
 70
     1
102
RTVSPost2010Prop42
 90
       50
102
RTVSPost2010PropOp42
 70
     1
102
RTVSPost2010Prop43
 90
        3
102
RTVSPost2010PropOp43
 70
     1
102
RTVSPost2010Prop44ColorIndex
 90
        5
102
RTVSPost2010Prop44ColorRGB
 90
      255
102
RTVSPost2010PropOp44
 70
     1
102
RTVSPost2010Prop45
280
     0
102
RTVSPost2010PropOp45
 70
     1
102
RTVSPost2010Prop46
 90
       50
102
RTVSPost2010PropOp46
 70
     1
102
RTVSPost2010Prop47
 90
       50
102
RTVSPost2010PropOp47
 70
     1
102
RTVSPost2010Prop48
 90
       50
102
RTVSPost2010PropOp48
 70
     1
102
RTVSPost2010Prop49
280
     0
102
RTVSPost2010PropOp49
 70
     1
102
RTVSPost2010Prop50
 90
       50
102
RTVSPost2010PropOp50
 70
     1
102
RTVSPost2010Prop51ColorIndex
 90
      256
102
RTVSPost2010Prop51ColorRGB
 90
-16777216
102
RTVSPost2010PropOp51
 70
     0
102
RTVSPost2010Prop52
140
1.0
102
RTVSPost2010PropOp52
 70
     0
102
RTVSPost2010Prop53
 90
        2
102
RTVSPost2010PropOp53
 70
     1
102
RTVSPost2010Prop54
  1
strokes_ogs.tif
102
RTVSPost2010PropOp54
 70
     1
102
RTVSPost2010Prop55
280
     0
102
RTVSPost2010PropOp55
 70
     1
102
RTVSPost2010Prop56
140
1.0
102
RTVSPost2010PropOp56
 70
     1
102
RTVSPost2010Prop57
140
1.0
102
RTVSPost2010PropOp57
 70
     1
102
RTVSPropertyOp0
 70
     1
102
RTVSPropertyOp1
 70
     1
102
RTVSPropertyOp2
 70
     1
102
RTVSPropertyOp3
 70
     1
102
RTVSPropertyOp4
 70
     1
102
RTVSPropertyOp5
 70
     1
102
RTVSPropertyOp6
 70
     1
102
RTVSPropertyOp7
 70
     1
102
RTVSPropertyOp8
 70
     1
102
RTVSPropertyOp9
 70
     1
102
RTVSPropertyOp10
 70
     1
102
RTVSPropertyOp11
 70
     1
102
RTVSPropertyOp12
 70
     1
102
RTVSPropertyOp13
 70
     1
102
RTVSPropertyOp14
 70
     1
102
RTVSPropertyOp15
 70
     1
102
RTVSPropertyOp16
 70
     1
102
RTVSPropertyOp17
 70
     1
102
RTVSPropertyOp18
 70
     1
102
RTVSPropertyOp19
 70
     1
102
RTVSPropertyOp20
 70
     1
102
RTVSPropertyOp21
 70
     1
102
RTVSPropertyOp22
 70
     1
102
RTVSPropertyOp23
 70
     1
102
RTVSPropertyOp24
 70
     1
102
RTVSPropertyOp25
 70
     1
102
RTVSPropertyOp26
 70
     1
102
RTVSPropertyOp27
 70
     1
102
RTVSPropertyOp28
 70
     1
102
RTVSPropertyOp29
 70
     1
102
RTVSPropertyOp30
 70
     1
102
RTVSPropertyOp31
 70
     1
102
RTVSPropertyOp32
 70
     1
102
RTVSPropertyOp33
 70
     1
102
RTVSPropertyOp34
 70
     1
102
RTVSPropertyOp35
 70
     1
102
RTVSPropertyOp36
 70
     1
102
RTVSPropertyOp37
 70
     1
102
RTVSPropertyOp38
 70
     1
102
RTVSPropertyOp39
 70
     1
102
RTVSPropertyOp40
 70
     1
102
RTVSPropertyOp41
 70
     1
102
RTVSPropertyOp42
 70
     1
102
RTVSPropertyOp43
 70
     1
102
RTVSPropertyOp44
 70
     1
102
RTVSPropertyOp45
 70
     1
102
RTVSPropertyOp46
 70
     1
102
RTVSPropertyOp47
 70
     1
102
RTVSPropertyOp48
 70
     1
102
RTVSPropertyOp49
 70
     1
102
RTVSPropertyOp50
 70
     1
102
RTVSPropertyOp51
 70
     0
102
RTVSPropertyOp52
 70
     0
102
RTVSPropertyOp53
 70
     1
102
RTVSPropertyOp54
 70
     1
102
RTVSPropertyOp55
 70
     1
102
RTVSPropertyOp56
 70
     1
102
RTVSPropertyOp57
 70
     1
102
RTVSPropertyOp58
 70
     1
102
RTVSPropertyOp59
 70
     1
102
RTVSPropertyOp60
 70
     1
102
RTVSPropertyOp61
 70
     1
102
RTVSPropertyOp62
 70
     1
  0
XRECORD
  5
ADB3
102
{ACAD_REACTORS
330
ADB2
102
}
330
ADB2
100
AcDbXrecord
280
     1
102
RTVSPost2010Prop28
280
     0
102
RTVSPost2010PropOp28
 70
     1
102
RTVSPost2010Prop29
280
     1
102
RTVSPost2010PropOp29
 70
     1
102
RTVSPost2010Prop30
280
     1
102
RTVSPost2010PropOp30
 70
     1
102
RTVSPost2010Prop31
280
     0
102
RTVSPost2010PropOp31
 70
     1
102
RTVSPost2010Prop32
280
     0
102
RTVSPost2010PropOp32
 70
     1
102
RTVSPost2010Prop33
280
     0
102
RTVSPost2010PropOp33
 70
     1
102
RTVSPost2010Prop34
280
     0
102
RTVSPost2010PropOp34
 70
     1
102
RTVSPost2010Prop35
280
     0
102
RTVSPost2010PropOp35
 70
     1
102
RTVSPost2010Prop36
280
     0
102
RTVSPost2010PropOp36
 70
     1
102
RTVSPost2010Prop37
 90
       50
102
RTVSPost2010PropOp37
 70
     1
102
RTVSPost2010Prop38
140
0.0
102
RTVSPost2010PropOp38
 70
     1
102
RTVSPost2010Prop39
140
1.0
102
RTVSPost2010PropOp39
 70
     1
102
RTVSPost2010Prop40
 90
        0
102
RTVSPost2010PropOp40
 70
     1
102
RTVSPost2010Prop41ColorIndex
 90
       18
102
RTVSPost2010Prop41ColorRGB
 90
        0
102
RTVSPost2010PropOp41
 70
     1
102
RTVSPost2010Prop42
 90
       50
102
RTVSPost2010PropOp42
 70
     1
102
RTVSPost2010Prop43
 90
        3
102
RTVSPost2010PropOp43
 70
     1
102
RTVSPost2010Prop44ColorIndex
 90
        5
102
RTVSPost2010Prop44ColorRGB
 90
      255
102
RTVSPost2010PropOp44
 70
     1
102
RTVSPost2010Prop45
280
     0
102
RTVSPost2010PropOp45
 70
     1
102
RTVSPost2010Prop46
 90
       50
102
RTVSPost2010PropOp46
 70
     1
102
RTVSPost2010Prop47
 90
       50
102
RTVSPost2010PropOp47
 70
     1
102
RTVSPost2010Prop48
 90
       50
102
RTVSPost2010PropOp48
 70
     1
102
RTVSPost2010Prop49
280
     0
102
RTVSPost2010PropOp49
 70
     1
102
RTVSPost2010Prop50
 90
       50
102
RTVSPost2010PropOp50
 70
     1
102
RTVSPost2010Prop51ColorIndex
 90
      256
102
RTVSPost2010Prop51ColorRGB
 90
-16777216
102
RTVSPost2010PropOp51
 70
     0
102
RTVSPost2010Prop52
140
1.0
102
RTVSPost2010PropOp52
 70
     0
102
RTVSPost2010Prop53
 90
        2
102
RTVSPost2010PropOp53
 70
     1
102
RTVSPost2010Prop54
  1
strokes_ogs.tif
102
RTVSPost2010PropOp54
 70
     1
102
RTVSPost2010Prop55
280
     0
102
RTVSPost2010PropOp55
 70
     1
102
RTVSPost2010Prop56
140
1.0
102
RTVSPost2010PropOp56
 70
     1
102
RTVSPost2010Prop57
140
1.0
102
RTVSPost2010PropOp57
 70
     1
102
RTVSPropertyOp0
 70
     1
102
RTVSPropertyOp1
 70
     1
102
RTVSPropertyOp2
 70
     1
102
RTVSPropertyOp3
 70
     1
102
RTVSPropertyOp4
 70
     1
102
RTVSPropertyOp5
 70
     1
102
RTVSPropertyOp6
 70
     1
102
RTVSPropertyOp7
 70
     1
102
RTVSPropertyOp8
 70
     1
102
RTVSPropertyOp9
 70
     1
102
RTVSPropertyOp10
 70
     1
102
RTVSPropertyOp11
 70
     1
102
RTVSPropertyOp12
 70
     1
102
RTVSPropertyOp13
 70
     1
102
RTVSPropertyOp14
 70
     1
102
RTVSPropertyOp15
 70
     1
102
RTVSPropertyOp16
 70
     1
102
RTVSPropertyOp17
 70
     1
102
RTVSPropertyOp18
 70
     1
102
RTVSPropertyOp19
 70
     1
102
RTVSPropertyOp20
 70
     1
102
RTVSPropertyOp21
 70
     1
102
RTVSPropertyOp22
 70
     1
102
RTVSPropertyOp23
 70
     1
102
RTVSPropertyOp24
 70
     1
102
RTVSPropertyOp25
 70
     1
102
RTVSPropertyOp26
 70
     1
102
RTVSPropertyOp27
 70
     1
102
RTVSPropertyOp28
 70
     1
102
RTVSPropertyOp29
 70
     1
102
RTVSPropertyOp30
 70
     1
102
RTVSPropertyOp31
 70
     1
102
RTVSPropertyOp32
 70
     1
102
RTVSPropertyOp33
 70
     1
102
RTVSPropertyOp34
 70
     1
102
RTVSPropertyOp35
 70
     1
102
RTVSPropertyOp36
 70
     1
102
RTVSPropertyOp37
 70
     1
102
RTVSPropertyOp38
 70
     1
102
RTVSPropertyOp39
 70
     1
102
RTVSPropertyOp40
 70
     1
102
RTVSPropertyOp41
 70
     1
102
RTVSPropertyOp42
 70
     1
102
RTVSPropertyOp43
 70
     1
102
RTVSPropertyOp44
 70
     1
102
RTVSPropertyOp45
 70
     1
102
RTVSPropertyOp46
 70
     1
102
RTVSPropertyOp47
 70
     1
102
RTVSPropertyOp48
 70
     1
102
RTVSPropertyOp49
 70
     1
102
RTVSPropertyOp50
 70
     1
102
RTVSPropertyOp51
 70
     0
102
RTVSPropertyOp52
 70
     0
102
RTVSPropertyOp53
 70
     1
102
RTVSPropertyOp54
 70
     1
102
RTVSPropertyOp55
 70
     1
102
RTVSPropertyOp56
 70
     1
102
RTVSPropertyOp57
 70
     1
102
RTVSPropertyOp58
 70
     1
102
RTVSPropertyOp59
 70
     1
102
RTVSPropertyOp60
 70
     1
102
RTVSPropertyOp61
 70
     1
102
RTVSPropertyOp62
 70
     1
  0
XRECORD
  5
ADB7
102
{ACAD_REACTORS
330
ADB6
102
}
330
ADB6
100
AcDbXrecord
280
     1
102
RTVSPost2010Prop28
280
     0
102
RTVSPost2010PropOp28
 70
     1
102
RTVSPost2010Prop29
280
     1
102
RTVSPost2010PropOp29
 70
     1
102
RTVSPost2010Prop30
280
     1
102
RTVSPost2010PropOp30
 70
     1
102
RTVSPost2010Prop31
280
     0
102
RTVSPost2010PropOp31
 70
     1
102
RTVSPost2010Prop32
280
     0
102
RTVSPost2010PropOp32
 70
     1
102
RTVSPost2010Prop33
280
     0
102
RTVSPost2010PropOp33
 70
     1
102
RTVSPost2010Prop34
280
     0
102
RTVSPost2010PropOp34
 70
     1
102
RTVSPost2010Prop35
280
     0
102
RTVSPost2010PropOp35
 70
     1
102
RTVSPost2010Prop36
280
     0
102
RTVSPost2010PropOp36
 70
     1
102
RTVSPost2010Prop37
 90
       50
102
RTVSPost2010PropOp37
 70
     1
102
RTVSPost2010Prop38
140
0.0
102
RTVSPost2010PropOp38
 70
     1
102
RTVSPost2010Prop39
140
1.0
102
RTVSPost2010PropOp39
 70
     1
102
RTVSPost2010Prop40
 90
        0
102
RTVSPost2010PropOp40
 70
     1
102
RTVSPost2010Prop41ColorIndex
 90
       18
102
RTVSPost2010Prop41ColorRGB
 90
        0
102
RTVSPost2010PropOp41
 70
     1
102
RTVSPost2010Prop42
 90
       50
102
RTVSPost2010PropOp42
 70
     1
102
RTVSPost2010Prop43
 90
        3
102
RTVSPost2010PropOp43
 70
     1
102
RTVSPost2010Prop44ColorIndex
 90
        5
102
RTVSPost2010Prop44ColorRGB
 90
      255
102
RTVSPost2010PropOp44
 70
     1
102
RTVSPost2010Prop45
280
     0
102
RTVSPost2010PropOp45
 70
     1
102
RTVSPost2010Prop46
 90
       50
102
RTVSPost2010PropOp46
 70
     1
102
RTVSPost2010Prop47
 90
       50
102
RTVSPost2010PropOp47
 70
     1
102
RTVSPost2010Prop48
 90
       50
102
RTVSPost2010PropOp48
 70
     1
102
RTVSPost2010Prop49
280
     0
102
RTVSPost2010PropOp49
 70
     1
102
RTVSPost2010Prop50
 90
       50
102
RTVSPost2010PropOp50
 70
     1
102
RTVSPost2010Prop51ColorIndex
 90
      256
102
RTVSPost2010Prop51ColorRGB
 90
-16777216
102
RTVSPost2010PropOp51
 70
     0
102
RTVSPost2010Prop52
140
1.0
102
RTVSPost2010PropOp52
 70
     0
102
RTVSPost2010Prop53
 90
        2
102
RTVSPost2010PropOp53
 70
     1
102
RTVSPost2010Prop54
  1
strokes_ogs.tif
102
RTVSPost2010PropOp54
 70
     1
102
RTVSPost2010Prop55
280
     0
102
RTVSPost2010PropOp55
 70
     1
102
RTVSPost2010Prop56
140
1.0
102
RTVSPost2010PropOp56
 70
     1
102
RTVSPost2010Prop57
140
1.0
102
RTVSPost2010PropOp57
 70
     1
102
RTVSPropertyOp0
 70
     1
102
RTVSPropertyOp1
 70
     1
102
RTVSPropertyOp2
 70
     1
102
RTVSPropertyOp3
 70
     1
102
RTVSPropertyOp4
 70
     1
102
RTVSPropertyOp5
 70
     1
102
RTVSPropertyOp6
 70
     1
102
RTVSPropertyOp7
 70
     1
102
RTVSPropertyOp8
 70
     1
102
RTVSPropertyOp9
 70
     1
102
RTVSPropertyOp10
 70
     1
102
RTVSPropertyOp11
 70
     1
102
RTVSPropertyOp12
 70
     1
102
RTVSPropertyOp13
 70
     1
102
RTVSPropertyOp14
 70
     1
102
RTVSPropertyOp15
 70
     1
102
RTVSPropertyOp16
 70
     1
102
RTVSPropertyOp17
 70
     1
102
RTVSPropertyOp18
 70
     1
102
RTVSPropertyOp19
 70
     1
102
RTVSPropertyOp20
 70
     1
102
RTVSPropertyOp21
 70
     1
102
RTVSPropertyOp22
 70
     1
102
RTVSPropertyOp23
 70
     1
102
RTVSPropertyOp24
 70
     1
102
RTVSPropertyOp25
 70
     1
102
RTVSPropertyOp26
 70
     1
102
RTVSPropertyOp27
 70
     1
102
RTVSPropertyOp28
 70
     1
102
RTVSPropertyOp29
 70
     1
102
RTVSPropertyOp30
 70
     1
102
RTVSPropertyOp31
 70
     1
102
RTVSPropertyOp32
 70
     1
102
RTVSPropertyOp33
 70
     1
102
RTVSPropertyOp34
 70
     1
102
RTVSPropertyOp35
 70
     1
102
RTVSPropertyOp36
 70
     1
102
RTVSPropertyOp37
 70
     1
102
RTVSPropertyOp38
 70
     1
102
RTVSPropertyOp39
 70
     1
102
RTVSPropertyOp40
 70
     1
102
RTVSPropertyOp41
 70
     1
102
RTVSPropertyOp42
 70
     1
102
RTVSPropertyOp43
 70
     1
102
RTVSPropertyOp44
 70
     1
102
RTVSPropertyOp45
 70
     1
102
RTVSPropertyOp46
 70
     1
102
RTVSPropertyOp47
 70
     1
102
RTVSPropertyOp48
 70
     1
102
RTVSPropertyOp49
 70
     1
102
RTVSPropertyOp50
 70
     1
102
RTVSPropertyOp51
 70
     0
102
RTVSPropertyOp52
 70
     0
102
RTVSPropertyOp53
 70
     1
102
RTVSPropertyOp54
 70
     1
102
RTVSPropertyOp55
 70
     1
102
RTVSPropertyOp56
 70
     1
102
RTVSPropertyOp57
 70
     1
102
RTVSPropertyOp58
 70
     1
102
RTVSPropertyOp59
 70
     1
102
RTVSPropertyOp60
 70
     1
102
RTVSPropertyOp61
 70
     1
102
RTVSPropertyOp62
 70
     1
  0
XRECORD
  5
ADD1
102
{ACAD_REACTORS
330
ADD0
102
}
330
ADD0
100
AcDbXrecord
280
     1
102
RTVSPost2010Prop28
280
     0
102
RTVSPost2010PropOp28
 70
     1
102
RTVSPost2010Prop29
280
     1
102
RTVSPost2010PropOp29
 70
     1
102
RTVSPost2010Prop30
280
     1
102
RTVSPost2010PropOp30
 70
     1
102
RTVSPost2010Prop31
280
     0
102
RTVSPost2010PropOp31
 70
     1
102
RTVSPost2010Prop32
280
     0
102
RTVSPost2010PropOp32
 70
     1
102
RTVSPost2010Prop33
280
     0
102
RTVSPost2010PropOp33
 70
     1
102
RTVSPost2010Prop34
280
     0
102
RTVSPost2010PropOp34
 70
     1
102
RTVSPost2010Prop35
280
     0
102
RTVSPost2010PropOp35
 70
     1
102
RTVSPost2010Prop36
280
     0
102
RTVSPost2010PropOp36
 70
     1
102
RTVSPost2010Prop37
 90
       50
102
RTVSPost2010PropOp37
 70
     0
102
RTVSPost2010Prop38
140
0.0
102
RTVSPost2010PropOp38
 70
     0
102
RTVSPost2010Prop39
140
1.0
102
RTVSPost2010PropOp39
 70
     0
102
RTVSPost2010Prop40
 90
        0
102
RTVSPost2010PropOp40
 70
     0
102
RTVSPost2010Prop41ColorIndex
 90
       18
102
RTVSPost2010Prop41ColorRGB
 90
        0
102
RTVSPost2010PropOp41
 70
     0
102
RTVSPost2010Prop42
 90
       50
102
RTVSPost2010PropOp42
 70
     0
102
RTVSPost2010Prop43
 90
        3
102
RTVSPost2010PropOp43
 70
     0
102
RTVSPost2010Prop44ColorIndex
 90
        5
102
RTVSPost2010Prop44ColorRGB
 90
      255
102
RTVSPost2010PropOp44
 70
     0
102
RTVSPost2010Prop45
280
     0
102
RTVSPost2010PropOp45
 70
     1
102
RTVSPost2010Prop46
 90
       50
102
RTVSPost2010PropOp46
 70
     0
102
RTVSPost2010Prop47
 90
       50
102
RTVSPost2010PropOp47
 70
     0
102
RTVSPost2010Prop48
 90
       50
102
RTVSPost2010PropOp48
 70
     0
102
RTVSPost2010Prop49
280
     0
102
RTVSPost2010PropOp49
 70
     1
102
RTVSPost2010Prop50
 90
       50
102
RTVSPost2010PropOp50
 70
     0
102
RTVSPost2010Prop51ColorIndex
 90
      256
102
RTVSPost2010Prop51ColorRGB
 90
-16777216
102
RTVSPost2010PropOp51
 70
     0
102
RTVSPost2010Prop52
140
1.0
102
RTVSPost2010PropOp52
 70
     0
102
RTVSPost2010Prop53
 90
        2
102
RTVSPost2010PropOp53
 70
     0
102
RTVSPost2010Prop54
  1
strokes_ogs.tif
102
RTVSPost2010PropOp54
 70
     0
102
RTVSPost2010Prop55
280
     0
102
RTVSPost2010PropOp55
 70
     1
102
RTVSPost2010Prop56
140
1.0
102
RTVSPost2010PropOp56
 70
     0
102
RTVSPost2010Prop57
140
1.0
102
RTVSPost2010PropOp57
 70
     0
102
RTVSPropertyOp0
 70
     0
102
RTVSPropertyOp1
 70
     0
102
RTVSPropertyOp2
 70
     0
102
RTVSPropertyOp3
 70
     0
102
RTVSPropertyOp4
 70
     0
102
RTVSPropertyOp5
 70
     0
102
RTVSPropertyOp6
 70
     0
102
RTVSPropertyOp7
 70
     0
102
RTVSPropertyOp8
 70
     0
102
RTVSPropertyOp9
 70
     0
102
RTVSPropertyOp10
 70
     0
102
RTVSPropertyOp11
 70
     0
102
RTVSPropertyOp12
 70
     0
102
RTVSPropertyOp13
 70
     0
102
RTVSPropertyOp14
 70
     2
102
RTVSPropertyOp15
 70
     0
102
RTVSPropertyOp16
 70
     0
102
RTVSPropertyOp17
 70
     0
102
RTVSPropertyOp18
 70
     0
102
RTVSPropertyOp19
 70
     0
102
RTVSPropertyOp20
 70
     0
102
RTVSPropertyOp21
 70
     0
102
RTVSPropertyOp22
 70
     0
102
RTVSPropertyOp23
 70
     0
102
RTVSPropertyOp24
 70
     0
102
RTVSPropertyOp25
 70
     0
102
RTVSPropertyOp26
 70
     0
102
RTVSPropertyOp27
 70
     0
102
RTVSPropertyOp28
 70
     1
102
RTVSPropertyOp29
 70
     1
102
RTVSPropertyOp30
 70
     1
102
RTVSPropertyOp31
 70
     1
102
RTVSPropertyOp32
 70
     1
102
RTVSPropertyOp33
 70
     1
102
RTVSPropertyOp34
 70
     1
102
RTVSPropertyOp35
 70
     1
102
RTVSPropertyOp36
 70
     1
102
RTVSPropertyOp37
 70
     0
102
RTVSPropertyOp38
 70
     0
102
RTVSPropertyOp39
 70
     0
102
RTVSPropertyOp40
 70
     0
102
RTVSPropertyOp41
 70
     0
102
RTVSPropertyOp42
 70
     0
102
RTVSPropertyOp43
 70
     0
102
RTVSPropertyOp44
 70
     0
102
RTVSPropertyOp45
 70
     1
102
RTVSPropertyOp46
 70
     0
102
RTVSPropertyOp47
 70
     0
102
RTVSPropertyOp48
 70
     0
102
RTVSPropertyOp49
 70
     1
102
RTVSPropertyOp50
 70
     0
102
RTVSPropertyOp51
 70
     0
102
RTVSPropertyOp52
 70
     0
102
RTVSPropertyOp53
 70
     0
102
RTVSPropertyOp54
 70
     0
102
RTVSPropertyOp55
 70
     1
102
RTVSPropertyOp56
 70
     0
102
RTVSPropertyOp57
 70
     0
102
RTVSPropertyOp58
 70
     0
102
RTVSPropertyOp59
 70
     0
102
RTVSPropertyOp60
 70
     0
102
RTVSPropertyOp61
 70
     0
102
RTVSPropertyOp62
 70
     0
  0
XRECORD
  5
ADBF
102
{ACAD_REACTORS
330
ADBE
102
}
330
ADBE
100
AcDbXrecord
280
     1
102
RTVSPost2010Prop28
280
     0
102
RTVSPost2010PropOp28
 70
     1
102
RTVSPost2010Prop29
280
     1
102
RTVSPost2010PropOp29
 70
     1
102
RTVSPost2010Prop30
280
     1
102
RTVSPost2010PropOp30
 70
     1
102
RTVSPost2010Prop31
280
     0
102
RTVSPost2010PropOp31
 70
     1
102
RTVSPost2010Prop32
280
     0
102
RTVSPost2010PropOp32
 70
     1
102
RTVSPost2010Prop33
280
     0
102
RTVSPost2010PropOp33
 70
     1
102
RTVSPost2010Prop34
280
     0
102
RTVSPost2010PropOp34
 70
     1
102
RTVSPost2010Prop35
280
     0
102
RTVSPost2010PropOp35
 70
     1
102
RTVSPost2010Prop36
280
     0
102
RTVSPost2010PropOp36
 70
     1
102
RTVSPost2010Prop37
 90
       50
102
RTVSPost2010PropOp37
 70
     1
102
RTVSPost2010Prop38
140
0.0
102
RTVSPost2010PropOp38
 70
     1
102
RTVSPost2010Prop39
140
1.0
102
RTVSPost2010PropOp39
 70
     1
102
RTVSPost2010Prop40
 90
        0
102
RTVSPost2010PropOp40
 70
     1
102
RTVSPost2010Prop41ColorIndex
 90
       18
102
RTVSPost2010Prop41ColorRGB
 90
        0
102
RTVSPost2010PropOp41
 70
     1
102
RTVSPost2010Prop42
 90
       50
102
RTVSPost2010PropOp42
 70
     1
102
RTVSPost2010Prop43
 90
        3
102
RTVSPost2010PropOp43
 70
     1
102
RTVSPost2010Prop44ColorIndex
 90
        5
102
RTVSPost2010Prop44ColorRGB
 90
      255
102
RTVSPost2010PropOp44
 70
     1
102
RTVSPost2010Prop45
280
     0
102
RTVSPost2010PropOp45
 70
     1
102
RTVSPost2010Prop46
 90
       50
102
RTVSPost2010PropOp46
 70
     1
102
RTVSPost2010Prop47
 90
       50
102
RTVSPost2010PropOp47
 70
     1
102
RTVSPost2010Prop48
 90
       50
102
RTVSPost2010PropOp48
 70
     1
102
RTVSPost2010Prop49
280
     0
102
RTVSPost2010PropOp49
 70
     1
102
RTVSPost2010Prop50
 90
       50
102
RTVSPost2010PropOp50
 70
     1
102
RTVSPost2010Prop51ColorIndex
 90
      256
102
RTVSPost2010Prop51ColorRGB
 90
-16777216
102
RTVSPost2010PropOp51
 70
     0
102
RTVSPost2010Prop52
140
1.0
102
RTVSPost2010PropOp52
 70
     0
102
RTVSPost2010Prop53
 90
        2
102
RTVSPost2010PropOp53
 70
     1
102
RTVSPost2010Prop54
  1
strokes_ogs.tif
102
RTVSPost2010PropOp54
 70
     1
102
RTVSPost2010Prop55
280
     0
102
RTVSPost2010PropOp55
 70
     1
102
RTVSPost2010Prop56
140
1.0
102
RTVSPost2010PropOp56
 70
     1
102
RTVSPost2010Prop57
140
1.0
102
RTVSPost2010PropOp57
 70
     1
102
RTVSPropertyOp0
 70
     1
102
RTVSPropertyOp1
 70
     1
102
RTVSPropertyOp2
 70
     1
102
RTVSPropertyOp3
 70
     1
102
RTVSPropertyOp4
 70
     1
102
RTVSPropertyOp5
 70
     1
102
RTVSPropertyOp6
 70
     1
102
RTVSPropertyOp7
 70
     1
102
RTVSPropertyOp8
 70
     1
102
RTVSPropertyOp9
 70
     1
102
RTVSPropertyOp10
 70
     1
102
RTVSPropertyOp11
 70
     1
102
RTVSPropertyOp12
 70
     1
102
RTVSPropertyOp13
 70
     1
102
RTVSPropertyOp14
 70
     1
102
RTVSPropertyOp15
 70
     1
102
RTVSPropertyOp16
 70
     1
102
RTVSPropertyOp17
 70
     1
102
RTVSPropertyOp18
 70
     1
102
RTVSPropertyOp19
 70
     1
102
RTVSPropertyOp20
 70
     1
102
RTVSPropertyOp21
 70
     1
102
RTVSPropertyOp22
 70
     1
102
RTVSPropertyOp23
 70
     1
102
RTVSPropertyOp24
 70
     1
102
RTVSPropertyOp25
 70
     1
102
RTVSPropertyOp26
 70
     1
102
RTVSPropertyOp27
 70
     1
102
RTVSPropertyOp28
 70
     1
102
RTVSPropertyOp29
 70
     1
102
RTVSPropertyOp30
 70
     1
102
RTVSPropertyOp31
 70
     1
102
RTVSPropertyOp32
 70
     1
102
RTVSPropertyOp33
 70
     1
102
RTVSPropertyOp34
 70
     1
102
RTVSPropertyOp35
 70
     1
102
RTVSPropertyOp36
 70
     1
102
RTVSPropertyOp37
 70
     1
102
RTVSPropertyOp38
 70
     1
102
RTVSPropertyOp39
 70
     1
102
RTVSPropertyOp40
 70
     1
102
RTVSPropertyOp41
 70
     1
102
RTVSPropertyOp42
 70
     1
102
RTVSPropertyOp43
 70
     1
102
RTVSPropertyOp44
 70
     1
102
RTVSPropertyOp45
 70
     1
102
RTVSPropertyOp46
 70
     1
102
RTVSPropertyOp47
 70
     1
102
RTVSPropertyOp48
 70
     1
102
RTVSPropertyOp49
 70
     1
102
RTVSPropertyOp50
 70
     1
102
RTVSPropertyOp51
 70
     0
102
RTVSPropertyOp52
 70
     0
102
RTVSPropertyOp53
 70
     1
102
RTVSPropertyOp54
 70
     1
102
RTVSPropertyOp55
 70
     1
102
RTVSPropertyOp56
 70
     1
102
RTVSPropertyOp57
 70
     1
102
RTVSPropertyOp58
 70
     1
102
RTVSPropertyOp59
 70
     1
102
RTVSPropertyOp60
 70
     1
102
RTVSPropertyOp61
 70
     1
102
RTVSPropertyOp62
 70
     1
  0
XRECORD
  5
ADA3
102
{ACAD_REACTORS
330
ADA2
102
}
330
ADA2
100
AcDbXrecord
280
     1
102
RTVSPost2010Prop28
280
     0
102
RTVSPost2010PropOp28
 70
     1
102
RTVSPost2010Prop29
280
     1
102
RTVSPost2010PropOp29
 70
     1
102
RTVSPost2010Prop30
280
     1
102
RTVSPost2010PropOp30
 70
     1
102
RTVSPost2010Prop31
280
     0
102
RTVSPost2010PropOp31
 70
     1
102
RTVSPost2010Prop32
280
     0
102
RTVSPost2010PropOp32
 70
     1
102
RTVSPost2010Prop33
280
     0
102
RTVSPost2010PropOp33
 70
     1
102
RTVSPost2010Prop34
280
     0
102
RTVSPost2010PropOp34
 70
     1
102
RTVSPost2010Prop35
280
     0
102
RTVSPost2010PropOp35
 70
     1
102
RTVSPost2010Prop36
280
     0
102
RTVSPost2010PropOp36
 70
     1
102
RTVSPost2010Prop37
 90
       50
102
RTVSPost2010PropOp37
 70
     1
102
RTVSPost2010Prop38
140
0.0
102
RTVSPost2010PropOp38
 70
     1
102
RTVSPost2010Prop39
140
1.0
102
RTVSPost2010PropOp39
 70
     1
102
RTVSPost2010Prop40
 90
        0
102
RTVSPost2010PropOp40
 70
     1
102
RTVSPost2010Prop41ColorIndex
 90
       18
102
RTVSPost2010Prop41ColorRGB
 90
        0
102
RTVSPost2010PropOp41
 70
     1
102
RTVSPost2010Prop42
 90
       50
102
RTVSPost2010PropOp42
 70
     1
102
RTVSPost2010Prop43
 90
        3
102
RTVSPost2010PropOp43
 70
     1
102
RTVSPost2010Prop44ColorIndex
 90
        5
102
RTVSPost2010Prop44ColorRGB
 90
      255
102
RTVSPost2010PropOp44
 70
     1
102
RTVSPost2010Prop45
280
     0
102
RTVSPost2010PropOp45
 70
     1
102
RTVSPost2010Prop46
 90
       50
102
RTVSPost2010PropOp46
 70
     1
102
RTVSPost2010Prop47
 90
       50
102
RTVSPost2010PropOp47
 70
     1
102
RTVSPost2010Prop48
 90
       50
102
RTVSPost2010PropOp48
 70
     1
102
RTVSPost2010Prop49
280
     0
102
RTVSPost2010PropOp49
 70
     1
102
RTVSPost2010Prop50
 90
       50
102
RTVSPost2010PropOp50
 70
     1
102
RTVSPost2010Prop51ColorIndex
 90
      256
102
RTVSPost2010Prop51ColorRGB
 90
-16777216
102
RTVSPost2010PropOp51
 70
     0
102
RTVSPost2010Prop52
140
1.0
102
RTVSPost2010PropOp52
 70
     0
102
RTVSPost2010Prop53
 90
        2
102
RTVSPost2010PropOp53
 70
     1
102
RTVSPost2010Prop54
  1
strokes_ogs.tif
102
RTVSPost2010PropOp54
 70
     1
102
RTVSPost2010Prop55
280
     0
102
RTVSPost2010PropOp55
 70
     1
102
RTVSPost2010Prop56
140
1.0
102
RTVSPost2010PropOp56
 70
     1
102
RTVSPost2010Prop57
140
1.0
102
RTVSPost2010PropOp57
 70
     1
102
RTVSPropertyOp0
 70
     1
102
RTVSPropertyOp1
 70
     1
102
RTVSPropertyOp2
 70
     1
102
RTVSPropertyOp3
 70
     1
102
RTVSPropertyOp4
 70
     1
102
RTVSPropertyOp5
 70
     1
102
RTVSPropertyOp6
 70
     1
102
RTVSPropertyOp7
 70
     1
102
RTVSPropertyOp8
 70
     1
102
RTVSPropertyOp9
 70
     1
102
RTVSPropertyOp10
 70
     1
102
RTVSPropertyOp11
 70
     1
102
RTVSPropertyOp12
 70
     1
102
RTVSPropertyOp13
 70
     1
102
RTVSPropertyOp14
 70
     1
102
RTVSPropertyOp15
 70
     1
102
RTVSPropertyOp16
 70
     1
102
RTVSPropertyOp17
 70
     1
102
RTVSPropertyOp18
 70
     1
102
RTVSPropertyOp19
 70
     1
102
RTVSPropertyOp20
 70
     1
102
RTVSPropertyOp21
 70
     1
102
RTVSPropertyOp22
 70
     1
102
RTVSPropertyOp23
 70
     1
102
RTVSPropertyOp24
 70
     1
102
RTVSPropertyOp25
 70
     1
102
RTVSPropertyOp26
 70
     1
102
RTVSPropertyOp27
 70
     1
102
RTVSPropertyOp28
 70
     1
102
RTVSPropertyOp29
 70
     1
102
RTVSPropertyOp30
 70
     1
102
RTVSPropertyOp31
 70
     1
102
RTVSPropertyOp32
 70
     1
102
RTVSPropertyOp33
 70
     1
102
RTVSPropertyOp34
 70
     1
102
RTVSPropertyOp35
 70
     1
102
RTVSPropertyOp36
 70
     1
102
RTVSPropertyOp37
 70
     1
102
RTVSPropertyOp38
 70
     1
102
RTVSPropertyOp39
 70
     1
102
RTVSPropertyOp40
 70
     1
102
RTVSPropertyOp41
 70
     1
102
RTVSPropertyOp42
 70
     1
102
RTVSPropertyOp43
 70
     1
102
RTVSPropertyOp44
 70
     1
102
RTVSPropertyOp45
 70
     1
102
RTVSPropertyOp46
 70
     1
102
RTVSPropertyOp47
 70
     1
102
RTVSPropertyOp48
 70
     1
102
RTVSPropertyOp49
 70
     1
102
RTVSPropertyOp50
 70
     1
102
RTVSPropertyOp51
 70
     0
102
RTVSPropertyOp52
 70
     0
102
RTVSPropertyOp53
 70
     1
102
RTVSPropertyOp54
 70
     1
102
RTVSPropertyOp55
 70
     1
102
RTVSPropertyOp56
 70
     1
102
RTVSPropertyOp57
 70
     1
102
RTVSPropertyOp58
 70
     1
102
RTVSPropertyOp59
 70
     1
102
RTVSPropertyOp60
 70
     1
102
RTVSPropertyOp61
 70
     1
102
RTVSPropertyOp62
 70
     1
  0
XRECORD
  5
ADA5
102
{ACAD_REACTORS
330
ADA4
102
}
330
ADA4
100
AcDbXrecord
280
     1
102
RTVSPost2010Prop28
280
     0
102
RTVSPost2010PropOp28
 70
     1
102
RTVSPost2010Prop29
280
     1
102
RTVSPost2010PropOp29
 70
     1
102
RTVSPost2010Prop30
280
     1
102
RTVSPost2010PropOp30
 70
     1
102
RTVSPost2010Prop31
280
     0
102
RTVSPost2010PropOp31
 70
     1
102
RTVSPost2010Prop32
280
     0
102
RTVSPost2010PropOp32
 70
     1
102
RTVSPost2010Prop33
280
     0
102
RTVSPost2010PropOp33
 70
     1
102
RTVSPost2010Prop34
280
     0
102
RTVSPost2010PropOp34
 70
     1
102
RTVSPost2010Prop35
280
     0
102
RTVSPost2010PropOp35
 70
     1
102
RTVSPost2010Prop36
280
     0
102
RTVSPost2010PropOp36
 70
     1
102
RTVSPost2010Prop37
 90
       50
102
RTVSPost2010PropOp37
 70
     1
102
RTVSPost2010Prop38
140
0.0
102
RTVSPost2010PropOp38
 70
     1
102
RTVSPost2010Prop39
140
1.0
102
RTVSPost2010PropOp39
 70
     1
102
RTVSPost2010Prop40
 90
        0
102
RTVSPost2010PropOp40
 70
     1
102
RTVSPost2010Prop41ColorIndex
 90
       18
102
RTVSPost2010Prop41ColorRGB
 90
        0
102
RTVSPost2010PropOp41
 70
     1
102
RTVSPost2010Prop42
 90
       50
102
RTVSPost2010PropOp42
 70
     1
102
RTVSPost2010Prop43
 90
        3
102
RTVSPost2010PropOp43
 70
     1
102
RTVSPost2010Prop44ColorIndex
 90
        5
102
RTVSPost2010Prop44ColorRGB
 90
      255
102
RTVSPost2010PropOp44
 70
     1
102
RTVSPost2010Prop45
280
     0
102
RTVSPost2010PropOp45
 70
     1
102
RTVSPost2010Prop46
 90
       50
102
RTVSPost2010PropOp46
 70
     1
102
RTVSPost2010Prop47
 90
       50
102
RTVSPost2010PropOp47
 70
     1
102
RTVSPost2010Prop48
 90
       50
102
RTVSPost2010PropOp48
 70
     1
102
RTVSPost2010Prop49
280
     0
102
RTVSPost2010PropOp49
 70
     1
102
RTVSPost2010Prop50
 90
       50
102
RTVSPost2010PropOp50
 70
     1
102
RTVSPost2010Prop51ColorIndex
 90
      256
102
RTVSPost2010Prop51ColorRGB
 90
-16777216
102
RTVSPost2010PropOp51
 70
     0
102
RTVSPost2010Prop52
140
1.0
102
RTVSPost2010PropOp52
 70
     0
102
RTVSPost2010Prop53
 90
        2
102
RTVSPost2010PropOp53
 70
     1
102
RTVSPost2010Prop54
  1
strokes_ogs.tif
102
RTVSPost2010PropOp54
 70
     1
102
RTVSPost2010Prop55
280
     0
102
RTVSPost2010PropOp55
 70
     1
102
RTVSPost2010Prop56
140
1.0
102
RTVSPost2010PropOp56
 70
     1
102
RTVSPost2010Prop57
140
1.0
102
RTVSPost2010PropOp57
 70
     1
102
RTVSPropertyOp0
 70
     1
102
RTVSPropertyOp1
 70
     1
102
RTVSPropertyOp2
 70
     1
102
RTVSPropertyOp3
 70
     1
102
RTVSPropertyOp4
 70
     1
102
RTVSPropertyOp5
 70
     1
102
RTVSPropertyOp6
 70
     1
102
RTVSPropertyOp7
 70
     1
102
RTVSPropertyOp8
 70
     1
102
RTVSPropertyOp9
 70
     1
102
RTVSPropertyOp10
 70
     1
102
RTVSPropertyOp11
 70
     1
102
RTVSPropertyOp12
 70
     1
102
RTVSPropertyOp13
 70
     1
102
RTVSPropertyOp14
 70
     1
102
RTVSPropertyOp15
 70
     1
102
RTVSPropertyOp16
 70
     1
102
RTVSPropertyOp17
 70
     1
102
RTVSPropertyOp18
 70
     1
102
RTVSPropertyOp19
 70
     1
102
RTVSPropertyOp20
 70
     1
102
RTVSPropertyOp21
 70
     1
102
RTVSPropertyOp22
 70
     1
102
RTVSPropertyOp23
 70
     1
102
RTVSPropertyOp24
 70
     1
102
RTVSPropertyOp25
 70
     1
102
RTVSPropertyOp26
 70
     1
102
RTVSPropertyOp27
 70
     1
102
RTVSPropertyOp28
 70
     1
102
RTVSPropertyOp29
 70
     1
102
RTVSPropertyOp30
 70
     1
102
RTVSPropertyOp31
 70
     1
102
RTVSPropertyOp32
 70
     1
102
RTVSPropertyOp33
 70
     1
102
RTVSPropertyOp34
 70
     1
102
RTVSPropertyOp35
 70
     1
102
RTVSPropertyOp36
 70
     1
102
RTVSPropertyOp37
 70
     1
102
RTVSPropertyOp38
 70
     1
102
RTVSPropertyOp39
 70
     1
102
RTVSPropertyOp40
 70
     1
102
RTVSPropertyOp41
 70
     1
102
RTVSPropertyOp42
 70
     1
102
RTVSPropertyOp43
 70
     1
102
RTVSPropertyOp44
 70
     1
102
RTVSPropertyOp45
 70
     1
102
RTVSPropertyOp46
 70
     1
102
RTVSPropertyOp47
 70
     1
102
RTVSPropertyOp48
 70
     1
102
RTVSPropertyOp49
 70
     1
102
RTVSPropertyOp50
 70
     1
102
RTVSPropertyOp51
 70
     0
102
RTVSPropertyOp52
 70
     0
102
RTVSPropertyOp53
 70
     1
102
RTVSPropertyOp54
 70
     1
102
RTVSPropertyOp55
 70
     1
102
RTVSPropertyOp56
 70
     1
102
RTVSPropertyOp57
 70
     1
102
RTVSPropertyOp58
 70
     1
102
RTVSPropertyOp59
 70
     1
102
RTVSPropertyOp60
 70
     1
102
RTVSPropertyOp61
 70
     1
102
RTVSPropertyOp62
 70
     1
  0
XRECORD
  5
ADA7
102
{ACAD_REACTORS
330
ADA6
102
}
330
ADA6
100
AcDbXrecord
280
     1
102
RTVSPost2010Prop28
280
     0
102
RTVSPost2010PropOp28
 70
     1
102
RTVSPost2010Prop29
280
     1
102
RTVSPost2010PropOp29
 70
     1
102
RTVSPost2010Prop30
280
     1
102
RTVSPost2010PropOp30
 70
     1
102
RTVSPost2010Prop31
280
     0
102
RTVSPost2010PropOp31
 70
     1
102
RTVSPost2010Prop32
280
     0
102
RTVSPost2010PropOp32
 70
     1
102
RTVSPost2010Prop33
280
     0
102
RTVSPost2010PropOp33
 70
     1
102
RTVSPost2010Prop34
280
     0
102
RTVSPost2010PropOp34
 70
     1
102
RTVSPost2010Prop35
280
     0
102
RTVSPost2010PropOp35
 70
     1
102
RTVSPost2010Prop36
280
     0
102
RTVSPost2010PropOp36
 70
     1
102
RTVSPost2010Prop37
 90
       50
102
RTVSPost2010PropOp37
 70
     1
102
RTVSPost2010Prop38
140
0.0
102
RTVSPost2010PropOp38
 70
     1
102
RTVSPost2010Prop39
140
1.0
102
RTVSPost2010PropOp39
 70
     1
102
RTVSPost2010Prop40
 90
        0
102
RTVSPost2010PropOp40
 70
     1
102
RTVSPost2010Prop41ColorIndex
 90
       18
102
RTVSPost2010Prop41ColorRGB
 90
        0
102
RTVSPost2010PropOp41
 70
     1
102
RTVSPost2010Prop42
 90
       50
102
RTVSPost2010PropOp42
 70
     1
102
RTVSPost2010Prop43
 90
        3
102
RTVSPost2010PropOp43
 70
     1
102
RTVSPost2010Prop44ColorIndex
 90
        5
102
RTVSPost2010Prop44ColorRGB
 90
      255
102
RTVSPost2010PropOp44
 70
     1
102
RTVSPost2010Prop45
280
     0
102
RTVSPost2010PropOp45
 70
     1
102
RTVSPost2010Prop46
 90
       50
102
RTVSPost2010PropOp46
 70
     1
102
RTVSPost2010Prop47
 90
       50
102
RTVSPost2010PropOp47
 70
     1
102
RTVSPost2010Prop48
 90
       50
102
RTVSPost2010PropOp48
 70
     1
102
RTVSPost2010Prop49
280
     0
102
RTVSPost2010PropOp49
 70
     1
102
RTVSPost2010Prop50
 90
       50
102
RTVSPost2010PropOp50
 70
     1
102
RTVSPost2010Prop51ColorIndex
 90
      256
102
RTVSPost2010Prop51ColorRGB
 90
-16777216
102
RTVSPost2010PropOp51
 70
     0
102
RTVSPost2010Prop52
140
1.0
102
RTVSPost2010PropOp52
 70
     0
102
RTVSPost2010Prop53
 90
        2
102
RTVSPost2010PropOp53
 70
     1
102
RTVSPost2010Prop54
  1
strokes_ogs.tif
102
RTVSPost2010PropOp54
 70
     1
102
RTVSPost2010Prop55
280
     0
102
RTVSPost2010PropOp55
 70
     1
102
RTVSPost2010Prop56
140
1.0
102
RTVSPost2010PropOp56
 70
     1
102
RTVSPost2010Prop57
140
1.0
102
RTVSPost2010PropOp57
 70
     1
102
RTVSPropertyOp0
 70
     1
102
RTVSPropertyOp1
 70
     1
102
RTVSPropertyOp2
 70
     1
102
RTVSPropertyOp3
 70
     1
102
RTVSPropertyOp4
 70
     1
102
RTVSPropertyOp5
 70
     1
102
RTVSPropertyOp6
 70
     1
102
RTVSPropertyOp7
 70
     1
102
RTVSPropertyOp8
 70
     1
102
RTVSPropertyOp9
 70
     1
102
RTVSPropertyOp10
 70
     1
102
RTVSPropertyOp11
 70
     1
102
RTVSPropertyOp12
 70
     1
102
RTVSPropertyOp13
 70
     1
102
RTVSPropertyOp14
 70
     1
102
RTVSPropertyOp15
 70
     1
102
RTVSPropertyOp16
 70
     1
102
RTVSPropertyOp17
 70
     1
102
RTVSPropertyOp18
 70
     1
102
RTVSPropertyOp19
 70
     1
102
RTVSPropertyOp20
 70
     1
102
RTVSPropertyOp21
 70
     1
102
RTVSPropertyOp22
 70
     1
102
RTVSPropertyOp23
 70
     1
102
RTVSPropertyOp24
 70
     1
102
RTVSPropertyOp25
 70
     1
102
RTVSPropertyOp26
 70
     1
102
RTVSPropertyOp27
 70
     1
102
RTVSPropertyOp28
 70
     1
102
RTVSPropertyOp29
 70
     1
102
RTVSPropertyOp30
 70
     1
102
RTVSPropertyOp31
 70
     1
102
RTVSPropertyOp32
 70
     1
102
RTVSPropertyOp33
 70
     1
102
RTVSPropertyOp34
 70
     1
102
RTVSPropertyOp35
 70
     1
102
RTVSPropertyOp36
 70
     1
102
RTVSPropertyOp37
 70
     1
102
RTVSPropertyOp38
 70
     1
102
RTVSPropertyOp39
 70
     1
102
RTVSPropertyOp40
 70
     1
102
RTVSPropertyOp41
 70
     1
102
RTVSPropertyOp42
 70
     1
102
RTVSPropertyOp43
 70
     1
102
RTVSPropertyOp44
 70
     1
102
RTVSPropertyOp45
 70
     1
102
RTVSPropertyOp46
 70
     1
102
RTVSPropertyOp47
 70
     1
102
RTVSPropertyOp48
 70
     1
102
RTVSPropertyOp49
 70
     1
102
RTVSPropertyOp50
 70
     1
102
RTVSPropertyOp51
 70
     0
102
RTVSPropertyOp52
 70
     0
102
RTVSPropertyOp53
 70
     1
102
RTVSPropertyOp54
 70
     1
102
RTVSPropertyOp55
 70
     1
102
RTVSPropertyOp56
 70
     1
102
RTVSPropertyOp57
 70
     1
102
RTVSPropertyOp58
 70
     1
102
RTVSPropertyOp59
 70
     1
102
RTVSPropertyOp60
 70
     1
102
RTVSPropertyOp61
 70
     1
102
RTVSPropertyOp62
 70
     1
  0
XRECORD
  5
ADA9
102
{ACAD_REACTORS
330
ADA8
102
}
330
ADA8
100
AcDbXrecord
280
     1
102
RTVSPost2010Prop28
280
     0
102
RTVSPost2010PropOp28
 70
     1
102
RTVSPost2010Prop29
280
     1
102
RTVSPost2010PropOp29
 70
     1
102
RTVSPost2010Prop30
280
     1
102
RTVSPost2010PropOp30
 70
     1
102
RTVSPost2010Prop31
280
     0
102
RTVSPost2010PropOp31
 70
     1
102
RTVSPost2010Prop32
280
     0
102
RTVSPost2010PropOp32
 70
     1
102
RTVSPost2010Prop33
280
     0
102
RTVSPost2010PropOp33
 70
     1
102
RTVSPost2010Prop34
280
     0
102
RTVSPost2010PropOp34
 70
     1
102
RTVSPost2010Prop35
280
     0
102
RTVSPost2010PropOp35
 70
     1
102
RTVSPost2010Prop36
280
     0
102
RTVSPost2010PropOp36
 70
     1
102
RTVSPost2010Prop37
 90
       50
102
RTVSPost2010PropOp37
 70
     1
102
RTVSPost2010Prop38
140
0.0
102
RTVSPost2010PropOp38
 70
     1
102
RTVSPost2010Prop39
140
1.0
102
RTVSPost2010PropOp39
 70
     1
102
RTVSPost2010Prop40
 90
        0
102
RTVSPost2010PropOp40
 70
     1
102
RTVSPost2010Prop41ColorIndex
 90
       18
102
RTVSPost2010Prop41ColorRGB
 90
        0
102
RTVSPost2010PropOp41
 70
     1
102
RTVSPost2010Prop42
 90
       50
102
RTVSPost2010PropOp42
 70
     1
102
RTVSPost2010Prop43
 90
        3
102
RTVSPost2010PropOp43
 70
     1
102
RTVSPost2010Prop44ColorIndex
 90
        5
102
RTVSPost2010Prop44ColorRGB
 90
      255
102
RTVSPost2010PropOp44
 70
     1
102
RTVSPost2010Prop45
280
     0
102
RTVSPost2010PropOp45
 70
     1
102
RTVSPost2010Prop46
 90
       50
102
RTVSPost2010PropOp46
 70
     1
102
RTVSPost2010Prop47
 90
       50
102
RTVSPost2010PropOp47
 70
     1
102
RTVSPost2010Prop48
 90
       50
102
RTVSPost2010PropOp48
 70
     1
102
RTVSPost2010Prop49
280
     0
102
RTVSPost2010PropOp49
 70
     1
102
RTVSPost2010Prop50
 90
       50
102
RTVSPost2010PropOp50
 70
     1
102
RTVSPost2010Prop51ColorIndex
 90
      256
102
RTVSPost2010Prop51ColorRGB
 90
-16777216
102
RTVSPost2010PropOp51
 70
     0
102
RTVSPost2010Prop52
140
1.0
102
RTVSPost2010PropOp52
 70
     0
102
RTVSPost2010Prop53
 90
        2
102
RTVSPost2010PropOp53
 70
     1
102
RTVSPost2010Prop54
  1
strokes_ogs.tif
102
RTVSPost2010PropOp54
 70
     1
102
RTVSPost2010Prop55
280
     0
102
RTVSPost2010PropOp55
 70
     1
102
RTVSPost2010Prop56
140
1.0
102
RTVSPost2010PropOp56
 70
     1
102
RTVSPost2010Prop57
140
1.0
102
RTVSPost2010PropOp57
 70
     1
102
RTVSPropertyOp0
 70
     1
102
RTVSPropertyOp1
 70
     1
102
RTVSPropertyOp2
 70
     1
102
RTVSPropertyOp3
 70
     1
102
RTVSPropertyOp4
 70
     1
102
RTVSPropertyOp5
 70
     1
102
RTVSPropertyOp6
 70
     1
102
RTVSPropertyOp7
 70
     1
102
RTVSPropertyOp8
 70
     1
102
RTVSPropertyOp9
 70
     1
102
RTVSPropertyOp10
 70
     1
102
RTVSPropertyOp11
 70
     1
102
RTVSPropertyOp12
 70
     1
102
RTVSPropertyOp13
 70
     1
102
RTVSPropertyOp14
 70
     1
102
RTVSPropertyOp15
 70
     1
102
RTVSPropertyOp16
 70
     1
102
RTVSPropertyOp17
 70
     1
102
RTVSPropertyOp18
 70
     1
102
RTVSPropertyOp19
 70
     1
102
RTVSPropertyOp20
 70
     1
102
RTVSPropertyOp21
 70
     1
102
RTVSPropertyOp22
 70
     1
102
RTVSPropertyOp23
 70
     1
102
RTVSPropertyOp24
 70
     1
102
RTVSPropertyOp25
 70
     1
102
RTVSPropertyOp26
 70
     1
102
RTVSPropertyOp27
 70
     1
102
RTVSPropertyOp28
 70
     1
102
RTVSPropertyOp29
 70
     1
102
RTVSPropertyOp30
 70
     1
102
RTVSPropertyOp31
 70
     1
102
RTVSPropertyOp32
 70
     1
102
RTVSPropertyOp33
 70
     1
102
RTVSPropertyOp34
 70
     1
102
RTVSPropertyOp35
 70
     1
102
RTVSPropertyOp36
 70
     1
102
RTVSPropertyOp37
 70
     1
102
RTVSPropertyOp38
 70
     1
102
RTVSPropertyOp39
 70
     1
102
RTVSPropertyOp40
 70
     1
102
RTVSPropertyOp41
 70
     1
102
RTVSPropertyOp42
 70
     1
102
RTVSPropertyOp43
 70
     1
102
RTVSPropertyOp44
 70
     1
102
RTVSPropertyOp45
 70
     1
102
RTVSPropertyOp46
 70
     1
102
RTVSPropertyOp47
 70
     1
102
RTVSPropertyOp48
 70
     1
102
RTVSPropertyOp49
 70
     1
102
RTVSPropertyOp50
 70
     1
102
RTVSPropertyOp51
 70
     0
102
RTVSPropertyOp52
 70
     0
102
RTVSPropertyOp53
 70
     1
102
RTVSPropertyOp54
 70
     1
102
RTVSPropertyOp55
 70
     1
102
RTVSPropertyOp56
 70
     1
102
RTVSPropertyOp57
 70
     1
102
RTVSPropertyOp58
 70
     1
102
RTVSPropertyOp59
 70
     1
102
RTVSPropertyOp60
 70
     1
102
RTVSPropertyOp61
 70
     1
102
RTVSPropertyOp62
 70
     1
  0
XRECORD
  5
ADB1
102
{ACAD_REACTORS
330
ADB0
102
}
330
ADB0
100
AcDbXrecord
280
     1
102
RTVSPost2010Prop28
280
     0
102
RTVSPost2010PropOp28
 70
     1
102
RTVSPost2010Prop29
280
     1
102
RTVSPost2010PropOp29
 70
     1
102
RTVSPost2010Prop30
280
     1
102
RTVSPost2010PropOp30
 70
     1
102
RTVSPost2010Prop31
280
     0
102
RTVSPost2010PropOp31
 70
     1
102
RTVSPost2010Prop32
280
     0
102
RTVSPost2010PropOp32
 70
     1
102
RTVSPost2010Prop33
280
     0
102
RTVSPost2010PropOp33
 70
     1
102
RTVSPost2010Prop34
280
     0
102
RTVSPost2010PropOp34
 70
     1
102
RTVSPost2010Prop35
280
     0
102
RTVSPost2010PropOp35
 70
     1
102
RTVSPost2010Prop36
280
     0
102
RTVSPost2010PropOp36
 70
     1
102
RTVSPost2010Prop37
 90
       50
102
RTVSPost2010PropOp37
 70
     1
102
RTVSPost2010Prop38
140
0.0
102
RTVSPost2010PropOp38
 70
     1
102
RTVSPost2010Prop39
140
1.0
102
RTVSPost2010PropOp39
 70
     1
102
RTVSPost2010Prop40
 90
        0
102
RTVSPost2010PropOp40
 70
     1
102
RTVSPost2010Prop41ColorIndex
 90
       18
102
RTVSPost2010Prop41ColorRGB
 90
        0
102
RTVSPost2010PropOp41
 70
     1
102
RTVSPost2010Prop42
 90
       50
102
RTVSPost2010PropOp42
 70
     1
102
RTVSPost2010Prop43
 90
        3
102
RTVSPost2010PropOp43
 70
     1
102
RTVSPost2010Prop44ColorIndex
 90
        5
102
RTVSPost2010Prop44ColorRGB
 90
      255
102
RTVSPost2010PropOp44
 70
     1
102
RTVSPost2010Prop45
280
     0
102
RTVSPost2010PropOp45
 70
     1
102
RTVSPost2010Prop46
 90
       50
102
RTVSPost2010PropOp46
 70
     1
102
RTVSPost2010Prop47
 90
       50
102
RTVSPost2010PropOp47
 70
     1
102
RTVSPost2010Prop48
 90
       50
102
RTVSPost2010PropOp48
 70
     1
102
RTVSPost2010Prop49
280
     0
102
RTVSPost2010PropOp49
 70
     1
102
RTVSPost2010Prop50
 90
       50
102
RTVSPost2010PropOp50
 70
     1
102
RTVSPost2010Prop51ColorIndex
 90
      256
102
RTVSPost2010Prop51ColorRGB
 90
-16777216
102
RTVSPost2010PropOp51
 70
     0
102
RTVSPost2010Prop52
140
1.0
102
RTVSPost2010PropOp52
 70
     0
102
RTVSPost2010Prop53
 90
        2
102
RTVSPost2010PropOp53
 70
     1
102
RTVSPost2010Prop54
  1
strokes_ogs.tif
102
RTVSPost2010PropOp54
 70
     1
102
RTVSPost2010Prop55
280
     0
102
RTVSPost2010PropOp55
 70
     1
102
RTVSPost2010Prop56
140
1.0
102
RTVSPost2010PropOp56
 70
     1
102
RTVSPost2010Prop57
140
1.0
102
RTVSPost2010PropOp57
 70
     1
102
RTVSPropertyOp0
 70
     1
102
RTVSPropertyOp1
 70
     1
102
RTVSPropertyOp2
 70
     1
102
RTVSPropertyOp3
 70
     1
102
RTVSPropertyOp4
 70
     1
102
RTVSPropertyOp5
 70
     1
102
RTVSPropertyOp6
 70
     1
102
RTVSPropertyOp7
 70
     1
102
RTVSPropertyOp8
 70
     1
102
RTVSPropertyOp9
 70
     1
102
RTVSPropertyOp10
 70
     1
102
RTVSPropertyOp11
 70
     1
102
RTVSPropertyOp12
 70
     1
102
RTVSPropertyOp13
 70
     1
102
RTVSPropertyOp14
 70
     1
102
RTVSPropertyOp15
 70
     1
102
RTVSPropertyOp16
 70
     1
102
RTVSPropertyOp17
 70
     1
102
RTVSPropertyOp18
 70
     1
102
RTVSPropertyOp19
 70
     1
102
RTVSPropertyOp20
 70
     1
102
RTVSPropertyOp21
 70
     1
102
RTVSPropertyOp22
 70
     1
102
RTVSPropertyOp23
 70
     1
102
RTVSPropertyOp24
 70
     1
102
RTVSPropertyOp25
 70
     1
102
RTVSPropertyOp26
 70
     1
102
RTVSPropertyOp27
 70
     1
102
RTVSPropertyOp28
 70
     1
102
RTVSPropertyOp29
 70
     1
102
RTVSPropertyOp30
 70
     1
102
RTVSPropertyOp31
 70
     1
102
RTVSPropertyOp32
 70
     1
102
RTVSPropertyOp33
 70
     1
102
RTVSPropertyOp34
 70
     1
102
RTVSPropertyOp35
 70
     1
102
RTVSPropertyOp36
 70
     1
102
RTVSPropertyOp37
 70
     1
102
RTVSPropertyOp38
 70
     1
102
RTVSPropertyOp39
 70
     1
102
RTVSPropertyOp40
 70
     1
102
RTVSPropertyOp41
 70
     1
102
RTVSPropertyOp42
 70
     1
102
RTVSPropertyOp43
 70
     1
102
RTVSPropertyOp44
 70
     1
102
RTVSPropertyOp45
 70
     1
102
RTVSPropertyOp46
 70
     1
102
RTVSPropertyOp47
 70
     1
102
RTVSPropertyOp48
 70
     1
102
RTVSPropertyOp49
 70
     1
102
RTVSPropertyOp50
 70
     1
102
RTVSPropertyOp51
 70
     0
102
RTVSPropertyOp52
 70
     0
102
RTVSPropertyOp53
 70
     1
102
RTVSPropertyOp54
 70
     1
102
RTVSPropertyOp55
 70
     1
102
RTVSPropertyOp56
 70
     1
102
RTVSPropertyOp57
 70
     1
102
RTVSPropertyOp58
 70
     1
102
RTVSPropertyOp59
 70
     1
102
RTVSPropertyOp60
 70
     1
102
RTVSPropertyOp61
 70
     1
102
RTVSPropertyOp62
 70
     1
  0
XRECORD
  5
ADCD
102
{ACAD_REACTORS
330
ADCC
102
}
330
ADCC
100
AcDbXrecord
280
     1
102
RTVSPost2010Prop28
280
     0
102
RTVSPost2010PropOp28
 70
     1
102
RTVSPost2010Prop29
280
     1
102
RTVSPost2010PropOp29
 70
     1
102
RTVSPost2010Prop30
280
     1
102
RTVSPost2010PropOp30
 70
     1
102
RTVSPost2010Prop31
280
     0
102
RTVSPost2010PropOp31
 70
     1
102
RTVSPost2010Prop32
280
     0
102
RTVSPost2010PropOp32
 70
     1
102
RTVSPost2010Prop33
280
     0
102
RTVSPost2010PropOp33
 70
     1
102
RTVSPost2010Prop34
280
     0
102
RTVSPost2010PropOp34
 70
     1
102
RTVSPost2010Prop35
280
     0
102
RTVSPost2010PropOp35
 70
     1
102
RTVSPost2010Prop36
280
     0
102
RTVSPost2010PropOp36
 70
     1
102
RTVSPost2010Prop37
 90
       50
102
RTVSPost2010PropOp37
 70
     0
102
RTVSPost2010Prop38
140
0.0
102
RTVSPost2010PropOp38
 70
     0
102
RTVSPost2010Prop39
140
1.0
102
RTVSPost2010PropOp39
 70
     0
102
RTVSPost2010Prop40
 90
        0
102
RTVSPost2010PropOp40
 70
     0
102
RTVSPost2010Prop41ColorIndex
 90
       18
102
RTVSPost2010Prop41ColorRGB
 90
        0
102
RTVSPost2010PropOp41
 70
     0
102
RTVSPost2010Prop42
 90
       50
102
RTVSPost2010PropOp42
 70
     0
102
RTVSPost2010Prop43
 90
        3
102
RTVSPost2010PropOp43
 70
     0
102
RTVSPost2010Prop44ColorIndex
 90
        5
102
RTVSPost2010Prop44ColorRGB
 90
      255
102
RTVSPost2010PropOp44
 70
     0
102
RTVSPost2010Prop45
280
     0
102
RTVSPost2010PropOp45
 70
     1
102
RTVSPost2010Prop46
 90
       50
102
RTVSPost2010PropOp46
 70
     0
102
RTVSPost2010Prop47
 90
       50
102
RTVSPost2010PropOp47
 70
     0
102
RTVSPost2010Prop48
 90
       50
102
RTVSPost2010PropOp48
 70
     0
102
RTVSPost2010Prop49
280
     0
102
RTVSPost2010PropOp49
 70
     1
102
RTVSPost2010Prop50
 90
       50
102
RTVSPost2010PropOp50
 70
     0
102
RTVSPost2010Prop51ColorIndex
 90
      256
102
RTVSPost2010Prop51ColorRGB
 90
-16777216
102
RTVSPost2010PropOp51
 70
     0
102
RTVSPost2010Prop52
140
1.0
102
RTVSPost2010PropOp52
 70
     0
102
RTVSPost2010Prop53
 90
        2
102
RTVSPost2010PropOp53
 70
     0
102
RTVSPost2010Prop54
  1
strokes_ogs.tif
102
RTVSPost2010PropOp54
 70
     0
102
RTVSPost2010Prop55
280
     0
102
RTVSPost2010PropOp55
 70
     1
102
RTVSPost2010Prop56
140
1.0
102
RTVSPost2010PropOp56
 70
     0
102
RTVSPost2010Prop57
140
1.0
102
RTVSPost2010PropOp57
 70
     0
102
RTVSPropertyOp0
 70
     0
102
RTVSPropertyOp1
 70
     0
102
RTVSPropertyOp2
 70
     0
102
RTVSPropertyOp3
 70
     0
102
RTVSPropertyOp4
 70
     0
102
RTVSPropertyOp5
 70
     0
102
RTVSPropertyOp6
 70
     0
102
RTVSPropertyOp7
 70
     0
102
RTVSPropertyOp8
 70
     0
102
RTVSPropertyOp9
 70
     0
102
RTVSPropertyOp10
 70
     0
102
RTVSPropertyOp11
 70
     0
102
RTVSPropertyOp12
 70
     0
102
RTVSPropertyOp13
 70
     0
102
RTVSPropertyOp14
 70
     2
102
RTVSPropertyOp15
 70
     0
102
RTVSPropertyOp16
 70
     0
102
RTVSPropertyOp17
 70
     0
102
RTVSPropertyOp18
 70
     0
102
RTVSPropertyOp19
 70
     0
102
RTVSPropertyOp20
 70
     0
102
RTVSPropertyOp21
 70
     0
102
RTVSPropertyOp22
 70
     0
102
RTVSPropertyOp23
 70
     0
102
RTVSPropertyOp24
 70
     0
102
RTVSPropertyOp25
 70
     0
102
RTVSPropertyOp26
 70
     0
102
RTVSPropertyOp27
 70
     0
102
RTVSPropertyOp28
 70
     1
102
RTVSPropertyOp29
 70
     1
102
RTVSPropertyOp30
 70
     1
102
RTVSPropertyOp31
 70
     1
102
RTVSPropertyOp32
 70
     1
102
RTVSPropertyOp33
 70
     1
102
RTVSPropertyOp34
 70
     1
102
RTVSPropertyOp35
 70
     1
102
RTVSPropertyOp36
 70
     1
102
RTVSPropertyOp37
 70
     0
102
RTVSPropertyOp38
 70
     0
102
RTVSPropertyOp39
 70
     0
102
RTVSPropertyOp40
 70
     0
102
RTVSPropertyOp41
 70
     0
102
RTVSPropertyOp42
 70
     0
102
RTVSPropertyOp43
 70
     0
102
RTVSPropertyOp44
 70
     0
102
RTVSPropertyOp45
 70
     1
102
RTVSPropertyOp46
 70
     0
102
RTVSPropertyOp47
 70
     0
102
RTVSPropertyOp48
 70
     0
102
RTVSPropertyOp49
 70
     1
102
RTVSPropertyOp50
 70
     0
102
RTVSPropertyOp51
 70
     0
102
RTVSPropertyOp52
 70
     0
102
RTVSPropertyOp53
 70
     0
102
RTVSPropertyOp54
 70
     0
102
RTVSPropertyOp55
 70
     1
102
RTVSPropertyOp56
 70
     0
102
RTVSPropertyOp57
 70
     0
102
RTVSPropertyOp58
 70
     0
102
RTVSPropertyOp59
 70
     0
102
RTVSPropertyOp60
 70
     0
102
RTVSPropertyOp61
 70
     0
102
RTVSPropertyOp62
 70
     0
  0
XRECORD
  5
ADBD
102
{ACAD_REACTORS
330
ADBC
102
}
330
ADBC
100
AcDbXrecord
280
     1
102
RTVSPost2010Prop28
280
     0
102
RTVSPost2010PropOp28
 70
     1
102
RTVSPost2010Prop29
280
     1
102
RTVSPost2010PropOp29
 70
     1
102
RTVSPost2010Prop30
280
     1
102
RTVSPost2010PropOp30
 70
     1
102
RTVSPost2010Prop31
280
     0
102
RTVSPost2010PropOp31
 70
     1
102
RTVSPost2010Prop32
280
     0
102
RTVSPost2010PropOp32
 70
     1
102
RTVSPost2010Prop33
280
     0
102
RTVSPost2010PropOp33
 70
     1
102
RTVSPost2010Prop34
280
     0
102
RTVSPost2010PropOp34
 70
     1
102
RTVSPost2010Prop35
280
     0
102
RTVSPost2010PropOp35
 70
     1
102
RTVSPost2010Prop36
280
     0
102
RTVSPost2010PropOp36
 70
     1
102
RTVSPost2010Prop37
 90
       50
102
RTVSPost2010PropOp37
 70
     1
102
RTVSPost2010Prop38
140
0.0
102
RTVSPost2010PropOp38
 70
     1
102
RTVSPost2010Prop39
140
1.0
102
RTVSPost2010PropOp39
 70
     1
102
RTVSPost2010Prop40
 90
        0
102
RTVSPost2010PropOp40
 70
     1
102
RTVSPost2010Prop41ColorIndex
 90
       18
102
RTVSPost2010Prop41ColorRGB
 90
        0
102
RTVSPost2010PropOp41
 70
     1
102
RTVSPost2010Prop42
 90
       50
102
RTVSPost2010PropOp42
 70
     1
102
RTVSPost2010Prop43
 90
        3
102
RTVSPost2010PropOp43
 70
     1
102
RTVSPost2010Prop44ColorIndex
 90
        5
102
RTVSPost2010Prop44ColorRGB
 90
      255
102
RTVSPost2010PropOp44
 70
     1
102
RTVSPost2010Prop45
280
     0
102
RTVSPost2010PropOp45
 70
     1
102
RTVSPost2010Prop46
 90
       50
102
RTVSPost2010PropOp46
 70
     1
102
RTVSPost2010Prop47
 90
       50
102
RTVSPost2010PropOp47
 70
     1
102
RTVSPost2010Prop48
 90
       50
102
RTVSPost2010PropOp48
 70
     1
102
RTVSPost2010Prop49
280
     0
102
RTVSPost2010PropOp49
 70
     1
102
RTVSPost2010Prop50
 90
       50
102
RTVSPost2010PropOp50
 70
     1
102
RTVSPost2010Prop51ColorIndex
 90
      256
102
RTVSPost2010Prop51ColorRGB
 90
-16777216
102
RTVSPost2010PropOp51
 70
     0
102
RTVSPost2010Prop52
140
1.0
102
RTVSPost2010PropOp52
 70
     0
102
RTVSPost2010Prop53
 90
        2
102
RTVSPost2010PropOp53
 70
     1
102
RTVSPost2010Prop54
  1
strokes_ogs.tif
102
RTVSPost2010PropOp54
 70
     1
102
RTVSPost2010Prop55
280
     0
102
RTVSPost2010PropOp55
 70
     1
102
RTVSPost2010Prop56
140
1.0
102
RTVSPost2010PropOp56
 70
     1
102
RTVSPost2010Prop57
140
1.0
102
RTVSPost2010PropOp57
 70
     1
102
RTVSPropertyOp0
 70
     1
102
RTVSPropertyOp1
 70
     1
102
RTVSPropertyOp2
 70
     1
102
RTVSPropertyOp3
 70
     1
102
RTVSPropertyOp4
 70
     1
102
RTVSPropertyOp5
 70
     1
102
RTVSPropertyOp6
 70
     1
102
RTVSPropertyOp7
 70
     1
102
RTVSPropertyOp8
 70
     1
102
RTVSPropertyOp9
 70
     1
102
RTVSPropertyOp10
 70
     1
102
RTVSPropertyOp11
 70
     1
102
RTVSPropertyOp12
 70
     1
102
RTVSPropertyOp13
 70
     1
102
RTVSPropertyOp14
 70
     1
102
RTVSPropertyOp15
 70
     1
102
RTVSPropertyOp16
 70
     1
102
RTVSPropertyOp17
 70
     1
102
RTVSPropertyOp18
 70
     1
102
RTVSPropertyOp19
 70
     1
102
RTVSPropertyOp20
 70
     1
102
RTVSPropertyOp21
 70
     1
102
RTVSPropertyOp22
 70
     1
102
RTVSPropertyOp23
 70
     1
102
RTVSPropertyOp24
 70
     1
102
RTVSPropertyOp25
 70
     1
102
RTVSPropertyOp26
 70
     1
102
RTVSPropertyOp27
 70
     1
102
RTVSPropertyOp28
 70
     1
102
RTVSPropertyOp29
 70
     1
102
RTVSPropertyOp30
 70
     1
102
RTVSPropertyOp31
 70
     1
102
RTVSPropertyOp32
 70
     1
102
RTVSPropertyOp33
 70
     1
102
RTVSPropertyOp34
 70
     1
102
RTVSPropertyOp35
 70
     1
102
RTVSPropertyOp36
 70
     1
102
RTVSPropertyOp37
 70
     1
102
RTVSPropertyOp38
 70
     1
102
RTVSPropertyOp39
 70
     1
102
RTVSPropertyOp40
 70
     1
102
RTVSPropertyOp41
 70
     1
102
RTVSPropertyOp42
 70
     1
102
RTVSPropertyOp43
 70
     1
102
RTVSPropertyOp44
 70
     1
102
RTVSPropertyOp45
 70
     1
102
RTVSPropertyOp46
 70
     1
102
RTVSPropertyOp47
 70
     1
102
RTVSPropertyOp48
 70
     1
102
RTVSPropertyOp49
 70
     1
102
RTVSPropertyOp50
 70
     1
102
RTVSPropertyOp51
 70
     0
102
RTVSPropertyOp52
 70
     0
102
RTVSPropertyOp53
 70
     1
102
RTVSPropertyOp54
 70
     1
102
RTVSPropertyOp55
 70
     1
102
RTVSPropertyOp56
 70
     1
102
RTVSPropertyOp57
 70
     1
102
RTVSPropertyOp58
 70
     1
102
RTVSPropertyOp59
 70
     1
102
RTVSPropertyOp60
 70
     1
102
RTVSPropertyOp61
 70
     1
102
RTVSPropertyOp62
 70
     1
  0
XRECORD
  5
ADCF
102
{ACAD_REACTORS
330
ADCE
102
}
330
ADCE
100
AcDbXrecord
280
     1
102
RTVSPost2010Prop28
280
     0
102
RTVSPost2010PropOp28
 70
     1
102
RTVSPost2010Prop29
280
     1
102
RTVSPost2010PropOp29
 70
     1
102
RTVSPost2010Prop30
280
     1
102
RTVSPost2010PropOp30
 70
     1
102
RTVSPost2010Prop31
280
     0
102
RTVSPost2010PropOp31
 70
     1
102
RTVSPost2010Prop32
280
     0
102
RTVSPost2010PropOp32
 70
     1
102
RTVSPost2010Prop33
280
     0
102
RTVSPost2010PropOp33
 70
     1
102
RTVSPost2010Prop34
280
     0
102
RTVSPost2010PropOp34
 70
     1
102
RTVSPost2010Prop35
280
     0
102
RTVSPost2010PropOp35
 70
     1
102
RTVSPost2010Prop36
280
     0
102
RTVSPost2010PropOp36
 70
     1
102
RTVSPost2010Prop37
 90
       50
102
RTVSPost2010PropOp37
 70
     0
102
RTVSPost2010Prop38
140
0.0
102
RTVSPost2010PropOp38
 70
     0
102
RTVSPost2010Prop39
140
1.0
102
RTVSPost2010PropOp39
 70
     0
102
RTVSPost2010Prop40
 90
        0
102
RTVSPost2010PropOp40
 70
     0
102
RTVSPost2010Prop41ColorIndex
 90
       18
102
RTVSPost2010Prop41ColorRGB
 90
        0
102
RTVSPost2010PropOp41
 70
     0
102
RTVSPost2010Prop42
 90
       50
102
RTVSPost2010PropOp42
 70
     0
102
RTVSPost2010Prop43
 90
        3
102
RTVSPost2010PropOp43
 70
     0
102
RTVSPost2010Prop44ColorIndex
 90
        5
102
RTVSPost2010Prop44ColorRGB
 90
      255
102
RTVSPost2010PropOp44
 70
     0
102
RTVSPost2010Prop45
280
     0
102
RTVSPost2010PropOp45
 70
     1
102
RTVSPost2010Prop46
 90
       50
102
RTVSPost2010PropOp46
 70
     0
102
RTVSPost2010Prop47
 90
       50
102
RTVSPost2010PropOp47
 70
     0
102
RTVSPost2010Prop48
 90
       50
102
RTVSPost2010PropOp48
 70
     0
102
RTVSPost2010Prop49
280
     0
102
RTVSPost2010PropOp49
 70
     1
102
RTVSPost2010Prop50
 90
       50
102
RTVSPost2010PropOp50
 70
     0
102
RTVSPost2010Prop51ColorIndex
 90
      256
102
RTVSPost2010Prop51ColorRGB
 90
-16777216
102
RTVSPost2010PropOp51
 70
     0
102
RTVSPost2010Prop52
140
1.0
102
RTVSPost2010PropOp52
 70
     0
102
RTVSPost2010Prop53
 90
        2
102
RTVSPost2010PropOp53
 70
     0
102
RTVSPost2010Prop54
  1
strokes_ogs.tif
102
RTVSPost2010PropOp54
 70
     0
102
RTVSPost2010Prop55
280
     0
102
RTVSPost2010PropOp55
 70
     1
102
RTVSPost2010Prop56
140
1.0
102
RTVSPost2010PropOp56
 70
     0
102
RTVSPost2010Prop57
140
1.0
102
RTVSPost2010PropOp57
 70
     0
102
RTVSPropertyOp0
 70
     0
102
RTVSPropertyOp1
 70
     0
102
RTVSPropertyOp2
 70
     0
102
RTVSPropertyOp3
 70
     0
102
RTVSPropertyOp4
 70
     0
102
RTVSPropertyOp5
 70
     0
102
RTVSPropertyOp6
 70
     0
102
RTVSPropertyOp7
 70
     0
102
RTVSPropertyOp8
 70
     0
102
RTVSPropertyOp9
 70
     0
102
RTVSPropertyOp10
 70
     0
102
RTVSPropertyOp11
 70
     0
102
RTVSPropertyOp12
 70
     0
102
RTVSPropertyOp13
 70
     0
102
RTVSPropertyOp14
 70
     2
102
RTVSPropertyOp15
 70
     0
102
RTVSPropertyOp16
 70
     0
102
RTVSPropertyOp17
 70
     0
102
RTVSPropertyOp18
 70
     0
102
RTVSPropertyOp19
 70
     0
102
RTVSPropertyOp20
 70
     0
102
RTVSPropertyOp21
 70
     0
102
RTVSPropertyOp22
 70
     0
102
RTVSPropertyOp23
 70
     0
102
RTVSPropertyOp24
 70
     0
102
RTVSPropertyOp25
 70
     0
102
RTVSPropertyOp26
 70
     0
102
RTVSPropertyOp27
 70
     0
102
RTVSPropertyOp28
 70
     1
102
RTVSPropertyOp29
 70
     1
102
RTVSPropertyOp30
 70
     1
102
RTVSPropertyOp31
 70
     1
102
RTVSPropertyOp32
 70
     1
102
RTVSPropertyOp33
 70
     1
102
RTVSPropertyOp34
 70
     1
102
RTVSPropertyOp35
 70
     1
102
RTVSPropertyOp36
 70
     1
102
RTVSPropertyOp37
 70
     0
102
RTVSPropertyOp38
 70
     0
102
RTVSPropertyOp39
 70
     0
102
RTVSPropertyOp40
 70
     0
102
RTVSPropertyOp41
 70
     0
102
RTVSPropertyOp42
 70
     0
102
RTVSPropertyOp43
 70
     0
102
RTVSPropertyOp44
 70
     0
102
RTVSPropertyOp45
 70
     1
102
RTVSPropertyOp46
 70
     0
102
RTVSPropertyOp47
 70
     0
102
RTVSPropertyOp48
 70
     0
102
RTVSPropertyOp49
 70
     1
102
RTVSPropertyOp50
 70
     0
102
RTVSPropertyOp51
 70
     0
102
RTVSPropertyOp52
 70
     0
102
RTVSPropertyOp53
 70
     0
102
RTVSPropertyOp54
 70
     0
102
RTVSPropertyOp55
 70
     1
102
RTVSPropertyOp56
 70
     0
102
RTVSPropertyOp57
 70
     0
102
RTVSPropertyOp58
 70
     0
102
RTVSPropertyOp59
 70
     0
102
RTVSPropertyOp60
 70
     0
102
RTVSPropertyOp61
 70
     0
102
RTVSPropertyOp62
 70
     0
  0
XRECORD
  5
ADB5
102
{ACAD_REACTORS
330
ADB4
102
}
330
ADB4
100
AcDbXrecord
280
     1
102
RTVSPost2010Prop28
280
     0
102
RTVSPost2010PropOp28
 70
     1
102
RTVSPost2010Prop29
280
     1
102
RTVSPost2010PropOp29
 70
     1
102
RTVSPost2010Prop30
280
     1
102
RTVSPost2010PropOp30
 70
     1
102
RTVSPost2010Prop31
280
     0
102
RTVSPost2010PropOp31
 70
     1
102
RTVSPost2010Prop32
280
     0
102
RTVSPost2010PropOp32
 70
     1
102
RTVSPost2010Prop33
280
     0
102
RTVSPost2010PropOp33
 70
     1
102
RTVSPost2010Prop34
280
     0
102
RTVSPost2010PropOp34
 70
     1
102
RTVSPost2010Prop35
280
     0
102
RTVSPost2010PropOp35
 70
     1
102
RTVSPost2010Prop36
280
     0
102
RTVSPost2010PropOp36
 70
     1
102
RTVSPost2010Prop37
 90
       50
102
RTVSPost2010PropOp37
 70
     1
102
RTVSPost2010Prop38
140
0.0
102
RTVSPost2010PropOp38
 70
     1
102
RTVSPost2010Prop39
140
1.0
102
RTVSPost2010PropOp39
 70
     1
102
RTVSPost2010Prop40
 90
        0
102
RTVSPost2010PropOp40
 70
     1
102
RTVSPost2010Prop41ColorIndex
 90
       18
102
RTVSPost2010Prop41ColorRGB
 90
        0
102
RTVSPost2010PropOp41
 70
     1
102
RTVSPost2010Prop42
 90
       50
102
RTVSPost2010PropOp42
 70
     1
102
RTVSPost2010Prop43
 90
        3
102
RTVSPost2010PropOp43
 70
     1
102
RTVSPost2010Prop44ColorIndex
 90
        5
102
RTVSPost2010Prop44ColorRGB
 90
      255
102
RTVSPost2010PropOp44
 70
     1
102
RTVSPost2010Prop45
280
     0
102
RTVSPost2010PropOp45
 70
     1
102
RTVSPost2010Prop46
 90
       50
102
RTVSPost2010PropOp46
 70
     1
102
RTVSPost2010Prop47
 90
       50
102
RTVSPost2010PropOp47
 70
     1
102
RTVSPost2010Prop48
 90
       50
102
RTVSPost2010PropOp48
 70
     1
102
RTVSPost2010Prop49
280
     0
102
RTVSPost2010PropOp49
 70
     1
102
RTVSPost2010Prop50
 90
       50
102
RTVSPost2010PropOp50
 70
     1
102
RTVSPost2010Prop51ColorIndex
 90
      256
102
RTVSPost2010Prop51ColorRGB
 90
-16777216
102
RTVSPost2010PropOp51
 70
     0
102
RTVSPost2010Prop52
140
1.0
102
RTVSPost2010PropOp52
 70
     0
102
RTVSPost2010Prop53
 90
        2
102
RTVSPost2010PropOp53
 70
     1
102
RTVSPost2010Prop54
  1
strokes_ogs.tif
102
RTVSPost2010PropOp54
 70
     1
102
RTVSPost2010Prop55
280
     0
102
RTVSPost2010PropOp55
 70
     1
102
RTVSPost2010Prop56
140
1.0
102
RTVSPost2010PropOp56
 70
     1
102
RTVSPost2010Prop57
140
1.0
102
RTVSPost2010PropOp57
 70
     1
102
RTVSPropertyOp0
 70
     1
102
RTVSPropertyOp1
 70
     1
102
RTVSPropertyOp2
 70
     1
102
RTVSPropertyOp3
 70
     1
102
RTVSPropertyOp4
 70
     1
102
RTVSPropertyOp5
 70
     1
102
RTVSPropertyOp6
 70
     1
102
RTVSPropertyOp7
 70
     1
102
RTVSPropertyOp8
 70
     1
102
RTVSPropertyOp9
 70
     1
102
RTVSPropertyOp10
 70
     1
102
RTVSPropertyOp11
 70
     1
102
RTVSPropertyOp12
 70
     1
102
RTVSPropertyOp13
 70
     1
102
RTVSPropertyOp14
 70
     1
102
RTVSPropertyOp15
 70
     1
102
RTVSPropertyOp16
 70
     1
102
RTVSPropertyOp17
 70
     1
102
RTVSPropertyOp18
 70
     1
102
RTVSPropertyOp19
 70
     1
102
RTVSPropertyOp20
 70
     1
102
RTVSPropertyOp21
 70
     1
102
RTVSPropertyOp22
 70
     1
102
RTVSPropertyOp23
 70
     1
102
RTVSPropertyOp24
 70
     1
102
RTVSPropertyOp25
 70
     1
102
RTVSPropertyOp26
 70
     1
102
RTVSPropertyOp27
 70
     1
102
RTVSPropertyOp28
 70
     1
102
RTVSPropertyOp29
 70
     1
102
RTVSPropertyOp30
 70
     1
102
RTVSPropertyOp31
 70
     1
102
RTVSPropertyOp32
 70
     1
102
RTVSPropertyOp33
 70
     1
102
RTVSPropertyOp34
 70
     1
102
RTVSPropertyOp35
 70
     1
102
RTVSPropertyOp36
 70
     1
102
RTVSPropertyOp37
 70
     1
102
RTVSPropertyOp38
 70
     1
102
RTVSPropertyOp39
 70
     1
102
RTVSPropertyOp40
 70
     1
102
RTVSPropertyOp41
 70
     1
102
RTVSPropertyOp42
 70
     1
102
RTVSPropertyOp43
 70
     1
102
RTVSPropertyOp44
 70
     1
102
RTVSPropertyOp45
 70
     1
102
RTVSPropertyOp46
 70
     1
102
RTVSPropertyOp47
 70
     1
102
RTVSPropertyOp48
 70
     1
102
RTVSPropertyOp49
 70
     1
102
RTVSPropertyOp50
 70
     1
102
RTVSPropertyOp51
 70
     0
102
RTVSPropertyOp52
 70
     0
102
RTVSPropertyOp53
 70
     1
102
RTVSPropertyOp54
 70
     1
102
RTVSPropertyOp55
 70
     1
102
RTVSPropertyOp56
 70
     1
102
RTVSPropertyOp57
 70
     1
102
RTVSPropertyOp58
 70
     1
102
RTVSPropertyOp59
 70
     1
102
RTVSPropertyOp60
 70
     1
102
RTVSPropertyOp61
 70
     1
102
RTVSPropertyOp62
 70
     1
  0
XRECORD
  5
ADCB
102
{ACAD_REACTORS
330
ADCA
102
}
330
ADCA
100
AcDbXrecord
280
     1
102
RTVSPost2010Prop28
280
     0
102
RTVSPost2010PropOp28
 70
     1
102
RTVSPost2010Prop29
280
     1
102
RTVSPost2010PropOp29
 70
     1
102
RTVSPost2010Prop30
280
     1
102
RTVSPost2010PropOp30
 70
     1
102
RTVSPost2010Prop31
280
     0
102
RTVSPost2010PropOp31
 70
     1
102
RTVSPost2010Prop32
280
     0
102
RTVSPost2010PropOp32
 70
     1
102
RTVSPost2010Prop33
280
     0
102
RTVSPost2010PropOp33
 70
     1
102
RTVSPost2010Prop34
280
     0
102
RTVSPost2010PropOp34
 70
     1
102
RTVSPost2010Prop35
280
     0
102
RTVSPost2010PropOp35
 70
     1
102
RTVSPost2010Prop36
280
     0
102
RTVSPost2010PropOp36
 70
     1
102
RTVSPost2010Prop37
 90
       50
102
RTVSPost2010PropOp37
 70
     1
102
RTVSPost2010Prop38
140
0.0
102
RTVSPost2010PropOp38
 70
     1
102
RTVSPost2010Prop39
140
1.0
102
RTVSPost2010PropOp39
 70
     1
102
RTVSPost2010Prop40
 90
        0
102
RTVSPost2010PropOp40
 70
     1
102
RTVSPost2010Prop41ColorIndex
 90
       18
102
RTVSPost2010Prop41ColorRGB
 90
        0
102
RTVSPost2010PropOp41
 70
     1
102
RTVSPost2010Prop42
 90
       50
102
RTVSPost2010PropOp42
 70
     1
102
RTVSPost2010Prop43
 90
        3
102
RTVSPost2010PropOp43
 70
     1
102
RTVSPost2010Prop44ColorIndex
 90
        5
102
RTVSPost2010Prop44ColorRGB
 90
      255
102
RTVSPost2010PropOp44
 70
     1
102
RTVSPost2010Prop45
280
     0
102
RTVSPost2010PropOp45
 70
     1
102
RTVSPost2010Prop46
 90
       50
102
RTVSPost2010PropOp46
 70
     1
102
RTVSPost2010Prop47
 90
       50
102
RTVSPost2010PropOp47
 70
     1
102
RTVSPost2010Prop48
 90
       50
102
RTVSPost2010PropOp48
 70
     1
102
RTVSPost2010Prop49
280
     0
102
RTVSPost2010PropOp49
 70
     1
102
RTVSPost2010Prop50
 90
       50
102
RTVSPost2010PropOp50
 70
     1
102
RTVSPost2010Prop51ColorIndex
 90
      256
102
RTVSPost2010Prop51ColorRGB
 90
-16777216
102
RTVSPost2010PropOp51
 70
     0
102
RTVSPost2010Prop52
140
1.0
102
RTVSPost2010PropOp52
 70
     0
102
RTVSPost2010Prop53
 90
        2
102
RTVSPost2010PropOp53
 70
     1
102
RTVSPost2010Prop54
  1
strokes_ogs.tif
102
RTVSPost2010PropOp54
 70
     1
102
RTVSPost2010Prop55
280
     0
102
RTVSPost2010PropOp55
 70
     1
102
RTVSPost2010Prop56
140
1.0
102
RTVSPost2010PropOp56
 70
     1
102
RTVSPost2010Prop57
140
1.0
102
RTVSPost2010PropOp57
 70
     1
102
RTVSPropertyOp0
 70
     1
102
RTVSPropertyOp1
 70
     1
102
RTVSPropertyOp2
 70
     1
102
RTVSPropertyOp3
 70
     1
102
RTVSPropertyOp4
 70
     1
102
RTVSPropertyOp5
 70
     1
102
RTVSPropertyOp6
 70
     1
102
RTVSPropertyOp7
 70
     1
102
RTVSPropertyOp8
 70
     1
102
RTVSPropertyOp9
 70
     1
102
RTVSPropertyOp10
 70
     1
102
RTVSPropertyOp11
 70
     1
102
RTVSPropertyOp12
 70
     1
102
RTVSPropertyOp13
 70
     1
102
RTVSPropertyOp14
 70
     1
102
RTVSPropertyOp15
 70
     1
102
RTVSPropertyOp16
 70
     1
102
RTVSPropertyOp17
 70
     1
102
RTVSPropertyOp18
 70
     1
102
RTVSPropertyOp19
 70
     1
102
RTVSPropertyOp20
 70
     1
102
RTVSPropertyOp21
 70
     1
102
RTVSPropertyOp22
 70
     1
102
RTVSPropertyOp23
 70
     1
102
RTVSPropertyOp24
 70
     1
102
RTVSPropertyOp25
 70
     1
102
RTVSPropertyOp26
 70
     1
102
RTVSPropertyOp27
 70
     1
102
RTVSPropertyOp28
 70
     1
102
RTVSPropertyOp29
 70
     1
102
RTVSPropertyOp30
 70
     1
102
RTVSPropertyOp31
 70
     1
102
RTVSPropertyOp32
 70
     1
102
RTVSPropertyOp33
 70
     1
102
RTVSPropertyOp34
 70
     1
102
RTVSPropertyOp35
 70
     1
102
RTVSPropertyOp36
 70
     1
102
RTVSPropertyOp37
 70
     1
102
RTVSPropertyOp38
 70
     1
102
RTVSPropertyOp39
 70
     1
102
RTVSPropertyOp40
 70
     1
102
RTVSPropertyOp41
 70
     1
102
RTVSPropertyOp42
 70
     1
102
RTVSPropertyOp43
 70
     1
102
RTVSPropertyOp44
 70
     1
102
RTVSPropertyOp45
 70
     1
102
RTVSPropertyOp46
 70
     1
102
RTVSPropertyOp47
 70
     1
102
RTVSPropertyOp48
 70
     1
102
RTVSPropertyOp49
 70
     1
102
RTVSPropertyOp50
 70
     1
102
RTVSPropertyOp51
 70
     0
102
RTVSPropertyOp52
 70
     0
102
RTVSPropertyOp53
 70
     1
102
RTVSPropertyOp54
 70
     1
102
RTVSPropertyOp55
 70
     1
102
RTVSPropertyOp56
 70
     1
102
RTVSPropertyOp57
 70
     1
102
RTVSPropertyOp58
 70
     1
102
RTVSPropertyOp59
 70
     1
102
RTVSPropertyOp60
 70
     1
102
RTVSPropertyOp61
 70
     1
102
RTVSPropertyOp62
 70
     1
  0
XRECORD
  5
ADC9
102
{ACAD_REACTORS
330
ADC8
102
}
330
ADC8
100
AcDbXrecord
280
     1
102
RTVSPost2010Prop28
280
     0
102
RTVSPost2010PropOp28
 70
     1
102
RTVSPost2010Prop29
280
     1
102
RTVSPost2010PropOp29
 70
     1
102
RTVSPost2010Prop30
280
     1
102
RTVSPost2010PropOp30
 70
     1
102
RTVSPost2010Prop31
280
     0
102
RTVSPost2010PropOp31
 70
     1
102
RTVSPost2010Prop32
280
     0
102
RTVSPost2010PropOp32
 70
     1
102
RTVSPost2010Prop33
280
     0
102
RTVSPost2010PropOp33
 70
     1
102
RTVSPost2010Prop34
280
     0
102
RTVSPost2010PropOp34
 70
     1
102
RTVSPost2010Prop35
280
     0
102
RTVSPost2010PropOp35
 70
     1
102
RTVSPost2010Prop36
280
     0
102
RTVSPost2010PropOp36
 70
     1
102
RTVSPost2010Prop37
 90
       50
102
RTVSPost2010PropOp37
 70
     1
102
RTVSPost2010Prop38
140
0.0
102
RTVSPost2010PropOp38
 70
     1
102
RTVSPost2010Prop39
140
1.0
102
RTVSPost2010PropOp39
 70
     1
102
RTVSPost2010Prop40
 90
        0
102
RTVSPost2010PropOp40
 70
     1
102
RTVSPost2010Prop41ColorIndex
 90
       18
102
RTVSPost2010Prop41ColorRGB
 90
        0
102
RTVSPost2010PropOp41
 70
     1
102
RTVSPost2010Prop42
 90
       50
102
RTVSPost2010PropOp42
 70
     1
102
RTVSPost2010Prop43
 90
        3
102
RTVSPost2010PropOp43
 70
     1
102
RTVSPost2010Prop44ColorIndex
 90
        5
102
RTVSPost2010Prop44ColorRGB
 90
      255
102
RTVSPost2010PropOp44
 70
     1
102
RTVSPost2010Prop45
280
     0
102
RTVSPost2010PropOp45
 70
     1
102
RTVSPost2010Prop46
 90
       50
102
RTVSPost2010PropOp46
 70
     1
102
RTVSPost2010Prop47
 90
       50
102
RTVSPost2010PropOp47
 70
     1
102
RTVSPost2010Prop48
 90
       50
102
RTVSPost2010PropOp48
 70
     1
102
RTVSPost2010Prop49
280
     0
102
RTVSPost2010PropOp49
 70
     1
102
RTVSPost2010Prop50
 90
       50
102
RTVSPost2010PropOp50
 70
     1
102
RTVSPost2010Prop51ColorIndex
 90
      256
102
RTVSPost2010Prop51ColorRGB
 90
-16777216
102
RTVSPost2010PropOp51
 70
     0
102
RTVSPost2010Prop52
140
1.0
102
RTVSPost2010PropOp52
 70
     0
102
RTVSPost2010Prop53
 90
        2
102
RTVSPost2010PropOp53
 70
     1
102
RTVSPost2010Prop54
  1
strokes_ogs.tif
102
RTVSPost2010PropOp54
 70
     1
102
RTVSPost2010Prop55
280
     0
102
RTVSPost2010PropOp55
 70
     1
102
RTVSPost2010Prop56
140
1.0
102
RTVSPost2010PropOp56
 70
     1
102
RTVSPost2010Prop57
140
1.0
102
RTVSPost2010PropOp57
 70
     1
102
RTVSPropertyOp0
 70
     1
102
RTVSPropertyOp1
 70
     1
102
RTVSPropertyOp2
 70
     1
102
RTVSPropertyOp3
 70
     1
102
RTVSPropertyOp4
 70
     1
102
RTVSPropertyOp5
 70
     1
102
RTVSPropertyOp6
 70
     1
102
RTVSPropertyOp7
 70
     1
102
RTVSPropertyOp8
 70
     1
102
RTVSPropertyOp9
 70
     1
102
RTVSPropertyOp10
 70
     1
102
RTVSPropertyOp11
 70
     1
102
RTVSPropertyOp12
 70
     1
102
RTVSPropertyOp13
 70
     1
102
RTVSPropertyOp14
 70
     1
102
RTVSPropertyOp15
 70
     1
102
RTVSPropertyOp16
 70
     1
102
RTVSPropertyOp17
 70
     1
102
RTVSPropertyOp18
 70
     1
102
RTVSPropertyOp19
 70
     1
102
RTVSPropertyOp20
 70
     1
102
RTVSPropertyOp21
 70
     1
102
RTVSPropertyOp22
 70
     1
102
RTVSPropertyOp23
 70
     1
102
RTVSPropertyOp24
 70
     1
102
RTVSPropertyOp25
 70
     1
102
RTVSPropertyOp26
 70
     1
102
RTVSPropertyOp27
 70
     1
102
RTVSPropertyOp28
 70
     1
102
RTVSPropertyOp29
 70
     1
102
RTVSPropertyOp30
 70
     1
102
RTVSPropertyOp31
 70
     1
102
RTVSPropertyOp32
 70
     1
102
RTVSPropertyOp33
 70
     1
102
RTVSPropertyOp34
 70
     1
102
RTVSPropertyOp35
 70
     1
102
RTVSPropertyOp36
 70
     1
102
RTVSPropertyOp37
 70
     1
102
RTVSPropertyOp38
 70
     1
102
RTVSPropertyOp39
 70
     1
102
RTVSPropertyOp40
 70
     1
102
RTVSPropertyOp41
 70
     1
102
RTVSPropertyOp42
 70
     1
102
RTVSPropertyOp43
 70
     1
102
RTVSPropertyOp44
 70
     1
102
RTVSPropertyOp45
 70
     1
102
RTVSPropertyOp46
 70
     1
102
RTVSPropertyOp47
 70
     1
102
RTVSPropertyOp48
 70
     1
102
RTVSPropertyOp49
 70
     1
102
RTVSPropertyOp50
 70
     1
102
RTVSPropertyOp51
 70
     0
102
RTVSPropertyOp52
 70
     0
102
RTVSPropertyOp53
 70
     1
102
RTVSPropertyOp54
 70
     1
102
RTVSPropertyOp55
 70
     1
102
RTVSPropertyOp56
 70
     1
102
RTVSPropertyOp57
 70
     1
102
RTVSPropertyOp58
 70
     1
102
RTVSPropertyOp59
 70
     1
102
RTVSPropertyOp60
 70
     1
102
RTVSPropertyOp61
 70
     1
102
RTVSPropertyOp62
 70
     1
  0
XRECORD
  5
ADC3
102
{ACAD_REACTORS
330
ADC2
102
}
330
ADC2
100
AcDbXrecord
280
     1
102
RTVSPost2010Prop28
280
     0
102
RTVSPost2010PropOp28
 70
     1
102
RTVSPost2010Prop29
280
     1
102
RTVSPost2010PropOp29
 70
     1
102
RTVSPost2010Prop30
280
     1
102
RTVSPost2010PropOp30
 70
     1
102
RTVSPost2010Prop31
280
     0
102
RTVSPost2010PropOp31
 70
     1
102
RTVSPost2010Prop32
280
     0
102
RTVSPost2010PropOp32
 70
     1
102
RTVSPost2010Prop33
280
     0
102
RTVSPost2010PropOp33
 70
     1
102
RTVSPost2010Prop34
280
     0
102
RTVSPost2010PropOp34
 70
     1
102
RTVSPost2010Prop35
280
     0
102
RTVSPost2010PropOp35
 70
     1
102
RTVSPost2010Prop36
280
     0
102
RTVSPost2010PropOp36
 70
     1
102
RTVSPost2010Prop37
 90
       50
102
RTVSPost2010PropOp37
 70
     1
102
RTVSPost2010Prop38
140
0.0
102
RTVSPost2010PropOp38
 70
     1
102
RTVSPost2010Prop39
140
1.0
102
RTVSPost2010PropOp39
 70
     1
102
RTVSPost2010Prop40
 90
        0
102
RTVSPost2010PropOp40
 70
     1
102
RTVSPost2010Prop41ColorIndex
 90
       18
102
RTVSPost2010Prop41ColorRGB
 90
        0
102
RTVSPost2010PropOp41
 70
     1
102
RTVSPost2010Prop42
 90
       50
102
RTVSPost2010PropOp42
 70
     1
102
RTVSPost2010Prop43
 90
        3
102
RTVSPost2010PropOp43
 70
     1
102
RTVSPost2010Prop44ColorIndex
 90
        5
102
RTVSPost2010Prop44ColorRGB
 90
      255
102
RTVSPost2010PropOp44
 70
     1
102
RTVSPost2010Prop45
280
     0
102
RTVSPost2010PropOp45
 70
     1
102
RTVSPost2010Prop46
 90
       50
102
RTVSPost2010PropOp46
 70
     1
102
RTVSPost2010Prop47
 90
       50
102
RTVSPost2010PropOp47
 70
     1
102
RTVSPost2010Prop48
 90
       50
102
RTVSPost2010PropOp48
 70
     1
102
RTVSPost2010Prop49
280
     0
102
RTVSPost2010PropOp49
 70
     1
102
RTVSPost2010Prop50
 90
       50
102
RTVSPost2010PropOp50
 70
     1
102
RTVSPost2010Prop51ColorIndex
 90
      256
102
RTVSPost2010Prop51ColorRGB
 90
-16777216
102
RTVSPost2010PropOp51
 70
     0
102
RTVSPost2010Prop52
140
1.0
102
RTVSPost2010PropOp52
 70
     0
102
RTVSPost2010Prop53
 90
        2
102
RTVSPost2010PropOp53
 70
     1
102
RTVSPost2010Prop54
  1
strokes_ogs.tif
102
RTVSPost2010PropOp54
 70
     1
102
RTVSPost2010Prop55
280
     0
102
RTVSPost2010PropOp55
 70
     1
102
RTVSPost2010Prop56
140
1.0
102
RTVSPost2010PropOp56
 70
     1
102
RTVSPost2010Prop57
140
1.0
102
RTVSPost2010PropOp57
 70
     1
102
RTVSPropertyOp0
 70
     1
102
RTVSPropertyOp1
 70
     1
102
RTVSPropertyOp2
 70
     1
102
RTVSPropertyOp3
 70
     1
102
RTVSPropertyOp4
 70
     1
102
RTVSPropertyOp5
 70
     1
102
RTVSPropertyOp6
 70
     1
102
RTVSPropertyOp7
 70
     1
102
RTVSPropertyOp8
 70
     1
102
RTVSPropertyOp9
 70
     1
102
RTVSPropertyOp10
 70
     1
102
RTVSPropertyOp11
 70
     1
102
RTVSPropertyOp12
 70
     1
102
RTVSPropertyOp13
 70
     1
102
RTVSPropertyOp14
 70
     1
102
RTVSPropertyOp15
 70
     1
102
RTVSPropertyOp16
 70
     1
102
RTVSPropertyOp17
 70
     1
102
RTVSPropertyOp18
 70
     1
102
RTVSPropertyOp19
 70
     1
102
RTVSPropertyOp20
 70
     1
102
RTVSPropertyOp21
 70
     1
102
RTVSPropertyOp22
 70
     1
102
RTVSPropertyOp23
 70
     1
102
RTVSPropertyOp24
 70
     1
102
RTVSPropertyOp25
 70
     1
102
RTVSPropertyOp26
 70
     1
102
RTVSPropertyOp27
 70
     1
102
RTVSPropertyOp28
 70
     1
102
RTVSPropertyOp29
 70
     1
102
RTVSPropertyOp30
 70
     1
102
RTVSPropertyOp31
 70
     1
102
RTVSPropertyOp32
 70
     1
102
RTVSPropertyOp33
 70
     1
102
RTVSPropertyOp34
 70
     1
102
RTVSPropertyOp35
 70
     1
102
RTVSPropertyOp36
 70
     1
102
RTVSPropertyOp37
 70
     1
102
RTVSPropertyOp38
 70
     1
102
RTVSPropertyOp39
 70
     1
102
RTVSPropertyOp40
 70
     1
102
RTVSPropertyOp41
 70
     1
102
RTVSPropertyOp42
 70
     1
102
RTVSPropertyOp43
 70
     1
102
RTVSPropertyOp44
 70
     1
102
RTVSPropertyOp45
 70
     1
102
RTVSPropertyOp46
 70
     1
102
RTVSPropertyOp47
 70
     1
102
RTVSPropertyOp48
 70
     1
102
RTVSPropertyOp49
 70
     1
102
RTVSPropertyOp50
 70
     1
102
RTVSPropertyOp51
 70
     0
102
RTVSPropertyOp52
 70
     0
102
RTVSPropertyOp53
 70
     1
102
RTVSPropertyOp54
 70
     1
102
RTVSPropertyOp55
 70
     1
102
RTVSPropertyOp56
 70
     1
102
RTVSPropertyOp57
 70
     1
102
RTVSPropertyOp58
 70
     1
102
RTVSPropertyOp59
 70
     1
102
RTVSPropertyOp60
 70
     1
102
RTVSPropertyOp61
 70
     1
102
RTVSPropertyOp62
 70
     1
  0
XRECORD
  5
ADC5
102
{ACAD_REACTORS
330
ADC4
102
}
330
ADC4
100
AcDbXrecord
280
     1
102
RTVSPost2010Prop28
280
     0
102
RTVSPost2010PropOp28
 70
     1
102
RTVSPost2010Prop29
280
     1
102
RTVSPost2010PropOp29
 70
     1
102
RTVSPost2010Prop30
280
     1
102
RTVSPost2010PropOp30
 70
     1
102
RTVSPost2010Prop31
280
     0
102
RTVSPost2010PropOp31
 70
     1
102
RTVSPost2010Prop32
280
     0
102
RTVSPost2010PropOp32
 70
     1
102
RTVSPost2010Prop33
280
     0
102
RTVSPost2010PropOp33
 70
     1
102
RTVSPost2010Prop34
280
     0
102
RTVSPost2010PropOp34
 70
     1
102
RTVSPost2010Prop35
280
     0
102
RTVSPost2010PropOp35
 70
     1
102
RTVSPost2010Prop36
280
     0
102
RTVSPost2010PropOp36
 70
     1
102
RTVSPost2010Prop37
 90
       50
102
RTVSPost2010PropOp37
 70
     1
102
RTVSPost2010Prop38
140
0.0
102
RTVSPost2010PropOp38
 70
     1
102
RTVSPost2010Prop39
140
1.0
102
RTVSPost2010PropOp39
 70
     1
102
RTVSPost2010Prop40
 90
        0
102
RTVSPost2010PropOp40
 70
     1
102
RTVSPost2010Prop41ColorIndex
 90
       18
102
RTVSPost2010Prop41ColorRGB
 90
        0
102
RTVSPost2010PropOp41
 70
     1
102
RTVSPost2010Prop42
 90
       50
102
RTVSPost2010PropOp42
 70
     1
102
RTVSPost2010Prop43
 90
        3
102
RTVSPost2010PropOp43
 70
     1
102
RTVSPost2010Prop44ColorIndex
 90
        5
102
RTVSPost2010Prop44ColorRGB
 90
      255
102
RTVSPost2010PropOp44
 70
     1
102
RTVSPost2010Prop45
280
     0
102
RTVSPost2010PropOp45
 70
     1
102
RTVSPost2010Prop46
 90
       50
102
RTVSPost2010PropOp46
 70
     1
102
RTVSPost2010Prop47
 90
       50
102
RTVSPost2010PropOp47
 70
     1
102
RTVSPost2010Prop48
 90
       50
102
RTVSPost2010PropOp48
 70
     1
102
RTVSPost2010Prop49
280
     0
102
RTVSPost2010PropOp49
 70
     1
102
RTVSPost2010Prop50
 90
       50
102
RTVSPost2010PropOp50
 70
     1
102
RTVSPost2010Prop51ColorIndex
 90
      256
102
RTVSPost2010Prop51ColorRGB
 90
-16777216
102
RTVSPost2010PropOp51
 70
     0
102
RTVSPost2010Prop52
140
1.0
102
RTVSPost2010PropOp52
 70
     0
102
RTVSPost2010Prop53
 90
        2
102
RTVSPost2010PropOp53
 70
     1
102
RTVSPost2010Prop54
  1
strokes_ogs.tif
102
RTVSPost2010PropOp54
 70
     1
102
RTVSPost2010Prop55
280
     0
102
RTVSPost2010PropOp55
 70
     1
102
RTVSPost2010Prop56
140
1.0
102
RTVSPost2010PropOp56
 70
     1
102
RTVSPost2010Prop57
140
1.0
102
RTVSPost2010PropOp57
 70
     1
102
RTVSPropertyOp0
 70
     1
102
RTVSPropertyOp1
 70
     1
102
RTVSPropertyOp2
 70
     1
102
RTVSPropertyOp3
 70
     1
102
RTVSPropertyOp4
 70
     1
102
RTVSPropertyOp5
 70
     1
102
RTVSPropertyOp6
 70
     1
102
RTVSPropertyOp7
 70
     1
102
RTVSPropertyOp8
 70
     1
102
RTVSPropertyOp9
 70
     1
102
RTVSPropertyOp10
 70
     1
102
RTVSPropertyOp11
 70
     1
102
RTVSPropertyOp12
 70
     1
102
RTVSPropertyOp13
 70
     1
102
RTVSPropertyOp14
 70
     1
102
RTVSPropertyOp15
 70
     1
102
RTVSPropertyOp16
 70
     1
102
RTVSPropertyOp17
 70
     1
102
RTVSPropertyOp18
 70
     1
102
RTVSPropertyOp19
 70
     1
102
RTVSPropertyOp20
 70
     1
102
RTVSPropertyOp21
 70
     1
102
RTVSPropertyOp22
 70
     1
102
RTVSPropertyOp23
 70
     1
102
RTVSPropertyOp24
 70
     1
102
RTVSPropertyOp25
 70
     1
102
RTVSPropertyOp26
 70
     1
102
RTVSPropertyOp27
 70
     1
102
RTVSPropertyOp28
 70
     1
102
RTVSPropertyOp29
 70
     1
102
RTVSPropertyOp30
 70
     1
102
RTVSPropertyOp31
 70
     1
102
RTVSPropertyOp32
 70
     1
102
RTVSPropertyOp33
 70
     1
102
RTVSPropertyOp34
 70
     1
102
RTVSPropertyOp35
 70
     1
102
RTVSPropertyOp36
 70
     1
102
RTVSPropertyOp37
 70
     1
102
RTVSPropertyOp38
 70
     1
102
RTVSPropertyOp39
 70
     1
102
RTVSPropertyOp40
 70
     1
102
RTVSPropertyOp41
 70
     1
102
RTVSPropertyOp42
 70
     1
102
RTVSPropertyOp43
 70
     1
102
RTVSPropertyOp44
 70
     1
102
RTVSPropertyOp45
 70
     1
102
RTVSPropertyOp46
 70
     1
102
RTVSPropertyOp47
 70
     1
102
RTVSPropertyOp48
 70
     1
102
RTVSPropertyOp49
 70
     1
102
RTVSPropertyOp50
 70
     1
102
RTVSPropertyOp51
 70
     0
102
RTVSPropertyOp52
 70
     0
102
RTVSPropertyOp53
 70
     1
102
RTVSPropertyOp54
 70
     1
102
RTVSPropertyOp55
 70
     1
102
RTVSPropertyOp56
 70
     1
102
RTVSPropertyOp57
 70
     1
102
RTVSPropertyOp58
 70
     1
102
RTVSPropertyOp59
 70
     1
102
RTVSPropertyOp60
 70
     1
102
RTVSPropertyOp61
 70
     1
102
RTVSPropertyOp62
 70
     1
  0
XRECORD
  5
ADBB
102
{ACAD_REACTORS
330
ADBA
102
}
330
ADBA
100
AcDbXrecord
280
     1
102
RTVSPost2010Prop28
280
     0
102
RTVSPost2010PropOp28
 70
     1
102
RTVSPost2010Prop29
280
     1
102
RTVSPost2010PropOp29
 70
     1
102
RTVSPost2010Prop30
280
     1
102
RTVSPost2010PropOp30
 70
     1
102
RTVSPost2010Prop31
280
     0
102
RTVSPost2010PropOp31
 70
     1
102
RTVSPost2010Prop32
280
     0
102
RTVSPost2010PropOp32
 70
     1
102
RTVSPost2010Prop33
280
     0
102
RTVSPost2010PropOp33
 70
     1
102
RTVSPost2010Prop34
280
     0
102
RTVSPost2010PropOp34
 70
     1
102
RTVSPost2010Prop35
280
     0
102
RTVSPost2010PropOp35
 70
     1
102
RTVSPost2010Prop36
280
     0
102
RTVSPost2010PropOp36
 70
     1
102
RTVSPost2010Prop37
 90
       50
102
RTVSPost2010PropOp37
 70
     1
102
RTVSPost2010Prop38
140
0.0
102
RTVSPost2010PropOp38
 70
     1
102
RTVSPost2010Prop39
140
1.0
102
RTVSPost2010PropOp39
 70
     1
102
RTVSPost2010Prop40
 90
        0
102
RTVSPost2010PropOp40
 70
     1
102
RTVSPost2010Prop41ColorIndex
 90
       18
102
RTVSPost2010Prop41ColorRGB
 90
        0
102
RTVSPost2010PropOp41
 70
     1
102
RTVSPost2010Prop42
 90
       50
102
RTVSPost2010PropOp42
 70
     1
102
RTVSPost2010Prop43
 90
        3
102
RTVSPost2010PropOp43
 70
     1
102
RTVSPost2010Prop44ColorIndex
 90
        5
102
RTVSPost2010Prop44ColorRGB
 90
      255
102
RTVSPost2010PropOp44
 70
     1
102
RTVSPost2010Prop45
280
     0
102
RTVSPost2010PropOp45
 70
     1
102
RTVSPost2010Prop46
 90
       50
102
RTVSPost2010PropOp46
 70
     1
102
RTVSPost2010Prop47
 90
       50
102
RTVSPost2010PropOp47
 70
     1
102
RTVSPost2010Prop48
 90
       50
102
RTVSPost2010PropOp48
 70
     1
102
RTVSPost2010Prop49
280
     0
102
RTVSPost2010PropOp49
 70
     1
102
RTVSPost2010Prop50
 90
       50
102
RTVSPost2010PropOp50
 70
     1
102
RTVSPost2010Prop51ColorIndex
 90
      256
102
RTVSPost2010Prop51ColorRGB
 90
-16777216
102
RTVSPost2010PropOp51
 70
     0
102
RTVSPost2010Prop52
140
1.0
102
RTVSPost2010PropOp52
 70
     0
102
RTVSPost2010Prop53
 90
        2
102
RTVSPost2010PropOp53
 70
     1
102
RTVSPost2010Prop54
  1
strokes_ogs.tif
102
RTVSPost2010PropOp54
 70
     1
102
RTVSPost2010Prop55
280
     0
102
RTVSPost2010PropOp55
 70
     1
102
RTVSPost2010Prop56
140
1.0
102
RTVSPost2010PropOp56
 70
     1
102
RTVSPost2010Prop57
140
1.0
102
RTVSPost2010PropOp57
 70
     1
102
RTVSPropertyOp0
 70
     1
102
RTVSPropertyOp1
 70
     1
102
RTVSPropertyOp2
 70
     1
102
RTVSPropertyOp3
 70
     1
102
RTVSPropertyOp4
 70
     1
102
RTVSPropertyOp5
 70
     1
102
RTVSPropertyOp6
 70
     1
102
RTVSPropertyOp7
 70
     1
102
RTVSPropertyOp8
 70
     1
102
RTVSPropertyOp9
 70
     1
102
RTVSPropertyOp10
 70
     1
102
RTVSPropertyOp11
 70
     1
102
RTVSPropertyOp12
 70
     1
102
RTVSPropertyOp13
 70
     1
102
RTVSPropertyOp14
 70
     1
102
RTVSPropertyOp15
 70
     1
102
RTVSPropertyOp16
 70
     1
102
RTVSPropertyOp17
 70
     1
102
RTVSPropertyOp18
 70
     1
102
RTVSPropertyOp19
 70
     1
102
RTVSPropertyOp20
 70
     1
102
RTVSPropertyOp21
 70
     1
102
RTVSPropertyOp22
 70
     1
102
RTVSPropertyOp23
 70
     1
102
RTVSPropertyOp24
 70
     1
102
RTVSPropertyOp25
 70
     1
102
RTVSPropertyOp26
 70
     1
102
RTVSPropertyOp27
 70
     1
102
RTVSPropertyOp28
 70
     1
102
RTVSPropertyOp29
 70
     1
102
RTVSPropertyOp30
 70
     1
102
RTVSPropertyOp31
 70
     1
102
RTVSPropertyOp32
 70
     1
102
RTVSPropertyOp33
 70
     1
102
RTVSPropertyOp34
 70
     1
102
RTVSPropertyOp35
 70
     1
102
RTVSPropertyOp36
 70
     1
102
RTVSPropertyOp37
 70
     1
102
RTVSPropertyOp38
 70
     1
102
RTVSPropertyOp39
 70
     1
102
RTVSPropertyOp40
 70
     1
102
RTVSPropertyOp41
 70
     1
102
RTVSPropertyOp42
 70
     1
102
RTVSPropertyOp43
 70
     1
102
RTVSPropertyOp44
 70
     1
102
RTVSPropertyOp45
 70
     1
102
RTVSPropertyOp46
 70
     1
102
RTVSPropertyOp47
 70
     1
102
RTVSPropertyOp48
 70
     1
102
RTVSPropertyOp49
 70
     1
102
RTVSPropertyOp50
 70
     1
102
RTVSPropertyOp51
 70
     0
102
RTVSPropertyOp52
 70
     0
102
RTVSPropertyOp53
 70
     1
102
RTVSPropertyOp54
 70
     1
102
RTVSPropertyOp55
 70
     1
102
RTVSPropertyOp56
 70
     1
102
RTVSPropertyOp57
 70
     1
102
RTVSPropertyOp58
 70
     1
102
RTVSPropertyOp59
 70
     1
102
RTVSPropertyOp60
 70
     1
102
RTVSPropertyOp61
 70
     1
102
RTVSPropertyOp62
 70
     1
  0
XRECORD
  5
ADAF
102
{ACAD_REACTORS
330
ADAE
102
}
330
ADAE
100
AcDbXrecord
280
     1
102
RTVSPost2010Prop28
280
     0
102
RTVSPost2010PropOp28
 70
     1
102
RTVSPost2010Prop29
280
     1
102
RTVSPost2010PropOp29
 70
     1
102
RTVSPost2010Prop30
280
     1
102
RTVSPost2010PropOp30
 70
     1
102
RTVSPost2010Prop31
280
     0
102
RTVSPost2010PropOp31
 70
     1
102
RTVSPost2010Prop32
280
     0
102
RTVSPost2010PropOp32
 70
     1
102
RTVSPost2010Prop33
280
     0
102
RTVSPost2010PropOp33
 70
     1
102
RTVSPost2010Prop34
280
     0
102
RTVSPost2010PropOp34
 70
     1
102
RTVSPost2010Prop35
280
     0
102
RTVSPost2010PropOp35
 70
     1
102
RTVSPost2010Prop36
280
     0
102
RTVSPost2010PropOp36
 70
     1
102
RTVSPost2010Prop37
 90
       50
102
RTVSPost2010PropOp37
 70
     1
102
RTVSPost2010Prop38
140
0.0
102
RTVSPost2010PropOp38
 70
     1
102
RTVSPost2010Prop39
140
1.0
102
RTVSPost2010PropOp39
 70
     1
102
RTVSPost2010Prop40
 90
        0
102
RTVSPost2010PropOp40
 70
     1
102
RTVSPost2010Prop41ColorIndex
 90
       18
102
RTVSPost2010Prop41ColorRGB
 90
        0
102
RTVSPost2010PropOp41
 70
     1
102
RTVSPost2010Prop42
 90
       50
102
RTVSPost2010PropOp42
 70
     1
102
RTVSPost2010Prop43
 90
        3
102
RTVSPost2010PropOp43
 70
     1
102
RTVSPost2010Prop44ColorIndex
 90
        5
102
RTVSPost2010Prop44ColorRGB
 90
      255
102
RTVSPost2010PropOp44
 70
     1
102
RTVSPost2010Prop45
280
     0
102
RTVSPost2010PropOp45
 70
     1
102
RTVSPost2010Prop46
 90
       50
102
RTVSPost2010PropOp46
 70
     1
102
RTVSPost2010Prop47
 90
       50
102
RTVSPost2010PropOp47
 70
     1
102
RTVSPost2010Prop48
 90
       50
102
RTVSPost2010PropOp48
 70
     1
102
RTVSPost2010Prop49
280
     0
102
RTVSPost2010PropOp49
 70
     1
102
RTVSPost2010Prop50
 90
       50
102
RTVSPost2010PropOp50
 70
     1
102
RTVSPost2010Prop51ColorIndex
 90
      256
102
RTVSPost2010Prop51ColorRGB
 90
-16777216
102
RTVSPost2010PropOp51
 70
     0
102
RTVSPost2010Prop52
140
1.0
102
RTVSPost2010PropOp52
 70
     0
102
RTVSPost2010Prop53
 90
        2
102
RTVSPost2010PropOp53
 70
     1
102
RTVSPost2010Prop54
  1
strokes_ogs.tif
102
RTVSPost2010PropOp54
 70
     1
102
RTVSPost2010Prop55
280
     0
102
RTVSPost2010PropOp55
 70
     1
102
RTVSPost2010Prop56
140
1.0
102
RTVSPost2010PropOp56
 70
     1
102
RTVSPost2010Prop57
140
1.0
102
RTVSPost2010PropOp57
 70
     1
102
RTVSPropertyOp0
 70
     1
102
RTVSPropertyOp1
 70
     1
102
RTVSPropertyOp2
 70
     1
102
RTVSPropertyOp3
 70
     1
102
RTVSPropertyOp4
 70
     1
102
RTVSPropertyOp5
 70
     1
102
RTVSPropertyOp6
 70
     1
102
RTVSPropertyOp7
 70
     1
102
RTVSPropertyOp8
 70
     1
102
RTVSPropertyOp9
 70
     1
102
RTVSPropertyOp10
 70
     1
102
RTVSPropertyOp11
 70
     1
102
RTVSPropertyOp12
 70
     1
102
RTVSPropertyOp13
 70
     1
102
RTVSPropertyOp14
 70
     1
102
RTVSPropertyOp15
 70
     1
102
RTVSPropertyOp16
 70
     1
102
RTVSPropertyOp17
 70
     1
102
RTVSPropertyOp18
 70
     1
102
RTVSPropertyOp19
 70
     1
102
RTVSPropertyOp20
 70
     1
102
RTVSPropertyOp21
 70
     1
102
RTVSPropertyOp22
 70
     1
102
RTVSPropertyOp23
 70
     1
102
RTVSPropertyOp24
 70
     1
102
RTVSPropertyOp25
 70
     1
102
RTVSPropertyOp26
 70
     1
102
RTVSPropertyOp27
 70
     1
102
RTVSPropertyOp28
 70
     1
102
RTVSPropertyOp29
 70
     1
102
RTVSPropertyOp30
 70
     1
102
RTVSPropertyOp31
 70
     1
102
RTVSPropertyOp32
 70
     1
102
RTVSPropertyOp33
 70
     1
102
RTVSPropertyOp34
 70
     1
102
RTVSPropertyOp35
 70
     1
102
RTVSPropertyOp36
 70
     1
102
RTVSPropertyOp37
 70
     1
102
RTVSPropertyOp38
 70
     1
102
RTVSPropertyOp39
 70
     1
102
RTVSPropertyOp40
 70
     1
102
RTVSPropertyOp41
 70
     1
102
RTVSPropertyOp42
 70
     1
102
RTVSPropertyOp43
 70
     1
102
RTVSPropertyOp44
 70
     1
102
RTVSPropertyOp45
 70
     1
102
RTVSPropertyOp46
 70
     1
102
RTVSPropertyOp47
 70
     1
102
RTVSPropertyOp48
 70
     1
102
RTVSPropertyOp49
 70
     1
102
RTVSPropertyOp50
 70
     1
102
RTVSPropertyOp51
 70
     0
102
RTVSPropertyOp52
 70
     0
102
RTVSPropertyOp53
 70
     1
102
RTVSPropertyOp54
 70
     1
102
RTVSPropertyOp55
 70
     1
102
RTVSPropertyOp56
 70
     1
102
RTVSPropertyOp57
 70
     1
102
RTVSPropertyOp58
 70
     1
102
RTVSPropertyOp59
 70
     1
102
RTVSPropertyOp60
 70
     1
102
RTVSPropertyOp61
 70
     1
102
RTVSPropertyOp62
 70
     1
  0
XRECORD
  5
ADC7
102
{ACAD_REACTORS
330
ADC6
102
}
330
ADC6
100
AcDbXrecord
280
     1
102
RTVSPost2010Prop28
280
     0
102
RTVSPost2010PropOp28
 70
     1
102
RTVSPost2010Prop29
280
     1
102
RTVSPost2010PropOp29
 70
     1
102
RTVSPost2010Prop30
280
     1
102
RTVSPost2010PropOp30
 70
     1
102
RTVSPost2010Prop31
280
     0
102
RTVSPost2010PropOp31
 70
     1
102
RTVSPost2010Prop32
280
     0
102
RTVSPost2010PropOp32
 70
     1
102
RTVSPost2010Prop33
280
     0
102
RTVSPost2010PropOp33
 70
     1
102
RTVSPost2010Prop34
280
     0
102
RTVSPost2010PropOp34
 70
     1
102
RTVSPost2010Prop35
280
     0
102
RTVSPost2010PropOp35
 70
     1
102
RTVSPost2010Prop36
280
     0
102
RTVSPost2010PropOp36
 70
     1
102
RTVSPost2010Prop37
 90
       50
102
RTVSPost2010PropOp37
 70
     1
102
RTVSPost2010Prop38
140
0.0
102
RTVSPost2010PropOp38
 70
     1
102
RTVSPost2010Prop39
140
1.0
102
RTVSPost2010PropOp39
 70
     1
102
RTVSPost2010Prop40
 90
        0
102
RTVSPost2010PropOp40
 70
     1
102
RTVSPost2010Prop41ColorIndex
 90
       18
102
RTVSPost2010Prop41ColorRGB
 90
        0
102
RTVSPost2010PropOp41
 70
     1
102
RTVSPost2010Prop42
 90
       50
102
RTVSPost2010PropOp42
 70
     1
102
RTVSPost2010Prop43
 90
        3
102
RTVSPost2010PropOp43
 70
     1
102
RTVSPost2010Prop44ColorIndex
 90
        5
102
RTVSPost2010Prop44ColorRGB
 90
      255
102
RTVSPost2010PropOp44
 70
     1
102
RTVSPost2010Prop45
280
     0
102
RTVSPost2010PropOp45
 70
     1
102
RTVSPost2010Prop46
 90
       50
102
RTVSPost2010PropOp46
 70
     1
102
RTVSPost2010Prop47
 90
       50
102
RTVSPost2010PropOp47
 70
     1
102
RTVSPost2010Prop48
 90
       50
102
RTVSPost2010PropOp48
 70
     1
102
RTVSPost2010Prop49
280
     0
102
RTVSPost2010PropOp49
 70
     1
102
RTVSPost2010Prop50
 90
       50
102
RTVSPost2010PropOp50
 70
     1
102
RTVSPost2010Prop51ColorIndex
 90
      256
102
RTVSPost2010Prop51ColorRGB
 90
-16777216
102
RTVSPost2010PropOp51
 70
     0
102
RTVSPost2010Prop52
140
1.0
102
RTVSPost2010PropOp52
 70
     0
102
RTVSPost2010Prop53
 90
        2
102
RTVSPost2010PropOp53
 70
     1
102
RTVSPost2010Prop54
  1
strokes_ogs.tif
102
RTVSPost2010PropOp54
 70
     1
102
RTVSPost2010Prop55
280
     0
102
RTVSPost2010PropOp55
 70
     1
102
RTVSPost2010Prop56
140
1.0
102
RTVSPost2010PropOp56
 70
     1
102
RTVSPost2010Prop57
140
1.0
102
RTVSPost2010PropOp57
 70
     1
102
RTVSPropertyOp0
 70
     1
102
RTVSPropertyOp1
 70
     1
102
RTVSPropertyOp2
 70
     1
102
RTVSPropertyOp3
 70
     1
102
RTVSPropertyOp4
 70
     1
102
RTVSPropertyOp5
 70
     1
102
RTVSPropertyOp6
 70
     1
102
RTVSPropertyOp7
 70
     1
102
RTVSPropertyOp8
 70
     1
102
RTVSPropertyOp9
 70
     1
102
RTVSPropertyOp10
 70
     1
102
RTVSPropertyOp11
 70
     1
102
RTVSPropertyOp12
 70
     1
102
RTVSPropertyOp13
 70
     1
102
RTVSPropertyOp14
 70
     1
102
RTVSPropertyOp15
 70
     1
102
RTVSPropertyOp16
 70
     1
102
RTVSPropertyOp17
 70
     1
102
RTVSPropertyOp18
 70
     1
102
RTVSPropertyOp19
 70
     1
102
RTVSPropertyOp20
 70
     1
102
RTVSPropertyOp21
 70
     1
102
RTVSPropertyOp22
 70
     1
102
RTVSPropertyOp23
 70
     1
102
RTVSPropertyOp24
 70
     1
102
RTVSPropertyOp25
 70
     1
102
RTVSPropertyOp26
 70
     1
102
RTVSPropertyOp27
 70
     1
102
RTVSPropertyOp28
 70
     1
102
RTVSPropertyOp29
 70
     1
102
RTVSPropertyOp30
 70
     1
102
RTVSPropertyOp31
 70
     1
102
RTVSPropertyOp32
 70
     1
102
RTVSPropertyOp33
 70
     1
102
RTVSPropertyOp34
 70
     1
102
RTVSPropertyOp35
 70
     1
102
RTVSPropertyOp36
 70
     1
102
RTVSPropertyOp37
 70
     1
102
RTVSPropertyOp38
 70
     1
102
RTVSPropertyOp39
 70
     1
102
RTVSPropertyOp40
 70
     1
102
RTVSPropertyOp41
 70
     1
102
RTVSPropertyOp42
 70
     1
102
RTVSPropertyOp43
 70
     1
102
RTVSPropertyOp44
 70
     1
102
RTVSPropertyOp45
 70
     1
102
RTVSPropertyOp46
 70
     1
102
RTVSPropertyOp47
 70
     1
102
RTVSPropertyOp48
 70
     1
102
RTVSPropertyOp49
 70
     1
102
RTVSPropertyOp50
 70
     1
102
RTVSPropertyOp51
 70
     0
102
RTVSPropertyOp52
 70
     0
102
RTVSPropertyOp53
 70
     1
102
RTVSPropertyOp54
 70
     1
102
RTVSPropertyOp55
 70
     1
102
RTVSPropertyOp56
 70
     1
102
RTVSPropertyOp57
 70
     1
102
RTVSPropertyOp58
 70
     1
102
RTVSPropertyOp59
 70
     1
102
RTVSPropertyOp60
 70
     1
102
RTVSPropertyOp61
 70
     1
102
RTVSPropertyOp62
 70
     1
  0
ENDSEC
  0
EOF
