  0
SECTION
  2
HEADER
  9
$ACADVER
  1
AC1015
  9
$ACADMAINTVER
 70
    20
  9
$DWGCODEPAGE
  3
ANSI_932
  9
$INSBASE
 10
0.0
 20
0.0
 30
0.0
  9
$EXTMIN
 10
10.00000153760811
 20
9.999999806846602
 30
0.0
  9
$EXTMAX
 10
722.7681565376077
 20
533.0687848068463
 30
0.0
  9
$LIMMIN
 10
0.0000015376081137
 20
-0.0000001931533977
  9
$LIMMAX
 10
792.0000015376079
 20
545.9999998068466
  9
$ORTHOMODE
 70
     1
  9
$REGENMODE
 70
     1
  9
$FILLMODE
 70
     1
  9
$QTEXTMODE
 70
     0
  9
$MIRRTEXT
 70
     1
  9
$LTSCALE
 40
1.0
  9
$ATTMODE
 70
     1
  9
$TEXTSIZE
 40
2.5
  9
$TRACEWID
 40
1.0
  9
$TEXTSTYLE
  7
STANDARD
  9
$CLAYER
  8
0
  9
$CELTYPE
  6
BYLAYER
  9
$CECOLOR
 62
   256
  9
$CELTSCALE
 40
1.0
  9
$DISPSILH
 70
     0
  9
$DIMSCALE
 40
1.0
  9
$DIMASZ
 40
3.0
  9
$DIMEXO
 40
1.0
  9
$DIMDLI
 40
10.0
  9
$DIMRND
 40
0.0
  9
$DIMDLE
 40
0.0
  9
$DIMEXE
 40
1.0
  9
$DIMTP
 40
0.0
  9
$DIMTM
 40
0.0
  9
$DIMTXT
 40
3.2
  9
$DIMCEN
 40
0.0
  9
$DIMTSZ
 40
0.0
  9
$DIMTOL
 70
     0
  9
$DIMLIM
 70
     0
  9
$DIMTIH
 70
     0
  9
$DIMTOH
 70
     0
  9
$DIMSE1
 70
     0
  9
$DIMSE2
 70
     0
  9
$DIMTAD
 70
     3
  9
$DIMZIN
 70
     8
  9
$DIMBLK
  1

  9
$DIMASO
 70
     1
  9
$DIMSHO
 70
     1
  9
$DIMPOST
  1

  9
$DIMAPOST
  1

  9
$DIMALT
 70
     0
  9
$DIMALTD
 70
     2
  9
$DIMALTF
 40
25.4
  9
$DIMLFAC
 40
1.0
  9
$DIMTOFL
 70
     1
  9
$DIMTVP
 40
0.0
  9
$DIMTIX
 70
     0
  9
$DIMSOXD
 70
     0
  9
$DIMSAH
 70
     1
  9
$DIMBLK1
  1
OPEN
  9
$DIMBLK2
  1
OPEN
  9
$DIMSTYLE
  2
STANDARD
  9
$DIMCLRD
 70
     0
  9
$DIMCLRE
 70
     0
  9
$DIMCLRT
 70
     0
  9
$DIMTFAC
 40
1.0
  9
$DIMGAP
 40
1.0
  9
$DIMJUST
 70
     0
  9
$DIMSD1
 70
     0
  9
$DIMSD2
 70
     0
  9
$DIMTOLJ
 70
     1
  9
$DIMTZIN
 70
     0
  9
$DIMALTZ
 70
     0
  9
$DIMALTTZ
 70
     0
  9
$DIMUPT
 70
     0
  9
$DIMDEC
 70
     4
  9
$DIMTDEC
 70
     4
  9
$DIMALTU
 70
     2
  9
$DIMALTTD
 70
     2
  9
$DIMTXSTY
  7
STANDARD
  9
$DIMAUNIT
 70
     0
  9
$DIMADEC
 70
     0
  9
$DIMALTRND
 40
0.0
  9
$DIMAZIN
 70
     0
  9
$DIMDSEP
 70
    46
  9
$DIMATFIT
 70
     3
  9
$DIMFRAC
 70
     0
  9
$DIMLDRBLK
  1
OPEN
  9
$DIMLUNIT
 70
     2
  9
$DIMLWD
 70
    -2
  9
$DIMLWE
 70
    -2
  9
$DIMTMOVE
 70
     0
  9
$LUNITS
 70
     2
  9
$LUPREC
 70
     4
  9
$SKETCHINC
 40
1.0
  9
$FILLETRAD
 40
10.0
  9
$AUNITS
 70
     0
  9
$AUPREC
 70
     0
  9
$MENU
  1
.
  9
$ELEVATION
 40
0.0
  9
$PELEVATION
 40
0.0
  9
$THICKNESS
 40
0.0
  9
$LIMCHECK
 70
     0
  9
$CHAMFERA
 40
10.0
  9
$CHAMFERB
 40
10.0
  9
$CHAMFERC
 40
20.0
  9
$CHAMFERD
 40
0.0
  9
$SKPOLY
 70
     0
  9
$TDCREATE
 40
2454875.700013970
  9
$TDUCREATE
 40
2454875.325013970
  9
$TDUPDATE
 40
2457192.687495509
  9
$TDUUPDATE
 40
2457192.312495509
  9
$TDINDWG
 40
0.0040394329
  9
$TDUSRTIMER
 40
0.0040394329
  9
$USRTIMER
 70
     1
  9
$ANGBASE
 50
0.0
  9
$ANGDIR
 70
     0
  9
$PDMODE
 70
     0
  9
$PDSIZE
 40
0.0
  9
$PLINEWID
 40
0.0
  9
$SPLFRAME
 70
     0
  9
$SPLINETYPE
 70
     6
  9
$SPLINESEGS
 70
     8
  9
$HANDSEED
  5
6CF
  9
$SURFTAB1
 70
     6
  9
$SURFTAB2
 70
     6
  9
$SURFTYPE
 70
     6
  9
$SURFU
 70
     6
  9
$SURFV
 70
     6
  9
$UCSBASE
  2

  9
$UCSNAME
  2

  9
$UCSORG
 10
0.0
 20
0.0
 30
0.0
  9
$UCSXDIR
 10
1.0
 20
0.0
 30
0.0
  9
$UCSYDIR
 10
0.0
 20
1.0
 30
0.0
  9
$UCSORTHOREF
  2

  9
$UCSORTHOVIEW
 70
     0
  9
$UCSORGTOP
 10
0.0
 20
0.0
 30
0.0
  9
$UCSORGBOTTOM
 10
0.0
 20
0.0
 30
0.0
  9
$UCSORGLEFT
 10
0.0
 20
0.0
 30
0.0
  9
$UCSORGRIGHT
 10
0.0
 20
0.0
 30
0.0
  9
$UCSORGFRONT
 10
0.0
 20
0.0
 30
0.0
  9
$UCSORGBACK
 10
0.0
 20
0.0
 30
0.0
  9
$PUCSBASE
  2

  9
$PUCSNAME
  2

  9
$PUCSORG
 10
0.0
 20
0.0
 30
0.0
  9
$PUCSXDIR
 10
1.0
 20
0.0
 30
0.0
  9
$PUCSYDIR
 10
0.0
 20
1.0
 30
0.0
  9
$PUCSORTHOREF
  2

  9
$PUCSORTHOVIEW
 70
     0
  9
$PUCSORGTOP
 10
0.0
 20
0.0
 30
0.0
  9
$PUCSORGBOTTOM
 10
0.0
 20
0.0
 30
0.0
  9
$PUCSORGLEFT
 10
0.0
 20
0.0
 30
0.0
  9
$PUCSORGRIGHT
 10
0.0
 20
0.0
 30
0.0
  9
$PUCSORGFRONT
 10
0.0
 20
0.0
 30
0.0
  9
$PUCSORGBACK
 10
0.0
 20
0.0
 30
0.0
  9
$USERI1
 70
     0
  9
$USERI2
 70
     0
  9
$USERI3
 70
     0
  9
$USERI4
 70
     0
  9
$USERI5
 70
     0
  9
$USERR1
 40
0.0
  9
$USERR2
 40
0.0
  9
$USERR3
 40
0.0
  9
$USERR4
 40
0.0
  9
$USERR5
 40
0.0
  9
$WORLDVIEW
 70
     1
  9
$SHADEDGE
 70
     3
  9
$SHADEDIF
 70
    70
  9
$TILEMODE
 70
     1
  9
$MAXACTVP
 70
    48
  9
$PINSBASE
 10
0.0
 20
0.0
 30
0.0
  9
$PLIMCHECK
 70
     0
  9
$PEXTMIN
 10
1.000000000000000E+20
 20
1.000000000000000E+20
 30
1.000000000000000E+20
  9
$PEXTMAX
 10
-1.000000000000000E+20
 20
-1.000000000000000E+20
 30
-1.000000000000000E+20
  9
$PLIMMIN
 10
0.0
 20
0.0
  9
$PLIMMAX
 10
420.0
 20
297.0
  9
$UNITMODE
 70
     0
  9
$VISRETAIN
 70
     1
  9
$PLINEGEN
 70
     0
  9
$PSLTSCALE
 70
     1
  9
$TREEDEPTH
 70
  3020
  9
$CMLSTYLE
  2
STANDARD
  9
$CMLJUST
 70
     0
  9
$CMLSCALE
 40
20.0
  9
$PROXYGRAPHICS
 70
     1
  9
$MEASUREMENT
 70
     0
  9
$CELWEIGHT
370
    -1
  9
$ENDCAPS
280
     0
  9
$JOINSTYLE
280
     0
  9
$LWDISPLAY
290
     0
  9
$INSUNITS
 70
     0
  9
$HYPERLINKBASE
  1

  9
$STYLESHEET
  1

  9
$XEDIT
290
     1
  9
$CEPSNTYPE
380
     0
  9
$PSTYLEMODE
290
     1
  9
$FINGERPRINTGUID
  2
{9D697740-CA39-4459-807D-994A489CF07F}
  9
$VERSIONGUID
  2
{6FF4CBCE-D61F-462E-8F09-507CD26A8D5C}
  9
$EXTNAMES
290
     1
  9
$PSVPSCALE
 40
0.0
  9
$OLESTARTUP
290
     0
  0
ENDSEC
  0
SECTION
  2
CLASSES
  0
CLASS
  1
ACDBDICTIONARYWDFLT
  2
AcDbDictionaryWithDefault
  3
ObjectDBX Classes
 90
        0
280
     0
281
     0
  0
CLASS
  1
ACDBPLACEHOLDER
  2
AcDbPlaceHolder
  3
ObjectDBX Classes
 90
        0
280
     0
281
     0
  0
CLASS
  1
LAYOUT
  2
AcDbLayout
  3
ObjectDBX Classes
 90
        0
280
     0
281
     0
  0
CLASS
  1
MATERIAL
  2
AcDbMaterial
  3
ObjectDBX Classes
 90
     1153
280
     0
281
     0
  0
CLASS
  1
VISUALSTYLE
  2
AcDbVisualStyle
  3
ObjectDBX Classes
 90
     4095
280
     0
281
     0
  0
CLASS
  1
TABLESTYLE
  2
AcDbTableStyle
  3
ObjectDBX Classes
 90
     4095
280
     0
281
     0
  0
CLASS
  1
SCALE
  2
AcDbScale
  3
ObjectDBX Classes
 90
     1153
280
     0
281
     0
  0
CLASS
  1
MLEADERSTYLE
  2
AcDbMLeaderStyle
  3
ACDB_MLEADERSTYLE_CLASS
 90
     4095
280
     0
281
     0
  0
CLASS
  1
ACDBSECTIONVIEWSTYLE
  2
AcDbSectionViewStyle
  3
ObjectDBX Classes
 90
     1025
280
     0
281
     0
  0
CLASS
  1
ACDBDETAILVIEWSTYLE
  2
AcDbDetailViewStyle
  3
ObjectDBX Classes
 90
     1025
280
     0
281
     0
  0
CLASS
  1
DICTIONARYVAR
  2
AcDbDictionaryVar
  3
ObjectDBX Classes
 90
        0
280
     0
281
     0
  0
CLASS
  1
CELLSTYLEMAP
  2
AcDbCellStyleMap
  3
ObjectDBX Classes
 90
     1152
280
     0
281
     0
  0
ENDSEC
  0
SECTION
  2
TABLES
  0
TABLE
  2
VPORT
  5
8
330
0
100
AcDbSymbolTable
 70
     1
  0
VPORT
  5
619
330
8
100
AcDbSymbolTableRecord
100
AcDbViewportTableRecord
  2
*ACTIVE
 70
     0
 10
0.0
 20
0.0
 11
1.0
 21
1.0
 12
583.0387010989049
 22
271.5420237814825
 13
0.0
 23
0.0
 14
10.0
 24
10.0
 15
10.0
 25
10.0
 16
0.0
 26
0.0
 36
1.0
 17
0.0
 27
0.0
 37
0.0
 40
527.1003693867068
 41
2.35006605019815
 42
50.0
 43
0.0
 44
0.0
 50
0.0
 51
0.0
 71
     0
 72
   100
 73
     1
 74
     0
 75
     0
 76
     0
 77
     0
 78
     0
281
     0
 65
     1
110
0.0
120
0.0
130
0.0
111
1.0
121
0.0
131
0.0
112
0.0
122
1.0
132
0.0
 79
     0
146
0.0
1001
ACAD_NAV_VCDISPLAY
1070
     3
  0
ENDTAB
  0
TABLE
  2
LTYPE
  5
5
330
0
100
AcDbSymbolTable
 70
     4
  0
LTYPE
  5
12
330
5
100
AcDbSymbolTableRecord
100
AcDbLinetypeTableRecord
  2
BYBLOCK
 70
     0
  3

 72
    65
 73
     0
 40
0.0
  0
LTYPE
  5
13
330
5
100
AcDbSymbolTableRecord
100
AcDbLinetypeTableRecord
  2
BYLAYER
 70
     0
  3

 72
    65
 73
     0
 40
0.0
  0
LTYPE
  5
14
330
5
100
AcDbSymbolTableRecord
100
AcDbLinetypeTableRecord
  2
CONTINUOUS
 70
     0
  3
Solid line
 72
    65
 73
     0
 40
0.0
  0
LTYPE
  5
4B
330
5
100
AcDbSymbolTableRecord
100
AcDbLinetypeTableRecord
  2
DASHED
 70
     0
  3
Dashed __ __ __ __ __ __ __ __ __ __ __ __ __ _
 72
    65
 73
     2
 40
19.04999999999999
 49
12.7
 74
     0
 49
-6.349999999999998
 74
     0
  0
LTYPE
  5
4C
330
5
100
AcDbSymbolTableRecord
100
AcDbLinetypeTableRecord
  2
CENTER
 70
     0
  3
Center ____ _ ____ _ ____ _ ____ _ ____ _ ____
 72
    65
 73
     4
 40
50.8
 49
31.75
 74
     0
 49
-6.349999999999998
 74
     0
 49
6.349999999999998
 74
     0
 49
-6.349999999999998
 74
     0
  0
LTYPE
  5
4D
330
5
100
AcDbSymbolTableRecord
100
AcDbLinetypeTableRecord
  2
PHANTOM
 70
     0
  3
Phantom ______  __  __  ______  __  __  ______
 72
    65
 73
     6
 40
63.5
 49
31.75
 74
     0
 49
-6.349999999999998
 74
     0
 49
6.349999999999998
 74
     0
 49
-6.349999999999998
 74
     0
 49
6.349999999999998
 74
     0
 49
-6.349999999999998
 74
     0
  0
ENDTAB
  0
TABLE
  2
LAYER
  5
2
330
0
100
AcDbSymbolTable
 70
     8
  0
LAYER
  5
E
102
{ACAD_XDICTIONARY
360
673
102
}
330
2
100
AcDbSymbolTableRecord
100
AcDbLayerTableRecord
  2
0
 70
     0
 62
     7
  6
CONTINUOUS
370
    -3
390
622
  0
LAYER
  5
4E
102
{ACAD_XDICTIONARY
360
675
102
}
330
2
100
AcDbSymbolTableRecord
100
AcDbLayerTableRecord
  2
4
 70
     0
 62
     1
  6
CENTER
370
    -3
390
622
  0
LAYER
  5
4F
102
{ACAD_XDICTIONARY
360
677
102
}
330
2
100
AcDbSymbolTableRecord
100
AcDbLayerTableRecord
  2
5
 70
     0
 62
     6
  6
PHANTOM
370
    -3
390
622
  0
LAYER
  5
50
102
{ACAD_XDICTIONARY
360
679
102
}
330
2
100
AcDbSymbolTableRecord
100
AcDbLayerTableRecord
  2
1
 70
     0
 62
     7
  6
CONTINUOUS
370
    -3
390
622
  0
LAYER
  5
51
102
{ACAD_XDICTIONARY
360
67B
102
}
330
2
100
AcDbSymbolTableRecord
100
AcDbLayerTableRecord
  2
2
 70
     0
 62
     4
  6
CONTINUOUS
370
    -3
390
622
  0
LAYER
  5
52
102
{ACAD_XDICTIONARY
360
67D
102
}
330
2
100
AcDbSymbolTableRecord
100
AcDbLayerTableRecord
  2
3
 70
     0
 62
     2
  6
DASHED
370
    -3
390
622
  0
LAYER
  5
53
102
{ACAD_XDICTIONARY
360
67F
102
}
330
2
100
AcDbSymbolTableRecord
100
AcDbLayerTableRecord
  2
6
 70
     0
 62
     5
  6
CONTINUOUS
370
    -3
390
622
  0
LAYER
  5
54
102
{ACAD_XDICTIONARY
360
681
102
}
330
2
100
AcDbSymbolTableRecord
100
AcDbLayerTableRecord
  2
7
 70
     0
 62
     3
  6
CONTINUOUS
370
    -3
390
622
  0
ENDTAB
  0
TABLE
  2
STYLE
  5
3
330
0
100
AcDbSymbolTable
 70
     1
  0
STYLE
  5
F
330
3
100
AcDbSymbolTableRecord
100
AcDbTextStyleTableRecord
  2
STANDARD
 70
     0
 40
0.0
 41
1.0
 50
0.0
 71
     0
 42
2.5
  3
simplex.shx
  4

  0
ENDTAB
  0
TABLE
  2
VIEW
  5
6
330
0
100
AcDbSymbolTable
 70
     0
  0
ENDTAB
  0
TABLE
  2
UCS
  5
7
330
0
100
AcDbSymbolTable
 70
     0
  0
ENDTAB
  0
TABLE
  2
APPID
  5
9
330
0
100
AcDbSymbolTable
 70
     5
  0
APPID
  5
10
330
9
100
AcDbSymbolTableRecord
100
AcDbRegAppTableRecord
  2
ACAD
 70
     0
  0
APPID
  5
3E
330
9
100
AcDbSymbolTableRecord
100
AcDbRegAppTableRecord
  2
CONTENTTABDATA
 70
     0
  0
APPID
  5
3F
330
9
100
AcDbSymbolTableRecord
100
AcDbRegAppTableRecord
  2
CONTENTCURRENTTAB
 70
     0
  0
APPID
  5
68D
330
9
100
AcDbSymbolTableRecord
100
AcDbRegAppTableRecord
  2
ACAD_NAV_VCDISPLAY
 70
     0
  0
APPID
  5
6C6
330
9
100
AcDbSymbolTableRecord
100
AcDbRegAppTableRecord
  2
ACAD_MLEADERVER
 70
     0
  0
ENDTAB
  0
TABLE
  2
DIMSTYLE
  5
A
330
0
100
AcDbSymbolTable
 70
     1
100
AcDbDimStyleTable
 71
     0
  0
DIMSTYLE
105
1D
330
A
100
AcDbSymbolTableRecord
100
AcDbDimStyleTableRecord
  2
STANDARD
 70
     0
 41
3.0
 42
1.0
 43
10.0
 44
1.0
 73
     0
 74
     0
 77
     3
 78
     8
140
3.2
141
0.0
147
1.0
172
     1
173
     1
340
F
341
2E
343
2E
344
2E
  0
ENDTAB
  0
TABLE
  2
BLOCK_RECORD
  5
1
330
0
100
AcDbSymbolTable
 70
     1
  0
BLOCK_RECORD
  5
18
102
{ACAD_XDICTIONARY
360
61C
102
}
330
1
100
AcDbSymbolTableRecord
100
AcDbBlockTableRecord
  2
*MODEL_SPACE
340
670
  0
BLOCK_RECORD
  5
15
102
{ACAD_XDICTIONARY
360
61A
102
}
330
1
100
AcDbSymbolTableRecord
100
AcDbBlockTableRecord
  2
*PAPER_SPACE
340
671
  0
BLOCK_RECORD
  5
2E
330
1
100
AcDbSymbolTableRecord
100
AcDbBlockTableRecord
  2
_OPEN
340
0
  0
ENDTAB
  0
ENDSEC
  0
SECTION
  2
BLOCKS
  0
BLOCK
  5
19
330
18
100
AcDbEntity
  8
0
100
AcDbBlockBegin
  2
*MODEL_SPACE
 70
     0
 10
0.0
 20
0.0
 30
0.0
  3
*MODEL_SPACE
  1

  0
ENDBLK
  5
1A
330
18
100
AcDbEntity
  8
0
100
AcDbBlockEnd
  0
BLOCK
  5
16
330
15
100
AcDbEntity
 67
     1
  8
0
100
AcDbBlockBegin
  2
*PAPER_SPACE
 70
     0
 10
0.0
 20
0.0
 30
0.0
  3
*PAPER_SPACE
  1

  0
ENDBLK
  5
17
330
15
100
AcDbEntity
 67
     1
  8
0
100
AcDbBlockEnd
  0
BLOCK
  5
2F
330
2E
100
AcDbEntity
  8
0
100
AcDbBlockBegin
  2
_OPEN
 70
     0
 10
0.0
 20
0.0
 30
0.0
  3
_OPEN
  1

  0
LINE
  5
30
330
2E
100
AcDbEntity
  8
0
  6
ByBlock
 62
     0
100
AcDbLine
 10
-1.0
 20
0.1666666666666666
 30
0.0
 11
0.0
 21
0.0
 31
0.0
  0
LINE
  5
31
330
2E
100
AcDbEntity
  8
0
  6
ByBlock
 62
     0
100
AcDbLine
 10
0.0
 20
0.0
 30
0.0
 11
-1.0
 21
-0.1666666666666666
 31
0.0
  0
LINE
  5
32
330
2E
100
AcDbEntity
  8
0
  6
ByBlock
 62
     0
100
AcDbLine
 10
0.0
 20
0.0
 30
0.0
 11
-1.0
 21
0.0
 31
0.0
  0
ENDBLK
  5
33
330
2E
100
AcDbEntity
  8
0
100
AcDbBlockEnd
  0
ENDSEC
  0
SECTION
  2
ENTITIES
  0
LINE
  5
356
330
18
100
AcDbEntity
  8
1
  6
Continuous
100
AcDbLine
 10
419.069425537608
 20
381.6429508068464
 30
0.0
 11
391.7262805376079
 21
381.6429508068464
 31
0.0
  0
LINE
  5
357
330
18
100
AcDbEntity
  8
1
  6
Continuous
100
AcDbLine
 10
481.726280537608
 20
385.6429508068464
 30
0.0
 11
391.7262805376079
 21
385.6429508068464
 31
0.0
  0
LINE
  5
358
330
18
100
AcDbEntity
  8
1
  6
Continuous
100
AcDbLine
 10
481.726280537608
 20
377.6429508068464
 30
0.0
 11
391.7262805376079
 21
377.6429508068464
 31
0.0
  0
ARC
  5
359
330
18
100
AcDbEntity
  8
1
  6
Continuous
100
AcDbCircle
 10
236.1844045376079
 20
271.6429508068464
 30
0.0
 40
46.5
100
AcDbArc
 50
83.777609
 51
23.044523
  0
ARC
  5
35A
330
18
100
AcDbEntity
  8
1
  6
Continuous
100
AcDbCircle
 10
236.1844045376079
 20
271.6429508068464
 30
0.0
 40
36.0
100
AcDbArc
 50
88.95662199999998
 51
14.37493999999999
  0
CIRCLE
  5
35B
330
18
100
AcDbEntity
  8
1
  6
Continuous
100
AcDbCircle
 10
236.1844045376079
 20
273.1429508068464
 30
0.0
 40
10.94999999999999
  0
LINE
  5
35C
330
18
100
AcDbEntity
  8
1
  6
Continuous
100
AcDbLine
 10
244.6844045376079
 20
268.2354738068466
 30
0.0
 11
244.6844045376079
 21
278.0504278068463
 31
0.0
  0
LINE
  5
35D
330
18
100
AcDbEntity
  8
1
  6
Continuous
100
AcDbLine
 10
227.684404537608
 20
268.2354738068466
 30
0.0
 11
227.684404537608
 21
278.0504278068463
 31
0.0
  0
CIRCLE
  5
35E
330
18
100
AcDbEntity
  8
1
  6
Continuous
100
AcDbCircle
 10
236.1844045376079
 20
273.1429508068464
 30
0.0
 40
8.5
  0
CIRCLE
  5
35F
330
18
100
AcDbEntity
  8
1
  6
Continuous
100
AcDbCircle
 10
236.1844045376079
 20
273.1429508068464
 30
0.0
 40
6.0
  0
CIRCLE
  5
360
330
18
100
AcDbEntity
  8
2
  6
Continuous
100
AcDbCircle
 10
236.1844045376079
 20
273.1429508068464
 30
0.0
 40
5.052999999999999
  0
LINE
  5
361
330
18
100
AcDbEntity
  8
1
  6
Continuous
100
AcDbLine
 10
91.31671153760812
 20
366.8448788068463
 30
0.0
 11
91.36952353760813
 21
257.2728828068465
 31
0.0
  0
LINE
  5
362
330
18
100
AcDbEntity
  8
1
  6
Continuous
100
AcDbLine
 10
91.35657553760813
 20
284.0946858068463
 30
0.0
 11
91.35657553760813
 21
262.1946808068465
 31
0.0
  0
LINE
  5
363
330
18
100
AcDbEntity
  8
1
  6
Continuous
100
AcDbLine
 10
94.95657553760812
 20
284.0946858068463
 30
0.0
 11
94.95657553760812
 21
262.1946808068465
 31
0.0
  0
LINE
  5
364
330
18
100
AcDbEntity
  8
1
  6
Continuous
100
AcDbLine
 10
101.956575537608
 20
264.6429508068464
 30
0.0
 11
101.956575537608
 21
281.6429508068464
 31
0.0
  0
ARC
  5
365
330
18
100
AcDbEntity
  8
1
  6
Continuous
100
AcDbCircle
 10
111.1973865376081
 20
273.1429508068464
 30
0.0
 40
16.24081099999999
100
AcDbArc
 50
162.412046
 51
197.5879539999999
  0
ARC
  5
366
330
18
100
AcDbEntity
  8
1
  6
Continuous
100
AcDbCircle
 10
85.71576553760809
 20
273.1429508068464
 30
0.0
 40
16.24081099999999
100
AcDbArc
 50
342.4120459999998
 51
17.587954
  0
LINE
  5
367
330
18
100
AcDbEntity
  8
1
  6
Continuous
100
AcDbLine
 10
94.9618755376081
 20
273.1429518068464
 30
0.0
 11
91.36360953760812
 21
269.5446848068466
 31
0.0
  0
LINE
  5
368
330
18
100
AcDbEntity
  8
1
  6
Continuous
100
AcDbLine
 10
102.917884537608
 20
267.7429508068466
 30
0.0
 11
102.917884537608
 21
278.5429508068464
 31
0.0
  0
LINE
  5
369
330
18
100
AcDbEntity
  8
1
  6
Continuous
100
AcDbLine
 10
102.317884537608
 20
279.1429508068465
 30
0.0
 11
102.317884537608
 21
267.1429508068464
 31
0.0
  0
LINE
  5
36A
330
18
100
AcDbEntity
  8
1
  6
Continuous
100
AcDbLine
 10
88.04252953760814
 20
260.8888568068465
 30
0.0
 11
88.04252953760814
 21
285.3970448068464
 31
0.0
  0
LINE
  5
36B
330
18
100
AcDbEntity
  8
1
  6
Continuous
100
AcDbLine
 10
85.14252953760808
 20
288.1429508068464
 30
0.0
 11
85.14252953760808
 21
258.1429508068465
 31
0.0
  0
LINE
  5
36C
330
18
100
AcDbEntity
  8
1
  6
Continuous
100
AcDbLine
 10
88.44252953760806
 20
273.1429508068464
 30
0.0
 11
88.44252953760806
 21
265.1429508068464
 31
0.0
  0
LINE
  5
36D
330
18
100
AcDbEntity
  8
1
  6
Continuous
100
AcDbLine
 10
47.2425295376081
 20
260.8888568068465
 30
0.0
 11
47.2425295376081
 21
285.3970448068464
 31
0.0
  0
LINE
  5
36E
330
18
100
AcDbEntity
  8
1
  6
Continuous
100
AcDbLine
 10
50.14252953760813
 20
288.1429508068464
 30
0.0
 11
50.14252953760813
 21
258.1429508068465
 31
0.0
  0
LINE
  5
36F
330
18
100
AcDbEntity
  8
1
  6
Continuous
100
AcDbLine
 10
46.8425295376081
 20
273.1429508068464
 30
0.0
 11
46.8425295376081
 21
265.1429508068464
 31
0.0
  0
LINE
  5
370
330
18
100
AcDbEntity
  8
1
  6
Continuous
100
AcDbLine
 10
88.41714653760808
 20
365.9439148068465
 30
0.0
 11
88.46952353760809
 21
257.2728828068465
 31
0.0
  0
LINE
  5
371
330
18
100
AcDbEntity
  8
1
  6
Continuous
100
AcDbLine
 10
46.86791353760811
 20
365.9439148068465
 30
0.0
 11
46.8155355376081
 21
257.2728828068465
 31
0.0
  0
LINE
  5
372
330
18
100
AcDbEntity
  8
1
  6
Continuous
100
AcDbLine
 10
43.96834753760812
 20
366.8448788068463
 30
0.0
 11
43.91553453760812
 21
257.2728828068465
 31
0.0
  0
ARC
  5
373
330
18
100
AcDbEntity
  8
1
  6
Continuous
100
AcDbCircle
 10
53.66399453760814
 20
273.1429508068464
 30
0.0
 40
16.24081099999999
100
AcDbArc
 50
180.0
 51
197.5879539999999
  0
LINE
  5
374
330
18
100
AcDbEntity
  8
1
  6
Continuous
100
AcDbLine
 10
37.42318453760811
 20
265.7817348068466
 30
0.0
 11
37.42318453760811
 21
280.5012188068463
 31
0.0
  0
LINE
  5
375
330
18
100
AcDbEntity
  8
1
  6
Continuous
100
AcDbLine
 10
53.64252953760812
 20
201.3001488068466
 30
0.0
 11
53.64252953760812
 21
344.9857518068465
 31
0.0
  0
LINE
  5
376
330
18
100
AcDbEntity
  8
1
  6
Continuous
100
AcDbLine
 10
81.64252953760808
 20
201.3001488068466
 30
0.0
 11
81.64252953760808
 21
344.9857518068465
 31
0.0
  0
LINE
  5
377
330
18
100
AcDbEntity
  8
4
  6
CENTER
100
AcDbLine
 10
67.64252953760811
 20
393.6429508068464
 30
0.0
 11
67.64252953760811
 21
187.6429508068466
 31
0.0
  0
ARC
  5
378
330
18
100
AcDbEntity
  8
1
  6
Continuous
100
AcDbCircle
 10
176.5342235376079
 20
369.3627878068464
 30
0.0
 40
129.68
100
AcDbArc
 50
305.577955
 51
352.9389269999999
  0
ARC
  5
379
330
18
100
AcDbEntity
  8
1
  6
Continuous
100
AcDbCircle
 10
237.175154537608
 20
274.1215928068466
 30
0.0
 40
17.05797
100
AcDbArc
 50
151.2140169999999
 51
237.7886709999999
  0
ARC
  5
37A
330
18
100
AcDbEntity
  8
1
  6
Continuous
100
AcDbCircle
 10
236.1844045376079
 20
273.1429508068464
 30
0.0
 40
77.5
100
AcDbArc
 50
80.90101899999998
 51
38.359769
  0
ARC
  5
37B
330
18
100
AcDbEntity
  8
1
  6
Continuous
100
AcDbCircle
 10
236.1844045376079
 20
273.1429508068464
 30
0.0
 40
61.0
100
AcDbArc
 50
80.82199799999996
 51
30.636721
  0
LINE
  5
37C
330
18
100
AcDbEntity
  8
4
  6
CENTER
100
AcDbLine
 10
236.1844045376079
 20
187.6429508068466
 30
0.0
 11
236.1844045376079
 21
358.6429508068464
 31
0.0
  0
TEXT
  5
37D
330
18
100
AcDbEntity
  8
4
  6
CENTER
100
AcDbText
 10
23.9795125376081
 20
10.04873680684658
 30
0.0
 40
1.399999999999999
  1
4
100
AcDbText
  0
TEXT
  5
37E
330
18
100
AcDbEntity
  8
7
  6
Continuous
100
AcDbText
 10
10.00000153760811
 20
25.9999998068466
 30
0.0
 40
3.0
  1
CODE No.9009
100
AcDbText
  0
TEXT
  5
37F
330
18
100
AcDbEntity
  8
7
  6
Continuous
100
AcDbText
 10
10.00000153760811
 20
17.9999998068466
 30
0.0
 40
3.0
  1
TYPE No.109
100
AcDbText
  0
TEXT
  5
380
330
18
100
AcDbEntity
  8
1
  6
Continuous
100
AcDbText
 10
10.00000153760811
 20
9.999999806846602
 30
0.0
 40
1.399999999999999
  1
LAYER
100
AcDbText
  0
TEXT
  5
381
330
18
100
AcDbEntity
  8
2
  6
Continuous
100
AcDbText
 10
19.9795125376081
 20
10.04873680684658
 30
0.0
 40
1.399999999999999
  1
2
100
AcDbText
  0
TEXT
  5
382
330
18
100
AcDbEntity
  8
3
  6
DASHED
100
AcDbText
 10
21.97951253760811
 20
10.04873680684658
 30
0.0
 40
1.399999999999999
  1
3
100
AcDbText
  0
TEXT
  5
383
330
18
100
AcDbEntity
  8
1
  6
Continuous
100
AcDbText
 10
17.9795125376081
 20
10.04873680684658
 30
0.0
 40
1.399999999999999
  1
1
100
AcDbText
  0
TEXT
  5
384
330
18
100
AcDbEntity
  8
5
  6
PHANTOM
100
AcDbText
 10
25.97951253760811
 20
10.04873680684658
 30
0.0
 40
1.399999999999999
  1
5
100
AcDbText
  0
TEXT
  5
385
330
18
100
AcDbEntity
  8
6
  6
Continuous
100
AcDbText
 10
27.97951253760811
 20
10.04873680684658
 30
0.0
 40
1.399999999999999
  1
6
100
AcDbText
  0
TEXT
  5
386
330
18
100
AcDbEntity
  8
7
  6
Continuous
100
AcDbText
 10
29.97951253760811
 20
10.04873680684658
 30
0.0
 40
1.399999999999999
  1
7
100
AcDbText
  0
ARC
  5
387
330
18
100
AcDbEntity
  8
1
  6
Continuous
100
AcDbCircle
 10
85.29252953760813
 20
260.8888568068465
 30
0.0
 40
2.75
100
AcDbArc
 50
266.8732240000001
 51
0.0
  0
ARC
  5
388
330
18
100
AcDbEntity
  8
1
  6
Continuous
100
AcDbCircle
 10
57.64252953760813
 20
201.3001488068466
 30
0.0
 40
4.0
100
AcDbArc
 50
180.0
 51
251.180937
  0
ARC
  5
389
330
18
100
AcDbEntity
  8
1
  6
Continuous
100
AcDbCircle
 10
67.64252953760811
 20
230.6429508068466
 30
0.0
 40
35.0
100
AcDbArc
 50
251.180937
 51
288.819063
  0
ARC
  5
38A
330
18
100
AcDbEntity
  8
1
  6
Continuous
100
AcDbCircle
 10
77.64252953760811
 20
201.3001488068466
 30
0.0
 40
4.0
100
AcDbArc
 50
288.819063
 51
0.0
  0
ARC
  5
38B
330
18
100
AcDbEntity
  8
1
  6
Continuous
100
AcDbCircle
 10
69.17824453760812
 20
258.1429508068465
 30
0.0
 40
19.03571399999998
100
AcDbArc
 50
180.0
 51
215.300248
  0
LINE
  5
38C
330
18
100
AcDbEntity
  8
1
  6
Continuous
100
AcDbLine
 10
43.9231845376081
 20
263.3279958068464
 30
0.0
 11
38.1823735376081
 21
263.3279958068464
 31
0.0
  0
LINE
  5
38D
330
18
100
AcDbEntity
  8
1
  6
Continuous
100
AcDbLine
 10
38.1823735376081
 20
268.2354728068466
 30
0.0
 11
43.9231845376081
 21
268.2354728068466
 31
0.0
  0
ARC
  5
38E
330
18
100
AcDbEntity
  8
1
  6
Continuous
100
AcDbCircle
 10
41.7680825376081
 20
265.7817348068466
 30
0.0
 40
4.344898999999998
100
AcDbArc
 50
145.615753
 51
214.384247
  0
ARC
  5
38F
330
18
100
AcDbEntity
  8
1
  6
Continuous
100
AcDbCircle
 10
49.99252953760811
 20
260.8888568068465
 30
0.0
 40
2.75
100
AcDbArc
 50
180.0
 51
273.1267759999998
  0
LINE
  5
390
330
18
100
AcDbEntity
  8
1
  6
Continuous
100
AcDbLine
 10
46.8155355376081
 20
257.2728828068465
 30
0.0
 11
43.91553453760812
 21
257.2728828068465
 31
0.0
  0
LINE
  5
391
330
18
100
AcDbEntity
  8
1
  6
Continuous
100
AcDbLine
 10
46.8425295376081
 20
265.1429508068464
 30
0.0
 11
47.2425295376081
 21
265.1429508068464
 31
0.0
  0
ARC
  5
392
330
18
100
AcDbEntity
  8
1
  6
Continuous
100
AcDbCircle
 10
66.10681553760811
 20
258.1429508068465
 30
0.0
 40
19.03571399999998
100
AcDbArc
 50
324.6997519999998
 51
0.0
  0
LINE
  5
393
330
18
100
AcDbEntity
  8
2
  6
Continuous
100
AcDbLine
 10
101.956575537608
 20
268.0899508068465
 30
0.0
 11
102.917884537608
 21
268.0899508068465
 31
0.0
  0
ARC
  5
394
330
18
100
AcDbEntity
  8
1
  6
Continuous
100
AcDbCircle
 10
97.61167753760814
 20
265.7817348068466
 30
0.0
 40
4.344898999999998
100
AcDbArc
 50
334.384247
 51
34.38424699999997
  0
LINE
  5
395
330
18
100
AcDbEntity
  8
1
  6
Continuous
100
AcDbLine
 10
101.956575537608
 20
267.1429508068464
 30
0.0
 11
102.317884537608
 21
267.1429508068464
 31
0.0
  0
LINE
  5
396
330
18
100
AcDbEntity
  8
1
  6
Continuous
100
AcDbLine
 10
91.36187553760812
 20
262.1929508068465
 30
0.0
 11
94.96715253760813
 21
262.1946858068464
 31
0.0
  0
LINE
  5
397
330
18
100
AcDbEntity
  8
1
  6
Continuous
100
AcDbLine
 10
91.36952453760812
 20
257.2728828068465
 30
0.0
 11
88.46952353760809
 21
257.2728828068465
 31
0.0
  0
LINE
  5
398
330
18
100
AcDbEntity
  8
1
  6
Continuous
100
AcDbLine
 10
88.44252953760806
 20
265.1429508068464
 30
0.0
 11
88.04252953760814
 21
265.1429508068464
 31
0.0
  0
ARC
  5
399
330
18
100
AcDbEntity
  8
1
  6
Continuous
100
AcDbCircle
 10
99.30147453760813
 20
265.7817348068466
 30
0.0
 40
4.344898999999998
100
AcDbArc
 50
145.615753
 51
205.615753
  0
LINE
  5
39A
330
18
100
AcDbEntity
  8
1
  6
Continuous
100
AcDbLine
 10
95.71576553760811
 20
268.2354738068466
 30
0.0
 11
101.197386537608
 21
268.2354738068466
 31
0.0
  0
LINE
  5
39B
330
18
100
AcDbEntity
  8
1
  6
Continuous
100
AcDbLine
 10
95.71576553760811
 20
263.3279958068464
 30
0.0
 11
101.197386537608
 21
263.3279958068464
 31
0.0
  0
LINE
  5
39C
330
18
100
AcDbEntity
  8
1
  6
Continuous
100
AcDbLine
 10
95.71576553760811
 20
263.3279958068464
 30
0.0
 11
94.95657553760812
 21
264.6429508068464
 31
0.0
  0
LINE
  5
39D
330
18
100
AcDbEntity
  8
1
  6
Continuous
100
AcDbLine
 10
101.197386537608
 20
263.3279958068464
 30
0.0
 11
101.956575537608
 21
264.6429508068464
 31
0.0
  0
LINE
  5
39E
330
18
100
AcDbEntity
  8
1
  6
Continuous
100
AcDbLine
 10
102.917884537608
 20
267.7429508068466
 30
0.0
 11
102.317884537608
 21
267.1429508068464
 31
0.0
  0
ARC
  5
39F
330
18
100
AcDbEntity
  8
1
  6
Continuous
100
AcDbCircle
 10
193.684082537608
 20
101.2171168068465
 30
0.0
 40
35.0
100
AcDbArc
 50
161.180937
 51
198.819063
  0
ARC
  5
3A0
330
18
100
AcDbEntity
  8
1
  6
Continuous
100
AcDbCircle
 10
278.6840825376081
 20
101.2171168068465
 30
0.0
 40
35.0
100
AcDbArc
 50
341.1809369999998
 51
18.81906299999998
  0
LINE
  5
3A1
330
18
100
AcDbEntity
  8
4
  6
CENTER
100
AcDbLine
 10
236.184082537608
 20
48.21711680684661
 30
0.0
 11
236.184082537608
 21
154.2171168068465
 31
0.0
  0
LINE
  5
3A2
330
18
100
AcDbEntity
  8
4
  6
CENTER
100
AcDbLine
 10
280.1840825376079
 20
48.21711680684661
 30
0.0
 11
280.1840825376079
 21
154.2171168068465
 31
0.0
  0
LINE
  5
3A3
330
18
100
AcDbEntity
  8
1
  6
Continuous
100
AcDbLine
 10
342.6840825376079
 20
138.2171168068466
 30
0.0
 11
342.6840825376079
 21
64.2171168068466
 31
0.0
  0
ARC
  5
3A4
330
18
100
AcDbEntity
  8
1
  6
Continuous
100
AcDbCircle
 10
280.1840825376079
 20
101.2171168068465
 30
0.0
 40
23.6
100
AcDbArc
 50
217.747366
 51
323.6141319999998
  0
ARC
  5
3A5
330
18
100
AcDbEntity
  8
1
  6
Continuous
100
AcDbCircle
 10
280.1840825376079
 20
101.2171168068465
 30
0.0
 40
28.6
100
AcDbArc
 50
235.1772089999999
 51
330.691587
  0
ARC
  5
3A6
330
18
100
AcDbEntity
  8
1
  6
Continuous
100
AcDbCircle
 10
280.1840825376079
 20
101.2171168068465
 30
0.0
 40
31.5
100
AcDbArc
 50
235.1772099999997
 51
333.6497589999999
  0
LINE
  5
3A7
330
18
100
AcDbEntity
  8
1
  6
Continuous
100
AcDbLine
 10
308.0268845376081
 20
87.21711680684661
 30
0.0
 11
164.3412815376081
 21
87.21711680684661
 31
0.0
  0
LINE
  5
3A8
330
18
100
AcDbEntity
  8
1
  6
Continuous
100
AcDbLine
 10
225.684082537608
 20
56.2171168068466
 30
0.0
 11
334.6840825376079
 21
56.2171168068466
 31
0.0
  0
LINE
  5
3A9
330
18
100
AcDbEntity
  8
4
  6
CENTER
100
AcDbLine
 10
350.1840825376081
 20
101.2171168068465
 30
0.0
 11
150.6844045376081
 21
101.2171168068465
 31
0.0
  0
ARC
  5
3AA
330
18
100
AcDbEntity
  8
1
  6
Continuous
100
AcDbCircle
 10
221.184082537608
 20
102.7528318068466
 30
0.0
 40
19.03571399999998
100
AcDbArc
 50
234.6997519999999
 51
270.0
  0
ARC
  5
3AB
330
18
100
AcDbEntity
  8
1
  6
Continuous
100
AcDbCircle
 10
164.3412815376081
 20
91.2171168068466
 30
0.0
 40
4.0
100
AcDbArc
 50
198.819063
 51
270.0
  0
ARC
  5
3AC
330
18
100
AcDbEntity
  8
1
  6
Continuous
100
AcDbCircle
 10
225.684082537608
 20
64.2171168068466
 30
0.0
 40
8.0
100
AcDbArc
 50
180.0
 51
270.0
  0
ARC
  5
3AD
330
18
100
AcDbEntity
  8
1
  6
Continuous
100
AcDbCircle
 10
228.184082537608
 20
56.2171168068466
 30
0.0
 40
33.0
100
AcDbArc
 50
0.0
 51
40.174653
  0
LINE
  5
3AE
330
18
100
AcDbEntity
  8
4
  6
CENTER
100
AcDbLine
 10
228.6840825376081
 20
78.96711680684659
 30
0.0
 11
228.6840825376081
 21
56.4671168068466
 31
0.0
  0
LINE
  5
3AF
330
18
100
AcDbEntity
  8
1
  6
Continuous
100
AcDbLine
 10
244.684082537608
 20
77.49777080684658
 30
0.0
 11
227.684082537608
 21
77.49777080684658
 31
0.0
  0
ARC
  5
3B0
330
18
100
AcDbEntity
  8
1
  6
Continuous
100
AcDbCircle
 10
240.434082537608
 20
83.27327680684659
 30
0.0
 40
12.275507
100
AcDbArc
 50
249.7438419999999
 51
290.256158
  0
LINE
  5
3B1
330
18
100
AcDbEntity
  8
1
  6
Continuous
100
AcDbLine
 10
244.684082537608
 20
70.99777080684659
 30
0.0
 11
227.684082537608
 21
70.99777080684659
 31
0.0
  0
LINE
  5
3B2
330
18
100
AcDbEntity
  8
1
  6
Continuous
100
AcDbLine
 10
255.336654537608
 20
80.40700180684662
 30
0.0
 11
220.1171845376081
 21
80.39002680684664
 31
0.0
  0
LINE
  5
3B3
330
18
100
AcDbEntity
  8
1
  6
Continuous
100
AcDbLine
 10
255.3380525376079
 20
77.50700280684658
 30
0.0
 11
220.1171845376081
 21
77.49002680684658
 31
0.0
  0
LINE
  5
3B4
330
18
100
AcDbEntity
  8
1
  6
Continuous
100
AcDbLine
 10
236.184082537608
 20
80.41711680684661
 30
0.0
 11
244.184082537608
 21
80.41711680684661
 31
0.0
  0
LINE
  5
3B5
330
18
100
AcDbEntity
  8
1
  6
Continuous
100
AcDbLine
 10
248.4381765376081
 20
80.81711680684662
 30
0.0
 11
223.929988537608
 21
80.81711680684662
 31
0.0
  0
LINE
  5
3B6
330
18
100
AcDbEntity
  8
1
  6
Continuous
100
AcDbLine
 10
221.184082537608
 20
83.7171168068466
 30
0.0
 11
251.184082537608
 21
83.7171168068466
 31
0.0
  0
LINE
  5
3B7
330
18
100
AcDbEntity
  8
1
  6
Continuous
100
AcDbLine
 10
217.684082537608
 20
84.04164780684656
 30
0.0
 11
217.684082537608
 21
64.2171168068466
 31
0.0
  0
ARC
  5
3B8
330
18
100
AcDbEntity
  8
1
  6
Continuous
100
AcDbCircle
 10
223.929988537608
 20
83.56711680684663
 30
0.0
 40
2.75
100
AcDbArc
 50
176.873224
 51
270.0
  0
LINE
  5
3B9
330
18
100
AcDbEntity
  8
4
  6
CENTER
100
AcDbLine
 10
239.934082537608
 20
67.7171168068466
 30
0.0
 11
217.434082537608
 21
67.7171168068466
 31
0.0
  0
ARC
  5
3BA
330
18
100
AcDbEntity
  8
1
  6
Continuous
100
AcDbCircle
 10
228.6840825376081
 20
67.7171168068466
 30
0.0
 40
5.25
100
AcDbArc
 50
100.9805749999998
 51
38.67385199999999
  0
LINE
  5
3BB
330
18
100
AcDbEntity
  8
1
  6
Continuous
100
AcDbLine
 10
220.1171845376081
 20
77.49002680684658
 30
0.0
 11
220.1171845376081
 21
80.39002680684664
 31
0.0
  0
ARC
  5
3BC
330
18
100
AcDbEntity
  8
1
  6
Continuous
100
AcDbCircle
 10
231.934082537608
 20
83.27327680684659
 30
0.0
 40
12.275507
100
AcDbArc
 50
249.7438419999999
 51
290.256158
  0
LINE
  5
3BD
330
18
100
AcDbEntity
  8
1
  6
Continuous
100
AcDbLine
 10
236.184082537608
 20
80.41711680684661
 30
0.0
 11
228.184082537608
 21
80.41711680684661
 31
0.0
  0
LINE
  5
3BE
330
18
100
AcDbEntity
  8
1
  6
Continuous
100
AcDbLine
 10
227.684082537608
 20
70.99777080684659
 30
0.0
 11
227.684082537608
 21
77.49367380684659
 31
0.0
  0
LINE
  5
3BF
330
18
100
AcDbEntity
  8
1
  6
Continuous
100
AcDbLine
 10
228.184082537608
 20
80.41711680684661
 30
0.0
 11
228.184082537608
 21
80.81711680684662
 31
0.0
  0
LINE
  5
3C0
330
18
100
AcDbEntity
  8
1
  6
Continuous
100
AcDbLine
 10
236.184082537608
 20
71.75695980684658
 30
0.0
 11
236.184082537608
 21
77.49777080684658
 31
0.0
  0
ARC
  5
3C1
330
18
100
AcDbEntity
  8
1
  6
Continuous
100
AcDbCircle
 10
255.343836537608
 20
65.50700380684661
 30
0.0
 40
14.9
100
AcDbArc
 50
55.177209
 51
90.02761600000004
  0
ARC
  5
3C2
330
18
100
AcDbEntity
  8
1
  6
Continuous
100
AcDbCircle
 10
248.4381765376081
 20
83.56711680684663
 30
0.0
 40
2.75
100
AcDbArc
 50
270.0
 51
3.126775999999998
  0
ARC
  5
3C3
330
18
100
AcDbEntity
  8
1
  6
Continuous
100
AcDbCircle
 10
255.343836537608
 20
65.50700380684661
 30
0.0
 40
12.0
100
AcDbArc
 50
55.17720999999998
 51
90.02761600000004
  0
LINE
  5
3C4
330
18
100
AcDbEntity
  8
1
  6
Continuous
100
AcDbLine
 10
244.684082537608
 20
70.99777080684659
 30
0.0
 11
244.684082537608
 21
77.50186780684661
 31
0.0
  0
LINE
  5
3C5
330
18
100
AcDbEntity
  8
1
  6
Continuous
100
AcDbLine
 10
244.184082537608
 20
80.41711680684661
 30
0.0
 11
244.184082537608
 21
80.81711680684662
 31
0.0
  0
ARC
  5
3C6
330
18
100
AcDbEntity
  8
1
  6
Continuous
100
AcDbCircle
 10
251.184082537608
 20
102.7528318068466
 30
0.0
 40
19.03571399999998
100
AcDbArc
 50
270.0
 51
305.3002479999999
  0
LINE
  5
3C7
330
18
100
AcDbEntity
  8
4
  6
CENTER
100
AcDbLine
 10
342.9340825376079
 20
67.7171168068466
 30
0.0
 11
320.4340825376081
 21
67.7171168068466
 31
0.0
  0
LINE
  5
3C8
330
18
100
AcDbEntity
  8
1
  6
Continuous
100
AcDbLine
 10
342.6840825376079
 20
89.21711680684662
 30
0.0
 11
332.1840825376079
 21
89.21711680684662
 31
0.0
  0
CIRCLE
  5
3C9
330
18
100
AcDbEntity
  8
1
  6
Continuous
100
AcDbCircle
 10
331.6840825376079
 20
67.7171168068466
 30
0.0
 40
5.25
  0
ARC
  5
3CA
330
18
100
AcDbEntity
  8
1
  6
Continuous
100
AcDbCircle
 10
332.1840825376079
 20
56.2171168068466
 30
0.0
 40
33.0
100
AcDbArc
 50
90.0
 51
180.0
  0
LINE
  5
3CB
330
18
100
AcDbEntity
  8
4
  6
CENTER
100
AcDbLine
 10
331.6840825376079
 20
78.96711680684659
 30
0.0
 11
331.6840825376079
 21
56.4671168068466
 31
0.0
  0
ARC
  5
3CC
330
18
100
AcDbEntity
  8
1
  6
Continuous
100
AcDbCircle
 10
308.0268845376081
 20
91.2171168068466
 30
0.0
 40
4.0
100
AcDbArc
 50
270.0
 51
341.1809369999998
  0
ARC
  5
3CD
330
18
100
AcDbEntity
  8
1
  6
Continuous
100
AcDbCircle
 10
334.6840825376079
 20
64.2171168068466
 30
0.0
 40
8.0
100
AcDbArc
 50
270.0
 51
0.0
  0
ARC
  5
3CE
330
18
100
AcDbEntity
  8
1
  6
Continuous
100
AcDbCircle
 10
280.1840825376079
 20
101.2171168068465
 30
0.0
 40
31.5
100
AcDbArc
 50
26.35024099999999
 51
124.82279
  0
ARC
  5
3CF
330
18
100
AcDbEntity
  8
1
  6
Continuous
100
AcDbCircle
 10
280.1840825376079
 20
101.2171168068465
 30
0.0
 40
28.6
100
AcDbArc
 50
29.30841299999999
 51
124.8227909999999
  0
ARC
  5
3D0
330
18
100
AcDbEntity
  8
1
  6
Continuous
100
AcDbCircle
 10
280.1840825376079
 20
101.2171168068465
 30
0.0
 40
23.6
100
AcDbArc
 50
36.38586800000001
 51
142.252632
  0
LINE
  5
3D1
330
18
100
AcDbEntity
  8
1
  6
Continuous
100
AcDbLine
 10
308.0268845376081
 20
115.2171168068464
 30
0.0
 11
164.3412815376081
 21
115.2171168068464
 31
0.0
  0
LINE
  5
3D2
330
18
100
AcDbEntity
  8
1
  6
Continuous
100
AcDbLine
 10
334.6840825376079
 20
146.2171168068464
 30
0.0
 11
225.684082537608
 21
146.2171168068464
 31
0.0
  0
ARC
  5
3D3
330
18
100
AcDbEntity
  8
1
  6
Continuous
100
AcDbCircle
 10
221.184082537608
 20
99.68140280684661
 30
0.0
 40
19.03571399999998
100
AcDbArc
 50
90.0
 51
125.300248
  0
ARC
  5
3D4
330
18
100
AcDbEntity
  8
1
  6
Continuous
100
AcDbCircle
 10
164.3412815376081
 20
111.2171168068463
 30
0.0
 40
4.0
100
AcDbArc
 50
90.0
 51
161.180937
  0
ARC
  5
3D5
330
18
100
AcDbEntity
  8
1
  6
Continuous
100
AcDbCircle
 10
225.684082537608
 20
138.2171168068466
 30
0.0
 40
8.0
100
AcDbArc
 50
90.0
 51
180.0
  0
LINE
  5
3D6
330
18
100
AcDbEntity
  8
4
  6
CENTER
100
AcDbLine
 10
228.6840825376081
 20
145.9671168068465
 30
0.0
 11
228.6840825376081
 21
123.4671168068464
 31
0.0
  0
ARC
  5
3D7
330
18
100
AcDbEntity
  8
1
  6
Continuous
100
AcDbCircle
 10
228.184082537608
 20
146.2171168068464
 30
0.0
 40
33.0
100
AcDbArc
 50
319.825347
 51
0.0
  0
ARC
  5
3D8
330
18
100
AcDbEntity
  8
1
  6
Continuous
100
AcDbCircle
 10
240.434082537608
 20
123.2609558068463
 30
0.0
 40
12.275507
100
AcDbArc
 50
69.743842
 51
110.2561579999999
  0
ARC
  5
3D9
330
18
100
AcDbEntity
  8
1
  6
Continuous
100
AcDbCircle
 10
240.434082537608
 20
140.8119698068466
 30
0.0
 40
12.275507
100
AcDbArc
 50
249.7438419999999
 51
290.256158
  0
LINE
  5
3DA
330
18
100
AcDbEntity
  8
1
  6
Continuous
100
AcDbLine
 10
244.684082537608
 20
135.5364628068465
 30
0.0
 11
227.684082537608
 21
135.5364628068465
 31
0.0
  0
LINE
  5
3DB
330
18
100
AcDbEntity
  8
1
  6
Continuous
100
AcDbLine
 10
255.3380525376079
 20
124.9272308068466
 30
0.0
 11
220.1171845376081
 21
124.9442068068466
 31
0.0
  0
LINE
  5
3DC
330
18
100
AcDbEntity
  8
1
  6
Continuous
100
AcDbLine
 10
255.336654537608
 20
122.0272308068466
 30
0.0
 11
220.1171845376081
 21
122.0442068068466
 31
0.0
  0
LINE
  5
3DD
330
18
100
AcDbEntity
  8
1
  6
Continuous
100
AcDbLine
 10
230.184082537608
 20
135.8977718068466
 30
0.0
 11
242.184082537608
 21
135.8977718068466
 31
0.0
  0
LINE
  5
3DE
330
18
100
AcDbEntity
  8
1
  6
Continuous
100
AcDbLine
 10
241.5840825376081
 20
136.4977718068465
 30
0.0
 11
230.7840825376081
 21
136.4977718068465
 31
0.0
  0
LINE
  5
3DF
330
18
100
AcDbEntity
  8
1
  6
Continuous
100
AcDbLine
 10
245.684082537608
 20
128.5364628068465
 30
0.0
 11
236.184082537608
 21
128.5364628068465
 31
0.0
  0
LINE
  5
3E0
330
18
100
AcDbEntity
  8
1
  6
Continuous
100
AcDbLine
 10
247.1340825376081
 20
128.5364628068465
 30
0.0
 11
225.2340825376081
 21
128.5364628068465
 31
0.0
  0
LINE
  5
3E1
330
18
100
AcDbEntity
  8
1
  6
Continuous
100
AcDbLine
 10
236.184082537608
 20
122.0171168068465
 30
0.0
 11
244.184082537608
 21
122.0171168068465
 31
0.0
  0
LINE
  5
3E2
330
18
100
AcDbEntity
  8
1
  6
Continuous
100
AcDbLine
 10
248.4381765376081
 20
121.6171168068463
 30
0.0
 11
223.929988537608
 21
121.6171168068463
 31
0.0
  0
LINE
  5
3E3
330
18
100
AcDbEntity
  8
1
  6
Continuous
100
AcDbLine
 10
236.184082537608
 20
124.9364628068464
 30
0.0
 11
247.1340825376081
 21
124.9364628068464
 31
0.0
  0
LINE
  5
3E4
330
18
100
AcDbEntity
  8
1
  6
Continuous
100
AcDbLine
 10
221.184082537608
 20
118.7171168068464
 30
0.0
 11
251.184082537608
 21
118.7171168068464
 31
0.0
  0
LINE
  5
3E5
330
18
100
AcDbEntity
  8
1
  6
Continuous
100
AcDbLine
 10
220.1171845376081
 20
124.9442068068466
 30
0.0
 11
220.1171845376081
 21
122.0442068068466
 31
0.0
  0
LINE
  5
3E6
330
18
100
AcDbEntity
  8
1
  6
Continuous
100
AcDbLine
 10
217.684082537608
 20
138.2171168068466
 30
0.0
 11
217.684082537608
 21
118.3925868068466
 31
0.0
  0
ARC
  5
3E7
330
18
100
AcDbEntity
  8
1
  6
Continuous
100
AcDbCircle
 10
223.929988537608
 20
118.8671168068464
 30
0.0
 40
2.75
100
AcDbArc
 50
90.0
 51
183.1267759999999
  0
LINE
  5
3E8
330
18
100
AcDbEntity
  8
1
  6
Continuous
100
AcDbLine
 10
236.184082537608
 20
122.0171168068465
 30
0.0
 11
228.184082537608
 21
122.0171168068465
 31
0.0
  0
LINE
  5
3E9
330
18
100
AcDbEntity
  8
1
  6
Continuous
100
AcDbLine
 10
228.184082537608
 20
122.0171168068465
 30
0.0
 11
228.184082537608
 21
121.6171168068463
 31
0.0
  0
LINE
  5
3EA
330
18
100
AcDbEntity
  8
1
  6
Continuous
100
AcDbLine
 10
236.184082537608
 20
124.9364628068464
 30
0.0
 11
225.2340825376081
 21
124.9364628068464
 31
0.0
  0
LINE
  5
3EB
330
18
100
AcDbEntity
  8
4
  6
CENTER
100
AcDbLine
 10
239.934082537608
 20
134.7171168068464
 30
0.0
 11
217.434082537608
 21
134.7171168068464
 31
0.0
  0
ARC
  5
3EC
330
18
100
AcDbEntity
  8
1
  6
Continuous
100
AcDbCircle
 10
228.6840825376081
 20
134.7171168068464
 30
0.0
 40
5.25
100
AcDbArc
 50
19.82645899999998
 51
259.019425
  0
LINE
  5
3ED
330
18
100
AcDbEntity
  8
1
  6
Continuous
100
AcDbLine
 10
225.2340825376081
 20
124.9364628068464
 30
0.0
 11
225.2340825376081
 21
128.5364628068465
 31
0.0
  0
LINE
  5
3EE
330
18
100
AcDbEntity
  8
1
  6
Continuous
100
AcDbLine
 10
227.684082537608
 20
128.5364628068465
 30
0.0
 11
227.684082537608
 21
135.5364628068465
 31
0.0
  0
LINE
  5
3EF
330
18
100
AcDbEntity
  8
1
  6
Continuous
100
AcDbLine
 10
236.184082537608
 20
129.2956518068465
 30
0.0
 11
236.184082537608
 21
134.7772738068466
 31
0.0
  0
LINE
  5
3F0
330
18
100
AcDbEntity
  8
1
  6
Continuous
100
AcDbLine
 10
232.584638537608
 20
128.5364628068465
 30
0.0
 11
236.1846385376081
 21
124.9364628068464
 31
0.0
  0
ARC
  5
3F1
330
18
100
AcDbEntity
  8
1
  6
Continuous
100
AcDbCircle
 10
231.934082537608
 20
140.8119698068466
 30
0.0
 40
12.275507
100
AcDbArc
 50
249.7438419999999
 51
290.256158
  0
LINE
  5
3F2
330
18
100
AcDbEntity
  8
1
  6
Continuous
100
AcDbLine
 10
236.184082537608
 20
128.5364628068465
 30
0.0
 11
239.7858185376079
 21
124.9347268068465
 31
0.0
  0
ARC
  5
3F3
330
18
100
AcDbEntity
  8
1
  6
Continuous
100
AcDbCircle
 10
231.934082537608
 20
123.2609558068463
 30
0.0
 40
12.275507
100
AcDbArc
 50
69.743842
 51
110.2561579999999
  0
LINE
  5
3F4
330
18
100
AcDbEntity
  8
2
  6
Continuous
100
AcDbLine
 10
231.1310825376081
 20
135.5364628068465
 30
0.0
 11
231.1310825376081
 21
136.4977718068465
 31
0.0
  0
LINE
  5
3F5
330
18
100
AcDbEntity
  8
1
  6
Continuous
100
AcDbLine
 10
230.184082537608
 20
135.8977718068466
 30
0.0
 11
230.7840825376081
 21
136.4977718068465
 31
0.0
  0
LINE
  5
3F6
330
18
100
AcDbEntity
  8
1
  6
Continuous
100
AcDbLine
 10
230.184082537608
 20
135.8977718068466
 30
0.0
 11
230.184082537608
 21
135.5364628068465
 31
0.0
  0
LINE
  5
3F7
330
18
100
AcDbEntity
  8
2
  6
Continuous
100
AcDbLine
 10
241.2370825376081
 20
135.5364628068465
 30
0.0
 11
241.2370825376081
 21
136.4977718068465
 31
0.0
  0
ARC
  5
3F8
330
18
100
AcDbEntity
  8
1
  6
Continuous
100
AcDbCircle
 10
255.343836537608
 20
136.9272298068466
 30
0.0
 40
14.9
100
AcDbArc
 50
269.9723839999999
 51
304.822791
  0
ARC
  5
3F9
330
18
100
AcDbEntity
  8
1
  6
Continuous
100
AcDbCircle
 10
251.184082537608
 20
99.68140280684661
 30
0.0
 40
19.03571399999998
100
AcDbArc
 50
54.699752
 51
90.0
  0
ARC
  5
3FA
330
18
100
AcDbEntity
  8
1
  6
Continuous
100
AcDbCircle
 10
248.4381765376081
 20
118.8671168068464
 30
0.0
 40
2.75
100
AcDbArc
 50
356.873224
 51
90.0
  0
LINE
  5
3FB
330
18
100
AcDbEntity
  8
1
  6
Continuous
100
AcDbLine
 10
244.184082537608
 20
122.0171168068465
 30
0.0
 11
244.184082537608
 21
121.6171168068463
 31
0.0
  0
ARC
  5
3FC
330
18
100
AcDbEntity
  8
1
  6
Continuous
100
AcDbCircle
 10
255.343836537608
 20
136.9272298068466
 30
0.0
 40
12.0
100
AcDbArc
 50
269.9723839999999
 51
304.82279
  0
LINE
  5
3FD
330
18
100
AcDbEntity
  8
1
  6
Continuous
100
AcDbLine
 10
244.684082537608
 20
128.5364628068465
 30
0.0
 11
244.684082537608
 21
135.5364628068465
 31
0.0
  0
LINE
  5
3FE
330
18
100
AcDbEntity
  8
1
  6
Continuous
100
AcDbLine
 10
247.1340825376081
 20
124.9364628068464
 30
0.0
 11
247.1340825376081
 21
128.5364628068465
 31
0.0
  0
LINE
  5
3FF
330
18
100
AcDbEntity
  8
1
  6
Continuous
100
AcDbLine
 10
241.5840825376081
 20
136.4977718068465
 30
0.0
 11
242.184082537608
 21
135.8977718068466
 31
0.0
  0
LINE
  5
400
330
18
100
AcDbEntity
  8
1
  6
Continuous
100
AcDbLine
 10
242.184082537608
 20
135.5364628068465
 30
0.0
 11
242.184082537608
 21
135.8977718068466
 31
0.0
  0
CIRCLE
  5
401
330
18
100
AcDbEntity
  8
1
  6
Continuous
100
AcDbCircle
 10
212.0852085376081
 20
239.9732538068465
 30
0.0
 40
3.5
  0
LINE
  5
402
330
18
100
AcDbEntity
  8
1
  6
Continuous
100
AcDbLine
 10
244.6844045376079
 20
268.2354738068466
 30
0.0
 11
236.1844045376079
 21
263.3279958068464
 31
0.0
  0
ARC
  5
403
330
18
100
AcDbEntity
  8
1
  6
Continuous
100
AcDbCircle
 10
236.458715537608
 20
272.9844058068465
 30
0.0
 40
15.713917
100
AcDbArc
 50
237.7886709999999
 51
298.581575
  0
LINE
  5
404
330
18
100
AcDbEntity
  8
1
  6
Continuous
100
AcDbLine
 10
227.684404537608
 20
268.2354738068466
 30
0.0
 11
236.1844045376079
 21
263.3279958068464
 31
0.0
  0
CIRCLE
  5
405
330
18
100
AcDbEntity
  8
1
  6
Continuous
100
AcDbCircle
 10
260.283599537608
 20
239.9732538068465
 30
0.0
 40
3.5
  0
ARC
  5
406
330
18
100
AcDbEntity
  8
1
  6
Continuous
100
AcDbCircle
 10
228.968387537608
 20
293.8890248068465
 30
0.0
 40
37.80978199999999
100
AcDbArc
 50
293.3866929999999
 51
307.495857
  0
LINE
  5
407
330
18
100
AcDbEntity
  8
1
  6
Continuous
100
AcDbLine
 10
342.6840825376079
 20
113.2171168068465
 30
0.0
 11
332.1840825376079
 21
113.2171168068465
 31
0.0
  0
CIRCLE
  5
408
330
18
100
AcDbEntity
  8
1
  6
Continuous
100
AcDbCircle
 10
331.6840825376079
 20
134.7171168068464
 30
0.0
 40
5.25
  0
LINE
  5
409
330
18
100
AcDbEntity
  8
4
  6
CENTER
100
AcDbLine
 10
342.9340825376079
 20
134.7171168068464
 30
0.0
 11
320.4340825376081
 21
134.7171168068464
 31
0.0
  0
LINE
  5
40A
330
18
100
AcDbEntity
  8
4
  6
CENTER
100
AcDbLine
 10
331.6840825376079
 20
145.9671168068465
 30
0.0
 11
331.6840825376079
 21
123.4671168068464
 31
0.0
  0
ARC
  5
40B
330
18
100
AcDbEntity
  8
1
  6
Continuous
100
AcDbCircle
 10
332.1840825376079
 20
146.2171168068464
 30
0.0
 40
33.0
100
AcDbArc
 50
180.0
 51
270.0
  0
ARC
  5
40C
330
18
100
AcDbEntity
  8
1
  6
Continuous
100
AcDbCircle
 10
308.0268845376081
 20
111.2171168068463
 30
0.0
 40
4.0
100
AcDbArc
 50
18.81906299999998
 51
90.0
  0
ARC
  5
40D
330
18
100
AcDbEntity
  8
1
  6
Continuous
100
AcDbCircle
 10
334.6840825376079
 20
138.2171168068466
 30
0.0
 40
8.0
100
AcDbArc
 50
0.0
 51
90.0
  0
LINE
  5
40E
330
18
100
AcDbEntity
  8
1
  6
Continuous
100
AcDbLine
 10
22.64252953760811
 20
377.6429508068464
 30
0.0
 11
112.6425295376081
 21
377.6429508068464
 31
0.0
  0
LINE
  5
40F
330
18
100
AcDbEntity
  8
1
  6
Continuous
100
AcDbLine
 10
22.64252953760811
 20
385.6429508068464
 30
0.0
 11
112.6425295376081
 21
385.6429508068464
 31
0.0
  0
LINE
  5
410
330
18
100
AcDbEntity
  8
1
  6
Continuous
100
AcDbLine
 10
22.64252953760811
 20
381.6429508068464
 30
0.0
 11
49.9856755376081
 21
381.6429508068464
 31
0.0
  0
LINE
  5
411
330
18
100
AcDbEntity
  8
1
  6
Continuous
100
AcDbLine
 10
22.64252953760811
 20
377.6429508068464
 30
0.0
 11
22.64252953760811
 21
385.6429508068464
 31
0.0
  0
LINE
  5
412
330
18
100
AcDbEntity
  8
1
  6
Continuous
100
AcDbLine
 10
99.14252953760813
 20
365.8429508068464
 30
0.0
 11
99.14252953760813
 21
297.4346368068466
 31
0.0
  0
LINE
  5
413
330
18
100
AcDbEntity
  8
1
  6
Continuous
100
AcDbLine
 10
36.14252953760812
 20
365.8429508068464
 30
0.0
 11
36.14252953760812
 21
297.4346368068466
 31
0.0
  0
ARC
  5
414
330
18
100
AcDbEntity
  8
1
  6
Continuous
100
AcDbCircle
 10
52.24047053760811
 20
339.1848818068463
 30
0.0
 40
36.67814099999999
100
AcDbArc
 50
9.389900000000002
 51
25.81688399999999
  0
ARC
  5
415
330
18
100
AcDbEntity
  8
1
  6
Continuous
100
AcDbCircle
 10
85.29252953760813
 20
285.3970448068464
 30
0.0
 40
2.75
100
AcDbArc
 50
0.0
 51
93.12677599999998
  0
LINE
  5
416
330
18
100
AcDbEntity
  8
4
  6
CENTER
100
AcDbLine
 10
33.13029753760811
 20
273.1429508068464
 30
0.0
 11
108.1436635376081
 21
273.1429508068464
 31
0.0
  0
ARC
  5
417
330
18
100
AcDbEntity
  8
1
  6
Continuous
100
AcDbCircle
 10
69.17824453760812
 20
288.1429508068464
 30
0.0
 40
19.03571399999998
100
AcDbArc
 50
144.6997519999999
 51
180.0
  0
ARC
  5
418
330
18
100
AcDbEntity
  8
1
  6
Continuous
100
AcDbCircle
 10
59.4389035376081
 20
297.1444688068465
 30
0.0
 40
23.298181
100
AcDbArc
 50
179.2863889999999
 51
217.5109419999997
  0
LINE
  5
419
330
18
100
AcDbEntity
  8
1
  6
Continuous
100
AcDbLine
 10
43.9231845376081
 20
282.9579048068464
 30
0.0
 11
38.1823735376081
 21
282.9579048068464
 31
0.0
  0
LINE
  5
41A
330
18
100
AcDbEntity
  8
1
  6
Continuous
100
AcDbLine
 10
38.1823735376081
 20
278.0504278068463
 30
0.0
 11
43.9231845376081
 21
278.0504278068463
 31
0.0
  0
ARC
  5
41B
330
18
100
AcDbEntity
  8
1
  6
Continuous
100
AcDbCircle
 10
41.7680825376081
 20
280.5041668068464
 30
0.0
 40
4.344898999999998
100
AcDbArc
 50
145.615753
 51
214.384247
  0
ARC
  5
41C
330
18
100
AcDbEntity
  8
1
  6
Continuous
100
AcDbCircle
 10
53.66399453760814
 20
273.1429508068464
 30
0.0
 40
16.24081099999999
100
AcDbArc
 50
162.412046
 51
180.0
  0
LINE
  5
41D
330
18
100
AcDbEntity
  8
1
  6
Continuous
100
AcDbLine
 10
46.8425295376081
 20
281.1429508068465
 30
0.0
 11
47.2425295376081
 21
281.1429508068465
 31
0.0
  0
LINE
  5
41E
330
18
100
AcDbEntity
  8
1
  6
Continuous
100
AcDbLine
 10
46.8425295376081
 20
273.1429508068464
 30
0.0
 11
46.8425295376081
 21
281.1429508068465
 31
0.0
  0
ARC
  5
41F
330
18
100
AcDbEntity
  8
1
  6
Continuous
100
AcDbCircle
 10
49.99252953760811
 20
285.3970448068464
 30
0.0
 40
2.75
100
AcDbArc
 50
86.87322399999997
 51
180.0
  0
ARC
  5
420
330
18
100
AcDbEntity
  8
1
  6
Continuous
100
AcDbCircle
 10
66.10681553760811
 20
288.1429508068464
 30
0.0
 40
19.03571399999998
100
AcDbArc
 50
0.0
 51
35.30024799999999
  0
ARC
  5
421
330
18
100
AcDbEntity
  8
1
  6
Continuous
100
AcDbCircle
 10
57.64252953760813
 20
344.9857518068465
 30
0.0
 40
4.0
100
AcDbArc
 50
108.8190629999999
 51
180.0
  0
LINE
  5
422
330
18
100
AcDbEntity
  8
1
  6
Continuous
100
AcDbLine
 10
53.8303295376081
 20
357.5429508068463
 30
0.0
 11
81.45472953760814
 21
357.5429508068463
 31
0.0
  0
ARC
  5
423
330
18
100
AcDbEntity
  8
1
  6
Continuous
100
AcDbCircle
 10
83.04458853760808
 20
339.1848818068463
 30
0.0
 40
36.67814099999999
100
AcDbArc
 50
154.1831159999999
 51
170.6100999999998
  0
ARC
  5
424
330
18
100
AcDbEntity
  8
1
  6
Continuous
100
AcDbCircle
 10
53.8303295376081
 20
353.3182288068464
 30
0.0
 40
4.224721999999998
100
AcDbArc
 50
90.0
 51
154.1831159999999
  0
ARC
  5
425
330
18
100
AcDbEntity
  8
1
  6
Continuous
100
AcDbCircle
 10
67.64252953760811
 20
315.6429508068464
 30
0.0
 40
35.0
100
AcDbArc
 50
71.180937
 51
108.8190629999999
  0
ARC
  5
426
330
18
100
AcDbEntity
  8
1
  6
Continuous
100
AcDbCircle
 10
77.64252953760811
 20
344.9857518068465
 30
0.0
 40
4.0
100
AcDbArc
 50
0.0
 51
71.180937
  0
ARC
  5
427
330
18
100
AcDbEntity
  8
1
  6
Continuous
100
AcDbCircle
 10
81.45472953760814
 20
353.3182288068464
 30
0.0
 40
4.224721999999998
100
AcDbArc
 50
25.81688399999999
 51
90.0
  0
ARC
  5
428
330
18
100
AcDbEntity
  8
1
  6
Continuous
100
AcDbCircle
 10
75.84615553760811
 20
297.1444688068465
 30
0.0
 40
23.298181
100
AcDbArc
 50
325.110205
 51
0.7136110000000003
  0
LINE
  5
429
330
18
100
AcDbEntity
  8
2
  6
Continuous
100
AcDbLine
 10
101.956575537608
 20
278.1959508068465
 30
0.0
 11
102.917884537608
 21
278.1959508068465
 31
0.0
  0
ARC
  5
42A
330
18
100
AcDbEntity
  8
1
  6
Continuous
100
AcDbCircle
 10
97.61167753760814
 20
280.5041668068464
 30
0.0
 40
4.344898999999998
100
AcDbArc
 50
325.6157529999998
 51
25.615753
  0
LINE
  5
42B
330
18
100
AcDbEntity
  8
1
  6
Continuous
100
AcDbLine
 10
102.317884537608
 20
279.1429508068465
 30
0.0
 11
101.956575537608
 21
279.1429508068465
 31
0.0
  0
LINE
  5
42C
330
18
100
AcDbEntity
  8
1
  6
Continuous
100
AcDbLine
 10
94.96014153760809
 20
276.7412168068466
 30
0.0
 11
91.36187553760812
 21
273.1429508068464
 31
0.0
  0
LINE
  5
42D
330
18
100
AcDbEntity
  8
1
  6
Continuous
100
AcDbLine
 10
88.44252953760806
 20
281.1429508068465
 30
0.0
 11
88.04252953760814
 21
281.1429508068465
 31
0.0
  0
LINE
  5
42E
330
18
100
AcDbEntity
  8
1
  6
Continuous
100
AcDbLine
 10
88.44252953760806
 20
273.1429508068464
 30
0.0
 11
88.44252953760806
 21
281.1429508068465
 31
0.0
  0
ARC
  5
42F
330
18
100
AcDbEntity
  8
1
  6
Continuous
100
AcDbCircle
 10
99.30147453760813
 20
280.5041668068464
 30
0.0
 40
4.344898999999998
100
AcDbArc
 50
154.3842469999999
 51
214.384247
  0
LINE
  5
430
330
18
100
AcDbEntity
  8
1
  6
Continuous
100
AcDbLine
 10
95.71576553760811
 20
278.0504278068463
 30
0.0
 11
101.197386537608
 21
278.0504278068463
 31
0.0
  0
LINE
  5
431
330
18
100
AcDbEntity
  8
1
  6
Continuous
100
AcDbLine
 10
95.71576553760811
 20
282.9579048068464
 30
0.0
 11
101.197386537608
 21
282.9579048068464
 31
0.0
  0
LINE
  5
432
330
18
100
AcDbEntity
  8
1
  6
Continuous
100
AcDbLine
 10
95.71576553760811
 20
282.9579048068464
 30
0.0
 11
94.95657553760812
 21
281.6429508068464
 31
0.0
  0
LINE
  5
433
330
18
100
AcDbEntity
  8
1
  6
Continuous
100
AcDbLine
 10
101.197386537608
 20
282.9579048068464
 30
0.0
 11
101.956575537608
 21
281.6429508068464
 31
0.0
  0
LINE
  5
434
330
18
100
AcDbEntity
  8
1
  6
Continuous
100
AcDbLine
 10
91.36187553760812
 20
284.0929508068464
 30
0.0
 11
94.95659753760813
 21
284.0946858068463
 31
0.0
  0
LINE
  5
435
330
18
100
AcDbEntity
  8
1
  6
Continuous
100
AcDbLine
 10
102.317884537608
 20
279.1429508068465
 30
0.0
 11
102.917884537608
 21
278.5429508068464
 31
0.0
  0
LINE
  5
436
330
18
100
AcDbEntity
  8
1
  6
Continuous
100
AcDbLine
 10
85.29938453760809
 20
381.6429508068464
 30
0.0
 11
112.6425295376081
 21
381.6429508068464
 31
0.0
  0
LINE
  5
437
330
18
100
AcDbEntity
  8
1
  6
Continuous
100
AcDbLine
 10
37.64252953760811
 20
374.8429508068464
 30
0.0
 11
97.64252953760813
 21
374.8429508068464
 31
0.0
  0
LINE
  5
438
330
18
100
AcDbEntity
  8
1
  6
Continuous
100
AcDbLine
 10
37.64252953760811
 20
373.8429508068464
 30
0.0
 11
97.64252953760813
 21
373.8429508068464
 31
0.0
  0
ARC
  5
439
330
18
100
AcDbEntity
  8
1
  6
Continuous
100
AcDbCircle
 10
86.41728953760811
 20
365.9429508068464
 30
0.0
 40
2.0
100
AcDbArc
 50
0.027616
 51
90.0
  0
LINE
  5
43A
330
18
100
AcDbEntity
  8
1
  6
Continuous
100
AcDbLine
 10
97.64252953760813
 20
370.8429508068464
 30
0.0
 11
37.64252953760811
 21
370.8429508068464
 31
0.0
  0
LINE
  5
43B
330
18
100
AcDbEntity
  8
1
  6
Continuous
100
AcDbLine
 10
84.22579053760813
 20
370.8429508068464
 30
0.0
 11
87.22579053760814
 21
373.8429508068464
 31
0.0
  0
LINE
  5
43C
330
18
100
AcDbEntity
  8
1
  6
Continuous
100
AcDbLine
 10
87.22579053760814
 20
370.8429508068464
 30
0.0
 11
84.22579053760813
 21
373.8429508068464
 31
0.0
  0
ARC
  5
43D
330
18
100
AcDbEntity
  8
1
  6
Continuous
100
AcDbCircle
 10
49.9856755376081
 20
379.6429508068464
 30
0.0
 40
6.0
100
AcDbArc
 50
19.47122099999998
 51
90.0
  0
LINE
  5
43E
330
18
100
AcDbEntity
  8
1
  6
Continuous
100
AcDbLine
 10
55.64252953760814
 20
381.6429508068464
 30
0.0
 11
79.64252953760811
 21
381.6429508068464
 31
0.0
  0
LINE
  5
43F
330
18
100
AcDbEntity
  8
1
  6
Continuous
100
AcDbLine
 10
48.86776953760811
 20
367.9429508068464
 30
0.0
 11
86.41728953760811
 21
367.9429508068464
 31
0.0
  0
LINE
  5
440
330
18
100
AcDbEntity
  8
1
  6
Continuous
100
AcDbLine
 10
53.11309253760811
 20
370.8429508068464
 30
0.0
 11
56.1130925376081
 21
373.8429508068464
 31
0.0
  0
LINE
  5
441
330
18
100
AcDbEntity
  8
1
  6
Continuous
100
AcDbLine
 10
56.1130925376081
 20
370.8429508068464
 30
0.0
 11
53.11309253760811
 21
373.8429508068464
 31
0.0
  0
LINE
  5
442
330
18
100
AcDbEntity
  8
4
  6
CENTER
100
AcDbLine
 10
34.14252953760811
 20
393.6429508068464
 30
0.0
 11
34.14252953760811
 21
369.6429508068464
 31
0.0
  0
ARC
  5
443
330
18
100
AcDbEntity
  8
1
  6
Continuous
100
AcDbCircle
 10
53.98567553760813
 20
381.6429508068464
 30
0.0
 40
4.0
100
AcDbArc
 50
180.0
 51
270.0
  0
ARC
  5
444
330
18
100
AcDbEntity
  8
1
  6
Continuous
100
AcDbCircle
 10
41.14252953760812
 20
365.8429508068464
 30
0.0
 40
5.0
100
AcDbArc
 50
90.0
 51
180.0
  0
ARC
  5
445
330
18
100
AcDbEntity
  8
1
  6
Continuous
100
AcDbCircle
 10
43.6325185376081
 20
372.6429508068465
 30
0.0
 40
5.0
100
AcDbArc
 50
90.0
 51
153.896119
  0
LINE
  5
446
330
18
100
AcDbEntity
  8
1
  6
Continuous
100
AcDbLine
 10
38.9709565376081
 20
370.8429508068464
 30
0.0
 11
41.97095653760809
 21
373.8429508068464
 31
0.0
  0
LINE
  5
447
330
18
100
AcDbEntity
  8
1
  6
Continuous
100
AcDbLine
 10
41.97095653760809
 20
370.8429508068464
 30
0.0
 11
38.9709565376081
 21
373.8429508068464
 31
0.0
  0
LINE
  5
448
330
18
100
AcDbEntity
  8
1
  6
Continuous
100
AcDbLine
 10
39.14252953760811
 20
370.8429508068464
 30
0.0
 11
37.64252953760811
 21
372.3429508068464
 31
0.0
  0
LINE
  5
449
330
18
100
AcDbEntity
  8
1
  6
Continuous
100
AcDbLine
 10
37.64252953760811
 20
374.8429508068464
 30
0.0
 11
37.64252953760811
 21
370.8429508068464
 31
0.0
  0
LINE
  5
44A
330
18
100
AcDbEntity
  8
1
  6
Continuous
100
AcDbLine
 10
39.14252953760811
 20
373.8429508068464
 30
0.0
 11
37.64252953760811
 21
372.3429508068464
 31
0.0
  0
ARC
  5
44B
330
18
100
AcDbEntity
  8
1
  6
Continuous
100
AcDbCircle
 10
47.9683465376081
 20
366.8429508068464
 30
0.0
 40
4.0
100
AcDbArc
 50
90.0
 51
179.972384
  0
ARC
  5
44C
330
18
100
AcDbEntity
  8
1
  6
Continuous
100
AcDbCircle
 10
48.86776953760811
 20
365.9429508068464
 30
0.0
 40
2.0
100
AcDbArc
 50
90.0
 51
179.972384
  0
LINE
  5
44D
330
18
100
AcDbEntity
  8
1
  6
Continuous
100
AcDbLine
 10
47.4562385376081
 20
370.8429508068464
 30
0.0
 11
50.45623853760812
 21
373.8429508068464
 31
0.0
  0
LINE
  5
44E
330
18
100
AcDbEntity
  8
1
  6
Continuous
100
AcDbLine
 10
50.45623853760812
 20
370.8429508068464
 30
0.0
 11
47.4562385376081
 21
373.8429508068464
 31
0.0
  0
LINE
  5
44F
330
18
100
AcDbEntity
  8
1
  6
Continuous
100
AcDbLine
 10
41.79938453760809
 20
370.8429508068464
 30
0.0
 11
44.7993845376081
 21
373.8429508068464
 31
0.0
  0
LINE
  5
450
330
18
100
AcDbEntity
  8
1
  6
Continuous
100
AcDbLine
 10
44.62781153760809
 20
370.8429508068464
 30
0.0
 11
47.62781153760809
 21
373.8429508068464
 31
0.0
  0
LINE
  5
451
330
18
100
AcDbEntity
  8
1
  6
Continuous
100
AcDbLine
 10
44.7993845376081
 20
370.8429508068464
 30
0.0
 11
41.79938453760809
 21
373.8429508068464
 31
0.0
  0
LINE
  5
452
330
18
100
AcDbEntity
  8
1
  6
Continuous
100
AcDbLine
 10
47.62781153760809
 20
370.8429508068464
 30
0.0
 11
44.62781153760809
 21
373.8429508068464
 31
0.0
  0
LINE
  5
453
330
18
100
AcDbEntity
  8
1
  6
Continuous
100
AcDbLine
 10
50.28466553760811
 20
370.8429508068464
 30
0.0
 11
53.28466553760811
 21
373.8429508068464
 31
0.0
  0
LINE
  5
454
330
18
100
AcDbEntity
  8
1
  6
Continuous
100
AcDbLine
 10
53.28466553760811
 20
370.8429508068464
 30
0.0
 11
50.28466553760811
 21
373.8429508068464
 31
0.0
  0
ARC
  5
455
330
18
100
AcDbEntity
  8
1
  6
Continuous
100
AcDbCircle
 10
81.29938453760809
 20
381.6429508068464
 30
0.0
 40
4.0
100
AcDbArc
 50
270.0
 51
0.0
  0
LINE
  5
456
330
18
100
AcDbEntity
  8
1
  6
Continuous
100
AcDbLine
 10
70.08365553760812
 20
370.8429508068464
 30
0.0
 11
73.08365553760814
 21
373.8429508068464
 31
0.0
  0
LINE
  5
457
330
18
100
AcDbEntity
  8
1
  6
Continuous
100
AcDbLine
 10
73.08365553760814
 20
370.8429508068464
 30
0.0
 11
70.08365553760812
 21
373.8429508068464
 31
0.0
  0
LINE
  5
458
330
18
100
AcDbEntity
  8
1
  6
Continuous
100
AcDbLine
 10
61.59837353760811
 20
370.8429508068464
 30
0.0
 11
64.5983735376081
 21
373.8429508068464
 31
0.0
  0
LINE
  5
459
330
18
100
AcDbEntity
  8
1
  6
Continuous
100
AcDbLine
 10
64.5983735376081
 20
370.8429508068464
 30
0.0
 11
61.59837353760811
 21
373.8429508068464
 31
0.0
  0
LINE
  5
45A
330
18
100
AcDbEntity
  8
1
  6
Continuous
100
AcDbLine
 10
55.9415195376081
 20
370.8429508068464
 30
0.0
 11
58.94151953760811
 21
373.8429508068464
 31
0.0
  0
LINE
  5
45B
330
18
100
AcDbEntity
  8
1
  6
Continuous
100
AcDbLine
 10
58.7699465376081
 20
370.8429508068464
 30
0.0
 11
61.76994653760811
 21
373.8429508068464
 31
0.0
  0
LINE
  5
45C
330
18
100
AcDbEntity
  8
1
  6
Continuous
100
AcDbLine
 10
58.94151953760811
 20
370.8429508068464
 30
0.0
 11
55.9415195376081
 21
373.8429508068464
 31
0.0
  0
LINE
  5
45D
330
18
100
AcDbEntity
  8
1
  6
Continuous
100
AcDbLine
 10
61.76994653760811
 20
370.8429508068464
 30
0.0
 11
58.7699465376081
 21
373.8429508068464
 31
0.0
  0
LINE
  5
45E
330
18
100
AcDbEntity
  8
1
  6
Continuous
100
AcDbLine
 10
64.42680153760811
 20
370.8429508068464
 30
0.0
 11
67.42680153760812
 21
373.8429508068464
 31
0.0
  0
LINE
  5
45F
330
18
100
AcDbEntity
  8
1
  6
Continuous
100
AcDbLine
 10
67.25522853760812
 20
370.8429508068464
 30
0.0
 11
70.2552285376081
 21
373.8429508068464
 31
0.0
  0
LINE
  5
460
330
18
100
AcDbEntity
  8
1
  6
Continuous
100
AcDbLine
 10
67.42680153760812
 20
370.8429508068464
 30
0.0
 11
64.42680153760811
 21
373.8429508068464
 31
0.0
  0
LINE
  5
461
330
18
100
AcDbEntity
  8
1
  6
Continuous
100
AcDbLine
 10
70.2552285376081
 20
370.8429508068464
 30
0.0
 11
67.25522853760812
 21
373.8429508068464
 31
0.0
  0
LINE
  5
462
330
18
100
AcDbEntity
  8
1
  6
Continuous
100
AcDbLine
 10
78.5689365376081
 20
370.8429508068464
 30
0.0
 11
81.56893653760809
 21
373.8429508068464
 31
0.0
  0
LINE
  5
463
330
18
100
AcDbEntity
  8
1
  6
Continuous
100
AcDbLine
 10
81.56893653760809
 20
370.8429508068464
 30
0.0
 11
78.5689365376081
 21
373.8429508068464
 31
0.0
  0
LINE
  5
464
330
18
100
AcDbEntity
  8
1
  6
Continuous
100
AcDbLine
 10
72.91208253760811
 20
370.8429508068464
 30
0.0
 11
75.91208253760811
 21
373.8429508068464
 31
0.0
  0
LINE
  5
465
330
18
100
AcDbEntity
  8
1
  6
Continuous
100
AcDbLine
 10
75.74050953760809
 20
370.8429508068464
 30
0.0
 11
78.74050953760809
 21
373.8429508068464
 31
0.0
  0
LINE
  5
466
330
18
100
AcDbEntity
  8
1
  6
Continuous
100
AcDbLine
 10
75.91208253760811
 20
370.8429508068464
 30
0.0
 11
72.91208253760811
 21
373.8429508068464
 31
0.0
  0
LINE
  5
467
330
18
100
AcDbEntity
  8
1
  6
Continuous
100
AcDbLine
 10
78.74050953760809
 20
370.8429508068464
 30
0.0
 11
75.74050953760809
 21
373.8429508068464
 31
0.0
  0
LINE
  5
468
330
18
100
AcDbEntity
  8
1
  6
Continuous
100
AcDbLine
 10
81.39736353760808
 20
370.8429508068464
 30
0.0
 11
84.39736353760812
 21
373.8429508068464
 31
0.0
  0
LINE
  5
469
330
18
100
AcDbEntity
  8
1
  6
Continuous
100
AcDbLine
 10
84.39736353760812
 20
370.8429508068464
 30
0.0
 11
81.39736353760808
 21
373.8429508068464
 31
0.0
  0
ARC
  5
46A
330
18
100
AcDbEntity
  8
1
  6
Continuous
100
AcDbCircle
 10
85.29938453760809
 20
379.6429508068464
 30
0.0
 40
6.0
100
AcDbArc
 50
90.0
 51
160.528779
  0
LINE
  5
46B
330
18
100
AcDbEntity
  8
4
  6
CENTER
100
AcDbLine
 10
101.1425295376081
 20
393.6429508068464
 30
0.0
 11
101.1425295376081
 21
369.6429508068464
 31
0.0
  0
LINE
  5
46C
330
18
100
AcDbEntity
  8
1
  6
Continuous
100
AcDbLine
 10
112.6425295376081
 20
377.6429508068464
 30
0.0
 11
112.6425295376081
 21
385.6429508068464
 31
0.0
  0
ARC
  5
46D
330
18
100
AcDbEntity
  8
1
  6
Continuous
100
AcDbCircle
 10
94.14252953760808
 20
365.8429508068464
 30
0.0
 40
5.0
100
AcDbArc
 50
0.0
 51
90.0
  0
ARC
  5
46E
330
18
100
AcDbEntity
  8
1
  6
Continuous
100
AcDbCircle
 10
87.31671253760808
 20
366.8429508068464
 30
0.0
 40
4.0
100
AcDbArc
 50
0.027616
 51
90.0
  0
ARC
  5
46F
330
18
100
AcDbEntity
  8
1
  6
Continuous
100
AcDbCircle
 10
91.65254053760813
 20
372.6429508068465
 30
0.0
 40
5.0
100
AcDbArc
 50
26.103881
 51
90.0
  0
LINE
  5
470
330
18
100
AcDbEntity
  8
1
  6
Continuous
100
AcDbLine
 10
92.71107253760808
 20
370.8429508068464
 30
0.0
 11
95.71107253760807
 21
373.8429508068464
 31
0.0
  0
LINE
  5
471
330
18
100
AcDbEntity
  8
1
  6
Continuous
100
AcDbLine
 10
95.71107253760807
 20
370.8429508068464
 30
0.0
 11
92.71107253760808
 21
373.8429508068464
 31
0.0
  0
LINE
  5
472
330
18
100
AcDbEntity
  8
1
  6
Continuous
100
AcDbLine
 10
87.05421853760809
 20
370.8429508068464
 30
0.0
 11
90.05421853760809
 21
373.8429508068464
 31
0.0
  0
LINE
  5
473
330
18
100
AcDbEntity
  8
1
  6
Continuous
100
AcDbLine
 10
89.88264553760812
 20
370.8429508068464
 30
0.0
 11
92.88264553760813
 21
373.8429508068464
 31
0.0
  0
LINE
  5
474
330
18
100
AcDbEntity
  8
1
  6
Continuous
100
AcDbLine
 10
90.05421853760809
 20
370.8429508068464
 30
0.0
 11
87.05421853760809
 21
373.8429508068464
 31
0.0
  0
LINE
  5
475
330
18
100
AcDbEntity
  8
1
  6
Continuous
100
AcDbLine
 10
92.88264553760813
 20
370.8429508068464
 30
0.0
 11
89.88264553760812
 21
373.8429508068464
 31
0.0
  0
LINE
  5
476
330
18
100
AcDbEntity
  8
1
  6
Continuous
100
AcDbLine
 10
97.64252953760813
 20
370.8429508068464
 30
0.0
 11
97.64252953760813
 21
374.8429508068464
 31
0.0
  0
LINE
  5
477
330
18
100
AcDbEntity
  8
1
  6
Continuous
100
AcDbLine
 10
95.53949953760811
 20
370.8429508068464
 30
0.0
 11
97.64252953760813
 21
372.9459808068465
 31
0.0
  0
LINE
  5
478
330
18
100
AcDbEntity
  8
1
  6
Continuous
100
AcDbLine
 10
97.64252953760813
 20
371.7399198068466
 30
0.0
 11
95.53949953760811
 21
373.8429508068464
 31
0.0
  0
LINE
  5
479
330
18
100
AcDbEntity
  8
4
  6
CENTER
100
AcDbLine
 10
236.184082537608
 20
533.0687848068463
 30
0.0
 11
236.184082537608
 21
427.0687848068464
 31
0.0
  0
ARC
  5
47A
330
18
100
AcDbEntity
  8
1
  6
Continuous
100
AcDbCircle
 10
228.184082537608
 20
435.0687848068464
 30
0.0
 40
33.0
100
AcDbArc
 50
0.0
 51
90.0
  0
LINE
  5
47B
330
18
100
AcDbEntity
  8
4
  6
CENTER
100
AcDbLine
 10
228.6840825376081
 20
435.3187848068464
 30
0.0
 11
228.6840825376081
 21
457.8187848068464
 31
0.0
  0
CIRCLE
  5
47C
330
18
100
AcDbEntity
  8
1
  6
Continuous
100
AcDbCircle
 10
228.6840825376081
 20
446.5687848068464
 30
0.0
 40
5.25
  0
LINE
  5
47D
330
18
100
AcDbEntity
  8
1
  6
Continuous
100
AcDbLine
 10
217.684082537608
 20
443.0687848068464
 30
0.0
 11
217.684082537608
 21
517.0687848068463
 31
0.0
  0
LINE
  5
47E
330
18
100
AcDbEntity
  8
4
  6
CENTER
100
AcDbLine
 10
280.1840825376079
 20
533.0687848068463
 30
0.0
 11
280.1840825376079
 21
427.0687848068464
 31
0.0
  0
CIRCLE
  5
47F
330
18
100
AcDbEntity
  8
1
  6
Continuous
100
AcDbCircle
 10
331.6840825376079
 20
446.5687848068464
 30
0.0
 40
5.25
  0
LINE
  5
480
330
18
100
AcDbEntity
  8
4
  6
CENTER
100
AcDbLine
 10
331.6840825376079
 20
435.3187848068464
 30
0.0
 11
331.6840825376079
 21
457.8187848068464
 31
0.0
  0
LINE
  5
481
330
18
100
AcDbEntity
  8
1
  6
Continuous
100
AcDbLine
 10
342.6840825376079
 20
443.0687848068464
 30
0.0
 11
342.6840825376079
 21
517.0687848068463
 31
0.0
  0
ARC
  5
482
330
18
100
AcDbEntity
  8
1
  6
Continuous
100
AcDbCircle
 10
332.1840825376079
 20
435.0687848068464
 30
0.0
 40
33.0
100
AcDbArc
 50
90.0
 51
180.0
  0
LINE
  5
483
330
18
100
AcDbEntity
  8
1
  6
Continuous
100
AcDbLine
 10
296.1840825376079
 20
385.6429508068464
 30
0.0
 11
264.1840825376081
 21
385.6429508068464
 31
0.0
  0
LINE
  5
484
330
18
100
AcDbEntity
  8
1
  6
Continuous
100
AcDbLine
 10
299.1840825376079
 20
381.6429508068464
 30
0.0
 11
261.184082537608
 21
381.6429508068464
 31
0.0
  0
LINE
  5
485
330
18
100
AcDbEntity
  8
1
  6
Continuous
100
AcDbLine
 10
310.1844045376079
 20
374.8429508068464
 30
0.0
 11
250.184404537608
 21
374.8429508068464
 31
0.0
  0
LINE
  5
486
330
18
100
AcDbEntity
  8
1
  6
Continuous
100
AcDbLine
 10
310.1844045376079
 20
373.8429508068464
 30
0.0
 11
250.184404537608
 21
373.8429508068464
 31
0.0
  0
LINE
  5
487
330
18
100
AcDbEntity
  8
1
  6
Continuous
100
AcDbLine
 10
334.6840825376079
 20
435.0687848068464
 30
0.0
 11
225.684082537608
 21
435.0687848068464
 31
0.0
  0
LINE
  5
488
330
18
100
AcDbEntity
  8
1
  6
Continuous
100
AcDbLine
 10
342.6840825376079
 20
377.6429508068464
 30
0.0
 11
217.684082537608
 21
377.6429508068464
 31
0.0
  0
LINE
  5
489
330
18
100
AcDbEntity
  8
1
  6
Continuous
100
AcDbLine
 10
310.1844045376079
 20
370.8429508068464
 30
0.0
 11
240.6844045376079
 21
370.8429508068464
 31
0.0
  0
ARC
  5
48A
330
18
100
AcDbEntity
  8
1
  6
Continuous
100
AcDbCircle
 10
275.1777215376081
 20
285.8126468068467
 30
0.0
 40
3.5
100
AcDbArc
 50
229.5371749999999
 51
50.219853
  0
LINE
  5
48B
330
18
100
AcDbEntity
  8
4
  6
CENTER
100
AcDbLine
 10
321.6844045376078
 20
273.1429508068464
 30
0.0
 11
150.6844045376081
 21
273.1429508068464
 31
0.0
  0
LINE
  5
48C
330
18
100
AcDbEntity
  8
1
  6
Continuous
100
AcDbLine
 10
274.914851537608
 20
370.8429508068464
 30
0.0
 11
271.9148515376081
 21
373.8429508068464
 31
0.0
  0
LINE
  5
48D
330
18
100
AcDbEntity
  8
1
  6
Continuous
100
AcDbLine
 10
271.9148515376081
 20
370.8429508068464
 30
0.0
 11
274.914851537608
 21
373.8429508068464
 31
0.0
  0
ARC
  5
48E
330
18
100
AcDbEntity
  8
1
  6
Continuous
100
AcDbCircle
 10
191.436174537608
 20
352.2896618068465
 30
0.0
 40
57.06438499999999
100
AcDbArc
 50
352.2269309999999
 51
13.326211
  0
LINE
  5
48F
330
18
100
AcDbEntity
  8
1
  6
Continuous
100
AcDbLine
 10
256.6171845376081
 20
362.3849268068465
 30
0.0
 11
256.6171845376081
 21
280.9407788068465
 31
0.0
  0
CIRCLE
  5
490
330
18
100
AcDbEntity
  8
1
  6
Continuous
100
AcDbCircle
 10
197.1910875376081
 20
285.8126468068467
 30
0.0
 40
3.5
  0
CIRCLE
  5
491
330
18
100
AcDbEntity
  8
1
  6
Continuous
100
AcDbCircle
 10
236.1844045376079
 20
314.1429508068465
 30
0.0
 40
3.5
  0
ARC
  5
492
330
18
100
AcDbEntity
  8
1
  6
Continuous
100
AcDbCircle
 10
125.8840845376081
 20
361.2377928068466
 30
0.0
 40
123.224386
100
AcDbArc
 50
329.4023509999999
 51
352.2269309999999
  0
LINE
  5
493
330
18
100
AcDbEntity
  8
1
  6
Continuous
100
AcDbLine
 10
236.1844045376079
 20
282.9579048068464
 30
0.0
 11
244.6844045376079
 21
278.0504278068463
 31
0.0
  0
ARC
  5
494
330
18
100
AcDbEntity
  8
1
  6
Continuous
100
AcDbCircle
 10
117.9522665376081
 20
356.0275988068466
 30
0.0
 40
127.684495
100
AcDbArc
 50
324.750312
 51
333.229306
  0
LINE
  5
495
330
18
100
AcDbEntity
  8
1
  6
Continuous
100
AcDbLine
 10
236.1844045376079
 20
282.9579048068464
 30
0.0
 11
227.684404537608
 21
278.0504278068463
 31
0.0
  0
LINE
  5
496
330
18
100
AcDbEntity
  8
1
  6
Continuous
100
AcDbLine
 10
255.5278715376081
 20
381.6429508068464
 30
0.0
 11
217.684082537608
 21
381.6429508068464
 31
0.0
  0
LINE
  5
497
330
18
100
AcDbEntity
  8
1
  6
Continuous
100
AcDbLine
 10
255.5272285376081
 20
385.6429508068464
 30
0.0
 11
217.684082537608
 21
385.6429508068464
 31
0.0
  0
LINE
  5
498
330
18
100
AcDbEntity
  8
1
  6
Continuous
100
AcDbLine
 10
240.6844045376079
 20
367.9429508068464
 30
0.0
 11
246.614985537608
 21
367.9429508068464
 31
0.0
  0
LINE
  5
499
330
18
100
AcDbEntity
  8
4
  6
CENTER
100
AcDbLine
 10
228.6844045376079
 20
393.6429508068464
 30
0.0
 11
228.6844045376079
 21
369.6429508068464
 31
0.0
  0
LINE
  5
49A
330
18
100
AcDbEntity
  8
1
  6
Continuous
100
AcDbLine
 10
217.684082537608
 20
377.6429508068464
 30
0.0
 11
217.684082537608
 21
385.6429508068464
 31
0.0
  0
LINE
  5
49B
330
18
100
AcDbEntity
  8
1
  6
Continuous
100
AcDbLine
 10
240.6844045376079
 20
370.8429508068464
 30
0.0
 11
240.6844045376079
 21
367.9429508068464
 31
0.0
  0
ARC
  5
49C
330
18
100
AcDbEntity
  8
1
  6
Continuous
100
AcDbCircle
 10
259.5278715376081
 20
381.6429508068464
 30
0.0
 40
4.0
100
AcDbArc
 50
180.0
 51
270.0
  0
LINE
  5
49D
330
18
100
AcDbEntity
  8
1
  6
Continuous
100
AcDbLine
 10
257.944288537608
 20
370.8429508068464
 30
0.0
 11
254.9442885376081
 21
373.8429508068464
 31
0.0
  0
LINE
  5
49E
330
18
100
AcDbEntity
  8
1
  6
Continuous
100
AcDbLine
 10
254.9442885376081
 20
370.8429508068464
 30
0.0
 11
257.944288537608
 21
373.8429508068464
 31
0.0
  0
ARC
  5
49F
330
18
100
AcDbEntity
  8
1
  6
Continuous
100
AcDbCircle
 10
260.0660545376078
 20
368.5462318068464
 30
0.0
 40
13.464591
100
AcDbArc
 50
170.1787629999998
 51
193.326211
  0
ARC
  5
4A0
330
18
100
AcDbEntity
  8
1
  6
Continuous
100
AcDbCircle
 10
256.1743935376081
 20
372.6429508068465
 30
0.0
 40
5.0
100
AcDbArc
 50
90.0
 51
153.896119
  0
LINE
  5
4A1
330
18
100
AcDbEntity
  8
1
  6
Continuous
100
AcDbLine
 10
250.184404537608
 20
370.8429508068464
 30
0.0
 11
250.184404537608
 21
374.8429508068464
 31
0.0
  0
LINE
  5
4A2
330
18
100
AcDbEntity
  8
1
  6
Continuous
100
AcDbLine
 10
255.115861537608
 20
370.8429508068464
 30
0.0
 11
252.115861537608
 21
373.8429508068464
 31
0.0
  0
LINE
  5
4A3
330
18
100
AcDbEntity
  8
1
  6
Continuous
100
AcDbLine
 10
252.2874345376081
 20
370.8429508068464
 30
0.0
 11
250.184404537608
 21
372.9459808068465
 31
0.0
  0
LINE
  5
4A4
330
18
100
AcDbEntity
  8
1
  6
Continuous
100
AcDbLine
 10
252.115861537608
 20
370.8429508068464
 30
0.0
 11
255.115861537608
 21
373.8429508068464
 31
0.0
  0
LINE
  5
4A5
330
18
100
AcDbEntity
  8
1
  6
Continuous
100
AcDbLine
 10
250.184404537608
 20
371.7399198068466
 30
0.0
 11
252.2874345376081
 21
373.8429508068464
 31
0.0
  0
LINE
  5
4A6
330
18
100
AcDbEntity
  8
1
  6
Continuous
100
AcDbLine
 10
266.4295705376081
 20
370.8429508068464
 30
0.0
 11
263.4295705376081
 21
373.8429508068464
 31
0.0
  0
LINE
  5
4A7
330
18
100
AcDbEntity
  8
1
  6
Continuous
100
AcDbLine
 10
263.4295705376081
 20
370.8429508068464
 30
0.0
 11
266.4295705376081
 21
373.8429508068464
 31
0.0
  0
LINE
  5
4A8
330
18
100
AcDbEntity
  8
1
  6
Continuous
100
AcDbLine
 10
263.601143537608
 20
370.8429508068464
 30
0.0
 11
260.601143537608
 21
373.8429508068464
 31
0.0
  0
LINE
  5
4A9
330
18
100
AcDbEntity
  8
1
  6
Continuous
100
AcDbLine
 10
260.7727165376081
 20
370.8429508068464
 30
0.0
 11
257.7727165376081
 21
373.8429508068464
 31
0.0
  0
LINE
  5
4AA
330
18
100
AcDbEntity
  8
1
  6
Continuous
100
AcDbLine
 10
260.601143537608
 20
370.8429508068464
 30
0.0
 11
263.601143537608
 21
373.8429508068464
 31
0.0
  0
LINE
  5
4AB
330
18
100
AcDbEntity
  8
1
  6
Continuous
100
AcDbLine
 10
257.7727165376081
 20
370.8429508068464
 30
0.0
 11
260.7727165376081
 21
373.8429508068464
 31
0.0
  0
LINE
  5
4AC
330
18
100
AcDbEntity
  8
1
  6
Continuous
100
AcDbLine
 10
272.0864245376081
 20
370.8429508068464
 30
0.0
 11
269.0864245376081
 21
373.8429508068464
 31
0.0
  0
LINE
  5
4AD
330
18
100
AcDbEntity
  8
1
  6
Continuous
100
AcDbLine
 10
269.2579975376079
 20
370.8429508068464
 30
0.0
 11
266.2579975376079
 21
373.8429508068464
 31
0.0
  0
LINE
  5
4AE
330
18
100
AcDbEntity
  8
1
  6
Continuous
100
AcDbLine
 10
269.0864245376081
 20
370.8429508068464
 30
0.0
 11
272.0864245376081
 21
373.8429508068464
 31
0.0
  0
LINE
  5
4AF
330
18
100
AcDbEntity
  8
1
  6
Continuous
100
AcDbLine
 10
266.2579975376079
 20
370.8429508068464
 30
0.0
 11
269.2579975376079
 21
373.8429508068464
 31
0.0
  0
ARC
  5
4B0
330
18
100
AcDbEntity
  8
1
  6
Continuous
100
AcDbCircle
 10
255.5272285376081
 20
379.6429508068464
 30
0.0
 40
6.0
100
AcDbArc
 50
19.47122099999998
 51
90.0
  0
LINE
  5
4B1
330
18
100
AcDbEntity
  8
1
  6
Continuous
100
AcDbLine
 10
264.1840825376081
 20
385.6429508068464
 30
0.0
 11
264.1840825376081
 21
381.6429508068464
 31
0.0
  0
ARC
  5
4B2
330
18
100
AcDbEntity
  8
1
  6
Continuous
100
AcDbCircle
 10
225.684082537608
 20
443.0687848068464
 30
0.0
 40
8.0
100
AcDbArc
 50
180.0
 51
270.0
  0
LINE
  5
4B3
330
18
100
AcDbEntity
  8
1
  6
Continuous
100
AcDbLine
 10
311.6844045376079
 20
357.5429508068463
 30
0.0
 11
311.0090695376081
 21
366.2304628068464
 31
0.0
  0
LINE
  5
4B4
330
18
100
AcDbEntity
  8
4
  6
CENTER
100
AcDbLine
 10
280.184404537608
 20
393.6429508068464
 30
0.0
 11
280.184404537608
 21
301.1767818068465
 31
0.0
  0
LINE
  5
4B5
330
18
100
AcDbEntity
  8
1
  6
Continuous
100
AcDbLine
 10
311.6844045376079
 20
357.5429508068463
 30
0.0
 11
308.493029537608
 21
356.9195328068464
 31
0.0
  0
ARC
  5
4B6
330
18
100
AcDbEntity
  8
1
  6
Continuous
100
AcDbCircle
 10
309.2741735376081
 20
352.9207288068464
 30
0.0
 40
4.074384999999998
100
AcDbArc
 50
101.0532219999998
 51
172.938927
  0
LINE
  5
4B7
330
18
100
AcDbEntity
  8
1
  6
Continuous
100
AcDbLine
 10
342.6840825376079
 20
385.6429508068464
 30
0.0
 11
304.8409375376079
 21
385.6429508068464
 31
0.0
  0
LINE
  5
4B8
330
18
100
AcDbEntity
  8
1
  6
Continuous
100
AcDbLine
 10
342.6840825376079
 20
381.6429508068464
 30
0.0
 11
304.8409375376079
 21
381.6429508068464
 31
0.0
  0
ARC
  5
4B9
330
18
100
AcDbEntity
  8
1
  6
Continuous
100
AcDbCircle
 10
304.8409375376079
 20
379.6429508068464
 30
0.0
 40
6.0
100
AcDbArc
 50
90.0
 51
160.528779
  0
ARC
  5
4BA
330
18
100
AcDbEntity
  8
1
  6
Continuous
100
AcDbCircle
 10
300.8409375376079
 20
381.6429508068464
 30
0.0
 40
4.0
100
AcDbArc
 50
270.0
 51
0.0
  0
LINE
  5
4BB
330
18
100
AcDbEntity
  8
1
  6
Continuous
100
AcDbLine
 10
306.0275505376081
 20
370.8429508068464
 30
0.0
 11
303.0275505376081
 21
373.8429508068464
 31
0.0
  0
LINE
  5
4BC
330
18
100
AcDbEntity
  8
1
  6
Continuous
100
AcDbLine
 10
303.1991225376081
 20
370.8429508068464
 30
0.0
 11
300.1991225376079
 21
373.8429508068464
 31
0.0
  0
LINE
  5
4BD
330
18
100
AcDbEntity
  8
1
  6
Continuous
100
AcDbLine
 10
303.0275505376081
 20
370.8429508068464
 30
0.0
 11
306.0275505376081
 21
373.8429508068464
 31
0.0
  0
LINE
  5
4BE
330
18
100
AcDbEntity
  8
1
  6
Continuous
100
AcDbLine
 10
300.1991225376079
 20
370.8429508068464
 30
0.0
 11
303.1991225376081
 21
373.8429508068464
 31
0.0
  0
LINE
  5
4BF
330
18
100
AcDbEntity
  8
1
  6
Continuous
100
AcDbLine
 10
289.0569875376079
 20
370.8429508068464
 30
0.0
 11
286.0569875376081
 21
373.8429508068464
 31
0.0
  0
LINE
  5
4C0
330
18
100
AcDbEntity
  8
1
  6
Continuous
100
AcDbLine
 10
286.0569875376081
 20
370.8429508068464
 30
0.0
 11
289.0569875376079
 21
373.8429508068464
 31
0.0
  0
LINE
  5
4C1
330
18
100
AcDbEntity
  8
1
  6
Continuous
100
AcDbLine
 10
280.5717055376081
 20
370.8429508068464
 30
0.0
 11
277.571705537608
 21
373.8429508068464
 31
0.0
  0
LINE
  5
4C2
330
18
100
AcDbEntity
  8
1
  6
Continuous
100
AcDbLine
 10
277.571705537608
 20
370.8429508068464
 30
0.0
 11
280.5717055376081
 21
373.8429508068464
 31
0.0
  0
LINE
  5
4C3
330
18
100
AcDbEntity
  8
1
  6
Continuous
100
AcDbLine
 10
277.743278537608
 20
370.8429508068464
 30
0.0
 11
274.743278537608
 21
373.8429508068464
 31
0.0
  0
LINE
  5
4C4
330
18
100
AcDbEntity
  8
1
  6
Continuous
100
AcDbLine
 10
274.743278537608
 20
370.8429508068464
 30
0.0
 11
277.743278537608
 21
373.8429508068464
 31
0.0
  0
LINE
  5
4C5
330
18
100
AcDbEntity
  8
1
  6
Continuous
100
AcDbLine
 10
286.228560537608
 20
370.8429508068464
 30
0.0
 11
283.228560537608
 21
373.8429508068464
 31
0.0
  0
LINE
  5
4C6
330
18
100
AcDbEntity
  8
1
  6
Continuous
100
AcDbLine
 10
283.400133537608
 20
370.8429508068464
 30
0.0
 11
280.400133537608
 21
373.8429508068464
 31
0.0
  0
LINE
  5
4C7
330
18
100
AcDbEntity
  8
1
  6
Continuous
100
AcDbLine
 10
283.228560537608
 20
370.8429508068464
 30
0.0
 11
286.228560537608
 21
373.8429508068464
 31
0.0
  0
LINE
  5
4C8
330
18
100
AcDbEntity
  8
1
  6
Continuous
100
AcDbLine
 10
280.400133537608
 20
370.8429508068464
 30
0.0
 11
283.400133537608
 21
373.8429508068464
 31
0.0
  0
LINE
  5
4C9
330
18
100
AcDbEntity
  8
1
  6
Continuous
100
AcDbLine
 10
297.542268537608
 20
370.8429508068464
 30
0.0
 11
294.5422685376079
 21
373.8429508068464
 31
0.0
  0
LINE
  5
4CA
330
18
100
AcDbEntity
  8
1
  6
Continuous
100
AcDbLine
 10
294.5422685376079
 20
370.8429508068464
 30
0.0
 11
297.542268537608
 21
373.8429508068464
 31
0.0
  0
LINE
  5
4CB
330
18
100
AcDbEntity
  8
1
  6
Continuous
100
AcDbLine
 10
294.7138415376081
 20
370.8429508068464
 30
0.0
 11
291.7138415376081
 21
373.8429508068464
 31
0.0
  0
LINE
  5
4CC
330
18
100
AcDbEntity
  8
1
  6
Continuous
100
AcDbLine
 10
291.8854145376079
 20
370.8429508068464
 30
0.0
 11
288.8854145376079
 21
373.8429508068464
 31
0.0
  0
LINE
  5
4CD
330
18
100
AcDbEntity
  8
1
  6
Continuous
100
AcDbLine
 10
291.7138415376081
 20
370.8429508068464
 30
0.0
 11
294.7138415376081
 21
373.8429508068464
 31
0.0
  0
LINE
  5
4CE
330
18
100
AcDbEntity
  8
1
  6
Continuous
100
AcDbLine
 10
288.8854145376079
 20
370.8429508068464
 30
0.0
 11
291.8854145376079
 21
373.8429508068464
 31
0.0
  0
LINE
  5
4CF
330
18
100
AcDbEntity
  8
1
  6
Continuous
100
AcDbLine
 10
300.3706955376082
 20
370.8429508068464
 30
0.0
 11
297.370695537608
 21
373.8429508068464
 31
0.0
  0
LINE
  5
4D0
330
18
100
AcDbEntity
  8
1
  6
Continuous
100
AcDbLine
 10
297.370695537608
 20
370.8429508068464
 30
0.0
 11
300.3706955376082
 21
373.8429508068464
 31
0.0
  0
LINE
  5
4D1
330
18
100
AcDbEntity
  8
1
  6
Continuous
100
AcDbLine
 10
296.1840825376079
 20
385.6429508068464
 30
0.0
 11
296.1840825376079
 21
381.6429508068464
 31
0.0
  0
LINE
  5
4D2
330
18
100
AcDbEntity
  8
4
  6
CENTER
100
AcDbLine
 10
331.6844045376079
 20
393.6429508068464
 30
0.0
 11
331.6844045376079
 21
369.6429508068464
 31
0.0
  0
ARC
  5
4D3
330
18
100
AcDbEntity
  8
1
  6
Continuous
100
AcDbCircle
 10
306.024108537608
 20
365.8429508068464
 30
0.0
 40
5.0
100
AcDbArc
 50
4.445021999999998
 51
90.0
  0
ARC
  5
4D4
330
18
100
AcDbEntity
  8
1
  6
Continuous
100
AcDbCircle
 10
304.1944155376081
 20
372.6429508068465
 30
0.0
 40
5.0
100
AcDbArc
 50
26.103881
 51
90.0
  0
LINE
  5
4D5
330
18
100
AcDbEntity
  8
1
  6
Continuous
100
AcDbLine
 10
308.6844045376079
 20
370.8429508068464
 30
0.0
 11
310.1844045376079
 21
372.3429508068464
 31
0.0
  0
LINE
  5
4D6
330
18
100
AcDbEntity
  8
1
  6
Continuous
100
AcDbLine
 10
310.1844045376079
 20
374.8429508068464
 30
0.0
 11
310.1844045376079
 21
370.8429508068464
 31
0.0
  0
LINE
  5
4D7
330
18
100
AcDbEntity
  8
1
  6
Continuous
100
AcDbLine
 10
308.6844045376079
 20
373.8429508068464
 30
0.0
 11
310.1844045376079
 21
372.3429508068464
 31
0.0
  0
LINE
  5
4D8
330
18
100
AcDbEntity
  8
1
  6
Continuous
100
AcDbLine
 10
308.8559775376079
 20
370.8429508068464
 30
0.0
 11
305.8559775376081
 21
373.8429508068464
 31
0.0
  0
LINE
  5
4D9
330
18
100
AcDbEntity
  8
1
  6
Continuous
100
AcDbLine
 10
305.8559775376081
 20
370.8429508068464
 30
0.0
 11
308.8559775376079
 21
373.8429508068464
 31
0.0
  0
LINE
  5
4DA
330
18
100
AcDbEntity
  8
1
  6
Continuous
100
AcDbLine
 10
342.6840825376079
 20
377.6429508068464
 30
0.0
 11
342.6840825376079
 21
385.6429508068464
 31
0.0
  0
LINE
  5
4DB
330
18
100
AcDbEntity
  8
1
  6
Continuous
100
AcDbLine
 10
391.7262805376079
 20
377.6429508068464
 30
0.0
 11
391.7262805376079
 21
385.6429508068464
 31
0.0
  0
ARC
  5
4DC
330
18
100
AcDbEntity
  8
1
  6
Continuous
100
AcDbCircle
 10
334.6840825376079
 20
443.0687848068464
 30
0.0
 40
8.0
100
AcDbArc
 50
270.0
 51
0.0
  0
CIRCLE
  5
4DD
330
18
100
AcDbEntity
  8
1
  6
Continuous
100
AcDbCircle
 10
280.1840825376079
 20
480.0687848068464
 30
0.0
 40
16.0
  0
CIRCLE
  5
4DE
330
18
100
AcDbEntity
  8
1
  6
Continuous
100
AcDbCircle
 10
280.1840825376079
 20
480.0687848068464
 30
0.0
 40
31.5
  0
LINE
  5
4DF
330
18
100
AcDbEntity
  8
1
  6
Continuous
100
AcDbLine
 10
225.684082537608
 20
525.0687848068463
 30
0.0
 11
334.6840825376079
 21
525.0687848068463
 31
0.0
  0
LINE
  5
4E0
330
18
100
AcDbEntity
  8
4
  6
CENTER
100
AcDbLine
 10
350.1840825376081
 20
480.0687848068464
 30
0.0
 11
150.6844045376081
 21
480.0687848068464
 31
0.0
  0
ARC
  5
4E1
330
18
100
AcDbEntity
  8
1
  6
Continuous
100
AcDbCircle
 10
221.184404537608
 20
478.5330698068466
 30
0.0
 40
19.03571399999998
100
AcDbArc
 50
100.5959479999999
 51
125.300248
  0
LINE
  5
4E2
330
18
100
AcDbEntity
  8
1
  6
Continuous
100
AcDbLine
 10
164.341602537608
 20
494.0687848068463
 30
0.0
 11
217.684082537608
 21
494.0687848068463
 31
0.0
  0
LINE
  5
4E3
330
18
100
AcDbEntity
  8
1
  6
Continuous
100
AcDbLine
 10
164.341602537608
 20
466.0687848068463
 30
0.0
 11
217.684082537608
 21
466.0687848068463
 31
0.0
  0
ARC
  5
4E4
330
18
100
AcDbEntity
  8
1
  6
Continuous
100
AcDbCircle
 10
193.6844045376079
 20
480.0687848068464
 30
0.0
 40
35.0
100
AcDbArc
 50
161.180937
 51
198.819063
  0
ARC
  5
4E5
330
18
100
AcDbEntity
  8
1
  6
Continuous
100
AcDbCircle
 10
164.341602537608
 20
470.0687848068463
 30
0.0
 40
4.0
100
AcDbArc
 50
198.819063
 51
270.0
  0
ARC
  5
4E6
330
18
100
AcDbEntity
  8
1
  6
Continuous
100
AcDbCircle
 10
164.341602537608
 20
490.0687848068463
 30
0.0
 40
4.0
100
AcDbArc
 50
90.0
 51
161.180937
  0
ARC
  5
4E7
330
18
100
AcDbEntity
  8
1
  6
Continuous
100
AcDbCircle
 10
228.184082537608
 20
525.0687848068463
 30
0.0
 40
33.0
100
AcDbArc
 50
270.0
 51
0.0
  0
ARC
  5
4E8
330
18
100
AcDbEntity
  8
1
  6
Continuous
100
AcDbCircle
 10
221.6844045376079
 20
481.6044988068464
 30
0.0
 40
19.03571399999998
100
AcDbArc
 50
234.6997519999999
 51
257.868961
  0
LINE
  5
4E9
330
18
100
AcDbEntity
  8
4
  6
CENTER
100
AcDbLine
 10
239.934082537608
 20
446.5687848068464
 30
0.0
 11
217.434082537608
 21
446.5687848068464
 31
0.0
  0
LINE
  5
4F2
330
18
100
AcDbEntity
  8
1
  6
Continuous
100
AcDbLine
 10
217.684082537608
 20
468.0687848068464
 30
0.0
 11
228.184082537608
 21
468.0687848068464
 31
0.0
  0
LINE
  5
4F3
330
18
100
AcDbEntity
  8
4
  6
CENTER
100
AcDbLine
 10
228.6840825376081
 20
502.3187848068464
 30
0.0
 11
228.6840825376081
 21
524.8187848068463
 31
0.0
  0
LINE
  5
4F4
330
18
100
AcDbEntity
  8
1
  6
Continuous
100
AcDbLine
 10
217.684082537608
 20
492.0687848068464
 30
0.0
 11
228.184082537608
 21
492.0687848068464
 31
0.0
  0
CIRCLE
  5
4F5
330
18
100
AcDbEntity
  8
1
  6
Continuous
100
AcDbCircle
 10
228.6840825376081
 20
513.5687848068463
 30
0.0
 40
5.25
  0
LINE
  5
4F6
330
18
100
AcDbEntity
  8
4
  6
CENTER
100
AcDbLine
 10
239.934082537608
 20
513.5687848068463
 30
0.0
 11
217.434082537608
 21
513.5687848068463
 31
0.0
  0
ARC
  5
4F7
330
18
100
AcDbEntity
  8
1
  6
Continuous
100
AcDbCircle
 10
225.684082537608
 20
517.0687848068463
 30
0.0
 40
8.0
100
AcDbArc
 50
90.0
 51
180.0
  0
LINE
  5
4FB
330
18
100
AcDbEntity
  8
4
  6
CENTER
100
AcDbLine
 10
342.9340825376079
 20
513.5687848068463
 30
0.0
 11
320.4340825376081
 21
513.5687848068463
 31
0.0
  0
LINE
  5
4FC
330
18
100
AcDbEntity
  8
1
  6
Continuous
100
AcDbLine
 10
342.6840825376079
 20
492.0687848068464
 30
0.0
 11
332.1840825376079
 21
492.0687848068464
 31
0.0
  0
CIRCLE
  5
4FD
330
18
100
AcDbEntity
  8
1
  6
Continuous
100
AcDbCircle
 10
331.6840825376079
 20
513.5687848068463
 30
0.0
 40
5.25
  0
LINE
  5
4FE
330
18
100
AcDbEntity
  8
1
  6
Continuous
100
AcDbLine
 10
342.6840825376079
 20
468.0687848068464
 30
0.0
 11
332.1840825376079
 21
468.0687848068464
 31
0.0
  0
LINE
  5
4FF
330
18
100
AcDbEntity
  8
4
  6
CENTER
100
AcDbLine
 10
342.9340825376079
 20
446.5687848068464
 30
0.0
 11
320.4340825376081
 21
446.5687848068464
 31
0.0
  0
ARC
  5
500
330
18
100
AcDbEntity
  8
1
  6
Continuous
100
AcDbCircle
 10
332.1840825376079
 20
525.0687848068463
 30
0.0
 40
33.0
100
AcDbArc
 50
180.0
 51
270.0
  0
LINE
  5
501
330
18
100
AcDbEntity
  8
4
  6
CENTER
100
AcDbLine
 10
331.6840825376079
 20
502.3187848068464
 30
0.0
 11
331.6840825376079
 21
524.8187848068463
 31
0.0
  0
ARC
  5
502
330
18
100
AcDbEntity
  8
1
  6
Continuous
100
AcDbCircle
 10
334.6840825376079
 20
517.0687848068463
 30
0.0
 40
8.0
100
AcDbArc
 50
0.0
 51
90.0
  0
ARC
  5
503
330
18
100
AcDbEntity
  8
1
  6
Continuous
100
AcDbCircle
 10
637.2681565376081
 20
271.6429508068464
 30
0.0
 40
46.5
100
AcDbArc
 50
156.955477
 51
96.22239100000001
  0
ARC
  5
504
330
18
100
AcDbEntity
  8
1
  6
Continuous
100
AcDbCircle
 10
637.2681565376081
 20
271.6429508068464
 30
0.0
 40
36.0
100
AcDbArc
 50
165.6250599999999
 51
91.04337800000001
  0
LINE
  5
505
330
18
100
AcDbEntity
  8
1
  6
Continuous
100
AcDbLine
 10
413.0023825376079
 20
273.1429508068464
 30
0.0
 11
409.4168345376081
 21
269.5574018068465
 31
0.0
  0
LINE
  5
506
330
18
100
AcDbEntity
  8
1
  6
Continuous
100
AcDbLine
 10
466.9502255376078
 20
265.7817348068466
 30
0.0
 11
466.9502255376078
 21
280.5012188068463
 31
0.0
  0
ARC
  5
507
330
18
100
AcDbEntity
  8
1
  6
Continuous
100
AcDbCircle
 10
450.7094155376078
 20
273.1429508068464
 30
0.0
 40
16.24081099999999
100
AcDbArc
 50
342.4120459999998
 51
0.0
  0
LINE
  5
508
330
18
100
AcDbEntity
  8
1
  6
Continuous
100
AcDbLine
 10
402.4168345376081
 20
264.6429508068464
 30
0.0
 11
402.4168345376081
 21
281.6429508068464
 31
0.0
  0
ARC
  5
509
330
18
100
AcDbEntity
  8
1
  6
Continuous
100
AcDbCircle
 10
418.6576445376081
 20
273.1429508068464
 30
0.0
 40
16.24081099999999
100
AcDbArc
 50
162.412046
 51
197.5879539999999
  0
LINE
  5
50A
330
18
100
AcDbEntity
  8
1
  6
Continuous
100
AcDbLine
 10
401.4555255376079
 20
267.7429508068466
 30
0.0
 11
401.4555255376079
 21
278.5429508068464
 31
0.0
  0
LINE
  5
50B
330
18
100
AcDbEntity
  8
1
  6
Continuous
100
AcDbLine
 10
402.0555255376081
 20
279.1429508068465
 30
0.0
 11
402.0555255376081
 21
267.1429508068464
 31
0.0
  0
ARC
  5
50C
330
18
100
AcDbEntity
  8
1
  6
Continuous
100
AcDbCircle
 10
393.1760235376081
 20
273.1429508068464
 30
0.0
 40
16.24081099999999
100
AcDbArc
 50
342.4120459999998
 51
17.587954
  0
LINE
  5
50D
330
18
100
AcDbEntity
  8
1
  6
Continuous
100
AcDbLine
 10
409.4168345376081
 20
284.0946858068463
 30
0.0
 11
409.4168345376081
 21
262.1946808068465
 31
0.0
  0
LINE
  5
510
330
18
100
AcDbEntity
  8
1
  6
Continuous
100
AcDbLine
 10
645.7681565376081
 20
268.2354738068466
 30
0.0
 11
645.7681565376081
 21
278.0504278068463
 31
0.0
  0
LINE
  5
511
330
18
100
AcDbEntity
  8
1
  6
Continuous
100
AcDbLine
 10
628.7681565376081
 20
268.2354738068466
 30
0.0
 11
628.7681565376081
 21
278.0504278068463
 31
0.0
  0
CIRCLE
  5
512
330
18
100
AcDbEntity
  8
1
  6
Continuous
100
AcDbCircle
 10
637.2681565376081
 20
273.1429508068464
 30
0.0
 40
8.5
  0
LINE
  5
513
330
18
100
AcDbEntity
  8
4
  6
CENTER
100
AcDbLine
 10
637.2681565376081
 20
187.6429508068466
 30
0.0
 11
637.2681565376081
 21
358.6429508068464
 31
0.0
  0
ARC
  5
514
330
18
100
AcDbEntity
  8
1
  6
Continuous
100
AcDbCircle
 10
636.2774065376079
 20
274.1215928068466
 30
0.0
 40
17.05797
100
AcDbArc
 50
302.211329
 51
28.78598300000001
  0
ARC
  5
515
330
18
100
AcDbEntity
  8
1
  6
Continuous
100
AcDbCircle
 10
637.2681565376081
 20
273.1429508068464
 30
0.0
 40
61.0
100
AcDbArc
 50
149.363279
 51
99.17800200000002
  0
ARC
  5
516
330
18
100
AcDbEntity
  8
1
  6
Continuous
100
AcDbCircle
 10
637.2681565376081
 20
273.1429508068464
 30
0.0
 40
77.5
100
AcDbArc
 50
141.640231
 51
99.09898099999999
  0
ARC
  5
517
330
18
100
AcDbEntity
  8
1
  6
Continuous
100
AcDbCircle
 10
696.9183375376078
 20
369.3627878068464
 30
0.0
 40
129.68
100
AcDbArc
 50
187.0610729999999
 51
234.4220450000001
  0
LINE
  5
518
330
18
100
AcDbEntity
  8
1
  6
Continuous
100
AcDbLine
 10
413.0027525376078
 20
275.0374538068466
 30
0.0
 11
412.9992865376078
 21
257.2728828068465
 31
0.0
  0
LINE
  5
519
330
18
100
AcDbEntity
  8
1
  6
Continuous
100
AcDbLine
 10
457.5109105376078
 20
345.1689898068465
 30
0.0
 11
457.5532755376078
 21
257.2728828068465
 31
0.0
  0
LINE
  5
51A
330
18
100
AcDbEntity
  8
1
  6
Continuous
100
AcDbLine
 10
422.7262805376081
 20
201.3001488068466
 30
0.0
 11
422.7262805376081
 21
344.9857518068465
 31
0.0
  0
LINE
  5
51B
330
18
100
AcDbEntity
  8
1
  6
Continuous
100
AcDbLine
 10
450.7262805376078
 20
201.3001488068466
 30
0.0
 11
450.7262805376078
 21
344.9857518068465
 31
0.0
  0
LINE
  5
51C
330
18
100
AcDbEntity
  8
1
  6
Continuous
100
AcDbLine
 10
454.2262805376078
 20
288.1429508068464
 30
0.0
 11
454.2262805376078
 21
258.1429508068465
 31
0.0
  0
LINE
  5
51D
330
18
100
AcDbEntity
  8
1
  6
Continuous
100
AcDbLine
 10
457.1262805376081
 20
260.8888568068465
 30
0.0
 11
457.1262805376081
 21
285.3970448068464
 31
0.0
  0
LINE
  5
51E
330
18
100
AcDbEntity
  8
1
  6
Continuous
100
AcDbLine
 10
415.9262805376081
 20
273.1429508068464
 30
0.0
 11
415.9262805376081
 21
265.1429508068464
 31
0.0
  0
LINE
  5
51F
330
18
100
AcDbEntity
  8
1
  6
Continuous
100
AcDbLine
 10
419.2262805376079
 20
288.1429508068464
 30
0.0
 11
419.2262805376079
 21
258.1429508068465
 31
0.0
  0
LINE
  5
520
330
18
100
AcDbEntity
  8
1
  6
Continuous
100
AcDbLine
 10
416.326280537608
 20
260.8888568068465
 30
0.0
 11
416.326280537608
 21
285.3970448068464
 31
0.0
  0
LINE
  5
521
330
18
100
AcDbEntity
  8
1
  6
Continuous
100
AcDbLine
 10
415.9416505376078
 20
345.1689898068465
 30
0.0
 11
415.8992855376078
 21
257.2728828068465
 31
0.0
  0
LINE
  5
522
330
18
100
AcDbEntity
  8
4
  6
CENTER
100
AcDbLine
 10
436.7262805376078
 20
393.6429508068464
 30
0.0
 11
436.7262805376078
 21
187.6429508068466
 31
0.0
  0
LINE
  5
523
330
18
100
AcDbEntity
  8
1
  6
Continuous
100
AcDbLine
 10
460.4498085376079
 20
275.0374538068466
 30
0.0
 11
460.4532755376081
 21
257.2728828068465
 31
0.0
  0
LINE
  5
524
330
18
100
AcDbEntity
  8
1
  6
Continuous
100
AcDbLine
 10
645.7681565376081
 20
268.2354738068466
 30
0.0
 11
637.2681565376081
 21
263.3279958068464
 31
0.0
  0
ARC
  5
525
330
18
100
AcDbEntity
  8
1
  6
Continuous
100
AcDbCircle
 10
636.9938455376082
 20
272.9844058068465
 30
0.0
 40
15.713917
100
AcDbArc
 50
241.418425
 51
302.211329
  0
LINE
  5
526
330
18
100
AcDbEntity
  8
1
  6
Continuous
100
AcDbLine
 10
457.5532745376079
 20
257.2728828068465
 30
0.0
 11
460.4532755376081
 21
257.2728828068465
 31
0.0
  0
ARC
  5
527
330
18
100
AcDbEntity
  8
1
  6
Continuous
100
AcDbCircle
 10
436.7262805376078
 20
230.6429508068466
 30
0.0
 40
35.0
100
AcDbArc
 50
251.180937
 51
288.819063
  0
ARC
  5
528
330
18
100
AcDbEntity
  8
1
  6
Continuous
100
AcDbCircle
 10
426.7262805376081
 20
201.3001488068466
 30
0.0
 40
4.0
100
AcDbArc
 50
180.0
 51
251.180937
  0
ARC
  5
529
330
18
100
AcDbEntity
  8
1
  6
Continuous
100
AcDbCircle
 10
446.7262805376078
 20
201.3001488068466
 30
0.0
 40
4.0
100
AcDbArc
 50
288.819063
 51
0.0
  0
ARC
  5
52A
330
18
100
AcDbEntity
  8
1
  6
Continuous
100
AcDbCircle
 10
438.2619945376078
 20
258.1429508068465
 30
0.0
 40
19.03571399999998
100
AcDbArc
 50
180.0
 51
215.300248
  0
LINE
  5
52B
330
18
100
AcDbEntity
  8
1
  6
Continuous
100
AcDbLine
 10
413.0115345376078
 20
262.1929508068465
 30
0.0
 11
409.4062575376081
 21
262.1946858068464
 31
0.0
  0
LINE
  5
52C
330
18
100
AcDbEntity
  8
1
  6
Continuous
100
AcDbLine
 10
408.657644537608
 20
268.2354738068466
 30
0.0
 11
403.1760235376078
 21
268.2354738068466
 31
0.0
  0
LINE
  5
52D
330
18
100
AcDbEntity
  8
1
  6
Continuous
100
AcDbLine
 10
408.657644537608
 20
263.3279958068464
 30
0.0
 11
403.1760235376078
 21
263.3279958068464
 31
0.0
  0
LINE
  5
52E
330
18
100
AcDbEntity
  8
1
  6
Continuous
100
AcDbLine
 10
402.4168345376081
 20
267.1429508068464
 30
0.0
 11
402.0555255376081
 21
267.1429508068464
 31
0.0
  0
LINE
  5
52F
330
18
100
AcDbEntity
  8
1
  6
Continuous
100
AcDbLine
 10
401.4555255376079
 20
267.7429508068466
 30
0.0
 11
402.0555255376081
 21
267.1429508068464
 31
0.0
  0
LINE
  5
530
330
18
100
AcDbEntity
  8
2
  6
Continuous
100
AcDbLine
 10
402.4168345376081
 20
268.0899508068465
 30
0.0
 11
401.4555255376079
 21
268.0899508068465
 31
0.0
  0
ARC
  5
531
330
18
100
AcDbEntity
  8
1
  6
Continuous
100
AcDbCircle
 10
406.7617325376081
 20
265.7817348068466
 30
0.0
 40
4.344898999999998
100
AcDbArc
 50
145.615753
 51
205.615753
  0
LINE
  5
532
330
18
100
AcDbEntity
  8
1
  6
Continuous
100
AcDbLine
 10
403.1760235376078
 20
263.3279958068464
 30
0.0
 11
402.4168345376081
 21
264.6429508068464
 31
0.0
  0
ARC
  5
533
330
18
100
AcDbEntity
  8
1
  6
Continuous
100
AcDbCircle
 10
405.0719355376078
 20
265.7817348068466
 30
0.0
 40
4.344898999999998
100
AcDbArc
 50
334.384247
 51
34.38424699999997
  0
LINE
  5
534
330
18
100
AcDbEntity
  8
1
  6
Continuous
100
AcDbLine
 10
408.657644537608
 20
263.3279958068464
 30
0.0
 11
409.4168345376081
 21
264.6429508068464
 31
0.0
  0
ARC
  5
535
330
18
100
AcDbEntity
  8
1
  6
Continuous
100
AcDbCircle
 10
419.0762805376079
 20
260.8888568068465
 30
0.0
 40
2.75
100
AcDbArc
 50
180.0
 51
273.1267759999998
  0
LINE
  5
536
330
18
100
AcDbEntity
  8
1
  6
Continuous
100
AcDbLine
 10
412.9992855376078
 20
257.2728828068465
 30
0.0
 11
415.8992855376078
 21
257.2728828068465
 31
0.0
  0
LINE
  5
537
330
18
100
AcDbEntity
  8
1
  6
Continuous
100
AcDbLine
 10
415.9262805376081
 20
265.1429508068464
 30
0.0
 11
416.326280537608
 21
265.1429508068464
 31
0.0
  0
ARC
  5
538
330
18
100
AcDbEntity
  8
1
  6
Continuous
100
AcDbCircle
 10
435.190565537608
 20
258.1429508068465
 30
0.0
 40
19.03571399999998
100
AcDbArc
 50
324.6997519999998
 51
0.0
  0
ARC
  5
539
330
18
100
AcDbEntity
  8
1
  6
Continuous
100
AcDbCircle
 10
454.3762805376081
 20
260.8888568068465
 30
0.0
 40
2.75
100
AcDbArc
 50
266.8732240000001
 51
0.0
  0
LINE
  5
53A
330
18
100
AcDbEntity
  8
1
  6
Continuous
100
AcDbLine
 10
457.526280537608
 20
265.1429508068464
 30
0.0
 11
457.1262805376081
 21
265.1429508068464
 31
0.0
  0
LINE
  5
53B
330
18
100
AcDbEntity
  8
1
  6
Continuous
100
AcDbLine
 10
466.1910365376079
 20
268.2354728068466
 30
0.0
 11
460.4502255376082
 21
268.2354728068466
 31
0.0
  0
LINE
  5
53C
330
18
100
AcDbEntity
  8
1
  6
Continuous
100
AcDbLine
 10
460.4502255376082
 20
263.3279958068464
 30
0.0
 11
466.1910365376079
 21
263.3279958068464
 31
0.0
  0
ARC
  5
53D
330
18
100
AcDbEntity
  8
1
  6
Continuous
100
AcDbCircle
 10
462.6053275376079
 20
265.7817348068466
 30
0.0
 40
4.344898999999998
100
AcDbArc
 50
325.6157529999998
 51
34.38424699999997
  0
CIRCLE
  5
53E
330
18
100
AcDbEntity
  8
1
  6
Continuous
100
AcDbCircle
 10
613.1689615376077
 20
239.9732538068465
 30
0.0
 40
3.5
  0
ARC
  5
53F
330
18
100
AcDbEntity
  8
1
  6
Continuous
100
AcDbCircle
 10
644.4841745376082
 20
293.8890248068465
 30
0.0
 40
37.80978199999999
100
AcDbArc
 50
232.504143
 51
246.613307
  0
LINE
  5
540
330
18
100
AcDbEntity
  8
1
  6
Continuous
100
AcDbLine
 10
628.7681565376081
 20
268.2354738068466
 30
0.0
 11
637.2681565376081
 21
263.3279958068464
 31
0.0
  0
CIRCLE
  5
541
330
18
100
AcDbEntity
  8
1
  6
Continuous
100
AcDbCircle
 10
661.3673525376078
 20
239.9732538068465
 30
0.0
 40
3.5
  0
LINE
  5
542
330
18
100
AcDbEntity
  8
1
  6
Continuous
100
AcDbLine
 10
637.2681565376081
 20
282.9579048068464
 30
0.0
 11
645.7681565376081
 21
278.0504278068463
 31
0.0
  0
LINE
  5
543
330
18
100
AcDbEntity
  8
1
  6
Continuous
100
AcDbLine
 10
617.9253325376079
 20
385.6429508068464
 30
0.0
 11
655.7684785376077
 21
385.6429508068464
 31
0.0
  0
LINE
  5
544
330
18
100
AcDbEntity
  8
1
  6
Continuous
100
AcDbLine
 10
617.9246895376078
 20
381.6429508068464
 30
0.0
 11
655.7684785376077
 21
381.6429508068464
 31
0.0
  0
ARC
  5
545
330
18
100
AcDbEntity
  8
1
  6
Continuous
100
AcDbCircle
 10
755.5002955376082
 20
356.0275988068466
 30
0.0
 40
127.684495
100
AcDbArc
 50
206.7706939999999
 51
215.249688
  0
LINE
  5
546
330
18
100
AcDbEntity
  8
4
  6
CENTER
100
AcDbLine
 10
551.7681565376078
 20
273.1429508068464
 30
0.0
 11
722.7681565376077
 21
273.1429508068464
 31
0.0
  0
LINE
  5
547
330
18
100
AcDbEntity
  8
1
  6
Continuous
100
AcDbLine
 10
530.7684785376078
 20
377.6429508068464
 30
0.0
 11
655.7684785376077
 21
377.6429508068464
 31
0.0
  0
LINE
  5
548
330
18
100
AcDbEntity
  8
1
  6
Continuous
100
AcDbLine
 10
405.2262805376078
 20
365.8429508068464
 30
0.0
 11
405.2262805376078
 21
297.4346368068466
 31
0.0
  0
LINE
  5
549
330
18
100
AcDbEntity
  8
1
  6
Continuous
100
AcDbLine
 10
468.2262805376081
 20
365.8429508068464
 30
0.0
 11
468.2262805376081
 21
297.4346368068466
 31
0.0
  0
ARC
  5
54A
330
18
100
AcDbEntity
  8
1
  6
Continuous
100
AcDbCircle
 10
309.0789475376078
 20
297.2422908068466
 30
0.0
 40
156.309292
100
AcDbArc
 50
1.613291999999999
 51
22.068413
  0
ARC
  5
54B
330
18
100
AcDbEntity
  8
1
  6
Continuous
100
AcDbCircle
 10
472.4447165376078
 20
275.0334578068465
 30
0.0
 40
14.9
100
AcDbArc
 50
141.214503
 51
180.0276159999999
  0
ARC
  5
54C
330
18
100
AcDbEntity
  8
1
  6
Continuous
100
AcDbCircle
 10
450.5611385376078
 20
347.4006708068464
 30
0.0
 40
9.209889
100
AcDbArc
 50
18.85874099999998
 51
85.359042
  0
LINE
  5
54D
330
18
100
AcDbEntity
  8
4
  6
CENTER
100
AcDbLine
 10
471.9502255376078
 20
273.1429508068464
 30
0.0
 11
396.2251465376081
 21
273.1429508068464
 31
0.0
  0
ARC
  5
54E
330
18
100
AcDbEntity
  8
1
  6
Continuous
100
AcDbCircle
 10
561.5678695376081
 20
298.1214308068465
 30
0.0
 40
156.3812439999999
100
AcDbArc
 50
160.395655
 51
178.709658
  0
ARC
  5
54F
330
18
100
AcDbEntity
  8
1
  6
Continuous
100
AcDbCircle
 10
564.3736135376077
 20
297.2422908068466
 30
0.0
 40
156.309292
100
AcDbArc
 50
157.931587
 51
178.386708
  0
ARC
  5
550
330
18
100
AcDbEntity
  8
1
  6
Continuous
100
AcDbCircle
 10
428.522654537608
 20
297.1444688068465
 30
0.0
 40
20.398181
100
AcDbArc
 50
179.237347
 51
218.785497
  0
ARC
  5
551
330
18
100
AcDbEntity
  8
1
  6
Continuous
100
AcDbCircle
 10
438.2619945376078
 20
288.1429508068464
 30
0.0
 40
19.03571399999998
100
AcDbArc
 50
144.6997519999999
 51
180.0
  0
ARC
  5
552
330
18
100
AcDbEntity
  8
1
  6
Continuous
100
AcDbCircle
 10
428.522654537608
 20
297.1444688068465
 30
0.0
 40
23.298181
100
AcDbArc
 50
179.2863889999999
 51
218.7723009999999
  0
LINE
  5
553
330
18
100
AcDbEntity
  8
1
  6
Continuous
100
AcDbLine
 10
409.4168345376081
 20
273.1429508068464
 30
0.0
 11
412.897741537608
 21
276.6238578068465
 31
0.0
  0
ARC
  5
554
330
18
100
AcDbEntity
  8
1
  6
Continuous
100
AcDbCircle
 10
401.0027525376078
 20
275.0397958068465
 30
0.0
 40
12.0
100
AcDbArc
 50
359.9888199999999
 51
38.772301
  0
LINE
  5
555
330
18
100
AcDbEntity
  8
1
  6
Continuous
100
AcDbLine
 10
408.657644537608
 20
278.0504278068463
 30
0.0
 11
403.1760235376078
 21
278.0504278068463
 31
0.0
  0
LINE
  5
556
330
18
100
AcDbEntity
  8
1
  6
Continuous
100
AcDbLine
 10
408.657644537608
 20
282.9579048068464
 30
0.0
 11
403.1760235376078
 21
282.9579048068464
 31
0.0
  0
ARC
  5
557
330
18
100
AcDbEntity
  8
1
  6
Continuous
100
AcDbCircle
 10
406.7617325376081
 20
280.5041668068464
 30
0.0
 40
4.344898999999998
100
AcDbArc
 50
154.3842469999999
 51
214.384247
  0
LINE
  5
558
330
18
100
AcDbEntity
  8
1
  6
Continuous
100
AcDbLine
 10
403.1760235376078
 20
282.9579048068464
 30
0.0
 11
402.4168345376081
 21
281.6429508068464
 31
0.0
  0
LINE
  5
559
330
18
100
AcDbEntity
  8
1
  6
Continuous
100
AcDbLine
 10
402.0555255376081
 20
279.1429508068465
 30
0.0
 11
402.4168345376081
 21
279.1429508068465
 31
0.0
  0
LINE
  5
55A
330
18
100
AcDbEntity
  8
1
  6
Continuous
100
AcDbLine
 10
402.0555255376081
 20
279.1429508068465
 30
0.0
 11
401.4555255376079
 21
278.5429508068464
 31
0.0
  0
LINE
  5
55B
330
18
100
AcDbEntity
  8
2
  6
Continuous
100
AcDbLine
 10
402.4168345376081
 20
278.1959508068465
 30
0.0
 11
401.4555255376079
 21
278.1959508068465
 31
0.0
  0
LINE
  5
55C
330
18
100
AcDbEntity
  8
1
  6
Continuous
100
AcDbLine
 10
408.657644537608
 20
282.9579048068464
 30
0.0
 11
409.4168345376081
 21
281.6429508068464
 31
0.0
  0
ARC
  5
55D
330
18
100
AcDbEntity
  8
1
  6
Continuous
100
AcDbCircle
 10
405.0719355376078
 20
280.5041668068464
 30
0.0
 40
4.344898999999998
100
AcDbArc
 50
325.6157529999998
 51
25.615753
  0
ARC
  5
55E
330
18
100
AcDbEntity
  8
1
  6
Continuous
100
AcDbCircle
 10
401.007844537608
 20
275.0334578068465
 30
0.0
 40
14.9
100
AcDbArc
 50
359.9723839999999
 51
38.78549699999999
  0
LINE
  5
55F
330
18
100
AcDbEntity
  8
1
  6
Continuous
100
AcDbLine
 10
415.9262805376081
 20
273.1429508068464
 30
0.0
 11
415.9262805376081
 21
281.1429508068465
 31
0.0
  0
LINE
  5
560
330
18
100
AcDbEntity
  8
1
  6
Continuous
100
AcDbLine
 10
415.9262805376081
 20
281.1429508068465
 30
0.0
 11
416.326280537608
 21
281.1429508068465
 31
0.0
  0
ARC
  5
561
330
18
100
AcDbEntity
  8
1
  6
Continuous
100
AcDbCircle
 10
419.0762805376079
 20
285.3970448068464
 30
0.0
 40
2.75
100
AcDbArc
 50
86.87322399999997
 51
180.0
  0
LINE
  5
562
330
18
100
AcDbEntity
  8
1
  6
Continuous
100
AcDbLine
 10
408.1262805376081
 20
301.6429508068465
 30
0.0
 11
408.1262805376081
 21
297.4159768068464
 31
0.0
  0
ARC
  5
563
330
18
100
AcDbEntity
  8
1
  6
Continuous
100
AcDbCircle
 10
435.190565537608
 20
288.1429508068464
 30
0.0
 40
19.03571399999998
100
AcDbArc
 50
0.0
 51
35.30024799999999
  0
LINE
  5
564
330
18
100
AcDbEntity
  8
1
  6
Continuous
100
AcDbLine
 10
457.526280537608
 20
281.1429508068465
 30
0.0
 11
457.1262805376081
 21
281.1429508068465
 31
0.0
  0
ARC
  5
565
330
18
100
AcDbEntity
  8
1
  6
Continuous
100
AcDbCircle
 10
454.3762805376081
 20
285.3970448068464
 30
0.0
 40
2.75
100
AcDbArc
 50
0.0
 51
93.12677599999998
  0
ARC
  5
566
330
18
100
AcDbEntity
  8
1
  6
Continuous
100
AcDbCircle
 10
436.7262815376078
 20
246.6417558068466
 30
0.0
 40
110.9011949999999
100
AcDbArc
 50
81.91808100000001
 51
98.08192300000001
  0
ARC
  5
567
330
18
100
AcDbEntity
  8
1
  6
Continuous
100
AcDbCircle
 10
436.7262805376078
 20
315.6429508068464
 30
0.0
 40
35.0
100
AcDbArc
 50
71.180937
 51
108.8190629999999
  0
ARC
  5
568
330
18
100
AcDbEntity
  8
1
  6
Continuous
100
AcDbCircle
 10
452.1283395376078
 20
339.1848818068463
 30
0.0
 40
36.67814099999999
100
AcDbArc
 50
166.2557639999999
 51
170.6100999999998
  0
ARC
  5
569
330
18
100
AcDbEntity
  8
1
  6
Continuous
100
AcDbCircle
 10
426.7262805376081
 20
344.9857518068465
 30
0.0
 40
4.0
100
AcDbArc
 50
108.8190629999999
 51
180.0
  0
ARC
  5
56A
330
18
100
AcDbEntity
  8
1
  6
Continuous
100
AcDbCircle
 10
422.891422537608
 20
347.4006708068464
 30
0.0
 40
9.209889
100
AcDbArc
 50
100.9954699999997
 51
161.141259
  0
ARC
  5
56B
330
18
100
AcDbEntity
  8
1
  6
Continuous
100
AcDbCircle
 10
446.7262805376078
 20
344.9857518068465
 30
0.0
 40
4.0
100
AcDbArc
 50
0.0
 51
71.180937
  0
ARC
  5
56C
330
18
100
AcDbEntity
  8
1
  6
Continuous
100
AcDbCircle
 10
421.324221537608
 20
339.1848818068463
 30
0.0
 40
36.67814099999999
100
AcDbArc
 50
9.389900000000002
 51
13.744236
  0
ARC
  5
56D
330
18
100
AcDbEntity
  8
1
  6
Continuous
100
AcDbCircle
 10
311.8846915376078
 20
298.1214308068465
 30
0.0
 40
156.3812439999999
100
AcDbArc
 50
1.290342
 51
19.60434499999998
  0
ARC
  5
56E
330
18
100
AcDbEntity
  8
1
  6
Continuous
100
AcDbCircle
 10
444.9299065376079
 20
297.1444688068465
 30
0.0
 40
20.398181
100
AcDbArc
 50
321.2145029999998
 51
0.7626530000000003
  0
ARC
  5
56F
330
18
100
AcDbEntity
  8
1
  6
Continuous
100
AcDbCircle
 10
444.9299065376079
 20
297.1444688068465
 30
0.0
 40
23.298181
100
AcDbArc
 50
321.227699
 51
0.7136110000000003
  0
LINE
  5
570
330
18
100
AcDbEntity
  8
1
  6
Continuous
100
AcDbLine
 10
466.1910365376079
 20
278.0504278068463
 30
0.0
 11
460.8336095376079
 21
278.0504278068463
 31
0.0
  0
LINE
  5
571
330
18
100
AcDbEntity
  8
1
  6
Continuous
100
AcDbLine
 10
463.4108875376082
 20
282.9579048068464
 30
0.0
 11
466.1910365376079
 21
282.9579048068464
 31
0.0
  0
ARC
  5
572
330
18
100
AcDbEntity
  8
1
  6
Continuous
100
AcDbCircle
 10
472.4498085376081
 20
275.0397958068465
 30
0.0
 40
12.0
100
AcDbArc
 50
141.227699
 51
180.0111799999999
  0
ARC
  5
573
330
18
100
AcDbEntity
  8
1
  6
Continuous
100
AcDbCircle
 10
450.7094155376078
 20
273.1429508068464
 30
0.0
 40
16.24081099999999
100
AcDbArc
 50
0.0
 51
17.587954
  0
ARC
  5
574
330
18
100
AcDbEntity
  8
1
  6
Continuous
100
AcDbCircle
 10
462.6053275376079
 20
280.5041668068464
 30
0.0
 40
4.344898999999998
100
AcDbArc
 50
325.6157529999998
 51
34.38424699999997
  0
LINE
  5
575
330
18
100
AcDbEntity
  8
1
  6
Continuous
100
AcDbLine
 10
465.3262805376081
 20
301.6429508068465
 30
0.0
 11
465.3262805376081
 21
297.4159768068464
 31
0.0
  0
LINE
  5
576
330
18
100
AcDbEntity
  8
1
  6
Continuous
100
AcDbLine
 10
456.7409985376079
 20
370.8429508068464
 30
0.0
 11
459.7409985376081
 21
373.8429508068464
 31
0.0
  0
LINE
  5
577
330
18
100
AcDbEntity
  8
1
  6
Continuous
100
AcDbLine
 10
459.7409985376081
 20
370.8429508068464
 30
0.0
 11
456.7409985376079
 21
373.8429508068464
 31
0.0
  0
LINE
  5
578
330
18
100
AcDbEntity
  8
1
  6
Continuous
100
AcDbLine
 10
466.7262805376078
 20
373.8429508068464
 30
0.0
 11
406.7262805376079
 21
373.8429508068464
 31
0.0
  0
LINE
  5
579
330
18
100
AcDbEntity
  8
1
  6
Continuous
100
AcDbLine
 10
466.7262805376078
 20
374.8429508068464
 30
0.0
 11
406.7262805376079
 21
374.8429508068464
 31
0.0
  0
LINE
  5
57A
330
18
100
AcDbEntity
  8
1
  6
Continuous
100
AcDbLine
 10
481.726280537608
 20
381.6429508068464
 30
0.0
 11
454.3831345376078
 21
381.6429508068464
 31
0.0
  0
LINE
  5
57B
330
18
100
AcDbEntity
  8
1
  6
Continuous
100
AcDbLine
 10
406.7262805376079
 20
370.8429508068464
 30
0.0
 11
466.7262805376078
 21
370.8429508068464
 31
0.0
  0
LINE
  5
57C
330
18
100
AcDbEntity
  8
1
  6
Continuous
100
AcDbLine
 10
448.7262805376079
 20
381.6429508068464
 30
0.0
 11
424.7262805376078
 21
381.6429508068464
 31
0.0
  0
LINE
  5
57D
330
18
100
AcDbEntity
  8
1
  6
Continuous
100
AcDbLine
 10
425.628300537608
 20
370.8429508068464
 30
0.0
 11
428.628300537608
 21
373.8429508068464
 31
0.0
  0
LINE
  5
57E
330
18
100
AcDbEntity
  8
1
  6
Continuous
100
AcDbLine
 10
428.628300537608
 20
370.8429508068464
 30
0.0
 11
425.628300537608
 21
373.8429508068464
 31
0.0
  0
ARC
  5
57F
330
18
100
AcDbEntity
  8
1
  6
Continuous
100
AcDbCircle
 10
423.069425537608
 20
381.6429508068464
 30
0.0
 40
4.0
100
AcDbArc
 50
180.0
 51
270.0
  0
LINE
  5
580
330
18
100
AcDbEntity
  8
4
  6
CENTER
100
AcDbLine
 10
403.2262805376078
 20
393.6429508068464
 30
0.0
 11
403.2262805376078
 21
369.6429508068464
 31
0.0
  0
LINE
  5
581
330
18
100
AcDbEntity
  8
1
  6
Continuous
100
AcDbLine
 10
408.6577375376078
 20
370.8429508068464
 30
0.0
 11
411.6577375376079
 21
373.8429508068464
 31
0.0
  0
LINE
  5
582
330
18
100
AcDbEntity
  8
1
  6
Continuous
100
AcDbLine
 10
411.6577375376079
 20
370.8429508068464
 30
0.0
 11
408.6577375376078
 21
373.8429508068464
 31
0.0
  0
ARC
  5
583
330
18
100
AcDbEntity
  8
1
  6
Continuous
100
AcDbCircle
 10
412.7162695376081
 20
372.6429508068465
 30
0.0
 40
5.0
100
AcDbArc
 50
90.0
 51
153.896119
  0
ARC
  5
584
330
18
100
AcDbEntity
  8
1
  6
Continuous
100
AcDbCircle
 10
410.2262805376081
 20
365.8429508068464
 30
0.0
 40
5.0
100
AcDbArc
 50
90.0
 51
180.0
  0
LINE
  5
585
330
18
100
AcDbEntity
  8
1
  6
Continuous
100
AcDbLine
 10
406.7262805376079
 20
371.7399198068466
 30
0.0
 11
408.8293105376078
 21
373.8429508068464
 31
0.0
  0
LINE
  5
586
330
18
100
AcDbEntity
  8
1
  6
Continuous
100
AcDbLine
 10
408.8293105376078
 20
370.8429508068464
 30
0.0
 11
406.7262805376079
 21
372.9459808068465
 31
0.0
  0
LINE
  5
587
330
18
100
AcDbEntity
  8
1
  6
Continuous
100
AcDbLine
 10
406.7262805376079
 20
370.8429508068464
 30
0.0
 11
406.7262805376079
 21
374.8429508068464
 31
0.0
  0
LINE
  5
588
330
18
100
AcDbEntity
  8
1
  6
Continuous
100
AcDbLine
 10
417.1430195376078
 20
370.8429508068464
 30
0.0
 11
420.143019537608
 21
373.8429508068464
 31
0.0
  0
LINE
  5
589
330
18
100
AcDbEntity
  8
1
  6
Continuous
100
AcDbLine
 10
420.143019537608
 20
370.8429508068464
 30
0.0
 11
417.1430195376078
 21
373.8429508068464
 31
0.0
  0
LINE
  5
58A
330
18
100
AcDbEntity
  8
1
  6
Continuous
100
AcDbLine
 10
411.486164537608
 20
370.8429508068464
 30
0.0
 11
414.486164537608
 21
373.8429508068464
 31
0.0
  0
LINE
  5
58B
330
18
100
AcDbEntity
  8
1
  6
Continuous
100
AcDbLine
 10
414.3145915376081
 20
370.8429508068464
 30
0.0
 11
417.3145915376078
 21
373.8429508068464
 31
0.0
  0
LINE
  5
58C
330
18
100
AcDbEntity
  8
1
  6
Continuous
100
AcDbLine
 10
414.486164537608
 20
370.8429508068464
 30
0.0
 11
411.486164537608
 21
373.8429508068464
 31
0.0
  0
LINE
  5
58D
330
18
100
AcDbEntity
  8
1
  6
Continuous
100
AcDbLine
 10
417.3145915376078
 20
370.8429508068464
 30
0.0
 11
414.3145915376081
 21
373.8429508068464
 31
0.0
  0
LINE
  5
58E
330
18
100
AcDbEntity
  8
1
  6
Continuous
100
AcDbLine
 10
419.971446537608
 20
370.8429508068464
 30
0.0
 11
422.9714465376081
 21
373.8429508068464
 31
0.0
  0
LINE
  5
58F
330
18
100
AcDbEntity
  8
1
  6
Continuous
100
AcDbLine
 10
422.7998735376081
 20
370.8429508068464
 30
0.0
 11
425.7998735376078
 21
373.8429508068464
 31
0.0
  0
LINE
  5
590
330
18
100
AcDbEntity
  8
1
  6
Continuous
100
AcDbLine
 10
422.9714465376081
 20
370.8429508068464
 30
0.0
 11
419.971446537608
 21
373.8429508068464
 31
0.0
  0
LINE
  5
591
330
18
100
AcDbEntity
  8
1
  6
Continuous
100
AcDbLine
 10
425.7998735376078
 20
370.8429508068464
 30
0.0
 11
422.7998735376081
 21
373.8429508068464
 31
0.0
  0
ARC
  5
592
330
18
100
AcDbEntity
  8
1
  6
Continuous
100
AcDbCircle
 10
419.069425537608
 20
379.6429508068464
 30
0.0
 40
6.0
100
AcDbArc
 50
19.47122099999998
 51
90.0
  0
ARC
  5
593
330
18
100
AcDbEntity
  8
1
  6
Continuous
100
AcDbCircle
 10
450.3831345376078
 20
381.6429508068464
 30
0.0
 40
4.0
100
AcDbArc
 50
270.0
 51
0.0
  0
LINE
  5
594
330
18
100
AcDbEntity
  8
1
  6
Continuous
100
AcDbLine
 10
439.7704365376078
 20
370.8429508068464
 30
0.0
 11
442.7704365376079
 21
373.8429508068464
 31
0.0
  0
LINE
  5
595
330
18
100
AcDbEntity
  8
1
  6
Continuous
100
AcDbLine
 10
442.7704365376079
 20
370.8429508068464
 30
0.0
 11
439.7704365376078
 21
373.8429508068464
 31
0.0
  0
LINE
  5
596
330
18
100
AcDbEntity
  8
1
  6
Continuous
100
AcDbLine
 10
434.1135815376079
 20
370.8429508068464
 30
0.0
 11
437.1135815376079
 21
373.8429508068464
 31
0.0
  0
LINE
  5
597
330
18
100
AcDbEntity
  8
1
  6
Continuous
100
AcDbLine
 10
437.1135815376079
 20
370.8429508068464
 30
0.0
 11
434.1135815376079
 21
373.8429508068464
 31
0.0
  0
LINE
  5
598
330
18
100
AcDbEntity
  8
1
  6
Continuous
100
AcDbLine
 10
428.4567275376081
 20
370.8429508068464
 30
0.0
 11
431.4567275376081
 21
373.8429508068464
 31
0.0
  0
LINE
  5
599
330
18
100
AcDbEntity
  8
1
  6
Continuous
100
AcDbLine
 10
431.2851545376078
 20
370.8429508068464
 30
0.0
 11
434.2851545376078
 21
373.8429508068464
 31
0.0
  0
LINE
  5
59A
330
18
100
AcDbEntity
  8
1
  6
Continuous
100
AcDbLine
 10
431.4567275376081
 20
370.8429508068464
 30
0.0
 11
428.4567275376081
 21
373.8429508068464
 31
0.0
  0
LINE
  5
59B
330
18
100
AcDbEntity
  8
1
  6
Continuous
100
AcDbLine
 10
434.2851545376078
 20
370.8429508068464
 30
0.0
 11
431.2851545376078
 21
373.8429508068464
 31
0.0
  0
LINE
  5
59C
330
18
100
AcDbEntity
  8
1
  6
Continuous
100
AcDbLine
 10
436.9420085376082
 20
370.8429508068464
 30
0.0
 11
439.9420085376078
 21
373.8429508068464
 31
0.0
  0
LINE
  5
59D
330
18
100
AcDbEntity
  8
1
  6
Continuous
100
AcDbLine
 10
439.9420085376078
 20
370.8429508068464
 30
0.0
 11
436.9420085376082
 21
373.8429508068464
 31
0.0
  0
LINE
  5
59E
330
18
100
AcDbEntity
  8
1
  6
Continuous
100
AcDbLine
 10
448.2557175376078
 20
370.8429508068464
 30
0.0
 11
451.255717537608
 21
373.8429508068464
 31
0.0
  0
LINE
  5
59F
330
18
100
AcDbEntity
  8
1
  6
Continuous
100
AcDbLine
 10
451.255717537608
 20
370.8429508068464
 30
0.0
 11
448.2557175376078
 21
373.8429508068464
 31
0.0
  0
LINE
  5
5A0
330
18
100
AcDbEntity
  8
1
  6
Continuous
100
AcDbLine
 10
445.4272905376078
 20
370.8429508068464
 30
0.0
 11
448.4272905376078
 21
373.8429508068464
 31
0.0
  0
LINE
  5
5A1
330
18
100
AcDbEntity
  8
1
  6
Continuous
100
AcDbLine
 10
448.4272905376078
 20
370.8429508068464
 30
0.0
 11
445.4272905376078
 21
373.8429508068464
 31
0.0
  0
LINE
  5
5A2
330
18
100
AcDbEntity
  8
1
  6
Continuous
100
AcDbLine
 10
442.598863537608
 20
370.8429508068464
 30
0.0
 11
445.5988635376081
 21
373.8429508068464
 31
0.0
  0
LINE
  5
5A3
330
18
100
AcDbEntity
  8
1
  6
Continuous
100
AcDbLine
 10
445.5988635376081
 20
370.8429508068464
 30
0.0
 11
442.598863537608
 21
373.8429508068464
 31
0.0
  0
LINE
  5
5A4
330
18
100
AcDbEntity
  8
1
  6
Continuous
100
AcDbLine
 10
451.0841445376081
 20
370.8429508068464
 30
0.0
 11
454.084144537608
 21
373.8429508068464
 31
0.0
  0
LINE
  5
5A5
330
18
100
AcDbEntity
  8
1
  6
Continuous
100
AcDbLine
 10
453.9125715376081
 20
370.8429508068464
 30
0.0
 11
456.9125715376078
 21
373.8429508068464
 31
0.0
  0
LINE
  5
5A6
330
18
100
AcDbEntity
  8
1
  6
Continuous
100
AcDbLine
 10
454.084144537608
 20
370.8429508068464
 30
0.0
 11
451.0841445376081
 21
373.8429508068464
 31
0.0
  0
LINE
  5
5A7
330
18
100
AcDbEntity
  8
1
  6
Continuous
100
AcDbLine
 10
456.9125715376078
 20
370.8429508068464
 30
0.0
 11
453.9125715376081
 21
373.8429508068464
 31
0.0
  0
ARC
  5
5A8
330
18
100
AcDbEntity
  8
1
  6
Continuous
100
AcDbCircle
 10
454.3831345376078
 20
379.6429508068464
 30
0.0
 40
6.0
100
AcDbArc
 50
90.0
 51
160.528779
  0
LINE
  5
5A9
330
18
100
AcDbEntity
  8
1
  6
Continuous
100
AcDbLine
 10
481.726280537608
 20
377.6429508068464
 30
0.0
 11
481.726280537608
 21
385.6429508068464
 31
0.0
  0
LINE
  5
5AA
330
18
100
AcDbEntity
  8
4
  6
CENTER
100
AcDbLine
 10
470.2262805376078
 20
393.6429508068464
 30
0.0
 11
470.2262805376078
 21
369.6429508068464
 31
0.0
  0
ARC
  5
5AB
330
18
100
AcDbEntity
  8
1
  6
Continuous
100
AcDbCircle
 10
463.2262805376078
 20
365.8429508068464
 30
0.0
 40
5.0
100
AcDbArc
 50
0.0
 51
90.0
  0
LINE
  5
5AC
330
18
100
AcDbEntity
  8
1
  6
Continuous
100
AcDbLine
 10
465.2262805376079
 20
373.8429508068464
 30
0.0
 11
466.7262805376078
 21
372.3429508068464
 31
0.0
  0
LINE
  5
5AD
330
18
100
AcDbEntity
  8
1
  6
Continuous
100
AcDbLine
 10
465.2262805376079
 20
370.8429508068464
 30
0.0
 11
466.7262805376078
 21
372.3429508068464
 31
0.0
  0
ARC
  5
5AE
330
18
100
AcDbEntity
  8
1
  6
Continuous
100
AcDbCircle
 10
460.736291537608
 20
372.6429508068465
 30
0.0
 40
5.0
100
AcDbArc
 50
26.103881
 51
90.0
  0
LINE
  5
5AF
330
18
100
AcDbEntity
  8
1
  6
Continuous
100
AcDbLine
 10
462.3978535376078
 20
370.8429508068464
 30
0.0
 11
465.3978535376078
 21
373.8429508068464
 31
0.0
  0
LINE
  5
5B0
330
18
100
AcDbEntity
  8
1
  6
Continuous
100
AcDbLine
 10
465.3978535376078
 20
370.8429508068464
 30
0.0
 11
462.3978535376078
 21
373.8429508068464
 31
0.0
  0
LINE
  5
5B1
330
18
100
AcDbEntity
  8
1
  6
Continuous
100
AcDbLine
 10
459.5694255376081
 20
370.8429508068464
 30
0.0
 11
462.5694255376081
 21
373.8429508068464
 31
0.0
  0
LINE
  5
5B2
330
18
100
AcDbEntity
  8
1
  6
Continuous
100
AcDbLine
 10
462.5694255376081
 20
370.8429508068464
 30
0.0
 11
459.5694255376081
 21
373.8429508068464
 31
0.0
  0
LINE
  5
5B3
330
18
100
AcDbEntity
  8
1
  6
Continuous
100
AcDbLine
 10
466.7262805376078
 20
374.8429508068464
 30
0.0
 11
466.7262805376078
 21
370.8429508068464
 31
0.0
  0
LINE
  5
5B4
330
18
100
AcDbEntity
  8
1
  6
Continuous
100
AcDbLine
 10
561.768156537608
 20
357.5429508068463
 30
0.0
 11
562.4434915376078
 21
366.2304628068464
 31
0.0
  0
ARC
  5
5B5
330
18
100
AcDbEntity
  8
1
  6
Continuous
100
AcDbCircle
 10
682.016386537608
 20
352.2896618068465
 30
0.0
 40
57.06438499999999
100
AcDbArc
 50
166.673789
 51
187.7730689999999
  0
LINE
  5
5B6
330
18
100
AcDbEntity
  8
1
  6
Continuous
100
AcDbLine
 10
616.8353765376081
 20
362.3849268068465
 30
0.0
 11
616.8353765376081
 21
280.9407788068465
 31
0.0
  0
LINE
  5
5B7
330
18
100
AcDbEntity
  8
4
  6
CENTER
100
AcDbLine
 10
593.2681565376078
 20
393.6429508068464
 30
0.0
 11
593.2681565376078
 21
301.1767818068465
 31
0.0
  0
ARC
  5
5B8
330
18
100
AcDbEntity
  8
1
  6
Continuous
100
AcDbCircle
 10
564.1783875376082
 20
352.9207288068464
 30
0.0
 40
4.074384999999998
100
AcDbArc
 50
7.061072999999998
 51
78.94677800000002
  0
LINE
  5
5B9
330
18
100
AcDbEntity
  8
1
  6
Continuous
100
AcDbLine
 10
561.768156537608
 20
357.5429508068463
 30
0.0
 11
564.9595315376077
 21
356.9195328068464
 31
0.0
  0
CIRCLE
  5
5BA
330
18
100
AcDbEntity
  8
1
  6
Continuous
100
AcDbCircle
 10
637.2681565376081
 20
314.1429508068465
 30
0.0
 40
3.5
  0
ARC
  5
5BB
330
18
100
AcDbEntity
  8
1
  6
Continuous
100
AcDbCircle
 10
747.5684765376081
 20
361.2377928068466
 30
0.0
 40
123.224386
100
AcDbArc
 50
187.7730689999999
 51
210.5976489999999
  0
ARC
  5
5BC
330
18
100
AcDbEntity
  8
1
  6
Continuous
100
AcDbCircle
 10
598.2748395376082
 20
285.8126468068467
 30
0.0
 40
3.5
100
AcDbArc
 50
129.780147
 51
310.462825
  0
LINE
  5
5BD
330
18
100
AcDbEntity
  8
1
  6
Continuous
100
AcDbLine
 10
637.2681565376081
 20
282.9579048068464
 30
0.0
 11
628.7681565376081
 21
278.0504278068463
 31
0.0
  0
LINE
  5
5BE
330
18
100
AcDbEntity
  8
1
  6
Continuous
100
AcDbLine
 10
574.2684785376077
 20
381.6429508068464
 30
0.0
 11
612.2684785376077
 21
381.6429508068464
 31
0.0
  0
LINE
  5
5BF
330
18
100
AcDbEntity
  8
1
  6
Continuous
100
AcDbLine
 10
577.2684785376077
 20
385.6429508068464
 30
0.0
 11
609.2684785376079
 21
385.6429508068464
 31
0.0
  0
LINE
  5
5C0
330
18
100
AcDbEntity
  8
1
  6
Continuous
100
AcDbLine
 10
584.5671465376081
 20
370.8429508068464
 30
0.0
 11
581.5671465376079
 21
373.8429508068464
 31
0.0
  0
LINE
  5
5C1
330
18
100
AcDbEntity
  8
1
  6
Continuous
100
AcDbLine
 10
581.7387195376078
 20
370.8429508068464
 30
0.0
 11
578.7387195376078
 21
373.8429508068464
 31
0.0
  0
LINE
  5
5C2
330
18
100
AcDbEntity
  8
1
  6
Continuous
100
AcDbLine
 10
581.5671465376079
 20
370.8429508068464
 30
0.0
 11
584.5671465376081
 21
373.8429508068464
 31
0.0
  0
LINE
  5
5C3
330
18
100
AcDbEntity
  8
1
  6
Continuous
100
AcDbLine
 10
578.7387195376078
 20
370.8429508068464
 30
0.0
 11
581.7387195376078
 21
373.8429508068464
 31
0.0
  0
LINE
  5
5C4
330
18
100
AcDbEntity
  8
1
  6
Continuous
100
AcDbLine
 10
563.268156537608
 20
373.8429508068464
 30
0.0
 11
623.2681565376077
 21
373.8429508068464
 31
0.0
  0
LINE
  5
5C5
330
18
100
AcDbEntity
  8
1
  6
Continuous
100
AcDbLine
 10
563.268156537608
 20
374.8429508068464
 30
0.0
 11
623.2681565376077
 21
374.8429508068464
 31
0.0
  0
LINE
  5
5C6
330
18
100
AcDbEntity
  8
1
  6
Continuous
100
AcDbLine
 10
563.268156537608
 20
370.8429508068464
 30
0.0
 11
632.7681565376081
 21
370.8429508068464
 31
0.0
  0
LINE
  5
5C7
330
18
100
AcDbEntity
  8
1
  6
Continuous
100
AcDbLine
 10
530.7684785376078
 20
381.6429508068464
 30
0.0
 11
568.6116235376081
 21
381.6429508068464
 31
0.0
  0
LINE
  5
5C8
330
18
100
AcDbEntity
  8
1
  6
Continuous
100
AcDbLine
 10
530.7684785376078
 20
385.6429508068464
 30
0.0
 11
568.6116235376081
 21
385.6429508068464
 31
0.0
  0
LINE
  5
5C9
330
18
100
AcDbEntity
  8
1
  6
Continuous
100
AcDbLine
 10
530.7684785376078
 20
377.6429508068464
 30
0.0
 11
530.7684785376078
 21
385.6429508068464
 31
0.0
  0
LINE
  5
5CA
330
18
100
AcDbEntity
  8
4
  6
CENTER
100
AcDbLine
 10
541.7681565376081
 20
393.6429508068464
 30
0.0
 11
541.7681565376081
 21
369.6429508068464
 31
0.0
  0
ARC
  5
5CB
330
18
100
AcDbEntity
  8
1
  6
Continuous
100
AcDbCircle
 10
572.6116235376081
 20
381.6429508068464
 30
0.0
 40
4.0
100
AcDbArc
 50
180.0
 51
270.0
  0
LINE
  5
5CC
330
18
100
AcDbEntity
  8
1
  6
Continuous
100
AcDbLine
 10
567.5965835376081
 20
370.8429508068464
 30
0.0
 11
564.5965835376077
 21
373.8429508068464
 31
0.0
  0
LINE
  5
5CD
330
18
100
AcDbEntity
  8
1
  6
Continuous
100
AcDbLine
 10
564.5965835376077
 20
370.8429508068464
 30
0.0
 11
567.5965835376081
 21
373.8429508068464
 31
0.0
  0
ARC
  5
5CE
330
18
100
AcDbEntity
  8
1
  6
Continuous
100
AcDbCircle
 10
567.4284525376077
 20
365.8429508068464
 30
0.0
 40
5.0
100
AcDbArc
 50
90.0
 51
175.554978
  0
ARC
  5
5CF
330
18
100
AcDbEntity
  8
1
  6
Continuous
100
AcDbCircle
 10
569.2581455376081
 20
372.6429508068465
 30
0.0
 40
5.0
100
AcDbArc
 50
90.0
 51
153.896119
  0
LINE
  5
5D0
330
18
100
AcDbEntity
  8
1
  6
Continuous
100
AcDbLine
 10
564.7681565376077
 20
373.8429508068464
 30
0.0
 11
563.268156537608
 21
372.3429508068464
 31
0.0
  0
LINE
  5
5D1
330
18
100
AcDbEntity
  8
1
  6
Continuous
100
AcDbLine
 10
563.268156537608
 20
374.8429508068464
 30
0.0
 11
563.268156537608
 21
370.8429508068464
 31
0.0
  0
LINE
  5
5D2
330
18
100
AcDbEntity
  8
1
  6
Continuous
100
AcDbLine
 10
564.7681565376077
 20
370.8429508068464
 30
0.0
 11
563.268156537608
 21
372.3429508068464
 31
0.0
  0
LINE
  5
5D3
330
18
100
AcDbEntity
  8
1
  6
Continuous
100
AcDbLine
 10
576.081865537608
 20
370.8429508068464
 30
0.0
 11
573.0818655376078
 21
373.8429508068464
 31
0.0
  0
LINE
  5
5D4
330
18
100
AcDbEntity
  8
1
  6
Continuous
100
AcDbLine
 10
573.0818655376078
 20
370.8429508068464
 30
0.0
 11
576.081865537608
 21
373.8429508068464
 31
0.0
  0
LINE
  5
5D5
330
18
100
AcDbEntity
  8
1
  6
Continuous
100
AcDbLine
 10
573.2534385376077
 20
370.8429508068464
 30
0.0
 11
570.2534385376077
 21
373.8429508068464
 31
0.0
  0
LINE
  5
5D6
330
18
100
AcDbEntity
  8
1
  6
Continuous
100
AcDbLine
 10
570.4250105376079
 20
370.8429508068464
 30
0.0
 11
567.4250105376079
 21
373.8429508068464
 31
0.0
  0
LINE
  5
5D7
330
18
100
AcDbEntity
  8
1
  6
Continuous
100
AcDbLine
 10
570.2534385376077
 20
370.8429508068464
 30
0.0
 11
573.2534385376077
 21
373.8429508068464
 31
0.0
  0
LINE
  5
5D8
330
18
100
AcDbEntity
  8
1
  6
Continuous
100
AcDbLine
 10
567.4250105376079
 20
370.8429508068464
 30
0.0
 11
570.4250105376079
 21
373.8429508068464
 31
0.0
  0
LINE
  5
5D9
330
18
100
AcDbEntity
  8
1
  6
Continuous
100
AcDbLine
 10
578.9102925376081
 20
370.8429508068464
 30
0.0
 11
575.9102925376081
 21
373.8429508068464
 31
0.0
  0
LINE
  5
5DA
330
18
100
AcDbEntity
  8
1
  6
Continuous
100
AcDbLine
 10
575.9102925376081
 20
370.8429508068464
 30
0.0
 11
578.9102925376081
 21
373.8429508068464
 31
0.0
  0
ARC
  5
5DB
330
18
100
AcDbEntity
  8
1
  6
Continuous
100
AcDbCircle
 10
568.6116235376081
 20
379.6429508068464
 30
0.0
 40
6.0
100
AcDbArc
 50
19.47122099999998
 51
90.0
  0
LINE
  5
5DC
330
18
100
AcDbEntity
  8
1
  6
Continuous
100
AcDbLine
 10
577.2684785376077
 20
385.6429508068464
 30
0.0
 11
577.2684785376077
 21
381.6429508068464
 31
0.0
  0
ARC
  5
5DD
330
18
100
AcDbEntity
  8
1
  6
Continuous
100
AcDbCircle
 10
617.9253325376079
 20
379.6429508068464
 30
0.0
 40
6.0
100
AcDbArc
 50
90.0
 51
160.528779
  0
LINE
  5
5DE
330
18
100
AcDbEntity
  8
1
  6
Continuous
100
AcDbLine
 10
612.8514175376079
 20
370.8429508068464
 30
0.0
 11
609.8514175376077
 21
373.8429508068464
 31
0.0
  0
LINE
  5
5DF
330
18
100
AcDbEntity
  8
1
  6
Continuous
100
AcDbLine
 10
609.8514175376077
 20
370.8429508068464
 30
0.0
 11
612.8514175376079
 21
373.8429508068464
 31
0.0
  0
LINE
  5
5E0
330
18
100
AcDbEntity
  8
1
  6
Continuous
100
AcDbLine
 10
598.7092825376079
 20
370.8429508068464
 30
0.0
 11
595.7092825376077
 21
373.8429508068464
 31
0.0
  0
LINE
  5
5E1
330
18
100
AcDbEntity
  8
1
  6
Continuous
100
AcDbLine
 10
595.7092825376077
 20
370.8429508068464
 30
0.0
 11
598.7092825376079
 21
373.8429508068464
 31
0.0
  0
LINE
  5
5E2
330
18
100
AcDbEntity
  8
1
  6
Continuous
100
AcDbLine
 10
590.2240005376082
 20
370.8429508068464
 30
0.0
 11
587.2240005376083
 21
373.8429508068464
 31
0.0
  0
LINE
  5
5E3
330
18
100
AcDbEntity
  8
1
  6
Continuous
100
AcDbLine
 10
587.2240005376083
 20
370.8429508068464
 30
0.0
 11
590.2240005376082
 21
373.8429508068464
 31
0.0
  0
LINE
  5
5E4
330
18
100
AcDbEntity
  8
1
  6
Continuous
100
AcDbLine
 10
587.3955735376081
 20
370.8429508068464
 30
0.0
 11
584.3955735376081
 21
373.8429508068464
 31
0.0
  0
LINE
  5
5E5
330
18
100
AcDbEntity
  8
1
  6
Continuous
100
AcDbLine
 10
584.3955735376081
 20
370.8429508068464
 30
0.0
 11
587.3955735376081
 21
373.8429508068464
 31
0.0
  0
LINE
  5
5E6
330
18
100
AcDbEntity
  8
1
  6
Continuous
100
AcDbLine
 10
593.0524275376077
 20
370.8429508068464
 30
0.0
 11
590.052427537608
 21
373.8429508068464
 31
0.0
  0
LINE
  5
5E7
330
18
100
AcDbEntity
  8
1
  6
Continuous
100
AcDbLine
 10
590.052427537608
 20
370.8429508068464
 30
0.0
 11
593.0524275376077
 21
373.8429508068464
 31
0.0
  0
LINE
  5
5E8
330
18
100
AcDbEntity
  8
1
  6
Continuous
100
AcDbLine
 10
595.8808555376077
 20
370.8429508068464
 30
0.0
 11
592.8808555376081
 21
373.8429508068464
 31
0.0
  0
LINE
  5
5E9
330
18
100
AcDbEntity
  8
1
  6
Continuous
100
AcDbLine
 10
592.8808555376081
 20
370.8429508068464
 30
0.0
 11
595.8808555376077
 21
373.8429508068464
 31
0.0
  0
LINE
  5
5EA
330
18
100
AcDbEntity
  8
1
  6
Continuous
100
AcDbLine
 10
607.1945635376081
 20
370.8429508068464
 30
0.0
 11
604.1945635376077
 21
373.8429508068464
 31
0.0
  0
LINE
  5
5EB
330
18
100
AcDbEntity
  8
1
  6
Continuous
100
AcDbLine
 10
604.1945635376077
 20
370.8429508068464
 30
0.0
 11
607.1945635376081
 21
373.8429508068464
 31
0.0
  0
LINE
  5
5EC
330
18
100
AcDbEntity
  8
1
  6
Continuous
100
AcDbLine
 10
604.3661365376078
 20
370.8429508068464
 30
0.0
 11
601.3661365376077
 21
373.8429508068464
 31
0.0
  0
LINE
  5
5ED
330
18
100
AcDbEntity
  8
1
  6
Continuous
100
AcDbLine
 10
601.5377095376078
 20
370.8429508068464
 30
0.0
 11
598.537709537608
 21
373.8429508068464
 31
0.0
  0
LINE
  5
5EE
330
18
100
AcDbEntity
  8
1
  6
Continuous
100
AcDbLine
 10
601.3661365376077
 20
370.8429508068464
 30
0.0
 11
604.3661365376078
 21
373.8429508068464
 31
0.0
  0
LINE
  5
5EF
330
18
100
AcDbEntity
  8
1
  6
Continuous
100
AcDbLine
 10
598.537709537608
 20
370.8429508068464
 30
0.0
 11
601.5377095376078
 21
373.8429508068464
 31
0.0
  0
LINE
  5
5F0
330
18
100
AcDbEntity
  8
1
  6
Continuous
100
AcDbLine
 10
610.022990537608
 20
370.8429508068464
 30
0.0
 11
607.0229905376081
 21
373.8429508068464
 31
0.0
  0
LINE
  5
5F1
330
18
100
AcDbEntity
  8
1
  6
Continuous
100
AcDbLine
 10
607.0229905376081
 20
370.8429508068464
 30
0.0
 11
610.022990537608
 21
373.8429508068464
 31
0.0
  0
LINE
  5
5F2
330
18
100
AcDbEntity
  8
1
  6
Continuous
100
AcDbLine
 10
609.2684785376079
 20
385.6429508068464
 30
0.0
 11
609.2684785376079
 21
381.6429508068464
 31
0.0
  0
ARC
  5
5F3
330
18
100
AcDbEntity
  8
1
  6
Continuous
100
AcDbCircle
 10
613.9246895376078
 20
381.6429508068464
 30
0.0
 40
4.0
100
AcDbArc
 50
270.0
 51
0.0
  0
LINE
  5
5F4
330
18
100
AcDbEntity
  8
1
  6
Continuous
100
AcDbLine
 10
632.7681565376081
 20
367.9429508068464
 30
0.0
 11
626.8375755376081
 21
367.9429508068464
 31
0.0
  0
ARC
  5
5F5
330
18
100
AcDbEntity
  8
1
  6
Continuous
100
AcDbCircle
 10
613.386506537608
 20
368.5462318068464
 30
0.0
 40
13.464591
100
AcDbArc
 50
346.673789
 51
9.821236999999998
  0
LINE
  5
5F6
330
18
100
AcDbEntity
  8
1
  6
Continuous
100
AcDbLine
 10
621.3366995376078
 20
370.8429508068464
 30
0.0
 11
618.3366995376078
 21
373.8429508068464
 31
0.0
  0
LINE
  5
5F7
330
18
100
AcDbEntity
  8
1
  6
Continuous
100
AcDbLine
 10
618.3366995376078
 20
370.8429508068464
 30
0.0
 11
621.3366995376078
 21
373.8429508068464
 31
0.0
  0
ARC
  5
5F8
330
18
100
AcDbEntity
  8
1
  6
Continuous
100
AcDbCircle
 10
617.2781675376082
 20
372.6429508068465
 30
0.0
 40
5.0
100
AcDbArc
 50
26.103881
 51
90.0
  0
LINE
  5
5F9
330
18
100
AcDbEntity
  8
1
  6
Continuous
100
AcDbLine
 10
618.5082725376081
 20
370.8429508068464
 30
0.0
 11
615.5082725376082
 21
373.8429508068464
 31
0.0
  0
LINE
  5
5FA
330
18
100
AcDbEntity
  8
1
  6
Continuous
100
AcDbLine
 10
615.6798445376081
 20
370.8429508068464
 30
0.0
 11
612.6798445376081
 21
373.8429508068464
 31
0.0
  0
LINE
  5
5FB
330
18
100
AcDbEntity
  8
1
  6
Continuous
100
AcDbLine
 10
615.5082725376082
 20
370.8429508068464
 30
0.0
 11
618.5082725376081
 21
373.8429508068464
 31
0.0
  0
LINE
  5
5FC
330
18
100
AcDbEntity
  8
1
  6
Continuous
100
AcDbLine
 10
612.6798445376081
 20
370.8429508068464
 30
0.0
 11
615.6798445376081
 21
373.8429508068464
 31
0.0
  0
LINE
  5
5FD
330
18
100
AcDbEntity
  8
1
  6
Continuous
100
AcDbLine
 10
623.2681565376077
 20
371.7399198068466
 30
0.0
 11
621.165126537608
 21
373.8429508068464
 31
0.0
  0
LINE
  5
5FE
330
18
100
AcDbEntity
  8
1
  6
Continuous
100
AcDbLine
 10
621.165126537608
 20
370.8429508068464
 30
0.0
 11
623.2681565376077
 21
372.9459808068465
 31
0.0
  0
LINE
  5
5FF
330
18
100
AcDbEntity
  8
1
  6
Continuous
100
AcDbLine
 10
623.2681565376077
 20
370.8429508068464
 30
0.0
 11
623.2681565376077
 21
374.8429508068464
 31
0.0
  0
LINE
  5
600
330
18
100
AcDbEntity
  8
1
  6
Continuous
100
AcDbLine
 10
632.7681565376081
 20
370.8429508068464
 30
0.0
 11
632.7681565376081
 21
367.9429508068464
 31
0.0
  0
CIRCLE
  5
601
330
18
100
AcDbEntity
  8
1
  6
Continuous
100
AcDbCircle
 10
676.2614735376081
 20
285.8126468068467
 30
0.0
 40
3.5
  0
LINE
  5
602
330
18
100
AcDbEntity
  8
1
  6
Continuous
100
AcDbLine
 10
655.7684785376077
 20
377.6429508068464
 30
0.0
 11
655.7684785376077
 21
385.6429508068464
 31
0.0
  0
LINE
  5
603
330
18
100
AcDbEntity
  8
4
  6
CENTER
100
AcDbLine
 10
644.7681565376077
 20
393.6429508068464
 30
0.0
 11
644.7681565376077
 21
369.6429508068464
 31
0.0
  0
ENDSEC
  0
SECTION
  2
OBJECTS
  0
DICTIONARY
  5
C
330
0
100
AcDbDictionary
281
     1
  3
ACAD_CIP_PREVIOUS_PRODUCT_INFO
350
672
  3
ACAD_COLOR
350
655
  3
ACAD_DETAILVIEWSTYLE
350
66E
  3
ACAD_GROUP
350
D
  3
ACAD_LAYOUT
350
94
  3
ACAD_MATERIAL
350
623
  3
ACAD_MLEADERSTYLE
350
66A
  3
ACAD_MLINESTYLE
350
1B
  3
ACAD_PLOTSETTINGS
350
95
  3
ACAD_PLOTSTYLENAME
350
621
  3
ACAD_SCALELIST
350
658
  3
ACAD_SECTIONVIEWSTYLE
350
66C
  3
ACAD_TABLESTYLE
350
656
  3
ACAD_VISUALSTYLE
350
63C
  3
ACDB_RECOMPOSE_DATA
350
690
  3
AcDbVariableDictionary
350
683
  3
CONTENTDICTIONARY
350
3D
  3
DWGPROPS
350
691
  0
DICTIONARY
  5
673
330
E
100
AcDbDictionary
280
     1
281
     1
  3
ADSK_XREC_LAYER_RECONCILED
360
674
  0
DICTIONARY
  5
675
330
4E
100
AcDbDictionary
280
     1
281
     1
  3
ADSK_XREC_LAYER_RECONCILED
360
676
  0
DICTIONARY
  5
677
330
4F
100
AcDbDictionary
280
     1
281
     1
  3
ADSK_XREC_LAYER_RECONCILED
360
678
  0
DICTIONARY
  5
679
330
50
100
AcDbDictionary
280
     1
281
     1
  3
ADSK_XREC_LAYER_RECONCILED
360
67A
  0
DICTIONARY
  5
67B
330
51
100
AcDbDictionary
280
     1
281
     1
  3
ADSK_XREC_LAYER_RECONCILED
360
67C
  0
DICTIONARY
  5
67D
330
52
100
AcDbDictionary
280
     1
281
     1
  3
ADSK_XREC_LAYER_RECONCILED
360
67E
  0
DICTIONARY
  5
67F
330
53
100
AcDbDictionary
280
     1
281
     1
  3
ADSK_XREC_LAYER_RECONCILED
360
680
  0
DICTIONARY
  5
681
330
54
100
AcDbDictionary
280
     1
281
     1
  3
ADSK_XREC_LAYER_RECONCILED
360
682
  0
DICTIONARY
  5
61C
330
18
100
AcDbDictionary
281
     1
  3
ACAD_LAYOUTSELFREF
350
61D
  0
DICTIONARY
  5
61A
330
15
100
AcDbDictionary
281
     1
  3
ACAD_LAYOUTSELFREF
350
61B
  0
XRECORD
  5
672
102
{ACAD_REACTORS
330
C
102
}
330
C
100
AcDbXrecord
280
     1
300
ACDLT
300
2014
300
ACDLT_F_S
  0
DICTIONARY
  5
655
102
{ACAD_REACTORS
330
C
102
}
330
C
100
AcDbDictionary
281
     1
  0
DICTIONARY
  5
66E
102
{ACAD_REACTORS
330
C
102
}
330
C
100
AcDbDictionary
281
     1
  3
Imperial24
350
66F
  0
DICTIONARY
  5
D
102
{ACAD_REACTORS
330
C
102
}
330
C
100
AcDbDictionary
281
     1
  0
DICTIONARY
  5
94
102
{ACAD_REACTORS
330
C
102
}
330
C
100
AcDbDictionary
281
     1
  3
Model
350
670
  3
レイアウト1
350
671
  0
DICTIONARY
  5
623
102
{ACAD_REACTORS
330
C
102
}
330
C
100
AcDbDictionary
281
     1
  3
ByBlock
350
62C
  3
ByLayer
350
624
  3
Global
350
634
  0
DICTIONARY
  5
66A
102
{ACAD_REACTORS
330
C
102
}
330
C
100
AcDbDictionary
281
     1
  3
Standard
350
66B
  0
DICTIONARY
  5
1B
102
{ACAD_REACTORS
330
C
102
}
330
C
100
AcDbDictionary
281
     1
  3
STANDARD
350
1C
  0
DICTIONARY
  5
95
102
{ACAD_REACTORS
330
C
102
}
330
C
100
AcDbDictionary
281
     1
  0
ACDBDICTIONARYWDFLT
  5
621
102
{ACAD_REACTORS
330
C
102
}
330
C
100
AcDbDictionary
281
     1
  3
Normal
350
622
100
AcDbDictionaryWithDefault
340
622
  0
DICTIONARY
  5
658
102
{ACAD_REACTORS
330
C
102
}
330
C
100
AcDbDictionary
281
     1
  3
A0
350
659
  3
A1
350
65A
  3
A2
350
65B
  3
A3
350
65C
  3
A4
350
65D
  3
A5
350
65E
  3
A6
350
65F
  3
A7
350
660
  3
A8
350
661
  3
A9
350
662
  3
B0
350
663
  3
B1
350
664
  3
B2
350
665
  3
B3
350
666
  3
B4
350
667
  3
B5
350
668
  3
B6
350
669
  0
DICTIONARY
  5
66C
102
{ACAD_REACTORS
330
C
102
}
330
C
100
AcDbDictionary
281
     1
  3
Imperial24
350
66D
  0
DICTIONARY
  5
656
102
{ACAD_REACTORS
330
C
102
}
330
C
100
AcDbDictionary
281
     1
  3
Standard
350
657
  0
DICTIONARY
  5
63C
102
{ACAD_REACTORS
330
C
102
}
330
C
100
AcDbDictionary
281
     1
  3
2dWireframe
350
642
  3
Basic
350
641
  3
Brighten
350
648
  3
ColorChange
350
64C
  3
Conceptual
350
645
  3
Dim
350
647
  3
EdgeColorOff
350
654
  3
Facepattern
350
64B
  3
Flat
350
63D
  3
FlatWithEdges
350
63E
  3
Gouraud
350
63F
  3
GouraudWithEdges
350
640
  3
Hidden
350
644
  3
JitterOff
350
652
  3
Linepattern
350
64A
  3
OverhangOff
350
653
  3
Realistic
350
646
  3
Shaded
350
651
  3
Shaded with edges
350
650
  3
Shades of Gray
350
64D
  3
Sketchy
350
64E
  3
Thicken
350
649
  3
Wireframe
350
643
  3
X-Ray
350
64F
  0
XRECORD
  5
690
102
{ACAD_REACTORS
330
C
102
}
330
C
100
AcDbXrecord
280
     1
 90
        1
330
657
  0
DICTIONARY
  5
683
102
{ACAD_REACTORS
330
C
102
}
330
C
100
AcDbDictionary
281
     1
  3
CANNOSCALE
350
688
  3
CMLEADERSTYLE
350
685
  3
CTABLESTYLE
350
684
  3
CVIEWDETAILSTYLE
350
686
  3
CVIEWSECTIONSTYLE
350
687
  3
DIMASSOC
350
68B
  3
INDEXCTL
350
68A
  3
SORTENTS
350
689
  3
XCLIPFRAME
350
68C
  0
DICTIONARY
  5
3D
102
{ACAD_REACTORS
330
C
102
}
330
C
100
AcDbDictionary
281
     1
  0
XRECORD
  5
691
102
{ACAD_REACTORS
330
C
102
}
330
C
100
AcDbXrecord
280
     1
  1
DWGPROPS COOKIE
  2

  3

  4

  6

  7

  8
Yoshitsune
  9

300
=
301
=
302
=
303
=
304
=
305
=
306
=
307
=
308
=
309
=
 40
0.0040387615740741
 41
2454875.70001397
 42
2457192.687495509
  1

 90
        0
  0
XRECORD
  5
674
102
{ACAD_REACTORS
330
673
102
}
330
673
100
AcDbXrecord
280
     1
290
     1
  0
XRECORD
  5
676
102
{ACAD_REACTORS
330
675
102
}
330
675
100
AcDbXrecord
280
     1
290
     1
  0
XRECORD
  5
678
102
{ACAD_REACTORS
330
677
102
}
330
677
100
AcDbXrecord
280
     1
290
     1
  0
XRECORD
  5
67A
102
{ACAD_REACTORS
330
679
102
}
330
679
100
AcDbXrecord
280
     1
290
     1
  0
XRECORD
  5
67C
102
{ACAD_REACTORS
330
67B
102
}
330
67B
100
AcDbXrecord
280
     1
290
     1
  0
XRECORD
  5
67E
102
{ACAD_REACTORS
330
67D
102
}
330
67D
100
AcDbXrecord
280
     1
290
     1
  0
XRECORD
  5
680
102
{ACAD_REACTORS
330
67F
102
}
330
67F
100
AcDbXrecord
280
     1
290
     1
  0
XRECORD
  5
682
102
{ACAD_REACTORS
330
681
102
}
330
681
100
AcDbXrecord
280
     1
290
     1
  0
XRECORD
  5
61D
102
{ACAD_REACTORS
330
61C
102
}
330
61C
100
AcDbXrecord
280
     1
340
18
  0
XRECORD
  5
61B
102
{ACAD_REACTORS
330
61A
102
}
330
61A
100
AcDbXrecord
280
     1
340
15
  0
ACDBDETAILVIEWSTYLE
  5
66F
102
{ACAD_XDICTIONARY
360
6C9
102
}
102
{ACAD_REACTORS
330
66E
102
}
330
66E
100
AcDbModelDocViewStyle
 70
     0
  3
Imperial24
290
     0
100
AcDbDetailViewStyle
 70
     0
 71
     0
 90
        3
 71
     1
340
F
 40
0.24
340
0
 40
0.24
300

 40
0.36
280
     3
 71
     2
340
14
 90
       25
 71
     3
340
F
 40
0.24
 90
        1
 40
0.75
 90
        1
300
%<\AcVar ViewType \f "%tc1">% %<\AcVar ViewDetailId>%\PSCALE %<\AcVar ViewScale \f "%sn">%
 71
     4
340
14
 90
       25
340
14
 90
       25
280
     0
  0
LAYOUT
  5
670
102
{ACAD_XDICTIONARY
360
6CB
102
}
102
{ACAD_REACTORS
330
94
102
}
330
94
100
AcDbPlotSettings
  1

  2
Canon LBP9100C
  4

  6

 40
0.0
 41
0.0
 42
0.0
 43
0.0
 44
0.0
 45
0.0
 46
0.0
 47
0.0
 48
0.0
 49
0.0
140
0.0
141
0.0
142
1.0
143
1.0
 70
  1712
 72
     0
 73
     0
 74
     0
  7

 75
     0
147
1.0
148
0.0
149
0.0
100
AcDbLayout
  1
Model
 70
     1
 71
     0
 10
0.0
 20
0.0
 11
12.0
 21
9.0
 12
0.0
 22
0.0
 32
0.0
 14
0.0
 24
0.0
 34
0.0
 15
0.0
 25
0.0
 35
0.0
146
0.0
 13
0.0
 23
0.0
 33
0.0
 16
1.0
 26
0.0
 36
0.0
 17
0.0
 27
1.0
 37
0.0
 76
     0
330
18
331
619
  0
LAYOUT
  5
671
102
{ACAD_XDICTIONARY
360
6CD
102
}
102
{ACAD_REACTORS
330
94
102
}
330
94
100
AcDbPlotSettings
  1

  2
Canon LBP9100C
  4

  6

 40
0.0
 41
0.0
 42
0.0
 43
0.0
 44
0.0
 45
0.0
 46
0.0
 47
0.0
 48
0.0
 49
0.0
140
0.0
141
0.0
142
1.0
143
1.0
 70
   688
 72
     0
 73
     0
 74
     5
  7

 75
    16
147
1.0
148
0.0
149
0.0
100
AcDbLayout
  1
レイアウト1
 70
     1
 71
     1
 10
0.0
 20
0.0
 11
420.0
 21
297.0
 12
0.0
 22
0.0
 32
0.0
 14
1.000000000000000E+20
 24
1.000000000000000E+20
 34
1.000000000000000E+20
 15
-1.000000000000000E+20
 25
-1.000000000000000E+20
 35
-1.000000000000000E+20
146
0.0
 13
0.0
 23
0.0
 33
0.0
 16
1.0
 26
0.0
 36
0.0
 17
0.0
 27
1.0
 37
0.0
 76
     0
330
15
  0
MATERIAL
  5
62C
102
{ACAD_XDICTIONARY
360
62D
102
}
102
{ACAD_REACTORS
330
623
102
}
330
623
100
AcDbMaterial
  1
ByBlock
 72
     0
 43
0.0208333333333333
 43
0.0
 43
0.0
 43
0.0
 43
0.0
 43
0.0208333333333333
 43
0.0
 43
0.0
 43
0.0
 43
0.0
 43
1.0
 43
0.0
 43
0.0
 43
0.0
 43
0.0
 43
1.0
 77
     0
 47
0.0208333333333333
 47
0.0
 47
0.0
 47
0.0
 47
0.0
 47
0.0208333333333333
 47
0.0
 47
0.0
 47
0.0
 47
0.0
 47
1.0
 47
0.0
 47
0.0
 47
0.0
 47
0.0
 47
1.0
171
     0
 49
0.0208333333333333
 49
0.0
 49
0.0
 49
0.0
 49
0.0
 49
0.0208333333333333
 49
0.0
 49
0.0
 49
0.0
 49
0.0
 49
1.0
 49
0.0
 49
0.0
 49
0.0
 49
0.0
 49
1.0
175
     0
142
0.0208333333333333
142
0.0
142
0.0
142
0.0
142
0.0
142
0.0208333333333333
142
0.0
142
0.0
142
0.0
142
0.0
142
1.0
142
0.0
142
0.0
142
0.0
142
0.0
142
1.0
179
     0
144
0.0208333333333333
144
0.0
144
0.0
144
0.0
144
0.0
144
0.0208333333333333
144
0.0
144
0.0
144
0.0
144
0.0
144
1.0
144
0.0
144
0.0
144
0.0
144
0.0
144
1.0
147
0.0208333333333333
147
0.0
147
0.0
147
0.0
147
0.0
147
0.0208333333333333
147
0.0
147
0.0
147
0.0
147
0.0
147
1.0
147
0.0
147
0.0
147
0.0
147
0.0
147
1.0
  0
MATERIAL
  5
624
102
{ACAD_XDICTIONARY
360
625
102
}
102
{ACAD_REACTORS
330
623
102
}
330
623
100
AcDbMaterial
  1
ByLayer
 72
     0
 43
0.0208333333333333
 43
0.0
 43
0.0
 43
0.0
 43
0.0
 43
0.0208333333333333
 43
0.0
 43
0.0
 43
0.0
 43
0.0
 43
1.0
 43
0.0
 43
0.0
 43
0.0
 43
0.0
 43
1.0
 77
     0
 47
0.0208333333333333
 47
0.0
 47
0.0
 47
0.0
 47
0.0
 47
0.0208333333333333
 47
0.0
 47
0.0
 47
0.0
 47
0.0
 47
1.0
 47
0.0
 47
0.0
 47
0.0
 47
0.0
 47
1.0
171
     0
 49
0.0208333333333333
 49
0.0
 49
0.0
 49
0.0
 49
0.0
 49
0.0208333333333333
 49
0.0
 49
0.0
 49
0.0
 49
0.0
 49
1.0
 49
0.0
 49
0.0
 49
0.0
 49
0.0
 49
1.0
175
     0
142
0.0208333333333333
142
0.0
142
0.0
142
0.0
142
0.0
142
0.0208333333333333
142
0.0
142
0.0
142
0.0
142
0.0
142
1.0
142
0.0
142
0.0
142
0.0
142
0.0
142
1.0
179
     0
144
0.0208333333333333
144
0.0
144
0.0
144
0.0
144
0.0
144
0.0208333333333333
144
0.0
144
0.0
144
0.0
144
0.0
144
1.0
144
0.0
144
0.0
144
0.0
144
0.0
144
1.0
147
0.0208333333333333
147
0.0
147
0.0
147
0.0
147
0.0
147
0.0208333333333333
147
0.0
147
0.0
147
0.0
147
0.0
147
1.0
147
0.0
147
0.0
147
0.0
147
0.0
147
1.0
  0
MATERIAL
  5
634
102
{ACAD_XDICTIONARY
360
635
102
}
102
{ACAD_REACTORS
330
623
102
}
330
623
100
AcDbMaterial
  1
Global
 72
     0
 43
0.0208333333333333
 43
0.0
 43
0.0
 43
0.0
 43
0.0
 43
0.0208333333333333
 43
0.0
 43
0.0
 43
0.0
 43
0.0
 43
1.0
 43
0.0
 43
0.0
 43
0.0
 43
0.0
 43
1.0
 77
     0
 47
0.0208333333333333
 47
0.0
 47
0.0
 47
0.0
 47
0.0
 47
0.0208333333333333
 47
0.0
 47
0.0
 47
0.0
 47
0.0
 47
1.0
 47
0.0
 47
0.0
 47
0.0
 47
0.0
 47
1.0
171
     0
 49
0.0208333333333333
 49
0.0
 49
0.0
 49
0.0
 49
0.0
 49
0.0208333333333333
 49
0.0
 49
0.0
 49
0.0
 49
0.0
 49
1.0
 49
0.0
 49
0.0
 49
0.0
 49
0.0
 49
1.0
175
     0
142
0.0208333333333333
142
0.0
142
0.0
142
0.0
142
0.0
142
0.0208333333333333
142
0.0
142
0.0
142
0.0
142
0.0
142
1.0
142
0.0
142
0.0
142
0.0
142
0.0
142
1.0
179
     0
144
0.0208333333333333
144
0.0
144
0.0
144
0.0
144
0.0
144
0.0208333333333333
144
0.0
144
0.0
144
0.0
144
0.0
144
1.0
144
0.0
144
0.0
144
0.0
144
0.0
144
1.0
147
0.0208333333333333
147
0.0
147
0.0
147
0.0
147
0.0
147
0.0208333333333333
147
0.0
147
0.0
147
0.0
147
0.0
147
1.0
147
0.0
147
0.0
147
0.0
147
0.0
147
1.0
  0
MLEADERSTYLE
  5
66B
102
{ACAD_REACTORS
330
66A
102
}
330
66A
100
AcDbMLeaderStyle
170
     2
171
     1
172
     0
 90
        2
 40
0.0
 41
0.0
173
     1
 91
-1056964608
340
12
 92
       -2
290
     1
 42
0.09
291
     1
 43
0.36
  3
Standard
 44
0.18
300

342
F
174
     1
178
     6
175
     1
176
     0
 93
-1056964608
 45
0.18
292
     0
297
     0
 46
0.18
 94
-1056964608
 47
1.0
 49
1.0
140
1.0
293
     1
141
0.0
294
     1
177
     0
142
1.0
295
     0
296
     0
143
0.125
1001
ACAD_MLEADERVER
1070
     2
  0
MLINESTYLE
  5
1C
102
{ACAD_REACTORS
330
1B
102
}
330
1B
100
AcDbMlineStyle
  2
STANDARD
 70
     0
  3

 62
   256
 51
90.0
 52
90.0
 71
     2
 49
0.5
 62
   256
  6
BYLAYER
 49
-0.5
 62
   256
  6
BYLAYER
  0
ACDBPLACEHOLDER
  5
622
102
{ACAD_REACTORS
330
621
102
}
330
621
  0
SCALE
  5
659
102
{ACAD_REACTORS
330
658
102
}
330
658
100
AcDbScale
 70
     0
300
1:1
140
1.0
141
1.0
290
     1
  0
SCALE
  5
65A
102
{ACAD_REACTORS
330
658
102
}
330
658
100
AcDbScale
 70
     0
300
1/128" = 1'-0"
140
0.0078125
141
12.0
290
     0
  0
SCALE
  5
65B
102
{ACAD_REACTORS
330
658
102
}
330
658
100
AcDbScale
 70
     0
300
1/64" = 1'-0"
140
0.015625
141
12.0
290
     0
  0
SCALE
  5
65C
102
{ACAD_REACTORS
330
658
102
}
330
658
100
AcDbScale
 70
     0
300
1/32" = 1'-0"
140
0.03125
141
12.0
290
     0
  0
SCALE
  5
65D
102
{ACAD_REACTORS
330
658
102
}
330
658
100
AcDbScale
 70
     0
300
1/16" = 1'-0"
140
0.0625
141
12.0
290
     0
  0
SCALE
  5
65E
102
{ACAD_REACTORS
330
658
102
}
330
658
100
AcDbScale
 70
     0
300
3/32" = 1'-0"
140
0.09375
141
12.0
290
     0
  0
SCALE
  5
65F
102
{ACAD_REACTORS
330
658
102
}
330
658
100
AcDbScale
 70
     0
300
1/8" = 1'-0"
140
0.125
141
12.0
290
     0
  0
SCALE
  5
660
102
{ACAD_REACTORS
330
658
102
}
330
658
100
AcDbScale
 70
     0
300
3/16" = 1'-0"
140
0.1875
141
12.0
290
     0
  0
SCALE
  5
661
102
{ACAD_REACTORS
330
658
102
}
330
658
100
AcDbScale
 70
     0
300
1/4" = 1'-0"
140
0.25
141
12.0
290
     0
  0
SCALE
  5
662
102
{ACAD_REACTORS
330
658
102
}
330
658
100
AcDbScale
 70
     0
300
3/8" = 1'-0"
140
0.375
141
12.0
290
     0
  0
SCALE
  5
663
102
{ACAD_REACTORS
330
658
102
}
330
658
100
AcDbScale
 70
     0
300
1/2" = 1'-0"
140
0.5
141
12.0
290
     0
  0
SCALE
  5
664
102
{ACAD_REACTORS
330
658
102
}
330
658
100
AcDbScale
 70
     0
300
3/4" = 1'-0"
140
0.75
141
12.0
290
     0
  0
SCALE
  5
665
102
{ACAD_REACTORS
330
658
102
}
330
658
100
AcDbScale
 70
     0
300
1" = 1'-0"
140
1.0
141
12.0
290
     0
  0
SCALE
  5
666
102
{ACAD_REACTORS
330
658
102
}
330
658
100
AcDbScale
 70
     0
300
1-1/2" = 1'-0"
140
1.5
141
12.0
290
     0
  0
SCALE
  5
667
102
{ACAD_REACTORS
330
658
102
}
330
658
100
AcDbScale
 70
     0
300
3" = 1'-0"
140
3.0
141
12.0
290
     0
  0
SCALE
  5
668
102
{ACAD_REACTORS
330
658
102
}
330
658
100
AcDbScale
 70
     0
300
6" = 1'-0"
140
6.0
141
12.0
290
     0
  0
SCALE
  5
669
102
{ACAD_REACTORS
330
658
102
}
330
658
100
AcDbScale
 70
     0
300
1'-0" = 1'-0"
140
12.0
141
12.0
290
     0
  0
ACDBSECTIONVIEWSTYLE
  5
66D
102
{ACAD_XDICTIONARY
360
6C7
102
}
102
{ACAD_REACTORS
330
66C
102
}
330
66C
100
AcDbModelDocViewStyle
 70
     0
  3
Imperial24
290
     0
100
AcDbSectionViewStyle
 70
     0
 71
     0
 90
       78
 71
     1
340
F
 40
0.24
340
0
340
0
 40
0.24
300
I, O, Q, S, X, Z
 40
0.48
 90
        3
 40
0.18
 90
        1
 71
     2
340
14
 90
       25
340
14
 90
       50
 40
0.24
 40
0.0
 40
0.24
 71
     3
340
F
 40
0.24
 90
        1
 40
0.75
 90
        1
300
%<\AcVar ViewType \f "%tc1">% %<\AcVar ViewSectionStartId>%-%<\AcVar ViewSectionEndId>%\PSCALE %<\AcVar ViewScale \f "%sn">%
 71
     4
300
ANSI31
 40
1.0
 90
        0
290
     0
290
     0
 90
        6
 40
0.0
 40
1.570796326794896
 40
0.2617993877991494
 40
1.308996938995747
 40
-0.2617993877991494
 40
1.832595714594046
  0
TABLESTYLE
  5
657
102
{ACAD_XDICTIONARY
360
68E
102
}
102
{ACAD_REACTORS
330
656
102
}
330
656
100
AcDbTableStyle
  3
Standard
 70
     0
 71
     0
 40
0.06
 41
0.06
280
     0
281
     0
  7
STANDARD
140
0.18
170
     2
 62
     0
 63
     7
283
     0
274
    -2
284
     1
 64
     0
275
    -2
285
     1
 65
     0
276
    -2
286
     1
 66
     0
277
    -2
287
     1
 67
     0
278
    -2
288
     1
 68
     0
279
    -2
289
     1
 69
     0
  7
STANDARD
140
0.25
170
     5
 62
     0
 63
     7
283
     0
274
    -2
284
     1
 64
     0
275
    -2
285
     1
 65
     0
276
    -2
286
     1
 66
     0
277
    -2
287
     1
 67
     0
278
    -2
288
     1
 68
     0
279
    -2
289
     1
 69
     0
  7
STANDARD
140
0.18
170
     5
 62
     0
 63
     7
283
     0
274
    -2
284
     1
 64
     0
275
    -2
285
     1
 65
     0
276
    -2
286
     1
 66
     0
277
    -2
287
     1
 67
     0
278
    -2
288
     1
 68
     0
279
    -2
289
     1
 69
     0
  0
VISUALSTYLE
  5
642
102
{ACAD_XDICTIONARY
360
69F
102
}
102
{ACAD_REACTORS
330
63C
102
}
330
63C
100
AcDbVisualStyle
  2
2dWireframe
 70
     4
 71
     0
 72
     2
 73
     0
 90
        0
 40
-0.6
 41
-30.0
 62
     5
 63
     7
 74
     1
 91
        4
 64
     7
 65
   257
 75
     1
175
     1
 42
1.0
 92
        0
 66
   257
 43
1.0
 76
     1
 77
     6
 78
     2
 67
     7
 79
     5
170
     0
171
     0
290
     0
174
     0
 93
        1
 44
0.0
173
     0
291
     0
 45
0.0
1001
ACAD
1000
AcDbSavedByObjectVersion
1070
     0
  0
VISUALSTYLE
  5
641
102
{ACAD_XDICTIONARY
360
69D
102
}
102
{ACAD_REACTORS
330
63C
102
}
330
63C
100
AcDbVisualStyle
  2
Basic
 70
     7
 71
     1
 72
     0
 73
     1
 90
        0
 40
-0.6
 41
-30.0
 62
     5
 63
     7
 74
     0
 91
        4
 64
     7
 65
   257
 75
     1
175
     1
 42
1.0
 92
        8
 66
     7
 43
1.0
 76
     1
 77
     6
 78
     2
 67
     7
 79
     5
170
     0
171
     0
290
     0
174
     0
 93
        1
 44
0.0
173
     0
291
     1
 45
0.0
1001
ACAD
1000
AcDbSavedByObjectVersion
1070
     0
  0
VISUALSTYLE
  5
648
102
{ACAD_XDICTIONARY
360
6AB
102
}
102
{ACAD_REACTORS
330
63C
102
}
330
63C
100
AcDbVisualStyle
  2
Brighten
 70
    12
 71
     2
 72
     2
 73
     0
 90
        0
 40
-0.6
 41
-30.0
 62
     5
 63
     7
 74
     1
 91
        4
 64
     7
 65
   257
 75
     1
175
     1
 42
1.0
 92
        8
 66
     7
 43
1.0
 76
     1
 77
     6
 78
     2
 67
     7
 79
     5
170
     0
171
     0
290
     0
174
     0
 93
        1
 44
50.0
173
     0
291
     1
 45
0.0
1001
ACAD
1000
AcDbSavedByObjectVersion
1070
     0
  0
VISUALSTYLE
  5
64C
102
{ACAD_XDICTIONARY
360
6B3
102
}
102
{ACAD_REACTORS
330
63C
102
}
330
63C
100
AcDbVisualStyle
  2
ColorChange
 70
    16
 71
     2
 72
     2
 73
     3
 90
        0
 40
-0.6
 41
-30.0
 62
     5
 63
     8
 74
     1
 91
        4
 64
     7
 65
   257
 75
     1
175
     1
 42
1.0
 92
        8
 66
     8
 43
1.0
 76
     1
 77
     6
 78
     2
 67
     7
 79
     5
170
     0
171
     0
290
     0
174
     0
 93
        1
 44
0.0
173
     0
291
     1
 45
0.0
1001
ACAD
1000
AcDbSavedByObjectVersion
1070
     0
  0
VISUALSTYLE
  5
645
102
{ACAD_XDICTIONARY
360
6A5
102
}
102
{ACAD_REACTORS
330
63C
102
}
330
63C
100
AcDbVisualStyle
  2
Conceptual
 70
     9
 71
     3
 72
     2
 73
     0
 90
        0
 40
-0.6
 41
-30.0
 62
     5
 63
     7
 74
     2
 91
        2
 64
     7
 65
   257
 75
     1
175
     1
 42
179.0
 92
        8
 66
     7
 43
1.0
 76
     1
 77
     6
 78
     2
 67
     7
 79
     3
170
     0
171
     0
290
     0
174
     0
 93
        1
 44
0.0
173
     0
291
     0
 45
0.0
1001
ACAD
1000
AcDbSavedByObjectVersion
1070
     0
  0
VISUALSTYLE
  5
647
102
{ACAD_XDICTIONARY
360
6A9
102
}
102
{ACAD_REACTORS
330
63C
102
}
330
63C
100
AcDbVisualStyle
  2
Dim
 70
    11
 71
     2
 72
     2
 73
     0
 90
        0
 40
-0.6
 41
-30.0
 62
     5
 63
     7
 74
     1
 91
        4
 64
     7
 65
   257
 75
     1
175
     1
 42
1.0
 92
        8
 66
     7
 43
1.0
 76
     1
 77
     6
 78
     2
 67
     7
 79
     5
170
     0
171
     0
290
     0
174
     0
 93
        1
 44
-50.0
173
     0
291
     1
 45
0.0
1001
ACAD
1000
AcDbSavedByObjectVersion
1070
     0
  0
VISUALSTYLE
  5
654
102
{ACAD_XDICTIONARY
360
6C3
102
}
102
{ACAD_REACTORS
330
63C
102
}
330
63C
100
AcDbVisualStyle
  2
EdgeColorOff
 70
    22
 71
     2
 72
     2
 73
     0
 90
        0
 40
-0.6
 41
-30.0
 62
     5
 63
     7
 74
     1
 91
        4
 64
     7
 65
   257
 75
     1
175
     1
 42
1.0
 92
        8
 66
     7
 43
1.0
 76
     1
 77
     6
 78
     2
 67
     7
 79
     5
170
     0
171
     0
290
     0
174
     0
 93
        1
 44
0.0
173
     0
291
     1
 45
0.0
1001
ACAD
1000
AcDbSavedByObjectVersion
1070
     0
  0
VISUALSTYLE
  5
64B
102
{ACAD_XDICTIONARY
360
6B1
102
}
102
{ACAD_REACTORS
330
63C
102
}
330
63C
100
AcDbVisualStyle
  2
Facepattern
 70
    15
 71
     2
 72
     2
 73
     0
 90
        0
 40
-0.6
 41
-30.0
 62
     5
 63
     7
 74
     1
 91
        4
 64
     7
 65
   257
 75
     1
175
     1
 42
1.0
 92
        8
 66
     7
 43
1.0
 76
     1
 77
     6
 78
     2
 67
     7
 79
     5
170
     0
171
     0
290
     0
174
     0
 93
        1
 44
0.0
173
     0
291
     1
 45
0.0
1001
ACAD
1000
AcDbSavedByObjectVersion
1070
     0
  0
VISUALSTYLE
  5
63D
102
{ACAD_XDICTIONARY
360
695
102
}
102
{ACAD_REACTORS
330
63C
102
}
330
63C
100
AcDbVisualStyle
  2
Flat
 70
     0
 71
     2
 72
     1
 73
     1
 90
        2
 40
-0.6
 41
30.0
 62
     5
 63
     7
 74
     0
 91
        0
 64
     7
 65
   257
 75
     1
175
     1
 42
1.0
 92
        8
 66
     7
 43
1.0
 76
     1
 77
     6
 78
     2
 67
     7
 79
     5
170
     0
171
     0
290
     0
174
     0
 93
       13
 44
0.0
173
     0
291
     1
 45
0.0
1001
ACAD
1000
AcDbSavedByObjectVersion
1070
     0
  0
VISUALSTYLE
  5
63E
102
{ACAD_XDICTIONARY
360
697
102
}
102
{ACAD_REACTORS
330
63C
102
}
330
63C
100
AcDbVisualStyle
  2
FlatWithEdges
 70
     1
 71
     2
 72
     1
 73
     1
 90
        2
 40
-0.6
 41
30.0
 62
     5
 63
     7
 74
     1
 91
        0
 64
     7
 65
   257
 75
     1
175
     1
 42
1.0
 92
        0
 66
   257
 43
1.0
 76
     1
 77
     6
 78
     2
 67
     7
 79
     5
170
     0
171
     0
290
     0
174
     0
 93
       13
 44
0.0
173
     0
291
     1
 45
0.0
1001
ACAD
1000
AcDbSavedByObjectVersion
1070
     0
  0
VISUALSTYLE
  5
63F
102
{ACAD_XDICTIONARY
360
699
102
}
102
{ACAD_REACTORS
330
63C
102
}
330
63C
100
AcDbVisualStyle
  2
Gouraud
 70
     2
 71
     2
 72
     2
 73
     1
 90
        2
 40
-0.6
 41
30.0
 62
     5
 63
     7
 74
     0
 91
        0
 64
     7
 65
   257
 75
     1
175
     1
 42
1.0
 92
        0
 66
     7
 43
1.0
 76
     1
 77
     6
 78
     2
 67
     7
 79
     5
170
     0
171
     0
290
     0
174
     0
 93
       13
 44
0.0
173
     0
291
     1
 45
0.0
1001
ACAD
1000
AcDbSavedByObjectVersion
1070
     0
  0
VISUALSTYLE
  5
640
102
{ACAD_XDICTIONARY
360
69B
102
}
102
{ACAD_REACTORS
330
63C
102
}
330
63C
100
AcDbVisualStyle
  2
GouraudWithEdges
 70
     3
 71
     2
 72
     2
 73
     1
 90
        2
 40
-0.6
 41
30.0
 62
     5
 63
     7
 74
     1
 91
        0
 64
     7
 65
   257
 75
     1
175
     1
 42
1.0
 92
        0
 66
   257
 43
1.0
 76
     1
 77
     6
 78
     2
 67
     7
 79
     5
170
     0
171
     0
290
     0
174
     0
 93
       13
 44
0.0
173
     0
291
     1
 45
0.0
1001
ACAD
1000
AcDbSavedByObjectVersion
1070
     0
  0
VISUALSTYLE
  5
644
102
{ACAD_XDICTIONARY
360
6A3
102
}
102
{ACAD_REACTORS
330
63C
102
}
330
63C
100
AcDbVisualStyle
  2
Hidden
 70
     6
 71
     1
 72
     2
 73
     2
 90
        0
 40
-0.6
 41
-30.0
 62
     5
 63
     7
 74
     2
 91
        2
 64
     7
 65
   257
 75
     2
175
     1
 42
40.0
 92
        0
 66
   257
 43
1.0
 76
     1
 77
     6
 78
     2
 67
     7
 79
     3
170
     0
171
     0
290
     0
174
     0
 93
        1
 44
0.0
173
     0
291
     0
 45
0.0
1001
ACAD
1000
AcDbSavedByObjectVersion
1070
     0
  0
VISUALSTYLE
  5
652
102
{ACAD_XDICTIONARY
360
6BF
102
}
102
{ACAD_REACTORS
330
63C
102
}
330
63C
100
AcDbVisualStyle
  2
JitterOff
 70
    20
 71
     2
 72
     2
 73
     0
 90
        0
 40
-0.6
 41
-30.0
 62
     5
 63
     7
 74
     1
 91
        4
 64
     7
 65
   257
 75
     1
175
     1
 42
1.0
 92
       10
 66
     7
 43
1.0
 76
     1
 77
     6
 78
     2
 67
     7
 79
     5
170
     0
171
     0
290
     0
174
     0
 93
        1
 44
0.0
173
     0
291
     1
 45
0.0
1001
ACAD
1000
AcDbSavedByObjectVersion
1070
     0
  0
VISUALSTYLE
  5
64A
102
{ACAD_XDICTIONARY
360
6AF
102
}
102
{ACAD_REACTORS
330
63C
102
}
330
63C
100
AcDbVisualStyle
  2
Linepattern
 70
    14
 71
     2
 72
     2
 73
     0
 90
        0
 40
-0.6
 41
-30.0
 62
     5
 63
     7
 74
     1
 91
        4
 64
     7
 65
   257
 75
     7
175
     7
 42
1.0
 92
        8
 66
     7
 43
1.0
 76
     1
 77
     6
 78
     2
 67
     7
 79
     5
170
     0
171
     0
290
     0
174
     0
 93
        1
 44
0.0
173
     0
291
     1
 45
0.0
1001
ACAD
1000
AcDbSavedByObjectVersion
1070
     0
  0
VISUALSTYLE
  5
653
102
{ACAD_XDICTIONARY
360
6C1
102
}
102
{ACAD_REACTORS
330
63C
102
}
330
63C
100
AcDbVisualStyle
  2
OverhangOff
 70
    21
 71
     2
 72
     2
 73
     0
 90
        0
 40
-0.6
 41
-30.0
 62
     5
 63
     7
 74
     1
 91
        4
 64
     7
 65
   257
 75
     1
175
     1
 42
1.0
 92
        9
 66
     7
 43
1.0
 76
     1
 77
     6
 78
     2
 67
     7
 79
     5
170
     0
171
     0
290
     0
174
     0
 93
        1
 44
0.0
173
     0
291
     1
 45
0.0
1001
ACAD
1000
AcDbSavedByObjectVersion
1070
     0
  0
VISUALSTYLE
  5
646
102
{ACAD_XDICTIONARY
360
6A7
102
}
102
{ACAD_REACTORS
330
63C
102
}
330
63C
100
AcDbVisualStyle
  2
Realistic
 70
     8
 71
     2
 72
     3
 73
     0
 90
        2
 40
-0.6
 41
30.0
 62
     5
 63
     7
 74
     0
 91
        0
 64
     7
 65
   257
 75
     1
175
     1
 42
1.0
 92
        8
 66
   257
 43
1.0
 76
     1
 77
     6
 78
     2
 67
     7
 79
     3
170
     0
171
     0
290
     0
174
     0
 93
       13
 44
0.0
173
     0
291
     0
 45
0.0
1001
ACAD
1000
AcDbSavedByObjectVersion
1070
     0
  0
VISUALSTYLE
  5
651
102
{ACAD_XDICTIONARY
360
6BD
102
}
102
{ACAD_REACTORS
330
63C
102
}
330
63C
100
AcDbVisualStyle
  2
Shaded
 70
    27
 71
     2
 72
     2
 73
     1
 90
        2
 40
-0.6
 41
30.0
 62
     5
 63
     7
 74
     0
 91
        4
 64
     7
 65
   257
 75
     1
175
     1
 42
1.0
 92
        8
 66
   257
 43
1.0
 76
     1
 77
     6
 78
     2
 67
     8
 79
     3
170
     0
171
     0
290
     0
174
     0
 93
        5
 44
0.0
173
     0
291
     0
 45
0.0
1001
ACAD
1000
AcDbSavedByObjectVersion
1070
     0
  0
VISUALSTYLE
  5
650
102
{ACAD_XDICTIONARY
360
6BB
102
}
102
{ACAD_REACTORS
330
63C
102
}
330
63C
100
AcDbVisualStyle
  2
Shaded with edges
 70
    26
 71
     2
 72
     2
 73
     1
 90
        2
 40
-0.6
 41
30.0
 62
     5
 63
     7
 74
     1
 91
       10
 64
     7
 65
   257
 75
     2
175
     1
 42
1.0
 92
        8
 66
   257
 43
1.0
 76
     1
 77
     6
 78
     2
 67
     7
 79
     3
170
     0
171
     0
290
     0
174
     0
 93
        5
 44
0.0
173
     0
291
     0
 45
0.0
1001
ACAD
1000
AcDbSavedByObjectVersion
1070
     0
  0
VISUALSTYLE
  5
64D
102
{ACAD_XDICTIONARY
360
6B5
102
}
102
{ACAD_REACTORS
330
63C
102
}
330
63C
100
AcDbVisualStyle
  2
Shades of Gray
 70
    23
 71
     2
 72
     2
 73
     3
 90
        0
 40
-0.6
 41
-30.0
 62
     5
 63
     7
 74
     2
 91
        2
 64
     7
 65
     7
 75
     1
175
     1
 42
40.0
 92
        8
 66
     7
 43
1.0
 76
     1
 77
     6
 78
     2
 67
     7
 79
     3
170
     0
171
     0
290
     0
174
     0
 93
        1
 44
0.0
173
     0
291
     0
 45
0.0
1001
ACAD
1000
AcDbSavedByObjectVersion
1070
     0
  0
VISUALSTYLE
  5
64E
102
{ACAD_XDICTIONARY
360
6B7
102
}
102
{ACAD_REACTORS
330
63C
102
}
330
63C
100
AcDbVisualStyle
  2
Sketchy
 70
    24
 71
     1
 72
     2
 73
     2
 90
        0
 40
-0.6
 41
-30.0
 62
     5
 63
     7
 74
     2
 91
        2
 64
     7
 65
     7
 75
     1
175
     1
 42
40.0
 92
       11
 66
     7
 43
1.0
 76
     1
 77
     6
 78
     2
 67
     7
 79
     6
170
     0
171
     0
290
     0
174
     0
 93
        1
 44
0.0
173
     0
291
     0
 45
0.0
1001
ACAD
1000
AcDbSavedByObjectVersion
1070
     0
  0
VISUALSTYLE
  5
649
102
{ACAD_XDICTIONARY
360
6AD
102
}
102
{ACAD_REACTORS
330
63C
102
}
330
63C
100
AcDbVisualStyle
  2
Thicken
 70
    13
 71
     2
 72
     2
 73
     0
 90
        0
 40
-0.6
 41
-30.0
 62
     5
 63
     7
 74
     1
 91
        4
 64
     7
 65
   257
 75
     1
175
     1
 42
1.0
 92
       12
 66
     7
 43
1.0
 76
     1
 77
     6
 78
     2
 67
     7
 79
     5
170
     0
171
     0
290
     0
174
     0
 93
        1
 44
0.0
173
     0
291
     1
 45
0.0
1001
ACAD
1000
AcDbSavedByObjectVersion
1070
     0
  0
VISUALSTYLE
  5
643
102
{ACAD_XDICTIONARY
360
6A1
102
}
102
{ACAD_REACTORS
330
63C
102
}
330
63C
100
AcDbVisualStyle
  2
Wireframe
 70
     5
 71
     0
 72
     2
 73
     0
 90
        0
 40
-0.6
 41
-30.0
 62
     5
 63
     7
 74
     1
 91
        4
 64
     7
 65
   257
 75
     1
175
     1
 42
1.0
 92
        0
 66
   257
 43
1.0
 76
     1
 77
     6
 78
     2
 67
     7
 79
     3
170
     0
171
     0
290
     0
174
     0
 93
        1
 44
0.0
173
     0
291
     0
 45
0.0
1001
ACAD
1000
AcDbSavedByObjectVersion
1070
     0
  0
VISUALSTYLE
  5
64F
102
{ACAD_XDICTIONARY
360
6B9
102
}
102
{ACAD_REACTORS
330
63C
102
}
330
63C
100
AcDbVisualStyle
  2
X-Ray
 70
    25
 71
     2
 72
     2
 73
     1
 90
        1
 40
0.5
 41
-30.0
 62
     5
 63
     7
 74
     1
 91
        0
 64
     7
 65
   257
 75
     1
175
     1
 42
1.0
 92
        8
 66
     7
 43
1.0
 76
     1
 77
     6
 78
     2
 67
     7
 79
     3
170
     0
171
     0
290
     0
174
     0
 93
       13
 44
0.0
173
     0
291
     0
 45
0.0
1001
ACAD
1000
AcDbSavedByObjectVersion
1070
     0
  0
DICTIONARYVAR
  5
688
102
{ACAD_REACTORS
330
683
102
}
330
683
100
DictionaryVariables
280
     0
  1
1:1
  0
DICTIONARYVAR
  5
685
102
{ACAD_REACTORS
330
683
102
}
330
683
100
DictionaryVariables
280
     0
  1
STANDARD
  0
DICTIONARYVAR
  5
684
102
{ACAD_REACTORS
330
683
102
}
330
683
100
DictionaryVariables
280
     0
  1
STANDARD
  0
DICTIONARYVAR
  5
686
102
{ACAD_REACTORS
330
683
102
}
330
683
100
DictionaryVariables
280
     0
  1
Imperial24
  0
DICTIONARYVAR
  5
687
102
{ACAD_REACTORS
330
683
102
}
330
683
100
DictionaryVariables
280
     0
  1
Imperial24
  0
DICTIONARYVAR
  5
68B
102
{ACAD_REACTORS
330
683
102
}
330
683
100
DictionaryVariables
280
     0
  1
1
  0
DICTIONARYVAR
  5
68A
102
{ACAD_REACTORS
330
683
102
}
330
683
100
DictionaryVariables
280
     0
  1
0
  0
DICTIONARYVAR
  5
689
102
{ACAD_REACTORS
330
683
102
}
330
683
100
DictionaryVariables
280
     0
  1
127
  0
DICTIONARYVAR
  5
68C
102
{ACAD_REACTORS
330
683
102
}
330
683
100
DictionaryVariables
280
     0
  1
2
  0
DICTIONARY
  5
6C9
330
66F
100
AcDbDictionary
280
     1
281
     1
  3
ACAD_XREC_ROUNDTRIP
360
6CA
  0
DICTIONARY
  5
6CB
330
670
100
AcDbDictionary
280
     1
281
     1
  3
ACAD_XREC_ROUNDTRIP
360
6CC
  0
DICTIONARY
  5
6CD
330
671
100
AcDbDictionary
280
     1
281
     1
  3
ACAD_XREC_ROUNDTRIP
360
6CE
  0
DICTIONARY
  5
62D
330
62C
100
AcDbDictionary
280
     1
281
     1
  3
ACAD_XREC_ROUNDTRIP
360
693
  3
BUMPTILE
360
62F
  3
DIFFUSETILE
360
62E
  3
OPACITYTILE
360
632
  3
REFLECTIONTILE
360
631
  3
REFRACTIONTILE
360
633
  3
SPECULARTILE
360
630
  0
DICTIONARY
  5
625
330
624
100
AcDbDictionary
280
     1
281
     1
  3
ACAD_XREC_ROUNDTRIP
360
692
  3
BUMPTILE
360
627
  3
DIFFUSETILE
360
626
  3
OPACITYTILE
360
62A
  3
REFLECTIONTILE
360
629
  3
REFRACTIONTILE
360
62B
  3
SPECULARTILE
360
628
  0
DICTIONARY
  5
635
330
634
100
AcDbDictionary
280
     1
281
     1
  3
ACAD_XREC_ROUNDTRIP
360
694
  3
BUMPTILE
360
637
  3
DIFFUSETILE
360
636
  3
OPACITYTILE
360
63A
  3
REFLECTIONTILE
360
639
  3
REFRACTIONTILE
360
63B
  3
SPECULARTILE
360
638
  0
DICTIONARY
  5
6C7
330
66D
100
AcDbDictionary
280
     1
281
     1
  3
ACAD_XREC_ROUNDTRIP
360
6C8
  0
DICTIONARY
  5
68E
330
657
100
AcDbDictionary
280
     1
281
     1
  3
ACAD_ROUNDTRIP_2008_TABLESTYLE_CELLSTYLEMAP
360
68F
  3
ACAD_XREC_ROUNDTRIP
360
6C5
  0
DICTIONARY
  5
69F
330
642
100
AcDbDictionary
280
     1
281
     1
  3
ACAD_XREC_ROUNDTRIP
360
6A0
  0
DICTIONARY
  5
69D
330
641
100
AcDbDictionary
280
     1
281
     1
  3
ACAD_XREC_ROUNDTRIP
360
69E
  0
DICTIONARY
  5
6AB
330
648
100
AcDbDictionary
280
     1
281
     1
  3
ACAD_XREC_ROUNDTRIP
360
6AC
  0
DICTIONARY
  5
6B3
330
64C
100
AcDbDictionary
280
     1
281
     1
  3
ACAD_XREC_ROUNDTRIP
360
6B4
  0
DICTIONARY
  5
6A5
330
645
100
AcDbDictionary
280
     1
281
     1
  3
ACAD_XREC_ROUNDTRIP
360
6A6
  0
DICTIONARY
  5
6A9
330
647
100
AcDbDictionary
280
     1
281
     1
  3
ACAD_XREC_ROUNDTRIP
360
6AA
  0
DICTIONARY
  5
6C3
330
654
100
AcDbDictionary
280
     1
281
     1
  3
ACAD_XREC_ROUNDTRIP
360
6C4
  0
DICTIONARY
  5
6B1
330
64B
100
AcDbDictionary
280
     1
281
     1
  3
ACAD_XREC_ROUNDTRIP
360
6B2
  0
DICTIONARY
  5
695
330
63D
100
AcDbDictionary
280
     1
281
     1
  3
ACAD_XREC_ROUNDTRIP
360
696
  0
DICTIONARY
  5
697
330
63E
100
AcDbDictionary
280
     1
281
     1
  3
ACAD_XREC_ROUNDTRIP
360
698
  0
DICTIONARY
  5
699
330
63F
100
AcDbDictionary
280
     1
281
     1
  3
ACAD_XREC_ROUNDTRIP
360
69A
  0
DICTIONARY
  5
69B
330
640
100
AcDbDictionary
280
     1
281
     1
  3
ACAD_XREC_ROUNDTRIP
360
69C
  0
DICTIONARY
  5
6A3
330
644
100
AcDbDictionary
280
     1
281
     1
  3
ACAD_XREC_ROUNDTRIP
360
6A4
  0
DICTIONARY
  5
6BF
330
652
100
AcDbDictionary
280
     1
281
     1
  3
ACAD_XREC_ROUNDTRIP
360
6C0
  0
DICTIONARY
  5
6AF
330
64A
100
AcDbDictionary
280
     1
281
     1
  3
ACAD_XREC_ROUNDTRIP
360
6B0
  0
DICTIONARY
  5
6C1
330
653
100
AcDbDictionary
280
     1
281
     1
  3
ACAD_XREC_ROUNDTRIP
360
6C2
  0
DICTIONARY
  5
6A7
330
646
100
AcDbDictionary
280
     1
281
     1
  3
ACAD_XREC_ROUNDTRIP
360
6A8
  0
DICTIONARY
  5
6BD
330
651
100
AcDbDictionary
280
     1
281
     1
  3
ACAD_XREC_ROUNDTRIP
360
6BE
  0
DICTIONARY
  5
6BB
330
650
100
AcDbDictionary
280
     1
281
     1
  3
ACAD_XREC_ROUNDTRIP
360
6BC
  0
DICTIONARY
  5
6B5
330
64D
100
AcDbDictionary
280
     1
281
     1
  3
ACAD_XREC_ROUNDTRIP
360
6B6
  0
DICTIONARY
  5
6B7
330
64E
100
AcDbDictionary
280
     1
281
     1
  3
ACAD_XREC_ROUNDTRIP
360
6B8
  0
DICTIONARY
  5
6AD
330
649
100
AcDbDictionary
280
     1
281
     1
  3
ACAD_XREC_ROUNDTRIP
360
6AE
  0
DICTIONARY
  5
6A1
330
643
100
AcDbDictionary
280
     1
281
     1
  3
ACAD_XREC_ROUNDTRIP
360
6A2
  0
DICTIONARY
  5
6B9
330
64F
100
AcDbDictionary
280
     1
281
     1
  3
ACAD_XREC_ROUNDTRIP
360
6BA
  0
XRECORD
  5
6CA
102
{ACAD_REACTORS
330
6C9
102
}
330
6C9
100
AcDbXrecord
280
     1
102
DISPLAYNAME
  1
Imperial24
102
FLAGS
 90
        0
  0
XRECORD
  5
6CC
102
{ACAD_REACTORS
330
6CB
102
}
330
6CB
100
AcDbXrecord
280
     1
102
SHADEPLOT
 70
     0
102
SHADEPLOTRESLEVEL
 70
     2
102
SHADEPLOTCUSTOMDPI
 70
   300
  0
XRECORD
  5
6CE
102
{ACAD_REACTORS
330
6CD
102
}
330
6CD
100
AcDbXrecord
280
     1
102
SHADEPLOT
 70
     0
102
SHADEPLOTRESLEVEL
 70
     2
102
SHADEPLOTCUSTOMDPI
 70
   300
  0
XRECORD
  5
693
102
{ACAD_REACTORS
330
62D
102
}
330
62D
100
AcDbXrecord
280
     1
102
MATERIAL
148
0.0
149
0.0
149
0.0
 93
        0
 94
      127
282
     0
 72
     0
 77
     0
171
     0
175
     0
179
     0
273
     0
  0
XRECORD
  5
62F
102
{ACAD_REACTORS
330
62D
102
}
330
62D
100
AcDbXrecord
280
     1
270
     1
271
     1
  0
XRECORD
  5
62E
102
{ACAD_REACTORS
330
62D
102
}
330
62D
100
AcDbXrecord
280
     1
270
     1
271
     1
  0
XRECORD
  5
632
102
{ACAD_REACTORS
330
62D
102
}
330
62D
100
AcDbXrecord
280
     1
270
     1
271
     1
  0
XRECORD
  5
631
102
{ACAD_REACTORS
330
62D
102
}
330
62D
100
AcDbXrecord
280
     1
270
     1
271
     1
  0
XRECORD
  5
633
102
{ACAD_REACTORS
330
62D
102
}
330
62D
100
AcDbXrecord
280
     1
270
     1
271
     1
  0
XRECORD
  5
630
102
{ACAD_REACTORS
330
62D
102
}
330
62D
100
AcDbXrecord
280
     1
270
     1
271
     1
  0
XRECORD
  5
692
102
{ACAD_REACTORS
330
625
102
}
330
625
100
AcDbXrecord
280
     1
102
MATERIAL
148
0.0
149
0.0
149
0.0
 93
        0
 94
      127
282
     0
 72
     0
 77
     0
171
     0
175
     0
179
     0
273
     0
  0
XRECORD
  5
627
102
{ACAD_REACTORS
330
625
102
}
330
625
100
AcDbXrecord
280
     1
270
     1
271
     1
  0
XRECORD
  5
626
102
{ACAD_REACTORS
330
625
102
}
330
625
100
AcDbXrecord
280
     1
270
     1
271
     1
  0
XRECORD
  5
62A
102
{ACAD_REACTORS
330
625
102
}
330
625
100
AcDbXrecord
280
     1
270
     1
271
     1
  0
XRECORD
  5
629
102
{ACAD_REACTORS
330
625
102
}
330
625
100
AcDbXrecord
280
     1
270
     1
271
     1
  0
XRECORD
  5
62B
102
{ACAD_REACTORS
330
625
102
}
330
625
100
AcDbXrecord
280
     1
270
     1
271
     1
  0
XRECORD
  5
628
102
{ACAD_REACTORS
330
625
102
}
330
625
100
AcDbXrecord
280
     1
270
     1
271
     1
  0
XRECORD
  5
694
102
{ACAD_REACTORS
330
635
102
}
330
635
100
AcDbXrecord
280
     1
102
MATERIAL
148
0.0
149
0.0
149
0.0
 93
        0
 94
      127
282
     0
 72
     0
 77
     0
171
     0
175
     0
179
     0
273
     0
  0
XRECORD
  5
637
102
{ACAD_REACTORS
330
635
102
}
330
635
100
AcDbXrecord
280
     1
270
     1
271
     1
  0
XRECORD
  5
636
102
{ACAD_REACTORS
330
635
102
}
330
635
100
AcDbXrecord
280
     1
270
     1
271
     1
  0
XRECORD
  5
63A
102
{ACAD_REACTORS
330
635
102
}
330
635
100
AcDbXrecord
280
     1
270
     1
271
     1
  0
XRECORD
  5
639
102
{ACAD_REACTORS
330
635
102
}
330
635
100
AcDbXrecord
280
     1
270
     1
271
     1
  0
XRECORD
  5
63B
102
{ACAD_REACTORS
330
635
102
}
330
635
100
AcDbXrecord
280
     1
270
     1
271
     1
  0
XRECORD
  5
638
102
{ACAD_REACTORS
330
635
102
}
330
635
100
AcDbXrecord
280
     1
270
     1
271
     1
  0
XRECORD
  5
6C8
102
{ACAD_REACTORS
330
6C7
102
}
330
6C7
100
AcDbXrecord
280
     1
102
DISPLAYNAME
  1
Imperial24
102
FLAGS
 90
        0
  0
CELLSTYLEMAP
  5
68F
102
{ACAD_REACTORS
330
68E
102
}
330
68E
100
AcDbCellStyleMap
 90
        3
300
CELLSTYLE
  1
TABLEFORMAT_BEGIN
 90
        5
170
     1
 91
        0
 92
    32768
 62
   257
 93
        1
300
CONTENTFORMAT
  1
CONTENTFORMAT_BEGIN
 90
        0
 91
        0
 92
      512
 93
        0
300

 40
0.0
140
1.0
 94
        5
 62
     0
340
F
144
0.25
309
CONTENTFORMAT_END
171
     0
 94
        0
309
TABLEFORMAT_END
  1
CELLSTYLE_BEGIN
 90
        1
 91
        1
300
_TITLE
309
CELLSTYLE_END
300
CELLSTYLE
  1
TABLEFORMAT_BEGIN
 90
        5
170
     1
 91
        0
 92
        0
 62
   257
 93
        1
300
CONTENTFORMAT
  1
CONTENTFORMAT_BEGIN
 90
        0
 91
        0
 92
      512
 93
        0
300

 40
0.0
140
1.0
 94
        5
 62
     0
340
F
144
0.18
309
CONTENTFORMAT_END
171
     0
 94
        0
309
TABLEFORMAT_END
  1
CELLSTYLE_BEGIN
 90
        2
 91
        1
300
_HEADER
309
CELLSTYLE_END
300
CELLSTYLE
  1
TABLEFORMAT_BEGIN
 90
        5
170
     1
 91
        0
 92
        0
 62
   257
 93
        1
300
CONTENTFORMAT
  1
CONTENTFORMAT_BEGIN
 90
        0
 91
        0
 92
      512
 93
        0
300

 40
0.0
140
1.0
 94
        2
 62
     0
340
F
144
0.18
309
CONTENTFORMAT_END
171
     0
 94
        0
309
TABLEFORMAT_END
  1
CELLSTYLE_BEGIN
 90
        3
 91
        2
300
_DATA
309
CELLSTYLE_END
  0
XRECORD
  5
6C5
102
{ACAD_REACTORS
330
68E
102
}
330
68E
100
AcDbXrecord
280
     1
102
ACAD_ROUNDTRIP_PRE2007_TABLESTYLE
 90
      512
 91
        0
  1

 92
      512
 93
        0
  2

 94
      512
 95
        0
  3

  0
XRECORD
  5
6A0
102
{ACAD_REACTORS
330
69F
102
}
330
69F
100
AcDbXrecord
280
     1
102
RTVSPost2010Prop28
280
     1
102
RTVSPost2010PropOp28
 70
     1
102
RTVSPost2010Prop29
280
     1
102
RTVSPost2010PropOp29
 70
     1
102
RTVSPost2010Prop30
280
     0
102
RTVSPost2010PropOp30
 70
     1
102
RTVSPost2010Prop31
280
     0
102
RTVSPost2010PropOp31
 70
     1
102
RTVSPost2010Prop32
280
     0
102
RTVSPost2010PropOp32
 70
     1
102
RTVSPost2010Prop33
280
     0
102
RTVSPost2010PropOp33
 70
     1
102
RTVSPost2010Prop34
280
     0
102
RTVSPost2010PropOp34
 70
     1
102
RTVSPost2010Prop35
280
     0
102
RTVSPost2010PropOp35
 70
     1
102
RTVSPost2010Prop36
280
     0
102
RTVSPost2010PropOp36
 70
     1
102
RTVSPost2010Prop37
 90
       50
102
RTVSPost2010PropOp37
 70
     1
102
RTVSPost2010Prop38
140
0.0
102
RTVSPost2010PropOp38
 70
     1
102
RTVSPost2010Prop39
140
1.0
102
RTVSPost2010PropOp39
 70
     1
102
RTVSPost2010Prop40
 90
        0
102
RTVSPost2010PropOp40
 70
     1
102
RTVSPost2010Prop41ColorIndex
 90
       18
102
RTVSPost2010Prop41ColorRGB
 90
        0
102
RTVSPost2010PropOp41
 70
     1
102
RTVSPost2010Prop42
 90
       50
102
RTVSPost2010PropOp42
 70
     1
102
RTVSPost2010Prop43
 90
        3
102
RTVSPost2010PropOp43
 70
     1
102
RTVSPost2010Prop44ColorIndex
 90
        5
102
RTVSPost2010Prop44ColorRGB
 90
      255
102
RTVSPost2010PropOp44
 70
     1
102
RTVSPost2010Prop45
280
     0
102
RTVSPost2010PropOp45
 70
     1
102
RTVSPost2010Prop46
 90
       50
102
RTVSPost2010PropOp46
 70
     1
102
RTVSPost2010Prop47
 90
       50
102
RTVSPost2010PropOp47
 70
     1
102
RTVSPost2010Prop48
 90
       50
102
RTVSPost2010PropOp48
 70
     1
102
RTVSPost2010Prop49
280
     0
102
RTVSPost2010PropOp49
 70
     1
102
RTVSPost2010Prop50
 90
       50
102
RTVSPost2010PropOp50
 70
     1
102
RTVSPost2010Prop51ColorIndex
 90
      256
102
RTVSPost2010Prop51ColorRGB
 90
-16777216
102
RTVSPost2010PropOp51
 70
     0
102
RTVSPost2010Prop52
140
1.0
102
RTVSPost2010PropOp52
 70
     0
102
RTVSPost2010Prop53
 90
        2
102
RTVSPost2010PropOp53
 70
     1
102
RTVSPost2010Prop54
  1
strokes_ogs.tif
102
RTVSPost2010PropOp54
 70
     1
102
RTVSPost2010Prop55
280
     0
102
RTVSPost2010PropOp55
 70
     1
102
RTVSPost2010Prop56
140
1.0
102
RTVSPost2010PropOp56
 70
     1
102
RTVSPost2010Prop57
140
1.0
102
RTVSPost2010PropOp57
 70
     1
102
RTVSPropertyOp0
 70
     1
102
RTVSPropertyOp1
 70
     1
102
RTVSPropertyOp2
 70
     1
102
RTVSPropertyOp3
 70
     1
102
RTVSPropertyOp4
 70
     1
102
RTVSPropertyOp5
 70
     1
102
RTVSPropertyOp6
 70
     1
102
RTVSPropertyOp7
 70
     1
102
RTVSPropertyOp8
 70
     1
102
RTVSPropertyOp9
 70
     1
102
RTVSPropertyOp10
 70
     1
102
RTVSPropertyOp11
 70
     1
102
RTVSPropertyOp12
 70
     1
102
RTVSPropertyOp13
 70
     1
102
RTVSPropertyOp14
 70
     1
102
RTVSPropertyOp15
 70
     1
102
RTVSPropertyOp16
 70
     1
102
RTVSPropertyOp17
 70
     1
102
RTVSPropertyOp18
 70
     1
102
RTVSPropertyOp19
 70
     1
102
RTVSPropertyOp20
 70
     1
102
RTVSPropertyOp21
 70
     1
102
RTVSPropertyOp22
 70
     1
102
RTVSPropertyOp23
 70
     1
102
RTVSPropertyOp24
 70
     1
102
RTVSPropertyOp25
 70
     1
102
RTVSPropertyOp26
 70
     1
102
RTVSPropertyOp27
 70
     1
102
RTVSPropertyOp28
 70
     1
102
RTVSPropertyOp29
 70
     1
102
RTVSPropertyOp30
 70
     1
102
RTVSPropertyOp31
 70
     1
102
RTVSPropertyOp32
 70
     1
102
RTVSPropertyOp33
 70
     1
102
RTVSPropertyOp34
 70
     1
102
RTVSPropertyOp35
 70
     1
102
RTVSPropertyOp36
 70
     1
102
RTVSPropertyOp37
 70
     1
102
RTVSPropertyOp38
 70
     1
102
RTVSPropertyOp39
 70
     1
102
RTVSPropertyOp40
 70
     1
102
RTVSPropertyOp41
 70
     1
102
RTVSPropertyOp42
 70
     1
102
RTVSPropertyOp43
 70
     1
102
RTVSPropertyOp44
 70
     1
102
RTVSPropertyOp45
 70
     1
102
RTVSPropertyOp46
 70
     1
102
RTVSPropertyOp47
 70
     1
102
RTVSPropertyOp48
 70
     1
102
RTVSPropertyOp49
 70
     1
102
RTVSPropertyOp50
 70
     1
102
RTVSPropertyOp51
 70
     0
102
RTVSPropertyOp52
 70
     0
102
RTVSPropertyOp53
 70
     1
102
RTVSPropertyOp54
 70
     1
102
RTVSPropertyOp55
 70
     1
102
RTVSPropertyOp56
 70
     1
102
RTVSPropertyOp57
 70
     1
102
RTVSPropertyOp58
 70
     1
102
RTVSPropertyOp59
 70
     1
102
RTVSPropertyOp60
 70
     1
102
RTVSPropertyOp61
 70
     1
102
RTVSPropertyOp62
 70
     1
  0
XRECORD
  5
69E
102
{ACAD_REACTORS
330
69D
102
}
330
69D
100
AcDbXrecord
280
     1
102
RTVSPost2010Prop28
280
     0
102
RTVSPost2010PropOp28
 70
     1
102
RTVSPost2010Prop29
280
     1
102
RTVSPost2010PropOp29
 70
     1
102
RTVSPost2010Prop30
280
     1
102
RTVSPost2010PropOp30
 70
     1
102
RTVSPost2010Prop31
280
     0
102
RTVSPost2010PropOp31
 70
     1
102
RTVSPost2010Prop32
280
     0
102
RTVSPost2010PropOp32
 70
     1
102
RTVSPost2010Prop33
280
     0
102
RTVSPost2010PropOp33
 70
     1
102
RTVSPost2010Prop34
280
     0
102
RTVSPost2010PropOp34
 70
     1
102
RTVSPost2010Prop35
280
     0
102
RTVSPost2010PropOp35
 70
     1
102
RTVSPost2010Prop36
280
     0
102
RTVSPost2010PropOp36
 70
     1
102
RTVSPost2010Prop37
 90
       50
102
RTVSPost2010PropOp37
 70
     1
102
RTVSPost2010Prop38
140
0.0
102
RTVSPost2010PropOp38
 70
     1
102
RTVSPost2010Prop39
140
1.0
102
RTVSPost2010PropOp39
 70
     1
102
RTVSPost2010Prop40
 90
        0
102
RTVSPost2010PropOp40
 70
     1
102
RTVSPost2010Prop41ColorIndex
 90
       18
102
RTVSPost2010Prop41ColorRGB
 90
        0
102
RTVSPost2010PropOp41
 70
     1
102
RTVSPost2010Prop42
 90
       50
102
RTVSPost2010PropOp42
 70
     1
102
RTVSPost2010Prop43
 90
        3
102
RTVSPost2010PropOp43
 70
     1
102
RTVSPost2010Prop44ColorIndex
 90
        5
102
RTVSPost2010Prop44ColorRGB
 90
      255
102
RTVSPost2010PropOp44
 70
     1
102
RTVSPost2010Prop45
280
     0
102
RTVSPost2010PropOp45
 70
     1
102
RTVSPost2010Prop46
 90
       50
102
RTVSPost2010PropOp46
 70
     1
102
RTVSPost2010Prop47
 90
       50
102
RTVSPost2010PropOp47
 70
     1
102
RTVSPost2010Prop48
 90
       50
102
RTVSPost2010PropOp48
 70
     1
102
RTVSPost2010Prop49
280
     0
102
RTVSPost2010PropOp49
 70
     1
102
RTVSPost2010Prop50
 90
       50
102
RTVSPost2010PropOp50
 70
     1
102
RTVSPost2010Prop51ColorIndex
 90
      256
102
RTVSPost2010Prop51ColorRGB
 90
-16777216
102
RTVSPost2010PropOp51
 70
     0
102
RTVSPost2010Prop52
140
1.0
102
RTVSPost2010PropOp52
 70
     0
102
RTVSPost2010Prop53
 90
        2
102
RTVSPost2010PropOp53
 70
     1
102
RTVSPost2010Prop54
  1
strokes_ogs.tif
102
RTVSPost2010PropOp54
 70
     1
102
RTVSPost2010Prop55
280
     0
102
RTVSPost2010PropOp55
 70
     1
102
RTVSPost2010Prop56
140
1.0
102
RTVSPost2010PropOp56
 70
     1
102
RTVSPost2010Prop57
140
1.0
102
RTVSPost2010PropOp57
 70
     1
102
RTVSPropertyOp0
 70
     1
102
RTVSPropertyOp1
 70
     1
102
RTVSPropertyOp2
 70
     1
102
RTVSPropertyOp3
 70
     1
102
RTVSPropertyOp4
 70
     1
102
RTVSPropertyOp5
 70
     1
102
RTVSPropertyOp6
 70
     1
102
RTVSPropertyOp7
 70
     1
102
RTVSPropertyOp8
 70
     1
102
RTVSPropertyOp9
 70
     1
102
RTVSPropertyOp10
 70
     1
102
RTVSPropertyOp11
 70
     1
102
RTVSPropertyOp12
 70
     1
102
RTVSPropertyOp13
 70
     1
102
RTVSPropertyOp14
 70
     1
102
RTVSPropertyOp15
 70
     1
102
RTVSPropertyOp16
 70
     1
102
RTVSPropertyOp17
 70
     1
102
RTVSPropertyOp18
 70
     1
102
RTVSPropertyOp19
 70
     1
102
RTVSPropertyOp20
 70
     1
102
RTVSPropertyOp21
 70
     1
102
RTVSPropertyOp22
 70
     1
102
RTVSPropertyOp23
 70
     1
102
RTVSPropertyOp24
 70
     1
102
RTVSPropertyOp25
 70
     1
102
RTVSPropertyOp26
 70
     1
102
RTVSPropertyOp27
 70
     1
102
RTVSPropertyOp28
 70
     1
102
RTVSPropertyOp29
 70
     1
102
RTVSPropertyOp30
 70
     1
102
RTVSPropertyOp31
 70
     1
102
RTVSPropertyOp32
 70
     1
102
RTVSPropertyOp33
 70
     1
102
RTVSPropertyOp34
 70
     1
102
RTVSPropertyOp35
 70
     1
102
RTVSPropertyOp36
 70
     1
102
RTVSPropertyOp37
 70
     1
102
RTVSPropertyOp38
 70
     1
102
RTVSPropertyOp39
 70
     1
102
RTVSPropertyOp40
 70
     1
102
RTVSPropertyOp41
 70
     1
102
RTVSPropertyOp42
 70
     1
102
RTVSPropertyOp43
 70
     1
102
RTVSPropertyOp44
 70
     1
102
RTVSPropertyOp45
 70
     1
102
RTVSPropertyOp46
 70
     1
102
RTVSPropertyOp47
 70
     1
102
RTVSPropertyOp48
 70
     1
102
RTVSPropertyOp49
 70
     1
102
RTVSPropertyOp50
 70
     1
102
RTVSPropertyOp51
 70
     0
102
RTVSPropertyOp52
 70
     0
102
RTVSPropertyOp53
 70
     1
102
RTVSPropertyOp54
 70
     1
102
RTVSPropertyOp55
 70
     1
102
RTVSPropertyOp56
 70
     1
102
RTVSPropertyOp57
 70
     1
102
RTVSPropertyOp58
 70
     1
102
RTVSPropertyOp59
 70
     1
102
RTVSPropertyOp60
 70
     1
102
RTVSPropertyOp61
 70
     1
102
RTVSPropertyOp62
 70
     1
  0
XRECORD
  5
6AC
102
{ACAD_REACTORS
330
6AB
102
}
330
6AB
100
AcDbXrecord
280
     1
102
RTVSPost2010Prop28
280
     0
102
RTVSPost2010PropOp28
 70
     1
102
RTVSPost2010Prop29
280
     1
102
RTVSPost2010PropOp29
 70
     1
102
RTVSPost2010Prop30
280
     1
102
RTVSPost2010PropOp30
 70
     1
102
RTVSPost2010Prop31
280
     0
102
RTVSPost2010PropOp31
 70
     1
102
RTVSPost2010Prop32
280
     0
102
RTVSPost2010PropOp32
 70
     1
102
RTVSPost2010Prop33
280
     0
102
RTVSPost2010PropOp33
 70
     1
102
RTVSPost2010Prop34
280
     0
102
RTVSPost2010PropOp34
 70
     1
102
RTVSPost2010Prop35
280
     0
102
RTVSPost2010PropOp35
 70
     1
102
RTVSPost2010Prop36
280
     0
102
RTVSPost2010PropOp36
 70
     1
102
RTVSPost2010Prop37
 90
       50
102
RTVSPost2010PropOp37
 70
     1
102
RTVSPost2010Prop38
140
0.0
102
RTVSPost2010PropOp38
 70
     1
102
RTVSPost2010Prop39
140
1.0
102
RTVSPost2010PropOp39
 70
     1
102
RTVSPost2010Prop40
 90
        0
102
RTVSPost2010PropOp40
 70
     1
102
RTVSPost2010Prop41ColorIndex
 90
       18
102
RTVSPost2010Prop41ColorRGB
 90
        0
102
RTVSPost2010PropOp41
 70
     1
102
RTVSPost2010Prop42
 90
       50
102
RTVSPost2010PropOp42
 70
     1
102
RTVSPost2010Prop43
 90
        3
102
RTVSPost2010PropOp43
 70
     1
102
RTVSPost2010Prop44ColorIndex
 90
        5
102
RTVSPost2010Prop44ColorRGB
 90
      255
102
RTVSPost2010PropOp44
 70
     1
102
RTVSPost2010Prop45
280
     0
102
RTVSPost2010PropOp45
 70
     1
102
RTVSPost2010Prop46
 90
       50
102
RTVSPost2010PropOp46
 70
     1
102
RTVSPost2010Prop47
 90
       50
102
RTVSPost2010PropOp47
 70
     1
102
RTVSPost2010Prop48
 90
       50
102
RTVSPost2010PropOp48
 70
     1
102
RTVSPost2010Prop49
280
     0
102
RTVSPost2010PropOp49
 70
     1
102
RTVSPost2010Prop50
 90
       50
102
RTVSPost2010PropOp50
 70
     1
102
RTVSPost2010Prop51ColorIndex
 90
      256
102
RTVSPost2010Prop51ColorRGB
 90
-16777216
102
RTVSPost2010PropOp51
 70
     0
102
RTVSPost2010Prop52
140
1.0
102
RTVSPost2010PropOp52
 70
     0
102
RTVSPost2010Prop53
 90
        2
102
RTVSPost2010PropOp53
 70
     1
102
RTVSPost2010Prop54
  1
strokes_ogs.tif
102
RTVSPost2010PropOp54
 70
     1
102
RTVSPost2010Prop55
280
     0
102
RTVSPost2010PropOp55
 70
     1
102
RTVSPost2010Prop56
140
1.0
102
RTVSPost2010PropOp56
 70
     1
102
RTVSPost2010Prop57
140
1.0
102
RTVSPost2010PropOp57
 70
     1
102
RTVSPropertyOp0
 70
     1
102
RTVSPropertyOp1
 70
     1
102
RTVSPropertyOp2
 70
     1
102
RTVSPropertyOp3
 70
     1
102
RTVSPropertyOp4
 70
     1
102
RTVSPropertyOp5
 70
     1
102
RTVSPropertyOp6
 70
     1
102
RTVSPropertyOp7
 70
     1
102
RTVSPropertyOp8
 70
     1
102
RTVSPropertyOp9
 70
     1
102
RTVSPropertyOp10
 70
     1
102
RTVSPropertyOp11
 70
     1
102
RTVSPropertyOp12
 70
     1
102
RTVSPropertyOp13
 70
     1
102
RTVSPropertyOp14
 70
     1
102
RTVSPropertyOp15
 70
     1
102
RTVSPropertyOp16
 70
     1
102
RTVSPropertyOp17
 70
     1
102
RTVSPropertyOp18
 70
     1
102
RTVSPropertyOp19
 70
     1
102
RTVSPropertyOp20
 70
     1
102
RTVSPropertyOp21
 70
     1
102
RTVSPropertyOp22
 70
     1
102
RTVSPropertyOp23
 70
     1
102
RTVSPropertyOp24
 70
     1
102
RTVSPropertyOp25
 70
     1
102
RTVSPropertyOp26
 70
     1
102
RTVSPropertyOp27
 70
     1
102
RTVSPropertyOp28
 70
     1
102
RTVSPropertyOp29
 70
     1
102
RTVSPropertyOp30
 70
     1
102
RTVSPropertyOp31
 70
     1
102
RTVSPropertyOp32
 70
     1
102
RTVSPropertyOp33
 70
     1
102
RTVSPropertyOp34
 70
     1
102
RTVSPropertyOp35
 70
     1
102
RTVSPropertyOp36
 70
     1
102
RTVSPropertyOp37
 70
     1
102
RTVSPropertyOp38
 70
     1
102
RTVSPropertyOp39
 70
     1
102
RTVSPropertyOp40
 70
     1
102
RTVSPropertyOp41
 70
     1
102
RTVSPropertyOp42
 70
     1
102
RTVSPropertyOp43
 70
     1
102
RTVSPropertyOp44
 70
     1
102
RTVSPropertyOp45
 70
     1
102
RTVSPropertyOp46
 70
     1
102
RTVSPropertyOp47
 70
     1
102
RTVSPropertyOp48
 70
     1
102
RTVSPropertyOp49
 70
     1
102
RTVSPropertyOp50
 70
     1
102
RTVSPropertyOp51
 70
     0
102
RTVSPropertyOp52
 70
     0
102
RTVSPropertyOp53
 70
     1
102
RTVSPropertyOp54
 70
     1
102
RTVSPropertyOp55
 70
     1
102
RTVSPropertyOp56
 70
     1
102
RTVSPropertyOp57
 70
     1
102
RTVSPropertyOp58
 70
     1
102
RTVSPropertyOp59
 70
     1
102
RTVSPropertyOp60
 70
     1
102
RTVSPropertyOp61
 70
     1
102
RTVSPropertyOp62
 70
     1
  0
XRECORD
  5
6B4
102
{ACAD_REACTORS
330
6B3
102
}
330
6B3
100
AcDbXrecord
280
     1
102
RTVSPost2010Prop28
280
     0
102
RTVSPost2010PropOp28
 70
     1
102
RTVSPost2010Prop29
280
     1
102
RTVSPost2010PropOp29
 70
     1
102
RTVSPost2010Prop30
280
     1
102
RTVSPost2010PropOp30
 70
     1
102
RTVSPost2010Prop31
280
     0
102
RTVSPost2010PropOp31
 70
     1
102
RTVSPost2010Prop32
280
     0
102
RTVSPost2010PropOp32
 70
     1
102
RTVSPost2010Prop33
280
     0
102
RTVSPost2010PropOp33
 70
     1
102
RTVSPost2010Prop34
280
     0
102
RTVSPost2010PropOp34
 70
     1
102
RTVSPost2010Prop35
280
     0
102
RTVSPost2010PropOp35
 70
     1
102
RTVSPost2010Prop36
280
     0
102
RTVSPost2010PropOp36
 70
     1
102
RTVSPost2010Prop37
 90
       50
102
RTVSPost2010PropOp37
 70
     1
102
RTVSPost2010Prop38
140
0.0
102
RTVSPost2010PropOp38
 70
     1
102
RTVSPost2010Prop39
140
1.0
102
RTVSPost2010PropOp39
 70
     1
102
RTVSPost2010Prop40
 90
        0
102
RTVSPost2010PropOp40
 70
     1
102
RTVSPost2010Prop41ColorIndex
 90
       18
102
RTVSPost2010Prop41ColorRGB
 90
        0
102
RTVSPost2010PropOp41
 70
     1
102
RTVSPost2010Prop42
 90
       50
102
RTVSPost2010PropOp42
 70
     1
102
RTVSPost2010Prop43
 90
        3
102
RTVSPost2010PropOp43
 70
     1
102
RTVSPost2010Prop44ColorIndex
 90
        5
102
RTVSPost2010Prop44ColorRGB
 90
      255
102
RTVSPost2010PropOp44
 70
     1
102
RTVSPost2010Prop45
280
     0
102
RTVSPost2010PropOp45
 70
     1
102
RTVSPost2010Prop46
 90
       50
102
RTVSPost2010PropOp46
 70
     1
102
RTVSPost2010Prop47
 90
       50
102
RTVSPost2010PropOp47
 70
     1
102
RTVSPost2010Prop48
 90
       50
102
RTVSPost2010PropOp48
 70
     1
102
RTVSPost2010Prop49
280
     0
102
RTVSPost2010PropOp49
 70
     1
102
RTVSPost2010Prop50
 90
       50
102
RTVSPost2010PropOp50
 70
     1
102
RTVSPost2010Prop51ColorIndex
 90
      256
102
RTVSPost2010Prop51ColorRGB
 90
-16777216
102
RTVSPost2010PropOp51
 70
     0
102
RTVSPost2010Prop52
140
1.0
102
RTVSPost2010PropOp52
 70
     0
102
RTVSPost2010Prop53
 90
        2
102
RTVSPost2010PropOp53
 70
     1
102
RTVSPost2010Prop54
  1
strokes_ogs.tif
102
RTVSPost2010PropOp54
 70
     1
102
RTVSPost2010Prop55
280
     0
102
RTVSPost2010PropOp55
 70
     1
102
RTVSPost2010Prop56
140
1.0
102
RTVSPost2010PropOp56
 70
     1
102
RTVSPost2010Prop57
140
1.0
102
RTVSPost2010PropOp57
 70
     1
102
RTVSPropertyOp0
 70
     1
102
RTVSPropertyOp1
 70
     1
102
RTVSPropertyOp2
 70
     1
102
RTVSPropertyOp3
 70
     1
102
RTVSPropertyOp4
 70
     1
102
RTVSPropertyOp5
 70
     1
102
RTVSPropertyOp6
 70
     1
102
RTVSPropertyOp7
 70
     1
102
RTVSPropertyOp8
 70
     1
102
RTVSPropertyOp9
 70
     1
102
RTVSPropertyOp10
 70
     1
102
RTVSPropertyOp11
 70
     1
102
RTVSPropertyOp12
 70
     1
102
RTVSPropertyOp13
 70
     1
102
RTVSPropertyOp14
 70
     1
102
RTVSPropertyOp15
 70
     1
102
RTVSPropertyOp16
 70
     1
102
RTVSPropertyOp17
 70
     1
102
RTVSPropertyOp18
 70
     1
102
RTVSPropertyOp19
 70
     1
102
RTVSPropertyOp20
 70
     1
102
RTVSPropertyOp21
 70
     1
102
RTVSPropertyOp22
 70
     1
102
RTVSPropertyOp23
 70
     1
102
RTVSPropertyOp24
 70
     1
102
RTVSPropertyOp25
 70
     1
102
RTVSPropertyOp26
 70
     1
102
RTVSPropertyOp27
 70
     1
102
RTVSPropertyOp28
 70
     1
102
RTVSPropertyOp29
 70
     1
102
RTVSPropertyOp30
 70
     1
102
RTVSPropertyOp31
 70
     1
102
RTVSPropertyOp32
 70
     1
102
RTVSPropertyOp33
 70
     1
102
RTVSPropertyOp34
 70
     1
102
RTVSPropertyOp35
 70
     1
102
RTVSPropertyOp36
 70
     1
102
RTVSPropertyOp37
 70
     1
102
RTVSPropertyOp38
 70
     1
102
RTVSPropertyOp39
 70
     1
102
RTVSPropertyOp40
 70
     1
102
RTVSPropertyOp41
 70
     1
102
RTVSPropertyOp42
 70
     1
102
RTVSPropertyOp43
 70
     1
102
RTVSPropertyOp44
 70
     1
102
RTVSPropertyOp45
 70
     1
102
RTVSPropertyOp46
 70
     1
102
RTVSPropertyOp47
 70
     1
102
RTVSPropertyOp48
 70
     1
102
RTVSPropertyOp49
 70
     1
102
RTVSPropertyOp50
 70
     1
102
RTVSPropertyOp51
 70
     0
102
RTVSPropertyOp52
 70
     0
102
RTVSPropertyOp53
 70
     1
102
RTVSPropertyOp54
 70
     1
102
RTVSPropertyOp55
 70
     1
102
RTVSPropertyOp56
 70
     1
102
RTVSPropertyOp57
 70
     1
102
RTVSPropertyOp58
 70
     1
102
RTVSPropertyOp59
 70
     1
102
RTVSPropertyOp60
 70
     1
102
RTVSPropertyOp61
 70
     1
102
RTVSPropertyOp62
 70
     1
  0
XRECORD
  5
6A6
102
{ACAD_REACTORS
330
6A5
102
}
330
6A5
100
AcDbXrecord
280
     1
102
RTVSPost2010Prop28
280
     0
102
RTVSPost2010PropOp28
 70
     1
102
RTVSPost2010Prop29
280
     1
102
RTVSPost2010PropOp29
 70
     1
102
RTVSPost2010Prop30
280
     1
102
RTVSPost2010PropOp30
 70
     1
102
RTVSPost2010Prop31
280
     0
102
RTVSPost2010PropOp31
 70
     1
102
RTVSPost2010Prop32
280
     0
102
RTVSPost2010PropOp32
 70
     1
102
RTVSPost2010Prop33
280
     0
102
RTVSPost2010PropOp33
 70
     1
102
RTVSPost2010Prop34
280
     0
102
RTVSPost2010PropOp34
 70
     1
102
RTVSPost2010Prop35
280
     0
102
RTVSPost2010PropOp35
 70
     1
102
RTVSPost2010Prop36
280
     0
102
RTVSPost2010PropOp36
 70
     1
102
RTVSPost2010Prop37
 90
       50
102
RTVSPost2010PropOp37
 70
     1
102
RTVSPost2010Prop38
140
0.0
102
RTVSPost2010PropOp38
 70
     1
102
RTVSPost2010Prop39
140
1.0
102
RTVSPost2010PropOp39
 70
     1
102
RTVSPost2010Prop40
 90
        0
102
RTVSPost2010PropOp40
 70
     1
102
RTVSPost2010Prop41ColorIndex
 90
       18
102
RTVSPost2010Prop41ColorRGB
 90
        0
102
RTVSPost2010PropOp41
 70
     1
102
RTVSPost2010Prop42
 90
       50
102
RTVSPost2010PropOp42
 70
     1
102
RTVSPost2010Prop43
 90
        3
102
RTVSPost2010PropOp43
 70
     1
102
RTVSPost2010Prop44ColorIndex
 90
        5
102
RTVSPost2010Prop44ColorRGB
 90
      255
102
RTVSPost2010PropOp44
 70
     1
102
RTVSPost2010Prop45
280
     0
102
RTVSPost2010PropOp45
 70
     1
102
RTVSPost2010Prop46
 90
       50
102
RTVSPost2010PropOp46
 70
     1
102
RTVSPost2010Prop47
 90
       50
102
RTVSPost2010PropOp47
 70
     1
102
RTVSPost2010Prop48
 90
       50
102
RTVSPost2010PropOp48
 70
     1
102
RTVSPost2010Prop49
280
     0
102
RTVSPost2010PropOp49
 70
     1
102
RTVSPost2010Prop50
 90
       50
102
RTVSPost2010PropOp50
 70
     1
102
RTVSPost2010Prop51ColorIndex
 90
      256
102
RTVSPost2010Prop51ColorRGB
 90
-16777216
102
RTVSPost2010PropOp51
 70
     0
102
RTVSPost2010Prop52
140
1.0
102
RTVSPost2010PropOp52
 70
     0
102
RTVSPost2010Prop53
 90
        2
102
RTVSPost2010PropOp53
 70
     1
102
RTVSPost2010Prop54
  1
strokes_ogs.tif
102
RTVSPost2010PropOp54
 70
     1
102
RTVSPost2010Prop55
280
     0
102
RTVSPost2010PropOp55
 70
     1
102
RTVSPost2010Prop56
140
1.0
102
RTVSPost2010PropOp56
 70
     1
102
RTVSPost2010Prop57
140
1.0
102
RTVSPost2010PropOp57
 70
     1
102
RTVSPropertyOp0
 70
     1
102
RTVSPropertyOp1
 70
     1
102
RTVSPropertyOp2
 70
     1
102
RTVSPropertyOp3
 70
     1
102
RTVSPropertyOp4
 70
     1
102
RTVSPropertyOp5
 70
     1
102
RTVSPropertyOp6
 70
     1
102
RTVSPropertyOp7
 70
     1
102
RTVSPropertyOp8
 70
     1
102
RTVSPropertyOp9
 70
     1
102
RTVSPropertyOp10
 70
     1
102
RTVSPropertyOp11
 70
     1
102
RTVSPropertyOp12
 70
     1
102
RTVSPropertyOp13
 70
     1
102
RTVSPropertyOp14
 70
     1
102
RTVSPropertyOp15
 70
     1
102
RTVSPropertyOp16
 70
     1
102
RTVSPropertyOp17
 70
     1
102
RTVSPropertyOp18
 70
     1
102
RTVSPropertyOp19
 70
     1
102
RTVSPropertyOp20
 70
     1
102
RTVSPropertyOp21
 70
     1
102
RTVSPropertyOp22
 70
     1
102
RTVSPropertyOp23
 70
     1
102
RTVSPropertyOp24
 70
     1
102
RTVSPropertyOp25
 70
     1
102
RTVSPropertyOp26
 70
     1
102
RTVSPropertyOp27
 70
     1
102
RTVSPropertyOp28
 70
     1
102
RTVSPropertyOp29
 70
     1
102
RTVSPropertyOp30
 70
     1
102
RTVSPropertyOp31
 70
     1
102
RTVSPropertyOp32
 70
     1
102
RTVSPropertyOp33
 70
     1
102
RTVSPropertyOp34
 70
     1
102
RTVSPropertyOp35
 70
     1
102
RTVSPropertyOp36
 70
     1
102
RTVSPropertyOp37
 70
     1
102
RTVSPropertyOp38
 70
     1
102
RTVSPropertyOp39
 70
     1
102
RTVSPropertyOp40
 70
     1
102
RTVSPropertyOp41
 70
     1
102
RTVSPropertyOp42
 70
     1
102
RTVSPropertyOp43
 70
     1
102
RTVSPropertyOp44
 70
     1
102
RTVSPropertyOp45
 70
     1
102
RTVSPropertyOp46
 70
     1
102
RTVSPropertyOp47
 70
     1
102
RTVSPropertyOp48
 70
     1
102
RTVSPropertyOp49
 70
     1
102
RTVSPropertyOp50
 70
     1
102
RTVSPropertyOp51
 70
     0
102
RTVSPropertyOp52
 70
     0
102
RTVSPropertyOp53
 70
     1
102
RTVSPropertyOp54
 70
     1
102
RTVSPropertyOp55
 70
     1
102
RTVSPropertyOp56
 70
     1
102
RTVSPropertyOp57
 70
     1
102
RTVSPropertyOp58
 70
     1
102
RTVSPropertyOp59
 70
     1
102
RTVSPropertyOp60
 70
     1
102
RTVSPropertyOp61
 70
     1
102
RTVSPropertyOp62
 70
     1
  0
XRECORD
  5
6AA
102
{ACAD_REACTORS
330
6A9
102
}
330
6A9
100
AcDbXrecord
280
     1
102
RTVSPost2010Prop28
280
     0
102
RTVSPost2010PropOp28
 70
     1
102
RTVSPost2010Prop29
280
     1
102
RTVSPost2010PropOp29
 70
     1
102
RTVSPost2010Prop30
280
     1
102
RTVSPost2010PropOp30
 70
     1
102
RTVSPost2010Prop31
280
     0
102
RTVSPost2010PropOp31
 70
     1
102
RTVSPost2010Prop32
280
     0
102
RTVSPost2010PropOp32
 70
     1
102
RTVSPost2010Prop33
280
     0
102
RTVSPost2010PropOp33
 70
     1
102
RTVSPost2010Prop34
280
     0
102
RTVSPost2010PropOp34
 70
     1
102
RTVSPost2010Prop35
280
     0
102
RTVSPost2010PropOp35
 70
     1
102
RTVSPost2010Prop36
280
     0
102
RTVSPost2010PropOp36
 70
     1
102
RTVSPost2010Prop37
 90
       50
102
RTVSPost2010PropOp37
 70
     1
102
RTVSPost2010Prop38
140
0.0
102
RTVSPost2010PropOp38
 70
     1
102
RTVSPost2010Prop39
140
1.0
102
RTVSPost2010PropOp39
 70
     1
102
RTVSPost2010Prop40
 90
        0
102
RTVSPost2010PropOp40
 70
     1
102
RTVSPost2010Prop41ColorIndex
 90
       18
102
RTVSPost2010Prop41ColorRGB
 90
        0
102
RTVSPost2010PropOp41
 70
     1
102
RTVSPost2010Prop42
 90
       50
102
RTVSPost2010PropOp42
 70
     1
102
RTVSPost2010Prop43
 90
        3
102
RTVSPost2010PropOp43
 70
     1
102
RTVSPost2010Prop44ColorIndex
 90
        5
102
RTVSPost2010Prop44ColorRGB
 90
      255
102
RTVSPost2010PropOp44
 70
     1
102
RTVSPost2010Prop45
280
     0
102
RTVSPost2010PropOp45
 70
     1
102
RTVSPost2010Prop46
 90
       50
102
RTVSPost2010PropOp46
 70
     1
102
RTVSPost2010Prop47
 90
       50
102
RTVSPost2010PropOp47
 70
     1
102
RTVSPost2010Prop48
 90
       50
102
RTVSPost2010PropOp48
 70
     1
102
RTVSPost2010Prop49
280
     0
102
RTVSPost2010PropOp49
 70
     1
102
RTVSPost2010Prop50
 90
       50
102
RTVSPost2010PropOp50
 70
     1
102
RTVSPost2010Prop51ColorIndex
 90
      256
102
RTVSPost2010Prop51ColorRGB
 90
-16777216
102
RTVSPost2010PropOp51
 70
     0
102
RTVSPost2010Prop52
140
1.0
102
RTVSPost2010PropOp52
 70
     0
102
RTVSPost2010Prop53
 90
        2
102
RTVSPost2010PropOp53
 70
     1
102
RTVSPost2010Prop54
  1
strokes_ogs.tif
102
RTVSPost2010PropOp54
 70
     1
102
RTVSPost2010Prop55
280
     0
102
RTVSPost2010PropOp55
 70
     1
102
RTVSPost2010Prop56
140
1.0
102
RTVSPost2010PropOp56
 70
     1
102
RTVSPost2010Prop57
140
1.0
102
RTVSPost2010PropOp57
 70
     1
102
RTVSPropertyOp0
 70
     1
102
RTVSPropertyOp1
 70
     1
102
RTVSPropertyOp2
 70
     1
102
RTVSPropertyOp3
 70
     1
102
RTVSPropertyOp4
 70
     1
102
RTVSPropertyOp5
 70
     1
102
RTVSPropertyOp6
 70
     1
102
RTVSPropertyOp7
 70
     1
102
RTVSPropertyOp8
 70
     1
102
RTVSPropertyOp9
 70
     1
102
RTVSPropertyOp10
 70
     1
102
RTVSPropertyOp11
 70
     1
102
RTVSPropertyOp12
 70
     1
102
RTVSPropertyOp13
 70
     1
102
RTVSPropertyOp14
 70
     1
102
RTVSPropertyOp15
 70
     1
102
RTVSPropertyOp16
 70
     1
102
RTVSPropertyOp17
 70
     1
102
RTVSPropertyOp18
 70
     1
102
RTVSPropertyOp19
 70
     1
102
RTVSPropertyOp20
 70
     1
102
RTVSPropertyOp21
 70
     1
102
RTVSPropertyOp22
 70
     1
102
RTVSPropertyOp23
 70
     1
102
RTVSPropertyOp24
 70
     1
102
RTVSPropertyOp25
 70
     1
102
RTVSPropertyOp26
 70
     1
102
RTVSPropertyOp27
 70
     1
102
RTVSPropertyOp28
 70
     1
102
RTVSPropertyOp29
 70
     1
102
RTVSPropertyOp30
 70
     1
102
RTVSPropertyOp31
 70
     1
102
RTVSPropertyOp32
 70
     1
102
RTVSPropertyOp33
 70
     1
102
RTVSPropertyOp34
 70
     1
102
RTVSPropertyOp35
 70
     1
102
RTVSPropertyOp36
 70
     1
102
RTVSPropertyOp37
 70
     1
102
RTVSPropertyOp38
 70
     1
102
RTVSPropertyOp39
 70
     1
102
RTVSPropertyOp40
 70
     1
102
RTVSPropertyOp41
 70
     1
102
RTVSPropertyOp42
 70
     1
102
RTVSPropertyOp43
 70
     1
102
RTVSPropertyOp44
 70
     1
102
RTVSPropertyOp45
 70
     1
102
RTVSPropertyOp46
 70
     1
102
RTVSPropertyOp47
 70
     1
102
RTVSPropertyOp48
 70
     1
102
RTVSPropertyOp49
 70
     1
102
RTVSPropertyOp50
 70
     1
102
RTVSPropertyOp51
 70
     0
102
RTVSPropertyOp52
 70
     0
102
RTVSPropertyOp53
 70
     1
102
RTVSPropertyOp54
 70
     1
102
RTVSPropertyOp55
 70
     1
102
RTVSPropertyOp56
 70
     1
102
RTVSPropertyOp57
 70
     1
102
RTVSPropertyOp58
 70
     1
102
RTVSPropertyOp59
 70
     1
102
RTVSPropertyOp60
 70
     1
102
RTVSPropertyOp61
 70
     1
102
RTVSPropertyOp62
 70
     1
  0
XRECORD
  5
6C4
102
{ACAD_REACTORS
330
6C3
102
}
330
6C3
100
AcDbXrecord
280
     1
102
RTVSPost2010Prop28
280
     0
102
RTVSPost2010PropOp28
 70
     1
102
RTVSPost2010Prop29
280
     1
102
RTVSPost2010PropOp29
 70
     1
102
RTVSPost2010Prop30
280
     1
102
RTVSPost2010PropOp30
 70
     1
102
RTVSPost2010Prop31
280
     0
102
RTVSPost2010PropOp31
 70
     1
102
RTVSPost2010Prop32
280
     0
102
RTVSPost2010PropOp32
 70
     1
102
RTVSPost2010Prop33
280
     0
102
RTVSPost2010PropOp33
 70
     1
102
RTVSPost2010Prop34
280
     0
102
RTVSPost2010PropOp34
 70
     1
102
RTVSPost2010Prop35
280
     0
102
RTVSPost2010PropOp35
 70
     1
102
RTVSPost2010Prop36
280
     0
102
RTVSPost2010PropOp36
 70
     1
102
RTVSPost2010Prop37
 90
       50
102
RTVSPost2010PropOp37
 70
     0
102
RTVSPost2010Prop38
140
0.0
102
RTVSPost2010PropOp38
 70
     0
102
RTVSPost2010Prop39
140
1.0
102
RTVSPost2010PropOp39
 70
     0
102
RTVSPost2010Prop40
 90
        0
102
RTVSPost2010PropOp40
 70
     0
102
RTVSPost2010Prop41ColorIndex
 90
       18
102
RTVSPost2010Prop41ColorRGB
 90
        0
102
RTVSPost2010PropOp41
 70
     0
102
RTVSPost2010Prop42
 90
       50
102
RTVSPost2010PropOp42
 70
     0
102
RTVSPost2010Prop43
 90
        3
102
RTVSPost2010PropOp43
 70
     0
102
RTVSPost2010Prop44ColorIndex
 90
        5
102
RTVSPost2010Prop44ColorRGB
 90
      255
102
RTVSPost2010PropOp44
 70
     0
102
RTVSPost2010Prop45
280
     0
102
RTVSPost2010PropOp45
 70
     1
102
RTVSPost2010Prop46
 90
       50
102
RTVSPost2010PropOp46
 70
     0
102
RTVSPost2010Prop47
 90
       50
102
RTVSPost2010PropOp47
 70
     0
102
RTVSPost2010Prop48
 90
       50
102
RTVSPost2010PropOp48
 70
     0
102
RTVSPost2010Prop49
280
     0
102
RTVSPost2010PropOp49
 70
     1
102
RTVSPost2010Prop50
 90
       50
102
RTVSPost2010PropOp50
 70
     0
102
RTVSPost2010Prop51ColorIndex
 90
      256
102
RTVSPost2010Prop51ColorRGB
 90
-16777216
102
RTVSPost2010PropOp51
 70
     0
102
RTVSPost2010Prop52
140
1.0
102
RTVSPost2010PropOp52
 70
     0
102
RTVSPost2010Prop53
 90
        2
102
RTVSPost2010PropOp53
 70
     0
102
RTVSPost2010Prop54
  1
strokes_ogs.tif
102
RTVSPost2010PropOp54
 70
     0
102
RTVSPost2010Prop55
280
     0
102
RTVSPost2010PropOp55
 70
     1
102
RTVSPost2010Prop56
140
1.0
102
RTVSPost2010PropOp56
 70
     0
102
RTVSPost2010Prop57
140
1.0
102
RTVSPost2010PropOp57
 70
     0
102
RTVSPropertyOp0
 70
     0
102
RTVSPropertyOp1
 70
     0
102
RTVSPropertyOp2
 70
     0
102
RTVSPropertyOp3
 70
     0
102
RTVSPropertyOp4
 70
     0
102
RTVSPropertyOp5
 70
     0
102
RTVSPropertyOp6
 70
     0
102
RTVSPropertyOp7
 70
     0
102
RTVSPropertyOp8
 70
     0
102
RTVSPropertyOp9
 70
     0
102
RTVSPropertyOp10
 70
     0
102
RTVSPropertyOp11
 70
     0
102
RTVSPropertyOp12
 70
     0
102
RTVSPropertyOp13
 70
     0
102
RTVSPropertyOp14
 70
     2
102
RTVSPropertyOp15
 70
     0
102
RTVSPropertyOp16
 70
     0
102
RTVSPropertyOp17
 70
     0
102
RTVSPropertyOp18
 70
     0
102
RTVSPropertyOp19
 70
     0
102
RTVSPropertyOp20
 70
     0
102
RTVSPropertyOp21
 70
     0
102
RTVSPropertyOp22
 70
     0
102
RTVSPropertyOp23
 70
     0
102
RTVSPropertyOp24
 70
     0
102
RTVSPropertyOp25
 70
     0
102
RTVSPropertyOp26
 70
     0
102
RTVSPropertyOp27
 70
     0
102
RTVSPropertyOp28
 70
     1
102
RTVSPropertyOp29
 70
     1
102
RTVSPropertyOp30
 70
     1
102
RTVSPropertyOp31
 70
     1
102
RTVSPropertyOp32
 70
     1
102
RTVSPropertyOp33
 70
     1
102
RTVSPropertyOp34
 70
     1
102
RTVSPropertyOp35
 70
     1
102
RTVSPropertyOp36
 70
     1
102
RTVSPropertyOp37
 70
     0
102
RTVSPropertyOp38
 70
     0
102
RTVSPropertyOp39
 70
     0
102
RTVSPropertyOp40
 70
     0
102
RTVSPropertyOp41
 70
     0
102
RTVSPropertyOp42
 70
     0
102
RTVSPropertyOp43
 70
     0
102
RTVSPropertyOp44
 70
     0
102
RTVSPropertyOp45
 70
     1
102
RTVSPropertyOp46
 70
     0
102
RTVSPropertyOp47
 70
     0
102
RTVSPropertyOp48
 70
     0
102
RTVSPropertyOp49
 70
     1
102
RTVSPropertyOp50
 70
     0
102
RTVSPropertyOp51
 70
     0
102
RTVSPropertyOp52
 70
     0
102
RTVSPropertyOp53
 70
     0
102
RTVSPropertyOp54
 70
     0
102
RTVSPropertyOp55
 70
     1
102
RTVSPropertyOp56
 70
     0
102
RTVSPropertyOp57
 70
     0
102
RTVSPropertyOp58
 70
     0
102
RTVSPropertyOp59
 70
     0
102
RTVSPropertyOp60
 70
     0
102
RTVSPropertyOp61
 70
     0
102
RTVSPropertyOp62
 70
     0
  0
XRECORD
  5
6B2
102
{ACAD_REACTORS
330
6B1
102
}
330
6B1
100
AcDbXrecord
280
     1
102
RTVSPost2010Prop28
280
     0
102
RTVSPost2010PropOp28
 70
     1
102
RTVSPost2010Prop29
280
     1
102
RTVSPost2010PropOp29
 70
     1
102
RTVSPost2010Prop30
280
     1
102
RTVSPost2010PropOp30
 70
     1
102
RTVSPost2010Prop31
280
     0
102
RTVSPost2010PropOp31
 70
     1
102
RTVSPost2010Prop32
280
     0
102
RTVSPost2010PropOp32
 70
     1
102
RTVSPost2010Prop33
280
     0
102
RTVSPost2010PropOp33
 70
     1
102
RTVSPost2010Prop34
280
     0
102
RTVSPost2010PropOp34
 70
     1
102
RTVSPost2010Prop35
280
     0
102
RTVSPost2010PropOp35
 70
     1
102
RTVSPost2010Prop36
280
     0
102
RTVSPost2010PropOp36
 70
     1
102
RTVSPost2010Prop37
 90
       50
102
RTVSPost2010PropOp37
 70
     1
102
RTVSPost2010Prop38
140
0.0
102
RTVSPost2010PropOp38
 70
     1
102
RTVSPost2010Prop39
140
1.0
102
RTVSPost2010PropOp39
 70
     1
102
RTVSPost2010Prop40
 90
        0
102
RTVSPost2010PropOp40
 70
     1
102
RTVSPost2010Prop41ColorIndex
 90
       18
102
RTVSPost2010Prop41ColorRGB
 90
        0
102
RTVSPost2010PropOp41
 70
     1
102
RTVSPost2010Prop42
 90
       50
102
RTVSPost2010PropOp42
 70
     1
102
RTVSPost2010Prop43
 90
        3
102
RTVSPost2010PropOp43
 70
     1
102
RTVSPost2010Prop44ColorIndex
 90
        5
102
RTVSPost2010Prop44ColorRGB
 90
      255
102
RTVSPost2010PropOp44
 70
     1
102
RTVSPost2010Prop45
280
     0
102
RTVSPost2010PropOp45
 70
     1
102
RTVSPost2010Prop46
 90
       50
102
RTVSPost2010PropOp46
 70
     1
102
RTVSPost2010Prop47
 90
       50
102
RTVSPost2010PropOp47
 70
     1
102
RTVSPost2010Prop48
 90
       50
102
RTVSPost2010PropOp48
 70
     1
102
RTVSPost2010Prop49
280
     0
102
RTVSPost2010PropOp49
 70
     1
102
RTVSPost2010Prop50
 90
       50
102
RTVSPost2010PropOp50
 70
     1
102
RTVSPost2010Prop51ColorIndex
 90
      256
102
RTVSPost2010Prop51ColorRGB
 90
-16777216
102
RTVSPost2010PropOp51
 70
     0
102
RTVSPost2010Prop52
140
1.0
102
RTVSPost2010PropOp52
 70
     0
102
RTVSPost2010Prop53
 90
        2
102
RTVSPost2010PropOp53
 70
     1
102
RTVSPost2010Prop54
  1
strokes_ogs.tif
102
RTVSPost2010PropOp54
 70
     1
102
RTVSPost2010Prop55
280
     0
102
RTVSPost2010PropOp55
 70
     1
102
RTVSPost2010Prop56
140
1.0
102
RTVSPost2010PropOp56
 70
     1
102
RTVSPost2010Prop57
140
1.0
102
RTVSPost2010PropOp57
 70
     1
102
RTVSPropertyOp0
 70
     1
102
RTVSPropertyOp1
 70
     1
102
RTVSPropertyOp2
 70
     1
102
RTVSPropertyOp3
 70
     1
102
RTVSPropertyOp4
 70
     1
102
RTVSPropertyOp5
 70
     1
102
RTVSPropertyOp6
 70
     1
102
RTVSPropertyOp7
 70
     1
102
RTVSPropertyOp8
 70
     1
102
RTVSPropertyOp9
 70
     1
102
RTVSPropertyOp10
 70
     1
102
RTVSPropertyOp11
 70
     1
102
RTVSPropertyOp12
 70
     1
102
RTVSPropertyOp13
 70
     1
102
RTVSPropertyOp14
 70
     1
102
RTVSPropertyOp15
 70
     1
102
RTVSPropertyOp16
 70
     1
102
RTVSPropertyOp17
 70
     1
102
RTVSPropertyOp18
 70
     1
102
RTVSPropertyOp19
 70
     1
102
RTVSPropertyOp20
 70
     1
102
RTVSPropertyOp21
 70
     1
102
RTVSPropertyOp22
 70
     1
102
RTVSPropertyOp23
 70
     1
102
RTVSPropertyOp24
 70
     1
102
RTVSPropertyOp25
 70
     1
102
RTVSPropertyOp26
 70
     1
102
RTVSPropertyOp27
 70
     1
102
RTVSPropertyOp28
 70
     1
102
RTVSPropertyOp29
 70
     1
102
RTVSPropertyOp30
 70
     1
102
RTVSPropertyOp31
 70
     1
102
RTVSPropertyOp32
 70
     1
102
RTVSPropertyOp33
 70
     1
102
RTVSPropertyOp34
 70
     1
102
RTVSPropertyOp35
 70
     1
102
RTVSPropertyOp36
 70
     1
102
RTVSPropertyOp37
 70
     1
102
RTVSPropertyOp38
 70
     1
102
RTVSPropertyOp39
 70
     1
102
RTVSPropertyOp40
 70
     1
102
RTVSPropertyOp41
 70
     1
102
RTVSPropertyOp42
 70
     1
102
RTVSPropertyOp43
 70
     1
102
RTVSPropertyOp44
 70
     1
102
RTVSPropertyOp45
 70
     1
102
RTVSPropertyOp46
 70
     1
102
RTVSPropertyOp47
 70
     1
102
RTVSPropertyOp48
 70
     1
102
RTVSPropertyOp49
 70
     1
102
RTVSPropertyOp50
 70
     1
102
RTVSPropertyOp51
 70
     0
102
RTVSPropertyOp52
 70
     0
102
RTVSPropertyOp53
 70
     1
102
RTVSPropertyOp54
 70
     1
102
RTVSPropertyOp55
 70
     1
102
RTVSPropertyOp56
 70
     1
102
RTVSPropertyOp57
 70
     1
102
RTVSPropertyOp58
 70
     1
102
RTVSPropertyOp59
 70
     1
102
RTVSPropertyOp60
 70
     1
102
RTVSPropertyOp61
 70
     1
102
RTVSPropertyOp62
 70
     1
  0
XRECORD
  5
696
102
{ACAD_REACTORS
330
695
102
}
330
695
100
AcDbXrecord
280
     1
102
RTVSPost2010Prop28
280
     0
102
RTVSPost2010PropOp28
 70
     1
102
RTVSPost2010Prop29
280
     1
102
RTVSPost2010PropOp29
 70
     1
102
RTVSPost2010Prop30
280
     1
102
RTVSPost2010PropOp30
 70
     1
102
RTVSPost2010Prop31
280
     0
102
RTVSPost2010PropOp31
 70
     1
102
RTVSPost2010Prop32
280
     0
102
RTVSPost2010PropOp32
 70
     1
102
RTVSPost2010Prop33
280
     0
102
RTVSPost2010PropOp33
 70
     1
102
RTVSPost2010Prop34
280
     0
102
RTVSPost2010PropOp34
 70
     1
102
RTVSPost2010Prop35
280
     0
102
RTVSPost2010PropOp35
 70
     1
102
RTVSPost2010Prop36
280
     0
102
RTVSPost2010PropOp36
 70
     1
102
RTVSPost2010Prop37
 90
       50
102
RTVSPost2010PropOp37
 70
     1
102
RTVSPost2010Prop38
140
0.0
102
RTVSPost2010PropOp38
 70
     1
102
RTVSPost2010Prop39
140
1.0
102
RTVSPost2010PropOp39
 70
     1
102
RTVSPost2010Prop40
 90
        0
102
RTVSPost2010PropOp40
 70
     1
102
RTVSPost2010Prop41ColorIndex
 90
       18
102
RTVSPost2010Prop41ColorRGB
 90
        0
102
RTVSPost2010PropOp41
 70
     1
102
RTVSPost2010Prop42
 90
       50
102
RTVSPost2010PropOp42
 70
     1
102
RTVSPost2010Prop43
 90
        3
102
RTVSPost2010PropOp43
 70
     1
102
RTVSPost2010Prop44ColorIndex
 90
        5
102
RTVSPost2010Prop44ColorRGB
 90
      255
102
RTVSPost2010PropOp44
 70
     1
102
RTVSPost2010Prop45
280
     0
102
RTVSPost2010PropOp45
 70
     1
102
RTVSPost2010Prop46
 90
       50
102
RTVSPost2010PropOp46
 70
     1
102
RTVSPost2010Prop47
 90
       50
102
RTVSPost2010PropOp47
 70
     1
102
RTVSPost2010Prop48
 90
       50
102
RTVSPost2010PropOp48
 70
     1
102
RTVSPost2010Prop49
280
     0
102
RTVSPost2010PropOp49
 70
     1
102
RTVSPost2010Prop50
 90
       50
102
RTVSPost2010PropOp50
 70
     1
102
RTVSPost2010Prop51ColorIndex
 90
      256
102
RTVSPost2010Prop51ColorRGB
 90
-16777216
102
RTVSPost2010PropOp51
 70
     0
102
RTVSPost2010Prop52
140
1.0
102
RTVSPost2010PropOp52
 70
     0
102
RTVSPost2010Prop53
 90
        2
102
RTVSPost2010PropOp53
 70
     1
102
RTVSPost2010Prop54
  1
strokes_ogs.tif
102
RTVSPost2010PropOp54
 70
     1
102
RTVSPost2010Prop55
280
     0
102
RTVSPost2010PropOp55
 70
     1
102
RTVSPost2010Prop56
140
1.0
102
RTVSPost2010PropOp56
 70
     1
102
RTVSPost2010Prop57
140
1.0
102
RTVSPost2010PropOp57
 70
     1
102
RTVSPropertyOp0
 70
     1
102
RTVSPropertyOp1
 70
     1
102
RTVSPropertyOp2
 70
     1
102
RTVSPropertyOp3
 70
     1
102
RTVSPropertyOp4
 70
     1
102
RTVSPropertyOp5
 70
     1
102
RTVSPropertyOp6
 70
     1
102
RTVSPropertyOp7
 70
     1
102
RTVSPropertyOp8
 70
     1
102
RTVSPropertyOp9
 70
     1
102
RTVSPropertyOp10
 70
     1
102
RTVSPropertyOp11
 70
     1
102
RTVSPropertyOp12
 70
     1
102
RTVSPropertyOp13
 70
     1
102
RTVSPropertyOp14
 70
     1
102
RTVSPropertyOp15
 70
     1
102
RTVSPropertyOp16
 70
     1
102
RTVSPropertyOp17
 70
     1
102
RTVSPropertyOp18
 70
     1
102
RTVSPropertyOp19
 70
     1
102
RTVSPropertyOp20
 70
     1
102
RTVSPropertyOp21
 70
     1
102
RTVSPropertyOp22
 70
     1
102
RTVSPropertyOp23
 70
     1
102
RTVSPropertyOp24
 70
     1
102
RTVSPropertyOp25
 70
     1
102
RTVSPropertyOp26
 70
     1
102
RTVSPropertyOp27
 70
     1
102
RTVSPropertyOp28
 70
     1
102
RTVSPropertyOp29
 70
     1
102
RTVSPropertyOp30
 70
     1
102
RTVSPropertyOp31
 70
     1
102
RTVSPropertyOp32
 70
     1
102
RTVSPropertyOp33
 70
     1
102
RTVSPropertyOp34
 70
     1
102
RTVSPropertyOp35
 70
     1
102
RTVSPropertyOp36
 70
     1
102
RTVSPropertyOp37
 70
     1
102
RTVSPropertyOp38
 70
     1
102
RTVSPropertyOp39
 70
     1
102
RTVSPropertyOp40
 70
     1
102
RTVSPropertyOp41
 70
     1
102
RTVSPropertyOp42
 70
     1
102
RTVSPropertyOp43
 70
     1
102
RTVSPropertyOp44
 70
     1
102
RTVSPropertyOp45
 70
     1
102
RTVSPropertyOp46
 70
     1
102
RTVSPropertyOp47
 70
     1
102
RTVSPropertyOp48
 70
     1
102
RTVSPropertyOp49
 70
     1
102
RTVSPropertyOp50
 70
     1
102
RTVSPropertyOp51
 70
     0
102
RTVSPropertyOp52
 70
     0
102
RTVSPropertyOp53
 70
     1
102
RTVSPropertyOp54
 70
     1
102
RTVSPropertyOp55
 70
     1
102
RTVSPropertyOp56
 70
     1
102
RTVSPropertyOp57
 70
     1
102
RTVSPropertyOp58
 70
     1
102
RTVSPropertyOp59
 70
     1
102
RTVSPropertyOp60
 70
     1
102
RTVSPropertyOp61
 70
     1
102
RTVSPropertyOp62
 70
     1
  0
XRECORD
  5
698
102
{ACAD_REACTORS
330
697
102
}
330
697
100
AcDbXrecord
280
     1
102
RTVSPost2010Prop28
280
     0
102
RTVSPost2010PropOp28
 70
     1
102
RTVSPost2010Prop29
280
     1
102
RTVSPost2010PropOp29
 70
     1
102
RTVSPost2010Prop30
280
     1
102
RTVSPost2010PropOp30
 70
     1
102
RTVSPost2010Prop31
280
     0
102
RTVSPost2010PropOp31
 70
     1
102
RTVSPost2010Prop32
280
     0
102
RTVSPost2010PropOp32
 70
     1
102
RTVSPost2010Prop33
280
     0
102
RTVSPost2010PropOp33
 70
     1
102
RTVSPost2010Prop34
280
     0
102
RTVSPost2010PropOp34
 70
     1
102
RTVSPost2010Prop35
280
     0
102
RTVSPost2010PropOp35
 70
     1
102
RTVSPost2010Prop36
280
     0
102
RTVSPost2010PropOp36
 70
     1
102
RTVSPost2010Prop37
 90
       50
102
RTVSPost2010PropOp37
 70
     1
102
RTVSPost2010Prop38
140
0.0
102
RTVSPost2010PropOp38
 70
     1
102
RTVSPost2010Prop39
140
1.0
102
RTVSPost2010PropOp39
 70
     1
102
RTVSPost2010Prop40
 90
        0
102
RTVSPost2010PropOp40
 70
     1
102
RTVSPost2010Prop41ColorIndex
 90
       18
102
RTVSPost2010Prop41ColorRGB
 90
        0
102
RTVSPost2010PropOp41
 70
     1
102
RTVSPost2010Prop42
 90
       50
102
RTVSPost2010PropOp42
 70
     1
102
RTVSPost2010Prop43
 90
        3
102
RTVSPost2010PropOp43
 70
     1
102
RTVSPost2010Prop44ColorIndex
 90
        5
102
RTVSPost2010Prop44ColorRGB
 90
      255
102
RTVSPost2010PropOp44
 70
     1
102
RTVSPost2010Prop45
280
     0
102
RTVSPost2010PropOp45
 70
     1
102
RTVSPost2010Prop46
 90
       50
102
RTVSPost2010PropOp46
 70
     1
102
RTVSPost2010Prop47
 90
       50
102
RTVSPost2010PropOp47
 70
     1
102
RTVSPost2010Prop48
 90
       50
102
RTVSPost2010PropOp48
 70
     1
102
RTVSPost2010Prop49
280
     0
102
RTVSPost2010PropOp49
 70
     1
102
RTVSPost2010Prop50
 90
       50
102
RTVSPost2010PropOp50
 70
     1
102
RTVSPost2010Prop51ColorIndex
 90
      256
102
RTVSPost2010Prop51ColorRGB
 90
-16777216
102
RTVSPost2010PropOp51
 70
     0
102
RTVSPost2010Prop52
140
1.0
102
RTVSPost2010PropOp52
 70
     0
102
RTVSPost2010Prop53
 90
        2
102
RTVSPost2010PropOp53
 70
     1
102
RTVSPost2010Prop54
  1
strokes_ogs.tif
102
RTVSPost2010PropOp54
 70
     1
102
RTVSPost2010Prop55
280
     0
102
RTVSPost2010PropOp55
 70
     1
102
RTVSPost2010Prop56
140
1.0
102
RTVSPost2010PropOp56
 70
     1
102
RTVSPost2010Prop57
140
1.0
102
RTVSPost2010PropOp57
 70
     1
102
RTVSPropertyOp0
 70
     1
102
RTVSPropertyOp1
 70
     1
102
RTVSPropertyOp2
 70
     1
102
RTVSPropertyOp3
 70
     1
102
RTVSPropertyOp4
 70
     1
102
RTVSPropertyOp5
 70
     1
102
RTVSPropertyOp6
 70
     1
102
RTVSPropertyOp7
 70
     1
102
RTVSPropertyOp8
 70
     1
102
RTVSPropertyOp9
 70
     1
102
RTVSPropertyOp10
 70
     1
102
RTVSPropertyOp11
 70
     1
102
RTVSPropertyOp12
 70
     1
102
RTVSPropertyOp13
 70
     1
102
RTVSPropertyOp14
 70
     1
102
RTVSPropertyOp15
 70
     1
102
RTVSPropertyOp16
 70
     1
102
RTVSPropertyOp17
 70
     1
102
RTVSPropertyOp18
 70
     1
102
RTVSPropertyOp19
 70
     1
102
RTVSPropertyOp20
 70
     1
102
RTVSPropertyOp21
 70
     1
102
RTVSPropertyOp22
 70
     1
102
RTVSPropertyOp23
 70
     1
102
RTVSPropertyOp24
 70
     1
102
RTVSPropertyOp25
 70
     1
102
RTVSPropertyOp26
 70
     1
102
RTVSPropertyOp27
 70
     1
102
RTVSPropertyOp28
 70
     1
102
RTVSPropertyOp29
 70
     1
102
RTVSPropertyOp30
 70
     1
102
RTVSPropertyOp31
 70
     1
102
RTVSPropertyOp32
 70
     1
102
RTVSPropertyOp33
 70
     1
102
RTVSPropertyOp34
 70
     1
102
RTVSPropertyOp35
 70
     1
102
RTVSPropertyOp36
 70
     1
102
RTVSPropertyOp37
 70
     1
102
RTVSPropertyOp38
 70
     1
102
RTVSPropertyOp39
 70
     1
102
RTVSPropertyOp40
 70
     1
102
RTVSPropertyOp41
 70
     1
102
RTVSPropertyOp42
 70
     1
102
RTVSPropertyOp43
 70
     1
102
RTVSPropertyOp44
 70
     1
102
RTVSPropertyOp45
 70
     1
102
RTVSPropertyOp46
 70
     1
102
RTVSPropertyOp47
 70
     1
102
RTVSPropertyOp48
 70
     1
102
RTVSPropertyOp49
 70
     1
102
RTVSPropertyOp50
 70
     1
102
RTVSPropertyOp51
 70
     0
102
RTVSPropertyOp52
 70
     0
102
RTVSPropertyOp53
 70
     1
102
RTVSPropertyOp54
 70
     1
102
RTVSPropertyOp55
 70
     1
102
RTVSPropertyOp56
 70
     1
102
RTVSPropertyOp57
 70
     1
102
RTVSPropertyOp58
 70
     1
102
RTVSPropertyOp59
 70
     1
102
RTVSPropertyOp60
 70
     1
102
RTVSPropertyOp61
 70
     1
102
RTVSPropertyOp62
 70
     1
  0
XRECORD
  5
69A
102
{ACAD_REACTORS
330
699
102
}
330
699
100
AcDbXrecord
280
     1
102
RTVSPost2010Prop28
280
     0
102
RTVSPost2010PropOp28
 70
     1
102
RTVSPost2010Prop29
280
     1
102
RTVSPost2010PropOp29
 70
     1
102
RTVSPost2010Prop30
280
     1
102
RTVSPost2010PropOp30
 70
     1
102
RTVSPost2010Prop31
280
     0
102
RTVSPost2010PropOp31
 70
     1
102
RTVSPost2010Prop32
280
     0
102
RTVSPost2010PropOp32
 70
     1
102
RTVSPost2010Prop33
280
     0
102
RTVSPost2010PropOp33
 70
     1
102
RTVSPost2010Prop34
280
     0
102
RTVSPost2010PropOp34
 70
     1
102
RTVSPost2010Prop35
280
     0
102
RTVSPost2010PropOp35
 70
     1
102
RTVSPost2010Prop36
280
     0
102
RTVSPost2010PropOp36
 70
     1
102
RTVSPost2010Prop37
 90
       50
102
RTVSPost2010PropOp37
 70
     1
102
RTVSPost2010Prop38
140
0.0
102
RTVSPost2010PropOp38
 70
     1
102
RTVSPost2010Prop39
140
1.0
102
RTVSPost2010PropOp39
 70
     1
102
RTVSPost2010Prop40
 90
        0
102
RTVSPost2010PropOp40
 70
     1
102
RTVSPost2010Prop41ColorIndex
 90
       18
102
RTVSPost2010Prop41ColorRGB
 90
        0
102
RTVSPost2010PropOp41
 70
     1
102
RTVSPost2010Prop42
 90
       50
102
RTVSPost2010PropOp42
 70
     1
102
RTVSPost2010Prop43
 90
        3
102
RTVSPost2010PropOp43
 70
     1
102
RTVSPost2010Prop44ColorIndex
 90
        5
102
RTVSPost2010Prop44ColorRGB
 90
      255
102
RTVSPost2010PropOp44
 70
     1
102
RTVSPost2010Prop45
280
     0
102
RTVSPost2010PropOp45
 70
     1
102
RTVSPost2010Prop46
 90
       50
102
RTVSPost2010PropOp46
 70
     1
102
RTVSPost2010Prop47
 90
       50
102
RTVSPost2010PropOp47
 70
     1
102
RTVSPost2010Prop48
 90
       50
102
RTVSPost2010PropOp48
 70
     1
102
RTVSPost2010Prop49
280
     0
102
RTVSPost2010PropOp49
 70
     1
102
RTVSPost2010Prop50
 90
       50
102
RTVSPost2010PropOp50
 70
     1
102
RTVSPost2010Prop51ColorIndex
 90
      256
102
RTVSPost2010Prop51ColorRGB
 90
-16777216
102
RTVSPost2010PropOp51
 70
     0
102
RTVSPost2010Prop52
140
1.0
102
RTVSPost2010PropOp52
 70
     0
102
RTVSPost2010Prop53
 90
        2
102
RTVSPost2010PropOp53
 70
     1
102
RTVSPost2010Prop54
  1
strokes_ogs.tif
102
RTVSPost2010PropOp54
 70
     1
102
RTVSPost2010Prop55
280
     0
102
RTVSPost2010PropOp55
 70
     1
102
RTVSPost2010Prop56
140
1.0
102
RTVSPost2010PropOp56
 70
     1
102
RTVSPost2010Prop57
140
1.0
102
RTVSPost2010PropOp57
 70
     1
102
RTVSPropertyOp0
 70
     1
102
RTVSPropertyOp1
 70
     1
102
RTVSPropertyOp2
 70
     1
102
RTVSPropertyOp3
 70
     1
102
RTVSPropertyOp4
 70
     1
102
RTVSPropertyOp5
 70
     1
102
RTVSPropertyOp6
 70
     1
102
RTVSPropertyOp7
 70
     1
102
RTVSPropertyOp8
 70
     1
102
RTVSPropertyOp9
 70
     1
102
RTVSPropertyOp10
 70
     1
102
RTVSPropertyOp11
 70
     1
102
RTVSPropertyOp12
 70
     1
102
RTVSPropertyOp13
 70
     1
102
RTVSPropertyOp14
 70
     1
102
RTVSPropertyOp15
 70
     1
102
RTVSPropertyOp16
 70
     1
102
RTVSPropertyOp17
 70
     1
102
RTVSPropertyOp18
 70
     1
102
RTVSPropertyOp19
 70
     1
102
RTVSPropertyOp20
 70
     1
102
RTVSPropertyOp21
 70
     1
102
RTVSPropertyOp22
 70
     1
102
RTVSPropertyOp23
 70
     1
102
RTVSPropertyOp24
 70
     1
102
RTVSPropertyOp25
 70
     1
102
RTVSPropertyOp26
 70
     1
102
RTVSPropertyOp27
 70
     1
102
RTVSPropertyOp28
 70
     1
102
RTVSPropertyOp29
 70
     1
102
RTVSPropertyOp30
 70
     1
102
RTVSPropertyOp31
 70
     1
102
RTVSPropertyOp32
 70
     1
102
RTVSPropertyOp33
 70
     1
102
RTVSPropertyOp34
 70
     1
102
RTVSPropertyOp35
 70
     1
102
RTVSPropertyOp36
 70
     1
102
RTVSPropertyOp37
 70
     1
102
RTVSPropertyOp38
 70
     1
102
RTVSPropertyOp39
 70
     1
102
RTVSPropertyOp40
 70
     1
102
RTVSPropertyOp41
 70
     1
102
RTVSPropertyOp42
 70
     1
102
RTVSPropertyOp43
 70
     1
102
RTVSPropertyOp44
 70
     1
102
RTVSPropertyOp45
 70
     1
102
RTVSPropertyOp46
 70
     1
102
RTVSPropertyOp47
 70
     1
102
RTVSPropertyOp48
 70
     1
102
RTVSPropertyOp49
 70
     1
102
RTVSPropertyOp50
 70
     1
102
RTVSPropertyOp51
 70
     0
102
RTVSPropertyOp52
 70
     0
102
RTVSPropertyOp53
 70
     1
102
RTVSPropertyOp54
 70
     1
102
RTVSPropertyOp55
 70
     1
102
RTVSPropertyOp56
 70
     1
102
RTVSPropertyOp57
 70
     1
102
RTVSPropertyOp58
 70
     1
102
RTVSPropertyOp59
 70
     1
102
RTVSPropertyOp60
 70
     1
102
RTVSPropertyOp61
 70
     1
102
RTVSPropertyOp62
 70
     1
  0
XRECORD
  5
69C
102
{ACAD_REACTORS
330
69B
102
}
330
69B
100
AcDbXrecord
280
     1
102
RTVSPost2010Prop28
280
     0
102
RTVSPost2010PropOp28
 70
     1
102
RTVSPost2010Prop29
280
     1
102
RTVSPost2010PropOp29
 70
     1
102
RTVSPost2010Prop30
280
     1
102
RTVSPost2010PropOp30
 70
     1
102
RTVSPost2010Prop31
280
     0
102
RTVSPost2010PropOp31
 70
     1
102
RTVSPost2010Prop32
280
     0
102
RTVSPost2010PropOp32
 70
     1
102
RTVSPost2010Prop33
280
     0
102
RTVSPost2010PropOp33
 70
     1
102
RTVSPost2010Prop34
280
     0
102
RTVSPost2010PropOp34
 70
     1
102
RTVSPost2010Prop35
280
     0
102
RTVSPost2010PropOp35
 70
     1
102
RTVSPost2010Prop36
280
     0
102
RTVSPost2010PropOp36
 70
     1
102
RTVSPost2010Prop37
 90
       50
102
RTVSPost2010PropOp37
 70
     1
102
RTVSPost2010Prop38
140
0.0
102
RTVSPost2010PropOp38
 70
     1
102
RTVSPost2010Prop39
140
1.0
102
RTVSPost2010PropOp39
 70
     1
102
RTVSPost2010Prop40
 90
        0
102
RTVSPost2010PropOp40
 70
     1
102
RTVSPost2010Prop41ColorIndex
 90
       18
102
RTVSPost2010Prop41ColorRGB
 90
        0
102
RTVSPost2010PropOp41
 70
     1
102
RTVSPost2010Prop42
 90
       50
102
RTVSPost2010PropOp42
 70
     1
102
RTVSPost2010Prop43
 90
        3
102
RTVSPost2010PropOp43
 70
     1
102
RTVSPost2010Prop44ColorIndex
 90
        5
102
RTVSPost2010Prop44ColorRGB
 90
      255
102
RTVSPost2010PropOp44
 70
     1
102
RTVSPost2010Prop45
280
     0
102
RTVSPost2010PropOp45
 70
     1
102
RTVSPost2010Prop46
 90
       50
102
RTVSPost2010PropOp46
 70
     1
102
RTVSPost2010Prop47
 90
       50
102
RTVSPost2010PropOp47
 70
     1
102
RTVSPost2010Prop48
 90
       50
102
RTVSPost2010PropOp48
 70
     1
102
RTVSPost2010Prop49
280
     0
102
RTVSPost2010PropOp49
 70
     1
102
RTVSPost2010Prop50
 90
       50
102
RTVSPost2010PropOp50
 70
     1
102
RTVSPost2010Prop51ColorIndex
 90
      256
102
RTVSPost2010Prop51ColorRGB
 90
-16777216
102
RTVSPost2010PropOp51
 70
     0
102
RTVSPost2010Prop52
140
1.0
102
RTVSPost2010PropOp52
 70
     0
102
RTVSPost2010Prop53
 90
        2
102
RTVSPost2010PropOp53
 70
     1
102
RTVSPost2010Prop54
  1
strokes_ogs.tif
102
RTVSPost2010PropOp54
 70
     1
102
RTVSPost2010Prop55
280
     0
102
RTVSPost2010PropOp55
 70
     1
102
RTVSPost2010Prop56
140
1.0
102
RTVSPost2010PropOp56
 70
     1
102
RTVSPost2010Prop57
140
1.0
102
RTVSPost2010PropOp57
 70
     1
102
RTVSPropertyOp0
 70
     1
102
RTVSPropertyOp1
 70
     1
102
RTVSPropertyOp2
 70
     1
102
RTVSPropertyOp3
 70
     1
102
RTVSPropertyOp4
 70
     1
102
RTVSPropertyOp5
 70
     1
102
RTVSPropertyOp6
 70
     1
102
RTVSPropertyOp7
 70
     1
102
RTVSPropertyOp8
 70
     1
102
RTVSPropertyOp9
 70
     1
102
RTVSPropertyOp10
 70
     1
102
RTVSPropertyOp11
 70
     1
102
RTVSPropertyOp12
 70
     1
102
RTVSPropertyOp13
 70
     1
102
RTVSPropertyOp14
 70
     1
102
RTVSPropertyOp15
 70
     1
102
RTVSPropertyOp16
 70
     1
102
RTVSPropertyOp17
 70
     1
102
RTVSPropertyOp18
 70
     1
102
RTVSPropertyOp19
 70
     1
102
RTVSPropertyOp20
 70
     1
102
RTVSPropertyOp21
 70
     1
102
RTVSPropertyOp22
 70
     1
102
RTVSPropertyOp23
 70
     1
102
RTVSPropertyOp24
 70
     1
102
RTVSPropertyOp25
 70
     1
102
RTVSPropertyOp26
 70
     1
102
RTVSPropertyOp27
 70
     1
102
RTVSPropertyOp28
 70
     1
102
RTVSPropertyOp29
 70
     1
102
RTVSPropertyOp30
 70
     1
102
RTVSPropertyOp31
 70
     1
102
RTVSPropertyOp32
 70
     1
102
RTVSPropertyOp33
 70
     1
102
RTVSPropertyOp34
 70
     1
102
RTVSPropertyOp35
 70
     1
102
RTVSPropertyOp36
 70
     1
102
RTVSPropertyOp37
 70
     1
102
RTVSPropertyOp38
 70
     1
102
RTVSPropertyOp39
 70
     1
102
RTVSPropertyOp40
 70
     1
102
RTVSPropertyOp41
 70
     1
102
RTVSPropertyOp42
 70
     1
102
RTVSPropertyOp43
 70
     1
102
RTVSPropertyOp44
 70
     1
102
RTVSPropertyOp45
 70
     1
102
RTVSPropertyOp46
 70
     1
102
RTVSPropertyOp47
 70
     1
102
RTVSPropertyOp48
 70
     1
102
RTVSPropertyOp49
 70
     1
102
RTVSPropertyOp50
 70
     1
102
RTVSPropertyOp51
 70
     0
102
RTVSPropertyOp52
 70
     0
102
RTVSPropertyOp53
 70
     1
102
RTVSPropertyOp54
 70
     1
102
RTVSPropertyOp55
 70
     1
102
RTVSPropertyOp56
 70
     1
102
RTVSPropertyOp57
 70
     1
102
RTVSPropertyOp58
 70
     1
102
RTVSPropertyOp59
 70
     1
102
RTVSPropertyOp60
 70
     1
102
RTVSPropertyOp61
 70
     1
102
RTVSPropertyOp62
 70
     1
  0
XRECORD
  5
6A4
102
{ACAD_REACTORS
330
6A3
102
}
330
6A3
100
AcDbXrecord
280
     1
102
RTVSPost2010Prop28
280
     0
102
RTVSPost2010PropOp28
 70
     1
102
RTVSPost2010Prop29
280
     1
102
RTVSPost2010PropOp29
 70
     1
102
RTVSPost2010Prop30
280
     1
102
RTVSPost2010PropOp30
 70
     1
102
RTVSPost2010Prop31
280
     0
102
RTVSPost2010PropOp31
 70
     1
102
RTVSPost2010Prop32
280
     0
102
RTVSPost2010PropOp32
 70
     1
102
RTVSPost2010Prop33
280
     0
102
RTVSPost2010PropOp33
 70
     1
102
RTVSPost2010Prop34
280
     0
102
RTVSPost2010PropOp34
 70
     1
102
RTVSPost2010Prop35
280
     0
102
RTVSPost2010PropOp35
 70
     1
102
RTVSPost2010Prop36
280
     0
102
RTVSPost2010PropOp36
 70
     1
102
RTVSPost2010Prop37
 90
       50
102
RTVSPost2010PropOp37
 70
     1
102
RTVSPost2010Prop38
140
0.0
102
RTVSPost2010PropOp38
 70
     1
102
RTVSPost2010Prop39
140
1.0
102
RTVSPost2010PropOp39
 70
     1
102
RTVSPost2010Prop40
 90
        0
102
RTVSPost2010PropOp40
 70
     1
102
RTVSPost2010Prop41ColorIndex
 90
       18
102
RTVSPost2010Prop41ColorRGB
 90
        0
102
RTVSPost2010PropOp41
 70
     1
102
RTVSPost2010Prop42
 90
       50
102
RTVSPost2010PropOp42
 70
     1
102
RTVSPost2010Prop43
 90
        3
102
RTVSPost2010PropOp43
 70
     1
102
RTVSPost2010Prop44ColorIndex
 90
        5
102
RTVSPost2010Prop44ColorRGB
 90
      255
102
RTVSPost2010PropOp44
 70
     1
102
RTVSPost2010Prop45
280
     0
102
RTVSPost2010PropOp45
 70
     1
102
RTVSPost2010Prop46
 90
       50
102
RTVSPost2010PropOp46
 70
     1
102
RTVSPost2010Prop47
 90
       50
102
RTVSPost2010PropOp47
 70
     1
102
RTVSPost2010Prop48
 90
       50
102
RTVSPost2010PropOp48
 70
     1
102
RTVSPost2010Prop49
280
     0
102
RTVSPost2010PropOp49
 70
     1
102
RTVSPost2010Prop50
 90
       50
102
RTVSPost2010PropOp50
 70
     1
102
RTVSPost2010Prop51ColorIndex
 90
      256
102
RTVSPost2010Prop51ColorRGB
 90
-16777216
102
RTVSPost2010PropOp51
 70
     0
102
RTVSPost2010Prop52
140
1.0
102
RTVSPost2010PropOp52
 70
     0
102
RTVSPost2010Prop53
 90
        2
102
RTVSPost2010PropOp53
 70
     1
102
RTVSPost2010Prop54
  1
strokes_ogs.tif
102
RTVSPost2010PropOp54
 70
     1
102
RTVSPost2010Prop55
280
     0
102
RTVSPost2010PropOp55
 70
     1
102
RTVSPost2010Prop56
140
1.0
102
RTVSPost2010PropOp56
 70
     1
102
RTVSPost2010Prop57
140
1.0
102
RTVSPost2010PropOp57
 70
     1
102
RTVSPropertyOp0
 70
     1
102
RTVSPropertyOp1
 70
     1
102
RTVSPropertyOp2
 70
     1
102
RTVSPropertyOp3
 70
     1
102
RTVSPropertyOp4
 70
     1
102
RTVSPropertyOp5
 70
     1
102
RTVSPropertyOp6
 70
     1
102
RTVSPropertyOp7
 70
     1
102
RTVSPropertyOp8
 70
     1
102
RTVSPropertyOp9
 70
     1
102
RTVSPropertyOp10
 70
     1
102
RTVSPropertyOp11
 70
     1
102
RTVSPropertyOp12
 70
     1
102
RTVSPropertyOp13
 70
     1
102
RTVSPropertyOp14
 70
     1
102
RTVSPropertyOp15
 70
     1
102
RTVSPropertyOp16
 70
     1
102
RTVSPropertyOp17
 70
     1
102
RTVSPropertyOp18
 70
     1
102
RTVSPropertyOp19
 70
     1
102
RTVSPropertyOp20
 70
     1
102
RTVSPropertyOp21
 70
     1
102
RTVSPropertyOp22
 70
     1
102
RTVSPropertyOp23
 70
     1
102
RTVSPropertyOp24
 70
     1
102
RTVSPropertyOp25
 70
     1
102
RTVSPropertyOp26
 70
     1
102
RTVSPropertyOp27
 70
     1
102
RTVSPropertyOp28
 70
     1
102
RTVSPropertyOp29
 70
     1
102
RTVSPropertyOp30
 70
     1
102
RTVSPropertyOp31
 70
     1
102
RTVSPropertyOp32
 70
     1
102
RTVSPropertyOp33
 70
     1
102
RTVSPropertyOp34
 70
     1
102
RTVSPropertyOp35
 70
     1
102
RTVSPropertyOp36
 70
     1
102
RTVSPropertyOp37
 70
     1
102
RTVSPropertyOp38
 70
     1
102
RTVSPropertyOp39
 70
     1
102
RTVSPropertyOp40
 70
     1
102
RTVSPropertyOp41
 70
     1
102
RTVSPropertyOp42
 70
     1
102
RTVSPropertyOp43
 70
     1
102
RTVSPropertyOp44
 70
     1
102
RTVSPropertyOp45
 70
     1
102
RTVSPropertyOp46
 70
     1
102
RTVSPropertyOp47
 70
     1
102
RTVSPropertyOp48
 70
     1
102
RTVSPropertyOp49
 70
     1
102
RTVSPropertyOp50
 70
     1
102
RTVSPropertyOp51
 70
     0
102
RTVSPropertyOp52
 70
     0
102
RTVSPropertyOp53
 70
     1
102
RTVSPropertyOp54
 70
     1
102
RTVSPropertyOp55
 70
     1
102
RTVSPropertyOp56
 70
     1
102
RTVSPropertyOp57
 70
     1
102
RTVSPropertyOp58
 70
     1
102
RTVSPropertyOp59
 70
     1
102
RTVSPropertyOp60
 70
     1
102
RTVSPropertyOp61
 70
     1
102
RTVSPropertyOp62
 70
     1
  0
XRECORD
  5
6C0
102
{ACAD_REACTORS
330
6BF
102
}
330
6BF
100
AcDbXrecord
280
     1
102
RTVSPost2010Prop28
280
     0
102
RTVSPost2010PropOp28
 70
     1
102
RTVSPost2010Prop29
280
     1
102
RTVSPost2010PropOp29
 70
     1
102
RTVSPost2010Prop30
280
     1
102
RTVSPost2010PropOp30
 70
     1
102
RTVSPost2010Prop31
280
     0
102
RTVSPost2010PropOp31
 70
     1
102
RTVSPost2010Prop32
280
     0
102
RTVSPost2010PropOp32
 70
     1
102
RTVSPost2010Prop33
280
     0
102
RTVSPost2010PropOp33
 70
     1
102
RTVSPost2010Prop34
280
     0
102
RTVSPost2010PropOp34
 70
     1
102
RTVSPost2010Prop35
280
     0
102
RTVSPost2010PropOp35
 70
     1
102
RTVSPost2010Prop36
280
     0
102
RTVSPost2010PropOp36
 70
     1
102
RTVSPost2010Prop37
 90
       50
102
RTVSPost2010PropOp37
 70
     0
102
RTVSPost2010Prop38
140
0.0
102
RTVSPost2010PropOp38
 70
     0
102
RTVSPost2010Prop39
140
1.0
102
RTVSPost2010PropOp39
 70
     0
102
RTVSPost2010Prop40
 90
        0
102
RTVSPost2010PropOp40
 70
     0
102
RTVSPost2010Prop41ColorIndex
 90
       18
102
RTVSPost2010Prop41ColorRGB
 90
        0
102
RTVSPost2010PropOp41
 70
     0
102
RTVSPost2010Prop42
 90
       50
102
RTVSPost2010PropOp42
 70
     0
102
RTVSPost2010Prop43
 90
        3
102
RTVSPost2010PropOp43
 70
     0
102
RTVSPost2010Prop44ColorIndex
 90
        5
102
RTVSPost2010Prop44ColorRGB
 90
      255
102
RTVSPost2010PropOp44
 70
     0
102
RTVSPost2010Prop45
280
     0
102
RTVSPost2010PropOp45
 70
     1
102
RTVSPost2010Prop46
 90
       50
102
RTVSPost2010PropOp46
 70
     0
102
RTVSPost2010Prop47
 90
       50
102
RTVSPost2010PropOp47
 70
     0
102
RTVSPost2010Prop48
 90
       50
102
RTVSPost2010PropOp48
 70
     0
102
RTVSPost2010Prop49
280
     0
102
RTVSPost2010PropOp49
 70
     1
102
RTVSPost2010Prop50
 90
       50
102
RTVSPost2010PropOp50
 70
     0
102
RTVSPost2010Prop51ColorIndex
 90
      256
102
RTVSPost2010Prop51ColorRGB
 90
-16777216
102
RTVSPost2010PropOp51
 70
     0
102
RTVSPost2010Prop52
140
1.0
102
RTVSPost2010PropOp52
 70
     0
102
RTVSPost2010Prop53
 90
        2
102
RTVSPost2010PropOp53
 70
     0
102
RTVSPost2010Prop54
  1
strokes_ogs.tif
102
RTVSPost2010PropOp54
 70
     0
102
RTVSPost2010Prop55
280
     0
102
RTVSPost2010PropOp55
 70
     1
102
RTVSPost2010Prop56
140
1.0
102
RTVSPost2010PropOp56
 70
     0
102
RTVSPost2010Prop57
140
1.0
102
RTVSPost2010PropOp57
 70
     0
102
RTVSPropertyOp0
 70
     0
102
RTVSPropertyOp1
 70
     0
102
RTVSPropertyOp2
 70
     0
102
RTVSPropertyOp3
 70
     0
102
RTVSPropertyOp4
 70
     0
102
RTVSPropertyOp5
 70
     0
102
RTVSPropertyOp6
 70
     0
102
RTVSPropertyOp7
 70
     0
102
RTVSPropertyOp8
 70
     0
102
RTVSPropertyOp9
 70
     0
102
RTVSPropertyOp10
 70
     0
102
RTVSPropertyOp11
 70
     0
102
RTVSPropertyOp12
 70
     0
102
RTVSPropertyOp13
 70
     0
102
RTVSPropertyOp14
 70
     2
102
RTVSPropertyOp15
 70
     0
102
RTVSPropertyOp16
 70
     0
102
RTVSPropertyOp17
 70
     0
102
RTVSPropertyOp18
 70
     0
102
RTVSPropertyOp19
 70
     0
102
RTVSPropertyOp20
 70
     0
102
RTVSPropertyOp21
 70
     0
102
RTVSPropertyOp22
 70
     0
102
RTVSPropertyOp23
 70
     0
102
RTVSPropertyOp24
 70
     0
102
RTVSPropertyOp25
 70
     0
102
RTVSPropertyOp26
 70
     0
102
RTVSPropertyOp27
 70
     0
102
RTVSPropertyOp28
 70
     1
102
RTVSPropertyOp29
 70
     1
102
RTVSPropertyOp30
 70
     1
102
RTVSPropertyOp31
 70
     1
102
RTVSPropertyOp32
 70
     1
102
RTVSPropertyOp33
 70
     1
102
RTVSPropertyOp34
 70
     1
102
RTVSPropertyOp35
 70
     1
102
RTVSPropertyOp36
 70
     1
102
RTVSPropertyOp37
 70
     0
102
RTVSPropertyOp38
 70
     0
102
RTVSPropertyOp39
 70
     0
102
RTVSPropertyOp40
 70
     0
102
RTVSPropertyOp41
 70
     0
102
RTVSPropertyOp42
 70
     0
102
RTVSPropertyOp43
 70
     0
102
RTVSPropertyOp44
 70
     0
102
RTVSPropertyOp45
 70
     1
102
RTVSPropertyOp46
 70
     0
102
RTVSPropertyOp47
 70
     0
102
RTVSPropertyOp48
 70
     0
102
RTVSPropertyOp49
 70
     1
102
RTVSPropertyOp50
 70
     0
102
RTVSPropertyOp51
 70
     0
102
RTVSPropertyOp52
 70
     0
102
RTVSPropertyOp53
 70
     0
102
RTVSPropertyOp54
 70
     0
102
RTVSPropertyOp55
 70
     1
102
RTVSPropertyOp56
 70
     0
102
RTVSPropertyOp57
 70
     0
102
RTVSPropertyOp58
 70
     0
102
RTVSPropertyOp59
 70
     0
102
RTVSPropertyOp60
 70
     0
102
RTVSPropertyOp61
 70
     0
102
RTVSPropertyOp62
 70
     0
  0
XRECORD
  5
6B0
102
{ACAD_REACTORS
330
6AF
102
}
330
6AF
100
AcDbXrecord
280
     1
102
RTVSPost2010Prop28
280
     0
102
RTVSPost2010PropOp28
 70
     1
102
RTVSPost2010Prop29
280
     1
102
RTVSPost2010PropOp29
 70
     1
102
RTVSPost2010Prop30
280
     1
102
RTVSPost2010PropOp30
 70
     1
102
RTVSPost2010Prop31
280
     0
102
RTVSPost2010PropOp31
 70
     1
102
RTVSPost2010Prop32
280
     0
102
RTVSPost2010PropOp32
 70
     1
102
RTVSPost2010Prop33
280
     0
102
RTVSPost2010PropOp33
 70
     1
102
RTVSPost2010Prop34
280
     0
102
RTVSPost2010PropOp34
 70
     1
102
RTVSPost2010Prop35
280
     0
102
RTVSPost2010PropOp35
 70
     1
102
RTVSPost2010Prop36
280
     0
102
RTVSPost2010PropOp36
 70
     1
102
RTVSPost2010Prop37
 90
       50
102
RTVSPost2010PropOp37
 70
     1
102
RTVSPost2010Prop38
140
0.0
102
RTVSPost2010PropOp38
 70
     1
102
RTVSPost2010Prop39
140
1.0
102
RTVSPost2010PropOp39
 70
     1
102
RTVSPost2010Prop40
 90
        0
102
RTVSPost2010PropOp40
 70
     1
102
RTVSPost2010Prop41ColorIndex
 90
       18
102
RTVSPost2010Prop41ColorRGB
 90
        0
102
RTVSPost2010PropOp41
 70
     1
102
RTVSPost2010Prop42
 90
       50
102
RTVSPost2010PropOp42
 70
     1
102
RTVSPost2010Prop43
 90
        3
102
RTVSPost2010PropOp43
 70
     1
102
RTVSPost2010Prop44ColorIndex
 90
        5
102
RTVSPost2010Prop44ColorRGB
 90
      255
102
RTVSPost2010PropOp44
 70
     1
102
RTVSPost2010Prop45
280
     0
102
RTVSPost2010PropOp45
 70
     1
102
RTVSPost2010Prop46
 90
       50
102
RTVSPost2010PropOp46
 70
     1
102
RTVSPost2010Prop47
 90
       50
102
RTVSPost2010PropOp47
 70
     1
102
RTVSPost2010Prop48
 90
       50
102
RTVSPost2010PropOp48
 70
     1
102
RTVSPost2010Prop49
280
     0
102
RTVSPost2010PropOp49
 70
     1
102
RTVSPost2010Prop50
 90
       50
102
RTVSPost2010PropOp50
 70
     1
102
RTVSPost2010Prop51ColorIndex
 90
      256
102
RTVSPost2010Prop51ColorRGB
 90
-16777216
102
RTVSPost2010PropOp51
 70
     0
102
RTVSPost2010Prop52
140
1.0
102
RTVSPost2010PropOp52
 70
     0
102
RTVSPost2010Prop53
 90
        2
102
RTVSPost2010PropOp53
 70
     1
102
RTVSPost2010Prop54
  1
strokes_ogs.tif
102
RTVSPost2010PropOp54
 70
     1
102
RTVSPost2010Prop55
280
     0
102
RTVSPost2010PropOp55
 70
     1
102
RTVSPost2010Prop56
140
1.0
102
RTVSPost2010PropOp56
 70
     1
102
RTVSPost2010Prop57
140
1.0
102
RTVSPost2010PropOp57
 70
     1
102
RTVSPropertyOp0
 70
     1
102
RTVSPropertyOp1
 70
     1
102
RTVSPropertyOp2
 70
     1
102
RTVSPropertyOp3
 70
     1
102
RTVSPropertyOp4
 70
     1
102
RTVSPropertyOp5
 70
     1
102
RTVSPropertyOp6
 70
     1
102
RTVSPropertyOp7
 70
     1
102
RTVSPropertyOp8
 70
     1
102
RTVSPropertyOp9
 70
     1
102
RTVSPropertyOp10
 70
     1
102
RTVSPropertyOp11
 70
     1
102
RTVSPropertyOp12
 70
     1
102
RTVSPropertyOp13
 70
     1
102
RTVSPropertyOp14
 70
     1
102
RTVSPropertyOp15
 70
     1
102
RTVSPropertyOp16
 70
     1
102
RTVSPropertyOp17
 70
     1
102
RTVSPropertyOp18
 70
     1
102
RTVSPropertyOp19
 70
     1
102
RTVSPropertyOp20
 70
     1
102
RTVSPropertyOp21
 70
     1
102
RTVSPropertyOp22
 70
     1
102
RTVSPropertyOp23
 70
     1
102
RTVSPropertyOp24
 70
     1
102
RTVSPropertyOp25
 70
     1
102
RTVSPropertyOp26
 70
     1
102
RTVSPropertyOp27
 70
     1
102
RTVSPropertyOp28
 70
     1
102
RTVSPropertyOp29
 70
     1
102
RTVSPropertyOp30
 70
     1
102
RTVSPropertyOp31
 70
     1
102
RTVSPropertyOp32
 70
     1
102
RTVSPropertyOp33
 70
     1
102
RTVSPropertyOp34
 70
     1
102
RTVSPropertyOp35
 70
     1
102
RTVSPropertyOp36
 70
     1
102
RTVSPropertyOp37
 70
     1
102
RTVSPropertyOp38
 70
     1
102
RTVSPropertyOp39
 70
     1
102
RTVSPropertyOp40
 70
     1
102
RTVSPropertyOp41
 70
     1
102
RTVSPropertyOp42
 70
     1
102
RTVSPropertyOp43
 70
     1
102
RTVSPropertyOp44
 70
     1
102
RTVSPropertyOp45
 70
     1
102
RTVSPropertyOp46
 70
     1
102
RTVSPropertyOp47
 70
     1
102
RTVSPropertyOp48
 70
     1
102
RTVSPropertyOp49
 70
     1
102
RTVSPropertyOp50
 70
     1
102
RTVSPropertyOp51
 70
     0
102
RTVSPropertyOp52
 70
     0
102
RTVSPropertyOp53
 70
     1
102
RTVSPropertyOp54
 70
     1
102
RTVSPropertyOp55
 70
     1
102
RTVSPropertyOp56
 70
     1
102
RTVSPropertyOp57
 70
     1
102
RTVSPropertyOp58
 70
     1
102
RTVSPropertyOp59
 70
     1
102
RTVSPropertyOp60
 70
     1
102
RTVSPropertyOp61
 70
     1
102
RTVSPropertyOp62
 70
     1
  0
XRECORD
  5
6C2
102
{ACAD_REACTORS
330
6C1
102
}
330
6C1
100
AcDbXrecord
280
     1
102
RTVSPost2010Prop28
280
     0
102
RTVSPost2010PropOp28
 70
     1
102
RTVSPost2010Prop29
280
     1
102
RTVSPost2010PropOp29
 70
     1
102
RTVSPost2010Prop30
280
     1
102
RTVSPost2010PropOp30
 70
     1
102
RTVSPost2010Prop31
280
     0
102
RTVSPost2010PropOp31
 70
     1
102
RTVSPost2010Prop32
280
     0
102
RTVSPost2010PropOp32
 70
     1
102
RTVSPost2010Prop33
280
     0
102
RTVSPost2010PropOp33
 70
     1
102
RTVSPost2010Prop34
280
     0
102
RTVSPost2010PropOp34
 70
     1
102
RTVSPost2010Prop35
280
     0
102
RTVSPost2010PropOp35
 70
     1
102
RTVSPost2010Prop36
280
     0
102
RTVSPost2010PropOp36
 70
     1
102
RTVSPost2010Prop37
 90
       50
102
RTVSPost2010PropOp37
 70
     0
102
RTVSPost2010Prop38
140
0.0
102
RTVSPost2010PropOp38
 70
     0
102
RTVSPost2010Prop39
140
1.0
102
RTVSPost2010PropOp39
 70
     0
102
RTVSPost2010Prop40
 90
        0
102
RTVSPost2010PropOp40
 70
     0
102
RTVSPost2010Prop41ColorIndex
 90
       18
102
RTVSPost2010Prop41ColorRGB
 90
        0
102
RTVSPost2010PropOp41
 70
     0
102
RTVSPost2010Prop42
 90
       50
102
RTVSPost2010PropOp42
 70
     0
102
RTVSPost2010Prop43
 90
        3
102
RTVSPost2010PropOp43
 70
     0
102
RTVSPost2010Prop44ColorIndex
 90
        5
102
RTVSPost2010Prop44ColorRGB
 90
      255
102
RTVSPost2010PropOp44
 70
     0
102
RTVSPost2010Prop45
280
     0
102
RTVSPost2010PropOp45
 70
     1
102
RTVSPost2010Prop46
 90
       50
102
RTVSPost2010PropOp46
 70
     0
102
RTVSPost2010Prop47
 90
       50
102
RTVSPost2010PropOp47
 70
     0
102
RTVSPost2010Prop48
 90
       50
102
RTVSPost2010PropOp48
 70
     0
102
RTVSPost2010Prop49
280
     0
102
RTVSPost2010PropOp49
 70
     1
102
RTVSPost2010Prop50
 90
       50
102
RTVSPost2010PropOp50
 70
     0
102
RTVSPost2010Prop51ColorIndex
 90
      256
102
RTVSPost2010Prop51ColorRGB
 90
-16777216
102
RTVSPost2010PropOp51
 70
     0
102
RTVSPost2010Prop52
140
1.0
102
RTVSPost2010PropOp52
 70
     0
102
RTVSPost2010Prop53
 90
        2
102
RTVSPost2010PropOp53
 70
     0
102
RTVSPost2010Prop54
  1
strokes_ogs.tif
102
RTVSPost2010PropOp54
 70
     0
102
RTVSPost2010Prop55
280
     0
102
RTVSPost2010PropOp55
 70
     1
102
RTVSPost2010Prop56
140
1.0
102
RTVSPost2010PropOp56
 70
     0
102
RTVSPost2010Prop57
140
1.0
102
RTVSPost2010PropOp57
 70
     0
102
RTVSPropertyOp0
 70
     0
102
RTVSPropertyOp1
 70
     0
102
RTVSPropertyOp2
 70
     0
102
RTVSPropertyOp3
 70
     0
102
RTVSPropertyOp4
 70
     0
102
RTVSPropertyOp5
 70
     0
102
RTVSPropertyOp6
 70
     0
102
RTVSPropertyOp7
 70
     0
102
RTVSPropertyOp8
 70
     0
102
RTVSPropertyOp9
 70
     0
102
RTVSPropertyOp10
 70
     0
102
RTVSPropertyOp11
 70
     0
102
RTVSPropertyOp12
 70
     0
102
RTVSPropertyOp13
 70
     0
102
RTVSPropertyOp14
 70
     2
102
RTVSPropertyOp15
 70
     0
102
RTVSPropertyOp16
 70
     0
102
RTVSPropertyOp17
 70
     0
102
RTVSPropertyOp18
 70
     0
102
RTVSPropertyOp19
 70
     0
102
RTVSPropertyOp20
 70
     0
102
RTVSPropertyOp21
 70
     0
102
RTVSPropertyOp22
 70
     0
102
RTVSPropertyOp23
 70
     0
102
RTVSPropertyOp24
 70
     0
102
RTVSPropertyOp25
 70
     0
102
RTVSPropertyOp26
 70
     0
102
RTVSPropertyOp27
 70
     0
102
RTVSPropertyOp28
 70
     1
102
RTVSPropertyOp29
 70
     1
102
RTVSPropertyOp30
 70
     1
102
RTVSPropertyOp31
 70
     1
102
RTVSPropertyOp32
 70
     1
102
RTVSPropertyOp33
 70
     1
102
RTVSPropertyOp34
 70
     1
102
RTVSPropertyOp35
 70
     1
102
RTVSPropertyOp36
 70
     1
102
RTVSPropertyOp37
 70
     0
102
RTVSPropertyOp38
 70
     0
102
RTVSPropertyOp39
 70
     0
102
RTVSPropertyOp40
 70
     0
102
RTVSPropertyOp41
 70
     0
102
RTVSPropertyOp42
 70
     0
102
RTVSPropertyOp43
 70
     0
102
RTVSPropertyOp44
 70
     0
102
RTVSPropertyOp45
 70
     1
102
RTVSPropertyOp46
 70
     0
102
RTVSPropertyOp47
 70
     0
102
RTVSPropertyOp48
 70
     0
102
RTVSPropertyOp49
 70
     1
102
RTVSPropertyOp50
 70
     0
102
RTVSPropertyOp51
 70
     0
102
RTVSPropertyOp52
 70
     0
102
RTVSPropertyOp53
 70
     0
102
RTVSPropertyOp54
 70
     0
102
RTVSPropertyOp55
 70
     1
102
RTVSPropertyOp56
 70
     0
102
RTVSPropertyOp57
 70
     0
102
RTVSPropertyOp58
 70
     0
102
RTVSPropertyOp59
 70
     0
102
RTVSPropertyOp60
 70
     0
102
RTVSPropertyOp61
 70
     0
102
RTVSPropertyOp62
 70
     0
  0
XRECORD
  5
6A8
102
{ACAD_REACTORS
330
6A7
102
}
330
6A7
100
AcDbXrecord
280
     1
102
RTVSPost2010Prop28
280
     0
102
RTVSPost2010PropOp28
 70
     1
102
RTVSPost2010Prop29
280
     1
102
RTVSPost2010PropOp29
 70
     1
102
RTVSPost2010Prop30
280
     1
102
RTVSPost2010PropOp30
 70
     1
102
RTVSPost2010Prop31
280
     0
102
RTVSPost2010PropOp31
 70
     1
102
RTVSPost2010Prop32
280
     0
102
RTVSPost2010PropOp32
 70
     1
102
RTVSPost2010Prop33
280
     0
102
RTVSPost2010PropOp33
 70
     1
102
RTVSPost2010Prop34
280
     0
102
RTVSPost2010PropOp34
 70
     1
102
RTVSPost2010Prop35
280
     0
102
RTVSPost2010PropOp35
 70
     1
102
RTVSPost2010Prop36
280
     0
102
RTVSPost2010PropOp36
 70
     1
102
RTVSPost2010Prop37
 90
       50
102
RTVSPost2010PropOp37
 70
     1
102
RTVSPost2010Prop38
140
0.0
102
RTVSPost2010PropOp38
 70
     1
102
RTVSPost2010Prop39
140
1.0
102
RTVSPost2010PropOp39
 70
     1
102
RTVSPost2010Prop40
 90
        0
102
RTVSPost2010PropOp40
 70
     1
102
RTVSPost2010Prop41ColorIndex
 90
       18
102
RTVSPost2010Prop41ColorRGB
 90
        0
102
RTVSPost2010PropOp41
 70
     1
102
RTVSPost2010Prop42
 90
       50
102
RTVSPost2010PropOp42
 70
     1
102
RTVSPost2010Prop43
 90
        3
102
RTVSPost2010PropOp43
 70
     1
102
RTVSPost2010Prop44ColorIndex
 90
        5
102
RTVSPost2010Prop44ColorRGB
 90
      255
102
RTVSPost2010PropOp44
 70
     1
102
RTVSPost2010Prop45
280
     0
102
RTVSPost2010PropOp45
 70
     1
102
RTVSPost2010Prop46
 90
       50
102
RTVSPost2010PropOp46
 70
     1
102
RTVSPost2010Prop47
 90
       50
102
RTVSPost2010PropOp47
 70
     1
102
RTVSPost2010Prop48
 90
       50
102
RTVSPost2010PropOp48
 70
     1
102
RTVSPost2010Prop49
280
     0
102
RTVSPost2010PropOp49
 70
     1
102
RTVSPost2010Prop50
 90
       50
102
RTVSPost2010PropOp50
 70
     1
102
RTVSPost2010Prop51ColorIndex
 90
      256
102
RTVSPost2010Prop51ColorRGB
 90
-16777216
102
RTVSPost2010PropOp51
 70
     0
102
RTVSPost2010Prop52
140
1.0
102
RTVSPost2010PropOp52
 70
     0
102
RTVSPost2010Prop53
 90
        2
102
RTVSPost2010PropOp53
 70
     1
102
RTVSPost2010Prop54
  1
strokes_ogs.tif
102
RTVSPost2010PropOp54
 70
     1
102
RTVSPost2010Prop55
280
     0
102
RTVSPost2010PropOp55
 70
     1
102
RTVSPost2010Prop56
140
1.0
102
RTVSPost2010PropOp56
 70
     1
102
RTVSPost2010Prop57
140
1.0
102
RTVSPost2010PropOp57
 70
     1
102
RTVSPropertyOp0
 70
     1
102
RTVSPropertyOp1
 70
     1
102
RTVSPropertyOp2
 70
     1
102
RTVSPropertyOp3
 70
     1
102
RTVSPropertyOp4
 70
     1
102
RTVSPropertyOp5
 70
     1
102
RTVSPropertyOp6
 70
     1
102
RTVSPropertyOp7
 70
     1
102
RTVSPropertyOp8
 70
     1
102
RTVSPropertyOp9
 70
     1
102
RTVSPropertyOp10
 70
     1
102
RTVSPropertyOp11
 70
     1
102
RTVSPropertyOp12
 70
     1
102
RTVSPropertyOp13
 70
     1
102
RTVSPropertyOp14
 70
     1
102
RTVSPropertyOp15
 70
     1
102
RTVSPropertyOp16
 70
     1
102
RTVSPropertyOp17
 70
     1
102
RTVSPropertyOp18
 70
     1
102
RTVSPropertyOp19
 70
     1
102
RTVSPropertyOp20
 70
     1
102
RTVSPropertyOp21
 70
     1
102
RTVSPropertyOp22
 70
     1
102
RTVSPropertyOp23
 70
     1
102
RTVSPropertyOp24
 70
     1
102
RTVSPropertyOp25
 70
     1
102
RTVSPropertyOp26
 70
     1
102
RTVSPropertyOp27
 70
     1
102
RTVSPropertyOp28
 70
     1
102
RTVSPropertyOp29
 70
     1
102
RTVSPropertyOp30
 70
     1
102
RTVSPropertyOp31
 70
     1
102
RTVSPropertyOp32
 70
     1
102
RTVSPropertyOp33
 70
     1
102
RTVSPropertyOp34
 70
     1
102
RTVSPropertyOp35
 70
     1
102
RTVSPropertyOp36
 70
     1
102
RTVSPropertyOp37
 70
     1
102
RTVSPropertyOp38
 70
     1
102
RTVSPropertyOp39
 70
     1
102
RTVSPropertyOp40
 70
     1
102
RTVSPropertyOp41
 70
     1
102
RTVSPropertyOp42
 70
     1
102
RTVSPropertyOp43
 70
     1
102
RTVSPropertyOp44
 70
     1
102
RTVSPropertyOp45
 70
     1
102
RTVSPropertyOp46
 70
     1
102
RTVSPropertyOp47
 70
     1
102
RTVSPropertyOp48
 70
     1
102
RTVSPropertyOp49
 70
     1
102
RTVSPropertyOp50
 70
     1
102
RTVSPropertyOp51
 70
     0
102
RTVSPropertyOp52
 70
     0
102
RTVSPropertyOp53
 70
     1
102
RTVSPropertyOp54
 70
     1
102
RTVSPropertyOp55
 70
     1
102
RTVSPropertyOp56
 70
     1
102
RTVSPropertyOp57
 70
     1
102
RTVSPropertyOp58
 70
     1
102
RTVSPropertyOp59
 70
     1
102
RTVSPropertyOp60
 70
     1
102
RTVSPropertyOp61
 70
     1
102
RTVSPropertyOp62
 70
     1
  0
XRECORD
  5
6BE
102
{ACAD_REACTORS
330
6BD
102
}
330
6BD
100
AcDbXrecord
280
     1
102
RTVSPost2010Prop28
280
     0
102
RTVSPost2010PropOp28
 70
     1
102
RTVSPost2010Prop29
280
     1
102
RTVSPost2010PropOp29
 70
     1
102
RTVSPost2010Prop30
280
     1
102
RTVSPost2010PropOp30
 70
     1
102
RTVSPost2010Prop31
280
     0
102
RTVSPost2010PropOp31
 70
     1
102
RTVSPost2010Prop32
280
     0
102
RTVSPost2010PropOp32
 70
     1
102
RTVSPost2010Prop33
280
     0
102
RTVSPost2010PropOp33
 70
     1
102
RTVSPost2010Prop34
280
     0
102
RTVSPost2010PropOp34
 70
     1
102
RTVSPost2010Prop35
280
     0
102
RTVSPost2010PropOp35
 70
     1
102
RTVSPost2010Prop36
280
     0
102
RTVSPost2010PropOp36
 70
     1
102
RTVSPost2010Prop37
 90
       50
102
RTVSPost2010PropOp37
 70
     1
102
RTVSPost2010Prop38
140
0.0
102
RTVSPost2010PropOp38
 70
     1
102
RTVSPost2010Prop39
140
1.0
102
RTVSPost2010PropOp39
 70
     1
102
RTVSPost2010Prop40
 90
        0
102
RTVSPost2010PropOp40
 70
     1
102
RTVSPost2010Prop41ColorIndex
 90
       18
102
RTVSPost2010Prop41ColorRGB
 90
        0
102
RTVSPost2010PropOp41
 70
     1
102
RTVSPost2010Prop42
 90
       50
102
RTVSPost2010PropOp42
 70
     1
102
RTVSPost2010Prop43
 90
        3
102
RTVSPost2010PropOp43
 70
     1
102
RTVSPost2010Prop44ColorIndex
 90
        5
102
RTVSPost2010Prop44ColorRGB
 90
      255
102
RTVSPost2010PropOp44
 70
     1
102
RTVSPost2010Prop45
280
     0
102
RTVSPost2010PropOp45
 70
     1
102
RTVSPost2010Prop46
 90
       50
102
RTVSPost2010PropOp46
 70
     1
102
RTVSPost2010Prop47
 90
       50
102
RTVSPost2010PropOp47
 70
     1
102
RTVSPost2010Prop48
 90
       50
102
RTVSPost2010PropOp48
 70
     1
102
RTVSPost2010Prop49
280
     0
102
RTVSPost2010PropOp49
 70
     1
102
RTVSPost2010Prop50
 90
       50
102
RTVSPost2010PropOp50
 70
     1
102
RTVSPost2010Prop51ColorIndex
 90
      256
102
RTVSPost2010Prop51ColorRGB
 90
-16777216
102
RTVSPost2010PropOp51
 70
     0
102
RTVSPost2010Prop52
140
1.0
102
RTVSPost2010PropOp52
 70
     0
102
RTVSPost2010Prop53
 90
        2
102
RTVSPost2010PropOp53
 70
     1
102
RTVSPost2010Prop54
  1
strokes_ogs.tif
102
RTVSPost2010PropOp54
 70
     1
102
RTVSPost2010Prop55
280
     0
102
RTVSPost2010PropOp55
 70
     1
102
RTVSPost2010Prop56
140
1.0
102
RTVSPost2010PropOp56
 70
     1
102
RTVSPost2010Prop57
140
1.0
102
RTVSPost2010PropOp57
 70
     1
102
RTVSPropertyOp0
 70
     1
102
RTVSPropertyOp1
 70
     1
102
RTVSPropertyOp2
 70
     1
102
RTVSPropertyOp3
 70
     1
102
RTVSPropertyOp4
 70
     1
102
RTVSPropertyOp5
 70
     1
102
RTVSPropertyOp6
 70
     1
102
RTVSPropertyOp7
 70
     1
102
RTVSPropertyOp8
 70
     1
102
RTVSPropertyOp9
 70
     1
102
RTVSPropertyOp10
 70
     1
102
RTVSPropertyOp11
 70
     1
102
RTVSPropertyOp12
 70
     1
102
RTVSPropertyOp13
 70
     1
102
RTVSPropertyOp14
 70
     1
102
RTVSPropertyOp15
 70
     1
102
RTVSPropertyOp16
 70
     1
102
RTVSPropertyOp17
 70
     1
102
RTVSPropertyOp18
 70
     1
102
RTVSPropertyOp19
 70
     1
102
RTVSPropertyOp20
 70
     1
102
RTVSPropertyOp21
 70
     1
102
RTVSPropertyOp22
 70
     1
102
RTVSPropertyOp23
 70
     1
102
RTVSPropertyOp24
 70
     1
102
RTVSPropertyOp25
 70
     1
102
RTVSPropertyOp26
 70
     1
102
RTVSPropertyOp27
 70
     1
102
RTVSPropertyOp28
 70
     1
102
RTVSPropertyOp29
 70
     1
102
RTVSPropertyOp30
 70
     1
102
RTVSPropertyOp31
 70
     1
102
RTVSPropertyOp32
 70
     1
102
RTVSPropertyOp33
 70
     1
102
RTVSPropertyOp34
 70
     1
102
RTVSPropertyOp35
 70
     1
102
RTVSPropertyOp36
 70
     1
102
RTVSPropertyOp37
 70
     1
102
RTVSPropertyOp38
 70
     1
102
RTVSPropertyOp39
 70
     1
102
RTVSPropertyOp40
 70
     1
102
RTVSPropertyOp41
 70
     1
102
RTVSPropertyOp42
 70
     1
102
RTVSPropertyOp43
 70
     1
102
RTVSPropertyOp44
 70
     1
102
RTVSPropertyOp45
 70
     1
102
RTVSPropertyOp46
 70
     1
102
RTVSPropertyOp47
 70
     1
102
RTVSPropertyOp48
 70
     1
102
RTVSPropertyOp49
 70
     1
102
RTVSPropertyOp50
 70
     1
102
RTVSPropertyOp51
 70
     0
102
RTVSPropertyOp52
 70
     0
102
RTVSPropertyOp53
 70
     1
102
RTVSPropertyOp54
 70
     1
102
RTVSPropertyOp55
 70
     1
102
RTVSPropertyOp56
 70
     1
102
RTVSPropertyOp57
 70
     1
102
RTVSPropertyOp58
 70
     1
102
RTVSPropertyOp59
 70
     1
102
RTVSPropertyOp60
 70
     1
102
RTVSPropertyOp61
 70
     1
102
RTVSPropertyOp62
 70
     1
  0
XRECORD
  5
6BC
102
{ACAD_REACTORS
330
6BB
102
}
330
6BB
100
AcDbXrecord
280
     1
102
RTVSPost2010Prop28
280
     0
102
RTVSPost2010PropOp28
 70
     1
102
RTVSPost2010Prop29
280
     1
102
RTVSPost2010PropOp29
 70
     1
102
RTVSPost2010Prop30
280
     1
102
RTVSPost2010PropOp30
 70
     1
102
RTVSPost2010Prop31
280
     0
102
RTVSPost2010PropOp31
 70
     1
102
RTVSPost2010Prop32
280
     0
102
RTVSPost2010PropOp32
 70
     1
102
RTVSPost2010Prop33
280
     0
102
RTVSPost2010PropOp33
 70
     1
102
RTVSPost2010Prop34
280
     0
102
RTVSPost2010PropOp34
 70
     1
102
RTVSPost2010Prop35
280
     0
102
RTVSPost2010PropOp35
 70
     1
102
RTVSPost2010Prop36
280
     0
102
RTVSPost2010PropOp36
 70
     1
102
RTVSPost2010Prop37
 90
       50
102
RTVSPost2010PropOp37
 70
     1
102
RTVSPost2010Prop38
140
0.0
102
RTVSPost2010PropOp38
 70
     1
102
RTVSPost2010Prop39
140
1.0
102
RTVSPost2010PropOp39
 70
     1
102
RTVSPost2010Prop40
 90
        0
102
RTVSPost2010PropOp40
 70
     1
102
RTVSPost2010Prop41ColorIndex
 90
       18
102
RTVSPost2010Prop41ColorRGB
 90
        0
102
RTVSPost2010PropOp41
 70
     1
102
RTVSPost2010Prop42
 90
       50
102
RTVSPost2010PropOp42
 70
     1
102
RTVSPost2010Prop43
 90
        3
102
RTVSPost2010PropOp43
 70
     1
102
RTVSPost2010Prop44ColorIndex
 90
        5
102
RTVSPost2010Prop44ColorRGB
 90
      255
102
RTVSPost2010PropOp44
 70
     1
102
RTVSPost2010Prop45
280
     0
102
RTVSPost2010PropOp45
 70
     1
102
RTVSPost2010Prop46
 90
       50
102
RTVSPost2010PropOp46
 70
     1
102
RTVSPost2010Prop47
 90
       50
102
RTVSPost2010PropOp47
 70
     1
102
RTVSPost2010Prop48
 90
       50
102
RTVSPost2010PropOp48
 70
     1
102
RTVSPost2010Prop49
280
     0
102
RTVSPost2010PropOp49
 70
     1
102
RTVSPost2010Prop50
 90
       50
102
RTVSPost2010PropOp50
 70
     1
102
RTVSPost2010Prop51ColorIndex
 90
      256
102
RTVSPost2010Prop51ColorRGB
 90
-16777216
102
RTVSPost2010PropOp51
 70
     0
102
RTVSPost2010Prop52
140
1.0
102
RTVSPost2010PropOp52
 70
     0
102
RTVSPost2010Prop53
 90
        2
102
RTVSPost2010PropOp53
 70
     1
102
RTVSPost2010Prop54
  1
strokes_ogs.tif
102
RTVSPost2010PropOp54
 70
     1
102
RTVSPost2010Prop55
280
     0
102
RTVSPost2010PropOp55
 70
     1
102
RTVSPost2010Prop56
140
1.0
102
RTVSPost2010PropOp56
 70
     1
102
RTVSPost2010Prop57
140
1.0
102
RTVSPost2010PropOp57
 70
     1
102
RTVSPropertyOp0
 70
     1
102
RTVSPropertyOp1
 70
     1
102
RTVSPropertyOp2
 70
     1
102
RTVSPropertyOp3
 70
     1
102
RTVSPropertyOp4
 70
     1
102
RTVSPropertyOp5
 70
     1
102
RTVSPropertyOp6
 70
     1
102
RTVSPropertyOp7
 70
     1
102
RTVSPropertyOp8
 70
     1
102
RTVSPropertyOp9
 70
     1
102
RTVSPropertyOp10
 70
     1
102
RTVSPropertyOp11
 70
     1
102
RTVSPropertyOp12
 70
     1
102
RTVSPropertyOp13
 70
     1
102
RTVSPropertyOp14
 70
     1
102
RTVSPropertyOp15
 70
     1
102
RTVSPropertyOp16
 70
     1
102
RTVSPropertyOp17
 70
     1
102
RTVSPropertyOp18
 70
     1
102
RTVSPropertyOp19
 70
     1
102
RTVSPropertyOp20
 70
     1
102
RTVSPropertyOp21
 70
     1
102
RTVSPropertyOp22
 70
     1
102
RTVSPropertyOp23
 70
     1
102
RTVSPropertyOp24
 70
     1
102
RTVSPropertyOp25
 70
     1
102
RTVSPropertyOp26
 70
     1
102
RTVSPropertyOp27
 70
     1
102
RTVSPropertyOp28
 70
     1
102
RTVSPropertyOp29
 70
     1
102
RTVSPropertyOp30
 70
     1
102
RTVSPropertyOp31
 70
     1
102
RTVSPropertyOp32
 70
     1
102
RTVSPropertyOp33
 70
     1
102
RTVSPropertyOp34
 70
     1
102
RTVSPropertyOp35
 70
     1
102
RTVSPropertyOp36
 70
     1
102
RTVSPropertyOp37
 70
     1
102
RTVSPropertyOp38
 70
     1
102
RTVSPropertyOp39
 70
     1
102
RTVSPropertyOp40
 70
     1
102
RTVSPropertyOp41
 70
     1
102
RTVSPropertyOp42
 70
     1
102
RTVSPropertyOp43
 70
     1
102
RTVSPropertyOp44
 70
     1
102
RTVSPropertyOp45
 70
     1
102
RTVSPropertyOp46
 70
     1
102
RTVSPropertyOp47
 70
     1
102
RTVSPropertyOp48
 70
     1
102
RTVSPropertyOp49
 70
     1
102
RTVSPropertyOp50
 70
     1
102
RTVSPropertyOp51
 70
     0
102
RTVSPropertyOp52
 70
     0
102
RTVSPropertyOp53
 70
     1
102
RTVSPropertyOp54
 70
     1
102
RTVSPropertyOp55
 70
     1
102
RTVSPropertyOp56
 70
     1
102
RTVSPropertyOp57
 70
     1
102
RTVSPropertyOp58
 70
     1
102
RTVSPropertyOp59
 70
     1
102
RTVSPropertyOp60
 70
     1
102
RTVSPropertyOp61
 70
     1
102
RTVSPropertyOp62
 70
     1
  0
XRECORD
  5
6B6
102
{ACAD_REACTORS
330
6B5
102
}
330
6B5
100
AcDbXrecord
280
     1
102
RTVSPost2010Prop28
280
     0
102
RTVSPost2010PropOp28
 70
     1
102
RTVSPost2010Prop29
280
     1
102
RTVSPost2010PropOp29
 70
     1
102
RTVSPost2010Prop30
280
     1
102
RTVSPost2010PropOp30
 70
     1
102
RTVSPost2010Prop31
280
     0
102
RTVSPost2010PropOp31
 70
     1
102
RTVSPost2010Prop32
280
     0
102
RTVSPost2010PropOp32
 70
     1
102
RTVSPost2010Prop33
280
     0
102
RTVSPost2010PropOp33
 70
     1
102
RTVSPost2010Prop34
280
     0
102
RTVSPost2010PropOp34
 70
     1
102
RTVSPost2010Prop35
280
     0
102
RTVSPost2010PropOp35
 70
     1
102
RTVSPost2010Prop36
280
     0
102
RTVSPost2010PropOp36
 70
     1
102
RTVSPost2010Prop37
 90
       50
102
RTVSPost2010PropOp37
 70
     1
102
RTVSPost2010Prop38
140
0.0
102
RTVSPost2010PropOp38
 70
     1
102
RTVSPost2010Prop39
140
1.0
102
RTVSPost2010PropOp39
 70
     1
102
RTVSPost2010Prop40
 90
        0
102
RTVSPost2010PropOp40
 70
     1
102
RTVSPost2010Prop41ColorIndex
 90
       18
102
RTVSPost2010Prop41ColorRGB
 90
        0
102
RTVSPost2010PropOp41
 70
     1
102
RTVSPost2010Prop42
 90
       50
102
RTVSPost2010PropOp42
 70
     1
102
RTVSPost2010Prop43
 90
        3
102
RTVSPost2010PropOp43
 70
     1
102
RTVSPost2010Prop44ColorIndex
 90
        5
102
RTVSPost2010Prop44ColorRGB
 90
      255
102
RTVSPost2010PropOp44
 70
     1
102
RTVSPost2010Prop45
280
     0
102
RTVSPost2010PropOp45
 70
     1
102
RTVSPost2010Prop46
 90
       50
102
RTVSPost2010PropOp46
 70
     1
102
RTVSPost2010Prop47
 90
       50
102
RTVSPost2010PropOp47
 70
     1
102
RTVSPost2010Prop48
 90
       50
102
RTVSPost2010PropOp48
 70
     1
102
RTVSPost2010Prop49
280
     0
102
RTVSPost2010PropOp49
 70
     1
102
RTVSPost2010Prop50
 90
       50
102
RTVSPost2010PropOp50
 70
     1
102
RTVSPost2010Prop51ColorIndex
 90
      256
102
RTVSPost2010Prop51ColorRGB
 90
-16777216
102
RTVSPost2010PropOp51
 70
     0
102
RTVSPost2010Prop52
140
1.0
102
RTVSPost2010PropOp52
 70
     0
102
RTVSPost2010Prop53
 90
        2
102
RTVSPost2010PropOp53
 70
     1
102
RTVSPost2010Prop54
  1
strokes_ogs.tif
102
RTVSPost2010PropOp54
 70
     1
102
RTVSPost2010Prop55
280
     0
102
RTVSPost2010PropOp55
 70
     1
102
RTVSPost2010Prop56
140
1.0
102
RTVSPost2010PropOp56
 70
     1
102
RTVSPost2010Prop57
140
1.0
102
RTVSPost2010PropOp57
 70
     1
102
RTVSPropertyOp0
 70
     1
102
RTVSPropertyOp1
 70
     1
102
RTVSPropertyOp2
 70
     1
102
RTVSPropertyOp3
 70
     1
102
RTVSPropertyOp4
 70
     1
102
RTVSPropertyOp5
 70
     1
102
RTVSPropertyOp6
 70
     1
102
RTVSPropertyOp7
 70
     1
102
RTVSPropertyOp8
 70
     1
102
RTVSPropertyOp9
 70
     1
102
RTVSPropertyOp10
 70
     1
102
RTVSPropertyOp11
 70
     1
102
RTVSPropertyOp12
 70
     1
102
RTVSPropertyOp13
 70
     1
102
RTVSPropertyOp14
 70
     1
102
RTVSPropertyOp15
 70
     1
102
RTVSPropertyOp16
 70
     1
102
RTVSPropertyOp17
 70
     1
102
RTVSPropertyOp18
 70
     1
102
RTVSPropertyOp19
 70
     1
102
RTVSPropertyOp20
 70
     1
102
RTVSPropertyOp21
 70
     1
102
RTVSPropertyOp22
 70
     1
102
RTVSPropertyOp23
 70
     1
102
RTVSPropertyOp24
 70
     1
102
RTVSPropertyOp25
 70
     1
102
RTVSPropertyOp26
 70
     1
102
RTVSPropertyOp27
 70
     1
102
RTVSPropertyOp28
 70
     1
102
RTVSPropertyOp29
 70
     1
102
RTVSPropertyOp30
 70
     1
102
RTVSPropertyOp31
 70
     1
102
RTVSPropertyOp32
 70
     1
102
RTVSPropertyOp33
 70
     1
102
RTVSPropertyOp34
 70
     1
102
RTVSPropertyOp35
 70
     1
102
RTVSPropertyOp36
 70
     1
102
RTVSPropertyOp37
 70
     1
102
RTVSPropertyOp38
 70
     1
102
RTVSPropertyOp39
 70
     1
102
RTVSPropertyOp40
 70
     1
102
RTVSPropertyOp41
 70
     1
102
RTVSPropertyOp42
 70
     1
102
RTVSPropertyOp43
 70
     1
102
RTVSPropertyOp44
 70
     1
102
RTVSPropertyOp45
 70
     1
102
RTVSPropertyOp46
 70
     1
102
RTVSPropertyOp47
 70
     1
102
RTVSPropertyOp48
 70
     1
102
RTVSPropertyOp49
 70
     1
102
RTVSPropertyOp50
 70
     1
102
RTVSPropertyOp51
 70
     0
102
RTVSPropertyOp52
 70
     0
102
RTVSPropertyOp53
 70
     1
102
RTVSPropertyOp54
 70
     1
102
RTVSPropertyOp55
 70
     1
102
RTVSPropertyOp56
 70
     1
102
RTVSPropertyOp57
 70
     1
102
RTVSPropertyOp58
 70
     1
102
RTVSPropertyOp59
 70
     1
102
RTVSPropertyOp60
 70
     1
102
RTVSPropertyOp61
 70
     1
102
RTVSPropertyOp62
 70
     1
  0
XRECORD
  5
6B8
102
{ACAD_REACTORS
330
6B7
102
}
330
6B7
100
AcDbXrecord
280
     1
102
RTVSPost2010Prop28
280
     0
102
RTVSPost2010PropOp28
 70
     1
102
RTVSPost2010Prop29
280
     1
102
RTVSPost2010PropOp29
 70
     1
102
RTVSPost2010Prop30
280
     1
102
RTVSPost2010PropOp30
 70
     1
102
RTVSPost2010Prop31
280
     0
102
RTVSPost2010PropOp31
 70
     1
102
RTVSPost2010Prop32
280
     0
102
RTVSPost2010PropOp32
 70
     1
102
RTVSPost2010Prop33
280
     0
102
RTVSPost2010PropOp33
 70
     1
102
RTVSPost2010Prop34
280
     0
102
RTVSPost2010PropOp34
 70
     1
102
RTVSPost2010Prop35
280
     0
102
RTVSPost2010PropOp35
 70
     1
102
RTVSPost2010Prop36
280
     0
102
RTVSPost2010PropOp36
 70
     1
102
RTVSPost2010Prop37
 90
       50
102
RTVSPost2010PropOp37
 70
     1
102
RTVSPost2010Prop38
140
0.0
102
RTVSPost2010PropOp38
 70
     1
102
RTVSPost2010Prop39
140
1.0
102
RTVSPost2010PropOp39
 70
     1
102
RTVSPost2010Prop40
 90
        0
102
RTVSPost2010PropOp40
 70
     1
102
RTVSPost2010Prop41ColorIndex
 90
       18
102
RTVSPost2010Prop41ColorRGB
 90
        0
102
RTVSPost2010PropOp41
 70
     1
102
RTVSPost2010Prop42
 90
       50
102
RTVSPost2010PropOp42
 70
     1
102
RTVSPost2010Prop43
 90
        3
102
RTVSPost2010PropOp43
 70
     1
102
RTVSPost2010Prop44ColorIndex
 90
        5
102
RTVSPost2010Prop44ColorRGB
 90
      255
102
RTVSPost2010PropOp44
 70
     1
102
RTVSPost2010Prop45
280
     0
102
RTVSPost2010PropOp45
 70
     1
102
RTVSPost2010Prop46
 90
       50
102
RTVSPost2010PropOp46
 70
     1
102
RTVSPost2010Prop47
 90
       50
102
RTVSPost2010PropOp47
 70
     1
102
RTVSPost2010Prop48
 90
       50
102
RTVSPost2010PropOp48
 70
     1
102
RTVSPost2010Prop49
280
     0
102
RTVSPost2010PropOp49
 70
     1
102
RTVSPost2010Prop50
 90
       50
102
RTVSPost2010PropOp50
 70
     1
102
RTVSPost2010Prop51ColorIndex
 90
      256
102
RTVSPost2010Prop51ColorRGB
 90
-16777216
102
RTVSPost2010PropOp51
 70
     0
102
RTVSPost2010Prop52
140
1.0
102
RTVSPost2010PropOp52
 70
     0
102
RTVSPost2010Prop53
 90
        2
102
RTVSPost2010PropOp53
 70
     1
102
RTVSPost2010Prop54
  1
strokes_ogs.tif
102
RTVSPost2010PropOp54
 70
     1
102
RTVSPost2010Prop55
280
     0
102
RTVSPost2010PropOp55
 70
     1
102
RTVSPost2010Prop56
140
1.0
102
RTVSPost2010PropOp56
 70
     1
102
RTVSPost2010Prop57
140
1.0
102
RTVSPost2010PropOp57
 70
     1
102
RTVSPropertyOp0
 70
     1
102
RTVSPropertyOp1
 70
     1
102
RTVSPropertyOp2
 70
     1
102
RTVSPropertyOp3
 70
     1
102
RTVSPropertyOp4
 70
     1
102
RTVSPropertyOp5
 70
     1
102
RTVSPropertyOp6
 70
     1
102
RTVSPropertyOp7
 70
     1
102
RTVSPropertyOp8
 70
     1
102
RTVSPropertyOp9
 70
     1
102
RTVSPropertyOp10
 70
     1
102
RTVSPropertyOp11
 70
     1
102
RTVSPropertyOp12
 70
     1
102
RTVSPropertyOp13
 70
     1
102
RTVSPropertyOp14
 70
     1
102
RTVSPropertyOp15
 70
     1
102
RTVSPropertyOp16
 70
     1
102
RTVSPropertyOp17
 70
     1
102
RTVSPropertyOp18
 70
     1
102
RTVSPropertyOp19
 70
     1
102
RTVSPropertyOp20
 70
     1
102
RTVSPropertyOp21
 70
     1
102
RTVSPropertyOp22
 70
     1
102
RTVSPropertyOp23
 70
     1
102
RTVSPropertyOp24
 70
     1
102
RTVSPropertyOp25
 70
     1
102
RTVSPropertyOp26
 70
     1
102
RTVSPropertyOp27
 70
     1
102
RTVSPropertyOp28
 70
     1
102
RTVSPropertyOp29
 70
     1
102
RTVSPropertyOp30
 70
     1
102
RTVSPropertyOp31
 70
     1
102
RTVSPropertyOp32
 70
     1
102
RTVSPropertyOp33
 70
     1
102
RTVSPropertyOp34
 70
     1
102
RTVSPropertyOp35
 70
     1
102
RTVSPropertyOp36
 70
     1
102
RTVSPropertyOp37
 70
     1
102
RTVSPropertyOp38
 70
     1
102
RTVSPropertyOp39
 70
     1
102
RTVSPropertyOp40
 70
     1
102
RTVSPropertyOp41
 70
     1
102
RTVSPropertyOp42
 70
     1
102
RTVSPropertyOp43
 70
     1
102
RTVSPropertyOp44
 70
     1
102
RTVSPropertyOp45
 70
     1
102
RTVSPropertyOp46
 70
     1
102
RTVSPropertyOp47
 70
     1
102
RTVSPropertyOp48
 70
     1
102
RTVSPropertyOp49
 70
     1
102
RTVSPropertyOp50
 70
     1
102
RTVSPropertyOp51
 70
     0
102
RTVSPropertyOp52
 70
     0
102
RTVSPropertyOp53
 70
     1
102
RTVSPropertyOp54
 70
     1
102
RTVSPropertyOp55
 70
     1
102
RTVSPropertyOp56
 70
     1
102
RTVSPropertyOp57
 70
     1
102
RTVSPropertyOp58
 70
     1
102
RTVSPropertyOp59
 70
     1
102
RTVSPropertyOp60
 70
     1
102
RTVSPropertyOp61
 70
     1
102
RTVSPropertyOp62
 70
     1
  0
XRECORD
  5
6AE
102
{ACAD_REACTORS
330
6AD
102
}
330
6AD
100
AcDbXrecord
280
     1
102
RTVSPost2010Prop28
280
     0
102
RTVSPost2010PropOp28
 70
     1
102
RTVSPost2010Prop29
280
     1
102
RTVSPost2010PropOp29
 70
     1
102
RTVSPost2010Prop30
280
     1
102
RTVSPost2010PropOp30
 70
     1
102
RTVSPost2010Prop31
280
     0
102
RTVSPost2010PropOp31
 70
     1
102
RTVSPost2010Prop32
280
     0
102
RTVSPost2010PropOp32
 70
     1
102
RTVSPost2010Prop33
280
     0
102
RTVSPost2010PropOp33
 70
     1
102
RTVSPost2010Prop34
280
     0
102
RTVSPost2010PropOp34
 70
     1
102
RTVSPost2010Prop35
280
     0
102
RTVSPost2010PropOp35
 70
     1
102
RTVSPost2010Prop36
280
     0
102
RTVSPost2010PropOp36
 70
     1
102
RTVSPost2010Prop37
 90
       50
102
RTVSPost2010PropOp37
 70
     1
102
RTVSPost2010Prop38
140
0.0
102
RTVSPost2010PropOp38
 70
     1
102
RTVSPost2010Prop39
140
1.0
102
RTVSPost2010PropOp39
 70
     1
102
RTVSPost2010Prop40
 90
        0
102
RTVSPost2010PropOp40
 70
     1
102
RTVSPost2010Prop41ColorIndex
 90
       18
102
RTVSPost2010Prop41ColorRGB
 90
        0
102
RTVSPost2010PropOp41
 70
     1
102
RTVSPost2010Prop42
 90
       50
102
RTVSPost2010PropOp42
 70
     1
102
RTVSPost2010Prop43
 90
        3
102
RTVSPost2010PropOp43
 70
     1
102
RTVSPost2010Prop44ColorIndex
 90
        5
102
RTVSPost2010Prop44ColorRGB
 90
      255
102
RTVSPost2010PropOp44
 70
     1
102
RTVSPost2010Prop45
280
     0
102
RTVSPost2010PropOp45
 70
     1
102
RTVSPost2010Prop46
 90
       50
102
RTVSPost2010PropOp46
 70
     1
102
RTVSPost2010Prop47
 90
       50
102
RTVSPost2010PropOp47
 70
     1
102
RTVSPost2010Prop48
 90
       50
102
RTVSPost2010PropOp48
 70
     1
102
RTVSPost2010Prop49
280
     0
102
RTVSPost2010PropOp49
 70
     1
102
RTVSPost2010Prop50
 90
       50
102
RTVSPost2010PropOp50
 70
     1
102
RTVSPost2010Prop51ColorIndex
 90
      256
102
RTVSPost2010Prop51ColorRGB
 90
-16777216
102
RTVSPost2010PropOp51
 70
     0
102
RTVSPost2010Prop52
140
1.0
102
RTVSPost2010PropOp52
 70
     0
102
RTVSPost2010Prop53
 90
        2
102
RTVSPost2010PropOp53
 70
     1
102
RTVSPost2010Prop54
  1
strokes_ogs.tif
102
RTVSPost2010PropOp54
 70
     1
102
RTVSPost2010Prop55
280
     0
102
RTVSPost2010PropOp55
 70
     1
102
RTVSPost2010Prop56
140
1.0
102
RTVSPost2010PropOp56
 70
     1
102
RTVSPost2010Prop57
140
1.0
102
RTVSPost2010PropOp57
 70
     1
102
RTVSPropertyOp0
 70
     1
102
RTVSPropertyOp1
 70
     1
102
RTVSPropertyOp2
 70
     1
102
RTVSPropertyOp3
 70
     1
102
RTVSPropertyOp4
 70
     1
102
RTVSPropertyOp5
 70
     1
102
RTVSPropertyOp6
 70
     1
102
RTVSPropertyOp7
 70
     1
102
RTVSPropertyOp8
 70
     1
102
RTVSPropertyOp9
 70
     1
102
RTVSPropertyOp10
 70
     1
102
RTVSPropertyOp11
 70
     1
102
RTVSPropertyOp12
 70
     1
102
RTVSPropertyOp13
 70
     1
102
RTVSPropertyOp14
 70
     1
102
RTVSPropertyOp15
 70
     1
102
RTVSPropertyOp16
 70
     1
102
RTVSPropertyOp17
 70
     1
102
RTVSPropertyOp18
 70
     1
102
RTVSPropertyOp19
 70
     1
102
RTVSPropertyOp20
 70
     1
102
RTVSPropertyOp21
 70
     1
102
RTVSPropertyOp22
 70
     1
102
RTVSPropertyOp23
 70
     1
102
RTVSPropertyOp24
 70
     1
102
RTVSPropertyOp25
 70
     1
102
RTVSPropertyOp26
 70
     1
102
RTVSPropertyOp27
 70
     1
102
RTVSPropertyOp28
 70
     1
102
RTVSPropertyOp29
 70
     1
102
RTVSPropertyOp30
 70
     1
102
RTVSPropertyOp31
 70
     1
102
RTVSPropertyOp32
 70
     1
102
RTVSPropertyOp33
 70
     1
102
RTVSPropertyOp34
 70
     1
102
RTVSPropertyOp35
 70
     1
102
RTVSPropertyOp36
 70
     1
102
RTVSPropertyOp37
 70
     1
102
RTVSPropertyOp38
 70
     1
102
RTVSPropertyOp39
 70
     1
102
RTVSPropertyOp40
 70
     1
102
RTVSPropertyOp41
 70
     1
102
RTVSPropertyOp42
 70
     1
102
RTVSPropertyOp43
 70
     1
102
RTVSPropertyOp44
 70
     1
102
RTVSPropertyOp45
 70
     1
102
RTVSPropertyOp46
 70
     1
102
RTVSPropertyOp47
 70
     1
102
RTVSPropertyOp48
 70
     1
102
RTVSPropertyOp49
 70
     1
102
RTVSPropertyOp50
 70
     1
102
RTVSPropertyOp51
 70
     0
102
RTVSPropertyOp52
 70
     0
102
RTVSPropertyOp53
 70
     1
102
RTVSPropertyOp54
 70
     1
102
RTVSPropertyOp55
 70
     1
102
RTVSPropertyOp56
 70
     1
102
RTVSPropertyOp57
 70
     1
102
RTVSPropertyOp58
 70
     1
102
RTVSPropertyOp59
 70
     1
102
RTVSPropertyOp60
 70
     1
102
RTVSPropertyOp61
 70
     1
102
RTVSPropertyOp62
 70
     1
  0
XRECORD
  5
6A2
102
{ACAD_REACTORS
330
6A1
102
}
330
6A1
100
AcDbXrecord
280
     1
102
RTVSPost2010Prop28
280
     0
102
RTVSPost2010PropOp28
 70
     1
102
RTVSPost2010Prop29
280
     1
102
RTVSPost2010PropOp29
 70
     1
102
RTVSPost2010Prop30
280
     1
102
RTVSPost2010PropOp30
 70
     1
102
RTVSPost2010Prop31
280
     0
102
RTVSPost2010PropOp31
 70
     1
102
RTVSPost2010Prop32
280
     0
102
RTVSPost2010PropOp32
 70
     1
102
RTVSPost2010Prop33
280
     0
102
RTVSPost2010PropOp33
 70
     1
102
RTVSPost2010Prop34
280
     0
102
RTVSPost2010PropOp34
 70
     1
102
RTVSPost2010Prop35
280
     0
102
RTVSPost2010PropOp35
 70
     1
102
RTVSPost2010Prop36
280
     0
102
RTVSPost2010PropOp36
 70
     1
102
RTVSPost2010Prop37
 90
       50
102
RTVSPost2010PropOp37
 70
     1
102
RTVSPost2010Prop38
140
0.0
102
RTVSPost2010PropOp38
 70
     1
102
RTVSPost2010Prop39
140
1.0
102
RTVSPost2010PropOp39
 70
     1
102
RTVSPost2010Prop40
 90
        0
102
RTVSPost2010PropOp40
 70
     1
102
RTVSPost2010Prop41ColorIndex
 90
       18
102
RTVSPost2010Prop41ColorRGB
 90
        0
102
RTVSPost2010PropOp41
 70
     1
102
RTVSPost2010Prop42
 90
       50
102
RTVSPost2010PropOp42
 70
     1
102
RTVSPost2010Prop43
 90
        3
102
RTVSPost2010PropOp43
 70
     1
102
RTVSPost2010Prop44ColorIndex
 90
        5
102
RTVSPost2010Prop44ColorRGB
 90
      255
102
RTVSPost2010PropOp44
 70
     1
102
RTVSPost2010Prop45
280
     0
102
RTVSPost2010PropOp45
 70
     1
102
RTVSPost2010Prop46
 90
       50
102
RTVSPost2010PropOp46
 70
     1
102
RTVSPost2010Prop47
 90
       50
102
RTVSPost2010PropOp47
 70
     1
102
RTVSPost2010Prop48
 90
       50
102
RTVSPost2010PropOp48
 70
     1
102
RTVSPost2010Prop49
280
     0
102
RTVSPost2010PropOp49
 70
     1
102
RTVSPost2010Prop50
 90
       50
102
RTVSPost2010PropOp50
 70
     1
102
RTVSPost2010Prop51ColorIndex
 90
      256
102
RTVSPost2010Prop51ColorRGB
 90
-16777216
102
RTVSPost2010PropOp51
 70
     0
102
RTVSPost2010Prop52
140
1.0
102
RTVSPost2010PropOp52
 70
     0
102
RTVSPost2010Prop53
 90
        2
102
RTVSPost2010PropOp53
 70
     1
102
RTVSPost2010Prop54
  1
strokes_ogs.tif
102
RTVSPost2010PropOp54
 70
     1
102
RTVSPost2010Prop55
280
     0
102
RTVSPost2010PropOp55
 70
     1
102
RTVSPost2010Prop56
140
1.0
102
RTVSPost2010PropOp56
 70
     1
102
RTVSPost2010Prop57
140
1.0
102
RTVSPost2010PropOp57
 70
     1
102
RTVSPropertyOp0
 70
     1
102
RTVSPropertyOp1
 70
     1
102
RTVSPropertyOp2
 70
     1
102
RTVSPropertyOp3
 70
     1
102
RTVSPropertyOp4
 70
     1
102
RTVSPropertyOp5
 70
     1
102
RTVSPropertyOp6
 70
     1
102
RTVSPropertyOp7
 70
     1
102
RTVSPropertyOp8
 70
     1
102
RTVSPropertyOp9
 70
     1
102
RTVSPropertyOp10
 70
     1
102
RTVSPropertyOp11
 70
     1
102
RTVSPropertyOp12
 70
     1
102
RTVSPropertyOp13
 70
     1
102
RTVSPropertyOp14
 70
     1
102
RTVSPropertyOp15
 70
     1
102
RTVSPropertyOp16
 70
     1
102
RTVSPropertyOp17
 70
     1
102
RTVSPropertyOp18
 70
     1
102
RTVSPropertyOp19
 70
     1
102
RTVSPropertyOp20
 70
     1
102
RTVSPropertyOp21
 70
     1
102
RTVSPropertyOp22
 70
     1
102
RTVSPropertyOp23
 70
     1
102
RTVSPropertyOp24
 70
     1
102
RTVSPropertyOp25
 70
     1
102
RTVSPropertyOp26
 70
     1
102
RTVSPropertyOp27
 70
     1
102
RTVSPropertyOp28
 70
     1
102
RTVSPropertyOp29
 70
     1
102
RTVSPropertyOp30
 70
     1
102
RTVSPropertyOp31
 70
     1
102
RTVSPropertyOp32
 70
     1
102
RTVSPropertyOp33
 70
     1
102
RTVSPropertyOp34
 70
     1
102
RTVSPropertyOp35
 70
     1
102
RTVSPropertyOp36
 70
     1
102
RTVSPropertyOp37
 70
     1
102
RTVSPropertyOp38
 70
     1
102
RTVSPropertyOp39
 70
     1
102
RTVSPropertyOp40
 70
     1
102
RTVSPropertyOp41
 70
     1
102
RTVSPropertyOp42
 70
     1
102
RTVSPropertyOp43
 70
     1
102
RTVSPropertyOp44
 70
     1
102
RTVSPropertyOp45
 70
     1
102
RTVSPropertyOp46
 70
     1
102
RTVSPropertyOp47
 70
     1
102
RTVSPropertyOp48
 70
     1
102
RTVSPropertyOp49
 70
     1
102
RTVSPropertyOp50
 70
     1
102
RTVSPropertyOp51
 70
     0
102
RTVSPropertyOp52
 70
     0
102
RTVSPropertyOp53
 70
     1
102
RTVSPropertyOp54
 70
     1
102
RTVSPropertyOp55
 70
     1
102
RTVSPropertyOp56
 70
     1
102
RTVSPropertyOp57
 70
     1
102
RTVSPropertyOp58
 70
     1
102
RTVSPropertyOp59
 70
     1
102
RTVSPropertyOp60
 70
     1
102
RTVSPropertyOp61
 70
     1
102
RTVSPropertyOp62
 70
     1
  0
XRECORD
  5
6BA
102
{ACAD_REACTORS
330
6B9
102
}
330
6B9
100
AcDbXrecord
280
     1
102
RTVSPost2010Prop28
280
     0
102
RTVSPost2010PropOp28
 70
     1
102
RTVSPost2010Prop29
280
     1
102
RTVSPost2010PropOp29
 70
     1
102
RTVSPost2010Prop30
280
     1
102
RTVSPost2010PropOp30
 70
     1
102
RTVSPost2010Prop31
280
     0
102
RTVSPost2010PropOp31
 70
     1
102
RTVSPost2010Prop32
280
     0
102
RTVSPost2010PropOp32
 70
     1
102
RTVSPost2010Prop33
280
     0
102
RTVSPost2010PropOp33
 70
     1
102
RTVSPost2010Prop34
280
     0
102
RTVSPost2010PropOp34
 70
     1
102
RTVSPost2010Prop35
280
     0
102
RTVSPost2010PropOp35
 70
     1
102
RTVSPost2010Prop36
280
     0
102
RTVSPost2010PropOp36
 70
     1
102
RTVSPost2010Prop37
 90
       50
102
RTVSPost2010PropOp37
 70
     1
102
RTVSPost2010Prop38
140
0.0
102
RTVSPost2010PropOp38
 70
     1
102
RTVSPost2010Prop39
140
1.0
102
RTVSPost2010PropOp39
 70
     1
102
RTVSPost2010Prop40
 90
        0
102
RTVSPost2010PropOp40
 70
     1
102
RTVSPost2010Prop41ColorIndex
 90
       18
102
RTVSPost2010Prop41ColorRGB
 90
        0
102
RTVSPost2010PropOp41
 70
     1
102
RTVSPost2010Prop42
 90
       50
102
RTVSPost2010PropOp42
 70
     1
102
RTVSPost2010Prop43
 90
        3
102
RTVSPost2010PropOp43
 70
     1
102
RTVSPost2010Prop44ColorIndex
 90
        5
102
RTVSPost2010Prop44ColorRGB
 90
      255
102
RTVSPost2010PropOp44
 70
     1
102
RTVSPost2010Prop45
280
     0
102
RTVSPost2010PropOp45
 70
     1
102
RTVSPost2010Prop46
 90
       50
102
RTVSPost2010PropOp46
 70
     1
102
RTVSPost2010Prop47
 90
       50
102
RTVSPost2010PropOp47
 70
     1
102
RTVSPost2010Prop48
 90
       50
102
RTVSPost2010PropOp48
 70
     1
102
RTVSPost2010Prop49
280
     0
102
RTVSPost2010PropOp49
 70
     1
102
RTVSPost2010Prop50
 90
       50
102
RTVSPost2010PropOp50
 70
     1
102
RTVSPost2010Prop51ColorIndex
 90
      256
102
RTVSPost2010Prop51ColorRGB
 90
-16777216
102
RTVSPost2010PropOp51
 70
     0
102
RTVSPost2010Prop52
140
1.0
102
RTVSPost2010PropOp52
 70
     0
102
RTVSPost2010Prop53
 90
        2
102
RTVSPost2010PropOp53
 70
     1
102
RTVSPost2010Prop54
  1
strokes_ogs.tif
102
RTVSPost2010PropOp54
 70
     1
102
RTVSPost2010Prop55
280
     0
102
RTVSPost2010PropOp55
 70
     1
102
RTVSPost2010Prop56
140
1.0
102
RTVSPost2010PropOp56
 70
     1
102
RTVSPost2010Prop57
140
1.0
102
RTVSPost2010PropOp57
 70
     1
102
RTVSPropertyOp0
 70
     1
102
RTVSPropertyOp1
 70
     1
102
RTVSPropertyOp2
 70
     1
102
RTVSPropertyOp3
 70
     1
102
RTVSPropertyOp4
 70
     1
102
RTVSPropertyOp5
 70
     1
102
RTVSPropertyOp6
 70
     1
102
RTVSPropertyOp7
 70
     1
102
RTVSPropertyOp8
 70
     1
102
RTVSPropertyOp9
 70
     1
102
RTVSPropertyOp10
 70
     1
102
RTVSPropertyOp11
 70
     1
102
RTVSPropertyOp12
 70
     1
102
RTVSPropertyOp13
 70
     1
102
RTVSPropertyOp14
 70
     1
102
RTVSPropertyOp15
 70
     1
102
RTVSPropertyOp16
 70
     1
102
RTVSPropertyOp17
 70
     1
102
RTVSPropertyOp18
 70
     1
102
RTVSPropertyOp19
 70
     1
102
RTVSPropertyOp20
 70
     1
102
RTVSPropertyOp21
 70
     1
102
RTVSPropertyOp22
 70
     1
102
RTVSPropertyOp23
 70
     1
102
RTVSPropertyOp24
 70
     1
102
RTVSPropertyOp25
 70
     1
102
RTVSPropertyOp26
 70
     1
102
RTVSPropertyOp27
 70
     1
102
RTVSPropertyOp28
 70
     1
102
RTVSPropertyOp29
 70
     1
102
RTVSPropertyOp30
 70
     1
102
RTVSPropertyOp31
 70
     1
102
RTVSPropertyOp32
 70
     1
102
RTVSPropertyOp33
 70
     1
102
RTVSPropertyOp34
 70
     1
102
RTVSPropertyOp35
 70
     1
102
RTVSPropertyOp36
 70
     1
102
RTVSPropertyOp37
 70
     1
102
RTVSPropertyOp38
 70
     1
102
RTVSPropertyOp39
 70
     1
102
RTVSPropertyOp40
 70
     1
102
RTVSPropertyOp41
 70
     1
102
RTVSPropertyOp42
 70
     1
102
RTVSPropertyOp43
 70
     1
102
RTVSPropertyOp44
 70
     1
102
RTVSPropertyOp45
 70
     1
102
RTVSPropertyOp46
 70
     1
102
RTVSPropertyOp47
 70
     1
102
RTVSPropertyOp48
 70
     1
102
RTVSPropertyOp49
 70
     1
102
RTVSPropertyOp50
 70
     1
102
RTVSPropertyOp51
 70
     0
102
RTVSPropertyOp52
 70
     0
102
RTVSPropertyOp53
 70
     1
102
RTVSPropertyOp54
 70
     1
102
RTVSPropertyOp55
 70
     1
102
RTVSPropertyOp56
 70
     1
102
RTVSPropertyOp57
 70
     1
102
RTVSPropertyOp58
 70
     1
102
RTVSPropertyOp59
 70
     1
102
RTVSPropertyOp60
 70
     1
102
RTVSPropertyOp61
 70
     1
102
RTVSPropertyOp62
 70
     1
  0
ENDSEC
  0
EOF
